  0
SECTION
  2
HEADER
  9
$ACADVER
  1
AC1009
  9
$INSBASE
 10
0
 20
0
 30
0
  9
$EXTMIN
 10
0
 20
0
  9
$EXTMAX
 10
420.5
 20
297
  9
$LIMMIN
 10
0
 20
0
  9
$LIMMAX
 10
420.5
 20
297
  9
$LTSCALE
 40
0.5
  0
ENDSEC
  0
SECTION
  2
TABLES
  0
TABLE
  2
LTYPE
 70
     9
  0
LTYPE
  2
CONTINUOUS
 70
    64
  3
実線
 72
    65
 73
     0
 40
0.0
  0
LTYPE
  2
DASHED1
 70
    64
  3
--  --  --  --  --  --  --  --  
 72
    65
 73
     2
 40
2.5
 49
1.25
 49
-1.25
  0
LTYPE
  2
DASHED2
 70
    64
  3
----    ----    ----    ----    
 72
    65
 73
     2
 40
5.0
 49
2.5
 49
-2.5
  0
LTYPE
  2
DASHED3
 70
    64
  3
------  ------  ------  ------  
 72
    65
 73
     2
 40
5.0
 49
3.75
 49
-1.25
  0
LTYPE
  2
CENTER1
 70
    64
  3
----- - ----- - ----- - ----- - 
 72
    65
 73
     4
 40
10.0
 49
6.25
 49
-1.25
 49
1.25
 49
-1.25
  0
LTYPE
  2
CENTER2
 70
    64
  3
----------  --  ----------  --  
 72
    65
 73
     4
 40
20.0
 49
12.5
 49
-2.5
 49
2.5
 49
-2.5
  0
LTYPE
  2
PHANTOM1
 70
    64
  3
--- - - --- - - --- - - --- - - 
 72
    65
 73
     6
 40
10.0
 49
3.25
 49
-1.25
 49
1.25
 49
-1.25
 49
1.25
 49
-1.25
  0
LTYPE
  2
PHANTOM2
 70
    64
  3
--------  -  -  --------  -  -  
 72
    65
 73
     6
 40
20.0
 49
10.0
 49
-2.5
 49
1.25
 49
-2.5
 49
1.25
 49
-2.5
  0
LTYPE
  2
DOT
 70
    64
  3
-   -   -   -   -   -   -   -   
 72
    65
 73
     2
 40
2.5
 49
0.625
 49
-1.875
  0
LTYPE
  2
DUMMY
 70
    64
  3
ダミー
 72
    65
 73
     0
 40
0.0
  0
LTYPE
  2
RAND1
 70
    64
  3
ランダム線1
 72
    65
 73
     4
 40
10.0
 49
1.0
 49
-2.0
 49
3.0
 49
-4.0
  0
LTYPE
  2
RAND2
 70
    64
  3
ランダム線2
 72
    65
 73
     4
 40
14.0
 49
2.0
 49
-3.0
 49
4.0
 49
-5.0
  0
LTYPE
  2
RAND3
 70
    64
  3
ランダム線3
 72
    65
 73
     4
 40
18.0
 49
3.0
 49
-4.0
 49
5.0
 49
-6.0
  0
LTYPE
  2
RAND4
 70
    64
  3
ランダム線4
 72
    65
 73
     4
 40
22.0
 49
4.0
 49
-5.0
 49
6.0
 49
-7.0
  0
LTYPE
  2
RAND5
 70
    64
  3
ランダム線5
 72
    65
 73
     4
 40
26.0
 49
5.0
 49
-6.0
 49
7.0
 49
-8.0
  0
LTYPE
  2
LONG1
 70
    64
  3
----------  --  ----------  --  
 72
    65
 73
     4
 40
40.0
 49
32.5
 49
-2.5
 49
2.5
 49
-2.5
  0
LTYPE
  2
LONG2
 70
    64
  3
--------  -  -  --------  -  -  
 72
    65
 73
     6
 40
40.0
 49
30.0
 49
-2.5
 49
1.25
 49
-2.5
 49
1.25
 49
-2.5
  0
LTYPE
  2
LONG3
 70
    64
  3
+++++++++++++++..+++++++++++++++
 72
    65
 73
     2
 40
40.0
 49
37.5
 49
-2.5
  0
LTYPE
  2
LONG4
 70
    64
  3
+++++++++++++++..+++++++++++++++
 72
    65
 73
     2
 40
80.0
 49
75.0
 49
-5.0
  0
LTYPE
  2
LONG5
 70
    64
  3
----------  --  ----------  --  
 72
    65
 73
     4
 40
60.0
 49
37.5
 49
-7.5
 49
7.5
 49
-7.5
  0
LTYPE
  2
dashed
 70
   64
  3
-------   -------------   ------
 72
   65
 73
    2
 40
7.5
 49
6
 49
-1.5
  0
LTYPE
  2
dashed_spaced
 70
   64
  3
----        --------        ----
 72
   65
 73
    2
 40
12
 49
6
 49
-6
  0
LTYPE
  2
long_dashed_dotted
 70
   64
  3
------------- --- --------------
 72
   65
 73
    4
 40
15.25
 49
12
 49
-1.5
 49
0.25
 49
-1.5
  0
LTYPE
  2
long_dashed_double-dotted
 70
   64
  3
----------- --- --- ------------
 72
   65
 73
    6
 40
17
 49
12
 49
-1.5
 49
0.25
 49
-1.5
 49
0.25
 49
-1.5
  0
LTYPE
  2
long_dashed_triplicate-dotted
 70
   64
  3
--------- --- --- --- ----------
 72
   65
 73
    8
 40
18.75
 49
12
 49
-1.5
 49
0.25
 49
-1.5
 49
0.25
 49
-1.5
 49
0.25
 49
-1.5
  0
LTYPE
  2
dotted
 70
   64
  3
   -       -       -       -    
 72
   65
 73
    2
 40
1.75
 49
0.25
 49
-1.5
  0
LTYPE
  2
chain
 70
   64
  3
-------------- -- --------------
 72
   65
 73
    4
 40
18.5
 49
12
 49
-1.5
 49
3.5
 49
-1.5
  0
LTYPE
  2
chain_double_dash
 70
   64
  3
------------ -- -- -------------
 72
   65
 73
    6
 40
23.5
 49
12
 49
-1.5
 49
3.5
 49
-1.5
 49
3.5
 49
-1.5
  0
LTYPE
  2
dashed_dotted
 70
   64
  3
-----------     -     ----------
 72
   65
 73
    4
 40
9.25
 49
6
 49
-1.5
 49
0.25
 49
-1.5
  0
LTYPE
  2
double-dashed_dotted
 70
   64
  3
------   -----------   -   -----
 72
   65
 73
    6
 40
16.75
 49
6
 49
-1.5
 49
6
 49
-1.5
 49
0.25
 49
-1.5
  0
LTYPE
  2
dashed_double-dotted
 70
   64
  3
---------    -    -    ---------
 72
   65
 73
    6
 40
11
 49
6
 49
-1.5
 49
0.25
 49
-1.5
 49
0.25
 49
-1.5
  0
LTYPE
  2
double-dashed_double-dotted
 70
   64
  3
-----   ---------   -   -   ----
 72
   65
 73
    8
 40
18.5
 49
6
 49
-1.5
 49
6
 49
-1.5
 49
0.25
 49
-1.5
 49
0.25
 49
-1.5
  0
LTYPE
  2
dashed_triplicate-dotted
 70
   64
  3
-------    -    -    -    ------
 72
   65
 73
    8
 40
12.75
 49
6
 49
-1.5
 49
0.25
 49
-1.5
 49
0.25
 49
-1.5
 49
0.25
 49
-1.5
  0
LTYPE
  2
double-dashed_triplicate-dotted
 70
   64
  3
-----  ---------  -  -  -  -----
 72
   65
 73
   10
 40
20.25
 49
6
 49
-1.5
 49
6
 49
-1.5
 49
0.25
 49
-1.5
 49
0.25
 49
-1.5
 49
0.25
 49
-1.5
  0
LTYPE
  2
undefined
 70
   64
  3
--------------------------------
 72
   65
 73
    0
 40
0
  0
ENDTAB
  0
TABLE
  2
STYLE
  5
3
100
AcDbSymbolTable
 70
     1
  0
STYLE
  5
10
100
AcDbSymbolTableRecord
100
AcDbTextStyleTableRecord
  2
STANDARD
 70
     0
 40
0.0
 41
1.0
 50
0.0
 71
     0
 42
0.2
  3
txt
  4
bigfont.shx
  0
STYLE
  5
26
100
AcDbSymbolTableRecord
100
AcDbTextStyleTableRecord
  2
TATEGAKI
 70
    68
 40
0.0
 41
1.0
 50
0.0
 71
     0
 42
1.0
  3
txt
  4
bigfont.shx
  0
ENDTAB
  0
TABLE
  2
LAYER
 70
    2
  0
LAYER
  2
_0-0_0
 70
   64
 62
    7
  6
CONTINUOUS
  0
LAYER
  2
ADD_LINE
 70
   64
 62
    7
  6
CONTINUOUS
  0
ENDTAB
  0
ENDSEC
  0
SECTION
  2
BLOCKS
  0
ENDSEC
  0
SECTION
  2
ENTITIES
  0
POINT
  8
_0-0_0
 62
    7
 10
85.002487000000002
 20
223.77499399999999
  0
LINE
  8
_0-0_0
  6
CONTINUOUS
 62
    7
 10
-21.997523999999999
 20
264.77548200000001
 11
-21.997523999999999
 21
264.77450600000003
  0
LINE
  8
_0-0_0
  6
CONTINUOUS
 62
    7
 10
4.5024719999999832
 20
230.42999300000002
 11
4.5024719999999832
 21
232.67498799999998
  0
LINE
  8
_0-0_0
  6
CONTINUOUS
 62
    7
 10
4.5024719999999832
 20
232.67498799999998
 11
4.5024719999999832
 21
234.67498799999998
  0
LINE
  8
_0-0_0
  6
CONTINUOUS
 62
    7
 10
4.5024719999999832
 20
234.67498799999998
 11
4.5024719999999832
 21
235.17498799999998
  0
LINE
  8
_0-0_0
  6
CONTINUOUS
 62
    7
 10
4.5024719999999832
 20
235.17498799999998
 11
4.5024719999999832
 21
236.17498799999998
  0
LINE
  8
_0-0_0
  6
CONTINUOUS
 62
    7
 10
4.5024719999999832
 20
212.07498200000003
 11
4.5024719999999832
 21
230.42999300000002
  0
LINE
  8
_0-0_0
  6
CONTINUOUS
 62
    7
 10
101.002487
 20
234.17498799999998
 11
101.002487
 21
234.67498799999998
  0
LINE
  8
_0-0_0
  6
CONTINUOUS
 62
    7
 10
101.002487
 20
235.17498799999998
 11
101.002487
 21
236.17498799999998
  0
LINE
  8
_0-0_0
  6
CONTINUOUS
 62
    7
 10
101.002487
 20
234.67498799999998
 11
101.002487
 21
235.17498799999998
  0
ARC
  8
_0-0_0
  6
CONTINUOUS
 62
    7
 10
87.002487000000002
 20
230.42999300000002
 40
0.5
 50
0
 51
123.74898500000002
  0
ARC
  8
_0-0_0
  6
CONTINUOUS
 62
    7
 10
85.502487000000002
 20
232.67498799999998
 40
2.2000000000000002
 50
180.00000900000003
 51
303.74900400000001
  0
LINE
  8
_0-0_0
  6
CONTINUOUS
 62
    7
 10
83.302489999999977
 20
232.67498799999998
 11
83.302489999999977
 21
234.17498799999998
  0
LINE
  8
_0-0_0
  6
CONTINUOUS
 62
    7
 10
8.7024690000000078
 20
234.17498799999998
 11
83.302489999999977
 21
234.17498799999998
  0
LINE
  8
_0-0_0
  6
CONTINUOUS
 62
    7
 10
8.7024690000000078
 20
234.17498799999998
 11
8.7024690000000078
 21
232.67498799999998
  0
ARC
  8
_0-0_0
  6
CONTINUOUS
 62
    7
 10
6.5024719999999832
 20
232.67498799999998
 40
2.2000000000000002
 50
236.25102899999999
 51
0
  0
ARC
  8
_0-0_0
  6
CONTINUOUS
 62
    7
 10
5.0024719999999832
 20
230.42999300000002
 40
0.5
 50
56.251010000000008
 51
180.00000900000001
  0
ARC
  8
_0-0_0
  6
CONTINUOUS
 62
    7
 10
6.5024719999999832
 20
212.07498200000003
 40
2
 50
180.00000900000003
 51
269.99999700000001
  0
LINE
  8
_0-0_0
  6
CONTINUOUS
 62
    7
 10
6.5024719999999832
 20
210.07498200000003
 11
7.5024719999999832
 21
210.07498200000003
  0
LINE
  8
_0-0_0
  6
CONTINUOUS
 62
    7
 10
7.5024719999999832
 20
210.07498200000003
 11
7.5024719999999832
 21
211.67498799999998
  0
ARC
  8
_0-0_0
  6
CONTINUOUS
 62
    7
 10
8.0024719999999832
 20
211.67498799999998
 40
0.5
 50
90.000003000000007
 51
180.00000900000001
  0
LINE
  8
_0-0_0
  6
CONTINUOUS
 62
    7
 10
8.2024690000000078
 20
212.17498799999998
 11
8.0024719999999832
 21
212.17498799999998
  0
ARC
  8
_0-0_0
  6
CONTINUOUS
 62
    7
 10
8.2024690000000078
 20
211.67498799999998
 40
0.5
 50
90.000003000000007
 51
180.00000900000001
  0
LINE
  8
_0-0_0
  6
CONTINUOUS
 62
    7
 10
7.7024690000000078
 20
210.17498799999998
 11
7.7024690000000078
 21
211.67498799999998
  0
LINE
  8
_0-0_0
  6
CONTINUOUS
 62
    7
 10
77.302489999999977
 20
210.17498799999998
 11
7.7024690000000078
 21
210.17498799999998
  0
LINE
  8
_0-0_0
  6
CONTINUOUS
 62
    7
 10
77.302489999999977
 20
210.17498799999998
 11
77.302489999999977
 21
211.67498799999998
  0
ARC
  8
_0-0_0
  6
CONTINUOUS
 62
    7
 10
76.802489999999977
 20
211.67498799999998
 40
0.5
 50
0
 51
90.000003000000007
  0
LINE
  8
_0-0_0
  6
CONTINUOUS
 62
    7
 10
77.002487000000002
 20
212.17498799999998
 11
76.802489999999977
 21
212.17498799999998
  0
ARC
  8
_0-0_0
  6
CONTINUOUS
 62
    7
 10
77.002487000000002
 20
211.67498799999998
 40
0.5
 50
0
 51
90.000003000000007
  0
LINE
  8
_0-0_0
  6
CONTINUOUS
 62
    7
 10
77.502487000000002
 20
211.67498799999998
 11
77.502487000000002
 21
210.07498200000003
  0
LINE
  8
_0-0_0
  6
CONTINUOUS
 62
    7
 10
77.502487000000002
 20
210.07498200000003
 11
87.502487000000002
 21
210.07498200000003
  0
LINE
  8
_0-0_0
  6
CONTINUOUS
 62
    7
 10
87.502487000000002
 20
210.07498200000003
 11
87.502487000000002
 21
210.97500600000001
  0
LINE
  8
_0-0_0
  6
CONTINUOUS
 62
    7
 10
23.502471999999983
 20
213.579071
 11
64.902480999999995
 21
213.579071
  0
LINE
  8
_0-0_0
  6
CONTINUOUS
 62
    7
 10
23.502471999999983
 20
233.17498799999998
 11
64.902480999999995
 21
233.17498799999998
  0
ARC
  8
_0-0_0
  6
CONTINUOUS
 62
    7
 10
76.202483999999998
 20
212.375
 40
0.2
 50
180.00000900000003
 51
269.99999700000001
  0
LINE
  8
_0-0_0
  6
CONTINUOUS
 62
    7
 10
76.202483999999998
 20
212.17498799999998
 11
8.8024749999999869
 21
212.17498799999998
  0
ARC
  8
_0-0_0
  6
CONTINUOUS
 62
    7
 10
8.8024749999999869
 20
212.375
 40
0.2
 50
269.99999700000001
 51
0
  0
ARC
  8
_0-0_0
  6
CONTINUOUS
 62
    7
 10
9.2024690000000078
 20
212.375
 40
0.2
 50
90.000003000000007
 51
180.00000900000001
  0
LINE
  8
_0-0_0
  6
CONTINUOUS
 62
    7
 10
9.2024690000000078
 20
212.57498200000003
 11
75.802489999999977
 21
212.57498200000003
  0
ARC
  8
_0-0_0
  6
CONTINUOUS
 62
    7
 10
75.802489999999977
 20
212.375
 40
0.2
 50
0
 51
90.000003000000007
  0
LINE
  8
_0-0_0
  6
CONTINUOUS
 62
    7
 10
4.5024719999999832
 20
235.17498799999998
 11
101.002487
 21
235.17498799999998
  0
LINE
  8
_0-0_0
  6
CONTINUOUS
 62
    7
 10
100.502487
 20
234.17498799999998
 11
101.002487
 21
234.17498799999998
  0
LINE
  8
_0-0_0
  6
CONTINUOUS
 62
    7
 10
87.502487000000002
 20
212.17498799999998
 11
87.502487000000002
 21
210.97500600000001
  0
LINE
  8
_0-0_0
  6
CONTINUOUS
 62
    7
 10
87.502487000000002
 20
212.17498799999998
 11
87.502487000000002
 21
229.77499399999999
  0
LINE
  8
_0-0_0
  6
CONTINUOUS
 62
    7
 10
87.502487000000002
 20
231.75238000000002
 11
87.502487000000002
 21
229.77499399999999
  0
LINE
  8
_0-0_0
  6
CONTINUOUS
 62
    7
 10
6.5024719999999832
 20
218.66467299999999
 11
6.5024719999999832
 21
229.11270200000001
  0
ARC
  8
_0-0_0
  6
CONTINUOUS
 62
    7
 10
6.5024719999999832
 20
232.67498799999998
 40
2.7000000000000002
 50
285.68033600000007
 51
352.23356600000005
  0
LINE
  8
_0-0_0
  6
CONTINUOUS
 62
    7
 10
83.502487000000002
 20
230.17498799999998
 11
83.502487000000002
 21
216.57498200000003
  0
LINE
  8
_0-0_0
  6
CONTINUOUS
 62
    7
 10
8.5024719999999832
 20
234.17498799999998
 11
8.7024690000000078
 21
234.17498799999998
  0
LINE
  8
_0-0_0
  6
CONTINUOUS
 62
    7
 10
8.5024719999999832
 20
234.17498799999998
 11
8.5024719999999832
 21
232.67498799999998
  0
ARC
  8
_0-0_0
  6
CONTINUOUS
 62
    7
 10
6.5024719999999832
 20
232.67498799999998
 40
2
 50
180.00000900000003
 51
0.0000000000000254
  0
LINE
  8
_0-0_0
  6
CONTINUOUS
 62
    7
 10
100.502487
 20
234.17498799999998
 11
100.502487
 21
232.47500600000001
  0
LINE
  8
_0-0_0
  6
CONTINUOUS
 62
    7
 10
87.502487000000002
 20
210.17498799999998
 11
99.502487000000002
 21
210.17498799999998
  0
LINE
  8
_0-0_0
  6
CONTINUOUS
 62
    7
 10
99.502487000000002
 20
210.17498799999998
 11
104.177933
 21
210.17498799999998
  0
LINE
  8
_0-0_0
  6
CONTINUOUS
 62
    7
 10
99.502487000000002
 20
215.67498799999998
 11
99.502487000000002
 21
212.67498799999998
  0
LINE
  8
_0-0_0
  6
CONTINUOUS
 62
    7
 10
99.502487000000002
 20
212.67498799999998
 11
99.502487000000002
 21
212.17498799999998
  0
LINE
  8
_0-0_0
  6
CONTINUOUS
 62
    7
 10
99.502487000000002
 20
215.67498799999998
 11
99.502487000000002
 21
216.17498799999998
  0
ARC
  8
_0-0_0
  6
CONTINUOUS
 62
    7
 10
93.502471999999983
 20
215.47500600000001
 40
0.500016
 50
180.00117
 51
359.995611
  0
LINE
  8
_0-0_0
  6
CONTINUOUS
 62
    7
 10
94.002487000000002
 20
215.47500600000001
 11
94.002487000000002
 21
227.47500600000001
  0
ARC
  8
_0-0_0
  6
CONTINUOUS
 62
    7
 10
93.502471999999983
 20
227.47497600000003
 40
0.500016
 50
0.001164
 51
179.99560600000004
  0
LINE
  8
_0-0_0
  6
CONTINUOUS
 62
    7
 10
93.002487000000002
 20
215.47500600000001
 11
93.002487000000002
 21
227.47500600000001
  0
ARC
  8
_0-0_0
  6
CONTINUOUS
 62
    7
 10
95.002471999999983
 20
215.47500600000001
 40
0.500016
 50
180.00117
 51
359.995611
  0
LINE
  8
_0-0_0
  6
CONTINUOUS
 62
    7
 10
95.502487000000002
 20
215.47500600000001
 11
95.502487000000002
 21
227.47500600000001
  0
ARC
  8
_0-0_0
  6
CONTINUOUS
 62
    7
 10
95.002471999999983
 20
227.47497600000003
 40
0.500016
 50
0.001164
 51
179.99560600000004
  0
LINE
  8
_0-0_0
  6
CONTINUOUS
 62
    7
 10
94.502487000000002
 20
215.47500600000001
 11
94.502487000000002
 21
227.47500600000001
  0
ARC
  8
_0-0_0
  6
CONTINUOUS
 62
    7
 10
96.502471999999983
 20
215.47500600000001
 40
0.500016
 50
180.00117
 51
359.995611
  0
LINE
  8
_0-0_0
  6
CONTINUOUS
 62
    7
 10
97.002487000000002
 20
215.47500600000001
 11
97.002487000000002
 21
227.47500600000001
  0
ARC
  8
_0-0_0
  6
CONTINUOUS
 62
    7
 10
96.502471999999983
 20
227.47497600000003
 40
0.500016
 50
0.001164
 51
179.99560600000004
  0
LINE
  8
_0-0_0
  6
CONTINUOUS
 62
    7
 10
96.002487000000002
 20
215.47500600000001
 11
96.002487000000002
 21
227.47500600000001
  0
ARC
  8
_0-0_0
  6
CONTINUOUS
 62
    7
 10
98.002471999999983
 20
215.47500600000001
 40
0.500016
 50
180.00117
 51
359.995611
  0
LINE
  8
_0-0_0
  6
CONTINUOUS
 62
    7
 10
98.502487000000002
 20
215.47500600000001
 11
98.502487000000002
 21
227.47500600000001
  0
ARC
  8
_0-0_0
  6
CONTINUOUS
 62
    7
 10
98.002471999999983
 20
227.47497600000003
 40
0.500016
 50
0.001164
 51
179.99560600000004
  0
LINE
  8
_0-0_0
  6
CONTINUOUS
 62
    7
 10
97.502487000000002
 20
215.47500600000001
 11
97.502487000000002
 21
227.47500600000001
  0
LINE
  8
_0-0_0
  6
CONTINUOUS
 62
    7
 10
87.502487000000002
 20
232.47500600000001
 11
87.502487000000002
 21
231.75238000000002
  0
LINE
  8
_0-0_0
  6
CONTINUOUS
 62
    7
 10
100.502487
 20
232.47500600000001
 11
87.502487000000002
 21
232.47500600000001
  0
LINE
  8
_0-0_0
  6
CONTINUOUS
 62
    7
 10
87.502487000000002
 20
234.17498799999998
 11
100.502487
 21
234.17498799999998
  0
LINE
  8
_0-0_0
  6
CONTINUOUS
 62
    7
 10
87.502487000000002
 20
234.17498799999998
 11
87.502487000000002
 21
232.47500600000001
  0
LINE
  8
_0-0_0
  6
CONTINUOUS
 62
    7
 10
76.952483999999998
 20
212.15197799999999
 11
76.952483999999998
 21
212.17498799999998
  0
ARC
  8
_0-0_0
  6
CONTINUOUS
 62
    7
 10
104.177933
 20
212.17498799999998
 40
2
 50
269.99999700000001
 51
288.43501300000003
  0
LINE
  8
_0-0_0
  6
CONTINUOUS
 62
    7
 10
83.302489999999977
 20
234.17498799999998
 11
83.502487000000002
 21
234.17498799999998
  0
ARC
  8
_0-0_0
  6
CONTINUOUS
 62
    7
 10
85.502487000000002
 20
232.67498799999998
 40
2
 50
180.00000900000003
 51
0.0000000000000254
  0
LINE
  8
_0-0_0
  6
CONTINUOUS
 62
    7
 10
83.502487000000002
 20
232.67498799999998
 11
83.502487000000002
 21
234.17498799999998
  0
LINE
  8
_0-0_0
  6
CONTINUOUS
 62
    7
 10
105.25247199999998
 20
210.42498799999998
 11
104.81037899999998
 21
210.27761900000002
  0
ARC
  8
_0-0_0
  6
CONTINUOUS
 62
    7
 10
74.502487000000002
 20
225.77499399999999
 40
2.25
 50
269.99999700000001
 51
90.000002999999992
  0
LINE
  8
_0-0_0
  6
CONTINUOUS
 62
    7
 10
70.502471999999983
 20
223.52499399999999
 11
74.502487000000002
 21
223.52499399999999
  0
ARC
  8
_0-0_0
  6
CONTINUOUS
 62
    7
 10
70.502471999999983
 20
225.77499399999999
 40
2.25
 50
90.000003000000007
 51
269.99999700000006
  0
ARC
  8
_0-0_0
  6
CONTINUOUS
 62
    7
 10
18.502471999999983
 20
225.77499399999999
 40
2.25
 50
269.99999700000001
 51
90.000002999999992
  0
LINE
  8
_0-0_0
  6
CONTINUOUS
 62
    7
 10
14.502471999999983
 20
223.52499399999999
 11
18.502471999999983
 21
223.52499399999999
  0
ARC
  8
_0-0_0
  6
CONTINUOUS
 62
    7
 10
14.502471999999983
 20
225.77499399999999
 40
2.25
 50
90.000003000000007
 51
269.99999700000006
  0
LINE
  8
_0-0_0
  6
CONTINUOUS
 62
    7
 10
70.502471999999983
 20
228.02499399999999
 11
74.502487000000002
 21
228.02499399999999
  0
LINE
  8
_0-0_0
  6
CONTINUOUS
 62
    7
 10
14.502471999999983
 20
228.02499399999999
 11
18.502471999999983
 21
228.02499399999999
  0
LINE
  8
_0-0_0
  6
CONTINUOUS
 62
    7
 10
76.743088
 20
221.77499399999999
 11
68.261870999999985
 21
221.77499399999999
  0
LINE
  8
_0-0_0
  6
CONTINUOUS
 62
    7
 10
76.743088
 20
221.77499399999999
 11
79.052489999999977
 21
225.77499399999999
  0
LINE
  8
_0-0_0
  6
CONTINUOUS
 62
    7
 10
79.052489999999977
 20
225.77499399999999
 11
76.743088
 21
229.77499399999999
  0
LINE
  8
_0-0_0
  6
CONTINUOUS
 62
    7
 10
68.261870999999985
 20
229.77499399999999
 11
76.743088
 21
229.77499399999999
  0
LINE
  8
_0-0_0
  6
CONTINUOUS
 62
    7
 10
65.952468999999979
 20
225.77499399999999
 11
68.261870999999985
 21
229.77499399999999
  0
LINE
  8
_0-0_0
  6
CONTINUOUS
 62
    7
 10
68.261870999999985
 20
221.77499399999999
 11
65.952468999999979
 21
225.77499399999999
  0
LINE
  8
_0-0_0
  6
CONTINUOUS
 62
    7
 10
20.743071999999984
 20
221.77499399999999
 11
12.261870999999985
 21
221.77499399999999
  0
LINE
  8
_0-0_0
  6
CONTINUOUS
 62
    7
 10
23.052474999999987
 20
225.77499399999999
 11
20.743071999999984
 21
221.77499399999999
  0
LINE
  8
_0-0_0
  6
CONTINUOUS
 62
    7
 10
23.052474999999987
 20
225.77499399999999
 11
20.743071999999984
 21
229.77499399999999
  0
LINE
  8
_0-0_0
  6
CONTINUOUS
 62
    7
 10
12.261870999999985
 20
229.77499399999999
 11
20.743071999999984
 21
229.77499399999999
  0
LINE
  8
_0-0_0
  6
CONTINUOUS
 62
    7
 10
9.9524690000000078
 20
225.77499399999999
 11
12.261870999999985
 21
229.77499399999999
  0
LINE
  8
_0-0_0
  6
CONTINUOUS
 62
    7
 10
9.9524690000000078
 20
225.77499399999999
 11
12.261870999999985
 21
221.77499399999999
  0
CIRCLE
  8
_0-0_0
  6
CONTINUOUS
 62
    7
 10
85.502487000000002
 20
232.67498799999998
 40
1.4750000000000001
  0
CIRCLE
  8
_0-0_0
  6
CONTINUOUS
 62
    7
 10
6.5024719999999832
 20
232.67498799999998
 40
1.4750000000000001
  0
LINE
  8
_0-0_0
  6
CONTINUOUS
 62
    7
 10
85.952483999999998
 20
232.47500600000001
 11
86.602477999999991
 21
232.47500600000001
  0
ARC
  8
_0-0_0
  6
CONTINUOUS
 62
    7
 10
85.952483999999998
 20
232.22500600000001
 40
0.25
 50
90.000003000000007
 51
180.00000900000001
  0
LINE
  8
_0-0_0
  6
CONTINUOUS
 62
    7
 10
85.702483999999998
 20
232.22500600000001
 11
85.702483999999998
 21
231.57498200000003
  0
LINE
  8
_0-0_0
  6
CONTINUOUS
 62
    7
 10
85.302489999999977
 20
231.57498200000003
 11
85.702483999999998
 21
231.57498200000003
  0
LINE
  8
_0-0_0
  6
CONTINUOUS
 62
    7
 10
85.302489999999977
 20
231.57498200000003
 11
85.302489999999977
 21
232.22500600000001
  0
ARC
  8
_0-0_0
  6
CONTINUOUS
 62
    7
 10
85.052489999999977
 20
232.22500600000001
 40
0.25
 50
0
 51
90.000003000000007
  0
LINE
  8
_0-0_0
  6
CONTINUOUS
 62
    7
 10
84.402480999999995
 20
232.47500600000001
 11
85.052489999999977
 21
232.47500600000001
  0
LINE
  8
_0-0_0
  6
CONTINUOUS
 62
    7
 10
84.402480999999995
 20
232.47500600000001
 11
84.402480999999995
 21
232.875
  0
LINE
  8
_0-0_0
  6
CONTINUOUS
 62
    7
 10
85.052489999999977
 20
232.875
 11
84.402480999999995
 21
232.875
  0
ARC
  8
_0-0_0
  6
CONTINUOUS
 62
    7
 10
85.052489999999977
 20
233.125
 40
0.25
 50
269.99999700000001
 51
0
  0
LINE
  8
_0-0_0
  6
CONTINUOUS
 62
    7
 10
85.302489999999977
 20
233.125
 11
85.302489999999977
 21
233.77499399999999
  0
LINE
  8
_0-0_0
  6
CONTINUOUS
 62
    7
 10
85.702483999999998
 20
233.77499399999999
 11
85.302489999999977
 21
233.77499399999999
  0
LINE
  8
_0-0_0
  6
CONTINUOUS
 62
    7
 10
85.702483999999998
 20
233.77499399999999
 11
85.702483999999998
 21
233.125
  0
ARC
  8
_0-0_0
  6
CONTINUOUS
 62
    7
 10
85.952483999999998
 20
233.125
 40
0.25
 50
180.00000900000003
 51
269.99999700000001
  0
LINE
  8
_0-0_0
  6
CONTINUOUS
 62
    7
 10
86.602477999999991
 20
232.875
 11
85.952483999999998
 21
232.875
  0
LINE
  8
_0-0_0
  6
CONTINUOUS
 62
    7
 10
86.602477999999991
 20
232.875
 11
86.602477999999991
 21
232.47500600000001
  0
LINE
  8
_0-0_0
  6
CONTINUOUS
 62
    7
 10
6.9524690000000078
 20
232.47500600000001
 11
7.6024779999999907
 21
232.47500600000001
  0
ARC
  8
_0-0_0
  6
CONTINUOUS
 62
    7
 10
6.9524690000000078
 20
232.22500600000001
 40
0.25
 50
90.000003000000007
 51
180.00000900000001
  0
LINE
  8
_0-0_0
  6
CONTINUOUS
 62
    7
 10
6.7024690000000078
 20
232.22500600000001
 11
6.7024690000000078
 21
231.57498200000003
  0
LINE
  8
_0-0_0
  6
CONTINUOUS
 62
    7
 10
6.3024749999999869
 20
231.57498200000003
 11
6.7024690000000078
 21
231.57498200000003
  0
LINE
  8
_0-0_0
  6
CONTINUOUS
 62
    7
 10
6.3024749999999869
 20
231.57498200000003
 11
6.3024749999999869
 21
232.22500600000001
  0
ARC
  8
_0-0_0
  6
CONTINUOUS
 62
    7
 10
6.0524749999999869
 20
232.22500600000001
 40
0.25
 50
0
 51
90.000003000000007
  0
LINE
  8
_0-0_0
  6
CONTINUOUS
 62
    7
 10
5.402466000000004
 20
232.47500600000001
 11
6.0524749999999869
 21
232.47500600000001
  0
LINE
  8
_0-0_0
  6
CONTINUOUS
 62
    7
 10
5.402466000000004
 20
232.47500600000001
 11
5.402466000000004
 21
232.875
  0
LINE
  8
_0-0_0
  6
CONTINUOUS
 62
    7
 10
6.0524749999999869
 20
232.875
 11
5.402466000000004
 21
232.875
  0
ARC
  8
_0-0_0
  6
CONTINUOUS
 62
    7
 10
6.0524749999999869
 20
233.125
 40
0.25
 50
269.99999700000001
 51
0
  0
LINE
  8
_0-0_0
  6
CONTINUOUS
 62
    7
 10
6.3024749999999869
 20
233.125
 11
6.3024749999999869
 21
233.77499399999999
  0
LINE
  8
_0-0_0
  6
CONTINUOUS
 62
    7
 10
6.7024690000000078
 20
233.77499399999999
 11
6.3024749999999869
 21
233.77499399999999
  0
LINE
  8
_0-0_0
  6
CONTINUOUS
 62
    7
 10
6.7024690000000078
 20
233.77499399999999
 11
6.7024690000000078
 21
233.125
  0
ARC
  8
_0-0_0
  6
CONTINUOUS
 62
    7
 10
6.9524690000000078
 20
233.125
 40
0.25
 50
180.00000900000003
 51
269.99999700000001
  0
LINE
  8
_0-0_0
  6
CONTINUOUS
 62
    7
 10
7.6024779999999907
 20
232.875
 11
6.9524690000000078
 21
232.875
  0
LINE
  8
_0-0_0
  6
CONTINUOUS
 62
    7
 10
7.6024779999999907
 20
232.875
 11
7.6024779999999907
 21
232.47500600000001
  0
LINE
  8
_0-0_0
  6
CONTINUOUS
 62
    7
 10
8.0524749999999869
 20
212.15197799999999
 11
8.0524749999999869
 21
212.17498799999998
  0
LINE
  8
_0-0_0
  6
CONTINUOUS
 62
    7
 10
26.502471999999983
 20
230.17498799999998
 11
26.502471999999983
 21
217.21798699999999
  0
ARC
  8
_0-0_0
  6
CONTINUOUS
 62
    7
 10
23.502471999999983
 20
230.17498799999998
 40
3
 50
0
 51
90.000003000000007
  0
LINE
  8
_0-0_0
  6
CONTINUOUS
 62
    7
 10
62.502471999999983
 20
216.57498200000003
 11
62.502471999999983
 21
230.17498799999998
  0
LINE
  8
_0-0_0
  6
CONTINUOUS
 62
    7
 10
45.989959999999996
 20
226.34463499999998
 11
44.689956999999993
 21
229.84463499999998
  0
ARC
  8
_0-0_0
  6
CONTINUOUS
 62
    7
 10
43.202469000000008
 20
226.27499399999999
 40
0.2
 50
159.62357
 51
269.99999700000001
  0
LINE
  8
_0-0_0
  6
CONTINUOUS
 62
    7
 10
87.502487000000002
 20
231.77499399999999
 11
104.177933
 21
231.77499399999999
  0
ARC
  8
_0-0_0
  6
CONTINUOUS
 62
    7
 10
104.177933
 20
229.77499399999999
 40
2
 50
71.565000999999995
 51
90.000003000000007
  0
LINE
  8
_0-0_0
  6
CONTINUOUS
 62
    7
 10
104.810394
 20
231.67236300000002
 11
104.69088699999998
 21
231.70797700000003
  0
LINE
  8
_0-0_0
  6
CONTINUOUS
 62
    7
 10
104.69088699999998
 20
231.70797700000003
 11
104.56933599999999
 21
231.73587000000003
  0
LINE
  8
_0-0_0
  6
CONTINUOUS
 62
    7
 10
104.56933599999999
 20
231.73587000000003
 11
104.446213
 21
231.75589000000002
  0
LINE
  8
_0-0_0
  6
CONTINUOUS
 62
    7
 10
104.446213
 20
231.75589000000002
 11
104.321991
 21
231.76800500000002
  0
LINE
  8
_0-0_0
  6
CONTINUOUS
 62
    7
 10
104.321991
 20
231.76800500000002
 11
104.197159
 21
231.772156
  0
LINE
  8
_0-0_0
  6
CONTINUOUS
 62
    7
 10
104.197159
 20
231.772156
 11
104.177933
 21
231.772064
  0
LINE
  8
_0-0_0
  6
CONTINUOUS
 62
    7
 10
109.13493299999999
 20
230.23083500000001
 11
104.81037899999998
 21
231.67236300000002
  0
LINE
  8
_0-0_0
  6
CONTINUOUS
 62
    7
 10
108.976822
 20
215.67498799999998
 11
109.67018099999999
 21
215.67498799999998
  0
LINE
  8
_0-0_0
  6
CONTINUOUS
 62
    7
 10
108.976822
 20
215.67498799999998
 11
104.65226699999999
 21
215.67498799999998
  0
LINE
  8
_0-0_0
  6
CONTINUOUS
 62
    7
 10
104.177933
 20
215.67498799999998
 11
104.65226699999999
 21
215.67498799999998
  0
LINE
  8
_0-0_0
  6
CONTINUOUS
 62
    7
 10
99.502487000000002
 20
215.67498799999998
 11
104.177933
 21
215.67498799999998
  0
LINE
  8
_0-0_0
  6
CONTINUOUS
 62
    7
 10
110.502487
 20
214.92495700000001
 11
110.502487
 21
216.04599000000002
  0
LINE
  8
_0-0_0
  6
CONTINUOUS
 62
    7
 10
110.502487
 20
216.96731599999998
 11
110.502487
 21
216.04599000000002
  0
LINE
  8
_0-0_0
  6
CONTINUOUS
 62
    7
 10
121.502487
 20
215.72500600000001
 11
121.502487
 21
223.70654300000001
  0
ARC
  8
_0-0_0
  6
CONTINUOUS
 62
    7
 10
115.328598
 20
224.22589099999999
 40
4.9238749999999998
 50
352.49423299999995
 51
1.5359699999999901
  0
LINE
  8
_0-0_0
  6
CONTINUOUS
 62
    7
 10
120.21031199999999
 20
218.36731000000003
 11
120.304642
 21
218.613922
  0
LINE
  8
_0-0_0
  6
CONTINUOUS
 62
    7
 10
120.304642
 20
218.613922
 11
120.38859599999998
 21
218.853882
  0
LINE
  8
_0-0_0
  6
CONTINUOUS
 62
    7
 10
120.38859599999998
 20
218.853882
 11
120.46275299999999
 21
219.08801299999999
  0
LINE
  8
_0-0_0
  6
CONTINUOUS
 62
    7
 10
120.46275299999999
 20
219.08801299999999
 11
120.52763399999998
 21
219.317047
  0
LINE
  8
_0-0_0
  6
CONTINUOUS
 62
    7
 10
120.52763399999998
 20
219.317047
 11
120.58367899999999
 21
219.541718
  0
LINE
  8
_0-0_0
  6
CONTINUOUS
 62
    7
 10
120.58367899999999
 20
219.541718
 11
120.63124099999999
 21
219.76269500000001
  0
LINE
  8
_0-0_0
  6
CONTINUOUS
 62
    7
 10
120.63124099999999
 20
219.76269500000001
 11
120.67063899999999
 21
219.98062099999999
  0
LINE
  8
_0-0_0
  6
CONTINUOUS
 62
    7
 10
120.67063899999999
 20
219.98062099999999
 11
120.70213299999998
 21
220.19607600000001
  0
LINE
  8
_0-0_0
  6
CONTINUOUS
 62
    7
 10
120.70213299999998
 20
220.19607600000001
 11
120.72590599999998
 21
220.40960699999999
  0
LINE
  8
_0-0_0
  6
CONTINUOUS
 62
    7
 10
120.72590599999998
 20
220.40960699999999
 11
120.74183599999998
 21
220.61731000000003
  0
LINE
  8
_0-0_0
  6
CONTINUOUS
 62
    7
 10
120.74183599999998
 20
220.61731000000003
 11
120.75059499999998
 21
220.82415800000001
  0
LINE
  8
_0-0_0
  6
CONTINUOUS
 62
    7
 10
120.75059499999998
 20
220.82415800000001
 11
120.752228
 21
221.03064000000001
  0
LINE
  8
_0-0_0
  6
CONTINUOUS
 62
    7
 10
120.752228
 20
221.03064000000001
 11
120.74676499999998
 21
221.237213
  0
LINE
  8
_0-0_0
  6
CONTINUOUS
 62
    7
 10
120.74676499999998
 20
221.237213
 11
120.73414599999998
 21
221.44439699999998
  0
LINE
  8
_0-0_0
  6
CONTINUOUS
 62
    7
 10
120.73414599999998
 20
221.44439699999998
 11
120.71433999999999
 21
221.65271000000001
  0
LINE
  8
_0-0_0
  6
CONTINUOUS
 62
    7
 10
120.71433999999999
 20
221.65271000000001
 11
120.68719499999997
 21
221.86261000000002
  0
LINE
  8
_0-0_0
  6
CONTINUOUS
 62
    7
 10
120.68719499999997
 20
221.86261000000002
 11
120.65254199999998
 21
222.07467700000001
  0
LINE
  8
_0-0_0
  6
CONTINUOUS
 62
    7
 10
120.65254199999998
 20
222.07467700000001
 11
120.61019899999999
 21
222.28942899999998
  0
LINE
  8
_0-0_0
  6
CONTINUOUS
 62
    7
 10
120.61019899999999
 20
222.28942899999998
 11
120.55987499999998
 21
222.50744600000002
  0
LINE
  8
_0-0_0
  6
CONTINUOUS
 62
    7
 10
120.55987499999998
 20
222.50744600000002
 11
120.50563
 21
222.71371499999998
  0
LINE
  8
_0-0_0
  6
CONTINUOUS
 62
    7
 10
120.50563
 20
222.71371499999998
 11
120.44392399999998
 21
222.92382800000001
  0
LINE
  8
_0-0_0
  6
CONTINUOUS
 62
    7
 10
120.44392399999998
 20
222.92382800000001
 11
120.374405
 21
223.138306
  0
LINE
  8
_0-0_0
  6
CONTINUOUS
 62
    7
 10
120.374405
 20
223.138306
 11
120.29669199999998
 21
223.35772700000001
  0
LINE
  8
_0-0_0
  6
CONTINUOUS
 62
    7
 10
120.29669199999998
 20
223.35772700000001
 11
120.21031199999999
 21
223.58270299999998
  0
ARC
  8
_0-0_0
  6
CONTINUOUS
 62
    7
 10
115.33875999999998
 20
217.72500600000001
 40
4.9136889999999998
 50
352.48898799999995
 51
7.5110139999999577
  0
LINE
  8
_0-0_0
  6
CONTINUOUS
 62
    7
 10
120.21031199999999
 20
217.08270299999998
 11
120.26480099999998
 21
217.01275600000002
  0
LINE
  8
_0-0_0
  6
CONTINUOUS
 62
    7
 10
120.26480099999998
 20
217.01275600000002
 11
120.31590299999999
 21
216.943939
  0
LINE
  8
_0-0_0
  6
CONTINUOUS
 62
    7
 10
120.31590299999999
 20
216.943939
 11
120.363541
 21
216.87643400000002
  0
LINE
  8
_0-0_0
  6
CONTINUOUS
 62
    7
 10
120.363541
 20
216.87643400000002
 11
120.40803499999998
 21
216.80987600000003
  0
LINE
  8
_0-0_0
  6
CONTINUOUS
 62
    7
 10
120.40803499999998
 20
216.80987600000003
 11
120.46275299999999
 21
216.722351
  0
LINE
  8
_0-0_0
  6
CONTINUOUS
 62
    7
 10
120.46275299999999
 20
216.722351
 11
120.51226799999998
 21
216.63623100000001
  0
LINE
  8
_0-0_0
  6
CONTINUOUS
 62
    7
 10
120.51226799999998
 20
216.63623100000001
 11
120.55673199999998
 21
216.55139200000002
  0
LINE
  8
_0-0_0
  6
CONTINUOUS
 62
    7
 10
120.55673199999998
 20
216.55139200000002
 11
120.60369899999998
 21
216.45107999999999
  0
LINE
  8
_0-0_0
  6
CONTINUOUS
 62
    7
 10
120.60369899999998
 20
216.45107999999999
 11
120.64390599999999
 21
216.35214200000001
  0
LINE
  8
_0-0_0
  6
CONTINUOUS
 62
    7
 10
120.64390599999999
 20
216.35214200000001
 11
120.67756599999998
 21
216.25439499999999
  0
LINE
  8
_0-0_0
  6
CONTINUOUS
 62
    7
 10
120.67756599999998
 20
216.25439499999999
 11
120.70486399999999
 21
216.15759300000002
  0
LINE
  8
_0-0_0
  6
CONTINUOUS
 62
    7
 10
120.70486399999999
 20
216.15759300000002
 11
120.72590599999998
 21
216.061554
  0
LINE
  8
_0-0_0
  6
CONTINUOUS
 62
    7
 10
120.72590599999998
 20
216.061554
 11
120.74183599999998
 21
215.957672
  0
LINE
  8
_0-0_0
  6
CONTINUOUS
 62
    7
 10
120.74183599999998
 20
215.957672
 11
120.75059499999998
 21
215.85424799999998
  0
LINE
  8
_0-0_0
  6
CONTINUOUS
 62
    7
 10
120.75059499999998
 20
215.85424799999998
 11
120.752228
 21
215.75103799999999
  0
LINE
  8
_0-0_0
  6
CONTINUOUS
 62
    7
 10
120.752228
 20
215.75103799999999
 11
120.74676499999998
 21
215.64773600000001
  0
LINE
  8
_0-0_0
  6
CONTINUOUS
 62
    7
 10
120.74676499999998
 20
215.64773600000001
 11
120.73414599999998
 21
215.544129
  0
LINE
  8
_0-0_0
  6
CONTINUOUS
 62
    7
 10
120.73414599999998
 20
215.544129
 11
120.71433999999999
 21
215.44000299999999
  0
LINE
  8
_0-0_0
  6
CONTINUOUS
 62
    7
 10
120.71433999999999
 20
215.44000299999999
 11
120.68719499999997
 21
215.33502199999998
  0
LINE
  8
_0-0_0
  6
CONTINUOUS
 62
    7
 10
120.68719499999997
 20
215.33502199999998
 11
120.65254199999998
 21
215.22900400000003
  0
LINE
  8
_0-0_0
  6
CONTINUOUS
 62
    7
 10
120.65254199999998
 20
215.22900400000003
 11
120.61019899999999
 21
215.12161300000002
  0
LINE
  8
_0-0_0
  6
CONTINUOUS
 62
    7
 10
120.61019899999999
 20
215.12161300000002
 11
120.55987499999998
 21
215.01263399999999
  0
LINE
  8
_0-0_0
  6
CONTINUOUS
 62
    7
 10
120.55987499999998
 20
215.01263399999999
 11
120.51419099999998
 21
214.92495700000001
  0
LINE
  8
_0-0_0
  6
CONTINUOUS
 62
    7
 10
110.502487
 20
224.86731000000003
 11
120.21031199999999
 21
224.86731000000003
  0
LINE
  8
_0-0_0
  6
CONTINUOUS
 62
    7
 10
110.502487
 20
223.58270299999998
 11
110.502487
 21
224.86731000000003
  0
LINE
  8
_0-0_0
  6
CONTINUOUS
 62
    7
 10
110.502487
 20
223.58270299999998
 11
120.21031199999999
 21
223.58270299999998
  0
ARC
  8
_0-0_0
  6
CONTINUOUS
 62
    7
 10
115.29057299999999
 20
224.22094700000002
 40
4.9620009999999999
 50
1.5813010000000001
 51
7.4847919999999997
  0
LINE
  8
_0-0_0
  6
CONTINUOUS
 62
    7
 10
110.202484
 20
218.76297
 11
110.11901799999998
 21
219.14166299999999
  0
LINE
  8
_0-0_0
  6
CONTINUOUS
 62
    7
 10
110.11901799999998
 20
219.14166299999999
 11
110.07893399999998
 21
219.333191
  0
LINE
  8
_0-0_0
  6
CONTINUOUS
 62
    7
 10
110.07893399999998
 20
219.333191
 11
110.022842
 21
219.6232
  0
LINE
  8
_0-0_0
  6
CONTINUOUS
 62
    7
 10
110.022842
 20
219.6232
 11
109.98524499999999
 21
219.842804
  0
LINE
  8
_0-0_0
  6
CONTINUOUS
 62
    7
 10
109.98524499999999
 20
219.842804
 11
109.95260599999997
 21
220.06405699999999
  0
LINE
  8
_0-0_0
  6
CONTINUOUS
 62
    7
 10
109.95260599999997
 20
220.06405699999999
 11
109.925445
 21
220.29083300000002
  0
LINE
  8
_0-0_0
  6
CONTINUOUS
 62
    7
 10
109.925445
 20
220.29083300000002
 11
109.90537999999998
 21
220.51825000000002
  0
LINE
  8
_0-0_0
  6
CONTINUOUS
 62
    7
 10
109.90537999999998
 20
220.51825000000002
 11
109.898224
 21
220.631958
  0
LINE
  8
_0-0_0
  6
CONTINUOUS
 62
    7
 10
109.898224
 20
220.631958
 11
109.89306599999998
 21
220.74563599999999
  0
LINE
  8
_0-0_0
  6
CONTINUOUS
 62
    7
 10
109.89306599999998
 20
220.74563599999999
 11
109.889343
 21
220.89709499999998
  0
LINE
  8
_0-0_0
  6
CONTINUOUS
 62
    7
 10
109.889343
 20
220.89709499999998
 11
109.88928199999998
 21
221.04834
  0
LINE
  8
_0-0_0
  6
CONTINUOUS
 62
    7
 10
109.88928199999998
 20
221.04834
 11
109.89286799999999
 21
221.19940200000002
  0
LINE
  8
_0-0_0
  6
CONTINUOUS
 62
    7
 10
109.89286799999999
 20
221.19940200000002
 11
109.90237399999998
 21
221.38794000000001
  0
LINE
  8
_0-0_0
  6
CONTINUOUS
 62
    7
 10
109.90237399999998
 20
221.38794000000001
 11
109.917236
 21
221.57617199999999
  0
LINE
  8
_0-0_0
  6
CONTINUOUS
 62
    7
 10
109.917236
 20
221.57617199999999
 11
109.937164
 21
221.76413000000002
  0
LINE
  8
_0-0_0
  6
CONTINUOUS
 62
    7
 10
109.937164
 20
221.76413000000002
 11
109.953552
 21
221.89300500000002
  0
LINE
  8
_0-0_0
  6
CONTINUOUS
 62
    7
 10
109.953552
 20
221.89300500000002
 11
109.97195399999998
 21
222.02166800000003
  0
LINE
  8
_0-0_0
  6
CONTINUOUS
 62
    7
 10
109.97195399999998
 20
222.02166800000003
 11
109.99612399999998
 21
222.17358400000001
  0
LINE
  8
_0-0_0
  6
CONTINUOUS
 62
    7
 10
109.99612399999998
 20
222.17358400000001
 11
110.02252199999998
 21
222.32492100000002
  0
LINE
  8
_0-0_0
  6
CONTINUOUS
 62
    7
 10
110.02252199999998
 20
222.32492100000002
 11
110.078689
 21
222.61554000000001
  0
LINE
  8
_0-0_0
  6
CONTINUOUS
 62
    7
 10
110.078689
 20
222.61554000000001
 11
110.11885099999998
 21
222.80749500000002
  0
LINE
  8
_0-0_0
  6
CONTINUOUS
 62
    7
 10
110.11885099999998
 20
222.80749500000002
 11
110.202484
 21
223.186981
  0
LINE
  8
_0-0_0
  6
CONTINUOUS
 62
    7
 10
110.502487
 20
219.41293300000001
 11
110.502487
 21
222.53704800000003
  0
LINE
  8
_0-0_0
  6
CONTINUOUS
 62
    7
 10
135.252487
 20
211.44955500000003
 11
135.002487
 21
211.42498799999998
  0
LINE
  8
_0-0_0
  6
CONTINUOUS
 62
    7
 10
135.002487
 20
211.42498799999998
 11
125.752487
 21
211.42498799999998
  0
LINE
  8
_0-0_0
  6
CONTINUOUS
 62
    7
 10
125.502487
 20
211.44955500000003
 11
125.752487
 21
211.42498799999998
  0
LINE
  8
_0-0_0
  6
CONTINUOUS
 62
    7
 10
135.252487
 20
214.42358400000001
 11
135.002487
 21
214.69754
  0
LINE
  8
_0-0_0
  6
CONTINUOUS
 62
    7
 10
135.252487
 20
214.42358400000001
 11
135.002487
 21
214.53286800000001
  0
LINE
  8
_0-0_0
  6
CONTINUOUS
 62
    7
 10
135.252487
 20
214.26599099999999
 11
135.002487
 21
214.53286800000001
  0
LINE
  8
_0-0_0
  6
CONTINUOUS
 62
    7
 10
135.252487
 20
214.26599099999999
 11
135.002487
 21
214.34780899999998
  0
LINE
  8
_0-0_0
  6
CONTINUOUS
 62
    7
 10
135.252487
 20
214.09097300000002
 11
135.002487
 21
214.34780899999998
  0
LINE
  8
_0-0_0
  6
CONTINUOUS
 62
    7
 10
135.252487
 20
214.09097300000002
 11
135.002487
 21
214.14447000000001
  0
LINE
  8
_0-0_0
  6
CONTINUOUS
 62
    7
 10
135.252487
 20
213.90042099999999
 11
135.002487
 21
214.14447000000001
  0
LINE
  8
_0-0_0
  6
CONTINUOUS
 62
    7
 10
135.252487
 20
213.90042099999999
 11
135.002487
 21
213.92498799999998
  0
LINE
  8
_0-0_0
  6
CONTINUOUS
 62
    7
 10
135.252487
 20
213.69647200000003
 11
135.002487
 21
213.92498799999998
  0
LINE
  8
_0-0_0
  6
CONTINUOUS
 62
    7
 10
135.252487
 20
213.69647200000003
 11
135.002487
 21
213.69183400000003
  0
LINE
  8
_0-0_0
  6
CONTINUOUS
 62
    7
 10
135.252487
 20
213.48132300000003
 11
135.002487
 21
213.69183400000003
  0
LINE
  8
_0-0_0
  6
CONTINUOUS
 62
    7
 10
135.252487
 20
213.48132300000003
 11
135.002487
 21
213.44754
  0
LINE
  8
_0-0_0
  6
CONTINUOUS
 62
    7
 10
135.252487
 20
213.25732399999998
 11
135.002487
 21
213.44754
  0
LINE
  8
_0-0_0
  6
CONTINUOUS
 62
    7
 10
135.252487
 20
213.25732399999998
 11
135.002487
 21
213.19476300000002
  0
LINE
  8
_0-0_0
  6
CONTINUOUS
 62
    7
 10
135.252487
 20
213.02697799999999
 11
135.002487
 21
213.19476300000002
  0
LINE
  8
_0-0_0
  6
CONTINUOUS
 62
    7
 10
135.252487
 20
213.02697799999999
 11
135.002487
 21
212.93630999999999
  0
LINE
  8
_0-0_0
  6
CONTINUOUS
 62
    7
 10
135.252487
 20
212.792755
 11
135.002487
 21
212.93630999999999
  0
LINE
  8
_0-0_0
  6
CONTINUOUS
 62
    7
 10
135.252487
 20
212.792755
 11
135.002487
 21
212.67498799999998
  0
LINE
  8
_0-0_0
  6
CONTINUOUS
 62
    7
 10
135.252487
 20
212.55725100000001
 11
135.002487
 21
212.67498799999998
  0
LINE
  8
_0-0_0
  6
CONTINUOUS
 62
    7
 10
135.252487
 20
212.55725100000001
 11
135.002487
 21
212.41366600000003
  0
LINE
  8
_0-0_0
  6
CONTINUOUS
 62
    7
 10
135.252487
 20
212.32302900000002
 11
135.002487
 21
212.41366600000003
  0
LINE
  8
_0-0_0
  6
CONTINUOUS
 62
    7
 10
135.252487
 20
212.32302900000002
 11
135.002487
 21
212.155213
  0
LINE
  8
_0-0_0
  6
CONTINUOUS
 62
    7
 10
135.252487
 20
212.09265099999999
 11
135.002487
 21
212.155213
  0
LINE
  8
_0-0_0
  6
CONTINUOUS
 62
    7
 10
135.252487
 20
212.09265099999999
 11
135.002487
 21
211.902466
  0
LINE
  8
_0-0_0
  6
CONTINUOUS
 62
    7
 10
135.252487
 20
211.86868300000003
 11
135.002487
 21
211.902466
  0
LINE
  8
_0-0_0
  6
CONTINUOUS
 62
    7
 10
135.252487
 20
211.86868300000003
 11
135.002487
 21
211.658142
  0
LINE
  8
_0-0_0
  6
CONTINUOUS
 62
    7
 10
135.252487
 20
211.653504
 11
135.002487
 21
211.658142
  0
LINE
  8
_0-0_0
  6
CONTINUOUS
 62
    7
 10
135.252487
 20
211.653504
 11
135.002487
 21
211.42498799999998
  0
LINE
  8
_0-0_0
  6
CONTINUOUS
 62
    7
 10
135.252487
 20
211.44955500000003
 11
135.002487
 21
211.205536
  0
LINE
  8
_0-0_0
  6
CONTINUOUS
 62
    7
 10
135.252487
 20
211.25903299999999
 11
135.002487
 21
211.205536
  0
LINE
  8
_0-0_0
  6
CONTINUOUS
 62
    7
 10
135.252487
 20
211.25903299999999
 11
135.002487
 21
211.00216699999999
  0
LINE
  8
_0-0_0
  6
CONTINUOUS
 62
    7
 10
135.252487
 20
211.08401500000002
 11
135.002487
 21
211.00216699999999
  0
LINE
  8
_0-0_0
  6
CONTINUOUS
 62
    7
 10
135.252487
 20
211.08401500000002
 11
135.002487
 21
210.817139
  0
LINE
  8
_0-0_0
  6
CONTINUOUS
 62
    7
 10
135.252487
 20
210.926422
 11
135.002487
 21
210.817139
  0
LINE
  8
_0-0_0
  6
CONTINUOUS
 62
    7
 10
135.252487
 20
210.926422
 11
135.002487
 21
210.652466
  0
LINE
  8
_0-0_0
  6
CONTINUOUS
 62
    7
 10
135.252487
 20
210.78799400000003
 11
135.002487
 21
210.652466
  0
LINE
  8
_0-0_0
  6
CONTINUOUS
 62
    7
 10
135.252487
 20
210.78799400000003
 11
135.002487
 21
210.50991800000003
  0
LINE
  8
_0-0_0
  6
CONTINUOUS
 62
    7
 10
135.252487
 20
210.67022700000001
 11
135.002487
 21
210.50991800000003
  0
LINE
  8
_0-0_0
  6
CONTINUOUS
 62
    7
 10
135.252487
 20
210.67022700000001
 11
135.002487
 21
210.391144
  0
LINE
  8
_0-0_0
  6
CONTINUOUS
 62
    7
 10
135.252487
 20
210.574432
 11
135.002487
 21
210.391144
  0
LINE
  8
_0-0_0
  6
CONTINUOUS
 62
    7
 10
135.252487
 20
210.574432
 11
135.002487
 21
210.29736300000002
  0
LINE
  8
_0-0_0
  6
CONTINUOUS
 62
    7
 10
135.252487
 20
210.50164799999999
 11
135.002487
 21
210.29736300000002
  0
LINE
  8
_0-0_0
  6
CONTINUOUS
 62
    7
 10
135.252487
 20
210.50164799999999
 11
135.002487
 21
210.22961400000003
  0
LINE
  8
_0-0_0
  6
CONTINUOUS
 62
    7
 10
135.252487
 20
210.452698
 11
135.002487
 21
210.22961400000003
  0
LINE
  8
_0-0_0
  6
CONTINUOUS
 62
    7
 10
135.252487
 20
210.452698
 11
135.002487
 21
210.18869000000001
  0
LINE
  8
_0-0_0
  6
CONTINUOUS
 62
    7
 10
135.252487
 20
210.42806999999999
 11
135.002487
 21
210.18869000000001
  0
LINE
  8
_0-0_0
  6
CONTINUOUS
 62
    7
 10
135.252487
 20
210.42806999999999
 11
135.002487
 21
210.17498799999998
  0
LINE
  8
_0-0_0
  6
CONTINUOUS
 62
    7
 10
135.502487
 20
210.67498799999998
 11
135.502487
 21
214.43014499999998
  0
LINE
  8
_0-0_0
  6
CONTINUOUS
 62
    7
 10
135.12252799999999
 20
214.76361100000003
 11
135.002487
 21
214.840057
  0
LINE
  8
_0-0_0
  6
CONTINUOUS
 62
    7
 10
135.252487
 20
214.56201199999998
 11
135.002487
 21
214.840057
  0
LINE
  8
_0-0_0
  6
CONTINUOUS
 62
    7
 10
135.252487
 20
214.56201199999998
 11
135.002487
 21
214.69754
  0
LINE
  8
_0-0_0
  6
CONTINUOUS
 62
    7
 10
135.002487
 20
214.53286800000001
 11
125.752487
 21
214.53286800000001
  0
LINE
  8
_0-0_0
  6
CONTINUOUS
 62
    7
 10
125.502487
 20
214.42358400000001
 11
125.752487
 21
214.53286800000001
  0
LINE
  8
_0-0_0
  6
CONTINUOUS
 62
    7
 10
135.002487
 20
214.34780899999998
 11
125.752487
 21
214.34780899999998
  0
LINE
  8
_0-0_0
  6
CONTINUOUS
 62
    7
 10
125.502487
 20
214.26599099999999
 11
125.752487
 21
214.34780899999998
  0
LINE
  8
_0-0_0
  6
CONTINUOUS
 62
    7
 10
135.002487
 20
214.14447000000001
 11
125.752487
 21
214.14447000000001
  0
LINE
  8
_0-0_0
  6
CONTINUOUS
 62
    7
 10
125.502487
 20
214.09097300000002
 11
125.752487
 21
214.14447000000001
  0
LINE
  8
_0-0_0
  6
CONTINUOUS
 62
    7
 10
135.002487
 20
213.92498799999998
 11
125.752487
 21
213.92498799999998
  0
LINE
  8
_0-0_0
  6
CONTINUOUS
 62
    7
 10
125.502487
 20
213.90042099999999
 11
125.752487
 21
213.92498799999998
  0
LINE
  8
_0-0_0
  6
CONTINUOUS
 62
    7
 10
135.002487
 20
213.69183400000003
 11
125.752487
 21
213.69183400000003
  0
LINE
  8
_0-0_0
  6
CONTINUOUS
 62
    7
 10
135.252487
 20
213.69647200000003
 11
125.502487
 21
213.69647200000003
  0
LINE
  8
_0-0_0
  6
CONTINUOUS
 62
    7
 10
125.502487
 20
213.69647200000003
 11
125.752487
 21
213.69183400000003
  0
LINE
  8
_0-0_0
  6
CONTINUOUS
 62
    7
 10
135.002487
 20
213.44754
 11
125.752487
 21
213.44754
  0
LINE
  8
_0-0_0
  6
CONTINUOUS
 62
    7
 10
135.252487
 20
213.48132300000003
 11
125.502487
 21
213.48132300000003
  0
LINE
  8
_0-0_0
  6
CONTINUOUS
 62
    7
 10
125.502487
 20
213.48132300000003
 11
125.752487
 21
213.44754
  0
LINE
  8
_0-0_0
  6
CONTINUOUS
 62
    7
 10
135.002487
 20
213.19476300000002
 11
125.752487
 21
213.19476300000002
  0
LINE
  8
_0-0_0
  6
CONTINUOUS
 62
    7
 10
135.252487
 20
213.25732399999998
 11
125.502487
 21
213.25732399999998
  0
LINE
  8
_0-0_0
  6
CONTINUOUS
 62
    7
 10
125.502487
 20
213.25732399999998
 11
125.752487
 21
213.19476300000002
  0
LINE
  8
_0-0_0
  6
CONTINUOUS
 62
    7
 10
135.002487
 20
212.93630999999999
 11
125.752487
 21
212.93630999999999
  0
LINE
  8
_0-0_0
  6
CONTINUOUS
 62
    7
 10
135.252487
 20
213.02697799999999
 11
125.502487
 21
213.02697799999999
  0
LINE
  8
_0-0_0
  6
CONTINUOUS
 62
    7
 10
125.502487
 20
213.02697799999999
 11
125.752487
 21
212.93630999999999
  0
LINE
  8
_0-0_0
  6
CONTINUOUS
 62
    7
 10
135.002487
 20
212.67498799999998
 11
125.752487
 21
212.67498799999998
  0
LINE
  8
_0-0_0
  6
CONTINUOUS
 62
    7
 10
135.252487
 20
212.792755
 11
125.502487
 21
212.792755
  0
LINE
  8
_0-0_0
  6
CONTINUOUS
 62
    7
 10
125.502487
 20
212.792755
 11
125.752487
 21
212.67498799999998
  0
LINE
  8
_0-0_0
  6
CONTINUOUS
 62
    7
 10
135.002487
 20
212.41366600000003
 11
125.752487
 21
212.41366600000003
  0
LINE
  8
_0-0_0
  6
CONTINUOUS
 62
    7
 10
135.252487
 20
212.55725100000001
 11
125.502487
 21
212.55725100000001
  0
LINE
  8
_0-0_0
  6
CONTINUOUS
 62
    7
 10
125.502487
 20
212.55725100000001
 11
125.752487
 21
212.41366600000003
  0
LINE
  8
_0-0_0
  6
CONTINUOUS
 62
    7
 10
135.002487
 20
212.155213
 11
125.752487
 21
212.155213
  0
LINE
  8
_0-0_0
  6
CONTINUOUS
 62
    7
 10
135.252487
 20
212.32302900000002
 11
125.502487
 21
212.32302900000002
  0
LINE
  8
_0-0_0
  6
CONTINUOUS
 62
    7
 10
125.502487
 20
212.32302900000002
 11
125.752487
 21
212.155213
  0
LINE
  8
_0-0_0
  6
CONTINUOUS
 62
    7
 10
135.002487
 20
211.902466
 11
125.752487
 21
211.902466
  0
LINE
  8
_0-0_0
  6
CONTINUOUS
 62
    7
 10
135.252487
 20
212.09265099999999
 11
125.502487
 21
212.09265099999999
  0
LINE
  8
_0-0_0
  6
CONTINUOUS
 62
    7
 10
125.502487
 20
212.09265099999999
 11
125.752487
 21
211.902466
  0
LINE
  8
_0-0_0
  6
CONTINUOUS
 62
    7
 10
135.002487
 20
211.658142
 11
125.752487
 21
211.658142
  0
LINE
  8
_0-0_0
  6
CONTINUOUS
 62
    7
 10
135.252487
 20
211.86868300000003
 11
125.502487
 21
211.86868300000003
  0
LINE
  8
_0-0_0
  6
CONTINUOUS
 62
    7
 10
125.502487
 20
211.86868300000003
 11
125.752487
 21
211.658142
  0
LINE
  8
_0-0_0
  6
CONTINUOUS
 62
    7
 10
135.002487
 20
211.00216699999999
 11
125.752487
 21
211.00216699999999
  0
LINE
  8
_0-0_0
  6
CONTINUOUS
 62
    7
 10
125.502487
 20
211.25903299999999
 11
125.752487
 21
211.00216699999999
  0
LINE
  8
_0-0_0
  6
CONTINUOUS
 62
    7
 10
135.002487
 20
210.817139
 11
125.752487
 21
210.817139
  0
LINE
  8
_0-0_0
  6
CONTINUOUS
 62
    7
 10
125.502487
 20
211.08401500000002
 11
125.752487
 21
210.817139
  0
LINE
  8
_0-0_0
  6
CONTINUOUS
 62
    7
 10
135.002487
 20
210.652466
 11
125.752487
 21
210.652466
  0
LINE
  8
_0-0_0
  6
CONTINUOUS
 62
    7
 10
125.502487
 20
210.926422
 11
125.752487
 21
210.652466
  0
LINE
  8
_0-0_0
  6
CONTINUOUS
 62
    7
 10
135.002487
 20
210.50991800000003
 11
125.752487
 21
210.50991800000003
  0
LINE
  8
_0-0_0
  6
CONTINUOUS
 62
    7
 10
125.502487
 20
210.78799400000003
 11
125.752487
 21
210.50991800000003
  0
LINE
  8
_0-0_0
  6
CONTINUOUS
 62
    7
 10
135.002487
 20
210.391144
 11
125.752487
 21
210.391144
  0
LINE
  8
_0-0_0
  6
CONTINUOUS
 62
    7
 10
125.502487
 20
210.67022700000001
 11
125.752487
 21
210.391144
  0
LINE
  8
_0-0_0
  6
CONTINUOUS
 62
    7
 10
135.002487
 20
210.29736300000002
 11
125.752487
 21
210.29736300000002
  0
LINE
  8
_0-0_0
  6
CONTINUOUS
 62
    7
 10
125.502487
 20
210.574432
 11
125.752487
 21
210.29736300000002
  0
LINE
  8
_0-0_0
  6
CONTINUOUS
 62
    7
 10
135.002487
 20
210.22961400000003
 11
125.752487
 21
210.22961400000003
  0
LINE
  8
_0-0_0
  6
CONTINUOUS
 62
    7
 10
125.502487
 20
210.50164799999999
 11
125.752487
 21
210.22961400000003
  0
LINE
  8
_0-0_0
  6
CONTINUOUS
 62
    7
 10
135.002487
 20
210.18869000000001
 11
125.752487
 21
210.18869000000001
  0
LINE
  8
_0-0_0
  6
CONTINUOUS
 62
    7
 10
125.502487
 20
210.452698
 11
125.752487
 21
210.18869000000001
  0
LINE
  8
_0-0_0
  6
CONTINUOUS
 62
    7
 10
135.002487
 20
210.17498799999998
 11
125.752487
 21
210.17498799999998
  0
LINE
  8
_0-0_0
  6
CONTINUOUS
 62
    7
 10
125.502487
 20
210.42806999999999
 11
125.752487
 21
210.17498799999998
  0
LINE
  8
_0-0_0
  6
CONTINUOUS
 62
    7
 10
135.002487
 20
214.840057
 11
125.752487
 21
214.840057
  0
LINE
  8
_0-0_0
  6
CONTINUOUS
 62
    7
 10
135.252487
 20
214.67974900000002
 11
135.12252799999999
 21
214.76361100000003
  0
LINE
  8
_0-0_0
  6
CONTINUOUS
 62
    7
 10
125.502487
 20
214.67974900000002
 11
125.63246099999998
 21
214.76361100000003
  0
LINE
  8
_0-0_0
  6
CONTINUOUS
 62
    7
 10
125.63246099999998
 20
214.76361100000003
 11
125.752487
 21
214.840057
  0
LINE
  8
_0-0_0
  6
CONTINUOUS
 62
    7
 10
135.002487
 20
214.69754
 11
125.752487
 21
214.69754
  0
LINE
  8
_0-0_0
  6
CONTINUOUS
 62
    7
 10
125.502487
 20
214.56201199999998
 11
125.752487
 21
214.69754
  0
LINE
  8
_0-0_0
  6
CONTINUOUS
 62
    7
 10
135.252487
 20
214.67974900000002
 11
135.002487
 21
214.95886200000001
  0
LINE
  8
_0-0_0
  6
CONTINUOUS
 62
    7
 10
135.002487
 20
214.95886200000001
 11
125.752487
 21
214.95886200000001
  0
LINE
  8
_0-0_0
  6
CONTINUOUS
 62
    7
 10
125.502487
 20
214.67974900000002
 11
125.752487
 21
214.95886200000001
  0
LINE
  8
_0-0_0
  6
CONTINUOUS
 62
    7
 10
135.252487
 20
214.77554300000003
 11
135.002487
 21
214.95886200000001
  0
LINE
  8
_0-0_0
  6
CONTINUOUS
 62
    7
 10
125.502487
 20
214.77554300000003
 11
125.752487
 21
214.95886200000001
  0
LINE
  8
_0-0_0
  6
CONTINUOUS
 62
    7
 10
135.252487
 20
214.77554300000003
 11
135.002487
 21
215.05264299999999
  0
LINE
  8
_0-0_0
  6
CONTINUOUS
 62
    7
 10
135.002487
 20
215.05264299999999
 11
125.752487
 21
215.05264299999999
  0
LINE
  8
_0-0_0
  6
CONTINUOUS
 62
    7
 10
125.502487
 20
214.77554300000003
 11
125.752487
 21
215.05264299999999
  0
LINE
  8
_0-0_0
  6
CONTINUOUS
 62
    7
 10
135.252487
 20
214.84832799999998
 11
135.002487
 21
215.05264299999999
  0
LINE
  8
_0-0_0
  6
CONTINUOUS
 62
    7
 10
125.502487
 20
214.84832799999998
 11
125.752487
 21
215.05264299999999
  0
LINE
  8
_0-0_0
  6
CONTINUOUS
 62
    7
 10
135.252487
 20
214.84832799999998
 11
135.002487
 21
215.120361
  0
LINE
  8
_0-0_0
  6
CONTINUOUS
 62
    7
 10
135.002487
 20
215.120361
 11
125.752487
 21
215.120361
  0
LINE
  8
_0-0_0
  6
CONTINUOUS
 62
    7
 10
125.502487
 20
214.84832799999998
 11
125.752487
 21
215.120361
  0
LINE
  8
_0-0_0
  6
CONTINUOUS
 62
    7
 10
135.252487
 20
214.89730800000001
 11
135.002487
 21
215.120361
  0
LINE
  8
_0-0_0
  6
CONTINUOUS
 62
    7
 10
125.502487
 20
214.89730800000001
 11
125.752487
 21
215.120361
  0
LINE
  8
_0-0_0
  6
CONTINUOUS
 62
    7
 10
135.252487
 20
214.89730800000001
 11
135.002487
 21
215.16128600000002
  0
LINE
  8
_0-0_0
  6
CONTINUOUS
 62
    7
 10
135.002487
 20
215.16128600000002
 11
125.752487
 21
215.16128600000002
  0
LINE
  8
_0-0_0
  6
CONTINUOUS
 62
    7
 10
125.502487
 20
214.89730800000001
 11
125.752487
 21
215.16128600000002
  0
LINE
  8
_0-0_0
  6
CONTINUOUS
 62
    7
 10
135.252487
 20
214.92190599999998
 11
135.002487
 21
215.16128600000002
  0
LINE
  8
_0-0_0
  6
CONTINUOUS
 62
    7
 10
125.502487
 20
214.92190599999998
 11
125.752487
 21
215.16128600000002
  0
LINE
  8
_0-0_0
  6
CONTINUOUS
 62
    7
 10
135.252487
 20
214.92190599999998
 11
135.002487
 21
215.17498799999998
  0
LINE
  8
_0-0_0
  6
CONTINUOUS
 62
    7
 10
135.002487
 20
215.17498799999998
 11
125.752487
 21
215.17498799999998
  0
LINE
  8
_0-0_0
  6
CONTINUOUS
 62
    7
 10
125.502487
 20
214.92190599999998
 11
125.752487
 21
215.17498799999998
  0
LINE
  8
_0-0_0
  6
CONTINUOUS
 62
    7
 10
135.252487
 20
228.04956099999998
 11
135.002487
 21
228.02499399999999
  0
LINE
  8
_0-0_0
  6
CONTINUOUS
 62
    7
 10
135.002487
 20
228.02499399999999
 11
125.752487
 21
228.02499399999999
  0
LINE
  8
_0-0_0
  6
CONTINUOUS
 62
    7
 10
125.502487
 20
228.04956099999998
 11
125.752487
 21
228.02499399999999
  0
LINE
  8
_0-0_0
  6
CONTINUOUS
 62
    7
 10
135.252487
 20
231.02356000000003
 11
135.002487
 21
231.29754600000001
  0
LINE
  8
_0-0_0
  6
CONTINUOUS
 62
    7
 10
135.252487
 20
231.02356000000003
 11
135.002487
 21
231.13284299999998
  0
LINE
  8
_0-0_0
  6
CONTINUOUS
 62
    7
 10
135.252487
 20
230.86599699999999
 11
135.002487
 21
231.13284299999998
  0
LINE
  8
_0-0_0
  6
CONTINUOUS
 62
    7
 10
135.252487
 20
230.86599699999999
 11
135.002487
 21
230.94781499999999
  0
LINE
  8
_0-0_0
  6
CONTINUOUS
 62
    7
 10
135.252487
 20
230.69097900000003
 11
135.002487
 21
230.94781499999999
  0
LINE
  8
_0-0_0
  6
CONTINUOUS
 62
    7
 10
135.252487
 20
230.69097900000003
 11
135.002487
 21
230.74444599999998
  0
LINE
  8
_0-0_0
  6
CONTINUOUS
 62
    7
 10
135.252487
 20
230.500427
 11
135.002487
 21
230.74444599999998
  0
LINE
  8
_0-0_0
  6
CONTINUOUS
 62
    7
 10
135.252487
 20
230.500427
 11
135.002487
 21
230.52499399999999
  0
LINE
  8
_0-0_0
  6
CONTINUOUS
 62
    7
 10
135.252487
 20
230.29647799999998
 11
135.002487
 21
230.52499399999999
  0
LINE
  8
_0-0_0
  6
CONTINUOUS
 62
    7
 10
135.252487
 20
230.29647799999998
 11
135.002487
 21
230.29183999999998
  0
LINE
  8
_0-0_0
  6
CONTINUOUS
 62
    7
 10
135.252487
 20
230.08132899999998
 11
135.002487
 21
230.29183999999998
  0
LINE
  8
_0-0_0
  6
CONTINUOUS
 62
    7
 10
135.252487
 20
230.08132899999998
 11
135.002487
 21
230.04754600000001
  0
LINE
  8
_0-0_0
  6
CONTINUOUS
 62
    7
 10
135.252487
 20
229.85732999999999
 11
135.002487
 21
230.04754600000001
  0
LINE
  8
_0-0_0
  6
CONTINUOUS
 62
    7
 10
135.252487
 20
229.85732999999999
 11
135.002487
 21
229.79476900000003
  0
LINE
  8
_0-0_0
  6
CONTINUOUS
 62
    7
 10
135.252487
 20
229.62698399999999
 11
135.002487
 21
229.79476900000003
  0
LINE
  8
_0-0_0
  6
CONTINUOUS
 62
    7
 10
135.252487
 20
229.62698399999999
 11
135.002487
 21
229.536316
  0
LINE
  8
_0-0_0
  6
CONTINUOUS
 62
    7
 10
135.252487
 20
229.39276100000001
 11
135.002487
 21
229.536316
  0
LINE
  8
_0-0_0
  6
CONTINUOUS
 62
    7
 10
135.252487
 20
229.39276100000001
 11
135.002487
 21
229.27499399999999
  0
LINE
  8
_0-0_0
  6
CONTINUOUS
 62
    7
 10
135.252487
 20
229.15722700000003
 11
135.002487
 21
229.27499399999999
  0
LINE
  8
_0-0_0
  6
CONTINUOUS
 62
    7
 10
135.252487
 20
229.15722700000003
 11
135.002487
 21
229.01367199999999
  0
LINE
  8
_0-0_0
  6
CONTINUOUS
 62
    7
 10
135.252487
 20
228.92300399999999
 11
135.002487
 21
229.01367199999999
  0
LINE
  8
_0-0_0
  6
CONTINUOUS
 62
    7
 10
135.252487
 20
228.92300399999999
 11
135.002487
 21
228.75521900000001
  0
LINE
  8
_0-0_0
  6
CONTINUOUS
 62
    7
 10
135.252487
 20
228.69265799999999
 11
135.002487
 21
228.75521900000001
  0
LINE
  8
_0-0_0
  6
CONTINUOUS
 62
    7
 10
135.252487
 20
228.69265799999999
 11
135.002487
 21
228.50244200000003
  0
LINE
  8
_0-0_0
  6
CONTINUOUS
 62
    7
 10
135.252487
 20
228.468659
 11
135.002487
 21
228.50244200000003
  0
LINE
  8
_0-0_0
  6
CONTINUOUS
 62
    7
 10
135.252487
 20
228.468659
 11
135.002487
 21
228.25814800000001
  0
LINE
  8
_0-0_0
  6
CONTINUOUS
 62
    7
 10
135.252487
 20
228.25351000000001
 11
135.002487
 21
228.25814800000001
  0
LINE
  8
_0-0_0
  6
CONTINUOUS
 62
    7
 10
135.252487
 20
228.25351000000001
 11
135.002487
 21
228.02499399999999
  0
LINE
  8
_0-0_0
  6
CONTINUOUS
 62
    7
 10
135.252487
 20
228.04956099999998
 11
135.002487
 21
227.805542
  0
LINE
  8
_0-0_0
  6
CONTINUOUS
 62
    7
 10
135.252487
 20
227.85900900000001
 11
135.002487
 21
227.805542
  0
LINE
  8
_0-0_0
  6
CONTINUOUS
 62
    7
 10
135.252487
 20
227.85900900000001
 11
135.002487
 21
227.60217299999999
  0
LINE
  8
_0-0_0
  6
CONTINUOUS
 62
    7
 10
135.252487
 20
227.68399099999999
 11
135.002487
 21
227.60217299999999
  0
LINE
  8
_0-0_0
  6
CONTINUOUS
 62
    7
 10
135.252487
 20
227.68399099999999
 11
135.002487
 21
227.417145
  0
LINE
  8
_0-0_0
  6
CONTINUOUS
 62
    7
 10
135.252487
 20
227.52642800000001
 11
135.002487
 21
227.417145
  0
LINE
  8
_0-0_0
  6
CONTINUOUS
 62
    7
 10
135.252487
 20
227.52642800000001
 11
135.002487
 21
227.25244200000003
  0
LINE
  8
_0-0_0
  6
CONTINUOUS
 62
    7
 10
135.252487
 20
227.38800100000003
 11
135.002487
 21
227.25244200000003
  0
LINE
  8
_0-0_0
  6
CONTINUOUS
 62
    7
 10
135.252487
 20
227.38800100000003
 11
135.002487
 21
227.10992400000003
  0
LINE
  8
_0-0_0
  6
CONTINUOUS
 62
    7
 10
135.252487
 20
227.27023300000002
 11
135.002487
 21
227.10992400000003
  0
LINE
  8
_0-0_0
  6
CONTINUOUS
 62
    7
 10
135.252487
 20
227.27023300000002
 11
135.002487
 21
226.99111900000003
  0
LINE
  8
_0-0_0
  6
CONTINUOUS
 62
    7
 10
135.252487
 20
227.17443900000001
 11
135.002487
 21
226.99111900000003
  0
LINE
  8
_0-0_0
  6
CONTINUOUS
 62
    7
 10
135.252487
 20
227.17443900000001
 11
135.002487
 21
226.89733899999999
  0
LINE
  8
_0-0_0
  6
CONTINUOUS
 62
    7
 10
135.252487
 20
227.101654
 11
135.002487
 21
226.89733899999999
  0
LINE
  8
_0-0_0
  6
CONTINUOUS
 62
    7
 10
135.252487
 20
227.101654
 11
135.002487
 21
226.82962000000003
  0
LINE
  8
_0-0_0
  6
CONTINUOUS
 62
    7
 10
135.252487
 20
227.05270400000001
 11
135.002487
 21
226.82962000000003
  0
LINE
  8
_0-0_0
  6
CONTINUOUS
 62
    7
 10
135.252487
 20
227.05270400000001
 11
135.002487
 21
226.78869600000002
  0
LINE
  8
_0-0_0
  6
CONTINUOUS
 62
    7
 10
135.252487
 20
227.028076
 11
135.002487
 21
226.78869600000002
  0
LINE
  8
_0-0_0
  6
CONTINUOUS
 62
    7
 10
135.252487
 20
227.028076
 11
135.002487
 21
226.77499399999999
  0
LINE
  8
_0-0_0
  6
CONTINUOUS
 62
    7
 10
135.502487
 20
227.27499399999999
 11
135.502487
 21
231.03015099999999
  0
LINE
  8
_0-0_0
  6
CONTINUOUS
 62
    7
 10
135.12252799999999
 20
231.36361700000003
 11
135.002487
 21
231.44006400000001
  0
LINE
  8
_0-0_0
  6
CONTINUOUS
 62
    7
 10
135.252487
 20
231.16201799999999
 11
135.002487
 21
231.44006400000001
  0
LINE
  8
_0-0_0
  6
CONTINUOUS
 62
    7
 10
135.252487
 20
231.16201799999999
 11
135.002487
 21
231.29754600000001
  0
LINE
  8
_0-0_0
  6
CONTINUOUS
 62
    7
 10
135.002487
 20
231.13284299999998
 11
125.752487
 21
231.13284299999998
  0
LINE
  8
_0-0_0
  6
CONTINUOUS
 62
    7
 10
125.502487
 20
231.02356000000003
 11
125.752487
 21
231.13284299999998
  0
LINE
  8
_0-0_0
  6
CONTINUOUS
 62
    7
 10
135.002487
 20
230.94781499999999
 11
125.752487
 21
230.94781499999999
  0
LINE
  8
_0-0_0
  6
CONTINUOUS
 62
    7
 10
125.502487
 20
230.86599699999999
 11
125.752487
 21
230.94781499999999
  0
LINE
  8
_0-0_0
  6
CONTINUOUS
 62
    7
 10
135.002487
 20
230.74444599999998
 11
125.752487
 21
230.74444599999998
  0
LINE
  8
_0-0_0
  6
CONTINUOUS
 62
    7
 10
125.502487
 20
230.69097900000003
 11
125.752487
 21
230.74444599999998
  0
LINE
  8
_0-0_0
  6
CONTINUOUS
 62
    7
 10
135.002487
 20
230.52499399999999
 11
125.752487
 21
230.52499399999999
  0
LINE
  8
_0-0_0
  6
CONTINUOUS
 62
    7
 10
125.502487
 20
230.500427
 11
125.752487
 21
230.52499399999999
  0
LINE
  8
_0-0_0
  6
CONTINUOUS
 62
    7
 10
135.002487
 20
230.29183999999998
 11
125.752487
 21
230.29183999999998
  0
LINE
  8
_0-0_0
  6
CONTINUOUS
 62
    7
 10
135.252487
 20
230.29647799999998
 11
125.502487
 21
230.29647799999998
  0
LINE
  8
_0-0_0
  6
CONTINUOUS
 62
    7
 10
125.502487
 20
230.29647799999998
 11
125.752487
 21
230.29183999999998
  0
LINE
  8
_0-0_0
  6
CONTINUOUS
 62
    7
 10
135.002487
 20
230.04754600000001
 11
125.752487
 21
230.04754600000001
  0
LINE
  8
_0-0_0
  6
CONTINUOUS
 62
    7
 10
135.252487
 20
230.08132899999998
 11
125.502487
 21
230.08132899999998
  0
LINE
  8
_0-0_0
  6
CONTINUOUS
 62
    7
 10
125.502487
 20
230.08132899999998
 11
125.752487
 21
230.04754600000001
  0
LINE
  8
_0-0_0
  6
CONTINUOUS
 62
    7
 10
135.002487
 20
229.79476900000003
 11
125.752487
 21
229.79476900000003
  0
LINE
  8
_0-0_0
  6
CONTINUOUS
 62
    7
 10
135.252487
 20
229.85732999999999
 11
125.502487
 21
229.85732999999999
  0
LINE
  8
_0-0_0
  6
CONTINUOUS
 62
    7
 10
125.502487
 20
229.85732999999999
 11
125.752487
 21
229.79476900000003
  0
LINE
  8
_0-0_0
  6
CONTINUOUS
 62
    7
 10
135.002487
 20
229.536316
 11
125.752487
 21
229.536316
  0
LINE
  8
_0-0_0
  6
CONTINUOUS
 62
    7
 10
135.252487
 20
229.62698399999999
 11
125.502487
 21
229.62698399999999
  0
LINE
  8
_0-0_0
  6
CONTINUOUS
 62
    7
 10
125.502487
 20
229.62698399999999
 11
125.752487
 21
229.536316
  0
LINE
  8
_0-0_0
  6
CONTINUOUS
 62
    7
 10
135.002487
 20
229.27499399999999
 11
125.752487
 21
229.27499399999999
  0
LINE
  8
_0-0_0
  6
CONTINUOUS
 62
    7
 10
135.252487
 20
229.39276100000001
 11
125.502487
 21
229.39276100000001
  0
LINE
  8
_0-0_0
  6
CONTINUOUS
 62
    7
 10
125.502487
 20
229.39276100000001
 11
125.752487
 21
229.27499399999999
  0
LINE
  8
_0-0_0
  6
CONTINUOUS
 62
    7
 10
135.002487
 20
229.01367199999999
 11
125.752487
 21
229.01367199999999
  0
LINE
  8
_0-0_0
  6
CONTINUOUS
 62
    7
 10
135.252487
 20
229.15722700000003
 11
125.502487
 21
229.15722700000003
  0
LINE
  8
_0-0_0
  6
CONTINUOUS
 62
    7
 10
125.502487
 20
229.15722700000003
 11
125.752487
 21
229.01367199999999
  0
LINE
  8
_0-0_0
  6
CONTINUOUS
 62
    7
 10
135.002487
 20
228.75521900000001
 11
125.752487
 21
228.75521900000001
  0
LINE
  8
_0-0_0
  6
CONTINUOUS
 62
    7
 10
135.252487
 20
228.92300399999999
 11
125.502487
 21
228.92300399999999
  0
LINE
  8
_0-0_0
  6
CONTINUOUS
 62
    7
 10
125.502487
 20
228.92300399999999
 11
125.752487
 21
228.75521900000001
  0
LINE
  8
_0-0_0
  6
CONTINUOUS
 62
    7
 10
135.002487
 20
228.50244200000003
 11
125.752487
 21
228.50244200000003
  0
LINE
  8
_0-0_0
  6
CONTINUOUS
 62
    7
 10
135.252487
 20
228.69265799999999
 11
125.502487
 21
228.69265799999999
  0
LINE
  8
_0-0_0
  6
CONTINUOUS
 62
    7
 10
125.502487
 20
228.69265799999999
 11
125.752487
 21
228.50244200000003
  0
LINE
  8
_0-0_0
  6
CONTINUOUS
 62
    7
 10
135.002487
 20
228.25814800000001
 11
125.752487
 21
228.25814800000001
  0
LINE
  8
_0-0_0
  6
CONTINUOUS
 62
    7
 10
135.252487
 20
228.468659
 11
125.502487
 21
228.468659
  0
LINE
  8
_0-0_0
  6
CONTINUOUS
 62
    7
 10
125.502487
 20
228.468659
 11
125.752487
 21
228.25814800000001
  0
LINE
  8
_0-0_0
  6
CONTINUOUS
 62
    7
 10
135.002487
 20
227.60217299999999
 11
125.752487
 21
227.60217299999999
  0
LINE
  8
_0-0_0
  6
CONTINUOUS
 62
    7
 10
125.502487
 20
227.85900900000001
 11
125.752487
 21
227.60217299999999
  0
LINE
  8
_0-0_0
  6
CONTINUOUS
 62
    7
 10
135.002487
 20
227.417145
 11
125.752487
 21
227.417145
  0
LINE
  8
_0-0_0
  6
CONTINUOUS
 62
    7
 10
125.502487
 20
227.68399099999999
 11
125.752487
 21
227.417145
  0
LINE
  8
_0-0_0
  6
CONTINUOUS
 62
    7
 10
135.002487
 20
227.25244200000003
 11
125.752487
 21
227.25244200000003
  0
LINE
  8
_0-0_0
  6
CONTINUOUS
 62
    7
 10
125.502487
 20
227.52642800000001
 11
125.752487
 21
227.25244200000003
  0
LINE
  8
_0-0_0
  6
CONTINUOUS
 62
    7
 10
135.002487
 20
227.10992400000003
 11
125.752487
 21
227.10992400000003
  0
LINE
  8
_0-0_0
  6
CONTINUOUS
 62
    7
 10
125.502487
 20
227.38800100000003
 11
125.752487
 21
227.10992400000003
  0
LINE
  8
_0-0_0
  6
CONTINUOUS
 62
    7
 10
135.002487
 20
226.99111900000003
 11
125.752487
 21
226.99111900000003
  0
LINE
  8
_0-0_0
  6
CONTINUOUS
 62
    7
 10
125.502487
 20
227.27023300000002
 11
125.752487
 21
226.99111900000003
  0
LINE
  8
_0-0_0
  6
CONTINUOUS
 62
    7
 10
135.002487
 20
226.89733899999999
 11
125.752487
 21
226.89733899999999
  0
LINE
  8
_0-0_0
  6
CONTINUOUS
 62
    7
 10
125.502487
 20
227.17443900000001
 11
125.752487
 21
226.89733899999999
  0
LINE
  8
_0-0_0
  6
CONTINUOUS
 62
    7
 10
135.002487
 20
226.82962000000003
 11
125.752487
 21
226.82962000000003
  0
LINE
  8
_0-0_0
  6
CONTINUOUS
 62
    7
 10
125.502487
 20
227.101654
 11
125.752487
 21
226.82962000000003
  0
LINE
  8
_0-0_0
  6
CONTINUOUS
 62
    7
 10
135.002487
 20
226.78869600000002
 11
125.752487
 21
226.78869600000002
  0
LINE
  8
_0-0_0
  6
CONTINUOUS
 62
    7
 10
125.502487
 20
227.05270400000001
 11
125.752487
 21
226.78869600000002
  0
LINE
  8
_0-0_0
  6
CONTINUOUS
 62
    7
 10
135.002487
 20
226.77499399999999
 11
125.752487
 21
226.77499399999999
  0
LINE
  8
_0-0_0
  6
CONTINUOUS
 62
    7
 10
125.502487
 20
227.028076
 11
125.752487
 21
226.77499399999999
  0
LINE
  8
_0-0_0
  6
CONTINUOUS
 62
    7
 10
135.002487
 20
231.44006400000001
 11
125.752487
 21
231.44006400000001
  0
LINE
  8
_0-0_0
  6
CONTINUOUS
 62
    7
 10
135.252487
 20
231.27975500000002
 11
135.12252799999999
 21
231.36361700000003
  0
LINE
  8
_0-0_0
  6
CONTINUOUS
 62
    7
 10
125.502487
 20
231.27975500000002
 11
125.63246099999998
 21
231.36361700000003
  0
LINE
  8
_0-0_0
  6
CONTINUOUS
 62
    7
 10
125.63246099999998
 20
231.36361700000003
 11
125.752487
 21
231.44006400000001
  0
LINE
  8
_0-0_0
  6
CONTINUOUS
 62
    7
 10
135.002487
 20
231.29754600000001
 11
125.752487
 21
231.29754600000001
  0
LINE
  8
_0-0_0
  6
CONTINUOUS
 62
    7
 10
125.502487
 20
231.16201799999999
 11
125.752487
 21
231.29754600000001
  0
LINE
  8
_0-0_0
  6
CONTINUOUS
 62
    7
 10
135.252487
 20
231.27975500000002
 11
135.002487
 21
231.55886900000002
  0
LINE
  8
_0-0_0
  6
CONTINUOUS
 62
    7
 10
135.002487
 20
231.55886900000002
 11
125.752487
 21
231.55886900000002
  0
LINE
  8
_0-0_0
  6
CONTINUOUS
 62
    7
 10
125.502487
 20
231.27975500000002
 11
125.752487
 21
231.55886900000002
  0
LINE
  8
_0-0_0
  6
CONTINUOUS
 62
    7
 10
135.252487
 20
231.37554900000003
 11
135.002487
 21
231.55886900000002
  0
LINE
  8
_0-0_0
  6
CONTINUOUS
 62
    7
 10
125.502487
 20
231.37554900000003
 11
125.752487
 21
231.55886900000002
  0
LINE
  8
_0-0_0
  6
CONTINUOUS
 62
    7
 10
135.252487
 20
231.37554900000003
 11
135.002487
 21
231.652649
  0
LINE
  8
_0-0_0
  6
CONTINUOUS
 62
    7
 10
135.002487
 20
231.652649
 11
125.752487
 21
231.652649
  0
LINE
  8
_0-0_0
  6
CONTINUOUS
 62
    7
 10
125.502487
 20
231.37554900000003
 11
125.752487
 21
231.652649
  0
LINE
  8
_0-0_0
  6
CONTINUOUS
 62
    7
 10
135.252487
 20
231.44833399999999
 11
135.002487
 21
231.652649
  0
LINE
  8
_0-0_0
  6
CONTINUOUS
 62
    7
 10
125.502487
 20
231.44833399999999
 11
125.752487
 21
231.652649
  0
LINE
  8
_0-0_0
  6
CONTINUOUS
 62
    7
 10
135.252487
 20
231.44833399999999
 11
135.002487
 21
231.72036800000001
  0
LINE
  8
_0-0_0
  6
CONTINUOUS
 62
    7
 10
135.002487
 20
231.72036800000001
 11
125.752487
 21
231.72036800000001
  0
LINE
  8
_0-0_0
  6
CONTINUOUS
 62
    7
 10
125.502487
 20
231.44833399999999
 11
125.752487
 21
231.72036800000001
  0
LINE
  8
_0-0_0
  6
CONTINUOUS
 62
    7
 10
135.252487
 20
231.49728399999998
 11
135.002487
 21
231.72036800000001
  0
LINE
  8
_0-0_0
  6
CONTINUOUS
 62
    7
 10
125.502487
 20
231.49728399999998
 11
125.752487
 21
231.72036800000001
  0
LINE
  8
_0-0_0
  6
CONTINUOUS
 62
    7
 10
135.252487
 20
231.49728399999998
 11
135.002487
 21
231.76129200000003
  0
LINE
  8
_0-0_0
  6
CONTINUOUS
 62
    7
 10
135.002487
 20
231.76129200000003
 11
125.752487
 21
231.76129200000003
  0
LINE
  8
_0-0_0
  6
CONTINUOUS
 62
    7
 10
125.502487
 20
231.49728399999998
 11
125.752487
 21
231.76129200000003
  0
LINE
  8
_0-0_0
  6
CONTINUOUS
 62
    7
 10
135.252487
 20
231.52191199999999
 11
135.002487
 21
231.76129200000003
  0
LINE
  8
_0-0_0
  6
CONTINUOUS
 62
    7
 10
125.502487
 20
231.52191199999999
 11
125.752487
 21
231.76129200000003
  0
LINE
  8
_0-0_0
  6
CONTINUOUS
 62
    7
 10
135.252487
 20
231.52191199999999
 11
135.002487
 21
231.77499399999999
  0
LINE
  8
_0-0_0
  6
CONTINUOUS
 62
    7
 10
135.002487
 20
231.77499399999999
 11
125.752487
 21
231.77499399999999
  0
LINE
  8
_0-0_0
  6
CONTINUOUS
 62
    7
 10
125.502487
 20
231.52191199999999
 11
125.752487
 21
231.77499399999999
  0
LINE
  8
_0-0_0
  6
CONTINUOUS
 62
    7
 10
180.70248399999997
 20
216.97500600000001
 11
180.70248399999997
 21
216.97634900000003
  0
LINE
  8
_0-0_0
  6
CONTINUOUS
 62
    7
 10
180.70248399999997
 20
216.97634900000003
 11
180.70248399999997
 21
224.97500600000001
  0
LINE
  8
_0-0_0
  6
CONTINUOUS
 62
    7
 10
125.502487
 20
231.16201799999999
 11
125.752487
 21
231.44006400000001
  0
LINE
  8
_0-0_0
  6
CONTINUOUS
 62
    7
 10
135.502487
 20
231.03015099999999
 11
135.502487
 21
231.27499399999999
  0
LINE
  8
_0-0_0
  6
CONTINUOUS
 62
    7
 10
125.502487
 20
227.028076
 11
125.752487
 21
226.78869600000002
  0
LINE
  8
_0-0_0
  6
CONTINUOUS
 62
    7
 10
125.502487
 20
227.05270400000001
 11
125.752487
 21
226.82962000000003
  0
LINE
  8
_0-0_0
  6
CONTINUOUS
 62
    7
 10
125.502487
 20
227.101654
 11
125.752487
 21
226.89733899999999
  0
LINE
  8
_0-0_0
  6
CONTINUOUS
 62
    7
 10
125.502487
 20
227.17443900000001
 11
125.752487
 21
226.99111900000003
  0
LINE
  8
_0-0_0
  6
CONTINUOUS
 62
    7
 10
125.502487
 20
227.27023300000002
 11
125.752487
 21
227.10992400000003
  0
LINE
  8
_0-0_0
  6
CONTINUOUS
 62
    7
 10
125.502487
 20
227.38800100000003
 11
125.752487
 21
227.25244200000003
  0
LINE
  8
_0-0_0
  6
CONTINUOUS
 62
    7
 10
125.502487
 20
227.52642800000001
 11
125.752487
 21
227.417145
  0
LINE
  8
_0-0_0
  6
CONTINUOUS
 62
    7
 10
125.502487
 20
227.68399099999999
 11
125.752487
 21
227.60217299999999
  0
LINE
  8
_0-0_0
  6
CONTINUOUS
 62
    7
 10
135.002487
 20
227.805542
 11
125.752487
 21
227.805542
  0
LINE
  8
_0-0_0
  6
CONTINUOUS
 62
    7
 10
125.502487
 20
227.85900900000001
 11
125.752487
 21
227.805542
  0
LINE
  8
_0-0_0
  6
CONTINUOUS
 62
    7
 10
125.502487
 20
228.25351000000001
 11
125.752487
 21
228.25814800000001
  0
LINE
  8
_0-0_0
  6
CONTINUOUS
 62
    7
 10
135.252487
 20
228.25351000000001
 11
125.502487
 21
228.25351000000001
  0
LINE
  8
_0-0_0
  6
CONTINUOUS
 62
    7
 10
125.502487
 20
228.468659
 11
125.752487
 21
228.50244200000003
  0
LINE
  8
_0-0_0
  6
CONTINUOUS
 62
    7
 10
125.502487
 20
228.69265799999999
 11
125.752487
 21
228.75521900000001
  0
LINE
  8
_0-0_0
  6
CONTINUOUS
 62
    7
 10
125.502487
 20
228.92300399999999
 11
125.752487
 21
229.01367199999999
  0
LINE
  8
_0-0_0
  6
CONTINUOUS
 62
    7
 10
125.502487
 20
229.15722700000003
 11
125.752487
 21
229.27499399999999
  0
LINE
  8
_0-0_0
  6
CONTINUOUS
 62
    7
 10
125.502487
 20
229.39276100000001
 11
125.752487
 21
229.536316
  0
LINE
  8
_0-0_0
  6
CONTINUOUS
 62
    7
 10
125.502487
 20
229.62698399999999
 11
125.752487
 21
229.79476900000003
  0
LINE
  8
_0-0_0
  6
CONTINUOUS
 62
    7
 10
125.502487
 20
229.85732999999999
 11
125.752487
 21
230.04754600000001
  0
LINE
  8
_0-0_0
  6
CONTINUOUS
 62
    7
 10
125.502487
 20
230.08132899999998
 11
125.752487
 21
230.29183999999998
  0
LINE
  8
_0-0_0
  6
CONTINUOUS
 62
    7
 10
125.502487
 20
230.29647799999998
 11
125.752487
 21
230.52499399999999
  0
LINE
  8
_0-0_0
  6
CONTINUOUS
 62
    7
 10
125.502487
 20
230.500427
 11
125.752487
 21
230.74444599999998
  0
LINE
  8
_0-0_0
  6
CONTINUOUS
 62
    7
 10
125.502487
 20
230.69097900000003
 11
125.752487
 21
230.94781499999999
  0
LINE
  8
_0-0_0
  6
CONTINUOUS
 62
    7
 10
125.502487
 20
230.86599699999999
 11
125.752487
 21
231.13284299999998
  0
LINE
  8
_0-0_0
  6
CONTINUOUS
 62
    7
 10
125.502487
 20
231.02356000000003
 11
125.752487
 21
231.29754600000001
  0
LINE
  8
_0-0_0
  6
CONTINUOUS
 62
    7
 10
125.502487
 20
228.04956099999998
 11
125.752487
 21
227.805542
  0
LINE
  8
_0-0_0
  6
CONTINUOUS
 62
    7
 10
125.502487
 20
228.25351000000001
 11
125.752487
 21
228.02499399999999
  0
LINE
  8
_0-0_0
  6
CONTINUOUS
 62
    7
 10
125.502487
 20
214.56201199999998
 11
125.752487
 21
214.840057
  0
LINE
  8
_0-0_0
  6
CONTINUOUS
 62
    7
 10
135.502487
 20
214.43014499999998
 11
135.502487
 21
214.67498799999998
  0
LINE
  8
_0-0_0
  6
CONTINUOUS
 62
    7
 10
125.502487
 20
210.42806999999999
 11
125.752487
 21
210.18869000000001
  0
LINE
  8
_0-0_0
  6
CONTINUOUS
 62
    7
 10
125.502487
 20
210.452698
 11
125.752487
 21
210.22961400000003
  0
LINE
  8
_0-0_0
  6
CONTINUOUS
 62
    7
 10
125.502487
 20
210.50164799999999
 11
125.752487
 21
210.29736300000002
  0
LINE
  8
_0-0_0
  6
CONTINUOUS
 62
    7
 10
125.502487
 20
210.574432
 11
125.752487
 21
210.391144
  0
LINE
  8
_0-0_0
  6
CONTINUOUS
 62
    7
 10
125.502487
 20
210.67022700000001
 11
125.752487
 21
210.50991800000003
  0
LINE
  8
_0-0_0
  6
CONTINUOUS
 62
    7
 10
125.502487
 20
210.78799400000003
 11
125.752487
 21
210.652466
  0
LINE
  8
_0-0_0
  6
CONTINUOUS
 62
    7
 10
125.502487
 20
210.926422
 11
125.752487
 21
210.817139
  0
LINE
  8
_0-0_0
  6
CONTINUOUS
 62
    7
 10
125.502487
 20
211.08401500000002
 11
125.752487
 21
211.00216699999999
  0
LINE
  8
_0-0_0
  6
CONTINUOUS
 62
    7
 10
135.002487
 20
211.205536
 11
125.752487
 21
211.205536
  0
LINE
  8
_0-0_0
  6
CONTINUOUS
 62
    7
 10
125.502487
 20
211.25903299999999
 11
125.752487
 21
211.205536
  0
LINE
  8
_0-0_0
  6
CONTINUOUS
 62
    7
 10
125.502487
 20
211.653504
 11
125.752487
 21
211.658142
  0
LINE
  8
_0-0_0
  6
CONTINUOUS
 62
    7
 10
135.252487
 20
211.653504
 11
125.502487
 21
211.653504
  0
LINE
  8
_0-0_0
  6
CONTINUOUS
 62
    7
 10
125.502487
 20
211.86868300000003
 11
125.752487
 21
211.902466
  0
LINE
  8
_0-0_0
  6
CONTINUOUS
 62
    7
 10
125.502487
 20
212.09265099999999
 11
125.752487
 21
212.155213
  0
LINE
  8
_0-0_0
  6
CONTINUOUS
 62
    7
 10
125.502487
 20
212.32302900000002
 11
125.752487
 21
212.41366600000003
  0
LINE
  8
_0-0_0
  6
CONTINUOUS
 62
    7
 10
125.502487
 20
212.55725100000001
 11
125.752487
 21
212.67498799999998
  0
LINE
  8
_0-0_0
  6
CONTINUOUS
 62
    7
 10
125.502487
 20
212.792755
 11
125.752487
 21
212.93630999999999
  0
LINE
  8
_0-0_0
  6
CONTINUOUS
 62
    7
 10
125.502487
 20
213.02697799999999
 11
125.752487
 21
213.19476300000002
  0
LINE
  8
_0-0_0
  6
CONTINUOUS
 62
    7
 10
125.502487
 20
213.25732399999998
 11
125.752487
 21
213.44754
  0
LINE
  8
_0-0_0
  6
CONTINUOUS
 62
    7
 10
125.502487
 20
213.48132300000003
 11
125.752487
 21
213.69183400000003
  0
LINE
  8
_0-0_0
  6
CONTINUOUS
 62
    7
 10
125.502487
 20
213.69647200000003
 11
125.752487
 21
213.92498799999998
  0
LINE
  8
_0-0_0
  6
CONTINUOUS
 62
    7
 10
125.502487
 20
213.90042099999999
 11
125.752487
 21
214.14447000000001
  0
LINE
  8
_0-0_0
  6
CONTINUOUS
 62
    7
 10
125.502487
 20
214.09097300000002
 11
125.752487
 21
214.34780899999998
  0
LINE
  8
_0-0_0
  6
CONTINUOUS
 62
    7
 10
125.502487
 20
214.26599099999999
 11
125.752487
 21
214.53286800000001
  0
LINE
  8
_0-0_0
  6
CONTINUOUS
 62
    7
 10
125.502487
 20
214.42358400000001
 11
125.752487
 21
214.69754
  0
LINE
  8
_0-0_0
  6
CONTINUOUS
 62
    7
 10
125.502487
 20
211.44955500000003
 11
125.752487
 21
211.205536
  0
LINE
  8
_0-0_0
  6
CONTINUOUS
 62
    7
 10
125.502487
 20
211.653504
 11
125.752487
 21
211.42498799999998
  0
LINE
  8
_0-0_0
  6
CONTINUOUS
 62
    7
 10
122.702484
 20
216.43689000000001
 11
122.702484
 21
218.70593300000002
  0
LINE
  8
_0-0_0
  6
CONTINUOUS
 62
    7
 10
122.702484
 20
218.70593300000002
 11
122.702484
 21
225.51312300000001
  0
LINE
  8
_0-0_0
  6
CONTINUOUS
 62
    7
 10
125.502487
 20
228.25351000000001
 11
125.502487
 21
228.468659
  0
LINE
  8
_0-0_0
  6
CONTINUOUS
 62
    7
 10
125.502487
 20
228.468659
 11
125.502487
 21
228.69265799999999
  0
LINE
  8
_0-0_0
  6
CONTINUOUS
 62
    7
 10
125.502487
 20
228.69265799999999
 11
125.502487
 21
228.92300399999999
  0
LINE
  8
_0-0_0
  6
CONTINUOUS
 62
    7
 10
125.502487
 20
228.92300399999999
 11
125.502487
 21
229.15722700000003
  0
LINE
  8
_0-0_0
  6
CONTINUOUS
 62
    7
 10
125.502487
 20
229.15722700000003
 11
125.502487
 21
229.39276100000001
  0
LINE
  8
_0-0_0
  6
CONTINUOUS
 62
    7
 10
125.502487
 20
229.39276100000001
 11
125.502487
 21
229.62698399999999
  0
LINE
  8
_0-0_0
  6
CONTINUOUS
 62
    7
 10
125.502487
 20
229.62698399999999
 11
125.502487
 21
229.85732999999999
  0
LINE
  8
_0-0_0
  6
CONTINUOUS
 62
    7
 10
125.502487
 20
229.85732999999999
 11
125.502487
 21
230.08132899999998
  0
LINE
  8
_0-0_0
  6
CONTINUOUS
 62
    7
 10
125.502487
 20
230.08132899999998
 11
125.502487
 21
230.29647799999998
  0
LINE
  8
_0-0_0
  6
CONTINUOUS
 62
    7
 10
125.502487
 20
230.29647799999998
 11
125.502487
 21
230.500427
  0
LINE
  8
_0-0_0
  6
CONTINUOUS
 62
    7
 10
125.502487
 20
230.500427
 11
125.502487
 21
230.69097900000003
  0
LINE
  8
_0-0_0
  6
CONTINUOUS
 62
    7
 10
125.502487
 20
230.69097900000003
 11
125.502487
 21
230.86599699999999
  0
LINE
  8
_0-0_0
  6
CONTINUOUS
 62
    7
 10
125.502487
 20
230.86599699999999
 11
125.502487
 21
231.02356000000003
  0
LINE
  8
_0-0_0
  6
CONTINUOUS
 62
    7
 10
125.502487
 20
231.02356000000003
 11
125.502487
 21
231.16201799999999
  0
LINE
  8
_0-0_0
  6
CONTINUOUS
 62
    7
 10
125.502487
 20
231.16201799999999
 11
125.502487
 21
231.24954200000002
  0
LINE
  8
_0-0_0
  6
CONTINUOUS
 62
    7
 10
125.502487
 20
231.24954200000002
 11
125.502487
 21
231.27975500000002
  0
LINE
  8
_0-0_0
  6
CONTINUOUS
 62
    7
 10
125.502487
 20
231.27975500000002
 11
125.502487
 21
231.37554900000003
  0
LINE
  8
_0-0_0
  6
CONTINUOUS
 62
    7
 10
125.502487
 20
231.37554900000003
 11
125.502487
 21
231.44833399999999
  0
LINE
  8
_0-0_0
  6
CONTINUOUS
 62
    7
 10
125.502487
 20
231.44833399999999
 11
125.502487
 21
231.52499399999999
  0
LINE
  8
_0-0_0
  6
CONTINUOUS
 62
    7
 10
125.502487
 20
231.49728399999998
 11
125.502487
 21
231.52191199999999
  0
LINE
  8
_0-0_0
  6
CONTINUOUS
 62
    7
 10
125.502487
 20
231.52191199999999
 11
125.502487
 21
231.52499399999999
  0
LINE
  8
_0-0_0
  6
CONTINUOUS
 62
    7
 10
125.502487
 20
227.02499399999999
 11
125.502487
 21
227.028076
  0
LINE
  8
_0-0_0
  6
CONTINUOUS
 62
    7
 10
125.502487
 20
227.028076
 11
125.502487
 21
227.05270400000001
  0
LINE
  8
_0-0_0
  6
CONTINUOUS
 62
    7
 10
125.502487
 20
227.05270400000001
 11
125.502487
 21
227.101654
  0
LINE
  8
_0-0_0
  6
CONTINUOUS
 62
    7
 10
125.502487
 20
227.101654
 11
125.502487
 21
227.17443900000001
  0
LINE
  8
_0-0_0
  6
CONTINUOUS
 62
    7
 10
125.502487
 20
227.17443900000001
 11
125.502487
 21
227.27023300000002
  0
LINE
  8
_0-0_0
  6
CONTINUOUS
 62
    7
 10
125.502487
 20
227.02499399999999
 11
125.502487
 21
227.38800100000003
  0
LINE
  8
_0-0_0
  6
CONTINUOUS
 62
    7
 10
125.502487
 20
227.38800100000003
 11
125.502487
 21
227.52642800000001
  0
LINE
  8
_0-0_0
  6
CONTINUOUS
 62
    7
 10
125.502487
 20
227.52642800000001
 11
125.502487
 21
227.68399099999999
  0
LINE
  8
_0-0_0
  6
CONTINUOUS
 62
    7
 10
125.502487
 20
227.68399099999999
 11
125.502487
 21
227.85900900000001
  0
LINE
  8
_0-0_0
  6
CONTINUOUS
 62
    7
 10
125.502487
 20
227.85900900000001
 11
125.502487
 21
228.04956099999998
  0
LINE
  8
_0-0_0
  6
CONTINUOUS
 62
    7
 10
125.502487
 20
228.19628899999998
 11
125.502487
 21
228.25351000000001
  0
LINE
  8
_0-0_0
  6
CONTINUOUS
 62
    7
 10
125.502487
 20
228.04956099999998
 11
125.502487
 21
228.19628899999998
  0
LINE
  8
_0-0_0
  6
CONTINUOUS
 62
    7
 10
125.502487
 20
211.653504
 11
125.502487
 21
211.86868300000003
  0
LINE
  8
_0-0_0
  6
CONTINUOUS
 62
    7
 10
125.502487
 20
211.86868300000003
 11
125.502487
 21
212.09265099999999
  0
LINE
  8
_0-0_0
  6
CONTINUOUS
 62
    7
 10
125.502487
 20
212.09265099999999
 11
125.502487
 21
212.32302900000002
  0
LINE
  8
_0-0_0
  6
CONTINUOUS
 62
    7
 10
125.502487
 20
212.32302900000002
 11
125.502487
 21
212.55725100000001
  0
LINE
  8
_0-0_0
  6
CONTINUOUS
 62
    7
 10
125.502487
 20
212.55725100000001
 11
125.502487
 21
212.792755
  0
LINE
  8
_0-0_0
  6
CONTINUOUS
 62
    7
 10
125.502487
 20
212.792755
 11
125.502487
 21
213.02697799999999
  0
LINE
  8
_0-0_0
  6
CONTINUOUS
 62
    7
 10
125.502487
 20
213.02697799999999
 11
125.502487
 21
213.25732399999998
  0
LINE
  8
_0-0_0
  6
CONTINUOUS
 62
    7
 10
125.502487
 20
213.25732399999998
 11
125.502487
 21
213.48132300000003
  0
LINE
  8
_0-0_0
  6
CONTINUOUS
 62
    7
 10
125.502487
 20
213.48132300000003
 11
125.502487
 21
213.69647200000003
  0
LINE
  8
_0-0_0
  6
CONTINUOUS
 62
    7
 10
125.502487
 20
213.69647200000003
 11
125.502487
 21
213.90042099999999
  0
LINE
  8
_0-0_0
  6
CONTINUOUS
 62
    7
 10
125.502487
 20
213.90042099999999
 11
125.502487
 21
214.09097300000002
  0
LINE
  8
_0-0_0
  6
CONTINUOUS
 62
    7
 10
125.502487
 20
214.09097300000002
 11
125.502487
 21
214.26599099999999
  0
LINE
  8
_0-0_0
  6
CONTINUOUS
 62
    7
 10
125.502487
 20
214.26599099999999
 11
125.502487
 21
214.42358400000001
  0
LINE
  8
_0-0_0
  6
CONTINUOUS
 62
    7
 10
125.502487
 20
214.42358400000001
 11
125.502487
 21
214.56201199999998
  0
LINE
  8
_0-0_0
  6
CONTINUOUS
 62
    7
 10
125.502487
 20
214.56201199999998
 11
125.502487
 21
214.64956699999999
  0
LINE
  8
_0-0_0
  6
CONTINUOUS
 62
    7
 10
125.502487
 20
214.64956699999999
 11
125.502487
 21
214.67974900000002
  0
LINE
  8
_0-0_0
  6
CONTINUOUS
 62
    7
 10
125.502487
 20
214.67974900000002
 11
125.502487
 21
214.77554300000003
  0
LINE
  8
_0-0_0
  6
CONTINUOUS
 62
    7
 10
125.502487
 20
214.77554300000003
 11
125.502487
 21
214.84832799999998
  0
LINE
  8
_0-0_0
  6
CONTINUOUS
 62
    7
 10
125.502487
 20
214.84832799999998
 11
125.502487
 21
214.92498799999998
  0
LINE
  8
_0-0_0
  6
CONTINUOUS
 62
    7
 10
125.502487
 20
214.89730800000001
 11
125.502487
 21
214.92190599999998
  0
LINE
  8
_0-0_0
  6
CONTINUOUS
 62
    7
 10
125.502487
 20
214.92190599999998
 11
125.502487
 21
214.92498799999998
  0
LINE
  8
_0-0_0
  6
CONTINUOUS
 62
    7
 10
125.502487
 20
210.42498799999998
 11
125.502487
 21
210.42806999999999
  0
LINE
  8
_0-0_0
  6
CONTINUOUS
 62
    7
 10
125.502487
 20
210.42806999999999
 11
125.502487
 21
210.452698
  0
LINE
  8
_0-0_0
  6
CONTINUOUS
 62
    7
 10
125.502487
 20
210.452698
 11
125.502487
 21
210.50164799999999
  0
LINE
  8
_0-0_0
  6
CONTINUOUS
 62
    7
 10
125.502487
 20
210.42498799999998
 11
125.502487
 21
210.574432
  0
LINE
  8
_0-0_0
  6
CONTINUOUS
 62
    7
 10
125.502487
 20
210.574432
 11
125.502487
 21
210.67022700000001
  0
LINE
  8
_0-0_0
  6
CONTINUOUS
 62
    7
 10
125.502487
 20
210.67022700000001
 11
125.502487
 21
210.78799400000003
  0
LINE
  8
_0-0_0
  6
CONTINUOUS
 62
    7
 10
125.502487
 20
210.78799400000003
 11
125.502487
 21
210.926422
  0
LINE
  8
_0-0_0
  6
CONTINUOUS
 62
    7
 10
125.502487
 20
210.926422
 11
125.502487
 21
211.08401500000002
  0
LINE
  8
_0-0_0
  6
CONTINUOUS
 62
    7
 10
125.502487
 20
211.08401500000002
 11
125.502487
 21
211.25903299999999
  0
LINE
  8
_0-0_0
  6
CONTINUOUS
 62
    7
 10
125.502487
 20
211.25903299999999
 11
125.502487
 21
211.44955500000003
  0
LINE
  8
_0-0_0
  6
CONTINUOUS
 62
    7
 10
125.502487
 20
211.59628300000003
 11
125.502487
 21
211.653504
  0
LINE
  8
_0-0_0
  6
CONTINUOUS
 62
    7
 10
125.502487
 20
211.44955500000003
 11
125.502487
 21
211.59628300000003
  0
LINE
  8
_0-0_0
  6
CONTINUOUS
 62
    7
 10
121.90248099999999
 20
218.47500600000001
 11
121.90248099999999
 21
225.97500600000001
  0
LINE
  8
_0-0_0
  6
CONTINUOUS
 62
    7
 10
121.90248099999999
 20
215.97500600000001
 11
121.90248099999999
 21
218.47500600000001
  0
LINE
  8
_0-0_0
  6
CONTINUOUS
 62
    7
 10
110.502487
 20
227.47500600000001
 11
120.21031199999999
 21
227.47500600000001
  0
LINE
  8
_0-0_0
  6
CONTINUOUS
 62
    7
 10
120.252487
 20
227.47500600000001
 11
120.21031199999999
 21
227.47500600000001
  0
LINE
  8
_0-0_0
  6
CONTINUOUS
 62
    7
 10
110.202484
 20
218.76297
 11
110.261291
 21
218.51611300000002
  0
LINE
  8
_0-0_0
  6
CONTINUOUS
 62
    7
 10
110.261291
 20
218.51611300000002
 11
110.31104999999999
 21
218.32379200000003
  0
LINE
  8
_0-0_0
  6
CONTINUOUS
 62
    7
 10
110.31104999999999
 20
218.32379200000003
 11
110.382172
 21
218.05804499999999
  0
LINE
  8
_0-0_0
  6
CONTINUOUS
 62
    7
 10
110.382172
 20
218.05804499999999
 11
110.415131
 21
217.93136600000003
  0
LINE
  8
_0-0_0
  6
CONTINUOUS
 62
    7
 10
110.415131
 20
217.93136600000003
 11
110.44038399999999
 21
217.82791100000003
  0
LINE
  8
_0-0_0
  6
CONTINUOUS
 62
    7
 10
110.44038399999999
 20
217.82791100000003
 11
110.46241799999999
 21
217.727936
  0
LINE
  8
_0-0_0
  6
CONTINUOUS
 62
    7
 10
110.46241799999999
 20
217.727936
 11
110.48380999999998
 21
217.61023
  0
LINE
  8
_0-0_0
  6
CONTINUOUS
 62
    7
 10
110.48380999999998
 20
217.61023
 11
110.49237099999999
 21
217.54812600000002
  0
LINE
  8
_0-0_0
  6
CONTINUOUS
 62
    7
 10
110.49237099999999
 20
217.54812600000002
 11
110.498459
 21
217.48751800000002
  0
LINE
  8
_0-0_0
  6
CONTINUOUS
 62
    7
 10
110.498459
 20
217.48751800000002
 11
110.501465
 21
217.43826300000001
  0
LINE
  8
_0-0_0
  6
CONTINUOUS
 62
    7
 10
110.501465
 20
217.43826300000001
 11
110.502487
 21
217.39004499999999
  0
LINE
  8
_0-0_0
  6
CONTINUOUS
 62
    7
 10
110.202484
 20
223.186981
 11
110.26127599999998
 21
223.433807
  0
LINE
  8
_0-0_0
  6
CONTINUOUS
 62
    7
 10
110.26127599999998
 20
223.433807
 11
110.31104999999999
 21
223.62616000000003
  0
LINE
  8
_0-0_0
  6
CONTINUOUS
 62
    7
 10
110.31104999999999
 20
223.62616000000003
 11
110.382172
 21
223.89196800000002
  0
LINE
  8
_0-0_0
  6
CONTINUOUS
 62
    7
 10
110.382172
 20
223.89196800000002
 11
110.415131
 21
224.01867700000003
  0
LINE
  8
_0-0_0
  6
CONTINUOUS
 62
    7
 10
110.415131
 20
224.01867700000003
 11
110.44039899999999
 21
224.12210099999999
  0
LINE
  8
_0-0_0
  6
CONTINUOUS
 62
    7
 10
110.44039899999999
 20
224.12210099999999
 11
110.46241799999999
 21
224.22204600000003
  0
LINE
  8
_0-0_0
  6
CONTINUOUS
 62
    7
 10
110.46241799999999
 20
224.22204600000003
 11
110.48379499999999
 21
224.33975200000003
  0
LINE
  8
_0-0_0
  6
CONTINUOUS
 62
    7
 10
110.48379499999999
 20
224.33975200000003
 11
110.49237099999999
 21
224.40185600000001
  0
LINE
  8
_0-0_0
  6
CONTINUOUS
 62
    7
 10
110.49237099999999
 20
224.40185600000001
 11
110.498459
 21
224.46246300000001
  0
LINE
  8
_0-0_0
  6
CONTINUOUS
 62
    7
 10
110.498459
 20
224.46246300000001
 11
110.501465
 21
224.51171900000003
  0
LINE
  8
_0-0_0
  6
CONTINUOUS
 62
    7
 10
110.501465
 20
224.51171900000003
 11
110.502487
 21
224.55993699999999
  0
LINE
  8
_0-0_0
  6
CONTINUOUS
 62
    7
 10
110.502487
 20
219.41293300000001
 11
110.502487
 21
218.36731000000003
  0
LINE
  8
_0-0_0
  6
CONTINUOUS
 62
    7
 10
110.502487
 20
217.08270299999998
 11
110.502487
 21
218.36731000000003
  0
LINE
  8
_0-0_0
  6
CONTINUOUS
 62
    7
 10
110.502487
 20
216.96731599999998
 11
110.502487
 21
217.08270299999998
  0
ARC
  8
_0-0_0
  6
CONTINUOUS
 62
    7
 10
108.502487
 20
228.33346599999999
 40
2
 50
0
 51
71.565000999999995
  0
LINE
  8
_0-0_0
  6
CONTINUOUS
 62
    7
 10
120.21031199999999
 20
227.47500600000001
 11
120.26480099999998
 21
227.40505999999999
  0
LINE
  8
_0-0_0
  6
CONTINUOUS
 62
    7
 10
120.26480099999998
 20
227.40505999999999
 11
120.31590299999999
 21
227.33624300000002
  0
LINE
  8
_0-0_0
  6
CONTINUOUS
 62
    7
 10
120.31590299999999
 20
227.33624300000002
 11
120.363541
 21
227.26873799999998
  0
LINE
  8
_0-0_0
  6
CONTINUOUS
 62
    7
 10
120.363541
 20
227.26873799999998
 11
120.40803499999998
 21
227.202179
  0
LINE
  8
_0-0_0
  6
CONTINUOUS
 62
    7
 10
120.40803499999998
 20
227.202179
 11
120.46275299999999
 21
227.11465500000003
  0
LINE
  8
_0-0_0
  6
CONTINUOUS
 62
    7
 10
120.46275299999999
 20
227.11465500000003
 11
120.51226799999998
 21
227.02853399999998
  0
LINE
  8
_0-0_0
  6
CONTINUOUS
 62
    7
 10
120.51226799999998
 20
227.02853399999998
 11
120.55673199999998
 21
226.94369499999999
  0
LINE
  8
_0-0_0
  6
CONTINUOUS
 62
    7
 10
120.55673199999998
 20
226.94369499999999
 11
120.60369899999998
 21
226.84338400000001
  0
LINE
  8
_0-0_0
  6
CONTINUOUS
 62
    7
 10
120.60369899999998
 20
226.84338400000001
 11
120.64390599999999
 21
226.74447600000002
  0
LINE
  8
_0-0_0
  6
CONTINUOUS
 62
    7
 10
120.64390599999999
 20
226.74447600000002
 11
120.67756599999998
 21
226.64669800000001
  0
LINE
  8
_0-0_0
  6
CONTINUOUS
 62
    7
 10
120.67756599999998
 20
226.64669800000001
 11
120.70486399999999
 21
226.54989599999999
  0
LINE
  8
_0-0_0
  6
CONTINUOUS
 62
    7
 10
120.70486399999999
 20
226.54989599999999
 11
120.72590599999998
 21
226.45385800000003
  0
LINE
  8
_0-0_0
  6
CONTINUOUS
 62
    7
 10
120.72590599999998
 20
226.45385800000003
 11
120.74183599999998
 21
226.34997600000003
  0
LINE
  8
_0-0_0
  6
CONTINUOUS
 62
    7
 10
120.74183599999998
 20
226.34997600000003
 11
120.75059499999998
 21
226.24655200000001
  0
LINE
  8
_0-0_0
  6
CONTINUOUS
 62
    7
 10
120.75059499999998
 20
226.24655200000001
 11
120.752228
 21
226.14334100000002
  0
LINE
  8
_0-0_0
  6
CONTINUOUS
 62
    7
 10
120.752228
 20
226.14334100000002
 11
120.74676499999998
 21
226.04003899999998
  0
LINE
  8
_0-0_0
  6
CONTINUOUS
 62
    7
 10
120.74676499999998
 20
226.04003899999998
 11
120.73414599999998
 21
225.93643200000002
  0
LINE
  8
_0-0_0
  6
CONTINUOUS
 62
    7
 10
120.73414599999998
 20
225.93643200000002
 11
120.71433999999999
 21
225.83230600000002
  0
LINE
  8
_0-0_0
  6
CONTINUOUS
 62
    7
 10
120.71433999999999
 20
225.83230600000002
 11
120.68719499999997
 21
225.72732600000001
  0
LINE
  8
_0-0_0
  6
CONTINUOUS
 62
    7
 10
120.68719499999997
 20
225.72732600000001
 11
120.65254199999998
 21
225.621307
  0
LINE
  8
_0-0_0
  6
CONTINUOUS
 62
    7
 10
120.65254199999998
 20
225.621307
 11
120.61019899999999
 21
225.51391599999999
  0
LINE
  8
_0-0_0
  6
CONTINUOUS
 62
    7
 10
120.61019899999999
 20
225.51391599999999
 11
120.55987499999998
 21
225.40493800000002
  0
LINE
  8
_0-0_0
  6
CONTINUOUS
 62
    7
 10
120.55987499999998
 20
225.40493800000002
 11
120.50563
 21
225.30178799999999
  0
LINE
  8
_0-0_0
  6
CONTINUOUS
 62
    7
 10
120.50563
 20
225.30178799999999
 11
120.44392399999998
 21
225.19671599999998
  0
LINE
  8
_0-0_0
  6
CONTINUOUS
 62
    7
 10
120.44392399999998
 20
225.19671599999998
 11
120.374405
 21
225.08950800000002
  0
LINE
  8
_0-0_0
  6
CONTINUOUS
 62
    7
 10
120.374405
 20
225.08950800000002
 11
120.29669199999998
 21
224.97979700000002
  0
LINE
  8
_0-0_0
  6
CONTINUOUS
 62
    7
 10
120.29669199999998
 20
224.97979700000002
 11
120.21031199999999
 21
224.86731000000003
  0
LINE
  8
_0-0_0
  6
CONTINUOUS
 62
    7
 10
110.502487
 20
224.98269700000003
 11
110.502487
 21
224.86731000000003
  0
LINE
  8
_0-0_0
  6
CONTINUOUS
 62
    7
 10
110.502487
 20
223.58270299999998
 11
110.502487
 21
222.53704800000003
  0
LINE
  8
_0-0_0
  6
CONTINUOUS
 62
    7
 10
110.502487
 20
218.36731000000003
 11
120.21031199999999
 21
218.36731000000003
  0
LINE
  8
_0-0_0
  6
CONTINUOUS
 62
    7
 10
110.502487
 20
217.08270299999998
 11
120.21031199999999
 21
217.08270299999998
  0
LINE
  8
_0-0_0
  6
CONTINUOUS
 62
    7
 10
121.502487
 20
223.70654300000001
 11
121.502487
 21
226.22500600000001
  0
LINE
  8
_0-0_0
  6
CONTINUOUS
 62
    7
 10
110.502487
 20
228.33346599999999
 11
110.502487
 21
224.98269700000003
  0
LINE
  8
_0-0_0
  6
CONTINUOUS
 62
    7
 10
99.502487000000002
 20
210.17498799999998
 11
99.502487000000002
 21
210.425049
  0
LINE
  8
_0-0_0
  6
CONTINUOUS
 62
    7
 10
75.002487000000002
 20
230.27499399999999
 11
70.002471999999983
 21
230.27499399999999
  0
ARC
  8
_0-0_0
  6
CONTINUOUS
 62
    7
 10
70.002471999999983
 20
225.77499399999999
 40
4.5
 50
90.000003000000007
 51
269.99999700000006
  0
LINE
  8
_0-0_0
  6
CONTINUOUS
 62
    7
 10
75.002487000000002
 20
221.27499399999999
 11
70.002471999999983
 21
221.27499399999999
  0
ARC
  8
_0-0_0
  6
CONTINUOUS
 62
    7
 10
75.002487000000002
 20
225.77499399999999
 40
4.5
 50
269.99999700000001
 51
90.000002999999992
  0
LINE
  8
_0-0_0
  6
CONTINUOUS
 62
    7
 10
19.002471999999983
 20
230.27499399999999
 11
14.002471999999983
 21
230.27499399999999
  0
ARC
  8
_0-0_0
  6
CONTINUOUS
 62
    7
 10
14.002471999999983
 20
225.77499399999999
 40
4.5
 50
90.000003000000007
 51
269.99999700000006
  0
LINE
  8
_0-0_0
  6
CONTINUOUS
 62
    7
 10
19.002471999999983
 20
221.27499399999999
 11
14.002471999999983
 21
221.27499399999999
  0
ARC
  8
_0-0_0
  6
CONTINUOUS
 62
    7
 10
19.002471999999983
 20
225.77499399999999
 40
4.5
 50
269.99999700000001
 51
90.000002999999992
  0
LINE
  8
_0-0_0
  6
CONTINUOUS
 62
    7
 10
44.314986999999974
 20
229.84463499999998
 11
43.01498399999997
 21
226.34463499999998
  0
LINE
  8
_0-0_0
  6
CONTINUOUS
 62
    7
 10
43.202469000000008
 20
226.07498200000003
 11
45.802474999999987
 21
226.07498200000003
  0
ARC
  8
_0-0_0
  6
CONTINUOUS
 62
    7
 10
45.802474999999987
 20
226.27499399999999
 40
0.2
 50
269.99999700000001
 51
20.376435000000019
  0
ARC
  8
_0-0_0
  6
CONTINUOUS
 62
    7
 10
44.502471999999983
 20
229.77499399999999
 40
0.2
 50
20.376434999999997
 51
159.62357000000003
  0
LINE
  8
_0-0_0
  6
CONTINUOUS
 62
    7
 10
99.502487000000002
 20
210.17498799999998
 11
99.502487000000002
 21
212.17498799999998
  0
ARC
  8
_0-0_0
  6
CONTINUOUS
 62
    7
 10
65.502471999999983
 20
216.57498200000003
 40
3
 50
180.00000900000003
 51
269.99999700000001
  0
LINE
  8
_0-0_0
  6
CONTINUOUS
 62
    7
 10
65.502471999999983
 20
213.57498200000003
 11
80.502487000000002
 21
213.57498200000003
  0
ARC
  8
_0-0_0
  6
CONTINUOUS
 62
    7
 10
80.502487000000002
 20
216.57498200000003
 40
3
 50
269.99999700000001
 51
0
  0
ARC
  8
_0-0_0
  6
CONTINUOUS
 62
    7
 10
80.502487000000002
 20
230.17498799999998
 40
3
 50
0
 51
90.000003000000007
  0
LINE
  8
_0-0_0
  6
CONTINUOUS
 62
    7
 10
80.502487000000002
 20
233.17498799999998
 11
65.502471999999983
 21
233.17498799999998
  0
ARC
  8
_0-0_0
  6
CONTINUOUS
 62
    7
 10
65.502471999999983
 20
230.17498799999998
 40
3
 50
90.000003000000007
 51
180.00000900000001
  0
ARC
  8
_0-0_0
  6
CONTINUOUS
 62
    7
 10
11.592148000000009
 20
218.66467299999999
 40
5.089683
 50
180.00000900000003
 51
269.99999700000001
  0
LINE
  8
_0-0_0
  6
CONTINUOUS
 62
    7
 10
11.592148000000009
 20
213.57498200000003
 11
22.859481999999986
 21
213.57498200000003
  0
ARC
  8
_0-0_0
  6
CONTINUOUS
 62
    7
 10
22.859481999999986
 20
217.21798699999999
 40
3.6429879999999999
 50
269.99999700000001
 51
0.0000099999999886
  0
LINE
  8
_0-0_0
  6
CONTINUOUS
 62
    7
 10
23.502471999999983
 20
233.17498799999998
 11
10.168532999999968
 21
233.17498799999998
  0
ARC
  8
_0-0_0
  6
CONTINUOUS
 62
    7
 10
10.168532999999968
 20
232.17498799999998
 40
1
 50
90.000003000000007
 51
172.23356100000001
  0
ARC
  8
_0-0_0
  6
CONTINUOUS
 62
    7
 10
7.5024719999999832
 20
229.11270200000001
 40
1
 50
105.68034800000001
 51
180.00000900000001
  0
LINE
  8
_0-0_0
  6
CONTINUOUS
 62
    7
 10
64.902480999999995
 20
233.17498799999998
 11
64.902480999999995
 21
233.11437999999998
  0
LINE
  8
_0-0_0
  6
CONTINUOUS
 62
    7
 10
23.502471999999983
 20
213.63220200000001
 11
23.502471999999983
 21
213.579071
  0
LINE
  8
_0-0_0
  6
CONTINUOUS
 62
    7
 10
64.902480999999995
 20
213.63562000000002
 11
64.902480999999995
 21
213.579071
  0
LINE
  8
_0-0_0
  6
CONTINUOUS
 62
    7
 10
121.502487
 20
215.72500600000001
 11
120.702484
 21
214.92498799999998
  0
LINE
  8
_0-0_0
  6
CONTINUOUS
 62
    7
 10
135.502487
 20
210.67498799999998
 11
135.00265499999998
 21
210.17514
  0
LINE
  8
_0-0_0
  6
CONTINUOUS
 62
    7
 10
135.502487
 20
227.27499399999999
 11
135.00265499999998
 21
226.775147
  0
LINE
  8
_0-0_0
  6
CONTINUOUS
 62
    7
 10
122.702484
 20
224.97500600000001
 11
180.70248399999997
 21
224.97500600000001
  0
LINE
  8
_0-0_0
  6
CONTINUOUS
 62
    7
 10
122.702484
 20
216.97500600000001
 11
180.70248399999997
 21
216.97500600000001
  0
LINE
  8
_0-0_0
  6
CONTINUOUS
 62
    7
 10
135.502487
 20
231.27499399999999
 11
135.00265499999998
 21
231.77484099999998
  0
LINE
  8
_0-0_0
  6
CONTINUOUS
 62
    7
 10
135.502487
 20
214.67498799999998
 11
135.00265499999998
 21
215.17483500000003
  0
LINE
  8
_0-0_0
  6
CONTINUOUS
 62
    7
 10
125.502487
 20
231.52499399999999
 11
125.752487
 21
231.77499399999999
  0
LINE
  8
_0-0_0
  6
CONTINUOUS
 62
    7
 10
125.502487
 20
227.02499399999999
 11
125.752487
 21
226.77499399999999
  0
LINE
  8
_0-0_0
  6
CONTINUOUS
 62
    7
 10
125.502487
 20
214.92498799999998
 11
125.752487
 21
215.17498799999998
  0
LINE
  8
_0-0_0
  6
CONTINUOUS
 62
    7
 10
125.502487
 20
210.42498799999998
 11
125.752487
 21
210.17498799999998
  0
LINE
  8
_0-0_0
  6
CONTINUOUS
 62
    7
 10
122.702484
 20
225.51312300000001
 11
121.90248099999999
 21
225.97500600000001
  0
LINE
  8
_0-0_0
  6
CONTINUOUS
 62
    7
 10
122.702484
 20
216.43689000000001
 11
121.90248099999999
 21
215.97500600000001
  0
LINE
  8
_0-0_0
  6
CONTINUOUS
 62
    7
 10
105.25244099999998
 20
231.52499399999999
 11
125.502487
 21
231.52499399999999
  0
LINE
  8
_0-0_0
  6
CONTINUOUS
 62
    7
 10
120.702484
 20
227.02499399999999
 11
125.502487
 21
227.02499399999999
  0
LINE
  8
_0-0_0
  6
CONTINUOUS
 62
    7
 10
99.502487000000002
 20
214.92498799999998
 11
125.502487
 21
214.92498799999998
  0
LINE
  8
_0-0_0
  6
CONTINUOUS
 62
    7
 10
99.502487000000002
 20
210.42498799999998
 11
125.502487
 21
210.42498799999998
  0
LINE
  8
_0-0_0
  6
CONTINUOUS
 62
    7
 10
121.502487
 20
225.97500600000001
 11
121.90248099999999
 21
225.97500600000001
  0
LINE
  8
_0-0_0
  6
CONTINUOUS
 62
    7
 10
121.502487
 20
215.97500600000001
 11
121.90248099999999
 21
215.97500600000001
  0
LINE
  8
_0-0_0
  6
CONTINUOUS
 62
    7
 10
121.502487
 20
226.22500600000001
 11
120.252487
 21
227.47500600000001
  0
LINE
  8
_0-0_0
  6
CONTINUOUS
 62
    7
 10
-9.4975280000000168
 20
249.875
 11
-7.0427549999999997
 21
249.875
  0
LINE
  8
_0-0_0
  6
CONTINUOUS
 62
    7
 10
-9.4975280000000168
 20
236.67498799999998
 11
-9.4975280000000168
 21
249.875
  0
LINE
  8
_0-0_0
  6
CONTINUOUS
 62
    7
 10
493.50247200000001
 20
236.67498799999998
 11
493.50247200000001
 21
249.875
  0
LINE
  8
_0-0_0
  6
CONTINUOUS
 62
    7
 10
491.04769899999997
 20
249.875
 11
493.50247200000001
 21
249.875
  0
ARC
  8
_0-0_0
  6
CONTINUOUS
 62
    7
 10
484.50247200000001
 20
254.47500600000001
 40
8
 50
215.099627
 51
324.90037799999999
  0
LINE
  8
_0-0_0
  6
CONTINUOUS
 62
    7
 10
6.0476989999999944
 20
249.875
 11
477.95724499999994
 21
249.875
  0
ARC
  8
_0-0_0
  6
CONTINUOUS
 62
    7
 10
-0.4975280000000168
 20
254.47500600000001
 40
8
 50
215.099627
 51
324.90037799999999
  0
LINE
  8
_0-0_0
  6
CONTINUOUS
 62
    7
 10
-7.0427549999999997
 20
249.875
 11
-7.1317290000000071
 21
250.00427300000001
  0
LINE
  8
_0-0_0
  6
CONTINUOUS
 62
    7
 10
6.0476989999999944
 20
249.875
 11
6.1366879999999924
 21
250.00427300000001
  0
LINE
  8
_0-0_0
  6
CONTINUOUS
 62
    7
 10
6.2298279999999977
 20
250.14572200000003
 11
6.1366879999999924
 21
250.00427300000001
  0
LINE
  8
_0-0_0
  6
CONTINUOUS
 62
    7
 10
6.2298279999999977
 20
250.14572200000003
 11
6.3112939999999753
 21
250.27499399999999
  0
ARC
  8
_0-0_0
  6
CONTINUOUS
 62
    7
 10
-0.4975280000000168
 20
254.47500600000001
 40
8
 50
328.33175599999993
 51
334.05550899999992
  0
LINE
  8
_0-0_0
  6
CONTINUOUS
 62
    7
 10
6.6962279999999907
 20
250.97500600000001
 11
6.7577059999999847
 21
251.10427900000002
  0
LINE
  8
_0-0_0
  6
CONTINUOUS
 62
    7
 10
6.8217469999999878
 20
251.24569700000001
 11
6.7577059999999847
 21
251.10427900000002
  0
LINE
  8
_0-0_0
  6
CONTINUOUS
 62
    7
 10
6.8217469999999878
 20
251.24569700000001
 11
6.8774259999999856
 21
251.375
  0
ARC
  8
_0-0_0
  6
CONTINUOUS
 62
    7
 10
-0.4975280000000168
 20
254.47500600000001
 40
8
 50
337.20097500000003
 51
342.54240199999998
  0
LINE
  8
_0-0_0
  6
CONTINUOUS
 62
    7
 10
7.1339869999999905
 20
252.07498200000003
 11
7.1734469999999817
 21
252.20428500000003
  0
LINE
  8
_0-0_0
  6
CONTINUOUS
 62
    7
 10
7.2138979999999719
 20
252.34570300000001
 11
7.1734469999999817
 21
252.20428500000003
  0
LINE
  8
_0-0_0
  6
CONTINUOUS
 62
    7
 10
7.2138979999999719
 20
252.34570300000001
 11
7.2484440000000063
 21
252.47500600000001
  0
ARC
  8
_0-0_0
  6
CONTINUOUS
 62
    7
 10
-0.4975280000000168
 20
254.47500600000001
 40
8
 50
345.52249499999999
 51
350.64797900000002
  0
LINE
  8
_0-0_0
  6
CONTINUOUS
 62
    7
 10
7.3961489999999799
 20
253.17498799999998
 11
7.4163509999999917
 21
253.30429100000003
  0
LINE
  8
_0-0_0
  6
CONTINUOUS
 62
    7
 10
7.4359890000000064
 20
253.44570900000002
 11
7.4163509999999917
 21
253.30429100000003
  0
LINE
  8
_0-0_0
  6
CONTINUOUS
 62
    7
 10
7.4359890000000064
 20
253.44570900000002
 11
7.4516909999999825
 21
253.57498200000003
  0
ARC
  8
_0-0_0
  6
CONTINUOUS
 62
    7
 10
-0.4975280000000168
 20
254.47500600000001
 40
8
 50
353.54056400000002
 51
358.56744600000002
  0
LINE
  8
_0-0_0
  6
CONTINUOUS
 62
    7
 10
7.499968999999993
 20
254.27499399999999
 11
7.5021669999999858
 21
254.40429699999999
  0
LINE
  8
_0-0_0
  6
CONTINUOUS
 62
    7
 10
7.5021669999999858
 20
254.40429699999999
 11
7.5024719999999832
 21
254.47500600000001
  0
LINE
  8
_0-0_0
  6
CONTINUOUS
 62
    7
 10
-8.4972080000000005
 20
254.40429699999999
 11
-8.4975280000000168
 21
254.47500600000001
  0
LINE
  8
_0-0_0
  6
CONTINUOUS
 62
    7
 10
-8.4950259999999957
 20
254.27499399999999
 11
-8.4972080000000005
 21
254.40429699999999
  0
ARC
  8
_0-0_0
  6
CONTINUOUS
 62
    7
 10
-0.4975280000000168
 20
254.47500600000001
 40
8
 50
181.432545
 51
186.45945499999999
  0
LINE
  8
_0-0_0
  6
CONTINUOUS
 62
    7
 10
-8.4310300000000211
 20
253.44570900000002
 11
-8.4467470000000162
 21
253.57498200000003
  0
LINE
  8
_0-0_0
  6
CONTINUOUS
 62
    7
 10
-8.4310300000000211
 20
253.44570900000002
 11
-8.4114079999999944
 21
253.30429100000003
  0
LINE
  8
_0-0_0
  6
CONTINUOUS
 62
    7
 10
-8.3911899999999946
 20
253.17498799999998
 11
-8.4114079999999944
 21
253.30429100000003
  0
ARC
  8
_0-0_0
  6
CONTINUOUS
 62
    7
 10
-0.4975280000000168
 20
254.47500600000001
 40
8
 50
189.35203999999999
 51
194.47751
  0
LINE
  8
_0-0_0
  6
CONTINUOUS
 62
    7
 10
-8.2089540000000056
 20
252.34570300000001
 11
-8.2435000000000116
 21
252.47500600000001
  0
LINE
  8
_0-0_0
  6
CONTINUOUS
 62
    7
 10
-8.2089540000000056
 20
252.34570300000001
 11
-8.1685030000000154
 21
252.20428500000003
  0
LINE
  8
_0-0_0
  6
CONTINUOUS
 62
    7
 10
-8.1290440000000217
 20
252.07498200000003
 11
-8.1685030000000154
 21
252.20428500000003
  0
ARC
  8
_0-0_0
  6
CONTINUOUS
 62
    7
 10
-0.4975280000000168
 20
254.47500600000001
 40
8
 50
197.45760300000001
 51
202.79902999999999
  0
LINE
  8
_0-0_0
  6
CONTINUOUS
 62
    7
 10
-7.8167880000000309
 20
251.24569700000001
 11
-7.8724819999999909
 21
251.375
  0
LINE
  8
_0-0_0
  6
CONTINUOUS
 62
    7
 10
-7.8167880000000309
 20
251.24569700000001
 11
-7.7527469999999994
 21
251.10427900000002
  0
LINE
  8
_0-0_0
  6
CONTINUOUS
 62
    7
 10
-7.6912690000000055
 20
250.97500600000001
 11
-7.7527469999999994
 21
251.10427900000002
  0
ARC
  8
_0-0_0
  6
CONTINUOUS
 62
    7
 10
-0.4975280000000168
 20
254.47500600000001
 40
8
 50
205.94448199999999
 51
211.66823500000001
  0
LINE
  8
_0-0_0
  6
CONTINUOUS
 62
    7
 10
-7.2248840000000314
 20
250.14572200000003
 11
-7.3063510000000065
 21
250.27499399999999
  0
LINE
  8
_0-0_0
  6
CONTINUOUS
 62
    7
 10
-7.2248840000000314
 20
250.14572200000003
 11
-7.1317290000000071
 21
250.00427300000001
  0
LINE
  8
_0-0_0
  6
CONTINUOUS
 62
    7
 10
477.95724499999994
 20
249.875
 11
477.86825599999997
 21
250.00427300000001
  0
LINE
  8
_0-0_0
  6
CONTINUOUS
 62
    7
 10
476.50277700000004
 20
254.40429699999999
 11
476.50247200000001
 21
254.47500600000001
  0
LINE
  8
_0-0_0
  6
CONTINUOUS
 62
    7
 10
476.50497399999995
 20
254.27499399999999
 11
476.50277700000004
 21
254.40429699999999
  0
ARC
  8
_0-0_0
  6
CONTINUOUS
 62
    7
 10
484.50247200000001
 20
254.47500600000001
 40
8
 50
181.432545
 51
186.45945499999999
  0
LINE
  8
_0-0_0
  6
CONTINUOUS
 62
    7
 10
476.56899999999996
 20
253.44570900000002
 11
476.55325300000004
 21
253.57498200000003
  0
LINE
  8
_0-0_0
  6
CONTINUOUS
 62
    7
 10
476.56899999999996
 20
253.44570900000002
 11
476.58859199999995
 21
253.30429100000003
  0
LINE
  8
_0-0_0
  6
CONTINUOUS
 62
    7
 10
476.60879499999999
 20
253.17498799999998
 11
476.58859199999995
 21
253.30429100000003
  0
ARC
  8
_0-0_0
  6
CONTINUOUS
 62
    7
 10
484.50247200000001
 20
254.47500600000001
 40
8
 50
189.35203999999999
 51
194.47751
  0
LINE
  8
_0-0_0
  6
CONTINUOUS
 62
    7
 10
476.79104599999994
 20
252.34570300000001
 11
476.75649999999996
 21
252.47500600000001
  0
LINE
  8
_0-0_0
  6
CONTINUOUS
 62
    7
 10
476.79104599999994
 20
252.34570300000001
 11
476.83151199999998
 21
252.20428500000003
  0
LINE
  8
_0-0_0
  6
CONTINUOUS
 62
    7
 10
476.87100199999998
 20
252.07498200000003
 11
476.83151199999998
 21
252.20428500000003
  0
ARC
  8
_0-0_0
  6
CONTINUOUS
 62
    7
 10
484.50247200000001
 20
254.47500600000001
 40
8
 50
197.45760300000001
 51
202.79902999999999
  0
LINE
  8
_0-0_0
  6
CONTINUOUS
 62
    7
 10
477.18319699999995
 20
251.24569700000001
 11
477.12753299999997
 21
251.375
  0
LINE
  8
_0-0_0
  6
CONTINUOUS
 62
    7
 10
477.18319699999995
 20
251.24569700000001
 11
477.24728400000004
 21
251.10427900000002
  0
LINE
  8
_0-0_0
  6
CONTINUOUS
 62
    7
 10
477.30874600000004
 20
250.97500600000001
 11
477.24728400000004
 21
251.10427900000002
  0
ARC
  8
_0-0_0
  6
CONTINUOUS
 62
    7
 10
484.50247200000001
 20
254.47500600000001
 40
8
 50
205.94448199999999
 51
211.66823500000001
  0
LINE
  8
_0-0_0
  6
CONTINUOUS
 62
    7
 10
477.77511600000003
 20
250.14572200000003
 11
477.69369499999993
 21
250.27499399999999
  0
LINE
  8
_0-0_0
  6
CONTINUOUS
 62
    7
 10
477.77511600000003
 20
250.14572200000003
 11
477.86825599999997
 21
250.00427300000001
  0
LINE
  8
_0-0_0
  6
CONTINUOUS
 62
    7
 10
491.04769899999997
 20
249.875
 11
491.13668799999994
 21
250.00427300000001
  0
LINE
  8
_0-0_0
  6
CONTINUOUS
 62
    7
 10
491.229828
 20
250.14572200000003
 11
491.13668799999994
 21
250.00427300000001
  0
LINE
  8
_0-0_0
  6
CONTINUOUS
 62
    7
 10
491.229828
 20
250.14572200000003
 11
491.31130999999993
 21
250.27499399999999
  0
ARC
  8
_0-0_0
  6
CONTINUOUS
 62
    7
 10
484.50247200000001
 20
254.47500600000001
 40
8
 50
328.33175599999993
 51
334.05550899999992
  0
LINE
  8
_0-0_0
  6
CONTINUOUS
 62
    7
 10
491.69625799999994
 20
250.97500600000001
 11
491.75772099999995
 21
251.10427900000002
  0
LINE
  8
_0-0_0
  6
CONTINUOUS
 62
    7
 10
491.82174699999996
 20
251.24569700000001
 11
491.75772099999995
 21
251.10427900000002
  0
LINE
  8
_0-0_0
  6
CONTINUOUS
 62
    7
 10
491.82174699999996
 20
251.24569700000001
 11
491.87747200000001
 21
251.375
  0
ARC
  8
_0-0_0
  6
CONTINUOUS
 62
    7
 10
484.50247200000001
 20
254.47500600000001
 40
8
 50
337.20097500000003
 51
342.54240199999998
  0
LINE
  8
_0-0_0
  6
CONTINUOUS
 62
    7
 10
492.13400300000001
 20
252.07498200000003
 11
492.17349200000001
 21
252.20428500000003
  0
LINE
  8
_0-0_0
  6
CONTINUOUS
 62
    7
 10
492.21389799999997
 20
252.34570300000001
 11
492.17349200000001
 21
252.20428500000003
  0
LINE
  8
_0-0_0
  6
CONTINUOUS
 62
    7
 10
492.21389799999997
 20
252.34570300000001
 11
492.24844399999995
 21
252.47500600000001
  0
ARC
  8
_0-0_0
  6
CONTINUOUS
 62
    7
 10
484.50247200000001
 20
254.47500600000001
 40
8
 50
345.52249499999999
 51
350.64797900000002
  0
LINE
  8
_0-0_0
  6
CONTINUOUS
 62
    7
 10
492.39614900000004
 20
253.17498799999998
 11
492.41635099999996
 21
253.30429100000003
  0
LINE
  8
_0-0_0
  6
CONTINUOUS
 62
    7
 10
492.43600500000002
 20
253.44570900000002
 11
492.41635099999996
 21
253.30429100000003
  0
LINE
  8
_0-0_0
  6
CONTINUOUS
 62
    7
 10
492.43600500000002
 20
253.44570900000002
 11
492.45169099999998
 21
253.57498200000003
  0
ARC
  8
_0-0_0
  6
CONTINUOUS
 62
    7
 10
484.50247200000001
 20
254.47500600000001
 40
8
 50
353.54056400000002
 51
358.56744600000002
  0
LINE
  8
_0-0_0
  6
CONTINUOUS
 62
    7
 10
492.49996899999996
 20
254.27499399999999
 11
492.50216699999999
 21
254.40429699999999
  0
LINE
  8
_0-0_0
  6
CONTINUOUS
 62
    7
 10
492.50216699999999
 20
254.40429699999999
 11
492.50247200000001
 21
254.47500600000001
  0
LINE
  8
_0-0_0
  6
CONTINUOUS
 62
    7
 10
493.50247200000001
 20
250.00427300000001
 11
493.50247200000001
 21
249.875
  0
LINE
  8
_0-0_0
  6
CONTINUOUS
 62
    7
 10
493.50247200000001
 20
258.80429100000003
 11
493.50247200000001
 21
258.94570900000002
  0
LINE
  8
_0-0_0
  6
CONTINUOUS
 62
    7
 10
493.50247200000001
 20
258.80429100000003
 11
493.50247200000001
 21
258.67498799999998
  0
LINE
  8
_0-0_0
  6
CONTINUOUS
 62
    7
 10
493.50247200000001
 20
257.97500600000001
 11
493.50247200000001
 21
258.67498799999998
  0
LINE
  8
_0-0_0
  6
CONTINUOUS
 62
    7
 10
493.50247200000001
 20
257.84570300000001
 11
493.50247200000001
 21
257.97500600000001
  0
LINE
  8
_0-0_0
  6
CONTINUOUS
 62
    7
 10
493.50247200000001
 20
257.70428500000003
 11
493.50247200000001
 21
257.84570300000001
  0
LINE
  8
_0-0_0
  6
CONTINUOUS
 62
    7
 10
493.50247200000001
 20
257.70428500000003
 11
493.50247200000001
 21
257.57498200000003
  0
LINE
  8
_0-0_0
  6
CONTINUOUS
 62
    7
 10
493.50247200000001
 20
256.875
 11
493.50247200000001
 21
257.57498200000003
  0
LINE
  8
_0-0_0
  6
CONTINUOUS
 62
    7
 10
493.50247200000001
 20
256.74569700000001
 11
493.50247200000001
 21
256.875
  0
LINE
  8
_0-0_0
  6
CONTINUOUS
 62
    7
 10
493.50247200000001
 20
256.60427900000002
 11
493.50247200000001
 21
256.74569700000001
  0
LINE
  8
_0-0_0
  6
CONTINUOUS
 62
    7
 10
493.50247200000001
 20
256.60427900000002
 11
493.50247200000001
 21
256.47500600000001
  0
LINE
  8
_0-0_0
  6
CONTINUOUS
 62
    7
 10
493.50247200000001
 20
255.77499399999999
 11
493.50247200000001
 21
256.47500600000001
  0
LINE
  8
_0-0_0
  6
CONTINUOUS
 62
    7
 10
493.50247200000001
 20
255.645691
 11
493.50247200000001
 21
255.77499399999999
  0
LINE
  8
_0-0_0
  6
CONTINUOUS
 62
    7
 10
493.50247200000001
 20
255.50427300000001
 11
493.50247200000001
 21
255.645691
  0
LINE
  8
_0-0_0
  6
CONTINUOUS
 62
    7
 10
493.50247200000001
 20
255.50427300000001
 11
493.50247200000001
 21
255.375
  0
LINE
  8
_0-0_0
  6
CONTINUOUS
 62
    7
 10
493.50247200000001
 20
254.67498799999998
 11
493.50247200000001
 21
255.375
  0
LINE
  8
_0-0_0
  6
CONTINUOUS
 62
    7
 10
493.50247200000001
 20
254.54571500000003
 11
493.50247200000001
 21
254.67498799999998
  0
LINE
  8
_0-0_0
  6
CONTINUOUS
 62
    7
 10
493.50247200000001
 20
254.40429699999999
 11
493.50247200000001
 21
254.54571500000003
  0
LINE
  8
_0-0_0
  6
CONTINUOUS
 62
    7
 10
493.50247200000001
 20
254.40429699999999
 11
493.50247200000001
 21
254.27499399999999
  0
LINE
  8
_0-0_0
  6
CONTINUOUS
 62
    7
 10
493.50247200000001
 20
253.57498200000003
 11
493.50247200000001
 21
254.27499399999999
  0
LINE
  8
_0-0_0
  6
CONTINUOUS
 62
    7
 10
493.50247200000001
 20
253.44570900000002
 11
493.50247200000001
 21
253.57498200000003
  0
LINE
  8
_0-0_0
  6
CONTINUOUS
 62
    7
 10
493.50247200000001
 20
253.30429100000003
 11
493.50247200000001
 21
253.44570900000002
  0
LINE
  8
_0-0_0
  6
CONTINUOUS
 62
    7
 10
493.50247200000001
 20
253.30429100000003
 11
493.50247200000001
 21
253.17498799999998
  0
LINE
  8
_0-0_0
  6
CONTINUOUS
 62
    7
 10
493.50247200000001
 20
252.47500600000001
 11
493.50247200000001
 21
253.17498799999998
  0
LINE
  8
_0-0_0
  6
CONTINUOUS
 62
    7
 10
493.50247200000001
 20
252.34570300000001
 11
493.50247200000001
 21
252.47500600000001
  0
LINE
  8
_0-0_0
  6
CONTINUOUS
 62
    7
 10
493.50247200000001
 20
252.20428500000003
 11
493.50247200000001
 21
252.34570300000001
  0
LINE
  8
_0-0_0
  6
CONTINUOUS
 62
    7
 10
493.50247200000001
 20
252.20428500000003
 11
493.50247200000001
 21
252.07498200000003
  0
LINE
  8
_0-0_0
  6
CONTINUOUS
 62
    7
 10
493.50247200000001
 20
251.375
 11
493.50247200000001
 21
252.07498200000003
  0
LINE
  8
_0-0_0
  6
CONTINUOUS
 62
    7
 10
493.50247200000001
 20
251.24569700000001
 11
493.50247200000001
 21
251.375
  0
LINE
  8
_0-0_0
  6
CONTINUOUS
 62
    7
 10
493.50247200000001
 20
251.10427900000002
 11
493.50247200000001
 21
251.24569700000001
  0
LINE
  8
_0-0_0
  6
CONTINUOUS
 62
    7
 10
493.50247200000001
 20
251.10427900000002
 11
493.50247200000001
 21
250.97500600000001
  0
LINE
  8
_0-0_0
  6
CONTINUOUS
 62
    7
 10
493.50247200000001
 20
250.27499399999999
 11
493.50247200000001
 21
250.97500600000001
  0
LINE
  8
_0-0_0
  6
CONTINUOUS
 62
    7
 10
493.50247200000001
 20
250.14572200000003
 11
493.50247200000001
 21
250.27499399999999
  0
LINE
  8
_0-0_0
  6
CONTINUOUS
 62
    7
 10
493.50247200000001
 20
250.00427300000001
 11
493.50247200000001
 21
250.14572200000003
  0
LINE
  8
_0-0_0
  6
CONTINUOUS
 62
    7
 10
493.50247200000001
 20
236.17498799999998
 11
493.50247200000001
 21
236.67498799999998
  0
LINE
  8
_0-0_0
  6
CONTINUOUS
 62
    7
 10
493.50247200000001
 20
264.67498799999998
 11
493.50247200000001
 21
264.08102400000001
  0
LINE
  8
_0-0_0
  6
CONTINUOUS
 62
    7
 10
493.50247200000001
 20
259.07498200000003
 11
493.50247200000001
 21
264.08102400000001
  0
LINE
  8
_0-0_0
  6
CONTINUOUS
 62
    7
 10
493.50247200000001
 20
258.94570900000002
 11
493.50247200000001
 21
259.07498200000003
  0
LINE
  8
_0-0_0
  6
CONTINUOUS
 62
    7
 10
-9.4975280000000168
 20
236.17498799999998
 11
-9.4975280000000168
 21
236.67498799999998
  0
LINE
  8
_0-0_0
  6
CONTINUOUS
 62
    7
 10
-9.4975280000000168
 20
236.17498799999998
 11
493.50247200000001
 21
236.17498799999998
  0
LINE
  8
_0-0_0
  6
CONTINUOUS
 62
    7
 10
-9.4975280000000168
 20
250.00427300000001
 11
-9.4975280000000168
 21
250.14572200000003
  0
LINE
  8
_0-0_0
  6
CONTINUOUS
 62
    7
 10
-9.4975280000000168
 20
250.00427300000001
 11
-9.4975280000000168
 21
249.875
  0
LINE
  8
_0-0_0
  6
CONTINUOUS
 62
    7
 10
-9.4975280000000168
 20
264.67498799999998
 11
-9.4975280000000168
 21
264.08102400000001
  0
LINE
  8
_0-0_0
  6
CONTINUOUS
 62
    7
 10
-9.4975280000000168
 20
259.07498200000003
 11
-9.4975280000000168
 21
264.08102400000001
  0
LINE
  8
_0-0_0
  6
CONTINUOUS
 62
    7
 10
-9.4975280000000168
 20
258.94570900000002
 11
-9.4975280000000168
 21
259.07498200000003
  0
LINE
  8
_0-0_0
  6
CONTINUOUS
 62
    7
 10
-9.4975280000000168
 20
258.80429100000003
 11
-9.4975280000000168
 21
258.94570900000002
  0
LINE
  8
_0-0_0
  6
CONTINUOUS
 62
    7
 10
-9.4975280000000168
 20
258.80429100000003
 11
-9.4975280000000168
 21
258.67498799999998
  0
LINE
  8
_0-0_0
  6
CONTINUOUS
 62
    7
 10
-9.4975280000000168
 20
257.97500600000001
 11
-9.4975280000000168
 21
258.67498799999998
  0
LINE
  8
_0-0_0
  6
CONTINUOUS
 62
    7
 10
-9.4975280000000168
 20
257.84570300000001
 11
-9.4975280000000168
 21
257.97500600000001
  0
LINE
  8
_0-0_0
  6
CONTINUOUS
 62
    7
 10
-9.4975280000000168
 20
257.70428500000003
 11
-9.4975280000000168
 21
257.84570300000001
  0
LINE
  8
_0-0_0
  6
CONTINUOUS
 62
    7
 10
-9.4975280000000168
 20
257.70428500000003
 11
-9.4975280000000168
 21
257.57498200000003
  0
LINE
  8
_0-0_0
  6
CONTINUOUS
 62
    7
 10
-9.4975280000000168
 20
256.875
 11
-9.4975280000000168
 21
257.57498200000003
  0
LINE
  8
_0-0_0
  6
CONTINUOUS
 62
    7
 10
-9.4975280000000168
 20
256.74569700000001
 11
-9.4975280000000168
 21
256.875
  0
LINE
  8
_0-0_0
  6
CONTINUOUS
 62
    7
 10
-9.4975280000000168
 20
256.60427900000002
 11
-9.4975280000000168
 21
256.74569700000001
  0
LINE
  8
_0-0_0
  6
CONTINUOUS
 62
    7
 10
-9.4975280000000168
 20
256.60427900000002
 11
-9.4975280000000168
 21
256.47500600000001
  0
LINE
  8
_0-0_0
  6
CONTINUOUS
 62
    7
 10
-9.4975280000000168
 20
255.77499399999999
 11
-9.4975280000000168
 21
256.47500600000001
  0
LINE
  8
_0-0_0
  6
CONTINUOUS
 62
    7
 10
-9.4975280000000168
 20
255.645691
 11
-9.4975280000000168
 21
255.77499399999999
  0
LINE
  8
_0-0_0
  6
CONTINUOUS
 62
    7
 10
-9.4975280000000168
 20
255.50427300000001
 11
-9.4975280000000168
 21
255.645691
  0
LINE
  8
_0-0_0
  6
CONTINUOUS
 62
    7
 10
-9.4975280000000168
 20
255.50427300000001
 11
-9.4975280000000168
 21
255.375
  0
LINE
  8
_0-0_0
  6
CONTINUOUS
 62
    7
 10
-9.4975280000000168
 20
254.67498799999998
 11
-9.4975280000000168
 21
255.375
  0
LINE
  8
_0-0_0
  6
CONTINUOUS
 62
    7
 10
-9.4975280000000168
 20
254.54571500000003
 11
-9.4975280000000168
 21
254.67498799999998
  0
LINE
  8
_0-0_0
  6
CONTINUOUS
 62
    7
 10
-9.4975280000000168
 20
254.40429699999999
 11
-9.4975280000000168
 21
254.54571500000003
  0
LINE
  8
_0-0_0
  6
CONTINUOUS
 62
    7
 10
-9.4975280000000168
 20
254.40429699999999
 11
-9.4975280000000168
 21
254.27499399999999
  0
LINE
  8
_0-0_0
  6
CONTINUOUS
 62
    7
 10
-9.4975280000000168
 20
253.57498200000003
 11
-9.4975280000000168
 21
254.27499399999999
  0
LINE
  8
_0-0_0
  6
CONTINUOUS
 62
    7
 10
-9.4975280000000168
 20
253.44570900000002
 11
-9.4975280000000168
 21
253.57498200000003
  0
LINE
  8
_0-0_0
  6
CONTINUOUS
 62
    7
 10
-9.4975280000000168
 20
253.30429100000003
 11
-9.4975280000000168
 21
253.44570900000002
  0
LINE
  8
_0-0_0
  6
CONTINUOUS
 62
    7
 10
-9.4975280000000168
 20
253.30429100000003
 11
-9.4975280000000168
 21
253.17498799999998
  0
LINE
  8
_0-0_0
  6
CONTINUOUS
 62
    7
 10
-9.4975280000000168
 20
252.47500600000001
 11
-9.4975280000000168
 21
253.17498799999998
  0
LINE
  8
_0-0_0
  6
CONTINUOUS
 62
    7
 10
-9.4975280000000168
 20
252.34570300000001
 11
-9.4975280000000168
 21
252.47500600000001
  0
LINE
  8
_0-0_0
  6
CONTINUOUS
 62
    7
 10
-9.4975280000000168
 20
252.20428500000003
 11
-9.4975280000000168
 21
252.34570300000001
  0
LINE
  8
_0-0_0
  6
CONTINUOUS
 62
    7
 10
-9.4975280000000168
 20
252.20428500000003
 11
-9.4975280000000168
 21
252.07498200000003
  0
LINE
  8
_0-0_0
  6
CONTINUOUS
 62
    7
 10
-9.4975280000000168
 20
251.375
 11
-9.4975280000000168
 21
252.07498200000003
  0
LINE
  8
_0-0_0
  6
CONTINUOUS
 62
    7
 10
-9.4975280000000168
 20
251.24569700000001
 11
-9.4975280000000168
 21
251.375
  0
LINE
  8
_0-0_0
  6
CONTINUOUS
 62
    7
 10
-9.4975280000000168
 20
251.10427900000002
 11
-9.4975280000000168
 21
251.24569700000001
  0
LINE
  8
_0-0_0
  6
CONTINUOUS
 62
    7
 10
-9.4975280000000168
 20
251.10427900000002
 11
-9.4975280000000168
 21
250.97500600000001
  0
LINE
  8
_0-0_0
  6
CONTINUOUS
 62
    7
 10
-9.4975280000000168
 20
250.27499399999999
 11
-9.4975280000000168
 21
250.97500600000001
  0
LINE
  8
_0-0_0
  6
CONTINUOUS
 62
    7
 10
-9.4975280000000168
 20
250.14572200000003
 11
-9.4975280000000168
 21
250.27499399999999
  0
LINE
  8
_0-0_0
  6
CONTINUOUS
 62
    7
 10
411.00247200000001
 20
242.17498799999998
 11
418.00247200000001
 21
242.17498799999998
  0
ARC
  8
_0-0_0
  6
CONTINUOUS
 62
    7
 10
411.00247200000001
 20
241.67498799999998
 40
0.5
 50
90.000003000000007
 51
180.00000900000001
  0
LINE
  8
_0-0_0
  6
CONTINUOUS
 62
    7
 10
410.50247200000001
 20
241.67498799999998
 11
410.50247200000001
 21
237.67498799999998
  0
ARC
  8
_0-0_0
  6
CONTINUOUS
 62
    7
 10
411.00247200000001
 20
237.67498799999998
 40
0.5
 50
180.00000900000003
 51
269.99999700000001
  0
LINE
  8
_0-0_0
  6
CONTINUOUS
 62
    7
 10
418.00247200000001
 20
237.17498799999998
 11
411.00247200000001
 21
237.17498799999998
  0
ARC
  8
_0-0_0
  6
CONTINUOUS
 62
    7
 10
418.00247200000001
 20
237.67498799999998
 40
0.5
 50
269.99999700000001
 51
0
  0
LINE
  8
_0-0_0
  6
CONTINUOUS
 62
    7
 10
418.50247200000001
 20
237.67498799999998
 11
418.50247200000001
 21
241.67498799999998
  0
ARC
  8
_0-0_0
  6
CONTINUOUS
 62
    7
 10
418.00247200000001
 20
241.67498799999998
 40
0.5
 50
0
 51
90.000003000000007
  0
ARC
  8
_0-0_0
  6
CONTINUOUS
 62
    7
 10
41.002471999999983
 20
241.67498799999998
 40
0.5
 50
90.000003000000007
 51
180.00000900000001
  0
LINE
  8
_0-0_0
  6
CONTINUOUS
 62
    7
 10
40.502471999999983
 20
241.67498799999998
 11
40.502471999999983
 21
237.67498799999998
  0
ARC
  8
_0-0_0
  6
CONTINUOUS
 62
    7
 10
41.002471999999983
 20
237.67498799999998
 40
0.5
 50
180.00000900000003
 51
269.99999700000001
  0
LINE
  8
_0-0_0
  6
CONTINUOUS
 62
    7
 10
48.002471999999983
 20
237.17498799999998
 11
41.002471999999983
 21
237.17498799999998
  0
ARC
  8
_0-0_0
  6
CONTINUOUS
 62
    7
 10
48.002471999999983
 20
237.67498799999998
 40
0.5
 50
269.99999700000001
 51
0
  0
LINE
  8
_0-0_0
  6
CONTINUOUS
 62
    7
 10
48.502471999999983
 20
237.67498799999998
 11
48.502471999999983
 21
241.67498799999998
  0
ARC
  8
_0-0_0
  6
CONTINUOUS
 62
    7
 10
48.002471999999983
 20
241.67498799999998
 40
0.5
 50
0
 51
90.000003000000007
  0
LINE
  8
_0-0_0
  6
CONTINUOUS
 62
    7
 10
41.002471999999983
 20
242.17498799999998
 11
48.002471999999983
 21
242.17498799999998
  0
LINE
  8
_0-0_0
  6
CONTINUOUS
 62
    7
 10
-9.4975280000000168
 20
250.27499399999999
 11
-7.3063510000000065
 21
250.27499399999999
  0
LINE
  8
_0-0_0
  6
CONTINUOUS
 62
    7
 10
-9.4975280000000168
 20
250.97500600000001
 11
-7.6912690000000055
 21
250.97500600000001
  0
LINE
  8
_0-0_0
  6
CONTINUOUS
 62
    7
 10
-9.4975280000000168
 20
251.375
 11
-7.8724819999999909
 21
251.375
  0
LINE
  8
_0-0_0
  6
CONTINUOUS
 62
    7
 10
-9.4975280000000168
 20
252.07498200000003
 11
-8.1290440000000217
 21
252.07498200000003
  0
LINE
  8
_0-0_0
  6
CONTINUOUS
 62
    7
 10
-9.4975280000000168
 20
252.47500600000001
 11
-8.2435000000000116
 21
252.47500600000001
  0
LINE
  8
_0-0_0
  6
CONTINUOUS
 62
    7
 10
-9.4975280000000168
 20
253.17498799999998
 11
-8.3911899999999946
 21
253.17498799999998
  0
LINE
  8
_0-0_0
  6
CONTINUOUS
 62
    7
 10
-9.4975280000000168
 20
253.57498200000003
 11
-8.4467470000000162
 21
253.57498200000003
  0
LINE
  8
_0-0_0
  6
CONTINUOUS
 62
    7
 10
-9.4975280000000168
 20
254.27499399999999
 11
-8.4950259999999957
 21
254.27499399999999
  0
LINE
  8
_0-0_0
  6
CONTINUOUS
 62
    7
 10
-8.4975280000000168
 20
254.47500600000001
 11
-8.4972080000000005
 21
254.54571500000003
  0
LINE
  8
_0-0_0
  6
CONTINUOUS
 62
    7
 10
7.5024719999999832
 20
254.47500600000001
 11
7.5021669999999858
 21
254.54571500000003
  0
LINE
  8
_0-0_0
  6
CONTINUOUS
 62
    7
 10
7.499968999999993
 20
254.67498799999998
 11
7.5021669999999858
 21
254.54571500000003
  0
ARC
  8
_0-0_0
  6
CONTINUOUS
 62
    7
 10
-0.4975280000000168
 20
254.47500600000001
 40
8
 50
1.432544
 51
6.4594489999999993
  0
LINE
  8
_0-0_0
  6
CONTINUOUS
 62
    7
 10
7.4359890000000064
 20
255.50427300000001
 11
7.4516909999999825
 21
255.375
  0
LINE
  8
_0-0_0
  6
CONTINUOUS
 62
    7
 10
7.4359890000000064
 20
255.50427300000001
 11
7.4163509999999917
 21
255.645691
  0
LINE
  8
_0-0_0
  6
CONTINUOUS
 62
    7
 10
7.3961489999999799
 20
255.77499399999999
 11
7.4163509999999917
 21
255.645691
  0
ARC
  8
_0-0_0
  6
CONTINUOUS
 62
    7
 10
-0.4975280000000168
 20
254.47500600000001
 40
8
 50
9.3520350000000008
 51
14.477510999999998
  0
LINE
  8
_0-0_0
  6
CONTINUOUS
 62
    7
 10
7.2138979999999719
 20
256.60427900000002
 11
7.2484440000000063
 21
256.47500600000001
  0
LINE
  8
_0-0_0
  6
CONTINUOUS
 62
    7
 10
7.2138979999999719
 20
256.60427900000002
 11
7.1734469999999817
 21
256.74569700000001
  0
LINE
  8
_0-0_0
  6
CONTINUOUS
 62
    7
 10
7.1339869999999905
 20
256.875
 11
7.1734469999999817
 21
256.74569700000001
  0
ARC
  8
_0-0_0
  6
CONTINUOUS
 62
    7
 10
-0.4975280000000168
 20
254.47500600000001
 40
8
 50
17.457602999999999
 51
22.799030999999999
  0
LINE
  8
_0-0_0
  6
CONTINUOUS
 62
    7
 10
6.8217469999999878
 20
257.70428500000003
 11
6.8774259999999856
 21
257.57498200000003
  0
LINE
  8
_0-0_0
  6
CONTINUOUS
 62
    7
 10
6.8217469999999878
 20
257.70428500000003
 11
6.7577059999999847
 21
257.84570300000001
  0
LINE
  8
_0-0_0
  6
CONTINUOUS
 62
    7
 10
6.6962279999999907
 20
257.97500600000001
 11
6.7577059999999847
 21
257.84570300000001
  0
ARC
  8
_0-0_0
  6
CONTINUOUS
 62
    7
 10
-0.4975280000000168
 20
254.47500600000001
 40
8
 50
25.944476999999999
 51
31.668240000000001
  0
LINE
  8
_0-0_0
  6
CONTINUOUS
 62
    7
 10
6.2298279999999977
 20
258.80429100000003
 11
6.3112939999999753
 21
258.67498799999998
  0
LINE
  8
_0-0_0
  6
CONTINUOUS
 62
    7
 10
6.2298279999999977
 20
258.80429100000003
 11
6.1366879999999924
 21
258.94570900000002
  0
LINE
  8
_0-0_0
  6
CONTINUOUS
 62
    7
 10
6.0476989999999944
 20
259.07498200000003
 11
6.1366879999999924
 21
258.94570900000002
  0
ARC
  8
_0-0_0
  6
CONTINUOUS
 62
    7
 10
-0.4975280000000168
 20
254.47500600000001
 40
8
 50
35.099632
 51
144.900373
  0
LINE
  8
_0-0_0
  6
CONTINUOUS
 62
    7
 10
-7.0427549999999997
 20
259.07498200000003
 11
-7.1317290000000071
 21
258.94570900000002
  0
LINE
  8
_0-0_0
  6
CONTINUOUS
 62
    7
 10
-7.2248840000000314
 20
258.80429100000003
 11
-7.1317290000000071
 21
258.94570900000002
  0
LINE
  8
_0-0_0
  6
CONTINUOUS
 62
    7
 10
-7.2248840000000314
 20
258.80429100000003
 11
-7.3063510000000065
 21
258.67498799999998
  0
ARC
  8
_0-0_0
  6
CONTINUOUS
 62
    7
 10
-0.4975280000000168
 20
254.47500600000001
 40
8
 50
148.33176499999999
 51
154.05551800000001
  0
LINE
  8
_0-0_0
  6
CONTINUOUS
 62
    7
 10
-7.6912690000000055
 20
257.97500600000001
 11
-7.7527469999999994
 21
257.84570300000001
  0
LINE
  8
_0-0_0
  6
CONTINUOUS
 62
    7
 10
-7.8167880000000309
 20
257.70428500000003
 11
-7.7527469999999994
 21
257.84570300000001
  0
LINE
  8
_0-0_0
  6
CONTINUOUS
 62
    7
 10
-7.8167880000000309
 20
257.70428500000003
 11
-7.8724819999999909
 21
257.57498200000003
  0
ARC
  8
_0-0_0
  6
CONTINUOUS
 62
    7
 10
-0.4975280000000168
 20
254.47500600000001
 40
8
 50
157.20097000000001
 51
162.54239699999999
  0
LINE
  8
_0-0_0
  6
CONTINUOUS
 62
    7
 10
-8.1290440000000217
 20
256.875
 11
-8.1685030000000154
 21
256.74569700000001
  0
LINE
  8
_0-0_0
  6
CONTINUOUS
 62
    7
 10
-8.2089540000000056
 20
256.60427900000002
 11
-8.1685030000000154
 21
256.74569700000001
  0
LINE
  8
_0-0_0
  6
CONTINUOUS
 62
    7
 10
-8.2089540000000056
 20
256.60427900000002
 11
-8.2435000000000116
 21
256.47500600000001
  0
ARC
  8
_0-0_0
  6
CONTINUOUS
 62
    7
 10
-0.4975280000000168
 20
254.47500600000001
 40
8
 50
165.52249
 51
170.64796000000001
  0
LINE
  8
_0-0_0
  6
CONTINUOUS
 62
    7
 10
-8.3911899999999946
 20
255.77499399999999
 11
-8.4114079999999944
 21
255.645691
  0
LINE
  8
_0-0_0
  6
CONTINUOUS
 62
    7
 10
-8.4310300000000211
 20
255.50427300000001
 11
-8.4114079999999944
 21
255.645691
  0
LINE
  8
_0-0_0
  6
CONTINUOUS
 62
    7
 10
-8.4310300000000211
 20
255.50427300000001
 11
-8.4467470000000162
 21
255.375
  0
ARC
  8
_0-0_0
  6
CONTINUOUS
 62
    7
 10
-0.4975280000000168
 20
254.47500600000001
 40
8
 50
173.54054500000001
 51
178.567455
  0
LINE
  8
_0-0_0
  6
CONTINUOUS
 62
    7
 10
-8.4950259999999957
 20
254.67498799999998
 11
-8.4972080000000005
 21
254.54571500000003
  0
CIRCLE
  8
_0-0_0
  6
CONTINUOUS
 62
    7
 10
-0.4975280000000168
 20
254.47500600000001
 40
7.5
  0
LINE
  8
_0-0_0
  6
CONTINUOUS
 62
    7
 10
476.50247200000001
 20
254.47500600000001
 11
476.50277700000004
 21
254.54571500000003
  0
LINE
  8
_0-0_0
  6
CONTINUOUS
 62
    7
 10
7.499968999999993
 20
254.27499399999999
 11
476.50497399999995
 21
254.27499399999999
  0
LINE
  8
_0-0_0
  6
CONTINUOUS
 62
    7
 10
7.4516909999999825
 20
253.57498200000003
 11
476.55325300000004
 21
253.57498200000003
  0
LINE
  8
_0-0_0
  6
CONTINUOUS
 62
    7
 10
7.3961489999999799
 20
253.17498799999998
 11
476.60879499999999
 21
253.17498799999998
  0
LINE
  8
_0-0_0
  6
CONTINUOUS
 62
    7
 10
7.2484440000000063
 20
252.47500600000001
 11
476.75649999999996
 21
252.47500600000001
  0
LINE
  8
_0-0_0
  6
CONTINUOUS
 62
    7
 10
7.1339869999999905
 20
252.07498200000003
 11
476.87100199999998
 21
252.07498200000003
  0
LINE
  8
_0-0_0
  6
CONTINUOUS
 62
    7
 10
6.8774259999999856
 20
251.375
 11
477.12753299999997
 21
251.375
  0
LINE
  8
_0-0_0
  6
CONTINUOUS
 62
    7
 10
6.6962279999999907
 20
250.97500600000001
 11
477.30874600000004
 21
250.97500600000001
  0
LINE
  8
_0-0_0
  6
CONTINUOUS
 62
    7
 10
6.3112939999999753
 20
250.27499399999999
 11
477.69369499999993
 21
250.27499399999999
  0
LINE
  8
_0-0_0
  6
CONTINUOUS
 62
    7
 10
492.50247200000001
 20
254.47500600000001
 11
492.50216699999999
 21
254.54571500000003
  0
LINE
  8
_0-0_0
  6
CONTINUOUS
 62
    7
 10
492.49996899999996
 20
254.27499399999999
 11
493.50247200000001
 21
254.27499399999999
  0
LINE
  8
_0-0_0
  6
CONTINUOUS
 62
    7
 10
492.45169099999998
 20
253.57498200000003
 11
493.50247200000001
 21
253.57498200000003
  0
LINE
  8
_0-0_0
  6
CONTINUOUS
 62
    7
 10
492.39614900000004
 20
253.17498799999998
 11
493.50247200000001
 21
253.17498799999998
  0
LINE
  8
_0-0_0
  6
CONTINUOUS
 62
    7
 10
492.24844399999995
 20
252.47500600000001
 11
493.50247200000001
 21
252.47500600000001
  0
LINE
  8
_0-0_0
  6
CONTINUOUS
 62
    7
 10
492.13400300000001
 20
252.07498200000003
 11
493.50247200000001
 21
252.07498200000003
  0
LINE
  8
_0-0_0
  6
CONTINUOUS
 62
    7
 10
491.87747200000001
 20
251.375
 11
493.50247200000001
 21
251.375
  0
LINE
  8
_0-0_0
  6
CONTINUOUS
 62
    7
 10
491.69625799999994
 20
250.97500600000001
 11
493.50247200000001
 21
250.97500600000001
  0
LINE
  8
_0-0_0
  6
CONTINUOUS
 62
    7
 10
491.31130999999993
 20
250.27499399999999
 11
493.50247200000001
 21
250.27499399999999
  0
LINE
  8
_0-0_0
  6
CONTINUOUS
 62
    7
 10
491.04769899999997
 20
259.07498200000003
 11
491.13668799999994
 21
258.94570900000002
  0
ARC
  8
_0-0_0
  6
CONTINUOUS
 62
    7
 10
484.50247200000001
 20
254.47500600000001
 40
8
 50
35.099632
 51
144.900373
  0
LINE
  8
_0-0_0
  6
CONTINUOUS
 62
    7
 10
477.95724499999994
 20
259.07498200000003
 11
477.86825599999997
 21
258.94570900000002
  0
LINE
  8
_0-0_0
  6
CONTINUOUS
 62
    7
 10
477.77511600000003
 20
258.80429100000003
 11
477.86825599999997
 21
258.94570900000002
  0
LINE
  8
_0-0_0
  6
CONTINUOUS
 62
    7
 10
477.77511600000003
 20
258.80429100000003
 11
477.69369499999993
 21
258.67498799999998
  0
ARC
  8
_0-0_0
  6
CONTINUOUS
 62
    7
 10
484.50247200000001
 20
254.47500600000001
 40
8
 50
148.33176499999999
 51
154.05551800000001
  0
LINE
  8
_0-0_0
  6
CONTINUOUS
 62
    7
 10
477.30874600000004
 20
257.97500600000001
 11
477.24728400000004
 21
257.84570300000001
  0
LINE
  8
_0-0_0
  6
CONTINUOUS
 62
    7
 10
477.18319699999995
 20
257.70428500000003
 11
477.24728400000004
 21
257.84570300000001
  0
LINE
  8
_0-0_0
  6
CONTINUOUS
 62
    7
 10
477.18319699999995
 20
257.70428500000003
 11
477.12753299999997
 21
257.57498200000003
  0
ARC
  8
_0-0_0
  6
CONTINUOUS
 62
    7
 10
484.50247200000001
 20
254.47500600000001
 40
8
 50
157.20097000000001
 51
162.54239699999999
  0
LINE
  8
_0-0_0
  6
CONTINUOUS
 62
    7
 10
476.87100199999998
 20
256.875
 11
476.83151199999998
 21
256.74569700000001
  0
LINE
  8
_0-0_0
  6
CONTINUOUS
 62
    7
 10
476.79104599999994
 20
256.60427900000002
 11
476.83151199999998
 21
256.74569700000001
  0
LINE
  8
_0-0_0
  6
CONTINUOUS
 62
    7
 10
476.79104599999994
 20
256.60427900000002
 11
476.75649999999996
 21
256.47500600000001
  0
ARC
  8
_0-0_0
  6
CONTINUOUS
 62
    7
 10
484.50247200000001
 20
254.47500600000001
 40
8
 50
165.52249
 51
170.64796000000001
  0
LINE
  8
_0-0_0
  6
CONTINUOUS
 62
    7
 10
476.60879499999999
 20
255.77499399999999
 11
476.58859199999995
 21
255.645691
  0
LINE
  8
_0-0_0
  6
CONTINUOUS
 62
    7
 10
476.56899999999996
 20
255.50427300000001
 11
476.58859199999995
 21
255.645691
  0
LINE
  8
_0-0_0
  6
CONTINUOUS
 62
    7
 10
476.56899999999996
 20
255.50427300000001
 11
476.55325300000004
 21
255.375
  0
ARC
  8
_0-0_0
  6
CONTINUOUS
 62
    7
 10
484.50247200000001
 20
254.47500600000001
 40
8
 50
173.54054500000001
 51
178.567455
  0
LINE
  8
_0-0_0
  6
CONTINUOUS
 62
    7
 10
476.50497399999995
 20
254.67498799999998
 11
476.50277700000004
 21
254.54571500000003
  0
LINE
  8
_0-0_0
  6
CONTINUOUS
 62
    7
 10
492.49996899999996
 20
254.67498799999998
 11
492.50216699999999
 21
254.54571500000003
  0
ARC
  8
_0-0_0
  6
CONTINUOUS
 62
    7
 10
484.50247200000001
 20
254.47500600000001
 40
8
 50
1.432544
 51
6.4594489999999993
  0
LINE
  8
_0-0_0
  6
CONTINUOUS
 62
    7
 10
492.43600500000002
 20
255.50427300000001
 11
492.45169099999998
 21
255.375
  0
LINE
  8
_0-0_0
  6
CONTINUOUS
 62
    7
 10
492.43600500000002
 20
255.50427300000001
 11
492.41635099999996
 21
255.645691
  0
LINE
  8
_0-0_0
  6
CONTINUOUS
 62
    7
 10
492.39614900000004
 20
255.77499399999999
 11
492.41635099999996
 21
255.645691
  0
ARC
  8
_0-0_0
  6
CONTINUOUS
 62
    7
 10
484.50247200000001
 20
254.47500600000001
 40
8
 50
9.3520350000000008
 51
14.477510999999998
  0
LINE
  8
_0-0_0
  6
CONTINUOUS
 62
    7
 10
492.21389799999997
 20
256.60427900000002
 11
492.24844399999995
 21
256.47500600000001
  0
LINE
  8
_0-0_0
  6
CONTINUOUS
 62
    7
 10
492.21389799999997
 20
256.60427900000002
 11
492.17349200000001
 21
256.74569700000001
  0
LINE
  8
_0-0_0
  6
CONTINUOUS
 62
    7
 10
492.13400300000001
 20
256.875
 11
492.17349200000001
 21
256.74569700000001
  0
ARC
  8
_0-0_0
  6
CONTINUOUS
 62
    7
 10
484.50247200000001
 20
254.47500600000001
 40
8
 50
17.457602999999999
 51
22.799030999999999
  0
LINE
  8
_0-0_0
  6
CONTINUOUS
 62
    7
 10
491.82174699999996
 20
257.70428500000003
 11
491.87747200000001
 21
257.57498200000003
  0
LINE
  8
_0-0_0
  6
CONTINUOUS
 62
    7
 10
491.82174699999996
 20
257.70428500000003
 11
491.75772099999995
 21
257.84570300000001
  0
LINE
  8
_0-0_0
  6
CONTINUOUS
 62
    7
 10
491.69625799999994
 20
257.97500600000001
 11
491.75772099999995
 21
257.84570300000001
  0
ARC
  8
_0-0_0
  6
CONTINUOUS
 62
    7
 10
484.50247200000001
 20
254.47500600000001
 40
8
 50
25.944476999999999
 51
31.668240000000001
  0
LINE
  8
_0-0_0
  6
CONTINUOUS
 62
    7
 10
491.229828
 20
258.80429100000003
 11
491.31130999999993
 21
258.67498799999998
  0
LINE
  8
_0-0_0
  6
CONTINUOUS
 62
    7
 10
491.229828
 20
258.80429100000003
 11
491.13668799999994
 21
258.94570900000002
  0
CIRCLE
  8
_0-0_0
  6
CONTINUOUS
 62
    7
 10
484.50247200000001
 20
254.47500600000001
 40
7.5
  0
LINE
  8
_0-0_0
  6
CONTINUOUS
 62
    7
 10
491.31130999999993
 20
258.67498799999998
 11
493.50247200000001
 21
258.67498799999998
  0
LINE
  8
_0-0_0
  6
CONTINUOUS
 62
    7
 10
491.69625799999994
 20
257.97500600000001
 11
493.50247200000001
 21
257.97500600000001
  0
LINE
  8
_0-0_0
  6
CONTINUOUS
 62
    7
 10
491.87747200000001
 20
257.57498200000003
 11
493.50247200000001
 21
257.57498200000003
  0
LINE
  8
_0-0_0
  6
CONTINUOUS
 62
    7
 10
492.13400300000001
 20
256.875
 11
493.50247200000001
 21
256.875
  0
LINE
  8
_0-0_0
  6
CONTINUOUS
 62
    7
 10
492.24844399999995
 20
256.47500600000001
 11
493.50247200000001
 21
256.47500600000001
  0
LINE
  8
_0-0_0
  6
CONTINUOUS
 62
    7
 10
492.39614900000004
 20
255.77499399999999
 11
493.50247200000001
 21
255.77499399999999
  0
LINE
  8
_0-0_0
  6
CONTINUOUS
 62
    7
 10
492.45169099999998
 20
255.375
 11
493.50247200000001
 21
255.375
  0
LINE
  8
_0-0_0
  6
CONTINUOUS
 62
    7
 10
492.49996899999996
 20
254.67498799999998
 11
493.50247200000001
 21
254.67498799999998
  0
LINE
  8
_0-0_0
  6
CONTINUOUS
 62
    7
 10
494.00247200000001
 20
237.97500600000001
 11
493.50247200000001
 21
237.97500600000001
  0
LINE
  8
_0-0_0
  6
CONTINUOUS
 62
    7
 10
494.00247200000001
 20
240.17498799999998
 11
493.50247200000001
 21
240.17498799999998
  0
LINE
  8
_0-0_0
  6
CONTINUOUS
 62
    7
 10
494.00247200000001
 20
242.47500600000001
 11
493.50247200000001
 21
242.47500600000001
  0
LINE
  8
_0-0_0
  6
CONTINUOUS
 62
    7
 10
493.50247200000001
 20
244.77499399999999
 11
494.00247200000001
 21
244.77499399999999
  0
LINE
  8
_0-0_0
  6
CONTINUOUS
 62
    7
 10
494.00247200000001
 20
264.97500600000001
 11
494.00247200000001
 21
264.875
  0
LINE
  8
_0-0_0
  6
CONTINUOUS
 62
    7
 10
-9.9975280000000168
 20
264.97500600000001
 11
-9.9975280000000168
 21
264.875
  0
LINE
  8
_0-0_0
  6
CONTINUOUS
 62
    7
 10
-9.9975280000000168
 20
244.77499399999999
 11
-9.4975280000000168
 21
244.77499399999999
  0
LINE
  8
_0-0_0
  6
CONTINUOUS
 62
    7
 10
-9.4975280000000168
 20
264.67498799999998
 11
493.50247200000001
 21
264.67498799999998
  0
LINE
  8
_0-0_0
  6
CONTINUOUS
 62
    7
 10
-9.4975280000000168
 20
264.08102400000001
 11
493.50247200000001
 21
264.08102400000001
  0
LINE
  8
_0-0_0
  6
CONTINUOUS
 62
    7
 10
6.0476989999999944
 20
259.07498200000003
 11
477.95724499999994
 21
259.07498200000003
  0
LINE
  8
_0-0_0
  6
CONTINUOUS
 62
    7
 10
491.04769899999997
 20
259.07498200000003
 11
493.50247200000001
 21
259.07498200000003
  0
LINE
  8
_0-0_0
  6
CONTINUOUS
 62
    7
 10
-9.4975280000000168
 20
259.07498200000003
 11
-7.0427549999999997
 21
259.07498200000003
  0
LINE
  8
_0-0_0
  6
CONTINUOUS
 62
    7
 10
-9.9975280000000168
 20
237.97500600000001
 11
-9.4975280000000168
 21
237.97500600000001
  0
LINE
  8
_0-0_0
  6
CONTINUOUS
 62
    7
 10
-9.9975280000000168
 20
240.17498799999998
 11
-9.4975280000000168
 21
240.17498799999998
  0
LINE
  8
_0-0_0
  6
CONTINUOUS
 62
    7
 10
-9.9975280000000168
 20
242.47500600000001
 11
-9.4975280000000168
 21
242.47500600000001
  0
LINE
  8
_0-0_0
  6
CONTINUOUS
 62
    7
 10
-9.4975280000000168
 20
258.67498799999998
 11
-7.3063510000000065
 21
258.67498799999998
  0
LINE
  8
_0-0_0
  6
CONTINUOUS
 62
    7
 10
-9.4975280000000168
 20
257.97500600000001
 11
-7.6912690000000055
 21
257.97500600000001
  0
LINE
  8
_0-0_0
  6
CONTINUOUS
 62
    7
 10
-9.4975280000000168
 20
257.57498200000003
 11
-7.8724819999999909
 21
257.57498200000003
  0
LINE
  8
_0-0_0
  6
CONTINUOUS
 62
    7
 10
-9.4975280000000168
 20
256.875
 11
-8.1290440000000217
 21
256.875
  0
LINE
  8
_0-0_0
  6
CONTINUOUS
 62
    7
 10
-9.4975280000000168
 20
256.47500600000001
 11
-8.2435000000000116
 21
256.47500600000001
  0
LINE
  8
_0-0_0
  6
CONTINUOUS
 62
    7
 10
-9.4975280000000168
 20
255.77499399999999
 11
-8.3911899999999946
 21
255.77499399999999
  0
LINE
  8
_0-0_0
  6
CONTINUOUS
 62
    7
 10
-9.4975280000000168
 20
255.375
 11
-8.4467470000000162
 21
255.375
  0
LINE
  8
_0-0_0
  6
CONTINUOUS
 62
    7
 10
-9.4975280000000168
 20
254.67498799999998
 11
-8.4950259999999957
 21
254.67498799999998
  0
LINE
  8
_0-0_0
  6
CONTINUOUS
 62
    7
 10
6.3112939999999753
 20
258.67498799999998
 11
477.69369499999993
 21
258.67498799999998
  0
LINE
  8
_0-0_0
  6
CONTINUOUS
 62
    7
 10
6.6962279999999907
 20
257.97500600000001
 11
477.30874600000004
 21
257.97500600000001
  0
LINE
  8
_0-0_0
  6
CONTINUOUS
 62
    7
 10
6.8774259999999856
 20
257.57498200000003
 11
477.12753299999997
 21
257.57498200000003
  0
LINE
  8
_0-0_0
  6
CONTINUOUS
 62
    7
 10
7.1339869999999905
 20
256.875
 11
476.87100199999998
 21
256.875
  0
LINE
  8
_0-0_0
  6
CONTINUOUS
 62
    7
 10
7.2484440000000063
 20
256.47500600000001
 11
476.75649999999996
 21
256.47500600000001
  0
LINE
  8
_0-0_0
  6
CONTINUOUS
 62
    7
 10
7.3961489999999799
 20
255.77499399999999
 11
476.60879499999999
 21
255.77499399999999
  0
LINE
  8
_0-0_0
  6
CONTINUOUS
 62
    7
 10
7.4516909999999825
 20
255.375
 11
476.55325300000004
 21
255.375
  0
LINE
  8
_0-0_0
  6
CONTINUOUS
 62
    7
 10
7.499968999999993
 20
254.67498799999998
 11
476.50497399999995
 21
254.67498799999998
  0
LINE
  8
_0-0_0
  6
CONTINUOUS
 62
    7
 10
494.00247200000001
 20
236.47500600000001
 11
493.50247200000001
 21
236.47500600000001
  0
LINE
  8
_0-0_0
  6
CONTINUOUS
 62
    7
 10
494.00247200000001
 20
264.07498200000003
 11
494.00247200000001
 21
264.875
  0
LINE
  8
_0-0_0
  6
CONTINUOUS
 62
    7
 10
494.00247200000001
 20
236.27499399999999
 11
494.00247200000001
 21
264.07498200000003
  0
LINE
  8
_0-0_0
  6
CONTINUOUS
 62
    7
 10
-9.9975280000000168
 20
264.07498200000003
 11
-9.9975280000000168
 21
264.875
  0
LINE
  8
_0-0_0
  6
CONTINUOUS
 62
    7
 10
-9.9975280000000168
 20
236.27499399999999
 11
-9.9975280000000168
 21
264.07498200000003
  0
ARC
  8
_0-0_0
  6
CONTINUOUS
 62
    7
 10
-0.4975280000000168
 20
255.17498799999998
 40
12.800000000000001
 50
73.932597000000001
 51
106.06740099999999
  0
ARC
  8
_0-0_0
  6
CONTINUOUS
 62
    7
 10
484.50247200000001
 20
255.17498799999998
 40
12.800000000000001
 50
73.932597000000001
 51
106.06740099999999
  0
LINE
  8
_0-0_0
  6
CONTINUOUS
 62
    7
 10
494.00247200000001
 20
264.97500600000001
 11
494.00247200000001
 21
267.47500600000001
  0
LINE
  8
_0-0_0
  6
CONTINUOUS
 62
    7
 10
-9.9975280000000168
 20
267.47500600000001
 11
494.00247200000001
 21
267.47500600000001
  0
LINE
  8
_0-0_0
  6
CONTINUOUS
 62
    7
 10
-9.9975280000000168
 20
264.97500600000001
 11
-9.9975280000000168
 21
267.47500600000001
  0
LINE
  8
_0-0_0
  6
CONTINUOUS
 62
    7
 10
-9.9975280000000168
 20
236.47500600000001
 11
-9.4975280000000168
 21
236.47500600000001
  0
ARC
  8
_0-0_0
  6
CONTINUOUS
 62
    7
 10
415.80246
 20
241.375
 40
0.2
 50
339.62356199999999
 51
90.000002999999978
  0
LINE
  8
_0-0_0
  6
CONTINUOUS
 62
    7
 10
415.98996
 20
241.30535900000001
 11
414.68997200000001
 21
237.80535900000001
  0
ARC
  8
_0-0_0
  6
CONTINUOUS
 62
    7
 10
414.50247200000001
 20
237.875
 40
0.2
 50
200.37643
 51
339.62356199999999
  0
LINE
  8
_0-0_0
  6
CONTINUOUS
 62
    7
 10
413.01498399999997
 20
241.30535900000001
 11
414.31497200000001
 21
237.80535900000001
  0
ARC
  8
_0-0_0
  6
CONTINUOUS
 62
    7
 10
413.20248399999997
 20
241.375
 40
0.2
 50
90.000003000000007
 51
200.37643
  0
LINE
  8
_0-0_0
  6
CONTINUOUS
 62
    7
 10
413.20248399999997
 20
241.57498200000003
 11
415.80246
 21
241.57498200000003
  0
ARC
  8
_0-0_0
  6
CONTINUOUS
 62
    7
 10
45.802474999999987
 20
241.375
 40
0.2
 50
339.62356199999999
 51
90.000002999999978
  0
LINE
  8
_0-0_0
  6
CONTINUOUS
 62
    7
 10
45.989959999999996
 20
241.30535900000001
 11
44.689956999999993
 21
237.80535900000001
  0
ARC
  8
_0-0_0
  6
CONTINUOUS
 62
    7
 10
44.502471999999983
 20
237.875
 40
0.2
 50
200.37643
 51
339.62356199999999
  0
LINE
  8
_0-0_0
  6
CONTINUOUS
 62
    7
 10
43.01498399999997
 20
241.30535900000001
 11
44.314986999999974
 21
237.80535900000001
  0
ARC
  8
_0-0_0
  6
CONTINUOUS
 62
    7
 10
43.202469000000008
 20
241.375
 40
0.2
 50
90.000003000000007
 51
200.37643
  0
LINE
  8
_0-0_0
  6
CONTINUOUS
 62
    7
 10
43.202469000000008
 20
241.57498200000003
 11
45.802474999999987
 21
241.57498200000003
  0
CIRCLE
  8
_0-0_0
  6
CONTINUOUS
 62
    7
 10
-0.4975280000000168
 20
254.47500600000001
 40
5
  0
CIRCLE
  8
_0-0_0
  6
CONTINUOUS
 62
    7
 10
484.50247200000001
 20
254.47500600000001
 40
5
  0
LINE
  8
_0-0_0
  6
CONTINUOUS
 62
    7
 10
495.00247200000001
 20
264.07498200000003
 11
494.00247200000001
 21
264.07498200000003
  0
LINE
  8
_0-0_0
  6
CONTINUOUS
 62
    7
 10
495.00247200000001
 20
265.11196899999999
 11
494.00247200000001
 21
265.11196899999999
  0
LINE
  8
_0-0_0
  6
CONTINUOUS
 62
    7
 10
495.00247200000001
 20
236.27499399999999
 11
494.00247200000001
 21
236.27499399999999
  0
LINE
  8
_0-0_0
  6
CONTINUOUS
 62
    7
 10
-10.997528000000017
 20
264.07498200000003
 11
-9.9975280000000168
 21
264.07498200000003
  0
LINE
  8
_0-0_0
  6
CONTINUOUS
 62
    7
 10
-10.997528000000017
 20
265.07498200000003
 11
-9.9975280000000168
 21
265.07498200000003
  0
LINE
  8
_0-0_0
  6
CONTINUOUS
 62
    7
 10
-10.997528000000017
 20
236.27499399999999
 11
-9.9975280000000168
 21
236.27499399999999
  0
LINE
  8
_0-0_0
  6
CONTINUOUS
 62
    7
 10
495.00247200000001
 20
267.27499399999999
 11
494.00247200000001
 21
267.27499399999999
  0
LINE
  8
_0-0_0
  6
CONTINUOUS
 62
    7
 10
-10.997528000000017
 20
267.27499399999999
 11
-9.9975280000000168
 21
267.27499399999999
  0
LINE
  8
_0-0_0
  6
CONTINUOUS
 62
    7
 10
496.00247200000001
 20
263.66076700000002
 11
496.00149499999998
 21
263.67929100000003
  0
LINE
  8
_0-0_0
  6
CONTINUOUS
 62
    7
 10
496.00149499999998
 20
263.67929100000003
 11
495.99850500000002
 21
263.697723
  0
LINE
  8
_0-0_0
  6
CONTINUOUS
 62
    7
 10
495.99850500000002
 20
263.697723
 11
495.99325599999997
 21
263.716858
  0
LINE
  8
_0-0_0
  6
CONTINUOUS
 62
    7
 10
495.99325599999997
 20
263.716858
 11
495.98586999999998
 21
263.73587000000003
  0
LINE
  8
_0-0_0
  6
CONTINUOUS
 62
    7
 10
495.98586999999998
 20
263.73587000000003
 11
495.96530099999995
 21
263.77261400000003
  0
LINE
  8
_0-0_0
  6
CONTINUOUS
 62
    7
 10
495.96530099999995
 20
263.77261400000003
 11
495.93691999999999
 21
263.808289
  0
LINE
  8
_0-0_0
  6
CONTINUOUS
 62
    7
 10
495.93691999999999
 20
263.808289
 11
495.90103099999999
 21
263.84255999999999
  0
LINE
  8
_0-0_0
  6
CONTINUOUS
 62
    7
 10
495.90103099999999
 20
263.84255999999999
 11
495.85244699999998
 21
263.87902800000001
  0
LINE
  8
_0-0_0
  6
CONTINUOUS
 62
    7
 10
495.85244699999998
 20
263.87902800000001
 11
495.79562399999998
 21
263.913025
  0
LINE
  8
_0-0_0
  6
CONTINUOUS
 62
    7
 10
495.79562399999998
 20
263.913025
 11
495.73147600000004
 21
263.94430599999998
  0
LINE
  8
_0-0_0
  6
CONTINUOUS
 62
    7
 10
495.73147600000004
 20
263.94430599999998
 11
495.66085799999996
 21
263.972534
  0
LINE
  8
_0-0_0
  6
CONTINUOUS
 62
    7
 10
495.66085799999996
 20
263.972534
 11
495.61276199999998
 21
263.98889200000002
  0
LINE
  8
_0-0_0
  6
CONTINUOUS
 62
    7
 10
495.61276199999998
 20
263.98889200000002
 11
495.56265299999995
 21
264.00390600000003
  0
LINE
  8
_0-0_0
  6
CONTINUOUS
 62
    7
 10
495.56265299999995
 20
264.00390600000003
 11
495.50595099999998
 21
264.01867700000003
  0
LINE
  8
_0-0_0
  6
CONTINUOUS
 62
    7
 10
495.50595099999998
 20
264.01867700000003
 11
495.44735700000001
 21
264.03173800000002
  0
LINE
  8
_0-0_0
  6
CONTINUOUS
 62
    7
 10
495.44735700000001
 20
264.03173800000002
 11
495.33053599999994
 21
264.05206300000003
  0
LINE
  8
_0-0_0
  6
CONTINUOUS
 62
    7
 10
495.33053599999994
 20
264.05206300000003
 11
495.22311400000001
 21
264.06478900000002
  0
LINE
  8
_0-0_0
  6
CONTINUOUS
 62
    7
 10
495.22311400000001
 20
264.06478900000002
 11
495.11337300000002
 21
264.07244900000001
  0
LINE
  8
_0-0_0
  6
CONTINUOUS
 62
    7
 10
495.11337300000002
 20
264.07244900000001
 11
495.00247200000001
 21
264.07498200000003
  0
LINE
  8
_0-0_0
  6
CONTINUOUS
 62
    7
 10
496.00247200000001
 20
263.66076700000002
 11
496.00247200000001
 21
264.66085800000002
  0
LINE
  8
_0-0_0
  6
CONTINUOUS
 62
    7
 10
496.00247200000001
 20
264.66085800000002
 11
495.99960299999998
 21
264.69241299999999
  0
LINE
  8
_0-0_0
  6
CONTINUOUS
 62
    7
 10
495.99960299999998
 20
264.69241299999999
 11
495.99087499999996
 21
264.72448700000001
  0
LINE
  8
_0-0_0
  6
CONTINUOUS
 62
    7
 10
495.99087499999996
 20
264.72448700000001
 11
495.97628799999995
 21
264.756775
  0
LINE
  8
_0-0_0
  6
CONTINUOUS
 62
    7
 10
495.97628799999995
 20
264.756775
 11
495.95608500000003
 21
264.78890999999999
  0
LINE
  8
_0-0_0
  6
CONTINUOUS
 62
    7
 10
495.95608500000003
 20
264.78890999999999
 11
495.93948399999999
 21
264.81015000000002
  0
LINE
  8
_0-0_0
  6
CONTINUOUS
 62
    7
 10
495.93948399999999
 20
264.81015000000002
 11
495.92056300000002
 21
264.83111600000001
  0
LINE
  8
_0-0_0
  6
CONTINUOUS
 62
    7
 10
495.92056300000002
 20
264.83111600000001
 11
495.87582399999997
 21
264.87188700000002
  0
LINE
  8
_0-0_0
  6
CONTINUOUS
 62
    7
 10
495.87582399999997
 20
264.87188700000002
 11
495.82254
 21
264.91064499999999
  0
LINE
  8
_0-0_0
  6
CONTINUOUS
 62
    7
 10
495.82254
 20
264.91064499999999
 11
495.77261299999998
 21
264.94085699999999
  0
LINE
  8
_0-0_0
  6
CONTINUOUS
 62
    7
 10
495.77261299999998
 20
264.94085699999999
 11
495.71792600000003
 21
264.96905500000003
  0
LINE
  8
_0-0_0
  6
CONTINUOUS
 62
    7
 10
495.71792600000003
 20
264.96905500000003
 11
495.65896599999996
 21
264.99508700000001
  0
LINE
  8
_0-0_0
  6
CONTINUOUS
 62
    7
 10
495.65896599999996
 20
264.99508700000001
 11
495.612213
 21
265.01309200000003
  0
LINE
  8
_0-0_0
  6
CONTINUOUS
 62
    7
 10
495.612213
 20
265.01309200000003
 11
495.56350699999996
 21
265.02969400000001
  0
LINE
  8
_0-0_0
  6
CONTINUOUS
 62
    7
 10
495.56350699999996
 20
265.02969400000001
 11
495.46115099999997
 21
265.05856299999999
  0
LINE
  8
_0-0_0
  6
CONTINUOUS
 62
    7
 10
495.46115099999997
 20
265.05856299999999
 11
495.35336299999994
 21
265.08142100000003
  0
LINE
  8
_0-0_0
  6
CONTINUOUS
 62
    7
 10
495.35336299999994
 20
265.08142100000003
 11
495.24179100000003
 21
265.09799200000003
  0
LINE
  8
_0-0_0
  6
CONTINUOUS
 62
    7
 10
495.24179100000003
 20
265.09799200000003
 11
495.12771599999996
 21
265.10818499999999
  0
LINE
  8
_0-0_0
  6
CONTINUOUS
 62
    7
 10
495.12771599999996
 20
265.10818499999999
 11
495.00247200000001
 21
265.11196899999999
  0
ARC
  8
_0-0_0
  6
CONTINUOUS
 62
    7
 10
495.00247200000001
 20
237.27499399999999
 40
1
 50
269.99999700000001
 51
0
  0
LINE
  8
_0-0_0
  6
CONTINUOUS
 62
    7
 10
496.00247200000001
 20
237.27499399999999
 11
496.00247200000001
 21
263.66076700000002
  0
LINE
  8
_0-0_0
  6
CONTINUOUS
 62
    7
 10
-11.997523999999999
 20
263.660797
 11
-11.99652500000002
 21
263.67929100000003
  0
LINE
  8
_0-0_0
  6
CONTINUOUS
 62
    7
 10
-11.99652500000002
 20
263.67929100000003
 11
-11.993527000000029
 21
263.697723
  0
LINE
  8
_0-0_0
  6
CONTINUOUS
 62
    7
 10
-11.993527000000029
 20
263.697723
 11
-11.988292999999999
 21
263.716858
  0
LINE
  8
_0-0_0
  6
CONTINUOUS
 62
    7
 10
-11.988292999999999
 20
263.716858
 11
-11.98091500000001
 21
263.73587000000003
  0
LINE
  8
_0-0_0
  6
CONTINUOUS
 62
    7
 10
-11.98091500000001
 20
263.73587000000003
 11
-11.960362000000003
 21
263.77261400000003
  0
LINE
  8
_0-0_0
  6
CONTINUOUS
 62
    7
 10
-11.960362000000003
 20
263.77261400000003
 11
-11.931965000000019
 21
263.808289
  0
LINE
  8
_0-0_0
  6
CONTINUOUS
 62
    7
 10
-11.931965000000019
 20
263.808289
 11
-11.896084000000002
 21
263.84255999999999
  0
LINE
  8
_0-0_0
  6
CONTINUOUS
 62
    7
 10
-11.896084000000002
 20
263.84255999999999
 11
-11.847462000000007
 21
263.87902800000001
  0
LINE
  8
_0-0_0
  6
CONTINUOUS
 62
    7
 10
-11.847462000000007
 20
263.87902800000001
 11
-11.790683999999999
 21
263.913025
  0
LINE
  8
_0-0_0
  6
CONTINUOUS
 62
    7
 10
-11.790683999999999
 20
263.913025
 11
-11.72653600000001
 21
263.94430599999998
  0
LINE
  8
_0-0_0
  6
CONTINUOUS
 62
    7
 10
-11.72653600000001
 20
263.94430599999998
 11
-11.655888000000004
 21
263.972534
  0
LINE
  8
_0-0_0
  6
CONTINUOUS
 62
    7
 10
-11.655888000000004
 20
263.972534
 11
-11.607807000000008
 21
263.98889200000002
  0
LINE
  8
_0-0_0
  6
CONTINUOUS
 62
    7
 10
-11.607807000000008
 20
263.98889200000002
 11
-11.55767400000002
 21
264.00390600000003
  0
LINE
  8
_0-0_0
  6
CONTINUOUS
 62
    7
 10
-11.55767400000002
 20
264.00390600000003
 11
-11.500977000000006
 21
264.01867700000003
  0
LINE
  8
_0-0_0
  6
CONTINUOUS
 62
    7
 10
-11.500977000000006
 20
264.01867700000003
 11
-11.442368000000016
 21
264.03173800000002
  0
LINE
  8
_0-0_0
  6
CONTINUOUS
 62
    7
 10
-11.442368000000016
 20
264.03173800000002
 11
-11.32557700000001
 21
264.05206300000003
  0
LINE
  8
_0-0_0
  6
CONTINUOUS
 62
    7
 10
-11.32557700000001
 20
264.05206300000003
 11
-11.218170000000015
 21
264.06478900000002
  0
LINE
  8
_0-0_0
  6
CONTINUOUS
 62
    7
 10
-11.218170000000015
 20
264.06478900000002
 11
-11.10841400000001
 21
264.07244900000001
  0
LINE
  8
_0-0_0
  6
CONTINUOUS
 62
    7
 10
-11.10841400000001
 20
264.07244900000001
 11
-10.997528000000017
 21
264.07498200000003
  0
LINE
  8
_0-0_0
  6
CONTINUOUS
 62
    7
 10
-11.997523999999999
 20
264.63046300000002
 11
-11.994633000000022
 21
264.66134700000003
  0
LINE
  8
_0-0_0
  6
CONTINUOUS
 62
    7
 10
-11.994633000000022
 20
264.66134700000003
 11
-11.985935000000012
 21
264.69278000000003
  0
LINE
  8
_0-0_0
  6
CONTINUOUS
 62
    7
 10
-11.985935000000012
 20
264.69278000000003
 11
-11.97145500000002
 21
264.72445700000003
  0
LINE
  8
_0-0_0
  6
CONTINUOUS
 62
    7
 10
-11.97145500000002
 20
264.72445700000003
 11
-11.951290000000029
 21
264.75604300000003
  0
LINE
  8
_0-0_0
  6
CONTINUOUS
 62
    7
 10
-11.951290000000029
 20
264.75604300000003
 11
-11.934765000000027
 21
264.77691700000003
  0
LINE
  8
_0-0_0
  6
CONTINUOUS
 62
    7
 10
-11.934765000000027
 20
264.77691700000003
 11
-11.915859000000012
 21
264.79754600000001
  0
LINE
  8
_0-0_0
  6
CONTINUOUS
 62
    7
 10
-11.915859000000012
 20
264.79754600000001
 11
-11.871219999999994
 21
264.83767699999999
  0
LINE
  8
_0-0_0
  6
CONTINUOUS
 62
    7
 10
-11.871219999999994
 20
264.83767699999999
 11
-11.818096000000025
 21
264.87588499999998
  0
LINE
  8
_0-0_0
  6
CONTINUOUS
 62
    7
 10
-11.818096000000025
 20
264.87588499999998
 11
-11.768200000000007
 21
264.90570100000002
  0
LINE
  8
_0-0_0
  6
CONTINUOUS
 62
    7
 10
-11.768200000000007
 20
264.90570100000002
 11
-11.713527999999997
 21
264.93359400000003
  0
LINE
  8
_0-0_0
  6
CONTINUOUS
 62
    7
 10
-11.713527999999997
 20
264.93359400000003
 11
-11.654553000000021
 21
264.95931999999999
  0
LINE
  8
_0-0_0
  6
CONTINUOUS
 62
    7
 10
-11.654553000000021
 20
264.95931999999999
 11
-11.607792000000018
 21
264.97711200000003
  0
LINE
  8
_0-0_0
  6
CONTINUOUS
 62
    7
 10
-11.607792000000018
 20
264.97711200000003
 11
-11.559086000000008
 21
264.99353000000002
  0
LINE
  8
_0-0_0
  6
CONTINUOUS
 62
    7
 10
-11.559086000000008
 20
264.99353000000002
 11
-11.456650000000025
 21
265.02209499999998
  0
LINE
  8
_0-0_0
  6
CONTINUOUS
 62
    7
 10
-11.456650000000025
 20
265.02209499999998
 11
-11.348831000000018
 21
265.04470800000001
  0
LINE
  8
_0-0_0
  6
CONTINUOUS
 62
    7
 10
-11.348831000000018
 20
265.04470800000001
 11
-11.237152000000009
 21
265.061127
  0
LINE
  8
_0-0_0
  6
CONTINUOUS
 62
    7
 10
-11.237152000000009
 20
265.061127
 11
-11.122986000000026
 21
265.07122800000002
  0
LINE
  8
_0-0_0
  6
CONTINUOUS
 62
    7
 10
-11.122986000000026
 20
265.07122800000002
 11
-10.997528000000017
 21
265.07498200000003
  0
LINE
  8
_0-0_0
  6
CONTINUOUS
 62
    7
 10
-11.997523999999999
 20
263.660797
 11
-11.997523999999999
 21
264.63046300000002
  0
ARC
  8
_0-0_0
  6
CONTINUOUS
 62
    7
 10
-10.997528000000017
 20
237.27499399999999
 40
1
 50
180.00000900000003
 51
269.99999700000001
  0
LINE
  8
_0-0_0
  6
CONTINUOUS
 62
    7
 10
-11.997523999999999
 20
237.27499399999999
 11
-11.997523999999999
 21
263.660797
  0
LINE
  8
_0-0_0
  6
CONTINUOUS
 62
    7
 10
496.00247200000001
 20
264.66085800000002
 11
496.00247200000001
 21
266.27499399999999
  0
ARC
  8
_0-0_0
  6
CONTINUOUS
 62
    7
 10
495.00247200000001
 20
266.27499399999999
 40
1
 50
0
 51
90.000003000000007
  0
ARC
  8
_0-0_0
  6
CONTINUOUS
 62
    7
 10
-10.997528000000017
 20
266.27499399999999
 40
1
 50
90.000003000000007
 51
180.00000900000001
  0
LINE
  8
_0-0_0
  6
CONTINUOUS
 62
    7
 10
-11.997523999999999
 20
264.63046300000002
 11
-11.997523999999999
 21
266.27499399999999
  0
LINE
  8
_0-0_0
  6
CONTINUOUS
 62
    7
 10
-39.907398000000001
 20
236.27499399999999
 11
-39.907398000000001
 21
235.67498799999998
  0
LINE
  8
_0-0_0
  6
CONTINUOUS
 62
    7
 10
-37.407398000000001
 20
230.42999300000002
 11
-37.407398000000001
 21
232.67498799999998
  0
LINE
  8
_0-0_0
  6
CONTINUOUS
 62
    7
 10
-36.407398000000001
 20
232.67498799999998
 11
-36.407398000000001
 21
234.67498799999998
  0
ARC
  8
_0-0_0
  6
CONTINUOUS
 62
    7
 10
-36.907398000000001
 20
234.67498799999998
 40
0.5
 50
0
 51
90.000003000000007
  0
LINE
  8
_0-0_0
  6
CONTINUOUS
 62
    7
 10
-36.907398000000001
 20
235.17498799999998
 11
-38.407398000000001
 21
235.17498799999998
  0
ARC
  8
_0-0_0
  6
CONTINUOUS
 62
    7
 10
-38.407398000000001
 20
236.17498799999998
 40
1
 50
180.00000900000003
 51
269.99999700000001
  0
LINE
  8
_0-0_0
  6
CONTINUOUS
 62
    7
 10
-39.407398000000001
 20
236.27499399999999
 11
-39.407398000000001
 21
236.17498799999998
  0
ARC
  8
_0-0_0
  6
CONTINUOUS
 62
    7
 10
-38.407398000000001
 20
235.67498799999998
 40
1.5
 50
180.00000900000003
 51
269.99999700000001
  0
LINE
  8
_0-0_0
  6
CONTINUOUS
 62
    7
 10
-38.407398000000001
 20
234.17498799999998
 11
-39.107394999999997
 21
234.17498799999998
  0
ARC
  8
_0-0_0
  6
CONTINUOUS
 62
    7
 10
-39.107394999999997
 20
235.17498799999998
 40
1
 50
180.00000900000003
 51
269.99999700000001
  0
LINE
  8
_0-0_0
  6
CONTINUOUS
 62
    7
 10
-40.107394999999997
 20
236.17498799999998
 11
-40.107394999999997
 21
235.17498799999998
  0
LINE
  8
_0-0_0
  6
CONTINUOUS
 62
    7
 10
-48.30739600000004
 20
235.17498799999998
 11
-48.30739600000004
 21
236.17498799999998
  0
ARC
  8
_0-0_0
  6
CONTINUOUS
 62
    7
 10
-49.30739600000004
 20
235.17498799999998
 40
1
 50
269.99999700000001
 51
0
  0
LINE
  8
_0-0_0
  6
CONTINUOUS
 62
    7
 10
-49.30739600000004
 20
234.17498799999998
 11
-49.507397000000026
 21
234.17498799999998
  0
ARC
  8
_0-0_0
  6
CONTINUOUS
 62
    7
 10
-49.507397000000026
 20
235.17498799999998
 40
1
 50
269.99999700000001
 51
0
  0
LINE
  8
_0-0_0
  6
CONTINUOUS
 62
    7
 10
-48.507397000000026
 20
235.17498799999998
 11
-48.507397000000026
 21
236.27499399999999
  0
LINE
  8
_0-0_0
  6
CONTINUOUS
 62
    7
 10
-49.007397000000026
 20
236.17498799999998
 11
-49.007397000000026
 21
236.27499399999999
  0
ARC
  8
_0-0_0
  6
CONTINUOUS
 62
    7
 10
-50.007397000000026
 20
236.17498799999998
 40
1
 50
269.99999700000001
 51
0
  0
LINE
  8
_0-0_0
  6
CONTINUOUS
 62
    7
 10
-50.007397000000026
 20
235.17498799999998
 11
-51.507397000000026
 21
235.17498799999998
  0
ARC
  8
_0-0_0
  6
CONTINUOUS
 62
    7
 10
-51.507397000000026
 20
234.67498799999998
 40
0.5
 50
90.000003000000007
 51
180.00000900000001
  0
LINE
  8
_0-0_0
  6
CONTINUOUS
 62
    7
 10
-52.007397000000026
 20
234.67498799999998
 11
-52.007397000000026
 21
232.67498799999998
  0
LINE
  8
_0-0_0
  6
CONTINUOUS
 62
    7
 10
-51.007397000000026
 20
230.42999300000002
 11
-51.007397000000026
 21
232.67498799999998
  0
LINE
  8
_0-0_0
  6
CONTINUOUS
 62
    7
 10
-52.907396000000006
 20
212.07498200000003
 11
-52.907396000000006
 21
230.42999300000002
  0
LINE
  8
_0-0_0
  6
CONTINUOUS
 62
    7
 10
-36.107394999999997
 20
212.07498200000003
 11
-36.107394999999997
 21
230.42999300000002
  0
CIRCLE
  8
_0-0_0
  6
CONTINUOUS
 62
    7
 10
-44.207398000000012
 20
232.67498799999998
 40
2.0499999999999998
  0
LINE
  8
_0-0_0
  6
CONTINUOUS
 62
    7
 10
-36.107394999999997
 20
234.17498799999998
 11
-36.107394999999997
 21
234.14999399999999
  0
LINE
  8
_0-0_0
  6
CONTINUOUS
 62
    7
 10
-36.107394999999997
 20
230.92993200000001
 11
-36.107394999999997
 21
231.19998200000003
  0
LINE
  8
_0-0_0
  6
CONTINUOUS
 62
    7
 10
-36.107394999999997
 20
230.42999300000002
 11
-36.107394999999997
 21
230.92999300000002
  0
LINE
  8
_0-0_0
  6
CONTINUOUS
 62
    7
 10
-36.107394999999997
 20
210.07498200000003
 11
-36.107394999999997
 21
212.07498200000003
  0
LINE
  8
_0-0_0
  6
CONTINUOUS
 62
    7
 10
-52.907396000000006
 20
210.07498200000003
 11
-52.907396000000006
 21
212.07498200000003
  0
LINE
  8
_0-0_0
  6
CONTINUOUS
 62
    7
 10
-52.907396000000006
 20
210.07498200000003
 11
-36.107394999999997
 21
210.07498200000003
  0
LINE
  8
_0-0_0
  6
CONTINUOUS
 62
    7
 10
-52.907396000000006
 20
234.17498799999998
 11
-52.907396000000006
 21
232.67498799999998
  0
LINE
  8
_0-0_0
  6
CONTINUOUS
 62
    7
 10
-52.907396000000006
 20
230.92999300000002
 11
-52.907396000000006
 21
232.67498799999998
  0
LINE
  8
_0-0_0
  6
CONTINUOUS
 62
    7
 10
-52.907396000000006
 20
230.42999300000002
 11
-52.907396000000006
 21
230.92999300000002
  0
LINE
  8
_0-0_0
  6
CONTINUOUS
 62
    7
 10
-52.007397000000026
 20
230.93005399999998
 11
-52.007397000000026
 21
232.67498799999998
  0
ARC
  8
_0-0_0
  6
CONTINUOUS
 62
    7
 10
-37.707398000000012
 20
212.17498799999998
 40
2
 50
323.13010300000002
 51
0.0000000000000127
  0
LINE
  8
_0-0_0
  6
CONTINUOUS
 62
    7
 10
-35.707398000000012
 20
212.17498799999998
 11
-35.707398000000012
 21
213.57504299999999
  0
LINE
  8
_0-0_0
  6
CONTINUOUS
 62
    7
 10
-35.407398000000001
 20
218.66467299999999
 11
-35.407398000000001
 21
229.11270200000001
  0
LINE
  8
_0-0_0
  6
CONTINUOUS
 62
    7
 10
-35.407398000000001
 20
230.07547
 11
-35.407398000000001
 21
232.31011999999998
  0
LINE
  8
_0-0_0
  6
CONTINUOUS
 62
    7
 10
-52.907396000000006
 20
234.17498799999998
 11
-52.007397000000026
 21
234.17498799999998
  0
LINE
  8
_0-0_0
  6
CONTINUOUS
 62
    7
 10
-53.007397000000026
 20
213.57498200000003
 11
-52.907396000000006
 21
213.57498200000003
  0
LINE
  8
_0-0_0
  6
CONTINUOUS
 62
    7
 10
-53.007397000000026
 20
213.57498200000003
 11
-53.007397000000026
 21
218.66467299999999
  0
LINE
  8
_0-0_0
  6
CONTINUOUS
 62
    7
 10
-53.007397000000026
 20
229.11270200000001
 11
-53.007397000000026
 21
230.07547
  0
LINE
  8
_0-0_0
  6
CONTINUOUS
 62
    7
 10
-53.007397000000026
 20
233.17498799999998
 11
-52.907396000000006
 21
233.17498799999998
  0
LINE
  8
_0-0_0
  6
CONTINUOUS
 62
    7
 10
-53.007397000000026
 20
232.31011999999998
 11
-53.007397000000026
 21
233.17498799999998
  0
LINE
  8
_0-0_0
  6
CONTINUOUS
 62
    7
 10
-53.007397000000026
 20
230.07547
 11
-53.007397000000026
 21
232.31011999999998
  0
LINE
  8
_0-0_0
  6
CONTINUOUS
 62
    7
 10
-53.007397000000026
 20
218.66467299999999
 11
-53.007397000000026
 21
229.11270200000001
  0
LINE
  8
_0-0_0
  6
CONTINUOUS
 62
    7
 10
-52.707396000000017
 20
232.06372099999999
 11
-52.707396000000017
 21
233.94998200000003
  0
LINE
  8
_0-0_0
  6
CONTINUOUS
 62
    7
 10
-52.707396000000017
 20
231.39999399999999
 11
-52.707396000000017
 21
232.06372099999999
  0
LINE
  8
_0-0_0
  6
CONTINUOUS
 62
    7
 10
-35.707398000000012
 20
233.28625499999998
 11
-35.707398000000012
 21
231.40029900000002
  0
LINE
  8
_0-0_0
  6
CONTINUOUS
 62
    7
 10
-35.707398000000012
 20
233.94162
 11
-35.707398000000012
 21
233.28625499999998
  0
LINE
  8
_0-0_0
  6
CONTINUOUS
 62
    7
 10
-35.407398000000001
 20
213.57498200000003
 11
-35.407398000000001
 21
218.66467299999999
  0
LINE
  8
_0-0_0
  6
CONTINUOUS
 62
    7
 10
-35.407398000000001
 20
232.31011999999998
 11
-35.407398000000001
 21
233.17498799999998
  0
LINE
  8
_0-0_0
  6
CONTINUOUS
 62
    7
 10
-35.407398000000001
 20
229.11270200000001
 11
-35.407398000000001
 21
230.07547
  0
LINE
  8
_0-0_0
  6
CONTINUOUS
 62
    7
 10
-35.407398000000001
 20
233.17498799999998
 11
-35.707401000000004
 21
233.17498799999998
  0
LINE
  8
_0-0_0
  6
CONTINUOUS
 62
    7
 10
-35.407398000000001
 20
213.57498200000003
 11
-36.107394999999997
 21
213.57498200000003
  0
LINE
  8
_0-0_0
  6
CONTINUOUS
 62
    7
 10
-36.107394999999997
 20
234.17498799999998
 11
-36.407398000000001
 21
234.17498799999998
  0
LINE
  8
_0-0_0
  6
CONTINUOUS
 62
    7
 10
-36.407398000000001
 20
232.67498799999998
 11
-36.407398000000001
 21
230.93005399999998
  0
LINE
  8
_0-0_0
  6
CONTINUOUS
 62
    7
 10
-40.107394999999997
 20
236.17498799999998
 11
-40.107394999999997
 21
236.27508599999999
  0
LINE
  8
_0-0_0
  6
CONTINUOUS
 62
    7
 10
-48.30739600000004
 20
236.27508599999999
 11
-48.30739600000004
 21
236.17498799999998
  0
LINE
  8
_0-0_0
  6
CONTINUOUS
 62
    7
 10
-37.407398000000001
 20
230.92999300000002
 11
-36.107394999999997
 21
230.92999300000002
  0
ARC
  8
_0-0_0
  6
CONTINUOUS
 62
    7
 10
-52.207396000000017
 20
233.94998200000003
 40
0.2
 50
359.91222800000003
 51
89.999948000000003
  0
ARC
  8
_0-0_0
  6
CONTINUOUS
 62
    7
 10
-52.207501000000036
 20
231.400147
 40
0.200169
 50
270.02985900000004
 51
2.3526610000000452
  0
LINE
  8
_0-0_0
  6
CONTINUOUS
 62
    7
 10
-52.507397000000026
 20
234.14999399999999
 11
-52.207396000000017
 21
234.14999399999999
  0
LINE
  8
_0-0_0
  6
CONTINUOUS
 62
    7
 10
-52.507397000000026
 20
231.19998200000003
 11
-52.207396000000017
 21
231.19998200000003
  0
ARC
  8
_0-0_0
  6
CONTINUOUS
 62
    7
 10
-52.507292000000007
 20
233.94986
 40
0.200169
 50
90.029849999999996
 51
182.352667
  0
ARC
  8
_0-0_0
  6
CONTINUOUS
 62
    7
 10
-52.507395000000031
 20
231.39999399999999
 40
0.2
 50
179.912237
 51
269.99994299999997
  0
ARC
  8
_0-0_0
  6
CONTINUOUS
 62
    7
 10
-36.207295000000016
 20
231.400147
 40
0.200169
 50
177.647333
 51
269.97013600000002
  0
ARC
  8
_0-0_0
  6
CONTINUOUS
 62
    7
 10
-36.207394000000022
 20
233.94998200000003
 40
0.2
 50
90.000049999999987
 51
180.08776299999997
  0
LINE
  8
_0-0_0
  6
CONTINUOUS
 62
    7
 10
-35.907398000000001
 20
231.19998200000003
 11
-36.207398000000012
 21
231.19998200000003
  0
LINE
  8
_0-0_0
  6
CONTINUOUS
 62
    7
 10
-35.907398000000001
 20
234.14999399999999
 11
-36.207398000000012
 21
234.14999399999999
  0
ARC
  8
_0-0_0
  6
CONTINUOUS
 62
    7
 10
-35.907398000000001
 20
231.39999399999999
 40
0.2
 50
270.00005199999998
 51
0.0877600000000175
  0
ARC
  8
_0-0_0
  6
CONTINUOUS
 62
    7
 10
-35.907501000000025
 20
233.94982900000002
 40
0.200169
 50
357.64733799999999
 51
89.970147999999995
  0
LINE
  8
_0-0_0
  6
CONTINUOUS
 62
    7
 10
-52.907396000000006
 20
230.92999300000002
 11
-51.007397000000026
 21
230.92999300000002
  0
LINE
  8
_0-0_0
  6
CONTINUOUS
 62
    7
 10
-35.407398000000001
 20
236.67498799999998
 11
-35.407398000000001
 21
249.875
  0
ARC
  8
_0-0_0
  6
CONTINUOUS
 62
    7
 10
-35.907398000000001
 20
236.67498799999998
 40
0.5
 50
269.99999700000001
 51
0
  0
ARC
  8
_0-0_0
  6
CONTINUOUS
 62
    7
 10
-35.465977000000009
 20
250.07498200000003
 40
0.1
 50
135
 51
225
  0
LINE
  8
_0-0_0
  6
CONTINUOUS
 62
    7
 10
-35.536686000000003
 20
250.00427300000001
 11
-35.407398000000001
 21
249.875
  0
LINE
  8
_0-0_0
  6
CONTINUOUS
 62
    7
 10
-35.907398000000001
 20
236.17498799999998
 11
-37.807396000000011
 21
236.17498799999998
  0
ARC
  8
_0-0_0
  6
CONTINUOUS
 62
    7
 10
-37.807396000000011
 20
236.67498799999998
 40
0.5
 50
233.12990600000001
 51
269.99999700000001
  0
ARC
  8
_0-0_0
  6
CONTINUOUS
 62
    7
 10
-50.507397000000026
 20
236.67498799999998
 40
0.5
 50
269.99999700000001
 51
306.87009999999998
  0
LINE
  8
_0-0_0
  6
CONTINUOUS
 62
    7
 10
-50.507397000000026
 20
236.17498799999998
 11
-52.407396000000006
 21
236.17498799999998
  0
ARC
  8
_0-0_0
  6
CONTINUOUS
 62
    7
 10
-52.407396000000006
 20
236.67498799999998
 40
0.5
 50
180.00000900000003
 51
269.99999700000001
  0
LINE
  8
_0-0_0
  6
CONTINUOUS
 62
    7
 10
-52.907396000000006
 20
246.10998499999999
 11
-52.907396000000006
 21
236.67498799999998
  0
LINE
  8
_0-0_0
  6
CONTINUOUS
 62
    7
 10
-52.907396000000006
 20
246.10998499999999
 11
-52.207398000000012
 21
246.10998499999999
  0
LINE
  8
_0-0_0
  6
CONTINUOUS
 62
    7
 10
-36.207394000000022
 20
264.67498799999998
 11
-36.001366000000019
 21
264.67498799999998
  0
LINE
  8
_0-0_0
  6
CONTINUOUS
 62
    7
 10
-36.001366000000019
 20
264.67498799999998
 11
-35.407398000000001
 21
264.08102400000001
  0
LINE
  8
_0-0_0
  6
CONTINUOUS
 62
    7
 10
-35.407398000000001
 20
259.07498200000003
 11
-35.407398000000001
 21
264.08102400000001
  0
LINE
  8
_0-0_0
  6
CONTINUOUS
 62
    7
 10
-35.536686000000003
 20
258.94570900000002
 11
-35.407398000000001
 21
259.07498200000003
  0
ARC
  8
_0-0_0
  6
CONTINUOUS
 62
    7
 10
-35.465977000000009
 20
258.875
 40
0.1
 50
135
 51
225
  0
LINE
  8
_0-0_0
  6
CONTINUOUS
 62
    7
 10
-35.536686000000003
 20
258.80429100000003
 11
-35.407398000000001
 21
258.67498799999998
  0
LINE
  8
_0-0_0
  6
CONTINUOUS
 62
    7
 10
-35.407398000000001
 20
257.97500600000001
 11
-35.407398000000001
 21
258.67498799999998
  0
LINE
  8
_0-0_0
  6
CONTINUOUS
 62
    7
 10
-35.536686000000003
 20
257.84570300000001
 11
-35.407398000000001
 21
257.97500600000001
  0
ARC
  8
_0-0_0
  6
CONTINUOUS
 62
    7
 10
-35.465977000000009
 20
257.77499399999999
 40
0.1
 50
135
 51
225
  0
LINE
  8
_0-0_0
  6
CONTINUOUS
 62
    7
 10
-35.536686000000003
 20
257.70428500000003
 11
-35.407398000000001
 21
257.57498200000003
  0
LINE
  8
_0-0_0
  6
CONTINUOUS
 62
    7
 10
-35.407398000000001
 20
256.875
 11
-35.407398000000001
 21
257.57498200000003
  0
LINE
  8
_0-0_0
  6
CONTINUOUS
 62
    7
 10
-35.536686000000003
 20
256.74569700000001
 11
-35.407398000000001
 21
256.875
  0
ARC
  8
_0-0_0
  6
CONTINUOUS
 62
    7
 10
-35.465977000000009
 20
256.67498799999998
 40
0.1
 50
135
 51
225
  0
LINE
  8
_0-0_0
  6
CONTINUOUS
 62
    7
 10
-35.536686000000003
 20
256.60427900000002
 11
-35.407398000000001
 21
256.47500600000001
  0
LINE
  8
_0-0_0
  6
CONTINUOUS
 62
    7
 10
-35.407398000000001
 20
255.77499399999999
 11
-35.407398000000001
 21
256.47500600000001
  0
LINE
  8
_0-0_0
  6
CONTINUOUS
 62
    7
 10
-35.536686000000003
 20
255.645691
 11
-35.407398000000001
 21
255.77499399999999
  0
ARC
  8
_0-0_0
  6
CONTINUOUS
 62
    7
 10
-35.465977000000009
 20
255.57498200000003
 40
0.1
 50
135
 51
225
  0
LINE
  8
_0-0_0
  6
CONTINUOUS
 62
    7
 10
-35.536686000000003
 20
255.50427300000001
 11
-35.407398000000001
 21
255.375
  0
LINE
  8
_0-0_0
  6
CONTINUOUS
 62
    7
 10
-35.407398000000001
 20
254.67498799999998
 11
-35.407398000000001
 21
255.375
  0
LINE
  8
_0-0_0
  6
CONTINUOUS
 62
    7
 10
-35.536686000000003
 20
254.54571500000003
 11
-35.407398000000001
 21
254.67498799999998
  0
ARC
  8
_0-0_0
  6
CONTINUOUS
 62
    7
 10
-35.465977000000009
 20
254.47500600000001
 40
0.1
 50
135
 51
225
  0
LINE
  8
_0-0_0
  6
CONTINUOUS
 62
    7
 10
-35.536686000000003
 20
254.40429699999999
 11
-35.407398000000001
 21
254.27499399999999
  0
LINE
  8
_0-0_0
  6
CONTINUOUS
 62
    7
 10
-35.407398000000001
 20
253.57498200000003
 11
-35.407398000000001
 21
254.27499399999999
  0
LINE
  8
_0-0_0
  6
CONTINUOUS
 62
    7
 10
-35.536686000000003
 20
253.44570900000002
 11
-35.407398000000001
 21
253.57498200000003
  0
ARC
  8
_0-0_0
  6
CONTINUOUS
 62
    7
 10
-35.465977000000009
 20
253.375
 40
0.1
 50
135
 51
225
  0
LINE
  8
_0-0_0
  6
CONTINUOUS
 62
    7
 10
-35.536686000000003
 20
253.30429100000003
 11
-35.407398000000001
 21
253.17498799999998
  0
LINE
  8
_0-0_0
  6
CONTINUOUS
 62
    7
 10
-35.407398000000001
 20
252.47500600000001
 11
-35.407398000000001
 21
253.17498799999998
  0
LINE
  8
_0-0_0
  6
CONTINUOUS
 62
    7
 10
-35.536686000000003
 20
252.34570300000001
 11
-35.407398000000001
 21
252.47500600000001
  0
ARC
  8
_0-0_0
  6
CONTINUOUS
 62
    7
 10
-35.465977000000009
 20
252.27499399999999
 40
0.1
 50
135
 51
225
  0
LINE
  8
_0-0_0
  6
CONTINUOUS
 62
    7
 10
-35.536686000000003
 20
252.20428500000003
 11
-35.407398000000001
 21
252.07498200000003
  0
LINE
  8
_0-0_0
  6
CONTINUOUS
 62
    7
 10
-35.407398000000001
 20
251.375
 11
-35.407398000000001
 21
252.07498200000003
  0
LINE
  8
_0-0_0
  6
CONTINUOUS
 62
    7
 10
-35.536686000000003
 20
251.24569700000001
 11
-35.407398000000001
 21
251.375
  0
ARC
  8
_0-0_0
  6
CONTINUOUS
 62
    7
 10
-35.465977000000009
 20
251.17498799999998
 40
0.1
 50
135
 51
225
  0
LINE
  8
_0-0_0
  6
CONTINUOUS
 62
    7
 10
-35.536686000000003
 20
251.10427900000002
 11
-35.407398000000001
 21
250.97500600000001
  0
LINE
  8
_0-0_0
  6
CONTINUOUS
 62
    7
 10
-35.407398000000001
 20
250.27499399999999
 11
-35.407398000000001
 21
250.97500600000001
  0
LINE
  8
_0-0_0
  6
CONTINUOUS
 62
    7
 10
-35.536686000000003
 20
250.14572200000003
 11
-35.407398000000001
 21
250.27499399999999
  0
LINE
  8
_0-0_0
  6
CONTINUOUS
 62
    7
 10
-35.407398000000001
 20
242.17498799999998
 11
-35.307396000000011
 21
242.17498799999998
  0
LINE
  8
_0-0_0
  6
CONTINUOUS
 62
    7
 10
-35.307396000000011
 20
241.67498799999998
 11
-35.307396000000011
 21
242.17498799999998
  0
LINE
  8
_0-0_0
  6
CONTINUOUS
 62
    7
 10
-35.307396000000011
 20
241.67498799999998
 11
-35.307396000000011
 21
237.67498799999998
  0
LINE
  8
_0-0_0
  6
CONTINUOUS
 62
    7
 10
-35.407398000000001
 20
237.17498799999998
 11
-35.307396000000011
 21
237.17498799999998
  0
LINE
  8
_0-0_0
  6
CONTINUOUS
 62
    7
 10
-35.307396000000011
 20
237.17498799999998
 11
-35.307396000000011
 21
237.67498799999998
  0
LINE
  8
_0-0_0
  6
CONTINUOUS
 62
    7
 10
-52.907396000000006
 20
246.17501800000002
 11
-52.907396000000006
 21
246.10998499999999
  0
LINE
  8
_0-0_0
  6
CONTINUOUS
 62
    7
 10
-36.407398000000001
 20
264.97500600000001
 11
-36.407398000000001
 21
264.875
  0
LINE
  8
_0-0_0
  6
CONTINUOUS
 62
    7
 10
-53.007397000000026
 20
246.17498799999998
 11
-52.207396000000017
 21
246.17498799999998
  0
LINE
  8
_0-0_0
  6
CONTINUOUS
 62
    7
 10
-52.507397000000026
 20
267.97500600000001
 11
-52.507397000000026
 21
263.75344899999999
  0
LINE
  8
_0-0_0
  6
CONTINUOUS
 62
    7
 10
-51.407396000000006
 20
267.97500600000001
 11
-51.407396000000006
 21
264.97500600000001
  0
LINE
  8
_0-0_0
  6
CONTINUOUS
 62
    7
 10
-52.507397000000026
 20
263.75344899999999
 11
-52.207396000000017
 21
263.75344899999999
  0
ARC
  8
_0-0_0
  6
CONTINUOUS
 62
    7
 10
-48.907396000000006
 20
264.97500600000001
 40
2.5
 50
90.000003000000007
 51
180.00000900000001
  0
ARC
  8
_0-0_0
  6
CONTINUOUS
 62
    7
 10
-38.907398000000001
 20
264.97500600000001
 40
2.5
 50
0
 51
90.000003000000007
  0
LINE
  8
_0-0_0
  6
CONTINUOUS
 62
    7
 10
-51.407396000000006
 20
264.875
 11
-51.407396000000006
 21
264.97500600000001
  0
LINE
  8
_0-0_0
  6
CONTINUOUS
 62
    7
 10
-38.907398000000001
 20
267.47500600000001
 11
-48.907396000000006
 21
267.47500600000001
  0
LINE
  8
_0-0_0
  6
CONTINUOUS
 62
    7
 10
-35.207398000000012
 20
237.67498799999998
 11
-35.207398000000012
 21
237.80535900000001
  0
LINE
  8
_0-0_0
  6
CONTINUOUS
 62
    7
 10
-35.207398000000012
 20
241.30535900000001
 11
-35.207398000000012
 21
237.80535900000001
  0
LINE
  8
_0-0_0
  6
CONTINUOUS
 62
    7
 10
-35.307396000000011
 20
241.57498200000003
 11
-35.207398000000012
 21
241.57498200000003
  0
LINE
  8
_0-0_0
  6
CONTINUOUS
 62
    7
 10
-35.207398000000012
 20
241.30535900000001
 11
-35.207398000000012
 21
241.57498200000003
  0
LINE
  8
_0-0_0
  6
CONTINUOUS
 62
    7
 10
-35.607394999999997
 20
264.07498200000003
 11
-36.607394999999997
 21
265.07498200000003
  0
LINE
  8
_0-0_0
  6
CONTINUOUS
 62
    7
 10
-35.607394999999997
 20
236.27499399999999
 11
-35.607394999999997
 21
264.07498200000003
  0
LINE
  8
_0-0_0
  6
CONTINUOUS
 62
    7
 10
-52.207396000000017
 20
236.27499399999999
 11
-35.607394999999997
 21
236.27499399999999
  0
LINE
  8
_0-0_0
  6
CONTINUOUS
 62
    7
 10
-52.207396000000017
 20
264.07498200000003
 11
-52.207396000000017
 21
236.27499399999999
  0
LINE
  8
_0-0_0
  6
CONTINUOUS
 62
    7
 10
-53.007397000000026
 20
246.17498799999998
 11
-53.007397000000026
 21
262.98779300000001
  0
LINE
  8
_0-0_0
  6
CONTINUOUS
 62
    7
 10
-53.007397000000026
 20
267.47500600000001
 11
-53.007397000000026
 21
262.98779300000001
  0
ARC
  8
_0-0_0
  6
CONTINUOUS
 62
    7
 10
-21.555653000000007
 20
242.99282800000003
 40
37.269466000000001
 50
146.14857699999999
 51
147.55443399999999
  0
ARC
  8
_0-0_0
  6
CONTINUOUS
 62
    7
 10
-39.176441000000011
 20
264.67498799999998
 40
2.6000000000000001
 50
8.8498839999999994
 51
90.000002999999992
  0
LINE
  8
_0-0_0
  6
CONTINUOUS
 62
    7
 10
-39.176441000000011
 20
267.27499399999999
 11
-48.638351999999998
 21
267.27499399999999
  0
ARC
  8
_0-0_0
  6
CONTINUOUS
 62
    7
 10
-48.638351999999998
 20
264.67498799999998
 40
2.6000000000000001
 50
90.000003000000007
 51
171.150115
  0
LINE
  8
_0-0_0
  6
CONTINUOUS
 62
    7
 10
-52.207396000000017
 20
264.07498200000003
 11
-51.207398000000012
 21
265.07498200000003
  0
LINE
  8
_0-0_0
  6
CONTINUOUS
 62
    7
 10
-36.607394999999997
 20
263.66076700000002
 11
-35.607394999999997
 21
264.07498200000003
  0
ARC
  8
_0-0_0
  6
CONTINUOUS
 62
    7
 10
-42.149937000000023
 20
275.86111499999998
 40
12.126564999999999
 50
292.155034
 51
297.19674500000002
  0
LINE
  8
_0-0_0
  6
CONTINUOUS
 62
    7
 10
-36.607394999999997
 20
237.27499399999999
 11
-35.607394999999997
 21
236.27499399999999
  0
LINE
  8
_0-0_0
  6
CONTINUOUS
 62
    7
 10
-51.207398000000012
 20
237.27499399999999
 11
-52.207396000000017
 21
236.27499399999999
  0
LINE
  8
_0-0_0
  6
CONTINUOUS
 62
    7
 10
-51.207398000000012
 20
263.660797
 11
-52.207396000000017
 21
264.07498200000003
  0
ARC
  8
_0-0_0
  6
CONTINUOUS
 62
    7
 10
-45.664856000000015
 20
275.86111499999998
 40
12.126567
 50
242.80325699999997
 51
247.84494000000001
  0
CIRCLE
  8
_0-0_0
  6
CONTINUOUS
 62
    7
 10
-43.907396000000006
 20
244.47500600000001
 40
2.0670000000000002
  0
LINE
  8
_0-0_0
  6
CONTINUOUS
 62
    7
 10
-51.407396000000006
 20
267.97500600000001
 11
-52.507397000000026
 21
267.97500600000001
  0
LINE
  8
_0-0_0
  6
CONTINUOUS
 62
    7
 10
-35.307396000000011
 20
237.67498799999998
 11
-35.207398000000012
 21
237.67498799999998
  0
LINE
  8
_0-0_0
  6
CONTINUOUS
 62
    7
 10
-35.307396000000011
 20
237.67498799999998
 11
-35.207398000000012
 21
237.67498799999998
  0
LINE
  8
_0-0_0
  6
CONTINUOUS
 62
    7
 10
-53.007397000000026
 20
267.47500600000001
 11
-52.507397000000026
 21
267.97500600000001
  0
ENDSEC
  0
EOF
