  0
SECTION
  2
HEADER
  9
$ACADVER
  1
AC1009
  9
$INSBASE
 10
0
 20
0
 30
0
  9
$EXTMIN
 10
0
 20
0
  9
$EXTMAX
 10
1682
 20
1188
  9
$LIMMIN
 10
0
 20
0
  9
$LIMMAX
 10
1682
 20
1188
  9
$LTSCALE
 40
2
  0
ENDSEC
  0
SECTION
  2
TABLES
  0
TABLE
  2
LTYPE
 70
     9
  0
LTYPE
  2
CONTINUOUS
 70
    64
  3
実線
 72
    65
 73
     0
 40
0.0
  0
LTYPE
  2
DASHED1
 70
    64
  3
--  --  --  --  --  --  --  --  
 72
    65
 73
     2
 40
2.5
 49
1.25
 49
-1.25
  0
LTYPE
  2
DASHED2
 70
    64
  3
----    ----    ----    ----    
 72
    65
 73
     2
 40
5.0
 49
2.5
 49
-2.5
  0
LTYPE
  2
DASHED3
 70
    64
  3
------  ------  ------  ------  
 72
    65
 73
     2
 40
5.0
 49
3.75
 49
-1.25
  0
LTYPE
  2
CENTER1
 70
    64
  3
----- - ----- - ----- - ----- - 
 72
    65
 73
     4
 40
10.0
 49
6.25
 49
-1.25
 49
1.25
 49
-1.25
  0
LTYPE
  2
CENTER2
 70
    64
  3
----------  --  ----------  --  
 72
    65
 73
     4
 40
20.0
 49
12.5
 49
-2.5
 49
2.5
 49
-2.5
  0
LTYPE
  2
PHANTOM1
 70
    64
  3
--- - - --- - - --- - - --- - - 
 72
    65
 73
     6
 40
10.0
 49
3.25
 49
-1.25
 49
1.25
 49
-1.25
 49
1.25
 49
-1.25
  0
LTYPE
  2
PHANTOM2
 70
    64
  3
--------  -  -  --------  -  -  
 72
    65
 73
     6
 40
20.0
 49
10.0
 49
-2.5
 49
1.25
 49
-2.5
 49
1.25
 49
-2.5
  0
LTYPE
  2
DOT
 70
    64
  3
-   -   -   -   -   -   -   -   
 72
    65
 73
     2
 40
2.5
 49
0.625
 49
-1.875
  0
LTYPE
  2
DUMMY
 70
    64
  3
ダミー
 72
    65
 73
     0
 40
0.0
  0
LTYPE
  2
RAND1
 70
    64
  3
ランダム線1
 72
    65
 73
     4
 40
10.0
 49
1.0
 49
-2.0
 49
3.0
 49
-4.0
  0
LTYPE
  2
RAND2
 70
    64
  3
ランダム線2
 72
    65
 73
     4
 40
14.0
 49
2.0
 49
-3.0
 49
4.0
 49
-5.0
  0
LTYPE
  2
RAND3
 70
    64
  3
ランダム線3
 72
    65
 73
     4
 40
18.0
 49
3.0
 49
-4.0
 49
5.0
 49
-6.0
  0
LTYPE
  2
RAND4
 70
    64
  3
ランダム線4
 72
    65
 73
     4
 40
22.0
 49
4.0
 49
-5.0
 49
6.0
 49
-7.0
  0
LTYPE
  2
RAND5
 70
    64
  3
ランダム線5
 72
    65
 73
     4
 40
26.0
 49
5.0
 49
-6.0
 49
7.0
 49
-8.0
  0
LTYPE
  2
LONG1
 70
    64
  3
----------  --  ----------  --  
 72
    65
 73
     4
 40
40.0
 49
32.5
 49
-2.5
 49
2.5
 49
-2.5
  0
LTYPE
  2
LONG2
 70
    64
  3
--------  -  -  --------  -  -  
 72
    65
 73
     6
 40
40.0
 49
30.0
 49
-2.5
 49
1.25
 49
-2.5
 49
1.25
 49
-2.5
  0
LTYPE
  2
LONG3
 70
    64
  3
+++++++++++++++..+++++++++++++++
 72
    65
 73
     2
 40
40.0
 49
37.5
 49
-2.5
  0
LTYPE
  2
LONG4
 70
    64
  3
+++++++++++++++..+++++++++++++++
 72
    65
 73
     2
 40
80.0
 49
75.0
 49
-5.0
  0
LTYPE
  2
LONG5
 70
    64
  3
----------  --  ----------  --  
 72
    65
 73
     4
 40
60.0
 49
37.5
 49
-7.5
 49
7.5
 49
-7.5
  0
LTYPE
  2
dashed
 70
   64
  3
-------   -------------   ------
 72
   65
 73
    2
 40
7.5
 49
6
 49
-1.5
  0
LTYPE
  2
dashed_spaced
 70
   64
  3
----        --------        ----
 72
   65
 73
    2
 40
12
 49
6
 49
-6
  0
LTYPE
  2
long_dashed_dotted
 70
   64
  3
------------- --- --------------
 72
   65
 73
    4
 40
15.25
 49
12
 49
-1.5
 49
0.25
 49
-1.5
  0
LTYPE
  2
long_dashed_double-dotted
 70
   64
  3
----------- --- --- ------------
 72
   65
 73
    6
 40
17
 49
12
 49
-1.5
 49
0.25
 49
-1.5
 49
0.25
 49
-1.5
  0
LTYPE
  2
long_dashed_triplicate-dotted
 70
   64
  3
--------- --- --- --- ----------
 72
   65
 73
    8
 40
18.75
 49
12
 49
-1.5
 49
0.25
 49
-1.5
 49
0.25
 49
-1.5
 49
0.25
 49
-1.5
  0
LTYPE
  2
dotted
 70
   64
  3
   -       -       -       -    
 72
   65
 73
    2
 40
1.75
 49
0.25
 49
-1.5
  0
LTYPE
  2
chain
 70
   64
  3
-------------- -- --------------
 72
   65
 73
    4
 40
18.5
 49
12
 49
-1.5
 49
3.5
 49
-1.5
  0
LTYPE
  2
chain_double_dash
 70
   64
  3
------------ -- -- -------------
 72
   65
 73
    6
 40
23.5
 49
12
 49
-1.5
 49
3.5
 49
-1.5
 49
3.5
 49
-1.5
  0
LTYPE
  2
dashed_dotted
 70
   64
  3
-----------     -     ----------
 72
   65
 73
    4
 40
9.25
 49
6
 49
-1.5
 49
0.25
 49
-1.5
  0
LTYPE
  2
double-dashed_dotted
 70
   64
  3
------   -----------   -   -----
 72
   65
 73
    6
 40
16.75
 49
6
 49
-1.5
 49
6
 49
-1.5
 49
0.25
 49
-1.5
  0
LTYPE
  2
dashed_double-dotted
 70
   64
  3
---------    -    -    ---------
 72
   65
 73
    6
 40
11
 49
6
 49
-1.5
 49
0.25
 49
-1.5
 49
0.25
 49
-1.5
  0
LTYPE
  2
double-dashed_double-dotted
 70
   64
  3
-----   ---------   -   -   ----
 72
   65
 73
    8
 40
18.5
 49
6
 49
-1.5
 49
6
 49
-1.5
 49
0.25
 49
-1.5
 49
0.25
 49
-1.5
  0
LTYPE
  2
dashed_triplicate-dotted
 70
   64
  3
-------    -    -    -    ------
 72
   65
 73
    8
 40
12.75
 49
6
 49
-1.5
 49
0.25
 49
-1.5
 49
0.25
 49
-1.5
 49
0.25
 49
-1.5
  0
LTYPE
  2
double-dashed_triplicate-dotted
 70
   64
  3
-----  ---------  -  -  -  -----
 72
   65
 73
   10
 40
20.25
 49
6
 49
-1.5
 49
6
 49
-1.5
 49
0.25
 49
-1.5
 49
0.25
 49
-1.5
 49
0.25
 49
-1.5
  0
LTYPE
  2
undefined
 70
   64
  3
--------------------------------
 72
   65
 73
    0
 40
0
  0
ENDTAB
  0
TABLE
  2
STYLE
  5
3
100
AcDbSymbolTable
 70
     1
  0
STYLE
  5
10
100
AcDbSymbolTableRecord
100
AcDbTextStyleTableRecord
  2
STANDARD
 70
     0
 40
0.0
 41
1.0
 50
0.0
 71
     0
 42
0.2
  3
txt
  4
bigfont.shx
  0
STYLE
  5
26
100
AcDbSymbolTableRecord
100
AcDbTextStyleTableRecord
  2
TATEGAKI
 70
    68
 40
0.0
 41
1.0
 50
0.0
 71
     0
 42
1.0
  3
txt
  4
bigfont.shx
  0
ENDTAB
  0
TABLE
  2
LAYER
 70
    2
  0
LAYER
  2
_0-0_0
 70
   64
 62
    7
  6
CONTINUOUS
  0
LAYER
  2
ADD_LINE
 70
   64
 62
    7
  6
CONTINUOUS
  0
ENDTAB
  0
ENDSEC
  0
SECTION
  2
BLOCKS
  0
ENDSEC
  0
SECTION
  2
ENTITIES
  0
LINE
  8
_0-0_0
  6
CONTINUOUS
 62
    7
 10
-174.07104500000003
 20
813.90052749999995
 11
-174.07104500000003
 21
813.89952049999999
  0
LINE
  8
_0-0_0
  6
CONTINUOUS
 62
    7
 10
-21.258545000000026
 20
774.96958949999998
 11
-22.558547999999973
 21
771.46958949999998
  0
ARC
  8
_0-0_0
  6
CONTINUOUS
 62
    7
 10
-21.071059999999989
 20
774.89994750000005
 40
0.2
 50
20.376434999999997
 51
159.62357000000003
  0
ARC
  8
_0-0_0
  6
CONTINUOUS
 62
    7
 10
16.928940000000011
 20
777.79994150000005
 40
2.2000000000000002
 50
180.00000900000003
 51
303.74900400000001
  0
LINE
  8
_0-0_0
  6
CONTINUOUS
 62
    7
 10
14.728942999999958
 20
779.29994150000005
 11
14.728942999999958
 21
777.79994150000005
  0
LINE
  8
_0-0_0
  6
CONTINUOUS
 62
    7
 10
14.728942999999958
 20
779.29994150000005
 11
-59.871047999999973
 21
779.29994150000005
  0
LINE
  8
_0-0_0
  6
CONTINUOUS
 62
    7
 10
-59.871047999999973
 20
779.29994150000005
 11
-59.871047999999973
 21
777.79994150000005
  0
ARC
  8
_0-0_0
  6
CONTINUOUS
 62
    7
 10
-62.071059999999989
 20
777.79994150000005
 40
2.2000000000000002
 50
236.25102899999999
 51
0
  0
ARC
  8
_0-0_0
  6
CONTINUOUS
 62
    7
 10
-63.571059999999989
 20
775.55494650000003
 40
0.5
 50
56.251010000000008
 51
180.00000900000001
  0
LINE
  8
_0-0_0
  6
CONTINUOUS
 62
    7
 10
-64.071059999999989
 20
755.19993550000004
 11
-64.071059999999989
 21
755.97706549999998
  0
LINE
  8
_0-0_0
  6
CONTINUOUS
 62
    7
 10
-64.071059999999989
 20
755.19993550000004
 11
-54.271057000000042
 21
755.19993550000004
  0
ARC
  8
_0-0_0
  6
CONTINUOUS
 62
    7
 10
-54.271057000000042
 20
755.39994750000005
 40
0.2
 50
269.99999700000001
 51
0
  0
LINE
  8
_0-0_0
  6
CONTINUOUS
 62
    7
 10
-54.071059999999989
 20
757.09992950000003
 11
-54.071059999999989
 21
755.39994750000005
  0
ARC
  8
_0-0_0
  6
CONTINUOUS
 62
    7
 10
-53.871047999999973
 20
757.09992950000003
 40
0.2
 50
90.000003000000007
 51
180.00000900000001
  0
LINE
  8
_0-0_0
  6
CONTINUOUS
 62
    7
 10
-53.371047999999973
 20
757.29994150000005
 11
-53.871047999999973
 21
757.29994150000005
  0
ARC
  8
_0-0_0
  6
CONTINUOUS
 62
    7
 10
-53.371047999999973
 20
756.79994150000005
 40
0.5
 50
90.000003000000007
 51
180.00000900000001
  0
LINE
  8
_0-0_0
  6
CONTINUOUS
 62
    7
 10
-53.871047999999973
 20
755.29994150000005
 11
-53.871047999999973
 21
756.79994150000005
  0
LINE
  8
_0-0_0
  6
CONTINUOUS
 62
    7
 10
15.728942999999958
 20
755.29994150000005
 11
-53.871047999999973
 21
755.29994150000005
  0
LINE
  8
_0-0_0
  6
CONTINUOUS
 62
    7
 10
15.728942999999958
 20
755.29994150000005
 11
15.728942999999958
 21
756.79994150000005
  0
ARC
  8
_0-0_0
  6
CONTINUOUS
 62
    7
 10
15.228942999999958
 20
756.79994150000005
 40
0.5
 50
0
 51
90.000003000000007
  0
LINE
  8
_0-0_0
  6
CONTINUOUS
 62
    7
 10
15.728942999999958
 20
757.29994150000005
 11
15.228942999999958
 21
757.29994150000005
  0
ARC
  8
_0-0_0
  6
CONTINUOUS
 62
    7
 10
15.728942999999958
 20
757.09992950000003
 40
0.2
 50
0
 51
90.000003000000007
  0
LINE
  8
_0-0_0
  6
CONTINUOUS
 62
    7
 10
15.928940000000011
 20
755.39994750000005
 11
15.928940000000011
 21
757.09992950000003
  0
ARC
  8
_0-0_0
  6
CONTINUOUS
 62
    7
 10
16.128936999999951
 20
755.39994750000005
 40
0.2
 50
180.00000900000003
 51
269.99999700000001
  0
LINE
  8
_0-0_0
  6
CONTINUOUS
 62
    7
 10
16.128936999999951
 20
755.19993550000004
 11
16.928940000000011
 21
755.19993550000004
  0
ARC
  8
_0-0_0
  6
CONTINUOUS
 62
    7
 10
16.928940000000011
 20
757.19993550000004
 40
2
 50
269.99999700000001
 51
0.0000099999999886
  0
LINE
  8
_0-0_0
  6
CONTINUOUS
 62
    7
 10
18.928940000000011
 20
775.55494650000003
 11
18.928940000000011
 21
757.19993550000004
  0
ARC
  8
_0-0_0
  6
CONTINUOUS
 62
    7
 10
18.428940000000011
 20
775.55494650000003
 40
0.5
 50
0
 51
123.74898500000002
  0
LINE
  8
_0-0_0
  6
CONTINUOUS
 62
    7
 10
-52.571059999999989
 20
757.49995450000006
 11
-52.571059999999989
 21
757.69993550000004
  0
LINE
  8
_0-0_0
  6
CONTINUOUS
 62
    7
 10
-52.571059999999989
 20
757.69993550000004
 11
14.428940000000011
 21
757.69993550000004
  0
LINE
  8
_0-0_0
  6
CONTINUOUS
 62
    7
 10
14.428940000000011
 20
757.49995450000006
 11
14.428940000000011
 21
757.69993550000004
  0
ARC
  8
_0-0_0
  6
CONTINUOUS
 62
    7
 10
14.628936999999951
 20
757.49995450000006
 40
0.2
 50
180.00000900000003
 51
269.99999700000001
  0
LINE
  8
_0-0_0
  6
CONTINUOUS
 62
    7
 10
14.628936999999951
 20
757.29994150000005
 11
-52.771057000000042
 21
757.29994150000005
  0
ARC
  8
_0-0_0
  6
CONTINUOUS
 62
    7
 10
-52.771057000000042
 20
757.49995450000006
 40
0.2
 50
269.99999700000001
 51
0
  0
ARC
  8
_0-0_0
  6
CONTINUOUS
 62
    7
 10
-22.371063000000049
 20
771.39994750000005
 40
0.2
 50
159.62357
 51
269.99999700000001
  0
LINE
  8
_0-0_0
  6
CONTINUOUS
 62
    7
 10
-22.371063000000049
 20
771.19993550000004
 11
-19.771057000000042
 21
771.19993550000004
  0
ARC
  8
_0-0_0
  6
CONTINUOUS
 62
    7
 10
-19.771057000000042
 20
771.39994750000005
 40
0.2
 50
269.99999700000001
 51
20.376435000000019
  0
LINE
  8
_0-0_0
  6
CONTINUOUS
 62
    7
 10
-19.583572000000004
 20
771.46958949999998
 11
-20.883575000000064
 21
774.96958949999998
  0
LINE
  8
_0-0_0
  6
CONTINUOUS
 62
    7
 10
-64.071059999999989
 20
774.89994750000005
 11
-64.071059999999989
 21
776.87730350000004
  0
LINE
  8
_0-0_0
  6
CONTINUOUS
 62
    7
 10
-64.071059999999989
 20
774.89994750000005
 11
-64.071059999999989
 21
757.29994150000005
  0
LINE
  8
_0-0_0
  6
CONTINUOUS
 62
    7
 10
-64.071059999999989
 20
755.97706549999998
 11
-64.071059999999989
 21
757.29994150000005
  0
LINE
  8
_0-0_0
  6
CONTINUOUS
 62
    7
 10
18.928940000000011
 20
781.29994150000005
 11
18.928940000000011
 21
780.29994150000005
  0
LINE
  8
_0-0_0
  6
CONTINUOUS
 62
    7
 10
18.928940000000011
 20
780.29994150000005
 11
18.928940000000011
 21
779.79994150000005
  0
LINE
  8
_0-0_0
  6
CONTINUOUS
 62
    7
 10
18.928940000000011
 20
779.79994150000005
 11
18.928940000000011
 21
777.79994150000005
  0
LINE
  8
_0-0_0
  6
CONTINUOUS
 62
    7
 10
18.928940000000011
 20
777.79994150000005
 11
18.928940000000011
 21
775.55494650000003
  0
LINE
  8
_0-0_0
  6
CONTINUOUS
 62
    7
 10
-3.0710599999999886
 20
775.29994150000005
 11
-3.0710599999999886
 21
761.69993550000004
  0
ARC
  8
_0-0_0
  6
CONTINUOUS
 62
    7
 10
-0.0710599999999885
 20
775.29994150000005
 40
3
 50
90.000003000000007
 51
180.00000900000001
  0
LINE
  8
_0-0_0
  6
CONTINUOUS
 62
    7
 10
13.262878000000001
 20
778.29994150000005
 11
-0.0710599999999885
 21
778.29994150000005
  0
ARC
  8
_0-0_0
  6
CONTINUOUS
 62
    7
 10
13.262878000000001
 20
777.29994150000005
 40
1
 50
7.7664340000000012
 51
90.000002999999992
  0
ARC
  8
_0-0_0
  6
CONTINUOUS
 62
    7
 10
16.928940000000011
 20
777.79994150000005
 40
2.7000000000000002
 50
187.76643899999999
 51
254.31966600000001
  0
ARC
  8
_0-0_0
  6
CONTINUOUS
 62
    7
 10
15.928940000000011
 20
774.23762450000004
 40
1
 50
0
 51
74.319649999999996
  0
LINE
  8
_0-0_0
  6
CONTINUOUS
 62
    7
 10
16.928940000000011
 20
761.69993550000004
 11
16.928940000000011
 21
774.23762450000004
  0
ARC
  8
_0-0_0
  6
CONTINUOUS
 62
    7
 10
13.928940000000011
 20
761.69993550000004
 40
3
 50
269.99999700000001
 51
0.0000099999999886
  0
LINE
  8
_0-0_0
  6
CONTINUOUS
 62
    7
 10
-0.0710599999999885
 20
758.69993550000004
 11
13.928940000000011
 21
758.69993550000004
  0
ARC
  8
_0-0_0
  6
CONTINUOUS
 62
    7
 10
-0.0710599999999885
 20
761.69993550000004
 40
3
 50
180.00000900000003
 51
269.99999700000001
  0
LINE
  8
_0-0_0
  6
CONTINUOUS
 62
    7
 10
-57.071059999999989
 20
758.69993550000004
 11
-42.071059999999989
 21
758.69993550000004
  0
ARC
  8
_0-0_0
  6
CONTINUOUS
 62
    7
 10
-57.071059999999989
 20
761.69993550000004
 40
3
 50
180.00000900000003
 51
269.99999700000001
  0
LINE
  8
_0-0_0
  6
CONTINUOUS
 62
    7
 10
-60.071059999999989
 20
775.29994150000005
 11
-60.071059999999989
 21
761.69993550000004
  0
ARC
  8
_0-0_0
  6
CONTINUOUS
 62
    7
 10
-57.071059999999989
 20
775.29994150000005
 40
3
 50
90.000003000000007
 51
180.00000900000001
  0
LINE
  8
_0-0_0
  6
CONTINUOUS
 62
    7
 10
-42.071059999999989
 20
778.29994150000005
 11
-57.071059999999989
 21
778.29994150000005
  0
ARC
  8
_0-0_0
  6
CONTINUOUS
 62
    7
 10
-42.071059999999989
 20
775.29994150000005
 40
3
 50
0
 51
90.000003000000007
  0
LINE
  8
_0-0_0
  6
CONTINUOUS
 62
    7
 10
-39.071059999999989
 20
761.69993550000004
 11
-39.071059999999989
 21
775.29994150000005
  0
ARC
  8
_0-0_0
  6
CONTINUOUS
 62
    7
 10
-42.071059999999989
 20
761.69993550000004
 40
3
 50
269.99999700000001
 51
0.0000099999999886
  0
LINE
  8
_0-0_0
  6
CONTINUOUS
 62
    7
 10
14.928940000000011
 20
779.29994150000005
 11
14.728942999999958
 21
779.29994150000005
  0
ARC
  8
_0-0_0
  6
CONTINUOUS
 62
    7
 10
16.928940000000011
 20
777.79994150000005
 40
2
 50
180.00000900000003
 51
0.0000000000000254
  0
LINE
  8
_0-0_0
  6
CONTINUOUS
 62
    7
 10
14.928940000000011
 20
779.29994150000005
 11
14.928940000000011
 21
777.79994150000005
  0
LINE
  8
_0-0_0
  6
CONTINUOUS
 62
    7
 10
-59.871047999999973
 20
779.29994150000005
 11
-60.071059999999989
 21
779.29994150000005
  0
LINE
  8
_0-0_0
  6
CONTINUOUS
 62
    7
 10
-60.071059999999989
 20
779.29994150000005
 11
-60.071059999999989
 21
777.79994150000005
  0
ARC
  8
_0-0_0
  6
CONTINUOUS
 62
    7
 10
-62.071059999999989
 20
777.79994150000005
 40
2
 50
180.00000900000003
 51
0.0000000000000254
  0
LINE
  8
_0-0_0
  6
CONTINUOUS
 62
    7
 10
-77.571045000000026
 20
779.79994150000005
 11
-77.571045000000026
 21
779.29994150000005
  0
LINE
  8
_0-0_0
  6
CONTINUOUS
 62
    7
 10
-64.071059999999989
 20
776.88343750000001
 11
-64.071059999999989
 21
777.59992950000003
  0
LINE
  8
_0-0_0
  6
CONTINUOUS
 62
    7
 10
-64.071059999999989
 20
776.88343750000001
 11
-64.071059999999989
 21
776.87730350000004
  0
LINE
  8
_0-0_0
  6
CONTINUOUS
 62
    7
 10
-64.071059999999989
 20
775.66880749999996
 11
-64.071059999999989
 21
775.55494650000003
  0
LINE
  8
_0-0_0
  6
CONTINUOUS
 62
    7
 10
-76.071045000000026
 20
776.89994750000005
 11
-76.071045000000026
 21
774.89994750000005
  0
LINE
  8
_0-0_0
  6
CONTINUOUS
 62
    7
 10
-64.071059999999989
 20
776.89994750000005
 11
-76.071045000000026
 21
776.89994750000005
  0
LINE
  8
_0-0_0
  6
CONTINUOUS
 62
    7
 10
-76.071045000000026
 20
771.39994750000005
 11
-76.071045000000026
 21
774.39994750000005
  0
LINE
  8
_0-0_0
  6
CONTINUOUS
 62
    7
 10
-76.071045000000026
 20
774.39994750000005
 11
-76.071045000000026
 21
774.89994750000005
  0
LINE
  8
_0-0_0
  6
CONTINUOUS
 62
    7
 10
-76.071045000000026
 20
771.39994750000005
 11
-76.071045000000026
 21
770.89994750000005
  0
ARC
  8
_0-0_0
  6
CONTINUOUS
 62
    7
 10
-70.071045000000026
 20
771.59992950000003
 40
0.500016
 50
0.001164
 51
179.99560600000004
  0
LINE
  8
_0-0_0
  6
CONTINUOUS
 62
    7
 10
-70.571059999999989
 20
771.59992950000003
 11
-70.571059999999989
 21
759.59992950000003
  0
ARC
  8
_0-0_0
  6
CONTINUOUS
 62
    7
 10
-70.071045000000026
 20
759.59996049999995
 40
0.500016
 50
180.00117
 51
359.995611
  0
LINE
  8
_0-0_0
  6
CONTINUOUS
 62
    7
 10
-69.571059999999989
 20
771.59992950000003
 11
-69.571059999999989
 21
759.59992950000003
  0
ARC
  8
_0-0_0
  6
CONTINUOUS
 62
    7
 10
-71.571045000000026
 20
771.59992950000003
 40
0.500016
 50
0.001164
 51
179.99560600000004
  0
LINE
  8
_0-0_0
  6
CONTINUOUS
 62
    7
 10
-72.071059999999989
 20
771.59992950000003
 11
-72.071059999999989
 21
759.59992950000003
  0
ARC
  8
_0-0_0
  6
CONTINUOUS
 62
    7
 10
-71.571045000000026
 20
759.59996049999995
 40
0.500016
 50
180.00117
 51
359.995611
  0
LINE
  8
_0-0_0
  6
CONTINUOUS
 62
    7
 10
-71.071059999999989
 20
771.59992950000003
 11
-71.071059999999989
 21
759.59992950000003
  0
ARC
  8
_0-0_0
  6
CONTINUOUS
 62
    7
 10
-73.071045000000026
 20
771.59992950000003
 40
0.500016
 50
0.001164
 51
179.99560600000004
  0
LINE
  8
_0-0_0
  6
CONTINUOUS
 62
    7
 10
-73.571059999999989
 20
771.59992950000003
 11
-73.571059999999989
 21
759.59992950000003
  0
ARC
  8
_0-0_0
  6
CONTINUOUS
 62
    7
 10
-73.071045000000026
 20
759.59996049999995
 40
0.500016
 50
180.00117
 51
359.995611
  0
LINE
  8
_0-0_0
  6
CONTINUOUS
 62
    7
 10
-72.571059999999989
 20
771.59992950000003
 11
-72.571059999999989
 21
759.59992950000003
  0
ARC
  8
_0-0_0
  6
CONTINUOUS
 62
    7
 10
-74.571045000000026
 20
771.59992950000003
 40
0.500016
 50
0.001164
 51
179.99560600000004
  0
LINE
  8
_0-0_0
  6
CONTINUOUS
 62
    7
 10
-75.071045000000026
 20
771.59992950000003
 11
-75.071045000000026
 21
759.59992950000003
  0
ARC
  8
_0-0_0
  6
CONTINUOUS
 62
    7
 10
-74.571045000000026
 20
759.59996049999995
 40
0.500016
 50
180.00117
 51
359.995611
  0
LINE
  8
_0-0_0
  6
CONTINUOUS
 62
    7
 10
-74.071059999999989
 20
771.59992950000003
 11
-74.071059999999989
 21
759.59992950000003
  0
LINE
  8
_0-0_0
  6
CONTINUOUS
 62
    7
 10
-64.071059999999989
 20
755.29994150000005
 11
-80.746489999999994
 21
755.29994150000005
  0
LINE
  8
_0-0_0
  6
CONTINUOUS
 62
    7
 10
-53.521057000000042
 20
757.27690150000001
 11
-53.521057000000042
 21
757.29994150000005
  0
LINE
  8
_0-0_0
  6
CONTINUOUS
 62
    7
 10
15.378936999999951
 20
757.27690150000001
 11
15.378936999999951
 21
757.29994150000005
  0
LINE
  8
_0-0_0
  6
CONTINUOUS
 62
    7
 10
-77.571045000000026
 20
779.79994150000005
 11
-77.571045000000026
 21
780.29994150000005
  0
LINE
  8
_0-0_0
  6
CONTINUOUS
 62
    7
 10
18.928940000000011
 20
780.29994150000005
 11
-77.571045000000026
 21
780.29994150000005
  0
LINE
  8
_0-0_0
  6
CONTINUOUS
 62
    7
 10
-77.571045000000026
 20
780.29994150000005
 11
-77.571045000000026
 21
781.29994150000005
  0
LINE
  8
_0-0_0
  6
CONTINUOUS
 62
    7
 10
18.929077000000007
 20
781.30000250000001
 11
18.929077000000007
 21
780.80000250000001
  0
LINE
  8
_0-0_0
  6
CONTINUOUS
 62
    7
 10
18.929077000000007
 20
780.80000250000001
 11
18.929077000000007
 21
779.30000250000001
  0
ARC
  8
_0-0_0
  6
CONTINUOUS
 62
    7
 10
9.4289400000000114
 20
770.89994750000005
 40
4.5
 50
269.99999700000001
 51
90.000002999999992
  0
LINE
  8
_0-0_0
  6
CONTINUOUS
 62
    7
 10
9.4289400000000114
 20
766.39994750000005
 11
4.4289400000000114
 21
766.39994750000005
  0
ARC
  8
_0-0_0
  6
CONTINUOUS
 62
    7
 10
4.4289400000000114
 20
770.89994750000005
 40
4.5
 50
90.000003000000007
 51
269.99999700000006
  0
LINE
  8
_0-0_0
  6
CONTINUOUS
 62
    7
 10
4.4289400000000114
 20
775.39994750000005
 11
9.4289400000000114
 21
775.39994750000005
  0
ARC
  8
_0-0_0
  6
CONTINUOUS
 62
    7
 10
-46.571059999999989
 20
770.89994750000005
 40
4.5
 50
269.99999700000001
 51
90.000002999999992
  0
LINE
  8
_0-0_0
  6
CONTINUOUS
 62
    7
 10
-46.571059999999989
 20
766.39994750000005
 11
-51.571059999999989
 21
766.39994750000005
  0
ARC
  8
_0-0_0
  6
CONTINUOUS
 62
    7
 10
-51.571059999999989
 20
770.89994750000005
 40
4.5
 50
90.000003000000007
 51
269.99999700000006
  0
LINE
  8
_0-0_0
  6
CONTINUOUS
 62
    7
 10
-51.571059999999989
 20
775.39994750000005
 11
-46.571059999999989
 21
775.39994750000005
  0
LINE
  8
_0-0_0
  6
CONTINUOUS
 62
    7
 10
-64.071059999999989
 20
777.59992950000003
 11
-64.071059999999989
 21
779.29994150000005
  0
LINE
  8
_0-0_0
  6
CONTINUOUS
 62
    7
 10
-64.071059999999989
 20
779.29994150000005
 11
-77.571045000000026
 21
779.29994150000005
  0
LINE
  8
_0-0_0
  6
CONTINUOUS
 62
    7
 10
-77.571045000000026
 20
777.59992950000003
 11
-77.571045000000026
 21
779.29994150000005
  0
LINE
  8
_0-0_0
  6
CONTINUOUS
 62
    7
 10
-76.071045000000026
 20
776.89994750000005
 11
-80.746489999999994
 21
776.89994750000005
  0
LINE
  8
_0-0_0
  6
CONTINUOUS
 62
    7
 10
-76.071045000000026
 20
771.39994750000005
 11
-80.746489999999994
 21
771.39994750000005
  0
LINE
  8
_0-0_0
  6
CONTINUOUS
 62
    7
 10
-81.378952000000027
 20
755.40257250000002
 11
-81.25945999999999
 21
755.36695850000001
  0
LINE
  8
_0-0_0
  6
CONTINUOUS
 62
    7
 10
-81.25945999999999
 20
755.36695850000001
 11
-81.137909000000036
 21
755.33906549999995
  0
LINE
  8
_0-0_0
  6
CONTINUOUS
 62
    7
 10
-81.137909000000036
 20
755.33906549999995
 11
-81.014769999999999
 21
755.31904550000002
  0
LINE
  8
_0-0_0
  6
CONTINUOUS
 62
    7
 10
-81.014769999999999
 20
755.31904550000002
 11
-80.890533000000005
 21
755.30693050000002
  0
LINE
  8
_0-0_0
  6
CONTINUOUS
 62
    7
 10
-80.890533000000005
 20
755.30693050000002
 11
-80.765716999999995
 21
755.30278050000004
  0
LINE
  8
_0-0_0
  6
CONTINUOUS
 62
    7
 10
-80.765716999999995
 20
755.30278050000004
 11
-80.746489999999994
 21
755.30287150000004
  0
ARC
  8
_0-0_0
  6
CONTINUOUS
 62
    7
 10
-80.746489999999994
 20
757.29994150000005
 40
2
 50
251.56498899999997
 51
269.99999700000001
  0
LINE
  8
_0-0_0
  6
CONTINUOUS
 62
    7
 10
-77.571045000000026
 20
777.59992950000003
 11
-64.071059999999989
 21
777.59992950000003
  0
CIRCLE
  8
_0-0_0
  6
CONTINUOUS
 62
    7
 10
16.928940000000011
 20
777.79994150000005
 40
1.4750000000000001
  0
CIRCLE
  8
_0-0_0
  6
CONTINUOUS
 62
    7
 10
-62.071059999999989
 20
777.79994150000005
 40
1.4750000000000001
  0
ARC
  8
_0-0_0
  6
CONTINUOUS
 62
    7
 10
-80.746489999999994
 20
774.89994750000005
 40
2
 50
90.000003000000007
 51
108.434997
  0
LINE
  8
_0-0_0
  6
CONTINUOUS
 62
    7
 10
-85.545394999999985
 20
771.39994750000005
 11
-86.238753999999972
 21
771.39994750000005
  0
LINE
  8
_0-0_0
  6
CONTINUOUS
 62
    7
 10
-85.545394999999985
 20
771.39994750000005
 11
-81.220839999999953
 21
771.39994750000005
  0
LINE
  8
_0-0_0
  6
CONTINUOUS
 62
    7
 10
-80.746489999999994
 20
771.39994750000005
 11
-81.220839999999953
 21
771.39994750000005
  0
LINE
  8
_0-0_0
  6
CONTINUOUS
 62
    7
 10
-85.703506000000061
 20
756.84410049999997
 11
-81.378952000000027
 21
755.40257250000002
  0
LINE
  8
_0-0_0
  6
CONTINUOUS
 62
    7
 10
13.478942999999958
 20
770.89994750000005
 11
11.169539999999984
 21
766.89994750000005
  0
LINE
  8
_0-0_0
  6
CONTINUOUS
 62
    7
 10
2.6883390000000418
 20
766.89994750000005
 11
11.169539999999984
 21
766.89994750000005
  0
LINE
  8
_0-0_0
  6
CONTINUOUS
 62
    7
 10
2.6883390000000418
 20
766.89994750000005
 11
0.3789369999999507
 21
770.89994750000005
  0
LINE
  8
_0-0_0
  6
CONTINUOUS
 62
    7
 10
0.3789369999999507
 20
770.89994750000005
 11
2.6883390000000418
 21
774.89994750000005
  0
LINE
  8
_0-0_0
  6
CONTINUOUS
 62
    7
 10
11.169539999999984
 20
774.89994750000005
 11
2.6883390000000418
 21
774.89994750000005
  0
LINE
  8
_0-0_0
  6
CONTINUOUS
 62
    7
 10
11.169539999999984
 20
774.89994750000005
 11
13.478942999999958
 21
770.89994750000005
  0
LINE
  8
_0-0_0
  6
CONTINUOUS
 62
    7
 10
-53.311660999999958
 20
774.89994750000005
 11
-55.621047999999973
 21
770.89994750000005
  0
LINE
  8
_0-0_0
  6
CONTINUOUS
 62
    7
 10
-44.830460000000016
 20
774.89994750000005
 11
-53.311660999999958
 21
774.89994750000005
  0
LINE
  8
_0-0_0
  6
CONTINUOUS
 62
    7
 10
-42.521057000000042
 20
770.89994750000005
 11
-44.830460000000016
 21
774.89994750000005
  0
LINE
  8
_0-0_0
  6
CONTINUOUS
 62
    7
 10
-44.830460000000016
 20
766.89994750000005
 11
-42.521057000000042
 21
770.89994750000005
  0
LINE
  8
_0-0_0
  6
CONTINUOUS
 62
    7
 10
-53.311660999999958
 20
766.89994750000005
 11
-44.830460000000016
 21
766.89994750000005
  0
LINE
  8
_0-0_0
  6
CONTINUOUS
 62
    7
 10
-55.621047999999973
 20
770.89994750000005
 11
-53.311660999999958
 21
766.89994750000005
  0
LINE
  8
_0-0_0
  6
CONTINUOUS
 62
    7
 10
-81.821059999999989
 20
776.64994750000005
 11
-81.378952000000027
 21
776.79731749999996
  0
LINE
  8
_0-0_0
  6
CONTINUOUS
 62
    7
 10
-87.071045000000026
 20
772.14997849999997
 11
-87.071045000000026
 21
771.02894549999996
  0
LINE
  8
_0-0_0
  6
CONTINUOUS
 62
    7
 10
-87.071045000000026
 20
770.10762050000005
 11
-87.071045000000026
 21
771.02894549999996
  0
LINE
  8
_0-0_0
  6
CONTINUOUS
 62
    7
 10
-86.771057000000042
 20
768.3119355
 11
-86.829848999999967
 21
768.55876150000006
  0
LINE
  8
_0-0_0
  6
CONTINUOUS
 62
    7
 10
-86.829848999999967
 20
768.55876150000006
 11
-86.879607999999962
 21
768.75111349999997
  0
LINE
  8
_0-0_0
  6
CONTINUOUS
 62
    7
 10
-86.879607999999962
 20
768.75111349999997
 11
-86.950744999999984
 21
769.01692149999997
  0
LINE
  8
_0-0_0
  6
CONTINUOUS
 62
    7
 10
-86.950744999999984
 20
769.01692149999997
 11
-86.983703999999989
 21
769.14363049999997
  0
LINE
  8
_0-0_0
  6
CONTINUOUS
 62
    7
 10
-86.983703999999989
 20
769.14363049999997
 11
-87.008971999999972
 21
769.24705449999999
  0
LINE
  8
_0-0_0
  6
CONTINUOUS
 62
    7
 10
-87.008971999999972
 20
769.24705449999999
 11
-87.030990999999972
 21
769.3469695
  0
LINE
  8
_0-0_0
  6
CONTINUOUS
 62
    7
 10
-87.030990999999972
 20
769.3469695
 11
-87.052368000000001
 21
769.4646755
  0
LINE
  8
_0-0_0
  6
CONTINUOUS
 62
    7
 10
-87.052368000000001
 20
769.4646755
 11
-87.060944000000063
 21
769.52680950000001
  0
LINE
  8
_0-0_0
  6
CONTINUOUS
 62
    7
 10
-87.060944000000063
 20
769.52680950000001
 11
-87.067017000000078
 21
769.58741750000002
  0
LINE
  8
_0-0_0
  6
CONTINUOUS
 62
    7
 10
-87.067017000000078
 20
769.58741750000002
 11
-87.070038000000068
 21
769.63667250000003
  0
LINE
  8
_0-0_0
  6
CONTINUOUS
 62
    7
 10
-87.070038000000068
 20
769.63667250000003
 11
-87.071045000000026
 21
769.68489050000005
  0
LINE
  8
_0-0_0
  6
CONTINUOUS
 62
    7
 10
-86.771057000000042
 20
763.88792450000005
 11
-86.687591999999995
 21
764.26661650000005
  0
LINE
  8
_0-0_0
  6
CONTINUOUS
 62
    7
 10
-86.687591999999995
 20
764.26661650000005
 11
-86.647490999999945
 21
764.4581455
  0
LINE
  8
_0-0_0
  6
CONTINUOUS
 62
    7
 10
-86.647490999999945
 20
764.4581455
 11
-86.591414999999984
 21
764.74815350000006
  0
LINE
  8
_0-0_0
  6
CONTINUOUS
 62
    7
 10
-86.591414999999984
 20
764.74815350000006
 11
-86.553817999999978
 21
764.96772750000002
  0
LINE
  8
_0-0_0
  6
CONTINUOUS
 62
    7
 10
-86.553817999999978
 20
764.96772750000002
 11
-86.521179000000075
 21
765.18897949999996
  0
LINE
  8
_0-0_0
  6
CONTINUOUS
 62
    7
 10
-86.521179000000075
 20
765.18897949999996
 11
-86.49401899999998
 21
765.41578649999997
  0
LINE
  8
_0-0_0
  6
CONTINUOUS
 62
    7
 10
-86.49401899999998
 20
765.41578649999997
 11
-86.473937999999976
 21
765.64317349999999
  0
LINE
  8
_0-0_0
  6
CONTINUOUS
 62
    7
 10
-86.473937999999976
 20
765.64317349999999
 11
-86.466797000000042
 21
765.7569125
  0
LINE
  8
_0-0_0
  6
CONTINUOUS
 62
    7
 10
-86.466797000000042
 20
765.7569125
 11
-86.461638999999991
 21
765.87059050000005
  0
LINE
  8
_0-0_0
  6
CONTINUOUS
 62
    7
 10
-86.461638999999991
 20
765.87059050000005
 11
-86.457916000000068
 21
766.02201850000006
  0
LINE
  8
_0-0_0
  6
CONTINUOUS
 62
    7
 10
-86.457916000000068
 20
766.02201850000006
 11
-86.457854999999995
 21
766.1732935
  0
LINE
  8
_0-0_0
  6
CONTINUOUS
 62
    7
 10
-86.457854999999995
 20
766.1732935
 11
-86.461441000000036
 21
766.32435550000002
  0
LINE
  8
_0-0_0
  6
CONTINUOUS
 62
    7
 10
-86.461441000000036
 20
766.32435550000002
 11
-86.470947000000024
 21
766.51289350000002
  0
LINE
  8
_0-0_0
  6
CONTINUOUS
 62
    7
 10
-86.470947000000024
 20
766.51289350000002
 11
-86.485809000000017
 21
766.70112549999999
  0
LINE
  8
_0-0_0
  6
CONTINUOUS
 62
    7
 10
-86.485809000000017
 20
766.70112549999999
 11
-86.505736999999954
 21
766.88908349999997
  0
LINE
  8
_0-0_0
  6
CONTINUOUS
 62
    7
 10
-86.505736999999954
 20
766.88908349999997
 11
-86.52212499999996
 21
767.01795949999996
  0
LINE
  8
_0-0_0
  6
CONTINUOUS
 62
    7
 10
-86.52212499999996
 20
767.01795949999996
 11
-86.540526999999997
 21
767.1465915
  0
LINE
  8
_0-0_0
  6
CONTINUOUS
 62
    7
 10
-86.540526999999997
 20
767.1465915
 11
-86.564697000000024
 21
767.29853849999995
  0
LINE
  8
_0-0_0
  6
CONTINUOUS
 62
    7
 10
-86.564697000000024
 20
767.29853849999995
 11
-86.591094999999996
 21
767.44987449999996
  0
LINE
  8
_0-0_0
  6
CONTINUOUS
 62
    7
 10
-86.591094999999996
 20
767.44987449999996
 11
-86.647246999999993
 21
767.74049349999996
  0
LINE
  8
_0-0_0
  6
CONTINUOUS
 62
    7
 10
-86.647246999999993
 20
767.74049349999996
 11
-86.687408000000005
 21
767.93244949999996
  0
LINE
  8
_0-0_0
  6
CONTINUOUS
 62
    7
 10
-86.687408000000005
 20
767.93244949999996
 11
-86.771057000000042
 21
768.3119355
  0
LINE
  8
_0-0_0
  6
CONTINUOUS
 62
    7
 10
-86.771057000000042
 20
763.88792450000005
 11
-86.829864000000043
 21
763.64106749999996
  0
LINE
  8
_0-0_0
  6
CONTINUOUS
 62
    7
 10
-86.829864000000043
 20
763.64106749999996
 11
-86.879607999999962
 21
763.44874549999997
  0
LINE
  8
_0-0_0
  6
CONTINUOUS
 62
    7
 10
-86.879607999999962
 20
763.44874549999997
 11
-86.950744999999984
 21
763.18299850000005
  0
LINE
  8
_0-0_0
  6
CONTINUOUS
 62
    7
 10
-86.950744999999984
 20
763.18299850000005
 11
-86.983703999999989
 21
763.05632049999997
  0
LINE
  8
_0-0_0
  6
CONTINUOUS
 62
    7
 10
-86.983703999999989
 20
763.05632049999997
 11
-87.008957000000009
 21
762.95286550000003
  0
LINE
  8
_0-0_0
  6
CONTINUOUS
 62
    7
 10
-87.008957000000009
 20
762.95286550000003
 11
-87.030990999999972
 21
762.85288949999995
  0
LINE
  8
_0-0_0
  6
CONTINUOUS
 62
    7
 10
-87.030990999999972
 20
762.85288949999995
 11
-87.052368000000001
 21
762.73518349999995
  0
LINE
  8
_0-0_0
  6
CONTINUOUS
 62
    7
 10
-87.052368000000001
 20
762.73518349999995
 11
-87.060944000000063
 21
762.67304950000005
  0
LINE
  8
_0-0_0
  6
CONTINUOUS
 62
    7
 10
-87.060944000000063
 20
762.67304950000005
 11
-87.067017000000078
 21
762.61244150000005
  0
LINE
  8
_0-0_0
  6
CONTINUOUS
 62
    7
 10
-87.067017000000078
 20
762.61244150000005
 11
-87.070038000000068
 21
762.56321749999995
  0
LINE
  8
_0-0_0
  6
CONTINUOUS
 62
    7
 10
-87.070038000000068
 20
762.56321749999995
 11
-87.071045000000026
 21
762.51499950000004
  0
LINE
  8
_0-0_0
  6
CONTINUOUS
 62
    7
 10
-87.071045000000026
 20
758.74147049999999
 11
-87.071045000000026
 21
762.09223950000001
  0
ARC
  8
_0-0_0
  6
CONTINUOUS
 62
    7
 10
-85.071045000000026
 20
758.74147049999999
 40
2
 50
180.00000900000003
 51
251.56498900000003
  0
LINE
  8
_0-0_0
  6
CONTINUOUS
 62
    7
 10
17.378936999999951
 20
777.59992950000003
 11
18.028946000000019
 21
777.59992950000003
  0
ARC
  8
_0-0_0
  6
CONTINUOUS
 62
    7
 10
17.378936999999951
 20
777.34992950000003
 40
0.25
 50
90.000003000000007
 51
180.00000900000001
  0
LINE
  8
_0-0_0
  6
CONTINUOUS
 62
    7
 10
17.128936999999951
 20
777.34992950000003
 11
17.128936999999951
 21
776.69993550000004
  0
LINE
  8
_0-0_0
  6
CONTINUOUS
 62
    7
 10
16.728942999999958
 20
776.69993550000004
 11
17.128936999999951
 21
776.69993550000004
  0
LINE
  8
_0-0_0
  6
CONTINUOUS
 62
    7
 10
16.728942999999958
 20
776.69993550000004
 11
16.728942999999958
 21
777.34992950000003
  0
ARC
  8
_0-0_0
  6
CONTINUOUS
 62
    7
 10
16.478942999999958
 20
777.34992950000003
 40
0.25
 50
0
 51
90.000003000000007
  0
LINE
  8
_0-0_0
  6
CONTINUOUS
 62
    7
 10
15.828948999999966
 20
777.59992950000003
 11
16.478942999999958
 21
777.59992950000003
  0
LINE
  8
_0-0_0
  6
CONTINUOUS
 62
    7
 10
15.828948999999966
 20
777.59992950000003
 11
15.828948999999966
 21
777.99995450000006
  0
LINE
  8
_0-0_0
  6
CONTINUOUS
 62
    7
 10
16.478942999999958
 20
777.99995450000006
 11
15.828948999999966
 21
777.99995450000006
  0
ARC
  8
_0-0_0
  6
CONTINUOUS
 62
    7
 10
16.478942999999958
 20
778.24995450000006
 40
0.25
 50
269.99999700000001
 51
0
  0
LINE
  8
_0-0_0
  6
CONTINUOUS
 62
    7
 10
16.728942999999958
 20
778.24995450000006
 11
16.728942999999958
 21
778.89994750000005
  0
LINE
  8
_0-0_0
  6
CONTINUOUS
 62
    7
 10
17.128936999999951
 20
778.89994750000005
 11
16.728942999999958
 21
778.89994750000005
  0
LINE
  8
_0-0_0
  6
CONTINUOUS
 62
    7
 10
17.128936999999951
 20
778.89994750000005
 11
17.128936999999951
 21
778.24995450000006
  0
ARC
  8
_0-0_0
  6
CONTINUOUS
 62
    7
 10
17.378936999999951
 20
778.24995450000006
 40
0.25
 50
180.00000900000003
 51
269.99999700000001
  0
LINE
  8
_0-0_0
  6
CONTINUOUS
 62
    7
 10
18.028946000000019
 20
777.99995450000006
 11
17.378936999999951
 21
777.99995450000006
  0
LINE
  8
_0-0_0
  6
CONTINUOUS
 62
    7
 10
18.028946000000019
 20
777.99995450000006
 11
18.028946000000019
 21
777.59992950000003
  0
LINE
  8
_0-0_0
  6
CONTINUOUS
 62
    7
 10
-61.621047999999973
 20
777.59992950000003
 11
-60.971053999999981
 21
777.59992950000003
  0
ARC
  8
_0-0_0
  6
CONTINUOUS
 62
    7
 10
-61.621047999999973
 20
777.34992950000003
 40
0.25
 50
90.000003000000007
 51
180.00000900000001
  0
LINE
  8
_0-0_0
  6
CONTINUOUS
 62
    7
 10
-61.871047999999973
 20
777.34992950000003
 11
-61.871047999999973
 21
776.69993550000004
  0
LINE
  8
_0-0_0
  6
CONTINUOUS
 62
    7
 10
-62.271057000000042
 20
776.69993550000004
 11
-61.871047999999973
 21
776.69993550000004
  0
LINE
  8
_0-0_0
  6
CONTINUOUS
 62
    7
 10
-62.271057000000042
 20
776.69993550000004
 11
-62.271057000000042
 21
777.34992950000003
  0
ARC
  8
_0-0_0
  6
CONTINUOUS
 62
    7
 10
-62.521057000000042
 20
777.34992950000003
 40
0.25
 50
0
 51
90.000003000000007
  0
LINE
  8
_0-0_0
  6
CONTINUOUS
 62
    7
 10
-63.171051000000034
 20
777.59992950000003
 11
-62.521057000000042
 21
777.59992950000003
  0
LINE
  8
_0-0_0
  6
CONTINUOUS
 62
    7
 10
-63.171051000000034
 20
777.59992950000003
 11
-63.171051000000034
 21
777.99995450000006
  0
LINE
  8
_0-0_0
  6
CONTINUOUS
 62
    7
 10
-62.521057000000042
 20
777.99995450000006
 11
-63.171051000000034
 21
777.99995450000006
  0
ARC
  8
_0-0_0
  6
CONTINUOUS
 62
    7
 10
-62.521057000000042
 20
778.24995450000006
 40
0.25
 50
269.99999700000001
 51
0
  0
LINE
  8
_0-0_0
  6
CONTINUOUS
 62
    7
 10
-62.271057000000042
 20
778.24995450000006
 11
-62.271057000000042
 21
778.89994750000005
  0
LINE
  8
_0-0_0
  6
CONTINUOUS
 62
    7
 10
-61.871047999999973
 20
778.89994750000005
 11
-62.271057000000042
 21
778.89994750000005
  0
LINE
  8
_0-0_0
  6
CONTINUOUS
 62
    7
 10
-61.871047999999973
 20
778.89994750000005
 11
-61.871047999999973
 21
778.24995450000006
  0
ARC
  8
_0-0_0
  6
CONTINUOUS
 62
    7
 10
-61.621047999999973
 20
778.24995450000006
 40
0.25
 50
180.00000900000003
 51
269.99999700000001
  0
LINE
  8
_0-0_0
  6
CONTINUOUS
 62
    7
 10
-60.971053999999981
 20
777.99995450000006
 11
-61.621047999999973
 21
777.99995450000006
  0
LINE
  8
_0-0_0
  6
CONTINUOUS
 62
    7
 10
-60.971053999999981
 20
777.99995450000006
 11
-60.971053999999981
 21
777.59992950000003
  0
LINE
  8
_0-0_0
  6
CONTINUOUS
 62
    7
 10
-102.07104500000003
 20
775.6253815
 11
-102.07104500000003
 21
775.47865249999995
  0
LINE
  8
_0-0_0
  6
CONTINUOUS
 62
    7
 10
-102.07104500000003
 20
775.81590249999999
 11
-102.07104500000003
 21
775.6253815
  0
LINE
  8
_0-0_0
  6
CONTINUOUS
 62
    7
 10
-102.07104500000003
 20
775.99092050000002
 11
-102.07104500000003
 21
775.81590249999999
  0
LINE
  8
_0-0_0
  6
CONTINUOUS
 62
    7
 10
-102.07104500000003
 20
776.14851350000004
 11
-102.07104500000003
 21
775.99092050000002
  0
LINE
  8
_0-0_0
  6
CONTINUOUS
 62
    7
 10
-102.07104500000003
 20
776.28694150000001
 11
-102.07104500000003
 21
776.14851350000004
  0
LINE
  8
_0-0_0
  6
CONTINUOUS
 62
    7
 10
-102.07104500000003
 20
776.40470849999997
 11
-102.07104500000003
 21
776.28694150000001
  0
LINE
  8
_0-0_0
  6
CONTINUOUS
 62
    7
 10
-102.07104500000003
 20
776.50050350000004
 11
-102.07104500000003
 21
776.40470849999997
  0
LINE
  8
_0-0_0
  6
CONTINUOUS
 62
    7
 10
-102.07104500000003
 20
776.57328749999999
 11
-102.07104500000003
 21
776.50050350000004
  0
LINE
  8
_0-0_0
  6
CONTINUOUS
 62
    7
 10
-102.07104500000003
 20
776.62223849999998
 11
-102.07104500000003
 21
776.57328749999999
  0
LINE
  8
_0-0_0
  6
CONTINUOUS
 62
    7
 10
-102.07104500000003
 20
776.64994750000005
 11
-102.07104500000003
 21
776.62223849999998
  0
LINE
  8
_0-0_0
  6
CONTINUOUS
 62
    7
 10
-102.07104500000003
 20
776.64994750000005
 11
-102.07104500000003
 21
776.64686549999999
  0
LINE
  8
_0-0_0
  6
CONTINUOUS
 62
    7
 10
-102.07104500000003
 20
772.1530305
 11
-102.07104500000003
 21
772.14994750000005
  0
LINE
  8
_0-0_0
  6
CONTINUOUS
 62
    7
 10
-102.07104500000003
 20
772.17765750000001
 11
-102.07104500000003
 21
772.14994750000005
  0
LINE
  8
_0-0_0
  6
CONTINUOUS
 62
    7
 10
-102.07104500000003
 20
772.2266085
 11
-102.07104500000003
 21
772.17765750000001
  0
LINE
  8
_0-0_0
  6
CONTINUOUS
 62
    7
 10
-102.07104500000003
 20
772.29939249999995
 11
-102.07104500000003
 21
772.2266085
  0
LINE
  8
_0-0_0
  6
CONTINUOUS
 62
    7
 10
-102.07104500000003
 20
772.39518750000002
 11
-102.07104500000003
 21
772.29939249999995
  0
LINE
  8
_0-0_0
  6
CONTINUOUS
 62
    7
 10
-102.07104500000003
 20
772.42536949999999
 11
-102.07104500000003
 21
772.39518750000002
  0
LINE
  8
_0-0_0
  6
CONTINUOUS
 62
    7
 10
-102.07104500000003
 20
772.51292450000005
 11
-102.07104500000003
 21
772.42536949999999
  0
LINE
  8
_0-0_0
  6
CONTINUOUS
 62
    7
 10
-102.07104500000003
 20
772.65135150000003
 11
-102.07104500000003
 21
772.51292450000005
  0
LINE
  8
_0-0_0
  6
CONTINUOUS
 62
    7
 10
-102.07104500000003
 20
772.80894450000005
 11
-102.07104500000003
 21
772.65135150000003
  0
LINE
  8
_0-0_0
  6
CONTINUOUS
 62
    7
 10
-102.07104500000003
 20
772.98396249999996
 11
-102.07104500000003
 21
772.80894450000005
  0
LINE
  8
_0-0_0
  6
CONTINUOUS
 62
    7
 10
-102.07104500000003
 20
773.17451449999999
 11
-102.07104500000003
 21
772.98396249999996
  0
LINE
  8
_0-0_0
  6
CONTINUOUS
 62
    7
 10
-102.07104500000003
 20
773.37846349999995
 11
-102.07104500000003
 21
773.17451449999999
  0
LINE
  8
_0-0_0
  6
CONTINUOUS
 62
    7
 10
-102.07104500000003
 20
773.59361249999995
 11
-102.07104500000003
 21
773.37846349999995
  0
LINE
  8
_0-0_0
  6
CONTINUOUS
 62
    7
 10
-102.07104500000003
 20
773.8176115
 11
-102.07104500000003
 21
773.59361249999995
  0
LINE
  8
_0-0_0
  6
CONTINUOUS
 62
    7
 10
-102.07104500000003
 20
774.04795850000005
 11
-102.07104500000003
 21
773.8176115
  0
LINE
  8
_0-0_0
  6
CONTINUOUS
 62
    7
 10
-102.07104500000003
 20
774.28218049999998
 11
-102.07104500000003
 21
774.04795850000005
  0
LINE
  8
_0-0_0
  6
CONTINUOUS
 62
    7
 10
-102.07104500000003
 20
774.51771550000001
 11
-102.07104500000003
 21
774.28218049999998
  0
LINE
  8
_0-0_0
  6
CONTINUOUS
 62
    7
 10
-102.07104500000003
 20
774.75190750000002
 11
-102.07104500000003
 21
774.51771550000001
  0
LINE
  8
_0-0_0
  6
CONTINUOUS
 62
    7
 10
-102.07104500000003
 20
774.98228449999999
 11
-102.07104500000003
 21
774.75190750000002
  0
LINE
  8
_0-0_0
  6
CONTINUOUS
 62
    7
 10
-102.07104500000003
 20
775.20628350000004
 11
-102.07104500000003
 21
774.98228449999999
  0
LINE
  8
_0-0_0
  6
CONTINUOUS
 62
    7
 10
-102.07104500000003
 20
775.42143250000004
 11
-102.07104500000003
 21
775.20628350000004
  0
LINE
  8
_0-0_0
  6
CONTINUOUS
 62
    7
 10
-102.07104500000003
 20
775.47865249999995
 11
-102.07104500000003
 21
775.42143250000004
  0
LINE
  8
_0-0_0
  6
CONTINUOUS
 62
    7
 10
-87.071045000000026
 20
767.66200249999997
 11
-87.071045000000026
 21
768.70762649999995
  0
LINE
  8
_0-0_0
  6
CONTINUOUS
 62
    7
 10
-87.071045000000026
 20
769.9922335
 11
-87.071045000000026
 21
768.70762649999995
  0
LINE
  8
_0-0_0
  6
CONTINUOUS
 62
    7
 10
-87.071045000000026
 20
770.10762050000005
 11
-87.071045000000026
 21
769.9922335
  0
LINE
  8
_0-0_0
  6
CONTINUOUS
 62
    7
 10
-87.071045000000026
 20
767.66200249999997
 11
-87.071045000000026
 21
764.53788750000001
  0
LINE
  8
_0-0_0
  6
CONTINUOUS
 62
    7
 10
-87.071045000000026
 20
762.09223950000001
 11
-87.071045000000026
 21
762.20762649999995
  0
LINE
  8
_0-0_0
  6
CONTINUOUS
 62
    7
 10
-87.071045000000026
 20
763.4922335
 11
-87.071045000000026
 21
762.20762649999995
  0
LINE
  8
_0-0_0
  6
CONTINUOUS
 62
    7
 10
-87.071045000000026
 20
763.4922335
 11
-87.071045000000026
 21
764.53788750000001
  0
LINE
  8
_0-0_0
  6
CONTINUOUS
 62
    7
 10
-102.07104500000003
 20
759.0253755
 11
-102.07104500000003
 21
758.87864650000006
  0
LINE
  8
_0-0_0
  6
CONTINUOUS
 62
    7
 10
-102.07104500000003
 20
759.21592650000002
 11
-102.07104500000003
 21
759.0253755
  0
LINE
  8
_0-0_0
  6
CONTINUOUS
 62
    7
 10
-102.07104500000003
 20
759.39094550000004
 11
-102.07104500000003
 21
759.21592650000002
  0
LINE
  8
_0-0_0
  6
CONTINUOUS
 62
    7
 10
-102.07104500000003
 20
759.54850750000003
 11
-102.07104500000003
 21
759.39094550000004
  0
LINE
  8
_0-0_0
  6
CONTINUOUS
 62
    7
 10
-102.07104500000003
 20
759.68696550000004
 11
-102.07104500000003
 21
759.54850750000003
  0
LINE
  8
_0-0_0
  6
CONTINUOUS
 62
    7
 10
-102.07104500000003
 20
759.80470249999996
 11
-102.07104500000003
 21
759.68696550000004
  0
LINE
  8
_0-0_0
  6
CONTINUOUS
 62
    7
 10
-102.07104500000003
 20
759.90049750000003
 11
-102.07104500000003
 21
759.80470249999996
  0
LINE
  8
_0-0_0
  6
CONTINUOUS
 62
    7
 10
-102.07104500000003
 20
759.97328149999998
 11
-102.07104500000003
 21
759.90049750000003
  0
LINE
  8
_0-0_0
  6
CONTINUOUS
 62
    7
 10
-102.07104500000003
 20
760.02223149999998
 11
-102.07104500000003
 21
759.97328149999998
  0
LINE
  8
_0-0_0
  6
CONTINUOUS
 62
    7
 10
-102.07104500000003
 20
760.04994150000005
 11
-102.07104500000003
 21
760.02223149999998
  0
LINE
  8
_0-0_0
  6
CONTINUOUS
 62
    7
 10
-102.07104500000003
 20
760.04994150000005
 11
-102.07104500000003
 21
760.04685949999998
  0
LINE
  8
_0-0_0
  6
CONTINUOUS
 62
    7
 10
-102.07104500000003
 20
755.55302449999999
 11
-102.07104500000003
 21
755.54994150000005
  0
LINE
  8
_0-0_0
  6
CONTINUOUS
 62
    7
 10
-102.07104500000003
 20
755.5776515
 11
-102.07104500000003
 21
755.54994150000005
  0
LINE
  8
_0-0_0
  6
CONTINUOUS
 62
    7
 10
-102.07104500000003
 20
755.62660249999999
 11
-102.07104500000003
 21
755.5776515
  0
LINE
  8
_0-0_0
  6
CONTINUOUS
 62
    7
 10
-102.07104500000003
 20
755.69938650000006
 11
-102.07104500000003
 21
755.62660249999999
  0
LINE
  8
_0-0_0
  6
CONTINUOUS
 62
    7
 10
-102.07104500000003
 20
755.79518150000001
 11
-102.07104500000003
 21
755.69938650000006
  0
LINE
  8
_0-0_0
  6
CONTINUOUS
 62
    7
 10
-102.07104500000003
 20
755.82539350000002
 11
-102.07104500000003
 21
755.79518150000001
  0
LINE
  8
_0-0_0
  6
CONTINUOUS
 62
    7
 10
-102.07104500000003
 20
755.91291750000005
 11
-102.07104500000003
 21
755.82539350000002
  0
LINE
  8
_0-0_0
  6
CONTINUOUS
 62
    7
 10
-102.07104500000003
 20
756.05137649999995
 11
-102.07104500000003
 21
755.91291750000005
  0
LINE
  8
_0-0_0
  6
CONTINUOUS
 62
    7
 10
-102.07104500000003
 20
756.20896849999997
 11
-102.07104500000003
 21
756.05137649999995
  0
LINE
  8
_0-0_0
  6
CONTINUOUS
 62
    7
 10
-102.07104500000003
 20
756.38398749999999
 11
-102.07104500000003
 21
756.20896849999997
  0
LINE
  8
_0-0_0
  6
CONTINUOUS
 62
    7
 10
-102.07104500000003
 20
756.57450849999998
 11
-102.07104500000003
 21
756.38398749999999
  0
LINE
  8
_0-0_0
  6
CONTINUOUS
 62
    7
 10
-102.07104500000003
 20
756.77845750000006
 11
-102.07104500000003
 21
756.57450849999998
  0
LINE
  8
_0-0_0
  6
CONTINUOUS
 62
    7
 10
-102.07104500000003
 20
756.99360650000006
 11
-102.07104500000003
 21
756.77845750000006
  0
LINE
  8
_0-0_0
  6
CONTINUOUS
 62
    7
 10
-102.07104500000003
 20
757.21760549999999
 11
-102.07104500000003
 21
756.99360650000006
  0
LINE
  8
_0-0_0
  6
CONTINUOUS
 62
    7
 10
-102.07104500000003
 20
757.44795250000004
 11
-102.07104500000003
 21
757.21760549999999
  0
LINE
  8
_0-0_0
  6
CONTINUOUS
 62
    7
 10
-102.07104500000003
 20
757.68217449999997
 11
-102.07104500000003
 21
757.44795250000004
  0
LINE
  8
_0-0_0
  6
CONTINUOUS
 62
    7
 10
-102.07104500000003
 20
757.9177095
 11
-102.07104500000003
 21
757.68217449999997
  0
LINE
  8
_0-0_0
  6
CONTINUOUS
 62
    7
 10
-102.07104500000003
 20
758.15193150000005
 11
-102.07104500000003
 21
757.9177095
  0
LINE
  8
_0-0_0
  6
CONTINUOUS
 62
    7
 10
-102.07104500000003
 20
758.38227849999998
 11
-102.07104500000003
 21
758.15193150000005
  0
LINE
  8
_0-0_0
  6
CONTINUOUS
 62
    7
 10
-102.07104500000003
 20
758.60627750000003
 11
-102.07104500000003
 21
758.38227849999998
  0
LINE
  8
_0-0_0
  6
CONTINUOUS
 62
    7
 10
-102.07104500000003
 20
758.82142650000003
 11
-102.07104500000003
 21
758.60627750000003
  0
LINE
  8
_0-0_0
  6
CONTINUOUS
 62
    7
 10
-102.07104500000003
 20
758.87864650000006
 11
-102.07104500000003
 21
758.82142650000003
  0
LINE
  8
_0-0_0
  6
CONTINUOUS
 62
    7
 10
8.9289400000000114
 20
768.64994750000005
 11
4.9289400000000114
 21
768.64994750000005
  0
ARC
  8
_0-0_0
  6
CONTINUOUS
 62
    7
 10
4.9289400000000114
 20
770.89994750000005
 40
2.25
 50
90.000003000000007
 51
269.99999700000006
  0
LINE
  8
_0-0_0
  6
CONTINUOUS
 62
    7
 10
4.9289400000000114
 20
773.14994750000005
 11
8.9289400000000114
 21
773.14994750000005
  0
ARC
  8
_0-0_0
  6
CONTINUOUS
 62
    7
 10
8.9289400000000114
 20
770.89994750000005
 40
2.25
 50
269.99999700000001
 51
90.000002999999992
  0
ARC
  8
_0-0_0
  6
CONTINUOUS
 62
    7
 10
-51.071059999999989
 20
770.89994750000005
 40
2.25
 50
90.000003000000007
 51
269.99999700000006
  0
LINE
  8
_0-0_0
  6
CONTINUOUS
 62
    7
 10
-51.071059999999989
 20
773.14994750000005
 11
-47.071059999999989
 21
773.14994750000005
  0
ARC
  8
_0-0_0
  6
CONTINUOUS
 62
    7
 10
-47.071059999999989
 20
770.89994750000005
 40
2.25
 50
269.99999700000001
 51
90.000002999999992
  0
LINE
  8
_0-0_0
  6
CONTINUOUS
 62
    7
 10
-47.071059999999989
 20
768.64994750000005
 11
-51.071059999999989
 21
768.64994750000005
  0
LINE
  8
_0-0_0
  6
CONTINUOUS
 62
    7
 10
-102.07104500000003
 20
775.6253815
 11
-102.32104500000003
 21
775.64994750000005
  0
LINE
  8
_0-0_0
  6
CONTINUOUS
 62
    7
 10
-102.07104500000003
 20
775.42143250000004
 11
-102.32104500000003
 21
775.64994750000005
  0
LINE
  8
_0-0_0
  6
CONTINUOUS
 62
    7
 10
-102.07104500000003
 20
775.81590249999999
 11
-102.32104500000003
 21
775.86939949999999
  0
LINE
  8
_0-0_0
  6
CONTINUOUS
 62
    7
 10
-102.07104500000003
 20
775.6253815
 11
-102.32104500000003
 21
775.86939949999999
  0
LINE
  8
_0-0_0
  6
CONTINUOUS
 62
    7
 10
-102.07104500000003
 20
775.99092050000002
 11
-102.32104500000003
 21
776.07276950000005
  0
LINE
  8
_0-0_0
  6
CONTINUOUS
 62
    7
 10
-102.07104500000003
 20
775.81590249999999
 11
-102.32104500000003
 21
776.07276950000005
  0
LINE
  8
_0-0_0
  6
CONTINUOUS
 62
    7
 10
-102.07104500000003
 20
776.14851350000004
 11
-102.32104500000003
 21
776.25779750000004
  0
LINE
  8
_0-0_0
  6
CONTINUOUS
 62
    7
 10
-102.07104500000003
 20
775.99092050000002
 11
-102.32104500000003
 21
776.25779750000004
  0
LINE
  8
_0-0_0
  6
CONTINUOUS
 62
    7
 10
-102.07104500000003
 20
776.28694150000001
 11
-102.32104500000003
 21
776.42250049999996
  0
LINE
  8
_0-0_0
  6
CONTINUOUS
 62
    7
 10
-102.07104500000003
 20
776.14851350000004
 11
-102.32104500000003
 21
776.42250049999996
  0
LINE
  8
_0-0_0
  6
CONTINUOUS
 62
    7
 10
-102.07104500000003
 20
776.40470849999997
 11
-102.32104500000003
 21
776.56501749999995
  0
LINE
  8
_0-0_0
  6
CONTINUOUS
 62
    7
 10
-102.07104500000003
 20
776.28694150000001
 11
-102.32104500000003
 21
776.56501749999995
  0
LINE
  8
_0-0_0
  6
CONTINUOUS
 62
    7
 10
-102.07104500000003
 20
776.50050350000004
 11
-102.32104500000003
 21
776.68379149999998
  0
LINE
  8
_0-0_0
  6
CONTINUOUS
 62
    7
 10
-102.07104500000003
 20
776.40470849999997
 11
-102.32104500000003
 21
776.68379149999998
  0
LINE
  8
_0-0_0
  6
CONTINUOUS
 62
    7
 10
-102.07104500000003
 20
776.57328749999999
 11
-102.32104500000003
 21
776.77757250000002
  0
LINE
  8
_0-0_0
  6
CONTINUOUS
 62
    7
 10
-102.07104500000003
 20
776.50050350000004
 11
-102.32104500000003
 21
776.77757250000002
  0
LINE
  8
_0-0_0
  6
CONTINUOUS
 62
    7
 10
-102.07104500000003
 20
776.62223849999998
 11
-102.32104500000003
 21
776.84532149999995
  0
LINE
  8
_0-0_0
  6
CONTINUOUS
 62
    7
 10
-102.07104500000003
 20
776.57328749999999
 11
-102.32104500000003
 21
776.84532149999995
  0
LINE
  8
_0-0_0
  6
CONTINUOUS
 62
    7
 10
-102.07104500000003
 20
776.64686549999999
 11
-102.32104500000003
 21
776.88624549999997
  0
LINE
  8
_0-0_0
  6
CONTINUOUS
 62
    7
 10
-102.07104500000003
 20
776.62223849999998
 11
-102.32104500000003
 21
776.88624549999997
  0
LINE
  8
_0-0_0
  6
CONTINUOUS
 62
    7
 10
-102.07104500000003
 20
776.64686549999999
 11
-102.32104500000003
 21
776.89994750000005
  0
LINE
  8
_0-0_0
  6
CONTINUOUS
 62
    7
 10
-102.07104500000003
 20
772.1530305
 11
-102.32104500000003
 21
771.89994750000005
  0
LINE
  8
_0-0_0
  6
CONTINUOUS
 62
    7
 10
-102.07104500000003
 20
772.17765750000001
 11
-102.32104500000003
 21
771.91365050000002
  0
LINE
  8
_0-0_0
  6
CONTINUOUS
 62
    7
 10
-102.07104500000003
 20
772.1530305
 11
-102.32104500000003
 21
771.91365050000002
  0
LINE
  8
_0-0_0
  6
CONTINUOUS
 62
    7
 10
-102.07104500000003
 20
772.2266085
 11
-102.32104500000003
 21
771.95457450000004
  0
LINE
  8
_0-0_0
  6
CONTINUOUS
 62
    7
 10
-102.07104500000003
 20
772.17765750000001
 11
-102.32104500000003
 21
771.95457450000004
  0
LINE
  8
_0-0_0
  6
CONTINUOUS
 62
    7
 10
-102.07104500000003
 20
772.29939249999995
 11
-102.32104500000003
 21
772.02229250000005
  0
LINE
  8
_0-0_0
  6
CONTINUOUS
 62
    7
 10
-102.07104500000003
 20
772.2266085
 11
-102.32104500000003
 21
772.02229250000005
  0
LINE
  8
_0-0_0
  6
CONTINUOUS
 62
    7
 10
-102.07104500000003
 20
772.39518750000002
 11
-102.32104500000003
 21
772.11607349999997
  0
LINE
  8
_0-0_0
  6
CONTINUOUS
 62
    7
 10
-102.07104500000003
 20
772.29939249999995
 11
-102.32104500000003
 21
772.11607349999997
  0
LINE
  8
_0-0_0
  6
CONTINUOUS
 62
    7
 10
-102.07104500000003
 20
772.39518750000002
 11
-102.20101899999997
 21
772.31132449999996
  0
LINE
  8
_0-0_0
  6
CONTINUOUS
 62
    7
 10
-102.07104500000003
 20
772.51292450000005
 11
-102.32104500000003
 21
772.23487850000004
  0
LINE
  8
_0-0_0
  6
CONTINUOUS
 62
    7
 10
-102.20101899999997
 20
772.31132449999996
 11
-102.32104500000003
 21
772.23487850000004
  0
LINE
  8
_0-0_0
  6
CONTINUOUS
 62
    7
 10
-102.07104500000003
 20
772.65135150000003
 11
-102.32104500000003
 21
772.37739550000003
  0
LINE
  8
_0-0_0
  6
CONTINUOUS
 62
    7
 10
-102.07104500000003
 20
772.51292450000005
 11
-102.32104500000003
 21
772.37739550000003
  0
LINE
  8
_0-0_0
  6
CONTINUOUS
 62
    7
 10
-102.07104500000003
 20
772.80894450000005
 11
-102.32104500000003
 21
772.54206850000003
  0
LINE
  8
_0-0_0
  6
CONTINUOUS
 62
    7
 10
-102.07104500000003
 20
772.65135150000003
 11
-102.32104500000003
 21
772.54206850000003
  0
LINE
  8
_0-0_0
  6
CONTINUOUS
 62
    7
 10
-102.07104500000003
 20
772.98396249999996
 11
-102.32104500000003
 21
772.72712650000005
  0
LINE
  8
_0-0_0
  6
CONTINUOUS
 62
    7
 10
-102.07104500000003
 20
772.80894450000005
 11
-102.32104500000003
 21
772.72712650000005
  0
LINE
  8
_0-0_0
  6
CONTINUOUS
 62
    7
 10
-102.07104500000003
 20
773.17451449999999
 11
-102.32104500000003
 21
772.9304965
  0
LINE
  8
_0-0_0
  6
CONTINUOUS
 62
    7
 10
-102.07104500000003
 20
772.98396249999996
 11
-102.32104500000003
 21
772.9304965
  0
LINE
  8
_0-0_0
  6
CONTINUOUS
 62
    7
 10
-102.07104500000003
 20
773.37846349999995
 11
-102.32104500000003
 21
773.14994750000005
  0
LINE
  8
_0-0_0
  6
CONTINUOUS
 62
    7
 10
-102.07104500000003
 20
773.17451449999999
 11
-102.32104500000003
 21
773.14994750000005
  0
LINE
  8
_0-0_0
  6
CONTINUOUS
 62
    7
 10
-102.07104500000003
 20
773.59361249999995
 11
-102.32104500000003
 21
773.38310249999995
  0
LINE
  8
_0-0_0
  6
CONTINUOUS
 62
    7
 10
-102.07104500000003
 20
773.37846349999995
 11
-102.32104500000003
 21
773.38310249999995
  0
LINE
  8
_0-0_0
  6
CONTINUOUS
 62
    7
 10
-102.07104500000003
 20
773.8176115
 11
-102.32104500000003
 21
773.62739550000003
  0
LINE
  8
_0-0_0
  6
CONTINUOUS
 62
    7
 10
-102.07104500000003
 20
773.59361249999995
 11
-102.32104500000003
 21
773.62739550000003
  0
LINE
  8
_0-0_0
  6
CONTINUOUS
 62
    7
 10
-102.07104500000003
 20
774.04795850000005
 11
-102.32104500000003
 21
773.88017249999996
  0
LINE
  8
_0-0_0
  6
CONTINUOUS
 62
    7
 10
-102.07104500000003
 20
773.8176115
 11
-102.32104500000003
 21
773.88017249999996
  0
LINE
  8
_0-0_0
  6
CONTINUOUS
 62
    7
 10
-102.07104500000003
 20
774.28218049999998
 11
-102.32104500000003
 21
774.13862549999999
  0
LINE
  8
_0-0_0
  6
CONTINUOUS
 62
    7
 10
-102.07104500000003
 20
774.04795850000005
 11
-102.32104500000003
 21
774.13862549999999
  0
LINE
  8
_0-0_0
  6
CONTINUOUS
 62
    7
 10
-102.07104500000003
 20
774.51771550000001
 11
-102.32104500000003
 21
774.39994750000005
  0
LINE
  8
_0-0_0
  6
CONTINUOUS
 62
    7
 10
-102.07104500000003
 20
774.28218049999998
 11
-102.32104500000003
 21
774.39994750000005
  0
LINE
  8
_0-0_0
  6
CONTINUOUS
 62
    7
 10
-102.07104500000003
 20
774.75190750000002
 11
-102.32104500000003
 21
774.6612705
  0
LINE
  8
_0-0_0
  6
CONTINUOUS
 62
    7
 10
-102.07104500000003
 20
774.51771550000001
 11
-102.32104500000003
 21
774.6612705
  0
LINE
  8
_0-0_0
  6
CONTINUOUS
 62
    7
 10
-102.07104500000003
 20
774.98228449999999
 11
-102.32104500000003
 21
774.91972350000003
  0
LINE
  8
_0-0_0
  6
CONTINUOUS
 62
    7
 10
-102.07104500000003
 20
774.75190750000002
 11
-102.32104500000003
 21
774.91972350000003
  0
LINE
  8
_0-0_0
  6
CONTINUOUS
 62
    7
 10
-102.07104500000003
 20
775.20628350000004
 11
-102.32104500000003
 21
775.17250049999996
  0
LINE
  8
_0-0_0
  6
CONTINUOUS
 62
    7
 10
-102.07104500000003
 20
774.98228449999999
 11
-102.32104500000003
 21
775.17250049999996
  0
LINE
  8
_0-0_0
  6
CONTINUOUS
 62
    7
 10
-102.07104500000003
 20
775.42143250000004
 11
-102.32104500000003
 21
775.41679350000004
  0
LINE
  8
_0-0_0
  6
CONTINUOUS
 62
    7
 10
-102.07104500000003
 20
775.20628350000004
 11
-102.32104500000003
 21
775.41679350000004
  0
LINE
  8
_0-0_0
  6
CONTINUOUS
 62
    7
 10
-87.071045000000026
 20
769.9922335
 11
-96.778869999999984
 21
769.9922335
  0
LINE
  8
_0-0_0
  6
CONTINUOUS
 62
    7
 10
-96.778869999999984
 20
769.9922335
 11
-96.833358999999973
 21
770.06217949999996
  0
LINE
  8
_0-0_0
  6
CONTINUOUS
 62
    7
 10
-96.833358999999973
 20
770.06217949999996
 11
-96.88445999999999
 21
770.13099650000004
  0
LINE
  8
_0-0_0
  6
CONTINUOUS
 62
    7
 10
-96.88445999999999
 20
770.13099650000004
 11
-96.932097999999996
 21
770.19850150000002
  0
LINE
  8
_0-0_0
  6
CONTINUOUS
 62
    7
 10
-96.932097999999996
 20
770.19850150000002
 11
-96.97659299999998
 21
770.2650605
  0
LINE
  8
_0-0_0
  6
CONTINUOUS
 62
    7
 10
-96.97659299999998
 20
770.2650605
 11
-97.031326000000035
 21
770.35261549999996
  0
LINE
  8
_0-0_0
  6
CONTINUOUS
 62
    7
 10
-97.031326000000035
 20
770.35261549999996
 11
-97.080826000000002
 21
770.43870549999997
  0
LINE
  8
_0-0_0
  6
CONTINUOUS
 62
    7
 10
-97.080826000000002
 20
770.43870549999997
 11
-97.125305000000026
 21
770.52354449999996
  0
LINE
  8
_0-0_0
  6
CONTINUOUS
 62
    7
 10
-97.125305000000026
 20
770.52354449999996
 11
-97.172272000000021
 21
770.62385549999999
  0
LINE
  8
_0-0_0
  6
CONTINUOUS
 62
    7
 10
-97.172272000000021
 20
770.62385549999999
 11
-97.212463000000071
 21
770.72279349999997
  0
LINE
  8
_0-0_0
  6
CONTINUOUS
 62
    7
 10
-97.212463000000071
 20
770.72279349999997
 11
-97.246139000000085
 21
770.82054149999999
  0
LINE
  8
_0-0_0
  6
CONTINUOUS
 62
    7
 10
-97.246139000000085
 20
770.82054149999999
 11
-97.273421999999982
 21
770.91734350000002
  0
LINE
  8
_0-0_0
  6
CONTINUOUS
 62
    7
 10
-97.273421999999982
 20
770.91734350000002
 11
-97.294464000000062
 21
771.01338150000004
  0
LINE
  8
_0-0_0
  6
CONTINUOUS
 62
    7
 10
-97.294464000000062
 20
771.01338150000004
 11
-97.310393999999974
 21
771.11726350000004
  0
LINE
  8
_0-0_0
  6
CONTINUOUS
 62
    7
 10
-97.310393999999974
 20
771.11726350000004
 11
-97.319153000000028
 21
771.22068750000005
  0
LINE
  8
_0-0_0
  6
CONTINUOUS
 62
    7
 10
-97.319153000000028
 20
771.22068750000005
 11
-97.320801000000074
 21
771.32392849999997
  0
LINE
  8
_0-0_0
  6
CONTINUOUS
 62
    7
 10
-97.320801000000074
 20
771.32392849999997
 11
-97.315323000000035
 21
771.42720050000003
  0
LINE
  8
_0-0_0
  6
CONTINUOUS
 62
    7
 10
-97.315323000000035
 20
771.42720050000003
 11
-97.302719000000025
 21
771.53080750000004
  0
LINE
  8
_0-0_0
  6
CONTINUOUS
 62
    7
 10
-97.302719000000025
 20
771.53080750000004
 11
-97.282898000000046
 21
771.63493349999999
  0
LINE
  8
_0-0_0
  6
CONTINUOUS
 62
    7
 10
-97.282898000000046
 20
771.63493349999999
 11
-97.255753000000027
 21
771.73991350000006
  0
LINE
  8
_0-0_0
  6
CONTINUOUS
 62
    7
 10
-97.255753000000027
 20
771.73991350000006
 11
-97.221099999999979
 21
771.84593150000001
  0
LINE
  8
_0-0_0
  6
CONTINUOUS
 62
    7
 10
-97.221099999999979
 20
771.84593150000001
 11
-97.178771999999981
 21
771.95332350000001
  0
LINE
  8
_0-0_0
  6
CONTINUOUS
 62
    7
 10
-97.178771999999981
 20
771.95332350000001
 11
-97.128448000000049
 21
772.06233250000002
  0
LINE
  8
_0-0_0
  6
CONTINUOUS
 62
    7
 10
-97.128448000000049
 20
772.06233250000002
 11
-97.082748000000038
 21
772.14997849999997
  0
LINE
  8
_0-0_0
  6
CONTINUOUS
 62
    7
 10
-87.071045000000026
 20
768.70762649999995
 11
-96.778869999999984
 21
768.70762649999995
  0
LINE
  8
_0-0_0
  6
CONTINUOUS
 62
    7
 10
-96.778869999999984
 20
768.70762649999995
 11
-96.873215000000073
 21
768.46101350000004
  0
LINE
  8
_0-0_0
  6
CONTINUOUS
 62
    7
 10
-96.873215000000073
 20
768.46101350000004
 11
-96.957153000000062
 21
768.22105350000004
  0
LINE
  8
_0-0_0
  6
CONTINUOUS
 62
    7
 10
-96.957153000000062
 20
768.22105350000004
 11
-97.031326000000035
 21
767.98692349999999
  0
LINE
  8
_0-0_0
  6
CONTINUOUS
 62
    7
 10
-97.031326000000035
 20
767.98692349999999
 11
-97.096190999999976
 21
767.75788850000004
  0
LINE
  8
_0-0_0
  6
CONTINUOUS
 62
    7
 10
-97.096190999999976
 20
767.75788850000004
 11
-97.152237000000014
 21
767.53321849999998
  0
LINE
  8
_0-0_0
  6
CONTINUOUS
 62
    7
 10
-97.152237000000014
 20
767.53321849999998
 11
-97.199798999999985
 21
767.31224050000003
  0
LINE
  8
_0-0_0
  6
CONTINUOUS
 62
    7
 10
-97.199798999999985
 20
767.31224050000003
 11
-97.239211999999952
 21
767.0943145
  0
LINE
  8
_0-0_0
  6
CONTINUOUS
 62
    7
 10
-97.239211999999952
 20
767.0943145
 11
-97.270706000000018
 21
766.87886049999997
  0
LINE
  8
_0-0_0
  6
CONTINUOUS
 62
    7
 10
-97.270706000000018
 20
766.87886049999997
 11
-97.294464000000062
 21
766.66532849999999
  0
LINE
  8
_0-0_0
  6
CONTINUOUS
 62
    7
 10
-97.294464000000062
 20
766.66532849999999
 11
-97.310393999999974
 21
766.45762649999995
  0
LINE
  8
_0-0_0
  6
CONTINUOUS
 62
    7
 10
-97.310393999999974
 20
766.45762649999995
 11
-97.319153000000028
 21
766.25077850000002
  0
LINE
  8
_0-0_0
  6
CONTINUOUS
 62
    7
 10
-97.319153000000028
 20
766.25077850000002
 11
-97.320801000000074
 21
766.04429649999997
  0
LINE
  8
_0-0_0
  6
CONTINUOUS
 62
    7
 10
-97.320801000000074
 20
766.04429649999997
 11
-97.315323000000035
 21
765.83772250000004
  0
LINE
  8
_0-0_0
  6
CONTINUOUS
 62
    7
 10
-97.315323000000035
 20
765.83772250000004
 11
-97.302719000000025
 21
765.63053850000006
  0
LINE
  8
_0-0_0
  6
CONTINUOUS
 62
    7
 10
-97.302719000000025
 20
765.63053850000006
 11
-97.282898000000046
 21
765.4222565
  0
LINE
  8
_0-0_0
  6
CONTINUOUS
 62
    7
 10
-97.282898000000046
 20
765.4222565
 11
-97.255753000000027
 21
765.21232550000002
  0
LINE
  8
_0-0_0
  6
CONTINUOUS
 62
    7
 10
-97.255753000000027
 20
765.21232550000002
 11
-97.221099999999979
 21
765.00025949999997
  0
LINE
  8
_0-0_0
  6
CONTINUOUS
 62
    7
 10
-97.221099999999979
 20
765.00025949999997
 11
-97.178771999999981
 21
764.78550749999999
  0
LINE
  8
_0-0_0
  6
CONTINUOUS
 62
    7
 10
-97.178771999999981
 20
764.78550749999999
 11
-97.128448000000049
 21
764.56748949999997
  0
LINE
  8
_0-0_0
  6
CONTINUOUS
 62
    7
 10
-97.128448000000049
 20
764.56748949999997
 11
-97.074188000000049
 21
764.36122150000006
  0
LINE
  8
_0-0_0
  6
CONTINUOUS
 62
    7
 10
-97.074188000000049
 20
764.36122150000006
 11
-97.012481999999977
 21
764.15110749999997
  0
LINE
  8
_0-0_0
  6
CONTINUOUS
 62
    7
 10
-97.012481999999977
 20
764.15110749999997
 11
-96.942962999999963
 21
763.93663049999998
  0
LINE
  8
_0-0_0
  6
CONTINUOUS
 62
    7
 10
-96.942962999999963
 20
763.93663049999998
 11
-96.865265000000022
 21
763.71723950000001
  0
LINE
  8
_0-0_0
  6
CONTINUOUS
 62
    7
 10
-96.865265000000022
 20
763.71723950000001
 11
-96.778869999999984
 21
763.4922335
  0
LINE
  8
_0-0_0
  6
CONTINUOUS
 62
    7
 10
-87.071045000000026
 20
763.4922335
 11
-96.778869999999984
 21
763.4922335
  0
ARC
  8
_0-0_0
  6
CONTINUOUS
 62
    7
 10
-91.907318000000032
 20
769.34992950000003
 40
4.9136889999999998
 50
172.48898299999999
 51
187.51101699999998
  0
LINE
  8
_0-0_0
  6
CONTINUOUS
 62
    7
 10
-87.071045000000026
 20
762.20762649999995
 11
-96.778869999999984
 21
762.20762649999995
  0
LINE
  8
_0-0_0
  6
CONTINUOUS
 62
    7
 10
-96.778869999999984
 20
759.59992950000003
 11
-96.833358999999973
 21
759.66987549999999
  0
LINE
  8
_0-0_0
  6
CONTINUOUS
 62
    7
 10
-96.833358999999973
 20
759.66987549999999
 11
-96.88445999999999
 21
759.73869349999995
  0
LINE
  8
_0-0_0
  6
CONTINUOUS
 62
    7
 10
-96.88445999999999
 20
759.73869349999995
 11
-96.932097999999996
 21
759.80619750000005
  0
LINE
  8
_0-0_0
  6
CONTINUOUS
 62
    7
 10
-96.932097999999996
 20
759.80619750000005
 11
-96.97659299999998
 21
759.87275650000004
  0
LINE
  8
_0-0_0
  6
CONTINUOUS
 62
    7
 10
-96.97659299999998
 20
759.87275650000004
 11
-97.031326000000035
 21
759.96031149999999
  0
LINE
  8
_0-0_0
  6
CONTINUOUS
 62
    7
 10
-97.031326000000035
 20
759.96031149999999
 11
-97.080826000000002
 21
760.0464015
  0
LINE
  8
_0-0_0
  6
CONTINUOUS
 62
    7
 10
-97.080826000000002
 20
760.0464015
 11
-97.125305000000026
 21
760.13124049999999
  0
LINE
  8
_0-0_0
  6
CONTINUOUS
 62
    7
 10
-97.125305000000026
 20
760.13124049999999
 11
-97.172272000000021
 21
760.23155150000002
  0
LINE
  8
_0-0_0
  6
CONTINUOUS
 62
    7
 10
-97.172272000000021
 20
760.23155150000002
 11
-97.212463000000071
 21
760.3304895
  0
LINE
  8
_0-0_0
  6
CONTINUOUS
 62
    7
 10
-97.212463000000071
 20
760.3304895
 11
-97.246139000000085
 21
760.42823750000002
  0
LINE
  8
_0-0_0
  6
CONTINUOUS
 62
    7
 10
-97.246139000000085
 20
760.42823750000002
 11
-97.273421999999982
 21
760.52503950000005
  0
LINE
  8
_0-0_0
  6
CONTINUOUS
 62
    7
 10
-97.273421999999982
 20
760.52503950000005
 11
-97.294464000000062
 21
760.62107849999995
  0
LINE
  8
_0-0_0
  6
CONTINUOUS
 62
    7
 10
-97.294464000000062
 20
760.62107849999995
 11
-97.310393999999974
 21
760.72496049999995
  0
LINE
  8
_0-0_0
  6
CONTINUOUS
 62
    7
 10
-97.310393999999974
 20
760.72496049999995
 11
-97.319153000000028
 21
760.82838449999997
  0
LINE
  8
_0-0_0
  6
CONTINUOUS
 62
    7
 10
-97.319153000000028
 20
760.82838449999997
 11
-97.320801000000074
 21
760.93159449999996
  0
LINE
  8
_0-0_0
  6
CONTINUOUS
 62
    7
 10
-97.320801000000074
 20
760.93159449999996
 11
-97.315323000000035
 21
761.03489650000006
  0
LINE
  8
_0-0_0
  6
CONTINUOUS
 62
    7
 10
-97.315323000000035
 20
761.03489650000006
 11
-97.302719000000025
 21
761.13850349999996
  0
LINE
  8
_0-0_0
  6
CONTINUOUS
 62
    7
 10
-97.302719000000025
 20
761.13850349999996
 11
-97.282898000000046
 21
761.24262950000002
  0
LINE
  8
_0-0_0
  6
CONTINUOUS
 62
    7
 10
-97.282898000000046
 20
761.24262950000002
 11
-97.255753000000027
 21
761.34761049999997
  0
LINE
  8
_0-0_0
  6
CONTINUOUS
 62
    7
 10
-97.255753000000027
 20
761.34761049999997
 11
-97.221099999999979
 21
761.45362850000004
  0
LINE
  8
_0-0_0
  6
CONTINUOUS
 62
    7
 10
-97.221099999999979
 20
761.45362850000004
 11
-97.178771999999981
 21
761.56101950000004
  0
LINE
  8
_0-0_0
  6
CONTINUOUS
 62
    7
 10
-97.178771999999981
 20
761.56101950000004
 11
-97.128448000000049
 21
761.66999850000002
  0
LINE
  8
_0-0_0
  6
CONTINUOUS
 62
    7
 10
-97.128448000000049
 20
761.66999850000002
 11
-97.074188000000049
 21
761.77314750000005
  0
LINE
  8
_0-0_0
  6
CONTINUOUS
 62
    7
 10
-97.074188000000049
 20
761.77314750000005
 11
-97.012481999999977
 21
761.8782195
  0
LINE
  8
_0-0_0
  6
CONTINUOUS
 62
    7
 10
-97.012481999999977
 20
761.8782195
 11
-96.942962999999963
 21
761.98542750000001
  0
LINE
  8
_0-0_0
  6
CONTINUOUS
 62
    7
 10
-96.942962999999963
 20
761.98542750000001
 11
-96.865265000000022
 21
762.09513849999996
  0
LINE
  8
_0-0_0
  6
CONTINUOUS
 62
    7
 10
-96.865265000000022
 20
762.09513849999996
 11
-96.778869999999984
 21
762.20762649999995
  0
LINE
  8
_0-0_0
  6
CONTINUOUS
 62
    7
 10
-87.071045000000026
 20
759.59992950000003
 11
-96.778869999999984
 21
759.59992950000003
  0
ARC
  8
_0-0_0
  6
CONTINUOUS
 62
    7
 10
-91.897155999999995
 20
762.84904449999999
 40
4.9238749999999998
 50
172.49424200000001
 51
181.535968
  0
ARC
  8
_0-0_0
  6
CONTINUOUS
 62
    7
 10
-91.859131000000048
 20
762.85401950000005
 40
4.9620009999999999
 50
181.58130700000004
 51
187.48478900000003
  0
LINE
  8
_0-0_0
  6
CONTINUOUS
 62
    7
 10
-96.821045000000026
 20
759.59992950000003
 11
-96.778869999999984
 21
759.59992950000003
  0
LINE
  8
_0-0_0
  6
CONTINUOUS
 62
    7
 10
-102.07104500000003
 20
759.0253755
 11
-102.32104500000003
 21
759.04994150000005
  0
LINE
  8
_0-0_0
  6
CONTINUOUS
 62
    7
 10
-102.07104500000003
 20
758.82142650000003
 11
-102.32104500000003
 21
759.04994150000005
  0
LINE
  8
_0-0_0
  6
CONTINUOUS
 62
    7
 10
-102.07104500000003
 20
759.21592650000002
 11
-102.32104500000003
 21
759.26939349999998
  0
LINE
  8
_0-0_0
  6
CONTINUOUS
 62
    7
 10
-102.07104500000003
 20
759.0253755
 11
-102.32104500000003
 21
759.26939349999998
  0
LINE
  8
_0-0_0
  6
CONTINUOUS
 62
    7
 10
-102.07104500000003
 20
759.39094550000004
 11
-102.32104500000003
 21
759.47276250000004
  0
LINE
  8
_0-0_0
  6
CONTINUOUS
 62
    7
 10
-102.07104500000003
 20
759.21592650000002
 11
-102.32104500000003
 21
759.47276250000004
  0
LINE
  8
_0-0_0
  6
CONTINUOUS
 62
    7
 10
-102.07104500000003
 20
759.54850750000003
 11
-102.32104500000003
 21
759.65779150000003
  0
LINE
  8
_0-0_0
  6
CONTINUOUS
 62
    7
 10
-102.07104500000003
 20
759.39094550000004
 11
-102.32104500000003
 21
759.65779150000003
  0
LINE
  8
_0-0_0
  6
CONTINUOUS
 62
    7
 10
-102.07104500000003
 20
759.68696550000004
 11
-102.32104500000003
 21
759.82249449999995
  0
LINE
  8
_0-0_0
  6
CONTINUOUS
 62
    7
 10
-102.07104500000003
 20
759.54850750000003
 11
-102.32104500000003
 21
759.82249449999995
  0
LINE
  8
_0-0_0
  6
CONTINUOUS
 62
    7
 10
-102.07104500000003
 20
759.80470249999996
 11
-102.32104500000003
 21
759.96501150000006
  0
LINE
  8
_0-0_0
  6
CONTINUOUS
 62
    7
 10
-102.07104500000003
 20
759.68696550000004
 11
-102.32104500000003
 21
759.96501150000006
  0
LINE
  8
_0-0_0
  6
CONTINUOUS
 62
    7
 10
-102.07104500000003
 20
759.90049750000003
 11
-102.32104500000003
 21
760.08381650000001
  0
LINE
  8
_0-0_0
  6
CONTINUOUS
 62
    7
 10
-102.07104500000003
 20
759.80470249999996
 11
-102.32104500000003
 21
760.08381650000001
  0
LINE
  8
_0-0_0
  6
CONTINUOUS
 62
    7
 10
-102.07104500000003
 20
759.97328149999998
 11
-102.32104500000003
 21
760.17759650000005
  0
LINE
  8
_0-0_0
  6
CONTINUOUS
 62
    7
 10
-102.07104500000003
 20
759.90049750000003
 11
-102.32104500000003
 21
760.17759650000005
  0
LINE
  8
_0-0_0
  6
CONTINUOUS
 62
    7
 10
-102.07104500000003
 20
760.02223149999998
 11
-102.32104500000003
 21
760.24531549999995
  0
LINE
  8
_0-0_0
  6
CONTINUOUS
 62
    7
 10
-102.07104500000003
 20
759.97328149999998
 11
-102.32104500000003
 21
760.24531549999995
  0
LINE
  8
_0-0_0
  6
CONTINUOUS
 62
    7
 10
-102.07104500000003
 20
760.04685949999998
 11
-102.32104500000003
 21
760.28623949999997
  0
LINE
  8
_0-0_0
  6
CONTINUOUS
 62
    7
 10
-102.07104500000003
 20
760.02223149999998
 11
-102.32104500000003
 21
760.28623949999997
  0
LINE
  8
_0-0_0
  6
CONTINUOUS
 62
    7
 10
-102.07104500000003
 20
760.04685949999998
 11
-102.32104500000003
 21
760.29994150000005
  0
LINE
  8
_0-0_0
  6
CONTINUOUS
 62
    7
 10
-102.07104500000003
 20
755.55302449999999
 11
-102.32104500000003
 21
755.29994150000005
  0
LINE
  8
_0-0_0
  6
CONTINUOUS
 62
    7
 10
-102.07104500000003
 20
755.5776515
 11
-102.32104500000003
 21
755.31364450000001
  0
LINE
  8
_0-0_0
  6
CONTINUOUS
 62
    7
 10
-102.07104500000003
 20
755.55302449999999
 11
-102.32104500000003
 21
755.31364450000001
  0
LINE
  8
_0-0_0
  6
CONTINUOUS
 62
    7
 10
-102.07104500000003
 20
755.62660249999999
 11
-102.32104500000003
 21
755.35456850000003
  0
LINE
  8
_0-0_0
  6
CONTINUOUS
 62
    7
 10
-102.07104500000003
 20
755.5776515
 11
-102.32104500000003
 21
755.35456850000003
  0
LINE
  8
_0-0_0
  6
CONTINUOUS
 62
    7
 10
-102.07104500000003
 20
755.69938650000006
 11
-102.32104500000003
 21
755.42228650000004
  0
LINE
  8
_0-0_0
  6
CONTINUOUS
 62
    7
 10
-102.07104500000003
 20
755.62660249999999
 11
-102.32104500000003
 21
755.42228650000004
  0
LINE
  8
_0-0_0
  6
CONTINUOUS
 62
    7
 10
-102.07104500000003
 20
755.79518150000001
 11
-102.32104500000003
 21
755.51606749999996
  0
LINE
  8
_0-0_0
  6
CONTINUOUS
 62
    7
 10
-102.07104500000003
 20
755.69938650000006
 11
-102.32104500000003
 21
755.51606749999996
  0
LINE
  8
_0-0_0
  6
CONTINUOUS
 62
    7
 10
-102.07104500000003
 20
755.79518150000001
 11
-102.20101899999997
 21
755.71131849999995
  0
LINE
  8
_0-0_0
  6
CONTINUOUS
 62
    7
 10
-102.07104500000003
 20
755.91291750000005
 11
-102.32104500000003
 21
755.63487250000003
  0
LINE
  8
_0-0_0
  6
CONTINUOUS
 62
    7
 10
-102.20101899999997
 20
755.71131849999995
 11
-102.32104500000003
 21
755.63487250000003
  0
LINE
  8
_0-0_0
  6
CONTINUOUS
 62
    7
 10
-102.07104500000003
 20
756.05137649999995
 11
-102.32104500000003
 21
755.77738950000003
  0
LINE
  8
_0-0_0
  6
CONTINUOUS
 62
    7
 10
-102.07104500000003
 20
755.91291750000005
 11
-102.32104500000003
 21
755.77738950000003
  0
LINE
  8
_0-0_0
  6
CONTINUOUS
 62
    7
 10
-102.07104500000003
 20
756.20896849999997
 11
-102.32104500000003
 21
755.94209250000006
  0
LINE
  8
_0-0_0
  6
CONTINUOUS
 62
    7
 10
-102.07104500000003
 20
756.05137649999995
 11
-102.32104500000003
 21
755.94209250000006
  0
LINE
  8
_0-0_0
  6
CONTINUOUS
 62
    7
 10
-102.07104500000003
 20
756.38398749999999
 11
-102.32104500000003
 21
756.12712050000005
  0
LINE
  8
_0-0_0
  6
CONTINUOUS
 62
    7
 10
-102.07104500000003
 20
756.20896849999997
 11
-102.32104500000003
 21
756.12712050000005
  0
LINE
  8
_0-0_0
  6
CONTINUOUS
 62
    7
 10
-102.07104500000003
 20
756.57450849999998
 11
-102.32104500000003
 21
756.3304895
  0
LINE
  8
_0-0_0
  6
CONTINUOUS
 62
    7
 10
-102.07104500000003
 20
756.38398749999999
 11
-102.32104500000003
 21
756.3304895
  0
LINE
  8
_0-0_0
  6
CONTINUOUS
 62
    7
 10
-102.07104500000003
 20
756.77845750000006
 11
-102.32104500000003
 21
756.54994150000005
  0
LINE
  8
_0-0_0
  6
CONTINUOUS
 62
    7
 10
-102.07104500000003
 20
756.57450849999998
 11
-102.32104500000003
 21
756.54994150000005
  0
LINE
  8
_0-0_0
  6
CONTINUOUS
 62
    7
 10
-102.07104500000003
 20
756.99360650000006
 11
-102.32104500000003
 21
756.78309650000006
  0
LINE
  8
_0-0_0
  6
CONTINUOUS
 62
    7
 10
-102.07104500000003
 20
756.77845750000006
 11
-102.32104500000003
 21
756.78309650000006
  0
LINE
  8
_0-0_0
  6
CONTINUOUS
 62
    7
 10
-102.07104500000003
 20
757.21760549999999
 11
-102.32104500000003
 21
757.02738950000003
  0
LINE
  8
_0-0_0
  6
CONTINUOUS
 62
    7
 10
-102.07104500000003
 20
756.99360650000006
 11
-102.32104500000003
 21
757.02738950000003
  0
LINE
  8
_0-0_0
  6
CONTINUOUS
 62
    7
 10
-102.07104500000003
 20
757.44795250000004
 11
-102.32104500000003
 21
757.28016649999995
  0
LINE
  8
_0-0_0
  6
CONTINUOUS
 62
    7
 10
-102.07104500000003
 20
757.21760549999999
 11
-102.32104500000003
 21
757.28016649999995
  0
LINE
  8
_0-0_0
  6
CONTINUOUS
 62
    7
 10
-102.07104500000003
 20
757.68217449999997
 11
-102.32104500000003
 21
757.53861949999998
  0
LINE
  8
_0-0_0
  6
CONTINUOUS
 62
    7
 10
-102.07104500000003
 20
757.44795250000004
 11
-102.32104500000003
 21
757.53861949999998
  0
LINE
  8
_0-0_0
  6
CONTINUOUS
 62
    7
 10
-102.07104500000003
 20
757.9177095
 11
-102.32104500000003
 21
757.79994150000005
  0
LINE
  8
_0-0_0
  6
CONTINUOUS
 62
    7
 10
-102.07104500000003
 20
757.68217449999997
 11
-102.32104500000003
 21
757.79994150000005
  0
LINE
  8
_0-0_0
  6
CONTINUOUS
 62
    7
 10
-102.07104500000003
 20
758.15193150000005
 11
-102.32104500000003
 21
758.0612635
  0
LINE
  8
_0-0_0
  6
CONTINUOUS
 62
    7
 10
-102.07104500000003
 20
757.9177095
 11
-102.32104500000003
 21
758.0612635
  0
LINE
  8
_0-0_0
  6
CONTINUOUS
 62
    7
 10
-102.07104500000003
 20
758.38227849999998
 11
-102.32104500000003
 21
758.31971750000002
  0
LINE
  8
_0-0_0
  6
CONTINUOUS
 62
    7
 10
-102.07104500000003
 20
758.15193150000005
 11
-102.32104500000003
 21
758.31971750000002
  0
LINE
  8
_0-0_0
  6
CONTINUOUS
 62
    7
 10
-102.07104500000003
 20
758.60627750000003
 11
-102.32104500000003
 21
758.57249449999995
  0
LINE
  8
_0-0_0
  6
CONTINUOUS
 62
    7
 10
-102.07104500000003
 20
758.38227849999998
 11
-102.32104500000003
 21
758.57249449999995
  0
LINE
  8
_0-0_0
  6
CONTINUOUS
 62
    7
 10
-102.07104500000003
 20
758.82142650000003
 11
-102.32104500000003
 21
758.81678750000003
  0
LINE
  8
_0-0_0
  6
CONTINUOUS
 62
    7
 10
-102.07104500000003
 20
758.60627750000003
 11
-102.32104500000003
 21
758.81678750000003
  0
LINE
  8
_0-0_0
  6
CONTINUOUS
 62
    7
 10
-111.82104500000003
 20
775.6253815
 11
-111.57104500000003
 21
775.64994750000005
  0
LINE
  8
_0-0_0
  6
CONTINUOUS
 62
    7
 10
-111.57104500000003
 20
775.64994750000005
 11
-102.32104500000003
 21
775.64994750000005
  0
LINE
  8
_0-0_0
  6
CONTINUOUS
 62
    7
 10
-111.82104500000003
 20
775.42143250000004
 11
-111.57104500000003
 21
775.64994750000005
  0
LINE
  8
_0-0_0
  6
CONTINUOUS
 62
    7
 10
-111.82104500000003
 20
775.42143250000004
 11
-102.07104500000003
 21
775.42143250000004
  0
LINE
  8
_0-0_0
  6
CONTINUOUS
 62
    7
 10
-111.82104500000003
 20
775.81590249999999
 11
-111.57104500000003
 21
775.86939949999999
  0
LINE
  8
_0-0_0
  6
CONTINUOUS
 62
    7
 10
-111.57104500000003
 20
775.86939949999999
 11
-102.32104500000003
 21
775.86939949999999
  0
LINE
  8
_0-0_0
  6
CONTINUOUS
 62
    7
 10
-111.82104500000003
 20
775.6253815
 11
-111.57104500000003
 21
775.86939949999999
  0
LINE
  8
_0-0_0
  6
CONTINUOUS
 62
    7
 10
-111.82104500000003
 20
775.99092050000002
 11
-111.57104500000003
 21
776.07276950000005
  0
LINE
  8
_0-0_0
  6
CONTINUOUS
 62
    7
 10
-111.57104500000003
 20
776.07276950000005
 11
-102.32104500000003
 21
776.07276950000005
  0
LINE
  8
_0-0_0
  6
CONTINUOUS
 62
    7
 10
-111.82104500000003
 20
775.81590249999999
 11
-111.57104500000003
 21
776.07276950000005
  0
LINE
  8
_0-0_0
  6
CONTINUOUS
 62
    7
 10
-111.82104500000003
 20
776.14851350000004
 11
-111.57104500000003
 21
776.25779750000004
  0
LINE
  8
_0-0_0
  6
CONTINUOUS
 62
    7
 10
-111.57104500000003
 20
776.25779750000004
 11
-102.32104500000003
 21
776.25779750000004
  0
LINE
  8
_0-0_0
  6
CONTINUOUS
 62
    7
 10
-111.82104500000003
 20
775.99092050000002
 11
-111.57104500000003
 21
776.25779750000004
  0
LINE
  8
_0-0_0
  6
CONTINUOUS
 62
    7
 10
-111.82104500000003
 20
776.28694150000001
 11
-111.57104500000003
 21
776.42250049999996
  0
LINE
  8
_0-0_0
  6
CONTINUOUS
 62
    7
 10
-111.57104500000003
 20
776.42250049999996
 11
-102.32104500000003
 21
776.42250049999996
  0
LINE
  8
_0-0_0
  6
CONTINUOUS
 62
    7
 10
-111.82104500000003
 20
776.14851350000004
 11
-111.57104500000003
 21
776.42250049999996
  0
LINE
  8
_0-0_0
  6
CONTINUOUS
 62
    7
 10
-111.82104500000003
 20
776.40470849999997
 11
-111.57104500000003
 21
776.56501749999995
  0
LINE
  8
_0-0_0
  6
CONTINUOUS
 62
    7
 10
-111.57104500000003
 20
776.56501749999995
 11
-102.32104500000003
 21
776.56501749999995
  0
LINE
  8
_0-0_0
  6
CONTINUOUS
 62
    7
 10
-111.82104500000003
 20
776.28694150000001
 11
-111.57104500000003
 21
776.56501749999995
  0
LINE
  8
_0-0_0
  6
CONTINUOUS
 62
    7
 10
-111.82104500000003
 20
776.50050350000004
 11
-111.57104500000003
 21
776.68379149999998
  0
LINE
  8
_0-0_0
  6
CONTINUOUS
 62
    7
 10
-111.57104500000003
 20
776.68379149999998
 11
-102.32104500000003
 21
776.68379149999998
  0
LINE
  8
_0-0_0
  6
CONTINUOUS
 62
    7
 10
-111.82104500000003
 20
776.40470849999997
 11
-111.57104500000003
 21
776.68379149999998
  0
LINE
  8
_0-0_0
  6
CONTINUOUS
 62
    7
 10
-111.82104500000003
 20
776.57328749999999
 11
-111.57104500000003
 21
776.77757250000002
  0
LINE
  8
_0-0_0
  6
CONTINUOUS
 62
    7
 10
-111.57104500000003
 20
776.77757250000002
 11
-102.32104500000003
 21
776.77757250000002
  0
LINE
  8
_0-0_0
  6
CONTINUOUS
 62
    7
 10
-111.82104500000003
 20
776.50050350000004
 11
-111.57104500000003
 21
776.77757250000002
  0
LINE
  8
_0-0_0
  6
CONTINUOUS
 62
    7
 10
-111.82104500000003
 20
776.62223849999998
 11
-111.57104500000003
 21
776.84532149999995
  0
LINE
  8
_0-0_0
  6
CONTINUOUS
 62
    7
 10
-111.57104500000003
 20
776.84532149999995
 11
-102.32104500000003
 21
776.84532149999995
  0
LINE
  8
_0-0_0
  6
CONTINUOUS
 62
    7
 10
-111.82104500000003
 20
776.57328749999999
 11
-111.57104500000003
 21
776.84532149999995
  0
LINE
  8
_0-0_0
  6
CONTINUOUS
 62
    7
 10
-111.82104500000003
 20
776.64686549999999
 11
-111.57104500000003
 21
776.88624549999997
  0
LINE
  8
_0-0_0
  6
CONTINUOUS
 62
    7
 10
-111.57104500000003
 20
776.88624549999997
 11
-102.32104500000003
 21
776.88624549999997
  0
LINE
  8
_0-0_0
  6
CONTINUOUS
 62
    7
 10
-111.82104500000003
 20
776.62223849999998
 11
-111.57104500000003
 21
776.88624549999997
  0
LINE
  8
_0-0_0
  6
CONTINUOUS
 62
    7
 10
-111.57104500000003
 20
776.89994750000005
 11
-102.32104500000003
 21
776.89994750000005
  0
LINE
  8
_0-0_0
  6
CONTINUOUS
 62
    7
 10
-111.82104500000003
 20
776.64686549999999
 11
-111.57104500000003
 21
776.89994750000005
  0
LINE
  8
_0-0_0
  6
CONTINUOUS
 62
    7
 10
-111.82104500000003
 20
772.1530305
 11
-111.57104500000003
 21
771.89994750000005
  0
LINE
  8
_0-0_0
  6
CONTINUOUS
 62
    7
 10
-111.57104500000003
 20
771.89994750000005
 11
-102.32104500000003
 21
771.89994750000005
  0
LINE
  8
_0-0_0
  6
CONTINUOUS
 62
    7
 10
-111.82104500000003
 20
772.17765750000001
 11
-111.57104500000003
 21
771.91365050000002
  0
LINE
  8
_0-0_0
  6
CONTINUOUS
 62
    7
 10
-111.57104500000003
 20
771.91365050000002
 11
-102.32104500000003
 21
771.91365050000002
  0
LINE
  8
_0-0_0
  6
CONTINUOUS
 62
    7
 10
-111.82104500000003
 20
772.1530305
 11
-111.57104500000003
 21
771.91365050000002
  0
LINE
  8
_0-0_0
  6
CONTINUOUS
 62
    7
 10
-111.82104500000003
 20
772.2266085
 11
-111.57104500000003
 21
771.95457450000004
  0
LINE
  8
_0-0_0
  6
CONTINUOUS
 62
    7
 10
-111.57104500000003
 20
771.95457450000004
 11
-102.32104500000003
 21
771.95457450000004
  0
LINE
  8
_0-0_0
  6
CONTINUOUS
 62
    7
 10
-111.82104500000003
 20
772.17765750000001
 11
-111.57104500000003
 21
771.95457450000004
  0
LINE
  8
_0-0_0
  6
CONTINUOUS
 62
    7
 10
-111.82104500000003
 20
772.29939249999995
 11
-111.57104500000003
 21
772.02229250000005
  0
LINE
  8
_0-0_0
  6
CONTINUOUS
 62
    7
 10
-111.57104500000003
 20
772.02229250000005
 11
-102.32104500000003
 21
772.02229250000005
  0
LINE
  8
_0-0_0
  6
CONTINUOUS
 62
    7
 10
-111.82104500000003
 20
772.2266085
 11
-111.57104500000003
 21
772.02229250000005
  0
LINE
  8
_0-0_0
  6
CONTINUOUS
 62
    7
 10
-111.82104500000003
 20
772.39518750000002
 11
-111.57104500000003
 21
772.11607349999997
  0
LINE
  8
_0-0_0
  6
CONTINUOUS
 62
    7
 10
-111.57104500000003
 20
772.11607349999997
 11
-102.32104500000003
 21
772.11607349999997
  0
LINE
  8
_0-0_0
  6
CONTINUOUS
 62
    7
 10
-111.82104500000003
 20
772.29939249999995
 11
-111.57104500000003
 21
772.11607349999997
  0
LINE
  8
_0-0_0
  6
CONTINUOUS
 62
    7
 10
-111.57104500000003
 20
772.23487850000004
 11
-102.32104500000003
 21
772.23487850000004
  0
LINE
  8
_0-0_0
  6
CONTINUOUS
 62
    7
 10
-111.69108600000004
 20
772.31132449999996
 11
-111.57104500000003
 21
772.23487850000004
  0
LINE
  8
_0-0_0
  6
CONTINUOUS
 62
    7
 10
-111.82104500000003
 20
772.39518750000002
 11
-111.69108600000004
 21
772.31132449999996
  0
LINE
  8
_0-0_0
  6
CONTINUOUS
 62
    7
 10
-111.82104500000003
 20
772.51292450000005
 11
-111.57104500000003
 21
772.23487850000004
  0
LINE
  8
_0-0_0
  6
CONTINUOUS
 62
    7
 10
-111.82104500000003
 20
772.65135150000003
 11
-111.57104500000003
 21
772.37739550000003
  0
LINE
  8
_0-0_0
  6
CONTINUOUS
 62
    7
 10
-111.57104500000003
 20
772.37739550000003
 11
-102.32104500000003
 21
772.37739550000003
  0
LINE
  8
_0-0_0
  6
CONTINUOUS
 62
    7
 10
-111.82104500000003
 20
772.51292450000005
 11
-111.57104500000003
 21
772.37739550000003
  0
LINE
  8
_0-0_0
  6
CONTINUOUS
 62
    7
 10
-111.82104500000003
 20
772.80894450000005
 11
-111.57104500000003
 21
772.54206850000003
  0
LINE
  8
_0-0_0
  6
CONTINUOUS
 62
    7
 10
-111.57104500000003
 20
772.54206850000003
 11
-102.32104500000003
 21
772.54206850000003
  0
LINE
  8
_0-0_0
  6
CONTINUOUS
 62
    7
 10
-111.82104500000003
 20
772.65135150000003
 11
-111.57104500000003
 21
772.54206850000003
  0
LINE
  8
_0-0_0
  6
CONTINUOUS
 62
    7
 10
-111.82104500000003
 20
772.98396249999996
 11
-111.57104500000003
 21
772.72712650000005
  0
LINE
  8
_0-0_0
  6
CONTINUOUS
 62
    7
 10
-111.57104500000003
 20
772.72712650000005
 11
-102.32104500000003
 21
772.72712650000005
  0
LINE
  8
_0-0_0
  6
CONTINUOUS
 62
    7
 10
-111.82104500000003
 20
772.80894450000005
 11
-111.57104500000003
 21
772.72712650000005
  0
LINE
  8
_0-0_0
  6
CONTINUOUS
 62
    7
 10
-111.82104500000003
 20
773.17451449999999
 11
-111.57104500000003
 21
772.9304965
  0
LINE
  8
_0-0_0
  6
CONTINUOUS
 62
    7
 10
-111.57104500000003
 20
772.9304965
 11
-102.32104500000003
 21
772.9304965
  0
LINE
  8
_0-0_0
  6
CONTINUOUS
 62
    7
 10
-111.82104500000003
 20
772.98396249999996
 11
-111.57104500000003
 21
772.9304965
  0
LINE
  8
_0-0_0
  6
CONTINUOUS
 62
    7
 10
-111.82104500000003
 20
773.37846349999995
 11
-111.57104500000003
 21
773.14994750000005
  0
LINE
  8
_0-0_0
  6
CONTINUOUS
 62
    7
 10
-111.57104500000003
 20
773.14994750000005
 11
-102.32104500000003
 21
773.14994750000005
  0
LINE
  8
_0-0_0
  6
CONTINUOUS
 62
    7
 10
-111.82104500000003
 20
773.37846349999995
 11
-102.07104500000003
 21
773.37846349999995
  0
LINE
  8
_0-0_0
  6
CONTINUOUS
 62
    7
 10
-111.82104500000003
 20
773.17451449999999
 11
-111.57104500000003
 21
773.14994750000005
  0
LINE
  8
_0-0_0
  6
CONTINUOUS
 62
    7
 10
-111.82104500000003
 20
773.59361249999995
 11
-111.57104500000003
 21
773.38310249999995
  0
LINE
  8
_0-0_0
  6
CONTINUOUS
 62
    7
 10
-111.57104500000003
 20
773.38310249999995
 11
-102.32104500000003
 21
773.38310249999995
  0
LINE
  8
_0-0_0
  6
CONTINUOUS
 62
    7
 10
-111.82104500000003
 20
773.59361249999995
 11
-102.07104500000003
 21
773.59361249999995
  0
LINE
  8
_0-0_0
  6
CONTINUOUS
 62
    7
 10
-111.82104500000003
 20
773.37846349999995
 11
-111.57104500000003
 21
773.38310249999995
  0
LINE
  8
_0-0_0
  6
CONTINUOUS
 62
    7
 10
-111.82104500000003
 20
773.8176115
 11
-111.57104500000003
 21
773.62739550000003
  0
LINE
  8
_0-0_0
  6
CONTINUOUS
 62
    7
 10
-111.57104500000003
 20
773.62739550000003
 11
-102.32104500000003
 21
773.62739550000003
  0
LINE
  8
_0-0_0
  6
CONTINUOUS
 62
    7
 10
-111.82104500000003
 20
773.8176115
 11
-102.07104500000003
 21
773.8176115
  0
LINE
  8
_0-0_0
  6
CONTINUOUS
 62
    7
 10
-111.82104500000003
 20
773.59361249999995
 11
-111.57104500000003
 21
773.62739550000003
  0
LINE
  8
_0-0_0
  6
CONTINUOUS
 62
    7
 10
-111.82104500000003
 20
774.04795850000005
 11
-111.57104500000003
 21
773.88017249999996
  0
LINE
  8
_0-0_0
  6
CONTINUOUS
 62
    7
 10
-111.57104500000003
 20
773.88017249999996
 11
-102.32104500000003
 21
773.88017249999996
  0
LINE
  8
_0-0_0
  6
CONTINUOUS
 62
    7
 10
-111.82104500000003
 20
774.04795850000005
 11
-102.07104500000003
 21
774.04795850000005
  0
LINE
  8
_0-0_0
  6
CONTINUOUS
 62
    7
 10
-111.82104500000003
 20
773.8176115
 11
-111.57104500000003
 21
773.88017249999996
  0
LINE
  8
_0-0_0
  6
CONTINUOUS
 62
    7
 10
-111.82104500000003
 20
774.28218049999998
 11
-111.57104500000003
 21
774.13862549999999
  0
LINE
  8
_0-0_0
  6
CONTINUOUS
 62
    7
 10
-111.57104500000003
 20
774.13862549999999
 11
-102.32104500000003
 21
774.13862549999999
  0
LINE
  8
_0-0_0
  6
CONTINUOUS
 62
    7
 10
-111.82104500000003
 20
774.28218049999998
 11
-102.07104500000003
 21
774.28218049999998
  0
LINE
  8
_0-0_0
  6
CONTINUOUS
 62
    7
 10
-111.82104500000003
 20
774.04795850000005
 11
-111.57104500000003
 21
774.13862549999999
  0
LINE
  8
_0-0_0
  6
CONTINUOUS
 62
    7
 10
-111.82104500000003
 20
774.51771550000001
 11
-111.57104500000003
 21
774.39994750000005
  0
LINE
  8
_0-0_0
  6
CONTINUOUS
 62
    7
 10
-111.57104500000003
 20
774.39994750000005
 11
-102.32104500000003
 21
774.39994750000005
  0
LINE
  8
_0-0_0
  6
CONTINUOUS
 62
    7
 10
-111.82104500000003
 20
774.51771550000001
 11
-102.07104500000003
 21
774.51771550000001
  0
LINE
  8
_0-0_0
  6
CONTINUOUS
 62
    7
 10
-111.82104500000003
 20
774.28218049999998
 11
-111.57104500000003
 21
774.39994750000005
  0
LINE
  8
_0-0_0
  6
CONTINUOUS
 62
    7
 10
-111.82104500000003
 20
774.75190750000002
 11
-111.57104500000003
 21
774.6612705
  0
LINE
  8
_0-0_0
  6
CONTINUOUS
 62
    7
 10
-111.57104500000003
 20
774.6612705
 11
-102.32104500000003
 21
774.6612705
  0
LINE
  8
_0-0_0
  6
CONTINUOUS
 62
    7
 10
-111.82104500000003
 20
774.75190750000002
 11
-102.07104500000003
 21
774.75190750000002
  0
LINE
  8
_0-0_0
  6
CONTINUOUS
 62
    7
 10
-111.82104500000003
 20
774.51771550000001
 11
-111.57104500000003
 21
774.6612705
  0
LINE
  8
_0-0_0
  6
CONTINUOUS
 62
    7
 10
-111.82104500000003
 20
774.98228449999999
 11
-111.57104500000003
 21
774.91972350000003
  0
LINE
  8
_0-0_0
  6
CONTINUOUS
 62
    7
 10
-111.57104500000003
 20
774.91972350000003
 11
-102.32104500000003
 21
774.91972350000003
  0
LINE
  8
_0-0_0
  6
CONTINUOUS
 62
    7
 10
-111.82104500000003
 20
774.98228449999999
 11
-102.07104500000003
 21
774.98228449999999
  0
LINE
  8
_0-0_0
  6
CONTINUOUS
 62
    7
 10
-111.82104500000003
 20
774.75190750000002
 11
-111.57104500000003
 21
774.91972350000003
  0
LINE
  8
_0-0_0
  6
CONTINUOUS
 62
    7
 10
-111.82104500000003
 20
775.20628350000004
 11
-111.57104500000003
 21
775.17250049999996
  0
LINE
  8
_0-0_0
  6
CONTINUOUS
 62
    7
 10
-111.57104500000003
 20
775.17250049999996
 11
-102.32104500000003
 21
775.17250049999996
  0
LINE
  8
_0-0_0
  6
CONTINUOUS
 62
    7
 10
-111.82104500000003
 20
775.20628350000004
 11
-102.07104500000003
 21
775.20628350000004
  0
LINE
  8
_0-0_0
  6
CONTINUOUS
 62
    7
 10
-111.82104500000003
 20
774.98228449999999
 11
-111.57104500000003
 21
775.17250049999996
  0
LINE
  8
_0-0_0
  6
CONTINUOUS
 62
    7
 10
-111.82104500000003
 20
775.42143250000004
 11
-111.57104500000003
 21
775.41679350000004
  0
LINE
  8
_0-0_0
  6
CONTINUOUS
 62
    7
 10
-111.57104500000003
 20
775.41679350000004
 11
-102.32104500000003
 21
775.41679350000004
  0
LINE
  8
_0-0_0
  6
CONTINUOUS
 62
    7
 10
-111.82104500000003
 20
775.20628350000004
 11
-111.57104500000003
 21
775.41679350000004
  0
LINE
  8
_0-0_0
  6
CONTINUOUS
 62
    7
 10
-98.071045000000026
 20
771.34992950000003
 11
-98.071045000000026
 21
763.36839250000003
  0
LINE
  8
_0-0_0
  6
CONTINUOUS
 62
    7
 10
-98.071045000000026
 20
763.36839250000003
 11
-98.071045000000026
 21
760.84992950000003
  0
LINE
  8
_0-0_0
  6
CONTINUOUS
 62
    7
 10
-111.82104500000003
 20
759.0253755
 11
-111.57104500000003
 21
759.04994150000005
  0
LINE
  8
_0-0_0
  6
CONTINUOUS
 62
    7
 10
-111.57104500000003
 20
759.04994150000005
 11
-102.32104500000003
 21
759.04994150000005
  0
LINE
  8
_0-0_0
  6
CONTINUOUS
 62
    7
 10
-111.82104500000003
 20
758.82142650000003
 11
-111.57104500000003
 21
759.04994150000005
  0
LINE
  8
_0-0_0
  6
CONTINUOUS
 62
    7
 10
-111.82104500000003
 20
758.82142650000003
 11
-102.07104500000003
 21
758.82142650000003
  0
LINE
  8
_0-0_0
  6
CONTINUOUS
 62
    7
 10
-111.82104500000003
 20
759.21592650000002
 11
-111.57104500000003
 21
759.26939349999998
  0
LINE
  8
_0-0_0
  6
CONTINUOUS
 62
    7
 10
-111.57104500000003
 20
759.26939349999998
 11
-102.32104500000003
 21
759.26939349999998
  0
LINE
  8
_0-0_0
  6
CONTINUOUS
 62
    7
 10
-111.82104500000003
 20
759.0253755
 11
-111.57104500000003
 21
759.26939349999998
  0
LINE
  8
_0-0_0
  6
CONTINUOUS
 62
    7
 10
-111.82104500000003
 20
759.39094550000004
 11
-111.57104500000003
 21
759.47276250000004
  0
LINE
  8
_0-0_0
  6
CONTINUOUS
 62
    7
 10
-111.57104500000003
 20
759.47276250000004
 11
-102.32104500000003
 21
759.47276250000004
  0
LINE
  8
_0-0_0
  6
CONTINUOUS
 62
    7
 10
-111.82104500000003
 20
759.21592650000002
 11
-111.57104500000003
 21
759.47276250000004
  0
LINE
  8
_0-0_0
  6
CONTINUOUS
 62
    7
 10
-111.82104500000003
 20
759.54850750000003
 11
-111.57104500000003
 21
759.65779150000003
  0
LINE
  8
_0-0_0
  6
CONTINUOUS
 62
    7
 10
-111.57104500000003
 20
759.65779150000003
 11
-102.32104500000003
 21
759.65779150000003
  0
LINE
  8
_0-0_0
  6
CONTINUOUS
 62
    7
 10
-111.82104500000003
 20
759.39094550000004
 11
-111.57104500000003
 21
759.65779150000003
  0
LINE
  8
_0-0_0
  6
CONTINUOUS
 62
    7
 10
-111.82104500000003
 20
759.68696550000004
 11
-111.57104500000003
 21
759.82249449999995
  0
LINE
  8
_0-0_0
  6
CONTINUOUS
 62
    7
 10
-111.57104500000003
 20
759.82249449999995
 11
-102.32104500000003
 21
759.82249449999995
  0
LINE
  8
_0-0_0
  6
CONTINUOUS
 62
    7
 10
-111.82104500000003
 20
759.54850750000003
 11
-111.57104500000003
 21
759.82249449999995
  0
LINE
  8
_0-0_0
  6
CONTINUOUS
 62
    7
 10
-111.82104500000003
 20
759.80470249999996
 11
-111.57104500000003
 21
759.96501150000006
  0
LINE
  8
_0-0_0
  6
CONTINUOUS
 62
    7
 10
-111.57104500000003
 20
759.96501150000006
 11
-102.32104500000003
 21
759.96501150000006
  0
LINE
  8
_0-0_0
  6
CONTINUOUS
 62
    7
 10
-111.82104500000003
 20
759.68696550000004
 11
-111.57104500000003
 21
759.96501150000006
  0
LINE
  8
_0-0_0
  6
CONTINUOUS
 62
    7
 10
-111.82104500000003
 20
759.90049750000003
 11
-111.57104500000003
 21
760.08381650000001
  0
LINE
  8
_0-0_0
  6
CONTINUOUS
 62
    7
 10
-111.57104500000003
 20
760.08381650000001
 11
-102.32104500000003
 21
760.08381650000001
  0
LINE
  8
_0-0_0
  6
CONTINUOUS
 62
    7
 10
-111.82104500000003
 20
759.80470249999996
 11
-111.57104500000003
 21
760.08381650000001
  0
LINE
  8
_0-0_0
  6
CONTINUOUS
 62
    7
 10
-111.82104500000003
 20
759.97328149999998
 11
-111.57104500000003
 21
760.17759650000005
  0
LINE
  8
_0-0_0
  6
CONTINUOUS
 62
    7
 10
-111.57104500000003
 20
760.17759650000005
 11
-102.32104500000003
 21
760.17759650000005
  0
LINE
  8
_0-0_0
  6
CONTINUOUS
 62
    7
 10
-111.82104500000003
 20
759.90049750000003
 11
-111.57104500000003
 21
760.17759650000005
  0
LINE
  8
_0-0_0
  6
CONTINUOUS
 62
    7
 10
-111.82104500000003
 20
760.02223149999998
 11
-111.57104500000003
 21
760.24531549999995
  0
LINE
  8
_0-0_0
  6
CONTINUOUS
 62
    7
 10
-111.57104500000003
 20
760.24531549999995
 11
-102.32104500000003
 21
760.24531549999995
  0
LINE
  8
_0-0_0
  6
CONTINUOUS
 62
    7
 10
-111.82104500000003
 20
759.97328149999998
 11
-111.57104500000003
 21
760.24531549999995
  0
LINE
  8
_0-0_0
  6
CONTINUOUS
 62
    7
 10
-111.82104500000003
 20
760.04685949999998
 11
-111.57104500000003
 21
760.28623949999997
  0
LINE
  8
_0-0_0
  6
CONTINUOUS
 62
    7
 10
-111.57104500000003
 20
760.28623949999997
 11
-102.32104500000003
 21
760.28623949999997
  0
LINE
  8
_0-0_0
  6
CONTINUOUS
 62
    7
 10
-111.82104500000003
 20
760.02223149999998
 11
-111.57104500000003
 21
760.28623949999997
  0
LINE
  8
_0-0_0
  6
CONTINUOUS
 62
    7
 10
-111.57104500000003
 20
760.29994150000005
 11
-102.32104500000003
 21
760.29994150000005
  0
LINE
  8
_0-0_0
  6
CONTINUOUS
 62
    7
 10
-111.82104500000003
 20
760.04685949999998
 11
-111.57104500000003
 21
760.29994150000005
  0
LINE
  8
_0-0_0
  6
CONTINUOUS
 62
    7
 10
-111.82104500000003
 20
755.55302449999999
 11
-111.57104500000003
 21
755.29994150000005
  0
LINE
  8
_0-0_0
  6
CONTINUOUS
 62
    7
 10
-111.57104500000003
 20
755.29994150000005
 11
-102.32104500000003
 21
755.29994150000005
  0
LINE
  8
_0-0_0
  6
CONTINUOUS
 62
    7
 10
-111.82104500000003
 20
755.5776515
 11
-111.57104500000003
 21
755.31364450000001
  0
LINE
  8
_0-0_0
  6
CONTINUOUS
 62
    7
 10
-111.57104500000003
 20
755.31364450000001
 11
-102.32104500000003
 21
755.31364450000001
  0
LINE
  8
_0-0_0
  6
CONTINUOUS
 62
    7
 10
-111.82104500000003
 20
755.55302449999999
 11
-111.57104500000003
 21
755.31364450000001
  0
LINE
  8
_0-0_0
  6
CONTINUOUS
 62
    7
 10
-111.82104500000003
 20
755.62660249999999
 11
-111.57104500000003
 21
755.35456850000003
  0
LINE
  8
_0-0_0
  6
CONTINUOUS
 62
    7
 10
-111.57104500000003
 20
755.35456850000003
 11
-102.32104500000003
 21
755.35456850000003
  0
LINE
  8
_0-0_0
  6
CONTINUOUS
 62
    7
 10
-111.82104500000003
 20
755.5776515
 11
-111.57104500000003
 21
755.35456850000003
  0
LINE
  8
_0-0_0
  6
CONTINUOUS
 62
    7
 10
-111.82104500000003
 20
755.69938650000006
 11
-111.57104500000003
 21
755.42228650000004
  0
LINE
  8
_0-0_0
  6
CONTINUOUS
 62
    7
 10
-111.57104500000003
 20
755.42228650000004
 11
-102.32104500000003
 21
755.42228650000004
  0
LINE
  8
_0-0_0
  6
CONTINUOUS
 62
    7
 10
-111.82104500000003
 20
755.62660249999999
 11
-111.57104500000003
 21
755.42228650000004
  0
LINE
  8
_0-0_0
  6
CONTINUOUS
 62
    7
 10
-111.82104500000003
 20
755.79518150000001
 11
-111.57104500000003
 21
755.51606749999996
  0
LINE
  8
_0-0_0
  6
CONTINUOUS
 62
    7
 10
-111.57104500000003
 20
755.51606749999996
 11
-102.32104500000003
 21
755.51606749999996
  0
LINE
  8
_0-0_0
  6
CONTINUOUS
 62
    7
 10
-111.82104500000003
 20
755.69938650000006
 11
-111.57104500000003
 21
755.51606749999996
  0
LINE
  8
_0-0_0
  6
CONTINUOUS
 62
    7
 10
-111.57104500000003
 20
755.63487250000003
 11
-102.32104500000003
 21
755.63487250000003
  0
LINE
  8
_0-0_0
  6
CONTINUOUS
 62
    7
 10
-111.69108600000004
 20
755.71131849999995
 11
-111.57104500000003
 21
755.63487250000003
  0
LINE
  8
_0-0_0
  6
CONTINUOUS
 62
    7
 10
-111.82104500000003
 20
755.79518150000001
 11
-111.69108600000004
 21
755.71131849999995
  0
LINE
  8
_0-0_0
  6
CONTINUOUS
 62
    7
 10
-111.82104500000003
 20
755.91291750000005
 11
-111.57104500000003
 21
755.63487250000003
  0
LINE
  8
_0-0_0
  6
CONTINUOUS
 62
    7
 10
-111.82104500000003
 20
756.05137649999995
 11
-111.57104500000003
 21
755.77738950000003
  0
LINE
  8
_0-0_0
  6
CONTINUOUS
 62
    7
 10
-111.57104500000003
 20
755.77738950000003
 11
-102.32104500000003
 21
755.77738950000003
  0
LINE
  8
_0-0_0
  6
CONTINUOUS
 62
    7
 10
-111.82104500000003
 20
755.91291750000005
 11
-111.57104500000003
 21
755.77738950000003
  0
LINE
  8
_0-0_0
  6
CONTINUOUS
 62
    7
 10
-111.82104500000003
 20
756.20896849999997
 11
-111.57104500000003
 21
755.94209250000006
  0
LINE
  8
_0-0_0
  6
CONTINUOUS
 62
    7
 10
-111.57104500000003
 20
755.94209250000006
 11
-102.32104500000003
 21
755.94209250000006
  0
LINE
  8
_0-0_0
  6
CONTINUOUS
 62
    7
 10
-111.82104500000003
 20
756.05137649999995
 11
-111.57104500000003
 21
755.94209250000006
  0
LINE
  8
_0-0_0
  6
CONTINUOUS
 62
    7
 10
-111.82104500000003
 20
756.38398749999999
 11
-111.57104500000003
 21
756.12712050000005
  0
LINE
  8
_0-0_0
  6
CONTINUOUS
 62
    7
 10
-111.57104500000003
 20
756.12712050000005
 11
-102.32104500000003
 21
756.12712050000005
  0
LINE
  8
_0-0_0
  6
CONTINUOUS
 62
    7
 10
-111.82104500000003
 20
756.20896849999997
 11
-111.57104500000003
 21
756.12712050000005
  0
LINE
  8
_0-0_0
  6
CONTINUOUS
 62
    7
 10
-111.82104500000003
 20
756.57450849999998
 11
-111.57104500000003
 21
756.3304895
  0
LINE
  8
_0-0_0
  6
CONTINUOUS
 62
    7
 10
-111.57104500000003
 20
756.3304895
 11
-102.32104500000003
 21
756.3304895
  0
LINE
  8
_0-0_0
  6
CONTINUOUS
 62
    7
 10
-111.82104500000003
 20
756.38398749999999
 11
-111.57104500000003
 21
756.3304895
  0
LINE
  8
_0-0_0
  6
CONTINUOUS
 62
    7
 10
-111.82104500000003
 20
756.77845750000006
 11
-111.57104500000003
 21
756.54994150000005
  0
LINE
  8
_0-0_0
  6
CONTINUOUS
 62
    7
 10
-111.57104500000003
 20
756.54994150000005
 11
-102.32104500000003
 21
756.54994150000005
  0
LINE
  8
_0-0_0
  6
CONTINUOUS
 62
    7
 10
-111.82104500000003
 20
756.77845750000006
 11
-102.07104500000003
 21
756.77845750000006
  0
LINE
  8
_0-0_0
  6
CONTINUOUS
 62
    7
 10
-111.82104500000003
 20
756.57450849999998
 11
-111.57104500000003
 21
756.54994150000005
  0
LINE
  8
_0-0_0
  6
CONTINUOUS
 62
    7
 10
-111.82104500000003
 20
756.99360650000006
 11
-111.57104500000003
 21
756.78309650000006
  0
LINE
  8
_0-0_0
  6
CONTINUOUS
 62
    7
 10
-111.57104500000003
 20
756.78309650000006
 11
-102.32104500000003
 21
756.78309650000006
  0
LINE
  8
_0-0_0
  6
CONTINUOUS
 62
    7
 10
-111.82104500000003
 20
756.99360650000006
 11
-102.07104500000003
 21
756.99360650000006
  0
LINE
  8
_0-0_0
  6
CONTINUOUS
 62
    7
 10
-111.82104500000003
 20
756.77845750000006
 11
-111.57104500000003
 21
756.78309650000006
  0
LINE
  8
_0-0_0
  6
CONTINUOUS
 62
    7
 10
-111.82104500000003
 20
757.21760549999999
 11
-111.57104500000003
 21
757.02738950000003
  0
LINE
  8
_0-0_0
  6
CONTINUOUS
 62
    7
 10
-111.57104500000003
 20
757.02738950000003
 11
-102.32104500000003
 21
757.02738950000003
  0
LINE
  8
_0-0_0
  6
CONTINUOUS
 62
    7
 10
-111.82104500000003
 20
757.21760549999999
 11
-102.07104500000003
 21
757.21760549999999
  0
LINE
  8
_0-0_0
  6
CONTINUOUS
 62
    7
 10
-111.82104500000003
 20
756.99360650000006
 11
-111.57104500000003
 21
757.02738950000003
  0
LINE
  8
_0-0_0
  6
CONTINUOUS
 62
    7
 10
-111.82104500000003
 20
757.44795250000004
 11
-111.57104500000003
 21
757.28016649999995
  0
LINE
  8
_0-0_0
  6
CONTINUOUS
 62
    7
 10
-111.57104500000003
 20
757.28016649999995
 11
-102.32104500000003
 21
757.28016649999995
  0
LINE
  8
_0-0_0
  6
CONTINUOUS
 62
    7
 10
-111.82104500000003
 20
757.44795250000004
 11
-102.07104500000003
 21
757.44795250000004
  0
LINE
  8
_0-0_0
  6
CONTINUOUS
 62
    7
 10
-111.82104500000003
 20
757.21760549999999
 11
-111.57104500000003
 21
757.28016649999995
  0
LINE
  8
_0-0_0
  6
CONTINUOUS
 62
    7
 10
-111.82104500000003
 20
757.68217449999997
 11
-111.57104500000003
 21
757.53861949999998
  0
LINE
  8
_0-0_0
  6
CONTINUOUS
 62
    7
 10
-111.57104500000003
 20
757.53861949999998
 11
-102.32104500000003
 21
757.53861949999998
  0
LINE
  8
_0-0_0
  6
CONTINUOUS
 62
    7
 10
-111.82104500000003
 20
757.68217449999997
 11
-102.07104500000003
 21
757.68217449999997
  0
LINE
  8
_0-0_0
  6
CONTINUOUS
 62
    7
 10
-111.82104500000003
 20
757.44795250000004
 11
-111.57104500000003
 21
757.53861949999998
  0
LINE
  8
_0-0_0
  6
CONTINUOUS
 62
    7
 10
-111.82104500000003
 20
757.9177095
 11
-111.57104500000003
 21
757.79994150000005
  0
LINE
  8
_0-0_0
  6
CONTINUOUS
 62
    7
 10
-111.57104500000003
 20
757.79994150000005
 11
-102.32104500000003
 21
757.79994150000005
  0
LINE
  8
_0-0_0
  6
CONTINUOUS
 62
    7
 10
-111.82104500000003
 20
757.9177095
 11
-102.07104500000003
 21
757.9177095
  0
LINE
  8
_0-0_0
  6
CONTINUOUS
 62
    7
 10
-111.82104500000003
 20
757.68217449999997
 11
-111.57104500000003
 21
757.79994150000005
  0
LINE
  8
_0-0_0
  6
CONTINUOUS
 62
    7
 10
-111.82104500000003
 20
758.15193150000005
 11
-111.57104500000003
 21
758.0612635
  0
LINE
  8
_0-0_0
  6
CONTINUOUS
 62
    7
 10
-111.57104500000003
 20
758.0612635
 11
-102.32104500000003
 21
758.0612635
  0
LINE
  8
_0-0_0
  6
CONTINUOUS
 62
    7
 10
-111.82104500000003
 20
758.15193150000005
 11
-102.07104500000003
 21
758.15193150000005
  0
LINE
  8
_0-0_0
  6
CONTINUOUS
 62
    7
 10
-111.82104500000003
 20
757.9177095
 11
-111.57104500000003
 21
758.0612635
  0
LINE
  8
_0-0_0
  6
CONTINUOUS
 62
    7
 10
-111.82104500000003
 20
758.38227849999998
 11
-111.57104500000003
 21
758.31971750000002
  0
LINE
  8
_0-0_0
  6
CONTINUOUS
 62
    7
 10
-111.57104500000003
 20
758.31971750000002
 11
-102.32104500000003
 21
758.31971750000002
  0
LINE
  8
_0-0_0
  6
CONTINUOUS
 62
    7
 10
-111.82104500000003
 20
758.38227849999998
 11
-102.07104500000003
 21
758.38227849999998
  0
LINE
  8
_0-0_0
  6
CONTINUOUS
 62
    7
 10
-111.82104500000003
 20
758.15193150000005
 11
-111.57104500000003
 21
758.31971750000002
  0
LINE
  8
_0-0_0
  6
CONTINUOUS
 62
    7
 10
-111.82104500000003
 20
758.60627750000003
 11
-111.57104500000003
 21
758.57249449999995
  0
LINE
  8
_0-0_0
  6
CONTINUOUS
 62
    7
 10
-111.57104500000003
 20
758.57249449999995
 11
-102.32104500000003
 21
758.57249449999995
  0
LINE
  8
_0-0_0
  6
CONTINUOUS
 62
    7
 10
-111.82104500000003
 20
758.60627750000003
 11
-102.07104500000003
 21
758.60627750000003
  0
LINE
  8
_0-0_0
  6
CONTINUOUS
 62
    7
 10
-111.82104500000003
 20
758.38227849999998
 11
-111.57104500000003
 21
758.57249449999995
  0
LINE
  8
_0-0_0
  6
CONTINUOUS
 62
    7
 10
-111.82104500000003
 20
758.82142650000003
 11
-111.57104500000003
 21
758.81678750000003
  0
LINE
  8
_0-0_0
  6
CONTINUOUS
 62
    7
 10
-111.57104500000003
 20
758.81678750000003
 11
-102.32104500000003
 21
758.81678750000003
  0
LINE
  8
_0-0_0
  6
CONTINUOUS
 62
    7
 10
-111.82104500000003
 20
758.60627750000003
 11
-111.57104500000003
 21
758.81678750000003
  0
LINE
  8
_0-0_0
  6
CONTINUOUS
 62
    7
 10
-112.07104500000003
 20
776.39994750000005
 11
-112.07104500000003
 21
772.6447905
  0
LINE
  8
_0-0_0
  6
CONTINUOUS
 62
    7
 10
-112.07104500000003
 20
772.6447905
 11
-112.07104500000003
 21
772.39994750000005
  0
LINE
  8
_0-0_0
  6
CONTINUOUS
 62
    7
 10
-112.07104500000003
 20
759.79994150000005
 11
-112.07104500000003
 21
756.04478449999999
  0
LINE
  8
_0-0_0
  6
CONTINUOUS
 62
    7
 10
-112.07104500000003
 20
756.04478449999999
 11
-112.07104500000003
 21
755.79994150000005
  0
LINE
  8
_0-0_0
  6
CONTINUOUS
 62
    7
 10
-98.471053999999981
 20
771.09992950000003
 11
-98.471053999999981
 21
768.59992950000003
  0
LINE
  8
_0-0_0
  6
CONTINUOUS
 62
    7
 10
-98.471053999999981
 20
768.59992950000003
 11
-98.471053999999981
 21
761.09992950000003
  0
LINE
  8
_0-0_0
  6
CONTINUOUS
 62
    7
 10
-99.271057000000042
 20
770.63807650000001
 11
-99.271057000000042
 21
768.36900349999996
  0
LINE
  8
_0-0_0
  6
CONTINUOUS
 62
    7
 10
-99.271057000000042
 20
768.36900349999996
 11
-99.271057000000042
 21
761.56181349999997
  0
LINE
  8
_0-0_0
  6
CONTINUOUS
 62
    7
 10
-157.27105700000004
 20
770.09992950000003
 11
-157.27105700000004
 21
770.09858650000001
  0
LINE
  8
_0-0_0
  6
CONTINUOUS
 62
    7
 10
-157.27105700000004
 20
770.09858650000001
 11
-157.27105700000004
 21
762.09992950000003
  0
LINE
  8
_0-0_0
  6
CONTINUOUS
 62
    7
 10
-76.071045000000026
 20
776.64994750000005
 11
-102.07104500000003
 21
776.64994750000005
  0
LINE
  8
_0-0_0
  6
CONTINUOUS
 62
    7
 10
-76.071045000000026
 20
772.14994750000005
 11
-102.07104500000003
 21
772.14994750000005
  0
LINE
  8
_0-0_0
  6
CONTINUOUS
 62
    7
 10
-97.271057000000042
 20
760.04994150000005
 11
-102.07104500000003
 21
760.04994150000005
  0
LINE
  8
_0-0_0
  6
CONTINUOUS
 62
    7
 10
-81.821075000000064
 20
755.54994150000005
 11
-102.07104500000003
 21
755.54994150000005
  0
LINE
  8
_0-0_0
  6
CONTINUOUS
 62
    7
 10
-102.07104500000003
 20
776.64994750000005
 11
-102.32104500000003
 21
776.89994750000005
  0
LINE
  8
_0-0_0
  6
CONTINUOUS
 62
    7
 10
-102.07104500000003
 20
772.14994750000005
 11
-102.32104500000003
 21
771.89994750000005
  0
LINE
  8
_0-0_0
  6
CONTINUOUS
 62
    7
 10
-102.07104500000003
 20
760.04994150000005
 11
-102.32104500000003
 21
760.29994150000005
  0
LINE
  8
_0-0_0
  6
CONTINUOUS
 62
    7
 10
-102.07104500000003
 20
755.54994150000005
 11
-102.32104500000003
 21
755.29994150000005
  0
LINE
  8
_0-0_0
  6
CONTINUOUS
 62
    7
 10
-98.071045000000026
 20
771.34992950000003
 11
-97.271057000000042
 21
772.14994750000005
  0
LINE
  8
_0-0_0
  6
CONTINUOUS
 62
    7
 10
-98.071045000000026
 20
760.84992950000003
 11
-96.821045000000026
 21
759.59992950000003
  0
LINE
  8
_0-0_0
  6
CONTINUOUS
 62
    7
 10
-112.07104500000003
 20
776.39994750000005
 11
-111.57119699999998
 21
776.89979549999998
  0
LINE
  8
_0-0_0
  6
CONTINUOUS
 62
    7
 10
-112.07104500000003
 20
772.39994750000005
 11
-111.57119699999998
 21
771.90010050000001
  0
LINE
  8
_0-0_0
  6
CONTINUOUS
 62
    7
 10
-112.07104500000003
 20
759.79994150000005
 11
-111.57119699999998
 21
760.29978949999997
  0
LINE
  8
_0-0_0
  6
CONTINUOUS
 62
    7
 10
-112.07104500000003
 20
755.79994150000005
 11
-111.57119699999998
 21
755.3000945
  0
LINE
  8
_0-0_0
  6
CONTINUOUS
 62
    7
 10
-98.071045000000026
 20
771.09992950000003
 11
-98.471053999999981
 21
771.09992950000003
  0
LINE
  8
_0-0_0
  6
CONTINUOUS
 62
    7
 10
-98.071045000000026
 20
761.09992950000003
 11
-98.471053999999981
 21
761.09992950000003
  0
LINE
  8
_0-0_0
  6
CONTINUOUS
 62
    7
 10
-99.271057000000042
 20
770.63807650000001
 11
-98.471053999999981
 21
771.09992950000003
  0
LINE
  8
_0-0_0
  6
CONTINUOUS
 62
    7
 10
-99.271057000000042
 20
761.56181349999997
 11
-98.471053999999981
 21
761.09992950000003
  0
LINE
  8
_0-0_0
  6
CONTINUOUS
 62
    7
 10
-99.271057000000042
 20
770.09992950000003
 11
-157.27105700000004
 21
770.09992950000003
  0
LINE
  8
_0-0_0
  6
CONTINUOUS
 62
    7
 10
-99.271057000000042
 20
762.09992950000003
 11
-157.27105700000004
 21
762.09992950000003
  0
ARC
  8
_0-0_0
  6
CONTINUOUS
 62
    7
 10
-82.571045000000026
 20
799.60002150000003
 40
8
 50
215.099627
 51
324.90037799999999
  0
LINE
  8
_0-0_0
  6
CONTINUOUS
 62
    7
 10
-91.571045000000026
 20
795.00001550000002
 11
-89.116271999999981
 21
795.00001550000002
  0
LINE
  8
_0-0_0
  6
CONTINUOUS
 62
    7
 10
-91.571045000000026
 20
781.80000250000001
 11
-91.571045000000026
 21
795.00001550000002
  0
LINE
  8
_0-0_0
  6
CONTINUOUS
 62
    7
 10
1581.4288940000001
 20
781.80000250000001
 11
1581.4288940000001
 21
795.00001550000002
  0
LINE
  8
_0-0_0
  6
CONTINUOUS
 62
    7
 10
1578.9741819999999
 20
795.00001550000002
 11
1581.4288940000001
 21
795.00001550000002
  0
ARC
  8
_0-0_0
  6
CONTINUOUS
 62
    7
 10
1572.4288940000001
 20
799.60002150000003
 40
8
 50
215.099627
 51
324.90037799999999
  0
LINE
  8
_0-0_0
  6
CONTINUOUS
 62
    7
 10
-76.025818000000072
 20
795.00001550000002
 11
1565.8836059999999
 21
795.00001550000002
  0
LINE
  8
_0-0_0
  6
CONTINUOUS
 62
    7
 10
-76.025818000000072
 20
795.00001550000002
 11
-75.936844000000065
 21
795.12931849999995
  0
LINE
  8
_0-0_0
  6
CONTINUOUS
 62
    7
 10
1565.8836059999999
 20
795.00001550000002
 11
1565.7947389999999
 21
795.12931849999995
  0
LINE
  8
_0-0_0
  6
CONTINUOUS
 62
    7
 10
1579.1561889999998
 20
795.2707365
 11
1579.2377320000001
 21
795.40000950000001
  0
ARC
  8
_0-0_0
  6
CONTINUOUS
 62
    7
 10
1572.4288940000001
 20
799.60002150000003
 40
8
 50
328.33175599999993
 51
334.05550899999992
  0
LINE
  8
_0-0_0
  6
CONTINUOUS
 62
    7
 10
1579.6226200000001
 20
796.10002150000003
 11
1579.7166139999999
 21
796.30000250000001
  0
LINE
  8
_0-0_0
  6
CONTINUOUS
 62
    7
 10
1579.7166139999999
 20
796.30000250000001
 11
1579.8038940000001
 21
796.50001550000002
  0
ARC
  8
_0-0_0
  6
CONTINUOUS
 62
    7
 10
1572.4288940000001
 20
799.60002150000003
 40
8
 50
337.20097500000003
 51
342.54240199999998
  0
LINE
  8
_0-0_0
  6
CONTINUOUS
 62
    7
 10
1580.0603639999999
 20
797.20002750000003
 11
1580.120422
 21
797.40000950000001
  0
LINE
  8
_0-0_0
  6
CONTINUOUS
 62
    7
 10
1580.120422
 20
797.40000950000001
 11
1580.1748659999998
 21
797.60002150000003
  0
ARC
  8
_0-0_0
  6
CONTINUOUS
 62
    7
 10
1572.4288940000001
 20
799.60002150000003
 40
8
 50
345.52249499999999
 51
350.64797900000002
  0
LINE
  8
_0-0_0
  6
CONTINUOUS
 62
    7
 10
1580.3225710000002
 20
798.30000250000001
 11
1580.3529659999999
 21
798.50001550000002
  0
LINE
  8
_0-0_0
  6
CONTINUOUS
 62
    7
 10
1580.3529659999999
 20
798.50001550000002
 11
1580.3781130000002
 21
798.70002750000003
  0
ARC
  8
_0-0_0
  6
CONTINUOUS
 62
    7
 10
1572.4288940000001
 20
799.60002150000003
 40
8
 50
353.54056400000002
 51
358.56744600000002
  0
LINE
  8
_0-0_0
  6
CONTINUOUS
 62
    7
 10
1580.426453
 20
799.40000950000001
 11
1580.4288940000001
 21
799.60002150000003
  0
LINE
  8
_0-0_0
  6
CONTINUOUS
 62
    7
 10
1564.4313349999998
 20
799.40000950000001
 11
1564.4288940000001
 21
799.60002150000003
  0
ARC
  8
_0-0_0
  6
CONTINUOUS
 62
    7
 10
1572.4288940000001
 20
799.60002150000003
 40
8
 50
181.432545
 51
186.45945499999999
  0
LINE
  8
_0-0_0
  6
CONTINUOUS
 62
    7
 10
1564.5048219999999
 20
798.50001550000002
 11
1564.479675
 21
798.70002750000003
  0
LINE
  8
_0-0_0
  6
CONTINUOUS
 62
    7
 10
1564.5352170000001
 20
798.30000250000001
 11
1564.5048219999999
 21
798.50001550000002
  0
ARC
  8
_0-0_0
  6
CONTINUOUS
 62
    7
 10
1572.4288940000001
 20
799.60002150000003
 40
8
 50
189.35203999999999
 51
194.47751
  0
LINE
  8
_0-0_0
  6
CONTINUOUS
 62
    7
 10
1564.7373659999998
 20
797.40000950000001
 11
1564.682922
 21
797.60002150000003
  0
LINE
  8
_0-0_0
  6
CONTINUOUS
 62
    7
 10
1564.7974239999999
 20
797.20002750000003
 11
1564.7373659999998
 21
797.40000950000001
  0
ARC
  8
_0-0_0
  6
CONTINUOUS
 62
    7
 10
1572.4288940000001
 20
799.60002150000003
 40
8
 50
197.45760300000001
 51
202.79902999999999
  0
LINE
  8
_0-0_0
  6
CONTINUOUS
 62
    7
 10
1565.1411739999999
 20
796.30000250000001
 11
1565.0538940000001
 21
796.50001550000002
  0
LINE
  8
_0-0_0
  6
CONTINUOUS
 62
    7
 10
1565.235169
 20
796.10002150000003
 11
1565.1411739999999
 21
796.30000250000001
  0
ARC
  8
_0-0_0
  6
CONTINUOUS
 62
    7
 10
1572.4288940000001
 20
799.60002150000003
 40
8
 50
205.94448199999999
 51
211.66823500000001
  0
LINE
  8
_0-0_0
  6
CONTINUOUS
 62
    7
 10
1565.701599
 20
795.2707365
 11
1565.6200560000002
 21
795.40000950000001
  0
LINE
  8
_0-0_0
  6
CONTINUOUS
 62
    7
 10
1565.701599
 20
795.2707365
 11
1565.7947389999999
 21
795.12931849999995
  0
LINE
  8
_0-0_0
  6
CONTINUOUS
 62
    7
 10
1578.9741819999999
 20
795.00001550000002
 11
1579.0630489999999
 21
795.12931849999995
  0
LINE
  8
_0-0_0
  6
CONTINUOUS
 62
    7
 10
1579.1561889999998
 20
795.2707365
 11
1579.0630489999999
 21
795.12931849999995
  0
LINE
  8
_0-0_0
  6
CONTINUOUS
 62
    7
 10
1581.4288940000001
 20
795.12931849999995
 11
1581.4288940000001
 21
795.00001550000002
  0
LINE
  8
_0-0_0
  6
CONTINUOUS
 62
    7
 10
1581.4288940000001
 20
803.92930550000005
 11
1581.4288940000001
 21
804.07072449999998
  0
LINE
  8
_0-0_0
  6
CONTINUOUS
 62
    7
 10
1581.4288940000001
 20
803.92930550000005
 11
1581.4288940000001
 21
803.80000250000001
  0
LINE
  8
_0-0_0
  6
CONTINUOUS
 62
    7
 10
1581.4288940000001
 20
803.10002150000003
 11
1581.4288940000001
 21
803.80000250000001
  0
LINE
  8
_0-0_0
  6
CONTINUOUS
 62
    7
 10
1581.4288940000001
 20
802.90000950000001
 11
1581.4288940000001
 21
803.10002150000003
  0
LINE
  8
_0-0_0
  6
CONTINUOUS
 62
    7
 10
1581.4288940000001
 20
802.90000950000001
 11
1581.4288940000001
 21
802.70002750000003
  0
LINE
  8
_0-0_0
  6
CONTINUOUS
 62
    7
 10
1581.4288940000001
 20
802.00001550000002
 11
1581.4288940000001
 21
802.70002750000003
  0
LINE
  8
_0-0_0
  6
CONTINUOUS
 62
    7
 10
1581.4288940000001
 20
801.80000250000001
 11
1581.4288940000001
 21
802.00001550000002
  0
LINE
  8
_0-0_0
  6
CONTINUOUS
 62
    7
 10
1581.4288940000001
 20
801.80000250000001
 11
1581.4288940000001
 21
801.60002150000003
  0
LINE
  8
_0-0_0
  6
CONTINUOUS
 62
    7
 10
1581.4288940000001
 20
800.90000950000001
 11
1581.4288940000001
 21
801.60002150000003
  0
LINE
  8
_0-0_0
  6
CONTINUOUS
 62
    7
 10
1581.4288940000001
 20
800.70002750000003
 11
1581.4288940000001
 21
800.90000950000001
  0
LINE
  8
_0-0_0
  6
CONTINUOUS
 62
    7
 10
1581.4288940000001
 20
800.70002750000003
 11
1581.4288940000001
 21
800.50001550000002
  0
LINE
  8
_0-0_0
  6
CONTINUOUS
 62
    7
 10
1581.4288940000001
 20
799.80000250000001
 11
1581.4288940000001
 21
800.50001550000002
  0
LINE
  8
_0-0_0
  6
CONTINUOUS
 62
    7
 10
1581.4288940000001
 20
799.60002150000003
 11
1581.4288940000001
 21
799.80000250000001
  0
LINE
  8
_0-0_0
  6
CONTINUOUS
 62
    7
 10
1581.4288940000001
 20
799.60002150000003
 11
1581.4288940000001
 21
799.40000950000001
  0
LINE
  8
_0-0_0
  6
CONTINUOUS
 62
    7
 10
1581.4288940000001
 20
798.70002750000003
 11
1581.4288940000001
 21
799.40000950000001
  0
LINE
  8
_0-0_0
  6
CONTINUOUS
 62
    7
 10
1581.4288940000001
 20
798.50001550000002
 11
1581.4288940000001
 21
798.70002750000003
  0
LINE
  8
_0-0_0
  6
CONTINUOUS
 62
    7
 10
1581.4288940000001
 20
798.50001550000002
 11
1581.4288940000001
 21
798.30000250000001
  0
LINE
  8
_0-0_0
  6
CONTINUOUS
 62
    7
 10
1581.4288940000001
 20
797.60002150000003
 11
1581.4288940000001
 21
798.30000250000001
  0
LINE
  8
_0-0_0
  6
CONTINUOUS
 62
    7
 10
1581.4288940000001
 20
797.40000950000001
 11
1581.4288940000001
 21
797.60002150000003
  0
LINE
  8
_0-0_0
  6
CONTINUOUS
 62
    7
 10
1581.4288940000001
 20
797.40000950000001
 11
1581.4288940000001
 21
797.20002750000003
  0
LINE
  8
_0-0_0
  6
CONTINUOUS
 62
    7
 10
1581.4288940000001
 20
796.50001550000002
 11
1581.4288940000001
 21
797.20002750000003
  0
LINE
  8
_0-0_0
  6
CONTINUOUS
 62
    7
 10
1581.4288940000001
 20
796.30000250000001
 11
1581.4288940000001
 21
796.50001550000002
  0
LINE
  8
_0-0_0
  6
CONTINUOUS
 62
    7
 10
1581.4288940000001
 20
796.30000250000001
 11
1581.4288940000001
 21
796.10002150000003
  0
LINE
  8
_0-0_0
  6
CONTINUOUS
 62
    7
 10
1581.4288940000001
 20
795.40000950000001
 11
1581.4288940000001
 21
796.10002150000003
  0
LINE
  8
_0-0_0
  6
CONTINUOUS
 62
    7
 10
1581.4288940000001
 20
795.2707365
 11
1581.4288940000001
 21
795.40000950000001
  0
LINE
  8
_0-0_0
  6
CONTINUOUS
 62
    7
 10
1581.4288940000001
 20
795.12931849999995
 11
1581.4288940000001
 21
795.2707365
  0
LINE
  8
_0-0_0
  6
CONTINUOUS
 62
    7
 10
1581.4288940000001
 20
781.30000250000001
 11
1581.4288940000001
 21
781.80000250000001
  0
LINE
  8
_0-0_0
  6
CONTINUOUS
 62
    7
 10
1581.4288940000001
 20
809.80000250000001
 11
1581.4288940000001
 21
809.20603949999997
  0
LINE
  8
_0-0_0
  6
CONTINUOUS
 62
    7
 10
1581.4288940000001
 20
804.20002750000003
 11
1581.4288940000001
 21
809.20603949999997
  0
LINE
  8
_0-0_0
  6
CONTINUOUS
 62
    7
 10
1581.4288940000001
 20
804.07072449999998
 11
1581.4288940000001
 21
804.20002750000003
  0
LINE
  8
_0-0_0
  6
CONTINUOUS
 62
    7
 10
-91.571045000000026
 20
781.30000250000001
 11
-91.571045000000026
 21
781.80000250000001
  0
LINE
  8
_0-0_0
  6
CONTINUOUS
 62
    7
 10
-91.571045000000026
 20
781.30000250000001
 11
1581.4288940000001
 21
781.30000250000001
  0
LINE
  8
_0-0_0
  6
CONTINUOUS
 62
    7
 10
-91.571045000000026
 20
795.12931849999995
 11
-91.571045000000026
 21
795.2707365
  0
LINE
  8
_0-0_0
  6
CONTINUOUS
 62
    7
 10
-91.571045000000026
 20
795.12931849999995
 11
-91.571045000000026
 21
795.00001550000002
  0
LINE
  8
_0-0_0
  6
CONTINUOUS
 62
    7
 10
-91.571045000000026
 20
809.80000250000001
 11
-91.571045000000026
 21
809.20603949999997
  0
LINE
  8
_0-0_0
  6
CONTINUOUS
 62
    7
 10
-91.571045000000026
 20
804.20002750000003
 11
-91.571045000000026
 21
809.20603949999997
  0
LINE
  8
_0-0_0
  6
CONTINUOUS
 62
    7
 10
-91.571045000000026
 20
804.07072449999998
 11
-91.571045000000026
 21
804.20002750000003
  0
LINE
  8
_0-0_0
  6
CONTINUOUS
 62
    7
 10
-91.571045000000026
 20
803.92930550000005
 11
-91.571045000000026
 21
804.07072449999998
  0
LINE
  8
_0-0_0
  6
CONTINUOUS
 62
    7
 10
-91.571045000000026
 20
803.92930550000005
 11
-91.571045000000026
 21
803.80000250000001
  0
LINE
  8
_0-0_0
  6
CONTINUOUS
 62
    7
 10
-91.571045000000026
 20
803.10002150000003
 11
-91.571045000000026
 21
803.80000250000001
  0
LINE
  8
_0-0_0
  6
CONTINUOUS
 62
    7
 10
-91.571045000000026
 20
802.97071849999998
 11
-91.571045000000026
 21
803.10002150000003
  0
LINE
  8
_0-0_0
  6
CONTINUOUS
 62
    7
 10
-91.571045000000026
 20
802.82929950000005
 11
-91.571045000000026
 21
802.97071849999998
  0
LINE
  8
_0-0_0
  6
CONTINUOUS
 62
    7
 10
-91.571045000000026
 20
802.82929950000005
 11
-91.571045000000026
 21
802.70002750000003
  0
LINE
  8
_0-0_0
  6
CONTINUOUS
 62
    7
 10
-91.571045000000026
 20
802.00001550000002
 11
-91.571045000000026
 21
802.70002750000003
  0
LINE
  8
_0-0_0
  6
CONTINUOUS
 62
    7
 10
-91.571045000000026
 20
801.87074250000001
 11
-91.571045000000026
 21
802.00001550000002
  0
LINE
  8
_0-0_0
  6
CONTINUOUS
 62
    7
 10
-91.571045000000026
 20
801.72929350000004
 11
-91.571045000000026
 21
801.87074250000001
  0
LINE
  8
_0-0_0
  6
CONTINUOUS
 62
    7
 10
-91.571045000000026
 20
801.72929350000004
 11
-91.571045000000026
 21
801.60002150000003
  0
LINE
  8
_0-0_0
  6
CONTINUOUS
 62
    7
 10
-91.571045000000026
 20
800.90000950000001
 11
-91.571045000000026
 21
801.60002150000003
  0
LINE
  8
_0-0_0
  6
CONTINUOUS
 62
    7
 10
-91.571045000000026
 20
800.7707365
 11
-91.571045000000026
 21
800.90000950000001
  0
LINE
  8
_0-0_0
  6
CONTINUOUS
 62
    7
 10
-91.571045000000026
 20
800.62931849999995
 11
-91.571045000000026
 21
800.7707365
  0
LINE
  8
_0-0_0
  6
CONTINUOUS
 62
    7
 10
-91.571045000000026
 20
800.62931849999995
 11
-91.571045000000026
 21
800.50001550000002
  0
LINE
  8
_0-0_0
  6
CONTINUOUS
 62
    7
 10
-91.571045000000026
 20
799.80000250000001
 11
-91.571045000000026
 21
800.50001550000002
  0
LINE
  8
_0-0_0
  6
CONTINUOUS
 62
    7
 10
-91.571045000000026
 20
799.67073049999999
 11
-91.571045000000026
 21
799.80000250000001
  0
LINE
  8
_0-0_0
  6
CONTINUOUS
 62
    7
 10
-91.571045000000026
 20
799.52931149999995
 11
-91.571045000000026
 21
799.67073049999999
  0
LINE
  8
_0-0_0
  6
CONTINUOUS
 62
    7
 10
-91.571045000000026
 20
799.52931149999995
 11
-91.571045000000026
 21
799.40000950000001
  0
LINE
  8
_0-0_0
  6
CONTINUOUS
 62
    7
 10
-91.571045000000026
 20
798.70002750000003
 11
-91.571045000000026
 21
799.40000950000001
  0
LINE
  8
_0-0_0
  6
CONTINUOUS
 62
    7
 10
-91.571045000000026
 20
798.57072449999998
 11
-91.571045000000026
 21
798.70002750000003
  0
LINE
  8
_0-0_0
  6
CONTINUOUS
 62
    7
 10
-91.571045000000026
 20
798.42930550000005
 11
-91.571045000000026
 21
798.57072449999998
  0
LINE
  8
_0-0_0
  6
CONTINUOUS
 62
    7
 10
-91.571045000000026
 20
798.42930550000005
 11
-91.571045000000026
 21
798.30000250000001
  0
LINE
  8
_0-0_0
  6
CONTINUOUS
 62
    7
 10
-91.571045000000026
 20
797.60002150000003
 11
-91.571045000000026
 21
798.30000250000001
  0
LINE
  8
_0-0_0
  6
CONTINUOUS
 62
    7
 10
-91.571045000000026
 20
797.47071849999998
 11
-91.571045000000026
 21
797.60002150000003
  0
LINE
  8
_0-0_0
  6
CONTINUOUS
 62
    7
 10
-91.571045000000026
 20
797.32929950000005
 11
-91.571045000000026
 21
797.47071849999998
  0
LINE
  8
_0-0_0
  6
CONTINUOUS
 62
    7
 10
-91.571045000000026
 20
797.32929950000005
 11
-91.571045000000026
 21
797.20002750000003
  0
LINE
  8
_0-0_0
  6
CONTINUOUS
 62
    7
 10
-91.571045000000026
 20
796.50001550000002
 11
-91.571045000000026
 21
797.20002750000003
  0
LINE
  8
_0-0_0
  6
CONTINUOUS
 62
    7
 10
-91.571045000000026
 20
796.37074250000001
 11
-91.571045000000026
 21
796.50001550000002
  0
LINE
  8
_0-0_0
  6
CONTINUOUS
 62
    7
 10
-91.571045000000026
 20
796.22929350000004
 11
-91.571045000000026
 21
796.37074250000001
  0
LINE
  8
_0-0_0
  6
CONTINUOUS
 62
    7
 10
-91.571045000000026
 20
796.22929350000004
 11
-91.571045000000026
 21
796.10002150000003
  0
LINE
  8
_0-0_0
  6
CONTINUOUS
 62
    7
 10
-91.571045000000026
 20
795.40000950000001
 11
-91.571045000000026
 21
796.10002150000003
  0
LINE
  8
_0-0_0
  6
CONTINUOUS
 62
    7
 10
-91.571045000000026
 20
795.2707365
 11
-91.571045000000026
 21
795.40000950000001
  0
LINE
  8
_0-0_0
  6
CONTINUOUS
 62
    7
 10
-89.116271999999981
 20
795.00001550000002
 11
-89.205261000000064
 21
795.12931849999995
  0
LINE
  8
_0-0_0
  6
CONTINUOUS
 62
    7
 10
-75.843704000000002
 20
795.2707365
 11
-75.936844000000065
 21
795.12931849999995
  0
LINE
  8
_0-0_0
  6
CONTINUOUS
 62
    7
 10
-75.843704000000002
 20
795.2707365
 11
-75.762238000000025
 21
795.40000950000001
  0
ARC
  8
_0-0_0
  6
CONTINUOUS
 62
    7
 10
-82.571045000000026
 20
799.60002150000003
 40
8
 50
328.33175599999993
 51
334.05550899999992
  0
LINE
  8
_0-0_0
  6
CONTINUOUS
 62
    7
 10
-75.377303999999981
 20
796.10002150000003
 11
-75.283386000000064
 21
796.30000250000001
  0
LINE
  8
_0-0_0
  6
CONTINUOUS
 62
    7
 10
-75.283386000000064
 20
796.30000250000001
 11
-75.196091000000024
 21
796.50001550000002
  0
ARC
  8
_0-0_0
  6
CONTINUOUS
 62
    7
 10
-82.571045000000026
 20
799.60002150000003
 40
8
 50
337.20097500000003
 51
342.54240199999998
  0
LINE
  8
_0-0_0
  6
CONTINUOUS
 62
    7
 10
-74.939544999999953
 20
797.20002750000003
 11
-74.879501000000005
 21
797.40000950000001
  0
LINE
  8
_0-0_0
  6
CONTINUOUS
 62
    7
 10
-74.879501000000005
 20
797.40000950000001
 11
-74.825088000000051
 21
797.60002150000003
  0
ARC
  8
_0-0_0
  6
CONTINUOUS
 62
    7
 10
-82.571045000000026
 20
799.60002150000003
 40
8
 50
345.52249499999999
 51
350.64797900000002
  0
LINE
  8
_0-0_0
  6
CONTINUOUS
 62
    7
 10
-74.677382999999963
 20
798.30000250000001
 11
-74.647034000000076
 21
798.50001550000002
  0
LINE
  8
_0-0_0
  6
CONTINUOUS
 62
    7
 10
-74.647034000000076
 20
798.50001550000002
 11
-74.621841000000018
 21
798.70002750000003
  0
ARC
  8
_0-0_0
  6
CONTINUOUS
 62
    7
 10
-82.571045000000026
 20
799.60002150000003
 40
8
 50
353.54056400000002
 51
358.56744600000002
  0
LINE
  8
_0-0_0
  6
CONTINUOUS
 62
    7
 10
-74.573546999999962
 20
799.40000950000001
 11
-74.571045000000026
 21
799.60002150000003
  0
LINE
  8
_0-0_0
  6
CONTINUOUS
 62
    7
 10
-90.570740000000001
 20
799.52931149999995
 11
-90.571045000000026
 21
799.60002150000003
  0
LINE
  8
_0-0_0
  6
CONTINUOUS
 62
    7
 10
-90.568541999999979
 20
799.40000950000001
 11
-90.570740000000001
 21
799.52931149999995
  0
ARC
  8
_0-0_0
  6
CONTINUOUS
 62
    7
 10
-82.571045000000026
 20
799.60002150000003
 40
8
 50
181.432545
 51
186.45945499999999
  0
LINE
  8
_0-0_0
  6
CONTINUOUS
 62
    7
 10
-90.504562000000078
 20
798.57072449999998
 11
-90.520263999999997
 21
798.70002750000003
  0
LINE
  8
_0-0_0
  6
CONTINUOUS
 62
    7
 10
-90.504562000000078
 20
798.57072449999998
 11
-90.484923999999978
 21
798.42930550000005
  0
LINE
  8
_0-0_0
  6
CONTINUOUS
 62
    7
 10
-90.464722000000052
 20
798.30000250000001
 11
-90.484923999999978
 21
798.42930550000005
  0
ARC
  8
_0-0_0
  6
CONTINUOUS
 62
    7
 10
-82.571045000000026
 20
799.60002150000003
 40
8
 50
189.35203999999999
 51
194.47751
  0
LINE
  8
_0-0_0
  6
CONTINUOUS
 62
    7
 10
-90.282470999999987
 20
797.47071849999998
 11
-90.317017000000078
 21
797.60002150000003
  0
LINE
  8
_0-0_0
  6
CONTINUOUS
 62
    7
 10
-90.282470999999987
 20
797.47071849999998
 11
-90.242034999999987
 21
797.32929950000005
  0
LINE
  8
_0-0_0
  6
CONTINUOUS
 62
    7
 10
-90.202576000000022
 20
797.20002750000003
 11
-90.242034999999987
 21
797.32929950000005
  0
ARC
  8
_0-0_0
  6
CONTINUOUS
 62
    7
 10
-82.571045000000026
 20
799.60002150000003
 40
8
 50
197.45760300000001
 51
202.79902999999999
  0
LINE
  8
_0-0_0
  6
CONTINUOUS
 62
    7
 10
-89.890319999999974
 20
796.37074250000001
 11
-89.946013999999991
 21
796.50001550000002
  0
LINE
  8
_0-0_0
  6
CONTINUOUS
 62
    7
 10
-89.890319999999974
 20
796.37074250000001
 11
-89.826279
 21
796.22929350000004
  0
LINE
  8
_0-0_0
  6
CONTINUOUS
 62
    7
 10
-89.764801000000034
 20
796.10002150000003
 11
-89.826279
 21
796.22929350000004
  0
ARC
  8
_0-0_0
  6
CONTINUOUS
 62
    7
 10
-82.571045000000026
 20
799.60002150000003
 40
8
 50
205.94448199999999
 51
211.66823500000001
  0
LINE
  8
_0-0_0
  6
CONTINUOUS
 62
    7
 10
-89.298401000000013
 20
795.2707365
 11
-89.379867999999988
 21
795.40000950000001
  0
LINE
  8
_0-0_0
  6
CONTINUOUS
 62
    7
 10
-89.298401000000013
 20
795.2707365
 11
-89.205261000000064
 21
795.12931849999995
  0
LINE
  8
_0-0_0
  6
CONTINUOUS
 62
    7
 10
1515.4288940000001
 20
787.30000250000001
 11
1522.4288940000001
 21
787.30000250000001
  0
ARC
  8
_0-0_0
  6
CONTINUOUS
 62
    7
 10
1515.4288940000001
 20
786.80000250000001
 40
0.5
 50
90.000003000000007
 51
180.00000900000001
  0
LINE
  8
_0-0_0
  6
CONTINUOUS
 62
    7
 10
1514.9288940000001
 20
786.80000250000001
 11
1514.9288940000001
 21
782.80000250000001
  0
ARC
  8
_0-0_0
  6
CONTINUOUS
 62
    7
 10
1515.4288940000001
 20
782.80000250000001
 40
0.5
 50
180.00000900000003
 51
269.99999700000001
  0
LINE
  8
_0-0_0
  6
CONTINUOUS
 62
    7
 10
1522.4288940000001
 20
782.30000250000001
 11
1515.4288940000001
 21
782.30000250000001
  0
ARC
  8
_0-0_0
  6
CONTINUOUS
 62
    7
 10
1522.4288940000001
 20
782.80000250000001
 40
0.5
 50
269.99999700000001
 51
0
  0
LINE
  8
_0-0_0
  6
CONTINUOUS
 62
    7
 10
1522.9288940000001
 20
782.80000250000001
 11
1522.9288940000001
 21
786.80000250000001
  0
ARC
  8
_0-0_0
  6
CONTINUOUS
 62
    7
 10
1522.4288940000001
 20
786.80000250000001
 40
0.5
 50
0
 51
90.000003000000007
  0
ARC
  8
_0-0_0
  6
CONTINUOUS
 62
    7
 10
-24.571059999999989
 20
786.80000250000001
 40
0.5
 50
90.000003000000007
 51
180.00000900000001
  0
LINE
  8
_0-0_0
  6
CONTINUOUS
 62
    7
 10
-25.071059999999989
 20
786.80000250000001
 11
-25.071059999999989
 21
782.80000250000001
  0
ARC
  8
_0-0_0
  6
CONTINUOUS
 62
    7
 10
-24.571059999999989
 20
782.80000250000001
 40
0.5
 50
180.00000900000003
 51
269.99999700000001
  0
LINE
  8
_0-0_0
  6
CONTINUOUS
 62
    7
 10
-17.571059999999989
 20
782.30000250000001
 11
-24.571059999999989
 21
782.30000250000001
  0
ARC
  8
_0-0_0
  6
CONTINUOUS
 62
    7
 10
-17.571059999999989
 20
782.80000250000001
 40
0.5
 50
269.99999700000001
 51
0
  0
LINE
  8
_0-0_0
  6
CONTINUOUS
 62
    7
 10
-17.071059999999989
 20
782.80000250000001
 11
-17.071059999999989
 21
786.80000250000001
  0
ARC
  8
_0-0_0
  6
CONTINUOUS
 62
    7
 10
-17.571059999999989
 20
786.80000250000001
 40
0.5
 50
0
 51
90.000003000000007
  0
LINE
  8
_0-0_0
  6
CONTINUOUS
 62
    7
 10
-24.571059999999989
 20
787.30000250000001
 11
-17.571059999999989
 21
787.30000250000001
  0
LINE
  8
_0-0_0
  6
CONTINUOUS
 62
    7
 10
-75.762238000000025
 20
795.40000950000001
 11
1565.6200560000002
 21
795.40000950000001
  0
LINE
  8
_0-0_0
  6
CONTINUOUS
 62
    7
 10
-75.377303999999981
 20
796.10002150000003
 11
1565.235169
 21
796.10002150000003
  0
LINE
  8
_0-0_0
  6
CONTINUOUS
 62
    7
 10
-75.283386000000064
 20
796.30000250000001
 11
1565.1411739999999
 21
796.30000250000001
  0
LINE
  8
_0-0_0
  6
CONTINUOUS
 62
    7
 10
-75.196091000000024
 20
796.50001550000002
 11
1565.0538940000001
 21
796.50001550000002
  0
LINE
  8
_0-0_0
  6
CONTINUOUS
 62
    7
 10
-74.939544999999953
 20
797.20002750000003
 11
1564.7974239999999
 21
797.20002750000003
  0
LINE
  8
_0-0_0
  6
CONTINUOUS
 62
    7
 10
-74.879501000000005
 20
797.40000950000001
 11
1564.7373659999998
 21
797.40000950000001
  0
LINE
  8
_0-0_0
  6
CONTINUOUS
 62
    7
 10
-74.825088000000051
 20
797.60002150000003
 11
1564.682922
 21
797.60002150000003
  0
LINE
  8
_0-0_0
  6
CONTINUOUS
 62
    7
 10
-74.677382999999963
 20
798.30000250000001
 11
1564.5352170000001
 21
798.30000250000001
  0
LINE
  8
_0-0_0
  6
CONTINUOUS
 62
    7
 10
-74.647034000000076
 20
798.50001550000002
 11
1564.5048219999999
 21
798.50001550000002
  0
LINE
  8
_0-0_0
  6
CONTINUOUS
 62
    7
 10
-74.621841000000018
 20
798.70002750000003
 11
1564.479675
 21
798.70002750000003
  0
LINE
  8
_0-0_0
  6
CONTINUOUS
 62
    7
 10
-74.573546999999962
 20
799.40000950000001
 11
1564.4313349999998
 21
799.40000950000001
  0
LINE
  8
_0-0_0
  6
CONTINUOUS
 62
    7
 10
-74.571045000000026
 20
799.60002150000003
 11
1564.4288940000001
 21
799.60002150000003
  0
LINE
  8
_0-0_0
  6
CONTINUOUS
 62
    7
 10
1578.9741819999999
 20
804.20002750000003
 11
1579.0630489999999
 21
804.07072449999998
  0
ARC
  8
_0-0_0
  6
CONTINUOUS
 62
    7
 10
1572.4288940000001
 20
799.60002150000003
 40
8
 50
35.099632
 51
144.900373
  0
LINE
  8
_0-0_0
  6
CONTINUOUS
 62
    7
 10
1565.8836059999999
 20
804.20002750000003
 11
1565.7947389999999
 21
804.07072449999998
  0
LINE
  8
_0-0_0
  6
CONTINUOUS
 62
    7
 10
1565.701599
 20
803.92930550000005
 11
1565.7947389999999
 21
804.07072449999998
  0
LINE
  8
_0-0_0
  6
CONTINUOUS
 62
    7
 10
1565.701599
 20
803.92930550000005
 11
1565.6200560000002
 21
803.80000250000001
  0
ARC
  8
_0-0_0
  6
CONTINUOUS
 62
    7
 10
1572.4288940000001
 20
799.60002150000003
 40
8
 50
148.33176499999999
 51
154.05551800000001
  0
LINE
  8
_0-0_0
  6
CONTINUOUS
 62
    7
 10
1565.235169
 20
803.10002150000003
 11
1565.1411739999999
 21
802.90000950000001
  0
LINE
  8
_0-0_0
  6
CONTINUOUS
 62
    7
 10
1565.1411739999999
 20
802.90000950000001
 11
1565.0538940000001
 21
802.70002750000003
  0
ARC
  8
_0-0_0
  6
CONTINUOUS
 62
    7
 10
1572.4288940000001
 20
799.60002150000003
 40
8
 50
157.20097000000001
 51
162.54239699999999
  0
LINE
  8
_0-0_0
  6
CONTINUOUS
 62
    7
 10
1564.7974239999999
 20
802.00001550000002
 11
1564.7373659999998
 21
801.80000250000001
  0
LINE
  8
_0-0_0
  6
CONTINUOUS
 62
    7
 10
1564.7373659999998
 20
801.80000250000001
 11
1564.682922
 21
801.60002150000003
  0
ARC
  8
_0-0_0
  6
CONTINUOUS
 62
    7
 10
1572.4288940000001
 20
799.60002150000003
 40
8
 50
165.52249
 51
170.64796000000001
  0
LINE
  8
_0-0_0
  6
CONTINUOUS
 62
    7
 10
1564.5352170000001
 20
800.90000950000001
 11
1564.5048219999999
 21
800.70002750000003
  0
LINE
  8
_0-0_0
  6
CONTINUOUS
 62
    7
 10
1564.5048219999999
 20
800.70002750000003
 11
1564.479675
 21
800.50001550000002
  0
ARC
  8
_0-0_0
  6
CONTINUOUS
 62
    7
 10
1572.4288940000001
 20
799.60002150000003
 40
8
 50
173.54054500000001
 51
178.567455
  0
LINE
  8
_0-0_0
  6
CONTINUOUS
 62
    7
 10
1564.4313349999998
 20
799.80000250000001
 11
1564.4288940000001
 21
799.60002150000003
  0
LINE
  8
_0-0_0
  6
CONTINUOUS
 62
    7
 10
1580.426453
 20
799.80000250000001
 11
1580.4288940000001
 21
799.60002150000003
  0
ARC
  8
_0-0_0
  6
CONTINUOUS
 62
    7
 10
1572.4288940000001
 20
799.60002150000003
 40
8
 50
1.432544
 51
6.4594489999999993
  0
LINE
  8
_0-0_0
  6
CONTINUOUS
 62
    7
 10
1580.3529659999999
 20
800.70002750000003
 11
1580.3781130000002
 21
800.50001550000002
  0
LINE
  8
_0-0_0
  6
CONTINUOUS
 62
    7
 10
1580.3225710000002
 20
800.90000950000001
 11
1580.3529659999999
 21
800.70002750000003
  0
ARC
  8
_0-0_0
  6
CONTINUOUS
 62
    7
 10
1572.4288940000001
 20
799.60002150000003
 40
8
 50
9.3520350000000008
 51
14.477510999999998
  0
LINE
  8
_0-0_0
  6
CONTINUOUS
 62
    7
 10
1580.120422
 20
801.80000250000001
 11
1580.1748659999998
 21
801.60002150000003
  0
LINE
  8
_0-0_0
  6
CONTINUOUS
 62
    7
 10
1580.0603639999999
 20
802.00001550000002
 11
1580.120422
 21
801.80000250000001
  0
ARC
  8
_0-0_0
  6
CONTINUOUS
 62
    7
 10
1572.4288940000001
 20
799.60002150000003
 40
8
 50
17.457602999999999
 51
22.799030999999999
  0
LINE
  8
_0-0_0
  6
CONTINUOUS
 62
    7
 10
1579.7166139999999
 20
802.90000950000001
 11
1579.8038940000001
 21
802.70002750000003
  0
LINE
  8
_0-0_0
  6
CONTINUOUS
 62
    7
 10
1579.6226200000001
 20
803.10002150000003
 11
1579.7166139999999
 21
802.90000950000001
  0
ARC
  8
_0-0_0
  6
CONTINUOUS
 62
    7
 10
1572.4288940000001
 20
799.60002150000003
 40
8
 50
25.944476999999999
 51
31.668240000000001
  0
LINE
  8
_0-0_0
  6
CONTINUOUS
 62
    7
 10
1579.1561889999998
 20
803.92930550000005
 11
1579.2377320000001
 21
803.80000250000001
  0
LINE
  8
_0-0_0
  6
CONTINUOUS
 62
    7
 10
1579.1561889999998
 20
803.92930550000005
 11
1579.0630489999999
 21
804.07072449999998
  0
CIRCLE
  8
_0-0_0
  6
CONTINUOUS
 62
    7
 10
1572.4288940000001
 20
799.60002150000003
 40
7.5
  0
LINE
  8
_0-0_0
  6
CONTINUOUS
 62
    7
 10
1580.426453
 20
799.40000950000001
 11
1581.4288940000001
 21
799.40000950000001
  0
LINE
  8
_0-0_0
  6
CONTINUOUS
 62
    7
 10
1580.4288940000001
 20
799.60002150000003
 11
1581.4288940000001
 21
799.60002150000003
  0
LINE
  8
_0-0_0
  6
CONTINUOUS
 62
    7
 10
1580.3781130000002
 20
798.70002750000003
 11
1581.4288940000001
 21
798.70002750000003
  0
LINE
  8
_0-0_0
  6
CONTINUOUS
 62
    7
 10
1580.3529659999999
 20
798.50001550000002
 11
1581.4288940000001
 21
798.50001550000002
  0
LINE
  8
_0-0_0
  6
CONTINUOUS
 62
    7
 10
1580.3225710000002
 20
798.30000250000001
 11
1581.4288940000001
 21
798.30000250000001
  0
LINE
  8
_0-0_0
  6
CONTINUOUS
 62
    7
 10
1580.1748659999998
 20
797.60002150000003
 11
1581.4288940000001
 21
797.60002150000003
  0
LINE
  8
_0-0_0
  6
CONTINUOUS
 62
    7
 10
1580.120422
 20
797.40000950000001
 11
1581.4288940000001
 21
797.40000950000001
  0
LINE
  8
_0-0_0
  6
CONTINUOUS
 62
    7
 10
1580.0603639999999
 20
797.20002750000003
 11
1581.4288940000001
 21
797.20002750000003
  0
LINE
  8
_0-0_0
  6
CONTINUOUS
 62
    7
 10
1579.8038940000001
 20
796.50001550000002
 11
1581.4288940000001
 21
796.50001550000002
  0
LINE
  8
_0-0_0
  6
CONTINUOUS
 62
    7
 10
1579.7166139999999
 20
796.30000250000001
 11
1581.4288940000001
 21
796.30000250000001
  0
LINE
  8
_0-0_0
  6
CONTINUOUS
 62
    7
 10
1579.6226200000001
 20
796.10002150000003
 11
1581.4288940000001
 21
796.10002150000003
  0
LINE
  8
_0-0_0
  6
CONTINUOUS
 62
    7
 10
1579.2377320000001
 20
795.40000950000001
 11
1581.4288940000001
 21
795.40000950000001
  0
LINE
  8
_0-0_0
  6
CONTINUOUS
 62
    7
 10
1579.2377320000001
 20
803.80000250000001
 11
1581.4288940000001
 21
803.80000250000001
  0
LINE
  8
_0-0_0
  6
CONTINUOUS
 62
    7
 10
1579.6226200000001
 20
803.10002150000003
 11
1581.4288940000001
 21
803.10002150000003
  0
LINE
  8
_0-0_0
  6
CONTINUOUS
 62
    7
 10
1579.7166139999999
 20
802.90000950000001
 11
1581.4288940000001
 21
802.90000950000001
  0
LINE
  8
_0-0_0
  6
CONTINUOUS
 62
    7
 10
1579.8038940000001
 20
802.70002750000003
 11
1581.4288940000001
 21
802.70002750000003
  0
LINE
  8
_0-0_0
  6
CONTINUOUS
 62
    7
 10
1580.0603639999999
 20
802.00001550000002
 11
1581.4288940000001
 21
802.00001550000002
  0
LINE
  8
_0-0_0
  6
CONTINUOUS
 62
    7
 10
1580.120422
 20
801.80000250000001
 11
1581.4288940000001
 21
801.80000250000001
  0
LINE
  8
_0-0_0
  6
CONTINUOUS
 62
    7
 10
1580.1748659999998
 20
801.60002150000003
 11
1581.4288940000001
 21
801.60002150000003
  0
LINE
  8
_0-0_0
  6
CONTINUOUS
 62
    7
 10
1580.3225710000002
 20
800.90000950000001
 11
1581.4288940000001
 21
800.90000950000001
  0
LINE
  8
_0-0_0
  6
CONTINUOUS
 62
    7
 10
1580.3529659999999
 20
800.70002750000003
 11
1581.4288940000001
 21
800.70002750000003
  0
LINE
  8
_0-0_0
  6
CONTINUOUS
 62
    7
 10
1580.3781130000002
 20
800.50001550000002
 11
1581.4288940000001
 21
800.50001550000002
  0
LINE
  8
_0-0_0
  6
CONTINUOUS
 62
    7
 10
1580.426453
 20
799.80000250000001
 11
1581.4288940000001
 21
799.80000250000001
  0
LINE
  8
_0-0_0
  6
CONTINUOUS
 62
    7
 10
1581.9288940000001
 20
783.10002150000003
 11
1581.4288940000001
 21
783.10002150000003
  0
LINE
  8
_0-0_0
  6
CONTINUOUS
 62
    7
 10
1581.4288940000001
 20
785.30000250000001
 11
1581.9288940000001
 21
785.30000250000001
  0
LINE
  8
_0-0_0
  6
CONTINUOUS
 62
    7
 10
1581.9288940000001
 20
787.60002150000003
 11
1581.4288940000001
 21
787.60002150000003
  0
LINE
  8
_0-0_0
  6
CONTINUOUS
 62
    7
 10
-91.571045000000026
 20
787.60002150000003
 11
-92.071045000000026
 21
787.60002150000003
  0
LINE
  8
_0-0_0
  6
CONTINUOUS
 62
    7
 10
1581.4288940000001
 20
789.90000950000001
 11
1581.9288940000001
 21
789.90000950000001
  0
LINE
  8
_0-0_0
  6
CONTINUOUS
 62
    7
 10
1581.9288940000001
 20
810.10002150000003
 11
1581.9288940000001
 21
810.00001550000002
  0
LINE
  8
_0-0_0
  6
CONTINUOUS
 62
    7
 10
-92.071045000000026
 20
810.10002150000003
 11
-92.071045000000026
 21
810.00001550000002
  0
LINE
  8
_0-0_0
  6
CONTINUOUS
 62
    7
 10
-92.071045000000026
 20
789.90000950000001
 11
-91.571045000000026
 21
789.90000950000001
  0
LINE
  8
_0-0_0
  6
CONTINUOUS
 62
    7
 10
-91.571045000000026
 20
809.80000250000001
 11
1581.4288940000001
 21
809.80000250000001
  0
LINE
  8
_0-0_0
  6
CONTINUOUS
 62
    7
 10
-91.571045000000026
 20
809.20603949999997
 11
1581.4288940000001
 21
809.20603949999997
  0
LINE
  8
_0-0_0
  6
CONTINUOUS
 62
    7
 10
1578.9741819999999
 20
804.20002750000003
 11
1581.4288940000001
 21
804.20002750000003
  0
LINE
  8
_0-0_0
  6
CONTINUOUS
 62
    7
 10
-91.571045000000026
 20
804.20002750000003
 11
-89.116271999999981
 21
804.20002750000003
  0
ARC
  8
_0-0_0
  6
CONTINUOUS
 62
    7
 10
-82.571045000000026
 20
799.60002150000003
 40
8
 50
35.099632
 51
144.900373
  0
LINE
  8
_0-0_0
  6
CONTINUOUS
 62
    7
 10
-76.025818000000072
 20
804.20002750000003
 11
1565.8836059999999
 21
804.20002750000003
  0
LINE
  8
_0-0_0
  6
CONTINUOUS
 62
    7
 10
-92.071045000000026
 20
783.10002150000003
 11
-91.571045000000026
 21
783.10002150000003
  0
LINE
  8
_0-0_0
  6
CONTINUOUS
 62
    7
 10
-92.071045000000026
 20
785.30000250000001
 11
-91.571045000000026
 21
785.30000250000001
  0
LINE
  8
_0-0_0
  6
CONTINUOUS
 62
    7
 10
-89.116271999999981
 20
804.20002750000003
 11
-89.205261000000064
 21
804.07072449999998
  0
LINE
  8
_0-0_0
  6
CONTINUOUS
 62
    7
 10
-89.298401000000013
 20
803.92930550000005
 11
-89.205261000000064
 21
804.07072449999998
  0
LINE
  8
_0-0_0
  6
CONTINUOUS
 62
    7
 10
-91.571045000000026
 20
803.80000250000001
 11
-89.379867999999988
 21
803.80000250000001
  0
LINE
  8
_0-0_0
  6
CONTINUOUS
 62
    7
 10
-89.298401000000013
 20
803.92930550000005
 11
-89.379867999999988
 21
803.80000250000001
  0
ARC
  8
_0-0_0
  6
CONTINUOUS
 62
    7
 10
-82.571045000000026
 20
799.60002150000003
 40
8
 50
148.33176499999999
 51
154.05551800000001
  0
LINE
  8
_0-0_0
  6
CONTINUOUS
 62
    7
 10
-91.571045000000026
 20
803.10002150000003
 11
-89.764801000000034
 21
803.10002150000003
  0
LINE
  8
_0-0_0
  6
CONTINUOUS
 62
    7
 10
-89.764801000000034
 20
803.10002150000003
 11
-89.826279
 21
802.97071849999998
  0
LINE
  8
_0-0_0
  6
CONTINUOUS
 62
    7
 10
-89.890319999999974
 20
802.82929950000005
 11
-89.826279
 21
802.97071849999998
  0
LINE
  8
_0-0_0
  6
CONTINUOUS
 62
    7
 10
-91.571045000000026
 20
802.70002750000003
 11
-89.946013999999991
 21
802.70002750000003
  0
LINE
  8
_0-0_0
  6
CONTINUOUS
 62
    7
 10
-89.890319999999974
 20
802.82929950000005
 11
-89.946013999999991
 21
802.70002750000003
  0
ARC
  8
_0-0_0
  6
CONTINUOUS
 62
    7
 10
-82.571045000000026
 20
799.60002150000003
 40
8
 50
157.20097000000001
 51
162.54239699999999
  0
LINE
  8
_0-0_0
  6
CONTINUOUS
 62
    7
 10
-91.571045000000026
 20
802.00001550000002
 11
-90.202576000000022
 21
802.00001550000002
  0
LINE
  8
_0-0_0
  6
CONTINUOUS
 62
    7
 10
-90.202576000000022
 20
802.00001550000002
 11
-90.242034999999987
 21
801.87074250000001
  0
LINE
  8
_0-0_0
  6
CONTINUOUS
 62
    7
 10
-90.282470999999987
 20
801.72929350000004
 11
-90.242034999999987
 21
801.87074250000001
  0
LINE
  8
_0-0_0
  6
CONTINUOUS
 62
    7
 10
-91.571045000000026
 20
801.60002150000003
 11
-90.317017000000078
 21
801.60002150000003
  0
LINE
  8
_0-0_0
  6
CONTINUOUS
 62
    7
 10
-90.282470999999987
 20
801.72929350000004
 11
-90.317017000000078
 21
801.60002150000003
  0
ARC
  8
_0-0_0
  6
CONTINUOUS
 62
    7
 10
-82.571045000000026
 20
799.60002150000003
 40
8
 50
165.52249
 51
170.64796000000001
  0
LINE
  8
_0-0_0
  6
CONTINUOUS
 62
    7
 10
-91.571045000000026
 20
800.90000950000001
 11
-90.464722000000052
 21
800.90000950000001
  0
LINE
  8
_0-0_0
  6
CONTINUOUS
 62
    7
 10
-90.464722000000052
 20
800.90000950000001
 11
-90.484923999999978
 21
800.7707365
  0
LINE
  8
_0-0_0
  6
CONTINUOUS
 62
    7
 10
-90.504562000000078
 20
800.62931849999995
 11
-90.484923999999978
 21
800.7707365
  0
LINE
  8
_0-0_0
  6
CONTINUOUS
 62
    7
 10
-91.571045000000026
 20
800.50001550000002
 11
-90.520263999999997
 21
800.50001550000002
  0
LINE
  8
_0-0_0
  6
CONTINUOUS
 62
    7
 10
-90.504562000000078
 20
800.62931849999995
 11
-90.520263999999997
 21
800.50001550000002
  0
ARC
  8
_0-0_0
  6
CONTINUOUS
 62
    7
 10
-82.571045000000026
 20
799.60002150000003
 40
8
 50
173.54054500000001
 51
178.567455
  0
LINE
  8
_0-0_0
  6
CONTINUOUS
 62
    7
 10
-91.571045000000026
 20
799.80000250000001
 11
-90.568541999999979
 21
799.80000250000001
  0
LINE
  8
_0-0_0
  6
CONTINUOUS
 62
    7
 10
-90.568541999999979
 20
799.80000250000001
 11
-90.570740000000001
 21
799.67073049999999
  0
LINE
  8
_0-0_0
  6
CONTINUOUS
 62
    7
 10
-90.571045000000026
 20
799.60002150000003
 11
-90.570740000000001
 21
799.67073049999999
  0
LINE
  8
_0-0_0
  6
CONTINUOUS
 62
    7
 10
-91.571045000000026
 20
799.40000950000001
 11
-90.568541999999979
 21
799.40000950000001
  0
LINE
  8
_0-0_0
  6
CONTINUOUS
 62
    7
 10
-91.571045000000026
 20
798.70002750000003
 11
-90.520263999999997
 21
798.70002750000003
  0
LINE
  8
_0-0_0
  6
CONTINUOUS
 62
    7
 10
-91.571045000000026
 20
798.30000250000001
 11
-90.464722000000052
 21
798.30000250000001
  0
LINE
  8
_0-0_0
  6
CONTINUOUS
 62
    7
 10
-91.571045000000026
 20
797.60002150000003
 11
-90.317017000000078
 21
797.60002150000003
  0
LINE
  8
_0-0_0
  6
CONTINUOUS
 62
    7
 10
-91.571045000000026
 20
797.20002750000003
 11
-90.202576000000022
 21
797.20002750000003
  0
LINE
  8
_0-0_0
  6
CONTINUOUS
 62
    7
 10
-91.571045000000026
 20
796.50001550000002
 11
-89.946013999999991
 21
796.50001550000002
  0
LINE
  8
_0-0_0
  6
CONTINUOUS
 62
    7
 10
-91.571045000000026
 20
796.10002150000003
 11
-89.764801000000034
 21
796.10002150000003
  0
LINE
  8
_0-0_0
  6
CONTINUOUS
 62
    7
 10
-91.571045000000026
 20
795.40000950000001
 11
-89.379867999999988
 21
795.40000950000001
  0
LINE
  8
_0-0_0
  6
CONTINUOUS
 62
    7
 10
-74.573546999999962
 20
799.80000250000001
 11
-74.571045000000026
 21
799.60002150000003
  0
ARC
  8
_0-0_0
  6
CONTINUOUS
 62
    7
 10
-82.571045000000026
 20
799.60002150000003
 40
8
 50
1.432544
 51
6.4594489999999993
  0
LINE
  8
_0-0_0
  6
CONTINUOUS
 62
    7
 10
-74.647034000000076
 20
800.70002750000003
 11
-74.621841000000018
 21
800.50001550000002
  0
LINE
  8
_0-0_0
  6
CONTINUOUS
 62
    7
 10
-74.677382999999963
 20
800.90000950000001
 11
-74.647034000000076
 21
800.70002750000003
  0
ARC
  8
_0-0_0
  6
CONTINUOUS
 62
    7
 10
-82.571045000000026
 20
799.60002150000003
 40
8
 50
9.3520350000000008
 51
14.477510999999998
  0
LINE
  8
_0-0_0
  6
CONTINUOUS
 62
    7
 10
-74.879501000000005
 20
801.80000250000001
 11
-74.825088000000051
 21
801.60002150000003
  0
LINE
  8
_0-0_0
  6
CONTINUOUS
 62
    7
 10
-74.939544999999953
 20
802.00001550000002
 11
-74.879501000000005
 21
801.80000250000001
  0
ARC
  8
_0-0_0
  6
CONTINUOUS
 62
    7
 10
-82.571045000000026
 20
799.60002150000003
 40
8
 50
17.457602999999999
 51
22.799030999999999
  0
LINE
  8
_0-0_0
  6
CONTINUOUS
 62
    7
 10
-75.283386000000064
 20
802.90000950000001
 11
-75.196091000000024
 21
802.70002750000003
  0
LINE
  8
_0-0_0
  6
CONTINUOUS
 62
    7
 10
-75.377303999999981
 20
803.10002150000003
 11
-75.283386000000064
 21
802.90000950000001
  0
ARC
  8
_0-0_0
  6
CONTINUOUS
 62
    7
 10
-82.571045000000026
 20
799.60002150000003
 40
8
 50
25.944476999999999
 51
31.668240000000001
  0
LINE
  8
_0-0_0
  6
CONTINUOUS
 62
    7
 10
-75.843704000000002
 20
803.92930550000005
 11
-75.762238000000025
 21
803.80000250000001
  0
LINE
  8
_0-0_0
  6
CONTINUOUS
 62
    7
 10
-75.843704000000002
 20
803.92930550000005
 11
-75.936844000000065
 21
804.07072449999998
  0
LINE
  8
_0-0_0
  6
CONTINUOUS
 62
    7
 10
-76.025818000000072
 20
804.20002750000003
 11
-75.936844000000065
 21
804.07072449999998
  0
CIRCLE
  8
_0-0_0
  6
CONTINUOUS
 62
    7
 10
-82.571045000000026
 20
799.60002150000003
 40
7.5
  0
LINE
  8
_0-0_0
  6
CONTINUOUS
 62
    7
 10
-74.573546999999962
 20
799.80000250000001
 11
1564.4313349999998
 21
799.80000250000001
  0
LINE
  8
_0-0_0
  6
CONTINUOUS
 62
    7
 10
-74.621841000000018
 20
800.50001550000002
 11
1564.479675
 21
800.50001550000002
  0
LINE
  8
_0-0_0
  6
CONTINUOUS
 62
    7
 10
-74.647034000000076
 20
800.70002750000003
 11
1564.5048219999999
 21
800.70002750000003
  0
LINE
  8
_0-0_0
  6
CONTINUOUS
 62
    7
 10
-74.677382999999963
 20
800.90000950000001
 11
1564.5352170000001
 21
800.90000950000001
  0
LINE
  8
_0-0_0
  6
CONTINUOUS
 62
    7
 10
-74.825088000000051
 20
801.60002150000003
 11
1564.682922
 21
801.60002150000003
  0
LINE
  8
_0-0_0
  6
CONTINUOUS
 62
    7
 10
-74.879501000000005
 20
801.80000250000001
 11
1564.7373659999998
 21
801.80000250000001
  0
LINE
  8
_0-0_0
  6
CONTINUOUS
 62
    7
 10
-74.939544999999953
 20
802.00001550000002
 11
1564.7974239999999
 21
802.00001550000002
  0
LINE
  8
_0-0_0
  6
CONTINUOUS
 62
    7
 10
-75.196091000000024
 20
802.70002750000003
 11
1565.0538940000001
 21
802.70002750000003
  0
LINE
  8
_0-0_0
  6
CONTINUOUS
 62
    7
 10
-75.283386000000064
 20
802.90000950000001
 11
1565.1411739999999
 21
802.90000950000001
  0
LINE
  8
_0-0_0
  6
CONTINUOUS
 62
    7
 10
-75.377303999999981
 20
803.10002150000003
 11
1565.235169
 21
803.10002150000003
  0
LINE
  8
_0-0_0
  6
CONTINUOUS
 62
    7
 10
-75.762238000000025
 20
803.80000250000001
 11
1565.6200560000002
 21
803.80000250000001
  0
LINE
  8
_0-0_0
  6
CONTINUOUS
 62
    7
 10
1581.9288940000001
 20
781.60002150000003
 11
1581.4288940000001
 21
781.60002150000003
  0
LINE
  8
_0-0_0
  6
CONTINUOUS
 62
    7
 10
1581.9288940000001
 20
809.20002750000003
 11
1581.9288940000001
 21
810.00001550000002
  0
LINE
  8
_0-0_0
  6
CONTINUOUS
 62
    7
 10
1581.9288940000001
 20
781.40000950000001
 11
1581.9288940000001
 21
809.20002750000003
  0
ARC
  8
_0-0_0
  6
CONTINUOUS
 62
    7
 10
1572.4288940000001
 20
800.30000250000001
 40
12.800000000000001
 50
73.932597000000001
 51
106.06740099999999
  0
LINE
  8
_0-0_0
  6
CONTINUOUS
 62
    7
 10
-92.071045000000026
 20
809.20002750000003
 11
-92.071045000000026
 21
810.00001550000002
  0
LINE
  8
_0-0_0
  6
CONTINUOUS
 62
    7
 10
-92.071045000000026
 20
781.40000950000001
 11
-92.071045000000026
 21
809.20002750000003
  0
ARC
  8
_0-0_0
  6
CONTINUOUS
 62
    7
 10
-82.571045000000026
 20
800.30000250000001
 40
12.800000000000001
 50
73.932597000000001
 51
106.06740099999999
  0
LINE
  8
_0-0_0
  6
CONTINUOUS
 62
    7
 10
457.92892499999999
 20
812.59999049999999
 11
457.92892499999999
 21
818.23991350000006
  0
LINE
  8
_0-0_0
  6
CONTINUOUS
 62
    7
 10
476.92892499999999
 20
818.23991350000006
 11
476.92892499999999
 21
812.59999049999999
  0
LINE
  8
_0-0_0
  6
CONTINUOUS
 62
    7
 10
1007.928894
 20
812.59999049999999
 11
1007.928894
 21
818.23991350000006
  0
LINE
  8
_0-0_0
  6
CONTINUOUS
 62
    7
 10
1026.9288940000001
 20
818.23991350000006
 11
1026.9288940000001
 21
812.59999049999999
  0
LINE
  8
_0-0_0
  6
CONTINUOUS
 62
    7
 10
1581.9288940000001
 20
810.10002150000003
 11
1581.9288940000001
 21
812.60002150000003
  0
LINE
  8
_0-0_0
  6
CONTINUOUS
 62
    7
 10
-92.071045000000026
 20
812.60002150000003
 11
1581.9288940000001
 21
812.60002150000003
  0
LINE
  8
_0-0_0
  6
CONTINUOUS
 62
    7
 10
-92.071045000000026
 20
810.10002150000003
 11
-92.071045000000026
 21
812.60002150000003
  0
LINE
  8
_0-0_0
  6
CONTINUOUS
 62
    7
 10
-92.071045000000026
 20
781.60002150000003
 11
-91.571045000000026
 21
781.60002150000003
  0
ARC
  8
_0-0_0
  6
CONTINUOUS
 62
    7
 10
1520.2289430000001
 20
786.50001550000002
 40
0.2
 50
339.62356199999999
 51
90.000002999999978
  0
LINE
  8
_0-0_0
  6
CONTINUOUS
 62
    7
 10
1520.4163210000002
 20
786.43037449999997
 11
1519.1163940000001
 21
782.93037449999997
  0
ARC
  8
_0-0_0
  6
CONTINUOUS
 62
    7
 10
1518.9288940000001
 20
783.00001550000002
 40
0.2
 50
200.37643
 51
339.62356199999999
  0
LINE
  8
_0-0_0
  6
CONTINUOUS
 62
    7
 10
1517.4414670000001
 20
786.43037449999997
 11
1518.7413940000001
 21
782.93037449999997
  0
ARC
  8
_0-0_0
  6
CONTINUOUS
 62
    7
 10
1517.6288450000002
 20
786.50001550000002
 40
0.2
 50
90.000003000000007
 51
200.37643
  0
LINE
  8
_0-0_0
  6
CONTINUOUS
 62
    7
 10
1517.6288450000002
 20
786.70002750000003
 11
1520.2289430000001
 21
786.70002750000003
  0
ARC
  8
_0-0_0
  6
CONTINUOUS
 62
    7
 10
-19.771057000000042
 20
786.50001550000002
 40
0.2
 50
339.62356199999999
 51
90.000002999999978
  0
LINE
  8
_0-0_0
  6
CONTINUOUS
 62
    7
 10
-19.583572000000004
 20
786.43037449999997
 11
-20.883575000000064
 21
782.93037449999997
  0
ARC
  8
_0-0_0
  6
CONTINUOUS
 62
    7
 10
-21.071059999999989
 20
783.00001550000002
 40
0.2
 50
200.37643
 51
339.62356199999999
  0
LINE
  8
_0-0_0
  6
CONTINUOUS
 62
    7
 10
-22.558547999999973
 20
786.43037449999997
 11
-21.258545000000026
 21
782.93037449999997
  0
ARC
  8
_0-0_0
  6
CONTINUOUS
 62
    7
 10
-22.371063000000049
 20
786.50001550000002
 40
0.2
 50
90.000003000000007
 51
200.37643
  0
LINE
  8
_0-0_0
  6
CONTINUOUS
 62
    7
 10
-22.371063000000049
 20
786.70002750000003
 11
-19.771057000000042
 21
786.70002750000003
  0
LINE
  8
_0-0_0
  6
CONTINUOUS
 62
    7
 10
1582.9288940000001
 20
809.20002750000003
 11
1581.9288940000001
 21
809.20002750000003
  0
LINE
  8
_0-0_0
  6
CONTINUOUS
 62
    7
 10
1582.9288940000001
 20
810.23701449999999
 11
1581.9288940000001
 21
810.23701449999999
  0
LINE
  8
_0-0_0
  6
CONTINUOUS
 62
    7
 10
1582.9288940000001
 20
781.40000950000001
 11
1581.9288940000001
 21
781.40000950000001
  0
ARC
  8
_0-0_0
  6
CONTINUOUS
 62
    7
 10
1017.428894
 20
800.30000250000001
 40
20.299999
 50
62.096725999999997
 51
117.903272
  0
CIRCLE
  8
_0-0_0
  6
CONTINUOUS
 62
    7
 10
1017.428894
 20
816.60002150000003
 40
2.5
  0
ARC
  8
_0-0_0
  6
CONTINUOUS
 62
    7
 10
467.42892499999999
 20
800.30000250000001
 40
20.299999
 50
62.096725999999997
 51
117.903272
  0
CIRCLE
  8
_0-0_0
  6
CONTINUOUS
 62
    7
 10
467.42892499999999
 20
816.60002150000003
 40
2.5
  0
LINE
  8
_0-0_0
  6
CONTINUOUS
 62
    7
 10
-93.071045000000026
 20
809.20002750000003
 11
-92.071045000000026
 21
809.20002750000003
  0
LINE
  8
_0-0_0
  6
CONTINUOUS
 62
    7
 10
-93.071045000000026
 20
810.20002750000003
 11
-92.071045000000026
 21
810.20002750000003
  0
LINE
  8
_0-0_0
  6
CONTINUOUS
 62
    7
 10
-93.071045000000026
 20
781.40000950000001
 11
-92.071045000000026
 21
781.40000950000001
  0
LINE
  8
_0-0_0
  6
CONTINUOUS
 62
    7
 10
1582.9288940000001
 20
812.40000950000001
 11
1581.9288940000001
 21
812.40000950000001
  0
LINE
  8
_0-0_0
  6
CONTINUOUS
 62
    7
 10
-93.071045000000026
 20
812.40000950000001
 11
-92.071045000000026
 21
812.40000950000001
  0
LINE
  8
_0-0_0
  6
CONTINUOUS
 62
    7
 10
1583.9288940000001
 20
808.78581250000002
 11
1583.9279179999999
 21
808.80430550000005
  0
LINE
  8
_0-0_0
  6
CONTINUOUS
 62
    7
 10
1583.9279179999999
 20
808.80430550000005
 11
1583.9248659999998
 21
808.82273850000001
  0
LINE
  8
_0-0_0
  6
CONTINUOUS
 62
    7
 10
1583.9248659999998
 20
808.82273850000001
 11
1583.919617
 21
808.84187350000002
  0
LINE
  8
_0-0_0
  6
CONTINUOUS
 62
    7
 10
1583.919617
 20
808.84187350000002
 11
1583.9122929999999
 21
808.86091650000003
  0
LINE
  8
_0-0_0
  6
CONTINUOUS
 62
    7
 10
1583.9122929999999
 20
808.86091650000003
 11
1583.8917849999998
 21
808.8976285
  0
LINE
  8
_0-0_0
  6
CONTINUOUS
 62
    7
 10
1583.8917849999998
 20
808.8976285
 11
1583.8633420000001
 21
808.93330349999997
  0
LINE
  8
_0-0_0
  6
CONTINUOUS
 62
    7
 10
1583.8633420000001
 20
808.93330349999997
 11
1583.8274539999998
 21
808.96757449999996
  0
LINE
  8
_0-0_0
  6
CONTINUOUS
 62
    7
 10
1583.8274539999998
 20
808.96757449999996
 11
1583.7788700000001
 21
809.00404349999997
  0
LINE
  8
_0-0_0
  6
CONTINUOUS
 62
    7
 10
1583.7788700000001
 20
809.00404349999997
 11
1583.7221070000001
 21
809.0380705
  0
LINE
  8
_0-0_0
  6
CONTINUOUS
 62
    7
 10
1583.7221070000001
 20
809.0380705
 11
1583.6578979999999
 21
809.0693205
  0
LINE
  8
_0-0_0
  6
CONTINUOUS
 62
    7
 10
1583.6578979999999
 20
809.0693205
 11
1583.587219
 21
809.09754950000001
  0
LINE
  8
_0-0_0
  6
CONTINUOUS
 62
    7
 10
1583.587219
 20
809.09754950000001
 11
1583.5391239999999
 21
809.11390649999998
  0
LINE
  8
_0-0_0
  6
CONTINUOUS
 62
    7
 10
1583.5391239999999
 20
809.11390649999998
 11
1583.489075
 21
809.12892150000005
  0
LINE
  8
_0-0_0
  6
CONTINUOUS
 62
    7
 10
1583.489075
 20
809.12892150000005
 11
1583.4323119999999
 21
809.14369150000005
  0
LINE
  8
_0-0_0
  6
CONTINUOUS
 62
    7
 10
1583.4323119999999
 20
809.14369150000005
 11
1583.3737179999998
 21
809.15678349999996
  0
LINE
  8
_0-0_0
  6
CONTINUOUS
 62
    7
 10
1583.3737179999998
 20
809.15678349999996
 11
1583.2568970000002
 21
809.17707849999999
  0
LINE
  8
_0-0_0
  6
CONTINUOUS
 62
    7
 10
1583.2568970000002
 20
809.17707849999999
 11
1583.1495970000001
 21
809.18980350000004
  0
LINE
  8
_0-0_0
  6
CONTINUOUS
 62
    7
 10
1583.1495970000001
 20
809.18980350000004
 11
1583.039734
 21
809.19746350000003
  0
LINE
  8
_0-0_0
  6
CONTINUOUS
 62
    7
 10
1583.039734
 20
809.19746350000003
 11
1582.9288940000001
 21
809.20002750000003
  0
LINE
  8
_0-0_0
  6
CONTINUOUS
 62
    7
 10
1583.9288940000001
 20
808.78581250000002
 11
1583.9288940000001
 21
809.78587349999998
  0
LINE
  8
_0-0_0
  6
CONTINUOUS
 62
    7
 10
1583.9288940000001
 20
809.78587349999998
 11
1583.925964
 21
809.81742850000001
  0
LINE
  8
_0-0_0
  6
CONTINUOUS
 62
    7
 10
1583.925964
 20
809.81742850000001
 11
1583.917297
 21
809.84950249999997
  0
LINE
  8
_0-0_0
  6
CONTINUOUS
 62
    7
 10
1583.917297
 20
809.84950249999997
 11
1583.902771
 21
809.88179049999997
  0
LINE
  8
_0-0_0
  6
CONTINUOUS
 62
    7
 10
1583.902771
 20
809.88179049999997
 11
1583.8825069999998
 21
809.91395550000004
  0
LINE
  8
_0-0_0
  6
CONTINUOUS
 62
    7
 10
1583.8825069999998
 20
809.91395550000004
 11
1583.865906
 21
809.93516550000004
  0
LINE
  8
_0-0_0
  6
CONTINUOUS
 62
    7
 10
1583.865906
 20
809.93516550000004
 11
1583.8469850000001
 21
809.95613049999997
  0
LINE
  8
_0-0_0
  6
CONTINUOUS
 62
    7
 10
1583.8469850000001
 20
809.95613049999997
 11
1583.802185
 21
809.99690250000003
  0
LINE
  8
_0-0_0
  6
CONTINUOUS
 62
    7
 10
1583.802185
 20
809.99690250000003
 11
1583.7489620000001
 21
810.03565949999995
  0
LINE
  8
_0-0_0
  6
CONTINUOUS
 62
    7
 10
1583.7489620000001
 20
810.03565949999995
 11
1583.699036
 21
810.06587249999995
  0
LINE
  8
_0-0_0
  6
CONTINUOUS
 62
    7
 10
1583.699036
 20
810.06587249999995
 11
1583.6443479999998
 21
810.09407050000004
  0
LINE
  8
_0-0_0
  6
CONTINUOUS
 62
    7
 10
1583.6443479999998
 20
810.09407050000004
 11
1583.585388
 21
810.12013249999995
  0
LINE
  8
_0-0_0
  6
CONTINUOUS
 62
    7
 10
1583.585388
 20
810.12013249999995
 11
1583.5386349999999
 21
810.13810750000005
  0
LINE
  8
_0-0_0
  6
CONTINUOUS
 62
    7
 10
1583.5386349999999
 20
810.13810750000005
 11
1583.4899289999998
 21
810.15470849999997
  0
LINE
  8
_0-0_0
  6
CONTINUOUS
 62
    7
 10
1583.4899289999998
 20
810.15470849999997
 11
1583.3875119999998
 21
810.18360849999999
  0
LINE
  8
_0-0_0
  6
CONTINUOUS
 62
    7
 10
1583.3875119999998
 20
810.18360849999999
 11
1583.2798459999999
 21
810.2064365
  0
LINE
  8
_0-0_0
  6
CONTINUOUS
 62
    7
 10
1583.2798459999999
 20
810.2064365
 11
1583.1681520000002
 21
810.22300749999999
  0
LINE
  8
_0-0_0
  6
CONTINUOUS
 62
    7
 10
1583.1681520000002
 20
810.22300749999999
 11
1583.054138
 21
810.23319949999996
  0
LINE
  8
_0-0_0
  6
CONTINUOUS
 62
    7
 10
1583.054138
 20
810.23319949999996
 11
1582.9288940000001
 21
810.23701449999999
  0
ARC
  8
_0-0_0
  6
CONTINUOUS
 62
    7
 10
1582.9288940000001
 20
782.40000950000001
 40
1
 50
269.99999700000001
 51
0
  0
LINE
  8
_0-0_0
  6
CONTINUOUS
 62
    7
 10
1583.9288940000001
 20
782.40000950000001
 11
1583.9288940000001
 21
808.78581250000002
  0
CIRCLE
  8
_0-0_0
  6
CONTINUOUS
 62
    7
 10
1572.4288940000001
 20
799.60002150000003
 40
5
  0
LINE
  8
_0-0_0
  6
CONTINUOUS
 62
    7
 10
-94.071045000000026
 20
808.78581250000002
 11
-94.07005300000003
 21
808.80430550000005
  0
LINE
  8
_0-0_0
  6
CONTINUOUS
 62
    7
 10
-94.07005300000003
 20
808.80430550000005
 11
-94.067047000000002
 21
808.82273850000001
  0
LINE
  8
_0-0_0
  6
CONTINUOUS
 62
    7
 10
-94.067047000000002
 20
808.82273850000001
 11
-94.061828999999989
 21
808.84187350000002
  0
LINE
  8
_0-0_0
  6
CONTINUOUS
 62
    7
 10
-94.061828999999989
 20
808.84187350000002
 11
-94.054442999999992
 21
808.86091650000003
  0
LINE
  8
_0-0_0
  6
CONTINUOUS
 62
    7
 10
-94.054442999999992
 20
808.86091650000003
 11
-94.033890000000042
 21
808.8976285
  0
LINE
  8
_0-0_0
  6
CONTINUOUS
 62
    7
 10
-94.033890000000042
 20
808.8976285
 11
-94.005493000000001
 21
808.93330349999997
  0
LINE
  8
_0-0_0
  6
CONTINUOUS
 62
    7
 10
-94.005493000000001
 20
808.93330349999997
 11
-93.969604000000004
 21
808.96757449999996
  0
LINE
  8
_0-0_0
  6
CONTINUOUS
 62
    7
 10
-93.969604000000004
 20
808.96757449999996
 11
-93.920990000000074
 21
809.00404349999997
  0
LINE
  8
_0-0_0
  6
CONTINUOUS
 62
    7
 10
-93.920990000000074
 20
809.00404349999997
 11
-93.86419699999999
 21
809.0380705
  0
LINE
  8
_0-0_0
  6
CONTINUOUS
 62
    7
 10
-93.86419699999999
 20
809.0380705
 11
-93.80006400000002
 21
809.0693205
  0
LINE
  8
_0-0_0
  6
CONTINUOUS
 62
    7
 10
-93.80006400000002
 20
809.0693205
 11
-93.729416000000015
 21
809.09754950000001
  0
LINE
  8
_0-0_0
  6
CONTINUOUS
 62
    7
 10
-93.729416000000015
 20
809.09754950000001
 11
-93.68133499999999
 21
809.11390649999998
  0
LINE
  8
_0-0_0
  6
CONTINUOUS
 62
    7
 10
-93.68133499999999
 20
809.11390649999998
 11
-93.631195000000048
 21
809.12892150000005
  0
LINE
  8
_0-0_0
  6
CONTINUOUS
 62
    7
 10
-93.631195000000048
 20
809.12892150000005
 11
-93.574493000000075
 21
809.14369150000005
  0
LINE
  8
_0-0_0
  6
CONTINUOUS
 62
    7
 10
-93.574493000000075
 20
809.14369150000005
 11
-93.515899999999988
 21
809.15678349999996
  0
LINE
  8
_0-0_0
  6
CONTINUOUS
 62
    7
 10
-93.515899999999988
 20
809.15678349999996
 11
-93.399108999999953
 21
809.17707849999999
  0
LINE
  8
_0-0_0
  6
CONTINUOUS
 62
    7
 10
-93.399108999999953
 20
809.17707849999999
 11
-93.291701999999987
 21
809.18980350000004
  0
LINE
  8
_0-0_0
  6
CONTINUOUS
 62
    7
 10
-93.291701999999987
 20
809.18980350000004
 11
-93.181946000000039
 21
809.19746350000003
  0
LINE
  8
_0-0_0
  6
CONTINUOUS
 62
    7
 10
-93.181946000000039
 20
809.19746350000003
 11
-93.071045000000026
 21
809.20002750000003
  0
LINE
  8
_0-0_0
  6
CONTINUOUS
 62
    7
 10
-94.071045000000026
 20
809.75547749999998
 11
-94.068161000000032
 21
809.7863615
  0
LINE
  8
_0-0_0
  6
CONTINUOUS
 62
    7
 10
-94.068161000000032
 20
809.7863615
 11
-94.059463000000051
 21
809.81782550000003
  0
LINE
  8
_0-0_0
  6
CONTINUOUS
 62
    7
 10
-94.059463000000051
 20
809.81782550000003
 11
-94.044983000000002
 21
809.84947150000005
  0
LINE
  8
_0-0_0
  6
CONTINUOUS
 62
    7
 10
-94.044983000000002
 20
809.84947150000005
 11
-94.024811
 21
809.8810575
  0
LINE
  8
_0-0_0
  6
CONTINUOUS
 62
    7
 10
-94.024811
 20
809.8810575
 11
-94.008301000000074
 21
809.90193150000005
  0
LINE
  8
_0-0_0
  6
CONTINUOUS
 62
    7
 10
-94.008301000000074
 20
809.90193150000005
 11
-93.989379999999983
 21
809.92256150000003
  0
LINE
  8
_0-0_0
  6
CONTINUOUS
 62
    7
 10
-93.989379999999983
 20
809.92256150000003
 11
-93.944748000000004
 21
809.96272250000004
  0
LINE
  8
_0-0_0
  6
CONTINUOUS
 62
    7
 10
-93.944748000000004
 20
809.96272250000004
 11
-93.891616999999997
 21
810.00090050000006
  0
LINE
  8
_0-0_0
  6
CONTINUOUS
 62
    7
 10
-93.891616999999997
 20
810.00090050000006
 11
-93.841721000000007
 21
810.03071550000004
  0
LINE
  8
_0-0_0
  6
CONTINUOUS
 62
    7
 10
-93.841721000000007
 20
810.03071550000004
 11
-93.787048000000027
 21
810.05860849999999
  0
LINE
  8
_0-0_0
  6
CONTINUOUS
 62
    7
 10
-93.787048000000027
 20
810.05860849999999
 11
-93.728088000000071
 21
810.08433549999995
  0
LINE
  8
_0-0_0
  6
CONTINUOUS
 62
    7
 10
-93.728088000000071
 20
810.08433549999995
 11
-93.681320000000028
 21
810.10212650000005
  0
LINE
  8
_0-0_0
  6
CONTINUOUS
 62
    7
 10
-93.681320000000028
 20
810.10212650000005
 11
-93.63261399999999
 21
810.11854549999998
  0
LINE
  8
_0-0_0
  6
CONTINUOUS
 62
    7
 10
-93.63261399999999
 20
810.11854549999998
 11
-93.530181999999968
 21
810.14714049999998
  0
LINE
  8
_0-0_0
  6
CONTINUOUS
 62
    7
 10
-93.530181999999968
 20
810.14714049999998
 11
-93.422363000000018
 21
810.16972350000003
  0
LINE
  8
_0-0_0
  6
CONTINUOUS
 62
    7
 10
-93.422363000000018
 20
810.16972350000003
 11
-93.310668999999962
 21
810.18614149999996
  0
LINE
  8
_0-0_0
  6
CONTINUOUS
 62
    7
 10
-93.310668999999962
 20
810.18614149999996
 11
-93.196517999999969
 21
810.19624350000004
  0
LINE
  8
_0-0_0
  6
CONTINUOUS
 62
    7
 10
-93.196517999999969
 20
810.19624350000004
 11
-93.071045000000026
 21
810.20002750000003
  0
LINE
  8
_0-0_0
  6
CONTINUOUS
 62
    7
 10
-94.071045000000026
 20
808.78581250000002
 11
-94.071045000000026
 21
809.75547749999998
  0
ARC
  8
_0-0_0
  6
CONTINUOUS
 62
    7
 10
-93.071045000000026
 20
782.40000950000001
 40
1
 50
180.00000900000003
 51
269.99999700000001
  0
LINE
  8
_0-0_0
  6
CONTINUOUS
 62
    7
 10
-94.071045000000026
 20
782.40000950000001
 11
-94.071045000000026
 21
808.78581250000002
  0
CIRCLE
  8
_0-0_0
  6
CONTINUOUS
 62
    7
 10
-82.571045000000026
 20
799.60002150000003
 40
5
  0
LINE
  8
_0-0_0
  6
CONTINUOUS
 62
    7
 10
1583.9288940000001
 20
809.78587349999998
 11
1583.9288940000001
 21
811.40000950000001
  0
ARC
  8
_0-0_0
  6
CONTINUOUS
 62
    7
 10
1582.9288940000001
 20
811.40000950000001
 40
1
 50
0
 51
90.000003000000007
  0
ARC
  8
_0-0_0
  6
CONTINUOUS
 62
    7
 10
-93.071045000000026
 20
811.40000950000001
 40
1
 50
90.000003000000007
 51
180.00000900000001
  0
LINE
  8
_0-0_0
  6
CONTINUOUS
 62
    7
 10
-94.071045000000026
 20
809.75547749999998
 11
-94.071045000000026
 21
811.40000950000001
  0
LINE
  8
_0-0_0
  6
CONTINUOUS
 62
    7
 10
-181.88671900000008
 20
779.29994150000005
 11
-181.88671900000008
 21
779.27494750000005
  0
LINE
  8
_0-0_0
  6
CONTINUOUS
 62
    7
 10
-181.88671900000008
 20
776.2228235
 11
-181.88671900000008
 21
776.32493550000004
  0
LINE
  8
_0-0_0
  6
CONTINUOUS
 62
    7
 10
-181.88671900000008
 20
755.19993550000004
 11
-181.88671900000008
 21
755.97706549999998
  0
LINE
  8
_0-0_0
  6
CONTINUOUS
 62
    7
 10
-198.68673699999999
 20
755.19993550000004
 11
-181.88671900000008
 21
755.19993550000004
  0
LINE
  8
_0-0_0
  6
CONTINUOUS
 62
    7
 10
-198.68673699999999
 20
763.09992950000003
 11
-198.68673699999999
 21
755.19993550000004
  0
LINE
  8
_0-0_0
  6
CONTINUOUS
 62
    7
 10
-198.68673699999999
 20
775.55525150000005
 11
-198.68673699999999
 21
769.09992950000003
  0
LINE
  8
_0-0_0
  6
CONTINUOUS
 62
    7
 10
-181.38674900000001
 20
758.69993550000004
 11
-181.18673699999999
 21
758.69993550000004
  0
LINE
  8
_0-0_0
  6
CONTINUOUS
 62
    7
 10
-181.18673699999999
 20
758.69993550000004
 11
-181.18673699999999
 21
761.69993550000004
  0
LINE
  8
_0-0_0
  6
CONTINUOUS
 62
    7
 10
-181.18673699999999
 20
775.29994150000005
 11
-181.18673699999999
 21
761.69993550000004
  0
LINE
  8
_0-0_0
  6
CONTINUOUS
 62
    7
 10
-181.38671900000008
 20
778.29994150000005
 11
-181.18673699999999
 21
778.29994150000005
  0
LINE
  8
_0-0_0
  6
CONTINUOUS
 62
    7
 10
-181.18673699999999
 20
775.29994150000005
 11
-181.18673699999999
 21
778.29994150000005
  0
LINE
  8
_0-0_0
  6
CONTINUOUS
 62
    7
 10
-182.08673099999999
 20
777.59901449999995
 11
-182.08673099999999
 21
776.41981450000003
  0
LINE
  8
_0-0_0
  6
CONTINUOUS
 62
    7
 10
-182.08673099999999
 20
779.79994150000005
 11
-182.08673099999999
 21
779.29994150000005
  0
LINE
  8
_0-0_0
  6
CONTINUOUS
 62
    7
 10
-183.08673099999987
 20
776.88343750000001
 11
-183.08673099999987
 21
777.59992950000003
  0
ARC
  8
_0-0_0
  6
CONTINUOUS
 62
    7
 10
-183.38671900000008
 20
774.89994750000005
 40
2
 50
0
 51
90.000003000000007
  0
LINE
  8
_0-0_0
  6
CONTINUOUS
 62
    7
 10
-181.38671900000008
 20
771.39994750000005
 11
-181.38671900000008
 21
774.39994750000005
  0
LINE
  8
_0-0_0
  6
CONTINUOUS
 62
    7
 10
-181.38671900000008
 20
774.39994750000005
 11
-181.38671900000008
 21
774.89994750000005
  0
LINE
  8
_0-0_0
  6
CONTINUOUS
 62
    7
 10
-181.38671900000008
 20
757.29994150000005
 11
-181.38671900000008
 21
770.89994750000005
  0
LINE
  8
_0-0_0
  6
CONTINUOUS
 62
    7
 10
-181.38671900000008
 20
771.39994750000005
 11
-181.38671900000008
 21
770.89994750000005
  0
ARC
  8
_0-0_0
  6
CONTINUOUS
 62
    7
 10
-183.38671900000008
 20
757.29994150000005
 40
2
 50
273.84026500000004
 51
0.000010000000014
  0
LINE
  8
_0-0_0
  6
CONTINUOUS
 62
    7
 10
-196.68673699999999
 20
776.88343750000001
 11
-196.68673699999999
 21
777.59992950000003
  0
LINE
  8
_0-0_0
  6
CONTINUOUS
 62
    7
 10
-196.68673699999999
 20
776.88343750000001
 11
-196.68673699999999
 21
776.87730350000004
  0
LINE
  8
_0-0_0
  6
CONTINUOUS
 62
    7
 10
-198.68673699999999
 20
775.55525150000005
 11
-198.68673699999999
 21
776.05525150000005
  0
LINE
  8
_0-0_0
  6
CONTINUOUS
 62
    7
 10
-198.38671900000008
 20
774.89994750000005
 11
-198.38671900000008
 21
761.29994150000005
  0
LINE
  8
_0-0_0
  6
CONTINUOUS
 62
    7
 10
-198.38671900000008
 20
760.79994150000005
 11
-198.38671900000008
 21
761.29994150000005
  0
LINE
  8
_0-0_0
  6
CONTINUOUS
 62
    7
 10
-198.38671900000008
 20
757.79994150000005
 11
-198.38671900000008
 21
760.79994150000005
  0
LINE
  8
_0-0_0
  6
CONTINUOUS
 62
    7
 10
-198.38671900000008
 20
757.29994150000005
 11
-198.38671900000008
 21
757.79994150000005
  0
ARC
  8
_0-0_0
  6
CONTINUOUS
 62
    7
 10
-196.38671900000008
 20
774.89994750000005
 40
2
 50
93.840255999999997
 51
180.00000900000001
  0
LINE
  8
_0-0_0
  6
CONTINUOUS
 62
    7
 10
-198.68673699999999
 20
763.09992950000003
 11
-198.68673699999999
 21
769.09992950000003
  0
LINE
  8
_0-0_0
  6
CONTINUOUS
 62
    7
 10
-198.68673699999999
 20
777.59992950000003
 11
-198.68673699999999
 21
776.05525150000005
  0
LINE
  8
_0-0_0
  6
CONTINUOUS
 62
    7
 10
-198.68673699999999
 20
769.09992950000003
 11
-198.38671900000008
 21
769.09992950000003
  0
LINE
  8
_0-0_0
  6
CONTINUOUS
 62
    7
 10
-198.68673699999999
 20
763.09992950000003
 11
-198.38671900000008
 21
763.09992950000003
  0
LINE
  8
_0-0_0
  6
CONTINUOUS
 62
    7
 10
-183.38671900000008
 20
755.29994150000005
 11
-192.38671900000008
 21
755.29994150000005
  0
LINE
  8
_0-0_0
  6
CONTINUOUS
 62
    7
 10
-195.88671900000008
 20
755.29994150000005
 11
-196.38671900000008
 21
755.29994150000005
  0
LINE
  8
_0-0_0
  6
CONTINUOUS
 62
    7
 10
-192.88671900000008
 20
755.29994150000005
 11
-195.88671900000008
 21
755.29994150000005
  0
LINE
  8
_0-0_0
  6
CONTINUOUS
 62
    7
 10
-192.38671900000008
 20
755.29994150000005
 11
-192.88671900000008
 21
755.29994150000005
  0
ARC
  8
_0-0_0
  6
CONTINUOUS
 62
    7
 10
-196.38671900000008
 20
757.29994150000005
 40
2
 50
180.00000900000003
 51
269.99999700000001
  0
ARC
  8
_0-0_0
  6
CONTINUOUS
 62
    7
 10
-182.58673099999999
 20
779.79994150000005
 40
0.5
 50
0
 51
90.000003000000007
  0
LINE
  8
_0-0_0
  6
CONTINUOUS
 62
    7
 10
-184.08673099999987
 20
780.29994150000005
 11
-182.58673099999999
 21
780.29994150000005
  0
ARC
  8
_0-0_0
  6
CONTINUOUS
 62
    7
 10
-184.08673099999987
 20
781.29994150000005
 40
1
 50
180.00000900000003
 51
269.99999700000001
  0
LINE
  8
_0-0_0
  6
CONTINUOUS
 62
    7
 10
-185.08673099999987
 20
781.29994150000005
 11
-185.08673099999987
 21
781.40003950000005
  0
LINE
  8
_0-0_0
  6
CONTINUOUS
 62
    7
 10
-185.58673099999987
 20
780.29994150000005
 11
-185.58673099999987
 21
781.40003950000005
  0
ARC
  8
_0-0_0
  6
CONTINUOUS
 62
    7
 10
-184.58673099999987
 20
780.29994150000005
 40
1
 50
180.00000900000003
 51
269.99999700000001
  0
LINE
  8
_0-0_0
  6
CONTINUOUS
 62
    7
 10
-184.58673099999987
 20
779.29994150000005
 11
-184.78671299999996
 21
779.29994150000005
  0
ARC
  8
_0-0_0
  6
CONTINUOUS
 62
    7
 10
-184.78671299999996
 20
780.29994150000005
 40
1
 50
180.00000900000003
 51
269.99999700000001
  0
ARC
  8
_0-0_0
  6
CONTINUOUS
 62
    7
 10
-194.98672499999998
 20
780.29994150000005
 40
1
 50
269.99999700000001
 51
0
  0
LINE
  8
_0-0_0
  6
CONTINUOUS
 62
    7
 10
-194.98672499999998
 20
779.29994150000005
 11
-195.68673699999999
 21
779.29994150000005
  0
LINE
  8
_0-0_0
  6
CONTINUOUS
 62
    7
 10
-181.88671900000008
 20
779.29994150000005
 11
-182.08673099999999
 21
779.29994150000005
  0
LINE
  8
_0-0_0
  6
CONTINUOUS
 62
    7
 10
-198.68673699999999
 20
777.59992950000003
 11
-181.88671900000008
 21
777.59992950000003
  0
LINE
  8
_0-0_0
  6
CONTINUOUS
 62
    7
 10
-181.88671900000008
 20
777.59992950000003
 11
-181.88671900000008
 21
779.29994150000005
  0
LINE
  8
_0-0_0
  6
CONTINUOUS
 62
    7
 10
-185.78671299999996
 20
781.40003950000005
 11
-185.78671299999996
 21
780.29994150000005
  0
LINE
  8
_0-0_0
  6
CONTINUOUS
 62
    7
 10
-193.98672499999998
 20
780.29994150000005
 11
-193.98672499999998
 21
781.40003950000005
  0
LINE
  8
_0-0_0
  6
CONTINUOUS
 62
    7
 10
-197.68673699999999
 20
779.29994150000005
 11
-198.68673699999999
 21
779.29994150000005
  0
LINE
  8
_0-0_0
  6
CONTINUOUS
 62
    7
 10
-198.68673699999999
 20
777.59992950000003
 11
-198.68673699999999
 21
779.29994150000005
  0
LINE
  8
_0-0_0
  6
CONTINUOUS
 62
    7
 10
-183.38671900000008
 20
776.89994750000005
 11
-183.88671900000008
 21
776.89994750000005
  0
CIRCLE
  8
_0-0_0
  6
CONTINUOUS
 62
    7
 10
-183.88671900000008
 20
774.39994750000005
 40
2.5
  0
LINE
  8
_0-0_0
  6
CONTINUOUS
 62
    7
 10
-196.38671900000008
 20
776.89994750000005
 11
-187.38671900000008
 21
776.89994750000005
  0
LINE
  8
_0-0_0
  6
CONTINUOUS
 62
    7
 10
-183.88671900000008
 20
776.89994750000005
 11
-186.88671900000008
 21
776.89994750000005
  0
LINE
  8
_0-0_0
  6
CONTINUOUS
 62
    7
 10
-187.38671900000008
 20
776.89994750000005
 11
-186.88671900000008
 21
776.89994750000005
  0
ARC
  8
_0-0_0
  6
CONTINUOUS
 62
    7
 10
-181.88671900000008
 20
770.89994750000005
 40
0.5
 50
0
 51
90.000003000000007
  0
LINE
  8
_0-0_0
  6
CONTINUOUS
 62
    7
 10
-183.38671900000008
 20
755.40257250000002
 11
-183.37085000000002
 21
755.37532050000004
  0
LINE
  8
_0-0_0
  6
CONTINUOUS
 62
    7
 10
-183.37085000000002
 20
755.37532050000004
 11
-183.3550110000001
 21
755.35234049999997
  0
LINE
  8
_0-0_0
  6
CONTINUOUS
 62
    7
 10
-183.3550110000001
 20
755.35234049999997
 11
-183.341003
 21
755.33558649999998
  0
LINE
  8
_0-0_0
  6
CONTINUOUS
 62
    7
 10
-183.341003
 20
755.33558649999998
 11
-183.32711800000016
 21
755.3222505
  0
LINE
  8
_0-0_0
  6
CONTINUOUS
 62
    7
 10
-183.32711800000016
 20
755.3222505
 11
-183.31491099999994
 21
755.31333949999998
  0
LINE
  8
_0-0_0
  6
CONTINUOUS
 62
    7
 10
-183.31491099999994
 20
755.31333949999998
 11
-183.30279500000006
 21
755.30711350000001
  0
LINE
  8
_0-0_0
  6
CONTINUOUS
 62
    7
 10
-183.30279500000006
 20
755.30711350000001
 11
-183.29193099999998
 21
755.30384849999996
  0
LINE
  8
_0-0_0
  6
CONTINUOUS
 62
    7
 10
-183.29193099999998
 20
755.30384849999996
 11
-183.281158
 21
755.30278050000004
  0
LINE
  8
_0-0_0
  6
CONTINUOUS
 62
    7
 10
-183.281158
 20
755.30278050000004
 11
-183.27868600000011
 21
755.30287150000004
  0
LINE
  8
_0-0_0
  6
CONTINUOUS
 62
    7
 10
-197.68673699999999
 20
776.41981450000003
 11
-197.68673699999999
 21
777.59901449999995
  0
ARC
  8
_0-0_0
  6
CONTINUOUS
 62
    7
 10
-197.88671900000008
 20
761.29994150000005
 40
0.5
 50
180.00000900000003
 51
269.99999700000001
  0
CIRCLE
  8
_0-0_0
  6
CONTINUOUS
 62
    7
 10
-195.88671900000008
 20
757.79994150000005
 40
2.5
  0
LINE
  8
_0-0_0
  6
CONTINUOUS
 62
    7
 10
-196.38671900000008
 20
776.79731749999996
 11
-196.40261800000007
 21
776.82456950000005
  0
LINE
  8
_0-0_0
  6
CONTINUOUS
 62
    7
 10
-196.40261800000007
 20
776.82456950000005
 11
-196.41845699999999
 21
776.84754950000001
  0
LINE
  8
_0-0_0
  6
CONTINUOUS
 62
    7
 10
-196.41845699999999
 20
776.84754950000001
 11
-196.43243400000006
 21
776.86430350000001
  0
LINE
  8
_0-0_0
  6
CONTINUOUS
 62
    7
 10
-196.43243400000006
 20
776.86430350000001
 11
-196.44632000000001
 21
776.87763949999999
  0
LINE
  8
_0-0_0
  6
CONTINUOUS
 62
    7
 10
-196.44632000000001
 20
776.87763949999999
 11
-196.45855699999993
 21
776.8865505
  0
LINE
  8
_0-0_0
  6
CONTINUOUS
 62
    7
 10
-196.45855699999993
 20
776.8865505
 11
-196.47067300000003
 21
776.89277649999997
  0
LINE
  8
_0-0_0
  6
CONTINUOUS
 62
    7
 10
-196.47067300000003
 20
776.89277649999997
 11
-196.48153700000012
 21
776.89604150000002
  0
LINE
  8
_0-0_0
  6
CONTINUOUS
 62
    7
 10
-196.48153700000012
 20
776.89604150000002
 11
-196.49227900000005
 21
776.89710950000006
  0
LINE
  8
_0-0_0
  6
CONTINUOUS
 62
    7
 10
-196.49227900000005
 20
776.89710950000006
 11
-196.49475099999995
 21
776.89701850000006
  0
LINE
  8
_0-0_0
  6
CONTINUOUS
 62
    7
 10
-198.68673699999999
 20
758.69993550000004
 11
-198.78671299999996
 21
758.69993550000004
  0
LINE
  8
_0-0_0
  6
CONTINUOUS
 62
    7
 10
-198.78671299999996
 20
758.69993550000004
 11
-198.78671299999996
 21
761.69993550000004
  0
LINE
  8
_0-0_0
  6
CONTINUOUS
 62
    7
 10
-198.78671299999996
 20
761.69993550000004
 11
-198.78671299999996
 21
775.29994150000005
  0
LINE
  8
_0-0_0
  6
CONTINUOUS
 62
    7
 10
-198.68673699999999
 20
778.29994150000005
 11
-198.78671299999996
 21
778.29994150000005
  0
LINE
  8
_0-0_0
  6
CONTINUOUS
 62
    7
 10
-198.78671299999996
 20
775.29994150000005
 11
-198.78671299999996
 21
778.29994150000005
  0
ARC
  8
_0-0_0
  6
CONTINUOUS
 62
    7
 10
-192.38671900000008
 20
755.79994150000005
 40
0.5
 50
180.00000900000003
 51
269.99999700000001
  0
ARC
  8
_0-0_0
  6
CONTINUOUS
 62
    7
 10
-195.68673699999999
 20
780.80000250000001
 40
1.5
 50
269.99999700000001
 51
0
  0
ARC
  8
_0-0_0
  6
CONTINUOUS
 62
    7
 10
-197.18673699999999
 20
779.80000250000001
 40
0.5
 50
90.000003000000007
 51
180.00000900000001
  0
LINE
  8
_0-0_0
  6
CONTINUOUS
 62
    7
 10
-197.18673699999999
 20
780.30000250000001
 11
-195.68673699999999
 21
780.30000250000001
  0
ARC
  8
_0-0_0
  6
CONTINUOUS
 62
    7
 10
-195.68673699999999
 20
781.30000250000001
 40
1
 50
269.99999700000001
 51
0
  0
LINE
  8
_0-0_0
  6
CONTINUOUS
 62
    7
 10
-194.68673699999999
 20
781.40003950000005
 11
-194.68673699999999
 21
781.30000250000001
  0
LINE
  8
_0-0_0
  6
CONTINUOUS
 62
    7
 10
-194.18673699999999
 20
781.40003950000005
 11
-194.18673699999999
 21
780.80000250000001
  0
LINE
  8
_0-0_0
  6
CONTINUOUS
 62
    7
 10
-197.68673699999999
 20
779.30000250000001
 11
-197.68673699999999
 21
779.80000250000001
  0
ARC
  8
_0-0_0
  6
CONTINUOUS
 62
    7
 10
-187.38671900000008
 20
776.39994750000005
 40
0.5
 50
0
 51
90.000003000000007
  0
LINE
  8
_0-0_0
  6
CONTINUOUS
 62
    7
 10
-186.88671900000008
 20
776.32295250000004
 11
-186.88671900000008
 21
776.39994750000005
  0
LINE
  8
_0-0_0
  6
CONTINUOUS
 62
    7
 10
-186.88671900000008
 20
774.88145450000002
 11
-186.88671900000008
 21
776.32295250000004
  0
LINE
  8
_0-0_0
  6
CONTINUOUS
 62
    7
 10
-186.88671900000008
 20
774.39994750000005
 11
-186.88671900000008
 21
774.88145450000002
  0
ARC
  8
_0-0_0
  6
CONTINUOUS
 62
    7
 10
-183.88671900000008
 20
774.39994750000005
 40
3
 50
180.00000900000003
 51
269.99999700000001
  0
LINE
  8
_0-0_0
  6
CONTINUOUS
 62
    7
 10
-183.40521200000012
 20
771.39994750000005
 11
-183.88671900000008
 21
771.39994750000005
  0
LINE
  8
_0-0_0
  6
CONTINUOUS
 62
    7
 10
-183.40521200000012
 20
771.39994750000005
 11
-181.96368400000006
 21
771.39994750000005
  0
LINE
  8
_0-0_0
  6
CONTINUOUS
 62
    7
 10
-181.88671900000008
 20
771.39994750000005
 11
-181.96368400000006
 21
771.39994750000005
  0
LINE
  8
_0-0_0
  6
CONTINUOUS
 62
    7
 10
-197.809753
 20
760.79994150000005
 11
-197.88671900000008
 21
760.79994150000005
  0
LINE
  8
_0-0_0
  6
CONTINUOUS
 62
    7
 10
-195.88671900000008
 20
760.79994150000005
 11
-196.36822499999994
 21
760.79994150000005
  0
LINE
  8
_0-0_0
  6
CONTINUOUS
 62
    7
 10
-196.36822499999994
 20
760.79994150000005
 11
-197.809753
 21
760.79994150000005
  0
LINE
  8
_0-0_0
  6
CONTINUOUS
 62
    7
 10
-192.88671900000008
 20
755.79994150000005
 11
-192.88671900000008
 21
755.87690750000002
  0
LINE
  8
_0-0_0
  6
CONTINUOUS
 62
    7
 10
-192.88671900000008
 20
757.31843549999996
 11
-192.88671900000008
 21
755.87690750000002
  0
LINE
  8
_0-0_0
  6
CONTINUOUS
 62
    7
 10
-192.88671900000008
 20
757.31843549999996
 11
-192.88671900000008
 21
757.79994150000005
  0
ARC
  8
_0-0_0
  6
CONTINUOUS
 62
    7
 10
-195.88671900000008
 20
757.79994150000005
 40
3
 50
0
 51
89.999995999999996
  0
LINE
  8
_0-0_0
  6
CONTINUOUS
 62
    7
 10
-181.38671900000008
 20
778.41120850000004
 11
-181.38671900000008
 21
776.52494750000005
  0
LINE
  8
_0-0_0
  6
CONTINUOUS
 62
    7
 10
-181.38671900000008
 20
779.07493550000004
 11
-181.38671900000008
 21
778.41120850000004
  0
ARC
  8
_0-0_0
  6
CONTINUOUS
 62
    7
 10
-186.65661599999999
 20
767.27317749999997
 40
3.063396
 50
19.82113
 51
25.289563000000001
  0
ARC
  8
_0-0_0
  6
CONTINUOUS
 62
    7
 10
-186.65628000000015
 20
764.92655950000005
 40
3.0630519999999999
 50
334.71006
 51
340.17869200000001
  0
ARC
  8
_0-0_0
  6
CONTINUOUS
 62
    7
 10
-193.11685200000011
 20
764.92671150000001
 40
3.063399
 50
199.82113599999997
 51
205.28948099999999
  0
ARC
  8
_0-0_0
  6
CONTINUOUS
 62
    7
 10
-193.11715700000013
 20
767.27333050000004
 40
3.0630549999999999
 50
154.710137
 51
160.17869999999999
  0
ARC
  8
_0-0_0
  6
CONTINUOUS
 62
    7
 10
-189.88671900000008
 20
766.09992950000003
 40
6.5
 50
340.10416099999998
 51
19.895609999999952
  0
ARC
  8
_0-0_0
  6
CONTINUOUS
 62
    7
 10
-189.88671900000008
 20
766.09992950000003
 40
6.5
 50
160.10415599999999
 51
199.895612
  0
LINE
  8
_0-0_0
  6
CONTINUOUS
 62
    7
 10
-198.38671900000008
 20
777.18873550000001
 11
-198.38671900000008
 21
777.59907550000003
  0
LINE
  8
_0-0_0
  6
CONTINUOUS
 62
    7
 10
-198.38671900000008
 20
776.52986150000004
 11
-198.38671900000008
 21
777.18873550000001
  0
LINE
  8
_0-0_0
  6
CONTINUOUS
 62
    7
 10
-190.62838699999998
 20
772.59992950000003
 11
-195.14505000000008
 21
769.9922335
  0
LINE
  8
_0-0_0
  6
CONTINUOUS
 62
    7
 10
-189.14505000000008
 20
772.59992950000003
 11
-190.62838699999998
 21
772.59992950000003
  0
LINE
  8
_0-0_0
  6
CONTINUOUS
 62
    7
 10
-184.62838699999998
 20
769.9922335
 11
-189.14505000000008
 21
772.59992950000003
  0
LINE
  8
_0-0_0
  6
CONTINUOUS
 62
    7
 10
-183.88671900000008
 20
768.70762649999995
 11
-183.88671900000008
 21
763.4922335
  0
LINE
  8
_0-0_0
  6
CONTINUOUS
 62
    7
 10
-184.62838699999998
 20
769.9922335
 11
-183.88671900000008
 21
768.70762649999995
  0
LINE
  8
_0-0_0
  6
CONTINUOUS
 62
    7
 10
-189.14505000000008
 20
759.59992950000003
 11
-184.62838699999998
 21
762.20762649999995
  0
LINE
  8
_0-0_0
  6
CONTINUOUS
 62
    7
 10
-184.33425899999997
 20
762.71708650000005
 11
-183.88671900000008
 21
763.4922335
  0
LINE
  8
_0-0_0
  6
CONTINUOUS
 62
    7
 10
-184.33425899999997
 20
762.71708650000005
 11
-184.62838699999998
 21
762.20762649999995
  0
LINE
  8
_0-0_0
  6
CONTINUOUS
 62
    7
 10
-190.62838699999998
 20
759.59992950000003
 11
-189.14505000000008
 21
759.59992950000003
  0
LINE
  8
_0-0_0
  6
CONTINUOUS
 62
    7
 10
-195.14505000000008
 20
762.20762649999995
 11
-190.62838699999998
 21
759.59992950000003
  0
LINE
  8
_0-0_0
  6
CONTINUOUS
 62
    7
 10
-195.88671900000008
 20
768.70762649999995
 11
-195.88671900000008
 21
763.4922335
  0
LINE
  8
_0-0_0
  6
CONTINUOUS
 62
    7
 10
-195.14505000000008
 20
762.20762649999995
 11
-195.88671900000008
 21
763.4922335
  0
LINE
  8
_0-0_0
  6
CONTINUOUS
 62
    7
 10
-195.43917800000008
 20
769.48280350000005
 11
-195.88671900000008
 21
768.70762649999995
  0
LINE
  8
_0-0_0
  6
CONTINUOUS
 62
    7
 10
-195.43917800000008
 20
769.48280350000005
 11
-195.14505000000008
 21
769.9922335
  0
LINE
  8
_0-0_0
  6
CONTINUOUS
 62
    7
 10
-181.99972500000001
 20
775.6253815
 11
-181.72164900000007
 21
775.64994750000005
  0
LINE
  8
_0-0_0
  6
CONTINUOUS
 62
    7
 10
-181.88195799999994
 20
775.42143250000004
 11
-181.72164900000007
 21
775.64994750000005
  0
LINE
  8
_0-0_0
  6
CONTINUOUS
 62
    7
 10
-182.13815299999999
 20
775.81590249999999
 11
-181.86419699999999
 21
775.86939949999999
  0
LINE
  8
_0-0_0
  6
CONTINUOUS
 62
    7
 10
-181.99972500000001
 20
775.6253815
 11
-181.86419699999999
 21
775.86939949999999
  0
LINE
  8
_0-0_0
  6
CONTINUOUS
 62
    7
 10
-182.29574600000001
 20
775.99092050000002
 11
-182.0288700000001
 21
776.07276950000005
  0
LINE
  8
_0-0_0
  6
CONTINUOUS
 62
    7
 10
-182.13815299999999
 20
775.81590249999999
 11
-182.0288700000001
 21
776.07276950000005
  0
LINE
  8
_0-0_0
  6
CONTINUOUS
 62
    7
 10
-182.47076400000003
 20
776.14851350000004
 11
-182.21389799999997
 21
776.25779750000004
  0
LINE
  8
_0-0_0
  6
CONTINUOUS
 62
    7
 10
-182.29574600000001
 20
775.99092050000002
 11
-182.21389799999997
 21
776.25779750000004
  0
LINE
  8
_0-0_0
  6
CONTINUOUS
 62
    7
 10
-182.66128500000002
 20
776.28694150000001
 11
-182.41726700000004
 21
776.42250049999996
  0
LINE
  8
_0-0_0
  6
CONTINUOUS
 62
    7
 10
-182.47076400000003
 20
776.14851350000004
 11
-182.41726700000004
 21
776.42250049999996
  0
LINE
  8
_0-0_0
  6
CONTINUOUS
 62
    7
 10
-182.86523399999999
 20
776.40470849999997
 11
-182.63671900000008
 21
776.56501749999995
  0
LINE
  8
_0-0_0
  6
CONTINUOUS
 62
    7
 10
-182.66128500000002
 20
776.28694150000001
 11
-182.63671900000008
 21
776.56501749999995
  0
LINE
  8
_0-0_0
  6
CONTINUOUS
 62
    7
 10
-183.08038299999998
 20
776.50050350000004
 11
-182.8698730000001
 21
776.68379149999998
  0
LINE
  8
_0-0_0
  6
CONTINUOUS
 62
    7
 10
-182.86523399999999
 20
776.40470849999997
 11
-182.8698730000001
 21
776.68379149999998
  0
LINE
  8
_0-0_0
  6
CONTINUOUS
 62
    7
 10
-183.30438200000003
 20
776.57328749999999
 11
-183.11419699999988
 21
776.77757250000002
  0
LINE
  8
_0-0_0
  6
CONTINUOUS
 62
    7
 10
-183.08038299999998
 20
776.50050350000004
 11
-183.11419699999988
 21
776.77757250000002
  0
LINE
  8
_0-0_0
  6
CONTINUOUS
 62
    7
 10
-183.53475900000012
 20
776.62223849999998
 11
-183.36694299999999
 21
776.84532149999995
  0
LINE
  8
_0-0_0
  6
CONTINUOUS
 62
    7
 10
-183.30438200000003
 20
776.57328749999999
 11
-183.36694299999999
 21
776.84532149999995
  0
LINE
  8
_0-0_0
  6
CONTINUOUS
 62
    7
 10
-183.76898200000005
 20
776.64686549999999
 11
-183.62539700000002
 21
776.88624549999997
  0
LINE
  8
_0-0_0
  6
CONTINUOUS
 62
    7
 10
-183.53475900000012
 20
776.62223849999998
 11
-183.62539700000002
 21
776.88624549999997
  0
LINE
  8
_0-0_0
  6
CONTINUOUS
 62
    7
 10
-184.00448600000004
 20
776.64686549999999
 11
-183.88671900000008
 21
776.89994750000005
  0
LINE
  8
_0-0_0
  6
CONTINUOUS
 62
    7
 10
-183.76898200000005
 20
776.64686549999999
 11
-183.88671900000008
 21
776.89994750000005
  0
LINE
  8
_0-0_0
  6
CONTINUOUS
 62
    7
 10
-184.23870800000009
 20
776.62223849999998
 11
-184.14804099999992
 21
776.88624549999997
  0
LINE
  8
_0-0_0
  6
CONTINUOUS
 62
    7
 10
-184.00448600000004
 20
776.64686549999999
 11
-184.14804099999992
 21
776.88624549999997
  0
LINE
  8
_0-0_0
  6
CONTINUOUS
 62
    7
 10
-184.46905500000003
 20
776.57328749999999
 11
-184.40649400000007
 21
776.84532149999995
  0
LINE
  8
_0-0_0
  6
CONTINUOUS
 62
    7
 10
-184.23870800000009
 20
776.62223849999998
 11
-184.40649400000007
 21
776.84532149999995
  0
LINE
  8
_0-0_0
  6
CONTINUOUS
 62
    7
 10
-184.69305400000007
 20
776.50050350000004
 11
-184.65927099999999
 21
776.77757250000002
  0
LINE
  8
_0-0_0
  6
CONTINUOUS
 62
    7
 10
-184.46905500000003
 20
776.57328749999999
 11
-184.65927099999999
 21
776.77757250000002
  0
LINE
  8
_0-0_0
  6
CONTINUOUS
 62
    7
 10
-184.90820299999996
 20
776.40470849999997
 11
-184.90356399999996
 21
776.68379149999998
  0
LINE
  8
_0-0_0
  6
CONTINUOUS
 62
    7
 10
-184.69305400000007
 20
776.50050350000004
 11
-184.90356399999996
 21
776.68379149999998
  0
LINE
  8
_0-0_0
  6
CONTINUOUS
 62
    7
 10
-185.02773999999999
 20
776.48857150000003
 11
-185.13671900000008
 21
776.56501749999995
  0
LINE
  8
_0-0_0
  6
CONTINUOUS
 62
    7
 10
-184.90820299999996
 20
776.40470849999997
 11
-185.02773999999999
 21
776.48857150000003
  0
LINE
  8
_0-0_0
  6
CONTINUOUS
 62
    7
 10
-185.11215200000015
 20
776.28694150000001
 11
-185.13671900000008
 21
776.56501749999995
  0
LINE
  8
_0-0_0
  6
CONTINUOUS
 62
    7
 10
-185.30270399999995
 20
776.14851350000004
 11
-185.35620100000006
 21
776.42250049999996
  0
LINE
  8
_0-0_0
  6
CONTINUOUS
 62
    7
 10
-185.11215200000015
 20
776.28694150000001
 11
-185.35620100000006
 21
776.42250049999996
  0
LINE
  8
_0-0_0
  6
CONTINUOUS
 62
    7
 10
-185.47772200000009
 20
775.99092050000002
 11
-185.55953999999997
 21
776.25779750000004
  0
LINE
  8
_0-0_0
  6
CONTINUOUS
 62
    7
 10
-185.30270399999995
 20
776.14851350000004
 11
-185.55953999999997
 21
776.25779750000004
  0
LINE
  8
_0-0_0
  6
CONTINUOUS
 62
    7
 10
-185.63531499999999
 20
775.81590249999999
 11
-185.744598
 21
776.07276950000005
  0
LINE
  8
_0-0_0
  6
CONTINUOUS
 62
    7
 10
-185.47772200000009
 20
775.99092050000002
 11
-185.744598
 21
776.07276950000005
  0
LINE
  8
_0-0_0
  6
CONTINUOUS
 62
    7
 10
-185.77374299999997
 20
775.6253815
 11
-185.90927099999999
 21
775.86939949999999
  0
LINE
  8
_0-0_0
  6
CONTINUOUS
 62
    7
 10
-185.63531499999999
 20
775.81590249999999
 11
-185.90927099999999
 21
775.86939949999999
  0
LINE
  8
_0-0_0
  6
CONTINUOUS
 62
    7
 10
-185.89147899999989
 20
775.42143250000004
 11
-186.05178799999999
 21
775.64994750000005
  0
LINE
  8
_0-0_0
  6
CONTINUOUS
 62
    7
 10
-185.77374299999997
 20
775.6253815
 11
-186.05178799999999
 21
775.64994750000005
  0
LINE
  8
_0-0_0
  6
CONTINUOUS
 62
    7
 10
-185.98727400000007
 20
775.20628350000004
 11
-186.17059300000005
 21
775.41679350000004
  0
LINE
  8
_0-0_0
  6
CONTINUOUS
 62
    7
 10
-185.89147899999989
 20
775.42143250000004
 11
-186.17059300000005
 21
775.41679350000004
  0
LINE
  8
_0-0_0
  6
CONTINUOUS
 62
    7
 10
-186.06005899999991
 20
774.98228449999999
 11
-186.26437400000009
 21
775.17250049999996
  0
LINE
  8
_0-0_0
  6
CONTINUOUS
 62
    7
 10
-185.98727400000007
 20
775.20628350000004
 11
-186.26437400000009
 21
775.17250049999996
  0
LINE
  8
_0-0_0
  6
CONTINUOUS
 62
    7
 10
-186.10900900000001
 20
774.75190750000002
 11
-186.3320920000001
 21
774.91972350000003
  0
LINE
  8
_0-0_0
  6
CONTINUOUS
 62
    7
 10
-186.06005899999991
 20
774.98228449999999
 11
-186.3320920000001
 21
774.91972350000003
  0
LINE
  8
_0-0_0
  6
CONTINUOUS
 62
    7
 10
-186.10900900000001
 20
774.75190750000002
 11
-186.37301600000001
 21
774.6612705
  0
LINE
  8
_0-0_0
  6
CONTINUOUS
 62
    7
 10
-186.13363600000002
 20
774.51768449999997
 11
-186.37301600000001
 21
774.6612705
  0
LINE
  8
_0-0_0
  6
CONTINUOUS
 62
    7
 10
-186.13363600000002
 20
774.28218049999998
 11
-186.38671900000008
 21
774.39994750000005
  0
LINE
  8
_0-0_0
  6
CONTINUOUS
 62
    7
 10
-186.13363600000002
 20
774.51768449999997
 11
-186.38671900000008
 21
774.39994750000005
  0
LINE
  8
_0-0_0
  6
CONTINUOUS
 62
    7
 10
-186.10900900000001
 20
774.04795850000005
 11
-186.37301600000001
 21
774.13862549999999
  0
LINE
  8
_0-0_0
  6
CONTINUOUS
 62
    7
 10
-186.13363600000002
 20
774.28218049999998
 11
-186.37301600000001
 21
774.13862549999999
  0
LINE
  8
_0-0_0
  6
CONTINUOUS
 62
    7
 10
-186.06005899999991
 20
773.8176115
 11
-186.3320920000001
 21
773.88017249999996
  0
LINE
  8
_0-0_0
  6
CONTINUOUS
 62
    7
 10
-186.10900900000001
 20
774.04795850000005
 11
-186.3320920000001
 21
773.88017249999996
  0
LINE
  8
_0-0_0
  6
CONTINUOUS
 62
    7
 10
-185.98727400000007
 20
773.59361249999995
 11
-186.26437400000009
 21
773.62739550000003
  0
LINE
  8
_0-0_0
  6
CONTINUOUS
 62
    7
 10
-186.06005899999991
 20
773.8176115
 11
-186.26437400000009
 21
773.62739550000003
  0
LINE
  8
_0-0_0
  6
CONTINUOUS
 62
    7
 10
-185.89147899999989
 20
773.37846349999995
 11
-186.17059300000005
 21
773.38310249999995
  0
LINE
  8
_0-0_0
  6
CONTINUOUS
 62
    7
 10
-185.98727400000007
 20
773.59361249999995
 11
-186.17059300000005
 21
773.38310249999995
  0
LINE
  8
_0-0_0
  6
CONTINUOUS
 62
    7
 10
-185.77374299999997
 20
773.17451449999999
 11
-186.05178799999999
 21
773.14994750000005
  0
LINE
  8
_0-0_0
  6
CONTINUOUS
 62
    7
 10
-185.89147899999989
 20
773.37846349999995
 11
-186.05178799999999
 21
773.14994750000005
  0
LINE
  8
_0-0_0
  6
CONTINUOUS
 62
    7
 10
-185.63531499999999
 20
772.98396249999996
 11
-185.90927099999999
 21
772.9304965
  0
LINE
  8
_0-0_0
  6
CONTINUOUS
 62
    7
 10
-185.77374299999997
 20
773.17451449999999
 11
-185.90927099999999
 21
772.9304965
  0
LINE
  8
_0-0_0
  6
CONTINUOUS
 62
    7
 10
-185.47772200000009
 20
772.80894450000005
 11
-185.744598
 21
772.72712650000005
  0
LINE
  8
_0-0_0
  6
CONTINUOUS
 62
    7
 10
-185.63531499999999
 20
772.98396249999996
 11
-185.744598
 21
772.72712650000005
  0
LINE
  8
_0-0_0
  6
CONTINUOUS
 62
    7
 10
-185.30270399999995
 20
772.65135150000003
 11
-185.55953999999997
 21
772.54206850000003
  0
LINE
  8
_0-0_0
  6
CONTINUOUS
 62
    7
 10
-185.47772200000009
 20
772.80894450000005
 11
-185.55953999999997
 21
772.54206850000003
  0
LINE
  8
_0-0_0
  6
CONTINUOUS
 62
    7
 10
-185.11215200000015
 20
772.51292450000005
 11
-185.35620100000006
 21
772.37739550000003
  0
LINE
  8
_0-0_0
  6
CONTINUOUS
 62
    7
 10
-185.30270399999995
 20
772.65135150000003
 11
-185.35620100000006
 21
772.37739550000003
  0
LINE
  8
_0-0_0
  6
CONTINUOUS
 62
    7
 10
-184.90820299999996
 20
772.39518750000002
 11
-185.13671900000008
 21
772.23487850000004
  0
LINE
  8
_0-0_0
  6
CONTINUOUS
 62
    7
 10
-185.11215200000015
 20
772.51292450000005
 11
-185.13671900000008
 21
772.23487850000004
  0
LINE
  8
_0-0_0
  6
CONTINUOUS
 62
    7
 10
-184.69305400000007
 20
772.29939249999995
 11
-184.90356399999996
 21
772.11607349999997
  0
LINE
  8
_0-0_0
  6
CONTINUOUS
 62
    7
 10
-184.90820299999996
 20
772.39518750000002
 11
-184.90356399999996
 21
772.11607349999997
  0
LINE
  8
_0-0_0
  6
CONTINUOUS
 62
    7
 10
-184.46905500000003
 20
772.2266085
 11
-184.65927099999999
 21
772.02229250000005
  0
LINE
  8
_0-0_0
  6
CONTINUOUS
 62
    7
 10
-184.69305400000007
 20
772.29939249999995
 11
-184.65927099999999
 21
772.02229250000005
  0
LINE
  8
_0-0_0
  6
CONTINUOUS
 62
    7
 10
-184.23870800000009
 20
772.17765750000001
 11
-184.40649400000007
 21
771.95457450000004
  0
LINE
  8
_0-0_0
  6
CONTINUOUS
 62
    7
 10
-184.46905500000003
 20
772.2266085
 11
-184.40649400000007
 21
771.95457450000004
  0
LINE
  8
_0-0_0
  6
CONTINUOUS
 62
    7
 10
-184.00448600000004
 20
772.1530305
 11
-184.14804099999992
 21
771.91365050000002
  0
LINE
  8
_0-0_0
  6
CONTINUOUS
 62
    7
 10
-184.23870800000009
 20
772.17765750000001
 11
-184.14804099999992
 21
771.91365050000002
  0
LINE
  8
_0-0_0
  6
CONTINUOUS
 62
    7
 10
-183.76898200000005
 20
772.1530305
 11
-183.88671900000008
 21
771.89994750000005
  0
LINE
  8
_0-0_0
  6
CONTINUOUS
 62
    7
 10
-184.00448600000004
 20
772.1530305
 11
-183.88671900000008
 21
771.89994750000005
  0
LINE
  8
_0-0_0
  6
CONTINUOUS
 62
    7
 10
-183.53475900000012
 20
772.17765750000001
 11
-183.62539700000002
 21
771.91365050000002
  0
LINE
  8
_0-0_0
  6
CONTINUOUS
 62
    7
 10
-183.76898200000005
 20
772.1530305
 11
-183.62539700000002
 21
771.91365050000002
  0
LINE
  8
_0-0_0
  6
CONTINUOUS
 62
    7
 10
-183.30438200000003
 20
772.2266085
 11
-183.36694299999999
 21
771.95457450000004
  0
LINE
  8
_0-0_0
  6
CONTINUOUS
 62
    7
 10
-183.53475900000012
 20
772.17765750000001
 11
-183.36694299999999
 21
771.95457450000004
  0
LINE
  8
_0-0_0
  6
CONTINUOUS
 62
    7
 10
-183.08038299999998
 20
772.29939249999995
 11
-183.11419699999988
 21
772.02229250000005
  0
LINE
  8
_0-0_0
  6
CONTINUOUS
 62
    7
 10
-183.30438200000003
 20
772.2266085
 11
-183.11419699999988
 21
772.02229250000005
  0
LINE
  8
_0-0_0
  6
CONTINUOUS
 62
    7
 10
-182.86523399999999
 20
772.39518750000002
 11
-182.8698730000001
 21
772.11607349999997
  0
LINE
  8
_0-0_0
  6
CONTINUOUS
 62
    7
 10
-183.08038299999998
 20
772.29939249999995
 11
-182.8698730000001
 21
772.11607349999997
  0
LINE
  8
_0-0_0
  6
CONTINUOUS
 62
    7
 10
-182.74569700000006
 20
772.31132449999996
 11
-182.63671900000008
 21
772.23487850000004
  0
LINE
  8
_0-0_0
  6
CONTINUOUS
 62
    7
 10
-182.86523399999999
 20
772.39518750000002
 11
-182.74569700000006
 21
772.31132449999996
  0
LINE
  8
_0-0_0
  6
CONTINUOUS
 62
    7
 10
-182.66128500000002
 20
772.51292450000005
 11
-182.63671900000008
 21
772.23487850000004
  0
LINE
  8
_0-0_0
  6
CONTINUOUS
 62
    7
 10
-182.47076400000003
 20
772.65135150000003
 11
-182.41726700000004
 21
772.37739550000003
  0
LINE
  8
_0-0_0
  6
CONTINUOUS
 62
    7
 10
-182.66128500000002
 20
772.51292450000005
 11
-182.41726700000004
 21
772.37739550000003
  0
LINE
  8
_0-0_0
  6
CONTINUOUS
 62
    7
 10
-182.29574600000001
 20
772.80894450000005
 11
-182.21389799999997
 21
772.54206850000003
  0
LINE
  8
_0-0_0
  6
CONTINUOUS
 62
    7
 10
-182.47076400000003
 20
772.65135150000003
 11
-182.21389799999997
 21
772.54206850000003
  0
LINE
  8
_0-0_0
  6
CONTINUOUS
 62
    7
 10
-182.13815299999999
 20
772.98396249999996
 11
-182.0288700000001
 21
772.72712650000005
  0
LINE
  8
_0-0_0
  6
CONTINUOUS
 62
    7
 10
-182.29574600000001
 20
772.80894450000005
 11
-182.0288700000001
 21
772.72712650000005
  0
LINE
  8
_0-0_0
  6
CONTINUOUS
 62
    7
 10
-181.99972500000001
 20
773.17451449999999
 11
-181.86419699999999
 21
772.9304965
  0
LINE
  8
_0-0_0
  6
CONTINUOUS
 62
    7
 10
-182.13815299999999
 20
772.98396249999996
 11
-181.86419699999999
 21
772.9304965
  0
LINE
  8
_0-0_0
  6
CONTINUOUS
 62
    7
 10
-181.88195799999994
 20
773.37846349999995
 11
-181.72164900000007
 21
773.14994750000005
  0
LINE
  8
_0-0_0
  6
CONTINUOUS
 62
    7
 10
-181.99972500000001
 20
773.17451449999999
 11
-181.72164900000007
 21
773.14994750000005
  0
LINE
  8
_0-0_0
  6
CONTINUOUS
 62
    7
 10
-181.78616299999999
 20
773.59361249999995
 11
-181.60287500000004
 21
773.38310249999995
  0
LINE
  8
_0-0_0
  6
CONTINUOUS
 62
    7
 10
-181.88195799999994
 20
773.37846349999995
 11
-181.60287500000004
 21
773.38310249999995
  0
LINE
  8
_0-0_0
  6
CONTINUOUS
 62
    7
 10
-181.71337900000003
 20
773.8176115
 11
-181.509094
 21
773.62739550000003
  0
LINE
  8
_0-0_0
  6
CONTINUOUS
 62
    7
 10
-181.78616299999999
 20
773.59361249999995
 11
-181.509094
 21
773.62739550000003
  0
LINE
  8
_0-0_0
  6
CONTINUOUS
 62
    7
 10
-181.66442900000004
 20
774.04795850000005
 11
-181.44134499999996
 21
773.88017249999996
  0
LINE
  8
_0-0_0
  6
CONTINUOUS
 62
    7
 10
-181.71337900000003
 20
773.8176115
 11
-181.44134499999996
 21
773.88017249999996
  0
LINE
  8
_0-0_0
  6
CONTINUOUS
 62
    7
 10
-181.63980100000003
 20
774.28218049999998
 11
-181.40042100000005
 21
774.13862549999999
  0
LINE
  8
_0-0_0
  6
CONTINUOUS
 62
    7
 10
-181.66442900000004
 20
774.04795850000005
 11
-181.40042100000005
 21
774.13862549999999
  0
LINE
  8
_0-0_0
  6
CONTINUOUS
 62
    7
 10
-181.63980100000003
 20
774.51768449999997
 11
-181.38671900000008
 21
774.39994750000005
  0
LINE
  8
_0-0_0
  6
CONTINUOUS
 62
    7
 10
-181.63980100000003
 20
774.28218049999998
 11
-181.38671900000008
 21
774.39994750000005
  0
LINE
  8
_0-0_0
  6
CONTINUOUS
 62
    7
 10
-181.66442900000004
 20
774.75190750000002
 11
-181.40042100000005
 21
774.6612705
  0
LINE
  8
_0-0_0
  6
CONTINUOUS
 62
    7
 10
-181.63980100000003
 20
774.51768449999997
 11
-181.40042100000005
 21
774.6612705
  0
LINE
  8
_0-0_0
  6
CONTINUOUS
 62
    7
 10
-181.71337900000003
 20
774.98228449999999
 11
-181.44134499999996
 21
774.91972350000003
  0
LINE
  8
_0-0_0
  6
CONTINUOUS
 62
    7
 10
-181.66442900000004
 20
774.75190750000002
 11
-181.44134499999996
 21
774.91972350000003
  0
LINE
  8
_0-0_0
  6
CONTINUOUS
 62
    7
 10
-181.78616299999999
 20
775.20628350000004
 11
-181.509094
 21
775.17250049999996
  0
LINE
  8
_0-0_0
  6
CONTINUOUS
 62
    7
 10
-181.71337900000003
 20
774.98228449999999
 11
-181.509094
 21
775.17250049999996
  0
LINE
  8
_0-0_0
  6
CONTINUOUS
 62
    7
 10
-181.88195799999994
 20
775.42143250000004
 11
-181.60287500000004
 21
775.41679350000004
  0
LINE
  8
_0-0_0
  6
CONTINUOUS
 62
    7
 10
-181.78616299999999
 20
775.20628350000004
 11
-181.60287500000004
 21
775.41679350000004
  0
CIRCLE
  8
_0-0_0
  6
CONTINUOUS
 62
    7
 10
-189.88671900000008
 20
766.09992950000003
 40
5.25
  0
LINE
  8
_0-0_0
  6
CONTINUOUS
 62
    7
 10
-193.99972500000013
 20
759.0253755
 11
-193.72164900000007
 21
759.04994150000005
  0
LINE
  8
_0-0_0
  6
CONTINUOUS
 62
    7
 10
-193.88195799999994
 20
758.82142650000003
 11
-193.72164900000007
 21
759.04994150000005
  0
LINE
  8
_0-0_0
  6
CONTINUOUS
 62
    7
 10
-194.13815299999987
 20
759.21592650000002
 11
-193.86419699999988
 21
759.26939349999998
  0
LINE
  8
_0-0_0
  6
CONTINUOUS
 62
    7
 10
-193.99972500000013
 20
759.0253755
 11
-193.86419699999988
 21
759.26939349999998
  0
LINE
  8
_0-0_0
  6
CONTINUOUS
 62
    7
 10
-194.29574600000001
 20
759.39094550000004
 11
-194.0288700000001
 21
759.47276250000004
  0
LINE
  8
_0-0_0
  6
CONTINUOUS
 62
    7
 10
-194.13815299999987
 20
759.21592650000002
 11
-194.0288700000001
 21
759.47276250000004
  0
LINE
  8
_0-0_0
  6
CONTINUOUS
 62
    7
 10
-194.47076400000014
 20
759.54850750000003
 11
-194.21389799999997
 21
759.65779150000003
  0
LINE
  8
_0-0_0
  6
CONTINUOUS
 62
    7
 10
-194.29574600000001
 20
759.39094550000004
 11
-194.21389799999997
 21
759.65779150000003
  0
LINE
  8
_0-0_0
  6
CONTINUOUS
 62
    7
 10
-194.66128500000013
 20
759.68696550000004
 11
-194.41726700000004
 21
759.82249449999995
  0
LINE
  8
_0-0_0
  6
CONTINUOUS
 62
    7
 10
-194.47076400000014
 20
759.54850750000003
 11
-194.41726700000004
 21
759.82249449999995
  0
LINE
  8
_0-0_0
  6
CONTINUOUS
 62
    7
 10
-194.86523399999987
 20
759.80470249999996
 11
-194.63671900000008
 21
759.96501150000006
  0
LINE
  8
_0-0_0
  6
CONTINUOUS
 62
    7
 10
-194.66128500000013
 20
759.68696550000004
 11
-194.63671900000008
 21
759.96501150000006
  0
LINE
  8
_0-0_0
  6
CONTINUOUS
 62
    7
 10
-195.08038299999998
 20
759.90049750000003
 11
-194.8698730000001
 21
760.08381650000001
  0
LINE
  8
_0-0_0
  6
CONTINUOUS
 62
    7
 10
-194.86523399999987
 20
759.80470249999996
 11
-194.8698730000001
 21
760.08381650000001
  0
LINE
  8
_0-0_0
  6
CONTINUOUS
 62
    7
 10
-195.30438200000003
 20
759.97328149999998
 11
-195.11416600000007
 21
760.17759650000005
  0
LINE
  8
_0-0_0
  6
CONTINUOUS
 62
    7
 10
-195.08038299999998
 20
759.90049750000003
 11
-195.11416600000007
 21
760.17759650000005
  0
LINE
  8
_0-0_0
  6
CONTINUOUS
 62
    7
 10
-195.53475900000012
 20
760.02223149999998
 11
-195.36694299999999
 21
760.24531549999995
  0
LINE
  8
_0-0_0
  6
CONTINUOUS
 62
    7
 10
-195.30438200000003
 20
759.97328149999998
 11
-195.36694299999999
 21
760.24531549999995
  0
LINE
  8
_0-0_0
  6
CONTINUOUS
 62
    7
 10
-195.76898200000005
 20
760.04685949999998
 11
-195.62539700000002
 21
760.28623949999997
  0
LINE
  8
_0-0_0
  6
CONTINUOUS
 62
    7
 10
-195.53475900000012
 20
760.02223149999998
 11
-195.62539700000002
 21
760.28623949999997
  0
LINE
  8
_0-0_0
  6
CONTINUOUS
 62
    7
 10
-196.00448600000004
 20
760.04685949999998
 11
-195.88671900000008
 21
760.29994150000005
  0
LINE
  8
_0-0_0
  6
CONTINUOUS
 62
    7
 10
-195.76898200000005
 20
760.04685949999998
 11
-195.88671900000008
 21
760.29994150000005
  0
LINE
  8
_0-0_0
  6
CONTINUOUS
 62
    7
 10
-196.23870800000009
 20
760.02223149999998
 11
-196.14804099999992
 21
760.28623949999997
  0
LINE
  8
_0-0_0
  6
CONTINUOUS
 62
    7
 10
-196.00448600000004
 20
760.04685949999998
 11
-196.14804099999992
 21
760.28623949999997
  0
LINE
  8
_0-0_0
  6
CONTINUOUS
 62
    7
 10
-196.46905500000003
 20
759.97328149999998
 11
-196.40649400000007
 21
760.24531549999995
  0
LINE
  8
_0-0_0
  6
CONTINUOUS
 62
    7
 10
-196.23870800000009
 20
760.02223149999998
 11
-196.40649400000007
 21
760.24531549999995
  0
LINE
  8
_0-0_0
  6
CONTINUOUS
 62
    7
 10
-196.69305400000007
 20
759.90049750000003
 11
-196.65927099999999
 21
760.17759650000005
  0
LINE
  8
_0-0_0
  6
CONTINUOUS
 62
    7
 10
-196.46905500000003
 20
759.97328149999998
 11
-196.65927099999999
 21
760.17759650000005
  0
LINE
  8
_0-0_0
  6
CONTINUOUS
 62
    7
 10
-196.90820299999996
 20
759.80470249999996
 11
-196.90356399999996
 21
760.08381650000001
  0
LINE
  8
_0-0_0
  6
CONTINUOUS
 62
    7
 10
-196.69305400000007
 20
759.90049750000003
 11
-196.90356399999996
 21
760.08381650000001
  0
LINE
  8
_0-0_0
  6
CONTINUOUS
 62
    7
 10
-197.02773999999999
 20
759.88856450000003
 11
-197.13671900000008
 21
759.96501150000006
  0
LINE
  8
_0-0_0
  6
CONTINUOUS
 62
    7
 10
-196.90820299999996
 20
759.80470249999996
 11
-197.02773999999999
 21
759.88856450000003
  0
LINE
  8
_0-0_0
  6
CONTINUOUS
 62
    7
 10
-197.11215200000015
 20
759.68696550000004
 11
-197.13671900000008
 21
759.96501150000006
  0
LINE
  8
_0-0_0
  6
CONTINUOUS
 62
    7
 10
-197.30270399999995
 20
759.54850750000003
 11
-197.35620100000006
 21
759.82249449999995
  0
LINE
  8
_0-0_0
  6
CONTINUOUS
 62
    7
 10
-197.11215200000015
 20
759.68696550000004
 11
-197.35620100000006
 21
759.82249449999995
  0
LINE
  8
_0-0_0
  6
CONTINUOUS
 62
    7
 10
-197.47772200000009
 20
759.39094550000004
 11
-197.55953999999997
 21
759.65779150000003
  0
LINE
  8
_0-0_0
  6
CONTINUOUS
 62
    7
 10
-197.30270399999995
 20
759.54850750000003
 11
-197.55953999999997
 21
759.65779150000003
  0
LINE
  8
_0-0_0
  6
CONTINUOUS
 62
    7
 10
-197.63531499999999
 20
759.21592650000002
 11
-197.744598
 21
759.47276250000004
  0
LINE
  8
_0-0_0
  6
CONTINUOUS
 62
    7
 10
-197.47772200000009
 20
759.39094550000004
 11
-197.744598
 21
759.47276250000004
  0
LINE
  8
_0-0_0
  6
CONTINUOUS
 62
    7
 10
-197.77374299999997
 20
759.0253755
 11
-197.90927099999999
 21
759.26939349999998
  0
LINE
  8
_0-0_0
  6
CONTINUOUS
 62
    7
 10
-197.63531499999999
 20
759.21592650000002
 11
-197.90927099999999
 21
759.26939349999998
  0
LINE
  8
_0-0_0
  6
CONTINUOUS
 62
    7
 10
-197.89147899999989
 20
758.82142650000003
 11
-198.05178799999999
 21
759.04994150000005
  0
LINE
  8
_0-0_0
  6
CONTINUOUS
 62
    7
 10
-197.77374299999997
 20
759.0253755
 11
-198.05178799999999
 21
759.04994150000005
  0
LINE
  8
_0-0_0
  6
CONTINUOUS
 62
    7
 10
-197.98727400000007
 20
758.60627750000003
 11
-198.17059300000005
 21
758.81678750000003
  0
LINE
  8
_0-0_0
  6
CONTINUOUS
 62
    7
 10
-197.89147899999989
 20
758.82142650000003
 11
-198.17059300000005
 21
758.81678750000003
  0
LINE
  8
_0-0_0
  6
CONTINUOUS
 62
    7
 10
-198.06005899999991
 20
758.38227849999998
 11
-198.26437400000009
 21
758.57249449999995
  0
LINE
  8
_0-0_0
  6
CONTINUOUS
 62
    7
 10
-197.98727400000007
 20
758.60627750000003
 11
-198.26437400000009
 21
758.57249449999995
  0
LINE
  8
_0-0_0
  6
CONTINUOUS
 62
    7
 10
-198.10900900000001
 20
758.15193150000005
 11
-198.3320920000001
 21
758.31971750000002
  0
LINE
  8
_0-0_0
  6
CONTINUOUS
 62
    7
 10
-198.06005899999991
 20
758.38227849999998
 11
-198.3320920000001
 21
758.31971750000002
  0
LINE
  8
_0-0_0
  6
CONTINUOUS
 62
    7
 10
-198.10900900000001
 20
758.15193150000005
 11
-198.37301600000001
 21
758.0612635
  0
LINE
  8
_0-0_0
  6
CONTINUOUS
 62
    7
 10
-198.13363600000002
 20
757.9177095
 11
-198.37301600000001
 21
758.0612635
  0
LINE
  8
_0-0_0
  6
CONTINUOUS
 62
    7
 10
-198.13363600000002
 20
757.68217449999997
 11
-198.38671900000008
 21
757.79994150000005
  0
LINE
  8
_0-0_0
  6
CONTINUOUS
 62
    7
 10
-198.13363600000002
 20
757.9177095
 11
-198.38671900000008
 21
757.79994150000005
  0
LINE
  8
_0-0_0
  6
CONTINUOUS
 62
    7
 10
-198.10900900000001
 20
757.44795250000004
 11
-198.37301600000001
 21
757.53861949999998
  0
LINE
  8
_0-0_0
  6
CONTINUOUS
 62
    7
 10
-198.13363600000002
 20
757.68217449999997
 11
-198.37301600000001
 21
757.53861949999998
  0
LINE
  8
_0-0_0
  6
CONTINUOUS
 62
    7
 10
-198.06005899999991
 20
757.21760549999999
 11
-198.3320920000001
 21
757.28016649999995
  0
LINE
  8
_0-0_0
  6
CONTINUOUS
 62
    7
 10
-198.10900900000001
 20
757.44795250000004
 11
-198.3320920000001
 21
757.28016649999995
  0
LINE
  8
_0-0_0
  6
CONTINUOUS
 62
    7
 10
-197.98727400000007
 20
756.99360650000006
 11
-198.26437400000009
 21
757.02738950000003
  0
LINE
  8
_0-0_0
  6
CONTINUOUS
 62
    7
 10
-198.06005899999991
 20
757.21760549999999
 11
-198.26437400000009
 21
757.02738950000003
  0
LINE
  8
_0-0_0
  6
CONTINUOUS
 62
    7
 10
-197.89147899999989
 20
756.77845750000006
 11
-198.17059300000005
 21
756.78309650000006
  0
LINE
  8
_0-0_0
  6
CONTINUOUS
 62
    7
 10
-197.98727400000007
 20
756.99360650000006
 11
-198.17059300000005
 21
756.78309650000006
  0
LINE
  8
_0-0_0
  6
CONTINUOUS
 62
    7
 10
-197.77374299999997
 20
756.57450849999998
 11
-198.05178799999999
 21
756.54994150000005
  0
LINE
  8
_0-0_0
  6
CONTINUOUS
 62
    7
 10
-197.89147899999989
 20
756.77845750000006
 11
-198.05178799999999
 21
756.54994150000005
  0
LINE
  8
_0-0_0
  6
CONTINUOUS
 62
    7
 10
-197.63531499999999
 20
756.38398749999999
 11
-197.90927099999999
 21
756.3304895
  0
LINE
  8
_0-0_0
  6
CONTINUOUS
 62
    7
 10
-197.77374299999997
 20
756.57450849999998
 11
-197.90927099999999
 21
756.3304895
  0
LINE
  8
_0-0_0
  6
CONTINUOUS
 62
    7
 10
-197.47772200000009
 20
756.20896849999997
 11
-197.744598
 21
756.12712050000005
  0
LINE
  8
_0-0_0
  6
CONTINUOUS
 62
    7
 10
-197.63531499999999
 20
756.38398749999999
 11
-197.744598
 21
756.12712050000005
  0
LINE
  8
_0-0_0
  6
CONTINUOUS
 62
    7
 10
-197.30270399999995
 20
756.05137649999995
 11
-197.55953999999997
 21
755.94209250000006
  0
LINE
  8
_0-0_0
  6
CONTINUOUS
 62
    7
 10
-197.47772200000009
 20
756.20896849999997
 11
-197.55953999999997
 21
755.94209250000006
  0
LINE
  8
_0-0_0
  6
CONTINUOUS
 62
    7
 10
-197.11215200000015
 20
755.91291750000005
 11
-197.35620100000006
 21
755.77738950000003
  0
LINE
  8
_0-0_0
  6
CONTINUOUS
 62
    7
 10
-197.30270399999995
 20
756.05137649999995
 11
-197.35620100000006
 21
755.77738950000003
  0
LINE
  8
_0-0_0
  6
CONTINUOUS
 62
    7
 10
-196.90820299999996
 20
755.79518150000001
 11
-197.13671900000008
 21
755.63487250000003
  0
LINE
  8
_0-0_0
  6
CONTINUOUS
 62
    7
 10
-197.11215200000015
 20
755.91291750000005
 11
-197.13671900000008
 21
755.63487250000003
  0
LINE
  8
_0-0_0
  6
CONTINUOUS
 62
    7
 10
-196.69305400000007
 20
755.69938650000006
 11
-196.90356399999996
 21
755.51606749999996
  0
LINE
  8
_0-0_0
  6
CONTINUOUS
 62
    7
 10
-196.90820299999996
 20
755.79518150000001
 11
-196.90356399999996
 21
755.51606749999996
  0
LINE
  8
_0-0_0
  6
CONTINUOUS
 62
    7
 10
-196.46905500000003
 20
755.62660249999999
 11
-196.65927099999999
 21
755.42228650000004
  0
LINE
  8
_0-0_0
  6
CONTINUOUS
 62
    7
 10
-196.69305400000007
 20
755.69938650000006
 11
-196.65927099999999
 21
755.42228650000004
  0
LINE
  8
_0-0_0
  6
CONTINUOUS
 62
    7
 10
-196.23870800000009
 20
755.5776515
 11
-196.40649400000007
 21
755.35456850000003
  0
LINE
  8
_0-0_0
  6
CONTINUOUS
 62
    7
 10
-196.46905500000003
 20
755.62660249999999
 11
-196.40649400000007
 21
755.35456850000003
  0
LINE
  8
_0-0_0
  6
CONTINUOUS
 62
    7
 10
-196.00448600000004
 20
755.55302449999999
 11
-196.14804099999992
 21
755.31364450000001
  0
LINE
  8
_0-0_0
  6
CONTINUOUS
 62
    7
 10
-196.23870800000009
 20
755.5776515
 11
-196.14804099999992
 21
755.31364450000001
  0
LINE
  8
_0-0_0
  6
CONTINUOUS
 62
    7
 10
-195.76898200000005
 20
755.55302449999999
 11
-195.88671900000008
 21
755.29994150000005
  0
LINE
  8
_0-0_0
  6
CONTINUOUS
 62
    7
 10
-196.00448600000004
 20
755.55302449999999
 11
-195.88671900000008
 21
755.29994150000005
  0
LINE
  8
_0-0_0
  6
CONTINUOUS
 62
    7
 10
-195.53475900000012
 20
755.5776515
 11
-195.62539700000002
 21
755.31364450000001
  0
LINE
  8
_0-0_0
  6
CONTINUOUS
 62
    7
 10
-195.76898200000005
 20
755.55302449999999
 11
-195.62539700000002
 21
755.31364450000001
  0
LINE
  8
_0-0_0
  6
CONTINUOUS
 62
    7
 10
-195.30438200000003
 20
755.62660249999999
 11
-195.36694299999999
 21
755.35456850000003
  0
LINE
  8
_0-0_0
  6
CONTINUOUS
 62
    7
 10
-195.53475900000012
 20
755.5776515
 11
-195.36694299999999
 21
755.35456850000003
  0
LINE
  8
_0-0_0
  6
CONTINUOUS
 62
    7
 10
-195.08038299999998
 20
755.69938650000006
 11
-195.11416600000007
 21
755.42228650000004
  0
LINE
  8
_0-0_0
  6
CONTINUOUS
 62
    7
 10
-195.30438200000003
 20
755.62660249999999
 11
-195.11416600000007
 21
755.42228650000004
  0
LINE
  8
_0-0_0
  6
CONTINUOUS
 62
    7
 10
-194.86523399999987
 20
755.79518150000001
 11
-194.8698730000001
 21
755.51606749999996
  0
LINE
  8
_0-0_0
  6
CONTINUOUS
 62
    7
 10
-195.08038299999998
 20
755.69938650000006
 11
-194.8698730000001
 21
755.51606749999996
  0
LINE
  8
_0-0_0
  6
CONTINUOUS
 62
    7
 10
-194.74569700000006
 20
755.71131849999995
 11
-194.63671900000008
 21
755.63487250000003
  0
LINE
  8
_0-0_0
  6
CONTINUOUS
 62
    7
 10
-194.86523399999987
 20
755.79518150000001
 11
-194.74569700000006
 21
755.71131849999995
  0
LINE
  8
_0-0_0
  6
CONTINUOUS
 62
    7
 10
-194.66128500000013
 20
755.91291750000005
 11
-194.63671900000008
 21
755.63487250000003
  0
LINE
  8
_0-0_0
  6
CONTINUOUS
 62
    7
 10
-194.47076400000014
 20
756.05137649999995
 11
-194.41726700000004
 21
755.77738950000003
  0
LINE
  8
_0-0_0
  6
CONTINUOUS
 62
    7
 10
-194.66128500000013
 20
755.91291750000005
 11
-194.41726700000004
 21
755.77738950000003
  0
LINE
  8
_0-0_0
  6
CONTINUOUS
 62
    7
 10
-194.29574600000001
 20
756.20896849999997
 11
-194.21389799999997
 21
755.94209250000006
  0
LINE
  8
_0-0_0
  6
CONTINUOUS
 62
    7
 10
-194.47076400000014
 20
756.05137649999995
 11
-194.21389799999997
 21
755.94209250000006
  0
LINE
  8
_0-0_0
  6
CONTINUOUS
 62
    7
 10
-194.13815299999987
 20
756.38398749999999
 11
-194.0288700000001
 21
756.12712050000005
  0
LINE
  8
_0-0_0
  6
CONTINUOUS
 62
    7
 10
-194.29574600000001
 20
756.20896849999997
 11
-194.0288700000001
 21
756.12712050000005
  0
LINE
  8
_0-0_0
  6
CONTINUOUS
 62
    7
 10
-193.99972500000013
 20
756.57450849999998
 11
-193.86419699999988
 21
756.3304895
  0
LINE
  8
_0-0_0
  6
CONTINUOUS
 62
    7
 10
-194.13815299999987
 20
756.38398749999999
 11
-193.86419699999988
 21
756.3304895
  0
LINE
  8
_0-0_0
  6
CONTINUOUS
 62
    7
 10
-193.88195799999994
 20
756.77845750000006
 11
-193.72164900000007
 21
756.54994150000005
  0
LINE
  8
_0-0_0
  6
CONTINUOUS
 62
    7
 10
-193.99972500000013
 20
756.57450849999998
 11
-193.72164900000007
 21
756.54994150000005
  0
LINE
  8
_0-0_0
  6
CONTINUOUS
 62
    7
 10
-193.78616299999999
 20
756.99360650000006
 11
-193.60287500000004
 21
756.78309650000006
  0
LINE
  8
_0-0_0
  6
CONTINUOUS
 62
    7
 10
-193.88195799999994
 20
756.77845750000006
 11
-193.60287500000004
 21
756.78309650000006
  0
LINE
  8
_0-0_0
  6
CONTINUOUS
 62
    7
 10
-193.71337900000003
 20
757.21760549999999
 11
-193.509094
 21
757.02738950000003
  0
LINE
  8
_0-0_0
  6
CONTINUOUS
 62
    7
 10
-193.78616299999999
 20
756.99360650000006
 11
-193.509094
 21
757.02738950000003
  0
LINE
  8
_0-0_0
  6
CONTINUOUS
 62
    7
 10
-193.66442899999993
 20
757.44795250000004
 11
-193.44134499999996
 21
757.28016649999995
  0
LINE
  8
_0-0_0
  6
CONTINUOUS
 62
    7
 10
-193.71337900000003
 20
757.21760549999999
 11
-193.44134499999996
 21
757.28016649999995
  0
LINE
  8
_0-0_0
  6
CONTINUOUS
 62
    7
 10
-193.63980100000003
 20
757.68217449999997
 11
-193.40042100000005
 21
757.53861949999998
  0
LINE
  8
_0-0_0
  6
CONTINUOUS
 62
    7
 10
-193.66442899999993
 20
757.44795250000004
 11
-193.40042100000005
 21
757.53861949999998
  0
LINE
  8
_0-0_0
  6
CONTINUOUS
 62
    7
 10
-193.63980100000003
 20
757.9177095
 11
-193.38671900000008
 21
757.79994150000005
  0
LINE
  8
_0-0_0
  6
CONTINUOUS
 62
    7
 10
-193.63980100000003
 20
757.68217449999997
 11
-193.38671900000008
 21
757.79994150000005
  0
LINE
  8
_0-0_0
  6
CONTINUOUS
 62
    7
 10
-193.66442899999993
 20
758.15193150000005
 11
-193.40042100000005
 21
758.0612635
  0
LINE
  8
_0-0_0
  6
CONTINUOUS
 62
    7
 10
-193.63980100000003
 20
757.9177095
 11
-193.40042100000005
 21
758.0612635
  0
LINE
  8
_0-0_0
  6
CONTINUOUS
 62
    7
 10
-193.71337900000003
 20
758.38227849999998
 11
-193.44134499999996
 21
758.31971750000002
  0
LINE
  8
_0-0_0
  6
CONTINUOUS
 62
    7
 10
-193.66442899999993
 20
758.15193150000005
 11
-193.44134499999996
 21
758.31971750000002
  0
LINE
  8
_0-0_0
  6
CONTINUOUS
 62
    7
 10
-193.78616299999999
 20
758.60627750000003
 11
-193.509094
 21
758.57249449999995
  0
LINE
  8
_0-0_0
  6
CONTINUOUS
 62
    7
 10
-193.71337900000003
 20
758.38227849999998
 11
-193.509094
 21
758.57249449999995
  0
LINE
  8
_0-0_0
  6
CONTINUOUS
 62
    7
 10
-193.88195799999994
 20
758.82142650000003
 11
-193.60287500000004
 21
758.81678750000003
  0
LINE
  8
_0-0_0
  6
CONTINUOUS
 62
    7
 10
-193.78616299999999
 20
758.60627750000003
 11
-193.60287500000004
 21
758.81678750000003
  0
CIRCLE
  8
_0-0_0
  6
CONTINUOUS
 62
    7
 10
-183.88671900000008
 20
774.39994750000005
 40
2
  0
CIRCLE
  8
_0-0_0
  6
CONTINUOUS
 62
    7
 10
-195.88671900000008
 20
757.79994150000005
 40
2
  0
LINE
  8
_0-0_0
  6
CONTINUOUS
 62
    7
 10
-183.3046260000001
 20
773.39994750000005
 11
-184.468842
 21
773.39994750000005
  0
LINE
  8
_0-0_0
  6
CONTINUOUS
 62
    7
 10
-184.468842
 20
773.39994750000005
 11
-185.03671299999996
 21
774.39994750000005
  0
LINE
  8
_0-0_0
  6
CONTINUOUS
 62
    7
 10
-185.03671299999996
 20
774.39994750000005
 11
-184.468842
 21
775.39994750000005
  0
LINE
  8
_0-0_0
  6
CONTINUOUS
 62
    7
 10
-184.468842
 20
775.39994750000005
 11
-183.3046260000001
 21
775.39994750000005
  0
LINE
  8
_0-0_0
  6
CONTINUOUS
 62
    7
 10
-183.3046260000001
 20
775.39994750000005
 11
-182.73672499999998
 21
774.39994750000005
  0
LINE
  8
_0-0_0
  6
CONTINUOUS
 62
    7
 10
-182.73672499999998
 20
774.39994750000005
 11
-183.3046260000001
 21
773.39994750000005
  0
CIRCLE
  8
_0-0_0
  6
CONTINUOUS
 62
    7
 10
-189.88671900000008
 20
766.09992950000003
 40
5
  0
LINE
  8
_0-0_0
  6
CONTINUOUS
 62
    7
 10
-195.3046260000001
 20
756.79994150000005
 11
-196.468842
 21
756.79994150000005
  0
LINE
  8
_0-0_0
  6
CONTINUOUS
 62
    7
 10
-196.468842
 20
756.79994150000005
 11
-197.03671299999996
 21
757.79994150000005
  0
LINE
  8
_0-0_0
  6
CONTINUOUS
 62
    7
 10
-197.03671299999996
 20
757.79994150000005
 11
-196.468842
 21
758.79994150000005
  0
LINE
  8
_0-0_0
  6
CONTINUOUS
 62
    7
 10
-196.468842
 20
758.79994150000005
 11
-195.3046260000001
 21
758.79994150000005
  0
LINE
  8
_0-0_0
  6
CONTINUOUS
 62
    7
 10
-195.3046260000001
 20
758.79994150000005
 11
-194.73672499999998
 21
757.79994150000005
  0
LINE
  8
_0-0_0
  6
CONTINUOUS
 62
    7
 10
-194.73672499999998
 20
757.79994150000005
 11
-195.3046260000001
 21
756.79994150000005
  0
CIRCLE
  8
_0-0_0
  6
CONTINUOUS
 62
    7
 10
-189.88671900000008
 20
766.09992950000003
 40
4.5381200000000002
  0
CIRCLE
  8
_0-0_0
  6
CONTINUOUS
 62
    7
 10
-189.88671900000008
 20
766.09992950000003
 40
4
  0
LINE
  8
_0-0_0
  6
CONTINUOUS
 62
    7
 10
-198.01928700000008
 20
776.05525150000005
 11
-198.68673699999999
 21
776.05525150000005
  0
ARC
  8
_0-0_0
  6
CONTINUOUS
 62
    7
 10
-181.88671900000008
 20
776.52494750000005
 40
0.2
 50
179.94055499999999
 51
269.99997000000002
  0
ARC
  8
_0-0_0
  6
CONTINUOUS
 62
    7
 10
-183.38671900000008
 20
757.29994150000005
 40
2
 50
269.99999700000001
 51
273.84026499999999
  0
ARC
  8
_0-0_0
  6
CONTINUOUS
 62
    7
 10
-196.38671900000008
 20
774.89994750000005
 40
2
 50
90.000003000000007
 51
93.840255999999997
  0
LINE
  8
_0-0_0
  6
CONTINUOUS
 62
    7
 10
-181.58673099999999
 20
776.32493550000004
 11
-181.88671900000008
 21
776.32493550000004
  0
LINE
  8
_0-0_0
  6
CONTINUOUS
 62
    7
 10
-181.58673099999999
 20
779.27494750000005
 11
-181.88671900000008
 21
779.27494750000005
  0
ARC
  8
_0-0_0
  6
CONTINUOUS
 62
    7
 10
-197.88671900000008
 20
776.52500950000001
 40
0.2
 50
270.00002499999994
 51
0.0594439999999606
  0
ARC
  8
_0-0_0
  6
CONTINUOUS
 62
    7
 10
-181.58676100000002
 20
776.52497849999997
 40
0.200055
 50
270.00964199999999
 51
1.3705509999999435
  0
ARC
  8
_0-0_0
  6
CONTINUOUS
 62
    7
 10
-181.58673099999999
 20
779.07493550000004
 40
0.2
 50
359.91222800000003
 51
89.999948000000003
  0
LINE
  8
_0-0_0
  6
CONTINUOUS
 62
    7
 10
-198.18673699999999
 20
776.32502750000003
 11
-197.88671900000008
 21
776.32502750000003
  0
ARC
  8
_0-0_0
  6
CONTINUOUS
 62
    7
 10
-198.18667600000003
 20
776.52507049999997
 40
0.200055
 50
178.629446
 51
269.99035300000003
  0
LINE
  8
_0-0_0
  6
CONTINUOUS
 62
    7
 10
-181.18673699999999
 20
781.80000250000001
 11
-181.18673699999999
 21
795.00001550000002
  0
ARC
  8
_0-0_0
  6
CONTINUOUS
 62
    7
 10
-181.68673699999999
 20
781.80000250000001
 40
0.5
 50
269.99999700000001
 51
0
  0
ARC
  8
_0-0_0
  6
CONTINUOUS
 62
    7
 10
-181.24530000000004
 20
795.20002750000003
 40
0.1
 50
135
 51
225
  0
LINE
  8
_0-0_0
  6
CONTINUOUS
 62
    7
 10
-181.31600900000001
 20
795.12931849999995
 11
-181.18673699999999
 21
795.00001550000002
  0
LINE
  8
_0-0_0
  6
CONTINUOUS
 62
    7
 10
-181.68673699999999
 20
781.30000250000001
 11
-183.58673099999987
 21
781.30000250000001
  0
ARC
  8
_0-0_0
  6
CONTINUOUS
 62
    7
 10
-183.58673099999987
 20
781.80000250000001
 40
0.5
 50
233.12990600000001
 51
269.99999700000001
  0
ARC
  8
_0-0_0
  6
CONTINUOUS
 62
    7
 10
-196.28671299999996
 20
781.80000250000001
 40
0.5
 50
269.99999700000001
 51
306.87009999999998
  0
LINE
  8
_0-0_0
  6
CONTINUOUS
 62
    7
 10
-196.28671299999996
 20
781.30000250000001
 11
-198.18673699999999
 21
781.30000250000001
  0
ARC
  8
_0-0_0
  6
CONTINUOUS
 62
    7
 10
-198.18673699999999
 20
781.80000250000001
 40
0.5
 50
180.00000900000003
 51
269.99999700000001
  0
LINE
  8
_0-0_0
  6
CONTINUOUS
 62
    7
 10
-198.68673699999999
 20
791.23500049999996
 11
-198.68673699999999
 21
781.80000250000001
  0
LINE
  8
_0-0_0
  6
CONTINUOUS
 62
    7
 10
-198.68673699999999
 20
791.23500049999996
 11
-197.98672499999998
 21
791.23500049999996
  0
LINE
  8
_0-0_0
  6
CONTINUOUS
 62
    7
 10
-181.98672499999998
 20
809.80000250000001
 11
-181.78070100000002
 21
809.80000250000001
  0
LINE
  8
_0-0_0
  6
CONTINUOUS
 62
    7
 10
-181.78070100000002
 20
809.80000250000001
 11
-181.18673699999999
 21
809.20603949999997
  0
LINE
  8
_0-0_0
  6
CONTINUOUS
 62
    7
 10
-181.18673699999999
 20
804.20002750000003
 11
-181.18673699999999
 21
809.20603949999997
  0
LINE
  8
_0-0_0
  6
CONTINUOUS
 62
    7
 10
-181.31600900000001
 20
804.07072449999998
 11
-181.18673699999999
 21
804.20002750000003
  0
ARC
  8
_0-0_0
  6
CONTINUOUS
 62
    7
 10
-181.24530000000004
 20
804.00001550000002
 40
0.1
 50
135
 51
225
  0
LINE
  8
_0-0_0
  6
CONTINUOUS
 62
    7
 10
-181.31600900000001
 20
803.92930550000005
 11
-181.18673699999999
 21
803.80000250000001
  0
LINE
  8
_0-0_0
  6
CONTINUOUS
 62
    7
 10
-181.18673699999999
 20
803.10002150000003
 11
-181.18673699999999
 21
803.80000250000001
  0
LINE
  8
_0-0_0
  6
CONTINUOUS
 62
    7
 10
-181.31600900000001
 20
802.97071849999998
 11
-181.18673699999999
 21
803.10002150000003
  0
ARC
  8
_0-0_0
  6
CONTINUOUS
 62
    7
 10
-181.24530000000004
 20
802.90000950000001
 40
0.1
 50
135
 51
225
  0
LINE
  8
_0-0_0
  6
CONTINUOUS
 62
    7
 10
-181.31600900000001
 20
802.82929950000005
 11
-181.18673699999999
 21
802.70002750000003
  0
LINE
  8
_0-0_0
  6
CONTINUOUS
 62
    7
 10
-181.18673699999999
 20
802.00001550000002
 11
-181.18673699999999
 21
802.70002750000003
  0
LINE
  8
_0-0_0
  6
CONTINUOUS
 62
    7
 10
-181.31600900000001
 20
801.87074250000001
 11
-181.18673699999999
 21
802.00001550000002
  0
ARC
  8
_0-0_0
  6
CONTINUOUS
 62
    7
 10
-181.24530000000004
 20
801.80000250000001
 40
0.1
 50
135
 51
225
  0
LINE
  8
_0-0_0
  6
CONTINUOUS
 62
    7
 10
-181.31600900000001
 20
801.72929350000004
 11
-181.18673699999999
 21
801.60002150000003
  0
LINE
  8
_0-0_0
  6
CONTINUOUS
 62
    7
 10
-181.18673699999999
 20
800.90000950000001
 11
-181.18673699999999
 21
801.60002150000003
  0
LINE
  8
_0-0_0
  6
CONTINUOUS
 62
    7
 10
-181.31600900000001
 20
800.7707365
 11
-181.18673699999999
 21
800.90000950000001
  0
ARC
  8
_0-0_0
  6
CONTINUOUS
 62
    7
 10
-181.24530000000004
 20
800.70002750000003
 40
0.1
 50
135
 51
225
  0
LINE
  8
_0-0_0
  6
CONTINUOUS
 62
    7
 10
-181.31600900000001
 20
800.62931849999995
 11
-181.18673699999999
 21
800.50001550000002
  0
LINE
  8
_0-0_0
  6
CONTINUOUS
 62
    7
 10
-181.18673699999999
 20
799.80000250000001
 11
-181.18673699999999
 21
800.50001550000002
  0
LINE
  8
_0-0_0
  6
CONTINUOUS
 62
    7
 10
-181.31600900000001
 20
799.67073049999999
 11
-181.18673699999999
 21
799.80000250000001
  0
ARC
  8
_0-0_0
  6
CONTINUOUS
 62
    7
 10
-181.24530000000004
 20
799.60002150000003
 40
0.1
 50
135
 51
225
  0
LINE
  8
_0-0_0
  6
CONTINUOUS
 62
    7
 10
-181.31600900000001
 20
799.52931149999995
 11
-181.18673699999999
 21
799.40000950000001
  0
LINE
  8
_0-0_0
  6
CONTINUOUS
 62
    7
 10
-181.18673699999999
 20
798.70002750000003
 11
-181.18673699999999
 21
799.40000950000001
  0
LINE
  8
_0-0_0
  6
CONTINUOUS
 62
    7
 10
-181.31600900000001
 20
798.57072449999998
 11
-181.18673699999999
 21
798.70002750000003
  0
ARC
  8
_0-0_0
  6
CONTINUOUS
 62
    7
 10
-181.24530000000004
 20
798.50001550000002
 40
0.1
 50
135
 51
225
  0
LINE
  8
_0-0_0
  6
CONTINUOUS
 62
    7
 10
-181.31600900000001
 20
798.42930550000005
 11
-181.18673699999999
 21
798.30000250000001
  0
LINE
  8
_0-0_0
  6
CONTINUOUS
 62
    7
 10
-181.18673699999999
 20
797.60002150000003
 11
-181.18673699999999
 21
798.30000250000001
  0
LINE
  8
_0-0_0
  6
CONTINUOUS
 62
    7
 10
-181.31600900000001
 20
797.47071849999998
 11
-181.18673699999999
 21
797.60002150000003
  0
ARC
  8
_0-0_0
  6
CONTINUOUS
 62
    7
 10
-181.24530000000004
 20
797.40000950000001
 40
0.1
 50
135
 51
225
  0
LINE
  8
_0-0_0
  6
CONTINUOUS
 62
    7
 10
-181.31600900000001
 20
797.32929950000005
 11
-181.18673699999999
 21
797.20002750000003
  0
LINE
  8
_0-0_0
  6
CONTINUOUS
 62
    7
 10
-181.18673699999999
 20
796.50001550000002
 11
-181.18673699999999
 21
797.20002750000003
  0
LINE
  8
_0-0_0
  6
CONTINUOUS
 62
    7
 10
-181.31600900000001
 20
796.37074250000001
 11
-181.18673699999999
 21
796.50001550000002
  0
ARC
  8
_0-0_0
  6
CONTINUOUS
 62
    7
 10
-181.24530000000004
 20
796.30000250000001
 40
0.1
 50
135
 51
225
  0
LINE
  8
_0-0_0
  6
CONTINUOUS
 62
    7
 10
-181.31600900000001
 20
796.22929350000004
 11
-181.18673699999999
 21
796.10002150000003
  0
LINE
  8
_0-0_0
  6
CONTINUOUS
 62
    7
 10
-181.18673699999999
 20
795.40000950000001
 11
-181.18673699999999
 21
796.10002150000003
  0
LINE
  8
_0-0_0
  6
CONTINUOUS
 62
    7
 10
-181.31600900000001
 20
795.2707365
 11
-181.18673699999999
 21
795.40000950000001
  0
LINE
  8
_0-0_0
  6
CONTINUOUS
 62
    7
 10
-181.18673699999999
 20
787.30000250000001
 11
-181.08673099999999
 21
787.30000250000001
  0
LINE
  8
_0-0_0
  6
CONTINUOUS
 62
    7
 10
-181.08673099999999
 20
786.80000250000001
 11
-181.08673099999999
 21
787.30000250000001
  0
LINE
  8
_0-0_0
  6
CONTINUOUS
 62
    7
 10
-181.08673099999999
 20
786.80000250000001
 11
-181.08673099999999
 21
782.80000250000001
  0
LINE
  8
_0-0_0
  6
CONTINUOUS
 62
    7
 10
-181.18673699999999
 20
782.30000250000001
 11
-181.08673099999999
 21
782.30000250000001
  0
LINE
  8
_0-0_0
  6
CONTINUOUS
 62
    7
 10
-181.08673099999999
 20
782.30000250000001
 11
-181.08673099999999
 21
782.80000250000001
  0
LINE
  8
_0-0_0
  6
CONTINUOUS
 62
    7
 10
-198.68673699999999
 20
791.30003350000004
 11
-198.68673699999999
 21
791.23500049999996
  0
LINE
  8
_0-0_0
  6
CONTINUOUS
 62
    7
 10
-182.18673699999999
 20
810.10002150000003
 11
-182.18673699999999
 21
810.00001550000002
  0
ARC
  8
_0-0_0
  6
CONTINUOUS
 62
    7
 10
-194.68673699999999
 20
810.10002150000003
 40
2.5
 50
90.000003000000007
 51
180.00000900000001
  0
LINE
  8
_0-0_0
  6
CONTINUOUS
 62
    7
 10
-198.78671299999996
 20
791.30000250000001
 11
-197.98672499999998
 21
791.30000250000001
  0
LINE
  8
_0-0_0
  6
CONTINUOUS
 62
    7
 10
-198.28671299999996
 20
813.10002150000003
 11
-198.28671299999996
 21
808.87849449999999
  0
LINE
  8
_0-0_0
  6
CONTINUOUS
 62
    7
 10
-197.18673699999999
 20
813.10002150000003
 11
-197.18673699999999
 21
810.10002150000003
  0
LINE
  8
_0-0_0
  6
CONTINUOUS
 62
    7
 10
-198.28671299999996
 20
808.87849449999999
 11
-197.98672499999998
 21
808.87849449999999
  0
LINE
  8
_0-0_0
  6
CONTINUOUS
 62
    7
 10
-198.28671299999996
 20
818.23991350000006
 11
-197.18673699999999
 21
818.23991350000006
  0
LINE
  8
_0-0_0
  6
CONTINUOUS
 62
    7
 10
-197.18673699999999
 20
813.10041750000005
 11
-197.18673699999999
 21
818.23991350000006
  0
LINE
  8
_0-0_0
  6
CONTINUOUS
 62
    7
 10
-198.78671299999996
 20
812.60078450000003
 11
-198.78671299999996
 21
817.67213449999997
  0
LINE
  8
_0-0_0
  6
CONTINUOUS
 62
    7
 10
-198.28671299999996
 20
818.23991350000006
 11
-198.78671299999996
 21
817.67213449999997
  0
ARC
  8
_0-0_0
  6
CONTINUOUS
 62
    7
 10
-184.68673699999999
 20
810.10002150000003
 40
2.5
 50
0
 51
90.000003000000007
  0
LINE
  8
_0-0_0
  6
CONTINUOUS
 62
    7
 10
-197.18673699999999
 20
810.00001550000002
 11
-197.18673699999999
 21
810.10002150000003
  0
LINE
  8
_0-0_0
  6
CONTINUOUS
 62
    7
 10
-184.68673699999999
 20
812.60002150000003
 11
-194.68673699999999
 21
812.60002150000003
  0
LINE
  8
_0-0_0
  6
CONTINUOUS
 62
    7
 10
-180.98672499999998
 20
782.80000250000001
 11
-180.98672499999998
 21
782.93037449999997
  0
LINE
  8
_0-0_0
  6
CONTINUOUS
 62
    7
 10
-180.98672499999998
 20
786.43037449999997
 11
-180.98672499999998
 21
782.93037449999997
  0
LINE
  8
_0-0_0
  6
CONTINUOUS
 62
    7
 10
-181.08673099999999
 20
786.70002750000003
 11
-180.98672499999998
 21
786.70002750000003
  0
LINE
  8
_0-0_0
  6
CONTINUOUS
 62
    7
 10
-180.98672499999998
 20
786.43037449999997
 11
-180.98672499999998
 21
786.70002750000003
  0
LINE
  8
_0-0_0
  6
CONTINUOUS
 62
    7
 10
-197.18673699999999
 20
820.60002150000003
 11
-197.18673699999999
 21
818.23991350000006
  0
LINE
  8
_0-0_0
  6
CONTINUOUS
 62
    7
 10
-181.38671900000008
 20
809.20002750000003
 11
-182.38671900000008
 21
810.20002750000003
  0
LINE
  8
_0-0_0
  6
CONTINUOUS
 62
    7
 10
-181.38671900000008
 20
781.40000950000001
 11
-181.38671900000008
 21
809.20002750000003
  0
LINE
  8
_0-0_0
  6
CONTINUOUS
 62
    7
 10
-197.98672499999998
 20
781.40000950000001
 11
-181.38671900000008
 21
781.40000950000001
  0
LINE
  8
_0-0_0
  6
CONTINUOUS
 62
    7
 10
-197.98672499999998
 20
809.20002750000003
 11
-197.98672499999998
 21
781.40000950000001
  0
LINE
  8
_0-0_0
  6
CONTINUOUS
 62
    7
 10
-198.78671299999996
 20
791.30000250000001
 11
-198.78671299999996
 21
808.11283849999995
  0
LINE
  8
_0-0_0
  6
CONTINUOUS
 62
    7
 10
-198.78671299999996
 20
812.60002150000003
 11
-198.78671299999996
 21
808.11283849999995
  0
ARC
  8
_0-0_0
  6
CONTINUOUS
 62
    7
 10
-167.33499099999995
 20
788.11784350000005
 40
37.269466000000001
 50
146.14857699999999
 51
147.55443399999999
  0
LINE
  8
_0-0_0
  6
CONTINUOUS
 62
    7
 10
-198.28671299999996
 20
820.60002150000003
 11
-198.28671299999996
 21
818.23991350000006
  0
LINE
  8
_0-0_0
  6
CONTINUOUS
 62
    7
 10
-198.78671299999996
 20
820.10002150000003
 11
-198.78671299999996
 21
817.67213449999997
  0
ARC
  8
_0-0_0
  6
CONTINUOUS
 62
    7
 10
-184.95578
 20
809.80000250000001
 40
2.6000000000000001
 50
8.8498839999999994
 51
90.000002999999992
  0
LINE
  8
_0-0_0
  6
CONTINUOUS
 62
    7
 10
-184.95578
 20
812.40000950000001
 11
-194.41766400000006
 21
812.40000950000001
  0
ARC
  8
_0-0_0
  6
CONTINUOUS
 62
    7
 10
-194.41766400000006
 20
809.80000250000001
 40
2.6000000000000001
 50
90.000003000000007
 51
171.150115
  0
LINE
  8
_0-0_0
  6
CONTINUOUS
 62
    7
 10
-197.98672499999998
 20
809.20002750000003
 11
-196.98672499999998
 21
810.20002750000003
  0
LINE
  8
_0-0_0
  6
CONTINUOUS
 62
    7
 10
-182.38671900000008
 20
808.78581250000002
 11
-181.38671900000008
 21
809.20002750000003
  0
ARC
  8
_0-0_0
  6
CONTINUOUS
 62
    7
 10
-187.92925999999989
 20
820.98612949999995
 40
12.126564999999999
 50
292.155034
 51
297.19674500000002
  0
LINE
  8
_0-0_0
  6
CONTINUOUS
 62
    7
 10
-182.38671900000008
 20
782.40000950000001
 11
-181.38671900000008
 21
781.40000950000001
  0
LINE
  8
_0-0_0
  6
CONTINUOUS
 62
    7
 10
-196.98672499999998
 20
782.40000950000001
 11
-197.98672499999998
 21
781.40000950000001
  0
LINE
  8
_0-0_0
  6
CONTINUOUS
 62
    7
 10
-196.98672499999998
 20
808.78581250000002
 11
-197.98672499999998
 21
809.20002750000003
  0
ARC
  8
_0-0_0
  6
CONTINUOUS
 62
    7
 10
-191.44418300000007
 20
820.98612949999995
 40
12.126567
 50
242.80325699999997
 51
247.84494000000001
  0
CIRCLE
  8
_0-0_0
  6
CONTINUOUS
 62
    7
 10
-189.68673699999999
 20
789.60002150000003
 40
2.0670000000000002
  0
LINE
  8
_0-0_0
  6
CONTINUOUS
 62
    7
 10
-197.18673699999999
 20
813.10002150000003
 11
-198.28671299999996
 21
813.10002150000003
  0
LINE
  8
_0-0_0
  6
CONTINUOUS
 62
    7
 10
-181.08673099999999
 20
782.80000250000001
 11
-180.98672499999998
 21
782.80000250000001
  0
LINE
  8
_0-0_0
  6
CONTINUOUS
 62
    7
 10
-181.08673099999999
 20
782.80000250000001
 11
-180.98672499999998
 21
782.80000250000001
  0
LINE
  8
_0-0_0
  6
CONTINUOUS
 62
    7
 10
-198.78671299999996
 20
812.60002150000003
 11
-198.28671299999996
 21
813.10002150000003
  0
LINE
  8
_0-0_0
  6
CONTINUOUS
 62
    7
 10
-197.18673699999999
 20
820.60002150000003
 11
-198.28671299999996
 21
820.60002150000003
  0
LINE
  8
_0-0_0
  6
CONTINUOUS
 62
    7
 10
-198.78671299999996
 20
820.10002150000003
 11
-198.28671299999996
 21
820.60002150000003
  0
ENDSEC
  0
EOF
