  0
SECTION
  2
HEADER
  9
$ACADVER
  1
AC1009
  9
$INSBASE
 10
0
 20
0
 30
0
  9
$EXTMIN
 10
0
 20
0
  9
$EXTMAX
 10
1682
 20
1188
  9
$LIMMIN
 10
0
 20
0
  9
$LIMMAX
 10
1682
 20
1188
  9
$LTSCALE
 40
2
  0
ENDSEC
  0
SECTION
  2
TABLES
  0
TABLE
  2
LTYPE
 70
     9
  0
LTYPE
  2
CONTINUOUS
 70
    64
  3
実線
 72
    65
 73
     0
 40
0.0
  0
LTYPE
  2
DASHED1
 70
    64
  3
--  --  --  --  --  --  --  --  
 72
    65
 73
     2
 40
2.5
 49
1.25
 49
-1.25
  0
LTYPE
  2
DASHED2
 70
    64
  3
----    ----    ----    ----    
 72
    65
 73
     2
 40
5.0
 49
2.5
 49
-2.5
  0
LTYPE
  2
DASHED3
 70
    64
  3
------  ------  ------  ------  
 72
    65
 73
     2
 40
5.0
 49
3.75
 49
-1.25
  0
LTYPE
  2
CENTER1
 70
    64
  3
----- - ----- - ----- - ----- - 
 72
    65
 73
     4
 40
10.0
 49
6.25
 49
-1.25
 49
1.25
 49
-1.25
  0
LTYPE
  2
CENTER2
 70
    64
  3
----------  --  ----------  --  
 72
    65
 73
     4
 40
20.0
 49
12.5
 49
-2.5
 49
2.5
 49
-2.5
  0
LTYPE
  2
PHANTOM1
 70
    64
  3
--- - - --- - - --- - - --- - - 
 72
    65
 73
     6
 40
10.0
 49
3.25
 49
-1.25
 49
1.25
 49
-1.25
 49
1.25
 49
-1.25
  0
LTYPE
  2
PHANTOM2
 70
    64
  3
--------  -  -  --------  -  -  
 72
    65
 73
     6
 40
20.0
 49
10.0
 49
-2.5
 49
1.25
 49
-2.5
 49
1.25
 49
-2.5
  0
LTYPE
  2
DOT
 70
    64
  3
-   -   -   -   -   -   -   -   
 72
    65
 73
     2
 40
2.5
 49
0.625
 49
-1.875
  0
LTYPE
  2
DUMMY
 70
    64
  3
ダミー
 72
    65
 73
     0
 40
0.0
  0
LTYPE
  2
RAND1
 70
    64
  3
ランダム線1
 72
    65
 73
     4
 40
10.0
 49
1.0
 49
-2.0
 49
3.0
 49
-4.0
  0
LTYPE
  2
RAND2
 70
    64
  3
ランダム線2
 72
    65
 73
     4
 40
14.0
 49
2.0
 49
-3.0
 49
4.0
 49
-5.0
  0
LTYPE
  2
RAND3
 70
    64
  3
ランダム線3
 72
    65
 73
     4
 40
18.0
 49
3.0
 49
-4.0
 49
5.0
 49
-6.0
  0
LTYPE
  2
RAND4
 70
    64
  3
ランダム線4
 72
    65
 73
     4
 40
22.0
 49
4.0
 49
-5.0
 49
6.0
 49
-7.0
  0
LTYPE
  2
RAND5
 70
    64
  3
ランダム線5
 72
    65
 73
     4
 40
26.0
 49
5.0
 49
-6.0
 49
7.0
 49
-8.0
  0
LTYPE
  2
LONG1
 70
    64
  3
----------  --  ----------  --  
 72
    65
 73
     4
 40
40.0
 49
32.5
 49
-2.5
 49
2.5
 49
-2.5
  0
LTYPE
  2
LONG2
 70
    64
  3
--------  -  -  --------  -  -  
 72
    65
 73
     6
 40
40.0
 49
30.0
 49
-2.5
 49
1.25
 49
-2.5
 49
1.25
 49
-2.5
  0
LTYPE
  2
LONG3
 70
    64
  3
+++++++++++++++..+++++++++++++++
 72
    65
 73
     2
 40
40.0
 49
37.5
 49
-2.5
  0
LTYPE
  2
LONG4
 70
    64
  3
+++++++++++++++..+++++++++++++++
 72
    65
 73
     2
 40
80.0
 49
75.0
 49
-5.0
  0
LTYPE
  2
LONG5
 70
    64
  3
----------  --  ----------  --  
 72
    65
 73
     4
 40
60.0
 49
37.5
 49
-7.5
 49
7.5
 49
-7.5
  0
LTYPE
  2
dashed
 70
   64
  3
-------   -------------   ------
 72
   65
 73
    2
 40
7.5
 49
6
 49
-1.5
  0
LTYPE
  2
dashed_spaced
 70
   64
  3
----        --------        ----
 72
   65
 73
    2
 40
12
 49
6
 49
-6
  0
LTYPE
  2
long_dashed_dotted
 70
   64
  3
------------- --- --------------
 72
   65
 73
    4
 40
15.25
 49
12
 49
-1.5
 49
0.25
 49
-1.5
  0
LTYPE
  2
long_dashed_double-dotted
 70
   64
  3
----------- --- --- ------------
 72
   65
 73
    6
 40
17
 49
12
 49
-1.5
 49
0.25
 49
-1.5
 49
0.25
 49
-1.5
  0
LTYPE
  2
long_dashed_triplicate-dotted
 70
   64
  3
--------- --- --- --- ----------
 72
   65
 73
    8
 40
18.75
 49
12
 49
-1.5
 49
0.25
 49
-1.5
 49
0.25
 49
-1.5
 49
0.25
 49
-1.5
  0
LTYPE
  2
dotted
 70
   64
  3
   -       -       -       -    
 72
   65
 73
    2
 40
1.75
 49
0.25
 49
-1.5
  0
LTYPE
  2
chain
 70
   64
  3
-------------- -- --------------
 72
   65
 73
    4
 40
18.5
 49
12
 49
-1.5
 49
3.5
 49
-1.5
  0
LTYPE
  2
chain_double_dash
 70
   64
  3
------------ -- -- -------------
 72
   65
 73
    6
 40
23.5
 49
12
 49
-1.5
 49
3.5
 49
-1.5
 49
3.5
 49
-1.5
  0
LTYPE
  2
dashed_dotted
 70
   64
  3
-----------     -     ----------
 72
   65
 73
    4
 40
9.25
 49
6
 49
-1.5
 49
0.25
 49
-1.5
  0
LTYPE
  2
double-dashed_dotted
 70
   64
  3
------   -----------   -   -----
 72
   65
 73
    6
 40
16.75
 49
6
 49
-1.5
 49
6
 49
-1.5
 49
0.25
 49
-1.5
  0
LTYPE
  2
dashed_double-dotted
 70
   64
  3
---------    -    -    ---------
 72
   65
 73
    6
 40
11
 49
6
 49
-1.5
 49
0.25
 49
-1.5
 49
0.25
 49
-1.5
  0
LTYPE
  2
double-dashed_double-dotted
 70
   64
  3
-----   ---------   -   -   ----
 72
   65
 73
    8
 40
18.5
 49
6
 49
-1.5
 49
6
 49
-1.5
 49
0.25
 49
-1.5
 49
0.25
 49
-1.5
  0
LTYPE
  2
dashed_triplicate-dotted
 70
   64
  3
-------    -    -    -    ------
 72
   65
 73
    8
 40
12.75
 49
6
 49
-1.5
 49
0.25
 49
-1.5
 49
0.25
 49
-1.5
 49
0.25
 49
-1.5
  0
LTYPE
  2
double-dashed_triplicate-dotted
 70
   64
  3
-----  ---------  -  -  -  -----
 72
   65
 73
   10
 40
20.25
 49
6
 49
-1.5
 49
6
 49
-1.5
 49
0.25
 49
-1.5
 49
0.25
 49
-1.5
 49
0.25
 49
-1.5
  0
LTYPE
  2
undefined
 70
   64
  3
--------------------------------
 72
   65
 73
    0
 40
0
  0
ENDTAB
  0
TABLE
  2
STYLE
  5
3
100
AcDbSymbolTable
 70
     1
  0
STYLE
  5
10
100
AcDbSymbolTableRecord
100
AcDbTextStyleTableRecord
  2
STANDARD
 70
     0
 40
0.0
 41
1.0
 50
0.0
 71
     0
 42
0.2
  3
txt
  4
bigfont.shx
  0
STYLE
  5
26
100
AcDbSymbolTableRecord
100
AcDbTextStyleTableRecord
  2
TATEGAKI
 70
    68
 40
0.0
 41
1.0
 50
0.0
 71
     0
 42
1.0
  3
txt
  4
bigfont.shx
  0
ENDTAB
  0
TABLE
  2
LAYER
 70
    2
  0
LAYER
  2
_0-0_0
 70
   64
 62
    7
  6
CONTINUOUS
  0
LAYER
  2
ADD_LINE
 70
   64
 62
    7
  6
CONTINUOUS
  0
ENDTAB
  0
ENDSEC
  0
SECTION
  2
BLOCKS
  0
ENDSEC
  0
SECTION
  2
ENTITIES
  0
LINE
  8
_0-0_0
  6
CONTINUOUS
 62
    7
 10
50.928962999999953
 20
813.90052749999995
 11
50.928962999999953
 21
813.89952049999999
  0
LINE
  8
_0-0_0
  6
CONTINUOUS
 62
    7
 10
203.74146999999994
 20
774.96958949999998
 11
202.44146699999999
 21
771.46958949999998
  0
ARC
  8
_0-0_0
  6
CONTINUOUS
 62
    7
 10
203.92895499999997
 20
774.89994750000005
 40
0.2
 50
20.376434999999997
 51
159.62357000000003
  0
ARC
  8
_0-0_0
  6
CONTINUOUS
 62
    7
 10
241.92895499999997
 20
777.79994150000005
 40
2.2000000000000002
 50
180.00000900000003
 51
303.74900400000001
  0
LINE
  8
_0-0_0
  6
CONTINUOUS
 62
    7
 10
239.72895800000003
 20
779.29994150000005
 11
239.72895800000003
 21
777.79994150000005
  0
LINE
  8
_0-0_0
  6
CONTINUOUS
 62
    7
 10
239.72895800000003
 20
779.29994150000005
 11
165.12896699999999
 21
779.29994150000005
  0
LINE
  8
_0-0_0
  6
CONTINUOUS
 62
    7
 10
165.12896699999999
 20
779.29994150000005
 11
165.12896699999999
 21
777.79994150000005
  0
ARC
  8
_0-0_0
  6
CONTINUOUS
 62
    7
 10
162.92895499999997
 20
777.79994150000005
 40
2.2000000000000002
 50
236.25102899999999
 51
0
  0
ARC
  8
_0-0_0
  6
CONTINUOUS
 62
    7
 10
161.42895499999997
 20
775.55494650000003
 40
0.5
 50
56.251010000000008
 51
180.00000900000001
  0
LINE
  8
_0-0_0
  6
CONTINUOUS
 62
    7
 10
160.92895499999997
 20
755.19993550000004
 11
160.92895499999997
 21
755.97706549999998
  0
LINE
  8
_0-0_0
  6
CONTINUOUS
 62
    7
 10
160.92895499999997
 20
755.19993550000004
 11
170.72895800000003
 21
755.19993550000004
  0
ARC
  8
_0-0_0
  6
CONTINUOUS
 62
    7
 10
170.72895800000003
 20
755.39994750000005
 40
0.2
 50
269.99999700000001
 51
0
  0
LINE
  8
_0-0_0
  6
CONTINUOUS
 62
    7
 10
170.92895499999997
 20
757.09992950000003
 11
170.92895499999997
 21
755.39994750000005
  0
ARC
  8
_0-0_0
  6
CONTINUOUS
 62
    7
 10
171.12896699999999
 20
757.09992950000003
 40
0.2
 50
90.000003000000007
 51
180.00000900000001
  0
LINE
  8
_0-0_0
  6
CONTINUOUS
 62
    7
 10
171.62896699999999
 20
757.29994150000005
 11
171.12896699999999
 21
757.29994150000005
  0
ARC
  8
_0-0_0
  6
CONTINUOUS
 62
    7
 10
171.62896699999999
 20
756.79994150000005
 40
0.5
 50
90.000003000000007
 51
180.00000900000001
  0
LINE
  8
_0-0_0
  6
CONTINUOUS
 62
    7
 10
171.12896699999999
 20
755.29994150000005
 11
171.12896699999999
 21
756.79994150000005
  0
LINE
  8
_0-0_0
  6
CONTINUOUS
 62
    7
 10
240.72895800000003
 20
755.29994150000005
 11
171.12896699999999
 21
755.29994150000005
  0
LINE
  8
_0-0_0
  6
CONTINUOUS
 62
    7
 10
240.72895800000003
 20
755.29994150000005
 11
240.72895800000003
 21
756.79994150000005
  0
ARC
  8
_0-0_0
  6
CONTINUOUS
 62
    7
 10
240.22895800000003
 20
756.79994150000005
 40
0.5
 50
0
 51
90.000003000000007
  0
LINE
  8
_0-0_0
  6
CONTINUOUS
 62
    7
 10
240.72895800000003
 20
757.29994150000005
 11
240.22895800000003
 21
757.29994150000005
  0
ARC
  8
_0-0_0
  6
CONTINUOUS
 62
    7
 10
240.72895800000003
 20
757.09992950000003
 40
0.2
 50
0
 51
90.000003000000007
  0
LINE
  8
_0-0_0
  6
CONTINUOUS
 62
    7
 10
240.92895499999997
 20
755.39994750000005
 11
240.92895499999997
 21
757.09992950000003
  0
ARC
  8
_0-0_0
  6
CONTINUOUS
 62
    7
 10
241.12895200000003
 20
755.39994750000005
 40
0.2
 50
180.00000900000003
 51
269.99999700000001
  0
LINE
  8
_0-0_0
  6
CONTINUOUS
 62
    7
 10
241.12895200000003
 20
755.19993550000004
 11
241.92895499999997
 21
755.19993550000004
  0
ARC
  8
_0-0_0
  6
CONTINUOUS
 62
    7
 10
241.92895499999997
 20
757.19993550000004
 40
2
 50
269.99999700000001
 51
0.0000099999999886
  0
LINE
  8
_0-0_0
  6
CONTINUOUS
 62
    7
 10
243.92895499999997
 20
775.55494650000003
 11
243.92895499999997
 21
757.19993550000004
  0
ARC
  8
_0-0_0
  6
CONTINUOUS
 62
    7
 10
243.42895499999997
 20
775.55494650000003
 40
0.5
 50
0
 51
123.74898500000002
  0
LINE
  8
_0-0_0
  6
CONTINUOUS
 62
    7
 10
172.42895499999997
 20
757.49995450000006
 11
172.42895499999997
 21
757.69993550000004
  0
LINE
  8
_0-0_0
  6
CONTINUOUS
 62
    7
 10
172.42895499999997
 20
757.69993550000004
 11
239.42895499999997
 21
757.69993550000004
  0
LINE
  8
_0-0_0
  6
CONTINUOUS
 62
    7
 10
239.42895499999997
 20
757.49995450000006
 11
239.42895499999997
 21
757.69993550000004
  0
ARC
  8
_0-0_0
  6
CONTINUOUS
 62
    7
 10
239.62895200000003
 20
757.49995450000006
 40
0.2
 50
180.00000900000003
 51
269.99999700000001
  0
LINE
  8
_0-0_0
  6
CONTINUOUS
 62
    7
 10
239.62895200000003
 20
757.29994150000005
 11
172.22895800000003
 21
757.29994150000005
  0
ARC
  8
_0-0_0
  6
CONTINUOUS
 62
    7
 10
172.22895800000003
 20
757.49995450000006
 40
0.2
 50
269.99999700000001
 51
0
  0
ARC
  8
_0-0_0
  6
CONTINUOUS
 62
    7
 10
202.62895200000003
 20
771.39994750000005
 40
0.2
 50
159.62357
 51
269.99999700000001
  0
LINE
  8
_0-0_0
  6
CONTINUOUS
 62
    7
 10
202.62895200000003
 20
771.19993550000004
 11
205.22895800000003
 21
771.19993550000004
  0
ARC
  8
_0-0_0
  6
CONTINUOUS
 62
    7
 10
205.22895800000003
 20
771.39994750000005
 40
0.2
 50
269.99999700000001
 51
20.376435000000019
  0
LINE
  8
_0-0_0
  6
CONTINUOUS
 62
    7
 10
205.41644299999996
 20
771.46958949999998
 11
204.11644000000001
 21
774.96958949999998
  0
LINE
  8
_0-0_0
  6
CONTINUOUS
 62
    7
 10
160.92895499999997
 20
774.89994750000005
 11
160.92895499999997
 21
776.87730350000004
  0
LINE
  8
_0-0_0
  6
CONTINUOUS
 62
    7
 10
160.92895499999997
 20
774.89994750000005
 11
160.92895499999997
 21
757.29994150000005
  0
LINE
  8
_0-0_0
  6
CONTINUOUS
 62
    7
 10
160.92895499999997
 20
755.97706549999998
 11
160.92895499999997
 21
757.29994150000005
  0
LINE
  8
_0-0_0
  6
CONTINUOUS
 62
    7
 10
243.92895499999997
 20
781.29994150000005
 11
243.92895499999997
 21
780.29994150000005
  0
LINE
  8
_0-0_0
  6
CONTINUOUS
 62
    7
 10
243.92895499999997
 20
780.29994150000005
 11
243.92895499999997
 21
779.79994150000005
  0
LINE
  8
_0-0_0
  6
CONTINUOUS
 62
    7
 10
243.92895499999997
 20
779.79994150000005
 11
243.92895499999997
 21
777.79994150000005
  0
LINE
  8
_0-0_0
  6
CONTINUOUS
 62
    7
 10
243.92895499999997
 20
777.79994150000005
 11
243.92895499999997
 21
775.55494650000003
  0
LINE
  8
_0-0_0
  6
CONTINUOUS
 62
    7
 10
221.92895499999997
 20
775.29994150000005
 11
221.92895499999997
 21
761.69993550000004
  0
ARC
  8
_0-0_0
  6
CONTINUOUS
 62
    7
 10
224.92895499999997
 20
775.29994150000005
 40
3
 50
90.000003000000007
 51
180.00000900000001
  0
LINE
  8
_0-0_0
  6
CONTINUOUS
 62
    7
 10
238.26289399999996
 20
778.29994150000005
 11
224.92895499999997
 21
778.29994150000005
  0
ARC
  8
_0-0_0
  6
CONTINUOUS
 62
    7
 10
238.26289399999996
 20
777.29994150000005
 40
1
 50
7.7664340000000012
 51
90.000002999999992
  0
ARC
  8
_0-0_0
  6
CONTINUOUS
 62
    7
 10
241.92895499999997
 20
777.79994150000005
 40
2.7000000000000002
 50
187.76643899999999
 51
254.31966600000001
  0
ARC
  8
_0-0_0
  6
CONTINUOUS
 62
    7
 10
240.92895499999997
 20
774.23762450000004
 40
1
 50
0
 51
74.319649999999996
  0
LINE
  8
_0-0_0
  6
CONTINUOUS
 62
    7
 10
241.92895499999997
 20
761.69993550000004
 11
241.92895499999997
 21
774.23762450000004
  0
ARC
  8
_0-0_0
  6
CONTINUOUS
 62
    7
 10
238.92895499999997
 20
761.69993550000004
 40
3
 50
269.99999700000001
 51
0.0000099999999886
  0
LINE
  8
_0-0_0
  6
CONTINUOUS
 62
    7
 10
224.92895499999997
 20
758.69993550000004
 11
238.92895499999997
 21
758.69993550000004
  0
ARC
  8
_0-0_0
  6
CONTINUOUS
 62
    7
 10
224.92895499999997
 20
761.69993550000004
 40
3
 50
180.00000900000003
 51
269.99999700000001
  0
LINE
  8
_0-0_0
  6
CONTINUOUS
 62
    7
 10
167.92895499999997
 20
758.69993550000004
 11
182.92895499999997
 21
758.69993550000004
  0
ARC
  8
_0-0_0
  6
CONTINUOUS
 62
    7
 10
167.92895499999997
 20
761.69993550000004
 40
3
 50
180.00000900000003
 51
269.99999700000001
  0
LINE
  8
_0-0_0
  6
CONTINUOUS
 62
    7
 10
164.92895499999997
 20
775.29994150000005
 11
164.92895499999997
 21
761.69993550000004
  0
ARC
  8
_0-0_0
  6
CONTINUOUS
 62
    7
 10
167.92895499999997
 20
775.29994150000005
 40
3
 50
90.000003000000007
 51
180.00000900000001
  0
LINE
  8
_0-0_0
  6
CONTINUOUS
 62
    7
 10
182.92895499999997
 20
778.29994150000005
 11
167.92895499999997
 21
778.29994150000005
  0
ARC
  8
_0-0_0
  6
CONTINUOUS
 62
    7
 10
182.92895499999997
 20
775.29994150000005
 40
3
 50
0
 51
90.000003000000007
  0
LINE
  8
_0-0_0
  6
CONTINUOUS
 62
    7
 10
185.92895499999997
 20
761.69993550000004
 11
185.92895499999997
 21
775.29994150000005
  0
ARC
  8
_0-0_0
  6
CONTINUOUS
 62
    7
 10
182.92895499999997
 20
761.69993550000004
 40
3
 50
269.99999700000001
 51
0.0000099999999886
  0
LINE
  8
_0-0_0
  6
CONTINUOUS
 62
    7
 10
239.92895499999997
 20
779.29994150000005
 11
239.72895800000003
 21
779.29994150000005
  0
ARC
  8
_0-0_0
  6
CONTINUOUS
 62
    7
 10
241.92895499999997
 20
777.79994150000005
 40
2
 50
180.00000900000003
 51
0.0000000000000254
  0
LINE
  8
_0-0_0
  6
CONTINUOUS
 62
    7
 10
239.92895499999997
 20
779.29994150000005
 11
239.92895499999997
 21
777.79994150000005
  0
LINE
  8
_0-0_0
  6
CONTINUOUS
 62
    7
 10
165.12896699999999
 20
779.29994150000005
 11
164.92895499999997
 21
779.29994150000005
  0
LINE
  8
_0-0_0
  6
CONTINUOUS
 62
    7
 10
164.92895499999997
 20
779.29994150000005
 11
164.92895499999997
 21
777.79994150000005
  0
ARC
  8
_0-0_0
  6
CONTINUOUS
 62
    7
 10
162.92895499999997
 20
777.79994150000005
 40
2
 50
180.00000900000003
 51
0.0000000000000254
  0
LINE
  8
_0-0_0
  6
CONTINUOUS
 62
    7
 10
147.42896299999995
 20
779.79994150000005
 11
147.42896299999995
 21
779.29994150000005
  0
LINE
  8
_0-0_0
  6
CONTINUOUS
 62
    7
 10
160.92895499999997
 20
776.88343750000001
 11
160.92895499999997
 21
777.59992950000003
  0
LINE
  8
_0-0_0
  6
CONTINUOUS
 62
    7
 10
160.92895499999997
 20
776.88343750000001
 11
160.92895499999997
 21
776.87730350000004
  0
LINE
  8
_0-0_0
  6
CONTINUOUS
 62
    7
 10
160.92895499999997
 20
775.66880749999996
 11
160.92895499999997
 21
775.55494650000003
  0
LINE
  8
_0-0_0
  6
CONTINUOUS
 62
    7
 10
148.92896299999995
 20
776.89994750000005
 11
148.92896299999995
 21
774.89994750000005
  0
LINE
  8
_0-0_0
  6
CONTINUOUS
 62
    7
 10
160.92895499999997
 20
776.89994750000005
 11
148.92896299999995
 21
776.89994750000005
  0
LINE
  8
_0-0_0
  6
CONTINUOUS
 62
    7
 10
148.92896299999995
 20
771.39994750000005
 11
148.92896299999995
 21
774.39994750000005
  0
LINE
  8
_0-0_0
  6
CONTINUOUS
 62
    7
 10
148.92896299999995
 20
774.39994750000005
 11
148.92896299999995
 21
774.89994750000005
  0
LINE
  8
_0-0_0
  6
CONTINUOUS
 62
    7
 10
148.92896299999995
 20
771.39994750000005
 11
148.92896299999995
 21
770.89994750000005
  0
ARC
  8
_0-0_0
  6
CONTINUOUS
 62
    7
 10
154.92896999999994
 20
771.59992950000003
 40
0.500016
 50
0.001164
 51
179.99560600000004
  0
LINE
  8
_0-0_0
  6
CONTINUOUS
 62
    7
 10
154.42895499999997
 20
771.59992950000003
 11
154.42895499999997
 21
759.59992950000003
  0
ARC
  8
_0-0_0
  6
CONTINUOUS
 62
    7
 10
154.92896999999994
 20
759.59996049999995
 40
0.500016
 50
180.00117
 51
359.995611
  0
LINE
  8
_0-0_0
  6
CONTINUOUS
 62
    7
 10
155.42895499999997
 20
771.59992950000003
 11
155.42895499999997
 21
759.59992950000003
  0
ARC
  8
_0-0_0
  6
CONTINUOUS
 62
    7
 10
153.42896999999994
 20
771.59992950000003
 40
0.500016
 50
0.001164
 51
179.99560600000004
  0
LINE
  8
_0-0_0
  6
CONTINUOUS
 62
    7
 10
152.92895499999997
 20
771.59992950000003
 11
152.92895499999997
 21
759.59992950000003
  0
ARC
  8
_0-0_0
  6
CONTINUOUS
 62
    7
 10
153.42896999999994
 20
759.59996049999995
 40
0.500016
 50
180.00117
 51
359.995611
  0
LINE
  8
_0-0_0
  6
CONTINUOUS
 62
    7
 10
153.92895499999997
 20
771.59992950000003
 11
153.92895499999997
 21
759.59992950000003
  0
ARC
  8
_0-0_0
  6
CONTINUOUS
 62
    7
 10
151.92896999999994
 20
771.59992950000003
 40
0.500016
 50
0.001164
 51
179.99560600000004
  0
LINE
  8
_0-0_0
  6
CONTINUOUS
 62
    7
 10
151.42895499999997
 20
771.59992950000003
 11
151.42895499999997
 21
759.59992950000003
  0
ARC
  8
_0-0_0
  6
CONTINUOUS
 62
    7
 10
151.92896999999994
 20
759.59996049999995
 40
0.500016
 50
180.00117
 51
359.995611
  0
LINE
  8
_0-0_0
  6
CONTINUOUS
 62
    7
 10
152.42895499999997
 20
771.59992950000003
 11
152.42895499999997
 21
759.59992950000003
  0
ARC
  8
_0-0_0
  6
CONTINUOUS
 62
    7
 10
150.42896999999994
 20
771.59992950000003
 40
0.500016
 50
0.001164
 51
179.99560600000004
  0
LINE
  8
_0-0_0
  6
CONTINUOUS
 62
    7
 10
149.92896299999995
 20
771.59992950000003
 11
149.92896299999995
 21
759.59992950000003
  0
ARC
  8
_0-0_0
  6
CONTINUOUS
 62
    7
 10
150.42896999999994
 20
759.59996049999995
 40
0.500016
 50
180.00117
 51
359.995611
  0
LINE
  8
_0-0_0
  6
CONTINUOUS
 62
    7
 10
150.92895499999997
 20
771.59992950000003
 11
150.92895499999997
 21
759.59992950000003
  0
LINE
  8
_0-0_0
  6
CONTINUOUS
 62
    7
 10
160.92895499999997
 20
755.29994150000005
 11
144.25351699999999
 21
755.29994150000005
  0
LINE
  8
_0-0_0
  6
CONTINUOUS
 62
    7
 10
171.47895800000003
 20
757.27690150000001
 11
171.47895800000003
 21
757.29994150000005
  0
LINE
  8
_0-0_0
  6
CONTINUOUS
 62
    7
 10
240.37895200000003
 20
757.27690150000001
 11
240.37895200000003
 21
757.29994150000005
  0
LINE
  8
_0-0_0
  6
CONTINUOUS
 62
    7
 10
147.42896299999995
 20
779.79994150000005
 11
147.42896299999995
 21
780.29994150000005
  0
LINE
  8
_0-0_0
  6
CONTINUOUS
 62
    7
 10
243.92895499999997
 20
780.29994150000005
 11
147.42896299999995
 21
780.29994150000005
  0
LINE
  8
_0-0_0
  6
CONTINUOUS
 62
    7
 10
147.42896299999995
 20
780.29994150000005
 11
147.42896299999995
 21
781.29994150000005
  0
LINE
  8
_0-0_0
  6
CONTINUOUS
 62
    7
 10
243.92909199999997
 20
781.30000250000001
 11
243.92909199999997
 21
780.80000250000001
  0
LINE
  8
_0-0_0
  6
CONTINUOUS
 62
    7
 10
243.92909199999997
 20
780.80000250000001
 11
243.92909199999997
 21
779.30000250000001
  0
ARC
  8
_0-0_0
  6
CONTINUOUS
 62
    7
 10
234.42895499999997
 20
770.89994750000005
 40
4.5
 50
269.99999700000001
 51
90.000002999999992
  0
LINE
  8
_0-0_0
  6
CONTINUOUS
 62
    7
 10
234.42895499999997
 20
766.39994750000005
 11
229.42895499999997
 21
766.39994750000005
  0
ARC
  8
_0-0_0
  6
CONTINUOUS
 62
    7
 10
229.42895499999997
 20
770.89994750000005
 40
4.5
 50
90.000003000000007
 51
269.99999700000006
  0
LINE
  8
_0-0_0
  6
CONTINUOUS
 62
    7
 10
229.42895499999997
 20
775.39994750000005
 11
234.42895499999997
 21
775.39994750000005
  0
ARC
  8
_0-0_0
  6
CONTINUOUS
 62
    7
 10
178.42895499999997
 20
770.89994750000005
 40
4.5
 50
269.99999700000001
 51
90.000002999999992
  0
LINE
  8
_0-0_0
  6
CONTINUOUS
 62
    7
 10
178.42895499999997
 20
766.39994750000005
 11
173.42895499999997
 21
766.39994750000005
  0
ARC
  8
_0-0_0
  6
CONTINUOUS
 62
    7
 10
173.42895499999997
 20
770.89994750000005
 40
4.5
 50
90.000003000000007
 51
269.99999700000006
  0
LINE
  8
_0-0_0
  6
CONTINUOUS
 62
    7
 10
173.42895499999997
 20
775.39994750000005
 11
178.42895499999997
 21
775.39994750000005
  0
LINE
  8
_0-0_0
  6
CONTINUOUS
 62
    7
 10
160.92895499999997
 20
777.59992950000003
 11
160.92895499999997
 21
779.29994150000005
  0
LINE
  8
_0-0_0
  6
CONTINUOUS
 62
    7
 10
160.92895499999997
 20
779.29994150000005
 11
147.42896299999995
 21
779.29994150000005
  0
LINE
  8
_0-0_0
  6
CONTINUOUS
 62
    7
 10
147.42896299999995
 20
777.59992950000003
 11
147.42896299999995
 21
779.29994150000005
  0
LINE
  8
_0-0_0
  6
CONTINUOUS
 62
    7
 10
148.92896299999995
 20
776.89994750000005
 11
144.25351699999999
 21
776.89994750000005
  0
LINE
  8
_0-0_0
  6
CONTINUOUS
 62
    7
 10
148.92896299999995
 20
771.39994750000005
 11
144.25351699999999
 21
771.39994750000005
  0
LINE
  8
_0-0_0
  6
CONTINUOUS
 62
    7
 10
143.62106299999994
 20
755.40257250000002
 11
143.74056199999995
 21
755.36695850000001
  0
LINE
  8
_0-0_0
  6
CONTINUOUS
 62
    7
 10
143.74056199999995
 20
755.36695850000001
 11
143.86211400000002
 21
755.33906549999995
  0
LINE
  8
_0-0_0
  6
CONTINUOUS
 62
    7
 10
143.86211400000002
 20
755.33906549999995
 11
143.98524499999996
 21
755.31904550000002
  0
LINE
  8
_0-0_0
  6
CONTINUOUS
 62
    7
 10
143.98524499999996
 20
755.31904550000002
 11
144.10947399999998
 21
755.30693050000002
  0
LINE
  8
_0-0_0
  6
CONTINUOUS
 62
    7
 10
144.10947399999998
 20
755.30693050000002
 11
144.23429099999998
 21
755.30278050000004
  0
LINE
  8
_0-0_0
  6
CONTINUOUS
 62
    7
 10
144.23429099999998
 20
755.30278050000004
 11
144.25351699999999
 21
755.30287150000004
  0
ARC
  8
_0-0_0
  6
CONTINUOUS
 62
    7
 10
144.25351699999999
 20
757.29994150000005
 40
2
 50
251.56498899999997
 51
269.99999700000001
  0
LINE
  8
_0-0_0
  6
CONTINUOUS
 62
    7
 10
147.42896299999995
 20
777.59992950000003
 11
160.92895499999997
 21
777.59992950000003
  0
CIRCLE
  8
_0-0_0
  6
CONTINUOUS
 62
    7
 10
241.92895499999997
 20
777.79994150000005
 40
1.4750000000000001
  0
CIRCLE
  8
_0-0_0
  6
CONTINUOUS
 62
    7
 10
162.92895499999997
 20
777.79994150000005
 40
1.4750000000000001
  0
ARC
  8
_0-0_0
  6
CONTINUOUS
 62
    7
 10
144.25351699999999
 20
774.89994750000005
 40
2
 50
90.000003000000007
 51
108.434997
  0
LINE
  8
_0-0_0
  6
CONTINUOUS
 62
    7
 10
139.45461999999998
 20
771.39994750000005
 11
138.76126099999999
 21
771.39994750000005
  0
LINE
  8
_0-0_0
  6
CONTINUOUS
 62
    7
 10
139.45461999999998
 20
771.39994750000005
 11
143.77917500000001
 21
771.39994750000005
  0
LINE
  8
_0-0_0
  6
CONTINUOUS
 62
    7
 10
144.25351699999999
 20
771.39994750000005
 11
143.77917500000001
 21
771.39994750000005
  0
LINE
  8
_0-0_0
  6
CONTINUOUS
 62
    7
 10
139.29650900000001
 20
756.84410049999997
 11
143.62106299999994
 21
755.40257250000002
  0
LINE
  8
_0-0_0
  6
CONTINUOUS
 62
    7
 10
238.47895800000003
 20
770.89994750000005
 11
236.16955599999994
 21
766.89994750000005
  0
LINE
  8
_0-0_0
  6
CONTINUOUS
 62
    7
 10
227.688355
 20
766.89994750000005
 11
236.16955599999994
 21
766.89994750000005
  0
LINE
  8
_0-0_0
  6
CONTINUOUS
 62
    7
 10
227.688355
 20
766.89994750000005
 11
225.37895200000003
 21
770.89994750000005
  0
LINE
  8
_0-0_0
  6
CONTINUOUS
 62
    7
 10
225.37895200000003
 20
770.89994750000005
 11
227.688355
 21
774.89994750000005
  0
LINE
  8
_0-0_0
  6
CONTINUOUS
 62
    7
 10
236.16955599999994
 20
774.89994750000005
 11
227.688355
 21
774.89994750000005
  0
LINE
  8
_0-0_0
  6
CONTINUOUS
 62
    7
 10
236.16955599999994
 20
774.89994750000005
 11
238.47895800000003
 21
770.89994750000005
  0
LINE
  8
_0-0_0
  6
CONTINUOUS
 62
    7
 10
171.688355
 20
774.89994750000005
 11
169.37896699999999
 21
770.89994750000005
  0
LINE
  8
_0-0_0
  6
CONTINUOUS
 62
    7
 10
180.16955599999994
 20
774.89994750000005
 11
171.688355
 21
774.89994750000005
  0
LINE
  8
_0-0_0
  6
CONTINUOUS
 62
    7
 10
182.47895800000003
 20
770.89994750000005
 11
180.16955599999994
 21
774.89994750000005
  0
LINE
  8
_0-0_0
  6
CONTINUOUS
 62
    7
 10
180.16955599999994
 20
766.89994750000005
 11
182.47895800000003
 21
770.89994750000005
  0
LINE
  8
_0-0_0
  6
CONTINUOUS
 62
    7
 10
171.688355
 20
766.89994750000005
 11
180.16955599999994
 21
766.89994750000005
  0
LINE
  8
_0-0_0
  6
CONTINUOUS
 62
    7
 10
169.37896699999999
 20
770.89994750000005
 11
171.688355
 21
766.89994750000005
  0
LINE
  8
_0-0_0
  6
CONTINUOUS
 62
    7
 10
143.17895499999997
 20
776.64994750000005
 11
143.62106299999994
 21
776.79731749999996
  0
LINE
  8
_0-0_0
  6
CONTINUOUS
 62
    7
 10
137.92896299999995
 20
772.14997849999997
 11
137.92896299999995
 21
771.02894549999996
  0
LINE
  8
_0-0_0
  6
CONTINUOUS
 62
    7
 10
137.92896299999995
 20
770.10762050000005
 11
137.92896299999995
 21
771.02894549999996
  0
LINE
  8
_0-0_0
  6
CONTINUOUS
 62
    7
 10
138.22896600000001
 20
768.3119355
 11
138.17016599999999
 21
768.55876150000006
  0
LINE
  8
_0-0_0
  6
CONTINUOUS
 62
    7
 10
138.17016599999999
 20
768.55876150000006
 11
138.12040000000002
 21
768.75111349999997
  0
LINE
  8
_0-0_0
  6
CONTINUOUS
 62
    7
 10
138.12040000000002
 20
768.75111349999997
 11
138.04927099999998
 21
769.01692149999997
  0
LINE
  8
_0-0_0
  6
CONTINUOUS
 62
    7
 10
138.04927099999998
 20
769.01692149999997
 11
138.01631199999997
 21
769.14363049999997
  0
LINE
  8
_0-0_0
  6
CONTINUOUS
 62
    7
 10
138.01631199999997
 20
769.14363049999997
 11
137.99105099999997
 21
769.24705449999999
  0
LINE
  8
_0-0_0
  6
CONTINUOUS
 62
    7
 10
137.99105099999997
 20
769.24705449999999
 11
137.96902499999999
 21
769.3469695
  0
LINE
  8
_0-0_0
  6
CONTINUOUS
 62
    7
 10
137.96902499999999
 20
769.3469695
 11
137.94764699999996
 21
769.4646755
  0
LINE
  8
_0-0_0
  6
CONTINUOUS
 62
    7
 10
137.94764699999996
 20
769.4646755
 11
137.93907200000001
 21
769.52680950000001
  0
LINE
  8
_0-0_0
  6
CONTINUOUS
 62
    7
 10
137.93907200000001
 20
769.52680950000001
 11
137.93299100000002
 21
769.58741750000002
  0
LINE
  8
_0-0_0
  6
CONTINUOUS
 62
    7
 10
137.93299100000002
 20
769.58741750000002
 11
137.92998499999999
 21
769.63667250000003
  0
LINE
  8
_0-0_0
  6
CONTINUOUS
 62
    7
 10
137.92998499999999
 20
769.63667250000003
 11
137.92896299999995
 21
769.68489050000005
  0
LINE
  8
_0-0_0
  6
CONTINUOUS
 62
    7
 10
138.22896600000001
 20
763.88792450000005
 11
138.31242399999996
 21
764.26661650000005
  0
LINE
  8
_0-0_0
  6
CONTINUOUS
 62
    7
 10
138.31242399999996
 20
764.26661650000005
 11
138.35251600000004
 21
764.4581455
  0
LINE
  8
_0-0_0
  6
CONTINUOUS
 62
    7
 10
138.35251600000004
 20
764.4581455
 11
138.40859999999998
 21
764.74815350000006
  0
LINE
  8
_0-0_0
  6
CONTINUOUS
 62
    7
 10
138.40859999999998
 20
764.74815350000006
 11
138.44619799999998
 21
764.96772750000002
  0
LINE
  8
_0-0_0
  6
CONTINUOUS
 62
    7
 10
138.44619799999998
 20
764.96772750000002
 11
138.47884399999998
 21
765.18897949999996
  0
LINE
  8
_0-0_0
  6
CONTINUOUS
 62
    7
 10
138.47884399999998
 20
765.18897949999996
 11
138.50600399999996
 21
765.41578649999997
  0
LINE
  8
_0-0_0
  6
CONTINUOUS
 62
    7
 10
138.50600399999996
 20
765.41578649999997
 11
138.52607
 21
765.64317349999999
  0
LINE
  8
_0-0_0
  6
CONTINUOUS
 62
    7
 10
138.52607
 20
765.64317349999999
 11
138.53322600000001
 21
765.7569125
  0
LINE
  8
_0-0_0
  6
CONTINUOUS
 62
    7
 10
138.53322600000001
 20
765.7569125
 11
138.53838399999995
 21
765.87059050000005
  0
LINE
  8
_0-0_0
  6
CONTINUOUS
 62
    7
 10
138.53838399999995
 20
765.87059050000005
 11
138.54209900000001
 21
766.02201850000006
  0
LINE
  8
_0-0_0
  6
CONTINUOUS
 62
    7
 10
138.54209900000001
 20
766.02201850000006
 11
138.54215999999997
 21
766.1732935
  0
LINE
  8
_0-0_0
  6
CONTINUOUS
 62
    7
 10
138.54215999999997
 20
766.1732935
 11
138.53857399999993
 21
766.32435550000002
  0
LINE
  8
_0-0_0
  6
CONTINUOUS
 62
    7
 10
138.53857399999993
 20
766.32435550000002
 11
138.52907600000003
 21
766.51289350000002
  0
LINE
  8
_0-0_0
  6
CONTINUOUS
 62
    7
 10
138.52907600000003
 20
766.51289350000002
 11
138.51420599999994
 21
766.70112549999999
  0
LINE
  8
_0-0_0
  6
CONTINUOUS
 62
    7
 10
138.51420599999994
 20
766.70112549999999
 11
138.49428599999999
 21
766.88908349999997
  0
LINE
  8
_0-0_0
  6
CONTINUOUS
 62
    7
 10
138.49428599999999
 20
766.88908349999997
 11
138.47789799999998
 21
767.01795949999996
  0
LINE
  8
_0-0_0
  6
CONTINUOUS
 62
    7
 10
138.47789799999998
 20
767.01795949999996
 11
138.45948799999996
 21
767.1465915
  0
LINE
  8
_0-0_0
  6
CONTINUOUS
 62
    7
 10
138.45948799999996
 20
767.1465915
 11
138.43532600000003
 21
767.29853849999995
  0
LINE
  8
_0-0_0
  6
CONTINUOUS
 62
    7
 10
138.43532600000003
 20
767.29853849999995
 11
138.40892799999995
 21
767.44987449999996
  0
LINE
  8
_0-0_0
  6
CONTINUOUS
 62
    7
 10
138.40892799999995
 20
767.44987449999996
 11
138.35275999999999
 21
767.74049349999996
  0
LINE
  8
_0-0_0
  6
CONTINUOUS
 62
    7
 10
138.35275999999999
 20
767.74049349999996
 11
138.31259899999998
 21
767.93244949999996
  0
LINE
  8
_0-0_0
  6
CONTINUOUS
 62
    7
 10
138.31259899999998
 20
767.93244949999996
 11
138.22896600000001
 21
768.3119355
  0
LINE
  8
_0-0_0
  6
CONTINUOUS
 62
    7
 10
138.22895800000003
 20
763.88792450000005
 11
138.17015800000001
 21
763.64106749999996
  0
LINE
  8
_0-0_0
  6
CONTINUOUS
 62
    7
 10
138.17015800000001
 20
763.64106749999996
 11
138.12040000000002
 21
763.44874549999997
  0
LINE
  8
_0-0_0
  6
CONTINUOUS
 62
    7
 10
138.12040000000002
 20
763.44874549999997
 11
138.04927799999996
 21
763.18299850000005
  0
LINE
  8
_0-0_0
  6
CONTINUOUS
 62
    7
 10
138.04927799999996
 20
763.18299850000005
 11
138.01631899999995
 21
763.05632049999997
  0
LINE
  8
_0-0_0
  6
CONTINUOUS
 62
    7
 10
138.01631899999995
 20
763.05632049999997
 11
137.99105799999995
 21
762.95286550000003
  0
LINE
  8
_0-0_0
  6
CONTINUOUS
 62
    7
 10
137.99105799999995
 20
762.95286550000003
 11
137.96902499999999
 21
762.85288949999995
  0
LINE
  8
_0-0_0
  6
CONTINUOUS
 62
    7
 10
137.96902499999999
 20
762.85288949999995
 11
137.94763999999998
 21
762.73518349999995
  0
LINE
  8
_0-0_0
  6
CONTINUOUS
 62
    7
 10
137.94763999999998
 20
762.73518349999995
 11
137.93907200000001
 21
762.67304950000005
  0
LINE
  8
_0-0_0
  6
CONTINUOUS
 62
    7
 10
137.93907200000001
 20
762.67304950000005
 11
137.93299100000002
 21
762.61244150000005
  0
LINE
  8
_0-0_0
  6
CONTINUOUS
 62
    7
 10
137.93299100000002
 20
762.61244150000005
 11
137.92998499999999
 21
762.56321749999995
  0
LINE
  8
_0-0_0
  6
CONTINUOUS
 62
    7
 10
137.92998499999999
 20
762.56321749999995
 11
137.92896299999995
 21
762.51499950000004
  0
LINE
  8
_0-0_0
  6
CONTINUOUS
 62
    7
 10
137.92896299999995
 20
758.74147049999999
 11
137.92896299999995
 21
762.09223950000001
  0
ARC
  8
_0-0_0
  6
CONTINUOUS
 62
    7
 10
139.92896299999995
 20
758.74147049999999
 40
2
 50
180.00000900000003
 51
251.56498900000003
  0
LINE
  8
_0-0_0
  6
CONTINUOUS
 62
    7
 10
242.37895200000003
 20
777.59992950000003
 11
243.02896099999998
 21
777.59992950000003
  0
ARC
  8
_0-0_0
  6
CONTINUOUS
 62
    7
 10
242.37895200000003
 20
777.34992950000003
 40
0.25
 50
90.000003000000007
 51
180.00000900000001
  0
LINE
  8
_0-0_0
  6
CONTINUOUS
 62
    7
 10
242.12895200000003
 20
777.34992950000003
 11
242.12895200000003
 21
776.69993550000004
  0
LINE
  8
_0-0_0
  6
CONTINUOUS
 62
    7
 10
241.72895800000003
 20
776.69993550000004
 11
242.12895200000003
 21
776.69993550000004
  0
LINE
  8
_0-0_0
  6
CONTINUOUS
 62
    7
 10
241.72895800000003
 20
776.69993550000004
 11
241.72895800000003
 21
777.34992950000003
  0
ARC
  8
_0-0_0
  6
CONTINUOUS
 62
    7
 10
241.47895800000003
 20
777.34992950000003
 40
0.25
 50
0
 51
90.000003000000007
  0
LINE
  8
_0-0_0
  6
CONTINUOUS
 62
    7
 10
240.82896400000004
 20
777.59992950000003
 11
241.47895800000003
 21
777.59992950000003
  0
LINE
  8
_0-0_0
  6
CONTINUOUS
 62
    7
 10
240.82896400000004
 20
777.59992950000003
 11
240.82896400000004
 21
777.99995450000006
  0
LINE
  8
_0-0_0
  6
CONTINUOUS
 62
    7
 10
241.47895800000003
 20
777.99995450000006
 11
240.82896400000004
 21
777.99995450000006
  0
ARC
  8
_0-0_0
  6
CONTINUOUS
 62
    7
 10
241.47895800000003
 20
778.24995450000006
 40
0.25
 50
269.99999700000001
 51
0
  0
LINE
  8
_0-0_0
  6
CONTINUOUS
 62
    7
 10
241.72895800000003
 20
778.24995450000006
 11
241.72895800000003
 21
778.89994750000005
  0
LINE
  8
_0-0_0
  6
CONTINUOUS
 62
    7
 10
242.12895200000003
 20
778.89994750000005
 11
241.72895800000003
 21
778.89994750000005
  0
LINE
  8
_0-0_0
  6
CONTINUOUS
 62
    7
 10
242.12895200000003
 20
778.89994750000005
 11
242.12895200000003
 21
778.24995450000006
  0
ARC
  8
_0-0_0
  6
CONTINUOUS
 62
    7
 10
242.37895200000003
 20
778.24995450000006
 40
0.25
 50
180.00000900000003
 51
269.99999700000001
  0
LINE
  8
_0-0_0
  6
CONTINUOUS
 62
    7
 10
243.02896099999998
 20
777.99995450000006
 11
242.37895200000003
 21
777.99995450000006
  0
LINE
  8
_0-0_0
  6
CONTINUOUS
 62
    7
 10
243.02896099999998
 20
777.99995450000006
 11
243.02896099999998
 21
777.59992950000003
  0
LINE
  8
_0-0_0
  6
CONTINUOUS
 62
    7
 10
163.37896699999999
 20
777.59992950000003
 11
164.02896099999998
 21
777.59992950000003
  0
ARC
  8
_0-0_0
  6
CONTINUOUS
 62
    7
 10
163.37896699999999
 20
777.34992950000003
 40
0.25
 50
90.000003000000007
 51
180.00000900000001
  0
LINE
  8
_0-0_0
  6
CONTINUOUS
 62
    7
 10
163.12896699999999
 20
777.34992950000003
 11
163.12896699999999
 21
776.69993550000004
  0
LINE
  8
_0-0_0
  6
CONTINUOUS
 62
    7
 10
162.72895800000003
 20
776.69993550000004
 11
163.12896699999999
 21
776.69993550000004
  0
LINE
  8
_0-0_0
  6
CONTINUOUS
 62
    7
 10
162.72895800000003
 20
776.69993550000004
 11
162.72895800000003
 21
777.34992950000003
  0
ARC
  8
_0-0_0
  6
CONTINUOUS
 62
    7
 10
162.47895800000003
 20
777.34992950000003
 40
0.25
 50
0
 51
90.000003000000007
  0
LINE
  8
_0-0_0
  6
CONTINUOUS
 62
    7
 10
161.82896400000004
 20
777.59992950000003
 11
162.47895800000003
 21
777.59992950000003
  0
LINE
  8
_0-0_0
  6
CONTINUOUS
 62
    7
 10
161.82896400000004
 20
777.59992950000003
 11
161.82896400000004
 21
777.99995450000006
  0
LINE
  8
_0-0_0
  6
CONTINUOUS
 62
    7
 10
162.47895800000003
 20
777.99995450000006
 11
161.82896400000004
 21
777.99995450000006
  0
ARC
  8
_0-0_0
  6
CONTINUOUS
 62
    7
 10
162.47895800000003
 20
778.24995450000006
 40
0.25
 50
269.99999700000001
 51
0
  0
LINE
  8
_0-0_0
  6
CONTINUOUS
 62
    7
 10
162.72895800000003
 20
778.24995450000006
 11
162.72895800000003
 21
778.89994750000005
  0
LINE
  8
_0-0_0
  6
CONTINUOUS
 62
    7
 10
163.12896699999999
 20
778.89994750000005
 11
162.72895800000003
 21
778.89994750000005
  0
LINE
  8
_0-0_0
  6
CONTINUOUS
 62
    7
 10
163.12896699999999
 20
778.89994750000005
 11
163.12896699999999
 21
778.24995450000006
  0
ARC
  8
_0-0_0
  6
CONTINUOUS
 62
    7
 10
163.37896699999999
 20
778.24995450000006
 40
0.25
 50
180.00000900000003
 51
269.99999700000001
  0
LINE
  8
_0-0_0
  6
CONTINUOUS
 62
    7
 10
164.02896099999998
 20
777.99995450000006
 11
163.37896699999999
 21
777.99995450000006
  0
LINE
  8
_0-0_0
  6
CONTINUOUS
 62
    7
 10
164.02896099999998
 20
777.99995450000006
 11
164.02896099999998
 21
777.59992950000003
  0
LINE
  8
_0-0_0
  6
CONTINUOUS
 62
    7
 10
122.92896299999995
 20
775.6253815
 11
122.92896299999995
 21
775.47865249999995
  0
LINE
  8
_0-0_0
  6
CONTINUOUS
 62
    7
 10
122.92896299999995
 20
775.81590249999999
 11
122.92896299999995
 21
775.6253815
  0
LINE
  8
_0-0_0
  6
CONTINUOUS
 62
    7
 10
122.92896299999995
 20
775.99092050000002
 11
122.92896299999995
 21
775.81590249999999
  0
LINE
  8
_0-0_0
  6
CONTINUOUS
 62
    7
 10
122.92896299999995
 20
776.14851350000004
 11
122.92896299999995
 21
775.99092050000002
  0
LINE
  8
_0-0_0
  6
CONTINUOUS
 62
    7
 10
122.92896299999995
 20
776.28694150000001
 11
122.92896299999995
 21
776.14851350000004
  0
LINE
  8
_0-0_0
  6
CONTINUOUS
 62
    7
 10
122.92896299999995
 20
776.40470849999997
 11
122.92896299999995
 21
776.28694150000001
  0
LINE
  8
_0-0_0
  6
CONTINUOUS
 62
    7
 10
122.92896299999995
 20
776.50050350000004
 11
122.92896299999995
 21
776.40470849999997
  0
LINE
  8
_0-0_0
  6
CONTINUOUS
 62
    7
 10
122.92896299999995
 20
776.57328749999999
 11
122.92896299999995
 21
776.50050350000004
  0
LINE
  8
_0-0_0
  6
CONTINUOUS
 62
    7
 10
122.92896299999995
 20
776.62223849999998
 11
122.92896299999995
 21
776.57328749999999
  0
LINE
  8
_0-0_0
  6
CONTINUOUS
 62
    7
 10
122.92896299999995
 20
776.64994750000005
 11
122.92896299999995
 21
776.62223849999998
  0
LINE
  8
_0-0_0
  6
CONTINUOUS
 62
    7
 10
122.92896299999995
 20
776.64994750000005
 11
122.92896299999995
 21
776.64686549999999
  0
LINE
  8
_0-0_0
  6
CONTINUOUS
 62
    7
 10
122.92896299999995
 20
772.1530305
 11
122.92896299999995
 21
772.14994750000005
  0
LINE
  8
_0-0_0
  6
CONTINUOUS
 62
    7
 10
122.92896299999995
 20
772.17765750000001
 11
122.92896299999995
 21
772.14994750000005
  0
LINE
  8
_0-0_0
  6
CONTINUOUS
 62
    7
 10
122.92896299999995
 20
772.2266085
 11
122.92896299999995
 21
772.17765750000001
  0
LINE
  8
_0-0_0
  6
CONTINUOUS
 62
    7
 10
122.92896299999995
 20
772.29939249999995
 11
122.92896299999995
 21
772.2266085
  0
LINE
  8
_0-0_0
  6
CONTINUOUS
 62
    7
 10
122.92896299999995
 20
772.39518750000002
 11
122.92896299999995
 21
772.29939249999995
  0
LINE
  8
_0-0_0
  6
CONTINUOUS
 62
    7
 10
122.92896299999995
 20
772.42536949999999
 11
122.92896299999995
 21
772.39518750000002
  0
LINE
  8
_0-0_0
  6
CONTINUOUS
 62
    7
 10
122.92896299999995
 20
772.51292450000005
 11
122.92896299999995
 21
772.42536949999999
  0
LINE
  8
_0-0_0
  6
CONTINUOUS
 62
    7
 10
122.92896299999995
 20
772.65135150000003
 11
122.92896299999995
 21
772.51292450000005
  0
LINE
  8
_0-0_0
  6
CONTINUOUS
 62
    7
 10
122.92896299999995
 20
772.80894450000005
 11
122.92896299999995
 21
772.65135150000003
  0
LINE
  8
_0-0_0
  6
CONTINUOUS
 62
    7
 10
122.92896299999995
 20
772.98396249999996
 11
122.92896299999995
 21
772.80894450000005
  0
LINE
  8
_0-0_0
  6
CONTINUOUS
 62
    7
 10
122.92896299999995
 20
773.17451449999999
 11
122.92896299999995
 21
772.98396249999996
  0
LINE
  8
_0-0_0
  6
CONTINUOUS
 62
    7
 10
122.92896299999995
 20
773.37846349999995
 11
122.92896299999995
 21
773.17451449999999
  0
LINE
  8
_0-0_0
  6
CONTINUOUS
 62
    7
 10
122.92896299999995
 20
773.59361249999995
 11
122.92896299999995
 21
773.37846349999995
  0
LINE
  8
_0-0_0
  6
CONTINUOUS
 62
    7
 10
122.92896299999995
 20
773.8176115
 11
122.92896299999995
 21
773.59361249999995
  0
LINE
  8
_0-0_0
  6
CONTINUOUS
 62
    7
 10
122.92896299999995
 20
774.04795850000005
 11
122.92896299999995
 21
773.8176115
  0
LINE
  8
_0-0_0
  6
CONTINUOUS
 62
    7
 10
122.92896299999995
 20
774.28218049999998
 11
122.92896299999995
 21
774.04795850000005
  0
LINE
  8
_0-0_0
  6
CONTINUOUS
 62
    7
 10
122.92896299999995
 20
774.51771550000001
 11
122.92896299999995
 21
774.28218049999998
  0
LINE
  8
_0-0_0
  6
CONTINUOUS
 62
    7
 10
122.92896299999995
 20
774.75190750000002
 11
122.92896299999995
 21
774.51771550000001
  0
LINE
  8
_0-0_0
  6
CONTINUOUS
 62
    7
 10
122.92896299999995
 20
774.98228449999999
 11
122.92896299999995
 21
774.75190750000002
  0
LINE
  8
_0-0_0
  6
CONTINUOUS
 62
    7
 10
122.92896299999995
 20
775.20628350000004
 11
122.92896299999995
 21
774.98228449999999
  0
LINE
  8
_0-0_0
  6
CONTINUOUS
 62
    7
 10
122.92896299999995
 20
775.42143250000004
 11
122.92896299999995
 21
775.20628350000004
  0
LINE
  8
_0-0_0
  6
CONTINUOUS
 62
    7
 10
122.92896299999995
 20
775.47865249999995
 11
122.92896299999995
 21
775.42143250000004
  0
LINE
  8
_0-0_0
  6
CONTINUOUS
 62
    7
 10
137.92896299999995
 20
767.66200249999997
 11
137.92896299999995
 21
768.70762649999995
  0
LINE
  8
_0-0_0
  6
CONTINUOUS
 62
    7
 10
137.92896299999995
 20
769.9922335
 11
137.92896299999995
 21
768.70762649999995
  0
LINE
  8
_0-0_0
  6
CONTINUOUS
 62
    7
 10
137.92896299999995
 20
770.10762050000005
 11
137.92896299999995
 21
769.9922335
  0
LINE
  8
_0-0_0
  6
CONTINUOUS
 62
    7
 10
137.92896299999995
 20
767.66200249999997
 11
137.92896299999995
 21
764.53788750000001
  0
LINE
  8
_0-0_0
  6
CONTINUOUS
 62
    7
 10
137.92896299999995
 20
762.09223950000001
 11
137.92896299999995
 21
762.20762649999995
  0
LINE
  8
_0-0_0
  6
CONTINUOUS
 62
    7
 10
137.92896299999995
 20
763.4922335
 11
137.92896299999995
 21
762.20762649999995
  0
LINE
  8
_0-0_0
  6
CONTINUOUS
 62
    7
 10
137.92896299999995
 20
763.4922335
 11
137.92896299999995
 21
764.53788750000001
  0
LINE
  8
_0-0_0
  6
CONTINUOUS
 62
    7
 10
122.92896299999995
 20
759.0253755
 11
122.92896299999995
 21
758.87864650000006
  0
LINE
  8
_0-0_0
  6
CONTINUOUS
 62
    7
 10
122.92896299999995
 20
759.21592650000002
 11
122.92896299999995
 21
759.0253755
  0
LINE
  8
_0-0_0
  6
CONTINUOUS
 62
    7
 10
122.92896299999995
 20
759.39094550000004
 11
122.92896299999995
 21
759.21592650000002
  0
LINE
  8
_0-0_0
  6
CONTINUOUS
 62
    7
 10
122.92896299999995
 20
759.54850750000003
 11
122.92896299999995
 21
759.39094550000004
  0
LINE
  8
_0-0_0
  6
CONTINUOUS
 62
    7
 10
122.92896299999995
 20
759.68696550000004
 11
122.92896299999995
 21
759.54850750000003
  0
LINE
  8
_0-0_0
  6
CONTINUOUS
 62
    7
 10
122.92896299999995
 20
759.80470249999996
 11
122.92896299999995
 21
759.68696550000004
  0
LINE
  8
_0-0_0
  6
CONTINUOUS
 62
    7
 10
122.92896299999995
 20
759.90049750000003
 11
122.92896299999995
 21
759.80470249999996
  0
LINE
  8
_0-0_0
  6
CONTINUOUS
 62
    7
 10
122.92896299999995
 20
759.97328149999998
 11
122.92896299999995
 21
759.90049750000003
  0
LINE
  8
_0-0_0
  6
CONTINUOUS
 62
    7
 10
122.92896299999995
 20
760.02223149999998
 11
122.92896299999995
 21
759.97328149999998
  0
LINE
  8
_0-0_0
  6
CONTINUOUS
 62
    7
 10
122.92896299999995
 20
760.04994150000005
 11
122.92896299999995
 21
760.02223149999998
  0
LINE
  8
_0-0_0
  6
CONTINUOUS
 62
    7
 10
122.92896299999995
 20
760.04994150000005
 11
122.92896299999995
 21
760.04685949999998
  0
LINE
  8
_0-0_0
  6
CONTINUOUS
 62
    7
 10
122.92896299999995
 20
755.55302449999999
 11
122.92896299999995
 21
755.54994150000005
  0
LINE
  8
_0-0_0
  6
CONTINUOUS
 62
    7
 10
122.92896299999995
 20
755.5776515
 11
122.92896299999995
 21
755.54994150000005
  0
LINE
  8
_0-0_0
  6
CONTINUOUS
 62
    7
 10
122.92896299999995
 20
755.62660249999999
 11
122.92896299999995
 21
755.5776515
  0
LINE
  8
_0-0_0
  6
CONTINUOUS
 62
    7
 10
122.92896299999995
 20
755.69938650000006
 11
122.92896299999995
 21
755.62660249999999
  0
LINE
  8
_0-0_0
  6
CONTINUOUS
 62
    7
 10
122.92896299999995
 20
755.79518150000001
 11
122.92896299999995
 21
755.69938650000006
  0
LINE
  8
_0-0_0
  6
CONTINUOUS
 62
    7
 10
122.92896299999995
 20
755.82539350000002
 11
122.92896299999995
 21
755.79518150000001
  0
LINE
  8
_0-0_0
  6
CONTINUOUS
 62
    7
 10
122.92896299999995
 20
755.91291750000005
 11
122.92896299999995
 21
755.82539350000002
  0
LINE
  8
_0-0_0
  6
CONTINUOUS
 62
    7
 10
122.92896299999995
 20
756.05137649999995
 11
122.92896299999995
 21
755.91291750000005
  0
LINE
  8
_0-0_0
  6
CONTINUOUS
 62
    7
 10
122.92896299999995
 20
756.20896849999997
 11
122.92896299999995
 21
756.05137649999995
  0
LINE
  8
_0-0_0
  6
CONTINUOUS
 62
    7
 10
122.92896299999995
 20
756.38398749999999
 11
122.92896299999995
 21
756.20896849999997
  0
LINE
  8
_0-0_0
  6
CONTINUOUS
 62
    7
 10
122.92896299999995
 20
756.57450849999998
 11
122.92896299999995
 21
756.38398749999999
  0
LINE
  8
_0-0_0
  6
CONTINUOUS
 62
    7
 10
122.92896299999995
 20
756.77845750000006
 11
122.92896299999995
 21
756.57450849999998
  0
LINE
  8
_0-0_0
  6
CONTINUOUS
 62
    7
 10
122.92896299999995
 20
756.99360650000006
 11
122.92896299999995
 21
756.77845750000006
  0
LINE
  8
_0-0_0
  6
CONTINUOUS
 62
    7
 10
122.92896299999995
 20
757.21760549999999
 11
122.92896299999995
 21
756.99360650000006
  0
LINE
  8
_0-0_0
  6
CONTINUOUS
 62
    7
 10
122.92896299999995
 20
757.44795250000004
 11
122.92896299999995
 21
757.21760549999999
  0
LINE
  8
_0-0_0
  6
CONTINUOUS
 62
    7
 10
122.92896299999995
 20
757.68217449999997
 11
122.92896299999995
 21
757.44795250000004
  0
LINE
  8
_0-0_0
  6
CONTINUOUS
 62
    7
 10
122.92896299999995
 20
757.9177095
 11
122.92896299999995
 21
757.68217449999997
  0
LINE
  8
_0-0_0
  6
CONTINUOUS
 62
    7
 10
122.92896299999995
 20
758.15193150000005
 11
122.92896299999995
 21
757.9177095
  0
LINE
  8
_0-0_0
  6
CONTINUOUS
 62
    7
 10
122.92896299999995
 20
758.38227849999998
 11
122.92896299999995
 21
758.15193150000005
  0
LINE
  8
_0-0_0
  6
CONTINUOUS
 62
    7
 10
122.92896299999995
 20
758.60627750000003
 11
122.92896299999995
 21
758.38227849999998
  0
LINE
  8
_0-0_0
  6
CONTINUOUS
 62
    7
 10
122.92896299999995
 20
758.82142650000003
 11
122.92896299999995
 21
758.60627750000003
  0
LINE
  8
_0-0_0
  6
CONTINUOUS
 62
    7
 10
122.92896299999995
 20
758.87864650000006
 11
122.92896299999995
 21
758.82142650000003
  0
LINE
  8
_0-0_0
  6
CONTINUOUS
 62
    7
 10
233.92895499999997
 20
768.64994750000005
 11
229.92895499999997
 21
768.64994750000005
  0
ARC
  8
_0-0_0
  6
CONTINUOUS
 62
    7
 10
229.92895499999997
 20
770.89994750000005
 40
2.25
 50
90.000003000000007
 51
269.99999700000006
  0
LINE
  8
_0-0_0
  6
CONTINUOUS
 62
    7
 10
229.92895499999997
 20
773.14994750000005
 11
233.92895499999997
 21
773.14994750000005
  0
ARC
  8
_0-0_0
  6
CONTINUOUS
 62
    7
 10
233.92895499999997
 20
770.89994750000005
 40
2.25
 50
269.99999700000001
 51
90.000002999999992
  0
ARC
  8
_0-0_0
  6
CONTINUOUS
 62
    7
 10
173.92895499999997
 20
770.89994750000005
 40
2.25
 50
90.000003000000007
 51
269.99999700000006
  0
LINE
  8
_0-0_0
  6
CONTINUOUS
 62
    7
 10
173.92895499999997
 20
773.14994750000005
 11
177.92895499999997
 21
773.14994750000005
  0
ARC
  8
_0-0_0
  6
CONTINUOUS
 62
    7
 10
177.92895499999997
 20
770.89994750000005
 40
2.25
 50
269.99999700000001
 51
90.000002999999992
  0
LINE
  8
_0-0_0
  6
CONTINUOUS
 62
    7
 10
177.92895499999997
 20
768.64994750000005
 11
173.92895499999997
 21
768.64994750000005
  0
LINE
  8
_0-0_0
  6
CONTINUOUS
 62
    7
 10
122.92896299999995
 20
775.6253815
 11
122.67896299999995
 21
775.64994750000005
  0
LINE
  8
_0-0_0
  6
CONTINUOUS
 62
    7
 10
122.92896299999995
 20
775.42143250000004
 11
122.67896299999995
 21
775.64994750000005
  0
LINE
  8
_0-0_0
  6
CONTINUOUS
 62
    7
 10
122.92896299999995
 20
775.81590249999999
 11
122.67896299999995
 21
775.86939949999999
  0
LINE
  8
_0-0_0
  6
CONTINUOUS
 62
    7
 10
122.92896299999995
 20
775.6253815
 11
122.67896299999995
 21
775.86939949999999
  0
LINE
  8
_0-0_0
  6
CONTINUOUS
 62
    7
 10
122.92896299999995
 20
775.99092050000002
 11
122.67896299999995
 21
776.07276950000005
  0
LINE
  8
_0-0_0
  6
CONTINUOUS
 62
    7
 10
122.92896299999995
 20
775.81590249999999
 11
122.67896299999995
 21
776.07276950000005
  0
LINE
  8
_0-0_0
  6
CONTINUOUS
 62
    7
 10
122.92896299999995
 20
776.14851350000004
 11
122.67896299999995
 21
776.25779750000004
  0
LINE
  8
_0-0_0
  6
CONTINUOUS
 62
    7
 10
122.92896299999995
 20
775.99092050000002
 11
122.67896299999995
 21
776.25779750000004
  0
LINE
  8
_0-0_0
  6
CONTINUOUS
 62
    7
 10
122.92896299999995
 20
776.28694150000001
 11
122.67896299999995
 21
776.42250049999996
  0
LINE
  8
_0-0_0
  6
CONTINUOUS
 62
    7
 10
122.92896299999995
 20
776.14851350000004
 11
122.67896299999995
 21
776.42250049999996
  0
LINE
  8
_0-0_0
  6
CONTINUOUS
 62
    7
 10
122.92896299999995
 20
776.40470849999997
 11
122.67896299999995
 21
776.56501749999995
  0
LINE
  8
_0-0_0
  6
CONTINUOUS
 62
    7
 10
122.92896299999995
 20
776.28694150000001
 11
122.67896299999995
 21
776.56501749999995
  0
LINE
  8
_0-0_0
  6
CONTINUOUS
 62
    7
 10
122.92896299999995
 20
776.50050350000004
 11
122.67896299999995
 21
776.68379149999998
  0
LINE
  8
_0-0_0
  6
CONTINUOUS
 62
    7
 10
122.92896299999995
 20
776.40470849999997
 11
122.67896299999995
 21
776.68379149999998
  0
LINE
  8
_0-0_0
  6
CONTINUOUS
 62
    7
 10
122.92896299999995
 20
776.57328749999999
 11
122.67896299999995
 21
776.77757250000002
  0
LINE
  8
_0-0_0
  6
CONTINUOUS
 62
    7
 10
122.92896299999995
 20
776.50050350000004
 11
122.67896299999995
 21
776.77757250000002
  0
LINE
  8
_0-0_0
  6
CONTINUOUS
 62
    7
 10
122.92896299999995
 20
776.62223849999998
 11
122.67896299999995
 21
776.84532149999995
  0
LINE
  8
_0-0_0
  6
CONTINUOUS
 62
    7
 10
122.92896299999995
 20
776.57328749999999
 11
122.67896299999995
 21
776.84532149999995
  0
LINE
  8
_0-0_0
  6
CONTINUOUS
 62
    7
 10
122.92896299999995
 20
776.64686549999999
 11
122.67896299999995
 21
776.88624549999997
  0
LINE
  8
_0-0_0
  6
CONTINUOUS
 62
    7
 10
122.92896299999995
 20
776.62223849999998
 11
122.67896299999995
 21
776.88624549999997
  0
LINE
  8
_0-0_0
  6
CONTINUOUS
 62
    7
 10
122.92896299999995
 20
776.64686549999999
 11
122.67896299999995
 21
776.89994750000005
  0
LINE
  8
_0-0_0
  6
CONTINUOUS
 62
    7
 10
122.92896299999995
 20
772.1530305
 11
122.67896299999995
 21
771.89994750000005
  0
LINE
  8
_0-0_0
  6
CONTINUOUS
 62
    7
 10
122.92896299999995
 20
772.17765750000001
 11
122.67896299999995
 21
771.91365050000002
  0
LINE
  8
_0-0_0
  6
CONTINUOUS
 62
    7
 10
122.92896299999995
 20
772.1530305
 11
122.67896299999995
 21
771.91365050000002
  0
LINE
  8
_0-0_0
  6
CONTINUOUS
 62
    7
 10
122.92896299999995
 20
772.2266085
 11
122.67896299999995
 21
771.95457450000004
  0
LINE
  8
_0-0_0
  6
CONTINUOUS
 62
    7
 10
122.92896299999995
 20
772.17765750000001
 11
122.67896299999995
 21
771.95457450000004
  0
LINE
  8
_0-0_0
  6
CONTINUOUS
 62
    7
 10
122.92896299999995
 20
772.29939249999995
 11
122.67896299999995
 21
772.02229250000005
  0
LINE
  8
_0-0_0
  6
CONTINUOUS
 62
    7
 10
122.92896299999995
 20
772.2266085
 11
122.67896299999995
 21
772.02229250000005
  0
LINE
  8
_0-0_0
  6
CONTINUOUS
 62
    7
 10
122.92896299999995
 20
772.39518750000002
 11
122.67896299999995
 21
772.11607349999997
  0
LINE
  8
_0-0_0
  6
CONTINUOUS
 62
    7
 10
122.92896299999995
 20
772.29939249999995
 11
122.67896299999995
 21
772.11607349999997
  0
LINE
  8
_0-0_0
  6
CONTINUOUS
 62
    7
 10
122.92896299999995
 20
772.39518750000002
 11
122.79899599999999
 21
772.31132449999996
  0
LINE
  8
_0-0_0
  6
CONTINUOUS
 62
    7
 10
122.92896299999995
 20
772.51292450000005
 11
122.67896299999995
 21
772.23487850000004
  0
LINE
  8
_0-0_0
  6
CONTINUOUS
 62
    7
 10
122.79899599999999
 20
772.31132449999996
 11
122.67896299999995
 21
772.23487850000004
  0
LINE
  8
_0-0_0
  6
CONTINUOUS
 62
    7
 10
122.92896299999995
 20
772.65135150000003
 11
122.67896299999995
 21
772.37739550000003
  0
LINE
  8
_0-0_0
  6
CONTINUOUS
 62
    7
 10
122.92896299999995
 20
772.51292450000005
 11
122.67896299999995
 21
772.37739550000003
  0
LINE
  8
_0-0_0
  6
CONTINUOUS
 62
    7
 10
122.92896299999995
 20
772.80894450000005
 11
122.67896299999995
 21
772.54206850000003
  0
LINE
  8
_0-0_0
  6
CONTINUOUS
 62
    7
 10
122.92896299999995
 20
772.65135150000003
 11
122.67896299999995
 21
772.54206850000003
  0
LINE
  8
_0-0_0
  6
CONTINUOUS
 62
    7
 10
122.92896299999995
 20
772.98396249999996
 11
122.67896299999995
 21
772.72712650000005
  0
LINE
  8
_0-0_0
  6
CONTINUOUS
 62
    7
 10
122.92896299999995
 20
772.80894450000005
 11
122.67896299999995
 21
772.72712650000005
  0
LINE
  8
_0-0_0
  6
CONTINUOUS
 62
    7
 10
122.92896299999995
 20
773.17451449999999
 11
122.67896299999995
 21
772.9304965
  0
LINE
  8
_0-0_0
  6
CONTINUOUS
 62
    7
 10
122.92896299999995
 20
772.98396249999996
 11
122.67896299999995
 21
772.9304965
  0
LINE
  8
_0-0_0
  6
CONTINUOUS
 62
    7
 10
122.92896299999995
 20
773.37846349999995
 11
122.67896299999995
 21
773.14994750000005
  0
LINE
  8
_0-0_0
  6
CONTINUOUS
 62
    7
 10
122.92896299999995
 20
773.17451449999999
 11
122.67896299999995
 21
773.14994750000005
  0
LINE
  8
_0-0_0
  6
CONTINUOUS
 62
    7
 10
122.92896299999995
 20
773.59361249999995
 11
122.67896299999995
 21
773.38310249999995
  0
LINE
  8
_0-0_0
  6
CONTINUOUS
 62
    7
 10
122.92896299999995
 20
773.37846349999995
 11
122.67896299999995
 21
773.38310249999995
  0
LINE
  8
_0-0_0
  6
CONTINUOUS
 62
    7
 10
122.92896299999995
 20
773.8176115
 11
122.67896299999995
 21
773.62739550000003
  0
LINE
  8
_0-0_0
  6
CONTINUOUS
 62
    7
 10
122.92896299999995
 20
773.59361249999995
 11
122.67896299999995
 21
773.62739550000003
  0
LINE
  8
_0-0_0
  6
CONTINUOUS
 62
    7
 10
122.92896299999995
 20
774.04795850000005
 11
122.67896299999995
 21
773.88017249999996
  0
LINE
  8
_0-0_0
  6
CONTINUOUS
 62
    7
 10
122.92896299999995
 20
773.8176115
 11
122.67896299999995
 21
773.88017249999996
  0
LINE
  8
_0-0_0
  6
CONTINUOUS
 62
    7
 10
122.92896299999995
 20
774.28218049999998
 11
122.67896299999995
 21
774.13862549999999
  0
LINE
  8
_0-0_0
  6
CONTINUOUS
 62
    7
 10
122.92896299999995
 20
774.04795850000005
 11
122.67896299999995
 21
774.13862549999999
  0
LINE
  8
_0-0_0
  6
CONTINUOUS
 62
    7
 10
122.92896299999995
 20
774.51771550000001
 11
122.67896299999995
 21
774.39994750000005
  0
LINE
  8
_0-0_0
  6
CONTINUOUS
 62
    7
 10
122.92896299999995
 20
774.28218049999998
 11
122.67896299999995
 21
774.39994750000005
  0
LINE
  8
_0-0_0
  6
CONTINUOUS
 62
    7
 10
122.92896299999995
 20
774.75190750000002
 11
122.67896299999995
 21
774.6612705
  0
LINE
  8
_0-0_0
  6
CONTINUOUS
 62
    7
 10
122.92896299999995
 20
774.51771550000001
 11
122.67896299999995
 21
774.6612705
  0
LINE
  8
_0-0_0
  6
CONTINUOUS
 62
    7
 10
122.92896299999995
 20
774.98228449999999
 11
122.67896299999995
 21
774.91972350000003
  0
LINE
  8
_0-0_0
  6
CONTINUOUS
 62
    7
 10
122.92896299999995
 20
774.75190750000002
 11
122.67896299999995
 21
774.91972350000003
  0
LINE
  8
_0-0_0
  6
CONTINUOUS
 62
    7
 10
122.92896299999995
 20
775.20628350000004
 11
122.67896299999995
 21
775.17250049999996
  0
LINE
  8
_0-0_0
  6
CONTINUOUS
 62
    7
 10
122.92896299999995
 20
774.98228449999999
 11
122.67896299999995
 21
775.17250049999996
  0
LINE
  8
_0-0_0
  6
CONTINUOUS
 62
    7
 10
122.92896299999995
 20
775.42143250000004
 11
122.67896299999995
 21
775.41679350000004
  0
LINE
  8
_0-0_0
  6
CONTINUOUS
 62
    7
 10
122.92896299999995
 20
775.20628350000004
 11
122.67896299999995
 21
775.41679350000004
  0
LINE
  8
_0-0_0
  6
CONTINUOUS
 62
    7
 10
137.92896299999995
 20
769.9922335
 11
128.221138
 21
769.9922335
  0
LINE
  8
_0-0_0
  6
CONTINUOUS
 62
    7
 10
128.221138
 20
769.9922335
 11
128.16665699999999
 21
770.06217949999996
  0
LINE
  8
_0-0_0
  6
CONTINUOUS
 62
    7
 10
128.16665699999999
 20
770.06217949999996
 11
128.11555499999997
 21
770.13099650000004
  0
LINE
  8
_0-0_0
  6
CONTINUOUS
 62
    7
 10
128.11555499999997
 20
770.13099650000004
 11
128.06791699999997
 21
770.19850150000002
  0
LINE
  8
_0-0_0
  6
CONTINUOUS
 62
    7
 10
128.06791699999997
 20
770.19850150000002
 11
128.023415
 21
770.2650605
  0
LINE
  8
_0-0_0
  6
CONTINUOUS
 62
    7
 10
128.023415
 20
770.2650605
 11
127.96868900000004
 21
770.35261549999996
  0
LINE
  8
_0-0_0
  6
CONTINUOUS
 62
    7
 10
127.96868900000004
 20
770.35261549999996
 11
127.91918899999996
 21
770.43870549999997
  0
LINE
  8
_0-0_0
  6
CONTINUOUS
 62
    7
 10
127.91918899999996
 20
770.43870549999997
 11
127.87471800000003
 21
770.52354449999996
  0
LINE
  8
_0-0_0
  6
CONTINUOUS
 62
    7
 10
127.87471800000003
 20
770.52354449999996
 11
127.82775100000003
 21
770.62385549999999
  0
LINE
  8
_0-0_0
  6
CONTINUOUS
 62
    7
 10
127.82775100000003
 20
770.62385549999999
 11
127.78754400000003
 21
770.72279349999997
  0
LINE
  8
_0-0_0
  6
CONTINUOUS
 62
    7
 10
127.78754400000003
 20
770.72279349999997
 11
127.75387599999999
 21
770.82054149999999
  0
LINE
  8
_0-0_0
  6
CONTINUOUS
 62
    7
 10
127.75387599999999
 20
770.82054149999999
 11
127.72659299999998
 21
770.91734350000002
  0
LINE
  8
_0-0_0
  6
CONTINUOUS
 62
    7
 10
127.72659299999998
 20
770.91734350000002
 11
127.70554400000003
 21
771.01338150000004
  0
LINE
  8
_0-0_0
  6
CONTINUOUS
 62
    7
 10
127.70554400000003
 20
771.01338150000004
 11
127.68961300000001
 21
771.11726350000004
  0
LINE
  8
_0-0_0
  6
CONTINUOUS
 62
    7
 10
127.68961300000001
 20
771.11726350000004
 11
127.68085499999995
 21
771.22068750000005
  0
LINE
  8
_0-0_0
  6
CONTINUOUS
 62
    7
 10
127.68085499999995
 20
771.22068750000005
 11
127.67922199999998
 21
771.32392849999997
  0
LINE
  8
_0-0_0
  6
CONTINUOUS
 62
    7
 10
127.67922199999998
 20
771.32392849999997
 11
127.68469200000004
 21
771.42720050000003
  0
LINE
  8
_0-0_0
  6
CONTINUOUS
 62
    7
 10
127.68469200000004
 20
771.42720050000003
 11
127.69729599999994
 21
771.53080750000004
  0
LINE
  8
_0-0_0
  6
CONTINUOUS
 62
    7
 10
127.69729599999994
 20
771.53080750000004
 11
127.71711700000003
 21
771.63493349999999
  0
LINE
  8
_0-0_0
  6
CONTINUOUS
 62
    7
 10
127.71711700000003
 20
771.63493349999999
 11
127.74426300000005
 21
771.73991350000006
  0
LINE
  8
_0-0_0
  6
CONTINUOUS
 62
    7
 10
127.74426300000005
 20
771.73991350000006
 11
127.778908
 21
771.84593150000001
  0
LINE
  8
_0-0_0
  6
CONTINUOUS
 62
    7
 10
127.778908
 20
771.84593150000001
 11
127.82125099999996
 21
771.95332350000001
  0
LINE
  8
_0-0_0
  6
CONTINUOUS
 62
    7
 10
127.82125099999996
 20
771.95332350000001
 11
127.87156700000003
 21
772.06233250000002
  0
LINE
  8
_0-0_0
  6
CONTINUOUS
 62
    7
 10
127.87156700000003
 20
772.06233250000002
 11
127.91726700000004
 21
772.14997849999997
  0
LINE
  8
_0-0_0
  6
CONTINUOUS
 62
    7
 10
137.92896299999995
 20
768.70762649999995
 11
128.221138
 21
768.70762649999995
  0
LINE
  8
_0-0_0
  6
CONTINUOUS
 62
    7
 10
128.221138
 20
768.70762649999995
 11
128.126801
 21
768.46101350000004
  0
LINE
  8
_0-0_0
  6
CONTINUOUS
 62
    7
 10
128.126801
 20
768.46101350000004
 11
128.04285400000003
 21
768.22105350000004
  0
LINE
  8
_0-0_0
  6
CONTINUOUS
 62
    7
 10
128.04285400000003
 20
768.22105350000004
 11
127.96868900000004
 21
767.98692349999999
  0
LINE
  8
_0-0_0
  6
CONTINUOUS
 62
    7
 10
127.96868900000004
 20
767.98692349999999
 11
127.90381600000001
 21
767.75788850000004
  0
LINE
  8
_0-0_0
  6
CONTINUOUS
 62
    7
 10
127.90381600000001
 20
767.75788850000004
 11
127.84777799999995
 21
767.53321849999998
  0
LINE
  8
_0-0_0
  6
CONTINUOUS
 62
    7
 10
127.84777799999995
 20
767.53321849999998
 11
127.800209
 21
767.31224050000003
  0
LINE
  8
_0-0_0
  6
CONTINUOUS
 62
    7
 10
127.800209
 20
767.31224050000003
 11
127.76080300000001
 21
767.0943145
  0
LINE
  8
_0-0_0
  6
CONTINUOUS
 62
    7
 10
127.76080300000001
 20
767.0943145
 11
127.72930899999994
 21
766.87886049999997
  0
LINE
  8
_0-0_0
  6
CONTINUOUS
 62
    7
 10
127.72930899999994
 20
766.87886049999997
 11
127.70554400000003
 21
766.66532849999999
  0
LINE
  8
_0-0_0
  6
CONTINUOUS
 62
    7
 10
127.70554400000003
 20
766.66532849999999
 11
127.68961300000001
 21
766.45762649999995
  0
LINE
  8
_0-0_0
  6
CONTINUOUS
 62
    7
 10
127.68961300000001
 20
766.45762649999995
 11
127.68085499999995
 21
766.25077850000002
  0
LINE
  8
_0-0_0
  6
CONTINUOUS
 62
    7
 10
127.68085499999995
 20
766.25077850000002
 11
127.67922199999998
 21
766.04429649999997
  0
LINE
  8
_0-0_0
  6
CONTINUOUS
 62
    7
 10
127.67922199999998
 20
766.04429649999997
 11
127.68469200000004
 21
765.83772250000004
  0
LINE
  8
_0-0_0
  6
CONTINUOUS
 62
    7
 10
127.68469200000004
 20
765.83772250000004
 11
127.69729599999994
 21
765.63053850000006
  0
LINE
  8
_0-0_0
  6
CONTINUOUS
 62
    7
 10
127.69729599999994
 20
765.63053850000006
 11
127.71711700000003
 21
765.4222565
  0
LINE
  8
_0-0_0
  6
CONTINUOUS
 62
    7
 10
127.71711700000003
 20
765.4222565
 11
127.74426300000005
 21
765.21232550000002
  0
LINE
  8
_0-0_0
  6
CONTINUOUS
 62
    7
 10
127.74426300000005
 20
765.21232550000002
 11
127.778908
 21
765.00025949999997
  0
LINE
  8
_0-0_0
  6
CONTINUOUS
 62
    7
 10
127.778908
 20
765.00025949999997
 11
127.82125099999996
 21
764.78550749999999
  0
LINE
  8
_0-0_0
  6
CONTINUOUS
 62
    7
 10
127.82125099999996
 20
764.78550749999999
 11
127.87156700000003
 21
764.56748949999997
  0
LINE
  8
_0-0_0
  6
CONTINUOUS
 62
    7
 10
127.87156700000003
 20
764.56748949999997
 11
127.92581899999993
 21
764.36122150000006
  0
LINE
  8
_0-0_0
  6
CONTINUOUS
 62
    7
 10
127.92581899999993
 20
764.36122150000006
 11
127.987526
 21
764.15110749999997
  0
LINE
  8
_0-0_0
  6
CONTINUOUS
 62
    7
 10
127.987526
 20
764.15110749999997
 11
128.05704500000002
 21
763.93663049999998
  0
LINE
  8
_0-0_0
  6
CONTINUOUS
 62
    7
 10
128.05704500000002
 20
763.93663049999998
 11
128.13475800000003
 21
763.71723950000001
  0
LINE
  8
_0-0_0
  6
CONTINUOUS
 62
    7
 10
128.13475800000003
 20
763.71723950000001
 11
128.221138
 21
763.4922335
  0
LINE
  8
_0-0_0
  6
CONTINUOUS
 62
    7
 10
137.92896299999995
 20
763.4922335
 11
128.221138
 21
763.4922335
  0
ARC
  8
_0-0_0
  6
CONTINUOUS
 62
    7
 10
133.09268999999995
 20
769.34992950000003
 40
4.9136889999999998
 50
172.48898299999999
 51
187.51101699999998
  0
LINE
  8
_0-0_0
  6
CONTINUOUS
 62
    7
 10
137.92896299999995
 20
762.20762649999995
 11
128.221138
 21
762.20762649999995
  0
LINE
  8
_0-0_0
  6
CONTINUOUS
 62
    7
 10
128.221138
 20
759.59992950000003
 11
128.16665699999999
 21
759.66987549999999
  0
LINE
  8
_0-0_0
  6
CONTINUOUS
 62
    7
 10
128.16665699999999
 20
759.66987549999999
 11
128.11555499999997
 21
759.73869349999995
  0
LINE
  8
_0-0_0
  6
CONTINUOUS
 62
    7
 10
128.11555499999997
 20
759.73869349999995
 11
128.06791699999997
 21
759.80619750000005
  0
LINE
  8
_0-0_0
  6
CONTINUOUS
 62
    7
 10
128.06791699999997
 20
759.80619750000005
 11
128.023415
 21
759.87275650000004
  0
LINE
  8
_0-0_0
  6
CONTINUOUS
 62
    7
 10
128.023415
 20
759.87275650000004
 11
127.96868900000004
 21
759.96031149999999
  0
LINE
  8
_0-0_0
  6
CONTINUOUS
 62
    7
 10
127.96868900000004
 20
759.96031149999999
 11
127.91918899999996
 21
760.0464015
  0
LINE
  8
_0-0_0
  6
CONTINUOUS
 62
    7
 10
127.91918899999996
 20
760.0464015
 11
127.87471800000003
 21
760.13124049999999
  0
LINE
  8
_0-0_0
  6
CONTINUOUS
 62
    7
 10
127.87471800000003
 20
760.13124049999999
 11
127.82775100000003
 21
760.23155150000002
  0
LINE
  8
_0-0_0
  6
CONTINUOUS
 62
    7
 10
127.82775100000003
 20
760.23155150000002
 11
127.78754400000003
 21
760.3304895
  0
LINE
  8
_0-0_0
  6
CONTINUOUS
 62
    7
 10
127.78754400000003
 20
760.3304895
 11
127.75387599999999
 21
760.42823750000002
  0
LINE
  8
_0-0_0
  6
CONTINUOUS
 62
    7
 10
127.75387599999999
 20
760.42823750000002
 11
127.72659299999998
 21
760.52503950000005
  0
LINE
  8
_0-0_0
  6
CONTINUOUS
 62
    7
 10
127.72659299999998
 20
760.52503950000005
 11
127.70554400000003
 21
760.62107849999995
  0
LINE
  8
_0-0_0
  6
CONTINUOUS
 62
    7
 10
127.70554400000003
 20
760.62107849999995
 11
127.68961300000001
 21
760.72496049999995
  0
LINE
  8
_0-0_0
  6
CONTINUOUS
 62
    7
 10
127.68961300000001
 20
760.72496049999995
 11
127.68085499999995
 21
760.82838449999997
  0
LINE
  8
_0-0_0
  6
CONTINUOUS
 62
    7
 10
127.68085499999995
 20
760.82838449999997
 11
127.67922199999998
 21
760.93159449999996
  0
LINE
  8
_0-0_0
  6
CONTINUOUS
 62
    7
 10
127.67922199999998
 20
760.93159449999996
 11
127.68469200000004
 21
761.03489650000006
  0
LINE
  8
_0-0_0
  6
CONTINUOUS
 62
    7
 10
127.68469200000004
 20
761.03489650000006
 11
127.69729599999994
 21
761.13850349999996
  0
LINE
  8
_0-0_0
  6
CONTINUOUS
 62
    7
 10
127.69729599999994
 20
761.13850349999996
 11
127.71711700000003
 21
761.24262950000002
  0
LINE
  8
_0-0_0
  6
CONTINUOUS
 62
    7
 10
127.71711700000003
 20
761.24262950000002
 11
127.74426300000005
 21
761.34761049999997
  0
LINE
  8
_0-0_0
  6
CONTINUOUS
 62
    7
 10
127.74426300000005
 20
761.34761049999997
 11
127.778908
 21
761.45362850000004
  0
LINE
  8
_0-0_0
  6
CONTINUOUS
 62
    7
 10
127.778908
 20
761.45362850000004
 11
127.82125099999996
 21
761.56101950000004
  0
LINE
  8
_0-0_0
  6
CONTINUOUS
 62
    7
 10
127.82125099999996
 20
761.56101950000004
 11
127.87156700000003
 21
761.66999850000002
  0
LINE
  8
_0-0_0
  6
CONTINUOUS
 62
    7
 10
127.87156700000003
 20
761.66999850000002
 11
127.92581899999993
 21
761.77314750000005
  0
LINE
  8
_0-0_0
  6
CONTINUOUS
 62
    7
 10
127.92581899999993
 20
761.77314750000005
 11
127.987526
 21
761.8782195
  0
LINE
  8
_0-0_0
  6
CONTINUOUS
 62
    7
 10
127.987526
 20
761.8782195
 11
128.05704500000002
 21
761.98542750000001
  0
LINE
  8
_0-0_0
  6
CONTINUOUS
 62
    7
 10
128.05704500000002
 20
761.98542750000001
 11
128.13475800000003
 21
762.09513849999996
  0
LINE
  8
_0-0_0
  6
CONTINUOUS
 62
    7
 10
128.13475800000003
 20
762.09513849999996
 11
128.221138
 21
762.20762649999995
  0
LINE
  8
_0-0_0
  6
CONTINUOUS
 62
    7
 10
137.92896299999995
 20
759.59992950000003
 11
128.221138
 21
759.59992950000003
  0
ARC
  8
_0-0_0
  6
CONTINUOUS
 62
    7
 10
133.10285199999998
 20
762.84904449999999
 40
4.9238749999999998
 50
172.49424200000001
 51
181.535968
  0
ARC
  8
_0-0_0
  6
CONTINUOUS
 62
    7
 10
133.14087700000005
 20
762.85401950000005
 40
4.9620009999999999
 50
181.58130700000004
 51
187.48478900000003
  0
LINE
  8
_0-0_0
  6
CONTINUOUS
 62
    7
 10
128.17896299999995
 20
759.59992950000003
 11
128.221138
 21
759.59992950000003
  0
LINE
  8
_0-0_0
  6
CONTINUOUS
 62
    7
 10
122.92896299999995
 20
759.0253755
 11
122.67896299999995
 21
759.04994150000005
  0
LINE
  8
_0-0_0
  6
CONTINUOUS
 62
    7
 10
122.92896299999995
 20
758.82142650000003
 11
122.67896299999995
 21
759.04994150000005
  0
LINE
  8
_0-0_0
  6
CONTINUOUS
 62
    7
 10
122.92896299999995
 20
759.21592650000002
 11
122.67896299999995
 21
759.26939349999998
  0
LINE
  8
_0-0_0
  6
CONTINUOUS
 62
    7
 10
122.92896299999995
 20
759.0253755
 11
122.67896299999995
 21
759.26939349999998
  0
LINE
  8
_0-0_0
  6
CONTINUOUS
 62
    7
 10
122.92896299999995
 20
759.39094550000004
 11
122.67896299999995
 21
759.47276250000004
  0
LINE
  8
_0-0_0
  6
CONTINUOUS
 62
    7
 10
122.92896299999995
 20
759.21592650000002
 11
122.67896299999995
 21
759.47276250000004
  0
LINE
  8
_0-0_0
  6
CONTINUOUS
 62
    7
 10
122.92896299999995
 20
759.54850750000003
 11
122.67896299999995
 21
759.65779150000003
  0
LINE
  8
_0-0_0
  6
CONTINUOUS
 62
    7
 10
122.92896299999995
 20
759.39094550000004
 11
122.67896299999995
 21
759.65779150000003
  0
LINE
  8
_0-0_0
  6
CONTINUOUS
 62
    7
 10
122.92896299999995
 20
759.68696550000004
 11
122.67896299999995
 21
759.82249449999995
  0
LINE
  8
_0-0_0
  6
CONTINUOUS
 62
    7
 10
122.92896299999995
 20
759.54850750000003
 11
122.67896299999995
 21
759.82249449999995
  0
LINE
  8
_0-0_0
  6
CONTINUOUS
 62
    7
 10
122.92896299999995
 20
759.80470249999996
 11
122.67896299999995
 21
759.96501150000006
  0
LINE
  8
_0-0_0
  6
CONTINUOUS
 62
    7
 10
122.92896299999995
 20
759.68696550000004
 11
122.67896299999995
 21
759.96501150000006
  0
LINE
  8
_0-0_0
  6
CONTINUOUS
 62
    7
 10
122.92896299999995
 20
759.90049750000003
 11
122.67896299999995
 21
760.08381650000001
  0
LINE
  8
_0-0_0
  6
CONTINUOUS
 62
    7
 10
122.92896299999995
 20
759.80470249999996
 11
122.67896299999995
 21
760.08381650000001
  0
LINE
  8
_0-0_0
  6
CONTINUOUS
 62
    7
 10
122.92896299999995
 20
759.97328149999998
 11
122.67896299999995
 21
760.17759650000005
  0
LINE
  8
_0-0_0
  6
CONTINUOUS
 62
    7
 10
122.92896299999995
 20
759.90049750000003
 11
122.67896299999995
 21
760.17759650000005
  0
LINE
  8
_0-0_0
  6
CONTINUOUS
 62
    7
 10
122.92896299999995
 20
760.02223149999998
 11
122.67896299999995
 21
760.24531549999995
  0
LINE
  8
_0-0_0
  6
CONTINUOUS
 62
    7
 10
122.92896299999995
 20
759.97328149999998
 11
122.67896299999995
 21
760.24531549999995
  0
LINE
  8
_0-0_0
  6
CONTINUOUS
 62
    7
 10
122.92896299999995
 20
760.04685949999998
 11
122.67896299999995
 21
760.28623949999997
  0
LINE
  8
_0-0_0
  6
CONTINUOUS
 62
    7
 10
122.92896299999995
 20
760.02223149999998
 11
122.67896299999995
 21
760.28623949999997
  0
LINE
  8
_0-0_0
  6
CONTINUOUS
 62
    7
 10
122.92896299999995
 20
760.04685949999998
 11
122.67896299999995
 21
760.29994150000005
  0
LINE
  8
_0-0_0
  6
CONTINUOUS
 62
    7
 10
122.92896299999995
 20
755.55302449999999
 11
122.67896299999995
 21
755.29994150000005
  0
LINE
  8
_0-0_0
  6
CONTINUOUS
 62
    7
 10
122.92896299999995
 20
755.5776515
 11
122.67896299999995
 21
755.31364450000001
  0
LINE
  8
_0-0_0
  6
CONTINUOUS
 62
    7
 10
122.92896299999995
 20
755.55302449999999
 11
122.67896299999995
 21
755.31364450000001
  0
LINE
  8
_0-0_0
  6
CONTINUOUS
 62
    7
 10
122.92896299999995
 20
755.62660249999999
 11
122.67896299999995
 21
755.35456850000003
  0
LINE
  8
_0-0_0
  6
CONTINUOUS
 62
    7
 10
122.92896299999995
 20
755.5776515
 11
122.67896299999995
 21
755.35456850000003
  0
LINE
  8
_0-0_0
  6
CONTINUOUS
 62
    7
 10
122.92896299999995
 20
755.69938650000006
 11
122.67896299999995
 21
755.42228650000004
  0
LINE
  8
_0-0_0
  6
CONTINUOUS
 62
    7
 10
122.92896299999995
 20
755.62660249999999
 11
122.67896299999995
 21
755.42228650000004
  0
LINE
  8
_0-0_0
  6
CONTINUOUS
 62
    7
 10
122.92896299999995
 20
755.79518150000001
 11
122.67896299999995
 21
755.51606749999996
  0
LINE
  8
_0-0_0
  6
CONTINUOUS
 62
    7
 10
122.92896299999995
 20
755.69938650000006
 11
122.67896299999995
 21
755.51606749999996
  0
LINE
  8
_0-0_0
  6
CONTINUOUS
 62
    7
 10
122.92896299999995
 20
755.79518150000001
 11
122.79899599999999
 21
755.71131849999995
  0
LINE
  8
_0-0_0
  6
CONTINUOUS
 62
    7
 10
122.92896299999995
 20
755.91291750000005
 11
122.67896299999995
 21
755.63487250000003
  0
LINE
  8
_0-0_0
  6
CONTINUOUS
 62
    7
 10
122.79899599999999
 20
755.71131849999995
 11
122.67896299999995
 21
755.63487250000003
  0
LINE
  8
_0-0_0
  6
CONTINUOUS
 62
    7
 10
122.92896299999995
 20
756.05137649999995
 11
122.67896299999995
 21
755.77738950000003
  0
LINE
  8
_0-0_0
  6
CONTINUOUS
 62
    7
 10
122.92896299999995
 20
755.91291750000005
 11
122.67896299999995
 21
755.77738950000003
  0
LINE
  8
_0-0_0
  6
CONTINUOUS
 62
    7
 10
122.92896299999995
 20
756.20896849999997
 11
122.67896299999995
 21
755.94209250000006
  0
LINE
  8
_0-0_0
  6
CONTINUOUS
 62
    7
 10
122.92896299999995
 20
756.05137649999995
 11
122.67896299999995
 21
755.94209250000006
  0
LINE
  8
_0-0_0
  6
CONTINUOUS
 62
    7
 10
122.92896299999995
 20
756.38398749999999
 11
122.67896299999995
 21
756.12712050000005
  0
LINE
  8
_0-0_0
  6
CONTINUOUS
 62
    7
 10
122.92896299999995
 20
756.20896849999997
 11
122.67896299999995
 21
756.12712050000005
  0
LINE
  8
_0-0_0
  6
CONTINUOUS
 62
    7
 10
122.92896299999995
 20
756.57450849999998
 11
122.67896299999995
 21
756.3304895
  0
LINE
  8
_0-0_0
  6
CONTINUOUS
 62
    7
 10
122.92896299999995
 20
756.38398749999999
 11
122.67896299999995
 21
756.3304895
  0
LINE
  8
_0-0_0
  6
CONTINUOUS
 62
    7
 10
122.92896299999995
 20
756.77845750000006
 11
122.67896299999995
 21
756.54994150000005
  0
LINE
  8
_0-0_0
  6
CONTINUOUS
 62
    7
 10
122.92896299999995
 20
756.57450849999998
 11
122.67896299999995
 21
756.54994150000005
  0
LINE
  8
_0-0_0
  6
CONTINUOUS
 62
    7
 10
122.92896299999995
 20
756.99360650000006
 11
122.67896299999995
 21
756.78309650000006
  0
LINE
  8
_0-0_0
  6
CONTINUOUS
 62
    7
 10
122.92896299999995
 20
756.77845750000006
 11
122.67896299999995
 21
756.78309650000006
  0
LINE
  8
_0-0_0
  6
CONTINUOUS
 62
    7
 10
122.92896299999995
 20
757.21760549999999
 11
122.67896299999995
 21
757.02738950000003
  0
LINE
  8
_0-0_0
  6
CONTINUOUS
 62
    7
 10
122.92896299999995
 20
756.99360650000006
 11
122.67896299999995
 21
757.02738950000003
  0
LINE
  8
_0-0_0
  6
CONTINUOUS
 62
    7
 10
122.92896299999995
 20
757.44795250000004
 11
122.67896299999995
 21
757.28016649999995
  0
LINE
  8
_0-0_0
  6
CONTINUOUS
 62
    7
 10
122.92896299999995
 20
757.21760549999999
 11
122.67896299999995
 21
757.28016649999995
  0
LINE
  8
_0-0_0
  6
CONTINUOUS
 62
    7
 10
122.92896299999995
 20
757.68217449999997
 11
122.67896299999995
 21
757.53861949999998
  0
LINE
  8
_0-0_0
  6
CONTINUOUS
 62
    7
 10
122.92896299999995
 20
757.44795250000004
 11
122.67896299999995
 21
757.53861949999998
  0
LINE
  8
_0-0_0
  6
CONTINUOUS
 62
    7
 10
122.92896299999995
 20
757.9177095
 11
122.67896299999995
 21
757.79994150000005
  0
LINE
  8
_0-0_0
  6
CONTINUOUS
 62
    7
 10
122.92896299999995
 20
757.68217449999997
 11
122.67896299999995
 21
757.79994150000005
  0
LINE
  8
_0-0_0
  6
CONTINUOUS
 62
    7
 10
122.92896299999995
 20
758.15193150000005
 11
122.67896299999995
 21
758.0612635
  0
LINE
  8
_0-0_0
  6
CONTINUOUS
 62
    7
 10
122.92896299999995
 20
757.9177095
 11
122.67896299999995
 21
758.0612635
  0
LINE
  8
_0-0_0
  6
CONTINUOUS
 62
    7
 10
122.92896299999995
 20
758.38227849999998
 11
122.67896299999995
 21
758.31971750000002
  0
LINE
  8
_0-0_0
  6
CONTINUOUS
 62
    7
 10
122.92896299999995
 20
758.15193150000005
 11
122.67896299999995
 21
758.31971750000002
  0
LINE
  8
_0-0_0
  6
CONTINUOUS
 62
    7
 10
122.92896299999995
 20
758.60627750000003
 11
122.67896299999995
 21
758.57249449999995
  0
LINE
  8
_0-0_0
  6
CONTINUOUS
 62
    7
 10
122.92896299999995
 20
758.38227849999998
 11
122.67896299999995
 21
758.57249449999995
  0
LINE
  8
_0-0_0
  6
CONTINUOUS
 62
    7
 10
122.92896299999995
 20
758.82142650000003
 11
122.67896299999995
 21
758.81678750000003
  0
LINE
  8
_0-0_0
  6
CONTINUOUS
 62
    7
 10
122.92896299999995
 20
758.60627750000003
 11
122.67896299999995
 21
758.81678750000003
  0
LINE
  8
_0-0_0
  6
CONTINUOUS
 62
    7
 10
113.17896299999995
 20
775.6253815
 11
113.42896299999995
 21
775.64994750000005
  0
LINE
  8
_0-0_0
  6
CONTINUOUS
 62
    7
 10
113.42896299999995
 20
775.64994750000005
 11
122.67896299999995
 21
775.64994750000005
  0
LINE
  8
_0-0_0
  6
CONTINUOUS
 62
    7
 10
113.17896299999995
 20
775.42143250000004
 11
113.42896299999995
 21
775.64994750000005
  0
LINE
  8
_0-0_0
  6
CONTINUOUS
 62
    7
 10
113.17896299999995
 20
775.42143250000004
 11
122.92896299999995
 21
775.42143250000004
  0
LINE
  8
_0-0_0
  6
CONTINUOUS
 62
    7
 10
113.17896299999995
 20
775.81590249999999
 11
113.42896299999995
 21
775.86939949999999
  0
LINE
  8
_0-0_0
  6
CONTINUOUS
 62
    7
 10
113.42896299999995
 20
775.86939949999999
 11
122.67896299999995
 21
775.86939949999999
  0
LINE
  8
_0-0_0
  6
CONTINUOUS
 62
    7
 10
113.17896299999995
 20
775.6253815
 11
113.42896299999995
 21
775.86939949999999
  0
LINE
  8
_0-0_0
  6
CONTINUOUS
 62
    7
 10
113.17896299999995
 20
775.99092050000002
 11
113.42896299999995
 21
776.07276950000005
  0
LINE
  8
_0-0_0
  6
CONTINUOUS
 62
    7
 10
113.42896299999995
 20
776.07276950000005
 11
122.67896299999995
 21
776.07276950000005
  0
LINE
  8
_0-0_0
  6
CONTINUOUS
 62
    7
 10
113.17896299999995
 20
775.81590249999999
 11
113.42896299999995
 21
776.07276950000005
  0
LINE
  8
_0-0_0
  6
CONTINUOUS
 62
    7
 10
113.17896299999995
 20
776.14851350000004
 11
113.42896299999995
 21
776.25779750000004
  0
LINE
  8
_0-0_0
  6
CONTINUOUS
 62
    7
 10
113.42896299999995
 20
776.25779750000004
 11
122.67896299999995
 21
776.25779750000004
  0
LINE
  8
_0-0_0
  6
CONTINUOUS
 62
    7
 10
113.17896299999995
 20
775.99092050000002
 11
113.42896299999995
 21
776.25779750000004
  0
LINE
  8
_0-0_0
  6
CONTINUOUS
 62
    7
 10
113.17896299999995
 20
776.28694150000001
 11
113.42896299999995
 21
776.42250049999996
  0
LINE
  8
_0-0_0
  6
CONTINUOUS
 62
    7
 10
113.42896299999995
 20
776.42250049999996
 11
122.67896299999995
 21
776.42250049999996
  0
LINE
  8
_0-0_0
  6
CONTINUOUS
 62
    7
 10
113.17896299999995
 20
776.14851350000004
 11
113.42896299999995
 21
776.42250049999996
  0
LINE
  8
_0-0_0
  6
CONTINUOUS
 62
    7
 10
113.17896299999995
 20
776.40470849999997
 11
113.42896299999995
 21
776.56501749999995
  0
LINE
  8
_0-0_0
  6
CONTINUOUS
 62
    7
 10
113.42896299999995
 20
776.56501749999995
 11
122.67896299999995
 21
776.56501749999995
  0
LINE
  8
_0-0_0
  6
CONTINUOUS
 62
    7
 10
113.17896299999995
 20
776.28694150000001
 11
113.42896299999995
 21
776.56501749999995
  0
LINE
  8
_0-0_0
  6
CONTINUOUS
 62
    7
 10
113.17896299999995
 20
776.50050350000004
 11
113.42896299999995
 21
776.68379149999998
  0
LINE
  8
_0-0_0
  6
CONTINUOUS
 62
    7
 10
113.42896299999995
 20
776.68379149999998
 11
122.67896299999995
 21
776.68379149999998
  0
LINE
  8
_0-0_0
  6
CONTINUOUS
 62
    7
 10
113.17896299999995
 20
776.40470849999997
 11
113.42896299999995
 21
776.68379149999998
  0
LINE
  8
_0-0_0
  6
CONTINUOUS
 62
    7
 10
113.17896299999995
 20
776.57328749999999
 11
113.42896299999995
 21
776.77757250000002
  0
LINE
  8
_0-0_0
  6
CONTINUOUS
 62
    7
 10
113.42896299999995
 20
776.77757250000002
 11
122.67896299999995
 21
776.77757250000002
  0
LINE
  8
_0-0_0
  6
CONTINUOUS
 62
    7
 10
113.17896299999995
 20
776.50050350000004
 11
113.42896299999995
 21
776.77757250000002
  0
LINE
  8
_0-0_0
  6
CONTINUOUS
 62
    7
 10
113.17896299999995
 20
776.62223849999998
 11
113.42896299999995
 21
776.84532149999995
  0
LINE
  8
_0-0_0
  6
CONTINUOUS
 62
    7
 10
113.42896299999995
 20
776.84532149999995
 11
122.67896299999995
 21
776.84532149999995
  0
LINE
  8
_0-0_0
  6
CONTINUOUS
 62
    7
 10
113.17896299999995
 20
776.57328749999999
 11
113.42896299999995
 21
776.84532149999995
  0
LINE
  8
_0-0_0
  6
CONTINUOUS
 62
    7
 10
113.17896299999995
 20
776.64686549999999
 11
113.42896299999995
 21
776.88624549999997
  0
LINE
  8
_0-0_0
  6
CONTINUOUS
 62
    7
 10
113.42896299999995
 20
776.88624549999997
 11
122.67896299999995
 21
776.88624549999997
  0
LINE
  8
_0-0_0
  6
CONTINUOUS
 62
    7
 10
113.17896299999995
 20
776.62223849999998
 11
113.42896299999995
 21
776.88624549999997
  0
LINE
  8
_0-0_0
  6
CONTINUOUS
 62
    7
 10
113.42896299999995
 20
776.89994750000005
 11
122.67896299999995
 21
776.89994750000005
  0
LINE
  8
_0-0_0
  6
CONTINUOUS
 62
    7
 10
113.17896299999995
 20
776.64686549999999
 11
113.42896299999995
 21
776.89994750000005
  0
LINE
  8
_0-0_0
  6
CONTINUOUS
 62
    7
 10
113.17896299999995
 20
772.1530305
 11
113.42896299999995
 21
771.89994750000005
  0
LINE
  8
_0-0_0
  6
CONTINUOUS
 62
    7
 10
113.42896299999995
 20
771.89994750000005
 11
122.67896299999995
 21
771.89994750000005
  0
LINE
  8
_0-0_0
  6
CONTINUOUS
 62
    7
 10
113.17896299999995
 20
772.17765750000001
 11
113.42896299999995
 21
771.91365050000002
  0
LINE
  8
_0-0_0
  6
CONTINUOUS
 62
    7
 10
113.42896299999995
 20
771.91365050000002
 11
122.67896299999995
 21
771.91365050000002
  0
LINE
  8
_0-0_0
  6
CONTINUOUS
 62
    7
 10
113.17896299999995
 20
772.1530305
 11
113.42896299999995
 21
771.91365050000002
  0
LINE
  8
_0-0_0
  6
CONTINUOUS
 62
    7
 10
113.17896299999995
 20
772.2266085
 11
113.42896299999995
 21
771.95457450000004
  0
LINE
  8
_0-0_0
  6
CONTINUOUS
 62
    7
 10
113.42896299999995
 20
771.95457450000004
 11
122.67896299999995
 21
771.95457450000004
  0
LINE
  8
_0-0_0
  6
CONTINUOUS
 62
    7
 10
113.17896299999995
 20
772.17765750000001
 11
113.42896299999995
 21
771.95457450000004
  0
LINE
  8
_0-0_0
  6
CONTINUOUS
 62
    7
 10
113.17896299999995
 20
772.29939249999995
 11
113.42896299999995
 21
772.02229250000005
  0
LINE
  8
_0-0_0
  6
CONTINUOUS
 62
    7
 10
113.42896299999995
 20
772.02229250000005
 11
122.67896299999995
 21
772.02229250000005
  0
LINE
  8
_0-0_0
  6
CONTINUOUS
 62
    7
 10
113.17896299999995
 20
772.2266085
 11
113.42896299999995
 21
772.02229250000005
  0
LINE
  8
_0-0_0
  6
CONTINUOUS
 62
    7
 10
113.17896299999995
 20
772.39518750000002
 11
113.42896299999995
 21
772.11607349999997
  0
LINE
  8
_0-0_0
  6
CONTINUOUS
 62
    7
 10
113.42896299999995
 20
772.11607349999997
 11
122.67896299999995
 21
772.11607349999997
  0
LINE
  8
_0-0_0
  6
CONTINUOUS
 62
    7
 10
113.17896299999995
 20
772.29939249999995
 11
113.42896299999995
 21
772.11607349999997
  0
LINE
  8
_0-0_0
  6
CONTINUOUS
 62
    7
 10
113.42896299999995
 20
772.23487850000004
 11
122.67896299999995
 21
772.23487850000004
  0
LINE
  8
_0-0_0
  6
CONTINUOUS
 62
    7
 10
113.30892900000003
 20
772.31132449999996
 11
113.42896299999995
 21
772.23487850000004
  0
LINE
  8
_0-0_0
  6
CONTINUOUS
 62
    7
 10
113.17896299999995
 20
772.39518750000002
 11
113.30892900000003
 21
772.31132449999996
  0
LINE
  8
_0-0_0
  6
CONTINUOUS
 62
    7
 10
113.17896299999995
 20
772.51292450000005
 11
113.42896299999995
 21
772.23487850000004
  0
LINE
  8
_0-0_0
  6
CONTINUOUS
 62
    7
 10
113.17896299999995
 20
772.65135150000003
 11
113.42896299999995
 21
772.37739550000003
  0
LINE
  8
_0-0_0
  6
CONTINUOUS
 62
    7
 10
113.42896299999995
 20
772.37739550000003
 11
122.67896299999995
 21
772.37739550000003
  0
LINE
  8
_0-0_0
  6
CONTINUOUS
 62
    7
 10
113.17896299999995
 20
772.51292450000005
 11
113.42896299999995
 21
772.37739550000003
  0
LINE
  8
_0-0_0
  6
CONTINUOUS
 62
    7
 10
113.17896299999995
 20
772.80894450000005
 11
113.42896299999995
 21
772.54206850000003
  0
LINE
  8
_0-0_0
  6
CONTINUOUS
 62
    7
 10
113.42896299999995
 20
772.54206850000003
 11
122.67896299999995
 21
772.54206850000003
  0
LINE
  8
_0-0_0
  6
CONTINUOUS
 62
    7
 10
113.17896299999995
 20
772.65135150000003
 11
113.42896299999995
 21
772.54206850000003
  0
LINE
  8
_0-0_0
  6
CONTINUOUS
 62
    7
 10
113.17896299999995
 20
772.98396249999996
 11
113.42896299999995
 21
772.72712650000005
  0
LINE
  8
_0-0_0
  6
CONTINUOUS
 62
    7
 10
113.42896299999995
 20
772.72712650000005
 11
122.67896299999995
 21
772.72712650000005
  0
LINE
  8
_0-0_0
  6
CONTINUOUS
 62
    7
 10
113.17896299999995
 20
772.80894450000005
 11
113.42896299999995
 21
772.72712650000005
  0
LINE
  8
_0-0_0
  6
CONTINUOUS
 62
    7
 10
113.17896299999995
 20
773.17451449999999
 11
113.42896299999995
 21
772.9304965
  0
LINE
  8
_0-0_0
  6
CONTINUOUS
 62
    7
 10
113.42896299999995
 20
772.9304965
 11
122.67896299999995
 21
772.9304965
  0
LINE
  8
_0-0_0
  6
CONTINUOUS
 62
    7
 10
113.17896299999995
 20
772.98396249999996
 11
113.42896299999995
 21
772.9304965
  0
LINE
  8
_0-0_0
  6
CONTINUOUS
 62
    7
 10
113.17896299999995
 20
773.37846349999995
 11
113.42896299999995
 21
773.14994750000005
  0
LINE
  8
_0-0_0
  6
CONTINUOUS
 62
    7
 10
113.42896299999995
 20
773.14994750000005
 11
122.67896299999995
 21
773.14994750000005
  0
LINE
  8
_0-0_0
  6
CONTINUOUS
 62
    7
 10
113.17896299999995
 20
773.37846349999995
 11
122.92896299999995
 21
773.37846349999995
  0
LINE
  8
_0-0_0
  6
CONTINUOUS
 62
    7
 10
113.17896299999995
 20
773.17451449999999
 11
113.42896299999995
 21
773.14994750000005
  0
LINE
  8
_0-0_0
  6
CONTINUOUS
 62
    7
 10
113.17896299999995
 20
773.59361249999995
 11
113.42896299999995
 21
773.38310249999995
  0
LINE
  8
_0-0_0
  6
CONTINUOUS
 62
    7
 10
113.42896299999995
 20
773.38310249999995
 11
122.67896299999995
 21
773.38310249999995
  0
LINE
  8
_0-0_0
  6
CONTINUOUS
 62
    7
 10
113.17896299999995
 20
773.59361249999995
 11
122.92896299999995
 21
773.59361249999995
  0
LINE
  8
_0-0_0
  6
CONTINUOUS
 62
    7
 10
113.17896299999995
 20
773.37846349999995
 11
113.42896299999995
 21
773.38310249999995
  0
LINE
  8
_0-0_0
  6
CONTINUOUS
 62
    7
 10
113.17896299999995
 20
773.8176115
 11
113.42896299999995
 21
773.62739550000003
  0
LINE
  8
_0-0_0
  6
CONTINUOUS
 62
    7
 10
113.42896299999995
 20
773.62739550000003
 11
122.67896299999995
 21
773.62739550000003
  0
LINE
  8
_0-0_0
  6
CONTINUOUS
 62
    7
 10
113.17896299999995
 20
773.8176115
 11
122.92896299999995
 21
773.8176115
  0
LINE
  8
_0-0_0
  6
CONTINUOUS
 62
    7
 10
113.17896299999995
 20
773.59361249999995
 11
113.42896299999995
 21
773.62739550000003
  0
LINE
  8
_0-0_0
  6
CONTINUOUS
 62
    7
 10
113.17896299999995
 20
774.04795850000005
 11
113.42896299999995
 21
773.88017249999996
  0
LINE
  8
_0-0_0
  6
CONTINUOUS
 62
    7
 10
113.42896299999995
 20
773.88017249999996
 11
122.67896299999995
 21
773.88017249999996
  0
LINE
  8
_0-0_0
  6
CONTINUOUS
 62
    7
 10
113.17896299999995
 20
774.04795850000005
 11
122.92896299999995
 21
774.04795850000005
  0
LINE
  8
_0-0_0
  6
CONTINUOUS
 62
    7
 10
113.17896299999995
 20
773.8176115
 11
113.42896299999995
 21
773.88017249999996
  0
LINE
  8
_0-0_0
  6
CONTINUOUS
 62
    7
 10
113.17896299999995
 20
774.28218049999998
 11
113.42896299999995
 21
774.13862549999999
  0
LINE
  8
_0-0_0
  6
CONTINUOUS
 62
    7
 10
113.42896299999995
 20
774.13862549999999
 11
122.67896299999995
 21
774.13862549999999
  0
LINE
  8
_0-0_0
  6
CONTINUOUS
 62
    7
 10
113.17896299999995
 20
774.28218049999998
 11
122.92896299999995
 21
774.28218049999998
  0
LINE
  8
_0-0_0
  6
CONTINUOUS
 62
    7
 10
113.17896299999995
 20
774.04795850000005
 11
113.42896299999995
 21
774.13862549999999
  0
LINE
  8
_0-0_0
  6
CONTINUOUS
 62
    7
 10
113.17896299999995
 20
774.51771550000001
 11
113.42896299999995
 21
774.39994750000005
  0
LINE
  8
_0-0_0
  6
CONTINUOUS
 62
    7
 10
113.42896299999995
 20
774.39994750000005
 11
122.67896299999995
 21
774.39994750000005
  0
LINE
  8
_0-0_0
  6
CONTINUOUS
 62
    7
 10
113.17896299999995
 20
774.51771550000001
 11
122.92896299999995
 21
774.51771550000001
  0
LINE
  8
_0-0_0
  6
CONTINUOUS
 62
    7
 10
113.17896299999995
 20
774.28218049999998
 11
113.42896299999995
 21
774.39994750000005
  0
LINE
  8
_0-0_0
  6
CONTINUOUS
 62
    7
 10
113.17896299999995
 20
774.75190750000002
 11
113.42896299999995
 21
774.6612705
  0
LINE
  8
_0-0_0
  6
CONTINUOUS
 62
    7
 10
113.42896299999995
 20
774.6612705
 11
122.67896299999995
 21
774.6612705
  0
LINE
  8
_0-0_0
  6
CONTINUOUS
 62
    7
 10
113.17896299999995
 20
774.75190750000002
 11
122.92896299999995
 21
774.75190750000002
  0
LINE
  8
_0-0_0
  6
CONTINUOUS
 62
    7
 10
113.17896299999995
 20
774.51771550000001
 11
113.42896299999995
 21
774.6612705
  0
LINE
  8
_0-0_0
  6
CONTINUOUS
 62
    7
 10
113.17896299999995
 20
774.98228449999999
 11
113.42896299999995
 21
774.91972350000003
  0
LINE
  8
_0-0_0
  6
CONTINUOUS
 62
    7
 10
113.42896299999995
 20
774.91972350000003
 11
122.67896299999995
 21
774.91972350000003
  0
LINE
  8
_0-0_0
  6
CONTINUOUS
 62
    7
 10
113.17896299999995
 20
774.98228449999999
 11
122.92896299999995
 21
774.98228449999999
  0
LINE
  8
_0-0_0
  6
CONTINUOUS
 62
    7
 10
113.17896299999995
 20
774.75190750000002
 11
113.42896299999995
 21
774.91972350000003
  0
LINE
  8
_0-0_0
  6
CONTINUOUS
 62
    7
 10
113.17896299999995
 20
775.20628350000004
 11
113.42896299999995
 21
775.17250049999996
  0
LINE
  8
_0-0_0
  6
CONTINUOUS
 62
    7
 10
113.42896299999995
 20
775.17250049999996
 11
122.67896299999995
 21
775.17250049999996
  0
LINE
  8
_0-0_0
  6
CONTINUOUS
 62
    7
 10
113.17896299999995
 20
775.20628350000004
 11
122.92896299999995
 21
775.20628350000004
  0
LINE
  8
_0-0_0
  6
CONTINUOUS
 62
    7
 10
113.17896299999995
 20
774.98228449999999
 11
113.42896299999995
 21
775.17250049999996
  0
LINE
  8
_0-0_0
  6
CONTINUOUS
 62
    7
 10
113.17896299999995
 20
775.42143250000004
 11
113.42896299999995
 21
775.41679350000004
  0
LINE
  8
_0-0_0
  6
CONTINUOUS
 62
    7
 10
113.42896299999995
 20
775.41679350000004
 11
122.67896299999995
 21
775.41679350000004
  0
LINE
  8
_0-0_0
  6
CONTINUOUS
 62
    7
 10
113.17896299999995
 20
775.20628350000004
 11
113.42896299999995
 21
775.41679350000004
  0
LINE
  8
_0-0_0
  6
CONTINUOUS
 62
    7
 10
126.92896299999995
 20
771.34992950000003
 11
126.92896299999995
 21
763.36839250000003
  0
LINE
  8
_0-0_0
  6
CONTINUOUS
 62
    7
 10
126.92896299999995
 20
763.36839250000003
 11
126.92896299999995
 21
760.84992950000003
  0
LINE
  8
_0-0_0
  6
CONTINUOUS
 62
    7
 10
113.17896299999995
 20
759.0253755
 11
113.42896299999995
 21
759.04994150000005
  0
LINE
  8
_0-0_0
  6
CONTINUOUS
 62
    7
 10
113.42896299999995
 20
759.04994150000005
 11
122.67896299999995
 21
759.04994150000005
  0
LINE
  8
_0-0_0
  6
CONTINUOUS
 62
    7
 10
113.17896299999995
 20
758.82142650000003
 11
113.42896299999995
 21
759.04994150000005
  0
LINE
  8
_0-0_0
  6
CONTINUOUS
 62
    7
 10
113.17896299999995
 20
758.82142650000003
 11
122.92896299999995
 21
758.82142650000003
  0
LINE
  8
_0-0_0
  6
CONTINUOUS
 62
    7
 10
113.17896299999995
 20
759.21592650000002
 11
113.42896299999995
 21
759.26939349999998
  0
LINE
  8
_0-0_0
  6
CONTINUOUS
 62
    7
 10
113.42896299999995
 20
759.26939349999998
 11
122.67896299999995
 21
759.26939349999998
  0
LINE
  8
_0-0_0
  6
CONTINUOUS
 62
    7
 10
113.17896299999995
 20
759.0253755
 11
113.42896299999995
 21
759.26939349999998
  0
LINE
  8
_0-0_0
  6
CONTINUOUS
 62
    7
 10
113.17896299999995
 20
759.39094550000004
 11
113.42896299999995
 21
759.47276250000004
  0
LINE
  8
_0-0_0
  6
CONTINUOUS
 62
    7
 10
113.42896299999995
 20
759.47276250000004
 11
122.67896299999995
 21
759.47276250000004
  0
LINE
  8
_0-0_0
  6
CONTINUOUS
 62
    7
 10
113.17896299999995
 20
759.21592650000002
 11
113.42896299999995
 21
759.47276250000004
  0
LINE
  8
_0-0_0
  6
CONTINUOUS
 62
    7
 10
113.17896299999995
 20
759.54850750000003
 11
113.42896299999995
 21
759.65779150000003
  0
LINE
  8
_0-0_0
  6
CONTINUOUS
 62
    7
 10
113.42896299999995
 20
759.65779150000003
 11
122.67896299999995
 21
759.65779150000003
  0
LINE
  8
_0-0_0
  6
CONTINUOUS
 62
    7
 10
113.17896299999995
 20
759.39094550000004
 11
113.42896299999995
 21
759.65779150000003
  0
LINE
  8
_0-0_0
  6
CONTINUOUS
 62
    7
 10
113.17896299999995
 20
759.68696550000004
 11
113.42896299999995
 21
759.82249449999995
  0
LINE
  8
_0-0_0
  6
CONTINUOUS
 62
    7
 10
113.42896299999995
 20
759.82249449999995
 11
122.67896299999995
 21
759.82249449999995
  0
LINE
  8
_0-0_0
  6
CONTINUOUS
 62
    7
 10
113.17896299999995
 20
759.54850750000003
 11
113.42896299999995
 21
759.82249449999995
  0
LINE
  8
_0-0_0
  6
CONTINUOUS
 62
    7
 10
113.17896299999995
 20
759.80470249999996
 11
113.42896299999995
 21
759.96501150000006
  0
LINE
  8
_0-0_0
  6
CONTINUOUS
 62
    7
 10
113.42896299999995
 20
759.96501150000006
 11
122.67896299999995
 21
759.96501150000006
  0
LINE
  8
_0-0_0
  6
CONTINUOUS
 62
    7
 10
113.17896299999995
 20
759.68696550000004
 11
113.42896299999995
 21
759.96501150000006
  0
LINE
  8
_0-0_0
  6
CONTINUOUS
 62
    7
 10
113.17896299999995
 20
759.90049750000003
 11
113.42896299999995
 21
760.08381650000001
  0
LINE
  8
_0-0_0
  6
CONTINUOUS
 62
    7
 10
113.42896299999995
 20
760.08381650000001
 11
122.67896299999995
 21
760.08381650000001
  0
LINE
  8
_0-0_0
  6
CONTINUOUS
 62
    7
 10
113.17896299999995
 20
759.80470249999996
 11
113.42896299999995
 21
760.08381650000001
  0
LINE
  8
_0-0_0
  6
CONTINUOUS
 62
    7
 10
113.17896299999995
 20
759.97328149999998
 11
113.42896299999995
 21
760.17759650000005
  0
LINE
  8
_0-0_0
  6
CONTINUOUS
 62
    7
 10
113.42896299999995
 20
760.17759650000005
 11
122.67896299999995
 21
760.17759650000005
  0
LINE
  8
_0-0_0
  6
CONTINUOUS
 62
    7
 10
113.17896299999995
 20
759.90049750000003
 11
113.42896299999995
 21
760.17759650000005
  0
LINE
  8
_0-0_0
  6
CONTINUOUS
 62
    7
 10
113.17896299999995
 20
760.02223149999998
 11
113.42896299999995
 21
760.24531549999995
  0
LINE
  8
_0-0_0
  6
CONTINUOUS
 62
    7
 10
113.42896299999995
 20
760.24531549999995
 11
122.67896299999995
 21
760.24531549999995
  0
LINE
  8
_0-0_0
  6
CONTINUOUS
 62
    7
 10
113.17896299999995
 20
759.97328149999998
 11
113.42896299999995
 21
760.24531549999995
  0
LINE
  8
_0-0_0
  6
CONTINUOUS
 62
    7
 10
113.17896299999995
 20
760.04685949999998
 11
113.42896299999995
 21
760.28623949999997
  0
LINE
  8
_0-0_0
  6
CONTINUOUS
 62
    7
 10
113.42896299999995
 20
760.28623949999997
 11
122.67896299999995
 21
760.28623949999997
  0
LINE
  8
_0-0_0
  6
CONTINUOUS
 62
    7
 10
113.17896299999995
 20
760.02223149999998
 11
113.42896299999995
 21
760.28623949999997
  0
LINE
  8
_0-0_0
  6
CONTINUOUS
 62
    7
 10
113.42896299999995
 20
760.29994150000005
 11
122.67896299999995
 21
760.29994150000005
  0
LINE
  8
_0-0_0
  6
CONTINUOUS
 62
    7
 10
113.17896299999995
 20
760.04685949999998
 11
113.42896299999995
 21
760.29994150000005
  0
LINE
  8
_0-0_0
  6
CONTINUOUS
 62
    7
 10
113.17896299999995
 20
755.55302449999999
 11
113.42896299999995
 21
755.29994150000005
  0
LINE
  8
_0-0_0
  6
CONTINUOUS
 62
    7
 10
113.42896299999995
 20
755.29994150000005
 11
122.67896299999995
 21
755.29994150000005
  0
LINE
  8
_0-0_0
  6
CONTINUOUS
 62
    7
 10
113.17896299999995
 20
755.5776515
 11
113.42896299999995
 21
755.31364450000001
  0
LINE
  8
_0-0_0
  6
CONTINUOUS
 62
    7
 10
113.42896299999995
 20
755.31364450000001
 11
122.67896299999995
 21
755.31364450000001
  0
LINE
  8
_0-0_0
  6
CONTINUOUS
 62
    7
 10
113.17896299999995
 20
755.55302449999999
 11
113.42896299999995
 21
755.31364450000001
  0
LINE
  8
_0-0_0
  6
CONTINUOUS
 62
    7
 10
113.17896299999995
 20
755.62660249999999
 11
113.42896299999995
 21
755.35456850000003
  0
LINE
  8
_0-0_0
  6
CONTINUOUS
 62
    7
 10
113.42896299999995
 20
755.35456850000003
 11
122.67896299999995
 21
755.35456850000003
  0
LINE
  8
_0-0_0
  6
CONTINUOUS
 62
    7
 10
113.17896299999995
 20
755.5776515
 11
113.42896299999995
 21
755.35456850000003
  0
LINE
  8
_0-0_0
  6
CONTINUOUS
 62
    7
 10
113.17896299999995
 20
755.69938650000006
 11
113.42896299999995
 21
755.42228650000004
  0
LINE
  8
_0-0_0
  6
CONTINUOUS
 62
    7
 10
113.42896299999995
 20
755.42228650000004
 11
122.67896299999995
 21
755.42228650000004
  0
LINE
  8
_0-0_0
  6
CONTINUOUS
 62
    7
 10
113.17896299999995
 20
755.62660249999999
 11
113.42896299999995
 21
755.42228650000004
  0
LINE
  8
_0-0_0
  6
CONTINUOUS
 62
    7
 10
113.17896299999995
 20
755.79518150000001
 11
113.42896299999995
 21
755.51606749999996
  0
LINE
  8
_0-0_0
  6
CONTINUOUS
 62
    7
 10
113.42896299999995
 20
755.51606749999996
 11
122.67896299999995
 21
755.51606749999996
  0
LINE
  8
_0-0_0
  6
CONTINUOUS
 62
    7
 10
113.17896299999995
 20
755.69938650000006
 11
113.42896299999995
 21
755.51606749999996
  0
LINE
  8
_0-0_0
  6
CONTINUOUS
 62
    7
 10
113.42896299999995
 20
755.63487250000003
 11
122.67896299999995
 21
755.63487250000003
  0
LINE
  8
_0-0_0
  6
CONTINUOUS
 62
    7
 10
113.30892900000003
 20
755.71131849999995
 11
113.42896299999995
 21
755.63487250000003
  0
LINE
  8
_0-0_0
  6
CONTINUOUS
 62
    7
 10
113.17896299999995
 20
755.79518150000001
 11
113.30892900000003
 21
755.71131849999995
  0
LINE
  8
_0-0_0
  6
CONTINUOUS
 62
    7
 10
113.17896299999995
 20
755.91291750000005
 11
113.42896299999995
 21
755.63487250000003
  0
LINE
  8
_0-0_0
  6
CONTINUOUS
 62
    7
 10
113.17896299999995
 20
756.05137649999995
 11
113.42896299999995
 21
755.77738950000003
  0
LINE
  8
_0-0_0
  6
CONTINUOUS
 62
    7
 10
113.42896299999995
 20
755.77738950000003
 11
122.67896299999995
 21
755.77738950000003
  0
LINE
  8
_0-0_0
  6
CONTINUOUS
 62
    7
 10
113.17896299999995
 20
755.91291750000005
 11
113.42896299999995
 21
755.77738950000003
  0
LINE
  8
_0-0_0
  6
CONTINUOUS
 62
    7
 10
113.17896299999995
 20
756.20896849999997
 11
113.42896299999995
 21
755.94209250000006
  0
LINE
  8
_0-0_0
  6
CONTINUOUS
 62
    7
 10
113.42896299999995
 20
755.94209250000006
 11
122.67896299999995
 21
755.94209250000006
  0
LINE
  8
_0-0_0
  6
CONTINUOUS
 62
    7
 10
113.17896299999995
 20
756.05137649999995
 11
113.42896299999995
 21
755.94209250000006
  0
LINE
  8
_0-0_0
  6
CONTINUOUS
 62
    7
 10
113.17896299999995
 20
756.38398749999999
 11
113.42896299999995
 21
756.12712050000005
  0
LINE
  8
_0-0_0
  6
CONTINUOUS
 62
    7
 10
113.42896299999995
 20
756.12712050000005
 11
122.67896299999995
 21
756.12712050000005
  0
LINE
  8
_0-0_0
  6
CONTINUOUS
 62
    7
 10
113.17896299999995
 20
756.20896849999997
 11
113.42896299999995
 21
756.12712050000005
  0
LINE
  8
_0-0_0
  6
CONTINUOUS
 62
    7
 10
113.17896299999995
 20
756.57450849999998
 11
113.42896299999995
 21
756.3304895
  0
LINE
  8
_0-0_0
  6
CONTINUOUS
 62
    7
 10
113.42896299999995
 20
756.3304895
 11
122.67896299999995
 21
756.3304895
  0
LINE
  8
_0-0_0
  6
CONTINUOUS
 62
    7
 10
113.17896299999995
 20
756.38398749999999
 11
113.42896299999995
 21
756.3304895
  0
LINE
  8
_0-0_0
  6
CONTINUOUS
 62
    7
 10
113.17896299999995
 20
756.77845750000006
 11
113.42896299999995
 21
756.54994150000005
  0
LINE
  8
_0-0_0
  6
CONTINUOUS
 62
    7
 10
113.42896299999995
 20
756.54994150000005
 11
122.67896299999995
 21
756.54994150000005
  0
LINE
  8
_0-0_0
  6
CONTINUOUS
 62
    7
 10
113.17896299999995
 20
756.77845750000006
 11
122.92896299999995
 21
756.77845750000006
  0
LINE
  8
_0-0_0
  6
CONTINUOUS
 62
    7
 10
113.17896299999995
 20
756.57450849999998
 11
113.42896299999995
 21
756.54994150000005
  0
LINE
  8
_0-0_0
  6
CONTINUOUS
 62
    7
 10
113.17896299999995
 20
756.99360650000006
 11
113.42896299999995
 21
756.78309650000006
  0
LINE
  8
_0-0_0
  6
CONTINUOUS
 62
    7
 10
113.42896299999995
 20
756.78309650000006
 11
122.67896299999995
 21
756.78309650000006
  0
LINE
  8
_0-0_0
  6
CONTINUOUS
 62
    7
 10
113.17896299999995
 20
756.99360650000006
 11
122.92896299999995
 21
756.99360650000006
  0
LINE
  8
_0-0_0
  6
CONTINUOUS
 62
    7
 10
113.17896299999995
 20
756.77845750000006
 11
113.42896299999995
 21
756.78309650000006
  0
LINE
  8
_0-0_0
  6
CONTINUOUS
 62
    7
 10
113.17896299999995
 20
757.21760549999999
 11
113.42896299999995
 21
757.02738950000003
  0
LINE
  8
_0-0_0
  6
CONTINUOUS
 62
    7
 10
113.42896299999995
 20
757.02738950000003
 11
122.67896299999995
 21
757.02738950000003
  0
LINE
  8
_0-0_0
  6
CONTINUOUS
 62
    7
 10
113.17896299999995
 20
757.21760549999999
 11
122.92896299999995
 21
757.21760549999999
  0
LINE
  8
_0-0_0
  6
CONTINUOUS
 62
    7
 10
113.17896299999995
 20
756.99360650000006
 11
113.42896299999995
 21
757.02738950000003
  0
LINE
  8
_0-0_0
  6
CONTINUOUS
 62
    7
 10
113.17896299999995
 20
757.44795250000004
 11
113.42896299999995
 21
757.28016649999995
  0
LINE
  8
_0-0_0
  6
CONTINUOUS
 62
    7
 10
113.42896299999995
 20
757.28016649999995
 11
122.67896299999995
 21
757.28016649999995
  0
LINE
  8
_0-0_0
  6
CONTINUOUS
 62
    7
 10
113.17896299999995
 20
757.44795250000004
 11
122.92896299999995
 21
757.44795250000004
  0
LINE
  8
_0-0_0
  6
CONTINUOUS
 62
    7
 10
113.17896299999995
 20
757.21760549999999
 11
113.42896299999995
 21
757.28016649999995
  0
LINE
  8
_0-0_0
  6
CONTINUOUS
 62
    7
 10
113.17896299999995
 20
757.68217449999997
 11
113.42896299999995
 21
757.53861949999998
  0
LINE
  8
_0-0_0
  6
CONTINUOUS
 62
    7
 10
113.42896299999995
 20
757.53861949999998
 11
122.67896299999995
 21
757.53861949999998
  0
LINE
  8
_0-0_0
  6
CONTINUOUS
 62
    7
 10
113.17896299999995
 20
757.68217449999997
 11
122.92896299999995
 21
757.68217449999997
  0
LINE
  8
_0-0_0
  6
CONTINUOUS
 62
    7
 10
113.17896299999995
 20
757.44795250000004
 11
113.42896299999995
 21
757.53861949999998
  0
LINE
  8
_0-0_0
  6
CONTINUOUS
 62
    7
 10
113.17896299999995
 20
757.9177095
 11
113.42896299999995
 21
757.79994150000005
  0
LINE
  8
_0-0_0
  6
CONTINUOUS
 62
    7
 10
113.42896299999995
 20
757.79994150000005
 11
122.67896299999995
 21
757.79994150000005
  0
LINE
  8
_0-0_0
  6
CONTINUOUS
 62
    7
 10
113.17896299999995
 20
757.9177095
 11
122.92896299999995
 21
757.9177095
  0
LINE
  8
_0-0_0
  6
CONTINUOUS
 62
    7
 10
113.17896299999995
 20
757.68217449999997
 11
113.42896299999995
 21
757.79994150000005
  0
LINE
  8
_0-0_0
  6
CONTINUOUS
 62
    7
 10
113.17896299999995
 20
758.15193150000005
 11
113.42896299999995
 21
758.0612635
  0
LINE
  8
_0-0_0
  6
CONTINUOUS
 62
    7
 10
113.42896299999995
 20
758.0612635
 11
122.67896299999995
 21
758.0612635
  0
LINE
  8
_0-0_0
  6
CONTINUOUS
 62
    7
 10
113.17896299999995
 20
758.15193150000005
 11
122.92896299999995
 21
758.15193150000005
  0
LINE
  8
_0-0_0
  6
CONTINUOUS
 62
    7
 10
113.17896299999995
 20
757.9177095
 11
113.42896299999995
 21
758.0612635
  0
LINE
  8
_0-0_0
  6
CONTINUOUS
 62
    7
 10
113.17896299999995
 20
758.38227849999998
 11
113.42896299999995
 21
758.31971750000002
  0
LINE
  8
_0-0_0
  6
CONTINUOUS
 62
    7
 10
113.42896299999995
 20
758.31971750000002
 11
122.67896299999995
 21
758.31971750000002
  0
LINE
  8
_0-0_0
  6
CONTINUOUS
 62
    7
 10
113.17896299999995
 20
758.38227849999998
 11
122.92896299999995
 21
758.38227849999998
  0
LINE
  8
_0-0_0
  6
CONTINUOUS
 62
    7
 10
113.17896299999995
 20
758.15193150000005
 11
113.42896299999995
 21
758.31971750000002
  0
LINE
  8
_0-0_0
  6
CONTINUOUS
 62
    7
 10
113.17896299999995
 20
758.60627750000003
 11
113.42896299999995
 21
758.57249449999995
  0
LINE
  8
_0-0_0
  6
CONTINUOUS
 62
    7
 10
113.42896299999995
 20
758.57249449999995
 11
122.67896299999995
 21
758.57249449999995
  0
LINE
  8
_0-0_0
  6
CONTINUOUS
 62
    7
 10
113.17896299999995
 20
758.60627750000003
 11
122.92896299999995
 21
758.60627750000003
  0
LINE
  8
_0-0_0
  6
CONTINUOUS
 62
    7
 10
113.17896299999995
 20
758.38227849999998
 11
113.42896299999995
 21
758.57249449999995
  0
LINE
  8
_0-0_0
  6
CONTINUOUS
 62
    7
 10
113.17896299999995
 20
758.82142650000003
 11
113.42896299999995
 21
758.81678750000003
  0
LINE
  8
_0-0_0
  6
CONTINUOUS
 62
    7
 10
113.42896299999995
 20
758.81678750000003
 11
122.67896299999995
 21
758.81678750000003
  0
LINE
  8
_0-0_0
  6
CONTINUOUS
 62
    7
 10
113.17896299999995
 20
758.60627750000003
 11
113.42896299999995
 21
758.81678750000003
  0
LINE
  8
_0-0_0
  6
CONTINUOUS
 62
    7
 10
112.92896299999995
 20
776.39994750000005
 11
112.92896299999995
 21
772.6447905
  0
LINE
  8
_0-0_0
  6
CONTINUOUS
 62
    7
 10
112.92896299999995
 20
772.6447905
 11
112.92896299999995
 21
772.39994750000005
  0
LINE
  8
_0-0_0
  6
CONTINUOUS
 62
    7
 10
112.92896299999995
 20
759.79994150000005
 11
112.92896299999995
 21
756.04478449999999
  0
LINE
  8
_0-0_0
  6
CONTINUOUS
 62
    7
 10
112.92896299999995
 20
756.04478449999999
 11
112.92896299999995
 21
755.79994150000005
  0
LINE
  8
_0-0_0
  6
CONTINUOUS
 62
    7
 10
126.52896099999998
 20
771.09992950000003
 11
126.52896099999998
 21
768.59992950000003
  0
LINE
  8
_0-0_0
  6
CONTINUOUS
 62
    7
 10
126.52896099999998
 20
768.59992950000003
 11
126.52896099999998
 21
761.09992950000003
  0
LINE
  8
_0-0_0
  6
CONTINUOUS
 62
    7
 10
125.72896600000001
 20
770.63807650000001
 11
125.72896600000001
 21
768.36900349999996
  0
LINE
  8
_0-0_0
  6
CONTINUOUS
 62
    7
 10
125.72896600000001
 20
768.36900349999996
 11
125.72896600000001
 21
761.56181349999997
  0
LINE
  8
_0-0_0
  6
CONTINUOUS
 62
    7
 10
67.728958000000034
 20
770.09992950000003
 11
67.728958000000034
 21
770.09858650000001
  0
LINE
  8
_0-0_0
  6
CONTINUOUS
 62
    7
 10
67.728958000000034
 20
770.09858650000001
 11
67.728958000000034
 21
762.09992950000003
  0
LINE
  8
_0-0_0
  6
CONTINUOUS
 62
    7
 10
148.92896299999995
 20
776.64994750000005
 11
122.92896299999995
 21
776.64994750000005
  0
LINE
  8
_0-0_0
  6
CONTINUOUS
 62
    7
 10
148.92896299999995
 20
772.14994750000005
 11
122.92896299999995
 21
772.14994750000005
  0
LINE
  8
_0-0_0
  6
CONTINUOUS
 62
    7
 10
127.72895099999994
 20
760.04994150000005
 11
122.92896299999995
 21
760.04994150000005
  0
LINE
  8
_0-0_0
  6
CONTINUOUS
 62
    7
 10
143.17893200000003
 20
755.54994150000005
 11
122.92896299999995
 21
755.54994150000005
  0
LINE
  8
_0-0_0
  6
CONTINUOUS
 62
    7
 10
122.92896299999995
 20
776.64994750000005
 11
122.67896299999995
 21
776.89994750000005
  0
LINE
  8
_0-0_0
  6
CONTINUOUS
 62
    7
 10
122.92896299999995
 20
772.14994750000005
 11
122.67896299999995
 21
771.89994750000005
  0
LINE
  8
_0-0_0
  6
CONTINUOUS
 62
    7
 10
122.92896299999995
 20
760.04994150000005
 11
122.67896299999995
 21
760.29994150000005
  0
LINE
  8
_0-0_0
  6
CONTINUOUS
 62
    7
 10
122.92896299999995
 20
755.54994150000005
 11
122.67896299999995
 21
755.29994150000005
  0
LINE
  8
_0-0_0
  6
CONTINUOUS
 62
    7
 10
126.92896299999995
 20
771.34992950000003
 11
127.72895800000003
 21
772.14994750000005
  0
LINE
  8
_0-0_0
  6
CONTINUOUS
 62
    7
 10
126.92896299999995
 20
760.84992950000003
 11
128.17896299999995
 21
759.59992950000003
  0
LINE
  8
_0-0_0
  6
CONTINUOUS
 62
    7
 10
112.92896299999995
 20
776.39994750000005
 11
113.42881
 21
776.89979549999998
  0
LINE
  8
_0-0_0
  6
CONTINUOUS
 62
    7
 10
112.92896299999995
 20
772.39994750000005
 11
113.42881
 21
771.90010050000001
  0
LINE
  8
_0-0_0
  6
CONTINUOUS
 62
    7
 10
112.92896299999995
 20
759.79994150000005
 11
113.42881
 21
760.29978949999997
  0
LINE
  8
_0-0_0
  6
CONTINUOUS
 62
    7
 10
112.92896299999995
 20
755.79994150000005
 11
113.42881
 21
755.3000945
  0
LINE
  8
_0-0_0
  6
CONTINUOUS
 62
    7
 10
126.92896299999995
 20
771.09992950000003
 11
126.52896099999998
 21
771.09992950000003
  0
LINE
  8
_0-0_0
  6
CONTINUOUS
 62
    7
 10
126.92896299999995
 20
761.09992950000003
 11
126.52896099999998
 21
761.09992950000003
  0
LINE
  8
_0-0_0
  6
CONTINUOUS
 62
    7
 10
125.72896600000001
 20
770.63807650000001
 11
126.52896099999998
 21
771.09992950000003
  0
LINE
  8
_0-0_0
  6
CONTINUOUS
 62
    7
 10
125.72896600000001
 20
761.56181349999997
 11
126.52896099999998
 21
761.09992950000003
  0
LINE
  8
_0-0_0
  6
CONTINUOUS
 62
    7
 10
125.72896600000001
 20
770.09992950000003
 11
67.728958000000034
 21
770.09992950000003
  0
LINE
  8
_0-0_0
  6
CONTINUOUS
 62
    7
 10
125.72896600000001
 20
762.09992950000003
 11
67.728958000000034
 21
762.09992950000003
  0
ARC
  8
_0-0_0
  6
CONTINUOUS
 62
    7
 10
142.42896299999995
 20
799.60002150000003
 40
8
 50
215.099627
 51
324.90037799999999
  0
LINE
  8
_0-0_0
  6
CONTINUOUS
 62
    7
 10
133.42896299999995
 20
795.00001550000002
 11
135.883736
 21
795.00001550000002
  0
LINE
  8
_0-0_0
  6
CONTINUOUS
 62
    7
 10
133.42896299999995
 20
781.80000250000001
 11
133.42896299999995
 21
795.00001550000002
  0
LINE
  8
_0-0_0
  6
CONTINUOUS
 62
    7
 10
1506.4288940000001
 20
781.80000250000001
 11
1506.4288940000001
 21
795.00001550000002
  0
LINE
  8
_0-0_0
  6
CONTINUOUS
 62
    7
 10
1503.9741819999999
 20
795.00001550000002
 11
1506.4288940000001
 21
795.00001550000002
  0
ARC
  8
_0-0_0
  6
CONTINUOUS
 62
    7
 10
1497.4288940000001
 20
799.60002150000003
 40
8
 50
215.099627
 51
324.90037799999999
  0
LINE
  8
_0-0_0
  6
CONTINUOUS
 62
    7
 10
148.97419000000002
 20
795.00001550000002
 11
1490.8836059999999
 21
795.00001550000002
  0
LINE
  8
_0-0_0
  6
CONTINUOUS
 62
    7
 10
148.97419000000002
 20
795.00001550000002
 11
149.06317100000001
 21
795.12931849999995
  0
LINE
  8
_0-0_0
  6
CONTINUOUS
 62
    7
 10
1490.8836059999999
 20
795.00001550000002
 11
1490.7947389999999
 21
795.12931849999995
  0
LINE
  8
_0-0_0
  6
CONTINUOUS
 62
    7
 10
1504.1561889999998
 20
795.2707365
 11
1504.2377320000001
 21
795.40000950000001
  0
ARC
  8
_0-0_0
  6
CONTINUOUS
 62
    7
 10
1497.4288940000001
 20
799.60002150000003
 40
8
 50
328.33175599999993
 51
334.05550899999992
  0
LINE
  8
_0-0_0
  6
CONTINUOUS
 62
    7
 10
1504.6226200000001
 20
796.10002150000003
 11
1504.7166139999999
 21
796.30000250000001
  0
LINE
  8
_0-0_0
  6
CONTINUOUS
 62
    7
 10
1504.7166139999999
 20
796.30000250000001
 11
1504.8038940000001
 21
796.50001550000002
  0
ARC
  8
_0-0_0
  6
CONTINUOUS
 62
    7
 10
1497.4288940000001
 20
799.60002150000003
 40
8
 50
337.20097500000003
 51
342.54240199999998
  0
LINE
  8
_0-0_0
  6
CONTINUOUS
 62
    7
 10
1505.0603639999999
 20
797.20002750000003
 11
1505.120422
 21
797.40000950000001
  0
LINE
  8
_0-0_0
  6
CONTINUOUS
 62
    7
 10
1505.120422
 20
797.40000950000001
 11
1505.1748659999998
 21
797.60002150000003
  0
ARC
  8
_0-0_0
  6
CONTINUOUS
 62
    7
 10
1497.4288940000001
 20
799.60002150000003
 40
8
 50
345.52249499999999
 51
350.64797900000002
  0
LINE
  8
_0-0_0
  6
CONTINUOUS
 62
    7
 10
1505.3225710000002
 20
798.30000250000001
 11
1505.3529659999999
 21
798.50001550000002
  0
LINE
  8
_0-0_0
  6
CONTINUOUS
 62
    7
 10
1505.3529659999999
 20
798.50001550000002
 11
1505.3781130000002
 21
798.70002750000003
  0
ARC
  8
_0-0_0
  6
CONTINUOUS
 62
    7
 10
1497.4288940000001
 20
799.60002150000003
 40
8
 50
353.54056400000002
 51
358.56744600000002
  0
LINE
  8
_0-0_0
  6
CONTINUOUS
 62
    7
 10
1505.426453
 20
799.40000950000001
 11
1505.4288940000001
 21
799.60002150000003
  0
LINE
  8
_0-0_0
  6
CONTINUOUS
 62
    7
 10
1489.4313349999998
 20
799.40000950000001
 11
1489.4288940000001
 21
799.60002150000003
  0
ARC
  8
_0-0_0
  6
CONTINUOUS
 62
    7
 10
1497.4288940000001
 20
799.60002150000003
 40
8
 50
181.432545
 51
186.45945499999999
  0
LINE
  8
_0-0_0
  6
CONTINUOUS
 62
    7
 10
1489.5048219999999
 20
798.50001550000002
 11
1489.479675
 21
798.70002750000003
  0
LINE
  8
_0-0_0
  6
CONTINUOUS
 62
    7
 10
1489.5352170000001
 20
798.30000250000001
 11
1489.5048219999999
 21
798.50001550000002
  0
ARC
  8
_0-0_0
  6
CONTINUOUS
 62
    7
 10
1497.4288940000001
 20
799.60002150000003
 40
8
 50
189.35203999999999
 51
194.47751
  0
LINE
  8
_0-0_0
  6
CONTINUOUS
 62
    7
 10
1489.7373659999998
 20
797.40000950000001
 11
1489.682922
 21
797.60002150000003
  0
LINE
  8
_0-0_0
  6
CONTINUOUS
 62
    7
 10
1489.7974239999999
 20
797.20002750000003
 11
1489.7373659999998
 21
797.40000950000001
  0
ARC
  8
_0-0_0
  6
CONTINUOUS
 62
    7
 10
1497.4288940000001
 20
799.60002150000003
 40
8
 50
197.45760300000001
 51
202.79902999999999
  0
LINE
  8
_0-0_0
  6
CONTINUOUS
 62
    7
 10
1490.1411739999999
 20
796.30000250000001
 11
1490.0538940000001
 21
796.50001550000002
  0
LINE
  8
_0-0_0
  6
CONTINUOUS
 62
    7
 10
1490.235169
 20
796.10002150000003
 11
1490.1411739999999
 21
796.30000250000001
  0
ARC
  8
_0-0_0
  6
CONTINUOUS
 62
    7
 10
1497.4288940000001
 20
799.60002150000003
 40
8
 50
205.94448199999999
 51
211.66823500000001
  0
LINE
  8
_0-0_0
  6
CONTINUOUS
 62
    7
 10
1490.701599
 20
795.2707365
 11
1490.6200560000002
 21
795.40000950000001
  0
LINE
  8
_0-0_0
  6
CONTINUOUS
 62
    7
 10
1490.701599
 20
795.2707365
 11
1490.7947389999999
 21
795.12931849999995
  0
LINE
  8
_0-0_0
  6
CONTINUOUS
 62
    7
 10
1503.9741819999999
 20
795.00001550000002
 11
1504.0630489999999
 21
795.12931849999995
  0
LINE
  8
_0-0_0
  6
CONTINUOUS
 62
    7
 10
1504.1561889999998
 20
795.2707365
 11
1504.0630489999999
 21
795.12931849999995
  0
LINE
  8
_0-0_0
  6
CONTINUOUS
 62
    7
 10
1506.4288940000001
 20
795.12931849999995
 11
1506.4288940000001
 21
795.00001550000002
  0
LINE
  8
_0-0_0
  6
CONTINUOUS
 62
    7
 10
1506.4288940000001
 20
803.92930550000005
 11
1506.4288940000001
 21
804.07072449999998
  0
LINE
  8
_0-0_0
  6
CONTINUOUS
 62
    7
 10
1506.4288940000001
 20
803.92930550000005
 11
1506.4288940000001
 21
803.80000250000001
  0
LINE
  8
_0-0_0
  6
CONTINUOUS
 62
    7
 10
1506.4288940000001
 20
803.10002150000003
 11
1506.4288940000001
 21
803.80000250000001
  0
LINE
  8
_0-0_0
  6
CONTINUOUS
 62
    7
 10
1506.4288940000001
 20
802.90000950000001
 11
1506.4288940000001
 21
803.10002150000003
  0
LINE
  8
_0-0_0
  6
CONTINUOUS
 62
    7
 10
1506.4288940000001
 20
802.90000950000001
 11
1506.4288940000001
 21
802.70002750000003
  0
LINE
  8
_0-0_0
  6
CONTINUOUS
 62
    7
 10
1506.4288940000001
 20
802.00001550000002
 11
1506.4288940000001
 21
802.70002750000003
  0
LINE
  8
_0-0_0
  6
CONTINUOUS
 62
    7
 10
1506.4288940000001
 20
801.80000250000001
 11
1506.4288940000001
 21
802.00001550000002
  0
LINE
  8
_0-0_0
  6
CONTINUOUS
 62
    7
 10
1506.4288940000001
 20
801.80000250000001
 11
1506.4288940000001
 21
801.60002150000003
  0
LINE
  8
_0-0_0
  6
CONTINUOUS
 62
    7
 10
1506.4288940000001
 20
800.90000950000001
 11
1506.4288940000001
 21
801.60002150000003
  0
LINE
  8
_0-0_0
  6
CONTINUOUS
 62
    7
 10
1506.4288940000001
 20
800.70002750000003
 11
1506.4288940000001
 21
800.90000950000001
  0
LINE
  8
_0-0_0
  6
CONTINUOUS
 62
    7
 10
1506.4288940000001
 20
800.70002750000003
 11
1506.4288940000001
 21
800.50001550000002
  0
LINE
  8
_0-0_0
  6
CONTINUOUS
 62
    7
 10
1506.4288940000001
 20
799.80000250000001
 11
1506.4288940000001
 21
800.50001550000002
  0
LINE
  8
_0-0_0
  6
CONTINUOUS
 62
    7
 10
1506.4288940000001
 20
799.60002150000003
 11
1506.4288940000001
 21
799.80000250000001
  0
LINE
  8
_0-0_0
  6
CONTINUOUS
 62
    7
 10
1506.4288940000001
 20
799.60002150000003
 11
1506.4288940000001
 21
799.40000950000001
  0
LINE
  8
_0-0_0
  6
CONTINUOUS
 62
    7
 10
1506.4288940000001
 20
798.70002750000003
 11
1506.4288940000001
 21
799.40000950000001
  0
LINE
  8
_0-0_0
  6
CONTINUOUS
 62
    7
 10
1506.4288940000001
 20
798.50001550000002
 11
1506.4288940000001
 21
798.70002750000003
  0
LINE
  8
_0-0_0
  6
CONTINUOUS
 62
    7
 10
1506.4288940000001
 20
798.50001550000002
 11
1506.4288940000001
 21
798.30000250000001
  0
LINE
  8
_0-0_0
  6
CONTINUOUS
 62
    7
 10
1506.4288940000001
 20
797.60002150000003
 11
1506.4288940000001
 21
798.30000250000001
  0
LINE
  8
_0-0_0
  6
CONTINUOUS
 62
    7
 10
1506.4288940000001
 20
797.40000950000001
 11
1506.4288940000001
 21
797.60002150000003
  0
LINE
  8
_0-0_0
  6
CONTINUOUS
 62
    7
 10
1506.4288940000001
 20
797.40000950000001
 11
1506.4288940000001
 21
797.20002750000003
  0
LINE
  8
_0-0_0
  6
CONTINUOUS
 62
    7
 10
1506.4288940000001
 20
796.50001550000002
 11
1506.4288940000001
 21
797.20002750000003
  0
LINE
  8
_0-0_0
  6
CONTINUOUS
 62
    7
 10
1506.4288940000001
 20
796.30000250000001
 11
1506.4288940000001
 21
796.50001550000002
  0
LINE
  8
_0-0_0
  6
CONTINUOUS
 62
    7
 10
1506.4288940000001
 20
796.30000250000001
 11
1506.4288940000001
 21
796.10002150000003
  0
LINE
  8
_0-0_0
  6
CONTINUOUS
 62
    7
 10
1506.4288940000001
 20
795.40000950000001
 11
1506.4288940000001
 21
796.10002150000003
  0
LINE
  8
_0-0_0
  6
CONTINUOUS
 62
    7
 10
1506.4288940000001
 20
795.2707365
 11
1506.4288940000001
 21
795.40000950000001
  0
LINE
  8
_0-0_0
  6
CONTINUOUS
 62
    7
 10
1506.4288940000001
 20
795.12931849999995
 11
1506.4288940000001
 21
795.2707365
  0
LINE
  8
_0-0_0
  6
CONTINUOUS
 62
    7
 10
1506.4288940000001
 20
781.30000250000001
 11
1506.4288940000001
 21
781.80000250000001
  0
LINE
  8
_0-0_0
  6
CONTINUOUS
 62
    7
 10
1506.4288940000001
 20
809.80000250000001
 11
1506.4288940000001
 21
809.20603949999997
  0
LINE
  8
_0-0_0
  6
CONTINUOUS
 62
    7
 10
1506.4288940000001
 20
804.20002750000003
 11
1506.4288940000001
 21
809.20603949999997
  0
LINE
  8
_0-0_0
  6
CONTINUOUS
 62
    7
 10
1506.4288940000001
 20
804.07072449999998
 11
1506.4288940000001
 21
804.20002750000003
  0
LINE
  8
_0-0_0
  6
CONTINUOUS
 62
    7
 10
133.42896299999995
 20
781.30000250000001
 11
133.42896299999995
 21
781.80000250000001
  0
LINE
  8
_0-0_0
  6
CONTINUOUS
 62
    7
 10
133.42896299999995
 20
781.30000250000001
 11
1506.4288940000001
 21
781.30000250000001
  0
LINE
  8
_0-0_0
  6
CONTINUOUS
 62
    7
 10
133.42896299999995
 20
795.12931849999995
 11
133.42896299999995
 21
795.2707365
  0
LINE
  8
_0-0_0
  6
CONTINUOUS
 62
    7
 10
133.42896299999995
 20
795.12931849999995
 11
133.42896299999995
 21
795.00001550000002
  0
LINE
  8
_0-0_0
  6
CONTINUOUS
 62
    7
 10
133.42896299999995
 20
809.80000250000001
 11
133.42896299999995
 21
809.20603949999997
  0
LINE
  8
_0-0_0
  6
CONTINUOUS
 62
    7
 10
133.42896299999995
 20
804.20002750000003
 11
133.42896299999995
 21
809.20603949999997
  0
LINE
  8
_0-0_0
  6
CONTINUOUS
 62
    7
 10
133.42896299999995
 20
804.07072449999998
 11
133.42896299999995
 21
804.20002750000003
  0
LINE
  8
_0-0_0
  6
CONTINUOUS
 62
    7
 10
133.42896299999995
 20
803.92930550000005
 11
133.42896299999995
 21
804.07072449999998
  0
LINE
  8
_0-0_0
  6
CONTINUOUS
 62
    7
 10
133.42896299999995
 20
803.92930550000005
 11
133.42896299999995
 21
803.80000250000001
  0
LINE
  8
_0-0_0
  6
CONTINUOUS
 62
    7
 10
133.42896299999995
 20
803.10002150000003
 11
133.42896299999995
 21
803.80000250000001
  0
LINE
  8
_0-0_0
  6
CONTINUOUS
 62
    7
 10
133.42896299999995
 20
802.97071849999998
 11
133.42896299999995
 21
803.10002150000003
  0
LINE
  8
_0-0_0
  6
CONTINUOUS
 62
    7
 10
133.42896299999995
 20
802.82929950000005
 11
133.42896299999995
 21
802.97071849999998
  0
LINE
  8
_0-0_0
  6
CONTINUOUS
 62
    7
 10
133.42896299999995
 20
802.82929950000005
 11
133.42896299999995
 21
802.70002750000003
  0
LINE
  8
_0-0_0
  6
CONTINUOUS
 62
    7
 10
133.42896299999995
 20
802.00001550000002
 11
133.42896299999995
 21
802.70002750000003
  0
LINE
  8
_0-0_0
  6
CONTINUOUS
 62
    7
 10
133.42896299999995
 20
801.87074250000001
 11
133.42896299999995
 21
802.00001550000002
  0
LINE
  8
_0-0_0
  6
CONTINUOUS
 62
    7
 10
133.42896299999995
 20
801.72929350000004
 11
133.42896299999995
 21
801.87074250000001
  0
LINE
  8
_0-0_0
  6
CONTINUOUS
 62
    7
 10
133.42896299999995
 20
801.72929350000004
 11
133.42896299999995
 21
801.60002150000003
  0
LINE
  8
_0-0_0
  6
CONTINUOUS
 62
    7
 10
133.42896299999995
 20
800.90000950000001
 11
133.42896299999995
 21
801.60002150000003
  0
LINE
  8
_0-0_0
  6
CONTINUOUS
 62
    7
 10
133.42896299999995
 20
800.7707365
 11
133.42896299999995
 21
800.90000950000001
  0
LINE
  8
_0-0_0
  6
CONTINUOUS
 62
    7
 10
133.42896299999995
 20
800.62931849999995
 11
133.42896299999995
 21
800.7707365
  0
LINE
  8
_0-0_0
  6
CONTINUOUS
 62
    7
 10
133.42896299999995
 20
800.62931849999995
 11
133.42896299999995
 21
800.50001550000002
  0
LINE
  8
_0-0_0
  6
CONTINUOUS
 62
    7
 10
133.42896299999995
 20
799.80000250000001
 11
133.42896299999995
 21
800.50001550000002
  0
LINE
  8
_0-0_0
  6
CONTINUOUS
 62
    7
 10
133.42896299999995
 20
799.67073049999999
 11
133.42896299999995
 21
799.80000250000001
  0
LINE
  8
_0-0_0
  6
CONTINUOUS
 62
    7
 10
133.42896299999995
 20
799.52931149999995
 11
133.42896299999995
 21
799.67073049999999
  0
LINE
  8
_0-0_0
  6
CONTINUOUS
 62
    7
 10
133.42896299999995
 20
799.52931149999995
 11
133.42896299999995
 21
799.40000950000001
  0
LINE
  8
_0-0_0
  6
CONTINUOUS
 62
    7
 10
133.42896299999995
 20
798.70002750000003
 11
133.42896299999995
 21
799.40000950000001
  0
LINE
  8
_0-0_0
  6
CONTINUOUS
 62
    7
 10
133.42896299999995
 20
798.57072449999998
 11
133.42896299999995
 21
798.70002750000003
  0
LINE
  8
_0-0_0
  6
CONTINUOUS
 62
    7
 10
133.42896299999995
 20
798.42930550000005
 11
133.42896299999995
 21
798.57072449999998
  0
LINE
  8
_0-0_0
  6
CONTINUOUS
 62
    7
 10
133.42896299999995
 20
798.42930550000005
 11
133.42896299999995
 21
798.30000250000001
  0
LINE
  8
_0-0_0
  6
CONTINUOUS
 62
    7
 10
133.42896299999995
 20
797.60002150000003
 11
133.42896299999995
 21
798.30000250000001
  0
LINE
  8
_0-0_0
  6
CONTINUOUS
 62
    7
 10
133.42896299999995
 20
797.47071849999998
 11
133.42896299999995
 21
797.60002150000003
  0
LINE
  8
_0-0_0
  6
CONTINUOUS
 62
    7
 10
133.42896299999995
 20
797.32929950000005
 11
133.42896299999995
 21
797.47071849999998
  0
LINE
  8
_0-0_0
  6
CONTINUOUS
 62
    7
 10
133.42896299999995
 20
797.32929950000005
 11
133.42896299999995
 21
797.20002750000003
  0
LINE
  8
_0-0_0
  6
CONTINUOUS
 62
    7
 10
133.42896299999995
 20
796.50001550000002
 11
133.42896299999995
 21
797.20002750000003
  0
LINE
  8
_0-0_0
  6
CONTINUOUS
 62
    7
 10
133.42896299999995
 20
796.37074250000001
 11
133.42896299999995
 21
796.50001550000002
  0
LINE
  8
_0-0_0
  6
CONTINUOUS
 62
    7
 10
133.42896299999995
 20
796.22929350000004
 11
133.42896299999995
 21
796.37074250000001
  0
LINE
  8
_0-0_0
  6
CONTINUOUS
 62
    7
 10
133.42896299999995
 20
796.22929350000004
 11
133.42896299999995
 21
796.10002150000003
  0
LINE
  8
_0-0_0
  6
CONTINUOUS
 62
    7
 10
133.42896299999995
 20
795.40000950000001
 11
133.42896299999995
 21
796.10002150000003
  0
LINE
  8
_0-0_0
  6
CONTINUOUS
 62
    7
 10
133.42896299999995
 20
795.2707365
 11
133.42896299999995
 21
795.40000950000001
  0
LINE
  8
_0-0_0
  6
CONTINUOUS
 62
    7
 10
135.883736
 20
795.00001550000002
 11
135.79475400000001
 21
795.12931849999995
  0
LINE
  8
_0-0_0
  6
CONTINUOUS
 62
    7
 10
149.15631099999996
 20
795.2707365
 11
149.06317100000001
 21
795.12931849999995
  0
LINE
  8
_0-0_0
  6
CONTINUOUS
 62
    7
 10
149.15631099999996
 20
795.2707365
 11
149.23777799999993
 21
795.40000950000001
  0
ARC
  8
_0-0_0
  6
CONTINUOUS
 62
    7
 10
142.42896299999995
 20
799.60002150000003
 40
8
 50
328.33175599999993
 51
334.05550899999992
  0
LINE
  8
_0-0_0
  6
CONTINUOUS
 62
    7
 10
149.62271099999998
 20
796.10002150000003
 11
149.71662100000003
 21
796.30000250000001
  0
LINE
  8
_0-0_0
  6
CONTINUOUS
 62
    7
 10
149.71662100000003
 20
796.30000250000001
 11
149.80392499999994
 21
796.50001550000002
  0
ARC
  8
_0-0_0
  6
CONTINUOUS
 62
    7
 10
142.42896299999995
 20
799.60002150000003
 40
8
 50
337.20097500000003
 51
342.54240199999998
  0
LINE
  8
_0-0_0
  6
CONTINUOUS
 62
    7
 10
150.06047799999999
 20
797.20002750000003
 11
150.12051399999996
 21
797.40000950000001
  0
LINE
  8
_0-0_0
  6
CONTINUOUS
 62
    7
 10
150.12051399999996
 20
797.40000950000001
 11
150.17492700000003
 21
797.60002150000003
  0
ARC
  8
_0-0_0
  6
CONTINUOUS
 62
    7
 10
142.42896299999995
 20
799.60002150000003
 40
8
 50
345.52249499999999
 51
350.64797900000002
  0
LINE
  8
_0-0_0
  6
CONTINUOUS
 62
    7
 10
150.322632
 20
798.30000250000001
 11
150.352982
 21
798.50001550000002
  0
LINE
  8
_0-0_0
  6
CONTINUOUS
 62
    7
 10
150.352982
 20
798.50001550000002
 11
150.37817399999994
 21
798.70002750000003
  0
ARC
  8
_0-0_0
  6
CONTINUOUS
 62
    7
 10
142.42896299999995
 20
799.60002150000003
 40
8
 50
353.54056400000002
 51
358.56744600000002
  0
LINE
  8
_0-0_0
  6
CONTINUOUS
 62
    7
 10
150.426468
 20
799.40000950000001
 11
150.42896999999994
 21
799.60002150000003
  0
LINE
  8
_0-0_0
  6
CONTINUOUS
 62
    7
 10
134.42927599999996
 20
799.52931149999995
 11
134.42896299999995
 21
799.60002150000003
  0
LINE
  8
_0-0_0
  6
CONTINUOUS
 62
    7
 10
134.431465
 20
799.40000950000001
 11
134.42927599999996
 21
799.52931149999995
  0
ARC
  8
_0-0_0
  6
CONTINUOUS
 62
    7
 10
142.42896299999995
 20
799.60002150000003
 40
8
 50
181.432545
 51
186.45945499999999
  0
LINE
  8
_0-0_0
  6
CONTINUOUS
 62
    7
 10
134.495453
 20
798.57072449999998
 11
134.47975199999996
 21
798.70002750000003
  0
LINE
  8
_0-0_0
  6
CONTINUOUS
 62
    7
 10
134.495453
 20
798.57072449999998
 11
134.515083
 21
798.42930550000005
  0
LINE
  8
_0-0_0
  6
CONTINUOUS
 62
    7
 10
134.53529400000002
 20
798.30000250000001
 11
134.515083
 21
798.42930550000005
  0
ARC
  8
_0-0_0
  6
CONTINUOUS
 62
    7
 10
142.42896299999995
 20
799.60002150000003
 40
8
 50
189.35203999999999
 51
194.47751
  0
LINE
  8
_0-0_0
  6
CONTINUOUS
 62
    7
 10
134.71753699999999
 20
797.47071849999998
 11
134.682999
 21
797.60002150000003
  0
LINE
  8
_0-0_0
  6
CONTINUOUS
 62
    7
 10
134.71753699999999
 20
797.47071849999998
 11
134.75798799999995
 21
797.32929950000005
  0
LINE
  8
_0-0_0
  6
CONTINUOUS
 62
    7
 10
134.79744700000003
 20
797.20002750000003
 11
134.75798799999995
 21
797.32929950000005
  0
ARC
  8
_0-0_0
  6
CONTINUOUS
 62
    7
 10
142.42896299999995
 20
799.60002150000003
 40
8
 50
197.45760300000001
 51
202.79902999999999
  0
LINE
  8
_0-0_0
  6
CONTINUOUS
 62
    7
 10
135.10969499999999
 20
796.37074250000001
 11
135.05400899999995
 21
796.50001550000002
  0
LINE
  8
_0-0_0
  6
CONTINUOUS
 62
    7
 10
135.10969499999999
 20
796.37074250000001
 11
135.17373699999996
 21
796.22929350000004
  0
LINE
  8
_0-0_0
  6
CONTINUOUS
 62
    7
 10
135.23521400000004
 20
796.10002150000003
 11
135.17373699999996
 21
796.22929350000004
  0
ARC
  8
_0-0_0
  6
CONTINUOUS
 62
    7
 10
142.42896299999995
 20
799.60002150000003
 40
8
 50
205.94448199999999
 51
211.66823500000001
  0
LINE
  8
_0-0_0
  6
CONTINUOUS
 62
    7
 10
135.70161399999995
 20
795.2707365
 11
135.62014799999997
 21
795.40000950000001
  0
LINE
  8
_0-0_0
  6
CONTINUOUS
 62
    7
 10
135.70161399999995
 20
795.2707365
 11
135.79475400000001
 21
795.12931849999995
  0
LINE
  8
_0-0_0
  6
CONTINUOUS
 62
    7
 10
1440.4288940000001
 20
787.30000250000001
 11
1447.4288940000001
 21
787.30000250000001
  0
ARC
  8
_0-0_0
  6
CONTINUOUS
 62
    7
 10
1440.4288940000001
 20
786.80000250000001
 40
0.5
 50
90.000003000000007
 51
180.00000900000001
  0
LINE
  8
_0-0_0
  6
CONTINUOUS
 62
    7
 10
1439.9288940000001
 20
786.80000250000001
 11
1439.9288940000001
 21
782.80000250000001
  0
ARC
  8
_0-0_0
  6
CONTINUOUS
 62
    7
 10
1440.4288940000001
 20
782.80000250000001
 40
0.5
 50
180.00000900000003
 51
269.99999700000001
  0
LINE
  8
_0-0_0
  6
CONTINUOUS
 62
    7
 10
1447.4288940000001
 20
782.30000250000001
 11
1440.4288940000001
 21
782.30000250000001
  0
ARC
  8
_0-0_0
  6
CONTINUOUS
 62
    7
 10
1447.4288940000001
 20
782.80000250000001
 40
0.5
 50
269.99999700000001
 51
0
  0
LINE
  8
_0-0_0
  6
CONTINUOUS
 62
    7
 10
1447.9288940000001
 20
782.80000250000001
 11
1447.9288940000001
 21
786.80000250000001
  0
ARC
  8
_0-0_0
  6
CONTINUOUS
 62
    7
 10
1447.4288940000001
 20
786.80000250000001
 40
0.5
 50
0
 51
90.000003000000007
  0
ARC
  8
_0-0_0
  6
CONTINUOUS
 62
    7
 10
200.42895499999997
 20
786.80000250000001
 40
0.5
 50
90.000003000000007
 51
180.00000900000001
  0
LINE
  8
_0-0_0
  6
CONTINUOUS
 62
    7
 10
199.92895499999997
 20
786.80000250000001
 11
199.92895499999997
 21
782.80000250000001
  0
ARC
  8
_0-0_0
  6
CONTINUOUS
 62
    7
 10
200.42895499999997
 20
782.80000250000001
 40
0.5
 50
180.00000900000003
 51
269.99999700000001
  0
LINE
  8
_0-0_0
  6
CONTINUOUS
 62
    7
 10
207.42895499999997
 20
782.30000250000001
 11
200.42895499999997
 21
782.30000250000001
  0
ARC
  8
_0-0_0
  6
CONTINUOUS
 62
    7
 10
207.42895499999997
 20
782.80000250000001
 40
0.5
 50
269.99999700000001
 51
0
  0
LINE
  8
_0-0_0
  6
CONTINUOUS
 62
    7
 10
207.92895499999997
 20
782.80000250000001
 11
207.92895499999997
 21
786.80000250000001
  0
ARC
  8
_0-0_0
  6
CONTINUOUS
 62
    7
 10
207.42895499999997
 20
786.80000250000001
 40
0.5
 50
0
 51
90.000003000000007
  0
LINE
  8
_0-0_0
  6
CONTINUOUS
 62
    7
 10
200.42895499999997
 20
787.30000250000001
 11
207.42895499999997
 21
787.30000250000001
  0
LINE
  8
_0-0_0
  6
CONTINUOUS
 62
    7
 10
149.23777799999993
 20
795.40000950000001
 11
1490.6200560000002
 21
795.40000950000001
  0
LINE
  8
_0-0_0
  6
CONTINUOUS
 62
    7
 10
149.62271099999998
 20
796.10002150000003
 11
1490.235169
 21
796.10002150000003
  0
LINE
  8
_0-0_0
  6
CONTINUOUS
 62
    7
 10
149.71662100000003
 20
796.30000250000001
 11
1490.1411739999999
 21
796.30000250000001
  0
LINE
  8
_0-0_0
  6
CONTINUOUS
 62
    7
 10
149.80392499999994
 20
796.50001550000002
 11
1490.0538940000001
 21
796.50001550000002
  0
LINE
  8
_0-0_0
  6
CONTINUOUS
 62
    7
 10
150.06047799999999
 20
797.20002750000003
 11
1489.7974239999999
 21
797.20002750000003
  0
LINE
  8
_0-0_0
  6
CONTINUOUS
 62
    7
 10
150.12051399999996
 20
797.40000950000001
 11
1489.7373659999998
 21
797.40000950000001
  0
LINE
  8
_0-0_0
  6
CONTINUOUS
 62
    7
 10
150.17492700000003
 20
797.60002150000003
 11
1489.682922
 21
797.60002150000003
  0
LINE
  8
_0-0_0
  6
CONTINUOUS
 62
    7
 10
150.322632
 20
798.30000250000001
 11
1489.5352170000001
 21
798.30000250000001
  0
LINE
  8
_0-0_0
  6
CONTINUOUS
 62
    7
 10
150.352982
 20
798.50001550000002
 11
1489.5048219999999
 21
798.50001550000002
  0
LINE
  8
_0-0_0
  6
CONTINUOUS
 62
    7
 10
150.37817399999994
 20
798.70002750000003
 11
1489.479675
 21
798.70002750000003
  0
LINE
  8
_0-0_0
  6
CONTINUOUS
 62
    7
 10
150.426468
 20
799.40000950000001
 11
1489.4313349999998
 21
799.40000950000001
  0
LINE
  8
_0-0_0
  6
CONTINUOUS
 62
    7
 10
150.42896999999994
 20
799.60002150000003
 11
1489.4288940000001
 21
799.60002150000003
  0
LINE
  8
_0-0_0
  6
CONTINUOUS
 62
    7
 10
1503.9741819999999
 20
804.20002750000003
 11
1504.0630489999999
 21
804.07072449999998
  0
ARC
  8
_0-0_0
  6
CONTINUOUS
 62
    7
 10
1497.4288940000001
 20
799.60002150000003
 40
8
 50
35.099632
 51
144.900373
  0
LINE
  8
_0-0_0
  6
CONTINUOUS
 62
    7
 10
1490.8836059999999
 20
804.20002750000003
 11
1490.7947389999999
 21
804.07072449999998
  0
LINE
  8
_0-0_0
  6
CONTINUOUS
 62
    7
 10
1490.701599
 20
803.92930550000005
 11
1490.7947389999999
 21
804.07072449999998
  0
LINE
  8
_0-0_0
  6
CONTINUOUS
 62
    7
 10
1490.701599
 20
803.92930550000005
 11
1490.6200560000002
 21
803.80000250000001
  0
ARC
  8
_0-0_0
  6
CONTINUOUS
 62
    7
 10
1497.4288940000001
 20
799.60002150000003
 40
8
 50
148.33176499999999
 51
154.05551800000001
  0
LINE
  8
_0-0_0
  6
CONTINUOUS
 62
    7
 10
1490.235169
 20
803.10002150000003
 11
1490.1411739999999
 21
802.90000950000001
  0
LINE
  8
_0-0_0
  6
CONTINUOUS
 62
    7
 10
1490.1411739999999
 20
802.90000950000001
 11
1490.0538940000001
 21
802.70002750000003
  0
ARC
  8
_0-0_0
  6
CONTINUOUS
 62
    7
 10
1497.4288940000001
 20
799.60002150000003
 40
8
 50
157.20097000000001
 51
162.54239699999999
  0
LINE
  8
_0-0_0
  6
CONTINUOUS
 62
    7
 10
1489.7974239999999
 20
802.00001550000002
 11
1489.7373659999998
 21
801.80000250000001
  0
LINE
  8
_0-0_0
  6
CONTINUOUS
 62
    7
 10
1489.7373659999998
 20
801.80000250000001
 11
1489.682922
 21
801.60002150000003
  0
ARC
  8
_0-0_0
  6
CONTINUOUS
 62
    7
 10
1497.4288940000001
 20
799.60002150000003
 40
8
 50
165.52249
 51
170.64796000000001
  0
LINE
  8
_0-0_0
  6
CONTINUOUS
 62
    7
 10
1489.5352170000001
 20
800.90000950000001
 11
1489.5048219999999
 21
800.70002750000003
  0
LINE
  8
_0-0_0
  6
CONTINUOUS
 62
    7
 10
1489.5048219999999
 20
800.70002750000003
 11
1489.479675
 21
800.50001550000002
  0
ARC
  8
_0-0_0
  6
CONTINUOUS
 62
    7
 10
1497.4288940000001
 20
799.60002150000003
 40
8
 50
173.54054500000001
 51
178.567455
  0
LINE
  8
_0-0_0
  6
CONTINUOUS
 62
    7
 10
1489.4313349999998
 20
799.80000250000001
 11
1489.4288940000001
 21
799.60002150000003
  0
LINE
  8
_0-0_0
  6
CONTINUOUS
 62
    7
 10
1505.426453
 20
799.80000250000001
 11
1505.4288940000001
 21
799.60002150000003
  0
ARC
  8
_0-0_0
  6
CONTINUOUS
 62
    7
 10
1497.4288940000001
 20
799.60002150000003
 40
8
 50
1.432544
 51
6.4594489999999993
  0
LINE
  8
_0-0_0
  6
CONTINUOUS
 62
    7
 10
1505.3529659999999
 20
800.70002750000003
 11
1505.3781130000002
 21
800.50001550000002
  0
LINE
  8
_0-0_0
  6
CONTINUOUS
 62
    7
 10
1505.3225710000002
 20
800.90000950000001
 11
1505.3529659999999
 21
800.70002750000003
  0
ARC
  8
_0-0_0
  6
CONTINUOUS
 62
    7
 10
1497.4288940000001
 20
799.60002150000003
 40
8
 50
9.3520350000000008
 51
14.477510999999998
  0
LINE
  8
_0-0_0
  6
CONTINUOUS
 62
    7
 10
1505.120422
 20
801.80000250000001
 11
1505.1748659999998
 21
801.60002150000003
  0
LINE
  8
_0-0_0
  6
CONTINUOUS
 62
    7
 10
1505.0603639999999
 20
802.00001550000002
 11
1505.120422
 21
801.80000250000001
  0
ARC
  8
_0-0_0
  6
CONTINUOUS
 62
    7
 10
1497.4288940000001
 20
799.60002150000003
 40
8
 50
17.457602999999999
 51
22.799030999999999
  0
LINE
  8
_0-0_0
  6
CONTINUOUS
 62
    7
 10
1504.7166139999999
 20
802.90000950000001
 11
1504.8038940000001
 21
802.70002750000003
  0
LINE
  8
_0-0_0
  6
CONTINUOUS
 62
    7
 10
1504.6226200000001
 20
803.10002150000003
 11
1504.7166139999999
 21
802.90000950000001
  0
ARC
  8
_0-0_0
  6
CONTINUOUS
 62
    7
 10
1497.4288940000001
 20
799.60002150000003
 40
8
 50
25.944476999999999
 51
31.668240000000001
  0
LINE
  8
_0-0_0
  6
CONTINUOUS
 62
    7
 10
1504.1561889999998
 20
803.92930550000005
 11
1504.2377320000001
 21
803.80000250000001
  0
LINE
  8
_0-0_0
  6
CONTINUOUS
 62
    7
 10
1504.1561889999998
 20
803.92930550000005
 11
1504.0630489999999
 21
804.07072449999998
  0
CIRCLE
  8
_0-0_0
  6
CONTINUOUS
 62
    7
 10
1497.4288940000001
 20
799.60002150000003
 40
7.5
  0
LINE
  8
_0-0_0
  6
CONTINUOUS
 62
    7
 10
1505.426453
 20
799.40000950000001
 11
1506.4288940000001
 21
799.40000950000001
  0
LINE
  8
_0-0_0
  6
CONTINUOUS
 62
    7
 10
1505.4288940000001
 20
799.60002150000003
 11
1506.4288940000001
 21
799.60002150000003
  0
LINE
  8
_0-0_0
  6
CONTINUOUS
 62
    7
 10
1505.3781130000002
 20
798.70002750000003
 11
1506.4288940000001
 21
798.70002750000003
  0
LINE
  8
_0-0_0
  6
CONTINUOUS
 62
    7
 10
1505.3529659999999
 20
798.50001550000002
 11
1506.4288940000001
 21
798.50001550000002
  0
LINE
  8
_0-0_0
  6
CONTINUOUS
 62
    7
 10
1505.3225710000002
 20
798.30000250000001
 11
1506.4288940000001
 21
798.30000250000001
  0
LINE
  8
_0-0_0
  6
CONTINUOUS
 62
    7
 10
1505.1748659999998
 20
797.60002150000003
 11
1506.4288940000001
 21
797.60002150000003
  0
LINE
  8
_0-0_0
  6
CONTINUOUS
 62
    7
 10
1505.120422
 20
797.40000950000001
 11
1506.4288940000001
 21
797.40000950000001
  0
LINE
  8
_0-0_0
  6
CONTINUOUS
 62
    7
 10
1505.0603639999999
 20
797.20002750000003
 11
1506.4288940000001
 21
797.20002750000003
  0
LINE
  8
_0-0_0
  6
CONTINUOUS
 62
    7
 10
1504.8038940000001
 20
796.50001550000002
 11
1506.4288940000001
 21
796.50001550000002
  0
LINE
  8
_0-0_0
  6
CONTINUOUS
 62
    7
 10
1504.7166139999999
 20
796.30000250000001
 11
1506.4288940000001
 21
796.30000250000001
  0
LINE
  8
_0-0_0
  6
CONTINUOUS
 62
    7
 10
1504.6226200000001
 20
796.10002150000003
 11
1506.4288940000001
 21
796.10002150000003
  0
LINE
  8
_0-0_0
  6
CONTINUOUS
 62
    7
 10
1504.2377320000001
 20
795.40000950000001
 11
1506.4288940000001
 21
795.40000950000001
  0
LINE
  8
_0-0_0
  6
CONTINUOUS
 62
    7
 10
1504.2377320000001
 20
803.80000250000001
 11
1506.4288940000001
 21
803.80000250000001
  0
LINE
  8
_0-0_0
  6
CONTINUOUS
 62
    7
 10
1504.6226200000001
 20
803.10002150000003
 11
1506.4288940000001
 21
803.10002150000003
  0
LINE
  8
_0-0_0
  6
CONTINUOUS
 62
    7
 10
1504.7166139999999
 20
802.90000950000001
 11
1506.4288940000001
 21
802.90000950000001
  0
LINE
  8
_0-0_0
  6
CONTINUOUS
 62
    7
 10
1504.8038940000001
 20
802.70002750000003
 11
1506.4288940000001
 21
802.70002750000003
  0
LINE
  8
_0-0_0
  6
CONTINUOUS
 62
    7
 10
1505.0603639999999
 20
802.00001550000002
 11
1506.4288940000001
 21
802.00001550000002
  0
LINE
  8
_0-0_0
  6
CONTINUOUS
 62
    7
 10
1505.120422
 20
801.80000250000001
 11
1506.4288940000001
 21
801.80000250000001
  0
LINE
  8
_0-0_0
  6
CONTINUOUS
 62
    7
 10
1505.1748659999998
 20
801.60002150000003
 11
1506.4288940000001
 21
801.60002150000003
  0
LINE
  8
_0-0_0
  6
CONTINUOUS
 62
    7
 10
1505.3225710000002
 20
800.90000950000001
 11
1506.4288940000001
 21
800.90000950000001
  0
LINE
  8
_0-0_0
  6
CONTINUOUS
 62
    7
 10
1505.3529659999999
 20
800.70002750000003
 11
1506.4288940000001
 21
800.70002750000003
  0
LINE
  8
_0-0_0
  6
CONTINUOUS
 62
    7
 10
1505.3781130000002
 20
800.50001550000002
 11
1506.4288940000001
 21
800.50001550000002
  0
LINE
  8
_0-0_0
  6
CONTINUOUS
 62
    7
 10
1505.426453
 20
799.80000250000001
 11
1506.4288940000001
 21
799.80000250000001
  0
LINE
  8
_0-0_0
  6
CONTINUOUS
 62
    7
 10
1506.9288940000001
 20
783.10002150000003
 11
1506.4288940000001
 21
783.10002150000003
  0
LINE
  8
_0-0_0
  6
CONTINUOUS
 62
    7
 10
1506.9288940000001
 20
785.30000250000001
 11
1506.4288940000001
 21
785.30000250000001
  0
LINE
  8
_0-0_0
  6
CONTINUOUS
 62
    7
 10
1506.9288940000001
 20
787.60002150000003
 11
1506.4288940000001
 21
787.60002150000003
  0
LINE
  8
_0-0_0
  6
CONTINUOUS
 62
    7
 10
133.42896299999995
 20
787.60002150000003
 11
132.92896299999995
 21
787.60002150000003
  0
LINE
  8
_0-0_0
  6
CONTINUOUS
 62
    7
 10
1506.4288940000001
 20
789.90000950000001
 11
1506.9288940000001
 21
789.90000950000001
  0
LINE
  8
_0-0_0
  6
CONTINUOUS
 62
    7
 10
1506.9288940000001
 20
810.10002150000003
 11
1506.9288940000001
 21
810.00001550000002
  0
LINE
  8
_0-0_0
  6
CONTINUOUS
 62
    7
 10
132.92896299999995
 20
810.10002150000003
 11
132.92896299999995
 21
810.00001550000002
  0
LINE
  8
_0-0_0
  6
CONTINUOUS
 62
    7
 10
132.92896299999995
 20
789.90000950000001
 11
133.42896299999995
 21
789.90000950000001
  0
LINE
  8
_0-0_0
  6
CONTINUOUS
 62
    7
 10
133.42896299999995
 20
809.80000250000001
 11
1506.4288940000001
 21
809.80000250000001
  0
LINE
  8
_0-0_0
  6
CONTINUOUS
 62
    7
 10
133.42896299999995
 20
809.20603949999997
 11
1506.4288940000001
 21
809.20603949999997
  0
LINE
  8
_0-0_0
  6
CONTINUOUS
 62
    7
 10
1503.9741819999999
 20
804.20002750000003
 11
1506.4288940000001
 21
804.20002750000003
  0
LINE
  8
_0-0_0
  6
CONTINUOUS
 62
    7
 10
133.42896299999995
 20
804.20002750000003
 11
135.883736
 21
804.20002750000003
  0
ARC
  8
_0-0_0
  6
CONTINUOUS
 62
    7
 10
142.42896299999995
 20
799.60002150000003
 40
8
 50
35.099632
 51
144.900373
  0
LINE
  8
_0-0_0
  6
CONTINUOUS
 62
    7
 10
148.97419000000002
 20
804.20002750000003
 11
1490.8836059999999
 21
804.20002750000003
  0
LINE
  8
_0-0_0
  6
CONTINUOUS
 62
    7
 10
132.92896299999995
 20
783.10002150000003
 11
133.42896299999995
 21
783.10002150000003
  0
LINE
  8
_0-0_0
  6
CONTINUOUS
 62
    7
 10
133.42896299999995
 20
785.30000250000001
 11
132.92896299999995
 21
785.30000250000001
  0
LINE
  8
_0-0_0
  6
CONTINUOUS
 62
    7
 10
135.883736
 20
804.20002750000003
 11
135.79475400000001
 21
804.07072449999998
  0
LINE
  8
_0-0_0
  6
CONTINUOUS
 62
    7
 10
135.70161399999995
 20
803.92930550000005
 11
135.79475400000001
 21
804.07072449999998
  0
LINE
  8
_0-0_0
  6
CONTINUOUS
 62
    7
 10
133.42896299999995
 20
803.80000250000001
 11
135.62014799999997
 21
803.80000250000001
  0
LINE
  8
_0-0_0
  6
CONTINUOUS
 62
    7
 10
135.70161399999995
 20
803.92930550000005
 11
135.62014799999997
 21
803.80000250000001
  0
ARC
  8
_0-0_0
  6
CONTINUOUS
 62
    7
 10
142.42896299999995
 20
799.60002150000003
 40
8
 50
148.33176499999999
 51
154.05551800000001
  0
LINE
  8
_0-0_0
  6
CONTINUOUS
 62
    7
 10
133.42896299999995
 20
803.10002150000003
 11
135.23521400000004
 21
803.10002150000003
  0
LINE
  8
_0-0_0
  6
CONTINUOUS
 62
    7
 10
135.23521400000004
 20
803.10002150000003
 11
135.17373699999996
 21
802.97071849999998
  0
LINE
  8
_0-0_0
  6
CONTINUOUS
 62
    7
 10
135.10969499999999
 20
802.82929950000005
 11
135.17373699999996
 21
802.97071849999998
  0
LINE
  8
_0-0_0
  6
CONTINUOUS
 62
    7
 10
133.42896299999995
 20
802.70002750000003
 11
135.05400899999995
 21
802.70002750000003
  0
LINE
  8
_0-0_0
  6
CONTINUOUS
 62
    7
 10
135.10969499999999
 20
802.82929950000005
 11
135.05400899999995
 21
802.70002750000003
  0
ARC
  8
_0-0_0
  6
CONTINUOUS
 62
    7
 10
142.42896299999995
 20
799.60002150000003
 40
8
 50
157.20097000000001
 51
162.54239699999999
  0
LINE
  8
_0-0_0
  6
CONTINUOUS
 62
    7
 10
133.42896299999995
 20
802.00001550000002
 11
134.79744700000003
 21
802.00001550000002
  0
LINE
  8
_0-0_0
  6
CONTINUOUS
 62
    7
 10
134.79744700000003
 20
802.00001550000002
 11
134.75798799999995
 21
801.87074250000001
  0
LINE
  8
_0-0_0
  6
CONTINUOUS
 62
    7
 10
134.71753699999999
 20
801.72929350000004
 11
134.75798799999995
 21
801.87074250000001
  0
LINE
  8
_0-0_0
  6
CONTINUOUS
 62
    7
 10
133.42896299999995
 20
801.60002150000003
 11
134.682999
 21
801.60002150000003
  0
LINE
  8
_0-0_0
  6
CONTINUOUS
 62
    7
 10
134.71753699999999
 20
801.72929350000004
 11
134.682999
 21
801.60002150000003
  0
ARC
  8
_0-0_0
  6
CONTINUOUS
 62
    7
 10
142.42896299999995
 20
799.60002150000003
 40
8
 50
165.52249
 51
170.64796000000001
  0
LINE
  8
_0-0_0
  6
CONTINUOUS
 62
    7
 10
133.42896299999995
 20
800.90000950000001
 11
134.53529400000002
 21
800.90000950000001
  0
LINE
  8
_0-0_0
  6
CONTINUOUS
 62
    7
 10
134.53529400000002
 20
800.90000950000001
 11
134.515083
 21
800.7707365
  0
LINE
  8
_0-0_0
  6
CONTINUOUS
 62
    7
 10
134.495453
 20
800.62931849999995
 11
134.515083
 21
800.7707365
  0
LINE
  8
_0-0_0
  6
CONTINUOUS
 62
    7
 10
133.42896299999995
 20
800.50001550000002
 11
134.47975199999996
 21
800.50001550000002
  0
LINE
  8
_0-0_0
  6
CONTINUOUS
 62
    7
 10
134.495453
 20
800.62931849999995
 11
134.47975199999996
 21
800.50001550000002
  0
ARC
  8
_0-0_0
  6
CONTINUOUS
 62
    7
 10
142.42896299999995
 20
799.60002150000003
 40
8
 50
173.54054500000001
 51
178.567455
  0
LINE
  8
_0-0_0
  6
CONTINUOUS
 62
    7
 10
133.42896299999995
 20
799.80000250000001
 11
134.431465
 21
799.80000250000001
  0
LINE
  8
_0-0_0
  6
CONTINUOUS
 62
    7
 10
134.431465
 20
799.80000250000001
 11
134.42927599999996
 21
799.67073049999999
  0
LINE
  8
_0-0_0
  6
CONTINUOUS
 62
    7
 10
134.42896299999995
 20
799.60002150000003
 11
134.42927599999996
 21
799.67073049999999
  0
LINE
  8
_0-0_0
  6
CONTINUOUS
 62
    7
 10
133.42896299999995
 20
799.40000950000001
 11
134.431465
 21
799.40000950000001
  0
LINE
  8
_0-0_0
  6
CONTINUOUS
 62
    7
 10
133.42896299999995
 20
798.70002750000003
 11
134.47975199999996
 21
798.70002750000003
  0
LINE
  8
_0-0_0
  6
CONTINUOUS
 62
    7
 10
133.42896299999995
 20
798.30000250000001
 11
134.53529400000002
 21
798.30000250000001
  0
LINE
  8
_0-0_0
  6
CONTINUOUS
 62
    7
 10
133.42896299999995
 20
797.60002150000003
 11
134.682999
 21
797.60002150000003
  0
LINE
  8
_0-0_0
  6
CONTINUOUS
 62
    7
 10
133.42896299999995
 20
797.20002750000003
 11
134.79744700000003
 21
797.20002750000003
  0
LINE
  8
_0-0_0
  6
CONTINUOUS
 62
    7
 10
133.42896299999995
 20
796.50001550000002
 11
135.05400899999995
 21
796.50001550000002
  0
LINE
  8
_0-0_0
  6
CONTINUOUS
 62
    7
 10
133.42896299999995
 20
796.10002150000003
 11
135.23521400000004
 21
796.10002150000003
  0
LINE
  8
_0-0_0
  6
CONTINUOUS
 62
    7
 10
133.42896299999995
 20
795.40000950000001
 11
135.62014799999997
 21
795.40000950000001
  0
LINE
  8
_0-0_0
  6
CONTINUOUS
 62
    7
 10
150.426468
 20
799.80000250000001
 11
150.42896999999994
 21
799.60002150000003
  0
ARC
  8
_0-0_0
  6
CONTINUOUS
 62
    7
 10
142.42896299999995
 20
799.60002150000003
 40
8
 50
1.432544
 51
6.4594489999999993
  0
LINE
  8
_0-0_0
  6
CONTINUOUS
 62
    7
 10
150.352982
 20
800.70002750000003
 11
150.37817399999994
 21
800.50001550000002
  0
LINE
  8
_0-0_0
  6
CONTINUOUS
 62
    7
 10
150.322632
 20
800.90000950000001
 11
150.352982
 21
800.70002750000003
  0
ARC
  8
_0-0_0
  6
CONTINUOUS
 62
    7
 10
142.42896299999995
 20
799.60002150000003
 40
8
 50
9.3520350000000008
 51
14.477510999999998
  0
LINE
  8
_0-0_0
  6
CONTINUOUS
 62
    7
 10
150.12051399999996
 20
801.80000250000001
 11
150.17492700000003
 21
801.60002150000003
  0
LINE
  8
_0-0_0
  6
CONTINUOUS
 62
    7
 10
150.06047799999999
 20
802.00001550000002
 11
150.12051399999996
 21
801.80000250000001
  0
ARC
  8
_0-0_0
  6
CONTINUOUS
 62
    7
 10
142.42896299999995
 20
799.60002150000003
 40
8
 50
17.457602999999999
 51
22.799030999999999
  0
LINE
  8
_0-0_0
  6
CONTINUOUS
 62
    7
 10
149.71662100000003
 20
802.90000950000001
 11
149.80392499999994
 21
802.70002750000003
  0
LINE
  8
_0-0_0
  6
CONTINUOUS
 62
    7
 10
149.62271099999998
 20
803.10002150000003
 11
149.71662100000003
 21
802.90000950000001
  0
ARC
  8
_0-0_0
  6
CONTINUOUS
 62
    7
 10
142.42896299999995
 20
799.60002150000003
 40
8
 50
25.944476999999999
 51
31.668240000000001
  0
LINE
  8
_0-0_0
  6
CONTINUOUS
 62
    7
 10
149.15631099999996
 20
803.92930550000005
 11
149.23777799999993
 21
803.80000250000001
  0
LINE
  8
_0-0_0
  6
CONTINUOUS
 62
    7
 10
149.15631099999996
 20
803.92930550000005
 11
149.06317100000001
 21
804.07072449999998
  0
LINE
  8
_0-0_0
  6
CONTINUOUS
 62
    7
 10
148.97419000000002
 20
804.20002750000003
 11
149.06317100000001
 21
804.07072449999998
  0
CIRCLE
  8
_0-0_0
  6
CONTINUOUS
 62
    7
 10
142.42896299999995
 20
799.60002150000003
 40
7.5
  0
LINE
  8
_0-0_0
  6
CONTINUOUS
 62
    7
 10
150.426468
 20
799.80000250000001
 11
1489.4313349999998
 21
799.80000250000001
  0
LINE
  8
_0-0_0
  6
CONTINUOUS
 62
    7
 10
150.37817399999994
 20
800.50001550000002
 11
1489.479675
 21
800.50001550000002
  0
LINE
  8
_0-0_0
  6
CONTINUOUS
 62
    7
 10
150.352982
 20
800.70002750000003
 11
1489.5048219999999
 21
800.70002750000003
  0
LINE
  8
_0-0_0
  6
CONTINUOUS
 62
    7
 10
150.322632
 20
800.90000950000001
 11
1489.5352170000001
 21
800.90000950000001
  0
LINE
  8
_0-0_0
  6
CONTINUOUS
 62
    7
 10
150.17492700000003
 20
801.60002150000003
 11
1489.682922
 21
801.60002150000003
  0
LINE
  8
_0-0_0
  6
CONTINUOUS
 62
    7
 10
150.12051399999996
 20
801.80000250000001
 11
1489.7373659999998
 21
801.80000250000001
  0
LINE
  8
_0-0_0
  6
CONTINUOUS
 62
    7
 10
150.06047799999999
 20
802.00001550000002
 11
1489.7974239999999
 21
802.00001550000002
  0
LINE
  8
_0-0_0
  6
CONTINUOUS
 62
    7
 10
149.80392499999994
 20
802.70002750000003
 11
1490.0538940000001
 21
802.70002750000003
  0
LINE
  8
_0-0_0
  6
CONTINUOUS
 62
    7
 10
149.71662100000003
 20
802.90000950000001
 11
1490.1411739999999
 21
802.90000950000001
  0
LINE
  8
_0-0_0
  6
CONTINUOUS
 62
    7
 10
149.62271099999998
 20
803.10002150000003
 11
1490.235169
 21
803.10002150000003
  0
LINE
  8
_0-0_0
  6
CONTINUOUS
 62
    7
 10
149.23777799999993
 20
803.80000250000001
 11
1490.6200560000002
 21
803.80000250000001
  0
LINE
  8
_0-0_0
  6
CONTINUOUS
 62
    7
 10
1506.9288940000001
 20
781.60002150000003
 11
1506.4288940000001
 21
781.60002150000003
  0
LINE
  8
_0-0_0
  6
CONTINUOUS
 62
    7
 10
1506.9288940000001
 20
809.20002750000003
 11
1506.9288940000001
 21
810.00001550000002
  0
LINE
  8
_0-0_0
  6
CONTINUOUS
 62
    7
 10
1506.9288940000001
 20
781.40000950000001
 11
1506.9288940000001
 21
809.20002750000003
  0
ARC
  8
_0-0_0
  6
CONTINUOUS
 62
    7
 10
1497.4288940000001
 20
800.30000250000001
 40
12.800000000000001
 50
73.932597000000001
 51
106.06740099999999
  0
LINE
  8
_0-0_0
  6
CONTINUOUS
 62
    7
 10
132.92896299999995
 20
809.20002750000003
 11
132.92896299999995
 21
810.00001550000002
  0
LINE
  8
_0-0_0
  6
CONTINUOUS
 62
    7
 10
132.92896299999995
 20
781.40000950000001
 11
132.92896299999995
 21
809.20002750000003
  0
ARC
  8
_0-0_0
  6
CONTINUOUS
 62
    7
 10
142.42896299999995
 20
800.30000250000001
 40
12.800000000000001
 50
73.932597000000001
 51
106.06740099999999
  0
LINE
  8
_0-0_0
  6
CONTINUOUS
 62
    7
 10
810.42895499999997
 20
812.59999049999999
 11
810.42895499999997
 21
818.23991350000006
  0
LINE
  8
_0-0_0
  6
CONTINUOUS
 62
    7
 10
829.42895499999997
 20
818.23991350000006
 11
829.42895499999997
 21
812.59999049999999
  0
LINE
  8
_0-0_0
  6
CONTINUOUS
 62
    7
 10
1506.9288940000001
 20
810.10002150000003
 11
1506.9288940000001
 21
812.60002150000003
  0
LINE
  8
_0-0_0
  6
CONTINUOUS
 62
    7
 10
132.92896299999995
 20
812.60002150000003
 11
1506.9288940000001
 21
812.60002150000003
  0
LINE
  8
_0-0_0
  6
CONTINUOUS
 62
    7
 10
132.92896299999995
 20
810.10002150000003
 11
132.92896299999995
 21
812.60002150000003
  0
LINE
  8
_0-0_0
  6
CONTINUOUS
 62
    7
 10
132.92896299999995
 20
781.60002150000003
 11
133.42896299999995
 21
781.60002150000003
  0
ARC
  8
_0-0_0
  6
CONTINUOUS
 62
    7
 10
1445.2289430000001
 20
786.50001550000002
 40
0.2
 50
339.62356199999999
 51
90.000002999999978
  0
LINE
  8
_0-0_0
  6
CONTINUOUS
 62
    7
 10
1445.4163210000002
 20
786.43037449999997
 11
1444.1163940000001
 21
782.93037449999997
  0
ARC
  8
_0-0_0
  6
CONTINUOUS
 62
    7
 10
1443.9288940000001
 20
783.00001550000002
 40
0.2
 50
200.37643
 51
339.62356199999999
  0
LINE
  8
_0-0_0
  6
CONTINUOUS
 62
    7
 10
1442.4414670000001
 20
786.43037449999997
 11
1443.7413940000001
 21
782.93037449999997
  0
ARC
  8
_0-0_0
  6
CONTINUOUS
 62
    7
 10
1442.6288450000002
 20
786.50001550000002
 40
0.2
 50
90.000003000000007
 51
200.37643
  0
LINE
  8
_0-0_0
  6
CONTINUOUS
 62
    7
 10
1442.6288450000002
 20
786.70002750000003
 11
1445.2289430000001
 21
786.70002750000003
  0
ARC
  8
_0-0_0
  6
CONTINUOUS
 62
    7
 10
205.22895800000003
 20
786.50001550000002
 40
0.2
 50
339.62356199999999
 51
90.000002999999978
  0
LINE
  8
_0-0_0
  6
CONTINUOUS
 62
    7
 10
205.41644299999996
 20
786.43037449999997
 11
204.11644000000001
 21
782.93037449999997
  0
ARC
  8
_0-0_0
  6
CONTINUOUS
 62
    7
 10
203.92895499999997
 20
783.00001550000002
 40
0.2
 50
200.37643
 51
339.62356199999999
  0
LINE
  8
_0-0_0
  6
CONTINUOUS
 62
    7
 10
202.44146699999999
 20
786.43037449999997
 11
203.74146999999994
 21
782.93037449999997
  0
ARC
  8
_0-0_0
  6
CONTINUOUS
 62
    7
 10
202.62895200000003
 20
786.50001550000002
 40
0.2
 50
90.000003000000007
 51
200.37643
  0
LINE
  8
_0-0_0
  6
CONTINUOUS
 62
    7
 10
202.62895200000003
 20
786.70002750000003
 11
205.22895800000003
 21
786.70002750000003
  0
LINE
  8
_0-0_0
  6
CONTINUOUS
 62
    7
 10
1507.9288940000001
 20
809.20002750000003
 11
1506.9288940000001
 21
809.20002750000003
  0
LINE
  8
_0-0_0
  6
CONTINUOUS
 62
    7
 10
1507.9288940000001
 20
810.23701449999999
 11
1506.9288940000001
 21
810.23701449999999
  0
LINE
  8
_0-0_0
  6
CONTINUOUS
 62
    7
 10
1507.9288940000001
 20
781.40000950000001
 11
1506.9288940000001
 21
781.40000950000001
  0
ARC
  8
_0-0_0
  6
CONTINUOUS
 62
    7
 10
819.92895499999997
 20
800.30000250000001
 40
20.299999
 50
62.096725999999997
 51
117.903272
  0
CIRCLE
  8
_0-0_0
  6
CONTINUOUS
 62
    7
 10
819.92895499999997
 20
816.60002150000003
 40
2.5
  0
LINE
  8
_0-0_0
  6
CONTINUOUS
 62
    7
 10
131.92896299999995
 20
809.20002750000003
 11
132.92896299999995
 21
809.20002750000003
  0
LINE
  8
_0-0_0
  6
CONTINUOUS
 62
    7
 10
131.92896299999995
 20
810.20002750000003
 11
132.92896299999995
 21
810.20002750000003
  0
LINE
  8
_0-0_0
  6
CONTINUOUS
 62
    7
 10
131.92896299999995
 20
781.40000950000001
 11
132.92896299999995
 21
781.40000950000001
  0
LINE
  8
_0-0_0
  6
CONTINUOUS
 62
    7
 10
1507.9288940000001
 20
812.40000950000001
 11
1506.9288940000001
 21
812.40000950000001
  0
LINE
  8
_0-0_0
  6
CONTINUOUS
 62
    7
 10
131.92896299999995
 20
812.40000950000001
 11
132.92896299999995
 21
812.40000950000001
  0
LINE
  8
_0-0_0
  6
CONTINUOUS
 62
    7
 10
1508.9288940000001
 20
808.78581250000002
 11
1508.9279179999999
 21
808.80430550000005
  0
LINE
  8
_0-0_0
  6
CONTINUOUS
 62
    7
 10
1508.9279179999999
 20
808.80430550000005
 11
1508.9248659999998
 21
808.82273850000001
  0
LINE
  8
_0-0_0
  6
CONTINUOUS
 62
    7
 10
1508.9248659999998
 20
808.82273850000001
 11
1508.919617
 21
808.84187350000002
  0
LINE
  8
_0-0_0
  6
CONTINUOUS
 62
    7
 10
1508.919617
 20
808.84187350000002
 11
1508.9122929999999
 21
808.86091650000003
  0
LINE
  8
_0-0_0
  6
CONTINUOUS
 62
    7
 10
1508.9122929999999
 20
808.86091650000003
 11
1508.8917849999998
 21
808.8976285
  0
LINE
  8
_0-0_0
  6
CONTINUOUS
 62
    7
 10
1508.8917849999998
 20
808.8976285
 11
1508.8633420000001
 21
808.93330349999997
  0
LINE
  8
_0-0_0
  6
CONTINUOUS
 62
    7
 10
1508.8633420000001
 20
808.93330349999997
 11
1508.8274539999998
 21
808.96757449999996
  0
LINE
  8
_0-0_0
  6
CONTINUOUS
 62
    7
 10
1508.8274539999998
 20
808.96757449999996
 11
1508.7788700000001
 21
809.00404349999997
  0
LINE
  8
_0-0_0
  6
CONTINUOUS
 62
    7
 10
1508.7788700000001
 20
809.00404349999997
 11
1508.7221070000001
 21
809.0380705
  0
LINE
  8
_0-0_0
  6
CONTINUOUS
 62
    7
 10
1508.7221070000001
 20
809.0380705
 11
1508.6578979999999
 21
809.0693205
  0
LINE
  8
_0-0_0
  6
CONTINUOUS
 62
    7
 10
1508.6578979999999
 20
809.0693205
 11
1508.587219
 21
809.09754950000001
  0
LINE
  8
_0-0_0
  6
CONTINUOUS
 62
    7
 10
1508.587219
 20
809.09754950000001
 11
1508.5391239999999
 21
809.11390649999998
  0
LINE
  8
_0-0_0
  6
CONTINUOUS
 62
    7
 10
1508.5391239999999
 20
809.11390649999998
 11
1508.489075
 21
809.12892150000005
  0
LINE
  8
_0-0_0
  6
CONTINUOUS
 62
    7
 10
1508.489075
 20
809.12892150000005
 11
1508.4323119999999
 21
809.14369150000005
  0
LINE
  8
_0-0_0
  6
CONTINUOUS
 62
    7
 10
1508.4323119999999
 20
809.14369150000005
 11
1508.3737179999998
 21
809.15678349999996
  0
LINE
  8
_0-0_0
  6
CONTINUOUS
 62
    7
 10
1508.3737179999998
 20
809.15678349999996
 11
1508.2568970000002
 21
809.17707849999999
  0
LINE
  8
_0-0_0
  6
CONTINUOUS
 62
    7
 10
1508.2568970000002
 20
809.17707849999999
 11
1508.1495970000001
 21
809.18980350000004
  0
LINE
  8
_0-0_0
  6
CONTINUOUS
 62
    7
 10
1508.1495970000001
 20
809.18980350000004
 11
1508.039734
 21
809.19746350000003
  0
LINE
  8
_0-0_0
  6
CONTINUOUS
 62
    7
 10
1508.039734
 20
809.19746350000003
 11
1507.9288940000001
 21
809.20002750000003
  0
LINE
  8
_0-0_0
  6
CONTINUOUS
 62
    7
 10
1508.9288940000001
 20
808.78581250000002
 11
1508.9288940000001
 21
809.78587349999998
  0
LINE
  8
_0-0_0
  6
CONTINUOUS
 62
    7
 10
1508.9288940000001
 20
809.78587349999998
 11
1508.925964
 21
809.81742850000001
  0
LINE
  8
_0-0_0
  6
CONTINUOUS
 62
    7
 10
1508.925964
 20
809.81742850000001
 11
1508.917297
 21
809.84950249999997
  0
LINE
  8
_0-0_0
  6
CONTINUOUS
 62
    7
 10
1508.917297
 20
809.84950249999997
 11
1508.902771
 21
809.88179049999997
  0
LINE
  8
_0-0_0
  6
CONTINUOUS
 62
    7
 10
1508.902771
 20
809.88179049999997
 11
1508.8825069999998
 21
809.91395550000004
  0
LINE
  8
_0-0_0
  6
CONTINUOUS
 62
    7
 10
1508.8825069999998
 20
809.91395550000004
 11
1508.865906
 21
809.93516550000004
  0
LINE
  8
_0-0_0
  6
CONTINUOUS
 62
    7
 10
1508.865906
 20
809.93516550000004
 11
1508.8469850000001
 21
809.95613049999997
  0
LINE
  8
_0-0_0
  6
CONTINUOUS
 62
    7
 10
1508.8469850000001
 20
809.95613049999997
 11
1508.802185
 21
809.99690250000003
  0
LINE
  8
_0-0_0
  6
CONTINUOUS
 62
    7
 10
1508.802185
 20
809.99690250000003
 11
1508.7489620000001
 21
810.03565949999995
  0
LINE
  8
_0-0_0
  6
CONTINUOUS
 62
    7
 10
1508.7489620000001
 20
810.03565949999995
 11
1508.699036
 21
810.06587249999995
  0
LINE
  8
_0-0_0
  6
CONTINUOUS
 62
    7
 10
1508.699036
 20
810.06587249999995
 11
1508.6443479999998
 21
810.09407050000004
  0
LINE
  8
_0-0_0
  6
CONTINUOUS
 62
    7
 10
1508.6443479999998
 20
810.09407050000004
 11
1508.585388
 21
810.12013249999995
  0
LINE
  8
_0-0_0
  6
CONTINUOUS
 62
    7
 10
1508.585388
 20
810.12013249999995
 11
1508.5386349999999
 21
810.13810750000005
  0
LINE
  8
_0-0_0
  6
CONTINUOUS
 62
    7
 10
1508.5386349999999
 20
810.13810750000005
 11
1508.4899289999998
 21
810.15470849999997
  0
LINE
  8
_0-0_0
  6
CONTINUOUS
 62
    7
 10
1508.4899289999998
 20
810.15470849999997
 11
1508.3875119999998
 21
810.18360849999999
  0
LINE
  8
_0-0_0
  6
CONTINUOUS
 62
    7
 10
1508.3875119999998
 20
810.18360849999999
 11
1508.2798459999999
 21
810.2064365
  0
LINE
  8
_0-0_0
  6
CONTINUOUS
 62
    7
 10
1508.2798459999999
 20
810.2064365
 11
1508.1681520000002
 21
810.22300749999999
  0
LINE
  8
_0-0_0
  6
CONTINUOUS
 62
    7
 10
1508.1681520000002
 20
810.22300749999999
 11
1508.054138
 21
810.23319949999996
  0
LINE
  8
_0-0_0
  6
CONTINUOUS
 62
    7
 10
1508.054138
 20
810.23319949999996
 11
1507.9288940000001
 21
810.23701449999999
  0
ARC
  8
_0-0_0
  6
CONTINUOUS
 62
    7
 10
1507.9288940000001
 20
782.40000950000001
 40
1
 50
269.99999700000001
 51
0
  0
LINE
  8
_0-0_0
  6
CONTINUOUS
 62
    7
 10
1508.9288940000001
 20
782.40000950000001
 11
1508.9288940000001
 21
808.78581250000002
  0
LINE
  8
_0-0_0
  6
CONTINUOUS
 62
    7
 10
130.92896299999995
 20
808.78581250000002
 11
130.92996199999993
 21
808.80430550000005
  0
LINE
  8
_0-0_0
  6
CONTINUOUS
 62
    7
 10
130.92996199999993
 20
808.80430550000005
 11
130.93296099999998
 21
808.82273850000001
  0
LINE
  8
_0-0_0
  6
CONTINUOUS
 62
    7
 10
130.93296099999998
 20
808.82273850000001
 11
130.93819399999995
 21
808.84187350000002
  0
LINE
  8
_0-0_0
  6
CONTINUOUS
 62
    7
 10
130.93819399999995
 20
808.84187350000002
 11
130.94557199999997
 21
808.86091650000003
  0
LINE
  8
_0-0_0
  6
CONTINUOUS
 62
    7
 10
130.94557199999997
 20
808.86091650000003
 11
130.96612600000003
 21
808.8976285
  0
LINE
  8
_0-0_0
  6
CONTINUOUS
 62
    7
 10
130.96612600000003
 20
808.8976285
 11
130.99452199999996
 21
808.93330349999997
  0
LINE
  8
_0-0_0
  6
CONTINUOUS
 62
    7
 10
130.99452199999996
 20
808.93330349999997
 11
131.03040299999998
 21
808.96757449999996
  0
LINE
  8
_0-0_0
  6
CONTINUOUS
 62
    7
 10
131.03040299999998
 20
808.96757449999996
 11
131.079025
 21
809.00404349999997
  0
LINE
  8
_0-0_0
  6
CONTINUOUS
 62
    7
 10
131.079025
 20
809.00404349999997
 11
131.13581099999999
 21
809.0380705
  0
LINE
  8
_0-0_0
  6
CONTINUOUS
 62
    7
 10
131.13581099999999
 20
809.0380705
 11
131.19995099999994
 21
809.0693205
  0
LINE
  8
_0-0_0
  6
CONTINUOUS
 62
    7
 10
131.19995099999994
 20
809.0693205
 11
131.27059899999995
 21
809.09754950000001
  0
LINE
  8
_0-0_0
  6
CONTINUOUS
 62
    7
 10
131.27059899999995
 20
809.09754950000001
 11
131.31867999999997
 21
809.11390649999998
  0
LINE
  8
_0-0_0
  6
CONTINUOUS
 62
    7
 10
131.31867999999997
 20
809.11390649999998
 11
131.36882000000003
 21
809.12892150000005
  0
LINE
  8
_0-0_0
  6
CONTINUOUS
 62
    7
 10
131.36882000000003
 20
809.12892150000005
 11
131.425522
 21
809.14369150000005
  0
LINE
  8
_0-0_0
  6
CONTINUOUS
 62
    7
 10
131.425522
 20
809.14369150000005
 11
131.48412299999995
 21
809.15678349999996
  0
LINE
  8
_0-0_0
  6
CONTINUOUS
 62
    7
 10
131.48412299999995
 20
809.15678349999996
 11
131.60090600000001
 21
809.17707849999999
  0
LINE
  8
_0-0_0
  6
CONTINUOUS
 62
    7
 10
131.60090600000001
 20
809.17707849999999
 11
131.70831299999998
 21
809.18980350000004
  0
LINE
  8
_0-0_0
  6
CONTINUOUS
 62
    7
 10
131.70831299999998
 20
809.18980350000004
 11
131.81807700000002
 21
809.19746350000003
  0
LINE
  8
_0-0_0
  6
CONTINUOUS
 62
    7
 10
131.81807700000002
 20
809.19746350000003
 11
131.92896299999995
 21
809.20002750000003
  0
LINE
  8
_0-0_0
  6
CONTINUOUS
 62
    7
 10
130.92896299999995
 20
809.75547749999998
 11
130.93185399999993
 21
809.7863615
  0
LINE
  8
_0-0_0
  6
CONTINUOUS
 62
    7
 10
130.93185399999993
 20
809.7863615
 11
130.94055200000003
 21
809.81782550000003
  0
LINE
  8
_0-0_0
  6
CONTINUOUS
 62
    7
 10
130.94055200000003
 20
809.81782550000003
 11
130.95503199999996
 21
809.84947150000005
  0
LINE
  8
_0-0_0
  6
CONTINUOUS
 62
    7
 10
130.95503199999996
 20
809.84947150000005
 11
130.97520499999996
 21
809.8810575
  0
LINE
  8
_0-0_0
  6
CONTINUOUS
 62
    7
 10
130.97520499999996
 20
809.8810575
 11
130.99172199999998
 21
809.90193150000005
  0
LINE
  8
_0-0_0
  6
CONTINUOUS
 62
    7
 10
130.99172199999998
 20
809.90193150000005
 11
131.010628
 21
809.92256150000003
  0
LINE
  8
_0-0_0
  6
CONTINUOUS
 62
    7
 10
131.010628
 20
809.92256150000003
 11
131.05526699999996
 21
809.96272250000004
  0
LINE
  8
_0-0_0
  6
CONTINUOUS
 62
    7
 10
131.05526699999996
 20
809.96272250000004
 11
131.10839799999997
 21
810.00090050000006
  0
LINE
  8
_0-0_0
  6
CONTINUOUS
 62
    7
 10
131.10839799999997
 20
810.00090050000006
 11
131.15829499999995
 21
810.03071550000004
  0
LINE
  8
_0-0_0
  6
CONTINUOUS
 62
    7
 10
131.15829499999995
 20
810.03071550000004
 11
131.21296699999994
 21
810.05860849999999
  0
LINE
  8
_0-0_0
  6
CONTINUOUS
 62
    7
 10
131.21296699999994
 20
810.05860849999999
 11
131.27193499999998
 21
810.08433549999995
  0
LINE
  8
_0-0_0
  6
CONTINUOUS
 62
    7
 10
131.27193499999998
 20
810.08433549999995
 11
131.31869499999993
 21
810.10212650000005
  0
LINE
  8
_0-0_0
  6
CONTINUOUS
 62
    7
 10
131.31869499999993
 20
810.10212650000005
 11
131.36740099999997
 21
810.11854549999998
  0
LINE
  8
_0-0_0
  6
CONTINUOUS
 62
    7
 10
131.36740099999997
 20
810.11854549999998
 11
131.46983299999999
 21
810.14714049999998
  0
LINE
  8
_0-0_0
  6
CONTINUOUS
 62
    7
 10
131.46983299999999
 20
810.14714049999998
 11
131.57765199999994
 21
810.16972350000003
  0
LINE
  8
_0-0_0
  6
CONTINUOUS
 62
    7
 10
131.57765199999994
 20
810.16972350000003
 11
131.68933900000002
 21
810.18614149999996
  0
LINE
  8
_0-0_0
  6
CONTINUOUS
 62
    7
 10
131.68933900000002
 20
810.18614149999996
 11
131.80349699999999
 21
810.19624350000004
  0
LINE
  8
_0-0_0
  6
CONTINUOUS
 62
    7
 10
131.80349699999999
 20
810.19624350000004
 11
131.92896299999995
 21
810.20002750000003
  0
LINE
  8
_0-0_0
  6
CONTINUOUS
 62
    7
 10
130.92896299999995
 20
808.78581250000002
 11
130.92896299999995
 21
809.75547749999998
  0
ARC
  8
_0-0_0
  6
CONTINUOUS
 62
    7
 10
131.92896299999995
 20
782.40000950000001
 40
1
 50
180.00000900000003
 51
269.99999700000001
  0
LINE
  8
_0-0_0
  6
CONTINUOUS
 62
    7
 10
130.92896299999995
 20
782.40000950000001
 11
130.92896299999995
 21
808.78581250000002
  0
CIRCLE
  8
_0-0_0
  6
CONTINUOUS
 62
    7
 10
142.42896299999995
 20
799.60002150000003
 40
5
  0
CIRCLE
  8
_0-0_0
  6
CONTINUOUS
 62
    7
 10
1497.4288940000001
 20
799.60002150000003
 40
5
  0
LINE
  8
_0-0_0
  6
CONTINUOUS
 62
    7
 10
1508.9288940000001
 20
809.78587349999998
 11
1508.9288940000001
 21
811.40000950000001
  0
ARC
  8
_0-0_0
  6
CONTINUOUS
 62
    7
 10
1507.9288940000001
 20
811.40000950000001
 40
1
 50
0
 51
90.000003000000007
  0
ARC
  8
_0-0_0
  6
CONTINUOUS
 62
    7
 10
131.92896299999995
 20
811.40000950000001
 40
1
 50
90.000003000000007
 51
180.00000900000001
  0
LINE
  8
_0-0_0
  6
CONTINUOUS
 62
    7
 10
130.92896299999995
 20
809.75547749999998
 11
130.92896299999995
 21
811.40000950000001
  0
LINE
  8
_0-0_0
  6
CONTINUOUS
 62
    7
 10
43.113296999999989
 20
779.29994150000005
 11
43.113296999999989
 21
779.27494750000005
  0
LINE
  8
_0-0_0
  6
CONTINUOUS
 62
    7
 10
43.113296999999989
 20
776.2228235
 11
43.113296999999989
 21
776.32493550000004
  0
LINE
  8
_0-0_0
  6
CONTINUOUS
 62
    7
 10
43.113296999999989
 20
755.19993550000004
 11
43.113296999999989
 21
755.97706549999998
  0
LINE
  8
_0-0_0
  6
CONTINUOUS
 62
    7
 10
26.313292999999931
 20
755.19993550000004
 11
43.113296999999989
 21
755.19993550000004
  0
LINE
  8
_0-0_0
  6
CONTINUOUS
 62
    7
 10
26.313292999999931
 20
763.09992950000003
 11
26.313292999999931
 21
755.19993550000004
  0
LINE
  8
_0-0_0
  6
CONTINUOUS
 62
    7
 10
26.313292999999931
 20
775.55525150000005
 11
26.313292999999931
 21
769.09992950000003
  0
LINE
  8
_0-0_0
  6
CONTINUOUS
 62
    7
 10
43.613280999999915
 20
758.69993550000004
 11
43.813292999999931
 21
758.69993550000004
  0
LINE
  8
_0-0_0
  6
CONTINUOUS
 62
    7
 10
43.813292999999931
 20
758.69993550000004
 11
43.813292999999931
 21
761.69993550000004
  0
LINE
  8
_0-0_0
  6
CONTINUOUS
 62
    7
 10
43.813292999999931
 20
775.29994150000005
 11
43.813292999999931
 21
761.69993550000004
  0
LINE
  8
_0-0_0
  6
CONTINUOUS
 62
    7
 10
43.613280999999915
 20
778.29994150000005
 11
43.813292999999931
 21
778.29994150000005
  0
LINE
  8
_0-0_0
  6
CONTINUOUS
 62
    7
 10
43.813292999999931
 20
775.29994150000005
 11
43.813292999999931
 21
778.29994150000005
  0
LINE
  8
_0-0_0
  6
CONTINUOUS
 62
    7
 10
42.913299999999936
 20
777.59901449999995
 11
42.913299999999936
 21
776.41981450000003
  0
LINE
  8
_0-0_0
  6
CONTINUOUS
 62
    7
 10
42.913299999999936
 20
779.79994150000005
 11
42.913299999999936
 21
779.29994150000005
  0
LINE
  8
_0-0_0
  6
CONTINUOUS
 62
    7
 10
41.913299999999936
 20
776.88343750000001
 11
41.913299999999936
 21
777.59992950000003
  0
ARC
  8
_0-0_0
  6
CONTINUOUS
 62
    7
 10
41.613296999999989
 20
774.89994750000005
 40
2
 50
0
 51
90.000003000000007
  0
LINE
  8
_0-0_0
  6
CONTINUOUS
 62
    7
 10
43.613296999999989
 20
771.39994750000005
 11
43.613296999999989
 21
774.39994750000005
  0
LINE
  8
_0-0_0
  6
CONTINUOUS
 62
    7
 10
43.613296999999989
 20
774.39994750000005
 11
43.613296999999989
 21
774.89994750000005
  0
LINE
  8
_0-0_0
  6
CONTINUOUS
 62
    7
 10
43.613296999999989
 20
757.29994150000005
 11
43.613296999999989
 21
770.89994750000005
  0
LINE
  8
_0-0_0
  6
CONTINUOUS
 62
    7
 10
43.613296999999989
 20
771.39994750000005
 11
43.613296999999989
 21
770.89994750000005
  0
ARC
  8
_0-0_0
  6
CONTINUOUS
 62
    7
 10
41.613296999999989
 20
757.29994150000005
 40
2
 50
273.84026500000004
 51
0.000010000000014
  0
LINE
  8
_0-0_0
  6
CONTINUOUS
 62
    7
 10
28.313292999999931
 20
776.88343750000001
 11
28.313292999999931
 21
777.59992950000003
  0
LINE
  8
_0-0_0
  6
CONTINUOUS
 62
    7
 10
28.313292999999931
 20
776.88343750000001
 11
28.313292999999931
 21
776.87730350000004
  0
LINE
  8
_0-0_0
  6
CONTINUOUS
 62
    7
 10
26.313292999999931
 20
775.55525150000005
 11
26.313292999999931
 21
776.05525150000005
  0
LINE
  8
_0-0_0
  6
CONTINUOUS
 62
    7
 10
26.613296999999989
 20
774.89994750000005
 11
26.613296999999989
 21
761.29994150000005
  0
LINE
  8
_0-0_0
  6
CONTINUOUS
 62
    7
 10
26.613296999999989
 20
760.79994150000005
 11
26.613296999999989
 21
761.29994150000005
  0
LINE
  8
_0-0_0
  6
CONTINUOUS
 62
    7
 10
26.613296999999989
 20
757.79994150000005
 11
26.613296999999989
 21
760.79994150000005
  0
LINE
  8
_0-0_0
  6
CONTINUOUS
 62
    7
 10
26.613296999999989
 20
757.29994150000005
 11
26.613296999999989
 21
757.79994150000005
  0
ARC
  8
_0-0_0
  6
CONTINUOUS
 62
    7
 10
28.613296999999989
 20
774.89994750000005
 40
2
 50
93.840255999999997
 51
180.00000900000001
  0
LINE
  8
_0-0_0
  6
CONTINUOUS
 62
    7
 10
26.313292999999931
 20
763.09992950000003
 11
26.313292999999931
 21
769.09992950000003
  0
LINE
  8
_0-0_0
  6
CONTINUOUS
 62
    7
 10
26.313292999999931
 20
777.59992950000003
 11
26.313292999999931
 21
776.05525150000005
  0
LINE
  8
_0-0_0
  6
CONTINUOUS
 62
    7
 10
26.313292999999931
 20
769.09992950000003
 11
26.613280999999915
 21
769.09992950000003
  0
LINE
  8
_0-0_0
  6
CONTINUOUS
 62
    7
 10
26.313292999999931
 20
763.09992950000003
 11
26.613280999999915
 21
763.09992950000003
  0
LINE
  8
_0-0_0
  6
CONTINUOUS
 62
    7
 10
41.613296999999989
 20
755.29994150000005
 11
32.613296999999989
 21
755.29994150000005
  0
LINE
  8
_0-0_0
  6
CONTINUOUS
 62
    7
 10
29.113296999999989
 20
755.29994150000005
 11
28.613296999999989
 21
755.29994150000005
  0
LINE
  8
_0-0_0
  6
CONTINUOUS
 62
    7
 10
32.113296999999989
 20
755.29994150000005
 11
29.113296999999989
 21
755.29994150000005
  0
LINE
  8
_0-0_0
  6
CONTINUOUS
 62
    7
 10
32.613296999999989
 20
755.29994150000005
 11
32.113296999999989
 21
755.29994150000005
  0
ARC
  8
_0-0_0
  6
CONTINUOUS
 62
    7
 10
28.613296999999989
 20
757.29994150000005
 40
2
 50
180.00000900000003
 51
269.99999700000001
  0
ARC
  8
_0-0_0
  6
CONTINUOUS
 62
    7
 10
42.413299999999936
 20
779.79994150000005
 40
0.5
 50
0
 51
90.000003000000007
  0
LINE
  8
_0-0_0
  6
CONTINUOUS
 62
    7
 10
40.913299999999936
 20
780.29994150000005
 11
42.413299999999936
 21
780.29994150000005
  0
ARC
  8
_0-0_0
  6
CONTINUOUS
 62
    7
 10
40.913299999999936
 20
781.29994150000005
 40
1
 50
180.00000900000003
 51
269.99999700000001
  0
LINE
  8
_0-0_0
  6
CONTINUOUS
 62
    7
 10
39.913299999999936
 20
781.29994150000005
 11
39.913299999999936
 21
781.40003950000005
  0
LINE
  8
_0-0_0
  6
CONTINUOUS
 62
    7
 10
39.413299999999936
 20
780.29994150000005
 11
39.413299999999936
 21
781.40003950000005
  0
ARC
  8
_0-0_0
  6
CONTINUOUS
 62
    7
 10
40.413299999999936
 20
780.29994150000005
 40
1
 50
180.00000900000003
 51
269.99999700000001
  0
LINE
  8
_0-0_0
  6
CONTINUOUS
 62
    7
 10
40.413299999999936
 20
779.29994150000005
 11
40.213287000000037
 21
779.29994150000005
  0
ARC
  8
_0-0_0
  6
CONTINUOUS
 62
    7
 10
40.213287000000037
 20
780.29994150000005
 40
1
 50
180.00000900000003
 51
269.99999700000001
  0
ARC
  8
_0-0_0
  6
CONTINUOUS
 62
    7
 10
30.013289999999984
 20
780.29994150000005
 40
1
 50
269.99999700000001
 51
0
  0
LINE
  8
_0-0_0
  6
CONTINUOUS
 62
    7
 10
30.013289999999984
 20
779.29994150000005
 11
29.313292999999931
 21
779.29994150000005
  0
LINE
  8
_0-0_0
  6
CONTINUOUS
 62
    7
 10
43.113296999999989
 20
779.29994150000005
 11
42.913299999999936
 21
779.29994150000005
  0
LINE
  8
_0-0_0
  6
CONTINUOUS
 62
    7
 10
26.313292999999931
 20
777.59992950000003
 11
43.113296999999989
 21
777.59992950000003
  0
LINE
  8
_0-0_0
  6
CONTINUOUS
 62
    7
 10
43.113296999999989
 20
777.59992950000003
 11
43.113296999999989
 21
779.29994150000005
  0
LINE
  8
_0-0_0
  6
CONTINUOUS
 62
    7
 10
39.213287000000037
 20
781.40003950000005
 11
39.213287000000037
 21
780.29994150000005
  0
LINE
  8
_0-0_0
  6
CONTINUOUS
 62
    7
 10
31.013289999999984
 20
780.29994150000005
 11
31.013289999999984
 21
781.40003950000005
  0
LINE
  8
_0-0_0
  6
CONTINUOUS
 62
    7
 10
27.313292999999931
 20
779.29994150000005
 11
26.313292999999931
 21
779.29994150000005
  0
LINE
  8
_0-0_0
  6
CONTINUOUS
 62
    7
 10
26.313292999999931
 20
777.59992950000003
 11
26.313292999999931
 21
779.29994150000005
  0
LINE
  8
_0-0_0
  6
CONTINUOUS
 62
    7
 10
41.613296999999989
 20
776.89994750000005
 11
41.113296999999989
 21
776.89994750000005
  0
CIRCLE
  8
_0-0_0
  6
CONTINUOUS
 62
    7
 10
41.113296999999989
 20
774.39994750000005
 40
2.5
  0
LINE
  8
_0-0_0
  6
CONTINUOUS
 62
    7
 10
28.613296999999989
 20
776.89994750000005
 11
37.613296999999989
 21
776.89994750000005
  0
LINE
  8
_0-0_0
  6
CONTINUOUS
 62
    7
 10
41.113296999999989
 20
776.89994750000005
 11
38.113296999999989
 21
776.89994750000005
  0
LINE
  8
_0-0_0
  6
CONTINUOUS
 62
    7
 10
37.613296999999989
 20
776.89994750000005
 11
38.113296999999989
 21
776.89994750000005
  0
ARC
  8
_0-0_0
  6
CONTINUOUS
 62
    7
 10
43.113296999999989
 20
770.89994750000005
 40
0.5
 50
0
 51
90.000003000000007
  0
LINE
  8
_0-0_0
  6
CONTINUOUS
 62
    7
 10
41.613296999999989
 20
755.40257250000002
 11
41.629165999999941
 21
755.37532050000004
  0
LINE
  8
_0-0_0
  6
CONTINUOUS
 62
    7
 10
41.629165999999941
 20
755.37532050000004
 11
41.645019999999931
 21
755.35234049999997
  0
LINE
  8
_0-0_0
  6
CONTINUOUS
 62
    7
 10
41.645019999999931
 20
755.35234049999997
 11
41.658996999999999
 21
755.33558649999998
  0
LINE
  8
_0-0_0
  6
CONTINUOUS
 62
    7
 10
41.658996999999999
 20
755.33558649999998
 11
41.672896999999921
 21
755.3222505
  0
LINE
  8
_0-0_0
  6
CONTINUOUS
 62
    7
 10
41.672896999999921
 20
755.3222505
 11
41.685119999999984
 21
755.31333949999998
  0
LINE
  8
_0-0_0
  6
CONTINUOUS
 62
    7
 10
41.685119999999984
 20
755.31333949999998
 11
41.697234999999978
 21
755.30711350000001
  0
LINE
  8
_0-0_0
  6
CONTINUOUS
 62
    7
 10
41.697234999999978
 20
755.30711350000001
 11
41.708098999999947
 21
755.30384849999996
  0
LINE
  8
_0-0_0
  6
CONTINUOUS
 62
    7
 10
41.708098999999947
 20
755.30384849999996
 11
41.718856999999957
 21
755.30278050000004
  0
LINE
  8
_0-0_0
  6
CONTINUOUS
 62
    7
 10
41.718856999999957
 20
755.30278050000004
 11
41.721314000000007
 21
755.30287150000004
  0
LINE
  8
_0-0_0
  6
CONTINUOUS
 62
    7
 10
27.313292999999931
 20
776.41981450000003
 11
27.313292999999931
 21
777.59901449999995
  0
ARC
  8
_0-0_0
  6
CONTINUOUS
 62
    7
 10
27.113296999999989
 20
761.29994150000005
 40
0.5
 50
180.00000900000003
 51
269.99999700000001
  0
CIRCLE
  8
_0-0_0
  6
CONTINUOUS
 62
    7
 10
29.113296999999989
 20
757.79994150000005
 40
2.5
  0
LINE
  8
_0-0_0
  6
CONTINUOUS
 62
    7
 10
28.613296999999989
 20
776.79731749999996
 11
28.597411999999963
 21
776.82456950000005
  0
LINE
  8
_0-0_0
  6
CONTINUOUS
 62
    7
 10
28.597411999999963
 20
776.82456950000005
 11
28.581574000000046
 21
776.84754950000001
  0
LINE
  8
_0-0_0
  6
CONTINUOUS
 62
    7
 10
28.581574000000046
 20
776.84754950000001
 11
28.567581000000018
 21
776.86430350000001
  0
LINE
  8
_0-0_0
  6
CONTINUOUS
 62
    7
 10
28.567581000000018
 20
776.86430350000001
 11
28.553679999999986
 21
776.87763949999999
  0
LINE
  8
_0-0_0
  6
CONTINUOUS
 62
    7
 10
28.553679999999986
 20
776.87763949999999
 11
28.541472999999996
 21
776.8865505
  0
LINE
  8
_0-0_0
  6
CONTINUOUS
 62
    7
 10
28.541472999999996
 20
776.8865505
 11
28.529358000000002
 21
776.89277649999997
  0
LINE
  8
_0-0_0
  6
CONTINUOUS
 62
    7
 10
28.529358000000002
 20
776.89277649999997
 11
28.518477999999959
 21
776.89604150000002
  0
LINE
  8
_0-0_0
  6
CONTINUOUS
 62
    7
 10
28.518477999999959
 20
776.89604150000002
 11
28.507720999999947
 21
776.89710950000006
  0
LINE
  8
_0-0_0
  6
CONTINUOUS
 62
    7
 10
28.507720999999947
 20
776.89710950000006
 11
28.505264000000011
 21
776.89701850000006
  0
LINE
  8
_0-0_0
  6
CONTINUOUS
 62
    7
 10
26.313292999999931
 20
758.69993550000004
 11
26.213287000000037
 21
758.69993550000004
  0
LINE
  8
_0-0_0
  6
CONTINUOUS
 62
    7
 10
26.213287000000037
 20
758.69993550000004
 11
26.213287000000037
 21
761.69993550000004
  0
LINE
  8
_0-0_0
  6
CONTINUOUS
 62
    7
 10
26.213287000000037
 20
761.69993550000004
 11
26.213287000000037
 21
775.29994150000005
  0
LINE
  8
_0-0_0
  6
CONTINUOUS
 62
    7
 10
26.313292999999931
 20
778.29994150000005
 11
26.213287000000037
 21
778.29994150000005
  0
LINE
  8
_0-0_0
  6
CONTINUOUS
 62
    7
 10
26.213287000000037
 20
775.29994150000005
 11
26.213287000000037
 21
778.29994150000005
  0
ARC
  8
_0-0_0
  6
CONTINUOUS
 62
    7
 10
32.613296999999989
 20
755.79994150000005
 40
0.5
 50
180.00000900000003
 51
269.99999700000001
  0
ARC
  8
_0-0_0
  6
CONTINUOUS
 62
    7
 10
29.313292999999931
 20
780.80000250000001
 40
1.5
 50
269.99999700000001
 51
0
  0
ARC
  8
_0-0_0
  6
CONTINUOUS
 62
    7
 10
27.813292999999931
 20
779.80000250000001
 40
0.5
 50
90.000003000000007
 51
180.00000900000001
  0
LINE
  8
_0-0_0
  6
CONTINUOUS
 62
    7
 10
27.813292999999931
 20
780.30000250000001
 11
29.313292999999931
 21
780.30000250000001
  0
ARC
  8
_0-0_0
  6
CONTINUOUS
 62
    7
 10
29.313292999999931
 20
781.30000250000001
 40
1
 50
269.99999700000001
 51
0
  0
LINE
  8
_0-0_0
  6
CONTINUOUS
 62
    7
 10
30.313292999999931
 20
781.40003950000005
 11
30.313292999999931
 21
781.30000250000001
  0
LINE
  8
_0-0_0
  6
CONTINUOUS
 62
    7
 10
30.813292999999931
 20
781.40003950000005
 11
30.813292999999931
 21
780.80000250000001
  0
LINE
  8
_0-0_0
  6
CONTINUOUS
 62
    7
 10
27.313292999999931
 20
779.30000250000001
 11
27.313292999999931
 21
779.80000250000001
  0
ARC
  8
_0-0_0
  6
CONTINUOUS
 62
    7
 10
37.613296999999989
 20
776.39994750000005
 40
0.5
 50
0
 51
90.000003000000007
  0
LINE
  8
_0-0_0
  6
CONTINUOUS
 62
    7
 10
38.113296999999989
 20
776.32295250000004
 11
38.113296999999989
 21
776.39994750000005
  0
LINE
  8
_0-0_0
  6
CONTINUOUS
 62
    7
 10
38.113296999999989
 20
774.88145450000002
 11
38.113296999999989
 21
776.32295250000004
  0
LINE
  8
_0-0_0
  6
CONTINUOUS
 62
    7
 10
38.113296999999989
 20
774.39994750000005
 11
38.113296999999989
 21
774.88145450000002
  0
ARC
  8
_0-0_0
  6
CONTINUOUS
 62
    7
 10
41.113296999999989
 20
774.39994750000005
 40
3
 50
180.00000900000003
 51
269.99999700000001
  0
LINE
  8
_0-0_0
  6
CONTINUOUS
 62
    7
 10
41.594787999999994
 20
771.39994750000005
 11
41.113296999999989
 21
771.39994750000005
  0
LINE
  8
_0-0_0
  6
CONTINUOUS
 62
    7
 10
41.594787999999994
 20
771.39994750000005
 11
43.036315999999943
 21
771.39994750000005
  0
LINE
  8
_0-0_0
  6
CONTINUOUS
 62
    7
 10
43.113296999999989
 20
771.39994750000005
 11
43.036315999999943
 21
771.39994750000005
  0
LINE
  8
_0-0_0
  6
CONTINUOUS
 62
    7
 10
27.190261999999962
 20
760.79994150000005
 11
27.113296999999989
 21
760.79994150000005
  0
LINE
  8
_0-0_0
  6
CONTINUOUS
 62
    7
 10
29.113296999999989
 20
760.79994150000005
 11
28.631790000000024
 21
760.79994150000005
  0
LINE
  8
_0-0_0
  6
CONTINUOUS
 62
    7
 10
28.631790000000024
 20
760.79994150000005
 11
27.190261999999962
 21
760.79994150000005
  0
LINE
  8
_0-0_0
  6
CONTINUOUS
 62
    7
 10
32.113296999999989
 20
755.79994150000005
 11
32.113296999999989
 21
755.87690750000002
  0
LINE
  8
_0-0_0
  6
CONTINUOUS
 62
    7
 10
32.113296999999989
 20
757.31843549999996
 11
32.113296999999989
 21
755.87690750000002
  0
LINE
  8
_0-0_0
  6
CONTINUOUS
 62
    7
 10
32.113296999999989
 20
757.31843549999996
 11
32.113296999999989
 21
757.79994150000005
  0
ARC
  8
_0-0_0
  6
CONTINUOUS
 62
    7
 10
29.113296999999989
 20
757.79994150000005
 40
3
 50
0
 51
89.999995999999996
  0
LINE
  8
_0-0_0
  6
CONTINUOUS
 62
    7
 10
43.613296999999989
 20
778.41120850000004
 11
43.613296999999989
 21
776.52494750000005
  0
LINE
  8
_0-0_0
  6
CONTINUOUS
 62
    7
 10
43.613296999999989
 20
779.07493550000004
 11
43.613296999999989
 21
778.41120850000004
  0
ARC
  8
_0-0_0
  6
CONTINUOUS
 62
    7
 10
38.343413999999939
 20
767.27317749999997
 40
3.063396
 50
19.82113
 51
25.289563000000001
  0
ARC
  8
_0-0_0
  6
CONTINUOUS
 62
    7
 10
38.343734999999924
 20
764.92655950000005
 40
3.0630519999999999
 50
334.71006
 51
340.17869200000001
  0
ARC
  8
_0-0_0
  6
CONTINUOUS
 62
    7
 10
31.883178999999927
 20
764.92671150000001
 40
3.063399
 50
199.82113599999997
 51
205.28948099999999
  0
ARC
  8
_0-0_0
  6
CONTINUOUS
 62
    7
 10
31.882857999999942
 20
767.27333050000004
 40
3.0630549999999999
 50
154.710137
 51
160.17869999999999
  0
ARC
  8
_0-0_0
  6
CONTINUOUS
 62
    7
 10
35.113296999999989
 20
766.09992950000003
 40
6.5
 50
340.10416099999998
 51
19.895609999999952
  0
ARC
  8
_0-0_0
  6
CONTINUOUS
 62
    7
 10
35.113296999999989
 20
766.09992950000003
 40
6.5
 50
160.10415599999999
 51
199.895612
  0
LINE
  8
_0-0_0
  6
CONTINUOUS
 62
    7
 10
26.613296999999989
 20
777.18873550000001
 11
26.613296999999989
 21
777.59907550000003
  0
LINE
  8
_0-0_0
  6
CONTINUOUS
 62
    7
 10
26.613296999999989
 20
776.52986150000004
 11
26.613296999999989
 21
777.18873550000001
  0
LINE
  8
_0-0_0
  6
CONTINUOUS
 62
    7
 10
34.371627999999987
 20
772.59992950000003
 11
29.854964999999993
 21
769.9922335
  0
LINE
  8
_0-0_0
  6
CONTINUOUS
 62
    7
 10
35.854964999999993
 20
772.59992950000003
 11
34.371627999999987
 21
772.59992950000003
  0
LINE
  8
_0-0_0
  6
CONTINUOUS
 62
    7
 10
40.371627999999987
 20
769.9922335
 11
35.854964999999993
 21
772.59992950000003
  0
LINE
  8
_0-0_0
  6
CONTINUOUS
 62
    7
 10
41.113296999999989
 20
768.70762649999995
 11
41.113296999999989
 21
763.4922335
  0
LINE
  8
_0-0_0
  6
CONTINUOUS
 62
    7
 10
40.371627999999987
 20
769.9922335
 11
41.113296999999989
 21
768.70762649999995
  0
LINE
  8
_0-0_0
  6
CONTINUOUS
 62
    7
 10
35.854964999999993
 20
759.59992950000003
 11
40.371627999999987
 21
762.20762649999995
  0
LINE
  8
_0-0_0
  6
CONTINUOUS
 62
    7
 10
40.665741000000025
 20
762.71708650000005
 11
41.113296999999989
 21
763.4922335
  0
LINE
  8
_0-0_0
  6
CONTINUOUS
 62
    7
 10
40.665741000000025
 20
762.71708650000005
 11
40.371627999999987
 21
762.20762649999995
  0
LINE
  8
_0-0_0
  6
CONTINUOUS
 62
    7
 10
34.371627999999987
 20
759.59992950000003
 11
35.854964999999993
 21
759.59992950000003
  0
LINE
  8
_0-0_0
  6
CONTINUOUS
 62
    7
 10
29.854964999999993
 20
762.20762649999995
 11
34.371627999999987
 21
759.59992950000003
  0
LINE
  8
_0-0_0
  6
CONTINUOUS
 62
    7
 10
29.113296999999989
 20
768.70762649999995
 11
29.113296999999989
 21
763.4922335
  0
LINE
  8
_0-0_0
  6
CONTINUOUS
 62
    7
 10
29.854964999999993
 20
762.20762649999995
 11
29.113296999999989
 21
763.4922335
  0
LINE
  8
_0-0_0
  6
CONTINUOUS
 62
    7
 10
29.560836999999992
 20
769.48280350000005
 11
29.113296999999989
 21
768.70762649999995
  0
LINE
  8
_0-0_0
  6
CONTINUOUS
 62
    7
 10
29.560836999999992
 20
769.48280350000005
 11
29.854964999999993
 21
769.9922335
  0
LINE
  8
_0-0_0
  6
CONTINUOUS
 62
    7
 10
43.000305000000026
 20
775.6253815
 11
43.27835099999993
 21
775.64994750000005
  0
LINE
  8
_0-0_0
  6
CONTINUOUS
 62
    7
 10
43.118057000000022
 20
775.42143250000004
 11
43.27835099999993
 21
775.64994750000005
  0
LINE
  8
_0-0_0
  6
CONTINUOUS
 62
    7
 10
42.86187700000005
 20
775.81590249999999
 11
43.135833999999932
 21
775.86939949999999
  0
LINE
  8
_0-0_0
  6
CONTINUOUS
 62
    7
 10
43.000305000000026
 20
775.6253815
 11
43.135833999999932
 21
775.86939949999999
  0
LINE
  8
_0-0_0
  6
CONTINUOUS
 62
    7
 10
42.704285000000027
 20
775.99092050000002
 11
42.971160999999938
 21
776.07276950000005
  0
LINE
  8
_0-0_0
  6
CONTINUOUS
 62
    7
 10
42.86187700000005
 20
775.81590249999999
 11
42.971160999999938
 21
776.07276950000005
  0
LINE
  8
_0-0_0
  6
CONTINUOUS
 62
    7
 10
42.529266000000007
 20
776.14851350000004
 11
42.786117999999988
 21
776.25779750000004
  0
LINE
  8
_0-0_0
  6
CONTINUOUS
 62
    7
 10
42.704285000000027
 20
775.99092050000002
 11
42.786117999999988
 21
776.25779750000004
  0
LINE
  8
_0-0_0
  6
CONTINUOUS
 62
    7
 10
42.338729999999941
 20
776.28694150000001
 11
42.582748000000038
 21
776.42250049999996
  0
LINE
  8
_0-0_0
  6
CONTINUOUS
 62
    7
 10
42.529266000000007
 20
776.14851350000004
 11
42.582748000000038
 21
776.42250049999996
  0
LINE
  8
_0-0_0
  6
CONTINUOUS
 62
    7
 10
42.134766000000013
 20
776.40470849999997
 11
42.363296999999989
 21
776.56501749999995
  0
LINE
  8
_0-0_0
  6
CONTINUOUS
 62
    7
 10
42.338729999999941
 20
776.28694150000001
 11
42.363296999999989
 21
776.56501749999995
  0
LINE
  8
_0-0_0
  6
CONTINUOUS
 62
    7
 10
41.919617000000017
 20
776.50050350000004
 11
42.130127000000016
 21
776.68379149999998
  0
LINE
  8
_0-0_0
  6
CONTINUOUS
 62
    7
 10
42.134766000000013
 20
776.40470849999997
 11
42.130127000000016
 21
776.68379149999998
  0
LINE
  8
_0-0_0
  6
CONTINUOUS
 62
    7
 10
41.695633000000043
 20
776.57328749999999
 11
41.885833999999932
 21
776.77757250000002
  0
LINE
  8
_0-0_0
  6
CONTINUOUS
 62
    7
 10
41.919617000000017
 20
776.50050350000004
 11
41.885833999999932
 21
776.77757250000002
  0
LINE
  8
_0-0_0
  6
CONTINUOUS
 62
    7
 10
41.46527100000003
 20
776.62223849999998
 11
41.63307199999997
 21
776.84532149999995
  0
LINE
  8
_0-0_0
  6
CONTINUOUS
 62
    7
 10
41.695633000000043
 20
776.57328749999999
 11
41.63307199999997
 21
776.84532149999995
  0
LINE
  8
_0-0_0
  6
CONTINUOUS
 62
    7
 10
41.231048999999985
 20
776.64686549999999
 11
41.374618999999939
 21
776.88624549999997
  0
LINE
  8
_0-0_0
  6
CONTINUOUS
 62
    7
 10
41.46527100000003
 20
776.62223849999998
 11
41.374618999999939
 21
776.88624549999997
  0
LINE
  8
_0-0_0
  6
CONTINUOUS
 62
    7
 10
40.995529000000033
 20
776.64686549999999
 11
41.113296999999989
 21
776.89994750000005
  0
LINE
  8
_0-0_0
  6
CONTINUOUS
 62
    7
 10
41.231048999999985
 20
776.64686549999999
 11
41.113296999999989
 21
776.89994750000005
  0
LINE
  8
_0-0_0
  6
CONTINUOUS
 62
    7
 10
40.76132199999995
 20
776.62223849999998
 11
40.851975000000039
 21
776.88624549999997
  0
LINE
  8
_0-0_0
  6
CONTINUOUS
 62
    7
 10
40.995529000000033
 20
776.64686549999999
 11
40.851975000000039
 21
776.88624549999997
  0
LINE
  8
_0-0_0
  6
CONTINUOUS
 62
    7
 10
40.530944999999974
 20
776.57328749999999
 11
40.593505999999934
 21
776.84532149999995
  0
LINE
  8
_0-0_0
  6
CONTINUOUS
 62
    7
 10
40.76132199999995
 20
776.62223849999998
 11
40.593505999999934
 21
776.84532149999995
  0
LINE
  8
_0-0_0
  6
CONTINUOUS
 62
    7
 10
40.306961000000001
 20
776.50050350000004
 11
40.340743999999972
 21
776.77757250000002
  0
LINE
  8
_0-0_0
  6
CONTINUOUS
 62
    7
 10
40.530944999999974
 20
776.57328749999999
 11
40.340743999999972
 21
776.77757250000002
  0
LINE
  8
_0-0_0
  6
CONTINUOUS
 62
    7
 10
40.091812000000004
 20
776.40470849999997
 11
40.096451000000002
 21
776.68379149999998
  0
LINE
  8
_0-0_0
  6
CONTINUOUS
 62
    7
 10
40.306961000000001
 20
776.50050350000004
 11
40.096451000000002
 21
776.68379149999998
  0
LINE
  8
_0-0_0
  6
CONTINUOUS
 62
    7
 10
39.972274999999968
 20
776.48857150000003
 11
39.863296999999989
 21
776.56501749999995
  0
LINE
  8
_0-0_0
  6
CONTINUOUS
 62
    7
 10
40.091812000000004
 20
776.40470849999997
 11
39.972274999999968
 21
776.48857150000003
  0
LINE
  8
_0-0_0
  6
CONTINUOUS
 62
    7
 10
39.887847999999963
 20
776.28694150000001
 11
39.863296999999989
 21
776.56501749999995
  0
LINE
  8
_0-0_0
  6
CONTINUOUS
 62
    7
 10
39.697326999999973
 20
776.14851350000004
 11
39.643828999999982
 21
776.42250049999996
  0
LINE
  8
_0-0_0
  6
CONTINUOUS
 62
    7
 10
39.887847999999963
 20
776.28694150000001
 11
39.643828999999982
 21
776.42250049999996
  0
LINE
  8
_0-0_0
  6
CONTINUOUS
 62
    7
 10
39.522307999999953
 20
775.99092050000002
 11
39.44046000000003
 21
776.25779750000004
  0
LINE
  8
_0-0_0
  6
CONTINUOUS
 62
    7
 10
39.697326999999973
 20
776.14851350000004
 11
39.44046000000003
 21
776.25779750000004
  0
LINE
  8
_0-0_0
  6
CONTINUOUS
 62
    7
 10
39.364716000000044
 20
775.81590249999999
 11
39.255431999999928
 21
776.07276950000005
  0
LINE
  8
_0-0_0
  6
CONTINUOUS
 62
    7
 10
39.522307999999953
 20
775.99092050000002
 11
39.255431999999928
 21
776.07276950000005
  0
LINE
  8
_0-0_0
  6
CONTINUOUS
 62
    7
 10
39.226287999999954
 20
775.6253815
 11
39.090743999999972
 21
775.86939949999999
  0
LINE
  8
_0-0_0
  6
CONTINUOUS
 62
    7
 10
39.364716000000044
 20
775.81590249999999
 11
39.090743999999972
 21
775.86939949999999
  0
LINE
  8
_0-0_0
  6
CONTINUOUS
 62
    7
 10
39.108520999999996
 20
775.42143250000004
 11
38.948226999999974
 21
775.64994750000005
  0
LINE
  8
_0-0_0
  6
CONTINUOUS
 62
    7
 10
39.226287999999954
 20
775.6253815
 11
38.948226999999974
 21
775.64994750000005
  0
LINE
  8
_0-0_0
  6
CONTINUOUS
 62
    7
 10
39.012741000000005
 20
775.20628350000004
 11
38.829422000000022
 21
775.41679350000004
  0
LINE
  8
_0-0_0
  6
CONTINUOUS
 62
    7
 10
39.108520999999996
 20
775.42143250000004
 11
38.829422000000022
 21
775.41679350000004
  0
LINE
  8
_0-0_0
  6
CONTINUOUS
 62
    7
 10
38.939957000000049
 20
774.98228449999999
 11
38.735656999999946
 21
775.17250049999996
  0
LINE
  8
_0-0_0
  6
CONTINUOUS
 62
    7
 10
39.012741000000005
 20
775.20628350000004
 11
38.735656999999946
 21
775.17250049999996
  0
LINE
  8
_0-0_0
  6
CONTINUOUS
 62
    7
 10
38.890990999999985
 20
774.75190750000002
 11
38.667922999999973
 21
774.91972350000003
  0
LINE
  8
_0-0_0
  6
CONTINUOUS
 62
    7
 10
38.939957000000049
 20
774.98228449999999
 11
38.667922999999973
 21
774.91972350000003
  0
LINE
  8
_0-0_0
  6
CONTINUOUS
 62
    7
 10
38.890990999999985
 20
774.75190750000002
 11
38.626983999999993
 21
774.6612705
  0
LINE
  8
_0-0_0
  6
CONTINUOUS
 62
    7
 10
38.866379000000052
 20
774.51768449999997
 11
38.626983999999993
 21
774.6612705
  0
LINE
  8
_0-0_0
  6
CONTINUOUS
 62
    7
 10
38.866379000000052
 20
774.28218049999998
 11
38.613296999999989
 21
774.39994750000005
  0
LINE
  8
_0-0_0
  6
CONTINUOUS
 62
    7
 10
38.866379000000052
 20
774.51768449999997
 11
38.613296999999989
 21
774.39994750000005
  0
LINE
  8
_0-0_0
  6
CONTINUOUS
 62
    7
 10
38.890990999999985
 20
774.04795850000005
 11
38.626983999999993
 21
774.13862549999999
  0
LINE
  8
_0-0_0
  6
CONTINUOUS
 62
    7
 10
38.866379000000052
 20
774.28218049999998
 11
38.626983999999993
 21
774.13862549999999
  0
LINE
  8
_0-0_0
  6
CONTINUOUS
 62
    7
 10
38.939957000000049
 20
773.8176115
 11
38.667922999999973
 21
773.88017249999996
  0
LINE
  8
_0-0_0
  6
CONTINUOUS
 62
    7
 10
38.890990999999985
 20
774.04795850000005
 11
38.667922999999973
 21
773.88017249999996
  0
LINE
  8
_0-0_0
  6
CONTINUOUS
 62
    7
 10
39.012741000000005
 20
773.59361249999995
 11
38.735656999999946
 21
773.62739550000003
  0
LINE
  8
_0-0_0
  6
CONTINUOUS
 62
    7
 10
38.939957000000049
 20
773.8176115
 11
38.735656999999946
 21
773.62739550000003
  0
LINE
  8
_0-0_0
  6
CONTINUOUS
 62
    7
 10
39.108520999999996
 20
773.37846349999995
 11
38.829422000000022
 21
773.38310249999995
  0
LINE
  8
_0-0_0
  6
CONTINUOUS
 62
    7
 10
39.012741000000005
 20
773.59361249999995
 11
38.829422000000022
 21
773.38310249999995
  0
LINE
  8
_0-0_0
  6
CONTINUOUS
 62
    7
 10
39.226287999999954
 20
773.17451449999999
 11
38.948226999999974
 21
773.14994750000005
  0
LINE
  8
_0-0_0
  6
CONTINUOUS
 62
    7
 10
39.108520999999996
 20
773.37846349999995
 11
38.948226999999974
 21
773.14994750000005
  0
LINE
  8
_0-0_0
  6
CONTINUOUS
 62
    7
 10
39.364716000000044
 20
772.98396249999996
 11
39.090743999999972
 21
772.9304965
  0
LINE
  8
_0-0_0
  6
CONTINUOUS
 62
    7
 10
39.226287999999954
 20
773.17451449999999
 11
39.090743999999972
 21
772.9304965
  0
LINE
  8
_0-0_0
  6
CONTINUOUS
 62
    7
 10
39.522307999999953
 20
772.80894450000005
 11
39.255431999999928
 21
772.72712650000005
  0
LINE
  8
_0-0_0
  6
CONTINUOUS
 62
    7
 10
39.364716000000044
 20
772.98396249999996
 11
39.255431999999928
 21
772.72712650000005
  0
LINE
  8
_0-0_0
  6
CONTINUOUS
 62
    7
 10
39.697326999999973
 20
772.65135150000003
 11
39.44046000000003
 21
772.54206850000003
  0
LINE
  8
_0-0_0
  6
CONTINUOUS
 62
    7
 10
39.522307999999953
 20
772.80894450000005
 11
39.44046000000003
 21
772.54206850000003
  0
LINE
  8
_0-0_0
  6
CONTINUOUS
 62
    7
 10
39.887847999999963
 20
772.51292450000005
 11
39.643828999999982
 21
772.37739550000003
  0
LINE
  8
_0-0_0
  6
CONTINUOUS
 62
    7
 10
39.697326999999973
 20
772.65135150000003
 11
39.643828999999982
 21
772.37739550000003
  0
LINE
  8
_0-0_0
  6
CONTINUOUS
 62
    7
 10
40.091812000000004
 20
772.39518750000002
 11
39.863296999999989
 21
772.23487850000004
  0
LINE
  8
_0-0_0
  6
CONTINUOUS
 62
    7
 10
39.887847999999963
 20
772.51292450000005
 11
39.863296999999989
 21
772.23487850000004
  0
LINE
  8
_0-0_0
  6
CONTINUOUS
 62
    7
 10
40.306961000000001
 20
772.29939249999995
 11
40.096451000000002
 21
772.11607349999997
  0
LINE
  8
_0-0_0
  6
CONTINUOUS
 62
    7
 10
40.091812000000004
 20
772.39518750000002
 11
40.096451000000002
 21
772.11607349999997
  0
LINE
  8
_0-0_0
  6
CONTINUOUS
 62
    7
 10
40.530944999999974
 20
772.2266085
 11
40.340743999999972
 21
772.02229250000005
  0
LINE
  8
_0-0_0
  6
CONTINUOUS
 62
    7
 10
40.306961000000001
 20
772.29939249999995
 11
40.340743999999972
 21
772.02229250000005
  0
LINE
  8
_0-0_0
  6
CONTINUOUS
 62
    7
 10
40.76132199999995
 20
772.17765750000001
 11
40.593505999999934
 21
771.95457450000004
  0
LINE
  8
_0-0_0
  6
CONTINUOUS
 62
    7
 10
40.530944999999974
 20
772.2266085
 11
40.593505999999934
 21
771.95457450000004
  0
LINE
  8
_0-0_0
  6
CONTINUOUS
 62
    7
 10
40.995529000000033
 20
772.1530305
 11
40.851975000000039
 21
771.91365050000002
  0
LINE
  8
_0-0_0
  6
CONTINUOUS
 62
    7
 10
40.76132199999995
 20
772.17765750000001
 11
40.851975000000039
 21
771.91365050000002
  0
LINE
  8
_0-0_0
  6
CONTINUOUS
 62
    7
 10
41.231048999999985
 20
772.1530305
 11
41.113296999999989
 21
771.89994750000005
  0
LINE
  8
_0-0_0
  6
CONTINUOUS
 62
    7
 10
40.995529000000033
 20
772.1530305
 11
41.113296999999989
 21
771.89994750000005
  0
LINE
  8
_0-0_0
  6
CONTINUOUS
 62
    7
 10
41.46527100000003
 20
772.17765750000001
 11
41.374618999999939
 21
771.91365050000002
  0
LINE
  8
_0-0_0
  6
CONTINUOUS
 62
    7
 10
41.231048999999985
 20
772.1530305
 11
41.374618999999939
 21
771.91365050000002
  0
LINE
  8
_0-0_0
  6
CONTINUOUS
 62
    7
 10
41.695633000000043
 20
772.2266085
 11
41.63307199999997
 21
771.95457450000004
  0
LINE
  8
_0-0_0
  6
CONTINUOUS
 62
    7
 10
41.46527100000003
 20
772.17765750000001
 11
41.63307199999997
 21
771.95457450000004
  0
LINE
  8
_0-0_0
  6
CONTINUOUS
 62
    7
 10
41.919617000000017
 20
772.29939249999995
 11
41.885833999999932
 21
772.02229250000005
  0
LINE
  8
_0-0_0
  6
CONTINUOUS
 62
    7
 10
41.695633000000043
 20
772.2266085
 11
41.885833999999932
 21
772.02229250000005
  0
LINE
  8
_0-0_0
  6
CONTINUOUS
 62
    7
 10
42.134766000000013
 20
772.39518750000002
 11
42.130127000000016
 21
772.11607349999997
  0
LINE
  8
_0-0_0
  6
CONTINUOUS
 62
    7
 10
41.919617000000017
 20
772.29939249999995
 11
42.130127000000016
 21
772.11607349999997
  0
LINE
  8
_0-0_0
  6
CONTINUOUS
 62
    7
 10
42.254302999999936
 20
772.31132449999996
 11
42.363296999999989
 21
772.23487850000004
  0
LINE
  8
_0-0_0
  6
CONTINUOUS
 62
    7
 10
42.134766000000013
 20
772.39518750000002
 11
42.254302999999936
 21
772.31132449999996
  0
LINE
  8
_0-0_0
  6
CONTINUOUS
 62
    7
 10
42.338729999999941
 20
772.51292450000005
 11
42.363296999999989
 21
772.23487850000004
  0
LINE
  8
_0-0_0
  6
CONTINUOUS
 62
    7
 10
42.529266000000007
 20
772.65135150000003
 11
42.582748000000038
 21
772.37739550000003
  0
LINE
  8
_0-0_0
  6
CONTINUOUS
 62
    7
 10
42.338729999999941
 20
772.51292450000005
 11
42.582748000000038
 21
772.37739550000003
  0
LINE
  8
_0-0_0
  6
CONTINUOUS
 62
    7
 10
42.704285000000027
 20
772.80894450000005
 11
42.786117999999988
 21
772.54206850000003
  0
LINE
  8
_0-0_0
  6
CONTINUOUS
 62
    7
 10
42.529266000000007
 20
772.65135150000003
 11
42.786117999999988
 21
772.54206850000003
  0
LINE
  8
_0-0_0
  6
CONTINUOUS
 62
    7
 10
42.86187700000005
 20
772.98396249999996
 11
42.971160999999938
 21
772.72712650000005
  0
LINE
  8
_0-0_0
  6
CONTINUOUS
 62
    7
 10
42.704285000000027
 20
772.80894450000005
 11
42.971160999999938
 21
772.72712650000005
  0
LINE
  8
_0-0_0
  6
CONTINUOUS
 62
    7
 10
43.000305000000026
 20
773.17451449999999
 11
43.135833999999932
 21
772.9304965
  0
LINE
  8
_0-0_0
  6
CONTINUOUS
 62
    7
 10
42.86187700000005
 20
772.98396249999996
 11
43.135833999999932
 21
772.9304965
  0
LINE
  8
_0-0_0
  6
CONTINUOUS
 62
    7
 10
43.118057000000022
 20
773.37846349999995
 11
43.27835099999993
 21
773.14994750000005
  0
LINE
  8
_0-0_0
  6
CONTINUOUS
 62
    7
 10
43.000305000000026
 20
773.17451449999999
 11
43.27835099999993
 21
773.14994750000005
  0
LINE
  8
_0-0_0
  6
CONTINUOUS
 62
    7
 10
43.213851999999974
 20
773.59361249999995
 11
43.397155999999995
 21
773.38310249999995
  0
LINE
  8
_0-0_0
  6
CONTINUOUS
 62
    7
 10
43.118057000000022
 20
773.37846349999995
 11
43.397155999999995
 21
773.38310249999995
  0
LINE
  8
_0-0_0
  6
CONTINUOUS
 62
    7
 10
43.286620999999968
 20
773.8176115
 11
43.49093599999992
 21
773.62739550000003
  0
LINE
  8
_0-0_0
  6
CONTINUOUS
 62
    7
 10
43.213851999999974
 20
773.59361249999995
 11
43.49093599999992
 21
773.62739550000003
  0
LINE
  8
_0-0_0
  6
CONTINUOUS
 62
    7
 10
43.335587000000032
 20
774.04795850000005
 11
43.558655000000044
 21
773.88017249999996
  0
LINE
  8
_0-0_0
  6
CONTINUOUS
 62
    7
 10
43.286620999999968
 20
773.8176115
 11
43.558655000000044
 21
773.88017249999996
  0
LINE
  8
_0-0_0
  6
CONTINUOUS
 62
    7
 10
43.360198999999966
 20
774.28218049999998
 11
43.599594000000025
 21
774.13862549999999
  0
LINE
  8
_0-0_0
  6
CONTINUOUS
 62
    7
 10
43.335587000000032
 20
774.04795850000005
 11
43.599594000000025
 21
774.13862549999999
  0
LINE
  8
_0-0_0
  6
CONTINUOUS
 62
    7
 10
43.360198999999966
 20
774.51768449999997
 11
43.613296999999989
 21
774.39994750000005
  0
LINE
  8
_0-0_0
  6
CONTINUOUS
 62
    7
 10
43.360198999999966
 20
774.28218049999998
 11
43.613296999999989
 21
774.39994750000005
  0
LINE
  8
_0-0_0
  6
CONTINUOUS
 62
    7
 10
43.335587000000032
 20
774.75190750000002
 11
43.599594000000025
 21
774.6612705
  0
LINE
  8
_0-0_0
  6
CONTINUOUS
 62
    7
 10
43.360198999999966
 20
774.51768449999997
 11
43.599594000000025
 21
774.6612705
  0
LINE
  8
_0-0_0
  6
CONTINUOUS
 62
    7
 10
43.286620999999968
 20
774.98228449999999
 11
43.558655000000044
 21
774.91972350000003
  0
LINE
  8
_0-0_0
  6
CONTINUOUS
 62
    7
 10
43.335587000000032
 20
774.75190750000002
 11
43.558655000000044
 21
774.91972350000003
  0
LINE
  8
_0-0_0
  6
CONTINUOUS
 62
    7
 10
43.213851999999974
 20
775.20628350000004
 11
43.49093599999992
 21
775.17250049999996
  0
LINE
  8
_0-0_0
  6
CONTINUOUS
 62
    7
 10
43.286620999999968
 20
774.98228449999999
 11
43.49093599999992
 21
775.17250049999996
  0
LINE
  8
_0-0_0
  6
CONTINUOUS
 62
    7
 10
43.118057000000022
 20
775.42143250000004
 11
43.397155999999995
 21
775.41679350000004
  0
LINE
  8
_0-0_0
  6
CONTINUOUS
 62
    7
 10
43.213851999999974
 20
775.20628350000004
 11
43.397155999999995
 21
775.41679350000004
  0
CIRCLE
  8
_0-0_0
  6
CONTINUOUS
 62
    7
 10
35.113296999999989
 20
766.09992950000003
 40
5.25
  0
LINE
  8
_0-0_0
  6
CONTINUOUS
 62
    7
 10
31.000305000000026
 20
759.0253755
 11
31.27835099999993
 21
759.04994150000005
  0
LINE
  8
_0-0_0
  6
CONTINUOUS
 62
    7
 10
31.118057000000022
 20
758.82142650000003
 11
31.27835099999993
 21
759.04994150000005
  0
LINE
  8
_0-0_0
  6
CONTINUOUS
 62
    7
 10
30.86187700000005
 20
759.21592650000002
 11
31.135833999999932
 21
759.26939349999998
  0
LINE
  8
_0-0_0
  6
CONTINUOUS
 62
    7
 10
31.000305000000026
 20
759.0253755
 11
31.135833999999932
 21
759.26939349999998
  0
LINE
  8
_0-0_0
  6
CONTINUOUS
 62
    7
 10
30.704285000000027
 20
759.39094550000004
 11
30.971160999999938
 21
759.47276250000004
  0
LINE
  8
_0-0_0
  6
CONTINUOUS
 62
    7
 10
30.86187700000005
 20
759.21592650000002
 11
30.971160999999938
 21
759.47276250000004
  0
LINE
  8
_0-0_0
  6
CONTINUOUS
 62
    7
 10
30.529266000000007
 20
759.54850750000003
 11
30.786117999999988
 21
759.65779150000003
  0
LINE
  8
_0-0_0
  6
CONTINUOUS
 62
    7
 10
30.704285000000027
 20
759.39094550000004
 11
30.786117999999988
 21
759.65779150000003
  0
LINE
  8
_0-0_0
  6
CONTINUOUS
 62
    7
 10
30.338729999999941
 20
759.68696550000004
 11
30.582748000000038
 21
759.82249449999995
  0
LINE
  8
_0-0_0
  6
CONTINUOUS
 62
    7
 10
30.529266000000007
 20
759.54850750000003
 11
30.582748000000038
 21
759.82249449999995
  0
LINE
  8
_0-0_0
  6
CONTINUOUS
 62
    7
 10
30.134766000000013
 20
759.80470249999996
 11
30.363296999999989
 21
759.96501150000006
  0
LINE
  8
_0-0_0
  6
CONTINUOUS
 62
    7
 10
30.338729999999941
 20
759.68696550000004
 11
30.363296999999989
 21
759.96501150000006
  0
LINE
  8
_0-0_0
  6
CONTINUOUS
 62
    7
 10
29.919617000000017
 20
759.90049750000003
 11
30.130127000000016
 21
760.08381650000001
  0
LINE
  8
_0-0_0
  6
CONTINUOUS
 62
    7
 10
30.134766000000013
 20
759.80470249999996
 11
30.130127000000016
 21
760.08381650000001
  0
LINE
  8
_0-0_0
  6
CONTINUOUS
 62
    7
 10
29.695633000000043
 20
759.97328149999998
 11
29.885833999999932
 21
760.17759650000005
  0
LINE
  8
_0-0_0
  6
CONTINUOUS
 62
    7
 10
29.919617000000017
 20
759.90049750000003
 11
29.885833999999932
 21
760.17759650000005
  0
LINE
  8
_0-0_0
  6
CONTINUOUS
 62
    7
 10
29.46527100000003
 20
760.02223149999998
 11
29.63307199999997
 21
760.24531549999995
  0
LINE
  8
_0-0_0
  6
CONTINUOUS
 62
    7
 10
29.695633000000043
 20
759.97328149999998
 11
29.63307199999997
 21
760.24531549999995
  0
LINE
  8
_0-0_0
  6
CONTINUOUS
 62
    7
 10
29.231048999999985
 20
760.04685949999998
 11
29.374618999999939
 21
760.28623949999997
  0
LINE
  8
_0-0_0
  6
CONTINUOUS
 62
    7
 10
29.46527100000003
 20
760.02223149999998
 11
29.374618999999939
 21
760.28623949999997
  0
LINE
  8
_0-0_0
  6
CONTINUOUS
 62
    7
 10
28.995529000000033
 20
760.04685949999998
 11
29.113296999999989
 21
760.29994150000005
  0
LINE
  8
_0-0_0
  6
CONTINUOUS
 62
    7
 10
29.231048999999985
 20
760.04685949999998
 11
29.113296999999989
 21
760.29994150000005
  0
LINE
  8
_0-0_0
  6
CONTINUOUS
 62
    7
 10
28.761306999999988
 20
760.02223149999998
 11
28.851975000000039
 21
760.28623949999997
  0
LINE
  8
_0-0_0
  6
CONTINUOUS
 62
    7
 10
28.995529000000033
 20
760.04685949999998
 11
28.851975000000039
 21
760.28623949999997
  0
LINE
  8
_0-0_0
  6
CONTINUOUS
 62
    7
 10
28.530944999999974
 20
759.97328149999998
 11
28.593505999999934
 21
760.24531549999995
  0
LINE
  8
_0-0_0
  6
CONTINUOUS
 62
    7
 10
28.761306999999988
 20
760.02223149999998
 11
28.593505999999934
 21
760.24531549999995
  0
LINE
  8
_0-0_0
  6
CONTINUOUS
 62
    7
 10
28.306961000000001
 20
759.90049750000003
 11
28.340743999999972
 21
760.17759650000005
  0
LINE
  8
_0-0_0
  6
CONTINUOUS
 62
    7
 10
28.530944999999974
 20
759.97328149999998
 11
28.340743999999972
 21
760.17759650000005
  0
LINE
  8
_0-0_0
  6
CONTINUOUS
 62
    7
 10
28.091812000000004
 20
759.80470249999996
 11
28.096451000000002
 21
760.08381650000001
  0
LINE
  8
_0-0_0
  6
CONTINUOUS
 62
    7
 10
28.306961000000001
 20
759.90049750000003
 11
28.096451000000002
 21
760.08381650000001
  0
LINE
  8
_0-0_0
  6
CONTINUOUS
 62
    7
 10
27.972274999999968
 20
759.88856450000003
 11
27.863296999999989
 21
759.96501150000006
  0
LINE
  8
_0-0_0
  6
CONTINUOUS
 62
    7
 10
28.091812000000004
 20
759.80470249999996
 11
27.972274999999968
 21
759.88856450000003
  0
LINE
  8
_0-0_0
  6
CONTINUOUS
 62
    7
 10
27.887847999999963
 20
759.68696550000004
 11
27.863296999999989
 21
759.96501150000006
  0
LINE
  8
_0-0_0
  6
CONTINUOUS
 62
    7
 10
27.697326999999973
 20
759.54850750000003
 11
27.643828999999982
 21
759.82249449999995
  0
LINE
  8
_0-0_0
  6
CONTINUOUS
 62
    7
 10
27.887847999999963
 20
759.68696550000004
 11
27.643828999999982
 21
759.82249449999995
  0
LINE
  8
_0-0_0
  6
CONTINUOUS
 62
    7
 10
27.522307999999953
 20
759.39094550000004
 11
27.44046000000003
 21
759.65779150000003
  0
LINE
  8
_0-0_0
  6
CONTINUOUS
 62
    7
 10
27.697326999999973
 20
759.54850750000003
 11
27.44046000000003
 21
759.65779150000003
  0
LINE
  8
_0-0_0
  6
CONTINUOUS
 62
    7
 10
27.364716000000044
 20
759.21592650000002
 11
27.255431999999928
 21
759.47276250000004
  0
LINE
  8
_0-0_0
  6
CONTINUOUS
 62
    7
 10
27.522307999999953
 20
759.39094550000004
 11
27.255431999999928
 21
759.47276250000004
  0
LINE
  8
_0-0_0
  6
CONTINUOUS
 62
    7
 10
27.226287999999954
 20
759.0253755
 11
27.090743999999972
 21
759.26939349999998
  0
LINE
  8
_0-0_0
  6
CONTINUOUS
 62
    7
 10
27.364716000000044
 20
759.21592650000002
 11
27.090743999999972
 21
759.26939349999998
  0
LINE
  8
_0-0_0
  6
CONTINUOUS
 62
    7
 10
27.108520999999996
 20
758.82142650000003
 11
26.948226999999974
 21
759.04994150000005
  0
LINE
  8
_0-0_0
  6
CONTINUOUS
 62
    7
 10
27.226287999999954
 20
759.0253755
 11
26.948226999999974
 21
759.04994150000005
  0
LINE
  8
_0-0_0
  6
CONTINUOUS
 62
    7
 10
27.012741000000005
 20
758.60627750000003
 11
26.829422000000022
 21
758.81678750000003
  0
LINE
  8
_0-0_0
  6
CONTINUOUS
 62
    7
 10
27.108520999999996
 20
758.82142650000003
 11
26.829422000000022
 21
758.81678750000003
  0
LINE
  8
_0-0_0
  6
CONTINUOUS
 62
    7
 10
26.939957000000049
 20
758.38227849999998
 11
26.735656999999946
 21
758.57249449999995
  0
LINE
  8
_0-0_0
  6
CONTINUOUS
 62
    7
 10
27.012741000000005
 20
758.60627750000003
 11
26.735656999999946
 21
758.57249449999995
  0
LINE
  8
_0-0_0
  6
CONTINUOUS
 62
    7
 10
26.890990999999985
 20
758.15193150000005
 11
26.667922999999973
 21
758.31971750000002
  0
LINE
  8
_0-0_0
  6
CONTINUOUS
 62
    7
 10
26.939957000000049
 20
758.38227849999998
 11
26.667922999999973
 21
758.31971750000002
  0
LINE
  8
_0-0_0
  6
CONTINUOUS
 62
    7
 10
26.890990999999985
 20
758.15193150000005
 11
26.626983999999993
 21
758.0612635
  0
LINE
  8
_0-0_0
  6
CONTINUOUS
 62
    7
 10
26.866379000000052
 20
757.9177095
 11
26.626983999999993
 21
758.0612635
  0
LINE
  8
_0-0_0
  6
CONTINUOUS
 62
    7
 10
26.866379000000052
 20
757.68217449999997
 11
26.613296999999989
 21
757.79994150000005
  0
LINE
  8
_0-0_0
  6
CONTINUOUS
 62
    7
 10
26.866379000000052
 20
757.9177095
 11
26.613296999999989
 21
757.79994150000005
  0
LINE
  8
_0-0_0
  6
CONTINUOUS
 62
    7
 10
26.890990999999985
 20
757.44795250000004
 11
26.626983999999993
 21
757.53861949999998
  0
LINE
  8
_0-0_0
  6
CONTINUOUS
 62
    7
 10
26.866379000000052
 20
757.68217449999997
 11
26.626983999999993
 21
757.53861949999998
  0
LINE
  8
_0-0_0
  6
CONTINUOUS
 62
    7
 10
26.939957000000049
 20
757.21760549999999
 11
26.667922999999973
 21
757.28016649999995
  0
LINE
  8
_0-0_0
  6
CONTINUOUS
 62
    7
 10
26.890990999999985
 20
757.44795250000004
 11
26.667922999999973
 21
757.28016649999995
  0
LINE
  8
_0-0_0
  6
CONTINUOUS
 62
    7
 10
27.012741000000005
 20
756.99360650000006
 11
26.735656999999946
 21
757.02738950000003
  0
LINE
  8
_0-0_0
  6
CONTINUOUS
 62
    7
 10
26.939957000000049
 20
757.21760549999999
 11
26.735656999999946
 21
757.02738950000003
  0
LINE
  8
_0-0_0
  6
CONTINUOUS
 62
    7
 10
27.108520999999996
 20
756.77845750000006
 11
26.829422000000022
 21
756.78309650000006
  0
LINE
  8
_0-0_0
  6
CONTINUOUS
 62
    7
 10
27.012741000000005
 20
756.99360650000006
 11
26.829422000000022
 21
756.78309650000006
  0
LINE
  8
_0-0_0
  6
CONTINUOUS
 62
    7
 10
27.226287999999954
 20
756.57450849999998
 11
26.948226999999974
 21
756.54994150000005
  0
LINE
  8
_0-0_0
  6
CONTINUOUS
 62
    7
 10
27.108520999999996
 20
756.77845750000006
 11
26.948226999999974
 21
756.54994150000005
  0
LINE
  8
_0-0_0
  6
CONTINUOUS
 62
    7
 10
27.364716000000044
 20
756.38398749999999
 11
27.090743999999972
 21
756.3304895
  0
LINE
  8
_0-0_0
  6
CONTINUOUS
 62
    7
 10
27.226287999999954
 20
756.57450849999998
 11
27.090743999999972
 21
756.3304895
  0
LINE
  8
_0-0_0
  6
CONTINUOUS
 62
    7
 10
27.522307999999953
 20
756.20896849999997
 11
27.255431999999928
 21
756.12712050000005
  0
LINE
  8
_0-0_0
  6
CONTINUOUS
 62
    7
 10
27.364716000000044
 20
756.38398749999999
 11
27.255431999999928
 21
756.12712050000005
  0
LINE
  8
_0-0_0
  6
CONTINUOUS
 62
    7
 10
27.697326999999973
 20
756.05137649999995
 11
27.44046000000003
 21
755.94209250000006
  0
LINE
  8
_0-0_0
  6
CONTINUOUS
 62
    7
 10
27.522307999999953
 20
756.20896849999997
 11
27.44046000000003
 21
755.94209250000006
  0
LINE
  8
_0-0_0
  6
CONTINUOUS
 62
    7
 10
27.887847999999963
 20
755.91291750000005
 11
27.643828999999982
 21
755.77738950000003
  0
LINE
  8
_0-0_0
  6
CONTINUOUS
 62
    7
 10
27.697326999999973
 20
756.05137649999995
 11
27.643828999999982
 21
755.77738950000003
  0
LINE
  8
_0-0_0
  6
CONTINUOUS
 62
    7
 10
28.091812000000004
 20
755.79518150000001
 11
27.863296999999989
 21
755.63487250000003
  0
LINE
  8
_0-0_0
  6
CONTINUOUS
 62
    7
 10
27.887847999999963
 20
755.91291750000005
 11
27.863296999999989
 21
755.63487250000003
  0
LINE
  8
_0-0_0
  6
CONTINUOUS
 62
    7
 10
28.306961000000001
 20
755.69938650000006
 11
28.096451000000002
 21
755.51606749999996
  0
LINE
  8
_0-0_0
  6
CONTINUOUS
 62
    7
 10
28.091812000000004
 20
755.79518150000001
 11
28.096451000000002
 21
755.51606749999996
  0
LINE
  8
_0-0_0
  6
CONTINUOUS
 62
    7
 10
28.530944999999974
 20
755.62660249999999
 11
28.340743999999972
 21
755.42228650000004
  0
LINE
  8
_0-0_0
  6
CONTINUOUS
 62
    7
 10
28.306961000000001
 20
755.69938650000006
 11
28.340743999999972
 21
755.42228650000004
  0
LINE
  8
_0-0_0
  6
CONTINUOUS
 62
    7
 10
28.761306999999988
 20
755.5776515
 11
28.593505999999934
 21
755.35456850000003
  0
LINE
  8
_0-0_0
  6
CONTINUOUS
 62
    7
 10
28.530944999999974
 20
755.62660249999999
 11
28.593505999999934
 21
755.35456850000003
  0
LINE
  8
_0-0_0
  6
CONTINUOUS
 62
    7
 10
28.995529000000033
 20
755.55302449999999
 11
28.851975000000039
 21
755.31364450000001
  0
LINE
  8
_0-0_0
  6
CONTINUOUS
 62
    7
 10
28.761306999999988
 20
755.5776515
 11
28.851975000000039
 21
755.31364450000001
  0
LINE
  8
_0-0_0
  6
CONTINUOUS
 62
    7
 10
29.231048999999985
 20
755.55302449999999
 11
29.113296999999989
 21
755.29994150000005
  0
LINE
  8
_0-0_0
  6
CONTINUOUS
 62
    7
 10
28.995529000000033
 20
755.55302449999999
 11
29.113296999999989
 21
755.29994150000005
  0
LINE
  8
_0-0_0
  6
CONTINUOUS
 62
    7
 10
29.46527100000003
 20
755.5776515
 11
29.374618999999939
 21
755.31364450000001
  0
LINE
  8
_0-0_0
  6
CONTINUOUS
 62
    7
 10
29.231048999999985
 20
755.55302449999999
 11
29.374618999999939
 21
755.31364450000001
  0
LINE
  8
_0-0_0
  6
CONTINUOUS
 62
    7
 10
29.695633000000043
 20
755.62660249999999
 11
29.63307199999997
 21
755.35456850000003
  0
LINE
  8
_0-0_0
  6
CONTINUOUS
 62
    7
 10
29.46527100000003
 20
755.5776515
 11
29.63307199999997
 21
755.35456850000003
  0
LINE
  8
_0-0_0
  6
CONTINUOUS
 62
    7
 10
29.919617000000017
 20
755.69938650000006
 11
29.885833999999932
 21
755.42228650000004
  0
LINE
  8
_0-0_0
  6
CONTINUOUS
 62
    7
 10
29.695633000000043
 20
755.62660249999999
 11
29.885833999999932
 21
755.42228650000004
  0
LINE
  8
_0-0_0
  6
CONTINUOUS
 62
    7
 10
30.134766000000013
 20
755.79518150000001
 11
30.130127000000016
 21
755.51606749999996
  0
LINE
  8
_0-0_0
  6
CONTINUOUS
 62
    7
 10
29.919617000000017
 20
755.69938650000006
 11
30.130127000000016
 21
755.51606749999996
  0
LINE
  8
_0-0_0
  6
CONTINUOUS
 62
    7
 10
30.254302999999936
 20
755.71131849999995
 11
30.363296999999989
 21
755.63487250000003
  0
LINE
  8
_0-0_0
  6
CONTINUOUS
 62
    7
 10
30.134766000000013
 20
755.79518150000001
 11
30.254302999999936
 21
755.71131849999995
  0
LINE
  8
_0-0_0
  6
CONTINUOUS
 62
    7
 10
30.338729999999941
 20
755.91291750000005
 11
30.363296999999989
 21
755.63487250000003
  0
LINE
  8
_0-0_0
  6
CONTINUOUS
 62
    7
 10
30.529266000000007
 20
756.05137649999995
 11
30.582748000000038
 21
755.77738950000003
  0
LINE
  8
_0-0_0
  6
CONTINUOUS
 62
    7
 10
30.338729999999941
 20
755.91291750000005
 11
30.582748000000038
 21
755.77738950000003
  0
LINE
  8
_0-0_0
  6
CONTINUOUS
 62
    7
 10
30.704285000000027
 20
756.20896849999997
 11
30.786117999999988
 21
755.94209250000006
  0
LINE
  8
_0-0_0
  6
CONTINUOUS
 62
    7
 10
30.529266000000007
 20
756.05137649999995
 11
30.786117999999988
 21
755.94209250000006
  0
LINE
  8
_0-0_0
  6
CONTINUOUS
 62
    7
 10
30.86187700000005
 20
756.38398749999999
 11
30.971160999999938
 21
756.12712050000005
  0
LINE
  8
_0-0_0
  6
CONTINUOUS
 62
    7
 10
30.704285000000027
 20
756.20896849999997
 11
30.971160999999938
 21
756.12712050000005
  0
LINE
  8
_0-0_0
  6
CONTINUOUS
 62
    7
 10
31.000305000000026
 20
756.57450849999998
 11
31.135833999999932
 21
756.3304895
  0
LINE
  8
_0-0_0
  6
CONTINUOUS
 62
    7
 10
30.86187700000005
 20
756.38398749999999
 11
31.135833999999932
 21
756.3304895
  0
LINE
  8
_0-0_0
  6
CONTINUOUS
 62
    7
 10
31.118057000000022
 20
756.77845750000006
 11
31.27835099999993
 21
756.54994150000005
  0
LINE
  8
_0-0_0
  6
CONTINUOUS
 62
    7
 10
31.000305000000026
 20
756.57450849999998
 11
31.27835099999993
 21
756.54994150000005
  0
LINE
  8
_0-0_0
  6
CONTINUOUS
 62
    7
 10
31.213851999999974
 20
756.99360650000006
 11
31.397155999999995
 21
756.78309650000006
  0
LINE
  8
_0-0_0
  6
CONTINUOUS
 62
    7
 10
31.118057000000022
 20
756.77845750000006
 11
31.397155999999995
 21
756.78309650000006
  0
LINE
  8
_0-0_0
  6
CONTINUOUS
 62
    7
 10
31.286620999999968
 20
757.21760549999999
 11
31.49093599999992
 21
757.02738950000003
  0
LINE
  8
_0-0_0
  6
CONTINUOUS
 62
    7
 10
31.213851999999974
 20
756.99360650000006
 11
31.49093599999992
 21
757.02738950000003
  0
LINE
  8
_0-0_0
  6
CONTINUOUS
 62
    7
 10
31.335587000000032
 20
757.44795250000004
 11
31.558655000000044
 21
757.28016649999995
  0
LINE
  8
_0-0_0
  6
CONTINUOUS
 62
    7
 10
31.286620999999968
 20
757.21760549999999
 11
31.558655000000044
 21
757.28016649999995
  0
LINE
  8
_0-0_0
  6
CONTINUOUS
 62
    7
 10
31.360214000000042
 20
757.68217449999997
 11
31.599594000000025
 21
757.53861949999998
  0
LINE
  8
_0-0_0
  6
CONTINUOUS
 62
    7
 10
31.335587000000032
 20
757.44795250000004
 11
31.599594000000025
 21
757.53861949999998
  0
LINE
  8
_0-0_0
  6
CONTINUOUS
 62
    7
 10
31.360214000000042
 20
757.9177095
 11
31.613296999999989
 21
757.79994150000005
  0
LINE
  8
_0-0_0
  6
CONTINUOUS
 62
    7
 10
31.360214000000042
 20
757.68217449999997
 11
31.613296999999989
 21
757.79994150000005
  0
LINE
  8
_0-0_0
  6
CONTINUOUS
 62
    7
 10
31.335587000000032
 20
758.15193150000005
 11
31.599594000000025
 21
758.0612635
  0
LINE
  8
_0-0_0
  6
CONTINUOUS
 62
    7
 10
31.360214000000042
 20
757.9177095
 11
31.599594000000025
 21
758.0612635
  0
LINE
  8
_0-0_0
  6
CONTINUOUS
 62
    7
 10
31.286620999999968
 20
758.38227849999998
 11
31.558655000000044
 21
758.31971750000002
  0
LINE
  8
_0-0_0
  6
CONTINUOUS
 62
    7
 10
31.335587000000032
 20
758.15193150000005
 11
31.558655000000044
 21
758.31971750000002
  0
LINE
  8
_0-0_0
  6
CONTINUOUS
 62
    7
 10
31.213851999999974
 20
758.60627750000003
 11
31.49093599999992
 21
758.57249449999995
  0
LINE
  8
_0-0_0
  6
CONTINUOUS
 62
    7
 10
31.286620999999968
 20
758.38227849999998
 11
31.49093599999992
 21
758.57249449999995
  0
LINE
  8
_0-0_0
  6
CONTINUOUS
 62
    7
 10
31.118057000000022
 20
758.82142650000003
 11
31.397155999999995
 21
758.81678750000003
  0
LINE
  8
_0-0_0
  6
CONTINUOUS
 62
    7
 10
31.213851999999974
 20
758.60627750000003
 11
31.397155999999995
 21
758.81678750000003
  0
CIRCLE
  8
_0-0_0
  6
CONTINUOUS
 62
    7
 10
41.113296999999989
 20
774.39994750000005
 40
2
  0
CIRCLE
  8
_0-0_0
  6
CONTINUOUS
 62
    7
 10
29.113296999999989
 20
757.79994150000005
 40
2
  0
LINE
  8
_0-0_0
  6
CONTINUOUS
 62
    7
 10
41.695404000000053
 20
773.39994750000005
 11
40.53118900000004
 21
773.39994750000005
  0
LINE
  8
_0-0_0
  6
CONTINUOUS
 62
    7
 10
40.53118900000004
 20
773.39994750000005
 11
39.963287000000037
 21
774.39994750000005
  0
LINE
  8
_0-0_0
  6
CONTINUOUS
 62
    7
 10
39.963287000000037
 20
774.39994750000005
 11
40.53118900000004
 21
775.39994750000005
  0
LINE
  8
_0-0_0
  6
CONTINUOUS
 62
    7
 10
40.53118900000004
 20
775.39994750000005
 11
41.695404000000053
 21
775.39994750000005
  0
LINE
  8
_0-0_0
  6
CONTINUOUS
 62
    7
 10
41.695404000000053
 20
775.39994750000005
 11
42.263289999999984
 21
774.39994750000005
  0
LINE
  8
_0-0_0
  6
CONTINUOUS
 62
    7
 10
42.263289999999984
 20
774.39994750000005
 11
41.695404000000053
 21
773.39994750000005
  0
CIRCLE
  8
_0-0_0
  6
CONTINUOUS
 62
    7
 10
35.113296999999989
 20
766.09992950000003
 40
5
  0
LINE
  8
_0-0_0
  6
CONTINUOUS
 62
    7
 10
29.695404000000053
 20
756.79994150000005
 11
28.53118900000004
 21
756.79994150000005
  0
LINE
  8
_0-0_0
  6
CONTINUOUS
 62
    7
 10
28.53118900000004
 20
756.79994150000005
 11
27.963287000000037
 21
757.79994150000005
  0
LINE
  8
_0-0_0
  6
CONTINUOUS
 62
    7
 10
27.963287000000037
 20
757.79994150000005
 11
28.53118900000004
 21
758.79994150000005
  0
LINE
  8
_0-0_0
  6
CONTINUOUS
 62
    7
 10
28.53118900000004
 20
758.79994150000005
 11
29.695404000000053
 21
758.79994150000005
  0
LINE
  8
_0-0_0
  6
CONTINUOUS
 62
    7
 10
29.695404000000053
 20
758.79994150000005
 11
30.263289999999984
 21
757.79994150000005
  0
LINE
  8
_0-0_0
  6
CONTINUOUS
 62
    7
 10
30.263289999999984
 20
757.79994150000005
 11
29.695404000000053
 21
756.79994150000005
  0
CIRCLE
  8
_0-0_0
  6
CONTINUOUS
 62
    7
 10
35.113296999999989
 20
766.09992950000003
 40
4.5381200000000002
  0
CIRCLE
  8
_0-0_0
  6
CONTINUOUS
 62
    7
 10
35.113296999999989
 20
766.09992950000003
 40
4
  0
LINE
  8
_0-0_0
  6
CONTINUOUS
 62
    7
 10
26.980712999999923
 20
776.05525150000005
 11
26.313292999999931
 21
776.05525150000005
  0
ARC
  8
_0-0_0
  6
CONTINUOUS
 62
    7
 10
43.113296999999989
 20
776.52494750000005
 40
0.2
 50
179.94055499999999
 51
269.99997000000002
  0
ARC
  8
_0-0_0
  6
CONTINUOUS
 62
    7
 10
41.613296999999989
 20
757.29994150000005
 40
2
 50
269.99999700000001
 51
273.84026499999999
  0
ARC
  8
_0-0_0
  6
CONTINUOUS
 62
    7
 10
28.613296999999989
 20
774.89994750000005
 40
2
 50
90.000003000000007
 51
93.840255999999997
  0
LINE
  8
_0-0_0
  6
CONTINUOUS
 62
    7
 10
43.413299999999936
 20
776.32493550000004
 11
43.113296999999989
 21
776.32493550000004
  0
LINE
  8
_0-0_0
  6
CONTINUOUS
 62
    7
 10
43.413299999999936
 20
779.27494750000005
 11
43.113296999999989
 21
779.27494750000005
  0
ARC
  8
_0-0_0
  6
CONTINUOUS
 62
    7
 10
27.113296999999989
 20
776.52500950000001
 40
0.2
 50
270.00002499999994
 51
0.0594439999999606
  0
ARC
  8
_0-0_0
  6
CONTINUOUS
 62
    7
 10
43.413254000000052
 20
776.52497849999997
 40
0.200055
 50
270.00964199999999
 51
1.3705509999999435
  0
ARC
  8
_0-0_0
  6
CONTINUOUS
 62
    7
 10
43.413283999999976
 20
779.07493550000004
 40
0.2
 50
359.91222800000003
 51
89.999948000000003
  0
LINE
  8
_0-0_0
  6
CONTINUOUS
 62
    7
 10
26.813292999999931
 20
776.32502750000003
 11
27.113296999999989
 21
776.32502750000003
  0
ARC
  8
_0-0_0
  6
CONTINUOUS
 62
    7
 10
26.813323999999966
 20
776.52507049999997
 40
0.200055
 50
178.629446
 51
269.99035300000003
  0
LINE
  8
_0-0_0
  6
CONTINUOUS
 62
    7
 10
43.813292999999931
 20
781.80000250000001
 11
43.813292999999931
 21
795.00001550000002
  0
ARC
  8
_0-0_0
  6
CONTINUOUS
 62
    7
 10
43.313292999999931
 20
781.80000250000001
 40
0.5
 50
269.99999700000001
 51
0
  0
ARC
  8
_0-0_0
  6
CONTINUOUS
 62
    7
 10
43.754715000000033
 20
795.20002750000003
 40
0.1
 50
135
 51
225
  0
LINE
  8
_0-0_0
  6
CONTINUOUS
 62
    7
 10
43.684005999999954
 20
795.12931849999995
 11
43.813292999999931
 21
795.00001550000002
  0
LINE
  8
_0-0_0
  6
CONTINUOUS
 62
    7
 10
43.313292999999931
 20
781.30000250000001
 11
41.413299999999936
 21
781.30000250000001
  0
ARC
  8
_0-0_0
  6
CONTINUOUS
 62
    7
 10
41.413299999999936
 20
781.80000250000001
 40
0.5
 50
233.12990600000001
 51
269.99999700000001
  0
ARC
  8
_0-0_0
  6
CONTINUOUS
 62
    7
 10
28.713287000000037
 20
781.80000250000001
 40
0.5
 50
269.99999700000001
 51
306.87009999999998
  0
LINE
  8
_0-0_0
  6
CONTINUOUS
 62
    7
 10
28.713287000000037
 20
781.30000250000001
 11
26.813292999999931
 21
781.30000250000001
  0
ARC
  8
_0-0_0
  6
CONTINUOUS
 62
    7
 10
26.813292999999931
 20
781.80000250000001
 40
0.5
 50
180.00000900000003
 51
269.99999700000001
  0
LINE
  8
_0-0_0
  6
CONTINUOUS
 62
    7
 10
26.313292999999931
 20
791.23500049999996
 11
26.313292999999931
 21
781.80000250000001
  0
LINE
  8
_0-0_0
  6
CONTINUOUS
 62
    7
 10
26.313292999999931
 20
791.23500049999996
 11
27.013289999999984
 21
791.23500049999996
  0
LINE
  8
_0-0_0
  6
CONTINUOUS
 62
    7
 10
43.013289999999984
 20
809.80000250000001
 11
43.219330000000014
 21
809.80000250000001
  0
LINE
  8
_0-0_0
  6
CONTINUOUS
 62
    7
 10
43.219330000000014
 20
809.80000250000001
 11
43.813292999999931
 21
809.20603949999997
  0
LINE
  8
_0-0_0
  6
CONTINUOUS
 62
    7
 10
43.813292999999931
 20
804.20002750000003
 11
43.813292999999931
 21
809.20603949999997
  0
LINE
  8
_0-0_0
  6
CONTINUOUS
 62
    7
 10
43.684005999999954
 20
804.07072449999998
 11
43.813292999999931
 21
804.20002750000003
  0
ARC
  8
_0-0_0
  6
CONTINUOUS
 62
    7
 10
43.754715000000033
 20
804.00001550000002
 40
0.1
 50
135
 51
225
  0
LINE
  8
_0-0_0
  6
CONTINUOUS
 62
    7
 10
43.684005999999954
 20
803.92930550000005
 11
43.813292999999931
 21
803.80000250000001
  0
LINE
  8
_0-0_0
  6
CONTINUOUS
 62
    7
 10
43.813292999999931
 20
803.10002150000003
 11
43.813292999999931
 21
803.80000250000001
  0
LINE
  8
_0-0_0
  6
CONTINUOUS
 62
    7
 10
43.684005999999954
 20
802.97071849999998
 11
43.813292999999931
 21
803.10002150000003
  0
ARC
  8
_0-0_0
  6
CONTINUOUS
 62
    7
 10
43.754715000000033
 20
802.90000950000001
 40
0.1
 50
135
 51
225
  0
LINE
  8
_0-0_0
  6
CONTINUOUS
 62
    7
 10
43.684005999999954
 20
802.82929950000005
 11
43.813292999999931
 21
802.70002750000003
  0
LINE
  8
_0-0_0
  6
CONTINUOUS
 62
    7
 10
43.813292999999931
 20
802.00001550000002
 11
43.813292999999931
 21
802.70002750000003
  0
LINE
  8
_0-0_0
  6
CONTINUOUS
 62
    7
 10
43.684005999999954
 20
801.87074250000001
 11
43.813292999999931
 21
802.00001550000002
  0
ARC
  8
_0-0_0
  6
CONTINUOUS
 62
    7
 10
43.754715000000033
 20
801.80000250000001
 40
0.1
 50
135
 51
225
  0
LINE
  8
_0-0_0
  6
CONTINUOUS
 62
    7
 10
43.684005999999954
 20
801.72929350000004
 11
43.813292999999931
 21
801.60002150000003
  0
LINE
  8
_0-0_0
  6
CONTINUOUS
 62
    7
 10
43.813292999999931
 20
800.90000950000001
 11
43.813292999999931
 21
801.60002150000003
  0
LINE
  8
_0-0_0
  6
CONTINUOUS
 62
    7
 10
43.684005999999954
 20
800.7707365
 11
43.813292999999931
 21
800.90000950000001
  0
ARC
  8
_0-0_0
  6
CONTINUOUS
 62
    7
 10
43.754715000000033
 20
800.70002750000003
 40
0.1
 50
135
 51
225
  0
LINE
  8
_0-0_0
  6
CONTINUOUS
 62
    7
 10
43.684005999999954
 20
800.62931849999995
 11
43.813292999999931
 21
800.50001550000002
  0
LINE
  8
_0-0_0
  6
CONTINUOUS
 62
    7
 10
43.813292999999931
 20
799.80000250000001
 11
43.813292999999931
 21
800.50001550000002
  0
LINE
  8
_0-0_0
  6
CONTINUOUS
 62
    7
 10
43.684005999999954
 20
799.67073049999999
 11
43.813292999999931
 21
799.80000250000001
  0
ARC
  8
_0-0_0
  6
CONTINUOUS
 62
    7
 10
43.754715000000033
 20
799.60002150000003
 40
0.1
 50
135
 51
225
  0
LINE
  8
_0-0_0
  6
CONTINUOUS
 62
    7
 10
43.684005999999954
 20
799.52931149999995
 11
43.813292999999931
 21
799.40000950000001
  0
LINE
  8
_0-0_0
  6
CONTINUOUS
 62
    7
 10
43.813292999999931
 20
798.70002750000003
 11
43.813292999999931
 21
799.40000950000001
  0
LINE
  8
_0-0_0
  6
CONTINUOUS
 62
    7
 10
43.684005999999954
 20
798.57072449999998
 11
43.813292999999931
 21
798.70002750000003
  0
ARC
  8
_0-0_0
  6
CONTINUOUS
 62
    7
 10
43.754715000000033
 20
798.50001550000002
 40
0.1
 50
135
 51
225
  0
LINE
  8
_0-0_0
  6
CONTINUOUS
 62
    7
 10
43.684005999999954
 20
798.42930550000005
 11
43.813292999999931
 21
798.30000250000001
  0
LINE
  8
_0-0_0
  6
CONTINUOUS
 62
    7
 10
43.813292999999931
 20
797.60002150000003
 11
43.813292999999931
 21
798.30000250000001
  0
LINE
  8
_0-0_0
  6
CONTINUOUS
 62
    7
 10
43.684005999999954
 20
797.47071849999998
 11
43.813292999999931
 21
797.60002150000003
  0
ARC
  8
_0-0_0
  6
CONTINUOUS
 62
    7
 10
43.754715000000033
 20
797.40000950000001
 40
0.1
 50
135
 51
225
  0
LINE
  8
_0-0_0
  6
CONTINUOUS
 62
    7
 10
43.684005999999954
 20
797.32929950000005
 11
43.813292999999931
 21
797.20002750000003
  0
LINE
  8
_0-0_0
  6
CONTINUOUS
 62
    7
 10
43.813292999999931
 20
796.50001550000002
 11
43.813292999999931
 21
797.20002750000003
  0
LINE
  8
_0-0_0
  6
CONTINUOUS
 62
    7
 10
43.684005999999954
 20
796.37074250000001
 11
43.813292999999931
 21
796.50001550000002
  0
ARC
  8
_0-0_0
  6
CONTINUOUS
 62
    7
 10
43.754715000000033
 20
796.30000250000001
 40
0.1
 50
135
 51
225
  0
LINE
  8
_0-0_0
  6
CONTINUOUS
 62
    7
 10
43.684005999999954
 20
796.22929350000004
 11
43.813292999999931
 21
796.10002150000003
  0
LINE
  8
_0-0_0
  6
CONTINUOUS
 62
    7
 10
43.813292999999931
 20
795.40000950000001
 11
43.813292999999931
 21
796.10002150000003
  0
LINE
  8
_0-0_0
  6
CONTINUOUS
 62
    7
 10
43.684005999999954
 20
795.2707365
 11
43.813292999999931
 21
795.40000950000001
  0
LINE
  8
_0-0_0
  6
CONTINUOUS
 62
    7
 10
43.813292999999931
 20
787.30000250000001
 11
43.913299999999936
 21
787.30000250000001
  0
LINE
  8
_0-0_0
  6
CONTINUOUS
 62
    7
 10
43.913299999999936
 20
786.80000250000001
 11
43.913299999999936
 21
787.30000250000001
  0
LINE
  8
_0-0_0
  6
CONTINUOUS
 62
    7
 10
43.913299999999936
 20
786.80000250000001
 11
43.913299999999936
 21
782.80000250000001
  0
LINE
  8
_0-0_0
  6
CONTINUOUS
 62
    7
 10
43.813292999999931
 20
782.30000250000001
 11
43.913299999999936
 21
782.30000250000001
  0
LINE
  8
_0-0_0
  6
CONTINUOUS
 62
    7
 10
43.913299999999936
 20
782.30000250000001
 11
43.913299999999936
 21
782.80000250000001
  0
LINE
  8
_0-0_0
  6
CONTINUOUS
 62
    7
 10
26.313292999999931
 20
791.30003350000004
 11
26.313292999999931
 21
791.23500049999996
  0
LINE
  8
_0-0_0
  6
CONTINUOUS
 62
    7
 10
42.813292999999931
 20
810.10002150000003
 11
42.813292999999931
 21
810.00001550000002
  0
ARC
  8
_0-0_0
  6
CONTINUOUS
 62
    7
 10
30.313292999999931
 20
810.10002150000003
 40
2.5
 50
90.000003000000007
 51
180.00000900000001
  0
LINE
  8
_0-0_0
  6
CONTINUOUS
 62
    7
 10
26.213287000000037
 20
791.30000250000001
 11
27.013289999999984
 21
791.30000250000001
  0
LINE
  8
_0-0_0
  6
CONTINUOUS
 62
    7
 10
26.713287000000037
 20
813.10002150000003
 11
26.713287000000037
 21
808.87849449999999
  0
LINE
  8
_0-0_0
  6
CONTINUOUS
 62
    7
 10
27.813292999999931
 20
813.10002150000003
 11
27.813292999999931
 21
810.10002150000003
  0
LINE
  8
_0-0_0
  6
CONTINUOUS
 62
    7
 10
26.713287000000037
 20
808.87849449999999
 11
27.013289999999984
 21
808.87849449999999
  0
LINE
  8
_0-0_0
  6
CONTINUOUS
 62
    7
 10
26.713287000000037
 20
818.23991350000006
 11
27.813292999999931
 21
818.23991350000006
  0
LINE
  8
_0-0_0
  6
CONTINUOUS
 62
    7
 10
27.813292999999931
 20
813.10050950000004
 11
27.813292999999931
 21
818.23991350000006
  0
LINE
  8
_0-0_0
  6
CONTINUOUS
 62
    7
 10
26.213287000000037
 20
812.60096750000002
 11
26.213287000000037
 21
817.67213449999997
  0
LINE
  8
_0-0_0
  6
CONTINUOUS
 62
    7
 10
26.713287000000037
 20
818.23991350000006
 11
26.213287000000037
 21
817.67213449999997
  0
ARC
  8
_0-0_0
  6
CONTINUOUS
 62
    7
 10
40.313292999999931
 20
810.10002150000003
 40
2.5
 50
0
 51
90.000003000000007
  0
LINE
  8
_0-0_0
  6
CONTINUOUS
 62
    7
 10
27.813292999999931
 20
810.00001550000002
 11
27.813292999999931
 21
810.10002150000003
  0
LINE
  8
_0-0_0
  6
CONTINUOUS
 62
    7
 10
40.313292999999931
 20
812.60002150000003
 11
30.313292999999931
 21
812.60002150000003
  0
LINE
  8
_0-0_0
  6
CONTINUOUS
 62
    7
 10
44.013289999999984
 20
782.80000250000001
 11
44.013289999999984
 21
782.93037449999997
  0
LINE
  8
_0-0_0
  6
CONTINUOUS
 62
    7
 10
44.013289999999984
 20
786.43037449999997
 11
44.013289999999984
 21
782.93037449999997
  0
LINE
  8
_0-0_0
  6
CONTINUOUS
 62
    7
 10
43.913299999999936
 20
786.70002750000003
 11
44.013289999999984
 21
786.70002750000003
  0
LINE
  8
_0-0_0
  6
CONTINUOUS
 62
    7
 10
44.013289999999984
 20
786.43037449999997
 11
44.013289999999984
 21
786.70002750000003
  0
LINE
  8
_0-0_0
  6
CONTINUOUS
 62
    7
 10
27.813292999999931
 20
820.60002150000003
 11
27.813292999999931
 21
818.23991350000006
  0
LINE
  8
_0-0_0
  6
CONTINUOUS
 62
    7
 10
43.613296999999989
 20
809.20002750000003
 11
42.613296999999989
 21
810.20002750000003
  0
LINE
  8
_0-0_0
  6
CONTINUOUS
 62
    7
 10
43.613296999999989
 20
781.40000950000001
 11
43.613296999999989
 21
809.20002750000003
  0
LINE
  8
_0-0_0
  6
CONTINUOUS
 62
    7
 10
27.013289999999984
 20
781.40000950000001
 11
43.613296999999989
 21
781.40000950000001
  0
LINE
  8
_0-0_0
  6
CONTINUOUS
 62
    7
 10
27.013289999999984
 20
809.20002750000003
 11
27.013289999999984
 21
781.40000950000001
  0
LINE
  8
_0-0_0
  6
CONTINUOUS
 62
    7
 10
26.213287000000037
 20
791.30000250000001
 11
26.213287000000037
 21
808.11283849999995
  0
LINE
  8
_0-0_0
  6
CONTINUOUS
 62
    7
 10
26.213287000000037
 20
812.60002150000003
 11
26.213287000000037
 21
808.11283849999995
  0
ARC
  8
_0-0_0
  6
CONTINUOUS
 62
    7
 10
57.665030999999999
 20
788.11784350000005
 40
37.269466000000001
 50
146.14857699999999
 51
147.55443399999999
  0
LINE
  8
_0-0_0
  6
CONTINUOUS
 62
    7
 10
26.713287000000037
 20
820.60002150000003
 11
26.713287000000037
 21
818.23991350000006
  0
LINE
  8
_0-0_0
  6
CONTINUOUS
 62
    7
 10
26.213287000000037
 20
820.10002150000003
 11
26.213287000000037
 21
817.67213449999997
  0
ARC
  8
_0-0_0
  6
CONTINUOUS
 62
    7
 10
40.044251000000031
 20
809.80000250000001
 40
2.6000000000000001
 50
8.8498839999999994
 51
90.000002999999992
  0
LINE
  8
_0-0_0
  6
CONTINUOUS
 62
    7
 10
40.044251000000031
 20
812.40000950000001
 11
30.582335999999941
 21
812.40000950000001
  0
ARC
  8
_0-0_0
  6
CONTINUOUS
 62
    7
 10
30.582335999999941
 20
809.80000250000001
 40
2.6000000000000001
 50
90.000003000000007
 51
171.150115
  0
LINE
  8
_0-0_0
  6
CONTINUOUS
 62
    7
 10
27.013289999999984
 20
809.20002750000003
 11
28.013289999999984
 21
810.20002750000003
  0
LINE
  8
_0-0_0
  6
CONTINUOUS
 62
    7
 10
42.613296999999989
 20
808.78581250000002
 11
43.613296999999989
 21
809.20002750000003
  0
ARC
  8
_0-0_0
  6
CONTINUOUS
 62
    7
 10
37.070754999999963
 20
820.98612949999995
 40
12.126564999999999
 50
292.155034
 51
297.19674500000002
  0
LINE
  8
_0-0_0
  6
CONTINUOUS
 62
    7
 10
42.613296999999989
 20
782.40000950000001
 11
43.613296999999989
 21
781.40000950000001
  0
LINE
  8
_0-0_0
  6
CONTINUOUS
 62
    7
 10
28.013289999999984
 20
782.40000950000001
 11
27.013289999999984
 21
781.40000950000001
  0
LINE
  8
_0-0_0
  6
CONTINUOUS
 62
    7
 10
28.013289999999984
 20
808.78581250000002
 11
27.013289999999984
 21
809.20002750000003
  0
ARC
  8
_0-0_0
  6
CONTINUOUS
 62
    7
 10
33.555832000000009
 20
820.98612949999995
 40
12.126567
 50
242.80325699999997
 51
247.84494000000001
  0
CIRCLE
  8
_0-0_0
  6
CONTINUOUS
 62
    7
 10
35.313292999999931
 20
789.60002150000003
 40
2.0670000000000002
  0
LINE
  8
_0-0_0
  6
CONTINUOUS
 62
    7
 10
27.813292999999931
 20
813.10002150000003
 11
26.713287000000037
 21
813.10002150000003
  0
LINE
  8
_0-0_0
  6
CONTINUOUS
 62
    7
 10
43.913299999999936
 20
782.80000250000001
 11
44.013289999999984
 21
782.80000250000001
  0
LINE
  8
_0-0_0
  6
CONTINUOUS
 62
    7
 10
43.913299999999936
 20
782.80000250000001
 11
44.013289999999984
 21
782.80000250000001
  0
LINE
  8
_0-0_0
  6
CONTINUOUS
 62
    7
 10
26.213287000000037
 20
812.60002150000003
 11
26.713287000000037
 21
813.10002150000003
  0
LINE
  8
_0-0_0
  6
CONTINUOUS
 62
    7
 10
27.813292999999931
 20
820.60002150000003
 11
26.713287000000037
 21
820.60002150000003
  0
LINE
  8
_0-0_0
  6
CONTINUOUS
 62
    7
 10
26.213287000000037
 20
820.10002150000003
 11
26.713287000000037
 21
820.60002150000003
  0
ENDSEC
  0
EOF
