  0
SECTION
  2
HEADER
  9
$ACADVER
  1
AC1009
  9
$INSBASE
 10
0
 20
0
 30
0
  9
$EXTMIN
 10
0
 20
0
  9
$EXTMAX
 10
841
 20
594
  9
$LIMMIN
 10
0
 20
0
  9
$LIMMAX
 10
841
 20
594
  9
$LTSCALE
 40
1
  0
ENDSEC
  0
SECTION
  2
TABLES
  0
TABLE
  2
LTYPE
 70
     9
  0
LTYPE
  2
CONTINUOUS
 70
    64
  3
実線
 72
    65
 73
     0
 40
0.0
  0
LTYPE
  2
DASHED1
 70
    64
  3
--  --  --  --  --  --  --  --  
 72
    65
 73
     2
 40
2.5
 49
1.25
 49
-1.25
  0
LTYPE
  2
DASHED2
 70
    64
  3
----    ----    ----    ----    
 72
    65
 73
     2
 40
5.0
 49
2.5
 49
-2.5
  0
LTYPE
  2
DASHED3
 70
    64
  3
------  ------  ------  ------  
 72
    65
 73
     2
 40
5.0
 49
3.75
 49
-1.25
  0
LTYPE
  2
CENTER1
 70
    64
  3
----- - ----- - ----- - ----- - 
 72
    65
 73
     4
 40
10.0
 49
6.25
 49
-1.25
 49
1.25
 49
-1.25
  0
LTYPE
  2
CENTER2
 70
    64
  3
----------  --  ----------  --  
 72
    65
 73
     4
 40
20.0
 49
12.5
 49
-2.5
 49
2.5
 49
-2.5
  0
LTYPE
  2
PHANTOM1
 70
    64
  3
--- - - --- - - --- - - --- - - 
 72
    65
 73
     6
 40
10.0
 49
3.25
 49
-1.25
 49
1.25
 49
-1.25
 49
1.25
 49
-1.25
  0
LTYPE
  2
PHANTOM2
 70
    64
  3
--------  -  -  --------  -  -  
 72
    65
 73
     6
 40
20.0
 49
10.0
 49
-2.5
 49
1.25
 49
-2.5
 49
1.25
 49
-2.5
  0
LTYPE
  2
DOT
 70
    64
  3
-   -   -   -   -   -   -   -   
 72
    65
 73
     2
 40
2.5
 49
0.625
 49
-1.875
  0
LTYPE
  2
DUMMY
 70
    64
  3
ダミー
 72
    65
 73
     0
 40
0.0
  0
LTYPE
  2
RAND1
 70
    64
  3
ランダム線1
 72
    65
 73
     4
 40
10.0
 49
1.0
 49
-2.0
 49
3.0
 49
-4.0
  0
LTYPE
  2
RAND2
 70
    64
  3
ランダム線2
 72
    65
 73
     4
 40
14.0
 49
2.0
 49
-3.0
 49
4.0
 49
-5.0
  0
LTYPE
  2
RAND3
 70
    64
  3
ランダム線3
 72
    65
 73
     4
 40
18.0
 49
3.0
 49
-4.0
 49
5.0
 49
-6.0
  0
LTYPE
  2
RAND4
 70
    64
  3
ランダム線4
 72
    65
 73
     4
 40
22.0
 49
4.0
 49
-5.0
 49
6.0
 49
-7.0
  0
LTYPE
  2
RAND5
 70
    64
  3
ランダム線5
 72
    65
 73
     4
 40
26.0
 49
5.0
 49
-6.0
 49
7.0
 49
-8.0
  0
LTYPE
  2
LONG1
 70
    64
  3
----------  --  ----------  --  
 72
    65
 73
     4
 40
40.0
 49
32.5
 49
-2.5
 49
2.5
 49
-2.5
  0
LTYPE
  2
LONG2
 70
    64
  3
--------  -  -  --------  -  -  
 72
    65
 73
     6
 40
40.0
 49
30.0
 49
-2.5
 49
1.25
 49
-2.5
 49
1.25
 49
-2.5
  0
LTYPE
  2
LONG3
 70
    64
  3
+++++++++++++++..+++++++++++++++
 72
    65
 73
     2
 40
40.0
 49
37.5
 49
-2.5
  0
LTYPE
  2
LONG4
 70
    64
  3
+++++++++++++++..+++++++++++++++
 72
    65
 73
     2
 40
80.0
 49
75.0
 49
-5.0
  0
LTYPE
  2
LONG5
 70
    64
  3
----------  --  ----------  --  
 72
    65
 73
     4
 40
60.0
 49
37.5
 49
-7.5
 49
7.5
 49
-7.5
  0
LTYPE
  2
dashed
 70
   64
  3
-------   -------------   ------
 72
   65
 73
    2
 40
7.5
 49
6
 49
-1.5
  0
LTYPE
  2
dashed_spaced
 70
   64
  3
----        --------        ----
 72
   65
 73
    2
 40
12
 49
6
 49
-6
  0
LTYPE
  2
long_dashed_dotted
 70
   64
  3
------------- --- --------------
 72
   65
 73
    4
 40
15.25
 49
12
 49
-1.5
 49
0.25
 49
-1.5
  0
LTYPE
  2
long_dashed_double-dotted
 70
   64
  3
----------- --- --- ------------
 72
   65
 73
    6
 40
17
 49
12
 49
-1.5
 49
0.25
 49
-1.5
 49
0.25
 49
-1.5
  0
LTYPE
  2
long_dashed_triplicate-dotted
 70
   64
  3
--------- --- --- --- ----------
 72
   65
 73
    8
 40
18.75
 49
12
 49
-1.5
 49
0.25
 49
-1.5
 49
0.25
 49
-1.5
 49
0.25
 49
-1.5
  0
LTYPE
  2
dotted
 70
   64
  3
   -       -       -       -    
 72
   65
 73
    2
 40
1.75
 49
0.25
 49
-1.5
  0
LTYPE
  2
chain
 70
   64
  3
-------------- -- --------------
 72
   65
 73
    4
 40
18.5
 49
12
 49
-1.5
 49
3.5
 49
-1.5
  0
LTYPE
  2
chain_double_dash
 70
   64
  3
------------ -- -- -------------
 72
   65
 73
    6
 40
23.5
 49
12
 49
-1.5
 49
3.5
 49
-1.5
 49
3.5
 49
-1.5
  0
LTYPE
  2
dashed_dotted
 70
   64
  3
-----------     -     ----------
 72
   65
 73
    4
 40
9.25
 49
6
 49
-1.5
 49
0.25
 49
-1.5
  0
LTYPE
  2
double-dashed_dotted
 70
   64
  3
------   -----------   -   -----
 72
   65
 73
    6
 40
16.75
 49
6
 49
-1.5
 49
6
 49
-1.5
 49
0.25
 49
-1.5
  0
LTYPE
  2
dashed_double-dotted
 70
   64
  3
---------    -    -    ---------
 72
   65
 73
    6
 40
11
 49
6
 49
-1.5
 49
0.25
 49
-1.5
 49
0.25
 49
-1.5
  0
LTYPE
  2
double-dashed_double-dotted
 70
   64
  3
-----   ---------   -   -   ----
 72
   65
 73
    8
 40
18.5
 49
6
 49
-1.5
 49
6
 49
-1.5
 49
0.25
 49
-1.5
 49
0.25
 49
-1.5
  0
LTYPE
  2
dashed_triplicate-dotted
 70
   64
  3
-------    -    -    -    ------
 72
   65
 73
    8
 40
12.75
 49
6
 49
-1.5
 49
0.25
 49
-1.5
 49
0.25
 49
-1.5
 49
0.25
 49
-1.5
  0
LTYPE
  2
double-dashed_triplicate-dotted
 70
   64
  3
-----  ---------  -  -  -  -----
 72
   65
 73
   10
 40
20.25
 49
6
 49
-1.5
 49
6
 49
-1.5
 49
0.25
 49
-1.5
 49
0.25
 49
-1.5
 49
0.25
 49
-1.5
  0
LTYPE
  2
undefined
 70
   64
  3
--------------------------------
 72
   65
 73
    0
 40
0
  0
ENDTAB
  0
TABLE
  2
STYLE
  5
3
100
AcDbSymbolTable
 70
     1
  0
STYLE
  5
10
100
AcDbSymbolTableRecord
100
AcDbTextStyleTableRecord
  2
STANDARD
 70
     0
 40
0.0
 41
1.0
 50
0.0
 71
     0
 42
0.2
  3
txt
  4
bigfont.shx
  0
STYLE
  5
26
100
AcDbSymbolTableRecord
100
AcDbTextStyleTableRecord
  2
TATEGAKI
 70
    68
 40
0.0
 41
1.0
 50
0.0
 71
     0
 42
1.0
  3
txt
  4
bigfont.shx
  0
ENDTAB
  0
TABLE
  2
LAYER
 70
    2
  0
LAYER
  2
_0-0_0
 70
   64
 62
    7
  6
CONTINUOUS
  0
LAYER
  2
ADD_LINE
 70
   64
 62
    7
  6
CONTINUOUS
  0
ENDTAB
  0
ENDSEC
  0
SECTION
  2
BLOCKS
  0
ENDSEC
  0
SECTION
  2
ENTITIES
  0
LINE
  8
_0-0_0
  6
CONTINUOUS
 62
    7
 10
-129.57103700000005
 20
516.90052749999995
 11
-129.57103700000005
 21
516.89952049999999
  0
LINE
  8
_0-0_0
  6
CONTINUOUS
 62
    7
 10
23.241469999999993
 20
477.96958949999998
 11
21.941466999999989
 21
474.46958949999998
  0
ARC
  8
_0-0_0
  6
CONTINUOUS
 62
    7
 10
23.428954999999974
 20
477.89994750000005
 40
0.2
 50
20.376434999999997
 51
159.62357000000003
  0
ARC
  8
_0-0_0
  6
CONTINUOUS
 62
    7
 10
61.428954999999974
 20
480.79994150000005
 40
2.2000000000000002
 50
180.00000900000003
 51
303.74900400000001
  0
LINE
  8
_0-0_0
  6
CONTINUOUS
 62
    7
 10
59.228957999999977
 20
482.29994150000005
 11
59.228957999999977
 21
480.79994150000005
  0
LINE
  8
_0-0_0
  6
CONTINUOUS
 62
    7
 10
59.228957999999977
 20
482.29994150000005
 11
-15.371033000000011
 21
482.29994150000005
  0
LINE
  8
_0-0_0
  6
CONTINUOUS
 62
    7
 10
-15.371033000000011
 20
482.29994150000005
 11
-15.371033000000011
 21
480.79994150000005
  0
ARC
  8
_0-0_0
  6
CONTINUOUS
 62
    7
 10
-17.571045000000026
 20
480.79994150000005
 40
2.2000000000000002
 50
236.25102899999999
 51
0
  0
ARC
  8
_0-0_0
  6
CONTINUOUS
 62
    7
 10
-19.071045000000026
 20
478.55494650000003
 40
0.5
 50
56.251010000000008
 51
180.00000900000001
  0
LINE
  8
_0-0_0
  6
CONTINUOUS
 62
    7
 10
-19.571045000000026
 20
458.19993550000004
 11
-19.571045000000026
 21
458.97706549999998
  0
LINE
  8
_0-0_0
  6
CONTINUOUS
 62
    7
 10
-19.571045000000026
 20
458.19993550000004
 11
-9.7710420000000227
 21
458.19993550000004
  0
ARC
  8
_0-0_0
  6
CONTINUOUS
 62
    7
 10
-9.7710420000000227
 20
458.39994750000005
 40
0.2
 50
269.99999700000001
 51
0
  0
LINE
  8
_0-0_0
  6
CONTINUOUS
 62
    7
 10
-9.5710450000000264
 20
460.09992950000003
 11
-9.5710450000000264
 21
458.39994750000005
  0
ARC
  8
_0-0_0
  6
CONTINUOUS
 62
    7
 10
-9.3710330000000113
 20
460.09992950000003
 40
0.2
 50
90.000003000000007
 51
180.00000900000001
  0
LINE
  8
_0-0_0
  6
CONTINUOUS
 62
    7
 10
-8.8710330000000113
 20
460.29994150000005
 11
-9.3710330000000113
 21
460.29994150000005
  0
ARC
  8
_0-0_0
  6
CONTINUOUS
 62
    7
 10
-8.8710330000000113
 20
459.79994150000005
 40
0.5
 50
90.000003000000007
 51
180.00000900000001
  0
LINE
  8
_0-0_0
  6
CONTINUOUS
 62
    7
 10
-9.3710330000000113
 20
458.29994150000005
 11
-9.3710330000000113
 21
459.79994150000005
  0
LINE
  8
_0-0_0
  6
CONTINUOUS
 62
    7
 10
60.228957999999977
 20
458.29994150000005
 11
-9.3710330000000113
 21
458.29994150000005
  0
LINE
  8
_0-0_0
  6
CONTINUOUS
 62
    7
 10
60.228957999999977
 20
458.29994150000005
 11
60.228957999999977
 21
459.79994150000005
  0
ARC
  8
_0-0_0
  6
CONTINUOUS
 62
    7
 10
59.728957999999977
 20
459.79994150000005
 40
0.5
 50
0
 51
90.000003000000007
  0
LINE
  8
_0-0_0
  6
CONTINUOUS
 62
    7
 10
60.228957999999977
 20
460.29994150000005
 11
59.728957999999977
 21
460.29994150000005
  0
ARC
  8
_0-0_0
  6
CONTINUOUS
 62
    7
 10
60.228957999999977
 20
460.09992950000003
 40
0.2
 50
0
 51
90.000003000000007
  0
LINE
  8
_0-0_0
  6
CONTINUOUS
 62
    7
 10
60.428954999999974
 20
458.39994750000005
 11
60.428954999999974
 21
460.09992950000003
  0
ARC
  8
_0-0_0
  6
CONTINUOUS
 62
    7
 10
60.628952000000027
 20
458.39994750000005
 40
0.2
 50
180.00000900000003
 51
269.99999700000001
  0
LINE
  8
_0-0_0
  6
CONTINUOUS
 62
    7
 10
60.628952000000027
 20
458.19993550000004
 11
61.428954999999974
 21
458.19993550000004
  0
ARC
  8
_0-0_0
  6
CONTINUOUS
 62
    7
 10
61.428954999999974
 20
460.19993550000004
 40
2
 50
269.99999700000001
 51
0.0000099999999886
  0
LINE
  8
_0-0_0
  6
CONTINUOUS
 62
    7
 10
63.428954999999974
 20
478.55494650000003
 11
63.428954999999974
 21
460.19993550000004
  0
ARC
  8
_0-0_0
  6
CONTINUOUS
 62
    7
 10
62.928954999999974
 20
478.55494650000003
 40
0.5
 50
0
 51
123.74898500000002
  0
LINE
  8
_0-0_0
  6
CONTINUOUS
 62
    7
 10
-8.0710450000000264
 20
460.49995450000006
 11
-8.0710450000000264
 21
460.69993550000004
  0
LINE
  8
_0-0_0
  6
CONTINUOUS
 62
    7
 10
-8.0710450000000264
 20
460.69993550000004
 11
58.928954999999974
 21
460.69993550000004
  0
LINE
  8
_0-0_0
  6
CONTINUOUS
 62
    7
 10
58.928954999999974
 20
460.49995450000006
 11
58.928954999999974
 21
460.69993550000004
  0
ARC
  8
_0-0_0
  6
CONTINUOUS
 62
    7
 10
59.128952000000027
 20
460.49995450000006
 40
0.2
 50
180.00000900000003
 51
269.99999700000001
  0
LINE
  8
_0-0_0
  6
CONTINUOUS
 62
    7
 10
59.128952000000027
 20
460.29994150000005
 11
-8.2710420000000227
 21
460.29994150000005
  0
ARC
  8
_0-0_0
  6
CONTINUOUS
 62
    7
 10
-8.2710420000000227
 20
460.49995450000006
 40
0.2
 50
269.99999700000001
 51
0
  0
ARC
  8
_0-0_0
  6
CONTINUOUS
 62
    7
 10
22.128952000000027
 20
474.39994750000005
 40
0.2
 50
159.62357
 51
269.99999700000001
  0
LINE
  8
_0-0_0
  6
CONTINUOUS
 62
    7
 10
22.128952000000027
 20
474.19993550000004
 11
24.728957999999977
 21
474.19993550000004
  0
ARC
  8
_0-0_0
  6
CONTINUOUS
 62
    7
 10
24.728957999999977
 20
474.39994750000005
 40
0.2
 50
269.99999700000001
 51
20.376435000000019
  0
LINE
  8
_0-0_0
  6
CONTINUOUS
 62
    7
 10
24.916442999999958
 20
474.46958949999998
 11
23.616440000000011
 21
477.96958949999998
  0
LINE
  8
_0-0_0
  6
CONTINUOUS
 62
    7
 10
-19.571045000000026
 20
477.89994750000005
 11
-19.571045000000026
 21
479.87730350000004
  0
LINE
  8
_0-0_0
  6
CONTINUOUS
 62
    7
 10
-19.571045000000026
 20
477.89994750000005
 11
-19.571045000000026
 21
460.29994150000005
  0
LINE
  8
_0-0_0
  6
CONTINUOUS
 62
    7
 10
-19.571045000000026
 20
458.97706549999998
 11
-19.571045000000026
 21
460.29994150000005
  0
LINE
  8
_0-0_0
  6
CONTINUOUS
 62
    7
 10
63.428954999999974
 20
484.29994150000005
 11
63.428954999999974
 21
483.29994150000005
  0
LINE
  8
_0-0_0
  6
CONTINUOUS
 62
    7
 10
63.428954999999974
 20
483.29994150000005
 11
63.428954999999974
 21
482.79994150000005
  0
LINE
  8
_0-0_0
  6
CONTINUOUS
 62
    7
 10
63.428954999999974
 20
482.79994150000005
 11
63.428954999999974
 21
480.79994150000005
  0
LINE
  8
_0-0_0
  6
CONTINUOUS
 62
    7
 10
63.428954999999974
 20
480.79994150000005
 11
63.428954999999974
 21
478.55494650000003
  0
LINE
  8
_0-0_0
  6
CONTINUOUS
 62
    7
 10
41.428954999999974
 20
478.29994150000005
 11
41.428954999999974
 21
464.69993550000004
  0
ARC
  8
_0-0_0
  6
CONTINUOUS
 62
    7
 10
44.428954999999974
 20
478.29994150000005
 40
3
 50
90.000003000000007
 51
180.00000900000001
  0
LINE
  8
_0-0_0
  6
CONTINUOUS
 62
    7
 10
57.76289399999996
 20
481.29994150000005
 11
44.428954999999974
 21
481.29994150000005
  0
ARC
  8
_0-0_0
  6
CONTINUOUS
 62
    7
 10
57.76289399999996
 20
480.29994150000005
 40
1
 50
7.7664340000000012
 51
90.000002999999992
  0
ARC
  8
_0-0_0
  6
CONTINUOUS
 62
    7
 10
61.428954999999974
 20
480.79994150000005
 40
2.7000000000000002
 50
187.76643899999999
 51
254.31966600000001
  0
ARC
  8
_0-0_0
  6
CONTINUOUS
 62
    7
 10
60.428954999999974
 20
477.23762450000004
 40
1
 50
0
 51
74.319649999999996
  0
LINE
  8
_0-0_0
  6
CONTINUOUS
 62
    7
 10
61.428954999999974
 20
464.69993550000004
 11
61.428954999999974
 21
477.23762450000004
  0
ARC
  8
_0-0_0
  6
CONTINUOUS
 62
    7
 10
58.428954999999974
 20
464.69993550000004
 40
3
 50
269.99999700000001
 51
0.0000099999999886
  0
LINE
  8
_0-0_0
  6
CONTINUOUS
 62
    7
 10
44.428954999999974
 20
461.69993550000004
 11
58.428954999999974
 21
461.69993550000004
  0
ARC
  8
_0-0_0
  6
CONTINUOUS
 62
    7
 10
44.428954999999974
 20
464.69993550000004
 40
3
 50
180.00000900000003
 51
269.99999700000001
  0
LINE
  8
_0-0_0
  6
CONTINUOUS
 62
    7
 10
-12.571045000000026
 20
461.69993550000004
 11
2.4289549999999736
 21
461.69993550000004
  0
ARC
  8
_0-0_0
  6
CONTINUOUS
 62
    7
 10
-12.571045000000026
 20
464.69993550000004
 40
3
 50
180.00000900000003
 51
269.99999700000001
  0
LINE
  8
_0-0_0
  6
CONTINUOUS
 62
    7
 10
-15.571045000000026
 20
478.29994150000005
 11
-15.571045000000026
 21
464.69993550000004
  0
ARC
  8
_0-0_0
  6
CONTINUOUS
 62
    7
 10
-12.571045000000026
 20
478.29994150000005
 40
3
 50
90.000003000000007
 51
180.00000900000001
  0
LINE
  8
_0-0_0
  6
CONTINUOUS
 62
    7
 10
2.4289549999999736
 20
481.29994150000005
 11
-12.571045000000026
 21
481.29994150000005
  0
ARC
  8
_0-0_0
  6
CONTINUOUS
 62
    7
 10
2.4289549999999736
 20
478.29994150000005
 40
3
 50
0
 51
90.000003000000007
  0
LINE
  8
_0-0_0
  6
CONTINUOUS
 62
    7
 10
5.4289549999999736
 20
464.69993550000004
 11
5.4289549999999736
 21
478.29994150000005
  0
ARC
  8
_0-0_0
  6
CONTINUOUS
 62
    7
 10
2.4289549999999736
 20
464.69993550000004
 40
3
 50
269.99999700000001
 51
0.0000099999999886
  0
LINE
  8
_0-0_0
  6
CONTINUOUS
 62
    7
 10
59.428954999999974
 20
482.29994150000005
 11
59.228957999999977
 21
482.29994150000005
  0
ARC
  8
_0-0_0
  6
CONTINUOUS
 62
    7
 10
61.428954999999974
 20
480.79994150000005
 40
2
 50
180.00000900000003
 51
0.0000000000000254
  0
LINE
  8
_0-0_0
  6
CONTINUOUS
 62
    7
 10
59.428954999999974
 20
482.29994150000005
 11
59.428954999999974
 21
480.79994150000005
  0
LINE
  8
_0-0_0
  6
CONTINUOUS
 62
    7
 10
-15.371033000000011
 20
482.29994150000005
 11
-15.571045000000026
 21
482.29994150000005
  0
LINE
  8
_0-0_0
  6
CONTINUOUS
 62
    7
 10
-15.571045000000026
 20
482.29994150000005
 11
-15.571045000000026
 21
480.79994150000005
  0
ARC
  8
_0-0_0
  6
CONTINUOUS
 62
    7
 10
-17.571045000000026
 20
480.79994150000005
 40
2
 50
180.00000900000003
 51
0.0000000000000254
  0
LINE
  8
_0-0_0
  6
CONTINUOUS
 62
    7
 10
-33.071045000000026
 20
482.79994150000005
 11
-33.071045000000026
 21
482.29994150000005
  0
LINE
  8
_0-0_0
  6
CONTINUOUS
 62
    7
 10
-19.571045000000026
 20
479.88343750000001
 11
-19.571045000000026
 21
480.59992950000003
  0
LINE
  8
_0-0_0
  6
CONTINUOUS
 62
    7
 10
-19.571045000000026
 20
479.88343750000001
 11
-19.571045000000026
 21
479.87730350000004
  0
LINE
  8
_0-0_0
  6
CONTINUOUS
 62
    7
 10
-19.571045000000026
 20
478.66880749999996
 11
-19.571045000000026
 21
478.55494650000003
  0
LINE
  8
_0-0_0
  6
CONTINUOUS
 62
    7
 10
-31.571045000000026
 20
479.89994750000005
 11
-31.571045000000026
 21
477.89994750000005
  0
LINE
  8
_0-0_0
  6
CONTINUOUS
 62
    7
 10
-19.571045000000026
 20
479.89994750000005
 11
-31.571045000000026
 21
479.89994750000005
  0
LINE
  8
_0-0_0
  6
CONTINUOUS
 62
    7
 10
-31.571045000000026
 20
474.39994750000005
 11
-31.571045000000026
 21
477.39994750000005
  0
LINE
  8
_0-0_0
  6
CONTINUOUS
 62
    7
 10
-31.571045000000026
 20
477.39994750000005
 11
-31.571045000000026
 21
477.89994750000005
  0
LINE
  8
_0-0_0
  6
CONTINUOUS
 62
    7
 10
-31.571045000000026
 20
474.39994750000005
 11
-31.571045000000026
 21
473.89994750000005
  0
ARC
  8
_0-0_0
  6
CONTINUOUS
 62
    7
 10
-25.571030000000007
 20
474.59992950000003
 40
0.500016
 50
0.001164
 51
179.99560600000004
  0
LINE
  8
_0-0_0
  6
CONTINUOUS
 62
    7
 10
-26.071045000000026
 20
474.59992950000003
 11
-26.071045000000026
 21
462.59992950000003
  0
ARC
  8
_0-0_0
  6
CONTINUOUS
 62
    7
 10
-25.571030000000007
 20
462.59996049999995
 40
0.500016
 50
180.00117
 51
359.995611
  0
LINE
  8
_0-0_0
  6
CONTINUOUS
 62
    7
 10
-25.071045000000026
 20
474.59992950000003
 11
-25.071045000000026
 21
462.59992950000003
  0
ARC
  8
_0-0_0
  6
CONTINUOUS
 62
    7
 10
-27.071030000000007
 20
474.59992950000003
 40
0.500016
 50
0.001164
 51
179.99560600000004
  0
LINE
  8
_0-0_0
  6
CONTINUOUS
 62
    7
 10
-27.571045000000026
 20
474.59992950000003
 11
-27.571045000000026
 21
462.59992950000003
  0
ARC
  8
_0-0_0
  6
CONTINUOUS
 62
    7
 10
-27.071030000000007
 20
462.59996049999995
 40
0.500016
 50
180.00117
 51
359.995611
  0
LINE
  8
_0-0_0
  6
CONTINUOUS
 62
    7
 10
-26.571045000000026
 20
474.59992950000003
 11
-26.571045000000026
 21
462.59992950000003
  0
ARC
  8
_0-0_0
  6
CONTINUOUS
 62
    7
 10
-28.571030000000007
 20
474.59992950000003
 40
0.500016
 50
0.001164
 51
179.99560600000004
  0
LINE
  8
_0-0_0
  6
CONTINUOUS
 62
    7
 10
-29.071045000000026
 20
474.59992950000003
 11
-29.071045000000026
 21
462.59992950000003
  0
ARC
  8
_0-0_0
  6
CONTINUOUS
 62
    7
 10
-28.571030000000007
 20
462.59996049999995
 40
0.500016
 50
180.00117
 51
359.995611
  0
LINE
  8
_0-0_0
  6
CONTINUOUS
 62
    7
 10
-28.071045000000026
 20
474.59992950000003
 11
-28.071045000000026
 21
462.59992950000003
  0
ARC
  8
_0-0_0
  6
CONTINUOUS
 62
    7
 10
-30.071030000000007
 20
474.59992950000003
 40
0.500016
 50
0.001164
 51
179.99560600000004
  0
LINE
  8
_0-0_0
  6
CONTINUOUS
 62
    7
 10
-30.571045000000026
 20
474.59992950000003
 11
-30.571045000000026
 21
462.59992950000003
  0
ARC
  8
_0-0_0
  6
CONTINUOUS
 62
    7
 10
-30.071030000000007
 20
462.59996049999995
 40
0.500016
 50
180.00117
 51
359.995611
  0
LINE
  8
_0-0_0
  6
CONTINUOUS
 62
    7
 10
-29.571045000000026
 20
474.59992950000003
 11
-29.571045000000026
 21
462.59992950000003
  0
LINE
  8
_0-0_0
  6
CONTINUOUS
 62
    7
 10
-19.571045000000026
 20
458.29994150000005
 11
-36.246489999999994
 21
458.29994150000005
  0
LINE
  8
_0-0_0
  6
CONTINUOUS
 62
    7
 10
-9.0210420000000227
 20
460.27690150000001
 11
-9.0210420000000227
 21
460.29994150000005
  0
LINE
  8
_0-0_0
  6
CONTINUOUS
 62
    7
 10
59.878952000000027
 20
460.27690150000001
 11
59.878952000000027
 21
460.29994150000005
  0
LINE
  8
_0-0_0
  6
CONTINUOUS
 62
    7
 10
-33.071045000000026
 20
482.79994150000005
 11
-33.071045000000026
 21
483.29994150000005
  0
LINE
  8
_0-0_0
  6
CONTINUOUS
 62
    7
 10
63.428954999999974
 20
483.29994150000005
 11
-33.071045000000026
 21
483.29994150000005
  0
LINE
  8
_0-0_0
  6
CONTINUOUS
 62
    7
 10
-33.071045000000026
 20
483.29994150000005
 11
-33.071045000000026
 21
484.29994150000005
  0
LINE
  8
_0-0_0
  6
CONTINUOUS
 62
    7
 10
63.429091999999969
 20
484.30000250000001
 11
63.429091999999969
 21
483.80000250000001
  0
LINE
  8
_0-0_0
  6
CONTINUOUS
 62
    7
 10
63.429091999999969
 20
483.80000250000001
 11
63.429091999999969
 21
482.30000250000001
  0
ARC
  8
_0-0_0
  6
CONTINUOUS
 62
    7
 10
53.928954999999974
 20
473.89994750000005
 40
4.5
 50
269.99999700000001
 51
90.000002999999992
  0
LINE
  8
_0-0_0
  6
CONTINUOUS
 62
    7
 10
53.928954999999974
 20
469.39994750000005
 11
48.928954999999974
 21
469.39994750000005
  0
ARC
  8
_0-0_0
  6
CONTINUOUS
 62
    7
 10
48.928954999999974
 20
473.89994750000005
 40
4.5
 50
90.000003000000007
 51
269.99999700000006
  0
LINE
  8
_0-0_0
  6
CONTINUOUS
 62
    7
 10
48.928954999999974
 20
478.39994750000005
 11
53.928954999999974
 21
478.39994750000005
  0
ARC
  8
_0-0_0
  6
CONTINUOUS
 62
    7
 10
-2.0710450000000264
 20
473.89994750000005
 40
4.5
 50
269.99999700000001
 51
90.000002999999992
  0
LINE
  8
_0-0_0
  6
CONTINUOUS
 62
    7
 10
-2.0710450000000264
 20
469.39994750000005
 11
-7.0710450000000264
 21
469.39994750000005
  0
ARC
  8
_0-0_0
  6
CONTINUOUS
 62
    7
 10
-7.0710450000000264
 20
473.89994750000005
 40
4.5
 50
90.000003000000007
 51
269.99999700000006
  0
LINE
  8
_0-0_0
  6
CONTINUOUS
 62
    7
 10
-7.0710450000000264
 20
478.39994750000005
 11
-2.0710450000000264
 21
478.39994750000005
  0
LINE
  8
_0-0_0
  6
CONTINUOUS
 62
    7
 10
-19.571045000000026
 20
480.59992950000003
 11
-19.571045000000026
 21
482.29994150000005
  0
LINE
  8
_0-0_0
  6
CONTINUOUS
 62
    7
 10
-19.571045000000026
 20
482.29994150000005
 11
-33.071045000000026
 21
482.29994150000005
  0
LINE
  8
_0-0_0
  6
CONTINUOUS
 62
    7
 10
-33.071045000000026
 20
480.59992950000003
 11
-33.071045000000026
 21
482.29994150000005
  0
LINE
  8
_0-0_0
  6
CONTINUOUS
 62
    7
 10
-31.571045000000026
 20
479.89994750000005
 11
-36.246489999999994
 21
479.89994750000005
  0
LINE
  8
_0-0_0
  6
CONTINUOUS
 62
    7
 10
-31.571045000000026
 20
474.39994750000005
 11
-36.246489999999994
 21
474.39994750000005
  0
LINE
  8
_0-0_0
  6
CONTINUOUS
 62
    7
 10
-36.878937000000008
 20
458.40257250000002
 11
-36.759430000000009
 21
458.36695850000001
  0
LINE
  8
_0-0_0
  6
CONTINUOUS
 62
    7
 10
-36.759430000000009
 20
458.36695850000001
 11
-36.637878000000001
 21
458.33906549999995
  0
LINE
  8
_0-0_0
  6
CONTINUOUS
 62
    7
 10
-36.637878000000001
 20
458.33906549999995
 11
-36.514755000000036
 21
458.31904550000002
  0
LINE
  8
_0-0_0
  6
CONTINUOUS
 62
    7
 10
-36.514755000000036
 20
458.31904550000002
 11
-36.390533000000005
 21
458.30693050000002
  0
LINE
  8
_0-0_0
  6
CONTINUOUS
 62
    7
 10
-36.390533000000005
 20
458.30693050000002
 11
-36.265716999999995
 21
458.30278050000004
  0
LINE
  8
_0-0_0
  6
CONTINUOUS
 62
    7
 10
-36.265716999999995
 20
458.30278050000004
 11
-36.246489999999994
 21
458.30287150000004
  0
ARC
  8
_0-0_0
  6
CONTINUOUS
 62
    7
 10
-36.246489999999994
 20
460.29994150000005
 40
2
 50
251.56498899999997
 51
269.99999700000001
  0
LINE
  8
_0-0_0
  6
CONTINUOUS
 62
    7
 10
-33.071045000000026
 20
480.59992950000003
 11
-19.571045000000026
 21
480.59992950000003
  0
CIRCLE
  8
_0-0_0
  6
CONTINUOUS
 62
    7
 10
61.428954999999974
 20
480.79994150000005
 40
1.4750000000000001
  0
CIRCLE
  8
_0-0_0
  6
CONTINUOUS
 62
    7
 10
-17.571045000000026
 20
480.79994150000005
 40
1.4750000000000001
  0
ARC
  8
_0-0_0
  6
CONTINUOUS
 62
    7
 10
-36.246489999999994
 20
477.89994750000005
 40
2
 50
90.000003000000007
 51
108.434997
  0
LINE
  8
_0-0_0
  6
CONTINUOUS
 62
    7
 10
-41.045380000000023
 20
474.39994750000005
 11
-41.73873900000001
 21
474.39994750000005
  0
LINE
  8
_0-0_0
  6
CONTINUOUS
 62
    7
 10
-41.045380000000023
 20
474.39994750000005
 11
-36.720824999999991
 21
474.39994750000005
  0
LINE
  8
_0-0_0
  6
CONTINUOUS
 62
    7
 10
-36.246489999999994
 20
474.39994750000005
 11
-36.720824999999991
 21
474.39994750000005
  0
LINE
  8
_0-0_0
  6
CONTINUOUS
 62
    7
 10
-41.203490999999985
 20
459.84410049999997
 11
-36.878937000000008
 21
458.40257250000002
  0
LINE
  8
_0-0_0
  6
CONTINUOUS
 62
    7
 10
57.978957999999977
 20
473.89994750000005
 11
55.669556
 21
469.89994750000005
  0
LINE
  8
_0-0_0
  6
CONTINUOUS
 62
    7
 10
47.188355000000001
 20
469.89994750000005
 11
55.669556
 21
469.89994750000005
  0
LINE
  8
_0-0_0
  6
CONTINUOUS
 62
    7
 10
47.188355000000001
 20
469.89994750000005
 11
44.878952000000027
 21
473.89994750000005
  0
LINE
  8
_0-0_0
  6
CONTINUOUS
 62
    7
 10
44.878952000000027
 20
473.89994750000005
 11
47.188355000000001
 21
477.89994750000005
  0
LINE
  8
_0-0_0
  6
CONTINUOUS
 62
    7
 10
55.669556
 20
477.89994750000005
 11
47.188355000000001
 21
477.89994750000005
  0
LINE
  8
_0-0_0
  6
CONTINUOUS
 62
    7
 10
55.669556
 20
477.89994750000005
 11
57.978957999999977
 21
473.89994750000005
  0
LINE
  8
_0-0_0
  6
CONTINUOUS
 62
    7
 10
-8.8116449999999986
 20
477.89994750000005
 11
-11.121033000000011
 21
473.89994750000005
  0
LINE
  8
_0-0_0
  6
CONTINUOUS
 62
    7
 10
-0.3304439999999999
 20
477.89994750000005
 11
-8.8116449999999986
 21
477.89994750000005
  0
LINE
  8
_0-0_0
  6
CONTINUOUS
 62
    7
 10
1.9789579999999773
 20
473.89994750000005
 11
-0.3304439999999999
 21
477.89994750000005
  0
LINE
  8
_0-0_0
  6
CONTINUOUS
 62
    7
 10
-0.3304439999999999
 20
469.89994750000005
 11
1.9789579999999773
 21
473.89994750000005
  0
LINE
  8
_0-0_0
  6
CONTINUOUS
 62
    7
 10
-8.8116449999999986
 20
469.89994750000005
 11
-0.3304439999999999
 21
469.89994750000005
  0
LINE
  8
_0-0_0
  6
CONTINUOUS
 62
    7
 10
-11.121033000000011
 20
473.89994750000005
 11
-8.8116449999999986
 21
469.89994750000005
  0
LINE
  8
_0-0_0
  6
CONTINUOUS
 62
    7
 10
-37.321045000000026
 20
479.64994750000005
 11
-36.878937000000008
 21
479.79731749999996
  0
LINE
  8
_0-0_0
  6
CONTINUOUS
 62
    7
 10
-42.571037000000047
 20
475.14997849999997
 11
-42.571037000000047
 21
474.02894549999996
  0
LINE
  8
_0-0_0
  6
CONTINUOUS
 62
    7
 10
-42.571037000000047
 20
473.10762050000005
 11
-42.571037000000047
 21
474.02894549999996
  0
LINE
  8
_0-0_0
  6
CONTINUOUS
 62
    7
 10
-42.271033999999986
 20
471.3119355
 11
-42.329834000000005
 21
471.55876150000006
  0
LINE
  8
_0-0_0
  6
CONTINUOUS
 62
    7
 10
-42.329834000000005
 20
471.55876150000006
 11
-42.379599999999982
 21
471.75111349999997
  0
LINE
  8
_0-0_0
  6
CONTINUOUS
 62
    7
 10
-42.379599999999982
 20
471.75111349999997
 11
-42.450729000000024
 21
472.01692149999997
  0
LINE
  8
_0-0_0
  6
CONTINUOUS
 62
    7
 10
-42.450729000000024
 20
472.01692149999997
 11
-42.483688000000029
 21
472.14363049999997
  0
LINE
  8
_0-0_0
  6
CONTINUOUS
 62
    7
 10
-42.483688000000029
 20
472.14363049999997
 11
-42.50894900000003
 21
472.24705449999999
  0
LINE
  8
_0-0_0
  6
CONTINUOUS
 62
    7
 10
-42.50894900000003
 20
472.24705449999999
 11
-42.530975000000012
 21
472.3469695
  0
LINE
  8
_0-0_0
  6
CONTINUOUS
 62
    7
 10
-42.530975000000012
 20
472.3469695
 11
-42.552353000000039
 21
472.4646755
  0
LINE
  8
_0-0_0
  6
CONTINUOUS
 62
    7
 10
-42.552353000000039
 20
472.4646755
 11
-42.56092799999999
 21
472.52680950000001
  0
LINE
  8
_0-0_0
  6
CONTINUOUS
 62
    7
 10
-42.56092799999999
 20
472.52680950000001
 11
-42.567008999999985
 21
472.58741750000002
  0
LINE
  8
_0-0_0
  6
CONTINUOUS
 62
    7
 10
-42.567008999999985
 20
472.58741750000002
 11
-42.570015000000012
 21
472.63667250000003
  0
LINE
  8
_0-0_0
  6
CONTINUOUS
 62
    7
 10
-42.570015000000012
 20
472.63667250000003
 11
-42.571037000000047
 21
472.68489050000005
  0
LINE
  8
_0-0_0
  6
CONTINUOUS
 62
    7
 10
-42.271033999999986
 20
466.88792450000005
 11
-42.187576000000035
 21
467.26661650000005
  0
LINE
  8
_0-0_0
  6
CONTINUOUS
 62
    7
 10
-42.187576000000035
 20
467.26661650000005
 11
-42.14748400000002
 21
467.4581455
  0
LINE
  8
_0-0_0
  6
CONTINUOUS
 62
    7
 10
-42.14748400000002
 20
467.4581455
 11
-42.091400000000021
 21
467.74815350000006
  0
LINE
  8
_0-0_0
  6
CONTINUOUS
 62
    7
 10
-42.091400000000021
 20
467.74815350000006
 11
-42.053802000000019
 21
467.96772750000002
  0
LINE
  8
_0-0_0
  6
CONTINUOUS
 62
    7
 10
-42.053802000000019
 20
467.96772750000002
 11
-42.021156000000019
 21
468.18897949999996
  0
LINE
  8
_0-0_0
  6
CONTINUOUS
 62
    7
 10
-42.021156000000019
 20
468.18897949999996
 11
-41.993996000000038
 21
468.41578649999997
  0
LINE
  8
_0-0_0
  6
CONTINUOUS
 62
    7
 10
-41.993996000000038
 20
468.41578649999997
 11
-41.973929999999996
 21
468.64317349999999
  0
LINE
  8
_0-0_0
  6
CONTINUOUS
 62
    7
 10
-41.973929999999996
 20
468.64317349999999
 11
-41.966773999999987
 21
468.7569125
  0
LINE
  8
_0-0_0
  6
CONTINUOUS
 62
    7
 10
-41.966773999999987
 20
468.7569125
 11
-41.961616000000049
 21
468.87059050000005
  0
LINE
  8
_0-0_0
  6
CONTINUOUS
 62
    7
 10
-41.961616000000049
 20
468.87059050000005
 11
-41.957900999999993
 21
469.02201850000006
  0
LINE
  8
_0-0_0
  6
CONTINUOUS
 62
    7
 10
-41.957900999999993
 20
469.02201850000006
 11
-41.957840000000033
 21
469.1732935
  0
LINE
  8
_0-0_0
  6
CONTINUOUS
 62
    7
 10
-41.957840000000033
 20
469.1732935
 11
-41.961426000000017
 21
469.32435550000002
  0
LINE
  8
_0-0_0
  6
CONTINUOUS
 62
    7
 10
-41.961426000000017
 20
469.32435550000002
 11
-41.970924000000025
 21
469.51289350000002
  0
LINE
  8
_0-0_0
  6
CONTINUOUS
 62
    7
 10
-41.970924000000025
 20
469.51289350000002
 11
-41.985793999999999
 21
469.70112549999999
  0
LINE
  8
_0-0_0
  6
CONTINUOUS
 62
    7
 10
-41.985793999999999
 20
469.70112549999999
 11
-42.005714000000012
 21
469.88908349999997
  0
LINE
  8
_0-0_0
  6
CONTINUOUS
 62
    7
 10
-42.005714000000012
 20
469.88908349999997
 11
-42.022102000000018
 21
470.01795949999996
  0
LINE
  8
_0-0_0
  6
CONTINUOUS
 62
    7
 10
-42.022102000000018
 20
470.01795949999996
 11
-42.040512000000035
 21
470.1465915
  0
LINE
  8
_0-0_0
  6
CONTINUOUS
 62
    7
 10
-42.040512000000035
 20
470.1465915
 11
-42.064674000000025
 21
470.29853849999995
  0
LINE
  8
_0-0_0
  6
CONTINUOUS
 62
    7
 10
-42.064674000000025
 20
470.29853849999995
 11
-42.091071999999997
 21
470.44987449999996
  0
LINE
  8
_0-0_0
  6
CONTINUOUS
 62
    7
 10
-42.091071999999997
 20
470.44987449999996
 11
-42.147240000000011
 21
470.74049349999996
  0
LINE
  8
_0-0_0
  6
CONTINUOUS
 62
    7
 10
-42.147240000000011
 20
470.74049349999996
 11
-42.187401000000023
 21
470.93244949999996
  0
LINE
  8
_0-0_0
  6
CONTINUOUS
 62
    7
 10
-42.187401000000023
 20
470.93244949999996
 11
-42.271033999999986
 21
471.3119355
  0
LINE
  8
_0-0_0
  6
CONTINUOUS
 62
    7
 10
-42.271042000000023
 20
466.88792450000005
 11
-42.329841999999985
 21
466.64106749999996
  0
LINE
  8
_0-0_0
  6
CONTINUOUS
 62
    7
 10
-42.329841999999985
 20
466.64106749999996
 11
-42.379599999999982
 21
466.44874549999997
  0
LINE
  8
_0-0_0
  6
CONTINUOUS
 62
    7
 10
-42.379599999999982
 20
466.44874549999997
 11
-42.450722000000042
 21
466.18299850000005
  0
LINE
  8
_0-0_0
  6
CONTINUOUS
 62
    7
 10
-42.450722000000042
 20
466.18299850000005
 11
-42.483681000000047
 21
466.05632049999997
  0
LINE
  8
_0-0_0
  6
CONTINUOUS
 62
    7
 10
-42.483681000000047
 20
466.05632049999997
 11
-42.508942000000047
 21
465.95286550000003
  0
LINE
  8
_0-0_0
  6
CONTINUOUS
 62
    7
 10
-42.508942000000047
 20
465.95286550000003
 11
-42.530975000000012
 21
465.85288949999995
  0
LINE
  8
_0-0_0
  6
CONTINUOUS
 62
    7
 10
-42.530975000000012
 20
465.85288949999995
 11
-42.552360000000022
 21
465.73518349999995
  0
LINE
  8
_0-0_0
  6
CONTINUOUS
 62
    7
 10
-42.552360000000022
 20
465.73518349999995
 11
-42.56092799999999
 21
465.67304950000005
  0
LINE
  8
_0-0_0
  6
CONTINUOUS
 62
    7
 10
-42.56092799999999
 20
465.67304950000005
 11
-42.567008999999985
 21
465.61244150000005
  0
LINE
  8
_0-0_0
  6
CONTINUOUS
 62
    7
 10
-42.567008999999985
 20
465.61244150000005
 11
-42.570015000000012
 21
465.56321749999995
  0
LINE
  8
_0-0_0
  6
CONTINUOUS
 62
    7
 10
-42.570015000000012
 20
465.56321749999995
 11
-42.571037000000047
 21
465.51499950000004
  0
LINE
  8
_0-0_0
  6
CONTINUOUS
 62
    7
 10
-42.571037000000047
 20
461.74147049999999
 11
-42.571037000000047
 21
465.09223950000001
  0
ARC
  8
_0-0_0
  6
CONTINUOUS
 62
    7
 10
-40.571037000000047
 20
461.74147049999999
 40
2
 50
180.00000900000003
 51
251.56498900000003
  0
LINE
  8
_0-0_0
  6
CONTINUOUS
 62
    7
 10
61.878952000000027
 20
480.59992950000003
 11
62.528960999999981
 21
480.59992950000003
  0
ARC
  8
_0-0_0
  6
CONTINUOUS
 62
    7
 10
61.878952000000027
 20
480.34992950000003
 40
0.25
 50
90.000003000000007
 51
180.00000900000001
  0
LINE
  8
_0-0_0
  6
CONTINUOUS
 62
    7
 10
61.628952000000027
 20
480.34992950000003
 11
61.628952000000027
 21
479.69993550000004
  0
LINE
  8
_0-0_0
  6
CONTINUOUS
 62
    7
 10
61.228957999999977
 20
479.69993550000004
 11
61.628952000000027
 21
479.69993550000004
  0
LINE
  8
_0-0_0
  6
CONTINUOUS
 62
    7
 10
61.228957999999977
 20
479.69993550000004
 11
61.228957999999977
 21
480.34992950000003
  0
ARC
  8
_0-0_0
  6
CONTINUOUS
 62
    7
 10
60.978957999999977
 20
480.34992950000003
 40
0.25
 50
0
 51
90.000003000000007
  0
LINE
  8
_0-0_0
  6
CONTINUOUS
 62
    7
 10
60.328963999999985
 20
480.59992950000003
 11
60.978957999999977
 21
480.59992950000003
  0
LINE
  8
_0-0_0
  6
CONTINUOUS
 62
    7
 10
60.328963999999985
 20
480.59992950000003
 11
60.328963999999985
 21
480.99995450000006
  0
LINE
  8
_0-0_0
  6
CONTINUOUS
 62
    7
 10
60.978957999999977
 20
480.99995450000006
 11
60.328963999999985
 21
480.99995450000006
  0
ARC
  8
_0-0_0
  6
CONTINUOUS
 62
    7
 10
60.978957999999977
 20
481.24995450000006
 40
0.25
 50
269.99999700000001
 51
0
  0
LINE
  8
_0-0_0
  6
CONTINUOUS
 62
    7
 10
61.228957999999977
 20
481.24995450000006
 11
61.228957999999977
 21
481.89994750000005
  0
LINE
  8
_0-0_0
  6
CONTINUOUS
 62
    7
 10
61.628952000000027
 20
481.89994750000005
 11
61.228957999999977
 21
481.89994750000005
  0
LINE
  8
_0-0_0
  6
CONTINUOUS
 62
    7
 10
61.628952000000027
 20
481.89994750000005
 11
61.628952000000027
 21
481.24995450000006
  0
ARC
  8
_0-0_0
  6
CONTINUOUS
 62
    7
 10
61.878952000000027
 20
481.24995450000006
 40
0.25
 50
180.00000900000003
 51
269.99999700000001
  0
LINE
  8
_0-0_0
  6
CONTINUOUS
 62
    7
 10
62.528960999999981
 20
480.99995450000006
 11
61.878952000000027
 21
480.99995450000006
  0
LINE
  8
_0-0_0
  6
CONTINUOUS
 62
    7
 10
62.528960999999981
 20
480.99995450000006
 11
62.528960999999981
 21
480.59992950000003
  0
LINE
  8
_0-0_0
  6
CONTINUOUS
 62
    7
 10
-17.121033000000011
 20
480.59992950000003
 11
-16.471039000000019
 21
480.59992950000003
  0
ARC
  8
_0-0_0
  6
CONTINUOUS
 62
    7
 10
-17.121033000000011
 20
480.34992950000003
 40
0.25
 50
90.000003000000007
 51
180.00000900000001
  0
LINE
  8
_0-0_0
  6
CONTINUOUS
 62
    7
 10
-17.371033000000011
 20
480.34992950000003
 11
-17.371033000000011
 21
479.69993550000004
  0
LINE
  8
_0-0_0
  6
CONTINUOUS
 62
    7
 10
-17.771042000000023
 20
479.69993550000004
 11
-17.371033000000011
 21
479.69993550000004
  0
LINE
  8
_0-0_0
  6
CONTINUOUS
 62
    7
 10
-17.771042000000023
 20
479.69993550000004
 11
-17.771042000000023
 21
480.34992950000003
  0
ARC
  8
_0-0_0
  6
CONTINUOUS
 62
    7
 10
-18.021042000000023
 20
480.34992950000003
 40
0.25
 50
0
 51
90.000003000000007
  0
LINE
  8
_0-0_0
  6
CONTINUOUS
 62
    7
 10
-18.671036000000015
 20
480.59992950000003
 11
-18.021042000000023
 21
480.59992950000003
  0
LINE
  8
_0-0_0
  6
CONTINUOUS
 62
    7
 10
-18.671036000000015
 20
480.59992950000003
 11
-18.671036000000015
 21
480.99995450000006
  0
LINE
  8
_0-0_0
  6
CONTINUOUS
 62
    7
 10
-18.021042000000023
 20
480.99995450000006
 11
-18.671036000000015
 21
480.99995450000006
  0
ARC
  8
_0-0_0
  6
CONTINUOUS
 62
    7
 10
-18.021042000000023
 20
481.24995450000006
 40
0.25
 50
269.99999700000001
 51
0
  0
LINE
  8
_0-0_0
  6
CONTINUOUS
 62
    7
 10
-17.771042000000023
 20
481.24995450000006
 11
-17.771042000000023
 21
481.89994750000005
  0
LINE
  8
_0-0_0
  6
CONTINUOUS
 62
    7
 10
-17.371033000000011
 20
481.89994750000005
 11
-17.771042000000023
 21
481.89994750000005
  0
LINE
  8
_0-0_0
  6
CONTINUOUS
 62
    7
 10
-17.371033000000011
 20
481.89994750000005
 11
-17.371033000000011
 21
481.24995450000006
  0
ARC
  8
_0-0_0
  6
CONTINUOUS
 62
    7
 10
-17.121033000000011
 20
481.24995450000006
 40
0.25
 50
180.00000900000003
 51
269.99999700000001
  0
LINE
  8
_0-0_0
  6
CONTINUOUS
 62
    7
 10
-16.471039000000019
 20
480.99995450000006
 11
-17.121033000000011
 21
480.99995450000006
  0
LINE
  8
_0-0_0
  6
CONTINUOUS
 62
    7
 10
-16.471039000000019
 20
480.99995450000006
 11
-16.471039000000019
 21
480.59992950000003
  0
LINE
  8
_0-0_0
  6
CONTINUOUS
 62
    7
 10
-57.571037000000047
 20
478.6253815
 11
-57.571037000000047
 21
478.47865249999995
  0
LINE
  8
_0-0_0
  6
CONTINUOUS
 62
    7
 10
-57.571037000000047
 20
478.81590249999999
 11
-57.571037000000047
 21
478.6253815
  0
LINE
  8
_0-0_0
  6
CONTINUOUS
 62
    7
 10
-57.571037000000047
 20
478.99092050000002
 11
-57.571037000000047
 21
478.81590249999999
  0
LINE
  8
_0-0_0
  6
CONTINUOUS
 62
    7
 10
-57.571037000000047
 20
479.14851350000004
 11
-57.571037000000047
 21
478.99092050000002
  0
LINE
  8
_0-0_0
  6
CONTINUOUS
 62
    7
 10
-57.571037000000047
 20
479.28694150000001
 11
-57.571037000000047
 21
479.14851350000004
  0
LINE
  8
_0-0_0
  6
CONTINUOUS
 62
    7
 10
-57.571037000000047
 20
479.40470849999997
 11
-57.571037000000047
 21
479.28694150000001
  0
LINE
  8
_0-0_0
  6
CONTINUOUS
 62
    7
 10
-57.571037000000047
 20
479.50050350000004
 11
-57.571037000000047
 21
479.40470849999997
  0
LINE
  8
_0-0_0
  6
CONTINUOUS
 62
    7
 10
-57.571037000000047
 20
479.57328749999999
 11
-57.571037000000047
 21
479.50050350000004
  0
LINE
  8
_0-0_0
  6
CONTINUOUS
 62
    7
 10
-57.571037000000047
 20
479.62223849999998
 11
-57.571037000000047
 21
479.57328749999999
  0
LINE
  8
_0-0_0
  6
CONTINUOUS
 62
    7
 10
-57.571037000000047
 20
479.64994750000005
 11
-57.571037000000047
 21
479.62223849999998
  0
LINE
  8
_0-0_0
  6
CONTINUOUS
 62
    7
 10
-57.571037000000047
 20
479.64994750000005
 11
-57.571037000000047
 21
479.64686549999999
  0
LINE
  8
_0-0_0
  6
CONTINUOUS
 62
    7
 10
-57.571037000000047
 20
475.1530305
 11
-57.571037000000047
 21
475.14994750000005
  0
LINE
  8
_0-0_0
  6
CONTINUOUS
 62
    7
 10
-57.571037000000047
 20
475.17765750000001
 11
-57.571037000000047
 21
475.1530305
  0
LINE
  8
_0-0_0
  6
CONTINUOUS
 62
    7
 10
-57.571037000000047
 20
475.2266085
 11
-57.571037000000047
 21
475.17765750000001
  0
LINE
  8
_0-0_0
  6
CONTINUOUS
 62
    7
 10
-57.571037000000047
 20
475.29939249999995
 11
-57.571037000000047
 21
475.2266085
  0
LINE
  8
_0-0_0
  6
CONTINUOUS
 62
    7
 10
-57.571037000000047
 20
475.39518750000002
 11
-57.571037000000047
 21
475.29939249999995
  0
LINE
  8
_0-0_0
  6
CONTINUOUS
 62
    7
 10
-57.571037000000047
 20
475.42536949999999
 11
-57.571037000000047
 21
475.39518750000002
  0
LINE
  8
_0-0_0
  6
CONTINUOUS
 62
    7
 10
-57.571037000000047
 20
475.51292450000005
 11
-57.571037000000047
 21
475.42536949999999
  0
LINE
  8
_0-0_0
  6
CONTINUOUS
 62
    7
 10
-57.571037000000047
 20
475.65135150000003
 11
-57.571037000000047
 21
475.51292450000005
  0
LINE
  8
_0-0_0
  6
CONTINUOUS
 62
    7
 10
-57.571037000000047
 20
475.80894450000005
 11
-57.571037000000047
 21
475.65135150000003
  0
LINE
  8
_0-0_0
  6
CONTINUOUS
 62
    7
 10
-57.571037000000047
 20
475.98396249999996
 11
-57.571037000000047
 21
475.80894450000005
  0
LINE
  8
_0-0_0
  6
CONTINUOUS
 62
    7
 10
-57.571037000000047
 20
476.17451449999999
 11
-57.571037000000047
 21
475.98396249999996
  0
LINE
  8
_0-0_0
  6
CONTINUOUS
 62
    7
 10
-57.571037000000047
 20
476.37846349999995
 11
-57.571037000000047
 21
476.17451449999999
  0
LINE
  8
_0-0_0
  6
CONTINUOUS
 62
    7
 10
-57.571037000000047
 20
476.59361249999995
 11
-57.571037000000047
 21
476.37846349999995
  0
LINE
  8
_0-0_0
  6
CONTINUOUS
 62
    7
 10
-57.571037000000047
 20
476.8176115
 11
-57.571037000000047
 21
476.59361249999995
  0
LINE
  8
_0-0_0
  6
CONTINUOUS
 62
    7
 10
-57.571037000000047
 20
477.04795850000005
 11
-57.571037000000047
 21
476.8176115
  0
LINE
  8
_0-0_0
  6
CONTINUOUS
 62
    7
 10
-57.571037000000047
 20
477.28218049999998
 11
-57.571037000000047
 21
477.04795850000005
  0
LINE
  8
_0-0_0
  6
CONTINUOUS
 62
    7
 10
-57.571037000000047
 20
477.51771550000001
 11
-57.571037000000047
 21
477.28218049999998
  0
LINE
  8
_0-0_0
  6
CONTINUOUS
 62
    7
 10
-57.571037000000047
 20
477.75190750000002
 11
-57.571037000000047
 21
477.51771550000001
  0
LINE
  8
_0-0_0
  6
CONTINUOUS
 62
    7
 10
-57.571037000000047
 20
477.98228449999999
 11
-57.571037000000047
 21
477.75190750000002
  0
LINE
  8
_0-0_0
  6
CONTINUOUS
 62
    7
 10
-57.571037000000047
 20
478.20628350000004
 11
-57.571037000000047
 21
477.98228449999999
  0
LINE
  8
_0-0_0
  6
CONTINUOUS
 62
    7
 10
-57.571037000000047
 20
478.42143250000004
 11
-57.571037000000047
 21
478.20628350000004
  0
LINE
  8
_0-0_0
  6
CONTINUOUS
 62
    7
 10
-57.571037000000047
 20
478.47865249999995
 11
-57.571037000000047
 21
478.42143250000004
  0
LINE
  8
_0-0_0
  6
CONTINUOUS
 62
    7
 10
-42.571037000000047
 20
470.66200249999997
 11
-42.571037000000047
 21
471.70762649999995
  0
LINE
  8
_0-0_0
  6
CONTINUOUS
 62
    7
 10
-42.571037000000047
 20
472.9922335
 11
-42.571037000000047
 21
471.70762649999995
  0
LINE
  8
_0-0_0
  6
CONTINUOUS
 62
    7
 10
-42.571037000000047
 20
473.10762050000005
 11
-42.571037000000047
 21
472.9922335
  0
LINE
  8
_0-0_0
  6
CONTINUOUS
 62
    7
 10
-42.571037000000047
 20
470.66200249999997
 11
-42.571037000000047
 21
467.53788750000001
  0
LINE
  8
_0-0_0
  6
CONTINUOUS
 62
    7
 10
-42.571037000000047
 20
465.09223950000001
 11
-42.571037000000047
 21
465.20762649999995
  0
LINE
  8
_0-0_0
  6
CONTINUOUS
 62
    7
 10
-42.571037000000047
 20
466.4922335
 11
-42.571037000000047
 21
465.20762649999995
  0
LINE
  8
_0-0_0
  6
CONTINUOUS
 62
    7
 10
-42.571037000000047
 20
466.4922335
 11
-42.571037000000047
 21
467.53788750000001
  0
LINE
  8
_0-0_0
  6
CONTINUOUS
 62
    7
 10
-57.571037000000047
 20
462.0253755
 11
-57.571037000000047
 21
461.87864650000006
  0
LINE
  8
_0-0_0
  6
CONTINUOUS
 62
    7
 10
-57.571037000000047
 20
462.21592650000002
 11
-57.571037000000047
 21
462.0253755
  0
LINE
  8
_0-0_0
  6
CONTINUOUS
 62
    7
 10
-57.571037000000047
 20
462.39094550000004
 11
-57.571037000000047
 21
462.21592650000002
  0
LINE
  8
_0-0_0
  6
CONTINUOUS
 62
    7
 10
-57.571037000000047
 20
462.54850750000003
 11
-57.571037000000047
 21
462.39094550000004
  0
LINE
  8
_0-0_0
  6
CONTINUOUS
 62
    7
 10
-57.571037000000047
 20
462.68696550000004
 11
-57.571037000000047
 21
462.54850750000003
  0
LINE
  8
_0-0_0
  6
CONTINUOUS
 62
    7
 10
-57.571037000000047
 20
462.80470249999996
 11
-57.571037000000047
 21
462.68696550000004
  0
LINE
  8
_0-0_0
  6
CONTINUOUS
 62
    7
 10
-57.571037000000047
 20
462.90049750000003
 11
-57.571037000000047
 21
462.80470249999996
  0
LINE
  8
_0-0_0
  6
CONTINUOUS
 62
    7
 10
-57.571037000000047
 20
462.97328149999998
 11
-57.571037000000047
 21
462.90049750000003
  0
LINE
  8
_0-0_0
  6
CONTINUOUS
 62
    7
 10
-57.571037000000047
 20
463.02223149999998
 11
-57.571037000000047
 21
462.97328149999998
  0
LINE
  8
_0-0_0
  6
CONTINUOUS
 62
    7
 10
-57.571037000000047
 20
463.04994150000005
 11
-57.571037000000047
 21
463.02223149999998
  0
LINE
  8
_0-0_0
  6
CONTINUOUS
 62
    7
 10
-57.571037000000047
 20
463.04994150000005
 11
-57.571037000000047
 21
463.04685949999998
  0
LINE
  8
_0-0_0
  6
CONTINUOUS
 62
    7
 10
-57.571037000000047
 20
458.55302449999999
 11
-57.571037000000047
 21
458.54994150000005
  0
LINE
  8
_0-0_0
  6
CONTINUOUS
 62
    7
 10
-57.571037000000047
 20
458.5776515
 11
-57.571037000000047
 21
458.54994150000005
  0
LINE
  8
_0-0_0
  6
CONTINUOUS
 62
    7
 10
-57.571037000000047
 20
458.62660249999999
 11
-57.571037000000047
 21
458.5776515
  0
LINE
  8
_0-0_0
  6
CONTINUOUS
 62
    7
 10
-57.571037000000047
 20
458.69938650000006
 11
-57.571037000000047
 21
458.62660249999999
  0
LINE
  8
_0-0_0
  6
CONTINUOUS
 62
    7
 10
-57.571037000000047
 20
458.79518150000001
 11
-57.571037000000047
 21
458.69938650000006
  0
LINE
  8
_0-0_0
  6
CONTINUOUS
 62
    7
 10
-57.571037000000047
 20
458.82539350000002
 11
-57.571037000000047
 21
458.79518150000001
  0
LINE
  8
_0-0_0
  6
CONTINUOUS
 62
    7
 10
-57.571037000000047
 20
458.91291750000005
 11
-57.571037000000047
 21
458.82539350000002
  0
LINE
  8
_0-0_0
  6
CONTINUOUS
 62
    7
 10
-57.571037000000047
 20
459.05137649999995
 11
-57.571037000000047
 21
458.91291750000005
  0
LINE
  8
_0-0_0
  6
CONTINUOUS
 62
    7
 10
-57.571037000000047
 20
459.20896849999997
 11
-57.571037000000047
 21
459.05137649999995
  0
LINE
  8
_0-0_0
  6
CONTINUOUS
 62
    7
 10
-57.571037000000047
 20
459.38398749999999
 11
-57.571037000000047
 21
459.20896849999997
  0
LINE
  8
_0-0_0
  6
CONTINUOUS
 62
    7
 10
-57.571037000000047
 20
459.57450849999998
 11
-57.571037000000047
 21
459.38398749999999
  0
LINE
  8
_0-0_0
  6
CONTINUOUS
 62
    7
 10
-57.571037000000047
 20
459.77845750000006
 11
-57.571037000000047
 21
459.57450849999998
  0
LINE
  8
_0-0_0
  6
CONTINUOUS
 62
    7
 10
-57.571037000000047
 20
459.99360650000006
 11
-57.571037000000047
 21
459.77845750000006
  0
LINE
  8
_0-0_0
  6
CONTINUOUS
 62
    7
 10
-57.571037000000047
 20
460.21760549999999
 11
-57.571037000000047
 21
459.99360650000006
  0
LINE
  8
_0-0_0
  6
CONTINUOUS
 62
    7
 10
-57.571037000000047
 20
460.44795250000004
 11
-57.571037000000047
 21
460.21760549999999
  0
LINE
  8
_0-0_0
  6
CONTINUOUS
 62
    7
 10
-57.571037000000047
 20
460.68217449999997
 11
-57.571037000000047
 21
460.44795250000004
  0
LINE
  8
_0-0_0
  6
CONTINUOUS
 62
    7
 10
-57.571037000000047
 20
460.9177095
 11
-57.571037000000047
 21
460.68217449999997
  0
LINE
  8
_0-0_0
  6
CONTINUOUS
 62
    7
 10
-57.571037000000047
 20
461.15193150000005
 11
-57.571037000000047
 21
460.9177095
  0
LINE
  8
_0-0_0
  6
CONTINUOUS
 62
    7
 10
-57.571037000000047
 20
461.38227849999998
 11
-57.571037000000047
 21
461.15193150000005
  0
LINE
  8
_0-0_0
  6
CONTINUOUS
 62
    7
 10
-57.571037000000047
 20
461.60627750000003
 11
-57.571037000000047
 21
461.38227849999998
  0
LINE
  8
_0-0_0
  6
CONTINUOUS
 62
    7
 10
-57.571037000000047
 20
461.82142650000003
 11
-57.571037000000047
 21
461.60627750000003
  0
LINE
  8
_0-0_0
  6
CONTINUOUS
 62
    7
 10
-57.571037000000047
 20
461.87864650000006
 11
-57.571037000000047
 21
461.82142650000003
  0
LINE
  8
_0-0_0
  6
CONTINUOUS
 62
    7
 10
53.428954999999974
 20
471.64994750000005
 11
49.428954999999974
 21
471.64994750000005
  0
ARC
  8
_0-0_0
  6
CONTINUOUS
 62
    7
 10
49.428954999999974
 20
473.89994750000005
 40
2.25
 50
90.000003000000007
 51
269.99999700000006
  0
LINE
  8
_0-0_0
  6
CONTINUOUS
 62
    7
 10
49.428954999999974
 20
476.14994750000005
 11
53.428954999999974
 21
476.14994750000005
  0
ARC
  8
_0-0_0
  6
CONTINUOUS
 62
    7
 10
53.428954999999974
 20
473.89994750000005
 40
2.25
 50
269.99999700000001
 51
90.000002999999992
  0
ARC
  8
_0-0_0
  6
CONTINUOUS
 62
    7
 10
-6.5710450000000264
 20
473.89994750000005
 40
2.25
 50
90.000003000000007
 51
269.99999700000006
  0
LINE
  8
_0-0_0
  6
CONTINUOUS
 62
    7
 10
-6.5710450000000264
 20
476.14994750000005
 11
-2.5710450000000264
 21
476.14994750000005
  0
ARC
  8
_0-0_0
  6
CONTINUOUS
 62
    7
 10
-2.5710450000000264
 20
473.89994750000005
 40
2.25
 50
269.99999700000001
 51
90.000002999999992
  0
LINE
  8
_0-0_0
  6
CONTINUOUS
 62
    7
 10
-2.5710450000000264
 20
471.64994750000005
 11
-6.5710450000000264
 21
471.64994750000005
  0
LINE
  8
_0-0_0
  6
CONTINUOUS
 62
    7
 10
-57.571037000000047
 20
478.6253815
 11
-57.821037000000047
 21
478.64994750000005
  0
LINE
  8
_0-0_0
  6
CONTINUOUS
 62
    7
 10
-57.571037000000047
 20
478.42143250000004
 11
-57.821037000000047
 21
478.64994750000005
  0
LINE
  8
_0-0_0
  6
CONTINUOUS
 62
    7
 10
-57.571037000000047
 20
478.81590249999999
 11
-57.821037000000047
 21
478.86939949999999
  0
LINE
  8
_0-0_0
  6
CONTINUOUS
 62
    7
 10
-57.571037000000047
 20
478.6253815
 11
-57.821037000000047
 21
478.86939949999999
  0
LINE
  8
_0-0_0
  6
CONTINUOUS
 62
    7
 10
-57.571037000000047
 20
478.99092050000002
 11
-57.821037000000047
 21
479.07276950000005
  0
LINE
  8
_0-0_0
  6
CONTINUOUS
 62
    7
 10
-57.571037000000047
 20
478.81590249999999
 11
-57.821037000000047
 21
479.07276950000005
  0
LINE
  8
_0-0_0
  6
CONTINUOUS
 62
    7
 10
-57.571037000000047
 20
479.14851350000004
 11
-57.821037000000047
 21
479.25779750000004
  0
LINE
  8
_0-0_0
  6
CONTINUOUS
 62
    7
 10
-57.571037000000047
 20
478.99092050000002
 11
-57.821037000000047
 21
479.25779750000004
  0
LINE
  8
_0-0_0
  6
CONTINUOUS
 62
    7
 10
-57.571037000000047
 20
479.28694150000001
 11
-57.821037000000047
 21
479.42250049999996
  0
LINE
  8
_0-0_0
  6
CONTINUOUS
 62
    7
 10
-57.571037000000047
 20
479.14851350000004
 11
-57.821037000000047
 21
479.42250049999996
  0
LINE
  8
_0-0_0
  6
CONTINUOUS
 62
    7
 10
-57.571037000000047
 20
479.40470849999997
 11
-57.821037000000047
 21
479.56501749999995
  0
LINE
  8
_0-0_0
  6
CONTINUOUS
 62
    7
 10
-57.571037000000047
 20
479.28694150000001
 11
-57.821037000000047
 21
479.56501749999995
  0
LINE
  8
_0-0_0
  6
CONTINUOUS
 62
    7
 10
-57.571037000000047
 20
479.50050350000004
 11
-57.821037000000047
 21
479.68379149999998
  0
LINE
  8
_0-0_0
  6
CONTINUOUS
 62
    7
 10
-57.571037000000047
 20
479.40470849999997
 11
-57.821037000000047
 21
479.68379149999998
  0
LINE
  8
_0-0_0
  6
CONTINUOUS
 62
    7
 10
-57.571037000000047
 20
479.57328749999999
 11
-57.821037000000047
 21
479.77757250000002
  0
LINE
  8
_0-0_0
  6
CONTINUOUS
 62
    7
 10
-57.571037000000047
 20
479.50050350000004
 11
-57.821037000000047
 21
479.77757250000002
  0
LINE
  8
_0-0_0
  6
CONTINUOUS
 62
    7
 10
-57.571037000000047
 20
479.62223849999998
 11
-57.821037000000047
 21
479.84532149999995
  0
LINE
  8
_0-0_0
  6
CONTINUOUS
 62
    7
 10
-57.571037000000047
 20
479.57328749999999
 11
-57.821037000000047
 21
479.84532149999995
  0
LINE
  8
_0-0_0
  6
CONTINUOUS
 62
    7
 10
-57.571037000000047
 20
479.64686549999999
 11
-57.821037000000047
 21
479.88624549999997
  0
LINE
  8
_0-0_0
  6
CONTINUOUS
 62
    7
 10
-57.571037000000047
 20
479.62223849999998
 11
-57.821037000000047
 21
479.88624549999997
  0
LINE
  8
_0-0_0
  6
CONTINUOUS
 62
    7
 10
-57.571037000000047
 20
479.64686549999999
 11
-57.821037000000047
 21
479.89994750000005
  0
LINE
  8
_0-0_0
  6
CONTINUOUS
 62
    7
 10
-57.571037000000047
 20
475.1530305
 11
-57.821037000000047
 21
474.89994750000005
  0
LINE
  8
_0-0_0
  6
CONTINUOUS
 62
    7
 10
-57.571037000000047
 20
475.17765750000001
 11
-57.821037000000047
 21
474.91365050000002
  0
LINE
  8
_0-0_0
  6
CONTINUOUS
 62
    7
 10
-57.571037000000047
 20
475.1530305
 11
-57.574256999999989
 21
475.14994750000005
  0
LINE
  8
_0-0_0
  6
CONTINUOUS
 62
    7
 10
-57.571037000000047
 20
475.2266085
 11
-57.821037000000047
 21
474.95457450000004
  0
LINE
  8
_0-0_0
  6
CONTINUOUS
 62
    7
 10
-57.571037000000047
 20
475.17765750000001
 11
-57.821037000000047
 21
474.95457450000004
  0
LINE
  8
_0-0_0
  6
CONTINUOUS
 62
    7
 10
-57.571037000000047
 20
475.29939249999995
 11
-57.821037000000047
 21
475.02229250000005
  0
LINE
  8
_0-0_0
  6
CONTINUOUS
 62
    7
 10
-57.571037000000047
 20
475.2266085
 11
-57.821037000000047
 21
475.02229250000005
  0
LINE
  8
_0-0_0
  6
CONTINUOUS
 62
    7
 10
-57.571037000000047
 20
475.39518750000002
 11
-57.821037000000047
 21
475.11607349999997
  0
LINE
  8
_0-0_0
  6
CONTINUOUS
 62
    7
 10
-57.571037000000047
 20
475.29939249999995
 11
-57.821037000000047
 21
475.11607349999997
  0
LINE
  8
_0-0_0
  6
CONTINUOUS
 62
    7
 10
-57.571037000000047
 20
475.39518750000002
 11
-57.701004000000012
 21
475.31132449999996
  0
LINE
  8
_0-0_0
  6
CONTINUOUS
 62
    7
 10
-57.571037000000047
 20
475.51292450000005
 11
-57.821037000000047
 21
475.23487850000004
  0
LINE
  8
_0-0_0
  6
CONTINUOUS
 62
    7
 10
-57.701004000000012
 20
475.31132449999996
 11
-57.821037000000047
 21
475.23487850000004
  0
LINE
  8
_0-0_0
  6
CONTINUOUS
 62
    7
 10
-57.571037000000047
 20
475.65135150000003
 11
-57.821037000000047
 21
475.37739550000003
  0
LINE
  8
_0-0_0
  6
CONTINUOUS
 62
    7
 10
-57.571037000000047
 20
475.51292450000005
 11
-57.821037000000047
 21
475.37739550000003
  0
LINE
  8
_0-0_0
  6
CONTINUOUS
 62
    7
 10
-57.571037000000047
 20
475.80894450000005
 11
-57.821037000000047
 21
475.54206850000003
  0
LINE
  8
_0-0_0
  6
CONTINUOUS
 62
    7
 10
-57.571037000000047
 20
475.65135150000003
 11
-57.821037000000047
 21
475.54206850000003
  0
LINE
  8
_0-0_0
  6
CONTINUOUS
 62
    7
 10
-57.571037000000047
 20
475.98396249999996
 11
-57.821037000000047
 21
475.72712650000005
  0
LINE
  8
_0-0_0
  6
CONTINUOUS
 62
    7
 10
-57.571037000000047
 20
475.80894450000005
 11
-57.821037000000047
 21
475.72712650000005
  0
LINE
  8
_0-0_0
  6
CONTINUOUS
 62
    7
 10
-57.571037000000047
 20
476.17451449999999
 11
-57.821037000000047
 21
475.9304965
  0
LINE
  8
_0-0_0
  6
CONTINUOUS
 62
    7
 10
-57.571037000000047
 20
475.98396249999996
 11
-57.821037000000047
 21
475.9304965
  0
LINE
  8
_0-0_0
  6
CONTINUOUS
 62
    7
 10
-57.571037000000047
 20
476.37846349999995
 11
-57.821037000000047
 21
476.14994750000005
  0
LINE
  8
_0-0_0
  6
CONTINUOUS
 62
    7
 10
-57.571037000000047
 20
476.17451449999999
 11
-57.821037000000047
 21
476.14994750000005
  0
LINE
  8
_0-0_0
  6
CONTINUOUS
 62
    7
 10
-57.571037000000047
 20
476.59361249999995
 11
-57.821037000000047
 21
476.38310249999995
  0
LINE
  8
_0-0_0
  6
CONTINUOUS
 62
    7
 10
-57.571037000000047
 20
476.37846349999995
 11
-57.821037000000047
 21
476.38310249999995
  0
LINE
  8
_0-0_0
  6
CONTINUOUS
 62
    7
 10
-57.571037000000047
 20
476.8176115
 11
-57.821037000000047
 21
476.62739550000003
  0
LINE
  8
_0-0_0
  6
CONTINUOUS
 62
    7
 10
-57.571037000000047
 20
476.59361249999995
 11
-57.821037000000047
 21
476.62739550000003
  0
LINE
  8
_0-0_0
  6
CONTINUOUS
 62
    7
 10
-57.571037000000047
 20
477.04795850000005
 11
-57.821037000000047
 21
476.88017249999996
  0
LINE
  8
_0-0_0
  6
CONTINUOUS
 62
    7
 10
-57.571037000000047
 20
476.8176115
 11
-57.821037000000047
 21
476.88017249999996
  0
LINE
  8
_0-0_0
  6
CONTINUOUS
 62
    7
 10
-57.571037000000047
 20
477.28218049999998
 11
-57.821037000000047
 21
477.13862549999999
  0
LINE
  8
_0-0_0
  6
CONTINUOUS
 62
    7
 10
-57.571037000000047
 20
477.04795850000005
 11
-57.821037000000047
 21
477.13862549999999
  0
LINE
  8
_0-0_0
  6
CONTINUOUS
 62
    7
 10
-57.571037000000047
 20
477.51771550000001
 11
-57.821037000000047
 21
477.39994750000005
  0
LINE
  8
_0-0_0
  6
CONTINUOUS
 62
    7
 10
-57.571037000000047
 20
477.28218049999998
 11
-57.821037000000047
 21
477.39994750000005
  0
LINE
  8
_0-0_0
  6
CONTINUOUS
 62
    7
 10
-57.571037000000047
 20
477.75190750000002
 11
-57.821037000000047
 21
477.6612705
  0
LINE
  8
_0-0_0
  6
CONTINUOUS
 62
    7
 10
-57.571037000000047
 20
477.51771550000001
 11
-57.821037000000047
 21
477.6612705
  0
LINE
  8
_0-0_0
  6
CONTINUOUS
 62
    7
 10
-57.571037000000047
 20
477.98228449999999
 11
-57.821037000000047
 21
477.91972350000003
  0
LINE
  8
_0-0_0
  6
CONTINUOUS
 62
    7
 10
-57.571037000000047
 20
477.75190750000002
 11
-57.821037000000047
 21
477.91972350000003
  0
LINE
  8
_0-0_0
  6
CONTINUOUS
 62
    7
 10
-57.571037000000047
 20
478.20628350000004
 11
-57.821037000000047
 21
478.17250049999996
  0
LINE
  8
_0-0_0
  6
CONTINUOUS
 62
    7
 10
-57.571037000000047
 20
477.98228449999999
 11
-57.821037000000047
 21
478.17250049999996
  0
LINE
  8
_0-0_0
  6
CONTINUOUS
 62
    7
 10
-57.571037000000047
 20
478.42143250000004
 11
-57.821037000000047
 21
478.41679350000004
  0
LINE
  8
_0-0_0
  6
CONTINUOUS
 62
    7
 10
-57.571037000000047
 20
478.20628350000004
 11
-57.821037000000047
 21
478.41679350000004
  0
LINE
  8
_0-0_0
  6
CONTINUOUS
 62
    7
 10
-42.571037000000047
 20
472.9922335
 11
-52.278862000000004
 21
472.9922335
  0
LINE
  8
_0-0_0
  6
CONTINUOUS
 62
    7
 10
-52.278862000000004
 20
472.9922335
 11
-52.333343000000013
 21
473.06217949999996
  0
LINE
  8
_0-0_0
  6
CONTINUOUS
 62
    7
 10
-52.333343000000013
 20
473.06217949999996
 11
-52.384445000000028
 21
473.13099650000004
  0
LINE
  8
_0-0_0
  6
CONTINUOUS
 62
    7
 10
-52.384445000000028
 20
473.13099650000004
 11
-52.432083000000034
 21
473.19850150000002
  0
LINE
  8
_0-0_0
  6
CONTINUOUS
 62
    7
 10
-52.432083000000034
 20
473.19850150000002
 11
-52.476585
 21
473.2650605
  0
LINE
  8
_0-0_0
  6
CONTINUOUS
 62
    7
 10
-52.476585
 20
473.2650605
 11
-52.531311000000017
 21
473.35261549999996
  0
LINE
  8
_0-0_0
  6
CONTINUOUS
 62
    7
 10
-52.531311000000017
 20
473.35261549999996
 11
-52.58081100000004
 21
473.43870549999997
  0
LINE
  8
_0-0_0
  6
CONTINUOUS
 62
    7
 10
-52.58081100000004
 20
473.43870549999997
 11
-52.625282000000027
 21
473.52354449999996
  0
LINE
  8
_0-0_0
  6
CONTINUOUS
 62
    7
 10
-52.625282000000027
 20
473.52354449999996
 11
-52.672249000000022
 21
473.62385549999999
  0
LINE
  8
_0-0_0
  6
CONTINUOUS
 62
    7
 10
-52.672249000000022
 20
473.62385549999999
 11
-52.712456000000032
 21
473.72279349999997
  0
LINE
  8
_0-0_0
  6
CONTINUOUS
 62
    7
 10
-52.712456000000032
 20
473.72279349999997
 11
-52.746124000000009
 21
473.82054149999999
  0
LINE
  8
_0-0_0
  6
CONTINUOUS
 62
    7
 10
-52.746124000000009
 20
473.82054149999999
 11
-52.77340700000002
 21
473.91734350000002
  0
LINE
  8
_0-0_0
  6
CONTINUOUS
 62
    7
 10
-52.77340700000002
 20
473.91734350000002
 11
-52.794456000000025
 21
474.01338150000004
  0
LINE
  8
_0-0_0
  6
CONTINUOUS
 62
    7
 10
-52.794456000000025
 20
474.01338150000004
 11
-52.810386999999992
 21
474.11726350000004
  0
LINE
  8
_0-0_0
  6
CONTINUOUS
 62
    7
 10
-52.810386999999992
 20
474.11726350000004
 11
-52.819145000000049
 21
474.22068750000005
  0
LINE
  8
_0-0_0
  6
CONTINUOUS
 62
    7
 10
-52.819145000000049
 20
474.22068750000005
 11
-52.820778000000018
 21
474.32392849999997
  0
LINE
  8
_0-0_0
  6
CONTINUOUS
 62
    7
 10
-52.820778000000018
 20
474.32392849999997
 11
-52.815308000000016
 21
474.42720050000003
  0
LINE
  8
_0-0_0
  6
CONTINUOUS
 62
    7
 10
-52.815308000000016
 20
474.42720050000003
 11
-52.802704000000006
 21
474.53080750000004
  0
LINE
  8
_0-0_0
  6
CONTINUOUS
 62
    7
 10
-52.802704000000006
 20
474.53080750000004
 11
-52.782883000000027
 21
474.63493349999999
  0
LINE
  8
_0-0_0
  6
CONTINUOUS
 62
    7
 10
-52.782883000000027
 20
474.63493349999999
 11
-52.755737000000011
 21
474.73991350000006
  0
LINE
  8
_0-0_0
  6
CONTINUOUS
 62
    7
 10
-52.755737000000011
 20
474.73991350000006
 11
-52.721091999999999
 21
474.84593150000001
  0
LINE
  8
_0-0_0
  6
CONTINUOUS
 62
    7
 10
-52.721091999999999
 20
474.84593150000001
 11
-52.678749000000039
 21
474.95332350000001
  0
LINE
  8
_0-0_0
  6
CONTINUOUS
 62
    7
 10
-52.678749000000039
 20
474.95332350000001
 11
-52.62843300000003
 21
475.06233250000002
  0
LINE
  8
_0-0_0
  6
CONTINUOUS
 62
    7
 10
-52.62843300000003
 20
475.06233250000002
 11
-52.582733000000019
 21
475.14997849999997
  0
LINE
  8
_0-0_0
  6
CONTINUOUS
 62
    7
 10
-42.571037000000047
 20
471.70762649999995
 11
-52.278862000000004
 21
471.70762649999995
  0
LINE
  8
_0-0_0
  6
CONTINUOUS
 62
    7
 10
-52.278862000000004
 20
471.70762649999995
 11
-52.373199
 21
471.46101350000004
  0
LINE
  8
_0-0_0
  6
CONTINUOUS
 62
    7
 10
-52.373199
 20
471.46101350000004
 11
-52.457146000000023
 21
471.22105350000004
  0
LINE
  8
_0-0_0
  6
CONTINUOUS
 62
    7
 10
-52.457146000000023
 20
471.22105350000004
 11
-52.531311000000017
 21
470.98692349999999
  0
LINE
  8
_0-0_0
  6
CONTINUOUS
 62
    7
 10
-52.531311000000017
 20
470.98692349999999
 11
-52.596183999999994
 21
470.75788850000004
  0
LINE
  8
_0-0_0
  6
CONTINUOUS
 62
    7
 10
-52.596183999999994
 20
470.75788850000004
 11
-52.652221999999995
 21
470.53321849999998
  0
LINE
  8
_0-0_0
  6
CONTINUOUS
 62
    7
 10
-52.652221999999995
 20
470.53321849999998
 11
-52.699791000000005
 21
470.31224050000003
  0
LINE
  8
_0-0_0
  6
CONTINUOUS
 62
    7
 10
-52.699791000000005
 20
470.31224050000003
 11
-52.73919699999999
 21
470.0943145
  0
LINE
  8
_0-0_0
  6
CONTINUOUS
 62
    7
 10
-52.73919699999999
 20
470.0943145
 11
-52.770690999999999
 21
469.87886049999997
  0
LINE
  8
_0-0_0
  6
CONTINUOUS
 62
    7
 10
-52.770690999999999
 20
469.87886049999997
 11
-52.794456000000025
 21
469.66532849999999
  0
LINE
  8
_0-0_0
  6
CONTINUOUS
 62
    7
 10
-52.794456000000025
 20
469.66532849999999
 11
-52.810386999999992
 21
469.45762649999995
  0
LINE
  8
_0-0_0
  6
CONTINUOUS
 62
    7
 10
-52.810386999999992
 20
469.45762649999995
 11
-52.819145000000049
 21
469.25077850000002
  0
LINE
  8
_0-0_0
  6
CONTINUOUS
 62
    7
 10
-52.819145000000049
 20
469.25077850000002
 11
-52.820778000000018
 21
469.04429649999997
  0
LINE
  8
_0-0_0
  6
CONTINUOUS
 62
    7
 10
-52.820778000000018
 20
469.04429649999997
 11
-52.815308000000016
 21
468.83772250000004
  0
LINE
  8
_0-0_0
  6
CONTINUOUS
 62
    7
 10
-52.815308000000016
 20
468.83772250000004
 11
-52.802704000000006
 21
468.63053850000006
  0
LINE
  8
_0-0_0
  6
CONTINUOUS
 62
    7
 10
-52.802704000000006
 20
468.63053850000006
 11
-52.782883000000027
 21
468.4222565
  0
LINE
  8
_0-0_0
  6
CONTINUOUS
 62
    7
 10
-52.782883000000027
 20
468.4222565
 11
-52.755737000000011
 21
468.21232550000002
  0
LINE
  8
_0-0_0
  6
CONTINUOUS
 62
    7
 10
-52.755737000000011
 20
468.21232550000002
 11
-52.721091999999999
 21
468.00025949999997
  0
LINE
  8
_0-0_0
  6
CONTINUOUS
 62
    7
 10
-52.721091999999999
 20
468.00025949999997
 11
-52.678749000000039
 21
467.78550749999999
  0
LINE
  8
_0-0_0
  6
CONTINUOUS
 62
    7
 10
-52.678749000000039
 20
467.78550749999999
 11
-52.62843300000003
 21
467.56748949999997
  0
LINE
  8
_0-0_0
  6
CONTINUOUS
 62
    7
 10
-52.62843300000003
 20
467.56748949999997
 11
-52.57418100000001
 21
467.36122150000006
  0
LINE
  8
_0-0_0
  6
CONTINUOUS
 62
    7
 10
-52.57418100000001
 20
467.36122150000006
 11
-52.512473999999997
 21
467.15110749999997
  0
LINE
  8
_0-0_0
  6
CONTINUOUS
 62
    7
 10
-52.512473999999997
 20
467.15110749999997
 11
-52.442954999999984
 21
466.93663049999998
  0
LINE
  8
_0-0_0
  6
CONTINUOUS
 62
    7
 10
-52.442954999999984
 20
466.93663049999998
 11
-52.365242000000023
 21
466.71723950000001
  0
LINE
  8
_0-0_0
  6
CONTINUOUS
 62
    7
 10
-52.365242000000023
 20
466.71723950000001
 11
-52.278862000000004
 21
466.4922335
  0
LINE
  8
_0-0_0
  6
CONTINUOUS
 62
    7
 10
-42.571037000000047
 20
466.4922335
 11
-52.278862000000004
 21
466.4922335
  0
ARC
  8
_0-0_0
  6
CONTINUOUS
 62
    7
 10
-47.407309999999995
 20
472.34992950000003
 40
4.9136889999999998
 50
172.48898299999999
 51
187.51101699999998
  0
LINE
  8
_0-0_0
  6
CONTINUOUS
 62
    7
 10
-42.571037000000047
 20
465.20762649999995
 11
-52.278862000000004
 21
465.20762649999995
  0
LINE
  8
_0-0_0
  6
CONTINUOUS
 62
    7
 10
-52.278862000000004
 20
462.59992950000003
 11
-52.333343000000013
 21
462.66987549999999
  0
LINE
  8
_0-0_0
  6
CONTINUOUS
 62
    7
 10
-52.333343000000013
 20
462.66987549999999
 11
-52.384445000000028
 21
462.73869349999995
  0
LINE
  8
_0-0_0
  6
CONTINUOUS
 62
    7
 10
-52.384445000000028
 20
462.73869349999995
 11
-52.432083000000034
 21
462.80619750000005
  0
LINE
  8
_0-0_0
  6
CONTINUOUS
 62
    7
 10
-52.432083000000034
 20
462.80619750000005
 11
-52.476585
 21
462.87275650000004
  0
LINE
  8
_0-0_0
  6
CONTINUOUS
 62
    7
 10
-52.476585
 20
462.87275650000004
 11
-52.531311000000017
 21
462.96031149999999
  0
LINE
  8
_0-0_0
  6
CONTINUOUS
 62
    7
 10
-52.531311000000017
 20
462.96031149999999
 11
-52.58081100000004
 21
463.0464015
  0
LINE
  8
_0-0_0
  6
CONTINUOUS
 62
    7
 10
-52.58081100000004
 20
463.0464015
 11
-52.625282000000027
 21
463.13124049999999
  0
LINE
  8
_0-0_0
  6
CONTINUOUS
 62
    7
 10
-52.625282000000027
 20
463.13124049999999
 11
-52.672249000000022
 21
463.23155150000002
  0
LINE
  8
_0-0_0
  6
CONTINUOUS
 62
    7
 10
-52.672249000000022
 20
463.23155150000002
 11
-52.712456000000032
 21
463.3304895
  0
LINE
  8
_0-0_0
  6
CONTINUOUS
 62
    7
 10
-52.712456000000032
 20
463.3304895
 11
-52.746124000000009
 21
463.42823750000002
  0
LINE
  8
_0-0_0
  6
CONTINUOUS
 62
    7
 10
-52.746124000000009
 20
463.42823750000002
 11
-52.77340700000002
 21
463.52503950000005
  0
LINE
  8
_0-0_0
  6
CONTINUOUS
 62
    7
 10
-52.77340700000002
 20
463.52503950000005
 11
-52.794456000000025
 21
463.62107849999995
  0
LINE
  8
_0-0_0
  6
CONTINUOUS
 62
    7
 10
-52.794456000000025
 20
463.62107849999995
 11
-52.810386999999992
 21
463.72496049999995
  0
LINE
  8
_0-0_0
  6
CONTINUOUS
 62
    7
 10
-52.810386999999992
 20
463.72496049999995
 11
-52.819145000000049
 21
463.82838449999997
  0
LINE
  8
_0-0_0
  6
CONTINUOUS
 62
    7
 10
-52.819145000000049
 20
463.82838449999997
 11
-52.820778000000018
 21
463.93159449999996
  0
LINE
  8
_0-0_0
  6
CONTINUOUS
 62
    7
 10
-52.820778000000018
 20
463.93159449999996
 11
-52.815308000000016
 21
464.03489650000006
  0
LINE
  8
_0-0_0
  6
CONTINUOUS
 62
    7
 10
-52.815308000000016
 20
464.03489650000006
 11
-52.802704000000006
 21
464.13850349999996
  0
LINE
  8
_0-0_0
  6
CONTINUOUS
 62
    7
 10
-52.802704000000006
 20
464.13850349999996
 11
-52.782883000000027
 21
464.24262950000002
  0
LINE
  8
_0-0_0
  6
CONTINUOUS
 62
    7
 10
-52.782883000000027
 20
464.24262950000002
 11
-52.755737000000011
 21
464.34761049999997
  0
LINE
  8
_0-0_0
  6
CONTINUOUS
 62
    7
 10
-52.755737000000011
 20
464.34761049999997
 11
-52.721091999999999
 21
464.45362850000004
  0
LINE
  8
_0-0_0
  6
CONTINUOUS
 62
    7
 10
-52.721091999999999
 20
464.45362850000004
 11
-52.678749000000039
 21
464.56101950000004
  0
LINE
  8
_0-0_0
  6
CONTINUOUS
 62
    7
 10
-52.678749000000039
 20
464.56101950000004
 11
-52.62843300000003
 21
464.66999850000002
  0
LINE
  8
_0-0_0
  6
CONTINUOUS
 62
    7
 10
-52.62843300000003
 20
464.66999850000002
 11
-52.57418100000001
 21
464.77314750000005
  0
LINE
  8
_0-0_0
  6
CONTINUOUS
 62
    7
 10
-52.57418100000001
 20
464.77314750000005
 11
-52.512473999999997
 21
464.8782195
  0
LINE
  8
_0-0_0
  6
CONTINUOUS
 62
    7
 10
-52.512473999999997
 20
464.8782195
 11
-52.442954999999984
 21
464.98542750000001
  0
LINE
  8
_0-0_0
  6
CONTINUOUS
 62
    7
 10
-52.442954999999984
 20
464.98542750000001
 11
-52.365242000000023
 21
465.09513849999996
  0
LINE
  8
_0-0_0
  6
CONTINUOUS
 62
    7
 10
-52.365242000000023
 20
465.09513849999996
 11
-52.278862000000004
 21
465.20762649999995
  0
LINE
  8
_0-0_0
  6
CONTINUOUS
 62
    7
 10
-42.571037000000047
 20
462.59992950000003
 11
-52.278862000000004
 21
462.59992950000003
  0
ARC
  8
_0-0_0
  6
CONTINUOUS
 62
    7
 10
-47.397148000000016
 20
465.84904449999999
 40
4.9238749999999998
 50
172.49424200000001
 51
181.535968
  0
ARC
  8
_0-0_0
  6
CONTINUOUS
 62
    7
 10
-47.359123000000011
 20
465.85401950000005
 40
4.9620009999999999
 50
181.58130700000004
 51
187.48478900000003
  0
LINE
  8
_0-0_0
  6
CONTINUOUS
 62
    7
 10
-52.321037000000047
 20
462.59992950000003
 11
-52.278862000000004
 21
462.59992950000003
  0
LINE
  8
_0-0_0
  6
CONTINUOUS
 62
    7
 10
-57.571037000000047
 20
462.0253755
 11
-57.821037000000047
 21
462.04994150000005
  0
LINE
  8
_0-0_0
  6
CONTINUOUS
 62
    7
 10
-57.571037000000047
 20
461.82142650000003
 11
-57.821037000000047
 21
462.04994150000005
  0
LINE
  8
_0-0_0
  6
CONTINUOUS
 62
    7
 10
-57.571037000000047
 20
462.21592650000002
 11
-57.821037000000047
 21
462.26939349999998
  0
LINE
  8
_0-0_0
  6
CONTINUOUS
 62
    7
 10
-57.571037000000047
 20
462.0253755
 11
-57.821037000000047
 21
462.26939349999998
  0
LINE
  8
_0-0_0
  6
CONTINUOUS
 62
    7
 10
-57.571037000000047
 20
462.39094550000004
 11
-57.821037000000047
 21
462.47276250000004
  0
LINE
  8
_0-0_0
  6
CONTINUOUS
 62
    7
 10
-57.571037000000047
 20
462.21592650000002
 11
-57.821037000000047
 21
462.47276250000004
  0
LINE
  8
_0-0_0
  6
CONTINUOUS
 62
    7
 10
-57.571037000000047
 20
462.54850750000003
 11
-57.821037000000047
 21
462.65779150000003
  0
LINE
  8
_0-0_0
  6
CONTINUOUS
 62
    7
 10
-57.571037000000047
 20
462.39094550000004
 11
-57.821037000000047
 21
462.65779150000003
  0
LINE
  8
_0-0_0
  6
CONTINUOUS
 62
    7
 10
-57.571037000000047
 20
462.68696550000004
 11
-57.821037000000047
 21
462.82249449999995
  0
LINE
  8
_0-0_0
  6
CONTINUOUS
 62
    7
 10
-57.571037000000047
 20
462.54850750000003
 11
-57.821037000000047
 21
462.82249449999995
  0
LINE
  8
_0-0_0
  6
CONTINUOUS
 62
    7
 10
-57.571037000000047
 20
462.80470249999996
 11
-57.821037000000047
 21
462.96501150000006
  0
LINE
  8
_0-0_0
  6
CONTINUOUS
 62
    7
 10
-57.571037000000047
 20
462.68696550000004
 11
-57.821037000000047
 21
462.96501150000006
  0
LINE
  8
_0-0_0
  6
CONTINUOUS
 62
    7
 10
-57.571037000000047
 20
462.90049750000003
 11
-57.821037000000047
 21
463.08381650000001
  0
LINE
  8
_0-0_0
  6
CONTINUOUS
 62
    7
 10
-57.571037000000047
 20
462.80470249999996
 11
-57.821037000000047
 21
463.08381650000001
  0
LINE
  8
_0-0_0
  6
CONTINUOUS
 62
    7
 10
-57.571037000000047
 20
462.97328149999998
 11
-57.821037000000047
 21
463.17759650000005
  0
LINE
  8
_0-0_0
  6
CONTINUOUS
 62
    7
 10
-57.571037000000047
 20
462.90049750000003
 11
-57.821037000000047
 21
463.17759650000005
  0
LINE
  8
_0-0_0
  6
CONTINUOUS
 62
    7
 10
-57.571037000000047
 20
463.02223149999998
 11
-57.821037000000047
 21
463.24531549999995
  0
LINE
  8
_0-0_0
  6
CONTINUOUS
 62
    7
 10
-57.571037000000047
 20
462.97328149999998
 11
-57.821037000000047
 21
463.24531549999995
  0
LINE
  8
_0-0_0
  6
CONTINUOUS
 62
    7
 10
-57.571037000000047
 20
463.04685949999998
 11
-57.821037000000047
 21
463.28623949999997
  0
LINE
  8
_0-0_0
  6
CONTINUOUS
 62
    7
 10
-57.571037000000047
 20
463.02223149999998
 11
-57.821037000000047
 21
463.28623949999997
  0
LINE
  8
_0-0_0
  6
CONTINUOUS
 62
    7
 10
-57.571037000000047
 20
463.04685949999998
 11
-57.821037000000047
 21
463.29994150000005
  0
LINE
  8
_0-0_0
  6
CONTINUOUS
 62
    7
 10
-57.571037000000047
 20
458.55302449999999
 11
-57.821037000000047
 21
458.29994150000005
  0
LINE
  8
_0-0_0
  6
CONTINUOUS
 62
    7
 10
-57.571037000000047
 20
458.5776515
 11
-57.821037000000047
 21
458.31364450000001
  0
LINE
  8
_0-0_0
  6
CONTINUOUS
 62
    7
 10
-57.571037000000047
 20
458.55302449999999
 11
-57.821037000000047
 21
458.31364450000001
  0
LINE
  8
_0-0_0
  6
CONTINUOUS
 62
    7
 10
-57.571037000000047
 20
458.62660249999999
 11
-57.821037000000047
 21
458.35456850000003
  0
LINE
  8
_0-0_0
  6
CONTINUOUS
 62
    7
 10
-57.571037000000047
 20
458.5776515
 11
-57.821037000000047
 21
458.35456850000003
  0
LINE
  8
_0-0_0
  6
CONTINUOUS
 62
    7
 10
-57.571037000000047
 20
458.69938650000006
 11
-57.821037000000047
 21
458.42228650000004
  0
LINE
  8
_0-0_0
  6
CONTINUOUS
 62
    7
 10
-57.571037000000047
 20
458.62660249999999
 11
-57.821037000000047
 21
458.42228650000004
  0
LINE
  8
_0-0_0
  6
CONTINUOUS
 62
    7
 10
-57.571037000000047
 20
458.79518150000001
 11
-57.821037000000047
 21
458.51606749999996
  0
LINE
  8
_0-0_0
  6
CONTINUOUS
 62
    7
 10
-57.571037000000047
 20
458.69938650000006
 11
-57.821037000000047
 21
458.51606749999996
  0
LINE
  8
_0-0_0
  6
CONTINUOUS
 62
    7
 10
-57.571037000000047
 20
458.79518150000001
 11
-57.701004000000012
 21
458.71131849999995
  0
LINE
  8
_0-0_0
  6
CONTINUOUS
 62
    7
 10
-57.571037000000047
 20
458.91291750000005
 11
-57.821037000000047
 21
458.63487250000003
  0
LINE
  8
_0-0_0
  6
CONTINUOUS
 62
    7
 10
-57.701004000000012
 20
458.71131849999995
 11
-57.821037000000047
 21
458.63487250000003
  0
LINE
  8
_0-0_0
  6
CONTINUOUS
 62
    7
 10
-57.571037000000047
 20
459.05137649999995
 11
-57.821037000000047
 21
458.77738950000003
  0
LINE
  8
_0-0_0
  6
CONTINUOUS
 62
    7
 10
-57.571037000000047
 20
458.91291750000005
 11
-57.821037000000047
 21
458.77738950000003
  0
LINE
  8
_0-0_0
  6
CONTINUOUS
 62
    7
 10
-57.571037000000047
 20
459.20896849999997
 11
-57.821037000000047
 21
458.94209250000006
  0
LINE
  8
_0-0_0
  6
CONTINUOUS
 62
    7
 10
-57.571037000000047
 20
459.05137649999995
 11
-57.821037000000047
 21
458.94209250000006
  0
LINE
  8
_0-0_0
  6
CONTINUOUS
 62
    7
 10
-57.571037000000047
 20
459.38398749999999
 11
-57.821037000000047
 21
459.12712050000005
  0
LINE
  8
_0-0_0
  6
CONTINUOUS
 62
    7
 10
-57.571037000000047
 20
459.20896849999997
 11
-57.821037000000047
 21
459.12712050000005
  0
LINE
  8
_0-0_0
  6
CONTINUOUS
 62
    7
 10
-57.571037000000047
 20
459.57450849999998
 11
-57.821037000000047
 21
459.3304895
  0
LINE
  8
_0-0_0
  6
CONTINUOUS
 62
    7
 10
-57.571037000000047
 20
459.38398749999999
 11
-57.821037000000047
 21
459.3304895
  0
LINE
  8
_0-0_0
  6
CONTINUOUS
 62
    7
 10
-57.571037000000047
 20
459.77845750000006
 11
-57.821037000000047
 21
459.54994150000005
  0
LINE
  8
_0-0_0
  6
CONTINUOUS
 62
    7
 10
-57.571037000000047
 20
459.57450849999998
 11
-57.821037000000047
 21
459.54994150000005
  0
LINE
  8
_0-0_0
  6
CONTINUOUS
 62
    7
 10
-57.571037000000047
 20
459.99360650000006
 11
-57.821037000000047
 21
459.78309650000006
  0
LINE
  8
_0-0_0
  6
CONTINUOUS
 62
    7
 10
-57.571037000000047
 20
459.77845750000006
 11
-57.821037000000047
 21
459.78309650000006
  0
LINE
  8
_0-0_0
  6
CONTINUOUS
 62
    7
 10
-57.571037000000047
 20
460.21760549999999
 11
-57.821037000000047
 21
460.02738950000003
  0
LINE
  8
_0-0_0
  6
CONTINUOUS
 62
    7
 10
-57.571037000000047
 20
459.99360650000006
 11
-57.821037000000047
 21
460.02738950000003
  0
LINE
  8
_0-0_0
  6
CONTINUOUS
 62
    7
 10
-57.571037000000047
 20
460.44795250000004
 11
-57.821037000000047
 21
460.28016649999995
  0
LINE
  8
_0-0_0
  6
CONTINUOUS
 62
    7
 10
-57.571037000000047
 20
460.21760549999999
 11
-57.821037000000047
 21
460.28016649999995
  0
LINE
  8
_0-0_0
  6
CONTINUOUS
 62
    7
 10
-57.571037000000047
 20
460.68217449999997
 11
-57.821037000000047
 21
460.53861949999998
  0
LINE
  8
_0-0_0
  6
CONTINUOUS
 62
    7
 10
-57.571037000000047
 20
460.44795250000004
 11
-57.821037000000047
 21
460.53861949999998
  0
LINE
  8
_0-0_0
  6
CONTINUOUS
 62
    7
 10
-57.571037000000047
 20
460.9177095
 11
-57.821037000000047
 21
460.79994150000005
  0
LINE
  8
_0-0_0
  6
CONTINUOUS
 62
    7
 10
-57.571037000000047
 20
460.68217449999997
 11
-57.821037000000047
 21
460.79994150000005
  0
LINE
  8
_0-0_0
  6
CONTINUOUS
 62
    7
 10
-57.571037000000047
 20
461.15193150000005
 11
-57.821037000000047
 21
461.0612635
  0
LINE
  8
_0-0_0
  6
CONTINUOUS
 62
    7
 10
-57.571037000000047
 20
460.9177095
 11
-57.821037000000047
 21
461.0612635
  0
LINE
  8
_0-0_0
  6
CONTINUOUS
 62
    7
 10
-57.571037000000047
 20
461.38227849999998
 11
-57.821037000000047
 21
461.31971750000002
  0
LINE
  8
_0-0_0
  6
CONTINUOUS
 62
    7
 10
-57.571037000000047
 20
461.15193150000005
 11
-57.821037000000047
 21
461.31971750000002
  0
LINE
  8
_0-0_0
  6
CONTINUOUS
 62
    7
 10
-57.571037000000047
 20
461.60627750000003
 11
-57.821037000000047
 21
461.57249449999995
  0
LINE
  8
_0-0_0
  6
CONTINUOUS
 62
    7
 10
-57.571037000000047
 20
461.38227849999998
 11
-57.821037000000047
 21
461.57249449999995
  0
LINE
  8
_0-0_0
  6
CONTINUOUS
 62
    7
 10
-57.571037000000047
 20
461.82142650000003
 11
-57.821037000000047
 21
461.81678750000003
  0
LINE
  8
_0-0_0
  6
CONTINUOUS
 62
    7
 10
-57.571037000000047
 20
461.60627750000003
 11
-57.821037000000047
 21
461.81678750000003
  0
LINE
  8
_0-0_0
  6
CONTINUOUS
 62
    7
 10
-67.321037000000047
 20
478.6253815
 11
-67.071037000000047
 21
478.64994750000005
  0
LINE
  8
_0-0_0
  6
CONTINUOUS
 62
    7
 10
-67.071037000000047
 20
478.64994750000005
 11
-57.821037000000047
 21
478.64994750000005
  0
LINE
  8
_0-0_0
  6
CONTINUOUS
 62
    7
 10
-67.321037000000047
 20
478.42143250000004
 11
-67.071037000000047
 21
478.64994750000005
  0
LINE
  8
_0-0_0
  6
CONTINUOUS
 62
    7
 10
-67.321037000000047
 20
478.42143250000004
 11
-57.571037000000047
 21
478.42143250000004
  0
LINE
  8
_0-0_0
  6
CONTINUOUS
 62
    7
 10
-67.321037000000047
 20
478.81590249999999
 11
-67.071037000000047
 21
478.86939949999999
  0
LINE
  8
_0-0_0
  6
CONTINUOUS
 62
    7
 10
-67.071037000000047
 20
478.86939949999999
 11
-57.821037000000047
 21
478.86939949999999
  0
LINE
  8
_0-0_0
  6
CONTINUOUS
 62
    7
 10
-67.321037000000047
 20
478.6253815
 11
-67.071037000000047
 21
478.86939949999999
  0
LINE
  8
_0-0_0
  6
CONTINUOUS
 62
    7
 10
-67.321037000000047
 20
478.99092050000002
 11
-67.071037000000047
 21
479.07276950000005
  0
LINE
  8
_0-0_0
  6
CONTINUOUS
 62
    7
 10
-67.071037000000047
 20
479.07276950000005
 11
-57.821037000000047
 21
479.07276950000005
  0
LINE
  8
_0-0_0
  6
CONTINUOUS
 62
    7
 10
-67.321037000000047
 20
478.81590249999999
 11
-67.071037000000047
 21
479.07276950000005
  0
LINE
  8
_0-0_0
  6
CONTINUOUS
 62
    7
 10
-67.321037000000047
 20
479.14851350000004
 11
-67.071037000000047
 21
479.25779750000004
  0
LINE
  8
_0-0_0
  6
CONTINUOUS
 62
    7
 10
-67.071037000000047
 20
479.25779750000004
 11
-57.821037000000047
 21
479.25779750000004
  0
LINE
  8
_0-0_0
  6
CONTINUOUS
 62
    7
 10
-67.321037000000047
 20
478.99092050000002
 11
-67.071037000000047
 21
479.25779750000004
  0
LINE
  8
_0-0_0
  6
CONTINUOUS
 62
    7
 10
-67.321037000000047
 20
479.28694150000001
 11
-67.071037000000047
 21
479.42250049999996
  0
LINE
  8
_0-0_0
  6
CONTINUOUS
 62
    7
 10
-67.071037000000047
 20
479.42250049999996
 11
-57.821037000000047
 21
479.42250049999996
  0
LINE
  8
_0-0_0
  6
CONTINUOUS
 62
    7
 10
-67.321037000000047
 20
479.14851350000004
 11
-67.071037000000047
 21
479.42250049999996
  0
LINE
  8
_0-0_0
  6
CONTINUOUS
 62
    7
 10
-67.321037000000047
 20
479.40470849999997
 11
-67.071037000000047
 21
479.56501749999995
  0
LINE
  8
_0-0_0
  6
CONTINUOUS
 62
    7
 10
-67.071037000000047
 20
479.56501749999995
 11
-57.821037000000047
 21
479.56501749999995
  0
LINE
  8
_0-0_0
  6
CONTINUOUS
 62
    7
 10
-67.321037000000047
 20
479.28694150000001
 11
-67.071037000000047
 21
479.56501749999995
  0
LINE
  8
_0-0_0
  6
CONTINUOUS
 62
    7
 10
-67.321037000000047
 20
479.50050350000004
 11
-67.071037000000047
 21
479.68379149999998
  0
LINE
  8
_0-0_0
  6
CONTINUOUS
 62
    7
 10
-67.071037000000047
 20
479.68379149999998
 11
-57.821037000000047
 21
479.68379149999998
  0
LINE
  8
_0-0_0
  6
CONTINUOUS
 62
    7
 10
-67.321037000000047
 20
479.40470849999997
 11
-67.071037000000047
 21
479.68379149999998
  0
LINE
  8
_0-0_0
  6
CONTINUOUS
 62
    7
 10
-67.321037000000047
 20
479.57328749999999
 11
-67.071037000000047
 21
479.77757250000002
  0
LINE
  8
_0-0_0
  6
CONTINUOUS
 62
    7
 10
-67.071037000000047
 20
479.77757250000002
 11
-57.821037000000047
 21
479.77757250000002
  0
LINE
  8
_0-0_0
  6
CONTINUOUS
 62
    7
 10
-67.321037000000047
 20
479.50050350000004
 11
-67.071037000000047
 21
479.77757250000002
  0
LINE
  8
_0-0_0
  6
CONTINUOUS
 62
    7
 10
-67.321037000000047
 20
479.62223849999998
 11
-67.071037000000047
 21
479.84532149999995
  0
LINE
  8
_0-0_0
  6
CONTINUOUS
 62
    7
 10
-67.071037000000047
 20
479.84532149999995
 11
-57.821037000000047
 21
479.84532149999995
  0
LINE
  8
_0-0_0
  6
CONTINUOUS
 62
    7
 10
-67.321037000000047
 20
479.57328749999999
 11
-67.071037000000047
 21
479.84532149999995
  0
LINE
  8
_0-0_0
  6
CONTINUOUS
 62
    7
 10
-67.321037000000047
 20
479.64686549999999
 11
-67.071037000000047
 21
479.88624549999997
  0
LINE
  8
_0-0_0
  6
CONTINUOUS
 62
    7
 10
-67.071037000000047
 20
479.88624549999997
 11
-57.821037000000047
 21
479.88624549999997
  0
LINE
  8
_0-0_0
  6
CONTINUOUS
 62
    7
 10
-67.321037000000047
 20
479.62223849999998
 11
-67.071037000000047
 21
479.88624549999997
  0
LINE
  8
_0-0_0
  6
CONTINUOUS
 62
    7
 10
-67.071037000000047
 20
479.89994750000005
 11
-57.821037000000047
 21
479.89994750000005
  0
LINE
  8
_0-0_0
  6
CONTINUOUS
 62
    7
 10
-67.321037000000047
 20
479.64686549999999
 11
-67.071037000000047
 21
479.89994750000005
  0
LINE
  8
_0-0_0
  6
CONTINUOUS
 62
    7
 10
-67.321037000000047
 20
475.1530305
 11
-67.071037000000047
 21
474.89994750000005
  0
LINE
  8
_0-0_0
  6
CONTINUOUS
 62
    7
 10
-67.071037000000047
 20
474.89994750000005
 11
-57.821037000000047
 21
474.89994750000005
  0
LINE
  8
_0-0_0
  6
CONTINUOUS
 62
    7
 10
-67.321037000000047
 20
475.17765750000001
 11
-67.071037000000047
 21
474.91365050000002
  0
LINE
  8
_0-0_0
  6
CONTINUOUS
 62
    7
 10
-67.071037000000047
 20
474.91365050000002
 11
-57.821037000000047
 21
474.91365050000002
  0
LINE
  8
_0-0_0
  6
CONTINUOUS
 62
    7
 10
-67.321037000000047
 20
475.1530305
 11
-67.071037000000047
 21
474.91365050000002
  0
LINE
  8
_0-0_0
  6
CONTINUOUS
 62
    7
 10
-67.321037000000047
 20
475.2266085
 11
-67.071037000000047
 21
474.95457450000004
  0
LINE
  8
_0-0_0
  6
CONTINUOUS
 62
    7
 10
-67.071037000000047
 20
474.95457450000004
 11
-57.821037000000047
 21
474.95457450000004
  0
LINE
  8
_0-0_0
  6
CONTINUOUS
 62
    7
 10
-67.321037000000047
 20
475.17765750000001
 11
-67.071037000000047
 21
474.95457450000004
  0
LINE
  8
_0-0_0
  6
CONTINUOUS
 62
    7
 10
-67.321037000000047
 20
475.29939249999995
 11
-67.071037000000047
 21
475.02229250000005
  0
LINE
  8
_0-0_0
  6
CONTINUOUS
 62
    7
 10
-67.071037000000047
 20
475.02229250000005
 11
-57.821037000000047
 21
475.02229250000005
  0
LINE
  8
_0-0_0
  6
CONTINUOUS
 62
    7
 10
-67.321037000000047
 20
475.2266085
 11
-67.071037000000047
 21
475.02229250000005
  0
LINE
  8
_0-0_0
  6
CONTINUOUS
 62
    7
 10
-67.321037000000047
 20
475.39518750000002
 11
-67.071037000000047
 21
475.11607349999997
  0
LINE
  8
_0-0_0
  6
CONTINUOUS
 62
    7
 10
-67.071037000000047
 20
475.11607349999997
 11
-57.821037000000047
 21
475.11607349999997
  0
LINE
  8
_0-0_0
  6
CONTINUOUS
 62
    7
 10
-67.321037000000047
 20
475.29939249999995
 11
-67.071037000000047
 21
475.11607349999997
  0
LINE
  8
_0-0_0
  6
CONTINUOUS
 62
    7
 10
-67.071037000000047
 20
475.23487850000004
 11
-57.821037000000047
 21
475.23487850000004
  0
LINE
  8
_0-0_0
  6
CONTINUOUS
 62
    7
 10
-67.191071000000022
 20
475.31132449999996
 11
-67.071037000000047
 21
475.23487850000004
  0
LINE
  8
_0-0_0
  6
CONTINUOUS
 62
    7
 10
-67.321037000000047
 20
475.39518750000002
 11
-67.191071000000022
 21
475.31132449999996
  0
LINE
  8
_0-0_0
  6
CONTINUOUS
 62
    7
 10
-67.321037000000047
 20
475.51292450000005
 11
-67.071037000000047
 21
475.23487850000004
  0
LINE
  8
_0-0_0
  6
CONTINUOUS
 62
    7
 10
-67.321037000000047
 20
475.65135150000003
 11
-67.071037000000047
 21
475.37739550000003
  0
LINE
  8
_0-0_0
  6
CONTINUOUS
 62
    7
 10
-67.071037000000047
 20
475.37739550000003
 11
-57.821037000000047
 21
475.37739550000003
  0
LINE
  8
_0-0_0
  6
CONTINUOUS
 62
    7
 10
-67.321037000000047
 20
475.51292450000005
 11
-67.071037000000047
 21
475.37739550000003
  0
LINE
  8
_0-0_0
  6
CONTINUOUS
 62
    7
 10
-67.321037000000047
 20
475.80894450000005
 11
-67.071037000000047
 21
475.54206850000003
  0
LINE
  8
_0-0_0
  6
CONTINUOUS
 62
    7
 10
-67.071037000000047
 20
475.54206850000003
 11
-57.821037000000047
 21
475.54206850000003
  0
LINE
  8
_0-0_0
  6
CONTINUOUS
 62
    7
 10
-67.321037000000047
 20
475.65135150000003
 11
-67.071037000000047
 21
475.54206850000003
  0
LINE
  8
_0-0_0
  6
CONTINUOUS
 62
    7
 10
-67.321037000000047
 20
475.98396249999996
 11
-67.071037000000047
 21
475.72712650000005
  0
LINE
  8
_0-0_0
  6
CONTINUOUS
 62
    7
 10
-67.071037000000047
 20
475.72712650000005
 11
-57.821037000000047
 21
475.72712650000005
  0
LINE
  8
_0-0_0
  6
CONTINUOUS
 62
    7
 10
-67.321037000000047
 20
475.80894450000005
 11
-67.071037000000047
 21
475.72712650000005
  0
LINE
  8
_0-0_0
  6
CONTINUOUS
 62
    7
 10
-67.321037000000047
 20
476.17451449999999
 11
-67.071037000000047
 21
475.9304965
  0
LINE
  8
_0-0_0
  6
CONTINUOUS
 62
    7
 10
-67.071037000000047
 20
475.9304965
 11
-57.821037000000047
 21
475.9304965
  0
LINE
  8
_0-0_0
  6
CONTINUOUS
 62
    7
 10
-67.321037000000047
 20
475.98396249999996
 11
-67.071037000000047
 21
475.9304965
  0
LINE
  8
_0-0_0
  6
CONTINUOUS
 62
    7
 10
-67.321037000000047
 20
476.37846349999995
 11
-67.071037000000047
 21
476.14994750000005
  0
LINE
  8
_0-0_0
  6
CONTINUOUS
 62
    7
 10
-67.071037000000047
 20
476.14994750000005
 11
-57.821037000000047
 21
476.14994750000005
  0
LINE
  8
_0-0_0
  6
CONTINUOUS
 62
    7
 10
-67.321037000000047
 20
476.37846349999995
 11
-57.571037000000047
 21
476.37846349999995
  0
LINE
  8
_0-0_0
  6
CONTINUOUS
 62
    7
 10
-67.321037000000047
 20
476.17451449999999
 11
-67.071037000000047
 21
476.14994750000005
  0
LINE
  8
_0-0_0
  6
CONTINUOUS
 62
    7
 10
-67.321037000000047
 20
476.59361249999995
 11
-67.071037000000047
 21
476.38310249999995
  0
LINE
  8
_0-0_0
  6
CONTINUOUS
 62
    7
 10
-67.071037000000047
 20
476.38310249999995
 11
-57.821037000000047
 21
476.38310249999995
  0
LINE
  8
_0-0_0
  6
CONTINUOUS
 62
    7
 10
-67.321037000000047
 20
476.59361249999995
 11
-57.571037000000047
 21
476.59361249999995
  0
LINE
  8
_0-0_0
  6
CONTINUOUS
 62
    7
 10
-67.321037000000047
 20
476.37846349999995
 11
-67.071037000000047
 21
476.38310249999995
  0
LINE
  8
_0-0_0
  6
CONTINUOUS
 62
    7
 10
-67.321037000000047
 20
476.8176115
 11
-67.071037000000047
 21
476.62739550000003
  0
LINE
  8
_0-0_0
  6
CONTINUOUS
 62
    7
 10
-67.071037000000047
 20
476.62739550000003
 11
-57.821037000000047
 21
476.62739550000003
  0
LINE
  8
_0-0_0
  6
CONTINUOUS
 62
    7
 10
-67.321037000000047
 20
476.8176115
 11
-57.571037000000047
 21
476.8176115
  0
LINE
  8
_0-0_0
  6
CONTINUOUS
 62
    7
 10
-67.321037000000047
 20
476.59361249999995
 11
-67.071037000000047
 21
476.62739550000003
  0
LINE
  8
_0-0_0
  6
CONTINUOUS
 62
    7
 10
-67.321037000000047
 20
477.04795850000005
 11
-67.071037000000047
 21
476.88017249999996
  0
LINE
  8
_0-0_0
  6
CONTINUOUS
 62
    7
 10
-67.071037000000047
 20
476.88017249999996
 11
-57.821037000000047
 21
476.88017249999996
  0
LINE
  8
_0-0_0
  6
CONTINUOUS
 62
    7
 10
-67.321037000000047
 20
477.04795850000005
 11
-57.571037000000047
 21
477.04795850000005
  0
LINE
  8
_0-0_0
  6
CONTINUOUS
 62
    7
 10
-67.321037000000047
 20
476.8176115
 11
-67.071037000000047
 21
476.88017249999996
  0
LINE
  8
_0-0_0
  6
CONTINUOUS
 62
    7
 10
-67.321037000000047
 20
477.28218049999998
 11
-67.071037000000047
 21
477.13862549999999
  0
LINE
  8
_0-0_0
  6
CONTINUOUS
 62
    7
 10
-67.071037000000047
 20
477.13862549999999
 11
-57.821037000000047
 21
477.13862549999999
  0
LINE
  8
_0-0_0
  6
CONTINUOUS
 62
    7
 10
-67.321037000000047
 20
477.28218049999998
 11
-57.571037000000047
 21
477.28218049999998
  0
LINE
  8
_0-0_0
  6
CONTINUOUS
 62
    7
 10
-67.321037000000047
 20
477.04795850000005
 11
-67.071037000000047
 21
477.13862549999999
  0
LINE
  8
_0-0_0
  6
CONTINUOUS
 62
    7
 10
-67.321037000000047
 20
477.51771550000001
 11
-67.071037000000047
 21
477.39994750000005
  0
LINE
  8
_0-0_0
  6
CONTINUOUS
 62
    7
 10
-67.071037000000047
 20
477.39994750000005
 11
-57.821037000000047
 21
477.39994750000005
  0
LINE
  8
_0-0_0
  6
CONTINUOUS
 62
    7
 10
-67.321037000000047
 20
477.51771550000001
 11
-57.571037000000047
 21
477.51771550000001
  0
LINE
  8
_0-0_0
  6
CONTINUOUS
 62
    7
 10
-67.321037000000047
 20
477.28218049999998
 11
-67.071037000000047
 21
477.39994750000005
  0
LINE
  8
_0-0_0
  6
CONTINUOUS
 62
    7
 10
-67.321037000000047
 20
477.75190750000002
 11
-67.071037000000047
 21
477.6612705
  0
LINE
  8
_0-0_0
  6
CONTINUOUS
 62
    7
 10
-67.071037000000047
 20
477.6612705
 11
-57.821037000000047
 21
477.6612705
  0
LINE
  8
_0-0_0
  6
CONTINUOUS
 62
    7
 10
-67.321037000000047
 20
477.75190750000002
 11
-57.571037000000047
 21
477.75190750000002
  0
LINE
  8
_0-0_0
  6
CONTINUOUS
 62
    7
 10
-67.321037000000047
 20
477.51771550000001
 11
-67.071037000000047
 21
477.6612705
  0
LINE
  8
_0-0_0
  6
CONTINUOUS
 62
    7
 10
-67.321037000000047
 20
477.98228449999999
 11
-67.071037000000047
 21
477.91972350000003
  0
LINE
  8
_0-0_0
  6
CONTINUOUS
 62
    7
 10
-67.071037000000047
 20
477.91972350000003
 11
-57.821037000000047
 21
477.91972350000003
  0
LINE
  8
_0-0_0
  6
CONTINUOUS
 62
    7
 10
-67.321037000000047
 20
477.98228449999999
 11
-57.571037000000047
 21
477.98228449999999
  0
LINE
  8
_0-0_0
  6
CONTINUOUS
 62
    7
 10
-67.321037000000047
 20
477.75190750000002
 11
-67.071037000000047
 21
477.91972350000003
  0
LINE
  8
_0-0_0
  6
CONTINUOUS
 62
    7
 10
-67.321037000000047
 20
478.20628350000004
 11
-67.071037000000047
 21
478.17250049999996
  0
LINE
  8
_0-0_0
  6
CONTINUOUS
 62
    7
 10
-67.071037000000047
 20
478.17250049999996
 11
-57.821037000000047
 21
478.17250049999996
  0
LINE
  8
_0-0_0
  6
CONTINUOUS
 62
    7
 10
-67.321037000000047
 20
478.20628350000004
 11
-57.571037000000047
 21
478.20628350000004
  0
LINE
  8
_0-0_0
  6
CONTINUOUS
 62
    7
 10
-67.321037000000047
 20
477.98228449999999
 11
-67.071037000000047
 21
478.17250049999996
  0
LINE
  8
_0-0_0
  6
CONTINUOUS
 62
    7
 10
-67.321037000000047
 20
478.42143250000004
 11
-67.071037000000047
 21
478.41679350000004
  0
LINE
  8
_0-0_0
  6
CONTINUOUS
 62
    7
 10
-67.071037000000047
 20
478.41679350000004
 11
-57.821037000000047
 21
478.41679350000004
  0
LINE
  8
_0-0_0
  6
CONTINUOUS
 62
    7
 10
-67.321037000000047
 20
478.20628350000004
 11
-67.071037000000047
 21
478.41679350000004
  0
LINE
  8
_0-0_0
  6
CONTINUOUS
 62
    7
 10
-53.571037000000047
 20
474.34992950000003
 11
-53.571037000000047
 21
466.36839250000003
  0
LINE
  8
_0-0_0
  6
CONTINUOUS
 62
    7
 10
-53.571037000000047
 20
466.36839250000003
 11
-53.571037000000047
 21
463.84992950000003
  0
LINE
  8
_0-0_0
  6
CONTINUOUS
 62
    7
 10
-67.321037000000047
 20
462.0253755
 11
-67.071037000000047
 21
462.04994150000005
  0
LINE
  8
_0-0_0
  6
CONTINUOUS
 62
    7
 10
-67.071037000000047
 20
462.04994150000005
 11
-57.821037000000047
 21
462.04994150000005
  0
LINE
  8
_0-0_0
  6
CONTINUOUS
 62
    7
 10
-67.321037000000047
 20
461.82142650000003
 11
-67.071037000000047
 21
462.04994150000005
  0
LINE
  8
_0-0_0
  6
CONTINUOUS
 62
    7
 10
-67.321037000000047
 20
461.82142650000003
 11
-57.571037000000047
 21
461.82142650000003
  0
LINE
  8
_0-0_0
  6
CONTINUOUS
 62
    7
 10
-67.321037000000047
 20
462.21592650000002
 11
-67.071037000000047
 21
462.26939349999998
  0
LINE
  8
_0-0_0
  6
CONTINUOUS
 62
    7
 10
-67.071037000000047
 20
462.26939349999998
 11
-57.821037000000047
 21
462.26939349999998
  0
LINE
  8
_0-0_0
  6
CONTINUOUS
 62
    7
 10
-67.321037000000047
 20
462.0253755
 11
-67.071037000000047
 21
462.26939349999998
  0
LINE
  8
_0-0_0
  6
CONTINUOUS
 62
    7
 10
-67.321037000000047
 20
462.39094550000004
 11
-67.071037000000047
 21
462.47276250000004
  0
LINE
  8
_0-0_0
  6
CONTINUOUS
 62
    7
 10
-67.071037000000047
 20
462.47276250000004
 11
-57.821037000000047
 21
462.47276250000004
  0
LINE
  8
_0-0_0
  6
CONTINUOUS
 62
    7
 10
-67.321037000000047
 20
462.21592650000002
 11
-67.071037000000047
 21
462.47276250000004
  0
LINE
  8
_0-0_0
  6
CONTINUOUS
 62
    7
 10
-67.321037000000047
 20
462.54850750000003
 11
-67.071037000000047
 21
462.65779150000003
  0
LINE
  8
_0-0_0
  6
CONTINUOUS
 62
    7
 10
-67.071037000000047
 20
462.65779150000003
 11
-57.821037000000047
 21
462.65779150000003
  0
LINE
  8
_0-0_0
  6
CONTINUOUS
 62
    7
 10
-67.321037000000047
 20
462.39094550000004
 11
-67.071037000000047
 21
462.65779150000003
  0
LINE
  8
_0-0_0
  6
CONTINUOUS
 62
    7
 10
-67.321037000000047
 20
462.68696550000004
 11
-67.071037000000047
 21
462.82249449999995
  0
LINE
  8
_0-0_0
  6
CONTINUOUS
 62
    7
 10
-67.071037000000047
 20
462.82249449999995
 11
-57.821037000000047
 21
462.82249449999995
  0
LINE
  8
_0-0_0
  6
CONTINUOUS
 62
    7
 10
-67.321037000000047
 20
462.54850750000003
 11
-67.071037000000047
 21
462.82249449999995
  0
LINE
  8
_0-0_0
  6
CONTINUOUS
 62
    7
 10
-67.321037000000047
 20
462.80470249999996
 11
-67.071037000000047
 21
462.96501150000006
  0
LINE
  8
_0-0_0
  6
CONTINUOUS
 62
    7
 10
-67.071037000000047
 20
462.96501150000006
 11
-57.821037000000047
 21
462.96501150000006
  0
LINE
  8
_0-0_0
  6
CONTINUOUS
 62
    7
 10
-67.321037000000047
 20
462.68696550000004
 11
-67.071037000000047
 21
462.96501150000006
  0
LINE
  8
_0-0_0
  6
CONTINUOUS
 62
    7
 10
-67.321037000000047
 20
462.90049750000003
 11
-67.071037000000047
 21
463.08381650000001
  0
LINE
  8
_0-0_0
  6
CONTINUOUS
 62
    7
 10
-67.071037000000047
 20
463.08381650000001
 11
-57.821037000000047
 21
463.08381650000001
  0
LINE
  8
_0-0_0
  6
CONTINUOUS
 62
    7
 10
-67.321037000000047
 20
462.80470249999996
 11
-67.071037000000047
 21
463.08381650000001
  0
LINE
  8
_0-0_0
  6
CONTINUOUS
 62
    7
 10
-67.321037000000047
 20
462.97328149999998
 11
-67.071037000000047
 21
463.17759650000005
  0
LINE
  8
_0-0_0
  6
CONTINUOUS
 62
    7
 10
-67.071037000000047
 20
463.17759650000005
 11
-57.821037000000047
 21
463.17759650000005
  0
LINE
  8
_0-0_0
  6
CONTINUOUS
 62
    7
 10
-67.321037000000047
 20
462.90049750000003
 11
-67.071037000000047
 21
463.17759650000005
  0
LINE
  8
_0-0_0
  6
CONTINUOUS
 62
    7
 10
-67.321037000000047
 20
463.02223149999998
 11
-67.071037000000047
 21
463.24531549999995
  0
LINE
  8
_0-0_0
  6
CONTINUOUS
 62
    7
 10
-67.071037000000047
 20
463.24531549999995
 11
-57.821037000000047
 21
463.24531549999995
  0
LINE
  8
_0-0_0
  6
CONTINUOUS
 62
    7
 10
-67.321037000000047
 20
462.97328149999998
 11
-67.071037000000047
 21
463.24531549999995
  0
LINE
  8
_0-0_0
  6
CONTINUOUS
 62
    7
 10
-67.321037000000047
 20
463.04685949999998
 11
-67.071037000000047
 21
463.28623949999997
  0
LINE
  8
_0-0_0
  6
CONTINUOUS
 62
    7
 10
-67.071037000000047
 20
463.28623949999997
 11
-57.821037000000047
 21
463.28623949999997
  0
LINE
  8
_0-0_0
  6
CONTINUOUS
 62
    7
 10
-67.321037000000047
 20
463.02223149999998
 11
-67.071037000000047
 21
463.28623949999997
  0
LINE
  8
_0-0_0
  6
CONTINUOUS
 62
    7
 10
-67.071037000000047
 20
463.29994150000005
 11
-57.821037000000047
 21
463.29994150000005
  0
LINE
  8
_0-0_0
  6
CONTINUOUS
 62
    7
 10
-67.321037000000047
 20
463.04685949999998
 11
-67.071037000000047
 21
463.29994150000005
  0
LINE
  8
_0-0_0
  6
CONTINUOUS
 62
    7
 10
-67.321037000000047
 20
458.55302449999999
 11
-67.071037000000047
 21
458.29994150000005
  0
LINE
  8
_0-0_0
  6
CONTINUOUS
 62
    7
 10
-67.071037000000047
 20
458.29994150000005
 11
-57.821037000000047
 21
458.29994150000005
  0
LINE
  8
_0-0_0
  6
CONTINUOUS
 62
    7
 10
-67.321037000000047
 20
458.5776515
 11
-67.071037000000047
 21
458.31364450000001
  0
LINE
  8
_0-0_0
  6
CONTINUOUS
 62
    7
 10
-67.071037000000047
 20
458.31364450000001
 11
-57.821037000000047
 21
458.31364450000001
  0
LINE
  8
_0-0_0
  6
CONTINUOUS
 62
    7
 10
-67.321037000000047
 20
458.55302449999999
 11
-67.071037000000047
 21
458.31364450000001
  0
LINE
  8
_0-0_0
  6
CONTINUOUS
 62
    7
 10
-67.321037000000047
 20
458.62660249999999
 11
-67.071037000000047
 21
458.35456850000003
  0
LINE
  8
_0-0_0
  6
CONTINUOUS
 62
    7
 10
-67.071037000000047
 20
458.35456850000003
 11
-57.821037000000047
 21
458.35456850000003
  0
LINE
  8
_0-0_0
  6
CONTINUOUS
 62
    7
 10
-67.321037000000047
 20
458.5776515
 11
-67.071037000000047
 21
458.35456850000003
  0
LINE
  8
_0-0_0
  6
CONTINUOUS
 62
    7
 10
-67.321037000000047
 20
458.69938650000006
 11
-67.071037000000047
 21
458.42228650000004
  0
LINE
  8
_0-0_0
  6
CONTINUOUS
 62
    7
 10
-67.071037000000047
 20
458.42228650000004
 11
-57.821037000000047
 21
458.42228650000004
  0
LINE
  8
_0-0_0
  6
CONTINUOUS
 62
    7
 10
-67.321037000000047
 20
458.62660249999999
 11
-67.071037000000047
 21
458.42228650000004
  0
LINE
  8
_0-0_0
  6
CONTINUOUS
 62
    7
 10
-67.321037000000047
 20
458.79518150000001
 11
-67.071037000000047
 21
458.51606749999996
  0
LINE
  8
_0-0_0
  6
CONTINUOUS
 62
    7
 10
-67.071037000000047
 20
458.51606749999996
 11
-57.821037000000047
 21
458.51606749999996
  0
LINE
  8
_0-0_0
  6
CONTINUOUS
 62
    7
 10
-67.321037000000047
 20
458.69938650000006
 11
-67.071037000000047
 21
458.51606749999996
  0
LINE
  8
_0-0_0
  6
CONTINUOUS
 62
    7
 10
-67.071037000000047
 20
458.63487250000003
 11
-57.821037000000047
 21
458.63487250000003
  0
LINE
  8
_0-0_0
  6
CONTINUOUS
 62
    7
 10
-67.191071000000022
 20
458.71131849999995
 11
-67.071037000000047
 21
458.63487250000003
  0
LINE
  8
_0-0_0
  6
CONTINUOUS
 62
    7
 10
-67.321037000000047
 20
458.79518150000001
 11
-67.191071000000022
 21
458.71131849999995
  0
LINE
  8
_0-0_0
  6
CONTINUOUS
 62
    7
 10
-67.321037000000047
 20
458.91291750000005
 11
-67.071037000000047
 21
458.63487250000003
  0
LINE
  8
_0-0_0
  6
CONTINUOUS
 62
    7
 10
-67.321037000000047
 20
459.05137649999995
 11
-67.071037000000047
 21
458.77738950000003
  0
LINE
  8
_0-0_0
  6
CONTINUOUS
 62
    7
 10
-67.071037000000047
 20
458.77738950000003
 11
-57.821037000000047
 21
458.77738950000003
  0
LINE
  8
_0-0_0
  6
CONTINUOUS
 62
    7
 10
-67.321037000000047
 20
458.91291750000005
 11
-67.071037000000047
 21
458.77738950000003
  0
LINE
  8
_0-0_0
  6
CONTINUOUS
 62
    7
 10
-67.321037000000047
 20
459.20896849999997
 11
-67.071037000000047
 21
458.94209250000006
  0
LINE
  8
_0-0_0
  6
CONTINUOUS
 62
    7
 10
-67.071037000000047
 20
458.94209250000006
 11
-57.821037000000047
 21
458.94209250000006
  0
LINE
  8
_0-0_0
  6
CONTINUOUS
 62
    7
 10
-67.321037000000047
 20
459.05137649999995
 11
-67.071037000000047
 21
458.94209250000006
  0
LINE
  8
_0-0_0
  6
CONTINUOUS
 62
    7
 10
-67.321037000000047
 20
459.38398749999999
 11
-67.071037000000047
 21
459.12712050000005
  0
LINE
  8
_0-0_0
  6
CONTINUOUS
 62
    7
 10
-67.071037000000047
 20
459.12712050000005
 11
-57.821037000000047
 21
459.12712050000005
  0
LINE
  8
_0-0_0
  6
CONTINUOUS
 62
    7
 10
-67.321037000000047
 20
459.20896849999997
 11
-67.071037000000047
 21
459.12712050000005
  0
LINE
  8
_0-0_0
  6
CONTINUOUS
 62
    7
 10
-67.321037000000047
 20
459.57450849999998
 11
-67.071037000000047
 21
459.3304895
  0
LINE
  8
_0-0_0
  6
CONTINUOUS
 62
    7
 10
-67.071037000000047
 20
459.3304895
 11
-57.821037000000047
 21
459.3304895
  0
LINE
  8
_0-0_0
  6
CONTINUOUS
 62
    7
 10
-67.321037000000047
 20
459.38398749999999
 11
-67.071037000000047
 21
459.3304895
  0
LINE
  8
_0-0_0
  6
CONTINUOUS
 62
    7
 10
-67.321037000000047
 20
459.77845750000006
 11
-67.071037000000047
 21
459.54994150000005
  0
LINE
  8
_0-0_0
  6
CONTINUOUS
 62
    7
 10
-67.071037000000047
 20
459.54994150000005
 11
-57.821037000000047
 21
459.54994150000005
  0
LINE
  8
_0-0_0
  6
CONTINUOUS
 62
    7
 10
-67.321037000000047
 20
459.77845750000006
 11
-57.571037000000047
 21
459.77845750000006
  0
LINE
  8
_0-0_0
  6
CONTINUOUS
 62
    7
 10
-67.321037000000047
 20
459.57450849999998
 11
-67.071037000000047
 21
459.54994150000005
  0
LINE
  8
_0-0_0
  6
CONTINUOUS
 62
    7
 10
-67.321037000000047
 20
459.99360650000006
 11
-67.071037000000047
 21
459.78309650000006
  0
LINE
  8
_0-0_0
  6
CONTINUOUS
 62
    7
 10
-67.071037000000047
 20
459.78309650000006
 11
-57.821037000000047
 21
459.78309650000006
  0
LINE
  8
_0-0_0
  6
CONTINUOUS
 62
    7
 10
-67.321037000000047
 20
459.99360650000006
 11
-57.571037000000047
 21
459.99360650000006
  0
LINE
  8
_0-0_0
  6
CONTINUOUS
 62
    7
 10
-67.321037000000047
 20
459.77845750000006
 11
-67.071037000000047
 21
459.78309650000006
  0
LINE
  8
_0-0_0
  6
CONTINUOUS
 62
    7
 10
-67.321037000000047
 20
460.21760549999999
 11
-67.071037000000047
 21
460.02738950000003
  0
LINE
  8
_0-0_0
  6
CONTINUOUS
 62
    7
 10
-67.071037000000047
 20
460.02738950000003
 11
-57.821037000000047
 21
460.02738950000003
  0
LINE
  8
_0-0_0
  6
CONTINUOUS
 62
    7
 10
-67.321037000000047
 20
460.21760549999999
 11
-57.571037000000047
 21
460.21760549999999
  0
LINE
  8
_0-0_0
  6
CONTINUOUS
 62
    7
 10
-67.321037000000047
 20
459.99360650000006
 11
-67.071037000000047
 21
460.02738950000003
  0
LINE
  8
_0-0_0
  6
CONTINUOUS
 62
    7
 10
-67.321037000000047
 20
460.44795250000004
 11
-67.071037000000047
 21
460.28016649999995
  0
LINE
  8
_0-0_0
  6
CONTINUOUS
 62
    7
 10
-67.071037000000047
 20
460.28016649999995
 11
-57.821037000000047
 21
460.28016649999995
  0
LINE
  8
_0-0_0
  6
CONTINUOUS
 62
    7
 10
-67.321037000000047
 20
460.44795250000004
 11
-57.571037000000047
 21
460.44795250000004
  0
LINE
  8
_0-0_0
  6
CONTINUOUS
 62
    7
 10
-67.321037000000047
 20
460.21760549999999
 11
-67.071037000000047
 21
460.28016649999995
  0
LINE
  8
_0-0_0
  6
CONTINUOUS
 62
    7
 10
-67.321037000000047
 20
460.68217449999997
 11
-67.071037000000047
 21
460.53861949999998
  0
LINE
  8
_0-0_0
  6
CONTINUOUS
 62
    7
 10
-67.071037000000047
 20
460.53861949999998
 11
-57.821037000000047
 21
460.53861949999998
  0
LINE
  8
_0-0_0
  6
CONTINUOUS
 62
    7
 10
-67.321037000000047
 20
460.68217449999997
 11
-57.571037000000047
 21
460.68217449999997
  0
LINE
  8
_0-0_0
  6
CONTINUOUS
 62
    7
 10
-67.321037000000047
 20
460.44795250000004
 11
-67.071037000000047
 21
460.53861949999998
  0
LINE
  8
_0-0_0
  6
CONTINUOUS
 62
    7
 10
-67.321037000000047
 20
460.9177095
 11
-67.071037000000047
 21
460.79994150000005
  0
LINE
  8
_0-0_0
  6
CONTINUOUS
 62
    7
 10
-67.071037000000047
 20
460.79994150000005
 11
-57.821037000000047
 21
460.79994150000005
  0
LINE
  8
_0-0_0
  6
CONTINUOUS
 62
    7
 10
-67.321037000000047
 20
460.9177095
 11
-57.571037000000047
 21
460.9177095
  0
LINE
  8
_0-0_0
  6
CONTINUOUS
 62
    7
 10
-67.321037000000047
 20
460.68217449999997
 11
-67.071037000000047
 21
460.79994150000005
  0
LINE
  8
_0-0_0
  6
CONTINUOUS
 62
    7
 10
-67.321037000000047
 20
461.15193150000005
 11
-67.071037000000047
 21
461.0612635
  0
LINE
  8
_0-0_0
  6
CONTINUOUS
 62
    7
 10
-67.071037000000047
 20
461.0612635
 11
-57.821037000000047
 21
461.0612635
  0
LINE
  8
_0-0_0
  6
CONTINUOUS
 62
    7
 10
-67.321037000000047
 20
461.15193150000005
 11
-57.571037000000047
 21
461.15193150000005
  0
LINE
  8
_0-0_0
  6
CONTINUOUS
 62
    7
 10
-67.321037000000047
 20
460.9177095
 11
-67.071037000000047
 21
461.0612635
  0
LINE
  8
_0-0_0
  6
CONTINUOUS
 62
    7
 10
-67.321037000000047
 20
461.38227849999998
 11
-67.071037000000047
 21
461.31971750000002
  0
LINE
  8
_0-0_0
  6
CONTINUOUS
 62
    7
 10
-67.071037000000047
 20
461.31971750000002
 11
-57.821037000000047
 21
461.31971750000002
  0
LINE
  8
_0-0_0
  6
CONTINUOUS
 62
    7
 10
-67.321037000000047
 20
461.38227849999998
 11
-57.571037000000047
 21
461.38227849999998
  0
LINE
  8
_0-0_0
  6
CONTINUOUS
 62
    7
 10
-67.321037000000047
 20
461.15193150000005
 11
-67.071037000000047
 21
461.31971750000002
  0
LINE
  8
_0-0_0
  6
CONTINUOUS
 62
    7
 10
-67.321037000000047
 20
461.60627750000003
 11
-67.071037000000047
 21
461.57249449999995
  0
LINE
  8
_0-0_0
  6
CONTINUOUS
 62
    7
 10
-67.071037000000047
 20
461.57249449999995
 11
-57.821037000000047
 21
461.57249449999995
  0
LINE
  8
_0-0_0
  6
CONTINUOUS
 62
    7
 10
-67.321037000000047
 20
461.60627750000003
 11
-57.571037000000047
 21
461.60627750000003
  0
LINE
  8
_0-0_0
  6
CONTINUOUS
 62
    7
 10
-67.321037000000047
 20
461.38227849999998
 11
-67.071037000000047
 21
461.57249449999995
  0
LINE
  8
_0-0_0
  6
CONTINUOUS
 62
    7
 10
-67.321037000000047
 20
461.82142650000003
 11
-67.071037000000047
 21
461.81678750000003
  0
LINE
  8
_0-0_0
  6
CONTINUOUS
 62
    7
 10
-67.071037000000047
 20
461.81678750000003
 11
-57.821037000000047
 21
461.81678750000003
  0
LINE
  8
_0-0_0
  6
CONTINUOUS
 62
    7
 10
-67.321037000000047
 20
461.60627750000003
 11
-67.071037000000047
 21
461.81678750000003
  0
LINE
  8
_0-0_0
  6
CONTINUOUS
 62
    7
 10
-67.571037000000047
 20
479.39994750000005
 11
-67.571037000000047
 21
475.6447905
  0
LINE
  8
_0-0_0
  6
CONTINUOUS
 62
    7
 10
-67.571037000000047
 20
475.6447905
 11
-67.571037000000047
 21
475.39994750000005
  0
LINE
  8
_0-0_0
  6
CONTINUOUS
 62
    7
 10
-67.571037000000047
 20
462.79994150000005
 11
-67.571037000000047
 21
459.04478449999999
  0
LINE
  8
_0-0_0
  6
CONTINUOUS
 62
    7
 10
-67.571037000000047
 20
459.04478449999999
 11
-67.571037000000047
 21
458.79994150000005
  0
LINE
  8
_0-0_0
  6
CONTINUOUS
 62
    7
 10
-53.971039000000019
 20
474.09992950000003
 11
-53.971039000000019
 21
471.59992950000003
  0
LINE
  8
_0-0_0
  6
CONTINUOUS
 62
    7
 10
-53.971039000000019
 20
471.59992950000003
 11
-53.971039000000019
 21
464.09992950000003
  0
LINE
  8
_0-0_0
  6
CONTINUOUS
 62
    7
 10
-54.771033999999986
 20
473.63807650000001
 11
-54.771033999999986
 21
471.36900349999996
  0
LINE
  8
_0-0_0
  6
CONTINUOUS
 62
    7
 10
-54.771033999999986
 20
471.36900349999996
 11
-54.771033999999986
 21
464.56181349999997
  0
LINE
  8
_0-0_0
  6
CONTINUOUS
 62
    7
 10
-112.77103799999998
 20
473.09992950000003
 11
-112.77103799999998
 21
473.09858650000001
  0
LINE
  8
_0-0_0
  6
CONTINUOUS
 62
    7
 10
-112.77103799999998
 20
473.09858650000001
 11
-112.77103799999998
 21
465.09992950000003
  0
LINE
  8
_0-0_0
  6
CONTINUOUS
 62
    7
 10
-31.571045000000026
 20
479.64994750000005
 11
-57.571037000000047
 21
479.64994750000005
  0
LINE
  8
_0-0_0
  6
CONTINUOUS
 62
    7
 10
-31.571045000000026
 20
475.14994750000005
 11
-57.574256999999989
 21
475.14994750000005
  0
LINE
  8
_0-0_0
  6
CONTINUOUS
 62
    7
 10
-52.771049000000005
 20
463.04994150000005
 11
-57.571037000000047
 21
463.04994150000005
  0
LINE
  8
_0-0_0
  6
CONTINUOUS
 62
    7
 10
-37.321075000000008
 20
458.54994150000005
 11
-57.571037000000047
 21
458.54994150000005
  0
LINE
  8
_0-0_0
  6
CONTINUOUS
 62
    7
 10
-57.571037000000047
 20
479.64994750000005
 11
-57.821037000000047
 21
479.89994750000005
  0
LINE
  8
_0-0_0
  6
CONTINUOUS
 62
    7
 10
-57.571037000000047
 20
475.14994750000005
 11
-57.821037000000047
 21
474.89994750000005
  0
LINE
  8
_0-0_0
  6
CONTINUOUS
 62
    7
 10
-57.571037000000047
 20
463.04994150000005
 11
-57.821037000000047
 21
463.29994150000005
  0
LINE
  8
_0-0_0
  6
CONTINUOUS
 62
    7
 10
-57.571037000000047
 20
458.54994150000005
 11
-57.821037000000047
 21
458.29994150000005
  0
LINE
  8
_0-0_0
  6
CONTINUOUS
 62
    7
 10
-53.571037000000047
 20
474.34992950000003
 11
-52.771042000000023
 21
475.14994750000005
  0
LINE
  8
_0-0_0
  6
CONTINUOUS
 62
    7
 10
-53.571037000000047
 20
463.84992950000003
 11
-52.321037000000047
 21
462.59992950000003
  0
LINE
  8
_0-0_0
  6
CONTINUOUS
 62
    7
 10
-67.571037000000047
 20
479.39994750000005
 11
-67.071190000000001
 21
479.89979549999998
  0
LINE
  8
_0-0_0
  6
CONTINUOUS
 62
    7
 10
-67.571037000000047
 20
475.39994750000005
 11
-67.071190000000001
 21
474.90010050000001
  0
LINE
  8
_0-0_0
  6
CONTINUOUS
 62
    7
 10
-67.571037000000047
 20
462.79994150000005
 11
-67.071190000000001
 21
463.29978949999997
  0
LINE
  8
_0-0_0
  6
CONTINUOUS
 62
    7
 10
-67.571037000000047
 20
458.79994150000005
 11
-67.071190000000001
 21
458.3000945
  0
LINE
  8
_0-0_0
  6
CONTINUOUS
 62
    7
 10
-53.571037000000047
 20
474.09992950000003
 11
-53.971039000000019
 21
474.09992950000003
  0
LINE
  8
_0-0_0
  6
CONTINUOUS
 62
    7
 10
-53.571037000000047
 20
464.09992950000003
 11
-53.971039000000019
 21
464.09992950000003
  0
LINE
  8
_0-0_0
  6
CONTINUOUS
 62
    7
 10
-54.771033999999986
 20
473.63807650000001
 11
-53.971039000000019
 21
474.09992950000003
  0
LINE
  8
_0-0_0
  6
CONTINUOUS
 62
    7
 10
-54.771033999999986
 20
464.56181349999997
 11
-53.971039000000019
 21
464.09992950000003
  0
LINE
  8
_0-0_0
  6
CONTINUOUS
 62
    7
 10
-54.771033999999986
 20
473.09992950000003
 11
-112.77103799999998
 21
473.09992950000003
  0
LINE
  8
_0-0_0
  6
CONTINUOUS
 62
    7
 10
-54.771033999999986
 20
465.09992950000003
 11
-112.77103799999998
 21
465.09992950000003
  0
ARC
  8
_0-0_0
  6
CONTINUOUS
 62
    7
 10
-38.071045000000026
 20
502.60002150000003
 40
8
 50
215.099627
 51
324.90037799999999
  0
LINE
  8
_0-0_0
  6
CONTINUOUS
 62
    7
 10
-47.071037000000047
 20
498.00001550000002
 11
-44.616264000000001
 21
498.00001550000002
  0
LINE
  8
_0-0_0
  6
CONTINUOUS
 62
    7
 10
-47.071037000000047
 20
484.80000250000001
 11
-47.071037000000047
 21
498.00001550000002
  0
LINE
  8
_0-0_0
  6
CONTINUOUS
 62
    7
 10
1005.928894
 20
484.80000250000001
 11
1005.928894
 21
498.00001550000002
  0
LINE
  8
_0-0_0
  6
CONTINUOUS
 62
    7
 10
1003.474182
 20
498.00001550000002
 11
1005.928894
 21
498.00001550000002
  0
ARC
  8
_0-0_0
  6
CONTINUOUS
 62
    7
 10
996.92889400000001
 20
502.60002150000003
 40
8
 50
215.099627
 51
324.90037799999999
  0
LINE
  8
_0-0_0
  6
CONTINUOUS
 62
    7
 10
-31.525818000000015
 20
498.00001550000002
 11
990.38360599999999
 21
498.00001550000002
  0
LINE
  8
_0-0_0
  6
CONTINUOUS
 62
    7
 10
-31.525818000000015
 20
498.00001550000002
 11
-31.436828999999989
 21
498.12931849999995
  0
LINE
  8
_0-0_0
  6
CONTINUOUS
 62
    7
 10
990.38360599999999
 20
498.00001550000002
 11
990.29473900000005
 21
498.12931849999995
  0
LINE
  8
_0-0_0
  6
CONTINUOUS
 62
    7
 10
1003.6561889999999
 20
498.2707365
 11
1003.7377319999999
 21
498.40000950000001
  0
ARC
  8
_0-0_0
  6
CONTINUOUS
 62
    7
 10
996.92889400000001
 20
502.60002150000003
 40
8
 50
328.33175599999993
 51
334.05550899999992
  0
LINE
  8
_0-0_0
  6
CONTINUOUS
 62
    7
 10
1004.12262
 20
499.10002150000003
 11
1004.216614
 21
499.30000250000001
  0
LINE
  8
_0-0_0
  6
CONTINUOUS
 62
    7
 10
1004.216614
 20
499.30000250000001
 11
1004.303894
 21
499.50001550000002
  0
ARC
  8
_0-0_0
  6
CONTINUOUS
 62
    7
 10
996.92889400000001
 20
502.60002150000003
 40
8
 50
337.20097500000003
 51
342.54240199999998
  0
LINE
  8
_0-0_0
  6
CONTINUOUS
 62
    7
 10
1004.560364
 20
500.20002750000003
 11
1004.6204220000001
 21
500.40000950000001
  0
LINE
  8
_0-0_0
  6
CONTINUOUS
 62
    7
 10
1004.6204220000001
 20
500.40000950000001
 11
1004.674866
 21
500.60002150000003
  0
ARC
  8
_0-0_0
  6
CONTINUOUS
 62
    7
 10
996.92889400000001
 20
502.60002150000003
 40
8
 50
345.52249499999999
 51
350.64797900000002
  0
LINE
  8
_0-0_0
  6
CONTINUOUS
 62
    7
 10
1004.822571
 20
501.30000250000001
 11
1004.852966
 21
501.50001550000002
  0
LINE
  8
_0-0_0
  6
CONTINUOUS
 62
    7
 10
1004.852966
 20
501.50001550000002
 11
1004.8781130000001
 21
501.70002750000003
  0
ARC
  8
_0-0_0
  6
CONTINUOUS
 62
    7
 10
996.92889400000001
 20
502.60002150000003
 40
8
 50
353.54056400000002
 51
358.56744600000002
  0
LINE
  8
_0-0_0
  6
CONTINUOUS
 62
    7
 10
1004.9264529999999
 20
502.40000950000001
 11
1004.928894
 21
502.60002150000003
  0
LINE
  8
_0-0_0
  6
CONTINUOUS
 62
    7
 10
988.93133499999988
 20
502.40000950000001
 11
988.92889400000001
 21
502.60002150000003
  0
ARC
  8
_0-0_0
  6
CONTINUOUS
 62
    7
 10
996.92889400000001
 20
502.60002150000003
 40
8
 50
181.432545
 51
186.45945499999999
  0
LINE
  8
_0-0_0
  6
CONTINUOUS
 62
    7
 10
989.00482199999999
 20
501.50001550000002
 11
988.97967499999993
 21
501.70002750000003
  0
LINE
  8
_0-0_0
  6
CONTINUOUS
 62
    7
 10
989.03521699999999
 20
501.30000250000001
 11
989.00482199999999
 21
501.50001550000002
  0
ARC
  8
_0-0_0
  6
CONTINUOUS
 62
    7
 10
996.92889400000001
 20
502.60002150000003
 40
8
 50
189.35203999999999
 51
194.47751
  0
LINE
  8
_0-0_0
  6
CONTINUOUS
 62
    7
 10
989.23736599999995
 20
500.40000950000001
 11
989.18292200000008
 21
500.60002150000003
  0
LINE
  8
_0-0_0
  6
CONTINUOUS
 62
    7
 10
989.29742399999998
 20
500.20002750000003
 11
989.23736599999995
 21
500.40000950000001
  0
ARC
  8
_0-0_0
  6
CONTINUOUS
 62
    7
 10
996.92889400000001
 20
502.60002150000003
 40
8
 50
197.45760300000001
 51
202.79902999999999
  0
LINE
  8
_0-0_0
  6
CONTINUOUS
 62
    7
 10
989.64117399999998
 20
499.30000250000001
 11
989.55389400000001
 21
499.50001550000002
  0
LINE
  8
_0-0_0
  6
CONTINUOUS
 62
    7
 10
989.73516899999993
 20
499.10002150000003
 11
989.64117399999998
 21
499.30000250000001
  0
ARC
  8
_0-0_0
  6
CONTINUOUS
 62
    7
 10
996.92889400000001
 20
502.60002150000003
 40
8
 50
205.94448199999999
 51
211.66823500000001
  0
LINE
  8
_0-0_0
  6
CONTINUOUS
 62
    7
 10
990.20159899999987
 20
498.2707365
 11
990.12005600000009
 21
498.40000950000001
  0
LINE
  8
_0-0_0
  6
CONTINUOUS
 62
    7
 10
990.20159899999987
 20
498.2707365
 11
990.29473900000005
 21
498.12931849999995
  0
LINE
  8
_0-0_0
  6
CONTINUOUS
 62
    7
 10
1003.474182
 20
498.00001550000002
 11
1003.563049
 21
498.12931849999995
  0
LINE
  8
_0-0_0
  6
CONTINUOUS
 62
    7
 10
1003.6561889999999
 20
498.2707365
 11
1003.563049
 21
498.12931849999995
  0
LINE
  8
_0-0_0
  6
CONTINUOUS
 62
    7
 10
1005.928894
 20
498.12931849999995
 11
1005.928894
 21
498.00001550000002
  0
LINE
  8
_0-0_0
  6
CONTINUOUS
 62
    7
 10
1005.928894
 20
506.92930550000005
 11
1005.928894
 21
507.07072449999998
  0
LINE
  8
_0-0_0
  6
CONTINUOUS
 62
    7
 10
1005.928894
 20
506.92930550000005
 11
1005.928894
 21
506.80000250000001
  0
LINE
  8
_0-0_0
  6
CONTINUOUS
 62
    7
 10
1005.928894
 20
506.10002150000003
 11
1005.928894
 21
506.80000250000001
  0
LINE
  8
_0-0_0
  6
CONTINUOUS
 62
    7
 10
1005.928894
 20
505.90000950000001
 11
1005.928894
 21
506.10002150000003
  0
LINE
  8
_0-0_0
  6
CONTINUOUS
 62
    7
 10
1005.928894
 20
505.90000950000001
 11
1005.928894
 21
505.70002750000003
  0
LINE
  8
_0-0_0
  6
CONTINUOUS
 62
    7
 10
1005.928894
 20
505.00001550000002
 11
1005.928894
 21
505.70002750000003
  0
LINE
  8
_0-0_0
  6
CONTINUOUS
 62
    7
 10
1005.928894
 20
504.80000250000001
 11
1005.928894
 21
505.00001550000002
  0
LINE
  8
_0-0_0
  6
CONTINUOUS
 62
    7
 10
1005.928894
 20
504.80000250000001
 11
1005.928894
 21
504.60002150000003
  0
LINE
  8
_0-0_0
  6
CONTINUOUS
 62
    7
 10
1005.928894
 20
503.90000950000001
 11
1005.928894
 21
504.60002150000003
  0
LINE
  8
_0-0_0
  6
CONTINUOUS
 62
    7
 10
1005.928894
 20
503.70002750000003
 11
1005.928894
 21
503.90000950000001
  0
LINE
  8
_0-0_0
  6
CONTINUOUS
 62
    7
 10
1005.928894
 20
503.70002750000003
 11
1005.928894
 21
503.50001550000002
  0
LINE
  8
_0-0_0
  6
CONTINUOUS
 62
    7
 10
1005.928894
 20
502.80000250000001
 11
1005.928894
 21
503.50001550000002
  0
LINE
  8
_0-0_0
  6
CONTINUOUS
 62
    7
 10
1005.928894
 20
502.60002150000003
 11
1005.928894
 21
502.80000250000001
  0
LINE
  8
_0-0_0
  6
CONTINUOUS
 62
    7
 10
1005.928894
 20
502.60002150000003
 11
1005.928894
 21
502.40000950000001
  0
LINE
  8
_0-0_0
  6
CONTINUOUS
 62
    7
 10
1005.928894
 20
501.70002750000003
 11
1005.928894
 21
502.40000950000001
  0
LINE
  8
_0-0_0
  6
CONTINUOUS
 62
    7
 10
1005.928894
 20
501.50001550000002
 11
1005.928894
 21
501.70002750000003
  0
LINE
  8
_0-0_0
  6
CONTINUOUS
 62
    7
 10
1005.928894
 20
501.50001550000002
 11
1005.928894
 21
501.30000250000001
  0
LINE
  8
_0-0_0
  6
CONTINUOUS
 62
    7
 10
1005.928894
 20
500.60002150000003
 11
1005.928894
 21
501.30000250000001
  0
LINE
  8
_0-0_0
  6
CONTINUOUS
 62
    7
 10
1005.928894
 20
500.40000950000001
 11
1005.928894
 21
500.60002150000003
  0
LINE
  8
_0-0_0
  6
CONTINUOUS
 62
    7
 10
1005.928894
 20
500.40000950000001
 11
1005.928894
 21
500.20002750000003
  0
LINE
  8
_0-0_0
  6
CONTINUOUS
 62
    7
 10
1005.928894
 20
499.50001550000002
 11
1005.928894
 21
500.20002750000003
  0
LINE
  8
_0-0_0
  6
CONTINUOUS
 62
    7
 10
1005.928894
 20
499.30000250000001
 11
1005.928894
 21
499.50001550000002
  0
LINE
  8
_0-0_0
  6
CONTINUOUS
 62
    7
 10
1005.928894
 20
499.30000250000001
 11
1005.928894
 21
499.10002150000003
  0
LINE
  8
_0-0_0
  6
CONTINUOUS
 62
    7
 10
1005.928894
 20
498.40000950000001
 11
1005.928894
 21
499.10002150000003
  0
LINE
  8
_0-0_0
  6
CONTINUOUS
 62
    7
 10
1005.928894
 20
498.2707365
 11
1005.928894
 21
498.40000950000001
  0
LINE
  8
_0-0_0
  6
CONTINUOUS
 62
    7
 10
1005.928894
 20
498.12931849999995
 11
1005.928894
 21
498.2707365
  0
LINE
  8
_0-0_0
  6
CONTINUOUS
 62
    7
 10
1005.928894
 20
484.30000250000001
 11
1005.928894
 21
484.80000250000001
  0
LINE
  8
_0-0_0
  6
CONTINUOUS
 62
    7
 10
1005.928894
 20
512.80000250000001
 11
1005.928894
 21
512.20603949999997
  0
LINE
  8
_0-0_0
  6
CONTINUOUS
 62
    7
 10
1005.928894
 20
507.20002750000003
 11
1005.928894
 21
512.20603949999997
  0
LINE
  8
_0-0_0
  6
CONTINUOUS
 62
    7
 10
1005.928894
 20
507.07072449999998
 11
1005.928894
 21
507.20002750000003
  0
LINE
  8
_0-0_0
  6
CONTINUOUS
 62
    7
 10
-47.071037000000047
 20
484.30000250000001
 11
-47.071037000000047
 21
484.80000250000001
  0
LINE
  8
_0-0_0
  6
CONTINUOUS
 62
    7
 10
-47.071037000000047
 20
484.30000250000001
 11
1005.928894
 21
484.30000250000001
  0
LINE
  8
_0-0_0
  6
CONTINUOUS
 62
    7
 10
-47.071037000000047
 20
498.12931849999995
 11
-47.071037000000047
 21
498.2707365
  0
LINE
  8
_0-0_0
  6
CONTINUOUS
 62
    7
 10
-47.071037000000047
 20
498.12931849999995
 11
-47.071037000000047
 21
498.00001550000002
  0
LINE
  8
_0-0_0
  6
CONTINUOUS
 62
    7
 10
-47.071037000000047
 20
512.80000250000001
 11
-47.071037000000047
 21
512.20603949999997
  0
LINE
  8
_0-0_0
  6
CONTINUOUS
 62
    7
 10
-47.071037000000047
 20
507.20002750000003
 11
-47.071037000000047
 21
512.20603949999997
  0
LINE
  8
_0-0_0
  6
CONTINUOUS
 62
    7
 10
-47.071037000000047
 20
507.07072449999998
 11
-47.071037000000047
 21
507.20002750000003
  0
LINE
  8
_0-0_0
  6
CONTINUOUS
 62
    7
 10
-47.071037000000047
 20
506.92930550000005
 11
-47.071037000000047
 21
507.07072449999998
  0
LINE
  8
_0-0_0
  6
CONTINUOUS
 62
    7
 10
-47.071037000000047
 20
506.92930550000005
 11
-47.071037000000047
 21
506.80000250000001
  0
LINE
  8
_0-0_0
  6
CONTINUOUS
 62
    7
 10
-47.071037000000047
 20
506.10002150000003
 11
-47.071037000000047
 21
506.80000250000001
  0
LINE
  8
_0-0_0
  6
CONTINUOUS
 62
    7
 10
-47.071037000000047
 20
505.97071849999998
 11
-47.071037000000047
 21
506.10002150000003
  0
LINE
  8
_0-0_0
  6
CONTINUOUS
 62
    7
 10
-47.071037000000047
 20
505.82929950000005
 11
-47.071037000000047
 21
505.97071849999998
  0
LINE
  8
_0-0_0
  6
CONTINUOUS
 62
    7
 10
-47.071037000000047
 20
505.82929950000005
 11
-47.071037000000047
 21
505.70002750000003
  0
LINE
  8
_0-0_0
  6
CONTINUOUS
 62
    7
 10
-47.071037000000047
 20
505.00001550000002
 11
-47.071037000000047
 21
505.70002750000003
  0
LINE
  8
_0-0_0
  6
CONTINUOUS
 62
    7
 10
-47.071037000000047
 20
504.87074250000001
 11
-47.071037000000047
 21
505.00001550000002
  0
LINE
  8
_0-0_0
  6
CONTINUOUS
 62
    7
 10
-47.071037000000047
 20
504.72929350000004
 11
-47.071037000000047
 21
504.87074250000001
  0
LINE
  8
_0-0_0
  6
CONTINUOUS
 62
    7
 10
-47.071037000000047
 20
504.72929350000004
 11
-47.071037000000047
 21
504.60002150000003
  0
LINE
  8
_0-0_0
  6
CONTINUOUS
 62
    7
 10
-47.071037000000047
 20
503.90000950000001
 11
-47.071037000000047
 21
504.60002150000003
  0
LINE
  8
_0-0_0
  6
CONTINUOUS
 62
    7
 10
-47.071037000000047
 20
503.7707365
 11
-47.071037000000047
 21
503.90000950000001
  0
LINE
  8
_0-0_0
  6
CONTINUOUS
 62
    7
 10
-47.071037000000047
 20
503.62931849999995
 11
-47.071037000000047
 21
503.7707365
  0
LINE
  8
_0-0_0
  6
CONTINUOUS
 62
    7
 10
-47.071037000000047
 20
503.62931849999995
 11
-47.071037000000047
 21
503.50001550000002
  0
LINE
  8
_0-0_0
  6
CONTINUOUS
 62
    7
 10
-47.071037000000047
 20
502.80000250000001
 11
-47.071037000000047
 21
503.50001550000002
  0
LINE
  8
_0-0_0
  6
CONTINUOUS
 62
    7
 10
-47.071037000000047
 20
502.67073049999999
 11
-47.071037000000047
 21
502.80000250000001
  0
LINE
  8
_0-0_0
  6
CONTINUOUS
 62
    7
 10
-47.071037000000047
 20
502.52931149999995
 11
-47.071037000000047
 21
502.67073049999999
  0
LINE
  8
_0-0_0
  6
CONTINUOUS
 62
    7
 10
-47.071037000000047
 20
502.52931149999995
 11
-47.071037000000047
 21
502.40000950000001
  0
LINE
  8
_0-0_0
  6
CONTINUOUS
 62
    7
 10
-47.071037000000047
 20
501.70002750000003
 11
-47.071037000000047
 21
502.40000950000001
  0
LINE
  8
_0-0_0
  6
CONTINUOUS
 62
    7
 10
-47.071037000000047
 20
501.57072449999998
 11
-47.071037000000047
 21
501.70002750000003
  0
LINE
  8
_0-0_0
  6
CONTINUOUS
 62
    7
 10
-47.071037000000047
 20
501.42930550000005
 11
-47.071037000000047
 21
501.57072449999998
  0
LINE
  8
_0-0_0
  6
CONTINUOUS
 62
    7
 10
-47.071037000000047
 20
501.42930550000005
 11
-47.071037000000047
 21
501.30000250000001
  0
LINE
  8
_0-0_0
  6
CONTINUOUS
 62
    7
 10
-47.071037000000047
 20
500.60002150000003
 11
-47.071037000000047
 21
501.30000250000001
  0
LINE
  8
_0-0_0
  6
CONTINUOUS
 62
    7
 10
-47.071037000000047
 20
500.47071849999998
 11
-47.071037000000047
 21
500.60002150000003
  0
LINE
  8
_0-0_0
  6
CONTINUOUS
 62
    7
 10
-47.071037000000047
 20
500.32929950000005
 11
-47.071037000000047
 21
500.47071849999998
  0
LINE
  8
_0-0_0
  6
CONTINUOUS
 62
    7
 10
-47.071037000000047
 20
500.32929950000005
 11
-47.071037000000047
 21
500.20002750000003
  0
LINE
  8
_0-0_0
  6
CONTINUOUS
 62
    7
 10
-47.071037000000047
 20
499.50001550000002
 11
-47.071037000000047
 21
500.20002750000003
  0
LINE
  8
_0-0_0
  6
CONTINUOUS
 62
    7
 10
-47.071037000000047
 20
499.37074250000001
 11
-47.071037000000047
 21
499.50001550000002
  0
LINE
  8
_0-0_0
  6
CONTINUOUS
 62
    7
 10
-47.071037000000047
 20
499.22929350000004
 11
-47.071037000000047
 21
499.37074250000001
  0
LINE
  8
_0-0_0
  6
CONTINUOUS
 62
    7
 10
-47.071037000000047
 20
499.22929350000004
 11
-47.071037000000047
 21
499.10002150000003
  0
LINE
  8
_0-0_0
  6
CONTINUOUS
 62
    7
 10
-47.071037000000047
 20
498.40000950000001
 11
-47.071037000000047
 21
499.10002150000003
  0
LINE
  8
_0-0_0
  6
CONTINUOUS
 62
    7
 10
-47.071037000000047
 20
498.2707365
 11
-47.071037000000047
 21
498.40000950000001
  0
LINE
  8
_0-0_0
  6
CONTINUOUS
 62
    7
 10
-44.616264000000001
 20
498.00001550000002
 11
-44.705245999999988
 21
498.12931849999995
  0
LINE
  8
_0-0_0
  6
CONTINUOUS
 62
    7
 10
-31.34368900000004
 20
498.2707365
 11
-31.436828999999989
 21
498.12931849999995
  0
LINE
  8
_0-0_0
  6
CONTINUOUS
 62
    7
 10
-31.34368900000004
 20
498.2707365
 11
-31.262222000000008
 21
498.40000950000001
  0
ARC
  8
_0-0_0
  6
CONTINUOUS
 62
    7
 10
-38.071045000000026
 20
502.60002150000003
 40
8
 50
328.33175599999993
 51
334.05550899999992
  0
LINE
  8
_0-0_0
  6
CONTINUOUS
 62
    7
 10
-30.877289000000019
 20
499.10002150000003
 11
-30.783386000000007
 21
499.30000250000001
  0
LINE
  8
_0-0_0
  6
CONTINUOUS
 62
    7
 10
-30.783386000000007
 20
499.30000250000001
 11
-30.696075000000008
 21
499.50001550000002
  0
ARC
  8
_0-0_0
  6
CONTINUOUS
 62
    7
 10
-38.071045000000026
 20
502.60002150000003
 40
8
 50
337.20097500000003
 51
342.54240199999998
  0
LINE
  8
_0-0_0
  6
CONTINUOUS
 62
    7
 10
-30.439514000000031
 20
500.20002750000003
 11
-30.379486000000043
 21
500.40000950000001
  0
LINE
  8
_0-0_0
  6
CONTINUOUS
 62
    7
 10
-30.379486000000043
 20
500.40000950000001
 11
-30.325072999999975
 21
500.60002150000003
  0
ARC
  8
_0-0_0
  6
CONTINUOUS
 62
    7
 10
-38.071045000000026
 20
502.60002150000003
 40
8
 50
345.52249499999999
 51
350.64797900000002
  0
LINE
  8
_0-0_0
  6
CONTINUOUS
 62
    7
 10
-30.177368000000001
 20
501.30000250000001
 11
-30.147018000000003
 21
501.50001550000002
  0
LINE
  8
_0-0_0
  6
CONTINUOUS
 62
    7
 10
-30.147018000000003
 20
501.50001550000002
 11
-30.121826000000056
 21
501.70002750000003
  0
ARC
  8
_0-0_0
  6
CONTINUOUS
 62
    7
 10
-38.071045000000026
 20
502.60002150000003
 40
8
 50
353.54056400000002
 51
358.56744600000002
  0
LINE
  8
_0-0_0
  6
CONTINUOUS
 62
    7
 10
-30.073532
 20
502.40000950000001
 11
-30.071030000000007
 21
502.60002150000003
  0
LINE
  8
_0-0_0
  6
CONTINUOUS
 62
    7
 10
-46.070724000000041
 20
502.52931149999995
 11
-46.071037000000047
 21
502.60002150000003
  0
LINE
  8
_0-0_0
  6
CONTINUOUS
 62
    7
 10
-46.068534999999997
 20
502.40000950000001
 11
-46.070724000000041
 21
502.52931149999995
  0
ARC
  8
_0-0_0
  6
CONTINUOUS
 62
    7
 10
-38.071045000000026
 20
502.60002150000003
 40
8
 50
181.432545
 51
186.45945499999999
  0
LINE
  8
_0-0_0
  6
CONTINUOUS
 62
    7
 10
-46.004547000000002
 20
501.57072449999998
 11
-46.020248000000038
 21
501.70002750000003
  0
LINE
  8
_0-0_0
  6
CONTINUOUS
 62
    7
 10
-46.004547000000002
 20
501.57072449999998
 11
-45.984916999999996
 21
501.42930550000005
  0
LINE
  8
_0-0_0
  6
CONTINUOUS
 62
    7
 10
-45.964706000000035
 20
501.30000250000001
 11
-45.984916999999996
 21
501.42930550000005
  0
ARC
  8
_0-0_0
  6
CONTINUOUS
 62
    7
 10
-38.071045000000026
 20
502.60002150000003
 40
8
 50
189.35203999999999
 51
194.47751
  0
LINE
  8
_0-0_0
  6
CONTINUOUS
 62
    7
 10
-45.782463000000007
 20
500.47071849999998
 11
-45.817001000000005
 21
500.60002150000003
  0
LINE
  8
_0-0_0
  6
CONTINUOUS
 62
    7
 10
-45.782463000000007
 20
500.47071849999998
 11
-45.742012000000045
 21
500.32929950000005
  0
LINE
  8
_0-0_0
  6
CONTINUOUS
 62
    7
 10
-45.702553000000023
 20
500.20002750000003
 11
-45.742012000000045
 21
500.32929950000005
  0
ARC
  8
_0-0_0
  6
CONTINUOUS
 62
    7
 10
-38.071045000000026
 20
502.60002150000003
 40
8
 50
197.45760300000001
 51
202.79902999999999
  0
LINE
  8
_0-0_0
  6
CONTINUOUS
 62
    7
 10
-45.390305000000012
 20
499.37074250000001
 11
-45.445991000000049
 21
499.50001550000002
  0
LINE
  8
_0-0_0
  6
CONTINUOUS
 62
    7
 10
-45.390305000000012
 20
499.37074250000001
 11
-45.32626300000004
 21
499.22929350000004
  0
LINE
  8
_0-0_0
  6
CONTINUOUS
 62
    7
 10
-45.264786000000015
 20
499.10002150000003
 11
-45.32626300000004
 21
499.22929350000004
  0
ARC
  8
_0-0_0
  6
CONTINUOUS
 62
    7
 10
-38.071045000000026
 20
502.60002150000003
 40
8
 50
205.94448199999999
 51
211.66823500000001
  0
LINE
  8
_0-0_0
  6
CONTINUOUS
 62
    7
 10
-44.798385999999994
 20
498.2707365
 11
-44.879852000000028
 21
498.40000950000001
  0
LINE
  8
_0-0_0
  6
CONTINUOUS
 62
    7
 10
-44.798385999999994
 20
498.2707365
 11
-44.705245999999988
 21
498.12931849999995
  0
LINE
  8
_0-0_0
  6
CONTINUOUS
 62
    7
 10
939.92889400000001
 20
490.30000250000001
 11
946.92889400000001
 21
490.30000250000001
  0
ARC
  8
_0-0_0
  6
CONTINUOUS
 62
    7
 10
939.92889400000001
 20
489.80000250000001
 40
0.5
 50
90.000003000000007
 51
180.00000900000001
  0
LINE
  8
_0-0_0
  6
CONTINUOUS
 62
    7
 10
939.42889400000001
 20
489.80000250000001
 11
939.42889400000001
 21
485.80000250000001
  0
ARC
  8
_0-0_0
  6
CONTINUOUS
 62
    7
 10
939.92889400000001
 20
485.80000250000001
 40
0.5
 50
180.00000900000003
 51
269.99999700000001
  0
LINE
  8
_0-0_0
  6
CONTINUOUS
 62
    7
 10
946.92889400000001
 20
485.30000250000001
 11
939.92889400000001
 21
485.30000250000001
  0
ARC
  8
_0-0_0
  6
CONTINUOUS
 62
    7
 10
946.92889400000001
 20
485.80000250000001
 40
0.5
 50
269.99999700000001
 51
0
  0
LINE
  8
_0-0_0
  6
CONTINUOUS
 62
    7
 10
947.42889400000001
 20
485.80000250000001
 11
947.42889400000001
 21
489.80000250000001
  0
ARC
  8
_0-0_0
  6
CONTINUOUS
 62
    7
 10
946.92889400000001
 20
489.80000250000001
 40
0.5
 50
0
 51
90.000003000000007
  0
ARC
  8
_0-0_0
  6
CONTINUOUS
 62
    7
 10
19.928954999999974
 20
489.80000250000001
 40
0.5
 50
90.000003000000007
 51
180.00000900000001
  0
LINE
  8
_0-0_0
  6
CONTINUOUS
 62
    7
 10
19.428954999999974
 20
489.80000250000001
 11
19.428954999999974
 21
485.80000250000001
  0
ARC
  8
_0-0_0
  6
CONTINUOUS
 62
    7
 10
19.928954999999974
 20
485.80000250000001
 40
0.5
 50
180.00000900000003
 51
269.99999700000001
  0
LINE
  8
_0-0_0
  6
CONTINUOUS
 62
    7
 10
26.928954999999974
 20
485.30000250000001
 11
19.928954999999974
 21
485.30000250000001
  0
ARC
  8
_0-0_0
  6
CONTINUOUS
 62
    7
 10
26.928954999999974
 20
485.80000250000001
 40
0.5
 50
269.99999700000001
 51
0
  0
LINE
  8
_0-0_0
  6
CONTINUOUS
 62
    7
 10
27.428954999999974
 20
485.80000250000001
 11
27.428954999999974
 21
489.80000250000001
  0
ARC
  8
_0-0_0
  6
CONTINUOUS
 62
    7
 10
26.928954999999974
 20
489.80000250000001
 40
0.5
 50
0
 51
90.000003000000007
  0
LINE
  8
_0-0_0
  6
CONTINUOUS
 62
    7
 10
19.928954999999974
 20
490.30000250000001
 11
26.928954999999974
 21
490.30000250000001
  0
LINE
  8
_0-0_0
  6
CONTINUOUS
 62
    7
 10
-31.262222000000008
 20
498.40000950000001
 11
990.12005600000009
 21
498.40000950000001
  0
LINE
  8
_0-0_0
  6
CONTINUOUS
 62
    7
 10
-30.877289000000019
 20
499.10002150000003
 11
989.73516899999993
 21
499.10002150000003
  0
LINE
  8
_0-0_0
  6
CONTINUOUS
 62
    7
 10
-30.783386000000007
 20
499.30000250000001
 11
989.64117399999998
 21
499.30000250000001
  0
LINE
  8
_0-0_0
  6
CONTINUOUS
 62
    7
 10
-30.696075000000008
 20
499.50001550000002
 11
989.55389400000001
 21
499.50001550000002
  0
LINE
  8
_0-0_0
  6
CONTINUOUS
 62
    7
 10
-30.439514000000031
 20
500.20002750000003
 11
989.29742399999998
 21
500.20002750000003
  0
LINE
  8
_0-0_0
  6
CONTINUOUS
 62
    7
 10
-30.379486000000043
 20
500.40000950000001
 11
989.23736599999995
 21
500.40000950000001
  0
LINE
  8
_0-0_0
  6
CONTINUOUS
 62
    7
 10
-30.325072999999975
 20
500.60002150000003
 11
989.18292200000008
 21
500.60002150000003
  0
LINE
  8
_0-0_0
  6
CONTINUOUS
 62
    7
 10
-30.177368000000001
 20
501.30000250000001
 11
989.03521699999999
 21
501.30000250000001
  0
LINE
  8
_0-0_0
  6
CONTINUOUS
 62
    7
 10
-30.147018000000003
 20
501.50001550000002
 11
989.00482199999999
 21
501.50001550000002
  0
LINE
  8
_0-0_0
  6
CONTINUOUS
 62
    7
 10
-30.121826000000056
 20
501.70002750000003
 11
988.97967499999993
 21
501.70002750000003
  0
LINE
  8
_0-0_0
  6
CONTINUOUS
 62
    7
 10
-30.073532
 20
502.40000950000001
 11
988.93133499999988
 21
502.40000950000001
  0
LINE
  8
_0-0_0
  6
CONTINUOUS
 62
    7
 10
-30.071030000000007
 20
502.60002150000003
 11
988.92889400000001
 21
502.60002150000003
  0
LINE
  8
_0-0_0
  6
CONTINUOUS
 62
    7
 10
1003.474182
 20
507.20002750000003
 11
1003.563049
 21
507.07072449999998
  0
ARC
  8
_0-0_0
  6
CONTINUOUS
 62
    7
 10
996.92889400000001
 20
502.60002150000003
 40
8
 50
35.099632
 51
144.900373
  0
LINE
  8
_0-0_0
  6
CONTINUOUS
 62
    7
 10
990.38360599999999
 20
507.20002750000003
 11
990.29473900000005
 21
507.07072449999998
  0
LINE
  8
_0-0_0
  6
CONTINUOUS
 62
    7
 10
990.20159899999987
 20
506.92930550000005
 11
990.29473900000005
 21
507.07072449999998
  0
LINE
  8
_0-0_0
  6
CONTINUOUS
 62
    7
 10
990.20159899999987
 20
506.92930550000005
 11
990.12005600000009
 21
506.80000250000001
  0
ARC
  8
_0-0_0
  6
CONTINUOUS
 62
    7
 10
996.92889400000001
 20
502.60002150000003
 40
8
 50
148.33176499999999
 51
154.05551800000001
  0
LINE
  8
_0-0_0
  6
CONTINUOUS
 62
    7
 10
989.73516899999993
 20
506.10002150000003
 11
989.64117399999998
 21
505.90000950000001
  0
LINE
  8
_0-0_0
  6
CONTINUOUS
 62
    7
 10
989.64117399999998
 20
505.90000950000001
 11
989.55389400000001
 21
505.70002750000003
  0
ARC
  8
_0-0_0
  6
CONTINUOUS
 62
    7
 10
996.92889400000001
 20
502.60002150000003
 40
8
 50
157.20097000000001
 51
162.54239699999999
  0
LINE
  8
_0-0_0
  6
CONTINUOUS
 62
    7
 10
989.29742399999998
 20
505.00001550000002
 11
989.23736599999995
 21
504.80000250000001
  0
LINE
  8
_0-0_0
  6
CONTINUOUS
 62
    7
 10
989.23736599999995
 20
504.80000250000001
 11
989.18292200000008
 21
504.60002150000003
  0
ARC
  8
_0-0_0
  6
CONTINUOUS
 62
    7
 10
996.92889400000001
 20
502.60002150000003
 40
8
 50
165.52249
 51
170.64796000000001
  0
LINE
  8
_0-0_0
  6
CONTINUOUS
 62
    7
 10
989.03521699999999
 20
503.90000950000001
 11
989.00482199999999
 21
503.70002750000003
  0
LINE
  8
_0-0_0
  6
CONTINUOUS
 62
    7
 10
989.00482199999999
 20
503.70002750000003
 11
988.97967499999993
 21
503.50001550000002
  0
ARC
  8
_0-0_0
  6
CONTINUOUS
 62
    7
 10
996.92889400000001
 20
502.60002150000003
 40
8
 50
173.54054500000001
 51
178.567455
  0
LINE
  8
_0-0_0
  6
CONTINUOUS
 62
    7
 10
988.93133499999988
 20
502.80000250000001
 11
988.92889400000001
 21
502.60002150000003
  0
LINE
  8
_0-0_0
  6
CONTINUOUS
 62
    7
 10
1004.9264529999999
 20
502.80000250000001
 11
1004.928894
 21
502.60002150000003
  0
ARC
  8
_0-0_0
  6
CONTINUOUS
 62
    7
 10
996.92889400000001
 20
502.60002150000003
 40
8
 50
1.432544
 51
6.4594489999999993
  0
LINE
  8
_0-0_0
  6
CONTINUOUS
 62
    7
 10
1004.852966
 20
503.70002750000003
 11
1004.8781130000001
 21
503.50001550000002
  0
LINE
  8
_0-0_0
  6
CONTINUOUS
 62
    7
 10
1004.822571
 20
503.90000950000001
 11
1004.852966
 21
503.70002750000003
  0
ARC
  8
_0-0_0
  6
CONTINUOUS
 62
    7
 10
996.92889400000001
 20
502.60002150000003
 40
8
 50
9.3520350000000008
 51
14.477510999999998
  0
LINE
  8
_0-0_0
  6
CONTINUOUS
 62
    7
 10
1004.6204220000001
 20
504.80000250000001
 11
1004.674866
 21
504.60002150000003
  0
LINE
  8
_0-0_0
  6
CONTINUOUS
 62
    7
 10
1004.560364
 20
505.00001550000002
 11
1004.6204220000001
 21
504.80000250000001
  0
ARC
  8
_0-0_0
  6
CONTINUOUS
 62
    7
 10
996.92889400000001
 20
502.60002150000003
 40
8
 50
17.457602999999999
 51
22.799030999999999
  0
LINE
  8
_0-0_0
  6
CONTINUOUS
 62
    7
 10
1004.216614
 20
505.90000950000001
 11
1004.303894
 21
505.70002750000003
  0
LINE
  8
_0-0_0
  6
CONTINUOUS
 62
    7
 10
1004.12262
 20
506.10002150000003
 11
1004.216614
 21
505.90000950000001
  0
ARC
  8
_0-0_0
  6
CONTINUOUS
 62
    7
 10
996.92889400000001
 20
502.60002150000003
 40
8
 50
25.944476999999999
 51
31.668240000000001
  0
LINE
  8
_0-0_0
  6
CONTINUOUS
 62
    7
 10
1003.6561889999999
 20
506.92930550000005
 11
1003.7377319999999
 21
506.80000250000001
  0
LINE
  8
_0-0_0
  6
CONTINUOUS
 62
    7
 10
1003.6561889999999
 20
506.92930550000005
 11
1003.563049
 21
507.07072449999998
  0
CIRCLE
  8
_0-0_0
  6
CONTINUOUS
 62
    7
 10
996.92889400000001
 20
502.60002150000003
 40
7.5
  0
LINE
  8
_0-0_0
  6
CONTINUOUS
 62
    7
 10
1004.9264529999999
 20
502.40000950000001
 11
1005.928894
 21
502.40000950000001
  0
LINE
  8
_0-0_0
  6
CONTINUOUS
 62
    7
 10
1004.928894
 20
502.60002150000003
 11
1005.928894
 21
502.60002150000003
  0
LINE
  8
_0-0_0
  6
CONTINUOUS
 62
    7
 10
1004.8781130000001
 20
501.70002750000003
 11
1005.928894
 21
501.70002750000003
  0
LINE
  8
_0-0_0
  6
CONTINUOUS
 62
    7
 10
1004.852966
 20
501.50001550000002
 11
1005.928894
 21
501.50001550000002
  0
LINE
  8
_0-0_0
  6
CONTINUOUS
 62
    7
 10
1004.822571
 20
501.30000250000001
 11
1005.928894
 21
501.30000250000001
  0
LINE
  8
_0-0_0
  6
CONTINUOUS
 62
    7
 10
1004.674866
 20
500.60002150000003
 11
1005.928894
 21
500.60002150000003
  0
LINE
  8
_0-0_0
  6
CONTINUOUS
 62
    7
 10
1004.6204220000001
 20
500.40000950000001
 11
1005.928894
 21
500.40000950000001
  0
LINE
  8
_0-0_0
  6
CONTINUOUS
 62
    7
 10
1004.560364
 20
500.20002750000003
 11
1005.928894
 21
500.20002750000003
  0
LINE
  8
_0-0_0
  6
CONTINUOUS
 62
    7
 10
1004.303894
 20
499.50001550000002
 11
1005.928894
 21
499.50001550000002
  0
LINE
  8
_0-0_0
  6
CONTINUOUS
 62
    7
 10
1004.216614
 20
499.30000250000001
 11
1005.928894
 21
499.30000250000001
  0
LINE
  8
_0-0_0
  6
CONTINUOUS
 62
    7
 10
1004.12262
 20
499.10002150000003
 11
1005.928894
 21
499.10002150000003
  0
LINE
  8
_0-0_0
  6
CONTINUOUS
 62
    7
 10
1003.7377319999999
 20
498.40000950000001
 11
1005.928894
 21
498.40000950000001
  0
LINE
  8
_0-0_0
  6
CONTINUOUS
 62
    7
 10
1003.7377319999999
 20
506.80000250000001
 11
1005.928894
 21
506.80000250000001
  0
LINE
  8
_0-0_0
  6
CONTINUOUS
 62
    7
 10
1004.12262
 20
506.10002150000003
 11
1005.928894
 21
506.10002150000003
  0
LINE
  8
_0-0_0
  6
CONTINUOUS
 62
    7
 10
1004.216614
 20
505.90000950000001
 11
1005.928894
 21
505.90000950000001
  0
LINE
  8
_0-0_0
  6
CONTINUOUS
 62
    7
 10
1004.303894
 20
505.70002750000003
 11
1005.928894
 21
505.70002750000003
  0
LINE
  8
_0-0_0
  6
CONTINUOUS
 62
    7
 10
1004.560364
 20
505.00001550000002
 11
1005.928894
 21
505.00001550000002
  0
LINE
  8
_0-0_0
  6
CONTINUOUS
 62
    7
 10
1004.6204220000001
 20
504.80000250000001
 11
1005.928894
 21
504.80000250000001
  0
LINE
  8
_0-0_0
  6
CONTINUOUS
 62
    7
 10
1004.674866
 20
504.60002150000003
 11
1005.928894
 21
504.60002150000003
  0
LINE
  8
_0-0_0
  6
CONTINUOUS
 62
    7
 10
1004.822571
 20
503.90000950000001
 11
1005.928894
 21
503.90000950000001
  0
LINE
  8
_0-0_0
  6
CONTINUOUS
 62
    7
 10
1004.852966
 20
503.70002750000003
 11
1005.928894
 21
503.70002750000003
  0
LINE
  8
_0-0_0
  6
CONTINUOUS
 62
    7
 10
1004.8781130000001
 20
503.50001550000002
 11
1005.928894
 21
503.50001550000002
  0
LINE
  8
_0-0_0
  6
CONTINUOUS
 62
    7
 10
1004.9264529999999
 20
502.80000250000001
 11
1005.928894
 21
502.80000250000001
  0
LINE
  8
_0-0_0
  6
CONTINUOUS
 62
    7
 10
1006.428894
 20
486.10002150000003
 11
1005.928894
 21
486.10002150000003
  0
LINE
  8
_0-0_0
  6
CONTINUOUS
 62
    7
 10
1006.428894
 20
488.30000250000001
 11
1005.928894
 21
488.30000250000001
  0
LINE
  8
_0-0_0
  6
CONTINUOUS
 62
    7
 10
1006.428894
 20
490.60002150000003
 11
1005.928894
 21
490.60002150000003
  0
LINE
  8
_0-0_0
  6
CONTINUOUS
 62
    7
 10
-47.071037000000047
 20
490.60002150000003
 11
-47.571037000000047
 21
490.60002150000003
  0
LINE
  8
_0-0_0
  6
CONTINUOUS
 62
    7
 10
1005.928894
 20
492.90000950000001
 11
1006.428894
 21
492.90000950000001
  0
LINE
  8
_0-0_0
  6
CONTINUOUS
 62
    7
 10
1006.428894
 20
513.10002150000003
 11
1006.428894
 21
513.00001550000002
  0
LINE
  8
_0-0_0
  6
CONTINUOUS
 62
    7
 10
-47.571037000000047
 20
513.10002150000003
 11
-47.571037000000047
 21
513.00001550000002
  0
LINE
  8
_0-0_0
  6
CONTINUOUS
 62
    7
 10
-47.571037000000047
 20
492.90000950000001
 11
-47.071037000000047
 21
492.90000950000001
  0
LINE
  8
_0-0_0
  6
CONTINUOUS
 62
    7
 10
-47.071037000000047
 20
512.80000250000001
 11
1005.928894
 21
512.80000250000001
  0
LINE
  8
_0-0_0
  6
CONTINUOUS
 62
    7
 10
-47.071037000000047
 20
512.20603949999997
 11
1005.928894
 21
512.20603949999997
  0
LINE
  8
_0-0_0
  6
CONTINUOUS
 62
    7
 10
1003.474182
 20
507.20002750000003
 11
1005.928894
 21
507.20002750000003
  0
LINE
  8
_0-0_0
  6
CONTINUOUS
 62
    7
 10
-47.071037000000047
 20
507.20002750000003
 11
-44.616264000000001
 21
507.20002750000003
  0
ARC
  8
_0-0_0
  6
CONTINUOUS
 62
    7
 10
-38.071045000000026
 20
502.60002150000003
 40
8
 50
35.099632
 51
144.900373
  0
LINE
  8
_0-0_0
  6
CONTINUOUS
 62
    7
 10
-31.525818000000015
 20
507.20002750000003
 11
990.38360599999999
 21
507.20002750000003
  0
LINE
  8
_0-0_0
  6
CONTINUOUS
 62
    7
 10
-47.571037000000047
 20
486.10002150000003
 11
-47.071037000000047
 21
486.10002150000003
  0
LINE
  8
_0-0_0
  6
CONTINUOUS
 62
    7
 10
-47.071037000000047
 20
488.30000250000001
 11
-47.571037000000047
 21
488.30000250000001
  0
LINE
  8
_0-0_0
  6
CONTINUOUS
 62
    7
 10
-44.616264000000001
 20
507.20002750000003
 11
-44.705245999999988
 21
507.07072449999998
  0
LINE
  8
_0-0_0
  6
CONTINUOUS
 62
    7
 10
-44.798385999999994
 20
506.92930550000005
 11
-44.705245999999988
 21
507.07072449999998
  0
LINE
  8
_0-0_0
  6
CONTINUOUS
 62
    7
 10
-47.071037000000047
 20
506.80000250000001
 11
-44.879852000000028
 21
506.80000250000001
  0
LINE
  8
_0-0_0
  6
CONTINUOUS
 62
    7
 10
-44.798385999999994
 20
506.92930550000005
 11
-44.879852000000028
 21
506.80000250000001
  0
ARC
  8
_0-0_0
  6
CONTINUOUS
 62
    7
 10
-38.071045000000026
 20
502.60002150000003
 40
8
 50
148.33176499999999
 51
154.05551800000001
  0
LINE
  8
_0-0_0
  6
CONTINUOUS
 62
    7
 10
-47.071037000000047
 20
506.10002150000003
 11
-45.264786000000015
 21
506.10002150000003
  0
LINE
  8
_0-0_0
  6
CONTINUOUS
 62
    7
 10
-45.264786000000015
 20
506.10002150000003
 11
-45.32626300000004
 21
505.97071849999998
  0
LINE
  8
_0-0_0
  6
CONTINUOUS
 62
    7
 10
-45.390305000000012
 20
505.82929950000005
 11
-45.32626300000004
 21
505.97071849999998
  0
LINE
  8
_0-0_0
  6
CONTINUOUS
 62
    7
 10
-47.071037000000047
 20
505.70002750000003
 11
-45.445991000000049
 21
505.70002750000003
  0
LINE
  8
_0-0_0
  6
CONTINUOUS
 62
    7
 10
-45.390305000000012
 20
505.82929950000005
 11
-45.445991000000049
 21
505.70002750000003
  0
ARC
  8
_0-0_0
  6
CONTINUOUS
 62
    7
 10
-38.071045000000026
 20
502.60002150000003
 40
8
 50
157.20097000000001
 51
162.54239699999999
  0
LINE
  8
_0-0_0
  6
CONTINUOUS
 62
    7
 10
-47.071037000000047
 20
505.00001550000002
 11
-45.702553000000023
 21
505.00001550000002
  0
LINE
  8
_0-0_0
  6
CONTINUOUS
 62
    7
 10
-45.702553000000023
 20
505.00001550000002
 11
-45.742012000000045
 21
504.87074250000001
  0
LINE
  8
_0-0_0
  6
CONTINUOUS
 62
    7
 10
-45.782463000000007
 20
504.72929350000004
 11
-45.742012000000045
 21
504.87074250000001
  0
LINE
  8
_0-0_0
  6
CONTINUOUS
 62
    7
 10
-47.071037000000047
 20
504.60002150000003
 11
-45.817001000000005
 21
504.60002150000003
  0
LINE
  8
_0-0_0
  6
CONTINUOUS
 62
    7
 10
-45.782463000000007
 20
504.72929350000004
 11
-45.817001000000005
 21
504.60002150000003
  0
ARC
  8
_0-0_0
  6
CONTINUOUS
 62
    7
 10
-38.071045000000026
 20
502.60002150000003
 40
8
 50
165.52249
 51
170.64796000000001
  0
LINE
  8
_0-0_0
  6
CONTINUOUS
 62
    7
 10
-47.071037000000047
 20
503.90000950000001
 11
-45.964706000000035
 21
503.90000950000001
  0
LINE
  8
_0-0_0
  6
CONTINUOUS
 62
    7
 10
-45.964706000000035
 20
503.90000950000001
 11
-45.984916999999996
 21
503.7707365
  0
LINE
  8
_0-0_0
  6
CONTINUOUS
 62
    7
 10
-46.004547000000002
 20
503.62931849999995
 11
-45.984916999999996
 21
503.7707365
  0
LINE
  8
_0-0_0
  6
CONTINUOUS
 62
    7
 10
-47.071037000000047
 20
503.50001550000002
 11
-46.020248000000038
 21
503.50001550000002
  0
LINE
  8
_0-0_0
  6
CONTINUOUS
 62
    7
 10
-46.004547000000002
 20
503.62931849999995
 11
-46.020248000000038
 21
503.50001550000002
  0
ARC
  8
_0-0_0
  6
CONTINUOUS
 62
    7
 10
-38.071045000000026
 20
502.60002150000003
 40
8
 50
173.54054500000001
 51
178.567455
  0
LINE
  8
_0-0_0
  6
CONTINUOUS
 62
    7
 10
-47.071037000000047
 20
502.80000250000001
 11
-46.068534999999997
 21
502.80000250000001
  0
LINE
  8
_0-0_0
  6
CONTINUOUS
 62
    7
 10
-46.068534999999997
 20
502.80000250000001
 11
-46.070724000000041
 21
502.67073049999999
  0
LINE
  8
_0-0_0
  6
CONTINUOUS
 62
    7
 10
-46.071037000000047
 20
502.60002150000003
 11
-46.070724000000041
 21
502.67073049999999
  0
LINE
  8
_0-0_0
  6
CONTINUOUS
 62
    7
 10
-47.071037000000047
 20
502.40000950000001
 11
-46.068534999999997
 21
502.40000950000001
  0
LINE
  8
_0-0_0
  6
CONTINUOUS
 62
    7
 10
-47.071037000000047
 20
501.70002750000003
 11
-46.020248000000038
 21
501.70002750000003
  0
LINE
  8
_0-0_0
  6
CONTINUOUS
 62
    7
 10
-47.071037000000047
 20
501.30000250000001
 11
-45.964706000000035
 21
501.30000250000001
  0
LINE
  8
_0-0_0
  6
CONTINUOUS
 62
    7
 10
-47.071037000000047
 20
500.60002150000003
 11
-45.817001000000005
 21
500.60002150000003
  0
LINE
  8
_0-0_0
  6
CONTINUOUS
 62
    7
 10
-47.071037000000047
 20
500.20002750000003
 11
-45.702553000000023
 21
500.20002750000003
  0
LINE
  8
_0-0_0
  6
CONTINUOUS
 62
    7
 10
-47.071037000000047
 20
499.50001550000002
 11
-45.445991000000049
 21
499.50001550000002
  0
LINE
  8
_0-0_0
  6
CONTINUOUS
 62
    7
 10
-47.071037000000047
 20
499.10002150000003
 11
-45.264786000000015
 21
499.10002150000003
  0
LINE
  8
_0-0_0
  6
CONTINUOUS
 62
    7
 10
-47.071037000000047
 20
498.40000950000001
 11
-44.879852000000028
 21
498.40000950000001
  0
LINE
  8
_0-0_0
  6
CONTINUOUS
 62
    7
 10
-30.073532
 20
502.80000250000001
 11
-30.071030000000007
 21
502.60002150000003
  0
ARC
  8
_0-0_0
  6
CONTINUOUS
 62
    7
 10
-38.071045000000026
 20
502.60002150000003
 40
8
 50
1.432544
 51
6.4594489999999993
  0
LINE
  8
_0-0_0
  6
CONTINUOUS
 62
    7
 10
-30.147018000000003
 20
503.70002750000003
 11
-30.121826000000056
 21
503.50001550000002
  0
LINE
  8
_0-0_0
  6
CONTINUOUS
 62
    7
 10
-30.177368000000001
 20
503.90000950000001
 11
-30.147018000000003
 21
503.70002750000003
  0
ARC
  8
_0-0_0
  6
CONTINUOUS
 62
    7
 10
-38.071045000000026
 20
502.60002150000003
 40
8
 50
9.3520350000000008
 51
14.477510999999998
  0
LINE
  8
_0-0_0
  6
CONTINUOUS
 62
    7
 10
-30.379486000000043
 20
504.80000250000001
 11
-30.325072999999975
 21
504.60002150000003
  0
LINE
  8
_0-0_0
  6
CONTINUOUS
 62
    7
 10
-30.439514000000031
 20
505.00001550000002
 11
-30.379486000000043
 21
504.80000250000001
  0
ARC
  8
_0-0_0
  6
CONTINUOUS
 62
    7
 10
-38.071045000000026
 20
502.60002150000003
 40
8
 50
17.457602999999999
 51
22.799030999999999
  0
LINE
  8
_0-0_0
  6
CONTINUOUS
 62
    7
 10
-30.783386000000007
 20
505.90000950000001
 11
-30.696075000000008
 21
505.70002750000003
  0
LINE
  8
_0-0_0
  6
CONTINUOUS
 62
    7
 10
-30.877289000000019
 20
506.10002150000003
 11
-30.783386000000007
 21
505.90000950000001
  0
ARC
  8
_0-0_0
  6
CONTINUOUS
 62
    7
 10
-38.071045000000026
 20
502.60002150000003
 40
8
 50
25.944476999999999
 51
31.668240000000001
  0
LINE
  8
_0-0_0
  6
CONTINUOUS
 62
    7
 10
-31.34368900000004
 20
506.92930550000005
 11
-31.262222000000008
 21
506.80000250000001
  0
LINE
  8
_0-0_0
  6
CONTINUOUS
 62
    7
 10
-31.34368900000004
 20
506.92930550000005
 11
-31.436828999999989
 21
507.07072449999998
  0
LINE
  8
_0-0_0
  6
CONTINUOUS
 62
    7
 10
-31.525818000000015
 20
507.20002750000003
 11
-31.436828999999989
 21
507.07072449999998
  0
CIRCLE
  8
_0-0_0
  6
CONTINUOUS
 62
    7
 10
-38.071045000000026
 20
502.60002150000003
 40
7.5
  0
LINE
  8
_0-0_0
  6
CONTINUOUS
 62
    7
 10
-30.073532
 20
502.80000250000001
 11
988.93133499999988
 21
502.80000250000001
  0
LINE
  8
_0-0_0
  6
CONTINUOUS
 62
    7
 10
-30.121826000000056
 20
503.50001550000002
 11
988.97967499999993
 21
503.50001550000002
  0
LINE
  8
_0-0_0
  6
CONTINUOUS
 62
    7
 10
-30.147018000000003
 20
503.70002750000003
 11
989.00482199999999
 21
503.70002750000003
  0
LINE
  8
_0-0_0
  6
CONTINUOUS
 62
    7
 10
-30.177368000000001
 20
503.90000950000001
 11
989.03521699999999
 21
503.90000950000001
  0
LINE
  8
_0-0_0
  6
CONTINUOUS
 62
    7
 10
-30.325072999999975
 20
504.60002150000003
 11
989.18292200000008
 21
504.60002150000003
  0
LINE
  8
_0-0_0
  6
CONTINUOUS
 62
    7
 10
-30.379486000000043
 20
504.80000250000001
 11
989.23736599999995
 21
504.80000250000001
  0
LINE
  8
_0-0_0
  6
CONTINUOUS
 62
    7
 10
-30.439514000000031
 20
505.00001550000002
 11
989.29742399999998
 21
505.00001550000002
  0
LINE
  8
_0-0_0
  6
CONTINUOUS
 62
    7
 10
-30.696075000000008
 20
505.70002750000003
 11
989.55389400000001
 21
505.70002750000003
  0
LINE
  8
_0-0_0
  6
CONTINUOUS
 62
    7
 10
-30.783386000000007
 20
505.90000950000001
 11
989.64117399999998
 21
505.90000950000001
  0
LINE
  8
_0-0_0
  6
CONTINUOUS
 62
    7
 10
-30.877289000000019
 20
506.10002150000003
 11
989.73516899999993
 21
506.10002150000003
  0
LINE
  8
_0-0_0
  6
CONTINUOUS
 62
    7
 10
-31.262222000000008
 20
506.80000250000001
 11
990.12005600000009
 21
506.80000250000001
  0
LINE
  8
_0-0_0
  6
CONTINUOUS
 62
    7
 10
1006.428894
 20
484.60002150000003
 11
1005.928894
 21
484.60002150000003
  0
LINE
  8
_0-0_0
  6
CONTINUOUS
 62
    7
 10
1006.428894
 20
512.20002750000003
 11
1006.428894
 21
513.00001550000002
  0
LINE
  8
_0-0_0
  6
CONTINUOUS
 62
    7
 10
1006.428894
 20
484.40000950000001
 11
1006.428894
 21
512.20002750000003
  0
ARC
  8
_0-0_0
  6
CONTINUOUS
 62
    7
 10
996.92889400000001
 20
503.30000250000001
 40
12.800000000000001
 50
73.932597000000001
 51
106.06740099999999
  0
LINE
  8
_0-0_0
  6
CONTINUOUS
 62
    7
 10
-47.571037000000047
 20
512.20002750000003
 11
-47.571037000000047
 21
513.00001550000002
  0
LINE
  8
_0-0_0
  6
CONTINUOUS
 62
    7
 10
-47.571037000000047
 20
484.40000950000001
 11
-47.571037000000047
 21
512.20002750000003
  0
ARC
  8
_0-0_0
  6
CONTINUOUS
 62
    7
 10
-38.071045000000026
 20
503.30000250000001
 40
12.800000000000001
 50
73.932597000000001
 51
106.06740099999999
  0
LINE
  8
_0-0_0
  6
CONTINUOUS
 62
    7
 10
469.92895499999997
 20
515.59999049999999
 11
469.92895499999997
 21
521.23991350000006
  0
LINE
  8
_0-0_0
  6
CONTINUOUS
 62
    7
 10
488.92895499999997
 20
521.23991350000006
 11
488.92895499999997
 21
515.59999049999999
  0
LINE
  8
_0-0_0
  6
CONTINUOUS
 62
    7
 10
1006.428894
 20
513.10002150000003
 11
1006.428894
 21
515.60002150000003
  0
LINE
  8
_0-0_0
  6
CONTINUOUS
 62
    7
 10
-47.571037000000047
 20
515.60002150000003
 11
1006.428894
 21
515.60002150000003
  0
LINE
  8
_0-0_0
  6
CONTINUOUS
 62
    7
 10
-47.571037000000047
 20
513.10002150000003
 11
-47.571037000000047
 21
515.60002150000003
  0
LINE
  8
_0-0_0
  6
CONTINUOUS
 62
    7
 10
-47.571037000000047
 20
484.60002150000003
 11
-47.071037000000047
 21
484.60002150000003
  0
ARC
  8
_0-0_0
  6
CONTINUOUS
 62
    7
 10
944.72894299999996
 20
489.50001550000002
 40
0.2
 50
339.62356199999999
 51
90.000002999999978
  0
LINE
  8
_0-0_0
  6
CONTINUOUS
 62
    7
 10
944.91644299999996
 20
489.43037449999997
 11
943.61639400000001
 21
485.93037449999997
  0
ARC
  8
_0-0_0
  6
CONTINUOUS
 62
    7
 10
943.42889400000001
 20
486.00001550000002
 40
0.2
 50
200.37643
 51
339.62356199999999
  0
LINE
  8
_0-0_0
  6
CONTINUOUS
 62
    7
 10
941.94146699999999
 20
489.43037449999997
 11
943.24139400000001
 21
485.93037449999997
  0
ARC
  8
_0-0_0
  6
CONTINUOUS
 62
    7
 10
942.12896699999999
 20
489.50001550000002
 40
0.2
 50
90.000003000000007
 51
200.37643
  0
LINE
  8
_0-0_0
  6
CONTINUOUS
 62
    7
 10
942.12896699999999
 20
489.70002750000003
 11
944.72894299999996
 21
489.70002750000003
  0
ARC
  8
_0-0_0
  6
CONTINUOUS
 62
    7
 10
24.728957999999977
 20
489.50001550000002
 40
0.2
 50
339.62356199999999
 51
90.000002999999978
  0
LINE
  8
_0-0_0
  6
CONTINUOUS
 62
    7
 10
24.916442999999958
 20
489.43037449999997
 11
23.616440000000011
 21
485.93037449999997
  0
ARC
  8
_0-0_0
  6
CONTINUOUS
 62
    7
 10
23.428954999999974
 20
486.00001550000002
 40
0.2
 50
200.37643
 51
339.62356199999999
  0
LINE
  8
_0-0_0
  6
CONTINUOUS
 62
    7
 10
21.941466999999989
 20
489.43037449999997
 11
23.241469999999993
 21
485.93037449999997
  0
ARC
  8
_0-0_0
  6
CONTINUOUS
 62
    7
 10
22.128952000000027
 20
489.50001550000002
 40
0.2
 50
90.000003000000007
 51
200.37643
  0
LINE
  8
_0-0_0
  6
CONTINUOUS
 62
    7
 10
22.128952000000027
 20
489.70002750000003
 11
24.728957999999977
 21
489.70002750000003
  0
LINE
  8
_0-0_0
  6
CONTINUOUS
 62
    7
 10
1007.428894
 20
512.20002750000003
 11
1006.428894
 21
512.20002750000003
  0
LINE
  8
_0-0_0
  6
CONTINUOUS
 62
    7
 10
1007.428894
 20
513.23701449999999
 11
1006.428894
 21
513.23701449999999
  0
LINE
  8
_0-0_0
  6
CONTINUOUS
 62
    7
 10
1007.428894
 20
484.40000950000001
 11
1006.428894
 21
484.40000950000001
  0
ARC
  8
_0-0_0
  6
CONTINUOUS
 62
    7
 10
479.42895499999997
 20
503.30000250000001
 40
20.299999
 50
62.096725999999997
 51
117.903272
  0
CIRCLE
  8
_0-0_0
  6
CONTINUOUS
 62
    7
 10
479.42895499999997
 20
519.60002150000003
 40
2.5
  0
LINE
  8
_0-0_0
  6
CONTINUOUS
 62
    7
 10
-48.571037000000047
 20
512.20002750000003
 11
-47.571037000000047
 21
512.20002750000003
  0
LINE
  8
_0-0_0
  6
CONTINUOUS
 62
    7
 10
-48.571037000000047
 20
513.20002750000003
 11
-47.571037000000047
 21
513.20002750000003
  0
LINE
  8
_0-0_0
  6
CONTINUOUS
 62
    7
 10
-48.571037000000047
 20
484.40000950000001
 11
-47.571037000000047
 21
484.40000950000001
  0
LINE
  8
_0-0_0
  6
CONTINUOUS
 62
    7
 10
1007.428894
 20
515.40000950000001
 11
1006.428894
 21
515.40000950000001
  0
LINE
  8
_0-0_0
  6
CONTINUOUS
 62
    7
 10
-48.571037000000047
 20
515.40000950000001
 11
-47.571037000000047
 21
515.40000950000001
  0
LINE
  8
_0-0_0
  6
CONTINUOUS
 62
    7
 10
1008.428894
 20
511.78581250000002
 11
1008.427918
 21
511.80430550000005
  0
LINE
  8
_0-0_0
  6
CONTINUOUS
 62
    7
 10
1008.427918
 20
511.80430550000005
 11
1008.424866
 21
511.82273850000001
  0
LINE
  8
_0-0_0
  6
CONTINUOUS
 62
    7
 10
1008.424866
 20
511.82273850000001
 11
1008.4196169999999
 21
511.84187350000002
  0
LINE
  8
_0-0_0
  6
CONTINUOUS
 62
    7
 10
1008.4196169999999
 20
511.84187350000002
 11
1008.412293
 21
511.86091650000003
  0
LINE
  8
_0-0_0
  6
CONTINUOUS
 62
    7
 10
1008.412293
 20
511.86091650000003
 11
1008.3917849999999
 21
511.8976285
  0
LINE
  8
_0-0_0
  6
CONTINUOUS
 62
    7
 10
1008.3917849999999
 20
511.8976285
 11
1008.363342
 21
511.93330349999997
  0
LINE
  8
_0-0_0
  6
CONTINUOUS
 62
    7
 10
1008.363342
 20
511.93330349999997
 11
1008.3274539999999
 21
511.96757449999996
  0
LINE
  8
_0-0_0
  6
CONTINUOUS
 62
    7
 10
1008.3274539999999
 20
511.96757449999996
 11
1008.27887
 21
512.00404349999997
  0
LINE
  8
_0-0_0
  6
CONTINUOUS
 62
    7
 10
1008.27887
 20
512.00404349999997
 11
1008.2221069999999
 21
512.0380705
  0
LINE
  8
_0-0_0
  6
CONTINUOUS
 62
    7
 10
1008.2221069999999
 20
512.0380705
 11
1008.157898
 21
512.0693205
  0
LINE
  8
_0-0_0
  6
CONTINUOUS
 62
    7
 10
1008.157898
 20
512.0693205
 11
1008.0872189999999
 21
512.09754950000001
  0
LINE
  8
_0-0_0
  6
CONTINUOUS
 62
    7
 10
1008.0872189999999
 20
512.09754950000001
 11
1008.039124
 21
512.11390649999998
  0
LINE
  8
_0-0_0
  6
CONTINUOUS
 62
    7
 10
1008.039124
 20
512.11390649999998
 11
1007.9890750000001
 21
512.12892150000005
  0
LINE
  8
_0-0_0
  6
CONTINUOUS
 62
    7
 10
1007.9890750000001
 20
512.12892150000005
 11
1007.932312
 21
512.14369150000005
  0
LINE
  8
_0-0_0
  6
CONTINUOUS
 62
    7
 10
1007.932312
 20
512.14369150000005
 11
1007.8737179999999
 21
512.15678349999996
  0
LINE
  8
_0-0_0
  6
CONTINUOUS
 62
    7
 10
1007.8737179999999
 20
512.15678349999996
 11
1007.7568970000001
 21
512.17707849999999
  0
LINE
  8
_0-0_0
  6
CONTINUOUS
 62
    7
 10
1007.7568970000001
 20
512.17707849999999
 11
1007.649597
 21
512.18980350000004
  0
LINE
  8
_0-0_0
  6
CONTINUOUS
 62
    7
 10
1007.649597
 20
512.18980350000004
 11
1007.5397340000001
 21
512.19746350000003
  0
LINE
  8
_0-0_0
  6
CONTINUOUS
 62
    7
 10
1007.5397340000001
 20
512.19746350000003
 11
1007.428894
 21
512.20002750000003
  0
LINE
  8
_0-0_0
  6
CONTINUOUS
 62
    7
 10
1008.428894
 20
511.78581250000002
 11
1008.428894
 21
512.78587349999998
  0
LINE
  8
_0-0_0
  6
CONTINUOUS
 62
    7
 10
1008.428894
 20
512.78587349999998
 11
1008.4259639999999
 21
512.81742850000001
  0
LINE
  8
_0-0_0
  6
CONTINUOUS
 62
    7
 10
1008.4259639999999
 20
512.81742850000001
 11
1008.4172970000001
 21
512.84950249999997
  0
LINE
  8
_0-0_0
  6
CONTINUOUS
 62
    7
 10
1008.4172970000001
 20
512.84950249999997
 11
1008.4027709999999
 21
512.88179049999997
  0
LINE
  8
_0-0_0
  6
CONTINUOUS
 62
    7
 10
1008.4027709999999
 20
512.88179049999997
 11
1008.3825069999999
 21
512.91395550000004
  0
LINE
  8
_0-0_0
  6
CONTINUOUS
 62
    7
 10
1008.3825069999999
 20
512.91395550000004
 11
1008.3659059999999
 21
512.93516550000004
  0
LINE
  8
_0-0_0
  6
CONTINUOUS
 62
    7
 10
1008.3659059999999
 20
512.93516550000004
 11
1008.346985
 21
512.95613049999997
  0
LINE
  8
_0-0_0
  6
CONTINUOUS
 62
    7
 10
1008.346985
 20
512.95613049999997
 11
1008.3021849999999
 21
512.99690250000003
  0
LINE
  8
_0-0_0
  6
CONTINUOUS
 62
    7
 10
1008.3021849999999
 20
512.99690250000003
 11
1008.248962
 21
513.03565949999995
  0
LINE
  8
_0-0_0
  6
CONTINUOUS
 62
    7
 10
1008.248962
 20
513.03565949999995
 11
1008.1990360000001
 21
513.06587249999995
  0
LINE
  8
_0-0_0
  6
CONTINUOUS
 62
    7
 10
1008.1990360000001
 20
513.06587249999995
 11
1008.1443479999999
 21
513.09407050000004
  0
LINE
  8
_0-0_0
  6
CONTINUOUS
 62
    7
 10
1008.1443479999999
 20
513.09407050000004
 11
1008.0853880000001
 21
513.12013249999995
  0
LINE
  8
_0-0_0
  6
CONTINUOUS
 62
    7
 10
1008.0853880000001
 20
513.12013249999995
 11
1008.038635
 21
513.13810750000005
  0
LINE
  8
_0-0_0
  6
CONTINUOUS
 62
    7
 10
1008.038635
 20
513.13810750000005
 11
1007.989929
 21
513.15470849999997
  0
LINE
  8
_0-0_0
  6
CONTINUOUS
 62
    7
 10
1007.989929
 20
513.15470849999997
 11
1007.8875119999999
 21
513.18360849999999
  0
LINE
  8
_0-0_0
  6
CONTINUOUS
 62
    7
 10
1007.8875119999999
 20
513.18360849999999
 11
1007.779846
 21
513.2064365
  0
LINE
  8
_0-0_0
  6
CONTINUOUS
 62
    7
 10
1007.779846
 20
513.2064365
 11
1007.6681520000001
 21
513.22300749999999
  0
LINE
  8
_0-0_0
  6
CONTINUOUS
 62
    7
 10
1007.6681520000001
 20
513.22300749999999
 11
1007.5541380000001
 21
513.23319949999996
  0
LINE
  8
_0-0_0
  6
CONTINUOUS
 62
    7
 10
1007.5541380000001
 20
513.23319949999996
 11
1007.428894
 21
513.23701449999999
  0
ARC
  8
_0-0_0
  6
CONTINUOUS
 62
    7
 10
1007.428894
 20
485.40000950000001
 40
1
 50
269.99999700000001
 51
0
  0
LINE
  8
_0-0_0
  6
CONTINUOUS
 62
    7
 10
1008.428894
 20
485.40000950000001
 11
1008.428894
 21
511.78581250000002
  0
LINE
  8
_0-0_0
  6
CONTINUOUS
 62
    7
 10
-49.571037000000047
 20
511.78581250000002
 11
-49.570038000000011
 21
511.80430550000005
  0
LINE
  8
_0-0_0
  6
CONTINUOUS
 62
    7
 10
-49.570038000000011
 20
511.80430550000005
 11
-49.567039000000022
 21
511.82273850000001
  0
LINE
  8
_0-0_0
  6
CONTINUOUS
 62
    7
 10
-49.567039000000022
 20
511.82273850000001
 11
-49.561806000000047
 21
511.84187350000002
  0
LINE
  8
_0-0_0
  6
CONTINUOUS
 62
    7
 10
-49.561806000000047
 20
511.84187350000002
 11
-49.55442800000003
 21
511.86091650000003
  0
LINE
  8
_0-0_0
  6
CONTINUOUS
 62
    7
 10
-49.55442800000003
 20
511.86091650000003
 11
-49.533874000000026
 21
511.8976285
  0
LINE
  8
_0-0_0
  6
CONTINUOUS
 62
    7
 10
-49.533874000000026
 20
511.8976285
 11
-49.505478000000039
 21
511.93330349999997
  0
LINE
  8
_0-0_0
  6
CONTINUOUS
 62
    7
 10
-49.505478000000039
 20
511.93330349999997
 11
-49.469597000000022
 21
511.96757449999996
  0
LINE
  8
_0-0_0
  6
CONTINUOUS
 62
    7
 10
-49.469597000000022
 20
511.96757449999996
 11
-49.420974999999999
 21
512.00404349999997
  0
LINE
  8
_0-0_0
  6
CONTINUOUS
 62
    7
 10
-49.420974999999999
 20
512.00404349999997
 11
-49.36418900000001
 21
512.0380705
  0
LINE
  8
_0-0_0
  6
CONTINUOUS
 62
    7
 10
-49.36418900000001
 20
512.0380705
 11
-49.300049000000001
 21
512.0693205
  0
LINE
  8
_0-0_0
  6
CONTINUOUS
 62
    7
 10
-49.300049000000001
 20
512.0693205
 11
-49.229400999999996
 21
512.09754950000001
  0
LINE
  8
_0-0_0
  6
CONTINUOUS
 62
    7
 10
-49.229400999999996
 20
512.09754950000001
 11
-49.181320000000028
 21
512.11390649999998
  0
LINE
  8
_0-0_0
  6
CONTINUOUS
 62
    7
 10
-49.181320000000028
 20
512.11390649999998
 11
-49.131180000000029
 21
512.12892150000005
  0
LINE
  8
_0-0_0
  6
CONTINUOUS
 62
    7
 10
-49.131180000000029
 20
512.12892150000005
 11
-49.074477999999999
 21
512.14369150000005
  0
LINE
  8
_0-0_0
  6
CONTINUOUS
 62
    7
 10
-49.074477999999999
 20
512.14369150000005
 11
-49.015877000000046
 21
512.15678349999996
  0
LINE
  8
_0-0_0
  6
CONTINUOUS
 62
    7
 10
-49.015877000000046
 20
512.15678349999996
 11
-48.899093999999991
 21
512.17707849999999
  0
LINE
  8
_0-0_0
  6
CONTINUOUS
 62
    7
 10
-48.899093999999991
 20
512.17707849999999
 11
-48.791687000000024
 21
512.18980350000004
  0
LINE
  8
_0-0_0
  6
CONTINUOUS
 62
    7
 10
-48.791687000000024
 20
512.18980350000004
 11
-48.681922999999983
 21
512.19746350000003
  0
LINE
  8
_0-0_0
  6
CONTINUOUS
 62
    7
 10
-48.681922999999983
 20
512.19746350000003
 11
-48.571037000000047
 21
512.20002750000003
  0
LINE
  8
_0-0_0
  6
CONTINUOUS
 62
    7
 10
-49.571037000000047
 20
512.75547749999998
 11
-49.568146000000013
 21
512.7863615
  0
LINE
  8
_0-0_0
  6
CONTINUOUS
 62
    7
 10
-49.568146000000013
 20
512.7863615
 11
-49.559448000000032
 21
512.81782550000003
  0
LINE
  8
_0-0_0
  6
CONTINUOUS
 62
    7
 10
-49.559448000000032
 20
512.81782550000003
 11
-49.54496800000004
 21
512.84947150000005
  0
LINE
  8
_0-0_0
  6
CONTINUOUS
 62
    7
 10
-49.54496800000004
 20
512.84947150000005
 11
-49.52479500000004
 21
512.8810575
  0
LINE
  8
_0-0_0
  6
CONTINUOUS
 62
    7
 10
-49.52479500000004
 20
512.8810575
 11
-49.508278000000018
 21
512.90193150000005
  0
LINE
  8
_0-0_0
  6
CONTINUOUS
 62
    7
 10
-49.508278000000018
 20
512.90193150000005
 11
-49.489372000000003
 21
512.92256150000003
  0
LINE
  8
_0-0_0
  6
CONTINUOUS
 62
    7
 10
-49.489372000000003
 20
512.92256150000003
 11
-49.444733000000042
 21
512.96272250000004
  0
LINE
  8
_0-0_0
  6
CONTINUOUS
 62
    7
 10
-49.444733000000042
 20
512.96272250000004
 11
-49.391602000000034
 21
513.00090050000006
  0
LINE
  8
_0-0_0
  6
CONTINUOUS
 62
    7
 10
-49.391602000000034
 20
513.00090050000006
 11
-49.341705000000047
 21
513.03071550000004
  0
LINE
  8
_0-0_0
  6
CONTINUOUS
 62
    7
 10
-49.341705000000047
 20
513.03071550000004
 11
-49.287033000000008
 21
513.05860849999999
  0
LINE
  8
_0-0_0
  6
CONTINUOUS
 62
    7
 10
-49.287033000000008
 20
513.05860849999999
 11
-49.228065000000015
 21
513.08433549999995
  0
LINE
  8
_0-0_0
  6
CONTINUOUS
 62
    7
 10
-49.228065000000015
 20
513.08433549999995
 11
-49.181305000000009
 21
513.10212650000005
  0
LINE
  8
_0-0_0
  6
CONTINUOUS
 62
    7
 10
-49.181305000000009
 20
513.10212650000005
 11
-49.132599000000027
 21
513.11854549999998
  0
LINE
  8
_0-0_0
  6
CONTINUOUS
 62
    7
 10
-49.132599000000027
 20
513.11854549999998
 11
-49.030167000000006
 21
513.14714049999998
  0
LINE
  8
_0-0_0
  6
CONTINUOUS
 62
    7
 10
-49.030167000000006
 20
513.14714049999998
 11
-48.922348
 21
513.16972350000003
  0
LINE
  8
_0-0_0
  6
CONTINUOUS
 62
    7
 10
-48.922348
 20
513.16972350000003
 11
-48.810660999999982
 21
513.18614149999996
  0
LINE
  8
_0-0_0
  6
CONTINUOUS
 62
    7
 10
-48.810660999999982
 20
513.18614149999996
 11
-48.696503000000007
 21
513.19624350000004
  0
LINE
  8
_0-0_0
  6
CONTINUOUS
 62
    7
 10
-48.696503000000007
 20
513.19624350000004
 11
-48.571037000000047
 21
513.20002750000003
  0
LINE
  8
_0-0_0
  6
CONTINUOUS
 62
    7
 10
-49.571037000000047
 20
511.78581250000002
 11
-49.571037000000047
 21
512.75547749999998
  0
ARC
  8
_0-0_0
  6
CONTINUOUS
 62
    7
 10
-48.571037000000047
 20
485.40000950000001
 40
1
 50
180.00000900000003
 51
269.99999700000001
  0
LINE
  8
_0-0_0
  6
CONTINUOUS
 62
    7
 10
-49.571037000000047
 20
485.40000950000001
 11
-49.571037000000047
 21
511.78581250000002
  0
CIRCLE
  8
_0-0_0
  6
CONTINUOUS
 62
    7
 10
-38.071045000000026
 20
502.60002150000003
 40
5
  0
CIRCLE
  8
_0-0_0
  6
CONTINUOUS
 62
    7
 10
996.92889400000001
 20
502.60002150000003
 40
5
  0
LINE
  8
_0-0_0
  6
CONTINUOUS
 62
    7
 10
1008.428894
 20
512.78587349999998
 11
1008.428894
 21
514.40000950000001
  0
ARC
  8
_0-0_0
  6
CONTINUOUS
 62
    7
 10
1007.428894
 20
514.40000950000001
 40
1
 50
0
 51
90.000003000000007
  0
ARC
  8
_0-0_0
  6
CONTINUOUS
 62
    7
 10
-48.571037000000047
 20
514.40000950000001
 40
1
 50
90.000003000000007
 51
180.00000900000001
  0
LINE
  8
_0-0_0
  6
CONTINUOUS
 62
    7
 10
-49.571037000000047
 20
512.75547749999998
 11
-49.571037000000047
 21
514.40000950000001
  0
LINE
  8
_0-0_0
  6
CONTINUOUS
 62
    7
 10
-137.386709
 20
482.29994150000005
 11
-137.386709
 21
482.27494750000005
  0
LINE
  8
_0-0_0
  6
CONTINUOUS
 62
    7
 10
-137.386709
 20
479.2228235
 11
-137.386709
 21
479.32493550000004
  0
LINE
  8
_0-0_0
  6
CONTINUOUS
 62
    7
 10
-137.386709
 20
458.19993550000004
 11
-137.386709
 21
458.97706549999998
  0
LINE
  8
_0-0_0
  6
CONTINUOUS
 62
    7
 10
-154.18670800000007
 20
458.19993550000004
 11
-137.386709
 21
458.19993550000004
  0
LINE
  8
_0-0_0
  6
CONTINUOUS
 62
    7
 10
-154.18670800000007
 20
466.09992950000003
 11
-154.18670800000007
 21
458.19993550000004
  0
LINE
  8
_0-0_0
  6
CONTINUOUS
 62
    7
 10
-154.18670800000007
 20
478.55525150000005
 11
-154.18670800000007
 21
472.09992950000003
  0
LINE
  8
_0-0_0
  6
CONTINUOUS
 62
    7
 10
-136.88672399999996
 20
461.69993550000004
 11
-136.68670800000007
 21
461.69993550000004
  0
LINE
  8
_0-0_0
  6
CONTINUOUS
 62
    7
 10
-136.68670800000007
 20
461.69993550000004
 11
-136.68670800000007
 21
464.69993550000004
  0
LINE
  8
_0-0_0
  6
CONTINUOUS
 62
    7
 10
-136.68670800000007
 20
478.29994150000005
 11
-136.68670800000007
 21
464.69993550000004
  0
LINE
  8
_0-0_0
  6
CONTINUOUS
 62
    7
 10
-136.88671299999999
 20
481.29994150000005
 11
-136.68670800000007
 21
481.29994150000005
  0
LINE
  8
_0-0_0
  6
CONTINUOUS
 62
    7
 10
-136.68670800000007
 20
478.29994150000005
 11
-136.68670800000007
 21
481.29994150000005
  0
LINE
  8
_0-0_0
  6
CONTINUOUS
 62
    7
 10
-137.58670800000004
 20
480.59901449999995
 11
-137.58670800000004
 21
479.41981450000003
  0
LINE
  8
_0-0_0
  6
CONTINUOUS
 62
    7
 10
-137.58670800000004
 20
482.79994150000005
 11
-137.58670800000004
 21
482.29994150000005
  0
LINE
  8
_0-0_0
  6
CONTINUOUS
 62
    7
 10
-138.58670800000004
 20
479.88343750000001
 11
-138.58670800000004
 21
480.59992950000003
  0
ARC
  8
_0-0_0
  6
CONTINUOUS
 62
    7
 10
-138.886709
 20
477.89994750000005
 40
2
 50
0
 51
90.000003000000007
  0
LINE
  8
_0-0_0
  6
CONTINUOUS
 62
    7
 10
-136.886709
 20
474.39994750000005
 11
-136.886709
 21
477.39994750000005
  0
LINE
  8
_0-0_0
  6
CONTINUOUS
 62
    7
 10
-136.886709
 20
477.39994750000005
 11
-136.886709
 21
477.89994750000005
  0
LINE
  8
_0-0_0
  6
CONTINUOUS
 62
    7
 10
-136.886709
 20
460.29994150000005
 11
-136.886709
 21
473.89994750000005
  0
LINE
  8
_0-0_0
  6
CONTINUOUS
 62
    7
 10
-136.886709
 20
474.39994750000005
 11
-136.886709
 21
473.89994750000005
  0
ARC
  8
_0-0_0
  6
CONTINUOUS
 62
    7
 10
-138.886709
 20
460.29994150000005
 40
2
 50
273.84026500000004
 51
0.000010000000014
  0
LINE
  8
_0-0_0
  6
CONTINUOUS
 62
    7
 10
-152.18670800000007
 20
479.88343750000001
 11
-152.18670800000007
 21
480.59992950000003
  0
LINE
  8
_0-0_0
  6
CONTINUOUS
 62
    7
 10
-152.18670800000007
 20
479.88343750000001
 11
-152.18670800000007
 21
479.87730350000004
  0
LINE
  8
_0-0_0
  6
CONTINUOUS
 62
    7
 10
-154.18670800000007
 20
478.55525150000005
 11
-154.18670800000007
 21
479.05525150000005
  0
LINE
  8
_0-0_0
  6
CONTINUOUS
 62
    7
 10
-153.886708
 20
477.89994750000005
 11
-153.886708
 21
464.29994150000005
  0
LINE
  8
_0-0_0
  6
CONTINUOUS
 62
    7
 10
-153.886708
 20
463.79994150000005
 11
-153.886708
 21
464.29994150000005
  0
LINE
  8
_0-0_0
  6
CONTINUOUS
 62
    7
 10
-153.886708
 20
460.79994150000005
 11
-153.886708
 21
463.79994150000005
  0
LINE
  8
_0-0_0
  6
CONTINUOUS
 62
    7
 10
-153.886708
 20
460.29994150000005
 11
-153.886708
 21
460.79994150000005
  0
ARC
  8
_0-0_0
  6
CONTINUOUS
 62
    7
 10
-151.886708
 20
477.89994750000005
 40
2
 50
93.840255999999997
 51
180.00000900000001
  0
LINE
  8
_0-0_0
  6
CONTINUOUS
 62
    7
 10
-154.18670800000007
 20
466.09992950000003
 11
-154.18670800000007
 21
472.09992950000003
  0
LINE
  8
_0-0_0
  6
CONTINUOUS
 62
    7
 10
-154.18670800000007
 20
480.59992950000003
 11
-154.18670800000007
 21
479.05525150000005
  0
LINE
  8
_0-0_0
  6
CONTINUOUS
 62
    7
 10
-154.18670800000007
 20
472.09992950000003
 11
-153.88671699999998
 21
472.09992950000003
  0
LINE
  8
_0-0_0
  6
CONTINUOUS
 62
    7
 10
-154.18670800000007
 20
466.09992950000003
 11
-153.88671699999998
 21
466.09992950000003
  0
LINE
  8
_0-0_0
  6
CONTINUOUS
 62
    7
 10
-138.886709
 20
458.29994150000005
 11
-147.886707
 21
458.29994150000005
  0
LINE
  8
_0-0_0
  6
CONTINUOUS
 62
    7
 10
-151.386707
 20
458.29994150000005
 11
-151.886708
 21
458.29994150000005
  0
LINE
  8
_0-0_0
  6
CONTINUOUS
 62
    7
 10
-148.386707
 20
458.29994150000005
 11
-151.386707
 21
458.29994150000005
  0
LINE
  8
_0-0_0
  6
CONTINUOUS
 62
    7
 10
-147.886707
 20
458.29994150000005
 11
-148.386707
 21
458.29994150000005
  0
ARC
  8
_0-0_0
  6
CONTINUOUS
 62
    7
 10
-151.886708
 20
460.29994150000005
 40
2
 50
180.00000900000003
 51
269.99999700000001
  0
ARC
  8
_0-0_0
  6
CONTINUOUS
 62
    7
 10
-138.08670800000004
 20
482.79994150000005
 40
0.5
 50
0
 51
90.000003000000007
  0
LINE
  8
_0-0_0
  6
CONTINUOUS
 62
    7
 10
-139.58670800000004
 20
483.29994150000005
 11
-138.08670800000004
 21
483.29994150000005
  0
ARC
  8
_0-0_0
  6
CONTINUOUS
 62
    7
 10
-139.58670800000004
 20
484.29994150000005
 40
1
 50
180.00000900000003
 51
269.99999700000001
  0
LINE
  8
_0-0_0
  6
CONTINUOUS
 62
    7
 10
-140.58670800000004
 20
484.29994150000005
 11
-140.58670800000004
 21
484.40003950000005
  0
LINE
  8
_0-0_0
  6
CONTINUOUS
 62
    7
 10
-141.08670800000004
 20
483.29994150000005
 11
-141.08670800000004
 21
484.40003950000005
  0
ARC
  8
_0-0_0
  6
CONTINUOUS
 62
    7
 10
-140.08670800000004
 20
483.29994150000005
 40
1
 50
180.00000900000003
 51
269.99999700000001
  0
LINE
  8
_0-0_0
  6
CONTINUOUS
 62
    7
 10
-140.08670800000004
 20
482.29994150000005
 11
-140.28670899999997
 21
482.29994150000005
  0
ARC
  8
_0-0_0
  6
CONTINUOUS
 62
    7
 10
-140.28670899999997
 20
483.29994150000005
 40
1
 50
180.00000900000003
 51
269.99999700000001
  0
ARC
  8
_0-0_0
  6
CONTINUOUS
 62
    7
 10
-150.48670800000002
 20
483.29994150000005
 40
1
 50
269.99999700000001
 51
0
  0
LINE
  8
_0-0_0
  6
CONTINUOUS
 62
    7
 10
-150.48670800000002
 20
482.29994150000005
 11
-151.18670800000007
 21
482.29994150000005
  0
LINE
  8
_0-0_0
  6
CONTINUOUS
 62
    7
 10
-137.386709
 20
482.29994150000005
 11
-137.58670800000004
 21
482.29994150000005
  0
LINE
  8
_0-0_0
  6
CONTINUOUS
 62
    7
 10
-154.18670800000007
 20
480.59992950000003
 11
-137.386709
 21
480.59992950000003
  0
LINE
  8
_0-0_0
  6
CONTINUOUS
 62
    7
 10
-137.386709
 20
480.59992950000003
 11
-137.386709
 21
482.29994150000005
  0
LINE
  8
_0-0_0
  6
CONTINUOUS
 62
    7
 10
-141.28670899999997
 20
484.40003950000005
 11
-141.28670899999997
 21
483.29994150000005
  0
LINE
  8
_0-0_0
  6
CONTINUOUS
 62
    7
 10
-149.48671000000002
 20
483.29994150000005
 11
-149.48671000000002
 21
484.40003950000005
  0
LINE
  8
_0-0_0
  6
CONTINUOUS
 62
    7
 10
-153.18670800000007
 20
482.29994150000005
 11
-154.18670800000007
 21
482.29994150000005
  0
LINE
  8
_0-0_0
  6
CONTINUOUS
 62
    7
 10
-154.18670800000007
 20
480.59992950000003
 11
-154.18670800000007
 21
482.29994150000005
  0
LINE
  8
_0-0_0
  6
CONTINUOUS
 62
    7
 10
-138.886709
 20
479.89994750000005
 11
-139.386709
 21
479.89994750000005
  0
CIRCLE
  8
_0-0_0
  6
CONTINUOUS
 62
    7
 10
-139.386709
 20
477.39994750000005
 40
2.5
  0
LINE
  8
_0-0_0
  6
CONTINUOUS
 62
    7
 10
-151.886708
 20
479.89994750000005
 11
-142.886707
 21
479.89994750000005
  0
LINE
  8
_0-0_0
  6
CONTINUOUS
 62
    7
 10
-139.386709
 20
479.89994750000005
 11
-142.386707
 21
479.89994750000005
  0
LINE
  8
_0-0_0
  6
CONTINUOUS
 62
    7
 10
-142.886707
 20
479.89994750000005
 11
-142.386707
 21
479.89994750000005
  0
ARC
  8
_0-0_0
  6
CONTINUOUS
 62
    7
 10
-137.386709
 20
473.89994750000005
 40
0.5
 50
0
 51
90.000003000000007
  0
LINE
  8
_0-0_0
  6
CONTINUOUS
 62
    7
 10
-138.886709
 20
458.40257250000002
 11
-138.87082899999996
 21
458.37532050000004
  0
LINE
  8
_0-0_0
  6
CONTINUOUS
 62
    7
 10
-138.87082899999996
 20
458.37532050000004
 11
-138.85498400000006
 21
458.35234049999997
  0
LINE
  8
_0-0_0
  6
CONTINUOUS
 62
    7
 10
-138.85498400000006
 20
458.35234049999997
 11
-138.841003
 21
458.33558649999998
  0
LINE
  8
_0-0_0
  6
CONTINUOUS
 62
    7
 10
-138.841003
 20
458.33558649999998
 11
-138.82710499999996
 21
458.3222505
  0
LINE
  8
_0-0_0
  6
CONTINUOUS
 62
    7
 10
-138.82710499999996
 20
458.3222505
 11
-138.814888
 21
458.31333949999998
  0
LINE
  8
_0-0_0
  6
CONTINUOUS
 62
    7
 10
-138.814888
 20
458.31333949999998
 11
-138.80276900000001
 21
458.30711350000001
  0
LINE
  8
_0-0_0
  6
CONTINUOUS
 62
    7
 10
-138.80276900000001
 20
458.30711350000001
 11
-138.79190200000005
 21
458.30384849999996
  0
LINE
  8
_0-0_0
  6
CONTINUOUS
 62
    7
 10
-138.79190200000005
 20
458.30384849999996
 11
-138.78114300000004
 21
458.30278050000004
  0
LINE
  8
_0-0_0
  6
CONTINUOUS
 62
    7
 10
-138.78114300000004
 20
458.30278050000004
 11
-138.778683
 21
458.30287150000004
  0
LINE
  8
_0-0_0
  6
CONTINUOUS
 62
    7
 10
-153.18670800000007
 20
479.41981450000003
 11
-153.18670800000007
 21
480.59901449999995
  0
ARC
  8
_0-0_0
  6
CONTINUOUS
 62
    7
 10
-153.386708
 20
464.29994150000005
 40
0.5
 50
180.00000900000003
 51
269.99999700000001
  0
CIRCLE
  8
_0-0_0
  6
CONTINUOUS
 62
    7
 10
-151.386707
 20
460.79994150000005
 40
2.5
  0
LINE
  8
_0-0_0
  6
CONTINUOUS
 62
    7
 10
-151.886707
 20
479.79731749999996
 11
-151.90258900000003
 21
479.82456950000005
  0
LINE
  8
_0-0_0
  6
CONTINUOUS
 62
    7
 10
-151.90258900000003
 20
479.82456950000005
 11
-151.91843400000005
 21
479.84754950000001
  0
LINE
  8
_0-0_0
  6
CONTINUOUS
 62
    7
 10
-151.91843400000005
 20
479.84754950000001
 11
-151.932413
 21
479.86430350000001
  0
LINE
  8
_0-0_0
  6
CONTINUOUS
 62
    7
 10
-151.932413
 20
479.86430350000001
 11
-151.94631400000003
 21
479.87763949999999
  0
LINE
  8
_0-0_0
  6
CONTINUOUS
 62
    7
 10
-151.94631400000003
 20
479.87763949999999
 11
-151.95853
 21
479.8865505
  0
LINE
  8
_0-0_0
  6
CONTINUOUS
 62
    7
 10
-151.95853
 20
479.8865505
 11
-151.97064999999998
 21
479.89277649999997
  0
LINE
  8
_0-0_0
  6
CONTINUOUS
 62
    7
 10
-151.97064999999998
 20
479.89277649999997
 11
-151.98151500000006
 21
479.89604150000002
  0
LINE
  8
_0-0_0
  6
CONTINUOUS
 62
    7
 10
-151.98151500000006
 20
479.89604150000002
 11
-151.99227400000007
 21
479.89710950000006
  0
LINE
  8
_0-0_0
  6
CONTINUOUS
 62
    7
 10
-151.99227400000007
 20
479.89710950000006
 11
-151.99473599999999
 21
479.89701850000006
  0
LINE
  8
_0-0_0
  6
CONTINUOUS
 62
    7
 10
-154.18670800000007
 20
461.69993550000004
 11
-154.28670899999997
 21
461.69993550000004
  0
LINE
  8
_0-0_0
  6
CONTINUOUS
 62
    7
 10
-154.28670899999997
 20
461.69993550000004
 11
-154.28670899999997
 21
464.69993550000004
  0
LINE
  8
_0-0_0
  6
CONTINUOUS
 62
    7
 10
-154.28670899999997
 20
464.69993550000004
 11
-154.28670899999997
 21
478.29994150000005
  0
LINE
  8
_0-0_0
  6
CONTINUOUS
 62
    7
 10
-154.18670800000007
 20
481.29994150000005
 11
-154.28670899999997
 21
481.29994150000005
  0
LINE
  8
_0-0_0
  6
CONTINUOUS
 62
    7
 10
-154.28670899999997
 20
478.29994150000005
 11
-154.28670899999997
 21
481.29994150000005
  0
ARC
  8
_0-0_0
  6
CONTINUOUS
 62
    7
 10
-147.886707
 20
458.79994150000005
 40
0.5
 50
180.00000900000003
 51
269.99999700000001
  0
ARC
  8
_0-0_0
  6
CONTINUOUS
 62
    7
 10
-151.18670800000007
 20
483.80000250000001
 40
1.5
 50
269.99999700000001
 51
0
  0
ARC
  8
_0-0_0
  6
CONTINUOUS
 62
    7
 10
-152.68670800000007
 20
482.80000250000001
 40
0.5
 50
90.000003000000007
 51
180.00000900000001
  0
LINE
  8
_0-0_0
  6
CONTINUOUS
 62
    7
 10
-152.68670800000007
 20
483.30000250000001
 11
-151.18670800000007
 21
483.30000250000001
  0
ARC
  8
_0-0_0
  6
CONTINUOUS
 62
    7
 10
-151.18670800000007
 20
484.30000250000001
 40
1
 50
269.99999700000001
 51
0
  0
LINE
  8
_0-0_0
  6
CONTINUOUS
 62
    7
 10
-150.18670800000007
 20
484.40003950000005
 11
-150.18670800000007
 21
484.30000250000001
  0
LINE
  8
_0-0_0
  6
CONTINUOUS
 62
    7
 10
-149.68670800000007
 20
484.40003950000005
 11
-149.68670800000007
 21
483.80000250000001
  0
LINE
  8
_0-0_0
  6
CONTINUOUS
 62
    7
 10
-153.18670800000007
 20
482.30000250000001
 11
-153.18670800000007
 21
482.80000250000001
  0
ARC
  8
_0-0_0
  6
CONTINUOUS
 62
    7
 10
-142.886707
 20
479.39994750000005
 40
0.5
 50
0
 51
90.000003000000007
  0
LINE
  8
_0-0_0
  6
CONTINUOUS
 62
    7
 10
-142.386707
 20
479.32295250000004
 11
-142.386707
 21
479.39994750000005
  0
LINE
  8
_0-0_0
  6
CONTINUOUS
 62
    7
 10
-142.386707
 20
477.88145450000002
 11
-142.386707
 21
479.32295250000004
  0
LINE
  8
_0-0_0
  6
CONTINUOUS
 62
    7
 10
-142.386707
 20
477.39994750000005
 11
-142.386707
 21
477.88145450000002
  0
ARC
  8
_0-0_0
  6
CONTINUOUS
 62
    7
 10
-139.386709
 20
477.39994750000005
 40
3
 50
180.00000900000003
 51
269.99999700000001
  0
LINE
  8
_0-0_0
  6
CONTINUOUS
 62
    7
 10
-138.90520700000002
 20
474.39994750000005
 11
-139.386709
 21
474.39994750000005
  0
LINE
  8
_0-0_0
  6
CONTINUOUS
 62
    7
 10
-138.90520700000002
 20
474.39994750000005
 11
-137.46368400000006
 21
474.39994750000005
  0
LINE
  8
_0-0_0
  6
CONTINUOUS
 62
    7
 10
-137.386709
 20
474.39994750000005
 11
-137.46368400000006
 21
474.39994750000005
  0
LINE
  8
_0-0_0
  6
CONTINUOUS
 62
    7
 10
-153.30973300000005
 20
463.79994150000005
 11
-153.386708
 21
463.79994150000005
  0
LINE
  8
_0-0_0
  6
CONTINUOUS
 62
    7
 10
-151.386707
 20
463.79994150000005
 11
-151.86820999999998
 21
463.79994150000005
  0
LINE
  8
_0-0_0
  6
CONTINUOUS
 62
    7
 10
-151.86820999999998
 20
463.79994150000005
 11
-153.30973300000005
 21
463.79994150000005
  0
LINE
  8
_0-0_0
  6
CONTINUOUS
 62
    7
 10
-148.386707
 20
458.79994150000005
 11
-148.386707
 21
458.87690750000002
  0
LINE
  8
_0-0_0
  6
CONTINUOUS
 62
    7
 10
-148.386707
 20
460.31843549999996
 11
-148.386707
 21
458.87690750000002
  0
LINE
  8
_0-0_0
  6
CONTINUOUS
 62
    7
 10
-148.386707
 20
460.31843549999996
 11
-148.386707
 21
460.79994150000005
  0
ARC
  8
_0-0_0
  6
CONTINUOUS
 62
    7
 10
-151.386707
 20
460.79994150000005
 40
3
 50
0
 51
89.999995999999996
  0
LINE
  8
_0-0_0
  6
CONTINUOUS
 62
    7
 10
-136.886709
 20
481.41120850000004
 11
-136.886709
 21
479.52494750000005
  0
LINE
  8
_0-0_0
  6
CONTINUOUS
 62
    7
 10
-136.886709
 20
482.07493550000004
 11
-136.886709
 21
481.41120850000004
  0
ARC
  8
_0-0_0
  6
CONTINUOUS
 62
    7
 10
-142.15659100000005
 20
470.27317749999997
 40
3.063396
 50
19.82113
 51
25.289563000000001
  0
ARC
  8
_0-0_0
  6
CONTINUOUS
 62
    7
 10
-142.15627100000006
 20
467.92655950000005
 40
3.0630519999999999
 50
334.71006
 51
340.17869200000001
  0
ARC
  8
_0-0_0
  6
CONTINUOUS
 62
    7
 10
-148.61682300000007
 20
467.92671150000001
 40
3.063399
 50
199.82113599999997
 51
205.28948099999999
  0
ARC
  8
_0-0_0
  6
CONTINUOUS
 62
    7
 10
-148.61714200000006
 20
470.27333050000004
 40
3.0630549999999999
 50
154.710137
 51
160.17869999999999
  0
ARC
  8
_0-0_0
  6
CONTINUOUS
 62
    7
 10
-145.386707
 20
469.09992950000003
 40
6.5
 50
340.10416099999998
 51
19.895609999999952
  0
ARC
  8
_0-0_0
  6
CONTINUOUS
 62
    7
 10
-145.386707
 20
469.09992950000003
 40
6.5
 50
160.10415599999999
 51
199.895612
  0
LINE
  8
_0-0_0
  6
CONTINUOUS
 62
    7
 10
-153.886708
 20
480.18873550000001
 11
-153.886708
 21
480.59907550000003
  0
LINE
  8
_0-0_0
  6
CONTINUOUS
 62
    7
 10
-153.886708
 20
479.52986150000004
 11
-153.886708
 21
480.18873550000001
  0
LINE
  8
_0-0_0
  6
CONTINUOUS
 62
    7
 10
-146.128378
 20
475.59992950000003
 11
-150.645039
 21
472.9922335
  0
LINE
  8
_0-0_0
  6
CONTINUOUS
 62
    7
 10
-144.645039
 20
475.59992950000003
 11
-146.128378
 21
475.59992950000003
  0
LINE
  8
_0-0_0
  6
CONTINUOUS
 62
    7
 10
-140.128378
 20
472.9922335
 11
-144.645039
 21
475.59992950000003
  0
LINE
  8
_0-0_0
  6
CONTINUOUS
 62
    7
 10
-139.386709
 20
471.70762649999995
 11
-139.386709
 21
466.4922335
  0
LINE
  8
_0-0_0
  6
CONTINUOUS
 62
    7
 10
-140.128378
 20
472.9922335
 11
-139.386709
 21
471.70762649999995
  0
LINE
  8
_0-0_0
  6
CONTINUOUS
 62
    7
 10
-144.645039
 20
462.59992950000003
 11
-140.128378
 21
465.20762649999995
  0
LINE
  8
_0-0_0
  6
CONTINUOUS
 62
    7
 10
-139.83425299999999
 20
465.71708650000005
 11
-139.386709
 21
466.4922335
  0
LINE
  8
_0-0_0
  6
CONTINUOUS
 62
    7
 10
-139.83425299999999
 20
465.71708650000005
 11
-140.128378
 21
465.20762649999995
  0
LINE
  8
_0-0_0
  6
CONTINUOUS
 62
    7
 10
-146.128378
 20
462.59992950000003
 11
-144.645039
 21
462.59992950000003
  0
LINE
  8
_0-0_0
  6
CONTINUOUS
 62
    7
 10
-150.645039
 20
465.20762649999995
 11
-146.128378
 21
462.59992950000003
  0
LINE
  8
_0-0_0
  6
CONTINUOUS
 62
    7
 10
-151.386707
 20
471.70762649999995
 11
-151.386707
 21
466.4922335
  0
LINE
  8
_0-0_0
  6
CONTINUOUS
 62
    7
 10
-150.645039
 20
465.20762649999995
 11
-151.386707
 21
466.4922335
  0
LINE
  8
_0-0_0
  6
CONTINUOUS
 62
    7
 10
-150.93916300000001
 20
472.48280350000005
 11
-151.386707
 21
471.70762649999995
  0
LINE
  8
_0-0_0
  6
CONTINUOUS
 62
    7
 10
-150.93916300000001
 20
472.48280350000005
 11
-150.645039
 21
472.9922335
  0
LINE
  8
_0-0_0
  6
CONTINUOUS
 62
    7
 10
-137.49970099999996
 20
478.6253815
 11
-137.22164499999997
 21
478.64994750000005
  0
LINE
  8
_0-0_0
  6
CONTINUOUS
 62
    7
 10
-137.38194499999997
 20
478.42143250000004
 11
-137.22164499999997
 21
478.64994750000005
  0
LINE
  8
_0-0_0
  6
CONTINUOUS
 62
    7
 10
-137.63813000000005
 20
478.81590249999999
 11
-137.36416600000007
 21
478.86939949999999
  0
LINE
  8
_0-0_0
  6
CONTINUOUS
 62
    7
 10
-137.49970099999996
 20
478.6253815
 11
-137.36416600000007
 21
478.86939949999999
  0
LINE
  8
_0-0_0
  6
CONTINUOUS
 62
    7
 10
-137.79571899999996
 20
478.99092050000002
 11
-137.52884700000004
 21
479.07276950000005
  0
LINE
  8
_0-0_0
  6
CONTINUOUS
 62
    7
 10
-137.63813000000005
 20
478.81590249999999
 11
-137.52884700000004
 21
479.07276950000005
  0
LINE
  8
_0-0_0
  6
CONTINUOUS
 62
    7
 10
-137.97073699999999
 20
479.14851350000004
 11
-137.71388200000001
 21
479.25779750000004
  0
LINE
  8
_0-0_0
  6
CONTINUOUS
 62
    7
 10
-137.79571899999996
 20
478.99092050000002
 11
-137.71388200000001
 21
479.25779750000004
  0
LINE
  8
_0-0_0
  6
CONTINUOUS
 62
    7
 10
-138.16127000000006
 20
479.28694150000001
 11
-137.91724599999998
 21
479.42250049999996
  0
LINE
  8
_0-0_0
  6
CONTINUOUS
 62
    7
 10
-137.97073699999999
 20
479.14851350000004
 11
-137.91724599999998
 21
479.42250049999996
  0
LINE
  8
_0-0_0
  6
CONTINUOUS
 62
    7
 10
-138.36523099999999
 20
479.40470849999997
 11
-138.136709
 21
479.56501749999995
  0
LINE
  8
_0-0_0
  6
CONTINUOUS
 62
    7
 10
-138.16127000000006
 20
479.28694150000001
 11
-138.136709
 21
479.56501749999995
  0
LINE
  8
_0-0_0
  6
CONTINUOUS
 62
    7
 10
-138.58038099999999
 20
479.50050350000004
 11
-138.369867
 21
479.68379149999998
  0
LINE
  8
_0-0_0
  6
CONTINUOUS
 62
    7
 10
-138.36523099999999
 20
479.40470849999997
 11
-138.369867
 21
479.68379149999998
  0
LINE
  8
_0-0_0
  6
CONTINUOUS
 62
    7
 10
-138.80436499999996
 20
479.57328749999999
 11
-138.61416600000007
 21
479.77757250000002
  0
LINE
  8
_0-0_0
  6
CONTINUOUS
 62
    7
 10
-138.58038099999999
 20
479.50050350000004
 11
-138.61416600000007
 21
479.77757250000002
  0
LINE
  8
_0-0_0
  6
CONTINUOUS
 62
    7
 10
-139.03473099999997
 20
479.62223849999998
 11
-138.86693000000002
 21
479.84532149999995
  0
LINE
  8
_0-0_0
  6
CONTINUOUS
 62
    7
 10
-138.80436499999996
 20
479.57328749999999
 11
-138.86693000000002
 21
479.84532149999995
  0
LINE
  8
_0-0_0
  6
CONTINUOUS
 62
    7
 10
-139.26895300000001
 20
479.64686549999999
 11
-139.12538700000005
 21
479.88624549999997
  0
LINE
  8
_0-0_0
  6
CONTINUOUS
 62
    7
 10
-139.03473099999997
 20
479.62223849999998
 11
-139.12538700000005
 21
479.88624549999997
  0
LINE
  8
_0-0_0
  6
CONTINUOUS
 62
    7
 10
-139.50446499999998
 20
479.64686549999999
 11
-139.386709
 21
479.89994750000005
  0
LINE
  8
_0-0_0
  6
CONTINUOUS
 62
    7
 10
-139.26895300000001
 20
479.64686549999999
 11
-139.386709
 21
479.89994750000005
  0
LINE
  8
_0-0_0
  6
CONTINUOUS
 62
    7
 10
-139.73868600000003
 20
479.62223849999998
 11
-139.64802900000007
 21
479.88624549999997
  0
LINE
  8
_0-0_0
  6
CONTINUOUS
 62
    7
 10
-139.50446499999998
 20
479.64686549999999
 11
-139.64802900000007
 21
479.88624549999997
  0
LINE
  8
_0-0_0
  6
CONTINUOUS
 62
    7
 10
-139.96905100000004
 20
479.57328749999999
 11
-139.90648799999997
 21
479.84532149999995
  0
LINE
  8
_0-0_0
  6
CONTINUOUS
 62
    7
 10
-139.73868600000003
 20
479.62223849999998
 11
-139.90648799999997
 21
479.84532149999995
  0
LINE
  8
_0-0_0
  6
CONTINUOUS
 62
    7
 10
-140.193037
 20
479.50050350000004
 11
-140.15925000000004
 21
479.77757250000002
  0
LINE
  8
_0-0_0
  6
CONTINUOUS
 62
    7
 10
-139.96905100000004
 20
479.57328749999999
 11
-140.15925000000004
 21
479.77757250000002
  0
LINE
  8
_0-0_0
  6
CONTINUOUS
 62
    7
 10
-140.408188
 20
479.40470849999997
 11
-140.40355099999999
 21
479.68379149999998
  0
LINE
  8
_0-0_0
  6
CONTINUOUS
 62
    7
 10
-140.193037
 20
479.50050350000004
 11
-140.40355099999999
 21
479.68379149999998
  0
LINE
  8
_0-0_0
  6
CONTINUOUS
 62
    7
 10
-140.52772500000003
 20
479.48857150000003
 11
-140.636709
 21
479.56501749999995
  0
LINE
  8
_0-0_0
  6
CONTINUOUS
 62
    7
 10
-140.408188
 20
479.40470849999997
 11
-140.52772500000003
 21
479.48857150000003
  0
LINE
  8
_0-0_0
  6
CONTINUOUS
 62
    7
 10
-140.61214600000005
 20
479.28694150000001
 11
-140.636709
 21
479.56501749999995
  0
LINE
  8
_0-0_0
  6
CONTINUOUS
 62
    7
 10
-140.80267900000001
 20
479.14851350000004
 11
-140.85617300000001
 21
479.42250049999996
  0
LINE
  8
_0-0_0
  6
CONTINUOUS
 62
    7
 10
-140.61214600000005
 20
479.28694150000001
 11
-140.85617300000001
 21
479.42250049999996
  0
LINE
  8
_0-0_0
  6
CONTINUOUS
 62
    7
 10
-140.97769900000003
 20
478.99092050000002
 11
-141.05953599999998
 21
479.25779750000004
  0
LINE
  8
_0-0_0
  6
CONTINUOUS
 62
    7
 10
-140.80267900000001
 20
479.14851350000004
 11
-141.05953599999998
 21
479.25779750000004
  0
LINE
  8
_0-0_0
  6
CONTINUOUS
 62
    7
 10
-141.13528600000006
 20
478.81590249999999
 11
-141.24457000000007
 21
479.07276950000005
  0
LINE
  8
_0-0_0
  6
CONTINUOUS
 62
    7
 10
-140.97769900000003
 20
478.99092050000002
 11
-141.24457000000007
 21
479.07276950000005
  0
LINE
  8
_0-0_0
  6
CONTINUOUS
 62
    7
 10
-141.27371800000003
 20
478.6253815
 11
-141.40925000000004
 21
478.86939949999999
  0
LINE
  8
_0-0_0
  6
CONTINUOUS
 62
    7
 10
-141.13528600000006
 20
478.81590249999999
 11
-141.40925000000004
 21
478.86939949999999
  0
LINE
  8
_0-0_0
  6
CONTINUOUS
 62
    7
 10
-141.39147400000002
 20
478.42143250000004
 11
-141.55177100000003
 21
478.64994750000005
  0
LINE
  8
_0-0_0
  6
CONTINUOUS
 62
    7
 10
-141.27371800000003
 20
478.6253815
 11
-141.55177100000003
 21
478.64994750000005
  0
LINE
  8
_0-0_0
  6
CONTINUOUS
 62
    7
 10
-141.48726499999998
 20
478.20628350000004
 11
-141.67057199999999
 21
478.41679350000004
  0
LINE
  8
_0-0_0
  6
CONTINUOUS
 62
    7
 10
-141.39147400000002
 20
478.42143250000004
 11
-141.67057199999999
 21
478.41679350000004
  0
LINE
  8
_0-0_0
  6
CONTINUOUS
 62
    7
 10
-141.56004099999996
 20
477.98228449999999
 11
-141.76434900000004
 21
478.17250049999996
  0
LINE
  8
_0-0_0
  6
CONTINUOUS
 62
    7
 10
-141.48726499999998
 20
478.20628350000004
 11
-141.76434900000004
 21
478.17250049999996
  0
LINE
  8
_0-0_0
  6
CONTINUOUS
 62
    7
 10
-141.60900700000002
 20
477.75190750000002
 11
-141.83207700000003
 21
477.91972350000003
  0
LINE
  8
_0-0_0
  6
CONTINUOUS
 62
    7
 10
-141.56004099999996
 20
477.98228449999999
 11
-141.83207700000003
 21
477.91972350000003
  0
LINE
  8
_0-0_0
  6
CONTINUOUS
 62
    7
 10
-141.60900700000002
 20
477.75190750000002
 11
-141.87301200000002
 21
477.6612705
  0
LINE
  8
_0-0_0
  6
CONTINUOUS
 62
    7
 10
-141.63362500000005
 20
477.51768449999997
 11
-141.87301200000002
 21
477.6612705
  0
LINE
  8
_0-0_0
  6
CONTINUOUS
 62
    7
 10
-141.63362500000005
 20
477.28218049999998
 11
-141.886709
 21
477.39994750000005
  0
LINE
  8
_0-0_0
  6
CONTINUOUS
 62
    7
 10
-141.63362500000005
 20
477.51768449999997
 11
-141.886709
 21
477.39994750000005
  0
LINE
  8
_0-0_0
  6
CONTINUOUS
 62
    7
 10
-141.60900700000002
 20
477.04795850000005
 11
-141.87301200000002
 21
477.13862549999999
  0
LINE
  8
_0-0_0
  6
CONTINUOUS
 62
    7
 10
-141.63362500000005
 20
477.28218049999998
 11
-141.87301200000002
 21
477.13862549999999
  0
LINE
  8
_0-0_0
  6
CONTINUOUS
 62
    7
 10
-141.56004099999996
 20
476.8176115
 11
-141.83207700000003
 21
476.88017249999996
  0
LINE
  8
_0-0_0
  6
CONTINUOUS
 62
    7
 10
-141.60900700000002
 20
477.04795850000005
 11
-141.83207700000003
 21
476.88017249999996
  0
LINE
  8
_0-0_0
  6
CONTINUOUS
 62
    7
 10
-141.48726499999998
 20
476.59361249999995
 11
-141.76434900000004
 21
476.62739550000003
  0
LINE
  8
_0-0_0
  6
CONTINUOUS
 62
    7
 10
-141.56004099999996
 20
476.8176115
 11
-141.76434900000004
 21
476.62739550000003
  0
LINE
  8
_0-0_0
  6
CONTINUOUS
 62
    7
 10
-141.39147400000002
 20
476.37846349999995
 11
-141.67057199999999
 21
476.38310249999995
  0
LINE
  8
_0-0_0
  6
CONTINUOUS
 62
    7
 10
-141.48726499999998
 20
476.59361249999995
 11
-141.67057199999999
 21
476.38310249999995
  0
LINE
  8
_0-0_0
  6
CONTINUOUS
 62
    7
 10
-141.27371800000003
 20
476.17451449999999
 11
-141.55177100000003
 21
476.14994750000005
  0
LINE
  8
_0-0_0
  6
CONTINUOUS
 62
    7
 10
-141.39147400000002
 20
476.37846349999995
 11
-141.55177100000003
 21
476.14994750000005
  0
LINE
  8
_0-0_0
  6
CONTINUOUS
 62
    7
 10
-141.13528600000006
 20
475.98396249999996
 11
-141.40925000000004
 21
475.9304965
  0
LINE
  8
_0-0_0
  6
CONTINUOUS
 62
    7
 10
-141.27371800000003
 20
476.17451449999999
 11
-141.40925000000004
 21
475.9304965
  0
LINE
  8
_0-0_0
  6
CONTINUOUS
 62
    7
 10
-140.97769900000003
 20
475.80894450000005
 11
-141.24457000000007
 21
475.72712650000005
  0
LINE
  8
_0-0_0
  6
CONTINUOUS
 62
    7
 10
-141.13528600000006
 20
475.98396249999996
 11
-141.24457000000007
 21
475.72712650000005
  0
LINE
  8
_0-0_0
  6
CONTINUOUS
 62
    7
 10
-140.80267900000001
 20
475.65135150000003
 11
-141.05953599999998
 21
475.54206850000003
  0
LINE
  8
_0-0_0
  6
CONTINUOUS
 62
    7
 10
-140.97769900000003
 20
475.80894450000005
 11
-141.05953599999998
 21
475.54206850000003
  0
LINE
  8
_0-0_0
  6
CONTINUOUS
 62
    7
 10
-140.61214600000005
 20
475.51292450000005
 11
-140.85617300000001
 21
475.37739550000003
  0
LINE
  8
_0-0_0
  6
CONTINUOUS
 62
    7
 10
-140.80267900000001
 20
475.65135150000003
 11
-140.85617300000001
 21
475.37739550000003
  0
LINE
  8
_0-0_0
  6
CONTINUOUS
 62
    7
 10
-140.408188
 20
475.39518750000002
 11
-140.636709
 21
475.23487850000004
  0
LINE
  8
_0-0_0
  6
CONTINUOUS
 62
    7
 10
-140.61214600000005
 20
475.51292450000005
 11
-140.636709
 21
475.23487850000004
  0
LINE
  8
_0-0_0
  6
CONTINUOUS
 62
    7
 10
-140.193037
 20
475.29939249999995
 11
-140.40355099999999
 21
475.11607349999997
  0
LINE
  8
_0-0_0
  6
CONTINUOUS
 62
    7
 10
-140.408188
 20
475.39518750000002
 11
-140.40355099999999
 21
475.11607349999997
  0
LINE
  8
_0-0_0
  6
CONTINUOUS
 62
    7
 10
-139.96905100000004
 20
475.2266085
 11
-140.15925000000004
 21
475.02229250000005
  0
LINE
  8
_0-0_0
  6
CONTINUOUS
 62
    7
 10
-140.193037
 20
475.29939249999995
 11
-140.15925000000004
 21
475.02229250000005
  0
LINE
  8
_0-0_0
  6
CONTINUOUS
 62
    7
 10
-139.73868600000003
 20
475.17765750000001
 11
-139.90648799999997
 21
474.95457450000004
  0
LINE
  8
_0-0_0
  6
CONTINUOUS
 62
    7
 10
-139.96905100000004
 20
475.2266085
 11
-139.90648799999997
 21
474.95457450000004
  0
LINE
  8
_0-0_0
  6
CONTINUOUS
 62
    7
 10
-139.50446499999998
 20
475.1530305
 11
-139.64802900000007
 21
474.91365050000002
  0
LINE
  8
_0-0_0
  6
CONTINUOUS
 62
    7
 10
-139.73868600000003
 20
475.17765750000001
 11
-139.64802900000007
 21
474.91365050000002
  0
LINE
  8
_0-0_0
  6
CONTINUOUS
 62
    7
 10
-139.26895300000001
 20
475.1530305
 11
-139.386709
 21
474.89994750000005
  0
LINE
  8
_0-0_0
  6
CONTINUOUS
 62
    7
 10
-139.50446499999998
 20
475.1530305
 11
-139.386709
 21
474.89994750000005
  0
LINE
  8
_0-0_0
  6
CONTINUOUS
 62
    7
 10
-139.03473099999997
 20
475.17765750000001
 11
-139.12538700000005
 21
474.91365050000002
  0
LINE
  8
_0-0_0
  6
CONTINUOUS
 62
    7
 10
-139.26895300000001
 20
475.1530305
 11
-139.12538700000005
 21
474.91365050000002
  0
LINE
  8
_0-0_0
  6
CONTINUOUS
 62
    7
 10
-138.80436499999996
 20
475.2266085
 11
-138.86693000000002
 21
474.95457450000004
  0
LINE
  8
_0-0_0
  6
CONTINUOUS
 62
    7
 10
-139.03473099999997
 20
475.17765750000001
 11
-138.86693000000002
 21
474.95457450000004
  0
LINE
  8
_0-0_0
  6
CONTINUOUS
 62
    7
 10
-138.58038099999999
 20
475.29939249999995
 11
-138.61416600000007
 21
475.02229250000005
  0
LINE
  8
_0-0_0
  6
CONTINUOUS
 62
    7
 10
-138.80436499999996
 20
475.2266085
 11
-138.61416600000007
 21
475.02229250000005
  0
LINE
  8
_0-0_0
  6
CONTINUOUS
 62
    7
 10
-138.36523099999999
 20
475.39518750000002
 11
-138.369867
 21
475.11607349999997
  0
LINE
  8
_0-0_0
  6
CONTINUOUS
 62
    7
 10
-138.58038099999999
 20
475.29939249999995
 11
-138.369867
 21
475.11607349999997
  0
LINE
  8
_0-0_0
  6
CONTINUOUS
 62
    7
 10
-138.24569299999996
 20
475.31132449999996
 11
-138.136709
 21
475.23487850000004
  0
LINE
  8
_0-0_0
  6
CONTINUOUS
 62
    7
 10
-138.36523099999999
 20
475.39518750000002
 11
-138.24569299999996
 21
475.31132449999996
  0
LINE
  8
_0-0_0
  6
CONTINUOUS
 62
    7
 10
-138.16127000000006
 20
475.51292450000005
 11
-138.136709
 21
475.23487850000004
  0
LINE
  8
_0-0_0
  6
CONTINUOUS
 62
    7
 10
-137.97073699999999
 20
475.65135150000003
 11
-137.91724599999998
 21
475.37739550000003
  0
LINE
  8
_0-0_0
  6
CONTINUOUS
 62
    7
 10
-138.16127000000006
 20
475.51292450000005
 11
-137.91724599999998
 21
475.37739550000003
  0
LINE
  8
_0-0_0
  6
CONTINUOUS
 62
    7
 10
-137.79571899999996
 20
475.80894450000005
 11
-137.71388200000001
 21
475.54206850000003
  0
LINE
  8
_0-0_0
  6
CONTINUOUS
 62
    7
 10
-137.97073699999999
 20
475.65135150000003
 11
-137.71388200000001
 21
475.54206850000003
  0
LINE
  8
_0-0_0
  6
CONTINUOUS
 62
    7
 10
-137.63813000000005
 20
475.98396249999996
 11
-137.52884700000004
 21
475.72712650000005
  0
LINE
  8
_0-0_0
  6
CONTINUOUS
 62
    7
 10
-137.79571899999996
 20
475.80894450000005
 11
-137.52884700000004
 21
475.72712650000005
  0
LINE
  8
_0-0_0
  6
CONTINUOUS
 62
    7
 10
-137.49970099999996
 20
476.17451449999999
 11
-137.36416600000007
 21
475.9304965
  0
LINE
  8
_0-0_0
  6
CONTINUOUS
 62
    7
 10
-137.63813000000005
 20
475.98396249999996
 11
-137.36416600000007
 21
475.9304965
  0
LINE
  8
_0-0_0
  6
CONTINUOUS
 62
    7
 10
-137.38194499999997
 20
476.37846349999995
 11
-137.22164499999997
 21
476.14994750000005
  0
LINE
  8
_0-0_0
  6
CONTINUOUS
 62
    7
 10
-137.49970099999996
 20
476.17451449999999
 11
-137.22164499999997
 21
476.14994750000005
  0
LINE
  8
_0-0_0
  6
CONTINUOUS
 62
    7
 10
-137.28615200000002
 20
476.59361249999995
 11
-137.102846
 21
476.38310249999995
  0
LINE
  8
_0-0_0
  6
CONTINUOUS
 62
    7
 10
-137.38194499999997
 20
476.37846349999995
 11
-137.102846
 21
476.38310249999995
  0
LINE
  8
_0-0_0
  6
CONTINUOUS
 62
    7
 10
-137.21337500000004
 20
476.8176115
 11
-137.00906699999996
 21
476.62739550000003
  0
LINE
  8
_0-0_0
  6
CONTINUOUS
 62
    7
 10
-137.28615200000002
 20
476.59361249999995
 11
-137.00906699999996
 21
476.62739550000003
  0
LINE
  8
_0-0_0
  6
CONTINUOUS
 62
    7
 10
-137.16440999999998
 20
477.04795850000005
 11
-136.94133899999997
 21
476.88017249999996
  0
LINE
  8
_0-0_0
  6
CONTINUOUS
 62
    7
 10
-137.21337500000004
 20
476.8176115
 11
-136.94133899999997
 21
476.88017249999996
  0
LINE
  8
_0-0_0
  6
CONTINUOUS
 62
    7
 10
-137.13979300000005
 20
477.28218049999998
 11
-136.90040399999998
 21
477.13862549999999
  0
LINE
  8
_0-0_0
  6
CONTINUOUS
 62
    7
 10
-137.16440999999998
 20
477.04795850000005
 11
-136.90040399999998
 21
477.13862549999999
  0
LINE
  8
_0-0_0
  6
CONTINUOUS
 62
    7
 10
-137.13979300000005
 20
477.51768449999997
 11
-136.886709
 21
477.39994750000005
  0
LINE
  8
_0-0_0
  6
CONTINUOUS
 62
    7
 10
-137.13979300000005
 20
477.28218049999998
 11
-136.886709
 21
477.39994750000005
  0
LINE
  8
_0-0_0
  6
CONTINUOUS
 62
    7
 10
-137.16440999999998
 20
477.75190750000002
 11
-136.90040399999998
 21
477.6612705
  0
LINE
  8
_0-0_0
  6
CONTINUOUS
 62
    7
 10
-137.13979300000005
 20
477.51768449999997
 11
-136.90040399999998
 21
477.6612705
  0
LINE
  8
_0-0_0
  6
CONTINUOUS
 62
    7
 10
-137.21337500000004
 20
477.98228449999999
 11
-136.94133899999997
 21
477.91972350000003
  0
LINE
  8
_0-0_0
  6
CONTINUOUS
 62
    7
 10
-137.16440999999998
 20
477.75190750000002
 11
-136.94133899999997
 21
477.91972350000003
  0
LINE
  8
_0-0_0
  6
CONTINUOUS
 62
    7
 10
-137.28615200000002
 20
478.20628350000004
 11
-137.00906699999996
 21
478.17250049999996
  0
LINE
  8
_0-0_0
  6
CONTINUOUS
 62
    7
 10
-137.21337500000004
 20
477.98228449999999
 11
-137.00906699999996
 21
478.17250049999996
  0
LINE
  8
_0-0_0
  6
CONTINUOUS
 62
    7
 10
-137.38194499999997
 20
478.42143250000004
 11
-137.102846
 21
478.41679350000004
  0
LINE
  8
_0-0_0
  6
CONTINUOUS
 62
    7
 10
-137.28615200000002
 20
478.20628350000004
 11
-137.102846
 21
478.41679350000004
  0
CIRCLE
  8
_0-0_0
  6
CONTINUOUS
 62
    7
 10
-145.386707
 20
469.09992950000003
 40
5.25
  0
LINE
  8
_0-0_0
  6
CONTINUOUS
 62
    7
 10
-149.49969899999996
 20
462.0253755
 11
-149.22164499999997
 21
462.04994150000005
  0
LINE
  8
_0-0_0
  6
CONTINUOUS
 62
    7
 10
-149.38194299999998
 20
461.82142650000003
 11
-149.22164499999997
 21
462.04994150000005
  0
LINE
  8
_0-0_0
  6
CONTINUOUS
 62
    7
 10
-149.63813000000005
 20
462.21592650000002
 11
-149.36416600000007
 21
462.26939349999998
  0
LINE
  8
_0-0_0
  6
CONTINUOUS
 62
    7
 10
-149.49969899999996
 20
462.0253755
 11
-149.36416600000007
 21
462.26939349999998
  0
LINE
  8
_0-0_0
  6
CONTINUOUS
 62
    7
 10
-149.79571899999996
 20
462.39094550000004
 11
-149.52884700000004
 21
462.47276250000004
  0
LINE
  8
_0-0_0
  6
CONTINUOUS
 62
    7
 10
-149.63813000000005
 20
462.21592650000002
 11
-149.52884700000004
 21
462.47276250000004
  0
LINE
  8
_0-0_0
  6
CONTINUOUS
 62
    7
 10
-149.97073699999999
 20
462.54850750000003
 11
-149.71388200000001
 21
462.65779150000003
  0
LINE
  8
_0-0_0
  6
CONTINUOUS
 62
    7
 10
-149.79571899999996
 20
462.39094550000004
 11
-149.71388200000001
 21
462.65779150000003
  0
LINE
  8
_0-0_0
  6
CONTINUOUS
 62
    7
 10
-150.16127000000006
 20
462.68696550000004
 11
-149.91724799999997
 21
462.82249449999995
  0
LINE
  8
_0-0_0
  6
CONTINUOUS
 62
    7
 10
-149.97073699999999
 20
462.54850750000003
 11
-149.91724799999997
 21
462.82249449999995
  0
LINE
  8
_0-0_0
  6
CONTINUOUS
 62
    7
 10
-150.365229
 20
462.80470249999996
 11
-150.136707
 21
462.96501150000006
  0
LINE
  8
_0-0_0
  6
CONTINUOUS
 62
    7
 10
-150.16127000000006
 20
462.68696550000004
 11
-150.136707
 21
462.96501150000006
  0
LINE
  8
_0-0_0
  6
CONTINUOUS
 62
    7
 10
-150.58037899999999
 20
462.90049750000003
 11
-150.369865
 21
463.08381650000001
  0
LINE
  8
_0-0_0
  6
CONTINUOUS
 62
    7
 10
-150.365229
 20
462.80470249999996
 11
-150.369865
 21
463.08381650000001
  0
LINE
  8
_0-0_0
  6
CONTINUOUS
 62
    7
 10
-150.80436499999996
 20
462.97328149999998
 11
-150.61416600000007
 21
463.17759650000005
  0
LINE
  8
_0-0_0
  6
CONTINUOUS
 62
    7
 10
-150.58037899999999
 20
462.90049750000003
 11
-150.61416600000007
 21
463.17759650000005
  0
LINE
  8
_0-0_0
  6
CONTINUOUS
 62
    7
 10
-151.03473099999997
 20
463.02223149999998
 11
-150.86693000000002
 21
463.24531549999995
  0
LINE
  8
_0-0_0
  6
CONTINUOUS
 62
    7
 10
-150.80436499999996
 20
462.97328149999998
 11
-150.86693000000002
 21
463.24531549999995
  0
LINE
  8
_0-0_0
  6
CONTINUOUS
 62
    7
 10
-151.26895100000002
 20
463.04685949999998
 11
-151.12538700000005
 21
463.28623949999997
  0
LINE
  8
_0-0_0
  6
CONTINUOUS
 62
    7
 10
-151.03473099999997
 20
463.02223149999998
 11
-151.12538700000005
 21
463.28623949999997
  0
LINE
  8
_0-0_0
  6
CONTINUOUS
 62
    7
 10
-151.50446399999998
 20
463.04685949999998
 11
-151.386707
 21
463.29994150000005
  0
LINE
  8
_0-0_0
  6
CONTINUOUS
 62
    7
 10
-151.26895100000002
 20
463.04685949999998
 11
-151.386707
 21
463.29994150000005
  0
LINE
  8
_0-0_0
  6
CONTINUOUS
 62
    7
 10
-151.73868700000003
 20
463.02223149999998
 11
-151.64802900000007
 21
463.28623949999997
  0
LINE
  8
_0-0_0
  6
CONTINUOUS
 62
    7
 10
-151.50446399999998
 20
463.04685949999998
 11
-151.64802900000007
 21
463.28623949999997
  0
LINE
  8
_0-0_0
  6
CONTINUOUS
 62
    7
 10
-151.96905100000004
 20
462.97328149999998
 11
-151.90648699999997
 21
463.24531549999995
  0
LINE
  8
_0-0_0
  6
CONTINUOUS
 62
    7
 10
-151.73868700000003
 20
463.02223149999998
 11
-151.90648699999997
 21
463.24531549999995
  0
LINE
  8
_0-0_0
  6
CONTINUOUS
 62
    7
 10
-152.193037
 20
462.90049750000003
 11
-152.15925000000004
 21
463.17759650000005
  0
LINE
  8
_0-0_0
  6
CONTINUOUS
 62
    7
 10
-151.96905100000004
 20
462.97328149999998
 11
-152.15925000000004
 21
463.17759650000005
  0
LINE
  8
_0-0_0
  6
CONTINUOUS
 62
    7
 10
-152.408188
 20
462.80470249999996
 11
-152.40355
 21
463.08381650000001
  0
LINE
  8
_0-0_0
  6
CONTINUOUS
 62
    7
 10
-152.193037
 20
462.90049750000003
 11
-152.40355
 21
463.08381650000001
  0
LINE
  8
_0-0_0
  6
CONTINUOUS
 62
    7
 10
-152.52772400000003
 20
462.88856450000003
 11
-152.636708
 21
462.96501150000006
  0
LINE
  8
_0-0_0
  6
CONTINUOUS
 62
    7
 10
-152.408188
 20
462.80470249999996
 11
-152.52772400000003
 21
462.88856450000003
  0
LINE
  8
_0-0_0
  6
CONTINUOUS
 62
    7
 10
-152.61214600000005
 20
462.68696550000004
 11
-152.636708
 21
462.96501150000006
  0
LINE
  8
_0-0_0
  6
CONTINUOUS
 62
    7
 10
-152.80267900000001
 20
462.54850750000003
 11
-152.85617100000002
 21
462.82249449999995
  0
LINE
  8
_0-0_0
  6
CONTINUOUS
 62
    7
 10
-152.61214600000005
 20
462.68696550000004
 11
-152.85617100000002
 21
462.82249449999995
  0
LINE
  8
_0-0_0
  6
CONTINUOUS
 62
    7
 10
-152.97769800000003
 20
462.39094550000004
 11
-153.05953599999998
 21
462.65779150000003
  0
LINE
  8
_0-0_0
  6
CONTINUOUS
 62
    7
 10
-152.80267900000001
 20
462.54850750000003
 11
-153.05953599999998
 21
462.65779150000003
  0
LINE
  8
_0-0_0
  6
CONTINUOUS
 62
    7
 10
-153.13528600000006
 20
462.21592650000002
 11
-153.24457000000007
 21
462.47276250000004
  0
LINE
  8
_0-0_0
  6
CONTINUOUS
 62
    7
 10
-152.97769800000003
 20
462.39094550000004
 11
-153.24457000000007
 21
462.47276250000004
  0
LINE
  8
_0-0_0
  6
CONTINUOUS
 62
    7
 10
-153.27371800000003
 20
462.0253755
 11
-153.40925100000004
 21
462.26939349999998
  0
LINE
  8
_0-0_0
  6
CONTINUOUS
 62
    7
 10
-153.13528600000006
 20
462.21592650000002
 11
-153.40925100000004
 21
462.26939349999998
  0
LINE
  8
_0-0_0
  6
CONTINUOUS
 62
    7
 10
-153.39147200000002
 20
461.82142650000003
 11
-153.55177300000003
 21
462.04994150000005
  0
LINE
  8
_0-0_0
  6
CONTINUOUS
 62
    7
 10
-153.27371800000003
 20
462.0253755
 11
-153.55177300000003
 21
462.04994150000005
  0
LINE
  8
_0-0_0
  6
CONTINUOUS
 62
    7
 10
-153.48726499999998
 20
461.60627750000003
 11
-153.67057199999999
 21
461.81678750000003
  0
LINE
  8
_0-0_0
  6
CONTINUOUS
 62
    7
 10
-153.39147200000002
 20
461.82142650000003
 11
-153.67057199999999
 21
461.81678750000003
  0
LINE
  8
_0-0_0
  6
CONTINUOUS
 62
    7
 10
-153.56004100000007
 20
461.38227849999998
 11
-153.76435100000003
 21
461.57249449999995
  0
LINE
  8
_0-0_0
  6
CONTINUOUS
 62
    7
 10
-153.48726499999998
 20
461.60627750000003
 11
-153.76435100000003
 21
461.57249449999995
  0
LINE
  8
_0-0_0
  6
CONTINUOUS
 62
    7
 10
-153.60900700000002
 20
461.15193150000005
 11
-153.83207700000003
 21
461.31971750000002
  0
LINE
  8
_0-0_0
  6
CONTINUOUS
 62
    7
 10
-153.56004100000007
 20
461.38227849999998
 11
-153.83207700000003
 21
461.31971750000002
  0
LINE
  8
_0-0_0
  6
CONTINUOUS
 62
    7
 10
-153.60900700000002
 20
461.15193150000005
 11
-153.87301300000001
 21
461.0612635
  0
LINE
  8
_0-0_0
  6
CONTINUOUS
 62
    7
 10
-153.63362500000005
 20
460.9177095
 11
-153.87301300000001
 21
461.0612635
  0
LINE
  8
_0-0_0
  6
CONTINUOUS
 62
    7
 10
-153.63362500000005
 20
460.68217449999997
 11
-153.886708
 21
460.79994150000005
  0
LINE
  8
_0-0_0
  6
CONTINUOUS
 62
    7
 10
-153.63362500000005
 20
460.9177095
 11
-153.886708
 21
460.79994150000005
  0
LINE
  8
_0-0_0
  6
CONTINUOUS
 62
    7
 10
-153.60900700000002
 20
460.44795250000004
 11
-153.87301300000001
 21
460.53861949999998
  0
LINE
  8
_0-0_0
  6
CONTINUOUS
 62
    7
 10
-153.63362500000005
 20
460.68217449999997
 11
-153.87301300000001
 21
460.53861949999998
  0
LINE
  8
_0-0_0
  6
CONTINUOUS
 62
    7
 10
-153.56004100000007
 20
460.21760549999999
 11
-153.83207700000003
 21
460.28016649999995
  0
LINE
  8
_0-0_0
  6
CONTINUOUS
 62
    7
 10
-153.60900700000002
 20
460.44795250000004
 11
-153.83207700000003
 21
460.28016649999995
  0
LINE
  8
_0-0_0
  6
CONTINUOUS
 62
    7
 10
-153.48726499999998
 20
459.99360650000006
 11
-153.76435100000003
 21
460.02738950000003
  0
LINE
  8
_0-0_0
  6
CONTINUOUS
 62
    7
 10
-153.56004100000007
 20
460.21760549999999
 11
-153.76435100000003
 21
460.02738950000003
  0
LINE
  8
_0-0_0
  6
CONTINUOUS
 62
    7
 10
-153.39147200000002
 20
459.77845750000006
 11
-153.67057199999999
 21
459.78309650000006
  0
LINE
  8
_0-0_0
  6
CONTINUOUS
 62
    7
 10
-153.48726499999998
 20
459.99360650000006
 11
-153.67057199999999
 21
459.78309650000006
  0
LINE
  8
_0-0_0
  6
CONTINUOUS
 62
    7
 10
-153.27371800000003
 20
459.57450849999998
 11
-153.55177300000003
 21
459.54994150000005
  0
LINE
  8
_0-0_0
  6
CONTINUOUS
 62
    7
 10
-153.39147200000002
 20
459.77845750000006
 11
-153.55177300000003
 21
459.54994150000005
  0
LINE
  8
_0-0_0
  6
CONTINUOUS
 62
    7
 10
-153.13528600000006
 20
459.38398749999999
 11
-153.40925100000004
 21
459.3304895
  0
LINE
  8
_0-0_0
  6
CONTINUOUS
 62
    7
 10
-153.27371800000003
 20
459.57450849999998
 11
-153.40925100000004
 21
459.3304895
  0
LINE
  8
_0-0_0
  6
CONTINUOUS
 62
    7
 10
-152.97769800000003
 20
459.20896849999997
 11
-153.24457000000007
 21
459.12712050000005
  0
LINE
  8
_0-0_0
  6
CONTINUOUS
 62
    7
 10
-153.13528600000006
 20
459.38398749999999
 11
-153.24457000000007
 21
459.12712050000005
  0
LINE
  8
_0-0_0
  6
CONTINUOUS
 62
    7
 10
-152.80267900000001
 20
459.05137649999995
 11
-153.05953599999998
 21
458.94209250000006
  0
LINE
  8
_0-0_0
  6
CONTINUOUS
 62
    7
 10
-152.97769800000003
 20
459.20896849999997
 11
-153.05953599999998
 21
458.94209250000006
  0
LINE
  8
_0-0_0
  6
CONTINUOUS
 62
    7
 10
-152.61214600000005
 20
458.91291750000005
 11
-152.85617100000002
 21
458.77738950000003
  0
LINE
  8
_0-0_0
  6
CONTINUOUS
 62
    7
 10
-152.80267900000001
 20
459.05137649999995
 11
-152.85617100000002
 21
458.77738950000003
  0
LINE
  8
_0-0_0
  6
CONTINUOUS
 62
    7
 10
-152.408188
 20
458.79518150000001
 11
-152.636708
 21
458.63487250000003
  0
LINE
  8
_0-0_0
  6
CONTINUOUS
 62
    7
 10
-152.61214600000005
 20
458.91291750000005
 11
-152.636708
 21
458.63487250000003
  0
LINE
  8
_0-0_0
  6
CONTINUOUS
 62
    7
 10
-152.193037
 20
458.69938650000006
 11
-152.40355
 21
458.51606749999996
  0
LINE
  8
_0-0_0
  6
CONTINUOUS
 62
    7
 10
-152.408188
 20
458.79518150000001
 11
-152.40355
 21
458.51606749999996
  0
LINE
  8
_0-0_0
  6
CONTINUOUS
 62
    7
 10
-151.96905100000004
 20
458.62660249999999
 11
-152.15925000000004
 21
458.42228650000004
  0
LINE
  8
_0-0_0
  6
CONTINUOUS
 62
    7
 10
-152.193037
 20
458.69938650000006
 11
-152.15925000000004
 21
458.42228650000004
  0
LINE
  8
_0-0_0
  6
CONTINUOUS
 62
    7
 10
-151.73868700000003
 20
458.5776515
 11
-151.90648699999997
 21
458.35456850000003
  0
LINE
  8
_0-0_0
  6
CONTINUOUS
 62
    7
 10
-151.96905100000004
 20
458.62660249999999
 11
-151.90648699999997
 21
458.35456850000003
  0
LINE
  8
_0-0_0
  6
CONTINUOUS
 62
    7
 10
-151.50446399999998
 20
458.55302449999999
 11
-151.64802900000007
 21
458.31364450000001
  0
LINE
  8
_0-0_0
  6
CONTINUOUS
 62
    7
 10
-151.73868700000003
 20
458.5776515
 11
-151.64802900000007
 21
458.31364450000001
  0
LINE
  8
_0-0_0
  6
CONTINUOUS
 62
    7
 10
-151.26895100000002
 20
458.55302449999999
 11
-151.386707
 21
458.29994150000005
  0
LINE
  8
_0-0_0
  6
CONTINUOUS
 62
    7
 10
-151.50446399999998
 20
458.55302449999999
 11
-151.386707
 21
458.29994150000005
  0
LINE
  8
_0-0_0
  6
CONTINUOUS
 62
    7
 10
-151.03473099999997
 20
458.5776515
 11
-151.12538700000005
 21
458.31364450000001
  0
LINE
  8
_0-0_0
  6
CONTINUOUS
 62
    7
 10
-151.26895100000002
 20
458.55302449999999
 11
-151.12538700000005
 21
458.31364450000001
  0
LINE
  8
_0-0_0
  6
CONTINUOUS
 62
    7
 10
-150.80436499999996
 20
458.62660249999999
 11
-150.86693000000002
 21
458.35456850000003
  0
LINE
  8
_0-0_0
  6
CONTINUOUS
 62
    7
 10
-151.03473099999997
 20
458.5776515
 11
-150.86693000000002
 21
458.35456850000003
  0
LINE
  8
_0-0_0
  6
CONTINUOUS
 62
    7
 10
-150.58037899999999
 20
458.69938650000006
 11
-150.61416600000007
 21
458.42228650000004
  0
LINE
  8
_0-0_0
  6
CONTINUOUS
 62
    7
 10
-150.80436499999996
 20
458.62660249999999
 11
-150.61416600000007
 21
458.42228650000004
  0
LINE
  8
_0-0_0
  6
CONTINUOUS
 62
    7
 10
-150.365229
 20
458.79518150000001
 11
-150.369865
 21
458.51606749999996
  0
LINE
  8
_0-0_0
  6
CONTINUOUS
 62
    7
 10
-150.58037899999999
 20
458.69938650000006
 11
-150.369865
 21
458.51606749999996
  0
LINE
  8
_0-0_0
  6
CONTINUOUS
 62
    7
 10
-150.24569299999996
 20
458.71131849999995
 11
-150.136707
 21
458.63487250000003
  0
LINE
  8
_0-0_0
  6
CONTINUOUS
 62
    7
 10
-150.365229
 20
458.79518150000001
 11
-150.24569299999996
 21
458.71131849999995
  0
LINE
  8
_0-0_0
  6
CONTINUOUS
 62
    7
 10
-150.16127000000006
 20
458.91291750000005
 11
-150.136707
 21
458.63487250000003
  0
LINE
  8
_0-0_0
  6
CONTINUOUS
 62
    7
 10
-149.97073699999999
 20
459.05137649999995
 11
-149.91724799999997
 21
458.77738950000003
  0
LINE
  8
_0-0_0
  6
CONTINUOUS
 62
    7
 10
-150.16127000000006
 20
458.91291750000005
 11
-149.91724799999997
 21
458.77738950000003
  0
LINE
  8
_0-0_0
  6
CONTINUOUS
 62
    7
 10
-149.79571899999996
 20
459.20896849999997
 11
-149.71388200000001
 21
458.94209250000006
  0
LINE
  8
_0-0_0
  6
CONTINUOUS
 62
    7
 10
-149.97073699999999
 20
459.05137649999995
 11
-149.71388200000001
 21
458.94209250000006
  0
LINE
  8
_0-0_0
  6
CONTINUOUS
 62
    7
 10
-149.63813000000005
 20
459.38398749999999
 11
-149.52884700000004
 21
459.12712050000005
  0
LINE
  8
_0-0_0
  6
CONTINUOUS
 62
    7
 10
-149.79571899999996
 20
459.20896849999997
 11
-149.52884700000004
 21
459.12712050000005
  0
LINE
  8
_0-0_0
  6
CONTINUOUS
 62
    7
 10
-149.49969899999996
 20
459.57450849999998
 11
-149.36416600000007
 21
459.3304895
  0
LINE
  8
_0-0_0
  6
CONTINUOUS
 62
    7
 10
-149.63813000000005
 20
459.38398749999999
 11
-149.36416600000007
 21
459.3304895
  0
LINE
  8
_0-0_0
  6
CONTINUOUS
 62
    7
 10
-149.38194299999998
 20
459.77845750000006
 11
-149.22164499999997
 21
459.54994150000005
  0
LINE
  8
_0-0_0
  6
CONTINUOUS
 62
    7
 10
-149.49969899999996
 20
459.57450849999998
 11
-149.22164499999997
 21
459.54994150000005
  0
LINE
  8
_0-0_0
  6
CONTINUOUS
 62
    7
 10
-149.28615200000002
 20
459.99360650000006
 11
-149.102844
 21
459.78309650000006
  0
LINE
  8
_0-0_0
  6
CONTINUOUS
 62
    7
 10
-149.38194299999998
 20
459.77845750000006
 11
-149.102844
 21
459.78309650000006
  0
LINE
  8
_0-0_0
  6
CONTINUOUS
 62
    7
 10
-149.21337500000004
 20
460.21760549999999
 11
-149.00906699999996
 21
460.02738950000003
  0
LINE
  8
_0-0_0
  6
CONTINUOUS
 62
    7
 10
-149.28615200000002
 20
459.99360650000006
 11
-149.00906699999996
 21
460.02738950000003
  0
LINE
  8
_0-0_0
  6
CONTINUOUS
 62
    7
 10
-149.16440999999998
 20
460.44795250000004
 11
-148.94133899999997
 21
460.28016649999995
  0
LINE
  8
_0-0_0
  6
CONTINUOUS
 62
    7
 10
-149.21337500000004
 20
460.21760549999999
 11
-148.94133899999997
 21
460.28016649999995
  0
LINE
  8
_0-0_0
  6
CONTINUOUS
 62
    7
 10
-149.13979300000005
 20
460.68217449999997
 11
-148.90040399999998
 21
460.53861949999998
  0
LINE
  8
_0-0_0
  6
CONTINUOUS
 62
    7
 10
-149.16440999999998
 20
460.44795250000004
 11
-148.90040399999998
 21
460.53861949999998
  0
LINE
  8
_0-0_0
  6
CONTINUOUS
 62
    7
 10
-149.13979300000005
 20
460.9177095
 11
-148.886707
 21
460.79994150000005
  0
LINE
  8
_0-0_0
  6
CONTINUOUS
 62
    7
 10
-149.13979300000005
 20
460.68217449999997
 11
-148.886707
 21
460.79994150000005
  0
LINE
  8
_0-0_0
  6
CONTINUOUS
 62
    7
 10
-149.16440999999998
 20
461.15193150000005
 11
-148.90040399999998
 21
461.0612635
  0
LINE
  8
_0-0_0
  6
CONTINUOUS
 62
    7
 10
-149.13979300000005
 20
460.9177095
 11
-148.90040399999998
 21
461.0612635
  0
LINE
  8
_0-0_0
  6
CONTINUOUS
 62
    7
 10
-149.21337500000004
 20
461.38227849999998
 11
-148.94133899999997
 21
461.31971750000002
  0
LINE
  8
_0-0_0
  6
CONTINUOUS
 62
    7
 10
-149.16440999999998
 20
461.15193150000005
 11
-148.94133899999997
 21
461.31971750000002
  0
LINE
  8
_0-0_0
  6
CONTINUOUS
 62
    7
 10
-149.28615200000002
 20
461.60627750000003
 11
-149.00906699999996
 21
461.57249449999995
  0
LINE
  8
_0-0_0
  6
CONTINUOUS
 62
    7
 10
-149.21337500000004
 20
461.38227849999998
 11
-149.00906699999996
 21
461.57249449999995
  0
LINE
  8
_0-0_0
  6
CONTINUOUS
 62
    7
 10
-149.38194299999998
 20
461.82142650000003
 11
-149.102844
 21
461.81678750000003
  0
LINE
  8
_0-0_0
  6
CONTINUOUS
 62
    7
 10
-149.28615200000002
 20
461.60627750000003
 11
-149.102844
 21
461.81678750000003
  0
CIRCLE
  8
_0-0_0
  6
CONTINUOUS
 62
    7
 10
-139.386709
 20
477.39994750000005
 40
2
  0
CIRCLE
  8
_0-0_0
  6
CONTINUOUS
 62
    7
 10
-151.386707
 20
460.79994150000005
 40
2
  0
LINE
  8
_0-0_0
  6
CONTINUOUS
 62
    7
 10
-138.80460000000005
 20
476.39994750000005
 11
-139.96881900000005
 21
476.39994750000005
  0
LINE
  8
_0-0_0
  6
CONTINUOUS
 62
    7
 10
-139.96881900000005
 20
476.39994750000005
 11
-140.53670899999997
 21
477.39994750000005
  0
LINE
  8
_0-0_0
  6
CONTINUOUS
 62
    7
 10
-140.53670899999997
 20
477.39994750000005
 11
-139.96881900000005
 21
478.39994750000005
  0
LINE
  8
_0-0_0
  6
CONTINUOUS
 62
    7
 10
-139.96881900000005
 20
478.39994750000005
 11
-138.80460000000005
 21
478.39994750000005
  0
LINE
  8
_0-0_0
  6
CONTINUOUS
 62
    7
 10
-138.80460000000005
 20
478.39994750000005
 11
-138.23671000000002
 21
477.39994750000005
  0
LINE
  8
_0-0_0
  6
CONTINUOUS
 62
    7
 10
-138.23671000000002
 20
477.39994750000005
 11
-138.80460000000005
 21
476.39994750000005
  0
CIRCLE
  8
_0-0_0
  6
CONTINUOUS
 62
    7
 10
-145.386707
 20
469.09992950000003
 40
5
  0
LINE
  8
_0-0_0
  6
CONTINUOUS
 62
    7
 10
-150.80460000000005
 20
459.79994150000005
 11
-151.96881700000006
 21
459.79994150000005
  0
LINE
  8
_0-0_0
  6
CONTINUOUS
 62
    7
 10
-151.96881700000006
 20
459.79994150000005
 11
-152.53670899999997
 21
460.79994150000005
  0
LINE
  8
_0-0_0
  6
CONTINUOUS
 62
    7
 10
-152.53670899999997
 20
460.79994150000005
 11
-151.96881700000006
 21
461.79994150000005
  0
LINE
  8
_0-0_0
  6
CONTINUOUS
 62
    7
 10
-151.96881700000006
 20
461.79994150000005
 11
-150.80460000000005
 21
461.79994150000005
  0
LINE
  8
_0-0_0
  6
CONTINUOUS
 62
    7
 10
-150.80460000000005
 20
461.79994150000005
 11
-150.23671000000002
 21
460.79994150000005
  0
LINE
  8
_0-0_0
  6
CONTINUOUS
 62
    7
 10
-150.23671000000002
 20
460.79994150000005
 11
-150.80460000000005
 21
459.79994150000005
  0
CIRCLE
  8
_0-0_0
  6
CONTINUOUS
 62
    7
 10
-145.386707
 20
469.09992950000003
 40
4.5381200000000002
  0
CIRCLE
  8
_0-0_0
  6
CONTINUOUS
 62
    7
 10
-145.386707
 20
469.09992950000003
 40
4
  0
LINE
  8
_0-0_0
  6
CONTINUOUS
 62
    7
 10
-153.51928599999997
 20
479.05525150000005
 11
-154.18670800000007
 21
479.05525150000005
  0
ARC
  8
_0-0_0
  6
CONTINUOUS
 62
    7
 10
-137.386709
 20
479.52494750000005
 40
0.2
 50
179.94055499999999
 51
269.99997000000002
  0
ARC
  8
_0-0_0
  6
CONTINUOUS
 62
    7
 10
-138.886709
 20
460.29994150000005
 40
2
 50
269.99999700000001
 51
273.84026499999999
  0
ARC
  8
_0-0_0
  6
CONTINUOUS
 62
    7
 10
-151.886708
 20
477.89994750000005
 40
2
 50
90.000003000000007
 51
93.840255999999997
  0
LINE
  8
_0-0_0
  6
CONTINUOUS
 62
    7
 10
-137.08670800000004
 20
479.32493550000004
 11
-137.386709
 21
479.32493550000004
  0
LINE
  8
_0-0_0
  6
CONTINUOUS
 62
    7
 10
-137.08670800000004
 20
482.27494750000005
 11
-137.386709
 21
482.27494750000005
  0
ARC
  8
_0-0_0
  6
CONTINUOUS
 62
    7
 10
-153.386708
 20
479.52500950000001
 40
0.2
 50
270.00002499999994
 51
0.0594439999999606
  0
ARC
  8
_0-0_0
  6
CONTINUOUS
 62
    7
 10
-137.08674199999996
 20
479.52497849999997
 40
0.200055
 50
270.00964199999999
 51
1.3705509999999435
  0
ARC
  8
_0-0_0
  6
CONTINUOUS
 62
    7
 10
-137.08671000000004
 20
482.07493550000004
 40
0.2
 50
359.91222800000003
 51
89.999948000000003
  0
LINE
  8
_0-0_0
  6
CONTINUOUS
 62
    7
 10
-153.68670800000007
 20
479.32502750000003
 11
-153.386708
 21
479.32502750000003
  0
ARC
  8
_0-0_0
  6
CONTINUOUS
 62
    7
 10
-153.68667600000003
 20
479.52507049999997
 40
0.200055
 50
178.629446
 51
269.99035300000003
  0
LINE
  8
_0-0_0
  6
CONTINUOUS
 62
    7
 10
-136.68670800000007
 20
484.80000250000001
 11
-136.68670800000007
 21
498.00001550000002
  0
ARC
  8
_0-0_0
  6
CONTINUOUS
 62
    7
 10
-137.18670800000007
 20
484.80000250000001
 40
0.5
 50
269.99999700000001
 51
0
  0
ARC
  8
_0-0_0
  6
CONTINUOUS
 62
    7
 10
-136.74528699999996
 20
498.20002750000003
 40
0.1
 50
135
 51
225
  0
LINE
  8
_0-0_0
  6
CONTINUOUS
 62
    7
 10
-136.81599800000004
 20
498.12931849999995
 11
-136.68670800000007
 21
498.00001550000002
  0
LINE
  8
_0-0_0
  6
CONTINUOUS
 62
    7
 10
-137.18670800000007
 20
484.30000250000001
 11
-139.08670800000004
 21
484.30000250000001
  0
ARC
  8
_0-0_0
  6
CONTINUOUS
 62
    7
 10
-139.08670800000004
 20
484.80000250000001
 40
0.5
 50
233.12990600000001
 51
269.99999700000001
  0
ARC
  8
_0-0_0
  6
CONTINUOUS
 62
    7
 10
-151.78670899999997
 20
484.80000250000001
 40
0.5
 50
269.99999700000001
 51
306.87009999999998
  0
LINE
  8
_0-0_0
  6
CONTINUOUS
 62
    7
 10
-151.78670899999997
 20
484.30000250000001
 11
-153.68670800000007
 21
484.30000250000001
  0
ARC
  8
_0-0_0
  6
CONTINUOUS
 62
    7
 10
-153.68670800000007
 20
484.80000250000001
 40
0.5
 50
180.00000900000003
 51
269.99999700000001
  0
LINE
  8
_0-0_0
  6
CONTINUOUS
 62
    7
 10
-154.18670800000007
 20
494.23500049999996
 11
-154.18670800000007
 21
484.80000250000001
  0
LINE
  8
_0-0_0
  6
CONTINUOUS
 62
    7
 10
-154.18670800000007
 20
494.23500049999996
 11
-153.48671000000002
 21
494.23500049999996
  0
LINE
  8
_0-0_0
  6
CONTINUOUS
 62
    7
 10
-137.48670800000002
 20
512.80000250000001
 11
-137.28067799999997
 21
512.80000250000001
  0
LINE
  8
_0-0_0
  6
CONTINUOUS
 62
    7
 10
-137.28067799999997
 20
512.80000250000001
 11
-136.68670800000007
 21
512.20603949999997
  0
LINE
  8
_0-0_0
  6
CONTINUOUS
 62
    7
 10
-136.68670800000007
 20
507.20002750000003
 11
-136.68670800000007
 21
512.20603949999997
  0
LINE
  8
_0-0_0
  6
CONTINUOUS
 62
    7
 10
-136.81599800000004
 20
507.07072449999998
 11
-136.68670800000007
 21
507.20002750000003
  0
ARC
  8
_0-0_0
  6
CONTINUOUS
 62
    7
 10
-136.74528699999996
 20
507.00001550000002
 40
0.1
 50
135
 51
225
  0
LINE
  8
_0-0_0
  6
CONTINUOUS
 62
    7
 10
-136.81599800000004
 20
506.92930550000005
 11
-136.68670800000007
 21
506.80000250000001
  0
LINE
  8
_0-0_0
  6
CONTINUOUS
 62
    7
 10
-136.68670800000007
 20
506.10002150000003
 11
-136.68670800000007
 21
506.80000250000001
  0
LINE
  8
_0-0_0
  6
CONTINUOUS
 62
    7
 10
-136.81599800000004
 20
505.97071849999998
 11
-136.68670800000007
 21
506.10002150000003
  0
ARC
  8
_0-0_0
  6
CONTINUOUS
 62
    7
 10
-136.74528699999996
 20
505.90000950000001
 40
0.1
 50
135
 51
225
  0
LINE
  8
_0-0_0
  6
CONTINUOUS
 62
    7
 10
-136.81599800000004
 20
505.82929950000005
 11
-136.68670800000007
 21
505.70002750000003
  0
LINE
  8
_0-0_0
  6
CONTINUOUS
 62
    7
 10
-136.68670800000007
 20
505.00001550000002
 11
-136.68670800000007
 21
505.70002750000003
  0
LINE
  8
_0-0_0
  6
CONTINUOUS
 62
    7
 10
-136.81599800000004
 20
504.87074250000001
 11
-136.68670800000007
 21
505.00001550000002
  0
ARC
  8
_0-0_0
  6
CONTINUOUS
 62
    7
 10
-136.74528699999996
 20
504.80000250000001
 40
0.1
 50
135
 51
225
  0
LINE
  8
_0-0_0
  6
CONTINUOUS
 62
    7
 10
-136.81599800000004
 20
504.72929350000004
 11
-136.68670800000007
 21
504.60002150000003
  0
LINE
  8
_0-0_0
  6
CONTINUOUS
 62
    7
 10
-136.68670800000007
 20
503.90000950000001
 11
-136.68670800000007
 21
504.60002150000003
  0
LINE
  8
_0-0_0
  6
CONTINUOUS
 62
    7
 10
-136.81599800000004
 20
503.7707365
 11
-136.68670800000007
 21
503.90000950000001
  0
ARC
  8
_0-0_0
  6
CONTINUOUS
 62
    7
 10
-136.74528699999996
 20
503.70002750000003
 40
0.1
 50
135
 51
225
  0
LINE
  8
_0-0_0
  6
CONTINUOUS
 62
    7
 10
-136.81599800000004
 20
503.62931849999995
 11
-136.68670800000007
 21
503.50001550000002
  0
LINE
  8
_0-0_0
  6
CONTINUOUS
 62
    7
 10
-136.68670800000007
 20
502.80000250000001
 11
-136.68670800000007
 21
503.50001550000002
  0
LINE
  8
_0-0_0
  6
CONTINUOUS
 62
    7
 10
-136.81599800000004
 20
502.67073049999999
 11
-136.68670800000007
 21
502.80000250000001
  0
ARC
  8
_0-0_0
  6
CONTINUOUS
 62
    7
 10
-136.74528699999996
 20
502.60002150000003
 40
0.1
 50
135
 51
225
  0
LINE
  8
_0-0_0
  6
CONTINUOUS
 62
    7
 10
-136.81599800000004
 20
502.52931149999995
 11
-136.68670800000007
 21
502.40000950000001
  0
LINE
  8
_0-0_0
  6
CONTINUOUS
 62
    7
 10
-136.68670800000007
 20
501.70002750000003
 11
-136.68670800000007
 21
502.40000950000001
  0
LINE
  8
_0-0_0
  6
CONTINUOUS
 62
    7
 10
-136.81599800000004
 20
501.57072449999998
 11
-136.68670800000007
 21
501.70002750000003
  0
ARC
  8
_0-0_0
  6
CONTINUOUS
 62
    7
 10
-136.74528699999996
 20
501.50001550000002
 40
0.1
 50
135
 51
225
  0
LINE
  8
_0-0_0
  6
CONTINUOUS
 62
    7
 10
-136.81599800000004
 20
501.42930550000005
 11
-136.68670800000007
 21
501.30000250000001
  0
LINE
  8
_0-0_0
  6
CONTINUOUS
 62
    7
 10
-136.68670800000007
 20
500.60002150000003
 11
-136.68670800000007
 21
501.30000250000001
  0
LINE
  8
_0-0_0
  6
CONTINUOUS
 62
    7
 10
-136.81599800000004
 20
500.47071849999998
 11
-136.68670800000007
 21
500.60002150000003
  0
ARC
  8
_0-0_0
  6
CONTINUOUS
 62
    7
 10
-136.74528699999996
 20
500.40000950000001
 40
0.1
 50
135
 51
225
  0
LINE
  8
_0-0_0
  6
CONTINUOUS
 62
    7
 10
-136.81599800000004
 20
500.32929950000005
 11
-136.68670800000007
 21
500.20002750000003
  0
LINE
  8
_0-0_0
  6
CONTINUOUS
 62
    7
 10
-136.68670800000007
 20
499.50001550000002
 11
-136.68670800000007
 21
500.20002750000003
  0
LINE
  8
_0-0_0
  6
CONTINUOUS
 62
    7
 10
-136.81599800000004
 20
499.37074250000001
 11
-136.68670800000007
 21
499.50001550000002
  0
ARC
  8
_0-0_0
  6
CONTINUOUS
 62
    7
 10
-136.74528699999996
 20
499.30000250000001
 40
0.1
 50
135
 51
225
  0
LINE
  8
_0-0_0
  6
CONTINUOUS
 62
    7
 10
-136.81599800000004
 20
499.22929350000004
 11
-136.68670800000007
 21
499.10002150000003
  0
LINE
  8
_0-0_0
  6
CONTINUOUS
 62
    7
 10
-136.68670800000007
 20
498.40000950000001
 11
-136.68670800000007
 21
499.10002150000003
  0
LINE
  8
_0-0_0
  6
CONTINUOUS
 62
    7
 10
-136.81599800000004
 20
498.2707365
 11
-136.68670800000007
 21
498.40000950000001
  0
LINE
  8
_0-0_0
  6
CONTINUOUS
 62
    7
 10
-136.68670800000007
 20
490.30000250000001
 11
-136.58670800000004
 21
490.30000250000001
  0
LINE
  8
_0-0_0
  6
CONTINUOUS
 62
    7
 10
-136.58670800000004
 20
489.80000250000001
 11
-136.58670800000004
 21
490.30000250000001
  0
LINE
  8
_0-0_0
  6
CONTINUOUS
 62
    7
 10
-136.58670800000004
 20
489.80000250000001
 11
-136.58670800000004
 21
485.80000250000001
  0
LINE
  8
_0-0_0
  6
CONTINUOUS
 62
    7
 10
-136.68670800000007
 20
485.30000250000001
 11
-136.58670800000004
 21
485.30000250000001
  0
LINE
  8
_0-0_0
  6
CONTINUOUS
 62
    7
 10
-136.58670800000004
 20
485.30000250000001
 11
-136.58670800000004
 21
485.80000250000001
  0
LINE
  8
_0-0_0
  6
CONTINUOUS
 62
    7
 10
-154.18670800000007
 20
494.30003350000004
 11
-154.18670800000007
 21
494.23500049999996
  0
LINE
  8
_0-0_0
  6
CONTINUOUS
 62
    7
 10
-137.68670800000007
 20
513.10002150000003
 11
-137.68670800000007
 21
513.00001550000002
  0
ARC
  8
_0-0_0
  6
CONTINUOUS
 62
    7
 10
-150.18670800000007
 20
513.10002150000003
 40
2.5
 50
90.000003000000007
 51
180.00000900000001
  0
LINE
  8
_0-0_0
  6
CONTINUOUS
 62
    7
 10
-154.28670899999997
 20
494.30000250000001
 11
-153.48670800000002
 21
494.30000250000001
  0
LINE
  8
_0-0_0
  6
CONTINUOUS
 62
    7
 10
-153.78670899999997
 20
516.10002150000003
 11
-153.78670899999997
 21
511.87849449999999
  0
LINE
  8
_0-0_0
  6
CONTINUOUS
 62
    7
 10
-152.68670800000007
 20
516.10002150000003
 11
-152.68670800000007
 21
513.10002150000003
  0
LINE
  8
_0-0_0
  6
CONTINUOUS
 62
    7
 10
-153.78670899999997
 20
511.87849449999999
 11
-153.48670800000002
 21
511.87849449999999
  0
LINE
  8
_0-0_0
  6
CONTINUOUS
 62
    7
 10
-153.78670899999997
 20
521.23991350000006
 11
-152.68670800000007
 21
521.23991350000006
  0
LINE
  8
_0-0_0
  6
CONTINUOUS
 62
    7
 10
-152.68670800000007
 20
516.10038750000001
 11
-152.68670800000007
 21
521.23991350000006
  0
LINE
  8
_0-0_0
  6
CONTINUOUS
 62
    7
 10
-154.28670899999997
 20
515.60072349999996
 11
-154.28670899999997
 21
520.67213449999997
  0
LINE
  8
_0-0_0
  6
CONTINUOUS
 62
    7
 10
-153.78670899999997
 20
521.23991350000006
 11
-154.28670899999997
 21
520.67213449999997
  0
ARC
  8
_0-0_0
  6
CONTINUOUS
 62
    7
 10
-140.18670800000007
 20
513.10002150000003
 40
2.5
 50
0
 51
90.000003000000007
  0
LINE
  8
_0-0_0
  6
CONTINUOUS
 62
    7
 10
-152.68670800000007
 20
513.00001550000002
 11
-152.68670800000007
 21
513.10002150000003
  0
LINE
  8
_0-0_0
  6
CONTINUOUS
 62
    7
 10
-140.18670800000007
 20
515.60002150000003
 11
-150.18670800000007
 21
515.60002150000003
  0
LINE
  8
_0-0_0
  6
CONTINUOUS
 62
    7
 10
-136.48671000000002
 20
485.80000250000001
 11
-136.48671000000002
 21
485.93037449999997
  0
LINE
  8
_0-0_0
  6
CONTINUOUS
 62
    7
 10
-136.48671000000002
 20
489.43037449999997
 11
-136.48671000000002
 21
485.93037449999997
  0
LINE
  8
_0-0_0
  6
CONTINUOUS
 62
    7
 10
-136.58670800000004
 20
489.70002750000003
 11
-136.48671000000002
 21
489.70002750000003
  0
LINE
  8
_0-0_0
  6
CONTINUOUS
 62
    7
 10
-136.48671000000002
 20
489.43037449999997
 11
-136.48671000000002
 21
489.70002750000003
  0
LINE
  8
_0-0_0
  6
CONTINUOUS
 62
    7
 10
-152.68670800000007
 20
523.60002150000003
 11
-152.68670800000007
 21
521.23991350000006
  0
LINE
  8
_0-0_0
  6
CONTINUOUS
 62
    7
 10
-136.886707
 20
512.20002750000003
 11
-137.886707
 21
513.20002750000003
  0
LINE
  8
_0-0_0
  6
CONTINUOUS
 62
    7
 10
-136.886709
 20
484.40000950000001
 11
-136.886707
 21
512.20002750000003
  0
LINE
  8
_0-0_0
  6
CONTINUOUS
 62
    7
 10
-153.48670800000002
 20
484.40000950000001
 11
-136.886709
 21
484.40000950000001
  0
LINE
  8
_0-0_0
  6
CONTINUOUS
 62
    7
 10
-153.48670800000002
 20
512.20002750000003
 11
-153.48670800000002
 21
484.40000950000001
  0
LINE
  8
_0-0_0
  6
CONTINUOUS
 62
    7
 10
-154.28670899999997
 20
494.30000250000001
 11
-154.28670899999997
 21
511.11283849999995
  0
LINE
  8
_0-0_0
  6
CONTINUOUS
 62
    7
 10
-154.28670899999997
 20
515.60002150000003
 11
-154.28670899999997
 21
511.11283849999995
  0
ARC
  8
_0-0_0
  6
CONTINUOUS
 62
    7
 10
-122.834969
 20
491.11784350000005
 40
37.269466000000001
 50
146.14857699999999
 51
147.55443399999999
  0
LINE
  8
_0-0_0
  6
CONTINUOUS
 62
    7
 10
-153.78670899999997
 20
523.60002150000003
 11
-153.78670899999997
 21
521.23991350000006
  0
LINE
  8
_0-0_0
  6
CONTINUOUS
 62
    7
 10
-154.28670899999997
 20
523.10002150000003
 11
-154.28670899999997
 21
520.67213449999997
  0
ARC
  8
_0-0_0
  6
CONTINUOUS
 62
    7
 10
-140.45575500000007
 20
512.80000250000001
 40
2.6000000000000001
 50
8.8498839999999994
 51
90.000002999999992
  0
LINE
  8
_0-0_0
  6
CONTINUOUS
 62
    7
 10
-140.45575500000007
 20
515.40000950000001
 11
-149.91766200000006
 21
515.40000950000001
  0
ARC
  8
_0-0_0
  6
CONTINUOUS
 62
    7
 10
-149.91766200000006
 20
512.80000250000001
 40
2.6000000000000001
 50
90.000003000000007
 51
171.150115
  0
LINE
  8
_0-0_0
  6
CONTINUOUS
 62
    7
 10
-153.48670800000002
 20
512.20002750000003
 11
-152.48670800000002
 21
513.20002750000003
  0
LINE
  8
_0-0_0
  6
CONTINUOUS
 62
    7
 10
-137.886707
 20
511.78581250000002
 11
-136.886707
 21
512.20002750000003
  0
ARC
  8
_0-0_0
  6
CONTINUOUS
 62
    7
 10
-143.42924900000003
 20
523.98612949999995
 40
12.126564999999999
 50
292.155034
 51
297.19674500000002
  0
LINE
  8
_0-0_0
  6
CONTINUOUS
 62
    7
 10
-137.886709
 20
485.40000950000001
 11
-136.886709
 21
484.40000950000001
  0
LINE
  8
_0-0_0
  6
CONTINUOUS
 62
    7
 10
-152.48670800000002
 20
485.40000950000001
 11
-153.48670800000002
 21
484.40000950000001
  0
LINE
  8
_0-0_0
  6
CONTINUOUS
 62
    7
 10
-152.48670800000002
 20
511.78581250000002
 11
-153.48670800000002
 21
512.20002750000003
  0
ARC
  8
_0-0_0
  6
CONTINUOUS
 62
    7
 10
-146.94416799999999
 20
523.98612949999995
 40
12.126567
 50
242.80325699999997
 51
247.84494000000001
  0
CIRCLE
  8
_0-0_0
  6
CONTINUOUS
 62
    7
 10
-145.18670800000007
 20
492.60002150000003
 40
2.0670000000000002
  0
LINE
  8
_0-0_0
  6
CONTINUOUS
 62
    7
 10
-152.68670800000007
 20
516.10002150000003
 11
-153.78670899999997
 21
516.10002150000003
  0
LINE
  8
_0-0_0
  6
CONTINUOUS
 62
    7
 10
-136.58670800000004
 20
485.80000250000001
 11
-136.48671000000002
 21
485.80000250000001
  0
LINE
  8
_0-0_0
  6
CONTINUOUS
 62
    7
 10
-136.58670800000004
 20
485.80000250000001
 11
-136.48671000000002
 21
485.80000250000001
  0
LINE
  8
_0-0_0
  6
CONTINUOUS
 62
    7
 10
-154.28670899999997
 20
515.60002150000003
 11
-153.78670899999997
 21
516.10002150000003
  0
LINE
  8
_0-0_0
  6
CONTINUOUS
 62
    7
 10
-152.68670800000007
 20
523.60002150000003
 11
-153.78670899999997
 21
523.60002150000003
  0
LINE
  8
_0-0_0
  6
CONTINUOUS
 62
    7
 10
-154.28670899999997
 20
523.10002150000003
 11
-153.78670899999997
 21
523.60002150000003
  0
ENDSEC
  0
EOF
