  0
SECTION
  2
HEADER
  9
$ACADVER
  1
AC1009
  9
$INSBASE
 10
0
 20
0
 30
0
  9
$EXTMIN
 10
0
 20
0
  9
$EXTMAX
 10
841
 20
594
  9
$LIMMIN
 10
0
 20
0
  9
$LIMMAX
 10
841
 20
594
  9
$LTSCALE
 40
1
  0
ENDSEC
  0
SECTION
  2
TABLES
  0
TABLE
  2
LTYPE
 70
     9
  0
LTYPE
  2
CONTINUOUS
 70
    64
  3
実線
 72
    65
 73
     0
 40
0.0
  0
LTYPE
  2
DASHED1
 70
    64
  3
--  --  --  --  --  --  --  --  
 72
    65
 73
     2
 40
2.5
 49
1.25
 49
-1.25
  0
LTYPE
  2
DASHED2
 70
    64
  3
----    ----    ----    ----    
 72
    65
 73
     2
 40
5.0
 49
2.5
 49
-2.5
  0
LTYPE
  2
DASHED3
 70
    64
  3
------  ------  ------  ------  
 72
    65
 73
     2
 40
5.0
 49
3.75
 49
-1.25
  0
LTYPE
  2
CENTER1
 70
    64
  3
----- - ----- - ----- - ----- - 
 72
    65
 73
     4
 40
10.0
 49
6.25
 49
-1.25
 49
1.25
 49
-1.25
  0
LTYPE
  2
CENTER2
 70
    64
  3
----------  --  ----------  --  
 72
    65
 73
     4
 40
20.0
 49
12.5
 49
-2.5
 49
2.5
 49
-2.5
  0
LTYPE
  2
PHANTOM1
 70
    64
  3
--- - - --- - - --- - - --- - - 
 72
    65
 73
     6
 40
10.0
 49
3.25
 49
-1.25
 49
1.25
 49
-1.25
 49
1.25
 49
-1.25
  0
LTYPE
  2
PHANTOM2
 70
    64
  3
--------  -  -  --------  -  -  
 72
    65
 73
     6
 40
20.0
 49
10.0
 49
-2.5
 49
1.25
 49
-2.5
 49
1.25
 49
-2.5
  0
LTYPE
  2
DOT
 70
    64
  3
-   -   -   -   -   -   -   -   
 72
    65
 73
     2
 40
2.5
 49
0.625
 49
-1.875
  0
LTYPE
  2
DUMMY
 70
    64
  3
ダミー
 72
    65
 73
     0
 40
0.0
  0
LTYPE
  2
RAND1
 70
    64
  3
ランダム線1
 72
    65
 73
     4
 40
10.0
 49
1.0
 49
-2.0
 49
3.0
 49
-4.0
  0
LTYPE
  2
RAND2
 70
    64
  3
ランダム線2
 72
    65
 73
     4
 40
14.0
 49
2.0
 49
-3.0
 49
4.0
 49
-5.0
  0
LTYPE
  2
RAND3
 70
    64
  3
ランダム線3
 72
    65
 73
     4
 40
18.0
 49
3.0
 49
-4.0
 49
5.0
 49
-6.0
  0
LTYPE
  2
RAND4
 70
    64
  3
ランダム線4
 72
    65
 73
     4
 40
22.0
 49
4.0
 49
-5.0
 49
6.0
 49
-7.0
  0
LTYPE
  2
RAND5
 70
    64
  3
ランダム線5
 72
    65
 73
     4
 40
26.0
 49
5.0
 49
-6.0
 49
7.0
 49
-8.0
  0
LTYPE
  2
LONG1
 70
    64
  3
----------  --  ----------  --  
 72
    65
 73
     4
 40
40.0
 49
32.5
 49
-2.5
 49
2.5
 49
-2.5
  0
LTYPE
  2
LONG2
 70
    64
  3
--------  -  -  --------  -  -  
 72
    65
 73
     6
 40
40.0
 49
30.0
 49
-2.5
 49
1.25
 49
-2.5
 49
1.25
 49
-2.5
  0
LTYPE
  2
LONG3
 70
    64
  3
+++++++++++++++..+++++++++++++++
 72
    65
 73
     2
 40
40.0
 49
37.5
 49
-2.5
  0
LTYPE
  2
LONG4
 70
    64
  3
+++++++++++++++..+++++++++++++++
 72
    65
 73
     2
 40
80.0
 49
75.0
 49
-5.0
  0
LTYPE
  2
LONG5
 70
    64
  3
----------  --  ----------  --  
 72
    65
 73
     4
 40
60.0
 49
37.5
 49
-7.5
 49
7.5
 49
-7.5
  0
LTYPE
  2
dashed
 70
   64
  3
-------   -------------   ------
 72
   65
 73
    2
 40
7.5
 49
6
 49
-1.5
  0
LTYPE
  2
dashed_spaced
 70
   64
  3
----        --------        ----
 72
   65
 73
    2
 40
12
 49
6
 49
-6
  0
LTYPE
  2
long_dashed_dotted
 70
   64
  3
------------- --- --------------
 72
   65
 73
    4
 40
15.25
 49
12
 49
-1.5
 49
0.25
 49
-1.5
  0
LTYPE
  2
long_dashed_double-dotted
 70
   64
  3
----------- --- --- ------------
 72
   65
 73
    6
 40
17
 49
12
 49
-1.5
 49
0.25
 49
-1.5
 49
0.25
 49
-1.5
  0
LTYPE
  2
long_dashed_triplicate-dotted
 70
   64
  3
--------- --- --- --- ----------
 72
   65
 73
    8
 40
18.75
 49
12
 49
-1.5
 49
0.25
 49
-1.5
 49
0.25
 49
-1.5
 49
0.25
 49
-1.5
  0
LTYPE
  2
dotted
 70
   64
  3
   -       -       -       -    
 72
   65
 73
    2
 40
1.75
 49
0.25
 49
-1.5
  0
LTYPE
  2
chain
 70
   64
  3
-------------- -- --------------
 72
   65
 73
    4
 40
18.5
 49
12
 49
-1.5
 49
3.5
 49
-1.5
  0
LTYPE
  2
chain_double_dash
 70
   64
  3
------------ -- -- -------------
 72
   65
 73
    6
 40
23.5
 49
12
 49
-1.5
 49
3.5
 49
-1.5
 49
3.5
 49
-1.5
  0
LTYPE
  2
dashed_dotted
 70
   64
  3
-----------     -     ----------
 72
   65
 73
    4
 40
9.25
 49
6
 49
-1.5
 49
0.25
 49
-1.5
  0
LTYPE
  2
double-dashed_dotted
 70
   64
  3
------   -----------   -   -----
 72
   65
 73
    6
 40
16.75
 49
6
 49
-1.5
 49
6
 49
-1.5
 49
0.25
 49
-1.5
  0
LTYPE
  2
dashed_double-dotted
 70
   64
  3
---------    -    -    ---------
 72
   65
 73
    6
 40
11
 49
6
 49
-1.5
 49
0.25
 49
-1.5
 49
0.25
 49
-1.5
  0
LTYPE
  2
double-dashed_double-dotted
 70
   64
  3
-----   ---------   -   -   ----
 72
   65
 73
    8
 40
18.5
 49
6
 49
-1.5
 49
6
 49
-1.5
 49
0.25
 49
-1.5
 49
0.25
 49
-1.5
  0
LTYPE
  2
dashed_triplicate-dotted
 70
   64
  3
-------    -    -    -    ------
 72
   65
 73
    8
 40
12.75
 49
6
 49
-1.5
 49
0.25
 49
-1.5
 49
0.25
 49
-1.5
 49
0.25
 49
-1.5
  0
LTYPE
  2
double-dashed_triplicate-dotted
 70
   64
  3
-----  ---------  -  -  -  -----
 72
   65
 73
   10
 40
20.25
 49
6
 49
-1.5
 49
6
 49
-1.5
 49
0.25
 49
-1.5
 49
0.25
 49
-1.5
 49
0.25
 49
-1.5
  0
LTYPE
  2
undefined
 70
   64
  3
--------------------------------
 72
   65
 73
    0
 40
0
  0
ENDTAB
  0
TABLE
  2
STYLE
  5
3
100
AcDbSymbolTable
 70
     1
  0
STYLE
  5
10
100
AcDbSymbolTableRecord
100
AcDbTextStyleTableRecord
  2
STANDARD
 70
     0
 40
0.0
 41
1.0
 50
0.0
 71
     0
 42
0.2
  3
txt
  4
bigfont.shx
  0
STYLE
  5
26
100
AcDbSymbolTableRecord
100
AcDbTextStyleTableRecord
  2
TATEGAKI
 70
    68
 40
0.0
 41
1.0
 50
0.0
 71
     0
 42
1.0
  3
txt
  4
bigfont.shx
  0
ENDTAB
  0
TABLE
  2
LAYER
 70
    2
  0
LAYER
  2
_0-0_0
 70
   64
 62
    7
  6
CONTINUOUS
  0
LAYER
  2
ADD_LINE
 70
   64
 62
    7
  6
CONTINUOUS
  0
ENDTAB
  0
ENDSEC
  0
SECTION
  2
BLOCKS
  0
ENDSEC
  0
SECTION
  2
ENTITIES
  0
LINE
  8
_0-0_0
  6
CONTINUOUS
 62
    7
 10
83.42893250000003
 20
460.17515549999996
 11
83.42893250000003
 21
460.1741485
  0
LINE
  8
_0-0_0
  6
CONTINUOUS
 62
    7
 10
236.24143950000001
 20
421.24421749999999
 11
234.94143650000001
 21
417.74421749999999
  0
ARC
  8
_0-0_0
  6
CONTINUOUS
 62
    7
 10
236.42892449999999
 20
421.17457550000006
 40
0.2
 50
20.376434999999997
 51
159.62357000000003
  0
ARC
  8
_0-0_0
  6
CONTINUOUS
 62
    7
 10
274.42892449999999
 20
424.07456950000005
 40
2.2000000000000002
 50
180.00000900000003
 51
303.74900400000001
  0
LINE
  8
_0-0_0
  6
CONTINUOUS
 62
    7
 10
272.2289275
 20
425.57456950000005
 11
272.2289275
 21
424.07456950000005
  0
LINE
  8
_0-0_0
  6
CONTINUOUS
 62
    7
 10
272.2289275
 20
425.57456950000005
 11
197.62893650000001
 21
425.57456950000005
  0
LINE
  8
_0-0_0
  6
CONTINUOUS
 62
    7
 10
197.62893650000001
 20
425.57456950000005
 11
197.62893650000001
 21
424.07456950000005
  0
ARC
  8
_0-0_0
  6
CONTINUOUS
 62
    7
 10
195.42892449999999
 20
424.07456950000005
 40
2.2000000000000002
 50
236.25102899999999
 51
0
  0
ARC
  8
_0-0_0
  6
CONTINUOUS
 62
    7
 10
193.92892449999999
 20
421.82957450000004
 40
0.5
 50
56.251010000000008
 51
180.00000900000001
  0
LINE
  8
_0-0_0
  6
CONTINUOUS
 62
    7
 10
193.42892449999999
 20
401.47456350000004
 11
193.42892449999999
 21
402.25169349999999
  0
LINE
  8
_0-0_0
  6
CONTINUOUS
 62
    7
 10
193.42892449999999
 20
401.47456350000004
 11
203.2289275
 21
401.47456350000004
  0
ARC
  8
_0-0_0
  6
CONTINUOUS
 62
    7
 10
203.2289275
 20
401.67457550000006
 40
0.2
 50
269.99999700000001
 51
0
  0
LINE
  8
_0-0_0
  6
CONTINUOUS
 62
    7
 10
203.42892449999999
 20
403.37458849999996
 11
203.42892449999999
 21
401.67457550000006
  0
ARC
  8
_0-0_0
  6
CONTINUOUS
 62
    7
 10
203.62893650000001
 20
403.37458849999996
 40
0.2
 50
90.000003000000007
 51
180.00000900000001
  0
LINE
  8
_0-0_0
  6
CONTINUOUS
 62
    7
 10
204.12893650000001
 20
403.57456950000005
 11
203.62893650000001
 21
403.57456950000005
  0
ARC
  8
_0-0_0
  6
CONTINUOUS
 62
    7
 10
204.12893650000001
 20
403.07456950000005
 40
0.5
 50
90.000003000000007
 51
180.00000900000001
  0
LINE
  8
_0-0_0
  6
CONTINUOUS
 62
    7
 10
203.62893650000001
 20
401.57456950000005
 11
203.62893650000001
 21
403.07456950000005
  0
LINE
  8
_0-0_0
  6
CONTINUOUS
 62
    7
 10
273.2289275
 20
401.57456950000005
 11
203.62893650000001
 21
401.57456950000005
  0
LINE
  8
_0-0_0
  6
CONTINUOUS
 62
    7
 10
273.2289275
 20
401.57456950000005
 11
273.2289275
 21
403.07456950000005
  0
ARC
  8
_0-0_0
  6
CONTINUOUS
 62
    7
 10
272.7289275
 20
403.07456950000005
 40
0.5
 50
0
 51
90.000003000000007
  0
LINE
  8
_0-0_0
  6
CONTINUOUS
 62
    7
 10
273.2289275
 20
403.57456950000005
 11
272.7289275
 21
403.57456950000005
  0
ARC
  8
_0-0_0
  6
CONTINUOUS
 62
    7
 10
273.2289275
 20
403.37458849999996
 40
0.2
 50
0
 51
90.000003000000007
  0
LINE
  8
_0-0_0
  6
CONTINUOUS
 62
    7
 10
273.42892449999999
 20
401.67457550000006
 11
273.42892449999999
 21
403.37458849999996
  0
ARC
  8
_0-0_0
  6
CONTINUOUS
 62
    7
 10
273.62892150000005
 20
401.67457550000006
 40
0.2
 50
180.00000900000003
 51
269.99999700000001
  0
LINE
  8
_0-0_0
  6
CONTINUOUS
 62
    7
 10
273.62892150000005
 20
401.47456350000004
 11
274.42892449999999
 21
401.47456350000004
  0
ARC
  8
_0-0_0
  6
CONTINUOUS
 62
    7
 10
274.42892449999999
 20
403.47456350000004
 40
2
 50
269.99999700000001
 51
0.0000099999999886
  0
LINE
  8
_0-0_0
  6
CONTINUOUS
 62
    7
 10
276.42892449999999
 20
421.82957450000004
 11
276.42892449999999
 21
403.47456350000004
  0
ARC
  8
_0-0_0
  6
CONTINUOUS
 62
    7
 10
275.92892449999999
 20
421.82957450000004
 40
0.5
 50
0
 51
123.74898500000002
  0
LINE
  8
_0-0_0
  6
CONTINUOUS
 62
    7
 10
204.92892449999999
 20
403.77458250000007
 11
204.92892449999999
 21
403.97456350000004
  0
LINE
  8
_0-0_0
  6
CONTINUOUS
 62
    7
 10
204.92892449999999
 20
403.97456350000004
 11
271.92892449999999
 21
403.97456350000004
  0
LINE
  8
_0-0_0
  6
CONTINUOUS
 62
    7
 10
271.92892449999999
 20
403.77458250000007
 11
271.92892449999999
 21
403.97456350000004
  0
ARC
  8
_0-0_0
  6
CONTINUOUS
 62
    7
 10
272.12892150000005
 20
403.77458250000007
 40
0.2
 50
180.00000900000003
 51
269.99999700000001
  0
LINE
  8
_0-0_0
  6
CONTINUOUS
 62
    7
 10
272.12892150000005
 20
403.57456950000005
 11
204.7289275
 21
403.57456950000005
  0
ARC
  8
_0-0_0
  6
CONTINUOUS
 62
    7
 10
204.7289275
 20
403.77458250000007
 40
0.2
 50
269.99999700000001
 51
0
  0
ARC
  8
_0-0_0
  6
CONTINUOUS
 62
    7
 10
235.12892150000002
 20
417.67457550000006
 40
0.2
 50
159.62357
 51
269.99999700000001
  0
LINE
  8
_0-0_0
  6
CONTINUOUS
 62
    7
 10
235.12892150000002
 20
417.47456350000004
 11
237.7289275
 21
417.47456350000004
  0
ARC
  8
_0-0_0
  6
CONTINUOUS
 62
    7
 10
237.7289275
 20
417.67457550000006
 40
0.2
 50
269.99999700000001
 51
20.376435000000019
  0
LINE
  8
_0-0_0
  6
CONTINUOUS
 62
    7
 10
237.91641250000001
 20
417.74421749999999
 11
236.6164095
 21
421.24421749999999
  0
LINE
  8
_0-0_0
  6
CONTINUOUS
 62
    7
 10
193.42892449999999
 20
421.17457550000006
 11
193.42892449999999
 21
423.15193150000005
  0
LINE
  8
_0-0_0
  6
CONTINUOUS
 62
    7
 10
193.42892449999999
 20
421.17457550000006
 11
193.42892449999999
 21
403.57456950000005
  0
LINE
  8
_0-0_0
  6
CONTINUOUS
 62
    7
 10
193.42892449999999
 20
402.25169349999999
 11
193.42892449999999
 21
403.57456950000005
  0
LINE
  8
_0-0_0
  6
CONTINUOUS
 62
    7
 10
276.42892449999999
 20
427.57456950000005
 11
276.42892449999999
 21
426.57456950000005
  0
LINE
  8
_0-0_0
  6
CONTINUOUS
 62
    7
 10
276.42892449999999
 20
426.57456950000005
 11
276.42892449999999
 21
426.07456950000005
  0
LINE
  8
_0-0_0
  6
CONTINUOUS
 62
    7
 10
276.42892449999999
 20
426.07456950000005
 11
276.42892449999999
 21
424.07456950000005
  0
LINE
  8
_0-0_0
  6
CONTINUOUS
 62
    7
 10
276.42892449999999
 20
424.07456950000005
 11
276.42892449999999
 21
421.82957450000004
  0
LINE
  8
_0-0_0
  6
CONTINUOUS
 62
    7
 10
254.42892449999999
 20
421.57456950000005
 11
254.42892449999999
 21
407.97456350000004
  0
ARC
  8
_0-0_0
  6
CONTINUOUS
 62
    7
 10
257.42892449999999
 20
421.57456950000005
 40
3
 50
90.000003000000007
 51
180.00000900000001
  0
LINE
  8
_0-0_0
  6
CONTINUOUS
 62
    7
 10
270.76286349999998
 20
424.57456950000005
 11
257.42892449999999
 21
424.57456950000005
  0
ARC
  8
_0-0_0
  6
CONTINUOUS
 62
    7
 10
270.76286349999998
 20
423.57456950000005
 40
1
 50
7.7664340000000012
 51
90.000002999999992
  0
ARC
  8
_0-0_0
  6
CONTINUOUS
 62
    7
 10
274.42892449999999
 20
424.07456950000005
 40
2.7000000000000002
 50
187.76643899999999
 51
254.31966600000001
  0
ARC
  8
_0-0_0
  6
CONTINUOUS
 62
    7
 10
273.42892449999999
 20
420.51228349999997
 40
1
 50
0
 51
74.319649999999996
  0
LINE
  8
_0-0_0
  6
CONTINUOUS
 62
    7
 10
274.42892449999999
 20
407.97456350000004
 11
274.42892449999999
 21
420.51228349999997
  0
ARC
  8
_0-0_0
  6
CONTINUOUS
 62
    7
 10
271.42892449999999
 20
407.97456350000004
 40
3
 50
269.99999700000001
 51
0.0000099999999886
  0
LINE
  8
_0-0_0
  6
CONTINUOUS
 62
    7
 10
257.42892449999999
 20
404.97456350000004
 11
271.42892449999999
 21
404.97456350000004
  0
ARC
  8
_0-0_0
  6
CONTINUOUS
 62
    7
 10
257.42892449999999
 20
407.97456350000004
 40
3
 50
180.00000900000003
 51
269.99999700000001
  0
LINE
  8
_0-0_0
  6
CONTINUOUS
 62
    7
 10
200.42892449999999
 20
404.97456350000004
 11
215.42892449999999
 21
404.97456350000004
  0
ARC
  8
_0-0_0
  6
CONTINUOUS
 62
    7
 10
200.42892449999999
 20
407.97456350000004
 40
3
 50
180.00000900000003
 51
269.99999700000001
  0
LINE
  8
_0-0_0
  6
CONTINUOUS
 62
    7
 10
197.42892449999999
 20
421.57456950000005
 11
197.42892449999999
 21
407.97456350000004
  0
ARC
  8
_0-0_0
  6
CONTINUOUS
 62
    7
 10
200.42892449999999
 20
421.57456950000005
 40
3
 50
90.000003000000007
 51
180.00000900000001
  0
LINE
  8
_0-0_0
  6
CONTINUOUS
 62
    7
 10
215.42892449999999
 20
424.57456950000005
 11
200.42892449999999
 21
424.57456950000005
  0
ARC
  8
_0-0_0
  6
CONTINUOUS
 62
    7
 10
215.42892449999999
 20
421.57456950000005
 40
3
 50
0
 51
90.000003000000007
  0
LINE
  8
_0-0_0
  6
CONTINUOUS
 62
    7
 10
218.42892449999999
 20
407.97456350000004
 11
218.42892449999999
 21
421.57456950000005
  0
ARC
  8
_0-0_0
  6
CONTINUOUS
 62
    7
 10
215.42892449999999
 20
407.97456350000004
 40
3
 50
269.99999700000001
 51
0.0000099999999886
  0
LINE
  8
_0-0_0
  6
CONTINUOUS
 62
    7
 10
272.42892449999999
 20
425.57456950000005
 11
272.2289275
 21
425.57456950000005
  0
ARC
  8
_0-0_0
  6
CONTINUOUS
 62
    7
 10
274.42892449999999
 20
424.07456950000005
 40
2
 50
180.00000900000003
 51
0.0000000000000254
  0
LINE
  8
_0-0_0
  6
CONTINUOUS
 62
    7
 10
272.42892449999999
 20
425.57456950000005
 11
272.42892449999999
 21
424.07456950000005
  0
LINE
  8
_0-0_0
  6
CONTINUOUS
 62
    7
 10
197.62893650000001
 20
425.57456950000005
 11
197.42892449999999
 21
425.57456950000005
  0
LINE
  8
_0-0_0
  6
CONTINUOUS
 62
    7
 10
197.42892449999999
 20
425.57456950000005
 11
197.42892449999999
 21
424.07456950000005
  0
ARC
  8
_0-0_0
  6
CONTINUOUS
 62
    7
 10
195.42892449999999
 20
424.07456950000005
 40
2
 50
180.00000900000003
 51
0.0000000000000254
  0
LINE
  8
_0-0_0
  6
CONTINUOUS
 62
    7
 10
179.92892449999999
 20
426.07456950000005
 11
179.92892449999999
 21
425.57456950000005
  0
LINE
  8
_0-0_0
  6
CONTINUOUS
 62
    7
 10
193.42892449999999
 20
423.15806550000002
 11
193.42892449999999
 21
423.87455750000004
  0
LINE
  8
_0-0_0
  6
CONTINUOUS
 62
    7
 10
193.42892449999999
 20
423.15806550000002
 11
193.42892449999999
 21
423.15193150000005
  0
LINE
  8
_0-0_0
  6
CONTINUOUS
 62
    7
 10
193.42892449999999
 20
421.94343549999996
 11
193.42892449999999
 21
421.82957450000004
  0
LINE
  8
_0-0_0
  6
CONTINUOUS
 62
    7
 10
181.42892449999999
 20
423.17457550000006
 11
181.42892449999999
 21
421.17457550000006
  0
LINE
  8
_0-0_0
  6
CONTINUOUS
 62
    7
 10
193.42892449999999
 20
423.17457550000006
 11
181.42892449999999
 21
423.17457550000006
  0
LINE
  8
_0-0_0
  6
CONTINUOUS
 62
    7
 10
181.42892449999999
 20
417.67457550000006
 11
181.42892449999999
 21
420.67457550000006
  0
LINE
  8
_0-0_0
  6
CONTINUOUS
 62
    7
 10
181.42892449999999
 20
420.67457550000006
 11
181.42892449999999
 21
421.17457550000006
  0
LINE
  8
_0-0_0
  6
CONTINUOUS
 62
    7
 10
181.42892449999999
 20
417.67457550000006
 11
181.42892449999999
 21
417.17457550000006
  0
ARC
  8
_0-0_0
  6
CONTINUOUS
 62
    7
 10
187.42893950000001
 20
417.87455750000004
 40
0.500016
 50
0.001164
 51
179.99560600000004
  0
LINE
  8
_0-0_0
  6
CONTINUOUS
 62
    7
 10
186.92892449999999
 20
417.87455750000004
 11
186.92892449999999
 21
405.87455750000004
  0
ARC
  8
_0-0_0
  6
CONTINUOUS
 62
    7
 10
187.42893950000001
 20
405.87458849999996
 40
0.500016
 50
180.00117
 51
359.995611
  0
LINE
  8
_0-0_0
  6
CONTINUOUS
 62
    7
 10
187.92892449999999
 20
417.87455750000004
 11
187.92892449999999
 21
405.87455750000004
  0
ARC
  8
_0-0_0
  6
CONTINUOUS
 62
    7
 10
185.92893950000001
 20
417.87455750000004
 40
0.500016
 50
0.001164
 51
179.99560600000004
  0
LINE
  8
_0-0_0
  6
CONTINUOUS
 62
    7
 10
185.42892449999999
 20
417.87455750000004
 11
185.42892449999999
 21
405.87455750000004
  0
ARC
  8
_0-0_0
  6
CONTINUOUS
 62
    7
 10
185.92893950000001
 20
405.87458849999996
 40
0.500016
 50
180.00117
 51
359.995611
  0
LINE
  8
_0-0_0
  6
CONTINUOUS
 62
    7
 10
186.42892449999999
 20
417.87455750000004
 11
186.42892449999999
 21
405.87455750000004
  0
ARC
  8
_0-0_0
  6
CONTINUOUS
 62
    7
 10
184.42893950000001
 20
417.87455750000004
 40
0.500016
 50
0.001164
 51
179.99560600000004
  0
LINE
  8
_0-0_0
  6
CONTINUOUS
 62
    7
 10
183.92892449999999
 20
417.87455750000004
 11
183.92892449999999
 21
405.87455750000004
  0
ARC
  8
_0-0_0
  6
CONTINUOUS
 62
    7
 10
184.42893950000001
 20
405.87458849999996
 40
0.500016
 50
180.00117
 51
359.995611
  0
LINE
  8
_0-0_0
  6
CONTINUOUS
 62
    7
 10
184.92892449999999
 20
417.87455750000004
 11
184.92892449999999
 21
405.87455750000004
  0
ARC
  8
_0-0_0
  6
CONTINUOUS
 62
    7
 10
182.92893950000001
 20
417.87455750000004
 40
0.500016
 50
0.001164
 51
179.99560600000004
  0
LINE
  8
_0-0_0
  6
CONTINUOUS
 62
    7
 10
182.42892449999999
 20
417.87455750000004
 11
182.42892449999999
 21
405.87455750000004
  0
ARC
  8
_0-0_0
  6
CONTINUOUS
 62
    7
 10
182.92893950000001
 20
405.87458849999996
 40
0.500016
 50
180.00117
 51
359.995611
  0
LINE
  8
_0-0_0
  6
CONTINUOUS
 62
    7
 10
183.42892449999999
 20
417.87455750000004
 11
183.42892449999999
 21
405.87455750000004
  0
LINE
  8
_0-0_0
  6
CONTINUOUS
 62
    7
 10
193.42892449999999
 20
401.57456950000005
 11
176.7534795
 21
401.57456950000005
  0
LINE
  8
_0-0_0
  6
CONTINUOUS
 62
    7
 10
203.9789275
 20
403.55152950000002
 11
203.9789275
 21
403.57456950000005
  0
LINE
  8
_0-0_0
  6
CONTINUOUS
 62
    7
 10
272.87892150000005
 20
403.55152950000002
 11
272.87892150000005
 21
403.57456950000005
  0
LINE
  8
_0-0_0
  6
CONTINUOUS
 62
    7
 10
179.92892449999999
 20
426.07456950000005
 11
179.92892449999999
 21
426.57456950000005
  0
LINE
  8
_0-0_0
  6
CONTINUOUS
 62
    7
 10
276.42892449999999
 20
426.57456950000005
 11
179.92892449999999
 21
426.57456950000005
  0
LINE
  8
_0-0_0
  6
CONTINUOUS
 62
    7
 10
179.92892449999999
 20
426.57456950000005
 11
179.92892449999999
 21
427.57456950000005
  0
LINE
  8
_0-0_0
  6
CONTINUOUS
 62
    7
 10
276.42904650000003
 20
427.57463050000001
 11
276.42904650000003
 21
427.07463050000001
  0
LINE
  8
_0-0_0
  6
CONTINUOUS
 62
    7
 10
276.42904650000003
 20
427.07463050000001
 11
276.42904650000003
 21
425.57463050000001
  0
ARC
  8
_0-0_0
  6
CONTINUOUS
 62
    7
 10
266.92892449999999
 20
417.17457550000006
 40
4.5
 50
269.99999700000001
 51
90.000002999999992
  0
LINE
  8
_0-0_0
  6
CONTINUOUS
 62
    7
 10
266.92892449999999
 20
412.67457550000006
 11
261.92892449999999
 21
412.67457550000006
  0
ARC
  8
_0-0_0
  6
CONTINUOUS
 62
    7
 10
261.92892449999999
 20
417.17457550000006
 40
4.5
 50
90.000003000000007
 51
269.99999700000006
  0
LINE
  8
_0-0_0
  6
CONTINUOUS
 62
    7
 10
261.92892449999999
 20
421.67457550000006
 11
266.92892449999999
 21
421.67457550000006
  0
ARC
  8
_0-0_0
  6
CONTINUOUS
 62
    7
 10
210.92892449999999
 20
417.17457550000006
 40
4.5
 50
269.99999700000001
 51
90.000002999999992
  0
LINE
  8
_0-0_0
  6
CONTINUOUS
 62
    7
 10
210.92892449999999
 20
412.67457550000006
 11
205.92892449999999
 21
412.67457550000006
  0
ARC
  8
_0-0_0
  6
CONTINUOUS
 62
    7
 10
205.92892449999999
 20
417.17457550000006
 40
4.5
 50
90.000003000000007
 51
269.99999700000006
  0
LINE
  8
_0-0_0
  6
CONTINUOUS
 62
    7
 10
205.92892449999999
 20
421.67457550000006
 11
210.92892449999999
 21
421.67457550000006
  0
LINE
  8
_0-0_0
  6
CONTINUOUS
 62
    7
 10
193.42892449999999
 20
423.87455750000004
 11
193.42892449999999
 21
425.57456950000005
  0
LINE
  8
_0-0_0
  6
CONTINUOUS
 62
    7
 10
193.42892449999999
 20
425.57456950000005
 11
179.92892449999999
 21
425.57456950000005
  0
LINE
  8
_0-0_0
  6
CONTINUOUS
 62
    7
 10
179.92892449999999
 20
423.87455750000004
 11
179.92892449999999
 21
425.57456950000005
  0
LINE
  8
_0-0_0
  6
CONTINUOUS
 62
    7
 10
181.42892449999999
 20
423.17457550000006
 11
176.7534795
 21
423.17457550000006
  0
LINE
  8
_0-0_0
  6
CONTINUOUS
 62
    7
 10
181.42892449999999
 20
417.67457550000006
 11
176.7534795
 21
417.67457550000006
  0
LINE
  8
_0-0_0
  6
CONTINUOUS
 62
    7
 10
176.12103250000001
 20
401.67720050000003
 11
176.24053950000001
 21
401.64158650000002
  0
LINE
  8
_0-0_0
  6
CONTINUOUS
 62
    7
 10
176.24053950000001
 20
401.64158650000002
 11
176.36209150000002
 21
401.61369350000007
  0
LINE
  8
_0-0_0
  6
CONTINUOUS
 62
    7
 10
176.36209150000002
 20
401.61369350000007
 11
176.48521450000001
 21
401.59367350000002
  0
LINE
  8
_0-0_0
  6
CONTINUOUS
 62
    7
 10
176.48521450000001
 20
401.59367350000002
 11
176.60943650000002
 21
401.58155850000003
  0
LINE
  8
_0-0_0
  6
CONTINUOUS
 62
    7
 10
176.60943650000002
 20
401.58155850000003
 11
176.7342525
 21
401.57740750000005
  0
LINE
  8
_0-0_0
  6
CONTINUOUS
 62
    7
 10
176.7342525
 20
401.57740750000005
 11
176.7534795
 21
401.57749950000004
  0
ARC
  8
_0-0_0
  6
CONTINUOUS
 62
    7
 10
176.7534795
 20
403.57456950000005
 40
2
 50
251.56498899999997
 51
269.99999700000001
  0
LINE
  8
_0-0_0
  6
CONTINUOUS
 62
    7
 10
179.92892449999999
 20
423.87455750000004
 11
193.42892449999999
 21
423.87455750000004
  0
CIRCLE
  8
_0-0_0
  6
CONTINUOUS
 62
    7
 10
274.42892449999999
 20
424.07456950000005
 40
1.4750000000000001
  0
CIRCLE
  8
_0-0_0
  6
CONTINUOUS
 62
    7
 10
195.42892449999999
 20
424.07456950000005
 40
1.4750000000000001
  0
ARC
  8
_0-0_0
  6
CONTINUOUS
 62
    7
 10
176.7534795
 20
421.17457550000006
 40
2
 50
90.000003000000007
 51
108.434997
  0
LINE
  8
_0-0_0
  6
CONTINUOUS
 62
    7
 10
171.9545895
 20
417.67457550000006
 11
171.26123050000001
 21
417.67457550000006
  0
LINE
  8
_0-0_0
  6
CONTINUOUS
 62
    7
 10
171.9545895
 20
417.67457550000006
 11
176.2791445
 21
417.67457550000006
  0
LINE
  8
_0-0_0
  6
CONTINUOUS
 62
    7
 10
176.7534795
 20
417.67457550000006
 11
176.2791445
 21
417.67457550000006
  0
LINE
  8
_0-0_0
  6
CONTINUOUS
 62
    7
 10
171.79647850000001
 20
403.11872849999997
 11
176.12103250000001
 21
401.67720050000003
  0
LINE
  8
_0-0_0
  6
CONTINUOUS
 62
    7
 10
270.9789275
 20
417.17457550000006
 11
268.66952550000002
 21
413.17457550000006
  0
LINE
  8
_0-0_0
  6
CONTINUOUS
 62
    7
 10
260.18832450000002
 20
413.17457550000006
 11
268.66952550000002
 21
413.17457550000006
  0
LINE
  8
_0-0_0
  6
CONTINUOUS
 62
    7
 10
260.18832450000002
 20
413.17457550000006
 11
257.87892150000005
 21
417.17457550000006
  0
LINE
  8
_0-0_0
  6
CONTINUOUS
 62
    7
 10
257.87892150000005
 20
417.17457550000006
 11
260.18832450000002
 21
421.17457550000006
  0
LINE
  8
_0-0_0
  6
CONTINUOUS
 62
    7
 10
268.66952550000002
 20
421.17457550000006
 11
260.18832450000002
 21
421.17457550000006
  0
LINE
  8
_0-0_0
  6
CONTINUOUS
 62
    7
 10
268.66952550000002
 20
421.17457550000006
 11
270.9789275
 21
417.17457550000006
  0
LINE
  8
_0-0_0
  6
CONTINUOUS
 62
    7
 10
204.18832449999999
 20
421.17457550000006
 11
201.87893650000001
 21
417.17457550000006
  0
LINE
  8
_0-0_0
  6
CONTINUOUS
 62
    7
 10
212.66952550000002
 20
421.17457550000006
 11
204.18832449999999
 21
421.17457550000006
  0
LINE
  8
_0-0_0
  6
CONTINUOUS
 62
    7
 10
214.9789275
 20
417.17457550000006
 11
212.66952550000002
 21
421.17457550000006
  0
LINE
  8
_0-0_0
  6
CONTINUOUS
 62
    7
 10
212.66952550000002
 20
413.17457550000006
 11
214.9789275
 21
417.17457550000006
  0
LINE
  8
_0-0_0
  6
CONTINUOUS
 62
    7
 10
204.18832449999999
 20
413.17457550000006
 11
212.66952550000002
 21
413.17457550000006
  0
LINE
  8
_0-0_0
  6
CONTINUOUS
 62
    7
 10
201.87893650000001
 20
417.17457550000006
 11
204.18832449999999
 21
413.17457550000006
  0
LINE
  8
_0-0_0
  6
CONTINUOUS
 62
    7
 10
175.67892449999999
 20
422.92457550000006
 11
176.12103250000001
 21
423.07194549999997
  0
LINE
  8
_0-0_0
  6
CONTINUOUS
 62
    7
 10
170.42892449999999
 20
418.42460649999998
 11
170.42892449999999
 21
417.30357349999997
  0
LINE
  8
_0-0_0
  6
CONTINUOUS
 62
    7
 10
170.42892449999999
 20
416.38224850000006
 11
170.42892449999999
 21
417.30357349999997
  0
LINE
  8
_0-0_0
  6
CONTINUOUS
 62
    7
 10
170.72894250000002
 20
414.58656350000001
 11
170.67013550000001
 21
414.83338950000007
  0
LINE
  8
_0-0_0
  6
CONTINUOUS
 62
    7
 10
170.67013550000001
 20
414.83338950000007
 11
170.6203615
 21
415.02574149999998
  0
LINE
  8
_0-0_0
  6
CONTINUOUS
 62
    7
 10
170.6203615
 20
415.02574149999998
 11
170.5492405
 21
415.29151950000005
  0
LINE
  8
_0-0_0
  6
CONTINUOUS
 62
    7
 10
170.5492405
 20
415.29151950000005
 11
170.51628150000002
 21
415.41825849999998
  0
LINE
  8
_0-0_0
  6
CONTINUOUS
 62
    7
 10
170.51628150000002
 20
415.41825849999998
 11
170.4910275
 21
415.5216825
  0
LINE
  8
_0-0_0
  6
CONTINUOUS
 62
    7
 10
170.4910275
 20
415.5216825
 11
170.46899450000001
 21
415.62159750000001
  0
LINE
  8
_0-0_0
  6
CONTINUOUS
 62
    7
 10
170.46899450000001
 20
415.62159750000001
 11
170.44761650000001
 21
415.73930350000001
  0
LINE
  8
_0-0_0
  6
CONTINUOUS
 62
    7
 10
170.44761650000001
 20
415.73930350000001
 11
170.4390415
 21
415.80143750000002
  0
LINE
  8
_0-0_0
  6
CONTINUOUS
 62
    7
 10
170.4390415
 20
415.80143750000002
 11
170.4329525
 21
415.86204550000002
  0
LINE
  8
_0-0_0
  6
CONTINUOUS
 62
    7
 10
170.4329525
 20
415.86204550000002
 11
170.42996250000002
 21
415.91130050000004
  0
LINE
  8
_0-0_0
  6
CONTINUOUS
 62
    7
 10
170.42996250000002
 20
415.91130050000004
 11
170.42892449999999
 21
415.95951850000006
  0
LINE
  8
_0-0_0
  6
CONTINUOUS
 62
    7
 10
170.72894250000002
 20
410.16255250000006
 11
170.81239350000001
 21
410.54124450000006
  0
LINE
  8
_0-0_0
  6
CONTINUOUS
 62
    7
 10
170.81239350000001
 20
410.54124450000006
 11
170.85247850000002
 21
410.73274249999997
  0
LINE
  8
_0-0_0
  6
CONTINUOUS
 62
    7
 10
170.85247850000002
 20
410.73274249999997
 11
170.9085695
 21
411.02278150000006
  0
LINE
  8
_0-0_0
  6
CONTINUOUS
 62
    7
 10
170.9085695
 20
411.02278150000006
 11
170.9461675
 21
411.24235550000003
  0
LINE
  8
_0-0_0
  6
CONTINUOUS
 62
    7
 10
170.9461675
 20
411.24235550000003
 11
170.97882050000001
 21
411.46360749999997
  0
LINE
  8
_0-0_0
  6
CONTINUOUS
 62
    7
 10
170.97882050000001
 20
411.46360749999997
 11
171.00598150000002
 21
411.69041449999997
  0
LINE
  8
_0-0_0
  6
CONTINUOUS
 62
    7
 10
171.00598150000002
 20
411.69041449999997
 11
171.02603150000002
 21
411.9178015
  0
LINE
  8
_0-0_0
  6
CONTINUOUS
 62
    7
 10
171.02603150000002
 20
411.9178015
 11
171.03320350000001
 21
412.03154050000001
  0
LINE
  8
_0-0_0
  6
CONTINUOUS
 62
    7
 10
171.03320350000001
 20
412.03154050000001
 11
171.03836050000001
 21
412.14521850000006
  0
LINE
  8
_0-0_0
  6
CONTINUOUS
 62
    7
 10
171.03836050000001
 20
412.14521850000006
 11
171.0420685
 21
412.29664650000007
  0
LINE
  8
_0-0_0
  6
CONTINUOUS
 62
    7
 10
171.0420685
 20
412.29664650000007
 11
171.04212950000002
 21
412.44792150000001
  0
LINE
  8
_0-0_0
  6
CONTINUOUS
 62
    7
 10
171.04212950000002
 20
412.44792150000001
 11
171.0385435
 21
412.59895349999999
  0
LINE
  8
_0-0_0
  6
CONTINUOUS
 62
    7
 10
171.0385435
 20
412.59895349999999
 11
171.02905250000001
 21
412.78752150000003
  0
LINE
  8
_0-0_0
  6
CONTINUOUS
 62
    7
 10
171.02905250000001
 20
412.78752150000003
 11
171.01417549999999
 21
412.9757535
  0
LINE
  8
_0-0_0
  6
CONTINUOUS
 62
    7
 10
171.01417549999999
 20
412.9757535
 11
170.99426250000002
 21
413.16371149999998
  0
LINE
  8
_0-0_0
  6
CONTINUOUS
 62
    7
 10
170.99426250000002
 20
413.16371149999998
 11
170.97787450000001
 21
413.29258749999997
  0
LINE
  8
_0-0_0
  6
CONTINUOUS
 62
    7
 10
170.97787450000001
 20
413.29258749999997
 11
170.95945750000001
 21
413.42121950000001
  0
LINE
  8
_0-0_0
  6
CONTINUOUS
 62
    7
 10
170.95945750000001
 20
413.42121950000001
 11
170.93530250000001
 21
413.57316649999996
  0
LINE
  8
_0-0_0
  6
CONTINUOUS
 62
    7
 10
170.93530250000001
 20
413.57316649999996
 11
170.9089055
 21
413.72450249999997
  0
LINE
  8
_0-0_0
  6
CONTINUOUS
 62
    7
 10
170.9089055
 20
413.72450249999997
 11
170.8527225
 21
414.01512149999996
  0
LINE
  8
_0-0_0
  6
CONTINUOUS
 62
    7
 10
170.8527225
 20
414.01512149999996
 11
170.81256150000002
 21
414.20707749999997
  0
LINE
  8
_0-0_0
  6
CONTINUOUS
 62
    7
 10
170.81256150000002
 20
414.20707749999997
 11
170.72894250000002
 21
414.58656350000001
  0
LINE
  8
_0-0_0
  6
CONTINUOUS
 62
    7
 10
170.7289275
 20
410.16255250000006
 11
170.67013550000001
 21
409.91569549999997
  0
LINE
  8
_0-0_0
  6
CONTINUOUS
 62
    7
 10
170.67013550000001
 20
409.91569549999997
 11
170.6203615
 21
409.72337349999998
  0
LINE
  8
_0-0_0
  6
CONTINUOUS
 62
    7
 10
170.6203615
 20
409.72337349999998
 11
170.54925550000002
 21
409.45762650000006
  0
LINE
  8
_0-0_0
  6
CONTINUOUS
 62
    7
 10
170.54925550000002
 20
409.45762650000006
 11
170.51629650000001
 21
409.33094849999998
  0
LINE
  8
_0-0_0
  6
CONTINUOUS
 62
    7
 10
170.51629650000001
 20
409.33094849999998
 11
170.4910275
 21
409.22749350000004
  0
LINE
  8
_0-0_0
  6
CONTINUOUS
 62
    7
 10
170.4910275
 20
409.22749350000004
 11
170.46899450000001
 21
409.12751750000007
  0
LINE
  8
_0-0_0
  6
CONTINUOUS
 62
    7
 10
170.46899450000001
 20
409.12751750000007
 11
170.44760150000002
 21
409.00981149999996
  0
LINE
  8
_0-0_0
  6
CONTINUOUS
 62
    7
 10
170.44760150000002
 20
409.00981149999996
 11
170.4390415
 21
408.94767750000005
  0
LINE
  8
_0-0_0
  6
CONTINUOUS
 62
    7
 10
170.4390415
 20
408.94767750000005
 11
170.4329525
 21
408.88710049999997
  0
LINE
  8
_0-0_0
  6
CONTINUOUS
 62
    7
 10
170.4329525
 20
408.88710049999997
 11
170.42996250000002
 21
408.83784449999996
  0
LINE
  8
_0-0_0
  6
CONTINUOUS
 62
    7
 10
170.42996250000002
 20
408.83784449999996
 11
170.42892449999999
 21
408.78962750000005
  0
LINE
  8
_0-0_0
  6
CONTINUOUS
 62
    7
 10
170.42892449999999
 20
405.0160985
 11
170.42892449999999
 21
408.36686750000001
  0
ARC
  8
_0-0_0
  6
CONTINUOUS
 62
    7
 10
172.42892449999999
 20
405.0160985
 40
2
 50
180.00000900000003
 51
251.56498900000003
  0
LINE
  8
_0-0_0
  6
CONTINUOUS
 62
    7
 10
274.87892150000005
 20
423.87455750000004
 11
275.5289305
 21
423.87455750000004
  0
ARC
  8
_0-0_0
  6
CONTINUOUS
 62
    7
 10
274.87892150000005
 20
423.62455750000004
 40
0.25
 50
90.000003000000007
 51
180.00000900000001
  0
LINE
  8
_0-0_0
  6
CONTINUOUS
 62
    7
 10
274.62892150000005
 20
423.62455750000004
 11
274.62892150000005
 21
422.97456350000004
  0
LINE
  8
_0-0_0
  6
CONTINUOUS
 62
    7
 10
274.2289275
 20
422.97456350000004
 11
274.62892150000005
 21
422.97456350000004
  0
LINE
  8
_0-0_0
  6
CONTINUOUS
 62
    7
 10
274.2289275
 20
422.97456350000004
 11
274.2289275
 21
423.62455750000004
  0
ARC
  8
_0-0_0
  6
CONTINUOUS
 62
    7
 10
273.9789275
 20
423.62455750000004
 40
0.25
 50
0
 51
90.000003000000007
  0
LINE
  8
_0-0_0
  6
CONTINUOUS
 62
    7
 10
273.32893350000001
 20
423.87455750000004
 11
273.9789275
 21
423.87455750000004
  0
LINE
  8
_0-0_0
  6
CONTINUOUS
 62
    7
 10
273.32893350000001
 20
423.87455750000004
 11
273.32893350000001
 21
424.27458250000007
  0
LINE
  8
_0-0_0
  6
CONTINUOUS
 62
    7
 10
273.9789275
 20
424.27458250000007
 11
273.32893350000001
 21
424.27458250000007
  0
ARC
  8
_0-0_0
  6
CONTINUOUS
 62
    7
 10
273.9789275
 20
424.52458250000007
 40
0.25
 50
269.99999700000001
 51
0
  0
LINE
  8
_0-0_0
  6
CONTINUOUS
 62
    7
 10
274.2289275
 20
424.52458250000007
 11
274.2289275
 21
425.17457550000006
  0
LINE
  8
_0-0_0
  6
CONTINUOUS
 62
    7
 10
274.62892150000005
 20
425.17457550000006
 11
274.2289275
 21
425.17457550000006
  0
LINE
  8
_0-0_0
  6
CONTINUOUS
 62
    7
 10
274.62892150000005
 20
425.17457550000006
 11
274.62892150000005
 21
424.52458250000007
  0
ARC
  8
_0-0_0
  6
CONTINUOUS
 62
    7
 10
274.87892150000005
 20
424.52458250000007
 40
0.25
 50
180.00000900000003
 51
269.99999700000001
  0
LINE
  8
_0-0_0
  6
CONTINUOUS
 62
    7
 10
275.5289305
 20
424.27458250000007
 11
274.87892150000005
 21
424.27458250000007
  0
LINE
  8
_0-0_0
  6
CONTINUOUS
 62
    7
 10
275.5289305
 20
424.27458250000007
 11
275.5289305
 21
423.87455750000004
  0
LINE
  8
_0-0_0
  6
CONTINUOUS
 62
    7
 10
195.87893650000001
 20
423.87455750000004
 11
196.5289305
 21
423.87455750000004
  0
ARC
  8
_0-0_0
  6
CONTINUOUS
 62
    7
 10
195.87893650000001
 20
423.62455750000004
 40
0.25
 50
90.000003000000007
 51
180.00000900000001
  0
LINE
  8
_0-0_0
  6
CONTINUOUS
 62
    7
 10
195.62893650000001
 20
423.62455750000004
 11
195.62893650000001
 21
422.97456350000004
  0
LINE
  8
_0-0_0
  6
CONTINUOUS
 62
    7
 10
195.2289275
 20
422.97456350000004
 11
195.62893650000001
 21
422.97456350000004
  0
LINE
  8
_0-0_0
  6
CONTINUOUS
 62
    7
 10
195.2289275
 20
422.97456350000004
 11
195.2289275
 21
423.62455750000004
  0
ARC
  8
_0-0_0
  6
CONTINUOUS
 62
    7
 10
194.9789275
 20
423.62455750000004
 40
0.25
 50
0
 51
90.000003000000007
  0
LINE
  8
_0-0_0
  6
CONTINUOUS
 62
    7
 10
194.32893350000001
 20
423.87455750000004
 11
194.9789275
 21
423.87455750000004
  0
LINE
  8
_0-0_0
  6
CONTINUOUS
 62
    7
 10
194.32893350000001
 20
423.87455750000004
 11
194.32893350000001
 21
424.27458250000007
  0
LINE
  8
_0-0_0
  6
CONTINUOUS
 62
    7
 10
194.9789275
 20
424.27458250000007
 11
194.32893350000001
 21
424.27458250000007
  0
ARC
  8
_0-0_0
  6
CONTINUOUS
 62
    7
 10
194.9789275
 20
424.52458250000007
 40
0.25
 50
269.99999700000001
 51
0
  0
LINE
  8
_0-0_0
  6
CONTINUOUS
 62
    7
 10
195.2289275
 20
424.52458250000007
 11
195.2289275
 21
425.17457550000006
  0
LINE
  8
_0-0_0
  6
CONTINUOUS
 62
    7
 10
195.62893650000001
 20
425.17457550000006
 11
195.2289275
 21
425.17457550000006
  0
LINE
  8
_0-0_0
  6
CONTINUOUS
 62
    7
 10
195.62893650000001
 20
425.17457550000006
 11
195.62893650000001
 21
424.52458250000007
  0
ARC
  8
_0-0_0
  6
CONTINUOUS
 62
    7
 10
195.87893650000001
 20
424.52458250000007
 40
0.25
 50
180.00000900000003
 51
269.99999700000001
  0
LINE
  8
_0-0_0
  6
CONTINUOUS
 62
    7
 10
196.5289305
 20
424.27458250000007
 11
195.87893650000001
 21
424.27458250000007
  0
LINE
  8
_0-0_0
  6
CONTINUOUS
 62
    7
 10
196.5289305
 20
424.27458250000007
 11
196.5289305
 21
423.87455750000004
  0
LINE
  8
_0-0_0
  6
CONTINUOUS
 62
    7
 10
155.42892449999999
 20
421.90000950000001
 11
155.42892449999999
 21
421.75328049999996
  0
LINE
  8
_0-0_0
  6
CONTINUOUS
 62
    7
 10
155.42892449999999
 20
422.0905305
 11
155.42892449999999
 21
421.90000950000001
  0
LINE
  8
_0-0_0
  6
CONTINUOUS
 62
    7
 10
155.42892449999999
 20
422.26554850000002
 11
155.42892449999999
 21
422.0905305
  0
LINE
  8
_0-0_0
  6
CONTINUOUS
 62
    7
 10
155.42892449999999
 20
422.42314150000004
 11
155.42892449999999
 21
422.26554850000002
  0
LINE
  8
_0-0_0
  6
CONTINUOUS
 62
    7
 10
155.42892449999999
 20
422.56156950000002
 11
155.42892449999999
 21
422.42314150000004
  0
LINE
  8
_0-0_0
  6
CONTINUOUS
 62
    7
 10
155.42892449999999
 20
422.67933649999998
 11
155.42892449999999
 21
422.56156950000002
  0
LINE
  8
_0-0_0
  6
CONTINUOUS
 62
    7
 10
155.42892449999999
 20
422.77513150000004
 11
155.42892449999999
 21
422.67933649999998
  0
LINE
  8
_0-0_0
  6
CONTINUOUS
 62
    7
 10
155.42892449999999
 20
422.8479155
 11
155.42892449999999
 21
422.77513150000004
  0
LINE
  8
_0-0_0
  6
CONTINUOUS
 62
    7
 10
155.42892449999999
 20
422.89686549999999
 11
155.42892449999999
 21
422.8479155
  0
LINE
  8
_0-0_0
  6
CONTINUOUS
 62
    7
 10
155.42892449999999
 20
422.92457550000006
 11
155.42892449999999
 21
422.89686549999999
  0
LINE
  8
_0-0_0
  6
CONTINUOUS
 62
    7
 10
155.42892449999999
 20
422.92457550000006
 11
155.42892449999999
 21
422.9214935
  0
LINE
  8
_0-0_0
  6
CONTINUOUS
 62
    7
 10
155.42892449999999
 20
418.42765850000001
 11
155.42892449999999
 21
418.42457550000006
  0
LINE
  8
_0-0_0
  6
CONTINUOUS
 62
    7
 10
155.42892449999999
 20
418.45228550000002
 11
155.42892449999999
 21
418.42457550000006
  0
LINE
  8
_0-0_0
  6
CONTINUOUS
 62
    7
 10
155.42892449999999
 20
418.5012365
 11
155.42892449999999
 21
418.45228550000002
  0
LINE
  8
_0-0_0
  6
CONTINUOUS
 62
    7
 10
155.42892449999999
 20
418.57402049999996
 11
155.42892449999999
 21
418.5012365
  0
LINE
  8
_0-0_0
  6
CONTINUOUS
 62
    7
 10
155.42892449999999
 20
418.66981550000003
 11
155.42892449999999
 21
418.57402049999996
  0
LINE
  8
_0-0_0
  6
CONTINUOUS
 62
    7
 10
155.42892449999999
 20
418.69999749999999
 11
155.42892449999999
 21
418.66981550000003
  0
LINE
  8
_0-0_0
  6
CONTINUOUS
 62
    7
 10
155.42892449999999
 20
418.78755250000006
 11
155.42892449999999
 21
418.69999749999999
  0
LINE
  8
_0-0_0
  6
CONTINUOUS
 62
    7
 10
155.42892449999999
 20
418.92597950000004
 11
155.42892449999999
 21
418.78755250000006
  0
LINE
  8
_0-0_0
  6
CONTINUOUS
 62
    7
 10
155.42892449999999
 20
419.08357250000006
 11
155.42892449999999
 21
418.92597950000004
  0
LINE
  8
_0-0_0
  6
CONTINUOUS
 62
    7
 10
155.42892449999999
 20
419.25859049999997
 11
155.42892449999999
 21
419.08357250000006
  0
LINE
  8
_0-0_0
  6
CONTINUOUS
 62
    7
 10
155.42892449999999
 20
419.44914249999999
 11
155.42892449999999
 21
419.25859049999997
  0
LINE
  8
_0-0_0
  6
CONTINUOUS
 62
    7
 10
155.42892449999999
 20
419.65309149999996
 11
155.42892449999999
 21
419.44914249999999
  0
LINE
  8
_0-0_0
  6
CONTINUOUS
 62
    7
 10
155.42892449999999
 20
419.86824049999996
 11
155.42892449999999
 21
419.65309149999996
  0
LINE
  8
_0-0_0
  6
CONTINUOUS
 62
    7
 10
155.42892449999999
 20
420.09223950000001
 11
155.42892449999999
 21
419.86824049999996
  0
LINE
  8
_0-0_0
  6
CONTINUOUS
 62
    7
 10
155.42892449999999
 20
420.32258650000006
 11
155.42892449999999
 21
420.09223950000001
  0
LINE
  8
_0-0_0
  6
CONTINUOUS
 62
    7
 10
155.42892449999999
 20
420.55680849999999
 11
155.42892449999999
 21
420.32258650000006
  0
LINE
  8
_0-0_0
  6
CONTINUOUS
 62
    7
 10
155.42892449999999
 20
420.79231249999998
 11
155.42892449999999
 21
420.55680849999999
  0
LINE
  8
_0-0_0
  6
CONTINUOUS
 62
    7
 10
155.42892449999999
 20
421.02653550000002
 11
155.42892449999999
 21
420.79231249999998
  0
LINE
  8
_0-0_0
  6
CONTINUOUS
 62
    7
 10
155.42892449999999
 20
421.2569125
 11
155.42892449999999
 21
421.02653550000002
  0
LINE
  8
_0-0_0
  6
CONTINUOUS
 62
    7
 10
155.42892449999999
 20
421.48091150000005
 11
155.42892449999999
 21
421.2569125
  0
LINE
  8
_0-0_0
  6
CONTINUOUS
 62
    7
 10
155.42892449999999
 20
421.69606050000004
 11
155.42892449999999
 21
421.48091150000005
  0
LINE
  8
_0-0_0
  6
CONTINUOUS
 62
    7
 10
155.42892449999999
 20
421.75328049999996
 11
155.42892449999999
 21
421.69606050000004
  0
LINE
  8
_0-0_0
  6
CONTINUOUS
 62
    7
 10
170.42892449999999
 20
413.93663049999998
 11
170.42892449999999
 21
414.98225450000007
  0
LINE
  8
_0-0_0
  6
CONTINUOUS
 62
    7
 10
170.42892449999999
 20
416.2668615
 11
170.42892449999999
 21
414.98225450000007
  0
LINE
  8
_0-0_0
  6
CONTINUOUS
 62
    7
 10
170.42892449999999
 20
416.38224850000006
 11
170.42892449999999
 21
416.2668615
  0
LINE
  8
_0-0_0
  6
CONTINUOUS
 62
    7
 10
170.42892449999999
 20
413.93663049999998
 11
170.42892449999999
 21
410.81251550000002
  0
LINE
  8
_0-0_0
  6
CONTINUOUS
 62
    7
 10
170.42892449999999
 20
408.36686750000001
 11
170.42892449999999
 21
408.48225450000007
  0
LINE
  8
_0-0_0
  6
CONTINUOUS
 62
    7
 10
170.42892449999999
 20
409.7668615
 11
170.42892449999999
 21
408.48225450000007
  0
LINE
  8
_0-0_0
  6
CONTINUOUS
 62
    7
 10
170.42892449999999
 20
409.7668615
 11
170.42892449999999
 21
410.81251550000002
  0
LINE
  8
_0-0_0
  6
CONTINUOUS
 62
    7
 10
155.42892449999999
 20
405.3000035
 11
155.42892449999999
 21
405.15327450000007
  0
LINE
  8
_0-0_0
  6
CONTINUOUS
 62
    7
 10
155.42892449999999
 20
405.49055450000003
 11
155.42892449999999
 21
405.3000035
  0
LINE
  8
_0-0_0
  6
CONTINUOUS
 62
    7
 10
155.42892449999999
 20
405.66557350000005
 11
155.42892449999999
 21
405.49055450000003
  0
LINE
  8
_0-0_0
  6
CONTINUOUS
 62
    7
 10
155.42892449999999
 20
405.82313550000003
 11
155.42892449999999
 21
405.66557350000005
  0
LINE
  8
_0-0_0
  6
CONTINUOUS
 62
    7
 10
155.42892449999999
 20
405.96159350000005
 11
155.42892449999999
 21
405.82313550000003
  0
LINE
  8
_0-0_0
  6
CONTINUOUS
 62
    7
 10
155.42892449999999
 20
406.07933049999997
 11
155.42892449999999
 21
405.96159350000005
  0
LINE
  8
_0-0_0
  6
CONTINUOUS
 62
    7
 10
155.42892449999999
 20
406.17512550000004
 11
155.42892449999999
 21
406.07933049999997
  0
LINE
  8
_0-0_0
  6
CONTINUOUS
 62
    7
 10
155.42892449999999
 20
406.24790949999999
 11
155.42892449999999
 21
406.17512550000004
  0
LINE
  8
_0-0_0
  6
CONTINUOUS
 62
    7
 10
155.42892449999999
 20
406.29685949999998
 11
155.42892449999999
 21
406.24790949999999
  0
LINE
  8
_0-0_0
  6
CONTINUOUS
 62
    7
 10
155.42892449999999
 20
406.32456950000005
 11
155.42892449999999
 21
406.29685949999998
  0
LINE
  8
_0-0_0
  6
CONTINUOUS
 62
    7
 10
155.42892449999999
 20
406.32456950000005
 11
155.42892449999999
 21
406.32148749999999
  0
LINE
  8
_0-0_0
  6
CONTINUOUS
 62
    7
 10
155.42892449999999
 20
401.8276525
 11
155.42892449999999
 21
401.82456950000005
  0
LINE
  8
_0-0_0
  6
CONTINUOUS
 62
    7
 10
155.42892449999999
 20
401.85227950000001
 11
155.42892449999999
 21
401.82456950000005
  0
LINE
  8
_0-0_0
  6
CONTINUOUS
 62
    7
 10
155.42892449999999
 20
401.9012295
 11
155.42892449999999
 21
401.85227950000001
  0
LINE
  8
_0-0_0
  6
CONTINUOUS
 62
    7
 10
155.42892449999999
 20
401.97401450000007
 11
155.42892449999999
 21
401.9012295
  0
LINE
  8
_0-0_0
  6
CONTINUOUS
 62
    7
 10
155.42892449999999
 20
402.06980950000002
 11
155.42892449999999
 21
401.97401450000007
  0
LINE
  8
_0-0_0
  6
CONTINUOUS
 62
    7
 10
155.42892449999999
 20
402.10002150000003
 11
155.42892449999999
 21
402.06980950000002
  0
LINE
  8
_0-0_0
  6
CONTINUOUS
 62
    7
 10
155.42892449999999
 20
402.18754550000006
 11
155.42892449999999
 21
402.10002150000003
  0
LINE
  8
_0-0_0
  6
CONTINUOUS
 62
    7
 10
155.42892449999999
 20
402.32600450000007
 11
155.42892449999999
 21
402.18754550000006
  0
LINE
  8
_0-0_0
  6
CONTINUOUS
 62
    7
 10
155.42892449999999
 20
402.48359649999998
 11
155.42892449999999
 21
402.32600450000007
  0
LINE
  8
_0-0_0
  6
CONTINUOUS
 62
    7
 10
155.42892449999999
 20
402.65858449999996
 11
155.42892449999999
 21
402.48359649999998
  0
LINE
  8
_0-0_0
  6
CONTINUOUS
 62
    7
 10
155.42892449999999
 20
402.84913649999999
 11
155.42892449999999
 21
402.65858449999996
  0
LINE
  8
_0-0_0
  6
CONTINUOUS
 62
    7
 10
155.42892449999999
 20
403.05308550000007
 11
155.42892449999999
 21
402.84913649999999
  0
LINE
  8
_0-0_0
  6
CONTINUOUS
 62
    7
 10
155.42892449999999
 20
403.26823450000006
 11
155.42892449999999
 21
403.05308550000007
  0
LINE
  8
_0-0_0
  6
CONTINUOUS
 62
    7
 10
155.42892449999999
 20
403.4922335
 11
155.42892449999999
 21
403.26823450000006
  0
LINE
  8
_0-0_0
  6
CONTINUOUS
 62
    7
 10
155.42892449999999
 20
403.72258050000005
 11
155.42892449999999
 21
403.4922335
  0
LINE
  8
_0-0_0
  6
CONTINUOUS
 62
    7
 10
155.42892449999999
 20
403.95680249999998
 11
155.42892449999999
 21
403.72258050000005
  0
LINE
  8
_0-0_0
  6
CONTINUOUS
 62
    7
 10
155.42892449999999
 20
404.19233750000001
 11
155.42892449999999
 21
403.95680249999998
  0
LINE
  8
_0-0_0
  6
CONTINUOUS
 62
    7
 10
155.42892449999999
 20
404.42655950000005
 11
155.42892449999999
 21
404.19233750000001
  0
LINE
  8
_0-0_0
  6
CONTINUOUS
 62
    7
 10
155.42892449999999
 20
404.65690649999999
 11
155.42892449999999
 21
404.42655950000005
  0
LINE
  8
_0-0_0
  6
CONTINUOUS
 62
    7
 10
155.42892449999999
 20
404.88090550000004
 11
155.42892449999999
 21
404.65690649999999
  0
LINE
  8
_0-0_0
  6
CONTINUOUS
 62
    7
 10
155.42892449999999
 20
405.09605450000004
 11
155.42892449999999
 21
404.88090550000004
  0
LINE
  8
_0-0_0
  6
CONTINUOUS
 62
    7
 10
155.42892449999999
 20
405.15327450000007
 11
155.42892449999999
 21
405.09605450000004
  0
LINE
  8
_0-0_0
  6
CONTINUOUS
 62
    7
 10
266.42892449999999
 20
414.92457550000006
 11
262.42892449999999
 21
414.92457550000006
  0
ARC
  8
_0-0_0
  6
CONTINUOUS
 62
    7
 10
262.42892449999999
 20
417.17457550000006
 40
2.25
 50
90.000003000000007
 51
269.99999700000006
  0
LINE
  8
_0-0_0
  6
CONTINUOUS
 62
    7
 10
262.42892449999999
 20
419.42457550000006
 11
266.42892449999999
 21
419.42457550000006
  0
ARC
  8
_0-0_0
  6
CONTINUOUS
 62
    7
 10
266.42892449999999
 20
417.17457550000006
 40
2.25
 50
269.99999700000001
 51
90.000002999999992
  0
ARC
  8
_0-0_0
  6
CONTINUOUS
 62
    7
 10
206.42892449999999
 20
417.17457550000006
 40
2.25
 50
90.000003000000007
 51
269.99999700000006
  0
LINE
  8
_0-0_0
  6
CONTINUOUS
 62
    7
 10
206.42892449999999
 20
419.42457550000006
 11
210.42892449999999
 21
419.42457550000006
  0
ARC
  8
_0-0_0
  6
CONTINUOUS
 62
    7
 10
210.42892449999999
 20
417.17457550000006
 40
2.25
 50
269.99999700000001
 51
90.000002999999992
  0
LINE
  8
_0-0_0
  6
CONTINUOUS
 62
    7
 10
210.42892449999999
 20
414.92457550000006
 11
206.42892449999999
 21
414.92457550000006
  0
LINE
  8
_0-0_0
  6
CONTINUOUS
 62
    7
 10
155.42892449999999
 20
421.90000950000001
 11
155.17892449999999
 21
421.92457550000006
  0
LINE
  8
_0-0_0
  6
CONTINUOUS
 62
    7
 10
155.42892449999999
 20
421.69606050000004
 11
155.17892449999999
 21
421.92457550000006
  0
LINE
  8
_0-0_0
  6
CONTINUOUS
 62
    7
 10
155.42892449999999
 20
422.0905305
 11
155.17892449999999
 21
422.14402749999999
  0
LINE
  8
_0-0_0
  6
CONTINUOUS
 62
    7
 10
155.42892449999999
 20
421.90000950000001
 11
155.17892449999999
 21
422.14402749999999
  0
LINE
  8
_0-0_0
  6
CONTINUOUS
 62
    7
 10
155.42892449999999
 20
422.26554850000002
 11
155.17892449999999
 21
422.34739650000006
  0
LINE
  8
_0-0_0
  6
CONTINUOUS
 62
    7
 10
155.42892449999999
 20
422.0905305
 11
155.17892449999999
 21
422.34739650000006
  0
LINE
  8
_0-0_0
  6
CONTINUOUS
 62
    7
 10
155.42892449999999
 20
422.42314150000004
 11
155.17892449999999
 21
422.53242550000004
  0
LINE
  8
_0-0_0
  6
CONTINUOUS
 62
    7
 10
155.42892449999999
 20
422.26554850000002
 11
155.17892449999999
 21
422.53242550000004
  0
LINE
  8
_0-0_0
  6
CONTINUOUS
 62
    7
 10
155.42892449999999
 20
422.56156950000002
 11
155.17892449999999
 21
422.69712849999996
  0
LINE
  8
_0-0_0
  6
CONTINUOUS
 62
    7
 10
155.42892449999999
 20
422.42314150000004
 11
155.17892449999999
 21
422.69712849999996
  0
LINE
  8
_0-0_0
  6
CONTINUOUS
 62
    7
 10
155.42892449999999
 20
422.67933649999998
 11
155.17892449999999
 21
422.83964549999996
  0
LINE
  8
_0-0_0
  6
CONTINUOUS
 62
    7
 10
155.42892449999999
 20
422.56156950000002
 11
155.17892449999999
 21
422.83964549999996
  0
LINE
  8
_0-0_0
  6
CONTINUOUS
 62
    7
 10
155.42892449999999
 20
422.77513150000004
 11
155.17892449999999
 21
422.95845050000003
  0
LINE
  8
_0-0_0
  6
CONTINUOUS
 62
    7
 10
155.42892449999999
 20
422.67933649999998
 11
155.17892449999999
 21
422.95845050000003
  0
LINE
  8
_0-0_0
  6
CONTINUOUS
 62
    7
 10
155.42892449999999
 20
422.8479155
 11
155.17892449999999
 21
423.05220050000003
  0
LINE
  8
_0-0_0
  6
CONTINUOUS
 62
    7
 10
155.42892449999999
 20
422.77513150000004
 11
155.17892449999999
 21
423.05220050000003
  0
LINE
  8
_0-0_0
  6
CONTINUOUS
 62
    7
 10
155.42892449999999
 20
422.89686549999999
 11
155.17892449999999
 21
423.11994949999996
  0
LINE
  8
_0-0_0
  6
CONTINUOUS
 62
    7
 10
155.42892449999999
 20
422.8479155
 11
155.17892449999999
 21
423.11994949999996
  0
LINE
  8
_0-0_0
  6
CONTINUOUS
 62
    7
 10
155.42892449999999
 20
422.9214935
 11
155.17892449999999
 21
423.16087349999998
  0
LINE
  8
_0-0_0
  6
CONTINUOUS
 62
    7
 10
155.42892449999999
 20
422.89686549999999
 11
155.17892449999999
 21
423.16087349999998
  0
LINE
  8
_0-0_0
  6
CONTINUOUS
 62
    7
 10
155.42892449999999
 20
422.9214935
 11
155.17892449999999
 21
423.17457550000006
  0
LINE
  8
_0-0_0
  6
CONTINUOUS
 62
    7
 10
155.42892449999999
 20
418.42765850000001
 11
155.17892449999999
 21
418.17457550000006
  0
LINE
  8
_0-0_0
  6
CONTINUOUS
 62
    7
 10
155.42892449999999
 20
418.45228550000002
 11
155.17892449999999
 21
418.18827850000002
  0
LINE
  8
_0-0_0
  6
CONTINUOUS
 62
    7
 10
155.42892449999999
 20
418.42765850000001
 11
155.17892449999999
 21
418.18827850000002
  0
LINE
  8
_0-0_0
  6
CONTINUOUS
 62
    7
 10
155.42892449999999
 20
418.5012365
 11
155.17892449999999
 21
418.22920250000004
  0
LINE
  8
_0-0_0
  6
CONTINUOUS
 62
    7
 10
155.42892449999999
 20
418.45228550000002
 11
155.17892449999999
 21
418.22920250000004
  0
LINE
  8
_0-0_0
  6
CONTINUOUS
 62
    7
 10
155.42892449999999
 20
418.57402049999996
 11
155.17892449999999
 21
418.29692050000006
  0
LINE
  8
_0-0_0
  6
CONTINUOUS
 62
    7
 10
155.42892449999999
 20
418.5012365
 11
155.17892449999999
 21
418.29692050000006
  0
LINE
  8
_0-0_0
  6
CONTINUOUS
 62
    7
 10
155.42892449999999
 20
418.66981550000003
 11
155.17892449999999
 21
418.39070149999998
  0
LINE
  8
_0-0_0
  6
CONTINUOUS
 62
    7
 10
155.42892449999999
 20
418.57402049999996
 11
155.17892449999999
 21
418.39070149999998
  0
LINE
  8
_0-0_0
  6
CONTINUOUS
 62
    7
 10
155.42892449999999
 20
418.66981550000003
 11
155.29896550000001
 21
418.58595249999996
  0
LINE
  8
_0-0_0
  6
CONTINUOUS
 62
    7
 10
155.42892449999999
 20
418.78755250000006
 11
155.17892449999999
 21
418.50950650000004
  0
LINE
  8
_0-0_0
  6
CONTINUOUS
 62
    7
 10
155.29896550000001
 20
418.58595249999996
 11
155.17892449999999
 21
418.50950650000004
  0
LINE
  8
_0-0_0
  6
CONTINUOUS
 62
    7
 10
155.42892449999999
 20
418.92597950000004
 11
155.17892449999999
 21
418.65202350000004
  0
LINE
  8
_0-0_0
  6
CONTINUOUS
 62
    7
 10
155.42892449999999
 20
418.78755250000006
 11
155.17892449999999
 21
418.65202350000004
  0
LINE
  8
_0-0_0
  6
CONTINUOUS
 62
    7
 10
155.42892449999999
 20
419.08357250000006
 11
155.17892449999999
 21
418.81669650000003
  0
LINE
  8
_0-0_0
  6
CONTINUOUS
 62
    7
 10
155.42892449999999
 20
418.92597950000004
 11
155.17892449999999
 21
418.81669650000003
  0
LINE
  8
_0-0_0
  6
CONTINUOUS
 62
    7
 10
155.42892449999999
 20
419.25859049999997
 11
155.17892449999999
 21
419.00175450000006
  0
LINE
  8
_0-0_0
  6
CONTINUOUS
 62
    7
 10
155.42892449999999
 20
419.08357250000006
 11
155.17892449999999
 21
419.00175450000006
  0
LINE
  8
_0-0_0
  6
CONTINUOUS
 62
    7
 10
155.42892449999999
 20
419.44914249999999
 11
155.17892449999999
 21
419.20509349999998
  0
LINE
  8
_0-0_0
  6
CONTINUOUS
 62
    7
 10
155.42892449999999
 20
419.25859049999997
 11
155.17892449999999
 21
419.20509349999998
  0
LINE
  8
_0-0_0
  6
CONTINUOUS
 62
    7
 10
155.42892449999999
 20
419.65309149999996
 11
155.17892449999999
 21
419.42457550000006
  0
LINE
  8
_0-0_0
  6
CONTINUOUS
 62
    7
 10
155.42892449999999
 20
419.44914249999999
 11
155.17892449999999
 21
419.42457550000006
  0
LINE
  8
_0-0_0
  6
CONTINUOUS
 62
    7
 10
155.42892449999999
 20
419.86824049999996
 11
155.17892449999999
 21
419.65773049999996
  0
LINE
  8
_0-0_0
  6
CONTINUOUS
 62
    7
 10
155.42892449999999
 20
419.65309149999996
 11
155.17892449999999
 21
419.65773049999996
  0
LINE
  8
_0-0_0
  6
CONTINUOUS
 62
    7
 10
155.42892449999999
 20
420.09223950000001
 11
155.17892449999999
 21
419.90202350000004
  0
LINE
  8
_0-0_0
  6
CONTINUOUS
 62
    7
 10
155.42892449999999
 20
419.86824049999996
 11
155.17892449999999
 21
419.90202350000004
  0
LINE
  8
_0-0_0
  6
CONTINUOUS
 62
    7
 10
155.42892449999999
 20
420.32258650000006
 11
155.17892449999999
 21
420.15480049999996
  0
LINE
  8
_0-0_0
  6
CONTINUOUS
 62
    7
 10
155.42892449999999
 20
420.09223950000001
 11
155.17892449999999
 21
420.15480049999996
  0
LINE
  8
_0-0_0
  6
CONTINUOUS
 62
    7
 10
155.42892449999999
 20
420.55680849999999
 11
155.17892449999999
 21
420.4132535
  0
LINE
  8
_0-0_0
  6
CONTINUOUS
 62
    7
 10
155.42892449999999
 20
420.32258650000006
 11
155.17892449999999
 21
420.4132535
  0
LINE
  8
_0-0_0
  6
CONTINUOUS
 62
    7
 10
155.42892449999999
 20
420.79231249999998
 11
155.17892449999999
 21
420.67457550000006
  0
LINE
  8
_0-0_0
  6
CONTINUOUS
 62
    7
 10
155.42892449999999
 20
420.55680849999999
 11
155.17892449999999
 21
420.67457550000006
  0
LINE
  8
_0-0_0
  6
CONTINUOUS
 62
    7
 10
155.42892449999999
 20
421.02653550000002
 11
155.17892449999999
 21
420.93589750000001
  0
LINE
  8
_0-0_0
  6
CONTINUOUS
 62
    7
 10
155.42892449999999
 20
420.79231249999998
 11
155.17892449999999
 21
420.93589750000001
  0
LINE
  8
_0-0_0
  6
CONTINUOUS
 62
    7
 10
155.42892449999999
 20
421.2569125
 11
155.17892449999999
 21
421.19435150000004
  0
LINE
  8
_0-0_0
  6
CONTINUOUS
 62
    7
 10
155.42892449999999
 20
421.02653550000002
 11
155.17892449999999
 21
421.19435150000004
  0
LINE
  8
_0-0_0
  6
CONTINUOUS
 62
    7
 10
155.42892449999999
 20
421.48091150000005
 11
155.17892449999999
 21
421.44712849999996
  0
LINE
  8
_0-0_0
  6
CONTINUOUS
 62
    7
 10
155.42892449999999
 20
421.2569125
 11
155.17892449999999
 21
421.44712849999996
  0
LINE
  8
_0-0_0
  6
CONTINUOUS
 62
    7
 10
155.42892449999999
 20
421.69606050000004
 11
155.17892449999999
 21
421.69142150000005
  0
LINE
  8
_0-0_0
  6
CONTINUOUS
 62
    7
 10
155.42892449999999
 20
421.48091150000005
 11
155.17892449999999
 21
421.69142150000005
  0
LINE
  8
_0-0_0
  6
CONTINUOUS
 62
    7
 10
170.42892449999999
 20
416.2668615
 11
160.72109950000004
 21
416.2668615
  0
LINE
  8
_0-0_0
  6
CONTINUOUS
 62
    7
 10
160.72109950000004
 20
416.2668615
 11
160.66662650000001
 21
416.33680749999996
  0
LINE
  8
_0-0_0
  6
CONTINUOUS
 62
    7
 10
160.66662650000001
 20
416.33680749999996
 11
160.61552449999999
 21
416.40562450000004
  0
LINE
  8
_0-0_0
  6
CONTINUOUS
 62
    7
 10
160.61552449999999
 20
416.40562450000004
 11
160.56788649999999
 21
416.47315950000007
  0
LINE
  8
_0-0_0
  6
CONTINUOUS
 62
    7
 10
160.56788649999999
 20
416.47315950000007
 11
160.52337650000004
 21
416.53968850000001
  0
LINE
  8
_0-0_0
  6
CONTINUOUS
 62
    7
 10
160.52337650000004
 20
416.53968850000001
 11
160.4686585
 21
416.62724349999996
  0
LINE
  8
_0-0_0
  6
CONTINUOUS
 62
    7
 10
160.4686585
 20
416.62724349999996
 11
160.41915849999998
 21
416.71333349999998
  0
LINE
  8
_0-0_0
  6
CONTINUOUS
 62
    7
 10
160.41915849999998
 20
416.71333349999998
 11
160.37469450000003
 21
416.79817249999996
  0
LINE
  8
_0-0_0
  6
CONTINUOUS
 62
    7
 10
160.37469450000003
 20
416.79817249999996
 11
160.32772850000003
 21
416.8984835
  0
LINE
  8
_0-0_0
  6
CONTINUOUS
 62
    7
 10
160.32772850000003
 20
416.8984835
 11
160.28750650000001
 21
416.99742149999997
  0
LINE
  8
_0-0_0
  6
CONTINUOUS
 62
    7
 10
160.28750650000001
 20
416.99742149999997
 11
160.25384550000001
 21
417.0951695
  0
LINE
  8
_0-0_0
  6
CONTINUOUS
 62
    7
 10
160.25384550000001
 20
417.0951695
 11
160.2265625
 21
417.19197050000002
  0
LINE
  8
_0-0_0
  6
CONTINUOUS
 62
    7
 10
160.2265625
 20
417.19197050000002
 11
160.20550550000002
 21
417.28804049999997
  0
LINE
  8
_0-0_0
  6
CONTINUOUS
 62
    7
 10
160.20550550000002
 20
417.28804049999997
 11
160.18957550000005
 21
417.39189150000004
  0
LINE
  8
_0-0_0
  6
CONTINUOUS
 62
    7
 10
160.18957550000005
 20
417.39189150000004
 11
160.18081649999999
 21
417.49531550000006
  0
LINE
  8
_0-0_0
  6
CONTINUOUS
 62
    7
 10
160.18081649999999
 20
417.49531550000006
 11
160.17919949999998
 21
417.59852650000005
  0
LINE
  8
_0-0_0
  6
CONTINUOUS
 62
    7
 10
160.17919949999998
 20
417.59852650000005
 11
160.1846615
 21
417.70182850000003
  0
LINE
  8
_0-0_0
  6
CONTINUOUS
 62
    7
 10
160.1846615
 20
417.70182850000003
 11
160.19726550000001
 21
417.80543550000004
  0
LINE
  8
_0-0_0
  6
CONTINUOUS
 62
    7
 10
160.19726550000001
 20
417.80543550000004
 11
160.21708649999999
 21
417.9095615
  0
LINE
  8
_0-0_0
  6
CONTINUOUS
 62
    7
 10
160.21708649999999
 20
417.9095615
 11
160.24423250000001
 21
418.01454150000006
  0
LINE
  8
_0-0_0
  6
CONTINUOUS
 62
    7
 10
160.24423250000001
 20
418.01454150000006
 11
160.27886950000004
 21
418.12055950000001
  0
LINE
  8
_0-0_0
  6
CONTINUOUS
 62
    7
 10
160.27886950000004
 20
418.12055950000001
 11
160.32122850000002
 21
418.22795150000002
  0
LINE
  8
_0-0_0
  6
CONTINUOUS
 62
    7
 10
160.32122850000002
 20
418.22795150000002
 11
160.37153650000005
 21
418.33695950000003
  0
LINE
  8
_0-0_0
  6
CONTINUOUS
 62
    7
 10
160.37153650000005
 20
418.33695950000003
 11
160.4172365
 21
418.42460649999998
  0
LINE
  8
_0-0_0
  6
CONTINUOUS
 62
    7
 10
170.42892449999999
 20
414.98225450000007
 11
160.72109950000004
 21
414.98225450000007
  0
LINE
  8
_0-0_0
  6
CONTINUOUS
 62
    7
 10
160.72109950000004
 20
414.98225450000007
 11
160.62677050000002
 21
414.73564150000004
  0
LINE
  8
_0-0_0
  6
CONTINUOUS
 62
    7
 10
160.62677050000002
 20
414.73564150000004
 11
160.54281650000001
 21
414.49568150000005
  0
LINE
  8
_0-0_0
  6
CONTINUOUS
 62
    7
 10
160.54281650000001
 20
414.49568150000005
 11
160.4686585
 21
414.2615515
  0
LINE
  8
_0-0_0
  6
CONTINUOUS
 62
    7
 10
160.4686585
 20
414.2615515
 11
160.40377850000004
 21
414.03251650000004
  0
LINE
  8
_0-0_0
  6
CONTINUOUS
 62
    7
 10
160.40377850000004
 20
414.03251650000004
 11
160.34774749999997
 21
413.80784649999998
  0
LINE
  8
_0-0_0
  6
CONTINUOUS
 62
    7
 10
160.34774749999997
 20
413.80784649999998
 11
160.30017050000004
 21
413.58686850000004
  0
LINE
  8
_0-0_0
  6
CONTINUOUS
 62
    7
 10
160.30017050000004
 20
413.58686850000004
 11
160.26077250000003
 21
413.3689425
  0
LINE
  8
_0-0_0
  6
CONTINUOUS
 62
    7
 10
160.26077250000003
 20
413.3689425
 11
160.22927849999996
 21
413.15348849999998
  0
LINE
  8
_0-0_0
  6
CONTINUOUS
 62
    7
 10
160.22927849999996
 20
413.15348849999998
 11
160.20550550000002
 21
412.93995649999999
  0
LINE
  8
_0-0_0
  6
CONTINUOUS
 62
    7
 10
160.20550550000002
 20
412.93995649999999
 11
160.18957550000005
 21
412.73225450000007
  0
LINE
  8
_0-0_0
  6
CONTINUOUS
 62
    7
 10
160.18957550000005
 20
412.73225450000007
 11
160.18081649999999
 21
412.52540650000003
  0
LINE
  8
_0-0_0
  6
CONTINUOUS
 62
    7
 10
160.18081649999999
 20
412.52540650000003
 11
160.17919949999998
 21
412.31892449999998
  0
LINE
  8
_0-0_0
  6
CONTINUOUS
 62
    7
 10
160.17919949999998
 20
412.31892449999998
 11
160.1846615
 21
412.11235050000005
  0
LINE
  8
_0-0_0
  6
CONTINUOUS
 62
    7
 10
160.1846615
 20
412.11235050000005
 11
160.19726550000001
 21
411.90516650000006
  0
LINE
  8
_0-0_0
  6
CONTINUOUS
 62
    7
 10
160.19726550000001
 20
411.90516650000006
 11
160.21708649999999
 21
411.69688450000001
  0
LINE
  8
_0-0_0
  6
CONTINUOUS
 62
    7
 10
160.21708649999999
 20
411.69688450000001
 11
160.24423250000001
 21
411.48695350000003
  0
LINE
  8
_0-0_0
  6
CONTINUOUS
 62
    7
 10
160.24423250000001
 20
411.48695350000003
 11
160.27886950000004
 21
411.27488749999998
  0
LINE
  8
_0-0_0
  6
CONTINUOUS
 62
    7
 10
160.27886950000004
 20
411.27488749999998
 11
160.32122850000002
 21
411.0601355
  0
LINE
  8
_0-0_0
  6
CONTINUOUS
 62
    7
 10
160.32122850000002
 20
411.0601355
 11
160.37153650000005
 21
410.84211749999997
  0
LINE
  8
_0-0_0
  6
CONTINUOUS
 62
    7
 10
160.37153650000005
 20
410.84211749999997
 11
160.42578149999997
 21
410.63584950000006
  0
LINE
  8
_0-0_0
  6
CONTINUOUS
 62
    7
 10
160.42578149999997
 20
410.63584950000006
 11
160.48748750000004
 21
410.42573549999997
  0
LINE
  8
_0-0_0
  6
CONTINUOUS
 62
    7
 10
160.48748750000004
 20
410.42573549999997
 11
160.5570065
 21
410.21125849999999
  0
LINE
  8
_0-0_0
  6
CONTINUOUS
 62
    7
 10
160.5570065
 20
410.21125849999999
 11
160.63473550000003
 21
409.99186750000001
  0
LINE
  8
_0-0_0
  6
CONTINUOUS
 62
    7
 10
160.63473550000003
 20
409.99186750000001
 11
160.72109950000004
 21
409.7668615
  0
LINE
  8
_0-0_0
  6
CONTINUOUS
 62
    7
 10
170.42892449999999
 20
409.7668615
 11
160.72109950000004
 21
409.7668615
  0
ARC
  8
_0-0_0
  6
CONTINUOUS
 62
    7
 10
165.59265150000002
 20
415.62455750000004
 40
4.9136889999999998
 50
172.48898299999999
 51
187.51101699999998
  0
LINE
  8
_0-0_0
  6
CONTINUOUS
 62
    7
 10
170.42892449999999
 20
408.48225450000007
 11
160.72109950000004
 21
408.48225450000007
  0
LINE
  8
_0-0_0
  6
CONTINUOUS
 62
    7
 10
160.72109950000004
 20
405.87455750000004
 11
160.66662650000001
 21
405.9445035
  0
LINE
  8
_0-0_0
  6
CONTINUOUS
 62
    7
 10
160.66662650000001
 20
405.9445035
 11
160.61552449999999
 21
406.01332149999996
  0
LINE
  8
_0-0_0
  6
CONTINUOUS
 62
    7
 10
160.61552449999999
 20
406.01332149999996
 11
160.56788649999999
 21
406.08082550000006
  0
LINE
  8
_0-0_0
  6
CONTINUOUS
 62
    7
 10
160.56788649999999
 20
406.08082550000006
 11
160.52337650000004
 21
406.14738450000004
  0
LINE
  8
_0-0_0
  6
CONTINUOUS
 62
    7
 10
160.52337650000004
 20
406.14738450000004
 11
160.4686585
 21
406.2349395
  0
LINE
  8
_0-0_0
  6
CONTINUOUS
 62
    7
 10
160.4686585
 20
406.2349395
 11
160.41915849999998
 21
406.32102950000001
  0
LINE
  8
_0-0_0
  6
CONTINUOUS
 62
    7
 10
160.41915849999998
 20
406.32102950000001
 11
160.37469450000003
 21
406.4058685
  0
LINE
  8
_0-0_0
  6
CONTINUOUS
 62
    7
 10
160.37469450000003
 20
406.4058685
 11
160.32772850000003
 21
406.50617950000003
  0
LINE
  8
_0-0_0
  6
CONTINUOUS
 62
    7
 10
160.32772850000003
 20
406.50617950000003
 11
160.28750650000001
 21
406.60511750000001
  0
LINE
  8
_0-0_0
  6
CONTINUOUS
 62
    7
 10
160.28750650000001
 20
406.60511750000001
 11
160.25384550000001
 21
406.70286550000003
  0
LINE
  8
_0-0_0
  6
CONTINUOUS
 62
    7
 10
160.25384550000001
 20
406.70286550000003
 11
160.2265625
 21
406.79966750000006
  0
LINE
  8
_0-0_0
  6
CONTINUOUS
 62
    7
 10
160.2265625
 20
406.79966750000006
 11
160.20550550000002
 21
406.89570649999996
  0
LINE
  8
_0-0_0
  6
CONTINUOUS
 62
    7
 10
160.20550550000002
 20
406.89570649999996
 11
160.18957550000005
 21
406.99958849999996
  0
LINE
  8
_0-0_0
  6
CONTINUOUS
 62
    7
 10
160.18957550000005
 20
406.99958849999996
 11
160.18081649999999
 21
407.10301249999998
  0
LINE
  8
_0-0_0
  6
CONTINUOUS
 62
    7
 10
160.18081649999999
 20
407.10301249999998
 11
160.17919949999998
 21
407.2062535
  0
LINE
  8
_0-0_0
  6
CONTINUOUS
 62
    7
 10
160.17919949999998
 20
407.2062535
 11
160.1846615
 21
407.30952450000007
  0
LINE
  8
_0-0_0
  6
CONTINUOUS
 62
    7
 10
160.1846615
 20
407.30952450000007
 11
160.19726550000001
 21
407.41313149999996
  0
LINE
  8
_0-0_0
  6
CONTINUOUS
 62
    7
 10
160.19726550000001
 20
407.41313149999996
 11
160.21708649999999
 21
407.51725750000003
  0
LINE
  8
_0-0_0
  6
CONTINUOUS
 62
    7
 10
160.21708649999999
 20
407.51725750000003
 11
160.24423250000001
 21
407.62223849999998
  0
LINE
  8
_0-0_0
  6
CONTINUOUS
 62
    7
 10
160.24423250000001
 20
407.62223849999998
 11
160.27886950000004
 21
407.72825650000004
  0
LINE
  8
_0-0_0
  6
CONTINUOUS
 62
    7
 10
160.27886950000004
 20
407.72825650000004
 11
160.32122850000002
 21
407.83564750000005
  0
LINE
  8
_0-0_0
  6
CONTINUOUS
 62
    7
 10
160.32122850000002
 20
407.83564750000005
 11
160.37153650000005
 21
407.94462550000003
  0
LINE
  8
_0-0_0
  6
CONTINUOUS
 62
    7
 10
160.37153650000005
 20
407.94462550000003
 11
160.42578149999997
 21
408.04777550000006
  0
LINE
  8
_0-0_0
  6
CONTINUOUS
 62
    7
 10
160.42578149999997
 20
408.04777550000006
 11
160.48748750000004
 21
408.15284750000001
  0
LINE
  8
_0-0_0
  6
CONTINUOUS
 62
    7
 10
160.48748750000004
 20
408.15284750000001
 11
160.5570065
 21
408.26008650000006
  0
LINE
  8
_0-0_0
  6
CONTINUOUS
 62
    7
 10
160.5570065
 20
408.26008650000006
 11
160.63473550000003
 21
408.36976649999997
  0
LINE
  8
_0-0_0
  6
CONTINUOUS
 62
    7
 10
160.63473550000003
 20
408.36976649999997
 11
160.72109950000004
 21
408.48225450000007
  0
LINE
  8
_0-0_0
  6
CONTINUOUS
 62
    7
 10
170.42892449999999
 20
405.87455750000004
 11
160.72109950000004
 21
405.87455750000004
  0
ARC
  8
_0-0_0
  6
CONTINUOUS
 62
    7
 10
165.6028135
 20
409.1236725
 40
4.9238749999999998
 50
172.49424200000001
 51
181.535968
  0
ARC
  8
_0-0_0
  6
CONTINUOUS
 62
    7
 10
165.6408385
 20
409.12864650000006
 40
4.9620009999999999
 50
181.58130700000004
 51
187.48478900000003
  0
LINE
  8
_0-0_0
  6
CONTINUOUS
 62
    7
 10
160.67892449999999
 20
405.87455750000004
 11
160.72109950000004
 21
405.87455750000004
  0
LINE
  8
_0-0_0
  6
CONTINUOUS
 62
    7
 10
155.42892449999999
 20
405.3000035
 11
155.17892449999999
 21
405.32456950000005
  0
LINE
  8
_0-0_0
  6
CONTINUOUS
 62
    7
 10
155.42892449999999
 20
405.09605450000004
 11
155.17892449999999
 21
405.32456950000005
  0
LINE
  8
_0-0_0
  6
CONTINUOUS
 62
    7
 10
155.42892449999999
 20
405.49055450000003
 11
155.17892449999999
 21
405.54402149999999
  0
LINE
  8
_0-0_0
  6
CONTINUOUS
 62
    7
 10
155.42892449999999
 20
405.3000035
 11
155.17892449999999
 21
405.54402149999999
  0
LINE
  8
_0-0_0
  6
CONTINUOUS
 62
    7
 10
155.42892449999999
 20
405.66557350000005
 11
155.17892449999999
 21
405.74739050000005
  0
LINE
  8
_0-0_0
  6
CONTINUOUS
 62
    7
 10
155.42892449999999
 20
405.49055450000003
 11
155.17892449999999
 21
405.74739050000005
  0
LINE
  8
_0-0_0
  6
CONTINUOUS
 62
    7
 10
155.42892449999999
 20
405.82313550000003
 11
155.17892449999999
 21
405.93241850000004
  0
LINE
  8
_0-0_0
  6
CONTINUOUS
 62
    7
 10
155.42892449999999
 20
405.66557350000005
 11
155.17892449999999
 21
405.93241850000004
  0
LINE
  8
_0-0_0
  6
CONTINUOUS
 62
    7
 10
155.42892449999999
 20
405.96159350000005
 11
155.17892449999999
 21
406.09712249999995
  0
LINE
  8
_0-0_0
  6
CONTINUOUS
 62
    7
 10
155.42892449999999
 20
405.82313550000003
 11
155.17892449999999
 21
406.09712249999995
  0
LINE
  8
_0-0_0
  6
CONTINUOUS
 62
    7
 10
155.42892449999999
 20
406.07933049999997
 11
155.17892449999999
 21
406.23963950000007
  0
LINE
  8
_0-0_0
  6
CONTINUOUS
 62
    7
 10
155.42892449999999
 20
405.96159350000005
 11
155.17892449999999
 21
406.23963950000007
  0
LINE
  8
_0-0_0
  6
CONTINUOUS
 62
    7
 10
155.42892449999999
 20
406.17512550000004
 11
155.17892449999999
 21
406.35844450000002
  0
LINE
  8
_0-0_0
  6
CONTINUOUS
 62
    7
 10
155.42892449999999
 20
406.07933049999997
 11
155.17892449999999
 21
406.35844450000002
  0
LINE
  8
_0-0_0
  6
CONTINUOUS
 62
    7
 10
155.42892449999999
 20
406.24790949999999
 11
155.17892449999999
 21
406.45222450000006
  0
LINE
  8
_0-0_0
  6
CONTINUOUS
 62
    7
 10
155.42892449999999
 20
406.17512550000004
 11
155.17892449999999
 21
406.45222450000006
  0
LINE
  8
_0-0_0
  6
CONTINUOUS
 62
    7
 10
155.42892449999999
 20
406.29685949999998
 11
155.17892449999999
 21
406.51994350000007
  0
LINE
  8
_0-0_0
  6
CONTINUOUS
 62
    7
 10
155.42892449999999
 20
406.24790949999999
 11
155.17892449999999
 21
406.51994350000007
  0
LINE
  8
_0-0_0
  6
CONTINUOUS
 62
    7
 10
155.42892449999999
 20
406.32148749999999
 11
155.17892449999999
 21
406.56086749999997
  0
LINE
  8
_0-0_0
  6
CONTINUOUS
 62
    7
 10
155.42892449999999
 20
406.29685949999998
 11
155.17892449999999
 21
406.56086749999997
  0
LINE
  8
_0-0_0
  6
CONTINUOUS
 62
    7
 10
155.42892449999999
 20
406.32148749999999
 11
155.17892449999999
 21
406.57456950000005
  0
LINE
  8
_0-0_0
  6
CONTINUOUS
 62
    7
 10
155.42892449999999
 20
401.8276525
 11
155.17892449999999
 21
401.57456950000005
  0
LINE
  8
_0-0_0
  6
CONTINUOUS
 62
    7
 10
155.42892449999999
 20
401.85227950000001
 11
155.17892449999999
 21
401.58827250000002
  0
LINE
  8
_0-0_0
  6
CONTINUOUS
 62
    7
 10
155.42892449999999
 20
401.8276525
 11
155.17892449999999
 21
401.58827250000002
  0
LINE
  8
_0-0_0
  6
CONTINUOUS
 62
    7
 10
155.42892449999999
 20
401.9012295
 11
155.17892449999999
 21
401.62919650000003
  0
LINE
  8
_0-0_0
  6
CONTINUOUS
 62
    7
 10
155.42892449999999
 20
401.85227950000001
 11
155.17892449999999
 21
401.62919650000003
  0
LINE
  8
_0-0_0
  6
CONTINUOUS
 62
    7
 10
155.42892449999999
 20
401.97401450000007
 11
155.17892449999999
 21
401.69691450000005
  0
LINE
  8
_0-0_0
  6
CONTINUOUS
 62
    7
 10
155.42892449999999
 20
401.9012295
 11
155.17892449999999
 21
401.69691450000005
  0
LINE
  8
_0-0_0
  6
CONTINUOUS
 62
    7
 10
155.42892449999999
 20
402.06980950000002
 11
155.17892449999999
 21
401.79069549999997
  0
LINE
  8
_0-0_0
  6
CONTINUOUS
 62
    7
 10
155.42892449999999
 20
401.97401450000007
 11
155.17892449999999
 21
401.79069549999997
  0
LINE
  8
_0-0_0
  6
CONTINUOUS
 62
    7
 10
155.42892449999999
 20
402.06980950000002
 11
155.29896550000001
 21
401.98594650000007
  0
LINE
  8
_0-0_0
  6
CONTINUOUS
 62
    7
 10
155.42892449999999
 20
402.18754550000006
 11
155.17892449999999
 21
401.90950050000004
  0
LINE
  8
_0-0_0
  6
CONTINUOUS
 62
    7
 10
155.29896550000001
 20
401.98594650000007
 11
155.17892449999999
 21
401.90950050000004
  0
LINE
  8
_0-0_0
  6
CONTINUOUS
 62
    7
 10
155.42892449999999
 20
402.32600450000007
 11
155.17892449999999
 21
402.05201750000003
  0
LINE
  8
_0-0_0
  6
CONTINUOUS
 62
    7
 10
155.42892449999999
 20
402.18754550000006
 11
155.17892449999999
 21
402.05201750000003
  0
LINE
  8
_0-0_0
  6
CONTINUOUS
 62
    7
 10
155.42892449999999
 20
402.48359649999998
 11
155.17892449999999
 21
402.21672050000006
  0
LINE
  8
_0-0_0
  6
CONTINUOUS
 62
    7
 10
155.42892449999999
 20
402.32600450000007
 11
155.17892449999999
 21
402.21672050000006
  0
LINE
  8
_0-0_0
  6
CONTINUOUS
 62
    7
 10
155.42892449999999
 20
402.65858449999996
 11
155.17892449999999
 21
402.40174850000005
  0
LINE
  8
_0-0_0
  6
CONTINUOUS
 62
    7
 10
155.42892449999999
 20
402.48359649999998
 11
155.17892449999999
 21
402.40174850000005
  0
LINE
  8
_0-0_0
  6
CONTINUOUS
 62
    7
 10
155.42892449999999
 20
402.84913649999999
 11
155.17892449999999
 21
402.60511750000001
  0
LINE
  8
_0-0_0
  6
CONTINUOUS
 62
    7
 10
155.42892449999999
 20
402.65858449999996
 11
155.17892449999999
 21
402.60511750000001
  0
LINE
  8
_0-0_0
  6
CONTINUOUS
 62
    7
 10
155.42892449999999
 20
403.05308550000007
 11
155.17892449999999
 21
402.82456950000005
  0
LINE
  8
_0-0_0
  6
CONTINUOUS
 62
    7
 10
155.42892449999999
 20
402.84913649999999
 11
155.17892449999999
 21
402.82456950000005
  0
LINE
  8
_0-0_0
  6
CONTINUOUS
 62
    7
 10
155.42892449999999
 20
403.26823450000006
 11
155.17892449999999
 21
403.05772450000006
  0
LINE
  8
_0-0_0
  6
CONTINUOUS
 62
    7
 10
155.42892449999999
 20
403.05308550000007
 11
155.17892449999999
 21
403.05772450000006
  0
LINE
  8
_0-0_0
  6
CONTINUOUS
 62
    7
 10
155.42892449999999
 20
403.4922335
 11
155.17892449999999
 21
403.30201750000003
  0
LINE
  8
_0-0_0
  6
CONTINUOUS
 62
    7
 10
155.42892449999999
 20
403.26823450000006
 11
155.17892449999999
 21
403.30201750000003
  0
LINE
  8
_0-0_0
  6
CONTINUOUS
 62
    7
 10
155.42892449999999
 20
403.72258050000005
 11
155.17892449999999
 21
403.55479449999996
  0
LINE
  8
_0-0_0
  6
CONTINUOUS
 62
    7
 10
155.42892449999999
 20
403.4922335
 11
155.17892449999999
 21
403.55479449999996
  0
LINE
  8
_0-0_0
  6
CONTINUOUS
 62
    7
 10
155.42892449999999
 20
403.95680249999998
 11
155.17892449999999
 21
403.81324749999999
  0
LINE
  8
_0-0_0
  6
CONTINUOUS
 62
    7
 10
155.42892449999999
 20
403.72258050000005
 11
155.17892449999999
 21
403.81324749999999
  0
LINE
  8
_0-0_0
  6
CONTINUOUS
 62
    7
 10
155.42892449999999
 20
404.19233750000001
 11
155.17892449999999
 21
404.07456950000005
  0
LINE
  8
_0-0_0
  6
CONTINUOUS
 62
    7
 10
155.42892449999999
 20
403.95680249999998
 11
155.17892449999999
 21
404.07456950000005
  0
LINE
  8
_0-0_0
  6
CONTINUOUS
 62
    7
 10
155.42892449999999
 20
404.42655950000005
 11
155.17892449999999
 21
404.3358915
  0
LINE
  8
_0-0_0
  6
CONTINUOUS
 62
    7
 10
155.42892449999999
 20
404.19233750000001
 11
155.17892449999999
 21
404.3358915
  0
LINE
  8
_0-0_0
  6
CONTINUOUS
 62
    7
 10
155.42892449999999
 20
404.65690649999999
 11
155.17892449999999
 21
404.59434550000003
  0
LINE
  8
_0-0_0
  6
CONTINUOUS
 62
    7
 10
155.42892449999999
 20
404.42655950000005
 11
155.17892449999999
 21
404.59434550000003
  0
LINE
  8
_0-0_0
  6
CONTINUOUS
 62
    7
 10
155.42892449999999
 20
404.88090550000004
 11
155.17892449999999
 21
404.84712249999995
  0
LINE
  8
_0-0_0
  6
CONTINUOUS
 62
    7
 10
155.42892449999999
 20
404.65690649999999
 11
155.17892449999999
 21
404.84712249999995
  0
LINE
  8
_0-0_0
  6
CONTINUOUS
 62
    7
 10
155.42892449999999
 20
405.09605450000004
 11
155.17892449999999
 21
405.09141550000004
  0
LINE
  8
_0-0_0
  6
CONTINUOUS
 62
    7
 10
155.42892449999999
 20
404.88090550000004
 11
155.17892449999999
 21
405.09141550000004
  0
LINE
  8
_0-0_0
  6
CONTINUOUS
 62
    7
 10
145.67893249999997
 20
421.90000950000001
 11
145.92893249999997
 21
421.92457550000006
  0
LINE
  8
_0-0_0
  6
CONTINUOUS
 62
    7
 10
145.92893249999997
 20
421.92457550000006
 11
155.17892449999999
 21
421.92457550000006
  0
LINE
  8
_0-0_0
  6
CONTINUOUS
 62
    7
 10
145.67893249999997
 20
421.69606050000004
 11
145.92893249999997
 21
421.92457550000006
  0
LINE
  8
_0-0_0
  6
CONTINUOUS
 62
    7
 10
145.67893249999997
 20
421.69606050000004
 11
155.42892449999999
 21
421.69606050000004
  0
LINE
  8
_0-0_0
  6
CONTINUOUS
 62
    7
 10
145.67893249999997
 20
422.0905305
 11
145.92893249999997
 21
422.14402749999999
  0
LINE
  8
_0-0_0
  6
CONTINUOUS
 62
    7
 10
145.92893249999997
 20
422.14402749999999
 11
155.17892449999999
 21
422.14402749999999
  0
LINE
  8
_0-0_0
  6
CONTINUOUS
 62
    7
 10
145.67893249999997
 20
421.90000950000001
 11
145.92893249999997
 21
422.14402749999999
  0
LINE
  8
_0-0_0
  6
CONTINUOUS
 62
    7
 10
145.67893249999997
 20
422.26554850000002
 11
145.92893249999997
 21
422.34739650000006
  0
LINE
  8
_0-0_0
  6
CONTINUOUS
 62
    7
 10
145.92893249999997
 20
422.34739650000006
 11
155.17892449999999
 21
422.34739650000006
  0
LINE
  8
_0-0_0
  6
CONTINUOUS
 62
    7
 10
145.67893249999997
 20
422.0905305
 11
145.92893249999997
 21
422.34739650000006
  0
LINE
  8
_0-0_0
  6
CONTINUOUS
 62
    7
 10
145.67893249999997
 20
422.42314150000004
 11
145.92893249999997
 21
422.53242550000004
  0
LINE
  8
_0-0_0
  6
CONTINUOUS
 62
    7
 10
145.92893249999997
 20
422.53242550000004
 11
155.17892449999999
 21
422.53242550000004
  0
LINE
  8
_0-0_0
  6
CONTINUOUS
 62
    7
 10
145.67893249999997
 20
422.26554850000002
 11
145.92893249999997
 21
422.53242550000004
  0
LINE
  8
_0-0_0
  6
CONTINUOUS
 62
    7
 10
145.67893249999997
 20
422.56156950000002
 11
145.92893249999997
 21
422.69712849999996
  0
LINE
  8
_0-0_0
  6
CONTINUOUS
 62
    7
 10
145.92893249999997
 20
422.69712849999996
 11
155.17892449999999
 21
422.69712849999996
  0
LINE
  8
_0-0_0
  6
CONTINUOUS
 62
    7
 10
145.67893249999997
 20
422.42314150000004
 11
145.92893249999997
 21
422.69712849999996
  0
LINE
  8
_0-0_0
  6
CONTINUOUS
 62
    7
 10
145.67893249999997
 20
422.67933649999998
 11
145.92893249999997
 21
422.83964549999996
  0
LINE
  8
_0-0_0
  6
CONTINUOUS
 62
    7
 10
145.92893249999997
 20
422.83964549999996
 11
155.17892449999999
 21
422.83964549999996
  0
LINE
  8
_0-0_0
  6
CONTINUOUS
 62
    7
 10
145.67893249999997
 20
422.56156950000002
 11
145.92893249999997
 21
422.83964549999996
  0
LINE
  8
_0-0_0
  6
CONTINUOUS
 62
    7
 10
145.67893249999997
 20
422.77513150000004
 11
145.92893249999997
 21
422.95845050000003
  0
LINE
  8
_0-0_0
  6
CONTINUOUS
 62
    7
 10
145.92893249999997
 20
422.95845050000003
 11
155.17892449999999
 21
422.95845050000003
  0
LINE
  8
_0-0_0
  6
CONTINUOUS
 62
    7
 10
145.67893249999997
 20
422.67933649999998
 11
145.92893249999997
 21
422.95845050000003
  0
LINE
  8
_0-0_0
  6
CONTINUOUS
 62
    7
 10
145.67893249999997
 20
422.8479155
 11
145.92893249999997
 21
423.05220050000003
  0
LINE
  8
_0-0_0
  6
CONTINUOUS
 62
    7
 10
145.92893249999997
 20
423.05220050000003
 11
155.17892449999999
 21
423.05220050000003
  0
LINE
  8
_0-0_0
  6
CONTINUOUS
 62
    7
 10
145.67893249999997
 20
422.77513150000004
 11
145.92893249999997
 21
423.05220050000003
  0
LINE
  8
_0-0_0
  6
CONTINUOUS
 62
    7
 10
145.67893249999997
 20
422.89686549999999
 11
145.92893249999997
 21
423.11994949999996
  0
LINE
  8
_0-0_0
  6
CONTINUOUS
 62
    7
 10
145.92893249999997
 20
423.11994949999996
 11
155.17892449999999
 21
423.11994949999996
  0
LINE
  8
_0-0_0
  6
CONTINUOUS
 62
    7
 10
145.67893249999997
 20
422.8479155
 11
145.92893249999997
 21
423.11994949999996
  0
LINE
  8
_0-0_0
  6
CONTINUOUS
 62
    7
 10
145.67893249999997
 20
422.9214935
 11
145.92893249999997
 21
423.16087349999998
  0
LINE
  8
_0-0_0
  6
CONTINUOUS
 62
    7
 10
145.92893249999997
 20
423.16087349999998
 11
155.17892449999999
 21
423.16087349999998
  0
LINE
  8
_0-0_0
  6
CONTINUOUS
 62
    7
 10
145.67893249999997
 20
422.89686549999999
 11
145.92893249999997
 21
423.16087349999998
  0
LINE
  8
_0-0_0
  6
CONTINUOUS
 62
    7
 10
145.92893249999997
 20
423.17457550000006
 11
155.17892449999999
 21
423.17457550000006
  0
LINE
  8
_0-0_0
  6
CONTINUOUS
 62
    7
 10
145.67893249999997
 20
422.9214935
 11
145.92893249999997
 21
423.17457550000006
  0
LINE
  8
_0-0_0
  6
CONTINUOUS
 62
    7
 10
145.67893249999997
 20
418.42765850000001
 11
145.92893249999997
 21
418.17457550000006
  0
LINE
  8
_0-0_0
  6
CONTINUOUS
 62
    7
 10
145.92893249999997
 20
418.17457550000006
 11
155.17892449999999
 21
418.17457550000006
  0
LINE
  8
_0-0_0
  6
CONTINUOUS
 62
    7
 10
145.67893249999997
 20
418.45228550000002
 11
145.92893249999997
 21
418.18827850000002
  0
LINE
  8
_0-0_0
  6
CONTINUOUS
 62
    7
 10
145.92893249999997
 20
418.18827850000002
 11
155.17892449999999
 21
418.18827850000002
  0
LINE
  8
_0-0_0
  6
CONTINUOUS
 62
    7
 10
145.67893249999997
 20
418.42765850000001
 11
145.92893249999997
 21
418.18827850000002
  0
LINE
  8
_0-0_0
  6
CONTINUOUS
 62
    7
 10
145.67893249999997
 20
418.5012365
 11
145.92893249999997
 21
418.22920250000004
  0
LINE
  8
_0-0_0
  6
CONTINUOUS
 62
    7
 10
145.92893249999997
 20
418.22920250000004
 11
155.17892449999999
 21
418.22920250000004
  0
LINE
  8
_0-0_0
  6
CONTINUOUS
 62
    7
 10
145.67893249999997
 20
418.45228550000002
 11
145.92893249999997
 21
418.22920250000004
  0
LINE
  8
_0-0_0
  6
CONTINUOUS
 62
    7
 10
145.67893249999997
 20
418.57402049999996
 11
145.92893249999997
 21
418.29692050000006
  0
LINE
  8
_0-0_0
  6
CONTINUOUS
 62
    7
 10
145.92893249999997
 20
418.29692050000006
 11
155.17892449999999
 21
418.29692050000006
  0
LINE
  8
_0-0_0
  6
CONTINUOUS
 62
    7
 10
145.67893249999997
 20
418.5012365
 11
145.92893249999997
 21
418.29692050000006
  0
LINE
  8
_0-0_0
  6
CONTINUOUS
 62
    7
 10
145.67893249999997
 20
418.66981550000003
 11
145.92893249999997
 21
418.39070149999998
  0
LINE
  8
_0-0_0
  6
CONTINUOUS
 62
    7
 10
145.92893249999997
 20
418.39070149999998
 11
155.17892449999999
 21
418.39070149999998
  0
LINE
  8
_0-0_0
  6
CONTINUOUS
 62
    7
 10
145.67893249999997
 20
418.57402049999996
 11
145.92893249999997
 21
418.39070149999998
  0
LINE
  8
_0-0_0
  6
CONTINUOUS
 62
    7
 10
145.92893249999997
 20
418.50950650000004
 11
155.17892449999999
 21
418.50950650000004
  0
LINE
  8
_0-0_0
  6
CONTINUOUS
 62
    7
 10
145.8088985
 20
418.58595249999996
 11
145.92893249999997
 21
418.50950650000004
  0
LINE
  8
_0-0_0
  6
CONTINUOUS
 62
    7
 10
145.67893249999997
 20
418.66981550000003
 11
145.8088985
 21
418.58595249999996
  0
LINE
  8
_0-0_0
  6
CONTINUOUS
 62
    7
 10
145.67893249999997
 20
418.78755250000006
 11
145.92893249999997
 21
418.50950650000004
  0
LINE
  8
_0-0_0
  6
CONTINUOUS
 62
    7
 10
145.67893249999997
 20
418.92597950000004
 11
145.92893249999997
 21
418.65202350000004
  0
LINE
  8
_0-0_0
  6
CONTINUOUS
 62
    7
 10
145.92893249999997
 20
418.65202350000004
 11
155.17892449999999
 21
418.65202350000004
  0
LINE
  8
_0-0_0
  6
CONTINUOUS
 62
    7
 10
145.67893249999997
 20
418.78755250000006
 11
145.92893249999997
 21
418.65202350000004
  0
LINE
  8
_0-0_0
  6
CONTINUOUS
 62
    7
 10
145.67893249999997
 20
419.08357250000006
 11
145.92893249999997
 21
418.81669650000003
  0
LINE
  8
_0-0_0
  6
CONTINUOUS
 62
    7
 10
145.92893249999997
 20
418.81669650000003
 11
155.17892449999999
 21
418.81669650000003
  0
LINE
  8
_0-0_0
  6
CONTINUOUS
 62
    7
 10
145.67893249999997
 20
418.92597950000004
 11
145.92893249999997
 21
418.81669650000003
  0
LINE
  8
_0-0_0
  6
CONTINUOUS
 62
    7
 10
145.67893249999997
 20
419.25859049999997
 11
145.92893249999997
 21
419.00175450000006
  0
LINE
  8
_0-0_0
  6
CONTINUOUS
 62
    7
 10
145.92893249999997
 20
419.00175450000006
 11
155.17892449999999
 21
419.00175450000006
  0
LINE
  8
_0-0_0
  6
CONTINUOUS
 62
    7
 10
145.67893249999997
 20
419.08357250000006
 11
145.92893249999997
 21
419.00175450000006
  0
LINE
  8
_0-0_0
  6
CONTINUOUS
 62
    7
 10
145.67893249999997
 20
419.44914249999999
 11
145.92893249999997
 21
419.20509349999998
  0
LINE
  8
_0-0_0
  6
CONTINUOUS
 62
    7
 10
145.92893249999997
 20
419.20509349999998
 11
155.17892449999999
 21
419.20509349999998
  0
LINE
  8
_0-0_0
  6
CONTINUOUS
 62
    7
 10
145.67893249999997
 20
419.25859049999997
 11
145.92893249999997
 21
419.20509349999998
  0
LINE
  8
_0-0_0
  6
CONTINUOUS
 62
    7
 10
145.67893249999997
 20
419.65309149999996
 11
145.92893249999997
 21
419.42457550000006
  0
LINE
  8
_0-0_0
  6
CONTINUOUS
 62
    7
 10
145.92893249999997
 20
419.42457550000006
 11
155.17892449999999
 21
419.42457550000006
  0
LINE
  8
_0-0_0
  6
CONTINUOUS
 62
    7
 10
145.67893249999997
 20
419.65309149999996
 11
155.42892449999999
 21
419.65309149999996
  0
LINE
  8
_0-0_0
  6
CONTINUOUS
 62
    7
 10
145.67893249999997
 20
419.44914249999999
 11
145.92893249999997
 21
419.42457550000006
  0
LINE
  8
_0-0_0
  6
CONTINUOUS
 62
    7
 10
145.67893249999997
 20
419.86824049999996
 11
145.92893249999997
 21
419.65773049999996
  0
LINE
  8
_0-0_0
  6
CONTINUOUS
 62
    7
 10
145.92893249999997
 20
419.65773049999996
 11
155.17892449999999
 21
419.65773049999996
  0
LINE
  8
_0-0_0
  6
CONTINUOUS
 62
    7
 10
145.67893249999997
 20
419.86824049999996
 11
155.42892449999999
 21
419.86824049999996
  0
LINE
  8
_0-0_0
  6
CONTINUOUS
 62
    7
 10
145.67893249999997
 20
419.65309149999996
 11
145.92893249999997
 21
419.65773049999996
  0
LINE
  8
_0-0_0
  6
CONTINUOUS
 62
    7
 10
145.67893249999997
 20
420.09223950000001
 11
145.92893249999997
 21
419.90202350000004
  0
LINE
  8
_0-0_0
  6
CONTINUOUS
 62
    7
 10
145.92893249999997
 20
419.90202350000004
 11
155.17892449999999
 21
419.90202350000004
  0
LINE
  8
_0-0_0
  6
CONTINUOUS
 62
    7
 10
145.67893249999997
 20
420.09223950000001
 11
155.42892449999999
 21
420.09223950000001
  0
LINE
  8
_0-0_0
  6
CONTINUOUS
 62
    7
 10
145.67893249999997
 20
419.86824049999996
 11
145.92893249999997
 21
419.90202350000004
  0
LINE
  8
_0-0_0
  6
CONTINUOUS
 62
    7
 10
145.67893249999997
 20
420.32258650000006
 11
145.92893249999997
 21
420.15480049999996
  0
LINE
  8
_0-0_0
  6
CONTINUOUS
 62
    7
 10
145.92893249999997
 20
420.15480049999996
 11
155.17892449999999
 21
420.15480049999996
  0
LINE
  8
_0-0_0
  6
CONTINUOUS
 62
    7
 10
145.67893249999997
 20
420.32258650000006
 11
155.42892449999999
 21
420.32258650000006
  0
LINE
  8
_0-0_0
  6
CONTINUOUS
 62
    7
 10
145.67893249999997
 20
420.09223950000001
 11
145.92893249999997
 21
420.15480049999996
  0
LINE
  8
_0-0_0
  6
CONTINUOUS
 62
    7
 10
145.67893249999997
 20
420.55680849999999
 11
145.92893249999997
 21
420.4132535
  0
LINE
  8
_0-0_0
  6
CONTINUOUS
 62
    7
 10
145.92893249999997
 20
420.4132535
 11
155.17892449999999
 21
420.4132535
  0
LINE
  8
_0-0_0
  6
CONTINUOUS
 62
    7
 10
145.67893249999997
 20
420.55680849999999
 11
155.42892449999999
 21
420.55680849999999
  0
LINE
  8
_0-0_0
  6
CONTINUOUS
 62
    7
 10
145.67893249999997
 20
420.32258650000006
 11
145.92893249999997
 21
420.4132535
  0
LINE
  8
_0-0_0
  6
CONTINUOUS
 62
    7
 10
145.67893249999997
 20
420.79231249999998
 11
145.92893249999997
 21
420.67457550000006
  0
LINE
  8
_0-0_0
  6
CONTINUOUS
 62
    7
 10
145.92893249999997
 20
420.67457550000006
 11
155.17892449999999
 21
420.67457550000006
  0
LINE
  8
_0-0_0
  6
CONTINUOUS
 62
    7
 10
145.67893249999997
 20
420.79231249999998
 11
155.42892449999999
 21
420.79231249999998
  0
LINE
  8
_0-0_0
  6
CONTINUOUS
 62
    7
 10
145.67893249999997
 20
420.55680849999999
 11
145.92893249999997
 21
420.67457550000006
  0
LINE
  8
_0-0_0
  6
CONTINUOUS
 62
    7
 10
145.67893249999997
 20
421.02653550000002
 11
145.92893249999997
 21
420.93589750000001
  0
LINE
  8
_0-0_0
  6
CONTINUOUS
 62
    7
 10
145.92893249999997
 20
420.93589750000001
 11
155.17892449999999
 21
420.93589750000001
  0
LINE
  8
_0-0_0
  6
CONTINUOUS
 62
    7
 10
145.67893249999997
 20
421.02653550000002
 11
155.42892449999999
 21
421.02653550000002
  0
LINE
  8
_0-0_0
  6
CONTINUOUS
 62
    7
 10
145.67893249999997
 20
420.79231249999998
 11
145.92893249999997
 21
420.93589750000001
  0
LINE
  8
_0-0_0
  6
CONTINUOUS
 62
    7
 10
145.67893249999997
 20
421.2569125
 11
145.92893249999997
 21
421.19435150000004
  0
LINE
  8
_0-0_0
  6
CONTINUOUS
 62
    7
 10
145.92893249999997
 20
421.19435150000004
 11
155.17892449999999
 21
421.19435150000004
  0
LINE
  8
_0-0_0
  6
CONTINUOUS
 62
    7
 10
145.67893249999997
 20
421.2569125
 11
155.42892449999999
 21
421.2569125
  0
LINE
  8
_0-0_0
  6
CONTINUOUS
 62
    7
 10
145.67893249999997
 20
421.02653550000002
 11
145.92893249999997
 21
421.19435150000004
  0
LINE
  8
_0-0_0
  6
CONTINUOUS
 62
    7
 10
145.67893249999997
 20
421.48091150000005
 11
145.92893249999997
 21
421.44712849999996
  0
LINE
  8
_0-0_0
  6
CONTINUOUS
 62
    7
 10
145.92893249999997
 20
421.44712849999996
 11
155.17892449999999
 21
421.44712849999996
  0
LINE
  8
_0-0_0
  6
CONTINUOUS
 62
    7
 10
145.67893249999997
 20
421.48091150000005
 11
155.42892449999999
 21
421.48091150000005
  0
LINE
  8
_0-0_0
  6
CONTINUOUS
 62
    7
 10
145.67893249999997
 20
421.2569125
 11
145.92893249999997
 21
421.44712849999996
  0
LINE
  8
_0-0_0
  6
CONTINUOUS
 62
    7
 10
145.67893249999997
 20
421.69606050000004
 11
145.92893249999997
 21
421.69142150000005
  0
LINE
  8
_0-0_0
  6
CONTINUOUS
 62
    7
 10
145.92893249999997
 20
421.69142150000005
 11
155.17892449999999
 21
421.69142150000005
  0
LINE
  8
_0-0_0
  6
CONTINUOUS
 62
    7
 10
145.67893249999997
 20
421.48091150000005
 11
145.92893249999997
 21
421.69142150000005
  0
LINE
  8
_0-0_0
  6
CONTINUOUS
 62
    7
 10
159.42892449999999
 20
417.62455750000004
 11
159.42892449999999
 21
409.64302050000003
  0
LINE
  8
_0-0_0
  6
CONTINUOUS
 62
    7
 10
159.42892449999999
 20
409.64302050000003
 11
159.42892449999999
 21
407.12455750000004
  0
LINE
  8
_0-0_0
  6
CONTINUOUS
 62
    7
 10
145.67893249999997
 20
405.3000035
 11
145.92893249999997
 21
405.32456950000005
  0
LINE
  8
_0-0_0
  6
CONTINUOUS
 62
    7
 10
145.92893249999997
 20
405.32456950000005
 11
155.17892449999999
 21
405.32456950000005
  0
LINE
  8
_0-0_0
  6
CONTINUOUS
 62
    7
 10
145.67893249999997
 20
405.09605450000004
 11
145.92893249999997
 21
405.32456950000005
  0
LINE
  8
_0-0_0
  6
CONTINUOUS
 62
    7
 10
145.67893249999997
 20
405.09605450000004
 11
155.42892449999999
 21
405.09605450000004
  0
LINE
  8
_0-0_0
  6
CONTINUOUS
 62
    7
 10
145.67893249999997
 20
405.49055450000003
 11
145.92893249999997
 21
405.54402149999999
  0
LINE
  8
_0-0_0
  6
CONTINUOUS
 62
    7
 10
145.92893249999997
 20
405.54402149999999
 11
155.17892449999999
 21
405.54402149999999
  0
LINE
  8
_0-0_0
  6
CONTINUOUS
 62
    7
 10
145.67893249999997
 20
405.3000035
 11
145.92893249999997
 21
405.54402149999999
  0
LINE
  8
_0-0_0
  6
CONTINUOUS
 62
    7
 10
145.67893249999997
 20
405.66557350000005
 11
145.92893249999997
 21
405.74739050000005
  0
LINE
  8
_0-0_0
  6
CONTINUOUS
 62
    7
 10
145.92893249999997
 20
405.74739050000005
 11
155.17892449999999
 21
405.74739050000005
  0
LINE
  8
_0-0_0
  6
CONTINUOUS
 62
    7
 10
145.67893249999997
 20
405.49055450000003
 11
145.92893249999997
 21
405.74739050000005
  0
LINE
  8
_0-0_0
  6
CONTINUOUS
 62
    7
 10
145.67893249999997
 20
405.82313550000003
 11
145.92893249999997
 21
405.93241850000004
  0
LINE
  8
_0-0_0
  6
CONTINUOUS
 62
    7
 10
145.92893249999997
 20
405.93241850000004
 11
155.17892449999999
 21
405.93241850000004
  0
LINE
  8
_0-0_0
  6
CONTINUOUS
 62
    7
 10
145.67893249999997
 20
405.66557350000005
 11
145.92893249999997
 21
405.93241850000004
  0
LINE
  8
_0-0_0
  6
CONTINUOUS
 62
    7
 10
145.67893249999997
 20
405.96159350000005
 11
145.92893249999997
 21
406.09712249999995
  0
LINE
  8
_0-0_0
  6
CONTINUOUS
 62
    7
 10
145.92893249999997
 20
406.09712249999995
 11
155.17892449999999
 21
406.09712249999995
  0
LINE
  8
_0-0_0
  6
CONTINUOUS
 62
    7
 10
145.67893249999997
 20
405.82313550000003
 11
145.92893249999997
 21
406.09712249999995
  0
LINE
  8
_0-0_0
  6
CONTINUOUS
 62
    7
 10
145.67893249999997
 20
406.07933049999997
 11
145.92893249999997
 21
406.23963950000007
  0
LINE
  8
_0-0_0
  6
CONTINUOUS
 62
    7
 10
145.92893249999997
 20
406.23963950000007
 11
155.17892449999999
 21
406.23963950000007
  0
LINE
  8
_0-0_0
  6
CONTINUOUS
 62
    7
 10
145.67893249999997
 20
405.96159350000005
 11
145.92893249999997
 21
406.23963950000007
  0
LINE
  8
_0-0_0
  6
CONTINUOUS
 62
    7
 10
145.67893249999997
 20
406.17512550000004
 11
145.92893249999997
 21
406.35844450000002
  0
LINE
  8
_0-0_0
  6
CONTINUOUS
 62
    7
 10
145.92893249999997
 20
406.35844450000002
 11
155.17892449999999
 21
406.35844450000002
  0
LINE
  8
_0-0_0
  6
CONTINUOUS
 62
    7
 10
145.67893249999997
 20
406.07933049999997
 11
145.92893249999997
 21
406.35844450000002
  0
LINE
  8
_0-0_0
  6
CONTINUOUS
 62
    7
 10
145.67893249999997
 20
406.24790949999999
 11
145.92893249999997
 21
406.45222450000006
  0
LINE
  8
_0-0_0
  6
CONTINUOUS
 62
    7
 10
145.92893249999997
 20
406.45222450000006
 11
155.17892449999999
 21
406.45222450000006
  0
LINE
  8
_0-0_0
  6
CONTINUOUS
 62
    7
 10
145.67893249999997
 20
406.17512550000004
 11
145.92893249999997
 21
406.45222450000006
  0
LINE
  8
_0-0_0
  6
CONTINUOUS
 62
    7
 10
145.67893249999997
 20
406.29685949999998
 11
145.92893249999997
 21
406.51994350000007
  0
LINE
  8
_0-0_0
  6
CONTINUOUS
 62
    7
 10
145.92893249999997
 20
406.51994350000007
 11
155.17892449999999
 21
406.51994350000007
  0
LINE
  8
_0-0_0
  6
CONTINUOUS
 62
    7
 10
145.67893249999997
 20
406.24790949999999
 11
145.92893249999997
 21
406.51994350000007
  0
LINE
  8
_0-0_0
  6
CONTINUOUS
 62
    7
 10
145.67893249999997
 20
406.32148749999999
 11
145.92893249999997
 21
406.56086749999997
  0
LINE
  8
_0-0_0
  6
CONTINUOUS
 62
    7
 10
145.92893249999997
 20
406.56086749999997
 11
155.17892449999999
 21
406.56086749999997
  0
LINE
  8
_0-0_0
  6
CONTINUOUS
 62
    7
 10
145.67893249999997
 20
406.29685949999998
 11
145.92893249999997
 21
406.56086749999997
  0
LINE
  8
_0-0_0
  6
CONTINUOUS
 62
    7
 10
145.92893249999997
 20
406.57456950000005
 11
155.17892449999999
 21
406.57456950000005
  0
LINE
  8
_0-0_0
  6
CONTINUOUS
 62
    7
 10
145.67893249999997
 20
406.32148749999999
 11
145.92893249999997
 21
406.57456950000005
  0
LINE
  8
_0-0_0
  6
CONTINUOUS
 62
    7
 10
145.67893249999997
 20
401.8276525
 11
145.92893249999997
 21
401.57456950000005
  0
LINE
  8
_0-0_0
  6
CONTINUOUS
 62
    7
 10
145.92893249999997
 20
401.57456950000005
 11
155.17892449999999
 21
401.57456950000005
  0
LINE
  8
_0-0_0
  6
CONTINUOUS
 62
    7
 10
145.67893249999997
 20
401.85227950000001
 11
145.92893249999997
 21
401.58827250000002
  0
LINE
  8
_0-0_0
  6
CONTINUOUS
 62
    7
 10
145.92893249999997
 20
401.58827250000002
 11
155.17892449999999
 21
401.58827250000002
  0
LINE
  8
_0-0_0
  6
CONTINUOUS
 62
    7
 10
145.67893249999997
 20
401.8276525
 11
145.92893249999997
 21
401.58827250000002
  0
LINE
  8
_0-0_0
  6
CONTINUOUS
 62
    7
 10
145.67893249999997
 20
401.9012295
 11
145.92893249999997
 21
401.62919650000003
  0
LINE
  8
_0-0_0
  6
CONTINUOUS
 62
    7
 10
145.92893249999997
 20
401.62919650000003
 11
155.17892449999999
 21
401.62919650000003
  0
LINE
  8
_0-0_0
  6
CONTINUOUS
 62
    7
 10
145.67893249999997
 20
401.85227950000001
 11
145.92893249999997
 21
401.62919650000003
  0
LINE
  8
_0-0_0
  6
CONTINUOUS
 62
    7
 10
145.67893249999997
 20
401.97401450000007
 11
145.92893249999997
 21
401.69691450000005
  0
LINE
  8
_0-0_0
  6
CONTINUOUS
 62
    7
 10
145.92893249999997
 20
401.69691450000005
 11
155.17892449999999
 21
401.69691450000005
  0
LINE
  8
_0-0_0
  6
CONTINUOUS
 62
    7
 10
145.67893249999997
 20
401.9012295
 11
145.92893249999997
 21
401.69691450000005
  0
LINE
  8
_0-0_0
  6
CONTINUOUS
 62
    7
 10
145.67893249999997
 20
402.06980950000002
 11
145.92893249999997
 21
401.79069549999997
  0
LINE
  8
_0-0_0
  6
CONTINUOUS
 62
    7
 10
145.92893249999997
 20
401.79069549999997
 11
155.17892449999999
 21
401.79069549999997
  0
LINE
  8
_0-0_0
  6
CONTINUOUS
 62
    7
 10
145.67893249999997
 20
401.97401450000007
 11
145.92893249999997
 21
401.79069549999997
  0
LINE
  8
_0-0_0
  6
CONTINUOUS
 62
    7
 10
145.92893249999997
 20
401.90950050000004
 11
155.17892449999999
 21
401.90950050000004
  0
LINE
  8
_0-0_0
  6
CONTINUOUS
 62
    7
 10
145.8088985
 20
401.98594650000007
 11
145.92893249999997
 21
401.90950050000004
  0
LINE
  8
_0-0_0
  6
CONTINUOUS
 62
    7
 10
145.67893249999997
 20
402.06980950000002
 11
145.8088985
 21
401.98594650000007
  0
LINE
  8
_0-0_0
  6
CONTINUOUS
 62
    7
 10
145.67893249999997
 20
402.18754550000006
 11
145.92893249999997
 21
401.90950050000004
  0
LINE
  8
_0-0_0
  6
CONTINUOUS
 62
    7
 10
145.67893249999997
 20
402.32600450000007
 11
145.92893249999997
 21
402.05201750000003
  0
LINE
  8
_0-0_0
  6
CONTINUOUS
 62
    7
 10
145.92893249999997
 20
402.05201750000003
 11
155.17892449999999
 21
402.05201750000003
  0
LINE
  8
_0-0_0
  6
CONTINUOUS
 62
    7
 10
145.67893249999997
 20
402.18754550000006
 11
145.92893249999997
 21
402.05201750000003
  0
LINE
  8
_0-0_0
  6
CONTINUOUS
 62
    7
 10
145.67893249999997
 20
402.48359649999998
 11
145.92893249999997
 21
402.21672050000006
  0
LINE
  8
_0-0_0
  6
CONTINUOUS
 62
    7
 10
145.92893249999997
 20
402.21672050000006
 11
155.17892449999999
 21
402.21672050000006
  0
LINE
  8
_0-0_0
  6
CONTINUOUS
 62
    7
 10
145.67893249999997
 20
402.32600450000007
 11
145.92893249999997
 21
402.21672050000006
  0
LINE
  8
_0-0_0
  6
CONTINUOUS
 62
    7
 10
145.67893249999997
 20
402.65858449999996
 11
145.92893249999997
 21
402.40174850000005
  0
LINE
  8
_0-0_0
  6
CONTINUOUS
 62
    7
 10
145.92893249999997
 20
402.40174850000005
 11
155.17892449999999
 21
402.40174850000005
  0
LINE
  8
_0-0_0
  6
CONTINUOUS
 62
    7
 10
145.67893249999997
 20
402.48359649999998
 11
145.92893249999997
 21
402.40174850000005
  0
LINE
  8
_0-0_0
  6
CONTINUOUS
 62
    7
 10
145.67893249999997
 20
402.84913649999999
 11
145.92893249999997
 21
402.60511750000001
  0
LINE
  8
_0-0_0
  6
CONTINUOUS
 62
    7
 10
145.92893249999997
 20
402.60511750000001
 11
155.17892449999999
 21
402.60511750000001
  0
LINE
  8
_0-0_0
  6
CONTINUOUS
 62
    7
 10
145.67893249999997
 20
402.65858449999996
 11
145.92893249999997
 21
402.60511750000001
  0
LINE
  8
_0-0_0
  6
CONTINUOUS
 62
    7
 10
145.67893249999997
 20
403.05308550000007
 11
145.92893249999997
 21
402.82456950000005
  0
LINE
  8
_0-0_0
  6
CONTINUOUS
 62
    7
 10
145.92893249999997
 20
402.82456950000005
 11
155.17892449999999
 21
402.82456950000005
  0
LINE
  8
_0-0_0
  6
CONTINUOUS
 62
    7
 10
145.67893249999997
 20
403.05308550000007
 11
155.42892449999999
 21
403.05308550000007
  0
LINE
  8
_0-0_0
  6
CONTINUOUS
 62
    7
 10
145.67893249999997
 20
402.84913649999999
 11
145.92893249999997
 21
402.82456950000005
  0
LINE
  8
_0-0_0
  6
CONTINUOUS
 62
    7
 10
145.67893249999997
 20
403.26823450000006
 11
145.92893249999997
 21
403.05772450000006
  0
LINE
  8
_0-0_0
  6
CONTINUOUS
 62
    7
 10
145.92893249999997
 20
403.05772450000006
 11
155.17892449999999
 21
403.05772450000006
  0
LINE
  8
_0-0_0
  6
CONTINUOUS
 62
    7
 10
145.67893249999997
 20
403.26823450000006
 11
155.42892449999999
 21
403.26823450000006
  0
LINE
  8
_0-0_0
  6
CONTINUOUS
 62
    7
 10
145.67893249999997
 20
403.05308550000007
 11
145.92893249999997
 21
403.05772450000006
  0
LINE
  8
_0-0_0
  6
CONTINUOUS
 62
    7
 10
145.67893249999997
 20
403.4922335
 11
145.92893249999997
 21
403.30201750000003
  0
LINE
  8
_0-0_0
  6
CONTINUOUS
 62
    7
 10
145.92893249999997
 20
403.30201750000003
 11
155.17892449999999
 21
403.30201750000003
  0
LINE
  8
_0-0_0
  6
CONTINUOUS
 62
    7
 10
145.67893249999997
 20
403.4922335
 11
155.42892449999999
 21
403.4922335
  0
LINE
  8
_0-0_0
  6
CONTINUOUS
 62
    7
 10
145.67893249999997
 20
403.26823450000006
 11
145.92893249999997
 21
403.30201750000003
  0
LINE
  8
_0-0_0
  6
CONTINUOUS
 62
    7
 10
145.67893249999997
 20
403.72258050000005
 11
145.92893249999997
 21
403.55479449999996
  0
LINE
  8
_0-0_0
  6
CONTINUOUS
 62
    7
 10
145.92893249999997
 20
403.55479449999996
 11
155.17892449999999
 21
403.55479449999996
  0
LINE
  8
_0-0_0
  6
CONTINUOUS
 62
    7
 10
145.67893249999997
 20
403.72258050000005
 11
155.42892449999999
 21
403.72258050000005
  0
LINE
  8
_0-0_0
  6
CONTINUOUS
 62
    7
 10
145.67893249999997
 20
403.4922335
 11
145.92893249999997
 21
403.55479449999996
  0
LINE
  8
_0-0_0
  6
CONTINUOUS
 62
    7
 10
145.67893249999997
 20
403.95680249999998
 11
145.92893249999997
 21
403.81324749999999
  0
LINE
  8
_0-0_0
  6
CONTINUOUS
 62
    7
 10
145.92893249999997
 20
403.81324749999999
 11
155.17892449999999
 21
403.81324749999999
  0
LINE
  8
_0-0_0
  6
CONTINUOUS
 62
    7
 10
145.67893249999997
 20
403.95680249999998
 11
155.42892449999999
 21
403.95680249999998
  0
LINE
  8
_0-0_0
  6
CONTINUOUS
 62
    7
 10
145.67893249999997
 20
403.72258050000005
 11
145.92893249999997
 21
403.81324749999999
  0
LINE
  8
_0-0_0
  6
CONTINUOUS
 62
    7
 10
145.67893249999997
 20
404.19233750000001
 11
145.92893249999997
 21
404.07456950000005
  0
LINE
  8
_0-0_0
  6
CONTINUOUS
 62
    7
 10
145.92893249999997
 20
404.07456950000005
 11
155.17892449999999
 21
404.07456950000005
  0
LINE
  8
_0-0_0
  6
CONTINUOUS
 62
    7
 10
145.67893249999997
 20
404.19233750000001
 11
155.42892449999999
 21
404.19233750000001
  0
LINE
  8
_0-0_0
  6
CONTINUOUS
 62
    7
 10
145.67893249999997
 20
403.95680249999998
 11
145.92893249999997
 21
404.07456950000005
  0
LINE
  8
_0-0_0
  6
CONTINUOUS
 62
    7
 10
145.67893249999997
 20
404.42655950000005
 11
145.92893249999997
 21
404.3358915
  0
LINE
  8
_0-0_0
  6
CONTINUOUS
 62
    7
 10
145.92893249999997
 20
404.3358915
 11
155.17892449999999
 21
404.3358915
  0
LINE
  8
_0-0_0
  6
CONTINUOUS
 62
    7
 10
145.67893249999997
 20
404.42655950000005
 11
155.42892449999999
 21
404.42655950000005
  0
LINE
  8
_0-0_0
  6
CONTINUOUS
 62
    7
 10
145.67893249999997
 20
404.19233750000001
 11
145.92893249999997
 21
404.3358915
  0
LINE
  8
_0-0_0
  6
CONTINUOUS
 62
    7
 10
145.67893249999997
 20
404.65690649999999
 11
145.92893249999997
 21
404.59434550000003
  0
LINE
  8
_0-0_0
  6
CONTINUOUS
 62
    7
 10
145.92893249999997
 20
404.59434550000003
 11
155.17892449999999
 21
404.59434550000003
  0
LINE
  8
_0-0_0
  6
CONTINUOUS
 62
    7
 10
145.67893249999997
 20
404.65690649999999
 11
155.42892449999999
 21
404.65690649999999
  0
LINE
  8
_0-0_0
  6
CONTINUOUS
 62
    7
 10
145.67893249999997
 20
404.42655950000005
 11
145.92893249999997
 21
404.59434550000003
  0
LINE
  8
_0-0_0
  6
CONTINUOUS
 62
    7
 10
145.67893249999997
 20
404.88090550000004
 11
145.92893249999997
 21
404.84712249999995
  0
LINE
  8
_0-0_0
  6
CONTINUOUS
 62
    7
 10
145.92893249999997
 20
404.84712249999995
 11
155.17892449999999
 21
404.84712249999995
  0
LINE
  8
_0-0_0
  6
CONTINUOUS
 62
    7
 10
145.67893249999997
 20
404.88090550000004
 11
155.42892449999999
 21
404.88090550000004
  0
LINE
  8
_0-0_0
  6
CONTINUOUS
 62
    7
 10
145.67893249999997
 20
404.65690649999999
 11
145.92893249999997
 21
404.84712249999995
  0
LINE
  8
_0-0_0
  6
CONTINUOUS
 62
    7
 10
145.67893249999997
 20
405.09605450000004
 11
145.92893249999997
 21
405.09141550000004
  0
LINE
  8
_0-0_0
  6
CONTINUOUS
 62
    7
 10
145.92893249999997
 20
405.09141550000004
 11
155.17892449999999
 21
405.09141550000004
  0
LINE
  8
_0-0_0
  6
CONTINUOUS
 62
    7
 10
145.67893249999997
 20
404.88090550000004
 11
145.92893249999997
 21
405.09141550000004
  0
LINE
  8
_0-0_0
  6
CONTINUOUS
 62
    7
 10
145.42893249999997
 20
422.67457550000006
 11
145.42893249999997
 21
418.91941850000001
  0
LINE
  8
_0-0_0
  6
CONTINUOUS
 62
    7
 10
145.42893249999997
 20
418.91941850000001
 11
145.42893249999997
 21
418.67457550000006
  0
LINE
  8
_0-0_0
  6
CONTINUOUS
 62
    7
 10
145.42893249999997
 20
406.07456950000005
 11
145.42893249999997
 21
402.3194125
  0
LINE
  8
_0-0_0
  6
CONTINUOUS
 62
    7
 10
145.42893249999997
 20
402.3194125
 11
145.42893249999997
 21
402.07456950000005
  0
LINE
  8
_0-0_0
  6
CONTINUOUS
 62
    7
 10
159.0289305
 20
417.37455750000004
 11
159.0289305
 21
414.87455750000004
  0
LINE
  8
_0-0_0
  6
CONTINUOUS
 62
    7
 10
159.0289305
 20
414.87455750000004
 11
159.0289305
 21
407.37455750000004
  0
LINE
  8
_0-0_0
  6
CONTINUOUS
 62
    7
 10
158.22894250000002
 20
416.91270450000002
 11
158.22894250000002
 21
414.64363149999997
  0
LINE
  8
_0-0_0
  6
CONTINUOUS
 62
    7
 10
158.22894250000002
 20
414.64363149999997
 11
158.22894250000002
 21
407.83644149999998
  0
LINE
  8
_0-0_0
  6
CONTINUOUS
 62
    7
 10
100.2289275
 20
416.37455750000004
 11
100.2289275
 21
416.37321450000002
  0
LINE
  8
_0-0_0
  6
CONTINUOUS
 62
    7
 10
100.2289275
 20
416.37321450000002
 11
100.2289275
 21
408.37455750000004
  0
LINE
  8
_0-0_0
  6
CONTINUOUS
 62
    7
 10
181.42892449999999
 20
422.92457550000006
 11
155.42892449999999
 21
422.92457550000006
  0
LINE
  8
_0-0_0
  6
CONTINUOUS
 62
    7
 10
181.42892449999999
 20
418.42457550000006
 11
155.42892449999999
 21
418.42457550000006
  0
LINE
  8
_0-0_0
  6
CONTINUOUS
 62
    7
 10
160.22891249999998
 20
406.32456950000005
 11
155.42892449999999
 21
406.32456950000005
  0
LINE
  8
_0-0_0
  6
CONTINUOUS
 62
    7
 10
175.67889450000001
 20
401.82456950000005
 11
155.42892449999999
 21
401.82456950000005
  0
LINE
  8
_0-0_0
  6
CONTINUOUS
 62
    7
 10
155.42892449999999
 20
422.92457550000006
 11
155.17892449999999
 21
423.17457550000006
  0
LINE
  8
_0-0_0
  6
CONTINUOUS
 62
    7
 10
155.42892449999999
 20
418.42457550000006
 11
155.17892449999999
 21
418.17457550000006
  0
LINE
  8
_0-0_0
  6
CONTINUOUS
 62
    7
 10
155.42892449999999
 20
406.32456950000005
 11
155.17892449999999
 21
406.57456950000005
  0
LINE
  8
_0-0_0
  6
CONTINUOUS
 62
    7
 10
155.42892449999999
 20
401.82456950000005
 11
155.17892449999999
 21
401.57456950000005
  0
LINE
  8
_0-0_0
  6
CONTINUOUS
 62
    7
 10
159.42892449999999
 20
417.62455750000004
 11
160.2289275
 21
418.42457550000006
  0
LINE
  8
_0-0_0
  6
CONTINUOUS
 62
    7
 10
159.42892449999999
 20
407.12455750000004
 11
160.67892449999999
 21
405.87455750000004
  0
LINE
  8
_0-0_0
  6
CONTINUOUS
 62
    7
 10
145.42893249999997
 20
422.67457550000006
 11
145.92877950000002
 21
423.17442349999999
  0
LINE
  8
_0-0_0
  6
CONTINUOUS
 62
    7
 10
145.42893249999997
 20
418.67457550000006
 11
145.92877950000002
 21
418.17472850000001
  0
LINE
  8
_0-0_0
  6
CONTINUOUS
 62
    7
 10
145.42893249999997
 20
406.07456950000005
 11
145.92877950000002
 21
406.57441749999998
  0
LINE
  8
_0-0_0
  6
CONTINUOUS
 62
    7
 10
145.42893249999997
 20
402.07456950000005
 11
145.92877950000002
 21
401.57472250000001
  0
LINE
  8
_0-0_0
  6
CONTINUOUS
 62
    7
 10
159.42892449999999
 20
417.37455750000004
 11
159.0289305
 21
417.37455750000004
  0
LINE
  8
_0-0_0
  6
CONTINUOUS
 62
    7
 10
159.42892449999999
 20
407.37455750000004
 11
159.0289305
 21
407.37455750000004
  0
LINE
  8
_0-0_0
  6
CONTINUOUS
 62
    7
 10
158.22894250000002
 20
416.91270450000002
 11
159.0289305
 21
417.37455750000004
  0
LINE
  8
_0-0_0
  6
CONTINUOUS
 62
    7
 10
158.22894250000002
 20
407.83644149999998
 11
159.0289305
 21
407.37455750000004
  0
LINE
  8
_0-0_0
  6
CONTINUOUS
 62
    7
 10
158.22894250000002
 20
416.37455750000004
 11
100.2289275
 21
416.37455750000004
  0
LINE
  8
_0-0_0
  6
CONTINUOUS
 62
    7
 10
158.22894250000002
 20
408.37455750000004
 11
100.2289275
 21
408.37455750000004
  0
LINE
  8
_0-0_0
  6
CONTINUOUS
 62
    7
 10
165.92892449999999
 20
441.27464350000002
 11
168.38369750000001
 21
441.27464350000002
  0
LINE
  8
_0-0_0
  6
CONTINUOUS
 62
    7
 10
165.92892449999999
 20
428.07463050000001
 11
165.92892449999999
 21
441.27464350000002
  0
LINE
  8
_0-0_0
  6
CONTINUOUS
 62
    7
 10
818.92892449999999
 20
428.07463050000001
 11
818.92892449999999
 21
441.27464350000002
  0
LINE
  8
_0-0_0
  6
CONTINUOUS
 62
    7
 10
816.47415150000006
 20
441.27464350000002
 11
818.92892449999999
 21
441.27464350000002
  0
ARC
  8
_0-0_0
  6
CONTINUOUS
 62
    7
 10
809.92892449999999
 20
445.87464950000003
 40
8
 50
215.099627
 51
324.90037799999999
  0
LINE
  8
_0-0_0
  6
CONTINUOUS
 62
    7
 10
181.4741515
 20
441.27464350000002
 11
803.38369750000004
 21
441.27464350000002
  0
ARC
  8
_0-0_0
  6
CONTINUOUS
 62
    7
 10
174.92892449999999
 20
445.87464950000003
 40
8
 50
215.099627
 51
324.90037799999999
  0
LINE
  8
_0-0_0
  6
CONTINUOUS
 62
    7
 10
168.38369750000001
 20
441.27464350000002
 11
168.2947235
 21
441.40394649999996
  0
LINE
  8
_0-0_0
  6
CONTINUOUS
 62
    7
 10
181.4741515
 20
441.27464350000002
 11
181.5631405
 21
441.40394649999996
  0
LINE
  8
_0-0_0
  6
CONTINUOUS
 62
    7
 10
181.65628050000001
 20
441.54536450000001
 11
181.5631405
 21
441.40394649999996
  0
LINE
  8
_0-0_0
  6
CONTINUOUS
 62
    7
 10
181.65628050000001
 20
441.54536450000001
 11
181.73774750000001
 21
441.67463650000002
  0
ARC
  8
_0-0_0
  6
CONTINUOUS
 62
    7
 10
174.92892449999999
 20
445.87464950000003
 40
8
 50
328.33175599999993
 51
334.05550899999992
  0
LINE
  8
_0-0_0
  6
CONTINUOUS
 62
    7
 10
182.1226805
 20
442.37464950000003
 11
182.1841585
 21
442.50392150000005
  0
LINE
  8
_0-0_0
  6
CONTINUOUS
 62
    7
 10
182.2481995
 20
442.64534049999997
 11
182.1841585
 21
442.50392150000005
  0
LINE
  8
_0-0_0
  6
CONTINUOUS
 62
    7
 10
182.2481995
 20
442.64534049999997
 11
182.30389450000001
 21
442.77464350000002
  0
ARC
  8
_0-0_0
  6
CONTINUOUS
 62
    7
 10
174.92892449999999
 20
445.87464950000003
 40
8
 50
337.20097500000003
 51
342.54240199999998
  0
LINE
  8
_0-0_0
  6
CONTINUOUS
 62
    7
 10
182.56045550000002
 20
443.47465550000004
 11
182.59991450000001
 21
443.60392750000005
  0
LINE
  8
_0-0_0
  6
CONTINUOUS
 62
    7
 10
182.64035050000001
 20
443.74534649999998
 11
182.59991450000001
 21
443.60392750000005
  0
LINE
  8
_0-0_0
  6
CONTINUOUS
 62
    7
 10
182.64035050000001
 20
443.74534649999998
 11
182.67489650000002
 21
443.87464950000003
  0
ARC
  8
_0-0_0
  6
CONTINUOUS
 62
    7
 10
174.92892449999999
 20
445.87464950000003
 40
8
 50
345.52249499999999
 51
350.64797900000002
  0
LINE
  8
_0-0_0
  6
CONTINUOUS
 62
    7
 10
182.82260150000002
 20
444.57463050000001
 11
182.8428045
 21
444.70393350000006
  0
LINE
  8
_0-0_0
  6
CONTINUOUS
 62
    7
 10
182.86244250000001
 20
444.84535249999999
 11
182.8428045
 21
444.70393350000006
  0
LINE
  8
_0-0_0
  6
CONTINUOUS
 62
    7
 10
182.86244250000001
 20
444.84535249999999
 11
182.87814349999999
 21
444.97465550000004
  0
ARC
  8
_0-0_0
  6
CONTINUOUS
 62
    7
 10
174.92892449999999
 20
445.87464950000003
 40
8
 50
353.54056400000002
 51
358.56744600000002
  0
LINE
  8
_0-0_0
  6
CONTINUOUS
 62
    7
 10
182.92643750000002
 20
445.67463650000002
 11
182.9286195
 21
445.80393949999996
  0
LINE
  8
_0-0_0
  6
CONTINUOUS
 62
    7
 10
182.9286195
 20
445.80393949999996
 11
182.92893950000001
 21
445.87464950000003
  0
LINE
  8
_0-0_0
  6
CONTINUOUS
 62
    7
 10
166.92924550000001
 20
445.80393949999996
 11
166.92892449999999
 21
445.87464950000003
  0
LINE
  8
_0-0_0
  6
CONTINUOUS
 62
    7
 10
166.93142750000001
 20
445.67463650000002
 11
166.92924550000001
 21
445.80393949999996
  0
ARC
  8
_0-0_0
  6
CONTINUOUS
 62
    7
 10
174.92892449999999
 20
445.87464950000003
 40
8
 50
181.432545
 51
186.45945499999999
  0
LINE
  8
_0-0_0
  6
CONTINUOUS
 62
    7
 10
166.99542250000002
 20
444.84535249999999
 11
166.97972150000001
 21
444.97465550000004
  0
LINE
  8
_0-0_0
  6
CONTINUOUS
 62
    7
 10
166.99542250000002
 20
444.84535249999999
 11
167.01504550000001
 21
444.70393350000006
  0
LINE
  8
_0-0_0
  6
CONTINUOUS
 62
    7
 10
167.03526350000001
 20
444.57463050000001
 11
167.01504550000001
 21
444.70393350000006
  0
ARC
  8
_0-0_0
  6
CONTINUOUS
 62
    7
 10
174.92892449999999
 20
445.87464950000003
 40
8
 50
189.35203999999999
 51
194.47751
  0
LINE
  8
_0-0_0
  6
CONTINUOUS
 62
    7
 10
167.2174985
 20
443.74534649999998
 11
167.18296850000002
 21
443.87464950000003
  0
LINE
  8
_0-0_0
  6
CONTINUOUS
 62
    7
 10
167.2174985
 20
443.74534649999998
 11
167.25796550000001
 21
443.60392750000005
  0
LINE
  8
_0-0_0
  6
CONTINUOUS
 62
    7
 10
167.29742450000001
 20
443.47465550000004
 11
167.25796550000001
 21
443.60392750000005
  0
ARC
  8
_0-0_0
  6
CONTINUOUS
 62
    7
 10
174.92892449999999
 20
445.87464950000003
 40
8
 50
197.45760300000001
 51
202.79902999999999
  0
LINE
  8
_0-0_0
  6
CONTINUOUS
 62
    7
 10
167.60966450000001
 20
442.64534049999997
 11
167.55398550000001
 21
442.77464350000002
  0
LINE
  8
_0-0_0
  6
CONTINUOUS
 62
    7
 10
167.60966450000001
 20
442.64534049999997
 11
167.67370650000001
 21
442.50392150000005
  0
LINE
  8
_0-0_0
  6
CONTINUOUS
 62
    7
 10
167.73518350000001
 20
442.37464950000003
 11
167.67370650000001
 21
442.50392150000005
  0
ARC
  8
_0-0_0
  6
CONTINUOUS
 62
    7
 10
174.92892449999999
 20
445.87464950000003
 40
8
 50
205.94448199999999
 51
211.66823500000001
  0
LINE
  8
_0-0_0
  6
CONTINUOUS
 62
    7
 10
168.2015835
 20
441.54536450000001
 11
168.12011749999999
 21
441.67463650000002
  0
LINE
  8
_0-0_0
  6
CONTINUOUS
 62
    7
 10
168.2015835
 20
441.54536450000001
 11
168.2947235
 21
441.40394649999996
  0
LINE
  8
_0-0_0
  6
CONTINUOUS
 62
    7
 10
803.38369750000004
 20
441.27464350000002
 11
803.29470849999996
 21
441.40394649999996
  0
LINE
  8
_0-0_0
  6
CONTINUOUS
 62
    7
 10
801.92922950000002
 20
445.80393949999996
 11
801.92892449999999
 21
445.87464950000003
  0
LINE
  8
_0-0_0
  6
CONTINUOUS
 62
    7
 10
801.93142750000004
 20
445.67463650000002
 11
801.92922950000002
 21
445.80393949999996
  0
ARC
  8
_0-0_0
  6
CONTINUOUS
 62
    7
 10
809.92892449999999
 20
445.87464950000003
 40
8
 50
181.432545
 51
186.45945499999999
  0
LINE
  8
_0-0_0
  6
CONTINUOUS
 62
    7
 10
801.99539149999998
 20
444.84535249999999
 11
801.97970550000002
 21
444.97465550000004
  0
LINE
  8
_0-0_0
  6
CONTINUOUS
 62
    7
 10
801.99539149999998
 20
444.84535249999999
 11
802.01504550000004
 21
444.70393350000006
  0
LINE
  8
_0-0_0
  6
CONTINUOUS
 62
    7
 10
802.03524749999997
 20
444.57463050000001
 11
802.01504550000004
 21
444.70393350000006
  0
ARC
  8
_0-0_0
  6
CONTINUOUS
 62
    7
 10
809.92892449999999
 20
445.87464950000003
 40
8
 50
189.35203999999999
 51
194.47751
  0
LINE
  8
_0-0_0
  6
CONTINUOUS
 62
    7
 10
802.21749850000003
 20
443.74534649999998
 11
802.18295250000006
 21
443.87464950000003
  0
LINE
  8
_0-0_0
  6
CONTINUOUS
 62
    7
 10
802.21749850000003
 20
443.74534649999998
 11
802.25796549999995
 21
443.60392750000005
  0
LINE
  8
_0-0_0
  6
CONTINUOUS
 62
    7
 10
802.2973935
 20
443.47465550000004
 11
802.25796549999995
 21
443.60392750000005
  0
ARC
  8
_0-0_0
  6
CONTINUOUS
 62
    7
 10
809.92892449999999
 20
445.87464950000003
 40
8
 50
197.45760300000001
 51
202.79902999999999
  0
LINE
  8
_0-0_0
  6
CONTINUOUS
 62
    7
 10
802.60964950000005
 20
442.64534049999997
 11
802.55398549999995
 21
442.77464350000002
  0
LINE
  8
_0-0_0
  6
CONTINUOUS
 62
    7
 10
802.60964950000005
 20
442.64534049999997
 11
802.67367550000006
 21
442.50392150000005
  0
LINE
  8
_0-0_0
  6
CONTINUOUS
 62
    7
 10
802.73519950000002
 20
442.37464950000003
 11
802.67367550000006
 21
442.50392150000005
  0
ARC
  8
_0-0_0
  6
CONTINUOUS
 62
    7
 10
809.92892449999999
 20
445.87464950000003
 40
8
 50
205.94448199999999
 51
211.66823500000001
  0
LINE
  8
_0-0_0
  6
CONTINUOUS
 62
    7
 10
803.20156850000001
 20
441.54536450000001
 11
803.12008649999996
 21
441.67463650000002
  0
LINE
  8
_0-0_0
  6
CONTINUOUS
 62
    7
 10
803.20156850000001
 20
441.54536450000001
 11
803.29470849999996
 21
441.40394649999996
  0
LINE
  8
_0-0_0
  6
CONTINUOUS
 62
    7
 10
816.47415150000006
 20
441.27464350000002
 11
816.56314050000003
 21
441.40394649999996
  0
LINE
  8
_0-0_0
  6
CONTINUOUS
 62
    7
 10
816.65628049999998
 20
441.54536450000001
 11
816.56314050000003
 21
441.40394649999996
  0
LINE
  8
_0-0_0
  6
CONTINUOUS
 62
    7
 10
816.65628049999998
 20
441.54536450000001
 11
816.73776250000003
 21
441.67463650000002
  0
ARC
  8
_0-0_0
  6
CONTINUOUS
 62
    7
 10
809.92892449999999
 20
445.87464950000003
 40
8
 50
328.33175599999993
 51
334.05550899999992
  0
LINE
  8
_0-0_0
  6
CONTINUOUS
 62
    7
 10
817.12265049999996
 20
442.37464950000003
 11
817.18417350000004
 21
442.50392150000005
  0
LINE
  8
_0-0_0
  6
CONTINUOUS
 62
    7
 10
817.24819950000006
 20
442.64534049999997
 11
817.18417350000004
 21
442.50392150000005
  0
LINE
  8
_0-0_0
  6
CONTINUOUS
 62
    7
 10
817.24819950000006
 20
442.64534049999997
 11
817.30386350000003
 21
442.77464350000002
  0
ARC
  8
_0-0_0
  6
CONTINUOUS
 62
    7
 10
809.92892449999999
 20
445.87464950000003
 40
8
 50
337.20097500000003
 51
342.54240199999998
  0
LINE
  8
_0-0_0
  6
CONTINUOUS
 62
    7
 10
817.56045549999999
 20
443.47465550000004
 11
817.59988450000003
 21
443.60392750000005
  0
LINE
  8
_0-0_0
  6
CONTINUOUS
 62
    7
 10
817.64035049999995
 20
443.74534649999998
 11
817.59988450000003
 21
443.60392750000005
  0
LINE
  8
_0-0_0
  6
CONTINUOUS
 62
    7
 10
817.64035049999995
 20
443.74534649999998
 11
817.67489650000005
 21
443.87464950000003
  0
ARC
  8
_0-0_0
  6
CONTINUOUS
 62
    7
 10
809.92892449999999
 20
445.87464950000003
 40
8
 50
345.52249499999999
 51
350.64797900000002
  0
LINE
  8
_0-0_0
  6
CONTINUOUS
 62
    7
 10
817.82260150000002
 20
444.57463050000001
 11
817.84280450000006
 21
444.70393350000006
  0
LINE
  8
_0-0_0
  6
CONTINUOUS
 62
    7
 10
817.8624575
 20
444.84535249999999
 11
817.84280450000006
 21
444.70393350000006
  0
LINE
  8
_0-0_0
  6
CONTINUOUS
 62
    7
 10
817.8624575
 20
444.84535249999999
 11
817.87814349999996
 21
444.97465550000004
  0
ARC
  8
_0-0_0
  6
CONTINUOUS
 62
    7
 10
809.92892449999999
 20
445.87464950000003
 40
8
 50
353.54056400000002
 51
358.56744600000002
  0
LINE
  8
_0-0_0
  6
CONTINUOUS
 62
    7
 10
817.92642250000006
 20
445.67463650000002
 11
817.92861949999997
 21
445.80393949999996
  0
LINE
  8
_0-0_0
  6
CONTINUOUS
 62
    7
 10
817.92861949999997
 20
445.80393949999996
 11
817.92892449999999
 21
445.87464950000003
  0
LINE
  8
_0-0_0
  6
CONTINUOUS
 62
    7
 10
818.92892449999999
 20
441.40394649999996
 11
818.92892449999999
 21
441.27464350000002
  0
LINE
  8
_0-0_0
  6
CONTINUOUS
 62
    7
 10
818.92892449999999
 20
450.20393350000006
 11
818.92892449999999
 21
450.34535249999999
  0
LINE
  8
_0-0_0
  6
CONTINUOUS
 62
    7
 10
818.92892449999999
 20
450.20393350000006
 11
818.92892449999999
 21
450.07463050000001
  0
LINE
  8
_0-0_0
  6
CONTINUOUS
 62
    7
 10
818.92892449999999
 20
449.37464950000003
 11
818.92892449999999
 21
450.07463050000001
  0
LINE
  8
_0-0_0
  6
CONTINUOUS
 62
    7
 10
818.92892449999999
 20
449.24534649999998
 11
818.92892449999999
 21
449.37464950000003
  0
LINE
  8
_0-0_0
  6
CONTINUOUS
 62
    7
 10
818.92892449999999
 20
449.10392750000005
 11
818.92892449999999
 21
449.24534649999998
  0
LINE
  8
_0-0_0
  6
CONTINUOUS
 62
    7
 10
818.92892449999999
 20
449.10392750000005
 11
818.92892449999999
 21
448.97465550000004
  0
LINE
  8
_0-0_0
  6
CONTINUOUS
 62
    7
 10
818.92892449999999
 20
448.27464350000002
 11
818.92892449999999
 21
448.97465550000004
  0
LINE
  8
_0-0_0
  6
CONTINUOUS
 62
    7
 10
818.92892449999999
 20
448.14534049999997
 11
818.92892449999999
 21
448.27464350000002
  0
LINE
  8
_0-0_0
  6
CONTINUOUS
 62
    7
 10
818.92892449999999
 20
448.00392150000005
 11
818.92892449999999
 21
448.14534049999997
  0
LINE
  8
_0-0_0
  6
CONTINUOUS
 62
    7
 10
818.92892449999999
 20
448.00392150000005
 11
818.92892449999999
 21
447.87464950000003
  0
LINE
  8
_0-0_0
  6
CONTINUOUS
 62
    7
 10
818.92892449999999
 20
447.17463650000002
 11
818.92892449999999
 21
447.87464950000003
  0
LINE
  8
_0-0_0
  6
CONTINUOUS
 62
    7
 10
818.92892449999999
 20
447.04536450000001
 11
818.92892449999999
 21
447.17463650000002
  0
LINE
  8
_0-0_0
  6
CONTINUOUS
 62
    7
 10
818.92892449999999
 20
446.90394649999996
 11
818.92892449999999
 21
447.04536450000001
  0
LINE
  8
_0-0_0
  6
CONTINUOUS
 62
    7
 10
818.92892449999999
 20
446.90394649999996
 11
818.92892449999999
 21
446.77464350000002
  0
LINE
  8
_0-0_0
  6
CONTINUOUS
 62
    7
 10
818.92892449999999
 20
446.07463050000001
 11
818.92892449999999
 21
446.77464350000002
  0
LINE
  8
_0-0_0
  6
CONTINUOUS
 62
    7
 10
818.92892449999999
 20
445.9453585
 11
818.92892449999999
 21
446.07463050000001
  0
LINE
  8
_0-0_0
  6
CONTINUOUS
 62
    7
 10
818.92892449999999
 20
445.80393949999996
 11
818.92892449999999
 21
445.9453585
  0
LINE
  8
_0-0_0
  6
CONTINUOUS
 62
    7
 10
818.92892449999999
 20
445.80393949999996
 11
818.92892449999999
 21
445.67463650000002
  0
LINE
  8
_0-0_0
  6
CONTINUOUS
 62
    7
 10
818.92892449999999
 20
444.97465550000004
 11
818.92892449999999
 21
445.67463650000002
  0
LINE
  8
_0-0_0
  6
CONTINUOUS
 62
    7
 10
818.92892449999999
 20
444.84535249999999
 11
818.92892449999999
 21
444.97465550000004
  0
LINE
  8
_0-0_0
  6
CONTINUOUS
 62
    7
 10
818.92892449999999
 20
444.70393350000006
 11
818.92892449999999
 21
444.84535249999999
  0
LINE
  8
_0-0_0
  6
CONTINUOUS
 62
    7
 10
818.92892449999999
 20
444.70393350000006
 11
818.92892449999999
 21
444.57463050000001
  0
LINE
  8
_0-0_0
  6
CONTINUOUS
 62
    7
 10
818.92892449999999
 20
443.87464950000003
 11
818.92892449999999
 21
444.57463050000001
  0
LINE
  8
_0-0_0
  6
CONTINUOUS
 62
    7
 10
818.92892449999999
 20
443.74534649999998
 11
818.92892449999999
 21
443.87464950000003
  0
LINE
  8
_0-0_0
  6
CONTINUOUS
 62
    7
 10
818.92892449999999
 20
443.60392750000005
 11
818.92892449999999
 21
443.74534649999998
  0
LINE
  8
_0-0_0
  6
CONTINUOUS
 62
    7
 10
818.92892449999999
 20
443.60392750000005
 11
818.92892449999999
 21
443.47465550000004
  0
LINE
  8
_0-0_0
  6
CONTINUOUS
 62
    7
 10
818.92892449999999
 20
442.77464350000002
 11
818.92892449999999
 21
443.47465550000004
  0
LINE
  8
_0-0_0
  6
CONTINUOUS
 62
    7
 10
818.92892449999999
 20
442.64534049999997
 11
818.92892449999999
 21
442.77464350000002
  0
LINE
  8
_0-0_0
  6
CONTINUOUS
 62
    7
 10
818.92892449999999
 20
442.50392150000005
 11
818.92892449999999
 21
442.64534049999997
  0
LINE
  8
_0-0_0
  6
CONTINUOUS
 62
    7
 10
818.92892449999999
 20
442.50392150000005
 11
818.92892449999999
 21
442.37464950000003
  0
LINE
  8
_0-0_0
  6
CONTINUOUS
 62
    7
 10
818.92892449999999
 20
441.67463650000002
 11
818.92892449999999
 21
442.37464950000003
  0
LINE
  8
_0-0_0
  6
CONTINUOUS
 62
    7
 10
818.92892449999999
 20
441.54536450000001
 11
818.92892449999999
 21
441.67463650000002
  0
LINE
  8
_0-0_0
  6
CONTINUOUS
 62
    7
 10
818.92892449999999
 20
441.40394649999996
 11
818.92892449999999
 21
441.54536450000001
  0
LINE
  8
_0-0_0
  6
CONTINUOUS
 62
    7
 10
818.92892449999999
 20
427.57463050000001
 11
818.92892449999999
 21
428.07463050000001
  0
LINE
  8
_0-0_0
  6
CONTINUOUS
 62
    7
 10
818.92892449999999
 20
456.07463050000001
 11
818.92892449999999
 21
455.48066749999998
  0
LINE
  8
_0-0_0
  6
CONTINUOUS
 62
    7
 10
818.92892449999999
 20
450.47465550000004
 11
818.92892449999999
 21
455.48066749999998
  0
LINE
  8
_0-0_0
  6
CONTINUOUS
 62
    7
 10
818.92892449999999
 20
450.34535249999999
 11
818.92892449999999
 21
450.47465550000004
  0
LINE
  8
_0-0_0
  6
CONTINUOUS
 62
    7
 10
165.92892449999999
 20
427.57463050000001
 11
165.92892449999999
 21
428.07463050000001
  0
LINE
  8
_0-0_0
  6
CONTINUOUS
 62
    7
 10
165.92892449999999
 20
427.57463050000001
 11
818.92892449999999
 21
427.57463050000001
  0
LINE
  8
_0-0_0
  6
CONTINUOUS
 62
    7
 10
165.92892449999999
 20
441.40394649999996
 11
165.92892449999999
 21
441.54536450000001
  0
LINE
  8
_0-0_0
  6
CONTINUOUS
 62
    7
 10
165.92892449999999
 20
441.40394649999996
 11
165.92892449999999
 21
441.27464350000002
  0
LINE
  8
_0-0_0
  6
CONTINUOUS
 62
    7
 10
165.92892449999999
 20
456.07463050000001
 11
165.92892449999999
 21
455.48066749999998
  0
LINE
  8
_0-0_0
  6
CONTINUOUS
 62
    7
 10
165.92892449999999
 20
450.47465550000004
 11
165.92892449999999
 21
455.48066749999998
  0
LINE
  8
_0-0_0
  6
CONTINUOUS
 62
    7
 10
165.92892449999999
 20
450.34535249999999
 11
165.92892449999999
 21
450.47465550000004
  0
LINE
  8
_0-0_0
  6
CONTINUOUS
 62
    7
 10
165.92892449999999
 20
450.20393350000006
 11
165.92892449999999
 21
450.34535249999999
  0
LINE
  8
_0-0_0
  6
CONTINUOUS
 62
    7
 10
165.92892449999999
 20
450.20393350000006
 11
165.92892449999999
 21
450.07463050000001
  0
LINE
  8
_0-0_0
  6
CONTINUOUS
 62
    7
 10
165.92892449999999
 20
449.37464950000003
 11
165.92892449999999
 21
450.07463050000001
  0
LINE
  8
_0-0_0
  6
CONTINUOUS
 62
    7
 10
165.92892449999999
 20
449.24534649999998
 11
165.92892449999999
 21
449.37464950000003
  0
LINE
  8
_0-0_0
  6
CONTINUOUS
 62
    7
 10
165.92892449999999
 20
449.10392750000005
 11
165.92892449999999
 21
449.24534649999998
  0
LINE
  8
_0-0_0
  6
CONTINUOUS
 62
    7
 10
165.92892449999999
 20
449.10392750000005
 11
165.92892449999999
 21
448.97465550000004
  0
LINE
  8
_0-0_0
  6
CONTINUOUS
 62
    7
 10
165.92892449999999
 20
448.27464350000002
 11
165.92892449999999
 21
448.97465550000004
  0
LINE
  8
_0-0_0
  6
CONTINUOUS
 62
    7
 10
165.92892449999999
 20
448.14534049999997
 11
165.92892449999999
 21
448.27464350000002
  0
LINE
  8
_0-0_0
  6
CONTINUOUS
 62
    7
 10
165.92892449999999
 20
448.00392150000005
 11
165.92892449999999
 21
448.14534049999997
  0
LINE
  8
_0-0_0
  6
CONTINUOUS
 62
    7
 10
165.92892449999999
 20
448.00392150000005
 11
165.92892449999999
 21
447.87464950000003
  0
LINE
  8
_0-0_0
  6
CONTINUOUS
 62
    7
 10
165.92892449999999
 20
447.17463650000002
 11
165.92892449999999
 21
447.87464950000003
  0
LINE
  8
_0-0_0
  6
CONTINUOUS
 62
    7
 10
165.92892449999999
 20
447.04536450000001
 11
165.92892449999999
 21
447.17463650000002
  0
LINE
  8
_0-0_0
  6
CONTINUOUS
 62
    7
 10
165.92892449999999
 20
446.90394649999996
 11
165.92892449999999
 21
447.04536450000001
  0
LINE
  8
_0-0_0
  6
CONTINUOUS
 62
    7
 10
165.92892449999999
 20
446.90394649999996
 11
165.92892449999999
 21
446.77464350000002
  0
LINE
  8
_0-0_0
  6
CONTINUOUS
 62
    7
 10
165.92892449999999
 20
446.07463050000001
 11
165.92892449999999
 21
446.77464350000002
  0
LINE
  8
_0-0_0
  6
CONTINUOUS
 62
    7
 10
165.92892449999999
 20
445.9453585
 11
165.92892449999999
 21
446.07463050000001
  0
LINE
  8
_0-0_0
  6
CONTINUOUS
 62
    7
 10
165.92892449999999
 20
445.80393949999996
 11
165.92892449999999
 21
445.9453585
  0
LINE
  8
_0-0_0
  6
CONTINUOUS
 62
    7
 10
165.92892449999999
 20
445.80393949999996
 11
165.92892449999999
 21
445.67463650000002
  0
LINE
  8
_0-0_0
  6
CONTINUOUS
 62
    7
 10
165.92892449999999
 20
444.97465550000004
 11
165.92892449999999
 21
445.67463650000002
  0
LINE
  8
_0-0_0
  6
CONTINUOUS
 62
    7
 10
165.92892449999999
 20
444.84535249999999
 11
165.92892449999999
 21
444.97465550000004
  0
LINE
  8
_0-0_0
  6
CONTINUOUS
 62
    7
 10
165.92892449999999
 20
444.70393350000006
 11
165.92892449999999
 21
444.84535249999999
  0
LINE
  8
_0-0_0
  6
CONTINUOUS
 62
    7
 10
165.92892449999999
 20
444.70393350000006
 11
165.92892449999999
 21
444.57463050000001
  0
LINE
  8
_0-0_0
  6
CONTINUOUS
 62
    7
 10
165.92892449999999
 20
443.87464950000003
 11
165.92892449999999
 21
444.57463050000001
  0
LINE
  8
_0-0_0
  6
CONTINUOUS
 62
    7
 10
165.92892449999999
 20
443.74534649999998
 11
165.92892449999999
 21
443.87464950000003
  0
LINE
  8
_0-0_0
  6
CONTINUOUS
 62
    7
 10
165.92892449999999
 20
443.60392750000005
 11
165.92892449999999
 21
443.74534649999998
  0
LINE
  8
_0-0_0
  6
CONTINUOUS
 62
    7
 10
165.92892449999999
 20
443.60392750000005
 11
165.92892449999999
 21
443.47465550000004
  0
LINE
  8
_0-0_0
  6
CONTINUOUS
 62
    7
 10
165.92892449999999
 20
442.77464350000002
 11
165.92892449999999
 21
443.47465550000004
  0
LINE
  8
_0-0_0
  6
CONTINUOUS
 62
    7
 10
165.92892449999999
 20
442.64534049999997
 11
165.92892449999999
 21
442.77464350000002
  0
LINE
  8
_0-0_0
  6
CONTINUOUS
 62
    7
 10
165.92892449999999
 20
442.50392150000005
 11
165.92892449999999
 21
442.64534049999997
  0
LINE
  8
_0-0_0
  6
CONTINUOUS
 62
    7
 10
165.92892449999999
 20
442.50392150000005
 11
165.92892449999999
 21
442.37464950000003
  0
LINE
  8
_0-0_0
  6
CONTINUOUS
 62
    7
 10
165.92892449999999
 20
441.67463650000002
 11
165.92892449999999
 21
442.37464950000003
  0
LINE
  8
_0-0_0
  6
CONTINUOUS
 62
    7
 10
165.92892449999999
 20
441.54536450000001
 11
165.92892449999999
 21
441.67463650000002
  0
LINE
  8
_0-0_0
  6
CONTINUOUS
 62
    7
 10
752.92892449999999
 20
433.57466150000005
 11
759.92892449999999
 21
433.57466150000005
  0
ARC
  8
_0-0_0
  6
CONTINUOUS
 62
    7
 10
752.92892449999999
 20
433.07466150000005
 40
0.5
 50
90.000003000000007
 51
180.00000900000001
  0
LINE
  8
_0-0_0
  6
CONTINUOUS
 62
    7
 10
752.42892449999999
 20
433.07466150000005
 11
752.42892449999999
 21
429.07463050000001
  0
ARC
  8
_0-0_0
  6
CONTINUOUS
 62
    7
 10
752.92892449999999
 20
429.07463050000001
 40
0.5
 50
180.00000900000003
 51
269.99999700000001
  0
LINE
  8
_0-0_0
  6
CONTINUOUS
 62
    7
 10
759.92892449999999
 20
428.57463050000001
 11
752.92892449999999
 21
428.57463050000001
  0
ARC
  8
_0-0_0
  6
CONTINUOUS
 62
    7
 10
759.92892449999999
 20
429.07463050000001
 40
0.5
 50
269.99999700000001
 51
0
  0
LINE
  8
_0-0_0
  6
CONTINUOUS
 62
    7
 10
760.42892449999999
 20
429.07463050000001
 11
760.42892449999999
 21
433.07466150000005
  0
ARC
  8
_0-0_0
  6
CONTINUOUS
 62
    7
 10
759.92892449999999
 20
433.07466150000005
 40
0.5
 50
0
 51
90.000003000000007
  0
ARC
  8
_0-0_0
  6
CONTINUOUS
 62
    7
 10
232.92892449999999
 20
433.07466150000005
 40
0.5
 50
90.000003000000007
 51
180.00000900000001
  0
LINE
  8
_0-0_0
  6
CONTINUOUS
 62
    7
 10
232.42892449999999
 20
433.07466150000005
 11
232.42892449999999
 21
429.07463050000001
  0
ARC
  8
_0-0_0
  6
CONTINUOUS
 62
    7
 10
232.92892449999999
 20
429.07463050000001
 40
0.5
 50
180.00000900000003
 51
269.99999700000001
  0
LINE
  8
_0-0_0
  6
CONTINUOUS
 62
    7
 10
239.92892449999999
 20
428.57463050000001
 11
232.92892449999999
 21
428.57463050000001
  0
ARC
  8
_0-0_0
  6
CONTINUOUS
 62
    7
 10
239.92892449999999
 20
429.07463050000001
 40
0.5
 50
269.99999700000001
 51
0
  0
LINE
  8
_0-0_0
  6
CONTINUOUS
 62
    7
 10
240.42892449999999
 20
429.07463050000001
 11
240.42892449999999
 21
433.07466150000005
  0
ARC
  8
_0-0_0
  6
CONTINUOUS
 62
    7
 10
239.92892449999999
 20
433.07466150000005
 40
0.5
 50
0
 51
90.000003000000007
  0
LINE
  8
_0-0_0
  6
CONTINUOUS
 62
    7
 10
232.92892449999999
 20
433.57466150000005
 11
239.92892449999999
 21
433.57466150000005
  0
LINE
  8
_0-0_0
  6
CONTINUOUS
 62
    7
 10
165.92892449999999
 20
441.67463650000002
 11
168.12011749999999
 21
441.67463650000002
  0
LINE
  8
_0-0_0
  6
CONTINUOUS
 62
    7
 10
165.92892449999999
 20
442.37464950000003
 11
167.73518350000001
 21
442.37464950000003
  0
LINE
  8
_0-0_0
  6
CONTINUOUS
 62
    7
 10
165.92892449999999
 20
442.77464350000002
 11
167.55398550000001
 21
442.77464350000002
  0
LINE
  8
_0-0_0
  6
CONTINUOUS
 62
    7
 10
165.92892449999999
 20
443.47465550000004
 11
167.29742450000001
 21
443.47465550000004
  0
LINE
  8
_0-0_0
  6
CONTINUOUS
 62
    7
 10
165.92892449999999
 20
443.87464950000003
 11
167.18296850000002
 21
443.87464950000003
  0
LINE
  8
_0-0_0
  6
CONTINUOUS
 62
    7
 10
165.92892449999999
 20
444.57463050000001
 11
167.03526350000001
 21
444.57463050000001
  0
LINE
  8
_0-0_0
  6
CONTINUOUS
 62
    7
 10
165.92892449999999
 20
444.97465550000004
 11
166.97972150000001
 21
444.97465550000004
  0
LINE
  8
_0-0_0
  6
CONTINUOUS
 62
    7
 10
165.92892449999999
 20
445.67463650000002
 11
166.93142750000001
 21
445.67463650000002
  0
LINE
  8
_0-0_0
  6
CONTINUOUS
 62
    7
 10
166.92892449999999
 20
445.87464950000003
 11
166.92924550000001
 21
445.9453585
  0
LINE
  8
_0-0_0
  6
CONTINUOUS
 62
    7
 10
182.92893950000001
 20
445.87464950000003
 11
182.9286195
 21
445.9453585
  0
LINE
  8
_0-0_0
  6
CONTINUOUS
 62
    7
 10
182.92643750000002
 20
446.07463050000001
 11
182.9286195
 21
445.9453585
  0
ARC
  8
_0-0_0
  6
CONTINUOUS
 62
    7
 10
174.92892449999999
 20
445.87464950000003
 40
8
 50
1.432544
 51
6.4594489999999993
  0
LINE
  8
_0-0_0
  6
CONTINUOUS
 62
    7
 10
182.86244250000001
 20
446.90394649999996
 11
182.87814349999999
 21
446.77464350000002
  0
LINE
  8
_0-0_0
  6
CONTINUOUS
 62
    7
 10
182.86244250000001
 20
446.90394649999996
 11
182.8428045
 21
447.04536450000001
  0
LINE
  8
_0-0_0
  6
CONTINUOUS
 62
    7
 10
182.82260150000002
 20
447.17463650000002
 11
182.8428045
 21
447.04536450000001
  0
ARC
  8
_0-0_0
  6
CONTINUOUS
 62
    7
 10
174.92892449999999
 20
445.87464950000003
 40
8
 50
9.3520350000000008
 51
14.477510999999998
  0
LINE
  8
_0-0_0
  6
CONTINUOUS
 62
    7
 10
182.64035050000001
 20
448.00392150000005
 11
182.67489650000002
 21
447.87464950000003
  0
LINE
  8
_0-0_0
  6
CONTINUOUS
 62
    7
 10
182.64035050000001
 20
448.00392150000005
 11
182.59991450000001
 21
448.14534049999997
  0
LINE
  8
_0-0_0
  6
CONTINUOUS
 62
    7
 10
182.56045550000002
 20
448.27464350000002
 11
182.59991450000001
 21
448.14534049999997
  0
ARC
  8
_0-0_0
  6
CONTINUOUS
 62
    7
 10
174.92892449999999
 20
445.87464950000003
 40
8
 50
17.457602999999999
 51
22.799030999999999
  0
LINE
  8
_0-0_0
  6
CONTINUOUS
 62
    7
 10
182.2481995
 20
449.10392750000005
 11
182.30389450000001
 21
448.97465550000004
  0
LINE
  8
_0-0_0
  6
CONTINUOUS
 62
    7
 10
182.2481995
 20
449.10392750000005
 11
182.1841585
 21
449.24534649999998
  0
LINE
  8
_0-0_0
  6
CONTINUOUS
 62
    7
 10
182.1226805
 20
449.37464950000003
 11
182.1841585
 21
449.24534649999998
  0
ARC
  8
_0-0_0
  6
CONTINUOUS
 62
    7
 10
174.92892449999999
 20
445.87464950000003
 40
8
 50
25.944476999999999
 51
31.668240000000001
  0
LINE
  8
_0-0_0
  6
CONTINUOUS
 62
    7
 10
181.65628050000001
 20
450.20393350000006
 11
181.73774750000001
 21
450.07463050000001
  0
LINE
  8
_0-0_0
  6
CONTINUOUS
 62
    7
 10
181.65628050000001
 20
450.20393350000006
 11
181.5631405
 21
450.34535249999999
  0
LINE
  8
_0-0_0
  6
CONTINUOUS
 62
    7
 10
181.4741515
 20
450.47465550000004
 11
181.5631405
 21
450.34535249999999
  0
ARC
  8
_0-0_0
  6
CONTINUOUS
 62
    7
 10
174.92892449999999
 20
445.87464950000003
 40
8
 50
35.099632
 51
144.900373
  0
LINE
  8
_0-0_0
  6
CONTINUOUS
 62
    7
 10
168.38369750000001
 20
450.47465550000004
 11
168.2947235
 21
450.34535249999999
  0
LINE
  8
_0-0_0
  6
CONTINUOUS
 62
    7
 10
168.2015835
 20
450.20393350000006
 11
168.2947235
 21
450.34535249999999
  0
LINE
  8
_0-0_0
  6
CONTINUOUS
 62
    7
 10
168.2015835
 20
450.20393350000006
 11
168.12011749999999
 21
450.07463050000001
  0
ARC
  8
_0-0_0
  6
CONTINUOUS
 62
    7
 10
174.92892449999999
 20
445.87464950000003
 40
8
 50
148.33176499999999
 51
154.05551800000001
  0
LINE
  8
_0-0_0
  6
CONTINUOUS
 62
    7
 10
167.73518350000001
 20
449.37464950000003
 11
167.67370650000001
 21
449.24534649999998
  0
LINE
  8
_0-0_0
  6
CONTINUOUS
 62
    7
 10
167.60966450000001
 20
449.10392750000005
 11
167.67370650000001
 21
449.24534649999998
  0
LINE
  8
_0-0_0
  6
CONTINUOUS
 62
    7
 10
167.60966450000001
 20
449.10392750000005
 11
167.55398550000001
 21
448.97465550000004
  0
ARC
  8
_0-0_0
  6
CONTINUOUS
 62
    7
 10
174.92892449999999
 20
445.87464950000003
 40
8
 50
157.20097000000001
 51
162.54239699999999
  0
LINE
  8
_0-0_0
  6
CONTINUOUS
 62
    7
 10
167.29742450000001
 20
448.27464350000002
 11
167.25796550000001
 21
448.14534049999997
  0
LINE
  8
_0-0_0
  6
CONTINUOUS
 62
    7
 10
167.2174985
 20
448.00392150000005
 11
167.25796550000001
 21
448.14534049999997
  0
LINE
  8
_0-0_0
  6
CONTINUOUS
 62
    7
 10
167.2174985
 20
448.00392150000005
 11
167.18296850000002
 21
447.87464950000003
  0
ARC
  8
_0-0_0
  6
CONTINUOUS
 62
    7
 10
174.92892449999999
 20
445.87464950000003
 40
8
 50
165.52249
 51
170.64796000000001
  0
LINE
  8
_0-0_0
  6
CONTINUOUS
 62
    7
 10
167.03526350000001
 20
447.17463650000002
 11
167.01504550000001
 21
447.04536450000001
  0
LINE
  8
_0-0_0
  6
CONTINUOUS
 62
    7
 10
166.99542250000002
 20
446.90394649999996
 11
167.01504550000001
 21
447.04536450000001
  0
LINE
  8
_0-0_0
  6
CONTINUOUS
 62
    7
 10
166.99542250000002
 20
446.90394649999996
 11
166.97972150000001
 21
446.77464350000002
  0
ARC
  8
_0-0_0
  6
CONTINUOUS
 62
    7
 10
174.92892449999999
 20
445.87464950000003
 40
8
 50
173.54054500000001
 51
178.567455
  0
LINE
  8
_0-0_0
  6
CONTINUOUS
 62
    7
 10
166.93142750000001
 20
446.07463050000001
 11
166.92924550000001
 21
445.9453585
  0
CIRCLE
  8
_0-0_0
  6
CONTINUOUS
 62
    7
 10
174.92892449999999
 20
445.87464950000003
 40
7.5
  0
LINE
  8
_0-0_0
  6
CONTINUOUS
 62
    7
 10
801.92892449999999
 20
445.87464950000003
 11
801.92922950000002
 21
445.9453585
  0
LINE
  8
_0-0_0
  6
CONTINUOUS
 62
    7
 10
182.92643750000002
 20
445.67463650000002
 11
801.93142750000004
 21
445.67463650000002
  0
LINE
  8
_0-0_0
  6
CONTINUOUS
 62
    7
 10
182.87814349999999
 20
444.97465550000004
 11
801.97970550000002
 21
444.97465550000004
  0
LINE
  8
_0-0_0
  6
CONTINUOUS
 62
    7
 10
182.82260150000002
 20
444.57463050000001
 11
802.03524749999997
 21
444.57463050000001
  0
LINE
  8
_0-0_0
  6
CONTINUOUS
 62
    7
 10
182.67489650000002
 20
443.87464950000003
 11
802.18295250000006
 21
443.87464950000003
  0
LINE
  8
_0-0_0
  6
CONTINUOUS
 62
    7
 10
182.56045550000002
 20
443.47465550000004
 11
802.2973935
 21
443.47465550000004
  0
LINE
  8
_0-0_0
  6
CONTINUOUS
 62
    7
 10
182.30389450000001
 20
442.77464350000002
 11
802.55398549999995
 21
442.77464350000002
  0
LINE
  8
_0-0_0
  6
CONTINUOUS
 62
    7
 10
182.1226805
 20
442.37464950000003
 11
802.73519950000002
 21
442.37464950000003
  0
LINE
  8
_0-0_0
  6
CONTINUOUS
 62
    7
 10
181.73774750000001
 20
441.67463650000002
 11
803.12008649999996
 21
441.67463650000002
  0
LINE
  8
_0-0_0
  6
CONTINUOUS
 62
    7
 10
817.92892449999999
 20
445.87464950000003
 11
817.92861949999997
 21
445.9453585
  0
LINE
  8
_0-0_0
  6
CONTINUOUS
 62
    7
 10
817.92642250000006
 20
445.67463650000002
 11
818.92892449999999
 21
445.67463650000002
  0
LINE
  8
_0-0_0
  6
CONTINUOUS
 62
    7
 10
817.87814349999996
 20
444.97465550000004
 11
818.92892449999999
 21
444.97465550000004
  0
LINE
  8
_0-0_0
  6
CONTINUOUS
 62
    7
 10
817.82260150000002
 20
444.57463050000001
 11
818.92892449999999
 21
444.57463050000001
  0
LINE
  8
_0-0_0
  6
CONTINUOUS
 62
    7
 10
817.67489650000005
 20
443.87464950000003
 11
818.92892449999999
 21
443.87464950000003
  0
LINE
  8
_0-0_0
  6
CONTINUOUS
 62
    7
 10
817.56045549999999
 20
443.47465550000004
 11
818.92892449999999
 21
443.47465550000004
  0
LINE
  8
_0-0_0
  6
CONTINUOUS
 62
    7
 10
817.30386350000003
 20
442.77464350000002
 11
818.92892449999999
 21
442.77464350000002
  0
LINE
  8
_0-0_0
  6
CONTINUOUS
 62
    7
 10
817.12265049999996
 20
442.37464950000003
 11
818.92892449999999
 21
442.37464950000003
  0
LINE
  8
_0-0_0
  6
CONTINUOUS
 62
    7
 10
816.73776250000003
 20
441.67463650000002
 11
818.92892449999999
 21
441.67463650000002
  0
LINE
  8
_0-0_0
  6
CONTINUOUS
 62
    7
 10
816.47415150000006
 20
450.47465550000004
 11
816.56314050000003
 21
450.34535249999999
  0
ARC
  8
_0-0_0
  6
CONTINUOUS
 62
    7
 10
809.92892449999999
 20
445.87464950000003
 40
8
 50
35.099632
 51
144.900373
  0
LINE
  8
_0-0_0
  6
CONTINUOUS
 62
    7
 10
803.38369750000004
 20
450.47465550000004
 11
803.29470849999996
 21
450.34535249999999
  0
LINE
  8
_0-0_0
  6
CONTINUOUS
 62
    7
 10
803.20156850000001
 20
450.20393350000006
 11
803.29470849999996
 21
450.34535249999999
  0
LINE
  8
_0-0_0
  6
CONTINUOUS
 62
    7
 10
803.20156850000001
 20
450.20393350000006
 11
803.12008649999996
 21
450.07463050000001
  0
ARC
  8
_0-0_0
  6
CONTINUOUS
 62
    7
 10
809.92892449999999
 20
445.87464950000003
 40
8
 50
148.33176499999999
 51
154.05551800000001
  0
LINE
  8
_0-0_0
  6
CONTINUOUS
 62
    7
 10
802.73519950000002
 20
449.37464950000003
 11
802.67367550000006
 21
449.24534649999998
  0
LINE
  8
_0-0_0
  6
CONTINUOUS
 62
    7
 10
802.60964950000005
 20
449.10392750000005
 11
802.67367550000006
 21
449.24534649999998
  0
LINE
  8
_0-0_0
  6
CONTINUOUS
 62
    7
 10
802.60964950000005
 20
449.10392750000005
 11
802.55398549999995
 21
448.97465550000004
  0
ARC
  8
_0-0_0
  6
CONTINUOUS
 62
    7
 10
809.92892449999999
 20
445.87464950000003
 40
8
 50
157.20097000000001
 51
162.54239699999999
  0
LINE
  8
_0-0_0
  6
CONTINUOUS
 62
    7
 10
802.2973935
 20
448.27464350000002
 11
802.25796549999995
 21
448.14534049999997
  0
LINE
  8
_0-0_0
  6
CONTINUOUS
 62
    7
 10
802.21749850000003
 20
448.00392150000005
 11
802.25796549999995
 21
448.14534049999997
  0
LINE
  8
_0-0_0
  6
CONTINUOUS
 62
    7
 10
802.21749850000003
 20
448.00392150000005
 11
802.18295250000006
 21
447.87464950000003
  0
ARC
  8
_0-0_0
  6
CONTINUOUS
 62
    7
 10
809.92892449999999
 20
445.87464950000003
 40
8
 50
165.52249
 51
170.64796000000001
  0
LINE
  8
_0-0_0
  6
CONTINUOUS
 62
    7
 10
802.03524749999997
 20
447.17463650000002
 11
802.01504550000004
 21
447.04536450000001
  0
LINE
  8
_0-0_0
  6
CONTINUOUS
 62
    7
 10
801.99539149999998
 20
446.90394649999996
 11
802.01504550000004
 21
447.04536450000001
  0
LINE
  8
_0-0_0
  6
CONTINUOUS
 62
    7
 10
801.99539149999998
 20
446.90394649999996
 11
801.97970550000002
 21
446.77464350000002
  0
ARC
  8
_0-0_0
  6
CONTINUOUS
 62
    7
 10
809.92892449999999
 20
445.87464950000003
 40
8
 50
173.54054500000001
 51
178.567455
  0
LINE
  8
_0-0_0
  6
CONTINUOUS
 62
    7
 10
801.93142750000004
 20
446.07463050000001
 11
801.92922950000002
 21
445.9453585
  0
LINE
  8
_0-0_0
  6
CONTINUOUS
 62
    7
 10
817.92642250000006
 20
446.07463050000001
 11
817.92861949999997
 21
445.9453585
  0
ARC
  8
_0-0_0
  6
CONTINUOUS
 62
    7
 10
809.92892449999999
 20
445.87464950000003
 40
8
 50
1.432544
 51
6.4594489999999993
  0
LINE
  8
_0-0_0
  6
CONTINUOUS
 62
    7
 10
817.8624575
 20
446.90394649999996
 11
817.87814349999996
 21
446.77464350000002
  0
LINE
  8
_0-0_0
  6
CONTINUOUS
 62
    7
 10
817.8624575
 20
446.90394649999996
 11
817.84280450000006
 21
447.04536450000001
  0
LINE
  8
_0-0_0
  6
CONTINUOUS
 62
    7
 10
817.82260150000002
 20
447.17463650000002
 11
817.84280450000006
 21
447.04536450000001
  0
ARC
  8
_0-0_0
  6
CONTINUOUS
 62
    7
 10
809.92892449999999
 20
445.87464950000003
 40
8
 50
9.3520350000000008
 51
14.477510999999998
  0
LINE
  8
_0-0_0
  6
CONTINUOUS
 62
    7
 10
817.64035049999995
 20
448.00392150000005
 11
817.67489650000005
 21
447.87464950000003
  0
LINE
  8
_0-0_0
  6
CONTINUOUS
 62
    7
 10
817.64035049999995
 20
448.00392150000005
 11
817.59988450000003
 21
448.14534049999997
  0
LINE
  8
_0-0_0
  6
CONTINUOUS
 62
    7
 10
817.56045549999999
 20
448.27464350000002
 11
817.59988450000003
 21
448.14534049999997
  0
ARC
  8
_0-0_0
  6
CONTINUOUS
 62
    7
 10
809.92892449999999
 20
445.87464950000003
 40
8
 50
17.457602999999999
 51
22.799030999999999
  0
LINE
  8
_0-0_0
  6
CONTINUOUS
 62
    7
 10
817.24819950000006
 20
449.10392750000005
 11
817.30386350000003
 21
448.97465550000004
  0
LINE
  8
_0-0_0
  6
CONTINUOUS
 62
    7
 10
817.24819950000006
 20
449.10392750000005
 11
817.18417350000004
 21
449.24534649999998
  0
LINE
  8
_0-0_0
  6
CONTINUOUS
 62
    7
 10
817.12265049999996
 20
449.37464950000003
 11
817.18417350000004
 21
449.24534649999998
  0
ARC
  8
_0-0_0
  6
CONTINUOUS
 62
    7
 10
809.92892449999999
 20
445.87464950000003
 40
8
 50
25.944476999999999
 51
31.668240000000001
  0
LINE
  8
_0-0_0
  6
CONTINUOUS
 62
    7
 10
816.65628049999998
 20
450.20393350000006
 11
816.73776250000003
 21
450.07463050000001
  0
LINE
  8
_0-0_0
  6
CONTINUOUS
 62
    7
 10
816.65628049999998
 20
450.20393350000006
 11
816.56314050000003
 21
450.34535249999999
  0
CIRCLE
  8
_0-0_0
  6
CONTINUOUS
 62
    7
 10
809.92892449999999
 20
445.87464950000003
 40
7.5
  0
LINE
  8
_0-0_0
  6
CONTINUOUS
 62
    7
 10
816.73776250000003
 20
450.07463050000001
 11
818.92892449999999
 21
450.07463050000001
  0
LINE
  8
_0-0_0
  6
CONTINUOUS
 62
    7
 10
817.12265049999996
 20
449.37464950000003
 11
818.92892449999999
 21
449.37464950000003
  0
LINE
  8
_0-0_0
  6
CONTINUOUS
 62
    7
 10
817.30386350000003
 20
448.97465550000004
 11
818.92892449999999
 21
448.97465550000004
  0
LINE
  8
_0-0_0
  6
CONTINUOUS
 62
    7
 10
817.56045549999999
 20
448.27464350000002
 11
818.92892449999999
 21
448.27464350000002
  0
LINE
  8
_0-0_0
  6
CONTINUOUS
 62
    7
 10
817.67489650000005
 20
447.87464950000003
 11
818.92892449999999
 21
447.87464950000003
  0
LINE
  8
_0-0_0
  6
CONTINUOUS
 62
    7
 10
817.82260150000002
 20
447.17463650000002
 11
818.92892449999999
 21
447.17463650000002
  0
LINE
  8
_0-0_0
  6
CONTINUOUS
 62
    7
 10
817.87814349999996
 20
446.77464350000002
 11
818.92892449999999
 21
446.77464350000002
  0
LINE
  8
_0-0_0
  6
CONTINUOUS
 62
    7
 10
817.92642250000006
 20
446.07463050000001
 11
818.92892449999999
 21
446.07463050000001
  0
LINE
  8
_0-0_0
  6
CONTINUOUS
 62
    7
 10
819.42892449999999
 20
429.37464950000003
 11
818.92892449999999
 21
429.37464950000003
  0
LINE
  8
_0-0_0
  6
CONTINUOUS
 62
    7
 10
819.42892449999999
 20
431.57463050000001
 11
818.92892449999999
 21
431.57463050000001
  0
LINE
  8
_0-0_0
  6
CONTINUOUS
 62
    7
 10
819.42892449999999
 20
433.87464950000003
 11
818.92892449999999
 21
433.87464950000003
  0
LINE
  8
_0-0_0
  6
CONTINUOUS
 62
    7
 10
818.92892449999999
 20
436.17463650000002
 11
819.42892449999999
 21
436.17463650000002
  0
LINE
  8
_0-0_0
  6
CONTINUOUS
 62
    7
 10
819.42892449999999
 20
456.37464950000003
 11
819.42892449999999
 21
456.27464350000002
  0
LINE
  8
_0-0_0
  6
CONTINUOUS
 62
    7
 10
165.42892449999999
 20
456.37464950000003
 11
165.42892449999999
 21
456.27464350000002
  0
LINE
  8
_0-0_0
  6
CONTINUOUS
 62
    7
 10
165.42892449999999
 20
436.17463650000002
 11
165.92892449999999
 21
436.17463650000002
  0
LINE
  8
_0-0_0
  6
CONTINUOUS
 62
    7
 10
165.92892449999999
 20
456.07463050000001
 11
818.92892449999999
 21
456.07463050000001
  0
LINE
  8
_0-0_0
  6
CONTINUOUS
 62
    7
 10
165.92892449999999
 20
455.48066749999998
 11
818.92892449999999
 21
455.48066749999998
  0
LINE
  8
_0-0_0
  6
CONTINUOUS
 62
    7
 10
181.4741515
 20
450.47465550000004
 11
803.38369750000004
 21
450.47465550000004
  0
LINE
  8
_0-0_0
  6
CONTINUOUS
 62
    7
 10
816.47415150000006
 20
450.47465550000004
 11
818.92892449999999
 21
450.47465550000004
  0
LINE
  8
_0-0_0
  6
CONTINUOUS
 62
    7
 10
165.92892449999999
 20
450.47465550000004
 11
168.38369750000001
 21
450.47465550000004
  0
LINE
  8
_0-0_0
  6
CONTINUOUS
 62
    7
 10
165.42892449999999
 20
429.37464950000003
 11
165.92892449999999
 21
429.37464950000003
  0
LINE
  8
_0-0_0
  6
CONTINUOUS
 62
    7
 10
165.42892449999999
 20
431.57463050000001
 11
165.92892449999999
 21
431.57463050000001
  0
LINE
  8
_0-0_0
  6
CONTINUOUS
 62
    7
 10
165.42892449999999
 20
433.87464950000003
 11
165.92892449999999
 21
433.87464950000003
  0
LINE
  8
_0-0_0
  6
CONTINUOUS
 62
    7
 10
165.92892449999999
 20
450.07463050000001
 11
168.12011749999999
 21
450.07463050000001
  0
LINE
  8
_0-0_0
  6
CONTINUOUS
 62
    7
 10
165.92892449999999
 20
449.37464950000003
 11
167.73518350000001
 21
449.37464950000003
  0
LINE
  8
_0-0_0
  6
CONTINUOUS
 62
    7
 10
165.92892449999999
 20
448.97465550000004
 11
167.55398550000001
 21
448.97465550000004
  0
LINE
  8
_0-0_0
  6
CONTINUOUS
 62
    7
 10
165.92892449999999
 20
448.27464350000002
 11
167.29742450000001
 21
448.27464350000002
  0
LINE
  8
_0-0_0
  6
CONTINUOUS
 62
    7
 10
165.92892449999999
 20
447.87464950000003
 11
167.18296850000002
 21
447.87464950000003
  0
LINE
  8
_0-0_0
  6
CONTINUOUS
 62
    7
 10
165.92892449999999
 20
447.17463650000002
 11
167.03526350000001
 21
447.17463650000002
  0
LINE
  8
_0-0_0
  6
CONTINUOUS
 62
    7
 10
165.92892449999999
 20
446.77464350000002
 11
166.97972150000001
 21
446.77464350000002
  0
LINE
  8
_0-0_0
  6
CONTINUOUS
 62
    7
 10
165.92892449999999
 20
446.07463050000001
 11
166.93142750000001
 21
446.07463050000001
  0
LINE
  8
_0-0_0
  6
CONTINUOUS
 62
    7
 10
181.73774750000001
 20
450.07463050000001
 11
803.12008649999996
 21
450.07463050000001
  0
LINE
  8
_0-0_0
  6
CONTINUOUS
 62
    7
 10
182.1226805
 20
449.37464950000003
 11
802.73519950000002
 21
449.37464950000003
  0
LINE
  8
_0-0_0
  6
CONTINUOUS
 62
    7
 10
182.30389450000001
 20
448.97465550000004
 11
802.55398549999995
 21
448.97465550000004
  0
LINE
  8
_0-0_0
  6
CONTINUOUS
 62
    7
 10
182.56045550000002
 20
448.27464350000002
 11
802.2973935
 21
448.27464350000002
  0
LINE
  8
_0-0_0
  6
CONTINUOUS
 62
    7
 10
182.67489650000002
 20
447.87464950000003
 11
802.18295250000006
 21
447.87464950000003
  0
LINE
  8
_0-0_0
  6
CONTINUOUS
 62
    7
 10
182.82260150000002
 20
447.17463650000002
 11
802.03524749999997
 21
447.17463650000002
  0
LINE
  8
_0-0_0
  6
CONTINUOUS
 62
    7
 10
182.87814349999999
 20
446.77464350000002
 11
801.97970550000002
 21
446.77464350000002
  0
LINE
  8
_0-0_0
  6
CONTINUOUS
 62
    7
 10
182.92643750000002
 20
446.07463050000001
 11
801.93142750000004
 21
446.07463050000001
  0
LINE
  8
_0-0_0
  6
CONTINUOUS
 62
    7
 10
819.42892449999999
 20
427.87464950000003
 11
818.92892449999999
 21
427.87464950000003
  0
LINE
  8
_0-0_0
  6
CONTINUOUS
 62
    7
 10
819.42892449999999
 20
455.47465550000004
 11
819.42892449999999
 21
456.27464350000002
  0
LINE
  8
_0-0_0
  6
CONTINUOUS
 62
    7
 10
819.42892449999999
 20
427.67463650000002
 11
819.42892449999999
 21
455.47465550000004
  0
LINE
  8
_0-0_0
  6
CONTINUOUS
 62
    7
 10
165.42892449999999
 20
455.47465550000004
 11
165.42892449999999
 21
456.27464350000002
  0
LINE
  8
_0-0_0
  6
CONTINUOUS
 62
    7
 10
165.42892449999999
 20
427.67463650000002
 11
165.42892449999999
 21
455.47465550000004
  0
ARC
  8
_0-0_0
  6
CONTINUOUS
 62
    7
 10
174.92892449999999
 20
446.57463050000001
 40
12.800000000000001
 50
73.932597000000001
 51
106.06740099999999
  0
ARC
  8
_0-0_0
  6
CONTINUOUS
 62
    7
 10
809.92892449999999
 20
446.57463050000001
 40
12.800000000000001
 50
73.932597000000001
 51
106.06740099999999
  0
LINE
  8
_0-0_0
  6
CONTINUOUS
 62
    7
 10
819.42892449999999
 20
456.37464950000003
 11
819.42892449999999
 21
458.87464950000003
  0
LINE
  8
_0-0_0
  6
CONTINUOUS
 62
    7
 10
165.42892449999999
 20
458.87464950000003
 11
819.42892449999999
 21
458.87464950000003
  0
LINE
  8
_0-0_0
  6
CONTINUOUS
 62
    7
 10
165.42892449999999
 20
456.37464950000003
 11
165.42892449999999
 21
458.87464950000003
  0
LINE
  8
_0-0_0
  6
CONTINUOUS
 62
    7
 10
165.42892449999999
 20
427.87464950000003
 11
165.92892449999999
 21
427.87464950000003
  0
ARC
  8
_0-0_0
  6
CONTINUOUS
 62
    7
 10
757.72891249999998
 20
432.77464350000002
 40
0.2
 50
339.62356199999999
 51
90.000002999999978
  0
LINE
  8
_0-0_0
  6
CONTINUOUS
 62
    7
 10
757.91641249999998
 20
432.70500149999998
 11
756.61642449999999
 21
429.20500149999998
  0
ARC
  8
_0-0_0
  6
CONTINUOUS
 62
    7
 10
756.42892449999999
 20
429.27464350000002
 40
0.2
 50
200.37643
 51
339.62356199999999
  0
LINE
  8
_0-0_0
  6
CONTINUOUS
 62
    7
 10
754.94143650000001
 20
432.70500149999998
 11
756.24142449999999
 21
429.20500149999998
  0
ARC
  8
_0-0_0
  6
CONTINUOUS
 62
    7
 10
755.12893650000001
 20
432.77464350000002
 40
0.2
 50
90.000003000000007
 51
200.37643
  0
LINE
  8
_0-0_0
  6
CONTINUOUS
 62
    7
 10
755.12893650000001
 20
432.97465550000004
 11
757.72891249999998
 21
432.97465550000004
  0
ARC
  8
_0-0_0
  6
CONTINUOUS
 62
    7
 10
237.7289275
 20
432.77464350000002
 40
0.2
 50
339.62356199999999
 51
90.000002999999978
  0
LINE
  8
_0-0_0
  6
CONTINUOUS
 62
    7
 10
237.91641250000001
 20
432.70500149999998
 11
236.6164095
 21
429.20500149999998
  0
ARC
  8
_0-0_0
  6
CONTINUOUS
 62
    7
 10
236.42892449999999
 20
429.27464350000002
 40
0.2
 50
200.37643
 51
339.62356199999999
  0
LINE
  8
_0-0_0
  6
CONTINUOUS
 62
    7
 10
234.94143650000001
 20
432.70500149999998
 11
236.24143950000001
 21
429.20500149999998
  0
ARC
  8
_0-0_0
  6
CONTINUOUS
 62
    7
 10
235.12892150000002
 20
432.77464350000002
 40
0.2
 50
90.000003000000007
 51
200.37643
  0
LINE
  8
_0-0_0
  6
CONTINUOUS
 62
    7
 10
235.12892150000002
 20
432.97465550000004
 11
237.7289275
 21
432.97465550000004
  0
CIRCLE
  8
_0-0_0
  6
CONTINUOUS
 62
    7
 10
174.92892449999999
 20
445.87464950000003
 40
5
  0
CIRCLE
  8
_0-0_0
  6
CONTINUOUS
 62
    7
 10
809.92892449999999
 20
445.87464950000003
 40
5
  0
LINE
  8
_0-0_0
  6
CONTINUOUS
 62
    7
 10
820.42892449999999
 20
455.47465550000004
 11
819.42892449999999
 21
455.47465550000004
  0
LINE
  8
_0-0_0
  6
CONTINUOUS
 62
    7
 10
820.42892449999999
 20
456.51161249999996
 11
819.42892449999999
 21
456.51161249999996
  0
LINE
  8
_0-0_0
  6
CONTINUOUS
 62
    7
 10
820.42892449999999
 20
427.67463650000002
 11
819.42892449999999
 21
427.67463650000002
  0
LINE
  8
_0-0_0
  6
CONTINUOUS
 62
    7
 10
164.42892449999999
 20
455.47465550000004
 11
165.42892449999999
 21
455.47465550000004
  0
LINE
  8
_0-0_0
  6
CONTINUOUS
 62
    7
 10
164.42892449999999
 20
456.47465550000004
 11
165.42892449999999
 21
456.47465550000004
  0
LINE
  8
_0-0_0
  6
CONTINUOUS
 62
    7
 10
164.42892449999999
 20
427.67463650000002
 11
165.42892449999999
 21
427.67463650000002
  0
LINE
  8
_0-0_0
  6
CONTINUOUS
 62
    7
 10
820.42892449999999
 20
458.67463650000002
 11
819.42892449999999
 21
458.67463650000002
  0
LINE
  8
_0-0_0
  6
CONTINUOUS
 62
    7
 10
164.42892449999999
 20
458.67463650000002
 11
165.42892449999999
 21
458.67463650000002
  0
LINE
  8
_0-0_0
  6
CONTINUOUS
 62
    7
 10
821.42892449999999
 20
455.06044050000003
 11
821.42794849999996
 21
455.07893350000006
  0
LINE
  8
_0-0_0
  6
CONTINUOUS
 62
    7
 10
821.42794849999996
 20
455.07893350000006
 11
821.4249575
 21
455.09736650000002
  0
LINE
  8
_0-0_0
  6
CONTINUOUS
 62
    7
 10
821.4249575
 20
455.09736650000002
 11
821.41970849999996
 21
455.11650050000003
  0
LINE
  8
_0-0_0
  6
CONTINUOUS
 62
    7
 10
821.41970849999996
 20
455.11650050000003
 11
821.41232349999996
 21
455.1355135
  0
LINE
  8
_0-0_0
  6
CONTINUOUS
 62
    7
 10
821.41232349999996
 20
455.1355135
 11
821.39175450000005
 21
455.1722565
  0
LINE
  8
_0-0_0
  6
CONTINUOUS
 62
    7
 10
821.39175450000005
 20
455.1722565
 11
821.36337249999997
 21
455.20793149999997
  0
LINE
  8
_0-0_0
  6
CONTINUOUS
 62
    7
 10
821.36337249999997
 20
455.20793149999997
 11
821.32748449999997
 21
455.24220249999996
  0
LINE
  8
_0-0_0
  6
CONTINUOUS
 62
    7
 10
821.32748449999997
 20
455.24220249999996
 11
821.2788395
 21
455.27867149999997
  0
LINE
  8
_0-0_0
  6
CONTINUOUS
 62
    7
 10
821.2788395
 20
455.27867149999997
 11
821.22207649999996
 21
455.31269850000001
  0
LINE
  8
_0-0_0
  6
CONTINUOUS
 62
    7
 10
821.22207649999996
 20
455.31269850000001
 11
821.15792850000003
 21
455.34394850000001
  0
LINE
  8
_0-0_0
  6
CONTINUOUS
 62
    7
 10
821.15792850000003
 20
455.34394850000001
 11
821.08731050000006
 21
455.37217750000002
  0
LINE
  8
_0-0_0
  6
CONTINUOUS
 62
    7
 10
821.08731050000006
 20
455.37217750000002
 11
821.03921549999995
 21
455.38853449999999
  0
LINE
  8
_0-0_0
  6
CONTINUOUS
 62
    7
 10
821.03921549999995
 20
455.38853449999999
 11
820.98904449999998
 21
455.40354950000005
  0
LINE
  8
_0-0_0
  6
CONTINUOUS
 62
    7
 10
820.98904449999998
 20
455.40354950000005
 11
820.9323425
 21
455.41831950000005
  0
LINE
  8
_0-0_0
  6
CONTINUOUS
 62
    7
 10
820.9323425
 20
455.41831950000005
 11
820.87374850000003
 21
455.43141149999997
  0
LINE
  8
_0-0_0
  6
CONTINUOUS
 62
    7
 10
820.87374850000003
 20
455.43141149999997
 11
820.75698850000003
 21
455.45173650000004
  0
LINE
  8
_0-0_0
  6
CONTINUOUS
 62
    7
 10
820.75698850000003
 20
455.45173650000004
 11
820.64956649999999
 21
455.46443150000005
  0
LINE
  8
_0-0_0
  6
CONTINUOUS
 62
    7
 10
820.64956649999999
 20
455.46443150000005
 11
820.53982550000001
 21
455.47209150000003
  0
LINE
  8
_0-0_0
  6
CONTINUOUS
 62
    7
 10
820.53982550000001
 20
455.47209150000003
 11
820.42892449999999
 21
455.47465550000004
  0
LINE
  8
_0-0_0
  6
CONTINUOUS
 62
    7
 10
821.42892449999999
 20
455.06044050000003
 11
821.42892449999999
 21
456.06050149999999
  0
LINE
  8
_0-0_0
  6
CONTINUOUS
 62
    7
 10
821.42892449999999
 20
456.06050149999999
 11
821.4259945
 21
456.09205650000001
  0
LINE
  8
_0-0_0
  6
CONTINUOUS
 62
    7
 10
821.4259945
 20
456.09205650000001
 11
821.41726649999998
 21
456.12413049999998
  0
LINE
  8
_0-0_0
  6
CONTINUOUS
 62
    7
 10
821.41726649999998
 20
456.12413049999998
 11
821.40274050000005
 21
456.15641749999998
  0
LINE
  8
_0-0_0
  6
CONTINUOUS
 62
    7
 10
821.40274050000005
 20
456.15641749999998
 11
821.38253750000001
 21
456.18858350000005
  0
LINE
  8
_0-0_0
  6
CONTINUOUS
 62
    7
 10
821.38253750000001
 20
456.18858350000005
 11
821.36593649999998
 21
456.20979350000005
  0
LINE
  8
_0-0_0
  6
CONTINUOUS
 62
    7
 10
821.36593649999998
 20
456.20979350000005
 11
821.34695450000004
 21
456.23075849999998
  0
LINE
  8
_0-0_0
  6
CONTINUOUS
 62
    7
 10
821.34695450000004
 20
456.23075849999998
 11
821.30221549999999
 21
456.27153050000004
  0
LINE
  8
_0-0_0
  6
CONTINUOUS
 62
    7
 10
821.30221549999999
 20
456.27153050000004
 11
821.24899249999999
 21
456.31028749999996
  0
LINE
  8
_0-0_0
  6
CONTINUOUS
 62
    7
 10
821.24899249999999
 20
456.31028749999996
 11
821.19906649999996
 21
456.34050049999996
  0
LINE
  8
_0-0_0
  6
CONTINUOUS
 62
    7
 10
821.19906649999996
 20
456.34050049999996
 11
821.14437850000002
 21
456.36869850000005
  0
LINE
  8
_0-0_0
  6
CONTINUOUS
 62
    7
 10
821.14437850000002
 20
456.36869850000005
 11
821.08541850000006
 21
456.39472950000004
  0
LINE
  8
_0-0_0
  6
CONTINUOUS
 62
    7
 10
821.08541850000006
 20
456.39472950000004
 11
821.03866549999998
 21
456.41273550000005
  0
LINE
  8
_0-0_0
  6
CONTINUOUS
 62
    7
 10
821.03866549999998
 20
456.41273550000005
 11
820.98995950000005
 21
456.42933649999998
  0
LINE
  8
_0-0_0
  6
CONTINUOUS
 62
    7
 10
820.98995950000005
 20
456.42933649999998
 11
820.8875425
 21
456.45820649999996
  0
LINE
  8
_0-0_0
  6
CONTINUOUS
 62
    7
 10
820.8875425
 20
456.45820649999996
 11
820.77981550000004
 21
456.4810635
  0
LINE
  8
_0-0_0
  6
CONTINUOUS
 62
    7
 10
820.77981550000004
 20
456.4810635
 11
820.66824350000002
 21
456.4976355
  0
LINE
  8
_0-0_0
  6
CONTINUOUS
 62
    7
 10
820.66824350000002
 20
456.4976355
 11
820.55416850000006
 21
456.50782749999996
  0
LINE
  8
_0-0_0
  6
CONTINUOUS
 62
    7
 10
820.55416850000006
 20
456.50782749999996
 11
820.42892449999999
 21
456.51161249999996
  0
ARC
  8
_0-0_0
  6
CONTINUOUS
 62
    7
 10
820.42892449999999
 20
428.67463650000002
 40
1
 50
269.99999700000001
 51
0
  0
LINE
  8
_0-0_0
  6
CONTINUOUS
 62
    7
 10
821.42892449999999
 20
428.67463650000002
 11
821.42892449999999
 21
455.06044050000003
  0
LINE
  8
_0-0_0
  6
CONTINUOUS
 62
    7
 10
163.42892449999999
 20
455.06044050000003
 11
163.42993150000001
 21
455.07893350000006
  0
LINE
  8
_0-0_0
  6
CONTINUOUS
 62
    7
 10
163.42993150000001
 20
455.07893350000006
 11
163.43292250000002
 21
455.09736650000002
  0
LINE
  8
_0-0_0
  6
CONTINUOUS
 62
    7
 10
163.43292250000002
 20
455.09736650000002
 11
163.43817150000001
 21
455.11650050000003
  0
LINE
  8
_0-0_0
  6
CONTINUOUS
 62
    7
 10
163.43817150000001
 20
455.11650050000003
 11
163.44554149999999
 21
455.1355135
  0
LINE
  8
_0-0_0
  6
CONTINUOUS
 62
    7
 10
163.44554149999999
 20
455.1355135
 11
163.46609549999999
 21
455.1722565
  0
LINE
  8
_0-0_0
  6
CONTINUOUS
 62
    7
 10
163.46609549999999
 20
455.1722565
 11
163.49449149999998
 21
455.20793149999997
  0
LINE
  8
_0-0_0
  6
CONTINUOUS
 62
    7
 10
163.49449149999998
 20
455.20793149999997
 11
163.53036550000002
 21
455.24220249999996
  0
LINE
  8
_0-0_0
  6
CONTINUOUS
 62
    7
 10
163.53036550000002
 20
455.24220249999996
 11
163.57899450000002
 21
455.27867149999997
  0
LINE
  8
_0-0_0
  6
CONTINUOUS
 62
    7
 10
163.57899450000002
 20
455.27867149999997
 11
163.63577250000003
 21
455.31269850000001
  0
LINE
  8
_0-0_0
  6
CONTINUOUS
 62
    7
 10
163.63577250000003
 20
455.31269850000001
 11
163.69992050000002
 21
455.34394850000001
  0
LINE
  8
_0-0_0
  6
CONTINUOUS
 62
    7
 10
163.69992050000002
 20
455.34394850000001
 11
163.77056849999997
 21
455.37217750000002
  0
LINE
  8
_0-0_0
  6
CONTINUOUS
 62
    7
 10
163.77056849999997
 20
455.37217750000002
 11
163.81864949999999
 21
455.38853449999999
  0
LINE
  8
_0-0_0
  6
CONTINUOUS
 62
    7
 10
163.81864949999999
 20
455.38853449999999
 11
163.86878950000005
 21
455.40354950000005
  0
LINE
  8
_0-0_0
  6
CONTINUOUS
 62
    7
 10
163.86878950000005
 20
455.40354950000005
 11
163.92549150000002
 21
455.41831950000005
  0
LINE
  8
_0-0_0
  6
CONTINUOUS
 62
    7
 10
163.92549150000002
 20
455.41831950000005
 11
163.98410050000001
 21
455.43141149999997
  0
LINE
  8
_0-0_0
  6
CONTINUOUS
 62
    7
 10
163.98410050000001
 20
455.43141149999997
 11
164.10087550000003
 21
455.45173650000004
  0
LINE
  8
_0-0_0
  6
CONTINUOUS
 62
    7
 10
164.10087550000003
 20
455.45173650000004
 11
164.2082825
 21
455.46443150000005
  0
LINE
  8
_0-0_0
  6
CONTINUOUS
 62
    7
 10
164.2082825
 20
455.46443150000005
 11
164.31805450000002
 21
455.47209150000003
  0
LINE
  8
_0-0_0
  6
CONTINUOUS
 62
    7
 10
164.31805450000002
 20
455.47209150000003
 11
164.42892449999999
 21
455.47465550000004
  0
LINE
  8
_0-0_0
  6
CONTINUOUS
 62
    7
 10
163.42892449999999
 20
456.03010549999999
 11
163.43182350000001
 21
456.06098950000001
  0
LINE
  8
_0-0_0
  6
CONTINUOUS
 62
    7
 10
163.43182350000001
 20
456.06098950000001
 11
163.44052150000005
 21
456.0924225
  0
LINE
  8
_0-0_0
  6
CONTINUOUS
 62
    7
 10
163.44052150000005
 20
456.0924225
 11
163.45500149999998
 21
456.12409950000006
  0
LINE
  8
_0-0_0
  6
CONTINUOUS
 62
    7
 10
163.45500149999998
 20
456.12409950000006
 11
163.47517449999998
 21
456.15571650000004
  0
LINE
  8
_0-0_0
  6
CONTINUOUS
 62
    7
 10
163.47517449999998
 20
456.15571650000004
 11
163.49169949999998
 21
456.17655950000005
  0
LINE
  8
_0-0_0
  6
CONTINUOUS
 62
    7
 10
163.49169949999998
 20
456.17655950000005
 11
163.51058950000004
 21
456.19718950000004
  0
LINE
  8
_0-0_0
  6
CONTINUOUS
 62
    7
 10
163.51058950000004
 20
456.19718950000004
 11
163.55523649999998
 21
456.23735050000005
  0
LINE
  8
_0-0_0
  6
CONTINUOUS
 62
    7
 10
163.55523649999998
 20
456.23735050000005
 11
163.60836749999999
 21
456.27552850000006
  0
LINE
  8
_0-0_0
  6
CONTINUOUS
 62
    7
 10
163.60836749999999
 20
456.27552850000006
 11
163.65826449999997
 21
456.30537449999997
  0
LINE
  8
_0-0_0
  6
CONTINUOUS
 62
    7
 10
163.65826449999997
 20
456.30537449999997
 11
163.71293650000001
 21
456.3332365
  0
LINE
  8
_0-0_0
  6
CONTINUOUS
 62
    7
 10
163.71293650000001
 20
456.3332365
 11
163.77191149999999
 21
456.35896349999996
  0
LINE
  8
_0-0_0
  6
CONTINUOUS
 62
    7
 10
163.77191149999999
 20
456.35896349999996
 11
163.81866450000001
 21
456.37675450000006
  0
LINE
  8
_0-0_0
  6
CONTINUOUS
 62
    7
 10
163.81866450000001
 20
456.37675450000006
 11
163.86737049999999
 21
456.39317349999999
  0
LINE
  8
_0-0_0
  6
CONTINUOUS
 62
    7
 10
163.86737049999999
 20
456.39317349999999
 11
163.96980250000001
 21
456.42176849999998
  0
LINE
  8
_0-0_0
  6
CONTINUOUS
 62
    7
 10
163.96980250000001
 20
456.42176849999998
 11
164.07762149999996
 21
456.44435150000004
  0
LINE
  8
_0-0_0
  6
CONTINUOUS
 62
    7
 10
164.07762149999996
 20
456.44435150000004
 11
164.1893005
 21
456.46076949999997
  0
LINE
  8
_0-0_0
  6
CONTINUOUS
 62
    7
 10
164.1893005
 20
456.46076949999997
 11
164.30346650000001
 21
456.47087150000004
  0
LINE
  8
_0-0_0
  6
CONTINUOUS
 62
    7
 10
164.30346650000001
 20
456.47087150000004
 11
164.42892449999999
 21
456.47465550000004
  0
LINE
  8
_0-0_0
  6
CONTINUOUS
 62
    7
 10
163.42892449999999
 20
455.06044050000003
 11
163.42892449999999
 21
456.03010549999999
  0
ARC
  8
_0-0_0
  6
CONTINUOUS
 62
    7
 10
164.42892449999999
 20
428.67463650000002
 40
1
 50
180.00000900000003
 51
269.99999700000001
  0
LINE
  8
_0-0_0
  6
CONTINUOUS
 62
    7
 10
163.42892449999999
 20
428.67463650000002
 11
163.42892449999999
 21
455.06044050000003
  0
LINE
  8
_0-0_0
  6
CONTINUOUS
 62
    7
 10
821.42892449999999
 20
456.06050149999999
 11
821.42892449999999
 21
457.67463650000002
  0
ARC
  8
_0-0_0
  6
CONTINUOUS
 62
    7
 10
820.42892449999999
 20
457.67463650000002
 40
1
 50
0
 51
90.000003000000007
  0
ARC
  8
_0-0_0
  6
CONTINUOUS
 62
    7
 10
164.42892449999999
 20
457.67463650000002
 40
1
 50
90.000003000000007
 51
180.00000900000001
  0
LINE
  8
_0-0_0
  6
CONTINUOUS
 62
    7
 10
163.42892449999999
 20
456.03010549999999
 11
163.42892449999999
 21
457.67463650000002
  0
LINE
  8
_0-0_0
  6
CONTINUOUS
 62
    7
 10
75.613258500000029
 20
425.57456950000005
 11
75.613258500000029
 21
425.54957550000006
  0
LINE
  8
_0-0_0
  6
CONTINUOUS
 62
    7
 10
75.613258500000029
 20
422.49745150000001
 11
75.613258500000029
 21
422.59956350000004
  0
LINE
  8
_0-0_0
  6
CONTINUOUS
 62
    7
 10
75.613258500000029
 20
401.47456350000004
 11
75.613258500000029
 21
402.25169349999999
  0
LINE
  8
_0-0_0
  6
CONTINUOUS
 62
    7
 10
58.813263500000005
 20
401.47456350000004
 11
75.613258500000029
 21
401.47456350000004
  0
LINE
  8
_0-0_0
  6
CONTINUOUS
 62
    7
 10
58.813263500000005
 20
409.37455750000004
 11
58.813263500000005
 21
401.47456350000004
  0
LINE
  8
_0-0_0
  6
CONTINUOUS
 62
    7
 10
58.813263500000005
 20
421.82987950000006
 11
58.813263500000005
 21
415.37455750000004
  0
LINE
  8
_0-0_0
  6
CONTINUOUS
 62
    7
 10
76.11324350000001
 20
404.97456350000004
 11
76.313263500000005
 21
404.97456350000004
  0
LINE
  8
_0-0_0
  6
CONTINUOUS
 62
    7
 10
76.313263500000005
 20
404.97456350000004
 11
76.313263500000005
 21
407.97456350000004
  0
LINE
  8
_0-0_0
  6
CONTINUOUS
 62
    7
 10
76.313263500000005
 20
421.57456950000005
 11
76.313263500000005
 21
407.97456350000004
  0
LINE
  8
_0-0_0
  6
CONTINUOUS
 62
    7
 10
76.113258500000029
 20
424.57456950000005
 11
76.313263500000005
 21
424.57456950000005
  0
LINE
  8
_0-0_0
  6
CONTINUOUS
 62
    7
 10
76.313263500000005
 20
421.57456950000005
 11
76.313263500000005
 21
424.57456950000005
  0
LINE
  8
_0-0_0
  6
CONTINUOUS
 62
    7
 10
75.413261499999976
 20
423.87364249999996
 11
75.413261499999976
 21
422.69444250000004
  0
LINE
  8
_0-0_0
  6
CONTINUOUS
 62
    7
 10
75.413261499999976
 20
426.07456950000005
 11
75.413261499999976
 21
425.57456950000005
  0
LINE
  8
_0-0_0
  6
CONTINUOUS
 62
    7
 10
74.413261499999976
 20
423.15806550000002
 11
74.413261499999976
 21
423.87455750000004
  0
ARC
  8
_0-0_0
  6
CONTINUOUS
 62
    7
 10
74.113258500000029
 20
421.17457550000006
 40
2
 50
0
 51
90.000003000000007
  0
LINE
  8
_0-0_0
  6
CONTINUOUS
 62
    7
 10
76.113258500000029
 20
417.67457550000006
 11
76.113258500000029
 21
420.67457550000006
  0
LINE
  8
_0-0_0
  6
CONTINUOUS
 62
    7
 10
76.113258500000029
 20
420.67457550000006
 11
76.113258500000029
 21
421.17457550000006
  0
LINE
  8
_0-0_0
  6
CONTINUOUS
 62
    7
 10
76.113258500000029
 20
403.57456950000005
 11
76.113258500000029
 21
417.17457550000006
  0
LINE
  8
_0-0_0
  6
CONTINUOUS
 62
    7
 10
76.113258500000029
 20
417.67457550000006
 11
76.113258500000029
 21
417.17457550000006
  0
ARC
  8
_0-0_0
  6
CONTINUOUS
 62
    7
 10
74.113258500000029
 20
403.57456950000005
 40
2
 50
273.84026500000004
 51
0.000010000000014
  0
LINE
  8
_0-0_0
  6
CONTINUOUS
 62
    7
 10
60.813263500000005
 20
423.15806550000002
 11
60.813263500000005
 21
423.87455750000004
  0
LINE
  8
_0-0_0
  6
CONTINUOUS
 62
    7
 10
60.813263500000005
 20
423.15806550000002
 11
60.813263500000005
 21
423.15193150000005
  0
LINE
  8
_0-0_0
  6
CONTINUOUS
 62
    7
 10
58.813263500000005
 20
421.82987950000006
 11
58.813263500000005
 21
422.32987950000006
  0
LINE
  8
_0-0_0
  6
CONTINUOUS
 62
    7
 10
59.113262500000019
 20
421.17457550000006
 11
59.113262500000019
 21
407.57456950000005
  0
LINE
  8
_0-0_0
  6
CONTINUOUS
 62
    7
 10
59.113262500000019
 20
407.07456950000005
 11
59.113262500000019
 21
407.57456950000005
  0
LINE
  8
_0-0_0
  6
CONTINUOUS
 62
    7
 10
59.113262500000019
 20
404.07456950000005
 11
59.113262500000019
 21
407.07456950000005
  0
LINE
  8
_0-0_0
  6
CONTINUOUS
 62
    7
 10
59.113262500000019
 20
403.57456950000005
 11
59.113262500000019
 21
404.07456950000005
  0
ARC
  8
_0-0_0
  6
CONTINUOUS
 62
    7
 10
61.113262500000019
 20
421.17457550000006
 40
2
 50
93.840255999999997
 51
180.00000900000001
  0
LINE
  8
_0-0_0
  6
CONTINUOUS
 62
    7
 10
58.813263500000005
 20
409.37455750000004
 11
58.813263500000005
 21
415.37455750000004
  0
LINE
  8
_0-0_0
  6
CONTINUOUS
 62
    7
 10
58.813263500000005
 20
423.87455750000004
 11
58.813263500000005
 21
422.32987950000006
  0
LINE
  8
_0-0_0
  6
CONTINUOUS
 62
    7
 10
58.813263500000005
 20
415.37455750000004
 11
59.113254499999982
 21
415.37455750000004
  0
LINE
  8
_0-0_0
  6
CONTINUOUS
 62
    7
 10
58.813263500000005
 20
409.37455750000004
 11
59.113254499999982
 21
409.37455750000004
  0
LINE
  8
_0-0_0
  6
CONTINUOUS
 62
    7
 10
74.113258500000029
 20
401.57456950000005
 11
65.113262500000019
 21
401.57456950000005
  0
LINE
  8
_0-0_0
  6
CONTINUOUS
 62
    7
 10
61.613262500000019
 20
401.57456950000005
 11
61.113262500000019
 21
401.57456950000005
  0
LINE
  8
_0-0_0
  6
CONTINUOUS
 62
    7
 10
64.613262500000019
 20
401.57456950000005
 11
61.613262500000019
 21
401.57456950000005
  0
LINE
  8
_0-0_0
  6
CONTINUOUS
 62
    7
 10
65.113262500000019
 20
401.57456950000005
 11
64.613262500000019
 21
401.57456950000005
  0
ARC
  8
_0-0_0
  6
CONTINUOUS
 62
    7
 10
61.113262500000019
 20
403.57456950000005
 40
2
 50
180.00000900000003
 51
269.99999700000001
  0
ARC
  8
_0-0_0
  6
CONTINUOUS
 62
    7
 10
74.913261499999976
 20
426.07456950000005
 40
0.5
 50
0
 51
90.000003000000007
  0
LINE
  8
_0-0_0
  6
CONTINUOUS
 62
    7
 10
73.413261499999976
 20
426.57456950000005
 11
74.913261499999976
 21
426.57456950000005
  0
ARC
  8
_0-0_0
  6
CONTINUOUS
 62
    7
 10
73.413261499999976
 20
427.57456950000005
 40
1
 50
180.00000900000003
 51
269.99999700000001
  0
LINE
  8
_0-0_0
  6
CONTINUOUS
 62
    7
 10
72.413261499999976
 20
427.57456950000005
 11
72.413261499999976
 21
427.67466750000006
  0
LINE
  8
_0-0_0
  6
CONTINUOUS
 62
    7
 10
71.913261499999976
 20
426.57456950000005
 11
71.913261499999976
 21
427.67466750000006
  0
ARC
  8
_0-0_0
  6
CONTINUOUS
 62
    7
 10
72.913261499999976
 20
426.57456950000005
 40
1
 50
180.00000900000003
 51
269.99999700000001
  0
LINE
  8
_0-0_0
  6
CONTINUOUS
 62
    7
 10
72.913261499999976
 20
425.57456950000005
 11
72.71326049999999
 21
425.57456950000005
  0
ARC
  8
_0-0_0
  6
CONTINUOUS
 62
    7
 10
72.71326049999999
 20
426.57456950000005
 40
1
 50
180.00000900000003
 51
269.99999700000001
  0
ARC
  8
_0-0_0
  6
CONTINUOUS
 62
    7
 10
62.513259500000004
 20
426.57456950000005
 40
1
 50
269.99999700000001
 51
0
  0
LINE
  8
_0-0_0
  6
CONTINUOUS
 62
    7
 10
62.513259500000004
 20
425.57456950000005
 11
61.813263500000005
 21
425.57456950000005
  0
LINE
  8
_0-0_0
  6
CONTINUOUS
 62
    7
 10
75.613258500000029
 20
425.57456950000005
 11
75.413261499999976
 21
425.57456950000005
  0
LINE
  8
_0-0_0
  6
CONTINUOUS
 62
    7
 10
58.813263500000005
 20
423.87455750000004
 11
75.613258500000029
 21
423.87455750000004
  0
LINE
  8
_0-0_0
  6
CONTINUOUS
 62
    7
 10
75.613258500000029
 20
423.87455750000004
 11
75.613258500000029
 21
425.57456950000005
  0
LINE
  8
_0-0_0
  6
CONTINUOUS
 62
    7
 10
71.71326049999999
 20
427.67466750000006
 11
71.71326049999999
 21
426.57456950000005
  0
LINE
  8
_0-0_0
  6
CONTINUOUS
 62
    7
 10
63.513259500000004
 20
426.57456950000005
 11
63.513259500000004
 21
427.67466750000006
  0
LINE
  8
_0-0_0
  6
CONTINUOUS
 62
    7
 10
59.813263500000005
 20
425.57456950000005
 11
58.813263500000005
 21
425.57456950000005
  0
LINE
  8
_0-0_0
  6
CONTINUOUS
 62
    7
 10
58.813263500000005
 20
423.87455750000004
 11
58.813263500000005
 21
425.57456950000005
  0
LINE
  8
_0-0_0
  6
CONTINUOUS
 62
    7
 10
74.113258500000029
 20
423.17457550000006
 11
73.613258500000029
 21
423.17457550000006
  0
CIRCLE
  8
_0-0_0
  6
CONTINUOUS
 62
    7
 10
73.613258500000029
 20
420.67457550000006
 40
2.5
  0
LINE
  8
_0-0_0
  6
CONTINUOUS
 62
    7
 10
61.113262500000019
 20
423.17457550000006
 11
70.113262500000019
 21
423.17457550000006
  0
LINE
  8
_0-0_0
  6
CONTINUOUS
 62
    7
 10
73.613258500000029
 20
423.17457550000006
 11
70.613262500000019
 21
423.17457550000006
  0
LINE
  8
_0-0_0
  6
CONTINUOUS
 62
    7
 10
70.113262500000019
 20
423.17457550000006
 11
70.613262500000019
 21
423.17457550000006
  0
ARC
  8
_0-0_0
  6
CONTINUOUS
 62
    7
 10
75.613258500000029
 20
417.17457550000006
 40
0.5
 50
0
 51
90.000003000000007
  0
LINE
  8
_0-0_0
  6
CONTINUOUS
 62
    7
 10
74.113258500000029
 20
401.67720050000003
 11
74.1291425
 21
401.64994850000005
  0
LINE
  8
_0-0_0
  6
CONTINUOUS
 62
    7
 10
74.1291425
 20
401.64994850000005
 11
74.144985500000018
 21
401.62696849999998
  0
LINE
  8
_0-0_0
  6
CONTINUOUS
 62
    7
 10
74.144985500000018
 20
401.62696849999998
 11
74.15896650000002
 21
401.61021449999998
  0
LINE
  8
_0-0_0
  6
CONTINUOUS
 62
    7
 10
74.15896650000002
 20
401.61021449999998
 11
74.172866499999998
 21
401.5968785
  0
LINE
  8
_0-0_0
  6
CONTINUOUS
 62
    7
 10
74.172866499999998
 20
401.5968785
 11
74.185081500000024
 21
401.58796749999999
  0
LINE
  8
_0-0_0
  6
CONTINUOUS
 62
    7
 10
74.185081500000024
 20
401.58796749999999
 11
74.197200500000008
 21
401.58174150000002
  0
LINE
  8
_0-0_0
  6
CONTINUOUS
 62
    7
 10
74.197200500000008
 20
401.58174150000002
 11
74.208068500000024
 21
401.57847649999997
  0
LINE
  8
_0-0_0
  6
CONTINUOUS
 62
    7
 10
74.208068500000024
 20
401.57847649999997
 11
74.218826499999977
 21
401.57740750000005
  0
LINE
  8
_0-0_0
  6
CONTINUOUS
 62
    7
 10
74.218826499999977
 20
401.57740750000005
 11
74.221286500000019
 21
401.57749950000004
  0
LINE
  8
_0-0_0
  6
CONTINUOUS
 62
    7
 10
59.813263500000005
 20
422.69444250000004
 11
59.813263500000005
 21
423.87364249999996
  0
ARC
  8
_0-0_0
  6
CONTINUOUS
 62
    7
 10
59.613262500000019
 20
407.57456950000005
 40
0.5
 50
180.00000900000003
 51
269.99999700000001
  0
CIRCLE
  8
_0-0_0
  6
CONTINUOUS
 62
    7
 10
61.613262500000019
 20
404.07456950000005
 40
2.5
  0
LINE
  8
_0-0_0
  6
CONTINUOUS
 62
    7
 10
61.113262500000019
 20
423.07194549999997
 11
61.097381499999983
 21
423.09919750000006
  0
LINE
  8
_0-0_0
  6
CONTINUOUS
 62
    7
 10
61.097381499999983
 20
423.09919750000006
 11
61.08153550000003
 21
423.12217750000002
  0
LINE
  8
_0-0_0
  6
CONTINUOUS
 62
    7
 10
61.08153550000003
 20
423.12217750000002
 11
61.067554500000028
 21
423.13893150000001
  0
LINE
  8
_0-0_0
  6
CONTINUOUS
 62
    7
 10
61.067554500000028
 20
423.13893150000001
 11
61.053657499999986
 21
423.15226749999999
  0
LINE
  8
_0-0_0
  6
CONTINUOUS
 62
    7
 10
61.053657499999986
 20
423.15226749999999
 11
61.041439500000024
 21
423.16117850000001
  0
LINE
  8
_0-0_0
  6
CONTINUOUS
 62
    7
 10
61.041439500000024
 20
423.16117850000001
 11
61.029319499999986
 21
423.16740449999998
  0
LINE
  8
_0-0_0
  6
CONTINUOUS
 62
    7
 10
61.029319499999986
 20
423.16740449999998
 11
61.018455500000016
 21
423.17066950000003
  0
LINE
  8
_0-0_0
  6
CONTINUOUS
 62
    7
 10
61.018455500000016
 20
423.17066950000003
 11
61.007694500000014
 21
423.17173750000006
  0
LINE
  8
_0-0_0
  6
CONTINUOUS
 62
    7
 10
61.007694500000014
 20
423.17173750000006
 11
61.005233500000031
 21
423.17164650000007
  0
LINE
  8
_0-0_0
  6
CONTINUOUS
 62
    7
 10
58.813263500000005
 20
404.97456350000004
 11
58.71326049999999
 21
404.97456350000004
  0
LINE
  8
_0-0_0
  6
CONTINUOUS
 62
    7
 10
58.71326049999999
 20
404.97456350000004
 11
58.71326049999999
 21
407.97456350000004
  0
LINE
  8
_0-0_0
  6
CONTINUOUS
 62
    7
 10
58.71326049999999
 20
407.97456350000004
 11
58.71326049999999
 21
421.57456950000005
  0
LINE
  8
_0-0_0
  6
CONTINUOUS
 62
    7
 10
58.813263500000005
 20
424.57456950000005
 11
58.71326049999999
 21
424.57456950000005
  0
LINE
  8
_0-0_0
  6
CONTINUOUS
 62
    7
 10
58.71326049999999
 20
421.57456950000005
 11
58.71326049999999
 21
424.57456950000005
  0
ARC
  8
_0-0_0
  6
CONTINUOUS
 62
    7
 10
65.113262500000019
 20
402.07456950000005
 40
0.5
 50
180.00000900000003
 51
269.99999700000001
  0
ARC
  8
_0-0_0
  6
CONTINUOUS
 62
    7
 10
61.813263500000005
 20
427.07463050000001
 40
1.5
 50
269.99999700000001
 51
0
  0
ARC
  8
_0-0_0
  6
CONTINUOUS
 62
    7
 10
60.313263500000005
 20
426.07463050000001
 40
0.5
 50
90.000003000000007
 51
180.00000900000001
  0
LINE
  8
_0-0_0
  6
CONTINUOUS
 62
    7
 10
60.313263500000005
 20
426.57463050000001
 11
61.813263500000005
 21
426.57463050000001
  0
ARC
  8
_0-0_0
  6
CONTINUOUS
 62
    7
 10
61.813263500000005
 20
427.57463050000001
 40
1
 50
269.99999700000001
 51
0
  0
LINE
  8
_0-0_0
  6
CONTINUOUS
 62
    7
 10
62.813263500000005
 20
427.67466750000006
 11
62.813263500000005
 21
427.57463050000001
  0
LINE
  8
_0-0_0
  6
CONTINUOUS
 62
    7
 10
63.313263500000005
 20
427.67466750000006
 11
63.313263500000005
 21
427.07463050000001
  0
LINE
  8
_0-0_0
  6
CONTINUOUS
 62
    7
 10
59.813263500000005
 20
425.57463050000001
 11
59.813263500000005
 21
426.07463050000001
  0
ARC
  8
_0-0_0
  6
CONTINUOUS
 62
    7
 10
70.113262500000019
 20
422.67457550000006
 40
0.5
 50
0
 51
90.000003000000007
  0
LINE
  8
_0-0_0
  6
CONTINUOUS
 62
    7
 10
70.613262500000019
 20
422.59761049999997
 11
70.613262500000019
 21
422.67457550000006
  0
LINE
  8
_0-0_0
  6
CONTINUOUS
 62
    7
 10
70.613262500000019
 20
421.15608250000002
 11
70.613262500000019
 21
422.59761049999997
  0
LINE
  8
_0-0_0
  6
CONTINUOUS
 62
    7
 10
70.613262500000019
 20
420.67457550000006
 11
70.613262500000019
 21
421.15608250000002
  0
ARC
  8
_0-0_0
  6
CONTINUOUS
 62
    7
 10
73.613258500000029
 20
420.67457550000006
 40
3
 50
180.00000900000003
 51
269.99999700000001
  0
LINE
  8
_0-0_0
  6
CONTINUOUS
 62
    7
 10
74.094764499999997
 20
417.67457550000006
 11
73.613258500000029
 21
417.67457550000006
  0
LINE
  8
_0-0_0
  6
CONTINUOUS
 62
    7
 10
74.094764499999997
 20
417.67457550000006
 11
75.53628550000002
 21
417.67457550000006
  0
LINE
  8
_0-0_0
  6
CONTINUOUS
 62
    7
 10
75.613258500000029
 20
417.67457550000006
 11
75.53628550000002
 21
417.67457550000006
  0
LINE
  8
_0-0_0
  6
CONTINUOUS
 62
    7
 10
59.690235500000028
 20
407.07456950000005
 11
59.613262500000019
 21
407.07456950000005
  0
LINE
  8
_0-0_0
  6
CONTINUOUS
 62
    7
 10
61.613262500000019
 20
407.07456950000005
 11
61.131759499999987
 21
407.07456950000005
  0
LINE
  8
_0-0_0
  6
CONTINUOUS
 62
    7
 10
61.131759499999987
 20
407.07456950000005
 11
59.690235500000028
 21
407.07456950000005
  0
LINE
  8
_0-0_0
  6
CONTINUOUS
 62
    7
 10
64.613262500000019
 20
402.07456950000005
 11
64.613262500000019
 21
402.15153550000002
  0
LINE
  8
_0-0_0
  6
CONTINUOUS
 62
    7
 10
64.613262500000019
 20
403.59306349999997
 11
64.613262500000019
 21
402.15153550000002
  0
LINE
  8
_0-0_0
  6
CONTINUOUS
 62
    7
 10
64.613262500000019
 20
403.59306349999997
 11
64.613262500000019
 21
404.07456950000005
  0
ARC
  8
_0-0_0
  6
CONTINUOUS
 62
    7
 10
61.613262500000019
 20
404.07456950000005
 40
3
 50
0
 51
89.999995999999996
  0
LINE
  8
_0-0_0
  6
CONTINUOUS
 62
    7
 10
76.113258500000029
 20
424.68583650000005
 11
76.113258500000029
 21
422.79957550000006
  0
LINE
  8
_0-0_0
  6
CONTINUOUS
 62
    7
 10
76.113258500000029
 20
425.34956350000004
 11
76.113258500000029
 21
424.68583650000005
  0
ARC
  8
_0-0_0
  6
CONTINUOUS
 62
    7
 10
70.843376499999977
 20
413.54780549999998
 40
3.063396
 50
19.82113
 51
25.289563000000001
  0
ARC
  8
_0-0_0
  6
CONTINUOUS
 62
    7
 10
70.843696500000021
 20
411.20118750000006
 40
3.0630519999999999
 50
334.71006
 51
340.17869200000001
  0
ARC
  8
_0-0_0
  6
CONTINUOUS
 62
    7
 10
64.383148500000004
 20
411.20133950000002
 40
3.063399
 50
199.82113599999997
 51
205.28948099999999
  0
ARC
  8
_0-0_0
  6
CONTINUOUS
 62
    7
 10
64.382827500000019
 20
413.54795850000005
 40
3.0630549999999999
 50
154.710137
 51
160.17869999999999
  0
ARC
  8
_0-0_0
  6
CONTINUOUS
 62
    7
 10
67.613262500000019
 20
412.37455750000004
 40
6.5
 50
340.10416099999998
 51
19.895609999999952
  0
ARC
  8
_0-0_0
  6
CONTINUOUS
 62
    7
 10
67.613262500000019
 20
412.37455750000004
 40
6.5
 50
160.10415599999999
 51
199.895612
  0
LINE
  8
_0-0_0
  6
CONTINUOUS
 62
    7
 10
59.113262500000019
 20
423.46336350000001
 11
59.113262500000019
 21
423.87370350000003
  0
LINE
  8
_0-0_0
  6
CONTINUOUS
 62
    7
 10
59.113262500000019
 20
422.80448950000005
 11
59.113262500000019
 21
423.46336350000001
  0
LINE
  8
_0-0_0
  6
CONTINUOUS
 62
    7
 10
66.871589500000027
 20
418.87455750000004
 11
62.354930500000023
 21
416.2668615
  0
LINE
  8
_0-0_0
  6
CONTINUOUS
 62
    7
 10
68.354930500000023
 20
418.87455750000004
 11
66.871589500000027
 21
418.87455750000004
  0
LINE
  8
_0-0_0
  6
CONTINUOUS
 62
    7
 10
72.871589500000027
 20
416.2668615
 11
68.354930500000023
 21
418.87455750000004
  0
LINE
  8
_0-0_0
  6
CONTINUOUS
 62
    7
 10
73.613258500000029
 20
414.98225450000007
 11
73.613258500000029
 21
409.7668615
  0
LINE
  8
_0-0_0
  6
CONTINUOUS
 62
    7
 10
72.871589500000027
 20
416.2668615
 11
73.613258500000029
 21
414.98225450000007
  0
LINE
  8
_0-0_0
  6
CONTINUOUS
 62
    7
 10
68.354930500000023
 20
405.87455750000004
 11
72.871589500000027
 21
408.48225450000007
  0
LINE
  8
_0-0_0
  6
CONTINUOUS
 62
    7
 10
73.165718500000025
 20
408.99171450000006
 11
73.613258500000029
 21
409.7668615
  0
LINE
  8
_0-0_0
  6
CONTINUOUS
 62
    7
 10
73.165718500000025
 20
408.99171450000006
 11
72.871589500000027
 21
408.48225450000007
  0
LINE
  8
_0-0_0
  6
CONTINUOUS
 62
    7
 10
66.871589500000027
 20
405.87455750000004
 11
68.354930500000023
 21
405.87455750000004
  0
LINE
  8
_0-0_0
  6
CONTINUOUS
 62
    7
 10
62.354930500000023
 20
408.48225450000007
 11
66.871589500000027
 21
405.87455750000004
  0
LINE
  8
_0-0_0
  6
CONTINUOUS
 62
    7
 10
61.613262500000019
 20
414.98225450000007
 11
61.613262500000019
 21
409.7668615
  0
LINE
  8
_0-0_0
  6
CONTINUOUS
 62
    7
 10
62.354930500000023
 20
408.48225450000007
 11
61.613262500000019
 21
409.7668615
  0
LINE
  8
_0-0_0
  6
CONTINUOUS
 62
    7
 10
62.060806500000012
 20
415.75743150000005
 11
61.613262500000019
 21
414.98225450000007
  0
LINE
  8
_0-0_0
  6
CONTINUOUS
 62
    7
 10
62.060806500000012
 20
415.75743150000005
 11
62.354930500000023
 21
416.2668615
  0
LINE
  8
_0-0_0
  6
CONTINUOUS
 62
    7
 10
75.500267500000007
 20
421.90000950000001
 11
75.778324499999997
 21
421.92457550000006
  0
LINE
  8
_0-0_0
  6
CONTINUOUS
 62
    7
 10
75.618026499999985
 20
421.69606050000004
 11
75.778324499999997
 21
421.92457550000006
  0
LINE
  8
_0-0_0
  6
CONTINUOUS
 62
    7
 10
75.361839500000031
 20
422.0905305
 11
75.635803500000009
 21
422.14402749999999
  0
LINE
  8
_0-0_0
  6
CONTINUOUS
 62
    7
 10
75.500267500000007
 20
421.90000950000001
 11
75.635803500000009
 21
422.14402749999999
  0
LINE
  8
_0-0_0
  6
CONTINUOUS
 62
    7
 10
75.204250500000001
 20
422.26554850000002
 11
75.471122499999979
 21
422.34739650000006
  0
LINE
  8
_0-0_0
  6
CONTINUOUS
 62
    7
 10
75.361839500000031
 20
422.0905305
 11
75.471122499999979
 21
422.34739650000006
  0
LINE
  8
_0-0_0
  6
CONTINUOUS
 62
    7
 10
75.029232500000035
 20
422.42314150000004
 11
75.286087500000008
 21
422.53242550000004
  0
LINE
  8
_0-0_0
  6
CONTINUOUS
 62
    7
 10
75.204250500000001
 20
422.26554850000002
 11
75.286087500000008
 21
422.53242550000004
  0
LINE
  8
_0-0_0
  6
CONTINUOUS
 62
    7
 10
74.838699500000018
 20
422.56156950000002
 11
75.082725500000038
 21
422.69709750000004
  0
LINE
  8
_0-0_0
  6
CONTINUOUS
 62
    7
 10
75.029232500000035
 20
422.42314150000004
 11
75.082725500000038
 21
422.69709750000004
  0
LINE
  8
_0-0_0
  6
CONTINUOUS
 62
    7
 10
74.634738500000026
 20
422.67933649999998
 11
74.863258500000029
 21
422.83964549999996
  0
LINE
  8
_0-0_0
  6
CONTINUOUS
 62
    7
 10
74.838699500000018
 20
422.56156950000002
 11
74.863258500000029
 21
422.83964549999996
  0
LINE
  8
_0-0_0
  6
CONTINUOUS
 62
    7
 10
74.419586500000037
 20
422.77513150000004
 11
74.630104500000016
 21
422.95845050000003
  0
LINE
  8
_0-0_0
  6
CONTINUOUS
 62
    7
 10
74.634738500000026
 20
422.67933649999998
 11
74.630104500000016
 21
422.95845050000003
  0
LINE
  8
_0-0_0
  6
CONTINUOUS
 62
    7
 10
74.195602500000007
 20
422.8479155
 11
74.385803500000009
 21
423.05220050000003
  0
LINE
  8
_0-0_0
  6
CONTINUOUS
 62
    7
 10
74.419586500000037
 20
422.77513150000004
 11
74.385803500000009
 21
423.05220050000003
  0
LINE
  8
_0-0_0
  6
CONTINUOUS
 62
    7
 10
73.965240499999993
 20
422.89686549999999
 11
74.13304149999999
 21
423.11994949999996
  0
LINE
  8
_0-0_0
  6
CONTINUOUS
 62
    7
 10
74.195602500000007
 20
422.8479155
 11
74.13304149999999
 21
423.11994949999996
  0
LINE
  8
_0-0_0
  6
CONTINUOUS
 62
    7
 10
73.731018500000005
 20
422.9214935
 11
73.874580499999979
 21
423.16087349999998
  0
LINE
  8
_0-0_0
  6
CONTINUOUS
 62
    7
 10
73.965240499999993
 20
422.89686549999999
 11
73.874580499999979
 21
423.16087349999998
  0
LINE
  8
_0-0_0
  6
CONTINUOUS
 62
    7
 10
73.495506500000033
 20
422.9214935
 11
73.613258500000029
 21
423.17457550000006
  0
LINE
  8
_0-0_0
  6
CONTINUOUS
 62
    7
 10
73.731018500000005
 20
422.9214935
 11
73.613258500000029
 21
423.17457550000006
  0
LINE
  8
_0-0_0
  6
CONTINUOUS
 62
    7
 10
73.26128349999999
 20
422.89686549999999
 11
73.351940500000012
 21
423.16087349999998
  0
LINE
  8
_0-0_0
  6
CONTINUOUS
 62
    7
 10
73.495506500000033
 20
422.9214935
 11
73.351940500000012
 21
423.16087349999998
  0
LINE
  8
_0-0_0
  6
CONTINUOUS
 62
    7
 10
73.030918499999984
 20
422.8479155
 11
73.093483499999991
 21
423.11994949999996
  0
LINE
  8
_0-0_0
  6
CONTINUOUS
 62
    7
 10
73.26128349999999
 20
422.89686549999999
 11
73.093483499999991
 21
423.11994949999996
  0
LINE
  8
_0-0_0
  6
CONTINUOUS
 62
    7
 10
72.806930500000021
 20
422.77513150000004
 11
72.840721500000029
 21
423.05220050000003
  0
LINE
  8
_0-0_0
  6
CONTINUOUS
 62
    7
 10
73.030918499999984
 20
422.8479155
 11
72.840721500000029
 21
423.05220050000003
  0
LINE
  8
_0-0_0
  6
CONTINUOUS
 62
    7
 10
72.591781500000025
 20
422.67933649999998
 11
72.596420500000022
 21
422.95845050000003
  0
LINE
  8
_0-0_0
  6
CONTINUOUS
 62
    7
 10
72.806930500000021
 20
422.77513150000004
 11
72.596420500000022
 21
422.95845050000003
  0
LINE
  8
_0-0_0
  6
CONTINUOUS
 62
    7
 10
72.472244499999988
 20
422.76319850000004
 11
72.363258500000029
 21
422.83964549999996
  0
LINE
  8
_0-0_0
  6
CONTINUOUS
 62
    7
 10
72.591781500000025
 20
422.67933649999998
 11
72.472244499999988
 21
422.76319850000004
  0
LINE
  8
_0-0_0
  6
CONTINUOUS
 62
    7
 10
72.387825500000019
 20
422.56156950000002
 11
72.363258500000029
 21
422.83964549999996
  0
LINE
  8
_0-0_0
  6
CONTINUOUS
 62
    7
 10
72.197288500000013
 20
422.42314150000004
 11
72.143798500000003
 21
422.69709750000004
  0
LINE
  8
_0-0_0
  6
CONTINUOUS
 62
    7
 10
72.387825500000019
 20
422.56156950000002
 11
72.143798500000003
 21
422.69709750000004
  0
LINE
  8
_0-0_0
  6
CONTINUOUS
 62
    7
 10
72.022270499999991
 20
422.26554850000002
 11
71.940433499999983
 21
422.53242550000004
  0
LINE
  8
_0-0_0
  6
CONTINUOUS
 62
    7
 10
72.197288500000013
 20
422.42314150000004
 11
71.940433499999983
 21
422.53242550000004
  0
LINE
  8
_0-0_0
  6
CONTINUOUS
 62
    7
 10
71.864685500000007
 20
422.0905305
 11
71.755401500000005
 21
422.34739650000006
  0
LINE
  8
_0-0_0
  6
CONTINUOUS
 62
    7
 10
72.022270499999991
 20
422.26554850000002
 11
71.755401500000005
 21
422.34739650000006
  0
LINE
  8
_0-0_0
  6
CONTINUOUS
 62
    7
 10
71.726249499999994
 20
421.90000950000001
 11
71.590721500000029
 21
422.14402749999999
  0
LINE
  8
_0-0_0
  6
CONTINUOUS
 62
    7
 10
71.864685500000007
 20
422.0905305
 11
71.590721500000029
 21
422.14402749999999
  0
LINE
  8
_0-0_0
  6
CONTINUOUS
 62
    7
 10
71.608497499999999
 20
421.69606050000004
 11
71.448196499999995
 21
421.92457550000006
  0
LINE
  8
_0-0_0
  6
CONTINUOUS
 62
    7
 10
71.726249499999994
 20
421.90000950000001
 11
71.448196499999995
 21
421.92457550000006
  0
LINE
  8
_0-0_0
  6
CONTINUOUS
 62
    7
 10
71.512703499999986
 20
421.48091150000005
 11
71.329399500000022
 21
421.69142150000005
  0
LINE
  8
_0-0_0
  6
CONTINUOUS
 62
    7
 10
71.608497499999999
 20
421.69606050000004
 11
71.329399500000022
 21
421.69142150000005
  0
LINE
  8
_0-0_0
  6
CONTINUOUS
 62
    7
 10
71.439926500000013
 20
421.2569125
 11
71.235618499999987
 21
421.44709750000004
  0
LINE
  8
_0-0_0
  6
CONTINUOUS
 62
    7
 10
71.512703499999986
 20
421.48091150000005
 11
71.235618499999987
 21
421.44709750000004
  0
LINE
  8
_0-0_0
  6
CONTINUOUS
 62
    7
 10
71.390960500000006
 20
421.02653550000002
 11
71.167892499999994
 21
421.19435150000004
  0
LINE
  8
_0-0_0
  6
CONTINUOUS
 62
    7
 10
71.439926500000013
 20
421.2569125
 11
71.167892499999994
 21
421.19435150000004
  0
LINE
  8
_0-0_0
  6
CONTINUOUS
 62
    7
 10
71.390960500000006
 20
421.02653550000002
 11
71.126957500000003
 21
420.93589750000001
  0
LINE
  8
_0-0_0
  6
CONTINUOUS
 62
    7
 10
71.366344500000025
 20
420.79231249999998
 11
71.126957500000003
 21
420.93589750000001
  0
LINE
  8
_0-0_0
  6
CONTINUOUS
 62
    7
 10
71.366344500000025
 20
420.55680849999999
 11
71.113258500000029
 21
420.67457550000006
  0
LINE
  8
_0-0_0
  6
CONTINUOUS
 62
    7
 10
71.366344500000025
 20
420.79231249999998
 11
71.113258500000029
 21
420.67457550000006
  0
LINE
  8
_0-0_0
  6
CONTINUOUS
 62
    7
 10
71.390960500000006
 20
420.32258650000006
 11
71.126957500000003
 21
420.4132535
  0
LINE
  8
_0-0_0
  6
CONTINUOUS
 62
    7
 10
71.366344500000025
 20
420.55680849999999
 11
71.126957500000003
 21
420.4132535
  0
LINE
  8
_0-0_0
  6
CONTINUOUS
 62
    7
 10
71.439926500000013
 20
420.09223950000001
 11
71.167892499999994
 21
420.15480049999996
  0
LINE
  8
_0-0_0
  6
CONTINUOUS
 62
    7
 10
71.390960500000006
 20
420.32258650000006
 11
71.167892499999994
 21
420.15480049999996
  0
LINE
  8
_0-0_0
  6
CONTINUOUS
 62
    7
 10
71.512703499999986
 20
419.86824049999996
 11
71.235618499999987
 21
419.90202350000004
  0
LINE
  8
_0-0_0
  6
CONTINUOUS
 62
    7
 10
71.439926500000013
 20
420.09223950000001
 11
71.235618499999987
 21
419.90202350000004
  0
LINE
  8
_0-0_0
  6
CONTINUOUS
 62
    7
 10
71.608497499999999
 20
419.65309149999996
 11
71.329399500000022
 21
419.65773049999996
  0
LINE
  8
_0-0_0
  6
CONTINUOUS
 62
    7
 10
71.512703499999986
 20
419.86824049999996
 11
71.329399500000022
 21
419.65773049999996
  0
LINE
  8
_0-0_0
  6
CONTINUOUS
 62
    7
 10
71.726249499999994
 20
419.44914249999999
 11
71.448196499999995
 21
419.42457550000006
  0
LINE
  8
_0-0_0
  6
CONTINUOUS
 62
    7
 10
71.608497499999999
 20
419.65309149999996
 11
71.448196499999995
 21
419.42457550000006
  0
LINE
  8
_0-0_0
  6
CONTINUOUS
 62
    7
 10
71.864685500000007
 20
419.25859049999997
 11
71.590721500000029
 21
419.20509349999998
  0
LINE
  8
_0-0_0
  6
CONTINUOUS
 62
    7
 10
71.726249499999994
 20
419.44914249999999
 11
71.590721500000029
 21
419.20509349999998
  0
LINE
  8
_0-0_0
  6
CONTINUOUS
 62
    7
 10
72.022270499999991
 20
419.08357250000006
 11
71.755401500000005
 21
419.00175450000006
  0
LINE
  8
_0-0_0
  6
CONTINUOUS
 62
    7
 10
71.864685500000007
 20
419.25859049999997
 11
71.755401500000005
 21
419.00175450000006
  0
LINE
  8
_0-0_0
  6
CONTINUOUS
 62
    7
 10
72.197288500000013
 20
418.92597950000004
 11
71.940433499999983
 21
418.81669650000003
  0
LINE
  8
_0-0_0
  6
CONTINUOUS
 62
    7
 10
72.022270499999991
 20
419.08357250000006
 11
71.940433499999983
 21
418.81669650000003
  0
LINE
  8
_0-0_0
  6
CONTINUOUS
 62
    7
 10
72.387825500000019
 20
418.78755250000006
 11
72.143798500000003
 21
418.65202350000004
  0
LINE
  8
_0-0_0
  6
CONTINUOUS
 62
    7
 10
72.197288500000013
 20
418.92597950000004
 11
72.143798500000003
 21
418.65202350000004
  0
LINE
  8
_0-0_0
  6
CONTINUOUS
 62
    7
 10
72.591781500000025
 20
418.66981550000003
 11
72.363258500000029
 21
418.50950650000004
  0
LINE
  8
_0-0_0
  6
CONTINUOUS
 62
    7
 10
72.387825500000019
 20
418.78755250000006
 11
72.363258500000029
 21
418.50950650000004
  0
LINE
  8
_0-0_0
  6
CONTINUOUS
 62
    7
 10
72.806930500000021
 20
418.57402049999996
 11
72.596420500000022
 21
418.39070149999998
  0
LINE
  8
_0-0_0
  6
CONTINUOUS
 62
    7
 10
72.591781500000025
 20
418.66981550000003
 11
72.596420500000022
 21
418.39070149999998
  0
LINE
  8
_0-0_0
  6
CONTINUOUS
 62
    7
 10
73.030918499999984
 20
418.5012365
 11
72.840721500000029
 21
418.29692050000006
  0
LINE
  8
_0-0_0
  6
CONTINUOUS
 62
    7
 10
72.806930500000021
 20
418.57402049999996
 11
72.840721500000029
 21
418.29692050000006
  0
LINE
  8
_0-0_0
  6
CONTINUOUS
 62
    7
 10
73.26128349999999
 20
418.45228550000002
 11
73.093483499999991
 21
418.22920250000004
  0
LINE
  8
_0-0_0
  6
CONTINUOUS
 62
    7
 10
73.030918499999984
 20
418.5012365
 11
73.093483499999991
 21
418.22920250000004
  0
LINE
  8
_0-0_0
  6
CONTINUOUS
 62
    7
 10
73.495506500000033
 20
418.42765850000001
 11
73.351940500000012
 21
418.18827850000002
  0
LINE
  8
_0-0_0
  6
CONTINUOUS
 62
    7
 10
73.26128349999999
 20
418.45228550000002
 11
73.351940500000012
 21
418.18827850000002
  0
LINE
  8
_0-0_0
  6
CONTINUOUS
 62
    7
 10
73.731018500000005
 20
418.42765850000001
 11
73.613258500000029
 21
418.17457550000006
  0
LINE
  8
_0-0_0
  6
CONTINUOUS
 62
    7
 10
73.495506500000033
 20
418.42765850000001
 11
73.613258500000029
 21
418.17457550000006
  0
LINE
  8
_0-0_0
  6
CONTINUOUS
 62
    7
 10
73.965240499999993
 20
418.45228550000002
 11
73.874580499999979
 21
418.18827850000002
  0
LINE
  8
_0-0_0
  6
CONTINUOUS
 62
    7
 10
73.731018500000005
 20
418.42765850000001
 11
73.874580499999979
 21
418.18827850000002
  0
LINE
  8
_0-0_0
  6
CONTINUOUS
 62
    7
 10
74.195602500000007
 20
418.5012365
 11
74.13304149999999
 21
418.22920250000004
  0
LINE
  8
_0-0_0
  6
CONTINUOUS
 62
    7
 10
73.965240499999993
 20
418.45228550000002
 11
74.13304149999999
 21
418.22920250000004
  0
LINE
  8
_0-0_0
  6
CONTINUOUS
 62
    7
 10
74.419586500000037
 20
418.57402049999996
 11
74.385803500000009
 21
418.29692050000006
  0
LINE
  8
_0-0_0
  6
CONTINUOUS
 62
    7
 10
74.195602500000007
 20
418.5012365
 11
74.385803500000009
 21
418.29692050000006
  0
LINE
  8
_0-0_0
  6
CONTINUOUS
 62
    7
 10
74.634738500000026
 20
418.66981550000003
 11
74.630104500000016
 21
418.39070149999998
  0
LINE
  8
_0-0_0
  6
CONTINUOUS
 62
    7
 10
74.419586500000037
 20
418.57402049999996
 11
74.630104500000016
 21
418.39070149999998
  0
LINE
  8
_0-0_0
  6
CONTINUOUS
 62
    7
 10
74.754276500000003
 20
418.58595249999996
 11
74.863258500000029
 21
418.50950650000004
  0
LINE
  8
_0-0_0
  6
CONTINUOUS
 62
    7
 10
74.634738500000026
 20
418.66981550000003
 11
74.754276500000003
 21
418.58595249999996
  0
LINE
  8
_0-0_0
  6
CONTINUOUS
 62
    7
 10
74.838699500000018
 20
418.78755250000006
 11
74.863258500000029
 21
418.50950650000004
  0
LINE
  8
_0-0_0
  6
CONTINUOUS
 62
    7
 10
75.029232500000035
 20
418.92597950000004
 11
75.082725500000038
 21
418.65202350000004
  0
LINE
  8
_0-0_0
  6
CONTINUOUS
 62
    7
 10
74.838699500000018
 20
418.78755250000006
 11
75.082725500000038
 21
418.65202350000004
  0
LINE
  8
_0-0_0
  6
CONTINUOUS
 62
    7
 10
75.204250500000001
 20
419.08357250000006
 11
75.286087500000008
 21
418.81669650000003
  0
LINE
  8
_0-0_0
  6
CONTINUOUS
 62
    7
 10
75.029232500000035
 20
418.92597950000004
 11
75.286087500000008
 21
418.81669650000003
  0
LINE
  8
_0-0_0
  6
CONTINUOUS
 62
    7
 10
75.361839500000031
 20
419.25859049999997
 11
75.471122499999979
 21
419.00175450000006
  0
LINE
  8
_0-0_0
  6
CONTINUOUS
 62
    7
 10
75.204250500000001
 20
419.08357250000006
 11
75.471122499999979
 21
419.00175450000006
  0
LINE
  8
_0-0_0
  6
CONTINUOUS
 62
    7
 10
75.500267500000007
 20
419.44914249999999
 11
75.635803500000009
 21
419.20509349999998
  0
LINE
  8
_0-0_0
  6
CONTINUOUS
 62
    7
 10
75.361839500000031
 20
419.25859049999997
 11
75.635803500000009
 21
419.20509349999998
  0
LINE
  8
_0-0_0
  6
CONTINUOUS
 62
    7
 10
75.618026499999985
 20
419.65309149999996
 11
75.778324499999997
 21
419.42457550000006
  0
LINE
  8
_0-0_0
  6
CONTINUOUS
 62
    7
 10
75.500267500000007
 20
419.44914249999999
 11
75.778324499999997
 21
419.42457550000006
  0
LINE
  8
_0-0_0
  6
CONTINUOUS
 62
    7
 10
75.713817500000005
 20
419.86824049999996
 11
75.897125500000016
 21
419.65773049999996
  0
LINE
  8
_0-0_0
  6
CONTINUOUS
 62
    7
 10
75.618026499999985
 20
419.65309149999996
 11
75.897125500000016
 21
419.65773049999996
  0
LINE
  8
_0-0_0
  6
CONTINUOUS
 62
    7
 10
75.786594499999978
 20
420.09223950000001
 11
75.990902500000004
 21
419.90202350000004
  0
LINE
  8
_0-0_0
  6
CONTINUOUS
 62
    7
 10
75.713817500000005
 20
419.86824049999996
 11
75.990902500000004
 21
419.90202350000004
  0
LINE
  8
_0-0_0
  6
CONTINUOUS
 62
    7
 10
75.835559499999988
 20
420.32258650000006
 11
76.05863149999999
 21
420.15480049999996
  0
LINE
  8
_0-0_0
  6
CONTINUOUS
 62
    7
 10
75.786594499999978
 20
420.09223950000001
 11
76.05863149999999
 21
420.15480049999996
  0
LINE
  8
_0-0_0
  6
CONTINUOUS
 62
    7
 10
75.860176500000023
 20
420.55680849999999
 11
76.099563499999988
 21
420.4132535
  0
LINE
  8
_0-0_0
  6
CONTINUOUS
 62
    7
 10
75.835559499999988
 20
420.32258650000006
 11
76.099563499999988
 21
420.4132535
  0
LINE
  8
_0-0_0
  6
CONTINUOUS
 62
    7
 10
75.860176500000023
 20
420.79231249999998
 11
76.113258500000029
 21
420.67457550000006
  0
LINE
  8
_0-0_0
  6
CONTINUOUS
 62
    7
 10
75.860176500000023
 20
420.55680849999999
 11
76.113258500000029
 21
420.67457550000006
  0
LINE
  8
_0-0_0
  6
CONTINUOUS
 62
    7
 10
75.835559499999988
 20
421.02653550000002
 11
76.099563499999988
 21
420.93589750000001
  0
LINE
  8
_0-0_0
  6
CONTINUOUS
 62
    7
 10
75.860176500000023
 20
420.79231249999998
 11
76.099563499999988
 21
420.93589750000001
  0
LINE
  8
_0-0_0
  6
CONTINUOUS
 62
    7
 10
75.786594499999978
 20
421.2569125
 11
76.05863149999999
 21
421.19435150000004
  0
LINE
  8
_0-0_0
  6
CONTINUOUS
 62
    7
 10
75.835559499999988
 20
421.02653550000002
 11
76.05863149999999
 21
421.19435150000004
  0
LINE
  8
_0-0_0
  6
CONTINUOUS
 62
    7
 10
75.713817500000005
 20
421.48091150000005
 11
75.990902500000004
 21
421.44709750000004
  0
LINE
  8
_0-0_0
  6
CONTINUOUS
 62
    7
 10
75.786594499999978
 20
421.2569125
 11
75.990902500000004
 21
421.44709750000004
  0
LINE
  8
_0-0_0
  6
CONTINUOUS
 62
    7
 10
75.618026499999985
 20
421.69606050000004
 11
75.897125500000016
 21
421.69142150000005
  0
LINE
  8
_0-0_0
  6
CONTINUOUS
 62
    7
 10
75.713817500000005
 20
421.48091150000005
 11
75.897125500000016
 21
421.69142150000005
  0
CIRCLE
  8
_0-0_0
  6
CONTINUOUS
 62
    7
 10
67.613262500000019
 20
412.37455750000004
 40
5.25
  0
LINE
  8
_0-0_0
  6
CONTINUOUS
 62
    7
 10
63.500270499999999
 20
405.3000035
 11
63.778324499999997
 21
405.32456950000005
  0
LINE
  8
_0-0_0
  6
CONTINUOUS
 62
    7
 10
63.618026499999985
 20
405.09605450000004
 11
63.778324499999997
 21
405.32456950000005
  0
LINE
  8
_0-0_0
  6
CONTINUOUS
 62
    7
 10
63.361839500000031
 20
405.49055450000003
 11
63.635803500000009
 21
405.54402149999999
  0
LINE
  8
_0-0_0
  6
CONTINUOUS
 62
    7
 10
63.500270499999999
 20
405.3000035
 11
63.635803500000009
 21
405.54402149999999
  0
LINE
  8
_0-0_0
  6
CONTINUOUS
 62
    7
 10
63.204250500000001
 20
405.66557350000005
 11
63.471122499999979
 21
405.74739050000005
  0
LINE
  8
_0-0_0
  6
CONTINUOUS
 62
    7
 10
63.361839500000031
 20
405.49055450000003
 11
63.471122499999979
 21
405.74739050000005
  0
LINE
  8
_0-0_0
  6
CONTINUOUS
 62
    7
 10
63.029232500000035
 20
405.82313550000003
 11
63.286087500000008
 21
405.93241850000004
  0
LINE
  8
_0-0_0
  6
CONTINUOUS
 62
    7
 10
63.204250500000001
 20
405.66557350000005
 11
63.286087500000008
 21
405.93241850000004
  0
LINE
  8
_0-0_0
  6
CONTINUOUS
 62
    7
 10
62.838699500000018
 20
405.96159350000005
 11
63.082721499999991
 21
406.09712249999995
  0
LINE
  8
_0-0_0
  6
CONTINUOUS
 62
    7
 10
63.029232500000035
 20
405.82313550000003
 11
63.082721499999991
 21
406.09712249999995
  0
LINE
  8
_0-0_0
  6
CONTINUOUS
 62
    7
 10
62.634738500000026
 20
406.07933049999997
 11
62.863262500000019
 21
406.23963950000007
  0
LINE
  8
_0-0_0
  6
CONTINUOUS
 62
    7
 10
62.838699500000018
 20
405.96159350000005
 11
62.863262500000019
 21
406.23963950000007
  0
LINE
  8
_0-0_0
  6
CONTINUOUS
 62
    7
 10
62.419590500000027
 20
406.17512550000004
 11
62.630104500000016
 21
406.35844450000002
  0
LINE
  8
_0-0_0
  6
CONTINUOUS
 62
    7
 10
62.634738500000026
 20
406.07933049999997
 11
62.630104500000016
 21
406.35844450000002
  0
LINE
  8
_0-0_0
  6
CONTINUOUS
 62
    7
 10
62.195602500000007
 20
406.24790949999999
 11
62.385803500000009
 21
406.45222450000006
  0
LINE
  8
_0-0_0
  6
CONTINUOUS
 62
    7
 10
62.419590500000027
 20
406.17512550000004
 11
62.385803500000009
 21
406.45222450000006
  0
LINE
  8
_0-0_0
  6
CONTINUOUS
 62
    7
 10
61.965236500000003
 20
406.29685949999998
 11
62.13304149999999
 21
406.51994350000007
  0
LINE
  8
_0-0_0
  6
CONTINUOUS
 62
    7
 10
62.195602500000007
 20
406.24790949999999
 11
62.13304149999999
 21
406.51994350000007
  0
LINE
  8
_0-0_0
  6
CONTINUOUS
 62
    7
 10
61.731018500000005
 20
406.32148749999999
 11
61.874580499999979
 21
406.56086749999997
  0
LINE
  8
_0-0_0
  6
CONTINUOUS
 62
    7
 10
61.965236500000003
 20
406.29685949999998
 11
61.874580499999979
 21
406.56086749999997
  0
LINE
  8
_0-0_0
  6
CONTINUOUS
 62
    7
 10
61.495506500000033
 20
406.32148749999999
 11
61.613262500000019
 21
406.57456950000005
  0
LINE
  8
_0-0_0
  6
CONTINUOUS
 62
    7
 10
61.731018500000005
 20
406.32148749999999
 11
61.613262500000019
 21
406.57456950000005
  0
LINE
  8
_0-0_0
  6
CONTINUOUS
 62
    7
 10
61.26128349999999
 20
406.29685949999998
 11
61.351940500000012
 21
406.56086749999997
  0
LINE
  8
_0-0_0
  6
CONTINUOUS
 62
    7
 10
61.495506500000033
 20
406.32148749999999
 11
61.351940500000012
 21
406.56086749999997
  0
LINE
  8
_0-0_0
  6
CONTINUOUS
 62
    7
 10
61.030918499999984
 20
406.24790949999999
 11
61.093483499999991
 21
406.51994350000007
  0
LINE
  8
_0-0_0
  6
CONTINUOUS
 62
    7
 10
61.26128349999999
 20
406.29685949999998
 11
61.093483499999991
 21
406.51994350000007
  0
LINE
  8
_0-0_0
  6
CONTINUOUS
 62
    7
 10
60.806934500000011
 20
406.17512550000004
 11
60.840721500000029
 21
406.45222450000006
  0
LINE
  8
_0-0_0
  6
CONTINUOUS
 62
    7
 10
61.030918499999984
 20
406.24790949999999
 11
60.840721500000029
 21
406.45222450000006
  0
LINE
  8
_0-0_0
  6
CONTINUOUS
 62
    7
 10
60.591781500000025
 20
406.07933049999997
 11
60.596420500000022
 21
406.35844450000002
  0
LINE
  8
_0-0_0
  6
CONTINUOUS
 62
    7
 10
60.806934500000011
 20
406.17512550000004
 11
60.596420500000022
 21
406.35844450000002
  0
LINE
  8
_0-0_0
  6
CONTINUOUS
 62
    7
 10
60.472244499999988
 20
406.16319250000004
 11
60.363262500000019
 21
406.23963950000007
  0
LINE
  8
_0-0_0
  6
CONTINUOUS
 62
    7
 10
60.591781500000025
 20
406.07933049999997
 11
60.472244499999988
 21
406.16319250000004
  0
LINE
  8
_0-0_0
  6
CONTINUOUS
 62
    7
 10
60.387825500000019
 20
405.96159350000005
 11
60.363262500000019
 21
406.23963950000007
  0
LINE
  8
_0-0_0
  6
CONTINUOUS
 62
    7
 10
60.197288500000013
 20
405.82313550000003
 11
60.143798500000003
 21
406.09712249999995
  0
LINE
  8
_0-0_0
  6
CONTINUOUS
 62
    7
 10
60.387825500000019
 20
405.96159350000005
 11
60.143798500000003
 21
406.09712249999995
  0
LINE
  8
_0-0_0
  6
CONTINUOUS
 62
    7
 10
60.022270499999991
 20
405.66557350000005
 11
59.940433499999983
 21
405.93241850000004
  0
LINE
  8
_0-0_0
  6
CONTINUOUS
 62
    7
 10
60.197288500000013
 20
405.82313550000003
 11
59.940433499999983
 21
405.93241850000004
  0
LINE
  8
_0-0_0
  6
CONTINUOUS
 62
    7
 10
59.864685500000007
 20
405.49055450000003
 11
59.755397500000015
 21
405.74739050000005
  0
LINE
  8
_0-0_0
  6
CONTINUOUS
 62
    7
 10
60.022270499999991
 20
405.66557350000005
 11
59.755397500000015
 21
405.74739050000005
  0
LINE
  8
_0-0_0
  6
CONTINUOUS
 62
    7
 10
59.726253499999984
 20
405.3000035
 11
59.590717499999982
 21
405.54402149999999
  0
LINE
  8
_0-0_0
  6
CONTINUOUS
 62
    7
 10
59.864685500000007
 20
405.49055450000003
 11
59.590717499999982
 21
405.54402149999999
  0
LINE
  8
_0-0_0
  6
CONTINUOUS
 62
    7
 10
59.608497499999999
 20
405.09605450000004
 11
59.448196499999995
 21
405.32456950000005
  0
LINE
  8
_0-0_0
  6
CONTINUOUS
 62
    7
 10
59.726253499999984
 20
405.3000035
 11
59.448196499999995
 21
405.32456950000005
  0
LINE
  8
_0-0_0
  6
CONTINUOUS
 62
    7
 10
59.512706500000036
 20
404.88090550000004
 11
59.329399500000022
 21
405.09141550000004
  0
LINE
  8
_0-0_0
  6
CONTINUOUS
 62
    7
 10
59.608497499999999
 20
405.09605450000004
 11
59.329399500000022
 21
405.09141550000004
  0
LINE
  8
_0-0_0
  6
CONTINUOUS
 62
    7
 10
59.439926500000013
 20
404.65690649999999
 11
59.235618499999987
 21
404.84712249999995
  0
LINE
  8
_0-0_0
  6
CONTINUOUS
 62
    7
 10
59.512706500000036
 20
404.88090550000004
 11
59.235618499999987
 21
404.84712249999995
  0
LINE
  8
_0-0_0
  6
CONTINUOUS
 62
    7
 10
59.390960500000006
 20
404.42655950000005
 11
59.167892499999994
 21
404.59434550000003
  0
LINE
  8
_0-0_0
  6
CONTINUOUS
 62
    7
 10
59.439926500000013
 20
404.65690649999999
 11
59.167892499999994
 21
404.59434550000003
  0
LINE
  8
_0-0_0
  6
CONTINUOUS
 62
    7
 10
59.390960500000006
 20
404.42655950000005
 11
59.126957500000003
 21
404.3358915
  0
LINE
  8
_0-0_0
  6
CONTINUOUS
 62
    7
 10
59.366344500000025
 20
404.19233750000001
 11
59.126957500000003
 21
404.3358915
  0
LINE
  8
_0-0_0
  6
CONTINUOUS
 62
    7
 10
59.366344500000025
 20
403.95680249999998
 11
59.113262500000019
 21
404.07456950000005
  0
LINE
  8
_0-0_0
  6
CONTINUOUS
 62
    7
 10
59.366344500000025
 20
404.19233750000001
 11
59.113262500000019
 21
404.07456950000005
  0
LINE
  8
_0-0_0
  6
CONTINUOUS
 62
    7
 10
59.390960500000006
 20
403.72258050000005
 11
59.126957500000003
 21
403.81324749999999
  0
LINE
  8
_0-0_0
  6
CONTINUOUS
 62
    7
 10
59.366344500000025
 20
403.95680249999998
 11
59.126957500000003
 21
403.81324749999999
  0
LINE
  8
_0-0_0
  6
CONTINUOUS
 62
    7
 10
59.439926500000013
 20
403.4922335
 11
59.167892499999994
 21
403.55479449999996
  0
LINE
  8
_0-0_0
  6
CONTINUOUS
 62
    7
 10
59.390960500000006
 20
403.72258050000005
 11
59.167892499999994
 21
403.55479449999996
  0
LINE
  8
_0-0_0
  6
CONTINUOUS
 62
    7
 10
59.512706500000036
 20
403.26823450000006
 11
59.235618499999987
 21
403.30201750000003
  0
LINE
  8
_0-0_0
  6
CONTINUOUS
 62
    7
 10
59.439926500000013
 20
403.4922335
 11
59.235618499999987
 21
403.30201750000003
  0
LINE
  8
_0-0_0
  6
CONTINUOUS
 62
    7
 10
59.608497499999999
 20
403.05308550000007
 11
59.329399500000022
 21
403.05772450000006
  0
LINE
  8
_0-0_0
  6
CONTINUOUS
 62
    7
 10
59.512706500000036
 20
403.26823450000006
 11
59.329399500000022
 21
403.05772450000006
  0
LINE
  8
_0-0_0
  6
CONTINUOUS
 62
    7
 10
59.726253499999984
 20
402.84913649999999
 11
59.448196499999995
 21
402.82456950000005
  0
LINE
  8
_0-0_0
  6
CONTINUOUS
 62
    7
 10
59.608497499999999
 20
403.05308550000007
 11
59.448196499999995
 21
402.82456950000005
  0
LINE
  8
_0-0_0
  6
CONTINUOUS
 62
    7
 10
59.864685500000007
 20
402.65858449999996
 11
59.590717499999982
 21
402.60511750000001
  0
LINE
  8
_0-0_0
  6
CONTINUOUS
 62
    7
 10
59.726253499999984
 20
402.84913649999999
 11
59.590717499999982
 21
402.60511750000001
  0
LINE
  8
_0-0_0
  6
CONTINUOUS
 62
    7
 10
60.022270499999991
 20
402.48359649999998
 11
59.755397500000015
 21
402.40174850000005
  0
LINE
  8
_0-0_0
  6
CONTINUOUS
 62
    7
 10
59.864685500000007
 20
402.65858449999996
 11
59.755397500000015
 21
402.40174850000005
  0
LINE
  8
_0-0_0
  6
CONTINUOUS
 62
    7
 10
60.197288500000013
 20
402.32600450000007
 11
59.940433499999983
 21
402.21672050000006
  0
LINE
  8
_0-0_0
  6
CONTINUOUS
 62
    7
 10
60.022270499999991
 20
402.48359649999998
 11
59.940433499999983
 21
402.21672050000006
  0
LINE
  8
_0-0_0
  6
CONTINUOUS
 62
    7
 10
60.387825500000019
 20
402.18754550000006
 11
60.143798500000003
 21
402.05201750000003
  0
LINE
  8
_0-0_0
  6
CONTINUOUS
 62
    7
 10
60.197288500000013
 20
402.32600450000007
 11
60.143798500000003
 21
402.05201750000003
  0
LINE
  8
_0-0_0
  6
CONTINUOUS
 62
    7
 10
60.591781500000025
 20
402.06980950000002
 11
60.363262500000019
 21
401.90950050000004
  0
LINE
  8
_0-0_0
  6
CONTINUOUS
 62
    7
 10
60.387825500000019
 20
402.18754550000006
 11
60.363262500000019
 21
401.90950050000004
  0
LINE
  8
_0-0_0
  6
CONTINUOUS
 62
    7
 10
60.806934500000011
 20
401.97401450000007
 11
60.596420500000022
 21
401.79069549999997
  0
LINE
  8
_0-0_0
  6
CONTINUOUS
 62
    7
 10
60.591781500000025
 20
402.06980950000002
 11
60.596420500000022
 21
401.79069549999997
  0
LINE
  8
_0-0_0
  6
CONTINUOUS
 62
    7
 10
61.030918499999984
 20
401.9012295
 11
60.840721500000029
 21
401.69691450000005
  0
LINE
  8
_0-0_0
  6
CONTINUOUS
 62
    7
 10
60.806934500000011
 20
401.97401450000007
 11
60.840721500000029
 21
401.69691450000005
  0
LINE
  8
_0-0_0
  6
CONTINUOUS
 62
    7
 10
61.26128349999999
 20
401.85227950000001
 11
61.093483499999991
 21
401.62919650000003
  0
LINE
  8
_0-0_0
  6
CONTINUOUS
 62
    7
 10
61.030918499999984
 20
401.9012295
 11
61.093483499999991
 21
401.62919650000003
  0
LINE
  8
_0-0_0
  6
CONTINUOUS
 62
    7
 10
61.495506500000033
 20
401.8276525
 11
61.351940500000012
 21
401.58827250000002
  0
LINE
  8
_0-0_0
  6
CONTINUOUS
 62
    7
 10
61.26128349999999
 20
401.85227950000001
 11
61.351940500000012
 21
401.58827250000002
  0
LINE
  8
_0-0_0
  6
CONTINUOUS
 62
    7
 10
61.731018500000005
 20
401.8276525
 11
61.613262500000019
 21
401.57456950000005
  0
LINE
  8
_0-0_0
  6
CONTINUOUS
 62
    7
 10
61.495506500000033
 20
401.8276525
 11
61.613262500000019
 21
401.57456950000005
  0
LINE
  8
_0-0_0
  6
CONTINUOUS
 62
    7
 10
61.965236500000003
 20
401.85227950000001
 11
61.874580499999979
 21
401.58827250000002
  0
LINE
  8
_0-0_0
  6
CONTINUOUS
 62
    7
 10
61.731018500000005
 20
401.8276525
 11
61.874580499999979
 21
401.58827250000002
  0
LINE
  8
_0-0_0
  6
CONTINUOUS
 62
    7
 10
62.195602500000007
 20
401.9012295
 11
62.13304149999999
 21
401.62919650000003
  0
LINE
  8
_0-0_0
  6
CONTINUOUS
 62
    7
 10
61.965236500000003
 20
401.85227950000001
 11
62.13304149999999
 21
401.62919650000003
  0
LINE
  8
_0-0_0
  6
CONTINUOUS
 62
    7
 10
62.419590500000027
 20
401.97401450000007
 11
62.385803500000009
 21
401.69691450000005
  0
LINE
  8
_0-0_0
  6
CONTINUOUS
 62
    7
 10
62.195602500000007
 20
401.9012295
 11
62.385803500000009
 21
401.69691450000005
  0
LINE
  8
_0-0_0
  6
CONTINUOUS
 62
    7
 10
62.634738500000026
 20
402.06980950000002
 11
62.630104500000016
 21
401.79069549999997
  0
LINE
  8
_0-0_0
  6
CONTINUOUS
 62
    7
 10
62.419590500000027
 20
401.97401450000007
 11
62.630104500000016
 21
401.79069549999997
  0
LINE
  8
_0-0_0
  6
CONTINUOUS
 62
    7
 10
62.754276500000003
 20
401.98594650000007
 11
62.863262500000019
 21
401.90950050000004
  0
LINE
  8
_0-0_0
  6
CONTINUOUS
 62
    7
 10
62.634738500000026
 20
402.06980950000002
 11
62.754276500000003
 21
401.98594650000007
  0
LINE
  8
_0-0_0
  6
CONTINUOUS
 62
    7
 10
62.838699500000018
 20
402.18754550000006
 11
62.863262500000019
 21
401.90950050000004
  0
LINE
  8
_0-0_0
  6
CONTINUOUS
 62
    7
 10
63.029232500000035
 20
402.32600450000007
 11
63.082721499999991
 21
402.05201750000003
  0
LINE
  8
_0-0_0
  6
CONTINUOUS
 62
    7
 10
62.838699500000018
 20
402.18754550000006
 11
63.082721499999991
 21
402.05201750000003
  0
LINE
  8
_0-0_0
  6
CONTINUOUS
 62
    7
 10
63.204250500000001
 20
402.48359649999998
 11
63.286087500000008
 21
402.21672050000006
  0
LINE
  8
_0-0_0
  6
CONTINUOUS
 62
    7
 10
63.029232500000035
 20
402.32600450000007
 11
63.286087500000008
 21
402.21672050000006
  0
LINE
  8
_0-0_0
  6
CONTINUOUS
 62
    7
 10
63.361839500000031
 20
402.65858449999996
 11
63.471122499999979
 21
402.40174850000005
  0
LINE
  8
_0-0_0
  6
CONTINUOUS
 62
    7
 10
63.204250500000001
 20
402.48359649999998
 11
63.471122499999979
 21
402.40174850000005
  0
LINE
  8
_0-0_0
  6
CONTINUOUS
 62
    7
 10
63.500270499999999
 20
402.84913649999999
 11
63.635803500000009
 21
402.60511750000001
  0
LINE
  8
_0-0_0
  6
CONTINUOUS
 62
    7
 10
63.361839500000031
 20
402.65858449999996
 11
63.635803500000009
 21
402.60511750000001
  0
LINE
  8
_0-0_0
  6
CONTINUOUS
 62
    7
 10
63.618026499999985
 20
403.05308550000007
 11
63.778324499999997
 21
402.82456950000005
  0
LINE
  8
_0-0_0
  6
CONTINUOUS
 62
    7
 10
63.500270499999999
 20
402.84913649999999
 11
63.778324499999997
 21
402.82456950000005
  0
LINE
  8
_0-0_0
  6
CONTINUOUS
 62
    7
 10
63.713817500000005
 20
403.26823450000006
 11
63.897125500000016
 21
403.05772450000006
  0
LINE
  8
_0-0_0
  6
CONTINUOUS
 62
    7
 10
63.618026499999985
 20
403.05308550000007
 11
63.897125500000016
 21
403.05772450000006
  0
LINE
  8
_0-0_0
  6
CONTINUOUS
 62
    7
 10
63.786594499999978
 20
403.4922335
 11
63.990902500000004
 21
403.30201750000003
  0
LINE
  8
_0-0_0
  6
CONTINUOUS
 62
    7
 10
63.713817500000005
 20
403.26823450000006
 11
63.990902500000004
 21
403.30201750000003
  0
LINE
  8
_0-0_0
  6
CONTINUOUS
 62
    7
 10
63.835559499999988
 20
403.72258050000005
 11
64.05863149999999
 21
403.55479449999996
  0
LINE
  8
_0-0_0
  6
CONTINUOUS
 62
    7
 10
63.786594499999978
 20
403.4922335
 11
64.05863149999999
 21
403.55479449999996
  0
LINE
  8
_0-0_0
  6
CONTINUOUS
 62
    7
 10
63.860176500000023
 20
403.95680249999998
 11
64.099563499999988
 21
403.81324749999999
  0
LINE
  8
_0-0_0
  6
CONTINUOUS
 62
    7
 10
63.835559499999988
 20
403.72258050000005
 11
64.099563499999988
 21
403.81324749999999
  0
LINE
  8
_0-0_0
  6
CONTINUOUS
 62
    7
 10
63.860176500000023
 20
404.19233750000001
 11
64.113262500000019
 21
404.07456950000005
  0
LINE
  8
_0-0_0
  6
CONTINUOUS
 62
    7
 10
63.860176500000023
 20
403.95680249999998
 11
64.113262500000019
 21
404.07456950000005
  0
LINE
  8
_0-0_0
  6
CONTINUOUS
 62
    7
 10
63.835559499999988
 20
404.42655950000005
 11
64.099563499999988
 21
404.3358915
  0
LINE
  8
_0-0_0
  6
CONTINUOUS
 62
    7
 10
63.860176500000023
 20
404.19233750000001
 11
64.099563499999988
 21
404.3358915
  0
LINE
  8
_0-0_0
  6
CONTINUOUS
 62
    7
 10
63.786594499999978
 20
404.65690649999999
 11
64.05863149999999
 21
404.59434550000003
  0
LINE
  8
_0-0_0
  6
CONTINUOUS
 62
    7
 10
63.835559499999988
 20
404.42655950000005
 11
64.05863149999999
 21
404.59434550000003
  0
LINE
  8
_0-0_0
  6
CONTINUOUS
 62
    7
 10
63.713817500000005
 20
404.88090550000004
 11
63.990902500000004
 21
404.84712249999995
  0
LINE
  8
_0-0_0
  6
CONTINUOUS
 62
    7
 10
63.786594499999978
 20
404.65690649999999
 11
63.990902500000004
 21
404.84712249999995
  0
LINE
  8
_0-0_0
  6
CONTINUOUS
 62
    7
 10
63.618026499999985
 20
405.09605450000004
 11
63.897125500000016
 21
405.09141550000004
  0
LINE
  8
_0-0_0
  6
CONTINUOUS
 62
    7
 10
63.713817500000005
 20
404.88090550000004
 11
63.897125500000016
 21
405.09141550000004
  0
CIRCLE
  8
_0-0_0
  6
CONTINUOUS
 62
    7
 10
73.613258500000029
 20
420.67457550000006
 40
2
  0
CIRCLE
  8
_0-0_0
  6
CONTINUOUS
 62
    7
 10
61.613262500000019
 20
404.07456950000005
 40
2
  0
LINE
  8
_0-0_0
  6
CONTINUOUS
 62
    7
 10
74.195369500000027
 20
419.67457550000006
 11
73.031150500000024
 21
419.67457550000006
  0
LINE
  8
_0-0_0
  6
CONTINUOUS
 62
    7
 10
73.031150500000024
 20
419.67457550000006
 11
72.46326049999999
 21
420.67457550000006
  0
LINE
  8
_0-0_0
  6
CONTINUOUS
 62
    7
 10
72.46326049999999
 20
420.67457550000006
 11
73.031150500000024
 21
421.67457550000006
  0
LINE
  8
_0-0_0
  6
CONTINUOUS
 62
    7
 10
73.031150500000024
 20
421.67457550000006
 11
74.195369500000027
 21
421.67457550000006
  0
LINE
  8
_0-0_0
  6
CONTINUOUS
 62
    7
 10
74.195369500000027
 20
421.67457550000006
 11
74.763259500000004
 21
420.67457550000006
  0
LINE
  8
_0-0_0
  6
CONTINUOUS
 62
    7
 10
74.763259500000004
 20
420.67457550000006
 11
74.195369500000027
 21
419.67457550000006
  0
CIRCLE
  8
_0-0_0
  6
CONTINUOUS
 62
    7
 10
67.613262500000019
 20
412.37455750000004
 40
5
  0
LINE
  8
_0-0_0
  6
CONTINUOUS
 62
    7
 10
62.195369500000027
 20
403.07456950000005
 11
61.031150500000024
 21
403.07456950000005
  0
LINE
  8
_0-0_0
  6
CONTINUOUS
 62
    7
 10
61.031150500000024
 20
403.07456950000005
 11
60.46326049999999
 21
404.07456950000005
  0
LINE
  8
_0-0_0
  6
CONTINUOUS
 62
    7
 10
60.46326049999999
 20
404.07456950000005
 11
61.031150500000024
 21
405.07456950000005
  0
LINE
  8
_0-0_0
  6
CONTINUOUS
 62
    7
 10
61.031150500000024
 20
405.07456950000005
 11
62.195369500000027
 21
405.07456950000005
  0
LINE
  8
_0-0_0
  6
CONTINUOUS
 62
    7
 10
62.195369500000027
 20
405.07456950000005
 11
62.763259500000004
 21
404.07456950000005
  0
LINE
  8
_0-0_0
  6
CONTINUOUS
 62
    7
 10
62.763259500000004
 20
404.07456950000005
 11
62.195369500000027
 21
403.07456950000005
  0
CIRCLE
  8
_0-0_0
  6
CONTINUOUS
 62
    7
 10
67.613262500000019
 20
412.37455750000004
 40
4.5381200000000002
  0
CIRCLE
  8
_0-0_0
  6
CONTINUOUS
 62
    7
 10
67.613262500000019
 20
412.37455750000004
 40
4
  0
LINE
  8
_0-0_0
  6
CONTINUOUS
 62
    7
 10
59.4806825
 20
422.32987950000006
 11
58.813263500000005
 21
422.32987950000006
  0
ARC
  8
_0-0_0
  6
CONTINUOUS
 62
    7
 10
75.613258500000029
 20
422.79957550000006
 40
0.2
 50
179.94055499999999
 51
269.99997000000002
  0
ARC
  8
_0-0_0
  6
CONTINUOUS
 62
    7
 10
74.113258500000029
 20
403.57456950000005
 40
2
 50
269.99999700000001
 51
273.84026499999999
  0
ARC
  8
_0-0_0
  6
CONTINUOUS
 62
    7
 10
61.113262500000019
 20
421.17457550000006
 40
2
 50
90.000003000000007
 51
93.840255999999997
  0
LINE
  8
_0-0_0
  6
CONTINUOUS
 62
    7
 10
75.913261499999976
 20
422.59956350000004
 11
75.613258500000029
 21
422.59956350000004
  0
LINE
  8
_0-0_0
  6
CONTINUOUS
 62
    7
 10
75.913261499999976
 20
425.54957550000006
 11
75.613258500000029
 21
425.54957550000006
  0
ARC
  8
_0-0_0
  6
CONTINUOUS
 62
    7
 10
59.613262500000019
 20
422.79963650000002
 40
0.2
 50
270.00002499999994
 51
0.0594439999999606
  0
ARC
  8
_0-0_0
  6
CONTINUOUS
 62
    7
 10
75.913227500000005
 20
422.79960649999998
 40
0.200055
 50
270.00964199999999
 51
1.3705509999999435
  0
ARC
  8
_0-0_0
  6
CONTINUOUS
 62
    7
 10
75.913261499999976
 20
425.34956350000004
 40
0.2
 50
359.91222800000003
 51
89.999948000000003
  0
LINE
  8
_0-0_0
  6
CONTINUOUS
 62
    7
 10
59.313263500000005
 20
422.59965550000004
 11
59.613262500000019
 21
422.59965550000004
  0
ARC
  8
_0-0_0
  6
CONTINUOUS
 62
    7
 10
59.313293499999986
 20
422.79969849999998
 40
0.200055
 50
178.629446
 51
269.99035300000003
  0
LINE
  8
_0-0_0
  6
CONTINUOUS
 62
    7
 10
76.313263500000005
 20
428.07463050000001
 11
76.313263500000005
 21
441.27464350000002
  0
ARC
  8
_0-0_0
  6
CONTINUOUS
 62
    7
 10
75.813263500000005
 20
428.07463050000001
 40
0.5
 50
269.99999700000001
 51
0
  0
ARC
  8
_0-0_0
  6
CONTINUOUS
 62
    7
 10
76.254684499999996
 20
441.47465550000004
 40
0.1
 50
135
 51
225
  0
LINE
  8
_0-0_0
  6
CONTINUOUS
 62
    7
 10
76.183971499999984
 20
441.40394649999996
 11
76.313263500000005
 21
441.27464350000002
  0
LINE
  8
_0-0_0
  6
CONTINUOUS
 62
    7
 10
75.813263500000005
 20
427.57463050000001
 11
73.913261499999976
 21
427.57463050000001
  0
ARC
  8
_0-0_0
  6
CONTINUOUS
 62
    7
 10
73.913261499999976
 20
428.07463050000001
 40
0.5
 50
233.12990600000001
 51
269.99999700000001
  0
ARC
  8
_0-0_0
  6
CONTINUOUS
 62
    7
 10
61.21326049999999
 20
428.07463050000001
 40
0.5
 50
269.99999700000001
 51
306.87009999999998
  0
LINE
  8
_0-0_0
  6
CONTINUOUS
 62
    7
 10
61.21326049999999
 20
427.57463050000001
 11
59.313263500000005
 21
427.57463050000001
  0
ARC
  8
_0-0_0
  6
CONTINUOUS
 62
    7
 10
59.313263500000005
 20
428.07463050000001
 40
0.5
 50
180.00000900000003
 51
269.99999700000001
  0
LINE
  8
_0-0_0
  6
CONTINUOUS
 62
    7
 10
58.813263500000005
 20
437.5096585
 11
58.813263500000005
 21
428.07463050000001
  0
LINE
  8
_0-0_0
  6
CONTINUOUS
 62
    7
 10
58.813263500000005
 20
437.5096585
 11
59.513259500000004
 21
437.5096585
  0
LINE
  8
_0-0_0
  6
CONTINUOUS
 62
    7
 10
75.513259500000004
 20
456.07463050000001
 11
75.719291499999997
 21
456.07463050000001
  0
LINE
  8
_0-0_0
  6
CONTINUOUS
 62
    7
 10
75.719291499999997
 20
456.07463050000001
 11
76.313263500000005
 21
455.48066749999998
  0
LINE
  8
_0-0_0
  6
CONTINUOUS
 62
    7
 10
76.313263500000005
 20
450.47465550000004
 11
76.313263500000005
 21
455.48066749999998
  0
LINE
  8
_0-0_0
  6
CONTINUOUS
 62
    7
 10
76.183971499999984
 20
450.34535249999999
 11
76.313263500000005
 21
450.47465550000004
  0
ARC
  8
_0-0_0
  6
CONTINUOUS
 62
    7
 10
76.254684499999996
 20
450.27464350000002
 40
0.1
 50
135
 51
225
  0
LINE
  8
_0-0_0
  6
CONTINUOUS
 62
    7
 10
76.183971499999984
 20
450.20393350000006
 11
76.313263500000005
 21
450.07463050000001
  0
LINE
  8
_0-0_0
  6
CONTINUOUS
 62
    7
 10
76.313263500000005
 20
449.37464950000003
 11
76.313263500000005
 21
450.07463050000001
  0
LINE
  8
_0-0_0
  6
CONTINUOUS
 62
    7
 10
76.183971499999984
 20
449.24534649999998
 11
76.313263500000005
 21
449.37464950000003
  0
ARC
  8
_0-0_0
  6
CONTINUOUS
 62
    7
 10
76.254684499999996
 20
449.17463650000002
 40
0.1
 50
135
 51
225
  0
LINE
  8
_0-0_0
  6
CONTINUOUS
 62
    7
 10
76.183971499999984
 20
449.10392750000005
 11
76.313263500000005
 21
448.97465550000004
  0
LINE
  8
_0-0_0
  6
CONTINUOUS
 62
    7
 10
76.313263500000005
 20
448.27464350000002
 11
76.313263500000005
 21
448.97465550000004
  0
LINE
  8
_0-0_0
  6
CONTINUOUS
 62
    7
 10
76.183971499999984
 20
448.14534049999997
 11
76.313263500000005
 21
448.27464350000002
  0
ARC
  8
_0-0_0
  6
CONTINUOUS
 62
    7
 10
76.254684499999996
 20
448.07463050000001
 40
0.1
 50
135
 51
225
  0
LINE
  8
_0-0_0
  6
CONTINUOUS
 62
    7
 10
76.183971499999984
 20
448.00392150000005
 11
76.313263500000005
 21
447.87464950000003
  0
LINE
  8
_0-0_0
  6
CONTINUOUS
 62
    7
 10
76.313263500000005
 20
447.17463650000002
 11
76.313263500000005
 21
447.87464950000003
  0
LINE
  8
_0-0_0
  6
CONTINUOUS
 62
    7
 10
76.183971499999984
 20
447.04536450000001
 11
76.313263500000005
 21
447.17463650000002
  0
ARC
  8
_0-0_0
  6
CONTINUOUS
 62
    7
 10
76.254684499999996
 20
446.97465550000004
 40
0.1
 50
135
 51
225
  0
LINE
  8
_0-0_0
  6
CONTINUOUS
 62
    7
 10
76.183971499999984
 20
446.90394649999996
 11
76.313263500000005
 21
446.77464350000002
  0
LINE
  8
_0-0_0
  6
CONTINUOUS
 62
    7
 10
76.313263500000005
 20
446.07463050000001
 11
76.313263500000005
 21
446.77464350000002
  0
LINE
  8
_0-0_0
  6
CONTINUOUS
 62
    7
 10
76.183971499999984
 20
445.9453585
 11
76.313263500000005
 21
446.07463050000001
  0
ARC
  8
_0-0_0
  6
CONTINUOUS
 62
    7
 10
76.254684499999996
 20
445.87464950000003
 40
0.1
 50
135
 51
225
  0
LINE
  8
_0-0_0
  6
CONTINUOUS
 62
    7
 10
76.183971499999984
 20
445.80393949999996
 11
76.313263500000005
 21
445.67463650000002
  0
LINE
  8
_0-0_0
  6
CONTINUOUS
 62
    7
 10
76.313263500000005
 20
444.97465550000004
 11
76.313263500000005
 21
445.67463650000002
  0
LINE
  8
_0-0_0
  6
CONTINUOUS
 62
    7
 10
76.183971499999984
 20
444.84535249999999
 11
76.313263500000005
 21
444.97465550000004
  0
ARC
  8
_0-0_0
  6
CONTINUOUS
 62
    7
 10
76.254684499999996
 20
444.77464350000002
 40
0.1
 50
135
 51
225
  0
LINE
  8
_0-0_0
  6
CONTINUOUS
 62
    7
 10
76.183971499999984
 20
444.70393350000006
 11
76.313263500000005
 21
444.57463050000001
  0
LINE
  8
_0-0_0
  6
CONTINUOUS
 62
    7
 10
76.313263500000005
 20
443.87464950000003
 11
76.313263500000005
 21
444.57463050000001
  0
LINE
  8
_0-0_0
  6
CONTINUOUS
 62
    7
 10
76.183971499999984
 20
443.74534649999998
 11
76.313263500000005
 21
443.87464950000003
  0
ARC
  8
_0-0_0
  6
CONTINUOUS
 62
    7
 10
76.254684499999996
 20
443.67463650000002
 40
0.1
 50
135
 51
225
  0
LINE
  8
_0-0_0
  6
CONTINUOUS
 62
    7
 10
76.183971499999984
 20
443.60392750000005
 11
76.313263500000005
 21
443.47465550000004
  0
LINE
  8
_0-0_0
  6
CONTINUOUS
 62
    7
 10
76.313263500000005
 20
442.77464350000002
 11
76.313263500000005
 21
443.47465550000004
  0
LINE
  8
_0-0_0
  6
CONTINUOUS
 62
    7
 10
76.183971499999984
 20
442.64534049999997
 11
76.313263500000005
 21
442.77464350000002
  0
ARC
  8
_0-0_0
  6
CONTINUOUS
 62
    7
 10
76.254684499999996
 20
442.57466150000005
 40
0.1
 50
135
 51
225
  0
LINE
  8
_0-0_0
  6
CONTINUOUS
 62
    7
 10
76.183971499999984
 20
442.50392150000005
 11
76.313263500000005
 21
442.37464950000003
  0
LINE
  8
_0-0_0
  6
CONTINUOUS
 62
    7
 10
76.313263500000005
 20
441.67463650000002
 11
76.313263500000005
 21
442.37464950000003
  0
LINE
  8
_0-0_0
  6
CONTINUOUS
 62
    7
 10
76.183971499999984
 20
441.54536450000001
 11
76.313263500000005
 21
441.67463650000002
  0
LINE
  8
_0-0_0
  6
CONTINUOUS
 62
    7
 10
76.313263500000005
 20
433.57466150000005
 11
76.413261499999976
 21
433.57466150000005
  0
LINE
  8
_0-0_0
  6
CONTINUOUS
 62
    7
 10
76.413261499999976
 20
433.07466150000005
 11
76.413261499999976
 21
433.57466150000005
  0
LINE
  8
_0-0_0
  6
CONTINUOUS
 62
    7
 10
76.413261499999976
 20
433.07466150000005
 11
76.413261499999976
 21
429.07463050000001
  0
LINE
  8
_0-0_0
  6
CONTINUOUS
 62
    7
 10
76.313263500000005
 20
428.57463050000001
 11
76.413261499999976
 21
428.57463050000001
  0
LINE
  8
_0-0_0
  6
CONTINUOUS
 62
    7
 10
76.413261499999976
 20
428.57463050000001
 11
76.413261499999976
 21
429.07463050000001
  0
LINE
  8
_0-0_0
  6
CONTINUOUS
 62
    7
 10
58.813263500000005
 20
437.57466150000005
 11
58.813263500000005
 21
437.5096585
  0
LINE
  8
_0-0_0
  6
CONTINUOUS
 62
    7
 10
75.313263500000005
 20
456.37464950000003
 11
75.313263500000005
 21
456.27464350000002
  0
LINE
  8
_0-0_0
  6
CONTINUOUS
 62
    7
 10
58.71326049999999
 20
437.57466150000005
 11
59.513259500000004
 21
437.57466150000005
  0
LINE
  8
_0-0_0
  6
CONTINUOUS
 62
    7
 10
59.21326049999999
 20
459.37464950000003
 11
59.21326049999999
 21
455.15309149999996
  0
LINE
  8
_0-0_0
  6
CONTINUOUS
 62
    7
 10
60.313263500000005
 20
459.37464950000003
 11
60.313263500000005
 21
456.37464950000003
  0
LINE
  8
_0-0_0
  6
CONTINUOUS
 62
    7
 10
59.21326049999999
 20
455.15309149999996
 11
59.513259500000004
 21
455.15309149999996
  0
ARC
  8
_0-0_0
  6
CONTINUOUS
 62
    7
 10
62.813263500000005
 20
456.37464950000003
 40
2.5
 50
90.000003000000007
 51
180.00000900000001
  0
ARC
  8
_0-0_0
  6
CONTINUOUS
 62
    7
 10
72.813263500000005
 20
456.37464950000003
 40
2.5
 50
0
 51
90.000003000000007
  0
LINE
  8
_0-0_0
  6
CONTINUOUS
 62
    7
 10
60.313263500000005
 20
456.27464350000002
 11
60.313263500000005
 21
456.37464950000003
  0
LINE
  8
_0-0_0
  6
CONTINUOUS
 62
    7
 10
72.813263500000005
 20
458.87464950000003
 11
62.813263500000005
 21
458.87464950000003
  0
LINE
  8
_0-0_0
  6
CONTINUOUS
 62
    7
 10
76.513259500000004
 20
429.07463050000001
 11
76.513259500000004
 21
429.20500149999998
  0
LINE
  8
_0-0_0
  6
CONTINUOUS
 62
    7
 10
76.513259500000004
 20
432.70500149999998
 11
76.513259500000004
 21
429.20500149999998
  0
LINE
  8
_0-0_0
  6
CONTINUOUS
 62
    7
 10
76.413261499999976
 20
432.97465550000004
 11
76.513259500000004
 21
432.97465550000004
  0
LINE
  8
_0-0_0
  6
CONTINUOUS
 62
    7
 10
76.513259500000004
 20
432.70500149999998
 11
76.513259500000004
 21
432.97465550000004
  0
LINE
  8
_0-0_0
  6
CONTINUOUS
 62
    7
 10
76.113262500000019
 20
455.47465550000004
 11
75.113262500000019
 21
456.47465550000004
  0
LINE
  8
_0-0_0
  6
CONTINUOUS
 62
    7
 10
76.113258500000029
 20
427.67463650000002
 11
76.113262500000019
 21
455.47465550000004
  0
LINE
  8
_0-0_0
  6
CONTINUOUS
 62
    7
 10
59.513259500000004
 20
427.67463650000002
 11
76.113258500000029
 21
427.67463650000002
  0
LINE
  8
_0-0_0
  6
CONTINUOUS
 62
    7
 10
59.513259500000004
 20
455.47465550000004
 11
59.513259500000004
 21
427.67463650000002
  0
LINE
  8
_0-0_0
  6
CONTINUOUS
 62
    7
 10
58.71326049999999
 20
437.57466150000005
 11
58.71326049999999
 21
454.38746649999996
  0
LINE
  8
_0-0_0
  6
CONTINUOUS
 62
    7
 10
58.71326049999999
 20
458.87464950000003
 11
58.71326049999999
 21
454.38746649999996
  0
ARC
  8
_0-0_0
  6
CONTINUOUS
 62
    7
 10
90.165000500000019
 20
434.39247150000006
 40
37.269466000000001
 50
146.14857699999999
 51
147.55443399999999
  0
ARC
  8
_0-0_0
  6
CONTINUOUS
 62
    7
 10
72.544212500000015
 20
456.07463050000001
 40
2.6000000000000001
 50
8.8498839999999994
 51
90.000002999999992
  0
LINE
  8
_0-0_0
  6
CONTINUOUS
 62
    7
 10
72.544212500000015
 20
458.67463650000002
 11
63.082305500000018
 21
458.67463650000002
  0
ARC
  8
_0-0_0
  6
CONTINUOUS
 62
    7
 10
63.082305500000018
 20
456.07466150000005
 40
2.6000000000000001
 50
90.000003000000007
 51
171.150115
  0
LINE
  8
_0-0_0
  6
CONTINUOUS
 62
    7
 10
59.513259500000004
 20
455.47465550000004
 11
60.513259500000004
 21
456.47465550000004
  0
LINE
  8
_0-0_0
  6
CONTINUOUS
 62
    7
 10
75.113262500000019
 20
455.06044050000003
 11
76.113262500000019
 21
455.47465550000004
  0
ARC
  8
_0-0_0
  6
CONTINUOUS
 62
    7
 10
69.570720499999993
 20
467.26075750000007
 40
12.126564999999999
 50
292.155034
 51
297.19674500000002
  0
LINE
  8
_0-0_0
  6
CONTINUOUS
 62
    7
 10
75.113258500000029
 20
428.67463650000002
 11
76.113258500000029
 21
427.67463650000002
  0
LINE
  8
_0-0_0
  6
CONTINUOUS
 62
    7
 10
60.513259500000004
 20
428.67463650000002
 11
59.513259500000004
 21
427.67463650000002
  0
LINE
  8
_0-0_0
  6
CONTINUOUS
 62
    7
 10
60.513259500000004
 20
455.06044050000003
 11
59.513259500000004
 21
455.47465550000004
  0
ARC
  8
_0-0_0
  6
CONTINUOUS
 62
    7
 10
66.05580150000003
 20
467.26075750000007
 40
12.126567
 50
242.80325699999997
 51
247.84494000000001
  0
CIRCLE
  8
_0-0_0
  6
CONTINUOUS
 62
    7
 10
67.813263500000005
 20
435.87464950000003
 40
2.0670000000000002
  0
LINE
  8
_0-0_0
  6
CONTINUOUS
 62
    7
 10
60.313263500000005
 20
459.37464950000003
 11
59.21326049999999
 21
459.37464950000003
  0
LINE
  8
_0-0_0
  6
CONTINUOUS
 62
    7
 10
76.413261499999976
 20
429.07463050000001
 11
76.513259500000004
 21
429.07463050000001
  0
LINE
  8
_0-0_0
  6
CONTINUOUS
 62
    7
 10
76.413261499999976
 20
429.07463050000001
 11
76.513259500000004
 21
429.07463050000001
  0
LINE
  8
_0-0_0
  6
CONTINUOUS
 62
    7
 10
58.71326049999999
 20
458.87464950000003
 11
59.21326049999999
 21
459.37464950000003
  0
ENDSEC
  0
EOF
