  0
SECTION
  2
HEADER
  9
$ACADVER
  1
AC1009
  9
$INSBASE
 10
0
 20
0
 30
0
  9
$EXTMIN
 10
0
 20
0
  9
$EXTMAX
 10
420.5
 20
297
  9
$LIMMIN
 10
0
 20
0
  9
$LIMMAX
 10
420.5
 20
297
  9
$LTSCALE
 40
0.5
  0
ENDSEC
  0
SECTION
  2
TABLES
  0
TABLE
  2
LTYPE
 70
     9
  0
LTYPE
  2
CONTINUOUS
 70
    64
  3
実線
 72
    65
 73
     0
 40
0.0
  0
LTYPE
  2
DASHED1
 70
    64
  3
--  --  --  --  --  --  --  --  
 72
    65
 73
     2
 40
2.5
 49
1.25
 49
-1.25
  0
LTYPE
  2
DASHED2
 70
    64
  3
----    ----    ----    ----    
 72
    65
 73
     2
 40
5.0
 49
2.5
 49
-2.5
  0
LTYPE
  2
DASHED3
 70
    64
  3
------  ------  ------  ------  
 72
    65
 73
     2
 40
5.0
 49
3.75
 49
-1.25
  0
LTYPE
  2
CENTER1
 70
    64
  3
----- - ----- - ----- - ----- - 
 72
    65
 73
     4
 40
10.0
 49
6.25
 49
-1.25
 49
1.25
 49
-1.25
  0
LTYPE
  2
CENTER2
 70
    64
  3
----------  --  ----------  --  
 72
    65
 73
     4
 40
20.0
 49
12.5
 49
-2.5
 49
2.5
 49
-2.5
  0
LTYPE
  2
PHANTOM1
 70
    64
  3
--- - - --- - - --- - - --- - - 
 72
    65
 73
     6
 40
10.0
 49
3.25
 49
-1.25
 49
1.25
 49
-1.25
 49
1.25
 49
-1.25
  0
LTYPE
  2
PHANTOM2
 70
    64
  3
--------  -  -  --------  -  -  
 72
    65
 73
     6
 40
20.0
 49
10.0
 49
-2.5
 49
1.25
 49
-2.5
 49
1.25
 49
-2.5
  0
LTYPE
  2
DOT
 70
    64
  3
-   -   -   -   -   -   -   -   
 72
    65
 73
     2
 40
2.5
 49
0.625
 49
-1.875
  0
LTYPE
  2
DUMMY
 70
    64
  3
ダミー
 72
    65
 73
     0
 40
0.0
  0
LTYPE
  2
RAND1
 70
    64
  3
ランダム線1
 72
    65
 73
     4
 40
10.0
 49
1.0
 49
-2.0
 49
3.0
 49
-4.0
  0
LTYPE
  2
RAND2
 70
    64
  3
ランダム線2
 72
    65
 73
     4
 40
14.0
 49
2.0
 49
-3.0
 49
4.0
 49
-5.0
  0
LTYPE
  2
RAND3
 70
    64
  3
ランダム線3
 72
    65
 73
     4
 40
18.0
 49
3.0
 49
-4.0
 49
5.0
 49
-6.0
  0
LTYPE
  2
RAND4
 70
    64
  3
ランダム線4
 72
    65
 73
     4
 40
22.0
 49
4.0
 49
-5.0
 49
6.0
 49
-7.0
  0
LTYPE
  2
RAND5
 70
    64
  3
ランダム線5
 72
    65
 73
     4
 40
26.0
 49
5.0
 49
-6.0
 49
7.0
 49
-8.0
  0
LTYPE
  2
LONG1
 70
    64
  3
----------  --  ----------  --  
 72
    65
 73
     4
 40
40.0
 49
32.5
 49
-2.5
 49
2.5
 49
-2.5
  0
LTYPE
  2
LONG2
 70
    64
  3
--------  -  -  --------  -  -  
 72
    65
 73
     6
 40
40.0
 49
30.0
 49
-2.5
 49
1.25
 49
-2.5
 49
1.25
 49
-2.5
  0
LTYPE
  2
LONG3
 70
    64
  3
+++++++++++++++..+++++++++++++++
 72
    65
 73
     2
 40
40.0
 49
37.5
 49
-2.5
  0
LTYPE
  2
LONG4
 70
    64
  3
+++++++++++++++..+++++++++++++++
 72
    65
 73
     2
 40
80.0
 49
75.0
 49
-5.0
  0
LTYPE
  2
LONG5
 70
    64
  3
----------  --  ----------  --  
 72
    65
 73
     4
 40
60.0
 49
37.5
 49
-7.5
 49
7.5
 49
-7.5
  0
LTYPE
  2
dashed
 70
   64
  3
-------   -------------   ------
 72
   65
 73
    2
 40
7.5
 49
6
 49
-1.5
  0
LTYPE
  2
dashed_spaced
 70
   64
  3
----        --------        ----
 72
   65
 73
    2
 40
12
 49
6
 49
-6
  0
LTYPE
  2
long_dashed_dotted
 70
   64
  3
------------- --- --------------
 72
   65
 73
    4
 40
15.25
 49
12
 49
-1.5
 49
0.25
 49
-1.5
  0
LTYPE
  2
long_dashed_double-dotted
 70
   64
  3
----------- --- --- ------------
 72
   65
 73
    6
 40
17
 49
12
 49
-1.5
 49
0.25
 49
-1.5
 49
0.25
 49
-1.5
  0
LTYPE
  2
long_dashed_triplicate-dotted
 70
   64
  3
--------- --- --- --- ----------
 72
   65
 73
    8
 40
18.75
 49
12
 49
-1.5
 49
0.25
 49
-1.5
 49
0.25
 49
-1.5
 49
0.25
 49
-1.5
  0
LTYPE
  2
dotted
 70
   64
  3
   -       -       -       -    
 72
   65
 73
    2
 40
1.75
 49
0.25
 49
-1.5
  0
LTYPE
  2
chain
 70
   64
  3
-------------- -- --------------
 72
   65
 73
    4
 40
18.5
 49
12
 49
-1.5
 49
3.5
 49
-1.5
  0
LTYPE
  2
chain_double_dash
 70
   64
  3
------------ -- -- -------------
 72
   65
 73
    6
 40
23.5
 49
12
 49
-1.5
 49
3.5
 49
-1.5
 49
3.5
 49
-1.5
  0
LTYPE
  2
dashed_dotted
 70
   64
  3
-----------     -     ----------
 72
   65
 73
    4
 40
9.25
 49
6
 49
-1.5
 49
0.25
 49
-1.5
  0
LTYPE
  2
double-dashed_dotted
 70
   64
  3
------   -----------   -   -----
 72
   65
 73
    6
 40
16.75
 49
6
 49
-1.5
 49
6
 49
-1.5
 49
0.25
 49
-1.5
  0
LTYPE
  2
dashed_double-dotted
 70
   64
  3
---------    -    -    ---------
 72
   65
 73
    6
 40
11
 49
6
 49
-1.5
 49
0.25
 49
-1.5
 49
0.25
 49
-1.5
  0
LTYPE
  2
double-dashed_double-dotted
 70
   64
  3
-----   ---------   -   -   ----
 72
   65
 73
    8
 40
18.5
 49
6
 49
-1.5
 49
6
 49
-1.5
 49
0.25
 49
-1.5
 49
0.25
 49
-1.5
  0
LTYPE
  2
dashed_triplicate-dotted
 70
   64
  3
-------    -    -    -    ------
 72
   65
 73
    8
 40
12.75
 49
6
 49
-1.5
 49
0.25
 49
-1.5
 49
0.25
 49
-1.5
 49
0.25
 49
-1.5
  0
LTYPE
  2
double-dashed_triplicate-dotted
 70
   64
  3
-----  ---------  -  -  -  -----
 72
   65
 73
   10
 40
20.25
 49
6
 49
-1.5
 49
6
 49
-1.5
 49
0.25
 49
-1.5
 49
0.25
 49
-1.5
 49
0.25
 49
-1.5
  0
LTYPE
  2
undefined
 70
   64
  3
--------------------------------
 72
   65
 73
    0
 40
0
  0
ENDTAB
  0
TABLE
  2
STYLE
  5
3
100
AcDbSymbolTable
 70
     1
  0
STYLE
  5
10
100
AcDbSymbolTableRecord
100
AcDbTextStyleTableRecord
  2
STANDARD
 70
     0
 40
0.0
 41
1.0
 50
0.0
 71
     0
 42
0.2
  3
txt
  4
bigfont.shx
  0
STYLE
  5
26
100
AcDbSymbolTableRecord
100
AcDbTextStyleTableRecord
  2
TATEGAKI
 70
    68
 40
0.0
 41
1.0
 50
0.0
 71
     0
 42
1.0
  3
txt
  4
bigfont.shx
  0
ENDTAB
  0
TABLE
  2
LAYER
 70
    2
  0
LAYER
  2
_0-0_0
 70
   64
 62
    7
  6
CONTINUOUS
  0
LAYER
  2
ADD_LINE
 70
   64
 62
    7
  6
CONTINUOUS
  0
ENDTAB
  0
ENDSEC
  0
SECTION
  2
BLOCKS
  0
ENDSEC
  0
SECTION
  2
ENTITIES
  0
LINE
  8
_0-0_0
  6
CONTINUOUS
 62
    7
 10
30.428916500000014
 20
237.4251405
 11
30.428916500000014
 21
237.4241485
  0
LINE
  8
_0-0_0
  6
CONTINUOUS
 62
    7
 10
183.24142449999999
 20
198.4942015
 11
181.94142150000002
 21
194.9942015
  0
ARC
  8
_0-0_0
  6
CONTINUOUS
 62
    7
 10
183.4289095
 20
198.4245755
 40
0.2
 50
20.376434999999997
 51
159.62357000000003
  0
ARC
  8
_0-0_0
  6
CONTINUOUS
 62
    7
 10
221.4289095
 20
201.3245695
 40
2.2000000000000002
 50
180.00000900000003
 51
303.74900400000001
  0
LINE
  8
_0-0_0
  6
CONTINUOUS
 62
    7
 10
219.22891250000001
 20
202.8245695
 11
219.22891250000001
 21
201.3245695
  0
LINE
  8
_0-0_0
  6
CONTINUOUS
 62
    7
 10
219.22891250000001
 20
202.8245695
 11
144.62892150000002
 21
202.8245695
  0
LINE
  8
_0-0_0
  6
CONTINUOUS
 62
    7
 10
144.62892150000002
 20
202.8245695
 11
144.62892150000002
 21
201.3245695
  0
ARC
  8
_0-0_0
  6
CONTINUOUS
 62
    7
 10
142.4289095
 20
201.3245695
 40
2.2000000000000002
 50
236.25102899999999
 51
0
  0
ARC
  8
_0-0_0
  6
CONTINUOUS
 62
    7
 10
140.9289095
 20
199.07957450000001
 40
0.5
 50
56.251010000000008
 51
180.00000900000001
  0
LINE
  8
_0-0_0
  6
CONTINUOUS
 62
    7
 10
140.4289095
 20
178.7245715
 11
140.4289095
 21
179.50169349999999
  0
LINE
  8
_0-0_0
  6
CONTINUOUS
 62
    7
 10
140.4289095
 20
178.7245715
 11
150.22891250000001
 21
178.7245715
  0
ARC
  8
_0-0_0
  6
CONTINUOUS
 62
    7
 10
150.22891250000001
 20
178.92456850000002
 40
0.2
 50
269.99999700000001
 51
0
  0
LINE
  8
_0-0_0
  6
CONTINUOUS
 62
    7
 10
150.4289095
 20
180.6245725
 11
150.4289095
 21
178.92456850000002
  0
ARC
  8
_0-0_0
  6
CONTINUOUS
 62
    7
 10
150.62892150000002
 20
180.6245725
 40
0.2
 50
90.000003000000007
 51
180.00000900000001
  0
LINE
  8
_0-0_0
  6
CONTINUOUS
 62
    7
 10
151.12892150000002
 20
180.8245695
 11
150.62892150000002
 21
180.8245695
  0
ARC
  8
_0-0_0
  6
CONTINUOUS
 62
    7
 10
151.12892150000002
 20
180.3245695
 40
0.5
 50
90.000003000000007
 51
180.00000900000001
  0
LINE
  8
_0-0_0
  6
CONTINUOUS
 62
    7
 10
150.62892150000002
 20
178.8245695
 11
150.62892150000002
 21
180.3245695
  0
LINE
  8
_0-0_0
  6
CONTINUOUS
 62
    7
 10
220.22891250000001
 20
178.8245695
 11
150.62892150000002
 21
178.8245695
  0
LINE
  8
_0-0_0
  6
CONTINUOUS
 62
    7
 10
220.22891250000001
 20
178.8245695
 11
220.22891250000001
 21
180.3245695
  0
ARC
  8
_0-0_0
  6
CONTINUOUS
 62
    7
 10
219.72891250000001
 20
180.3245695
 40
0.5
 50
0
 51
90.000003000000007
  0
LINE
  8
_0-0_0
  6
CONTINUOUS
 62
    7
 10
220.22891250000001
 20
180.8245695
 11
219.72891250000001
 21
180.8245695
  0
ARC
  8
_0-0_0
  6
CONTINUOUS
 62
    7
 10
220.22891250000001
 20
180.6245725
 40
0.2
 50
0
 51
90.000003000000007
  0
LINE
  8
_0-0_0
  6
CONTINUOUS
 62
    7
 10
220.4289095
 20
178.92456850000002
 11
220.4289095
 21
180.6245725
  0
ARC
  8
_0-0_0
  6
CONTINUOUS
 62
    7
 10
220.6289065
 20
178.92456850000002
 40
0.2
 50
180.00000900000003
 51
269.99999700000001
  0
LINE
  8
_0-0_0
  6
CONTINUOUS
 62
    7
 10
220.6289065
 20
178.7245715
 11
221.4289095
 21
178.7245715
  0
ARC
  8
_0-0_0
  6
CONTINUOUS
 62
    7
 10
221.4289095
 20
180.7245715
 40
2
 50
269.99999700000001
 51
0.0000099999999886
  0
LINE
  8
_0-0_0
  6
CONTINUOUS
 62
    7
 10
223.4289095
 20
199.07957450000001
 11
223.4289095
 21
180.7245715
  0
ARC
  8
_0-0_0
  6
CONTINUOUS
 62
    7
 10
222.9289095
 20
199.07957450000001
 40
0.5
 50
0
 51
123.74898500000002
  0
LINE
  8
_0-0_0
  6
CONTINUOUS
 62
    7
 10
151.9289095
 20
181.0245745
 11
151.9289095
 21
181.2245715
  0
LINE
  8
_0-0_0
  6
CONTINUOUS
 62
    7
 10
151.9289095
 20
181.2245715
 11
218.9289095
 21
181.2245715
  0
LINE
  8
_0-0_0
  6
CONTINUOUS
 62
    7
 10
218.9289095
 20
181.0245745
 11
218.9289095
 21
181.2245715
  0
ARC
  8
_0-0_0
  6
CONTINUOUS
 62
    7
 10
219.1289065
 20
181.0245745
 40
0.2
 50
180.00000900000003
 51
269.99999700000001
  0
LINE
  8
_0-0_0
  6
CONTINUOUS
 62
    7
 10
219.1289065
 20
180.8245695
 11
151.72891250000001
 21
180.8245695
  0
ARC
  8
_0-0_0
  6
CONTINUOUS
 62
    7
 10
151.72891250000001
 20
181.0245745
 40
0.2
 50
269.99999700000001
 51
0
  0
ARC
  8
_0-0_0
  6
CONTINUOUS
 62
    7
 10
182.1289065
 20
194.9245755
 40
0.2
 50
159.62357
 51
269.99999700000001
  0
LINE
  8
_0-0_0
  6
CONTINUOUS
 62
    7
 10
182.1289065
 20
194.72457850000001
 11
184.72891250000001
 21
194.72457850000001
  0
ARC
  8
_0-0_0
  6
CONTINUOUS
 62
    7
 10
184.72891250000001
 20
194.9245755
 40
0.2
 50
269.99999700000001
 51
20.376435000000019
  0
LINE
  8
_0-0_0
  6
CONTINUOUS
 62
    7
 10
184.91639750000002
 20
194.9942015
 11
183.61639450000001
 21
198.4942015
  0
LINE
  8
_0-0_0
  6
CONTINUOUS
 62
    7
 10
140.4289095
 20
198.4245755
 11
140.4289095
 21
200.40194650000001
  0
LINE
  8
_0-0_0
  6
CONTINUOUS
 62
    7
 10
140.4289095
 20
198.4245755
 11
140.4289095
 21
180.8245695
  0
LINE
  8
_0-0_0
  6
CONTINUOUS
 62
    7
 10
140.4289095
 20
179.50169349999999
 11
140.4289095
 21
180.8245695
  0
LINE
  8
_0-0_0
  6
CONTINUOUS
 62
    7
 10
223.4289095
 20
204.8245695
 11
223.4289095
 21
203.8245695
  0
LINE
  8
_0-0_0
  6
CONTINUOUS
 62
    7
 10
223.4289095
 20
203.8245695
 11
223.4289095
 21
203.3245695
  0
LINE
  8
_0-0_0
  6
CONTINUOUS
 62
    7
 10
223.4289095
 20
203.3245695
 11
223.4289095
 21
201.3245695
  0
LINE
  8
_0-0_0
  6
CONTINUOUS
 62
    7
 10
223.4289095
 20
201.3245695
 11
223.4289095
 21
199.07957450000001
  0
LINE
  8
_0-0_0
  6
CONTINUOUS
 62
    7
 10
201.4289095
 20
198.8245695
 11
201.4289095
 21
185.2245715
  0
ARC
  8
_0-0_0
  6
CONTINUOUS
 62
    7
 10
204.4289095
 20
198.8245695
 40
3
 50
90.000003000000007
 51
180.00000900000001
  0
LINE
  8
_0-0_0
  6
CONTINUOUS
 62
    7
 10
217.76284749999999
 20
201.8245695
 11
204.4289095
 21
201.8245695
  0
ARC
  8
_0-0_0
  6
CONTINUOUS
 62
    7
 10
217.76284749999999
 20
200.8245695
 40
1
 50
7.7664340000000012
 51
90.000002999999992
  0
ARC
  8
_0-0_0
  6
CONTINUOUS
 62
    7
 10
221.4289095
 20
201.3245695
 40
2.7000000000000002
 50
187.76643899999999
 51
254.31966600000001
  0
ARC
  8
_0-0_0
  6
CONTINUOUS
 62
    7
 10
220.4289095
 20
197.76226750000001
 40
1
 50
0
 51
74.319649999999996
  0
LINE
  8
_0-0_0
  6
CONTINUOUS
 62
    7
 10
221.4289095
 20
185.2245715
 11
221.4289095
 21
197.76226750000001
  0
ARC
  8
_0-0_0
  6
CONTINUOUS
 62
    7
 10
218.4289095
 20
185.2245715
 40
3
 50
269.99999700000001
 51
0.0000099999999886
  0
LINE
  8
_0-0_0
  6
CONTINUOUS
 62
    7
 10
204.4289095
 20
182.2245715
 11
218.4289095
 21
182.2245715
  0
ARC
  8
_0-0_0
  6
CONTINUOUS
 62
    7
 10
204.4289095
 20
185.2245715
 40
3
 50
180.00000900000003
 51
269.99999700000001
  0
LINE
  8
_0-0_0
  6
CONTINUOUS
 62
    7
 10
147.4289095
 20
182.2245715
 11
162.4289095
 21
182.2245715
  0
ARC
  8
_0-0_0
  6
CONTINUOUS
 62
    7
 10
147.4289095
 20
185.2245715
 40
3
 50
180.00000900000003
 51
269.99999700000001
  0
LINE
  8
_0-0_0
  6
CONTINUOUS
 62
    7
 10
144.4289095
 20
198.8245695
 11
144.4289095
 21
185.2245715
  0
ARC
  8
_0-0_0
  6
CONTINUOUS
 62
    7
 10
147.4289095
 20
198.8245695
 40
3
 50
90.000003000000007
 51
180.00000900000001
  0
LINE
  8
_0-0_0
  6
CONTINUOUS
 62
    7
 10
162.4289095
 20
201.8245695
 11
147.4289095
 21
201.8245695
  0
ARC
  8
_0-0_0
  6
CONTINUOUS
 62
    7
 10
162.4289095
 20
198.8245695
 40
3
 50
0
 51
90.000003000000007
  0
LINE
  8
_0-0_0
  6
CONTINUOUS
 62
    7
 10
165.4289095
 20
185.2245715
 11
165.4289095
 21
198.8245695
  0
ARC
  8
_0-0_0
  6
CONTINUOUS
 62
    7
 10
162.4289095
 20
185.2245715
 40
3
 50
269.99999700000001
 51
0.0000099999999886
  0
LINE
  8
_0-0_0
  6
CONTINUOUS
 62
    7
 10
219.4289095
 20
202.8245695
 11
219.22891250000001
 21
202.8245695
  0
ARC
  8
_0-0_0
  6
CONTINUOUS
 62
    7
 10
221.4289095
 20
201.3245695
 40
2
 50
180.00000900000003
 51
0.0000000000000254
  0
LINE
  8
_0-0_0
  6
CONTINUOUS
 62
    7
 10
219.4289095
 20
202.8245695
 11
219.4289095
 21
201.3245695
  0
LINE
  8
_0-0_0
  6
CONTINUOUS
 62
    7
 10
144.62892150000002
 20
202.8245695
 11
144.4289095
 21
202.8245695
  0
LINE
  8
_0-0_0
  6
CONTINUOUS
 62
    7
 10
144.4289095
 20
202.8245695
 11
144.4289095
 21
201.3245695
  0
ARC
  8
_0-0_0
  6
CONTINUOUS
 62
    7
 10
142.4289095
 20
201.3245695
 40
2
 50
180.00000900000003
 51
0.0000000000000254
  0
LINE
  8
_0-0_0
  6
CONTINUOUS
 62
    7
 10
126.9289165
 20
203.3245695
 11
126.9289165
 21
202.8245695
  0
LINE
  8
_0-0_0
  6
CONTINUOUS
 62
    7
 10
140.4289095
 20
200.4080505
 11
140.4289095
 21
201.1245725
  0
LINE
  8
_0-0_0
  6
CONTINUOUS
 62
    7
 10
140.4289095
 20
200.4080505
 11
140.4289095
 21
200.40194650000001
  0
LINE
  8
_0-0_0
  6
CONTINUOUS
 62
    7
 10
140.4289095
 20
199.1934205
 11
140.4289095
 21
199.07957450000001
  0
LINE
  8
_0-0_0
  6
CONTINUOUS
 62
    7
 10
128.42891650000001
 20
200.4245755
 11
128.42891650000001
 21
198.4245755
  0
LINE
  8
_0-0_0
  6
CONTINUOUS
 62
    7
 10
140.4289095
 20
200.4245755
 11
128.42891650000001
 21
200.4245755
  0
LINE
  8
_0-0_0
  6
CONTINUOUS
 62
    7
 10
128.42891650000001
 20
194.9245755
 11
128.42891650000001
 21
197.9245755
  0
LINE
  8
_0-0_0
  6
CONTINUOUS
 62
    7
 10
128.42891650000001
 20
197.9245755
 11
128.42891650000001
 21
198.4245755
  0
LINE
  8
_0-0_0
  6
CONTINUOUS
 62
    7
 10
128.42891650000001
 20
194.9245755
 11
128.42891650000001
 21
194.4245755
  0
ARC
  8
_0-0_0
  6
CONTINUOUS
 62
    7
 10
134.42892449999999
 20
195.12455750000001
 40
0.500016
 50
0.001164
 51
179.99560600000004
  0
LINE
  8
_0-0_0
  6
CONTINUOUS
 62
    7
 10
133.9289095
 20
195.1245725
 11
133.9289095
 21
183.1245725
  0
ARC
  8
_0-0_0
  6
CONTINUOUS
 62
    7
 10
134.42892449999999
 20
183.12458050000001
 40
0.500016
 50
180.00117
 51
359.995611
  0
LINE
  8
_0-0_0
  6
CONTINUOUS
 62
    7
 10
134.9289095
 20
195.1245725
 11
134.9289095
 21
183.1245725
  0
ARC
  8
_0-0_0
  6
CONTINUOUS
 62
    7
 10
132.92892449999999
 20
195.12455750000001
 40
0.500016
 50
0.001164
 51
179.99560600000004
  0
LINE
  8
_0-0_0
  6
CONTINUOUS
 62
    7
 10
132.4289095
 20
195.1245725
 11
132.4289095
 21
183.1245725
  0
ARC
  8
_0-0_0
  6
CONTINUOUS
 62
    7
 10
132.92892449999999
 20
183.12458050000001
 40
0.500016
 50
180.00117
 51
359.995611
  0
LINE
  8
_0-0_0
  6
CONTINUOUS
 62
    7
 10
133.4289095
 20
195.1245725
 11
133.4289095
 21
183.1245725
  0
ARC
  8
_0-0_0
  6
CONTINUOUS
 62
    7
 10
131.42892449999999
 20
195.12455750000001
 40
0.500016
 50
0.001164
 51
179.99560600000004
  0
LINE
  8
_0-0_0
  6
CONTINUOUS
 62
    7
 10
130.9289095
 20
195.1245725
 11
130.9289095
 21
183.1245725
  0
ARC
  8
_0-0_0
  6
CONTINUOUS
 62
    7
 10
131.42892449999999
 20
183.12458050000001
 40
0.500016
 50
180.00117
 51
359.995611
  0
LINE
  8
_0-0_0
  6
CONTINUOUS
 62
    7
 10
131.9289095
 20
195.1245725
 11
131.9289095
 21
183.1245725
  0
ARC
  8
_0-0_0
  6
CONTINUOUS
 62
    7
 10
129.92892449999999
 20
195.12455750000001
 40
0.500016
 50
0.001164
 51
179.99560600000004
  0
LINE
  8
_0-0_0
  6
CONTINUOUS
 62
    7
 10
129.42891650000001
 20
195.1245725
 11
129.42891650000001
 21
183.1245725
  0
ARC
  8
_0-0_0
  6
CONTINUOUS
 62
    7
 10
129.92892449999999
 20
183.12458050000001
 40
0.500016
 50
180.00117
 51
359.995611
  0
LINE
  8
_0-0_0
  6
CONTINUOUS
 62
    7
 10
130.4289095
 20
195.1245725
 11
130.4289095
 21
183.1245725
  0
LINE
  8
_0-0_0
  6
CONTINUOUS
 62
    7
 10
140.4289095
 20
178.8245695
 11
123.7534715
 21
178.8245695
  0
LINE
  8
_0-0_0
  6
CONTINUOUS
 62
    7
 10
150.97891250000001
 20
180.80154450000001
 11
150.97891250000001
 21
180.8245695
  0
LINE
  8
_0-0_0
  6
CONTINUOUS
 62
    7
 10
219.8789065
 20
180.80154450000001
 11
219.8789065
 21
180.8245695
  0
LINE
  8
_0-0_0
  6
CONTINUOUS
 62
    7
 10
126.9289165
 20
203.3245695
 11
126.9289165
 21
203.8245695
  0
LINE
  8
_0-0_0
  6
CONTINUOUS
 62
    7
 10
223.4289095
 20
203.8245695
 11
126.9289165
 21
203.8245695
  0
LINE
  8
_0-0_0
  6
CONTINUOUS
 62
    7
 10
126.9289165
 20
203.8245695
 11
126.9289165
 21
204.8245695
  0
LINE
  8
_0-0_0
  6
CONTINUOUS
 62
    7
 10
223.4290465
 20
204.82463050000001
 11
223.4290465
 21
204.3246455
  0
LINE
  8
_0-0_0
  6
CONTINUOUS
 62
    7
 10
223.4290465
 20
204.3246455
 11
223.4290465
 21
202.8246455
  0
ARC
  8
_0-0_0
  6
CONTINUOUS
 62
    7
 10
213.9289095
 20
194.4245755
 40
4.5
 50
269.99999700000001
 51
90.000002999999992
  0
LINE
  8
_0-0_0
  6
CONTINUOUS
 62
    7
 10
213.9289095
 20
189.9245755
 11
208.9289095
 21
189.9245755
  0
ARC
  8
_0-0_0
  6
CONTINUOUS
 62
    7
 10
208.9289095
 20
194.4245755
 40
4.5
 50
90.000003000000007
 51
269.99999700000006
  0
LINE
  8
_0-0_0
  6
CONTINUOUS
 62
    7
 10
208.9289095
 20
198.9245755
 11
213.9289095
 21
198.9245755
  0
ARC
  8
_0-0_0
  6
CONTINUOUS
 62
    7
 10
157.9289095
 20
194.4245755
 40
4.5
 50
269.99999700000001
 51
90.000002999999992
  0
LINE
  8
_0-0_0
  6
CONTINUOUS
 62
    7
 10
157.9289095
 20
189.9245755
 11
152.9289095
 21
189.9245755
  0
ARC
  8
_0-0_0
  6
CONTINUOUS
 62
    7
 10
152.9289095
 20
194.4245755
 40
4.5
 50
90.000003000000007
 51
269.99999700000006
  0
LINE
  8
_0-0_0
  6
CONTINUOUS
 62
    7
 10
152.9289095
 20
198.9245755
 11
157.9289095
 21
198.9245755
  0
LINE
  8
_0-0_0
  6
CONTINUOUS
 62
    7
 10
140.4289095
 20
201.1245725
 11
140.4289095
 21
202.8245695
  0
LINE
  8
_0-0_0
  6
CONTINUOUS
 62
    7
 10
140.4289095
 20
202.8245695
 11
126.9289165
 21
202.8245695
  0
LINE
  8
_0-0_0
  6
CONTINUOUS
 62
    7
 10
126.9289165
 20
201.1245725
 11
126.9289165
 21
202.8245695
  0
LINE
  8
_0-0_0
  6
CONTINUOUS
 62
    7
 10
128.42891650000001
 20
200.4245755
 11
123.7534715
 21
200.4245755
  0
LINE
  8
_0-0_0
  6
CONTINUOUS
 62
    7
 10
128.42891650000001
 20
194.9245755
 11
123.7534715
 21
194.9245755
  0
LINE
  8
_0-0_0
  6
CONTINUOUS
 62
    7
 10
123.12101750000001
 20
178.9272005
 11
123.24051650000001
 21
178.89158650000002
  0
LINE
  8
_0-0_0
  6
CONTINUOUS
 62
    7
 10
123.24051650000001
 20
178.89158650000002
 11
123.36206850000001
 21
178.8637085
  0
LINE
  8
_0-0_0
  6
CONTINUOUS
 62
    7
 10
123.36206850000001
 20
178.8637085
 11
123.48519950000001
 21
178.84366549999999
  0
LINE
  8
_0-0_0
  6
CONTINUOUS
 62
    7
 10
123.48519950000001
 20
178.84366549999999
 11
123.60942850000001
 21
178.83155049999999
  0
LINE
  8
_0-0_0
  6
CONTINUOUS
 62
    7
 10
123.60942850000001
 20
178.83155049999999
 11
123.7342455
 21
178.8274155
  0
LINE
  8
_0-0_0
  6
CONTINUOUS
 62
    7
 10
123.7342455
 20
178.8274155
 11
123.7534715
 21
178.82749150000001
  0
ARC
  8
_0-0_0
  6
CONTINUOUS
 62
    7
 10
123.7534715
 20
180.8245695
 40
2
 50
251.56498899999997
 51
269.99999700000001
  0
LINE
  8
_0-0_0
  6
CONTINUOUS
 62
    7
 10
126.9289165
 20
201.1245725
 11
140.4289095
 21
201.1245725
  0
CIRCLE
  8
_0-0_0
  6
CONTINUOUS
 62
    7
 10
221.4289095
 20
201.3245695
 40
1.4750000000000001
  0
CIRCLE
  8
_0-0_0
  6
CONTINUOUS
 62
    7
 10
142.4289095
 20
201.3245695
 40
1.4750000000000001
  0
ARC
  8
_0-0_0
  6
CONTINUOUS
 62
    7
 10
123.7534715
 20
198.4245755
 40
2
 50
90.000003000000007
 51
108.434997
  0
LINE
  8
_0-0_0
  6
CONTINUOUS
 62
    7
 10
118.95457450000001
 20
194.9245755
 11
118.26121550000001
 21
194.9245755
  0
LINE
  8
_0-0_0
  6
CONTINUOUS
 62
    7
 10
118.95457450000001
 20
194.9245755
 11
123.27912950000001
 21
194.9245755
  0
LINE
  8
_0-0_0
  6
CONTINUOUS
 62
    7
 10
123.7534715
 20
194.9245755
 11
123.27912950000001
 21
194.9245755
  0
LINE
  8
_0-0_0
  6
CONTINUOUS
 62
    7
 10
118.7964635
 20
180.3687285
 11
123.12101750000001
 21
178.9272005
  0
LINE
  8
_0-0_0
  6
CONTINUOUS
 62
    7
 10
217.97891250000001
 20
194.4245755
 11
215.6695095
 21
190.4245755
  0
LINE
  8
_0-0_0
  6
CONTINUOUS
 62
    7
 10
207.18830850000001
 20
190.4245755
 11
215.6695095
 21
190.4245755
  0
LINE
  8
_0-0_0
  6
CONTINUOUS
 62
    7
 10
207.18830850000001
 20
190.4245755
 11
204.8789065
 21
194.4245755
  0
LINE
  8
_0-0_0
  6
CONTINUOUS
 62
    7
 10
204.8789065
 20
194.4245755
 11
207.18830850000001
 21
198.4245755
  0
LINE
  8
_0-0_0
  6
CONTINUOUS
 62
    7
 10
215.6695095
 20
198.4245755
 11
207.18830850000001
 21
198.4245755
  0
LINE
  8
_0-0_0
  6
CONTINUOUS
 62
    7
 10
215.6695095
 20
198.4245755
 11
217.97891250000001
 21
194.4245755
  0
LINE
  8
_0-0_0
  6
CONTINUOUS
 62
    7
 10
151.18830850000001
 20
198.4245755
 11
148.87892150000002
 21
194.4245755
  0
LINE
  8
_0-0_0
  6
CONTINUOUS
 62
    7
 10
159.6695095
 20
198.4245755
 11
151.18830850000001
 21
198.4245755
  0
LINE
  8
_0-0_0
  6
CONTINUOUS
 62
    7
 10
161.97891250000001
 20
194.4245755
 11
159.6695095
 21
198.4245755
  0
LINE
  8
_0-0_0
  6
CONTINUOUS
 62
    7
 10
159.6695095
 20
190.4245755
 11
161.97891250000001
 21
194.4245755
  0
LINE
  8
_0-0_0
  6
CONTINUOUS
 62
    7
 10
151.18830850000001
 20
190.4245755
 11
159.6695095
 21
190.4245755
  0
LINE
  8
_0-0_0
  6
CONTINUOUS
 62
    7
 10
148.87892150000002
 20
194.4245755
 11
151.18830850000001
 21
190.4245755
  0
LINE
  8
_0-0_0
  6
CONTINUOUS
 62
    7
 10
122.6789095
 20
200.17456050000001
 11
123.12101750000001
 21
200.32192950000001
  0
LINE
  8
_0-0_0
  6
CONTINUOUS
 62
    7
 10
117.4289165
 20
195.67460650000001
 11
117.4289165
 21
194.55358849999999
  0
LINE
  8
_0-0_0
  6
CONTINUOUS
 62
    7
 10
117.4289165
 20
193.63226349999999
 11
117.4289165
 21
194.55358849999999
  0
LINE
  8
_0-0_0
  6
CONTINUOUS
 62
    7
 10
117.7289205
 20
191.8365785
 11
117.67012050000001
 21
192.0834045
  0
LINE
  8
_0-0_0
  6
CONTINUOUS
 62
    7
 10
117.67012050000001
 20
192.0834045
 11
117.62035350000001
 21
192.27574150000001
  0
LINE
  8
_0-0_0
  6
CONTINUOUS
 62
    7
 10
117.62035350000001
 20
192.27574150000001
 11
117.54922450000001
 21
192.54153450000001
  0
LINE
  8
_0-0_0
  6
CONTINUOUS
 62
    7
 10
117.54922450000001
 20
192.54153450000001
 11
117.5162655
 21
192.66824349999999
  0
LINE
  8
_0-0_0
  6
CONTINUOUS
 62
    7
 10
117.5162655
 20
192.66824349999999
 11
117.4910055
 21
192.77166750000001
  0
LINE
  8
_0-0_0
  6
CONTINUOUS
 62
    7
 10
117.4910055
 20
192.77166750000001
 11
117.46897850000001
 21
192.8716125
  0
LINE
  8
_0-0_0
  6
CONTINUOUS
 62
    7
 10
117.46897850000001
 20
192.8716125
 11
117.4476015
 21
192.9893185
  0
LINE
  8
_0-0_0
  6
CONTINUOUS
 62
    7
 10
117.4476015
 20
192.9893185
 11
117.4390255
 21
193.05145250000001
  0
LINE
  8
_0-0_0
  6
CONTINUOUS
 62
    7
 10
117.4390255
 20
193.05145250000001
 11
117.4329455
 21
193.11206050000001
  0
LINE
  8
_0-0_0
  6
CONTINUOUS
 62
    7
 10
117.4329455
 20
193.11206050000001
 11
117.4299395
 21
193.16128549999999
  0
LINE
  8
_0-0_0
  6
CONTINUOUS
 62
    7
 10
117.4299395
 20
193.16128549999999
 11
117.4289165
 21
193.2095185
  0
LINE
  8
_0-0_0
  6
CONTINUOUS
 62
    7
 10
117.7289205
 20
187.4125445
 11
117.81237750000001
 21
187.79122950000001
  0
LINE
  8
_0-0_0
  6
CONTINUOUS
 62
    7
 10
117.81237750000001
 20
187.79122950000001
 11
117.85247050000001
 21
187.98275749999999
  0
LINE
  8
_0-0_0
  6
CONTINUOUS
 62
    7
 10
117.85247050000001
 20
187.98275749999999
 11
117.90855450000001
 21
188.27278150000001
  0
LINE
  8
_0-0_0
  6
CONTINUOUS
 62
    7
 10
117.90855450000001
 20
188.27278150000001
 11
117.94615150000001
 21
188.49237049999999
  0
LINE
  8
_0-0_0
  6
CONTINUOUS
 62
    7
 10
117.94615150000001
 20
188.49237049999999
 11
117.97879750000001
 21
188.71362250000001
  0
LINE
  8
_0-0_0
  6
CONTINUOUS
 62
    7
 10
117.97879750000001
 20
188.71362250000001
 11
118.00595850000001
 21
188.9404145
  0
LINE
  8
_0-0_0
  6
CONTINUOUS
 62
    7
 10
118.00595850000001
 20
188.9404145
 11
118.02602350000001
 21
189.16781650000001
  0
LINE
  8
_0-0_0
  6
CONTINUOUS
 62
    7
 10
118.02602350000001
 20
189.16781650000001
 11
118.0331805
 21
189.28153950000001
  0
LINE
  8
_0-0_0
  6
CONTINUOUS
 62
    7
 10
118.0331805
 20
189.28153950000001
 11
118.03833750000001
 21
189.3952175
  0
LINE
  8
_0-0_0
  6
CONTINUOUS
 62
    7
 10
118.03833750000001
 20
189.3952175
 11
118.04205350000001
 21
189.5466615
  0
LINE
  8
_0-0_0
  6
CONTINUOUS
 62
    7
 10
118.04205350000001
 20
189.5466615
 11
118.04211450000001
 21
189.69790650000002
  0
LINE
  8
_0-0_0
  6
CONTINUOUS
 62
    7
 10
118.04211450000001
 20
189.69790650000002
 11
118.03852850000001
 21
189.84896850000001
  0
LINE
  8
_0-0_0
  6
CONTINUOUS
 62
    7
 10
118.03852850000001
 20
189.84896850000001
 11
118.02902950000001
 21
190.03750550000001
  0
LINE
  8
_0-0_0
  6
CONTINUOUS
 62
    7
 10
118.02902950000001
 20
190.03750550000001
 11
118.0141605
 21
190.22576850000002
  0
LINE
  8
_0-0_0
  6
CONTINUOUS
 62
    7
 10
118.0141605
 20
190.22576850000002
 11
117.99423950000001
 21
190.41369650000001
  0
LINE
  8
_0-0_0
  6
CONTINUOUS
 62
    7
 10
117.99423950000001
 20
190.41369650000001
 11
117.9778515
 21
190.54257150000001
  0
LINE
  8
_0-0_0
  6
CONTINUOUS
 62
    7
 10
117.9778515
 20
190.54257150000001
 11
117.95944250000001
 21
190.6712345
  0
LINE
  8
_0-0_0
  6
CONTINUOUS
 62
    7
 10
117.95944250000001
 20
190.6712345
 11
117.93527950000001
 21
190.82316550000002
  0
LINE
  8
_0-0_0
  6
CONTINUOUS
 62
    7
 10
117.93527950000001
 20
190.82316550000002
 11
117.9088825
 21
190.9745025
  0
LINE
  8
_0-0_0
  6
CONTINUOUS
 62
    7
 10
117.9088825
 20
190.9745025
 11
117.8527145
 21
191.26512149999999
  0
LINE
  8
_0-0_0
  6
CONTINUOUS
 62
    7
 10
117.8527145
 20
191.26512149999999
 11
117.81255350000001
 21
191.4570765
  0
LINE
  8
_0-0_0
  6
CONTINUOUS
 62
    7
 10
117.81255350000001
 20
191.4570765
 11
117.7289205
 21
191.8365785
  0
LINE
  8
_0-0_0
  6
CONTINUOUS
 62
    7
 10
117.72891250000001
 20
187.4125445
 11
117.6701125
 21
187.16570250000001
  0
LINE
  8
_0-0_0
  6
CONTINUOUS
 62
    7
 10
117.6701125
 20
187.16570250000001
 11
117.62035350000001
 21
186.97337350000001
  0
LINE
  8
_0-0_0
  6
CONTINUOUS
 62
    7
 10
117.62035350000001
 20
186.97337350000001
 11
117.5492325
 21
186.7076265
  0
LINE
  8
_0-0_0
  6
CONTINUOUS
 62
    7
 10
117.5492325
 20
186.7076265
 11
117.51627350000001
 21
186.58093250000002
  0
LINE
  8
_0-0_0
  6
CONTINUOUS
 62
    7
 10
117.51627350000001
 20
186.58093250000002
 11
117.49101250000001
 21
186.47749350000001
  0
LINE
  8
_0-0_0
  6
CONTINUOUS
 62
    7
 10
117.49101250000001
 20
186.47749350000001
 11
117.46897850000001
 21
186.37751750000001
  0
LINE
  8
_0-0_0
  6
CONTINUOUS
 62
    7
 10
117.46897850000001
 20
186.37751750000001
 11
117.44759350000001
 21
186.25981849999999
  0
LINE
  8
_0-0_0
  6
CONTINUOUS
 62
    7
 10
117.44759350000001
 20
186.25981849999999
 11
117.4390255
 21
186.19769250000002
  0
LINE
  8
_0-0_0
  6
CONTINUOUS
 62
    7
 10
117.4390255
 20
186.19769250000002
 11
117.4329455
 21
186.13708450000001
  0
LINE
  8
_0-0_0
  6
CONTINUOUS
 62
    7
 10
117.4329455
 20
186.13708450000001
 11
117.4299395
 21
186.08784450000002
  0
LINE
  8
_0-0_0
  6
CONTINUOUS
 62
    7
 10
117.4299395
 20
186.08784450000002
 11
117.4289165
 21
186.0396265
  0
LINE
  8
_0-0_0
  6
CONTINUOUS
 62
    7
 10
117.4289165
 20
182.26609050000002
 11
117.4289165
 21
185.6168825
  0
ARC
  8
_0-0_0
  6
CONTINUOUS
 62
    7
 10
119.4289165
 20
182.26609050000002
 40
2
 50
180.00000900000003
 51
251.56498900000003
  0
LINE
  8
_0-0_0
  6
CONTINUOUS
 62
    7
 10
221.8789065
 20
201.1245725
 11
222.52891550000001
 21
201.1245725
  0
ARC
  8
_0-0_0
  6
CONTINUOUS
 62
    7
 10
221.8789065
 20
200.8745725
 40
0.25
 50
90.000003000000007
 51
180.00000900000001
  0
LINE
  8
_0-0_0
  6
CONTINUOUS
 62
    7
 10
221.6289065
 20
200.8745725
 11
221.6289065
 21
200.22457850000001
  0
LINE
  8
_0-0_0
  6
CONTINUOUS
 62
    7
 10
221.22891250000001
 20
200.22457850000001
 11
221.6289065
 21
200.22457850000001
  0
LINE
  8
_0-0_0
  6
CONTINUOUS
 62
    7
 10
221.22891250000001
 20
200.22457850000001
 11
221.22891250000001
 21
200.8745725
  0
ARC
  8
_0-0_0
  6
CONTINUOUS
 62
    7
 10
220.97891250000001
 20
200.8745725
 40
0.25
 50
0
 51
90.000003000000007
  0
LINE
  8
_0-0_0
  6
CONTINUOUS
 62
    7
 10
220.32891850000001
 20
201.1245725
 11
220.97891250000001
 21
201.1245725
  0
LINE
  8
_0-0_0
  6
CONTINUOUS
 62
    7
 10
220.32891850000001
 20
201.1245725
 11
220.32891850000001
 21
201.52456649999999
  0
LINE
  8
_0-0_0
  6
CONTINUOUS
 62
    7
 10
220.97891250000001
 20
201.52456649999999
 11
220.32891850000001
 21
201.52456649999999
  0
ARC
  8
_0-0_0
  6
CONTINUOUS
 62
    7
 10
220.97891250000001
 20
201.77456649999999
 40
0.25
 50
269.99999700000001
 51
0
  0
LINE
  8
_0-0_0
  6
CONTINUOUS
 62
    7
 10
221.22891250000001
 20
201.77456649999999
 11
221.22891250000001
 21
202.4245755
  0
LINE
  8
_0-0_0
  6
CONTINUOUS
 62
    7
 10
221.6289065
 20
202.4245755
 11
221.22891250000001
 21
202.4245755
  0
LINE
  8
_0-0_0
  6
CONTINUOUS
 62
    7
 10
221.6289065
 20
202.4245755
 11
221.6289065
 21
201.77456649999999
  0
ARC
  8
_0-0_0
  6
CONTINUOUS
 62
    7
 10
221.8789065
 20
201.77456649999999
 40
0.25
 50
180.00000900000003
 51
269.99999700000001
  0
LINE
  8
_0-0_0
  6
CONTINUOUS
 62
    7
 10
222.52891550000001
 20
201.52456649999999
 11
221.8789065
 21
201.52456649999999
  0
LINE
  8
_0-0_0
  6
CONTINUOUS
 62
    7
 10
222.52891550000001
 20
201.52456649999999
 11
222.52891550000001
 21
201.1245725
  0
LINE
  8
_0-0_0
  6
CONTINUOUS
 62
    7
 10
142.87892150000002
 20
201.1245725
 11
143.52891550000001
 21
201.1245725
  0
ARC
  8
_0-0_0
  6
CONTINUOUS
 62
    7
 10
142.87892150000002
 20
200.8745725
 40
0.25
 50
90.000003000000007
 51
180.00000900000001
  0
LINE
  8
_0-0_0
  6
CONTINUOUS
 62
    7
 10
142.62892150000002
 20
200.8745725
 11
142.62892150000002
 21
200.22457850000001
  0
LINE
  8
_0-0_0
  6
CONTINUOUS
 62
    7
 10
142.22891250000001
 20
200.22457850000001
 11
142.62892150000002
 21
200.22457850000001
  0
LINE
  8
_0-0_0
  6
CONTINUOUS
 62
    7
 10
142.22891250000001
 20
200.22457850000001
 11
142.22891250000001
 21
200.8745725
  0
ARC
  8
_0-0_0
  6
CONTINUOUS
 62
    7
 10
141.97891250000001
 20
200.8745725
 40
0.25
 50
0
 51
90.000003000000007
  0
LINE
  8
_0-0_0
  6
CONTINUOUS
 62
    7
 10
141.32891850000001
 20
201.1245725
 11
141.97891250000001
 21
201.1245725
  0
LINE
  8
_0-0_0
  6
CONTINUOUS
 62
    7
 10
141.32891850000001
 20
201.1245725
 11
141.32891850000001
 21
201.52456649999999
  0
LINE
  8
_0-0_0
  6
CONTINUOUS
 62
    7
 10
141.97891250000001
 20
201.52456649999999
 11
141.32891850000001
 21
201.52456649999999
  0
ARC
  8
_0-0_0
  6
CONTINUOUS
 62
    7
 10
141.97891250000001
 20
201.77456649999999
 40
0.25
 50
269.99999700000001
 51
0
  0
LINE
  8
_0-0_0
  6
CONTINUOUS
 62
    7
 10
142.22891250000001
 20
201.77456649999999
 11
142.22891250000001
 21
202.4245755
  0
LINE
  8
_0-0_0
  6
CONTINUOUS
 62
    7
 10
142.62892150000002
 20
202.4245755
 11
142.22891250000001
 21
202.4245755
  0
LINE
  8
_0-0_0
  6
CONTINUOUS
 62
    7
 10
142.62892150000002
 20
202.4245755
 11
142.62892150000002
 21
201.77456649999999
  0
ARC
  8
_0-0_0
  6
CONTINUOUS
 62
    7
 10
142.87892150000002
 20
201.77456649999999
 40
0.25
 50
180.00000900000003
 51
269.99999700000001
  0
LINE
  8
_0-0_0
  6
CONTINUOUS
 62
    7
 10
143.52891550000001
 20
201.52456649999999
 11
142.87892150000002
 21
201.52456649999999
  0
LINE
  8
_0-0_0
  6
CONTINUOUS
 62
    7
 10
143.52891550000001
 20
201.52456649999999
 11
143.52891550000001
 21
201.1245725
  0
LINE
  8
_0-0_0
  6
CONTINUOUS
 62
    7
 10
102.4289165
 20
199.15000950000001
 11
102.4289165
 21
199.00328049999999
  0
LINE
  8
_0-0_0
  6
CONTINUOUS
 62
    7
 10
102.4289165
 20
199.34054549999999
 11
102.4289165
 21
199.15000950000001
  0
LINE
  8
_0-0_0
  6
CONTINUOUS
 62
    7
 10
102.4289165
 20
199.51556350000001
 11
102.4289165
 21
199.34054549999999
  0
LINE
  8
_0-0_0
  6
CONTINUOUS
 62
    7
 10
102.4289165
 20
199.6731565
 11
102.4289165
 21
199.51556350000001
  0
LINE
  8
_0-0_0
  6
CONTINUOUS
 62
    7
 10
102.4289165
 20
199.81158450000001
 11
102.4289165
 21
199.6731565
  0
LINE
  8
_0-0_0
  6
CONTINUOUS
 62
    7
 10
102.4289165
 20
199.92933650000001
 11
102.4289165
 21
199.81158450000001
  0
LINE
  8
_0-0_0
  6
CONTINUOUS
 62
    7
 10
102.4289165
 20
200.02513150000001
 11
102.4289165
 21
199.92933650000001
  0
LINE
  8
_0-0_0
  6
CONTINUOUS
 62
    7
 10
102.4289165
 20
200.09790050000001
 11
102.4289165
 21
200.02513150000001
  0
LINE
  8
_0-0_0
  6
CONTINUOUS
 62
    7
 10
102.4289165
 20
200.14686549999999
 11
102.4289165
 21
200.09790050000001
  0
LINE
  8
_0-0_0
  6
CONTINUOUS
 62
    7
 10
102.4289165
 20
200.1745755
 11
102.4289165
 21
200.14686549999999
  0
LINE
  8
_0-0_0
  6
CONTINUOUS
 62
    7
 10
102.4289165
 20
200.1745755
 11
102.4289165
 21
200.1714935
  0
LINE
  8
_0-0_0
  6
CONTINUOUS
 62
    7
 10
102.4289165
 20
195.67765750000001
 11
102.4289165
 21
195.6745755
  0
LINE
  8
_0-0_0
  6
CONTINUOUS
 62
    7
 10
102.4289165
 20
195.7022705
 11
102.4289165
 21
195.67765750000001
  0
LINE
  8
_0-0_0
  6
CONTINUOUS
 62
    7
 10
102.4289165
 20
195.75123550000001
 11
102.4289165
 21
195.7022705
  0
LINE
  8
_0-0_0
  6
CONTINUOUS
 62
    7
 10
102.4289165
 20
195.82402049999999
 11
102.4289165
 21
195.75123550000001
  0
LINE
  8
_0-0_0
  6
CONTINUOUS
 62
    7
 10
102.4289165
 20
195.91979950000001
 11
102.4289165
 21
195.82402049999999
  0
LINE
  8
_0-0_0
  6
CONTINUOUS
 62
    7
 10
102.4289165
 20
195.95001250000001
 11
102.4289165
 21
195.91979950000001
  0
LINE
  8
_0-0_0
  6
CONTINUOUS
 62
    7
 10
102.4289165
 20
196.03756749999999
 11
102.4289165
 21
195.95001250000001
  0
LINE
  8
_0-0_0
  6
CONTINUOUS
 62
    7
 10
102.4289165
 20
196.1759945
 11
102.4289165
 21
196.03756749999999
  0
LINE
  8
_0-0_0
  6
CONTINUOUS
 62
    7
 10
102.4289165
 20
196.33358749999999
 11
102.4289165
 21
196.1759945
  0
LINE
  8
_0-0_0
  6
CONTINUOUS
 62
    7
 10
102.4289165
 20
196.50860550000002
 11
102.4289165
 21
196.33358749999999
  0
LINE
  8
_0-0_0
  6
CONTINUOUS
 62
    7
 10
102.4289165
 20
196.6991275
 11
102.4289165
 21
196.50860550000002
  0
LINE
  8
_0-0_0
  6
CONTINUOUS
 62
    7
 10
102.4289165
 20
196.90309150000002
 11
102.4289165
 21
196.6991275
  0
LINE
  8
_0-0_0
  6
CONTINUOUS
 62
    7
 10
102.4289165
 20
197.11824050000001
 11
102.4289165
 21
196.90309150000002
  0
LINE
  8
_0-0_0
  6
CONTINUOUS
 62
    7
 10
102.4289165
 20
197.34222450000001
 11
102.4289165
 21
197.11824050000001
  0
LINE
  8
_0-0_0
  6
CONTINUOUS
 62
    7
 10
102.4289165
 20
197.57260149999999
 11
102.4289165
 21
197.34222450000001
  0
LINE
  8
_0-0_0
  6
CONTINUOUS
 62
    7
 10
102.4289165
 20
197.80682350000001
 11
102.4289165
 21
197.57260149999999
  0
LINE
  8
_0-0_0
  6
CONTINUOUS
 62
    7
 10
102.4289165
 20
198.0423275
 11
102.4289165
 21
197.80682350000001
  0
LINE
  8
_0-0_0
  6
CONTINUOUS
 62
    7
 10
102.4289165
 20
198.27655050000001
 11
102.4289165
 21
198.0423275
  0
LINE
  8
_0-0_0
  6
CONTINUOUS
 62
    7
 10
102.4289165
 20
198.5069125
 11
102.4289165
 21
198.27655050000001
  0
LINE
  8
_0-0_0
  6
CONTINUOUS
 62
    7
 10
102.4289165
 20
198.7308955
 11
102.4289165
 21
198.5069125
  0
LINE
  8
_0-0_0
  6
CONTINUOUS
 62
    7
 10
102.4289165
 20
198.9460445
 11
102.4289165
 21
198.7308955
  0
LINE
  8
_0-0_0
  6
CONTINUOUS
 62
    7
 10
102.4289165
 20
199.00328049999999
 11
102.4289165
 21
198.9460445
  0
LINE
  8
_0-0_0
  6
CONTINUOUS
 62
    7
 10
117.4289165
 20
191.18661449999999
 11
117.4289165
 21
192.2322695
  0
LINE
  8
_0-0_0
  6
CONTINUOUS
 62
    7
 10
117.4289165
 20
193.5168765
 11
117.4289165
 21
192.2322695
  0
LINE
  8
_0-0_0
  6
CONTINUOUS
 62
    7
 10
117.4289165
 20
193.63226349999999
 11
117.4289165
 21
193.5168765
  0
LINE
  8
_0-0_0
  6
CONTINUOUS
 62
    7
 10
117.4289165
 20
191.18661449999999
 11
117.4289165
 21
188.06251549999999
  0
LINE
  8
_0-0_0
  6
CONTINUOUS
 62
    7
 10
117.4289165
 20
185.6168825
 11
117.4289165
 21
185.7322695
  0
LINE
  8
_0-0_0
  6
CONTINUOUS
 62
    7
 10
117.4289165
 20
187.01687650000002
 11
117.4289165
 21
185.7322695
  0
LINE
  8
_0-0_0
  6
CONTINUOUS
 62
    7
 10
117.4289165
 20
187.01687650000002
 11
117.4289165
 21
188.06251549999999
  0
LINE
  8
_0-0_0
  6
CONTINUOUS
 62
    7
 10
102.4289165
 20
182.55001049999998
 11
102.4289165
 21
182.40328249999999
  0
LINE
  8
_0-0_0
  6
CONTINUOUS
 62
    7
 10
102.4289165
 20
182.74053950000001
 11
102.4289165
 21
182.55001049999998
  0
LINE
  8
_0-0_0
  6
CONTINUOUS
 62
    7
 10
102.4289165
 20
182.91555750000001
 11
102.4289165
 21
182.74053950000001
  0
LINE
  8
_0-0_0
  6
CONTINUOUS
 62
    7
 10
102.4289165
 20
183.0731505
 11
102.4289165
 21
182.91555750000001
  0
LINE
  8
_0-0_0
  6
CONTINUOUS
 62
    7
 10
102.4289165
 20
183.2115785
 11
102.4289165
 21
183.0731505
  0
LINE
  8
_0-0_0
  6
CONTINUOUS
 62
    7
 10
102.4289165
 20
183.32933750000001
 11
102.4289165
 21
183.2115785
  0
LINE
  8
_0-0_0
  6
CONTINUOUS
 62
    7
 10
102.4289165
 20
183.42512550000001
 11
102.4289165
 21
183.32933750000001
  0
LINE
  8
_0-0_0
  6
CONTINUOUS
 62
    7
 10
102.4289165
 20
183.49790150000001
 11
102.4289165
 21
183.42512550000001
  0
LINE
  8
_0-0_0
  6
CONTINUOUS
 62
    7
 10
102.4289165
 20
183.54686750000002
 11
102.4289165
 21
183.49790150000001
  0
LINE
  8
_0-0_0
  6
CONTINUOUS
 62
    7
 10
102.4289165
 20
183.57148749999999
 11
102.4289165
 21
183.54686750000002
  0
LINE
  8
_0-0_0
  6
CONTINUOUS
 62
    7
 10
102.4289165
 20
183.5745695
 11
102.4289165
 21
183.57148749999999
  0
LINE
  8
_0-0_0
  6
CONTINUOUS
 62
    7
 10
102.4289165
 20
179.0776515
 11
102.4289165
 21
179.0745695
  0
LINE
  8
_0-0_0
  6
CONTINUOUS
 62
    7
 10
102.4289165
 20
179.1022715
 11
102.4289165
 21
179.0776515
  0
LINE
  8
_0-0_0
  6
CONTINUOUS
 62
    7
 10
102.4289165
 20
179.15123750000001
 11
102.4289165
 21
179.1022715
  0
LINE
  8
_0-0_0
  6
CONTINUOUS
 62
    7
 10
102.4289165
 20
179.22401450000001
 11
102.4289165
 21
179.15123750000001
  0
LINE
  8
_0-0_0
  6
CONTINUOUS
 62
    7
 10
102.4289165
 20
179.31980149999998
 11
102.4289165
 21
179.22401450000001
  0
LINE
  8
_0-0_0
  6
CONTINUOUS
 62
    7
 10
102.4289165
 20
179.35000550000001
 11
102.4289165
 21
179.31980149999998
  0
LINE
  8
_0-0_0
  6
CONTINUOUS
 62
    7
 10
102.4289165
 20
179.43756050000002
 11
102.4289165
 21
179.35000550000001
  0
LINE
  8
_0-0_0
  6
CONTINUOUS
 62
    7
 10
102.4289165
 20
179.5759965
 11
102.4289165
 21
179.43756050000002
  0
LINE
  8
_0-0_0
  6
CONTINUOUS
 62
    7
 10
102.4289165
 20
179.73358150000001
 11
102.4289165
 21
179.5759965
  0
LINE
  8
_0-0_0
  6
CONTINUOUS
 62
    7
 10
102.4289165
 20
179.90859950000001
 11
102.4289165
 21
179.73358150000001
  0
LINE
  8
_0-0_0
  6
CONTINUOUS
 62
    7
 10
102.4289165
 20
180.09913649999999
 11
102.4289165
 21
179.90859950000001
  0
LINE
  8
_0-0_0
  6
CONTINUOUS
 62
    7
 10
102.4289165
 20
180.30309249999999
 11
102.4289165
 21
180.09913649999999
  0
LINE
  8
_0-0_0
  6
CONTINUOUS
 62
    7
 10
102.4289165
 20
180.51824149999999
 11
102.4289165
 21
180.30309249999999
  0
LINE
  8
_0-0_0
  6
CONTINUOUS
 62
    7
 10
102.4289165
 20
180.7422335
 11
102.4289165
 21
180.51824149999999
  0
LINE
  8
_0-0_0
  6
CONTINUOUS
 62
    7
 10
102.4289165
 20
180.97259550000001
 11
102.4289165
 21
180.7422335
  0
LINE
  8
_0-0_0
  6
CONTINUOUS
 62
    7
 10
102.4289165
 20
181.2068175
 11
102.4289165
 21
180.97259550000001
  0
LINE
  8
_0-0_0
  6
CONTINUOUS
 62
    7
 10
102.4289165
 20
181.4423295
 11
102.4289165
 21
181.2068175
  0
LINE
  8
_0-0_0
  6
CONTINUOUS
 62
    7
 10
102.4289165
 20
181.67654450000001
 11
102.4289165
 21
181.4423295
  0
LINE
  8
_0-0_0
  6
CONTINUOUS
 62
    7
 10
102.4289165
 20
181.9069135
 11
102.4289165
 21
181.67654450000001
  0
LINE
  8
_0-0_0
  6
CONTINUOUS
 62
    7
 10
102.4289165
 20
182.1308975
 11
102.4289165
 21
181.9069135
  0
LINE
  8
_0-0_0
  6
CONTINUOUS
 62
    7
 10
102.4289165
 20
182.34605349999998
 11
102.4289165
 21
182.1308975
  0
LINE
  8
_0-0_0
  6
CONTINUOUS
 62
    7
 10
102.4289165
 20
182.40328249999999
 11
102.4289165
 21
182.34605349999998
  0
LINE
  8
_0-0_0
  6
CONTINUOUS
 62
    7
 10
213.4289095
 20
192.1745755
 11
209.4289095
 21
192.1745755
  0
ARC
  8
_0-0_0
  6
CONTINUOUS
 62
    7
 10
209.4289095
 20
194.4245755
 40
2.25
 50
90.000003000000007
 51
269.99999700000006
  0
LINE
  8
_0-0_0
  6
CONTINUOUS
 62
    7
 10
209.4289095
 20
196.6745755
 11
213.4289095
 21
196.6745755
  0
ARC
  8
_0-0_0
  6
CONTINUOUS
 62
    7
 10
213.4289095
 20
194.4245755
 40
2.25
 50
269.99999700000001
 51
90.000002999999992
  0
ARC
  8
_0-0_0
  6
CONTINUOUS
 62
    7
 10
153.4289095
 20
194.4245755
 40
2.25
 50
90.000003000000007
 51
269.99999700000006
  0
LINE
  8
_0-0_0
  6
CONTINUOUS
 62
    7
 10
153.4289095
 20
196.6745755
 11
157.4289095
 21
196.6745755
  0
ARC
  8
_0-0_0
  6
CONTINUOUS
 62
    7
 10
157.4289095
 20
194.4245755
 40
2.25
 50
269.99999700000001
 51
90.000002999999992
  0
LINE
  8
_0-0_0
  6
CONTINUOUS
 62
    7
 10
157.4289095
 20
192.1745755
 11
153.4289095
 21
192.1745755
  0
LINE
  8
_0-0_0
  6
CONTINUOUS
 62
    7
 10
102.4289165
 20
199.15000950000001
 11
102.1789165
 21
199.1745755
  0
LINE
  8
_0-0_0
  6
CONTINUOUS
 62
    7
 10
102.4289165
 20
198.9460445
 11
102.1789165
 21
199.1745755
  0
LINE
  8
_0-0_0
  6
CONTINUOUS
 62
    7
 10
102.4289165
 20
199.34054549999999
 11
102.1789165
 21
199.39404250000001
  0
LINE
  8
_0-0_0
  6
CONTINUOUS
 62
    7
 10
102.4289165
 20
199.15000950000001
 11
102.1789165
 21
199.39404250000001
  0
LINE
  8
_0-0_0
  6
CONTINUOUS
 62
    7
 10
102.4289165
 20
199.51556350000001
 11
102.1789165
 21
199.5973965
  0
LINE
  8
_0-0_0
  6
CONTINUOUS
 62
    7
 10
102.4289165
 20
199.34054549999999
 11
102.1789165
 21
199.5973965
  0
LINE
  8
_0-0_0
  6
CONTINUOUS
 62
    7
 10
102.4289165
 20
199.6731565
 11
102.1789165
 21
199.78244050000001
  0
LINE
  8
_0-0_0
  6
CONTINUOUS
 62
    7
 10
102.4289165
 20
199.51556350000001
 11
102.1789165
 21
199.78244050000001
  0
LINE
  8
_0-0_0
  6
CONTINUOUS
 62
    7
 10
102.4289165
 20
199.81158450000001
 11
102.1789165
 21
199.9471125
  0
LINE
  8
_0-0_0
  6
CONTINUOUS
 62
    7
 10
102.4289165
 20
199.6731565
 11
102.1789165
 21
199.9471125
  0
LINE
  8
_0-0_0
  6
CONTINUOUS
 62
    7
 10
102.4289165
 20
199.92933650000001
 11
102.1789165
 21
200.0896305
  0
LINE
  8
_0-0_0
  6
CONTINUOUS
 62
    7
 10
102.4289165
 20
199.81158450000001
 11
102.1789165
 21
200.0896305
  0
LINE
  8
_0-0_0
  6
CONTINUOUS
 62
    7
 10
102.4289165
 20
200.02513150000001
 11
102.1789165
 21
200.20843450000001
  0
LINE
  8
_0-0_0
  6
CONTINUOUS
 62
    7
 10
102.4289165
 20
199.92933650000001
 11
102.1789165
 21
200.20843450000001
  0
LINE
  8
_0-0_0
  6
CONTINUOUS
 62
    7
 10
102.4289165
 20
200.09790050000001
 11
102.1789165
 21
200.30221549999999
  0
LINE
  8
_0-0_0
  6
CONTINUOUS
 62
    7
 10
102.4289165
 20
200.02513150000001
 11
102.1789165
 21
200.30221549999999
  0
LINE
  8
_0-0_0
  6
CONTINUOUS
 62
    7
 10
102.4289165
 20
200.14686549999999
 11
102.1789165
 21
200.3699335
  0
LINE
  8
_0-0_0
  6
CONTINUOUS
 62
    7
 10
102.4289165
 20
200.09790050000001
 11
102.1789165
 21
200.3699335
  0
LINE
  8
_0-0_0
  6
CONTINUOUS
 62
    7
 10
102.4289165
 20
200.1714935
 11
102.1789165
 21
200.41087350000001
  0
LINE
  8
_0-0_0
  6
CONTINUOUS
 62
    7
 10
102.4289165
 20
200.14686549999999
 11
102.1789165
 21
200.41087350000001
  0
LINE
  8
_0-0_0
  6
CONTINUOUS
 62
    7
 10
102.4289165
 20
200.1714935
 11
102.1789165
 21
200.4245755
  0
LINE
  8
_0-0_0
  6
CONTINUOUS
 62
    7
 10
102.4289165
 20
195.67765750000001
 11
102.1789165
 21
195.4245755
  0
LINE
  8
_0-0_0
  6
CONTINUOUS
 62
    7
 10
102.4289165
 20
195.7022705
 11
102.1789165
 21
195.43826250000001
  0
LINE
  8
_0-0_0
  6
CONTINUOUS
 62
    7
 10
102.4289165
 20
195.67765750000001
 11
102.42569750000001
 21
195.6745755
  0
LINE
  8
_0-0_0
  6
CONTINUOUS
 62
    7
 10
102.4289165
 20
195.75123550000001
 11
102.1789165
 21
195.47920250000001
  0
LINE
  8
_0-0_0
  6
CONTINUOUS
 62
    7
 10
102.4289165
 20
195.7022705
 11
102.1789165
 21
195.47920250000001
  0
LINE
  8
_0-0_0
  6
CONTINUOUS
 62
    7
 10
102.4289165
 20
195.82402049999999
 11
102.1789165
 21
195.54693549999999
  0
LINE
  8
_0-0_0
  6
CONTINUOUS
 62
    7
 10
102.4289165
 20
195.75123550000001
 11
102.1789165
 21
195.54693549999999
  0
LINE
  8
_0-0_0
  6
CONTINUOUS
 62
    7
 10
102.4289165
 20
195.91979950000001
 11
102.1789165
 21
195.64070150000001
  0
LINE
  8
_0-0_0
  6
CONTINUOUS
 62
    7
 10
102.4289165
 20
195.82402049999999
 11
102.1789165
 21
195.64070150000001
  0
LINE
  8
_0-0_0
  6
CONTINUOUS
 62
    7
 10
102.4289165
 20
195.91979950000001
 11
102.2989505
 21
195.83595249999999
  0
LINE
  8
_0-0_0
  6
CONTINUOUS
 62
    7
 10
102.4289165
 20
196.03756749999999
 11
102.1789165
 21
195.75950650000001
  0
LINE
  8
_0-0_0
  6
CONTINUOUS
 62
    7
 10
102.2989505
 20
195.83595249999999
 11
102.1789165
 21
195.75950650000001
  0
LINE
  8
_0-0_0
  6
CONTINUOUS
 62
    7
 10
102.4289165
 20
196.1759945
 11
102.1789165
 21
195.90202350000001
  0
LINE
  8
_0-0_0
  6
CONTINUOUS
 62
    7
 10
102.4289165
 20
196.03756749999999
 11
102.1789165
 21
195.90202350000001
  0
LINE
  8
_0-0_0
  6
CONTINUOUS
 62
    7
 10
102.4289165
 20
196.33358749999999
 11
102.1789165
 21
196.0667115
  0
LINE
  8
_0-0_0
  6
CONTINUOUS
 62
    7
 10
102.4289165
 20
196.1759945
 11
102.1789165
 21
196.0667115
  0
LINE
  8
_0-0_0
  6
CONTINUOUS
 62
    7
 10
102.4289165
 20
196.50860550000002
 11
102.1789165
 21
196.25173950000001
  0
LINE
  8
_0-0_0
  6
CONTINUOUS
 62
    7
 10
102.4289165
 20
196.33358749999999
 11
102.1789165
 21
196.25173950000001
  0
LINE
  8
_0-0_0
  6
CONTINUOUS
 62
    7
 10
102.4289165
 20
196.6991275
 11
102.1789165
 21
196.45510849999999
  0
LINE
  8
_0-0_0
  6
CONTINUOUS
 62
    7
 10
102.4289165
 20
196.50860550000002
 11
102.1789165
 21
196.45510849999999
  0
LINE
  8
_0-0_0
  6
CONTINUOUS
 62
    7
 10
102.4289165
 20
196.90309150000002
 11
102.1789165
 21
196.6745755
  0
LINE
  8
_0-0_0
  6
CONTINUOUS
 62
    7
 10
102.4289165
 20
196.6991275
 11
102.1789165
 21
196.6745755
  0
LINE
  8
_0-0_0
  6
CONTINUOUS
 62
    7
 10
102.4289165
 20
197.11824050000001
 11
102.1789165
 21
196.90772950000002
  0
LINE
  8
_0-0_0
  6
CONTINUOUS
 62
    7
 10
102.4289165
 20
196.90309150000002
 11
102.1789165
 21
196.90772950000002
  0
LINE
  8
_0-0_0
  6
CONTINUOUS
 62
    7
 10
102.4289165
 20
197.34222450000001
 11
102.1789165
 21
197.15202350000001
  0
LINE
  8
_0-0_0
  6
CONTINUOUS
 62
    7
 10
102.4289165
 20
197.11824050000001
 11
102.1789165
 21
197.15202350000001
  0
LINE
  8
_0-0_0
  6
CONTINUOUS
 62
    7
 10
102.4289165
 20
197.57260149999999
 11
102.1789165
 21
197.4047855
  0
LINE
  8
_0-0_0
  6
CONTINUOUS
 62
    7
 10
102.4289165
 20
197.34222450000001
 11
102.1789165
 21
197.4047855
  0
LINE
  8
_0-0_0
  6
CONTINUOUS
 62
    7
 10
102.4289165
 20
197.80682350000001
 11
102.1789165
 21
197.6632535
  0
LINE
  8
_0-0_0
  6
CONTINUOUS
 62
    7
 10
102.4289165
 20
197.57260149999999
 11
102.1789165
 21
197.6632535
  0
LINE
  8
_0-0_0
  6
CONTINUOUS
 62
    7
 10
102.4289165
 20
198.0423275
 11
102.1789165
 21
197.9245755
  0
LINE
  8
_0-0_0
  6
CONTINUOUS
 62
    7
 10
102.4289165
 20
197.80682350000001
 11
102.1789165
 21
197.9245755
  0
LINE
  8
_0-0_0
  6
CONTINUOUS
 62
    7
 10
102.4289165
 20
198.27655050000001
 11
102.1789165
 21
198.18589750000001
  0
LINE
  8
_0-0_0
  6
CONTINUOUS
 62
    7
 10
102.4289165
 20
198.0423275
 11
102.1789165
 21
198.18589750000001
  0
LINE
  8
_0-0_0
  6
CONTINUOUS
 62
    7
 10
102.4289165
 20
198.5069125
 11
102.1789165
 21
198.44435150000001
  0
LINE
  8
_0-0_0
  6
CONTINUOUS
 62
    7
 10
102.4289165
 20
198.27655050000001
 11
102.1789165
 21
198.44435150000001
  0
LINE
  8
_0-0_0
  6
CONTINUOUS
 62
    7
 10
102.4289165
 20
198.7308955
 11
102.1789165
 21
198.6971125
  0
LINE
  8
_0-0_0
  6
CONTINUOUS
 62
    7
 10
102.4289165
 20
198.5069125
 11
102.1789165
 21
198.6971125
  0
LINE
  8
_0-0_0
  6
CONTINUOUS
 62
    7
 10
102.4289165
 20
198.9460445
 11
102.1789165
 21
198.9414065
  0
LINE
  8
_0-0_0
  6
CONTINUOUS
 62
    7
 10
102.4289165
 20
198.7308955
 11
102.1789165
 21
198.9414065
  0
LINE
  8
_0-0_0
  6
CONTINUOUS
 62
    7
 10
117.4289165
 20
193.5168765
 11
107.72109250000001
 21
193.5168765
  0
LINE
  8
_0-0_0
  6
CONTINUOUS
 62
    7
 10
107.72109250000001
 20
193.5168765
 11
107.6666105
 21
193.58682250000001
  0
LINE
  8
_0-0_0
  6
CONTINUOUS
 62
    7
 10
107.6666105
 20
193.58682250000001
 11
107.6155095
 21
193.65563950000001
  0
LINE
  8
_0-0_0
  6
CONTINUOUS
 62
    7
 10
107.6155095
 20
193.65563950000001
 11
107.56787150000001
 21
193.72314449999999
  0
LINE
  8
_0-0_0
  6
CONTINUOUS
 62
    7
 10
107.56787150000001
 20
193.72314449999999
 11
107.5233685
 21
193.78968750000001
  0
LINE
  8
_0-0_0
  6
CONTINUOUS
 62
    7
 10
107.5233685
 20
193.78968750000001
 11
107.46864350000001
 21
193.8772275
  0
LINE
  8
_0-0_0
  6
CONTINUOUS
 62
    7
 10
107.46864350000001
 20
193.8772275
 11
107.4191435
 21
193.9633335
  0
LINE
  8
_0-0_0
  6
CONTINUOUS
 62
    7
 10
107.4191435
 20
193.9633335
 11
107.37467150000001
 21
194.0481715
  0
LINE
  8
_0-0_0
  6
CONTINUOUS
 62
    7
 10
107.37467150000001
 20
194.0481715
 11
107.32770550000001
 21
194.1484835
  0
LINE
  8
_0-0_0
  6
CONTINUOUS
 62
    7
 10
107.32770550000001
 20
194.1484835
 11
107.28749850000001
 21
194.24740550000001
  0
LINE
  8
_0-0_0
  6
CONTINUOUS
 62
    7
 10
107.28749850000001
 20
194.24740550000001
 11
107.25383050000001
 21
194.3451685
  0
LINE
  8
_0-0_0
  6
CONTINUOUS
 62
    7
 10
107.25383050000001
 20
194.3451685
 11
107.22654750000001
 21
194.4419705
  0
LINE
  8
_0-0_0
  6
CONTINUOUS
 62
    7
 10
107.22654750000001
 20
194.4419705
 11
107.20549750000001
 21
194.53802450000001
  0
LINE
  8
_0-0_0
  6
CONTINUOUS
 62
    7
 10
107.20549750000001
 20
194.53802450000001
 11
107.18956750000001
 21
194.6418765
  0
LINE
  8
_0-0_0
  6
CONTINUOUS
 62
    7
 10
107.18956750000001
 20
194.6418765
 11
107.18080950000001
 21
194.74530050000001
  0
LINE
  8
_0-0_0
  6
CONTINUOUS
 62
    7
 10
107.18080950000001
 20
194.74530050000001
 11
107.17917650000001
 21
194.84854150000001
  0
LINE
  8
_0-0_0
  6
CONTINUOUS
 62
    7
 10
107.17917650000001
 20
194.84854150000001
 11
107.1846465
 21
194.95182750000001
  0
LINE
  8
_0-0_0
  6
CONTINUOUS
 62
    7
 10
107.1846465
 20
194.95182750000001
 11
107.19725050000001
 21
195.0554195
  0
LINE
  8
_0-0_0
  6
CONTINUOUS
 62
    7
 10
107.19725050000001
 20
195.0554195
 11
107.2170715
 21
195.15957650000001
  0
LINE
  8
_0-0_0
  6
CONTINUOUS
 62
    7
 10
107.2170715
 20
195.15957650000001
 11
107.24421650000001
 21
195.26452649999999
  0
LINE
  8
_0-0_0
  6
CONTINUOUS
 62
    7
 10
107.24421650000001
 20
195.26452649999999
 11
107.2788625
 21
195.37055950000001
  0
LINE
  8
_0-0_0
  6
CONTINUOUS
 62
    7
 10
107.2788625
 20
195.37055950000001
 11
107.3212055
 21
195.4779355
  0
LINE
  8
_0-0_0
  6
CONTINUOUS
 62
    7
 10
107.3212055
 20
195.4779355
 11
107.3715215
 21
195.58694450000002
  0
LINE
  8
_0-0_0
  6
CONTINUOUS
 62
    7
 10
107.3715215
 20
195.58694450000002
 11
107.41722150000001
 21
195.67460650000001
  0
LINE
  8
_0-0_0
  6
CONTINUOUS
 62
    7
 10
117.4289165
 20
192.2322695
 11
107.72109250000001
 21
192.2322695
  0
LINE
  8
_0-0_0
  6
CONTINUOUS
 62
    7
 10
107.72109250000001
 20
192.2322695
 11
107.6267545
 21
191.98564150000001
  0
LINE
  8
_0-0_0
  6
CONTINUOUS
 62
    7
 10
107.6267545
 20
191.98564150000001
 11
107.54280850000001
 21
191.74568149999999
  0
LINE
  8
_0-0_0
  6
CONTINUOUS
 62
    7
 10
107.54280850000001
 20
191.74568149999999
 11
107.46864350000001
 21
191.51156650000001
  0
LINE
  8
_0-0_0
  6
CONTINUOUS
 62
    7
 10
107.46864350000001
 20
191.51156650000001
 11
107.40377050000001
 21
191.28251650000001
  0
LINE
  8
_0-0_0
  6
CONTINUOUS
 62
    7
 10
107.40377050000001
 20
191.28251650000001
 11
107.34773250000001
 21
191.05784550000001
  0
LINE
  8
_0-0_0
  6
CONTINUOUS
 62
    7
 10
107.34773250000001
 20
191.05784550000001
 11
107.30016350000001
 21
190.83686850000001
  0
LINE
  8
_0-0_0
  6
CONTINUOUS
 62
    7
 10
107.30016350000001
 20
190.83686850000001
 11
107.26075750000001
 21
190.61895749999999
  0
LINE
  8
_0-0_0
  6
CONTINUOUS
 62
    7
 10
107.26075750000001
 20
190.61895749999999
 11
107.2292635
 21
190.4035035
  0
LINE
  8
_0-0_0
  6
CONTINUOUS
 62
    7
 10
107.2292635
 20
190.4035035
 11
107.20549750000001
 21
190.18997150000001
  0
LINE
  8
_0-0_0
  6
CONTINUOUS
 62
    7
 10
107.20549750000001
 20
190.18997150000001
 11
107.18956750000001
 21
189.98225350000001
  0
LINE
  8
_0-0_0
  6
CONTINUOUS
 62
    7
 10
107.18956750000001
 20
189.98225350000001
 11
107.18080950000001
 21
189.77540550000001
  0
LINE
  8
_0-0_0
  6
CONTINUOUS
 62
    7
 10
107.18080950000001
 20
189.77540550000001
 11
107.17917650000001
 21
189.5689395
  0
LINE
  8
_0-0_0
  6
CONTINUOUS
 62
    7
 10
107.17917650000001
 20
189.5689395
 11
107.1846465
 21
189.36235049999999
  0
LINE
  8
_0-0_0
  6
CONTINUOUS
 62
    7
 10
107.1846465
 20
189.36235049999999
 11
107.19725050000001
 21
189.15516650000001
  0
LINE
  8
_0-0_0
  6
CONTINUOUS
 62
    7
 10
107.19725050000001
 20
189.15516650000001
 11
107.2170715
 21
188.94686849999999
  0
LINE
  8
_0-0_0
  6
CONTINUOUS
 62
    7
 10
107.2170715
 20
188.94686849999999
 11
107.24421650000001
 21
188.7369535
  0
LINE
  8
_0-0_0
  6
CONTINUOUS
 62
    7
 10
107.24421650000001
 20
188.7369535
 11
107.2788625
 21
188.52488650000001
  0
LINE
  8
_0-0_0
  6
CONTINUOUS
 62
    7
 10
107.2788625
 20
188.52488650000001
 11
107.3212055
 21
188.3101345
  0
LINE
  8
_0-0_0
  6
CONTINUOUS
 62
    7
 10
107.3212055
 20
188.3101345
 11
107.3715215
 21
188.09213249999999
  0
LINE
  8
_0-0_0
  6
CONTINUOUS
 62
    7
 10
107.3715215
 20
188.09213249999999
 11
107.42577350000001
 21
187.88584850000001
  0
LINE
  8
_0-0_0
  6
CONTINUOUS
 62
    7
 10
107.42577350000001
 20
187.88584850000001
 11
107.4874805
 21
187.6757355
  0
LINE
  8
_0-0_0
  6
CONTINUOUS
 62
    7
 10
107.4874805
 20
187.6757355
 11
107.5569995
 21
187.4612655
  0
LINE
  8
_0-0_0
  6
CONTINUOUS
 62
    7
 10
107.5569995
 20
187.4612655
 11
107.63471250000001
 21
187.2418515
  0
LINE
  8
_0-0_0
  6
CONTINUOUS
 62
    7
 10
107.63471250000001
 20
187.2418515
 11
107.72109250000001
 21
187.01687650000002
  0
LINE
  8
_0-0_0
  6
CONTINUOUS
 62
    7
 10
117.4289165
 20
187.01687650000002
 11
107.72109250000001
 21
187.01687650000002
  0
ARC
  8
_0-0_0
  6
CONTINUOUS
 62
    7
 10
112.59264350000001
 20
192.8745725
 40
4.9136889999999998
 50
172.48898299999999
 51
187.51101699999998
  0
LINE
  8
_0-0_0
  6
CONTINUOUS
 62
    7
 10
117.4289165
 20
185.7322695
 11
107.72109250000001
 21
185.7322695
  0
LINE
  8
_0-0_0
  6
CONTINUOUS
 62
    7
 10
107.72109250000001
 20
183.1245725
 11
107.6666105
 21
183.1945115
  0
LINE
  8
_0-0_0
  6
CONTINUOUS
 62
    7
 10
107.6666105
 20
183.1945115
 11
107.6155095
 21
183.26333650000001
  0
LINE
  8
_0-0_0
  6
CONTINUOUS
 62
    7
 10
107.6155095
 20
183.26333650000001
 11
107.56787150000001
 21
183.33084050000002
  0
LINE
  8
_0-0_0
  6
CONTINUOUS
 62
    7
 10
107.56787150000001
 20
183.33084050000002
 11
107.5233685
 21
183.39739250000002
  0
LINE
  8
_0-0_0
  6
CONTINUOUS
 62
    7
 10
107.5233685
 20
183.39739250000002
 11
107.46864350000001
 21
183.48492450000001
  0
LINE
  8
_0-0_0
  6
CONTINUOUS
 62
    7
 10
107.46864350000001
 20
183.48492450000001
 11
107.4191435
 21
183.57102950000001
  0
LINE
  8
_0-0_0
  6
CONTINUOUS
 62
    7
 10
107.4191435
 20
183.57102950000001
 11
107.37467150000001
 21
183.65586050000002
  0
LINE
  8
_0-0_0
  6
CONTINUOUS
 62
    7
 10
107.37467150000001
 20
183.65586050000002
 11
107.32770550000001
 21
183.7561795
  0
LINE
  8
_0-0_0
  6
CONTINUOUS
 62
    7
 10
107.32770550000001
 20
183.7561795
 11
107.28749850000001
 21
183.85510249999999
  0
LINE
  8
_0-0_0
  6
CONTINUOUS
 62
    7
 10
107.28749850000001
 20
183.85510249999999
 11
107.25383050000001
 21
183.9528655
  0
LINE
  8
_0-0_0
  6
CONTINUOUS
 62
    7
 10
107.25383050000001
 20
183.9528655
 11
107.22654750000001
 21
184.0496675
  0
LINE
  8
_0-0_0
  6
CONTINUOUS
 62
    7
 10
107.22654750000001
 20
184.0496675
 11
107.20549750000001
 21
184.14572150000001
  0
LINE
  8
_0-0_0
  6
CONTINUOUS
 62
    7
 10
107.20549750000001
 20
184.14572150000001
 11
107.18956750000001
 21
184.2495725
  0
LINE
  8
_0-0_0
  6
CONTINUOUS
 62
    7
 10
107.18956750000001
 20
184.2495725
 11
107.18080950000001
 21
184.35299650000002
  0
LINE
  8
_0-0_0
  6
CONTINUOUS
 62
    7
 10
107.18080950000001
 20
184.35299650000002
 11
107.17917650000001
 21
184.45623749999999
  0
LINE
  8
_0-0_0
  6
CONTINUOUS
 62
    7
 10
107.17917650000001
 20
184.45623749999999
 11
107.1846465
 21
184.55953249999999
  0
LINE
  8
_0-0_0
  6
CONTINUOUS
 62
    7
 10
107.1846465
 20
184.55953249999999
 11
107.19725050000001
 21
184.66312349999998
  0
LINE
  8
_0-0_0
  6
CONTINUOUS
 62
    7
 10
107.19725050000001
 20
184.66312349999998
 11
107.2170715
 21
184.76726550000001
  0
LINE
  8
_0-0_0
  6
CONTINUOUS
 62
    7
 10
107.2170715
 20
184.76726550000001
 11
107.24421650000001
 21
184.87222250000002
  0
LINE
  8
_0-0_0
  6
CONTINUOUS
 62
    7
 10
107.24421650000001
 20
184.87222250000002
 11
107.2788625
 21
184.97825649999999
  0
LINE
  8
_0-0_0
  6
CONTINUOUS
 62
    7
 10
107.2788625
 20
184.97825649999999
 11
107.3212055
 21
185.08563950000001
  0
LINE
  8
_0-0_0
  6
CONTINUOUS
 62
    7
 10
107.3212055
 20
185.08563950000001
 11
107.3715215
 21
185.19464049999999
  0
LINE
  8
_0-0_0
  6
CONTINUOUS
 62
    7
 10
107.3715215
 20
185.19464049999999
 11
107.42577350000001
 21
185.29778249999998
  0
LINE
  8
_0-0_0
  6
CONTINUOUS
 62
    7
 10
107.42577350000001
 20
185.29778249999998
 11
107.4874805
 21
185.40283149999999
  0
LINE
  8
_0-0_0
  6
CONTINUOUS
 62
    7
 10
107.4874805
 20
185.40283149999999
 11
107.5569995
 21
185.51007049999998
  0
LINE
  8
_0-0_0
  6
CONTINUOUS
 62
    7
 10
107.5569995
 20
185.51007049999998
 11
107.63471250000001
 21
185.61978149999999
  0
LINE
  8
_0-0_0
  6
CONTINUOUS
 62
    7
 10
107.63471250000001
 20
185.61978149999999
 11
107.72109250000001
 21
185.7322695
  0
LINE
  8
_0-0_0
  6
CONTINUOUS
 62
    7
 10
117.4289165
 20
183.1245725
 11
107.72109250000001
 21
183.1245725
  0
ARC
  8
_0-0_0
  6
CONTINUOUS
 62
    7
 10
112.6028065
 20
186.37368750000002
 40
4.9238749999999998
 50
172.49424200000001
 51
181.535968
  0
ARC
  8
_0-0_0
  6
CONTINUOUS
 62
    7
 10
112.6408315
 20
186.37863149999998
 40
4.9620009999999999
 50
181.58130700000004
 51
187.48478900000003
  0
LINE
  8
_0-0_0
  6
CONTINUOUS
 62
    7
 10
107.6789165
 20
183.1245725
 11
107.72109250000001
 21
183.1245725
  0
LINE
  8
_0-0_0
  6
CONTINUOUS
 62
    7
 10
102.4289165
 20
182.55001049999998
 11
102.1789165
 21
182.5745695
  0
LINE
  8
_0-0_0
  6
CONTINUOUS
 62
    7
 10
102.4289165
 20
182.34605349999998
 11
102.1789165
 21
182.5745695
  0
LINE
  8
_0-0_0
  6
CONTINUOUS
 62
    7
 10
102.4289165
 20
182.74053950000001
 11
102.1789165
 21
182.7940365
  0
LINE
  8
_0-0_0
  6
CONTINUOUS
 62
    7
 10
102.4289165
 20
182.55001049999998
 11
102.1789165
 21
182.7940365
  0
LINE
  8
_0-0_0
  6
CONTINUOUS
 62
    7
 10
102.4289165
 20
182.91555750000001
 11
102.1789165
 21
182.9973985
  0
LINE
  8
_0-0_0
  6
CONTINUOUS
 62
    7
 10
102.4289165
 20
182.74053950000001
 11
102.1789165
 21
182.9973985
  0
LINE
  8
_0-0_0
  6
CONTINUOUS
 62
    7
 10
102.4289165
 20
183.0731505
 11
102.1789165
 21
183.1824335
  0
LINE
  8
_0-0_0
  6
CONTINUOUS
 62
    7
 10
102.4289165
 20
182.91555750000001
 11
102.1789165
 21
183.1824335
  0
LINE
  8
_0-0_0
  6
CONTINUOUS
 62
    7
 10
102.4289165
 20
183.2115785
 11
102.1789165
 21
183.3471145
  0
LINE
  8
_0-0_0
  6
CONTINUOUS
 62
    7
 10
102.4289165
 20
183.0731505
 11
102.1789165
 21
183.3471145
  0
LINE
  8
_0-0_0
  6
CONTINUOUS
 62
    7
 10
102.4289165
 20
183.32933750000001
 11
102.1789165
 21
183.48963950000001
  0
LINE
  8
_0-0_0
  6
CONTINUOUS
 62
    7
 10
102.4289165
 20
183.2115785
 11
102.1789165
 21
183.48963950000001
  0
LINE
  8
_0-0_0
  6
CONTINUOUS
 62
    7
 10
102.4289165
 20
183.42512550000001
 11
102.1789165
 21
183.60843649999998
  0
LINE
  8
_0-0_0
  6
CONTINUOUS
 62
    7
 10
102.4289165
 20
183.32933750000001
 11
102.1789165
 21
183.60843649999998
  0
LINE
  8
_0-0_0
  6
CONTINUOUS
 62
    7
 10
102.4289165
 20
183.49790150000001
 11
102.1789165
 21
183.70221650000002
  0
LINE
  8
_0-0_0
  6
CONTINUOUS
 62
    7
 10
102.4289165
 20
183.42512550000001
 11
102.1789165
 21
183.70221650000002
  0
LINE
  8
_0-0_0
  6
CONTINUOUS
 62
    7
 10
102.4289165
 20
183.54686750000002
 11
102.1789165
 21
183.76994350000001
  0
LINE
  8
_0-0_0
  6
CONTINUOUS
 62
    7
 10
102.4289165
 20
183.49790150000001
 11
102.1789165
 21
183.76994350000001
  0
LINE
  8
_0-0_0
  6
CONTINUOUS
 62
    7
 10
102.4289165
 20
183.57148749999999
 11
102.1789165
 21
183.81087450000001
  0
LINE
  8
_0-0_0
  6
CONTINUOUS
 62
    7
 10
102.4289165
 20
183.54686750000002
 11
102.1789165
 21
183.81087450000001
  0
LINE
  8
_0-0_0
  6
CONTINUOUS
 62
    7
 10
102.4289165
 20
183.57148749999999
 11
102.1789165
 21
183.8245695
  0
LINE
  8
_0-0_0
  6
CONTINUOUS
 62
    7
 10
102.4289165
 20
179.0776515
 11
102.1789165
 21
178.8245695
  0
LINE
  8
_0-0_0
  6
CONTINUOUS
 62
    7
 10
102.4289165
 20
179.1022715
 11
102.1789165
 21
178.83826450000001
  0
LINE
  8
_0-0_0
  6
CONTINUOUS
 62
    7
 10
102.4289165
 20
179.0776515
 11
102.1789165
 21
178.83826450000001
  0
LINE
  8
_0-0_0
  6
CONTINUOUS
 62
    7
 10
102.4289165
 20
179.15123750000001
 11
102.1789165
 21
178.87920350000002
  0
LINE
  8
_0-0_0
  6
CONTINUOUS
 62
    7
 10
102.4289165
 20
179.1022715
 11
102.1789165
 21
178.87920350000002
  0
LINE
  8
_0-0_0
  6
CONTINUOUS
 62
    7
 10
102.4289165
 20
179.22401450000001
 11
102.1789165
 21
178.94692950000001
  0
LINE
  8
_0-0_0
  6
CONTINUOUS
 62
    7
 10
102.4289165
 20
179.15123750000001
 11
102.1789165
 21
178.94692950000001
  0
LINE
  8
_0-0_0
  6
CONTINUOUS
 62
    7
 10
102.4289165
 20
179.31980149999998
 11
102.1789165
 21
179.04071049999999
  0
LINE
  8
_0-0_0
  6
CONTINUOUS
 62
    7
 10
102.4289165
 20
179.22401450000001
 11
102.1789165
 21
179.04071049999999
  0
LINE
  8
_0-0_0
  6
CONTINUOUS
 62
    7
 10
102.4289165
 20
179.31980149999998
 11
102.2989505
 21
179.23595449999999
  0
LINE
  8
_0-0_0
  6
CONTINUOUS
 62
    7
 10
102.4289165
 20
179.43756050000002
 11
102.1789165
 21
179.15950750000002
  0
LINE
  8
_0-0_0
  6
CONTINUOUS
 62
    7
 10
102.2989505
 20
179.23595449999999
 11
102.1789165
 21
179.15950750000002
  0
LINE
  8
_0-0_0
  6
CONTINUOUS
 62
    7
 10
102.4289165
 20
179.5759965
 11
102.1789165
 21
179.3020325
  0
LINE
  8
_0-0_0
  6
CONTINUOUS
 62
    7
 10
102.4289165
 20
179.43756050000002
 11
102.1789165
 21
179.3020325
  0
LINE
  8
_0-0_0
  6
CONTINUOUS
 62
    7
 10
102.4289165
 20
179.73358150000001
 11
102.1789165
 21
179.46670549999999
  0
LINE
  8
_0-0_0
  6
CONTINUOUS
 62
    7
 10
102.4289165
 20
179.5759965
 11
102.1789165
 21
179.46670549999999
  0
LINE
  8
_0-0_0
  6
CONTINUOUS
 62
    7
 10
102.4289165
 20
179.90859950000001
 11
102.1789165
 21
179.65174050000002
  0
LINE
  8
_0-0_0
  6
CONTINUOUS
 62
    7
 10
102.4289165
 20
179.73358150000001
 11
102.1789165
 21
179.65174050000002
  0
LINE
  8
_0-0_0
  6
CONTINUOUS
 62
    7
 10
102.4289165
 20
180.09913649999999
 11
102.1789165
 21
179.85511050000002
  0
LINE
  8
_0-0_0
  6
CONTINUOUS
 62
    7
 10
102.4289165
 20
179.90859950000001
 11
102.1789165
 21
179.85511050000002
  0
LINE
  8
_0-0_0
  6
CONTINUOUS
 62
    7
 10
102.4289165
 20
180.30309249999999
 11
102.1789165
 21
180.0745695
  0
LINE
  8
_0-0_0
  6
CONTINUOUS
 62
    7
 10
102.4289165
 20
180.09913649999999
 11
102.1789165
 21
180.0745695
  0
LINE
  8
_0-0_0
  6
CONTINUOUS
 62
    7
 10
102.4289165
 20
180.51824149999999
 11
102.1789165
 21
180.30772350000001
  0
LINE
  8
_0-0_0
  6
CONTINUOUS
 62
    7
 10
102.4289165
 20
180.30309249999999
 11
102.1789165
 21
180.30772350000001
  0
LINE
  8
_0-0_0
  6
CONTINUOUS
 62
    7
 10
102.4289165
 20
180.7422335
 11
102.1789165
 21
180.5520325
  0
LINE
  8
_0-0_0
  6
CONTINUOUS
 62
    7
 10
102.4289165
 20
180.51824149999999
 11
102.1789165
 21
180.5520325
  0
LINE
  8
_0-0_0
  6
CONTINUOUS
 62
    7
 10
102.4289165
 20
180.97259550000001
 11
102.1789165
 21
180.80479450000001
  0
LINE
  8
_0-0_0
  6
CONTINUOUS
 62
    7
 10
102.4289165
 20
180.7422335
 11
102.1789165
 21
180.80479450000001
  0
LINE
  8
_0-0_0
  6
CONTINUOUS
 62
    7
 10
102.4289165
 20
181.2068175
 11
102.1789165
 21
181.0632555
  0
LINE
  8
_0-0_0
  6
CONTINUOUS
 62
    7
 10
102.4289165
 20
180.97259550000001
 11
102.1789165
 21
181.0632555
  0
LINE
  8
_0-0_0
  6
CONTINUOUS
 62
    7
 10
102.4289165
 20
181.4423295
 11
102.1789165
 21
181.3245695
  0
LINE
  8
_0-0_0
  6
CONTINUOUS
 62
    7
 10
102.4289165
 20
181.2068175
 11
102.1789165
 21
181.3245695
  0
LINE
  8
_0-0_0
  6
CONTINUOUS
 62
    7
 10
102.4289165
 20
181.67654450000001
 11
102.1789165
 21
181.5858915
  0
LINE
  8
_0-0_0
  6
CONTINUOUS
 62
    7
 10
102.4289165
 20
181.4423295
 11
102.1789165
 21
181.5858915
  0
LINE
  8
_0-0_0
  6
CONTINUOUS
 62
    7
 10
102.4289165
 20
181.9069135
 11
102.1789165
 21
181.84435250000001
  0
LINE
  8
_0-0_0
  6
CONTINUOUS
 62
    7
 10
102.4289165
 20
181.67654450000001
 11
102.1789165
 21
181.84435250000001
  0
LINE
  8
_0-0_0
  6
CONTINUOUS
 62
    7
 10
102.4289165
 20
182.1308975
 11
102.1789165
 21
182.0971145
  0
LINE
  8
_0-0_0
  6
CONTINUOUS
 62
    7
 10
102.4289165
 20
181.9069135
 11
102.1789165
 21
182.0971145
  0
LINE
  8
_0-0_0
  6
CONTINUOUS
 62
    7
 10
102.4289165
 20
182.34605349999998
 11
102.1789165
 21
182.34141549999998
  0
LINE
  8
_0-0_0
  6
CONTINUOUS
 62
    7
 10
102.4289165
 20
182.1308975
 11
102.1789165
 21
182.34141549999998
  0
LINE
  8
_0-0_0
  6
CONTINUOUS
 62
    7
 10
92.6789165
 20
199.15000950000001
 11
92.9289165
 21
199.1745755
  0
LINE
  8
_0-0_0
  6
CONTINUOUS
 62
    7
 10
92.9289165
 20
199.1745755
 11
102.1789165
 21
199.1745755
  0
LINE
  8
_0-0_0
  6
CONTINUOUS
 62
    7
 10
92.6789165
 20
198.9460445
 11
92.9289165
 21
199.1745755
  0
LINE
  8
_0-0_0
  6
CONTINUOUS
 62
    7
 10
92.6789165
 20
198.9460445
 11
102.4289165
 21
198.9460445
  0
LINE
  8
_0-0_0
  6
CONTINUOUS
 62
    7
 10
92.6789165
 20
199.34054549999999
 11
92.9289165
 21
199.39404250000001
  0
LINE
  8
_0-0_0
  6
CONTINUOUS
 62
    7
 10
92.9289165
 20
199.39404250000001
 11
102.1789165
 21
199.39404250000001
  0
LINE
  8
_0-0_0
  6
CONTINUOUS
 62
    7
 10
92.6789165
 20
199.15000950000001
 11
92.9289165
 21
199.39404250000001
  0
LINE
  8
_0-0_0
  6
CONTINUOUS
 62
    7
 10
92.6789165
 20
199.51556350000001
 11
92.9289165
 21
199.5973965
  0
LINE
  8
_0-0_0
  6
CONTINUOUS
 62
    7
 10
92.9289165
 20
199.5973965
 11
102.1789165
 21
199.5973965
  0
LINE
  8
_0-0_0
  6
CONTINUOUS
 62
    7
 10
92.6789165
 20
199.34054549999999
 11
92.9289165
 21
199.5973965
  0
LINE
  8
_0-0_0
  6
CONTINUOUS
 62
    7
 10
92.6789165
 20
199.6731565
 11
92.9289165
 21
199.78244050000001
  0
LINE
  8
_0-0_0
  6
CONTINUOUS
 62
    7
 10
92.9289165
 20
199.78244050000001
 11
102.1789165
 21
199.78244050000001
  0
LINE
  8
_0-0_0
  6
CONTINUOUS
 62
    7
 10
92.6789165
 20
199.51556350000001
 11
92.9289165
 21
199.78244050000001
  0
LINE
  8
_0-0_0
  6
CONTINUOUS
 62
    7
 10
92.6789165
 20
199.81158450000001
 11
92.9289165
 21
199.9471125
  0
LINE
  8
_0-0_0
  6
CONTINUOUS
 62
    7
 10
92.9289165
 20
199.9471125
 11
102.1789165
 21
199.9471125
  0
LINE
  8
_0-0_0
  6
CONTINUOUS
 62
    7
 10
92.6789165
 20
199.6731565
 11
92.9289165
 21
199.9471125
  0
LINE
  8
_0-0_0
  6
CONTINUOUS
 62
    7
 10
92.6789165
 20
199.92933650000001
 11
92.9289165
 21
200.0896305
  0
LINE
  8
_0-0_0
  6
CONTINUOUS
 62
    7
 10
92.9289165
 20
200.0896305
 11
102.1789165
 21
200.0896305
  0
LINE
  8
_0-0_0
  6
CONTINUOUS
 62
    7
 10
92.6789165
 20
199.81158450000001
 11
92.9289165
 21
200.0896305
  0
LINE
  8
_0-0_0
  6
CONTINUOUS
 62
    7
 10
92.6789165
 20
200.02513150000001
 11
92.9289165
 21
200.20843450000001
  0
LINE
  8
_0-0_0
  6
CONTINUOUS
 62
    7
 10
92.9289165
 20
200.20843450000001
 11
102.1789165
 21
200.20843450000001
  0
LINE
  8
_0-0_0
  6
CONTINUOUS
 62
    7
 10
92.6789165
 20
199.92933650000001
 11
92.9289165
 21
200.20843450000001
  0
LINE
  8
_0-0_0
  6
CONTINUOUS
 62
    7
 10
92.6789165
 20
200.09790050000001
 11
92.9289165
 21
200.30221549999999
  0
LINE
  8
_0-0_0
  6
CONTINUOUS
 62
    7
 10
92.9289165
 20
200.30221549999999
 11
102.1789165
 21
200.30221549999999
  0
LINE
  8
_0-0_0
  6
CONTINUOUS
 62
    7
 10
92.6789165
 20
200.02513150000001
 11
92.9289165
 21
200.30221549999999
  0
LINE
  8
_0-0_0
  6
CONTINUOUS
 62
    7
 10
92.6789165
 20
200.14686549999999
 11
92.9289165
 21
200.3699335
  0
LINE
  8
_0-0_0
  6
CONTINUOUS
 62
    7
 10
92.9289165
 20
200.3699335
 11
102.1789165
 21
200.3699335
  0
LINE
  8
_0-0_0
  6
CONTINUOUS
 62
    7
 10
92.6789165
 20
200.09790050000001
 11
92.9289165
 21
200.3699335
  0
LINE
  8
_0-0_0
  6
CONTINUOUS
 62
    7
 10
92.6789165
 20
200.1714935
 11
92.9289165
 21
200.41087350000001
  0
LINE
  8
_0-0_0
  6
CONTINUOUS
 62
    7
 10
92.9289165
 20
200.41087350000001
 11
102.1789165
 21
200.41087350000001
  0
LINE
  8
_0-0_0
  6
CONTINUOUS
 62
    7
 10
92.6789165
 20
200.14686549999999
 11
92.9289165
 21
200.41087350000001
  0
LINE
  8
_0-0_0
  6
CONTINUOUS
 62
    7
 10
92.9289165
 20
200.4245755
 11
102.1789165
 21
200.4245755
  0
LINE
  8
_0-0_0
  6
CONTINUOUS
 62
    7
 10
92.6789165
 20
200.1714935
 11
92.9289165
 21
200.4245755
  0
LINE
  8
_0-0_0
  6
CONTINUOUS
 62
    7
 10
92.6789165
 20
195.67765750000001
 11
92.9289165
 21
195.4245755
  0
LINE
  8
_0-0_0
  6
CONTINUOUS
 62
    7
 10
92.9289165
 20
195.4245755
 11
102.1789165
 21
195.4245755
  0
LINE
  8
_0-0_0
  6
CONTINUOUS
 62
    7
 10
92.6789165
 20
195.7022705
 11
92.9289165
 21
195.43826250000001
  0
LINE
  8
_0-0_0
  6
CONTINUOUS
 62
    7
 10
92.9289165
 20
195.43826250000001
 11
102.1789165
 21
195.43826250000001
  0
LINE
  8
_0-0_0
  6
CONTINUOUS
 62
    7
 10
92.6789165
 20
195.67765750000001
 11
92.9289165
 21
195.43826250000001
  0
LINE
  8
_0-0_0
  6
CONTINUOUS
 62
    7
 10
92.6789165
 20
195.75123550000001
 11
92.9289165
 21
195.47920250000001
  0
LINE
  8
_0-0_0
  6
CONTINUOUS
 62
    7
 10
92.9289165
 20
195.47920250000001
 11
102.1789165
 21
195.47920250000001
  0
LINE
  8
_0-0_0
  6
CONTINUOUS
 62
    7
 10
92.6789165
 20
195.7022705
 11
92.9289165
 21
195.47920250000001
  0
LINE
  8
_0-0_0
  6
CONTINUOUS
 62
    7
 10
92.6789165
 20
195.82402049999999
 11
92.9289165
 21
195.54693549999999
  0
LINE
  8
_0-0_0
  6
CONTINUOUS
 62
    7
 10
92.9289165
 20
195.54693549999999
 11
102.1789165
 21
195.54693549999999
  0
LINE
  8
_0-0_0
  6
CONTINUOUS
 62
    7
 10
92.6789165
 20
195.75123550000001
 11
92.9289165
 21
195.54693549999999
  0
LINE
  8
_0-0_0
  6
CONTINUOUS
 62
    7
 10
92.6789165
 20
195.91979950000001
 11
92.9289165
 21
195.64070150000001
  0
LINE
  8
_0-0_0
  6
CONTINUOUS
 62
    7
 10
92.9289165
 20
195.64070150000001
 11
102.1789165
 21
195.64070150000001
  0
LINE
  8
_0-0_0
  6
CONTINUOUS
 62
    7
 10
92.6789165
 20
195.82402049999999
 11
92.9289165
 21
195.64070150000001
  0
LINE
  8
_0-0_0
  6
CONTINUOUS
 62
    7
 10
92.9289165
 20
195.75950650000001
 11
102.1789165
 21
195.75950650000001
  0
LINE
  8
_0-0_0
  6
CONTINUOUS
 62
    7
 10
92.808883500000007
 20
195.83595249999999
 11
92.9289165
 21
195.75950650000001
  0
LINE
  8
_0-0_0
  6
CONTINUOUS
 62
    7
 10
92.6789165
 20
195.91979950000001
 11
92.808883500000007
 21
195.83595249999999
  0
LINE
  8
_0-0_0
  6
CONTINUOUS
 62
    7
 10
92.6789165
 20
196.03756749999999
 11
92.9289165
 21
195.75950650000001
  0
LINE
  8
_0-0_0
  6
CONTINUOUS
 62
    7
 10
92.6789165
 20
196.1759945
 11
92.9289165
 21
195.90202350000001
  0
LINE
  8
_0-0_0
  6
CONTINUOUS
 62
    7
 10
92.9289165
 20
195.90202350000001
 11
102.1789165
 21
195.90202350000001
  0
LINE
  8
_0-0_0
  6
CONTINUOUS
 62
    7
 10
92.6789165
 20
196.03756749999999
 11
92.9289165
 21
195.90202350000001
  0
LINE
  8
_0-0_0
  6
CONTINUOUS
 62
    7
 10
92.6789165
 20
196.33358749999999
 11
92.9289165
 21
196.0667115
  0
LINE
  8
_0-0_0
  6
CONTINUOUS
 62
    7
 10
92.9289165
 20
196.0667115
 11
102.1789165
 21
196.0667115
  0
LINE
  8
_0-0_0
  6
CONTINUOUS
 62
    7
 10
92.6789165
 20
196.1759945
 11
92.9289165
 21
196.0667115
  0
LINE
  8
_0-0_0
  6
CONTINUOUS
 62
    7
 10
92.6789165
 20
196.50860550000002
 11
92.9289165
 21
196.25173950000001
  0
LINE
  8
_0-0_0
  6
CONTINUOUS
 62
    7
 10
92.9289165
 20
196.25173950000001
 11
102.1789165
 21
196.25173950000001
  0
LINE
  8
_0-0_0
  6
CONTINUOUS
 62
    7
 10
92.6789165
 20
196.33358749999999
 11
92.9289165
 21
196.25173950000001
  0
LINE
  8
_0-0_0
  6
CONTINUOUS
 62
    7
 10
92.6789165
 20
196.6991275
 11
92.9289165
 21
196.45510849999999
  0
LINE
  8
_0-0_0
  6
CONTINUOUS
 62
    7
 10
92.9289165
 20
196.45510849999999
 11
102.1789165
 21
196.45510849999999
  0
LINE
  8
_0-0_0
  6
CONTINUOUS
 62
    7
 10
92.6789165
 20
196.50860550000002
 11
92.9289165
 21
196.45510849999999
  0
LINE
  8
_0-0_0
  6
CONTINUOUS
 62
    7
 10
92.6789165
 20
196.90309150000002
 11
92.9289165
 21
196.6745755
  0
LINE
  8
_0-0_0
  6
CONTINUOUS
 62
    7
 10
92.9289165
 20
196.6745755
 11
102.1789165
 21
196.6745755
  0
LINE
  8
_0-0_0
  6
CONTINUOUS
 62
    7
 10
92.6789165
 20
196.90309150000002
 11
102.4289165
 21
196.90309150000002
  0
LINE
  8
_0-0_0
  6
CONTINUOUS
 62
    7
 10
92.6789165
 20
196.6991275
 11
92.9289165
 21
196.6745755
  0
LINE
  8
_0-0_0
  6
CONTINUOUS
 62
    7
 10
92.6789165
 20
197.11824050000001
 11
92.9289165
 21
196.90772950000002
  0
LINE
  8
_0-0_0
  6
CONTINUOUS
 62
    7
 10
92.9289165
 20
196.90772950000002
 11
102.1789165
 21
196.90772950000002
  0
LINE
  8
_0-0_0
  6
CONTINUOUS
 62
    7
 10
92.6789165
 20
197.11824050000001
 11
102.4289165
 21
197.11824050000001
  0
LINE
  8
_0-0_0
  6
CONTINUOUS
 62
    7
 10
92.6789165
 20
196.90309150000002
 11
92.9289165
 21
196.90772950000002
  0
LINE
  8
_0-0_0
  6
CONTINUOUS
 62
    7
 10
92.6789165
 20
197.34222450000001
 11
92.9289165
 21
197.15202350000001
  0
LINE
  8
_0-0_0
  6
CONTINUOUS
 62
    7
 10
92.9289165
 20
197.15202350000001
 11
102.1789165
 21
197.15202350000001
  0
LINE
  8
_0-0_0
  6
CONTINUOUS
 62
    7
 10
92.6789165
 20
197.34222450000001
 11
102.4289165
 21
197.34222450000001
  0
LINE
  8
_0-0_0
  6
CONTINUOUS
 62
    7
 10
92.6789165
 20
197.11824050000001
 11
92.9289165
 21
197.15202350000001
  0
LINE
  8
_0-0_0
  6
CONTINUOUS
 62
    7
 10
92.6789165
 20
197.57260149999999
 11
92.9289165
 21
197.4047855
  0
LINE
  8
_0-0_0
  6
CONTINUOUS
 62
    7
 10
92.9289165
 20
197.4047855
 11
102.1789165
 21
197.4047855
  0
LINE
  8
_0-0_0
  6
CONTINUOUS
 62
    7
 10
92.6789165
 20
197.57260149999999
 11
102.4289165
 21
197.57260149999999
  0
LINE
  8
_0-0_0
  6
CONTINUOUS
 62
    7
 10
92.6789165
 20
197.34222450000001
 11
92.9289165
 21
197.4047855
  0
LINE
  8
_0-0_0
  6
CONTINUOUS
 62
    7
 10
92.6789165
 20
197.80682350000001
 11
92.9289165
 21
197.6632535
  0
LINE
  8
_0-0_0
  6
CONTINUOUS
 62
    7
 10
92.9289165
 20
197.6632535
 11
102.1789165
 21
197.6632535
  0
LINE
  8
_0-0_0
  6
CONTINUOUS
 62
    7
 10
92.6789165
 20
197.80682350000001
 11
102.4289165
 21
197.80682350000001
  0
LINE
  8
_0-0_0
  6
CONTINUOUS
 62
    7
 10
92.6789165
 20
197.57260149999999
 11
92.9289165
 21
197.6632535
  0
LINE
  8
_0-0_0
  6
CONTINUOUS
 62
    7
 10
92.6789165
 20
198.0423275
 11
92.9289165
 21
197.9245755
  0
LINE
  8
_0-0_0
  6
CONTINUOUS
 62
    7
 10
92.9289165
 20
197.9245755
 11
102.1789165
 21
197.9245755
  0
LINE
  8
_0-0_0
  6
CONTINUOUS
 62
    7
 10
92.6789165
 20
198.0423275
 11
102.4289165
 21
198.0423275
  0
LINE
  8
_0-0_0
  6
CONTINUOUS
 62
    7
 10
92.6789165
 20
197.80682350000001
 11
92.9289165
 21
197.9245755
  0
LINE
  8
_0-0_0
  6
CONTINUOUS
 62
    7
 10
92.6789165
 20
198.27655050000001
 11
92.9289165
 21
198.18589750000001
  0
LINE
  8
_0-0_0
  6
CONTINUOUS
 62
    7
 10
92.9289165
 20
198.18589750000001
 11
102.1789165
 21
198.18589750000001
  0
LINE
  8
_0-0_0
  6
CONTINUOUS
 62
    7
 10
92.6789165
 20
198.27655050000001
 11
102.4289165
 21
198.27655050000001
  0
LINE
  8
_0-0_0
  6
CONTINUOUS
 62
    7
 10
92.6789165
 20
198.0423275
 11
92.9289165
 21
198.18589750000001
  0
LINE
  8
_0-0_0
  6
CONTINUOUS
 62
    7
 10
92.6789165
 20
198.5069125
 11
92.9289165
 21
198.44435150000001
  0
LINE
  8
_0-0_0
  6
CONTINUOUS
 62
    7
 10
92.9289165
 20
198.44435150000001
 11
102.1789165
 21
198.44435150000001
  0
LINE
  8
_0-0_0
  6
CONTINUOUS
 62
    7
 10
92.6789165
 20
198.5069125
 11
102.4289165
 21
198.5069125
  0
LINE
  8
_0-0_0
  6
CONTINUOUS
 62
    7
 10
92.6789165
 20
198.27655050000001
 11
92.9289165
 21
198.44435150000001
  0
LINE
  8
_0-0_0
  6
CONTINUOUS
 62
    7
 10
92.6789165
 20
198.7308955
 11
92.9289165
 21
198.6971125
  0
LINE
  8
_0-0_0
  6
CONTINUOUS
 62
    7
 10
92.9289165
 20
198.6971125
 11
102.1789165
 21
198.6971125
  0
LINE
  8
_0-0_0
  6
CONTINUOUS
 62
    7
 10
92.6789165
 20
198.7308955
 11
102.4289165
 21
198.7308955
  0
LINE
  8
_0-0_0
  6
CONTINUOUS
 62
    7
 10
92.6789165
 20
198.5069125
 11
92.9289165
 21
198.6971125
  0
LINE
  8
_0-0_0
  6
CONTINUOUS
 62
    7
 10
92.6789165
 20
198.9460445
 11
92.9289165
 21
198.9414065
  0
LINE
  8
_0-0_0
  6
CONTINUOUS
 62
    7
 10
92.9289165
 20
198.9414065
 11
102.1789165
 21
198.9414065
  0
LINE
  8
_0-0_0
  6
CONTINUOUS
 62
    7
 10
92.6789165
 20
198.7308955
 11
92.9289165
 21
198.9414065
  0
LINE
  8
_0-0_0
  6
CONTINUOUS
 62
    7
 10
106.4289165
 20
194.8745725
 11
106.4289165
 21
186.89302050000001
  0
LINE
  8
_0-0_0
  6
CONTINUOUS
 62
    7
 10
106.4289165
 20
186.89302050000001
 11
106.4289165
 21
184.3745725
  0
LINE
  8
_0-0_0
  6
CONTINUOUS
 62
    7
 10
92.6789165
 20
182.55001049999998
 11
92.9289165
 21
182.5745695
  0
LINE
  8
_0-0_0
  6
CONTINUOUS
 62
    7
 10
92.9289165
 20
182.5745695
 11
102.1789165
 21
182.5745695
  0
LINE
  8
_0-0_0
  6
CONTINUOUS
 62
    7
 10
92.6789165
 20
182.34605349999998
 11
92.9289165
 21
182.5745695
  0
LINE
  8
_0-0_0
  6
CONTINUOUS
 62
    7
 10
92.6789165
 20
182.34605349999998
 11
102.4289165
 21
182.34605349999998
  0
LINE
  8
_0-0_0
  6
CONTINUOUS
 62
    7
 10
92.6789165
 20
182.74053950000001
 11
92.9289165
 21
182.7940365
  0
LINE
  8
_0-0_0
  6
CONTINUOUS
 62
    7
 10
92.9289165
 20
182.7940365
 11
102.1789165
 21
182.7940365
  0
LINE
  8
_0-0_0
  6
CONTINUOUS
 62
    7
 10
92.6789165
 20
182.55001049999998
 11
92.9289165
 21
182.7940365
  0
LINE
  8
_0-0_0
  6
CONTINUOUS
 62
    7
 10
92.6789165
 20
182.91555750000001
 11
92.9289165
 21
182.9973985
  0
LINE
  8
_0-0_0
  6
CONTINUOUS
 62
    7
 10
92.9289165
 20
182.9973985
 11
102.1789165
 21
182.9973985
  0
LINE
  8
_0-0_0
  6
CONTINUOUS
 62
    7
 10
92.6789165
 20
182.74053950000001
 11
92.9289165
 21
182.9973985
  0
LINE
  8
_0-0_0
  6
CONTINUOUS
 62
    7
 10
92.6789165
 20
183.0731505
 11
92.9289165
 21
183.1824335
  0
LINE
  8
_0-0_0
  6
CONTINUOUS
 62
    7
 10
92.9289165
 20
183.1824335
 11
102.1789165
 21
183.1824335
  0
LINE
  8
_0-0_0
  6
CONTINUOUS
 62
    7
 10
92.6789165
 20
182.91555750000001
 11
92.9289165
 21
183.1824335
  0
LINE
  8
_0-0_0
  6
CONTINUOUS
 62
    7
 10
92.6789165
 20
183.2115785
 11
92.9289165
 21
183.3471145
  0
LINE
  8
_0-0_0
  6
CONTINUOUS
 62
    7
 10
92.9289165
 20
183.3471145
 11
102.1789165
 21
183.3471145
  0
LINE
  8
_0-0_0
  6
CONTINUOUS
 62
    7
 10
92.6789165
 20
183.0731505
 11
92.9289165
 21
183.3471145
  0
LINE
  8
_0-0_0
  6
CONTINUOUS
 62
    7
 10
92.6789165
 20
183.32933750000001
 11
92.9289165
 21
183.48963950000001
  0
LINE
  8
_0-0_0
  6
CONTINUOUS
 62
    7
 10
92.9289165
 20
183.48963950000001
 11
102.1789165
 21
183.48963950000001
  0
LINE
  8
_0-0_0
  6
CONTINUOUS
 62
    7
 10
92.6789165
 20
183.2115785
 11
92.9289165
 21
183.48963950000001
  0
LINE
  8
_0-0_0
  6
CONTINUOUS
 62
    7
 10
92.6789165
 20
183.42512550000001
 11
92.9289165
 21
183.60843649999998
  0
LINE
  8
_0-0_0
  6
CONTINUOUS
 62
    7
 10
92.9289165
 20
183.60843649999998
 11
102.1789165
 21
183.60843649999998
  0
LINE
  8
_0-0_0
  6
CONTINUOUS
 62
    7
 10
92.6789165
 20
183.32933750000001
 11
92.9289165
 21
183.60843649999998
  0
LINE
  8
_0-0_0
  6
CONTINUOUS
 62
    7
 10
92.6789165
 20
183.49790150000001
 11
92.9289165
 21
183.70221650000002
  0
LINE
  8
_0-0_0
  6
CONTINUOUS
 62
    7
 10
92.9289165
 20
183.70221650000002
 11
102.1789165
 21
183.70221650000002
  0
LINE
  8
_0-0_0
  6
CONTINUOUS
 62
    7
 10
92.6789165
 20
183.42512550000001
 11
92.9289165
 21
183.70221650000002
  0
LINE
  8
_0-0_0
  6
CONTINUOUS
 62
    7
 10
92.6789165
 20
183.54686750000002
 11
92.9289165
 21
183.76994350000001
  0
LINE
  8
_0-0_0
  6
CONTINUOUS
 62
    7
 10
92.9289165
 20
183.76994350000001
 11
102.1789165
 21
183.76994350000001
  0
LINE
  8
_0-0_0
  6
CONTINUOUS
 62
    7
 10
92.6789165
 20
183.49790150000001
 11
92.9289165
 21
183.76994350000001
  0
LINE
  8
_0-0_0
  6
CONTINUOUS
 62
    7
 10
92.6789165
 20
183.57148749999999
 11
92.9289165
 21
183.81087450000001
  0
LINE
  8
_0-0_0
  6
CONTINUOUS
 62
    7
 10
92.9289165
 20
183.81087450000001
 11
102.1789165
 21
183.81087450000001
  0
LINE
  8
_0-0_0
  6
CONTINUOUS
 62
    7
 10
92.6789165
 20
183.54686750000002
 11
92.9289165
 21
183.81087450000001
  0
LINE
  8
_0-0_0
  6
CONTINUOUS
 62
    7
 10
92.9289165
 20
183.8245695
 11
102.1789165
 21
183.8245695
  0
LINE
  8
_0-0_0
  6
CONTINUOUS
 62
    7
 10
92.6789165
 20
183.57148749999999
 11
92.9289165
 21
183.8245695
  0
LINE
  8
_0-0_0
  6
CONTINUOUS
 62
    7
 10
92.6789165
 20
179.0776515
 11
92.9289165
 21
178.8245695
  0
LINE
  8
_0-0_0
  6
CONTINUOUS
 62
    7
 10
92.9289165
 20
178.8245695
 11
102.1789165
 21
178.8245695
  0
LINE
  8
_0-0_0
  6
CONTINUOUS
 62
    7
 10
92.6789165
 20
179.1022715
 11
92.9289165
 21
178.83826450000001
  0
LINE
  8
_0-0_0
  6
CONTINUOUS
 62
    7
 10
92.9289165
 20
178.83826450000001
 11
102.1789165
 21
178.83826450000001
  0
LINE
  8
_0-0_0
  6
CONTINUOUS
 62
    7
 10
92.6789165
 20
179.0776515
 11
92.9289165
 21
178.83826450000001
  0
LINE
  8
_0-0_0
  6
CONTINUOUS
 62
    7
 10
92.6789165
 20
179.15123750000001
 11
92.9289165
 21
178.87920350000002
  0
LINE
  8
_0-0_0
  6
CONTINUOUS
 62
    7
 10
92.9289165
 20
178.87920350000002
 11
102.1789165
 21
178.87920350000002
  0
LINE
  8
_0-0_0
  6
CONTINUOUS
 62
    7
 10
92.6789165
 20
179.1022715
 11
92.9289165
 21
178.87920350000002
  0
LINE
  8
_0-0_0
  6
CONTINUOUS
 62
    7
 10
92.6789165
 20
179.22401450000001
 11
92.9289165
 21
178.94692950000001
  0
LINE
  8
_0-0_0
  6
CONTINUOUS
 62
    7
 10
92.9289165
 20
178.94692950000001
 11
102.1789165
 21
178.94692950000001
  0
LINE
  8
_0-0_0
  6
CONTINUOUS
 62
    7
 10
92.6789165
 20
179.15123750000001
 11
92.9289165
 21
178.94692950000001
  0
LINE
  8
_0-0_0
  6
CONTINUOUS
 62
    7
 10
92.6789165
 20
179.31980149999998
 11
92.9289165
 21
179.04071049999999
  0
LINE
  8
_0-0_0
  6
CONTINUOUS
 62
    7
 10
92.9289165
 20
179.04071049999999
 11
102.1789165
 21
179.04071049999999
  0
LINE
  8
_0-0_0
  6
CONTINUOUS
 62
    7
 10
92.6789165
 20
179.22401450000001
 11
92.9289165
 21
179.04071049999999
  0
LINE
  8
_0-0_0
  6
CONTINUOUS
 62
    7
 10
92.9289165
 20
179.15950750000002
 11
102.1789165
 21
179.15950750000002
  0
LINE
  8
_0-0_0
  6
CONTINUOUS
 62
    7
 10
92.808883500000007
 20
179.23595449999999
 11
92.9289165
 21
179.15950750000002
  0
LINE
  8
_0-0_0
  6
CONTINUOUS
 62
    7
 10
92.6789165
 20
179.31980149999998
 11
92.808883500000007
 21
179.23595449999999
  0
LINE
  8
_0-0_0
  6
CONTINUOUS
 62
    7
 10
92.6789165
 20
179.43756050000002
 11
92.9289165
 21
179.15950750000002
  0
LINE
  8
_0-0_0
  6
CONTINUOUS
 62
    7
 10
92.6789165
 20
179.5759965
 11
92.9289165
 21
179.3020325
  0
LINE
  8
_0-0_0
  6
CONTINUOUS
 62
    7
 10
92.9289165
 20
179.3020325
 11
102.1789165
 21
179.3020325
  0
LINE
  8
_0-0_0
  6
CONTINUOUS
 62
    7
 10
92.6789165
 20
179.43756050000002
 11
92.9289165
 21
179.3020325
  0
LINE
  8
_0-0_0
  6
CONTINUOUS
 62
    7
 10
92.6789165
 20
179.73358150000001
 11
92.9289165
 21
179.46670549999999
  0
LINE
  8
_0-0_0
  6
CONTINUOUS
 62
    7
 10
92.9289165
 20
179.46670549999999
 11
102.1789165
 21
179.46670549999999
  0
LINE
  8
_0-0_0
  6
CONTINUOUS
 62
    7
 10
92.6789165
 20
179.5759965
 11
92.9289165
 21
179.46670549999999
  0
LINE
  8
_0-0_0
  6
CONTINUOUS
 62
    7
 10
92.6789165
 20
179.90859950000001
 11
92.9289165
 21
179.65174050000002
  0
LINE
  8
_0-0_0
  6
CONTINUOUS
 62
    7
 10
92.9289165
 20
179.65174050000002
 11
102.1789165
 21
179.65174050000002
  0
LINE
  8
_0-0_0
  6
CONTINUOUS
 62
    7
 10
92.6789165
 20
179.73358150000001
 11
92.9289165
 21
179.65174050000002
  0
LINE
  8
_0-0_0
  6
CONTINUOUS
 62
    7
 10
92.6789165
 20
180.09913649999999
 11
92.9289165
 21
179.85511050000002
  0
LINE
  8
_0-0_0
  6
CONTINUOUS
 62
    7
 10
92.9289165
 20
179.85511050000002
 11
102.1789165
 21
179.85511050000002
  0
LINE
  8
_0-0_0
  6
CONTINUOUS
 62
    7
 10
92.6789165
 20
179.90859950000001
 11
92.9289165
 21
179.85511050000002
  0
LINE
  8
_0-0_0
  6
CONTINUOUS
 62
    7
 10
92.6789165
 20
180.30309249999999
 11
92.9289165
 21
180.0745695
  0
LINE
  8
_0-0_0
  6
CONTINUOUS
 62
    7
 10
92.9289165
 20
180.0745695
 11
102.1789165
 21
180.0745695
  0
LINE
  8
_0-0_0
  6
CONTINUOUS
 62
    7
 10
92.6789165
 20
180.30309249999999
 11
102.4289165
 21
180.30309249999999
  0
LINE
  8
_0-0_0
  6
CONTINUOUS
 62
    7
 10
92.6789165
 20
180.09913649999999
 11
92.9289165
 21
180.0745695
  0
LINE
  8
_0-0_0
  6
CONTINUOUS
 62
    7
 10
92.6789165
 20
180.51824149999999
 11
92.9289165
 21
180.30772350000001
  0
LINE
  8
_0-0_0
  6
CONTINUOUS
 62
    7
 10
92.9289165
 20
180.30772350000001
 11
102.1789165
 21
180.30772350000001
  0
LINE
  8
_0-0_0
  6
CONTINUOUS
 62
    7
 10
92.6789165
 20
180.51824149999999
 11
102.4289165
 21
180.51824149999999
  0
LINE
  8
_0-0_0
  6
CONTINUOUS
 62
    7
 10
92.6789165
 20
180.30309249999999
 11
92.9289165
 21
180.30772350000001
  0
LINE
  8
_0-0_0
  6
CONTINUOUS
 62
    7
 10
92.6789165
 20
180.7422335
 11
92.9289165
 21
180.5520325
  0
LINE
  8
_0-0_0
  6
CONTINUOUS
 62
    7
 10
92.9289165
 20
180.5520325
 11
102.1789165
 21
180.5520325
  0
LINE
  8
_0-0_0
  6
CONTINUOUS
 62
    7
 10
92.6789165
 20
180.7422335
 11
102.4289165
 21
180.7422335
  0
LINE
  8
_0-0_0
  6
CONTINUOUS
 62
    7
 10
92.6789165
 20
180.51824149999999
 11
92.9289165
 21
180.5520325
  0
LINE
  8
_0-0_0
  6
CONTINUOUS
 62
    7
 10
92.6789165
 20
180.97259550000001
 11
92.9289165
 21
180.80479450000001
  0
LINE
  8
_0-0_0
  6
CONTINUOUS
 62
    7
 10
92.9289165
 20
180.80479450000001
 11
102.1789165
 21
180.80479450000001
  0
LINE
  8
_0-0_0
  6
CONTINUOUS
 62
    7
 10
92.6789165
 20
180.97259550000001
 11
102.4289165
 21
180.97259550000001
  0
LINE
  8
_0-0_0
  6
CONTINUOUS
 62
    7
 10
92.6789165
 20
180.7422335
 11
92.9289165
 21
180.80479450000001
  0
LINE
  8
_0-0_0
  6
CONTINUOUS
 62
    7
 10
92.6789165
 20
181.2068175
 11
92.9289165
 21
181.0632555
  0
LINE
  8
_0-0_0
  6
CONTINUOUS
 62
    7
 10
92.9289165
 20
181.0632555
 11
102.1789165
 21
181.0632555
  0
LINE
  8
_0-0_0
  6
CONTINUOUS
 62
    7
 10
92.6789165
 20
181.2068175
 11
102.4289165
 21
181.2068175
  0
LINE
  8
_0-0_0
  6
CONTINUOUS
 62
    7
 10
92.6789165
 20
180.97259550000001
 11
92.9289165
 21
181.0632555
  0
LINE
  8
_0-0_0
  6
CONTINUOUS
 62
    7
 10
92.6789165
 20
181.4423295
 11
92.9289165
 21
181.3245695
  0
LINE
  8
_0-0_0
  6
CONTINUOUS
 62
    7
 10
92.9289165
 20
181.3245695
 11
102.1789165
 21
181.3245695
  0
LINE
  8
_0-0_0
  6
CONTINUOUS
 62
    7
 10
92.6789165
 20
181.4423295
 11
102.4289165
 21
181.4423295
  0
LINE
  8
_0-0_0
  6
CONTINUOUS
 62
    7
 10
92.6789165
 20
181.2068175
 11
92.9289165
 21
181.3245695
  0
LINE
  8
_0-0_0
  6
CONTINUOUS
 62
    7
 10
92.6789165
 20
181.67654450000001
 11
92.9289165
 21
181.5858915
  0
LINE
  8
_0-0_0
  6
CONTINUOUS
 62
    7
 10
92.9289165
 20
181.5858915
 11
102.1789165
 21
181.5858915
  0
LINE
  8
_0-0_0
  6
CONTINUOUS
 62
    7
 10
92.6789165
 20
181.67654450000001
 11
102.4289165
 21
181.67654450000001
  0
LINE
  8
_0-0_0
  6
CONTINUOUS
 62
    7
 10
92.6789165
 20
181.4423295
 11
92.9289165
 21
181.5858915
  0
LINE
  8
_0-0_0
  6
CONTINUOUS
 62
    7
 10
92.6789165
 20
181.9069135
 11
92.9289165
 21
181.84435250000001
  0
LINE
  8
_0-0_0
  6
CONTINUOUS
 62
    7
 10
92.9289165
 20
181.84435250000001
 11
102.1789165
 21
181.84435250000001
  0
LINE
  8
_0-0_0
  6
CONTINUOUS
 62
    7
 10
92.6789165
 20
181.9069135
 11
102.4289165
 21
181.9069135
  0
LINE
  8
_0-0_0
  6
CONTINUOUS
 62
    7
 10
92.6789165
 20
181.67654450000001
 11
92.9289165
 21
181.84435250000001
  0
LINE
  8
_0-0_0
  6
CONTINUOUS
 62
    7
 10
92.6789165
 20
182.1308975
 11
92.9289165
 21
182.0971145
  0
LINE
  8
_0-0_0
  6
CONTINUOUS
 62
    7
 10
92.9289165
 20
182.0971145
 11
102.1789165
 21
182.0971145
  0
LINE
  8
_0-0_0
  6
CONTINUOUS
 62
    7
 10
92.6789165
 20
182.1308975
 11
102.4289165
 21
182.1308975
  0
LINE
  8
_0-0_0
  6
CONTINUOUS
 62
    7
 10
92.6789165
 20
181.9069135
 11
92.9289165
 21
182.0971145
  0
LINE
  8
_0-0_0
  6
CONTINUOUS
 62
    7
 10
92.6789165
 20
182.34605349999998
 11
92.9289165
 21
182.34141549999998
  0
LINE
  8
_0-0_0
  6
CONTINUOUS
 62
    7
 10
92.9289165
 20
182.34141549999998
 11
102.1789165
 21
182.34141549999998
  0
LINE
  8
_0-0_0
  6
CONTINUOUS
 62
    7
 10
92.6789165
 20
182.1308975
 11
92.9289165
 21
182.34141549999998
  0
LINE
  8
_0-0_0
  6
CONTINUOUS
 62
    7
 10
92.4289165
 20
199.9245755
 11
92.4289165
 21
196.16940249999999
  0
LINE
  8
_0-0_0
  6
CONTINUOUS
 62
    7
 10
92.4289165
 20
196.16940249999999
 11
92.4289165
 21
195.9245755
  0
LINE
  8
_0-0_0
  6
CONTINUOUS
 62
    7
 10
92.4289165
 20
183.3245695
 11
92.4289165
 21
179.56940450000002
  0
LINE
  8
_0-0_0
  6
CONTINUOUS
 62
    7
 10
92.4289165
 20
179.56940450000002
 11
92.4289165
 21
179.3245695
  0
LINE
  8
_0-0_0
  6
CONTINUOUS
 62
    7
 10
106.02891550000001
 20
194.6245725
 11
106.02891550000001
 21
192.1245725
  0
LINE
  8
_0-0_0
  6
CONTINUOUS
 62
    7
 10
106.02891550000001
 20
192.1245725
 11
106.02891550000001
 21
184.6245725
  0
LINE
  8
_0-0_0
  6
CONTINUOUS
 62
    7
 10
105.2289205
 20
194.1626895
 11
105.2289205
 21
191.8936305
  0
LINE
  8
_0-0_0
  6
CONTINUOUS
 62
    7
 10
105.2289205
 20
191.8936305
 11
105.2289205
 21
185.08644850000002
  0
LINE
  8
_0-0_0
  6
CONTINUOUS
 62
    7
 10
47.228916499999997
 20
193.6245725
 11
47.228916499999997
 21
193.62322950000001
  0
LINE
  8
_0-0_0
  6
CONTINUOUS
 62
    7
 10
47.228916499999997
 20
193.62322950000001
 11
47.228916499999997
 21
185.6245725
  0
LINE
  8
_0-0_0
  6
CONTINUOUS
 62
    7
 10
128.42891650000001
 20
200.1745755
 11
102.4289165
 21
200.1745755
  0
LINE
  8
_0-0_0
  6
CONTINUOUS
 62
    7
 10
128.42891650000001
 20
195.6745755
 11
102.42569750000001
 21
195.6745755
  0
LINE
  8
_0-0_0
  6
CONTINUOUS
 62
    7
 10
107.22890450000001
 20
183.5745695
 11
102.4289165
 21
183.5745695
  0
LINE
  8
_0-0_0
  6
CONTINUOUS
 62
    7
 10
122.6788865
 20
179.0745695
 11
102.4289165
 21
179.0745695
  0
LINE
  8
_0-0_0
  6
CONTINUOUS
 62
    7
 10
102.4289165
 20
200.1745755
 11
102.1789165
 21
200.4245755
  0
LINE
  8
_0-0_0
  6
CONTINUOUS
 62
    7
 10
102.4289165
 20
195.6745755
 11
102.1789165
 21
195.4245755
  0
LINE
  8
_0-0_0
  6
CONTINUOUS
 62
    7
 10
102.4289165
 20
183.5745695
 11
102.1789165
 21
183.8245695
  0
LINE
  8
_0-0_0
  6
CONTINUOUS
 62
    7
 10
102.4289165
 20
179.0745695
 11
102.1789165
 21
178.8245695
  0
LINE
  8
_0-0_0
  6
CONTINUOUS
 62
    7
 10
106.4289165
 20
194.8745725
 11
107.22891250000001
 21
195.67456050000001
  0
LINE
  8
_0-0_0
  6
CONTINUOUS
 62
    7
 10
106.4289165
 20
184.3745725
 11
107.6789165
 21
183.1245725
  0
LINE
  8
_0-0_0
  6
CONTINUOUS
 62
    7
 10
92.4289165
 20
199.9245755
 11
92.9287645
 21
200.4244075
  0
LINE
  8
_0-0_0
  6
CONTINUOUS
 62
    7
 10
92.4289165
 20
195.9245755
 11
92.9287645
 21
195.42472850000001
  0
LINE
  8
_0-0_0
  6
CONTINUOUS
 62
    7
 10
92.4289165
 20
183.3245695
 11
92.9287645
 21
183.82441649999998
  0
LINE
  8
_0-0_0
  6
CONTINUOUS
 62
    7
 10
92.4289165
 20
179.3245695
 11
92.9287645
 21
178.82472250000001
  0
LINE
  8
_0-0_0
  6
CONTINUOUS
 62
    7
 10
106.4289165
 20
194.6245725
 11
106.02891550000001
 21
194.6245725
  0
LINE
  8
_0-0_0
  6
CONTINUOUS
 62
    7
 10
106.4289165
 20
184.6245725
 11
106.02891550000001
 21
184.6245725
  0
LINE
  8
_0-0_0
  6
CONTINUOUS
 62
    7
 10
105.2289205
 20
194.1626895
 11
106.02891550000001
 21
194.6245725
  0
LINE
  8
_0-0_0
  6
CONTINUOUS
 62
    7
 10
105.2289205
 20
185.08644850000002
 11
106.02891550000001
 21
184.6245725
  0
LINE
  8
_0-0_0
  6
CONTINUOUS
 62
    7
 10
105.2289205
 20
193.6245725
 11
47.228916499999997
 21
193.6245725
  0
LINE
  8
_0-0_0
  6
CONTINUOUS
 62
    7
 10
105.2289205
 20
185.6245725
 11
47.228916499999997
 21
185.6245725
  0
LINE
  8
_0-0_0
  6
CONTINUOUS
 62
    7
 10
112.9289165
 20
218.5246425
 11
115.3836895
 21
218.5246425
  0
LINE
  8
_0-0_0
  6
CONTINUOUS
 62
    7
 10
112.9289165
 20
205.3246455
 11
112.9289165
 21
218.5246425
  0
LINE
  8
_0-0_0
  6
CONTINUOUS
 62
    7
 10
415.92892449999999
 20
205.3246455
 11
415.92892449999999
 21
218.5246425
  0
LINE
  8
_0-0_0
  6
CONTINUOUS
 62
    7
 10
413.4741515
 20
218.5246425
 11
415.92892449999999
 21
218.5246425
  0
ARC
  8
_0-0_0
  6
CONTINUOUS
 62
    7
 10
406.92892449999999
 20
223.12464850000001
 40
8
 50
215.099627
 51
324.90037799999999
  0
LINE
  8
_0-0_0
  6
CONTINUOUS
 62
    7
 10
128.47414450000002
 20
218.5246425
 11
400.38369749999998
 21
218.5246425
  0
ARC
  8
_0-0_0
  6
CONTINUOUS
 62
    7
 10
121.9289165
 20
223.12464850000001
 40
8
 50
215.099627
 51
324.90037799999999
  0
LINE
  8
_0-0_0
  6
CONTINUOUS
 62
    7
 10
115.3836895
 20
218.5246425
 11
115.29470850000001
 21
218.6539305
  0
LINE
  8
_0-0_0
  6
CONTINUOUS
 62
    7
 10
128.47414450000002
 20
218.5246425
 11
128.56312550000001
 21
218.6539305
  0
LINE
  8
_0-0_0
  6
CONTINUOUS
 62
    7
 10
128.65626550000002
 20
218.79534950000001
 11
128.56312550000001
 21
218.6539305
  0
LINE
  8
_0-0_0
  6
CONTINUOUS
 62
    7
 10
128.65626550000002
 20
218.79534950000001
 11
128.7377315
 21
218.92465150000001
  0
ARC
  8
_0-0_0
  6
CONTINUOUS
 62
    7
 10
121.9289165
 20
223.12464850000001
 40
8
 50
328.33175599999993
 51
334.05550899999992
  0
LINE
  8
_0-0_0
  6
CONTINUOUS
 62
    7
 10
129.12266550000001
 20
219.62464850000001
 11
129.1841435
 21
219.75393650000001
  0
LINE
  8
_0-0_0
  6
CONTINUOUS
 62
    7
 10
129.24818450000001
 20
219.89535549999999
 11
129.1841435
 21
219.75393650000001
  0
LINE
  8
_0-0_0
  6
CONTINUOUS
 62
    7
 10
129.24818450000001
 20
219.89535549999999
 11
129.3038785
 21
220.0246425
  0
ARC
  8
_0-0_0
  6
CONTINUOUS
 62
    7
 10
121.9289165
 20
223.12464850000001
 40
8
 50
337.20097500000003
 51
342.54240199999998
  0
LINE
  8
_0-0_0
  6
CONTINUOUS
 62
    7
 10
129.56043249999999
 20
220.72463949999999
 11
129.59989150000001
 21
220.85394250000002
  0
LINE
  8
_0-0_0
  6
CONTINUOUS
 62
    7
 10
129.6403425
 20
220.9953615
 11
129.59989150000001
 21
220.85394250000002
  0
LINE
  8
_0-0_0
  6
CONTINUOUS
 62
    7
 10
129.6403425
 20
220.9953615
 11
129.67488150000003
 21
221.12464850000001
  0
ARC
  8
_0-0_0
  6
CONTINUOUS
 62
    7
 10
121.9289165
 20
223.12464850000001
 40
8
 50
345.52249499999999
 51
350.64797900000002
  0
LINE
  8
_0-0_0
  6
CONTINUOUS
 62
    7
 10
129.8225865
 20
221.8246455
 11
129.84278850000001
 21
221.95393350000001
  0
LINE
  8
_0-0_0
  6
CONTINUOUS
 62
    7
 10
129.86242650000003
 20
222.09535249999999
 11
129.84278850000001
 21
221.95393350000001
  0
LINE
  8
_0-0_0
  6
CONTINUOUS
 62
    7
 10
129.86242650000003
 20
222.09535249999999
 11
129.8781285
 21
222.22463949999999
  0
ARC
  8
_0-0_0
  6
CONTINUOUS
 62
    7
 10
121.9289165
 20
223.12464850000001
 40
8
 50
353.54056400000002
 51
358.56744600000002
  0
LINE
  8
_0-0_0
  6
CONTINUOUS
 62
    7
 10
129.9264225
 20
222.92465150000001
 11
129.92860450000001
 21
223.05392449999999
  0
LINE
  8
_0-0_0
  6
CONTINUOUS
 62
    7
 10
129.92860450000001
 20
223.05392449999999
 11
129.92892449999999
 21
223.12464850000001
  0
LINE
  8
_0-0_0
  6
CONTINUOUS
 62
    7
 10
113.92922950000001
 20
223.05392449999999
 11
113.9289165
 21
223.12464850000001
  0
LINE
  8
_0-0_0
  6
CONTINUOUS
 62
    7
 10
113.9314195
 20
222.92465150000001
 11
113.92922950000001
 21
223.05392449999999
  0
ARC
  8
_0-0_0
  6
CONTINUOUS
 62
    7
 10
121.9289165
 20
223.12464850000001
 40
8
 50
181.432545
 51
186.45945499999999
  0
LINE
  8
_0-0_0
  6
CONTINUOUS
 62
    7
 10
113.99540750000001
 20
222.09535249999999
 11
113.97970550000001
 21
222.22463949999999
  0
LINE
  8
_0-0_0
  6
CONTINUOUS
 62
    7
 10
113.99540750000001
 20
222.09535249999999
 11
114.01503750000001
 21
221.95393350000001
  0
LINE
  8
_0-0_0
  6
CONTINUOUS
 62
    7
 10
114.03524750000001
 20
221.8246455
 11
114.01503750000001
 21
221.95393350000001
  0
ARC
  8
_0-0_0
  6
CONTINUOUS
 62
    7
 10
121.9289165
 20
223.12464850000001
 40
8
 50
189.35203999999999
 51
194.47751
  0
LINE
  8
_0-0_0
  6
CONTINUOUS
 62
    7
 10
114.21749150000001
 20
220.9953615
 11
114.18295250000001
 21
221.12464850000001
  0
LINE
  8
_0-0_0
  6
CONTINUOUS
 62
    7
 10
114.21749150000001
 20
220.9953615
 11
114.25794250000001
 21
220.85394250000002
  0
LINE
  8
_0-0_0
  6
CONTINUOUS
 62
    7
 10
114.29740150000001
 20
220.72463949999999
 11
114.25794250000001
 21
220.85394250000002
  0
ARC
  8
_0-0_0
  6
CONTINUOUS
 62
    7
 10
121.9289165
 20
223.12464850000001
 40
8
 50
197.45760300000001
 51
202.79902999999999
  0
LINE
  8
_0-0_0
  6
CONTINUOUS
 62
    7
 10
114.6096495
 20
219.89535549999999
 11
114.55396250000001
 21
220.0246425
  0
LINE
  8
_0-0_0
  6
CONTINUOUS
 62
    7
 10
114.6096495
 20
219.89535549999999
 11
114.67369050000001
 21
219.75393650000001
  0
LINE
  8
_0-0_0
  6
CONTINUOUS
 62
    7
 10
114.7351685
 20
219.62464850000001
 11
114.67369050000001
 21
219.75393650000001
  0
ARC
  8
_0-0_0
  6
CONTINUOUS
 62
    7
 10
121.9289165
 20
223.12464850000001
 40
8
 50
205.94448199999999
 51
211.66823500000001
  0
LINE
  8
_0-0_0
  6
CONTINUOUS
 62
    7
 10
115.20156850000001
 20
218.79534950000001
 11
115.1201015
 21
218.92465150000001
  0
LINE
  8
_0-0_0
  6
CONTINUOUS
 62
    7
 10
115.20156850000001
 20
218.79534950000001
 11
115.29470850000001
 21
218.6539305
  0
LINE
  8
_0-0_0
  6
CONTINUOUS
 62
    7
 10
400.38369749999998
 20
218.5246425
 11
400.29470850000001
 21
218.6539305
  0
LINE
  8
_0-0_0
  6
CONTINUOUS
 62
    7
 10
398.92922950000002
 20
223.05392449999999
 11
398.92892449999999
 21
223.12464850000001
  0
LINE
  8
_0-0_0
  6
CONTINUOUS
 62
    7
 10
398.93142749999998
 20
222.92465150000001
 11
398.92922950000002
 21
223.05392449999999
  0
ARC
  8
_0-0_0
  6
CONTINUOUS
 62
    7
 10
406.92892449999999
 20
223.12464850000001
 40
8
 50
181.432545
 51
186.45945499999999
  0
LINE
  8
_0-0_0
  6
CONTINUOUS
 62
    7
 10
398.99542250000002
 20
222.09535249999999
 11
398.97970550000002
 21
222.22463949999999
  0
LINE
  8
_0-0_0
  6
CONTINUOUS
 62
    7
 10
398.99542250000002
 20
222.09535249999999
 11
399.01504549999999
 21
221.95393350000001
  0
LINE
  8
_0-0_0
  6
CONTINUOUS
 62
    7
 10
399.03524750000003
 20
221.8246455
 11
399.01504549999999
 21
221.95393350000001
  0
ARC
  8
_0-0_0
  6
CONTINUOUS
 62
    7
 10
406.92892449999999
 20
223.12464850000001
 40
8
 50
189.35203999999999
 51
194.47751
  0
LINE
  8
_0-0_0
  6
CONTINUOUS
 62
    7
 10
399.21749850000003
 20
220.9953615
 11
399.1829525
 21
221.12464850000001
  0
LINE
  8
_0-0_0
  6
CONTINUOUS
 62
    7
 10
399.21749850000003
 20
220.9953615
 11
399.25793450000003
 21
220.85394250000002
  0
LINE
  8
_0-0_0
  6
CONTINUOUS
 62
    7
 10
399.29742450000003
 20
220.72463949999999
 11
399.25793450000003
 21
220.85394250000002
  0
ARC
  8
_0-0_0
  6
CONTINUOUS
 62
    7
 10
406.92892449999999
 20
223.12464850000001
 40
8
 50
197.45760300000001
 51
202.79902999999999
  0
LINE
  8
_0-0_0
  6
CONTINUOUS
 62
    7
 10
399.60964949999999
 20
219.89535549999999
 11
399.55395550000003
 21
220.0246425
  0
LINE
  8
_0-0_0
  6
CONTINUOUS
 62
    7
 10
399.60964949999999
 20
219.89535549999999
 11
399.67370649999998
 21
219.75393650000001
  0
LINE
  8
_0-0_0
  6
CONTINUOUS
 62
    7
 10
399.73516849999999
 20
219.62464850000001
 11
399.67370649999998
 21
219.75393650000001
  0
ARC
  8
_0-0_0
  6
CONTINUOUS
 62
    7
 10
406.92892449999999
 20
223.12464850000001
 40
8
 50
205.94448199999999
 51
211.66823500000001
  0
LINE
  8
_0-0_0
  6
CONTINUOUS
 62
    7
 10
400.20156850000001
 20
218.79534950000001
 11
400.12011749999999
 21
218.92465150000001
  0
LINE
  8
_0-0_0
  6
CONTINUOUS
 62
    7
 10
400.20156850000001
 20
218.79534950000001
 11
400.29470850000001
 21
218.6539305
  0
LINE
  8
_0-0_0
  6
CONTINUOUS
 62
    7
 10
413.4741515
 20
218.5246425
 11
413.56314050000003
 21
218.6539305
  0
LINE
  8
_0-0_0
  6
CONTINUOUS
 62
    7
 10
413.65628049999998
 20
218.79534950000001
 11
413.56314050000003
 21
218.6539305
  0
LINE
  8
_0-0_0
  6
CONTINUOUS
 62
    7
 10
413.65628049999998
 20
218.79534950000001
 11
413.7377315
 21
218.92465150000001
  0
ARC
  8
_0-0_0
  6
CONTINUOUS
 62
    7
 10
406.92892449999999
 20
223.12464850000001
 40
8
 50
328.33175599999993
 51
334.05550899999992
  0
LINE
  8
_0-0_0
  6
CONTINUOUS
 62
    7
 10
414.1226805
 20
219.62464850000001
 11
414.1841435
 21
219.75393650000001
  0
LINE
  8
_0-0_0
  6
CONTINUOUS
 62
    7
 10
414.2481995
 20
219.89535549999999
 11
414.1841435
 21
219.75393650000001
  0
LINE
  8
_0-0_0
  6
CONTINUOUS
 62
    7
 10
414.2481995
 20
219.89535549999999
 11
414.30389450000001
 21
220.0246425
  0
ARC
  8
_0-0_0
  6
CONTINUOUS
 62
    7
 10
406.92892449999999
 20
223.12464850000001
 40
8
 50
337.20097500000003
 51
342.54240199999998
  0
LINE
  8
_0-0_0
  6
CONTINUOUS
 62
    7
 10
414.56042450000001
 20
220.72463949999999
 11
414.59991450000001
 21
220.85394250000002
  0
LINE
  8
_0-0_0
  6
CONTINUOUS
 62
    7
 10
414.64035050000001
 20
220.9953615
 11
414.59991450000001
 21
220.85394250000002
  0
LINE
  8
_0-0_0
  6
CONTINUOUS
 62
    7
 10
414.64035050000001
 20
220.9953615
 11
414.67489649999999
 21
221.12464850000001
  0
ARC
  8
_0-0_0
  6
CONTINUOUS
 62
    7
 10
406.92892449999999
 20
223.12464850000001
 40
8
 50
345.52249499999999
 51
350.64797900000002
  0
LINE
  8
_0-0_0
  6
CONTINUOUS
 62
    7
 10
414.82260150000002
 20
221.8246455
 11
414.8428045
 21
221.95393350000001
  0
LINE
  8
_0-0_0
  6
CONTINUOUS
 62
    7
 10
414.86242650000003
 20
222.09535249999999
 11
414.8428045
 21
221.95393350000001
  0
LINE
  8
_0-0_0
  6
CONTINUOUS
 62
    7
 10
414.86242650000003
 20
222.09535249999999
 11
414.87814350000002
 21
222.22463949999999
  0
ARC
  8
_0-0_0
  6
CONTINUOUS
 62
    7
 10
406.92892449999999
 20
223.12464850000001
 40
8
 50
353.54056400000002
 51
358.56744600000002
  0
LINE
  8
_0-0_0
  6
CONTINUOUS
 62
    7
 10
414.9264225
 20
222.92465150000001
 11
414.92861950000002
 21
223.05392449999999
  0
LINE
  8
_0-0_0
  6
CONTINUOUS
 62
    7
 10
414.92861950000002
 20
223.05392449999999
 11
414.92892449999999
 21
223.12464850000001
  0
LINE
  8
_0-0_0
  6
CONTINUOUS
 62
    7
 10
415.92892449999999
 20
218.6539305
 11
415.92892449999999
 21
218.5246425
  0
LINE
  8
_0-0_0
  6
CONTINUOUS
 62
    7
 10
415.92892449999999
 20
227.45393350000001
 11
415.92892449999999
 21
227.59535249999999
  0
LINE
  8
_0-0_0
  6
CONTINUOUS
 62
    7
 10
415.92892449999999
 20
227.45393350000001
 11
415.92892449999999
 21
227.3246455
  0
LINE
  8
_0-0_0
  6
CONTINUOUS
 62
    7
 10
415.92892449999999
 20
226.62464850000001
 11
415.92892449999999
 21
227.3246455
  0
LINE
  8
_0-0_0
  6
CONTINUOUS
 62
    7
 10
415.92892449999999
 20
226.4953615
 11
415.92892449999999
 21
226.62464850000001
  0
LINE
  8
_0-0_0
  6
CONTINUOUS
 62
    7
 10
415.92892449999999
 20
226.3539275
 11
415.92892449999999
 21
226.4953615
  0
LINE
  8
_0-0_0
  6
CONTINUOUS
 62
    7
 10
415.92892449999999
 20
226.3539275
 11
415.92892449999999
 21
226.22463949999999
  0
LINE
  8
_0-0_0
  6
CONTINUOUS
 62
    7
 10
415.92892449999999
 20
225.5246425
 11
415.92892449999999
 21
226.22463949999999
  0
LINE
  8
_0-0_0
  6
CONTINUOUS
 62
    7
 10
415.92892449999999
 20
225.39535549999999
 11
415.92892449999999
 21
225.5246425
  0
LINE
  8
_0-0_0
  6
CONTINUOUS
 62
    7
 10
415.92892449999999
 20
225.25393650000001
 11
415.92892449999999
 21
225.39535549999999
  0
LINE
  8
_0-0_0
  6
CONTINUOUS
 62
    7
 10
415.92892449999999
 20
225.25393650000001
 11
415.92892449999999
 21
225.12464850000001
  0
LINE
  8
_0-0_0
  6
CONTINUOUS
 62
    7
 10
415.92892449999999
 20
224.42465150000001
 11
415.92892449999999
 21
225.12464850000001
  0
LINE
  8
_0-0_0
  6
CONTINUOUS
 62
    7
 10
415.92892449999999
 20
224.29534950000001
 11
415.92892449999999
 21
224.42465150000001
  0
LINE
  8
_0-0_0
  6
CONTINUOUS
 62
    7
 10
415.92892449999999
 20
224.1539305
 11
415.92892449999999
 21
224.29534950000001
  0
LINE
  8
_0-0_0
  6
CONTINUOUS
 62
    7
 10
415.92892449999999
 20
224.1539305
 11
415.92892449999999
 21
224.0246425
  0
LINE
  8
_0-0_0
  6
CONTINUOUS
 62
    7
 10
415.92892449999999
 20
223.3246455
 11
415.92892449999999
 21
224.0246425
  0
LINE
  8
_0-0_0
  6
CONTINUOUS
 62
    7
 10
415.92892449999999
 20
223.1953585
 11
415.92892449999999
 21
223.3246455
  0
LINE
  8
_0-0_0
  6
CONTINUOUS
 62
    7
 10
415.92892449999999
 20
223.05392449999999
 11
415.92892449999999
 21
223.1953585
  0
LINE
  8
_0-0_0
  6
CONTINUOUS
 62
    7
 10
415.92892449999999
 20
223.05392449999999
 11
415.92892449999999
 21
222.92465150000001
  0
LINE
  8
_0-0_0
  6
CONTINUOUS
 62
    7
 10
415.92892449999999
 20
222.22463949999999
 11
415.92892449999999
 21
222.92465150000001
  0
LINE
  8
_0-0_0
  6
CONTINUOUS
 62
    7
 10
415.92892449999999
 20
222.09535249999999
 11
415.92892449999999
 21
222.22463949999999
  0
LINE
  8
_0-0_0
  6
CONTINUOUS
 62
    7
 10
415.92892449999999
 20
221.95393350000001
 11
415.92892449999999
 21
222.09535249999999
  0
LINE
  8
_0-0_0
  6
CONTINUOUS
 62
    7
 10
415.92892449999999
 20
221.95393350000001
 11
415.92892449999999
 21
221.8246455
  0
LINE
  8
_0-0_0
  6
CONTINUOUS
 62
    7
 10
415.92892449999999
 20
221.12464850000001
 11
415.92892449999999
 21
221.8246455
  0
LINE
  8
_0-0_0
  6
CONTINUOUS
 62
    7
 10
415.92892449999999
 20
220.9953615
 11
415.92892449999999
 21
221.12464850000001
  0
LINE
  8
_0-0_0
  6
CONTINUOUS
 62
    7
 10
415.92892449999999
 20
220.85394250000002
 11
415.92892449999999
 21
220.9953615
  0
LINE
  8
_0-0_0
  6
CONTINUOUS
 62
    7
 10
415.92892449999999
 20
220.85394250000002
 11
415.92892449999999
 21
220.72463949999999
  0
LINE
  8
_0-0_0
  6
CONTINUOUS
 62
    7
 10
415.92892449999999
 20
220.0246425
 11
415.92892449999999
 21
220.72463949999999
  0
LINE
  8
_0-0_0
  6
CONTINUOUS
 62
    7
 10
415.92892449999999
 20
219.89535549999999
 11
415.92892449999999
 21
220.0246425
  0
LINE
  8
_0-0_0
  6
CONTINUOUS
 62
    7
 10
415.92892449999999
 20
219.75393650000001
 11
415.92892449999999
 21
219.89535549999999
  0
LINE
  8
_0-0_0
  6
CONTINUOUS
 62
    7
 10
415.92892449999999
 20
219.75393650000001
 11
415.92892449999999
 21
219.62464850000001
  0
LINE
  8
_0-0_0
  6
CONTINUOUS
 62
    7
 10
415.92892449999999
 20
218.92465150000001
 11
415.92892449999999
 21
219.62464850000001
  0
LINE
  8
_0-0_0
  6
CONTINUOUS
 62
    7
 10
415.92892449999999
 20
218.79534950000001
 11
415.92892449999999
 21
218.92465150000001
  0
LINE
  8
_0-0_0
  6
CONTINUOUS
 62
    7
 10
415.92892449999999
 20
218.6539305
 11
415.92892449999999
 21
218.79534950000001
  0
LINE
  8
_0-0_0
  6
CONTINUOUS
 62
    7
 10
415.92892449999999
 20
204.8246455
 11
415.92892449999999
 21
205.3246455
  0
LINE
  8
_0-0_0
  6
CONTINUOUS
 62
    7
 10
415.92892449999999
 20
233.3246455
 11
415.92892449999999
 21
232.7306825
  0
LINE
  8
_0-0_0
  6
CONTINUOUS
 62
    7
 10
415.92892449999999
 20
227.72463949999999
 11
415.92892449999999
 21
232.7306825
  0
LINE
  8
_0-0_0
  6
CONTINUOUS
 62
    7
 10
415.92892449999999
 20
227.59535249999999
 11
415.92892449999999
 21
227.72463949999999
  0
LINE
  8
_0-0_0
  6
CONTINUOUS
 62
    7
 10
112.9289165
 20
204.8246455
 11
112.9289165
 21
205.3246455
  0
LINE
  8
_0-0_0
  6
CONTINUOUS
 62
    7
 10
112.9289165
 20
204.8246455
 11
415.92892449999999
 21
204.8246455
  0
LINE
  8
_0-0_0
  6
CONTINUOUS
 62
    7
 10
112.9289165
 20
218.6539305
 11
112.9289165
 21
218.79534950000001
  0
LINE
  8
_0-0_0
  6
CONTINUOUS
 62
    7
 10
112.9289165
 20
218.6539305
 11
112.9289165
 21
218.5246425
  0
LINE
  8
_0-0_0
  6
CONTINUOUS
 62
    7
 10
112.9289165
 20
233.3246455
 11
112.9289165
 21
232.7306825
  0
LINE
  8
_0-0_0
  6
CONTINUOUS
 62
    7
 10
112.9289165
 20
227.72463949999999
 11
112.9289165
 21
232.7306825
  0
LINE
  8
_0-0_0
  6
CONTINUOUS
 62
    7
 10
112.9289165
 20
227.59535249999999
 11
112.9289165
 21
227.72463949999999
  0
LINE
  8
_0-0_0
  6
CONTINUOUS
 62
    7
 10
112.9289165
 20
227.45393350000001
 11
112.9289165
 21
227.59535249999999
  0
LINE
  8
_0-0_0
  6
CONTINUOUS
 62
    7
 10
112.9289165
 20
227.45393350000001
 11
112.9289165
 21
227.3246455
  0
LINE
  8
_0-0_0
  6
CONTINUOUS
 62
    7
 10
112.9289165
 20
226.62464850000001
 11
112.9289165
 21
227.3246455
  0
LINE
  8
_0-0_0
  6
CONTINUOUS
 62
    7
 10
112.9289165
 20
226.4953615
 11
112.9289165
 21
226.62464850000001
  0
LINE
  8
_0-0_0
  6
CONTINUOUS
 62
    7
 10
112.9289165
 20
226.3539275
 11
112.9289165
 21
226.4953615
  0
LINE
  8
_0-0_0
  6
CONTINUOUS
 62
    7
 10
112.9289165
 20
226.3539275
 11
112.9289165
 21
226.22463949999999
  0
LINE
  8
_0-0_0
  6
CONTINUOUS
 62
    7
 10
112.9289165
 20
225.5246425
 11
112.9289165
 21
226.22463949999999
  0
LINE
  8
_0-0_0
  6
CONTINUOUS
 62
    7
 10
112.9289165
 20
225.39535549999999
 11
112.9289165
 21
225.5246425
  0
LINE
  8
_0-0_0
  6
CONTINUOUS
 62
    7
 10
112.9289165
 20
225.25393650000001
 11
112.9289165
 21
225.39535549999999
  0
LINE
  8
_0-0_0
  6
CONTINUOUS
 62
    7
 10
112.9289165
 20
225.25393650000001
 11
112.9289165
 21
225.12464850000001
  0
LINE
  8
_0-0_0
  6
CONTINUOUS
 62
    7
 10
112.9289165
 20
224.42465150000001
 11
112.9289165
 21
225.12464850000001
  0
LINE
  8
_0-0_0
  6
CONTINUOUS
 62
    7
 10
112.9289165
 20
224.29534950000001
 11
112.9289165
 21
224.42465150000001
  0
LINE
  8
_0-0_0
  6
CONTINUOUS
 62
    7
 10
112.9289165
 20
224.1539305
 11
112.9289165
 21
224.29534950000001
  0
LINE
  8
_0-0_0
  6
CONTINUOUS
 62
    7
 10
112.9289165
 20
224.1539305
 11
112.9289165
 21
224.0246425
  0
LINE
  8
_0-0_0
  6
CONTINUOUS
 62
    7
 10
112.9289165
 20
223.3246455
 11
112.9289165
 21
224.0246425
  0
LINE
  8
_0-0_0
  6
CONTINUOUS
 62
    7
 10
112.9289165
 20
223.1953585
 11
112.9289165
 21
223.3246455
  0
LINE
  8
_0-0_0
  6
CONTINUOUS
 62
    7
 10
112.9289165
 20
223.05392449999999
 11
112.9289165
 21
223.1953585
  0
LINE
  8
_0-0_0
  6
CONTINUOUS
 62
    7
 10
112.9289165
 20
223.05392449999999
 11
112.9289165
 21
222.92465150000001
  0
LINE
  8
_0-0_0
  6
CONTINUOUS
 62
    7
 10
112.9289165
 20
222.22463949999999
 11
112.9289165
 21
222.92465150000001
  0
LINE
  8
_0-0_0
  6
CONTINUOUS
 62
    7
 10
112.9289165
 20
222.09535249999999
 11
112.9289165
 21
222.22463949999999
  0
LINE
  8
_0-0_0
  6
CONTINUOUS
 62
    7
 10
112.9289165
 20
221.95393350000001
 11
112.9289165
 21
222.09535249999999
  0
LINE
  8
_0-0_0
  6
CONTINUOUS
 62
    7
 10
112.9289165
 20
221.95393350000001
 11
112.9289165
 21
221.8246455
  0
LINE
  8
_0-0_0
  6
CONTINUOUS
 62
    7
 10
112.9289165
 20
221.12464850000001
 11
112.9289165
 21
221.8246455
  0
LINE
  8
_0-0_0
  6
CONTINUOUS
 62
    7
 10
112.9289165
 20
220.9953615
 11
112.9289165
 21
221.12464850000001
  0
LINE
  8
_0-0_0
  6
CONTINUOUS
 62
    7
 10
112.9289165
 20
220.85394250000002
 11
112.9289165
 21
220.9953615
  0
LINE
  8
_0-0_0
  6
CONTINUOUS
 62
    7
 10
112.9289165
 20
220.85394250000002
 11
112.9289165
 21
220.72463949999999
  0
LINE
  8
_0-0_0
  6
CONTINUOUS
 62
    7
 10
112.9289165
 20
220.0246425
 11
112.9289165
 21
220.72463949999999
  0
LINE
  8
_0-0_0
  6
CONTINUOUS
 62
    7
 10
112.9289165
 20
219.89535549999999
 11
112.9289165
 21
220.0246425
  0
LINE
  8
_0-0_0
  6
CONTINUOUS
 62
    7
 10
112.9289165
 20
219.75393650000001
 11
112.9289165
 21
219.89535549999999
  0
LINE
  8
_0-0_0
  6
CONTINUOUS
 62
    7
 10
112.9289165
 20
219.75393650000001
 11
112.9289165
 21
219.62464850000001
  0
LINE
  8
_0-0_0
  6
CONTINUOUS
 62
    7
 10
112.9289165
 20
218.92465150000001
 11
112.9289165
 21
219.62464850000001
  0
LINE
  8
_0-0_0
  6
CONTINUOUS
 62
    7
 10
112.9289165
 20
218.79534950000001
 11
112.9289165
 21
218.92465150000001
  0
LINE
  8
_0-0_0
  6
CONTINUOUS
 62
    7
 10
349.92892449999999
 20
210.8246455
 11
356.92892449999999
 21
210.8246455
  0
ARC
  8
_0-0_0
  6
CONTINUOUS
 62
    7
 10
349.92892449999999
 20
210.3246455
 40
0.5
 50
90.000003000000007
 51
180.00000900000001
  0
LINE
  8
_0-0_0
  6
CONTINUOUS
 62
    7
 10
349.42892449999999
 20
210.3246455
 11
349.42892449999999
 21
206.3246455
  0
ARC
  8
_0-0_0
  6
CONTINUOUS
 62
    7
 10
349.92892449999999
 20
206.3246455
 40
0.5
 50
180.00000900000003
 51
269.99999700000001
  0
LINE
  8
_0-0_0
  6
CONTINUOUS
 62
    7
 10
356.92892449999999
 20
205.8246455
 11
349.92892449999999
 21
205.8246455
  0
ARC
  8
_0-0_0
  6
CONTINUOUS
 62
    7
 10
356.92892449999999
 20
206.3246455
 40
0.5
 50
269.99999700000001
 51
0
  0
LINE
  8
_0-0_0
  6
CONTINUOUS
 62
    7
 10
357.42892449999999
 20
206.3246455
 11
357.42892449999999
 21
210.3246455
  0
ARC
  8
_0-0_0
  6
CONTINUOUS
 62
    7
 10
356.92892449999999
 20
210.3246455
 40
0.5
 50
0
 51
90.000003000000007
  0
ARC
  8
_0-0_0
  6
CONTINUOUS
 62
    7
 10
179.9289095
 20
210.3246455
 40
0.5
 50
90.000003000000007
 51
180.00000900000001
  0
LINE
  8
_0-0_0
  6
CONTINUOUS
 62
    7
 10
179.4289095
 20
210.3246455
 11
179.4289095
 21
206.3246455
  0
ARC
  8
_0-0_0
  6
CONTINUOUS
 62
    7
 10
179.9289095
 20
206.3246455
 40
0.5
 50
180.00000900000003
 51
269.99999700000001
  0
LINE
  8
_0-0_0
  6
CONTINUOUS
 62
    7
 10
186.9289095
 20
205.8246455
 11
179.9289095
 21
205.8246455
  0
ARC
  8
_0-0_0
  6
CONTINUOUS
 62
    7
 10
186.9289095
 20
206.3246455
 40
0.5
 50
269.99999700000001
 51
0
  0
LINE
  8
_0-0_0
  6
CONTINUOUS
 62
    7
 10
187.4289095
 20
206.3246455
 11
187.4289095
 21
210.3246455
  0
ARC
  8
_0-0_0
  6
CONTINUOUS
 62
    7
 10
186.9289095
 20
210.3246455
 40
0.5
 50
0
 51
90.000003000000007
  0
LINE
  8
_0-0_0
  6
CONTINUOUS
 62
    7
 10
179.9289095
 20
210.8246455
 11
186.9289095
 21
210.8246455
  0
LINE
  8
_0-0_0
  6
CONTINUOUS
 62
    7
 10
112.9289165
 20
218.92465150000001
 11
115.1201015
 21
218.92465150000001
  0
LINE
  8
_0-0_0
  6
CONTINUOUS
 62
    7
 10
112.9289165
 20
219.62464850000001
 11
114.7351685
 21
219.62464850000001
  0
LINE
  8
_0-0_0
  6
CONTINUOUS
 62
    7
 10
112.9289165
 20
220.0246425
 11
114.55396250000001
 21
220.0246425
  0
LINE
  8
_0-0_0
  6
CONTINUOUS
 62
    7
 10
112.9289165
 20
220.72463949999999
 11
114.29740150000001
 21
220.72463949999999
  0
LINE
  8
_0-0_0
  6
CONTINUOUS
 62
    7
 10
112.9289165
 20
221.12464850000001
 11
114.18295250000001
 21
221.12464850000001
  0
LINE
  8
_0-0_0
  6
CONTINUOUS
 62
    7
 10
112.9289165
 20
221.8246455
 11
114.03524750000001
 21
221.8246455
  0
LINE
  8
_0-0_0
  6
CONTINUOUS
 62
    7
 10
112.9289165
 20
222.22463949999999
 11
113.97970550000001
 21
222.22463949999999
  0
LINE
  8
_0-0_0
  6
CONTINUOUS
 62
    7
 10
112.9289165
 20
222.92465150000001
 11
113.9314195
 21
222.92465150000001
  0
LINE
  8
_0-0_0
  6
CONTINUOUS
 62
    7
 10
113.9289165
 20
223.12464850000001
 11
113.92922950000001
 21
223.1953585
  0
LINE
  8
_0-0_0
  6
CONTINUOUS
 62
    7
 10
129.92892449999999
 20
223.12464850000001
 11
129.92860450000001
 21
223.1953585
  0
LINE
  8
_0-0_0
  6
CONTINUOUS
 62
    7
 10
129.9264225
 20
223.3246455
 11
129.92860450000001
 21
223.1953585
  0
ARC
  8
_0-0_0
  6
CONTINUOUS
 62
    7
 10
121.9289165
 20
223.12464850000001
 40
8
 50
1.432544
 51
6.4594489999999993
  0
LINE
  8
_0-0_0
  6
CONTINUOUS
 62
    7
 10
129.86242650000003
 20
224.1539305
 11
129.8781285
 21
224.0246425
  0
LINE
  8
_0-0_0
  6
CONTINUOUS
 62
    7
 10
129.86242650000003
 20
224.1539305
 11
129.84278850000001
 21
224.29534950000001
  0
LINE
  8
_0-0_0
  6
CONTINUOUS
 62
    7
 10
129.8225865
 20
224.42465150000001
 11
129.84278850000001
 21
224.29534950000001
  0
ARC
  8
_0-0_0
  6
CONTINUOUS
 62
    7
 10
121.9289165
 20
223.12464850000001
 40
8
 50
9.3520350000000008
 51
14.477510999999998
  0
LINE
  8
_0-0_0
  6
CONTINUOUS
 62
    7
 10
129.6403425
 20
225.25393650000001
 11
129.67488150000003
 21
225.12464850000001
  0
LINE
  8
_0-0_0
  6
CONTINUOUS
 62
    7
 10
129.6403425
 20
225.25393650000001
 11
129.59989150000001
 21
225.39535549999999
  0
LINE
  8
_0-0_0
  6
CONTINUOUS
 62
    7
 10
129.56043249999999
 20
225.5246425
 11
129.59989150000001
 21
225.39535549999999
  0
ARC
  8
_0-0_0
  6
CONTINUOUS
 62
    7
 10
121.9289165
 20
223.12464850000001
 40
8
 50
17.457602999999999
 51
22.799030999999999
  0
LINE
  8
_0-0_0
  6
CONTINUOUS
 62
    7
 10
129.24818450000001
 20
226.3539275
 11
129.3038785
 21
226.22463949999999
  0
LINE
  8
_0-0_0
  6
CONTINUOUS
 62
    7
 10
129.24818450000001
 20
226.3539275
 11
129.1841435
 21
226.4953615
  0
LINE
  8
_0-0_0
  6
CONTINUOUS
 62
    7
 10
129.12266550000001
 20
226.62464850000001
 11
129.1841435
 21
226.4953615
  0
ARC
  8
_0-0_0
  6
CONTINUOUS
 62
    7
 10
121.9289165
 20
223.12464850000001
 40
8
 50
25.944476999999999
 51
31.668240000000001
  0
LINE
  8
_0-0_0
  6
CONTINUOUS
 62
    7
 10
128.65626550000002
 20
227.45393350000001
 11
128.7377315
 21
227.3246455
  0
LINE
  8
_0-0_0
  6
CONTINUOUS
 62
    7
 10
128.65626550000002
 20
227.45393350000001
 11
128.56312550000001
 21
227.59535249999999
  0
LINE
  8
_0-0_0
  6
CONTINUOUS
 62
    7
 10
128.47414450000002
 20
227.72463949999999
 11
128.56312550000001
 21
227.59535249999999
  0
ARC
  8
_0-0_0
  6
CONTINUOUS
 62
    7
 10
121.9289165
 20
223.12464850000001
 40
8
 50
35.099632
 51
144.900373
  0
LINE
  8
_0-0_0
  6
CONTINUOUS
 62
    7
 10
115.3836895
 20
227.72463949999999
 11
115.29470850000001
 21
227.59535249999999
  0
LINE
  8
_0-0_0
  6
CONTINUOUS
 62
    7
 10
115.20156850000001
 20
227.45393350000001
 11
115.29470850000001
 21
227.59535249999999
  0
LINE
  8
_0-0_0
  6
CONTINUOUS
 62
    7
 10
115.20156850000001
 20
227.45393350000001
 11
115.1201015
 21
227.3246455
  0
ARC
  8
_0-0_0
  6
CONTINUOUS
 62
    7
 10
121.9289165
 20
223.12464850000001
 40
8
 50
148.33176499999999
 51
154.05551800000001
  0
LINE
  8
_0-0_0
  6
CONTINUOUS
 62
    7
 10
114.7351685
 20
226.62464850000001
 11
114.67369050000001
 21
226.4953615
  0
LINE
  8
_0-0_0
  6
CONTINUOUS
 62
    7
 10
114.6096495
 20
226.3539275
 11
114.67369050000001
 21
226.4953615
  0
LINE
  8
_0-0_0
  6
CONTINUOUS
 62
    7
 10
114.6096495
 20
226.3539275
 11
114.55396250000001
 21
226.22463949999999
  0
ARC
  8
_0-0_0
  6
CONTINUOUS
 62
    7
 10
121.9289165
 20
223.12464850000001
 40
8
 50
157.20097000000001
 51
162.54239699999999
  0
LINE
  8
_0-0_0
  6
CONTINUOUS
 62
    7
 10
114.29740150000001
 20
225.5246425
 11
114.25794250000001
 21
225.39535549999999
  0
LINE
  8
_0-0_0
  6
CONTINUOUS
 62
    7
 10
114.21749150000001
 20
225.25393650000001
 11
114.25794250000001
 21
225.39535549999999
  0
LINE
  8
_0-0_0
  6
CONTINUOUS
 62
    7
 10
114.21749150000001
 20
225.25393650000001
 11
114.18295250000001
 21
225.12464850000001
  0
ARC
  8
_0-0_0
  6
CONTINUOUS
 62
    7
 10
121.9289165
 20
223.12464850000001
 40
8
 50
165.52249
 51
170.64796000000001
  0
LINE
  8
_0-0_0
  6
CONTINUOUS
 62
    7
 10
114.03524750000001
 20
224.42465150000001
 11
114.01503750000001
 21
224.29534950000001
  0
LINE
  8
_0-0_0
  6
CONTINUOUS
 62
    7
 10
113.99540750000001
 20
224.1539305
 11
114.01503750000001
 21
224.29534950000001
  0
LINE
  8
_0-0_0
  6
CONTINUOUS
 62
    7
 10
113.99540750000001
 20
224.1539305
 11
113.97970550000001
 21
224.0246425
  0
ARC
  8
_0-0_0
  6
CONTINUOUS
 62
    7
 10
121.9289165
 20
223.12464850000001
 40
8
 50
173.54054500000001
 51
178.567455
  0
LINE
  8
_0-0_0
  6
CONTINUOUS
 62
    7
 10
113.9314195
 20
223.3246455
 11
113.92922950000001
 21
223.1953585
  0
CIRCLE
  8
_0-0_0
  6
CONTINUOUS
 62
    7
 10
121.9289165
 20
223.12464850000001
 40
7.5
  0
LINE
  8
_0-0_0
  6
CONTINUOUS
 62
    7
 10
398.92892449999999
 20
223.12464850000001
 11
398.92922950000002
 21
223.1953585
  0
LINE
  8
_0-0_0
  6
CONTINUOUS
 62
    7
 10
129.9264225
 20
222.92465150000001
 11
398.93142749999998
 21
222.92465150000001
  0
LINE
  8
_0-0_0
  6
CONTINUOUS
 62
    7
 10
129.8781285
 20
222.22463949999999
 11
398.97970550000002
 21
222.22463949999999
  0
LINE
  8
_0-0_0
  6
CONTINUOUS
 62
    7
 10
129.8225865
 20
221.8246455
 11
399.03524750000003
 21
221.8246455
  0
LINE
  8
_0-0_0
  6
CONTINUOUS
 62
    7
 10
129.67488150000003
 20
221.12464850000001
 11
399.1829525
 21
221.12464850000001
  0
LINE
  8
_0-0_0
  6
CONTINUOUS
 62
    7
 10
129.56043249999999
 20
220.72463949999999
 11
399.29742450000003
 21
220.72463949999999
  0
LINE
  8
_0-0_0
  6
CONTINUOUS
 62
    7
 10
129.3038785
 20
220.0246425
 11
399.55395550000003
 21
220.0246425
  0
LINE
  8
_0-0_0
  6
CONTINUOUS
 62
    7
 10
129.12266550000001
 20
219.62464850000001
 11
399.73516849999999
 21
219.62464850000001
  0
LINE
  8
_0-0_0
  6
CONTINUOUS
 62
    7
 10
128.7377315
 20
218.92465150000001
 11
400.12011749999999
 21
218.92465150000001
  0
LINE
  8
_0-0_0
  6
CONTINUOUS
 62
    7
 10
414.92892449999999
 20
223.12464850000001
 11
414.92861950000002
 21
223.1953585
  0
LINE
  8
_0-0_0
  6
CONTINUOUS
 62
    7
 10
414.9264225
 20
222.92465150000001
 11
415.92892449999999
 21
222.92465150000001
  0
LINE
  8
_0-0_0
  6
CONTINUOUS
 62
    7
 10
414.87814350000002
 20
222.22463949999999
 11
415.92892449999999
 21
222.22463949999999
  0
LINE
  8
_0-0_0
  6
CONTINUOUS
 62
    7
 10
414.82260150000002
 20
221.8246455
 11
415.92892449999999
 21
221.8246455
  0
LINE
  8
_0-0_0
  6
CONTINUOUS
 62
    7
 10
414.67489649999999
 20
221.12464850000001
 11
415.92892449999999
 21
221.12464850000001
  0
LINE
  8
_0-0_0
  6
CONTINUOUS
 62
    7
 10
414.56042450000001
 20
220.72463949999999
 11
415.92892449999999
 21
220.72463949999999
  0
LINE
  8
_0-0_0
  6
CONTINUOUS
 62
    7
 10
414.30389450000001
 20
220.0246425
 11
415.92892449999999
 21
220.0246425
  0
LINE
  8
_0-0_0
  6
CONTINUOUS
 62
    7
 10
414.1226805
 20
219.62464850000001
 11
415.92892449999999
 21
219.62464850000001
  0
LINE
  8
_0-0_0
  6
CONTINUOUS
 62
    7
 10
413.7377315
 20
218.92465150000001
 11
415.92892449999999
 21
218.92465150000001
  0
LINE
  8
_0-0_0
  6
CONTINUOUS
 62
    7
 10
413.4741515
 20
227.72463949999999
 11
413.56314050000003
 21
227.59535249999999
  0
ARC
  8
_0-0_0
  6
CONTINUOUS
 62
    7
 10
406.92892449999999
 20
223.12464850000001
 40
8
 50
35.099632
 51
144.900373
  0
LINE
  8
_0-0_0
  6
CONTINUOUS
 62
    7
 10
400.38369749999998
 20
227.72463949999999
 11
400.29470850000001
 21
227.59535249999999
  0
LINE
  8
_0-0_0
  6
CONTINUOUS
 62
    7
 10
400.20156850000001
 20
227.45393350000001
 11
400.29470850000001
 21
227.59535249999999
  0
LINE
  8
_0-0_0
  6
CONTINUOUS
 62
    7
 10
400.20156850000001
 20
227.45393350000001
 11
400.12011749999999
 21
227.3246455
  0
ARC
  8
_0-0_0
  6
CONTINUOUS
 62
    7
 10
406.92892449999999
 20
223.12464850000001
 40
8
 50
148.33176499999999
 51
154.05551800000001
  0
LINE
  8
_0-0_0
  6
CONTINUOUS
 62
    7
 10
399.73516849999999
 20
226.62464850000001
 11
399.67370649999998
 21
226.4953615
  0
LINE
  8
_0-0_0
  6
CONTINUOUS
 62
    7
 10
399.60964949999999
 20
226.3539275
 11
399.67370649999998
 21
226.4953615
  0
LINE
  8
_0-0_0
  6
CONTINUOUS
 62
    7
 10
399.60964949999999
 20
226.3539275
 11
399.55395550000003
 21
226.22463949999999
  0
ARC
  8
_0-0_0
  6
CONTINUOUS
 62
    7
 10
406.92892449999999
 20
223.12464850000001
 40
8
 50
157.20097000000001
 51
162.54239699999999
  0
LINE
  8
_0-0_0
  6
CONTINUOUS
 62
    7
 10
399.29742450000003
 20
225.5246425
 11
399.25793450000003
 21
225.39535549999999
  0
LINE
  8
_0-0_0
  6
CONTINUOUS
 62
    7
 10
399.21749850000003
 20
225.25393650000001
 11
399.25793450000003
 21
225.39535549999999
  0
LINE
  8
_0-0_0
  6
CONTINUOUS
 62
    7
 10
399.21749850000003
 20
225.25393650000001
 11
399.1829525
 21
225.12464850000001
  0
ARC
  8
_0-0_0
  6
CONTINUOUS
 62
    7
 10
406.92892449999999
 20
223.12464850000001
 40
8
 50
165.52249
 51
170.64796000000001
  0
LINE
  8
_0-0_0
  6
CONTINUOUS
 62
    7
 10
399.03524750000003
 20
224.42465150000001
 11
399.01504549999999
 21
224.29534950000001
  0
LINE
  8
_0-0_0
  6
CONTINUOUS
 62
    7
 10
398.99542250000002
 20
224.1539305
 11
399.01504549999999
 21
224.29534950000001
  0
LINE
  8
_0-0_0
  6
CONTINUOUS
 62
    7
 10
398.99542250000002
 20
224.1539305
 11
398.97970550000002
 21
224.0246425
  0
ARC
  8
_0-0_0
  6
CONTINUOUS
 62
    7
 10
406.92892449999999
 20
223.12464850000001
 40
8
 50
173.54054500000001
 51
178.567455
  0
LINE
  8
_0-0_0
  6
CONTINUOUS
 62
    7
 10
398.93142749999998
 20
223.3246455
 11
398.92922950000002
 21
223.1953585
  0
LINE
  8
_0-0_0
  6
CONTINUOUS
 62
    7
 10
414.9264225
 20
223.3246455
 11
414.92861950000002
 21
223.1953585
  0
ARC
  8
_0-0_0
  6
CONTINUOUS
 62
    7
 10
406.92892449999999
 20
223.12464850000001
 40
8
 50
1.432544
 51
6.4594489999999993
  0
LINE
  8
_0-0_0
  6
CONTINUOUS
 62
    7
 10
414.86242650000003
 20
224.1539305
 11
414.87814350000002
 21
224.0246425
  0
LINE
  8
_0-0_0
  6
CONTINUOUS
 62
    7
 10
414.86242650000003
 20
224.1539305
 11
414.8428045
 21
224.29534950000001
  0
LINE
  8
_0-0_0
  6
CONTINUOUS
 62
    7
 10
414.82260150000002
 20
224.42465150000001
 11
414.8428045
 21
224.29534950000001
  0
ARC
  8
_0-0_0
  6
CONTINUOUS
 62
    7
 10
406.92892449999999
 20
223.12464850000001
 40
8
 50
9.3520350000000008
 51
14.477510999999998
  0
LINE
  8
_0-0_0
  6
CONTINUOUS
 62
    7
 10
414.64035050000001
 20
225.25393650000001
 11
414.67489649999999
 21
225.12464850000001
  0
LINE
  8
_0-0_0
  6
CONTINUOUS
 62
    7
 10
414.64035050000001
 20
225.25393650000001
 11
414.59991450000001
 21
225.39535549999999
  0
LINE
  8
_0-0_0
  6
CONTINUOUS
 62
    7
 10
414.56042450000001
 20
225.5246425
 11
414.59991450000001
 21
225.39535549999999
  0
ARC
  8
_0-0_0
  6
CONTINUOUS
 62
    7
 10
406.92892449999999
 20
223.12464850000001
 40
8
 50
17.457602999999999
 51
22.799030999999999
  0
LINE
  8
_0-0_0
  6
CONTINUOUS
 62
    7
 10
414.2481995
 20
226.3539275
 11
414.30389450000001
 21
226.22463949999999
  0
LINE
  8
_0-0_0
  6
CONTINUOUS
 62
    7
 10
414.2481995
 20
226.3539275
 11
414.1841435
 21
226.4953615
  0
LINE
  8
_0-0_0
  6
CONTINUOUS
 62
    7
 10
414.1226805
 20
226.62464850000001
 11
414.1841435
 21
226.4953615
  0
ARC
  8
_0-0_0
  6
CONTINUOUS
 62
    7
 10
406.92892449999999
 20
223.12464850000001
 40
8
 50
25.944476999999999
 51
31.668240000000001
  0
LINE
  8
_0-0_0
  6
CONTINUOUS
 62
    7
 10
413.65628049999998
 20
227.45393350000001
 11
413.7377315
 21
227.3246455
  0
LINE
  8
_0-0_0
  6
CONTINUOUS
 62
    7
 10
413.65628049999998
 20
227.45393350000001
 11
413.56314050000003
 21
227.59535249999999
  0
CIRCLE
  8
_0-0_0
  6
CONTINUOUS
 62
    7
 10
406.92892449999999
 20
223.12464850000001
 40
7.5
  0
LINE
  8
_0-0_0
  6
CONTINUOUS
 62
    7
 10
413.7377315
 20
227.3246455
 11
415.92892449999999
 21
227.3246455
  0
LINE
  8
_0-0_0
  6
CONTINUOUS
 62
    7
 10
414.1226805
 20
226.62464850000001
 11
415.92892449999999
 21
226.62464850000001
  0
LINE
  8
_0-0_0
  6
CONTINUOUS
 62
    7
 10
414.30389450000001
 20
226.22463949999999
 11
415.92892449999999
 21
226.22463949999999
  0
LINE
  8
_0-0_0
  6
CONTINUOUS
 62
    7
 10
414.56042450000001
 20
225.5246425
 11
415.92892449999999
 21
225.5246425
  0
LINE
  8
_0-0_0
  6
CONTINUOUS
 62
    7
 10
414.67489649999999
 20
225.12464850000001
 11
415.92892449999999
 21
225.12464850000001
  0
LINE
  8
_0-0_0
  6
CONTINUOUS
 62
    7
 10
414.82260150000002
 20
224.42465150000001
 11
415.92892449999999
 21
224.42465150000001
  0
LINE
  8
_0-0_0
  6
CONTINUOUS
 62
    7
 10
414.87814350000002
 20
224.0246425
 11
415.92892449999999
 21
224.0246425
  0
LINE
  8
_0-0_0
  6
CONTINUOUS
 62
    7
 10
414.9264225
 20
223.3246455
 11
415.92892449999999
 21
223.3246455
  0
LINE
  8
_0-0_0
  6
CONTINUOUS
 62
    7
 10
416.42892449999999
 20
206.62464850000001
 11
415.92892449999999
 21
206.62464850000001
  0
LINE
  8
_0-0_0
  6
CONTINUOUS
 62
    7
 10
416.42892449999999
 20
208.8246455
 11
415.92892449999999
 21
208.8246455
  0
LINE
  8
_0-0_0
  6
CONTINUOUS
 62
    7
 10
416.42892449999999
 20
211.12464850000001
 11
415.92892449999999
 21
211.12464850000001
  0
LINE
  8
_0-0_0
  6
CONTINUOUS
 62
    7
 10
415.92892449999999
 20
213.42465150000001
 11
416.42892449999999
 21
213.42465150000001
  0
LINE
  8
_0-0_0
  6
CONTINUOUS
 62
    7
 10
416.42892449999999
 20
233.62464850000001
 11
416.42892449999999
 21
233.5246425
  0
LINE
  8
_0-0_0
  6
CONTINUOUS
 62
    7
 10
112.4289165
 20
233.62464850000001
 11
112.4289165
 21
233.5246425
  0
LINE
  8
_0-0_0
  6
CONTINUOUS
 62
    7
 10
112.4289165
 20
213.42465150000001
 11
112.9289165
 21
213.42465150000001
  0
LINE
  8
_0-0_0
  6
CONTINUOUS
 62
    7
 10
112.9289165
 20
233.3246455
 11
415.92892449999999
 21
233.3246455
  0
LINE
  8
_0-0_0
  6
CONTINUOUS
 62
    7
 10
112.9289165
 20
232.7306825
 11
415.92892449999999
 21
232.7306825
  0
LINE
  8
_0-0_0
  6
CONTINUOUS
 62
    7
 10
128.47414450000002
 20
227.72463949999999
 11
400.38369749999998
 21
227.72463949999999
  0
LINE
  8
_0-0_0
  6
CONTINUOUS
 62
    7
 10
413.4741515
 20
227.72463949999999
 11
415.92892449999999
 21
227.72463949999999
  0
LINE
  8
_0-0_0
  6
CONTINUOUS
 62
    7
 10
112.9289165
 20
227.72463949999999
 11
115.3836895
 21
227.72463949999999
  0
LINE
  8
_0-0_0
  6
CONTINUOUS
 62
    7
 10
112.4289165
 20
206.62464850000001
 11
112.9289165
 21
206.62464850000001
  0
LINE
  8
_0-0_0
  6
CONTINUOUS
 62
    7
 10
112.4289165
 20
208.8246455
 11
112.9289165
 21
208.8246455
  0
LINE
  8
_0-0_0
  6
CONTINUOUS
 62
    7
 10
112.4289165
 20
211.12464850000001
 11
112.9289165
 21
211.12464850000001
  0
LINE
  8
_0-0_0
  6
CONTINUOUS
 62
    7
 10
112.9289165
 20
227.3246455
 11
115.1201015
 21
227.3246455
  0
LINE
  8
_0-0_0
  6
CONTINUOUS
 62
    7
 10
112.9289165
 20
226.62464850000001
 11
114.7351685
 21
226.62464850000001
  0
LINE
  8
_0-0_0
  6
CONTINUOUS
 62
    7
 10
112.9289165
 20
226.22463949999999
 11
114.55396250000001
 21
226.22463949999999
  0
LINE
  8
_0-0_0
  6
CONTINUOUS
 62
    7
 10
112.9289165
 20
225.5246425
 11
114.29740150000001
 21
225.5246425
  0
LINE
  8
_0-0_0
  6
CONTINUOUS
 62
    7
 10
112.9289165
 20
225.12464850000001
 11
114.18295250000001
 21
225.12464850000001
  0
LINE
  8
_0-0_0
  6
CONTINUOUS
 62
    7
 10
112.9289165
 20
224.42465150000001
 11
114.03524750000001
 21
224.42465150000001
  0
LINE
  8
_0-0_0
  6
CONTINUOUS
 62
    7
 10
112.9289165
 20
224.0246425
 11
113.97970550000001
 21
224.0246425
  0
LINE
  8
_0-0_0
  6
CONTINUOUS
 62
    7
 10
112.9289165
 20
223.3246455
 11
113.9314195
 21
223.3246455
  0
LINE
  8
_0-0_0
  6
CONTINUOUS
 62
    7
 10
128.7377315
 20
227.3246455
 11
400.12011749999999
 21
227.3246455
  0
LINE
  8
_0-0_0
  6
CONTINUOUS
 62
    7
 10
129.12266550000001
 20
226.62464850000001
 11
399.73516849999999
 21
226.62464850000001
  0
LINE
  8
_0-0_0
  6
CONTINUOUS
 62
    7
 10
129.3038785
 20
226.22463949999999
 11
399.55395550000003
 21
226.22463949999999
  0
LINE
  8
_0-0_0
  6
CONTINUOUS
 62
    7
 10
129.56043249999999
 20
225.5246425
 11
399.29742450000003
 21
225.5246425
  0
LINE
  8
_0-0_0
  6
CONTINUOUS
 62
    7
 10
129.67488150000003
 20
225.12464850000001
 11
399.1829525
 21
225.12464850000001
  0
LINE
  8
_0-0_0
  6
CONTINUOUS
 62
    7
 10
129.8225865
 20
224.42465150000001
 11
399.03524750000003
 21
224.42465150000001
  0
LINE
  8
_0-0_0
  6
CONTINUOUS
 62
    7
 10
129.8781285
 20
224.0246425
 11
398.97970550000002
 21
224.0246425
  0
LINE
  8
_0-0_0
  6
CONTINUOUS
 62
    7
 10
129.9264225
 20
223.3246455
 11
398.93142749999998
 21
223.3246455
  0
LINE
  8
_0-0_0
  6
CONTINUOUS
 62
    7
 10
416.42892449999999
 20
205.12464850000001
 11
415.92892449999999
 21
205.12464850000001
  0
LINE
  8
_0-0_0
  6
CONTINUOUS
 62
    7
 10
416.42892449999999
 20
232.72463949999999
 11
416.42892449999999
 21
233.5246425
  0
LINE
  8
_0-0_0
  6
CONTINUOUS
 62
    7
 10
416.42892449999999
 20
204.92465150000001
 11
416.42892449999999
 21
232.72463949999999
  0
LINE
  8
_0-0_0
  6
CONTINUOUS
 62
    7
 10
112.4289165
 20
232.72463949999999
 11
112.4289165
 21
233.5246425
  0
LINE
  8
_0-0_0
  6
CONTINUOUS
 62
    7
 10
112.4289165
 20
204.92465150000001
 11
112.4289165
 21
232.72463949999999
  0
ARC
  8
_0-0_0
  6
CONTINUOUS
 62
    7
 10
121.9289165
 20
223.8246455
 40
12.800000000000001
 50
73.932597000000001
 51
106.06740099999999
  0
ARC
  8
_0-0_0
  6
CONTINUOUS
 62
    7
 10
406.92892449999999
 20
223.8246455
 40
12.800000000000001
 50
73.932597000000001
 51
106.06740099999999
  0
LINE
  8
_0-0_0
  6
CONTINUOUS
 62
    7
 10
416.42892449999999
 20
233.62464850000001
 11
416.42892449999999
 21
236.12464850000001
  0
LINE
  8
_0-0_0
  6
CONTINUOUS
 62
    7
 10
112.4289165
 20
236.12464850000001
 11
416.42892449999999
 21
236.12464850000001
  0
LINE
  8
_0-0_0
  6
CONTINUOUS
 62
    7
 10
112.4289165
 20
233.62464850000001
 11
112.4289165
 21
236.12464850000001
  0
LINE
  8
_0-0_0
  6
CONTINUOUS
 62
    7
 10
112.4289165
 20
205.12464850000001
 11
112.9289165
 21
205.12464850000001
  0
ARC
  8
_0-0_0
  6
CONTINUOUS
 62
    7
 10
354.72891249999998
 20
210.0246425
 40
0.2
 50
339.62356199999999
 51
90.000002999999978
  0
LINE
  8
_0-0_0
  6
CONTINUOUS
 62
    7
 10
354.91641249999998
 20
209.95500150000001
 11
353.61639450000001
 21
206.45500150000001
  0
ARC
  8
_0-0_0
  6
CONTINUOUS
 62
    7
 10
353.42892449999999
 20
206.5246425
 40
0.2
 50
200.37643
 51
339.62356199999999
  0
LINE
  8
_0-0_0
  6
CONTINUOUS
 62
    7
 10
351.94143650000001
 20
209.95500150000001
 11
353.24142449999999
 21
206.45500150000001
  0
ARC
  8
_0-0_0
  6
CONTINUOUS
 62
    7
 10
352.12890650000003
 20
210.0246425
 40
0.2
 50
90.000003000000007
 51
200.37643
  0
LINE
  8
_0-0_0
  6
CONTINUOUS
 62
    7
 10
352.12890650000003
 20
210.22463949999999
 11
354.72891249999998
 21
210.22463949999999
  0
ARC
  8
_0-0_0
  6
CONTINUOUS
 62
    7
 10
184.72891250000001
 20
210.0246425
 40
0.2
 50
339.62356199999999
 51
90.000002999999978
  0
LINE
  8
_0-0_0
  6
CONTINUOUS
 62
    7
 10
184.91639750000002
 20
209.95500150000001
 11
183.61639450000001
 21
206.45500150000001
  0
ARC
  8
_0-0_0
  6
CONTINUOUS
 62
    7
 10
183.4289095
 20
206.5246425
 40
0.2
 50
200.37643
 51
339.62356199999999
  0
LINE
  8
_0-0_0
  6
CONTINUOUS
 62
    7
 10
181.94142150000002
 20
209.95500150000001
 11
183.24142449999999
 21
206.45500150000001
  0
ARC
  8
_0-0_0
  6
CONTINUOUS
 62
    7
 10
182.1289065
 20
210.0246425
 40
0.2
 50
90.000003000000007
 51
200.37643
  0
LINE
  8
_0-0_0
  6
CONTINUOUS
 62
    7
 10
182.1289065
 20
210.22463949999999
 11
184.72891250000001
 21
210.22463949999999
  0
CIRCLE
  8
_0-0_0
  6
CONTINUOUS
 62
    7
 10
121.9289165
 20
223.12464850000001
 40
5
  0
CIRCLE
  8
_0-0_0
  6
CONTINUOUS
 62
    7
 10
406.92892449999999
 20
223.12464850000001
 40
5
  0
LINE
  8
_0-0_0
  6
CONTINUOUS
 62
    7
 10
417.42892449999999
 20
232.72463949999999
 11
416.42892449999999
 21
232.72463949999999
  0
LINE
  8
_0-0_0
  6
CONTINUOUS
 62
    7
 10
417.42892449999999
 20
233.7616275
 11
416.42892449999999
 21
233.7616275
  0
LINE
  8
_0-0_0
  6
CONTINUOUS
 62
    7
 10
417.42892449999999
 20
204.92465150000001
 11
416.42892449999999
 21
204.92465150000001
  0
LINE
  8
_0-0_0
  6
CONTINUOUS
 62
    7
 10
111.4289165
 20
232.72463949999999
 11
112.4289165
 21
232.72463949999999
  0
LINE
  8
_0-0_0
  6
CONTINUOUS
 62
    7
 10
111.4289165
 20
233.72463949999999
 11
112.4289165
 21
233.72463949999999
  0
LINE
  8
_0-0_0
  6
CONTINUOUS
 62
    7
 10
111.4289165
 20
204.92465150000001
 11
112.4289165
 21
204.92465150000001
  0
LINE
  8
_0-0_0
  6
CONTINUOUS
 62
    7
 10
417.42892449999999
 20
235.92465150000001
 11
416.42892449999999
 21
235.92465150000001
  0
LINE
  8
_0-0_0
  6
CONTINUOUS
 62
    7
 10
111.4289165
 20
235.92465150000001
 11
112.4289165
 21
235.92465150000001
  0
LINE
  8
_0-0_0
  6
CONTINUOUS
 62
    7
 10
418.42892449999999
 20
232.31042450000001
 11
418.42791749999998
 21
232.32893350000001
  0
LINE
  8
_0-0_0
  6
CONTINUOUS
 62
    7
 10
418.42791749999998
 20
232.32893350000001
 11
418.42492650000003
 21
232.34738150000001
  0
LINE
  8
_0-0_0
  6
CONTINUOUS
 62
    7
 10
418.42492650000003
 20
232.34738150000001
 11
418.41967750000003
 21
232.36651549999999
  0
LINE
  8
_0-0_0
  6
CONTINUOUS
 62
    7
 10
418.41967750000003
 20
232.36651549999999
 11
418.41232350000001
 21
232.38552849999999
  0
LINE
  8
_0-0_0
  6
CONTINUOUS
 62
    7
 10
418.41232350000001
 20
232.38552849999999
 11
418.39175449999999
 21
232.42224150000001
  0
LINE
  8
_0-0_0
  6
CONTINUOUS
 62
    7
 10
418.39175449999999
 20
232.42224150000001
 11
418.36337250000003
 21
232.4579315
  0
LINE
  8
_0-0_0
  6
CONTINUOUS
 62
    7
 10
418.36337250000003
 20
232.4579315
 11
418.32748450000003
 21
232.49221750000001
  0
LINE
  8
_0-0_0
  6
CONTINUOUS
 62
    7
 10
418.32748450000003
 20
232.49221750000001
 11
418.27886949999998
 21
232.5286715
  0
LINE
  8
_0-0_0
  6
CONTINUOUS
 62
    7
 10
418.27886949999998
 20
232.5286715
 11
418.22207650000001
 21
232.56268249999999
  0
LINE
  8
_0-0_0
  6
CONTINUOUS
 62
    7
 10
418.22207650000001
 20
232.56268249999999
 11
418.15792850000003
 21
232.59393249999999
  0
LINE
  8
_0-0_0
  6
CONTINUOUS
 62
    7
 10
418.15792850000003
 20
232.59393249999999
 11
418.08728050000002
 21
232.62219250000001
  0
LINE
  8
_0-0_0
  6
CONTINUOUS
 62
    7
 10
418.08728050000002
 20
232.62219250000001
 11
418.03921550000001
 21
232.63853449999999
  0
LINE
  8
_0-0_0
  6
CONTINUOUS
 62
    7
 10
418.03921550000001
 20
232.63853449999999
 11
417.98907450000002
 21
232.65353350000001
  0
LINE
  8
_0-0_0
  6
CONTINUOUS
 62
    7
 10
417.98907450000002
 20
232.65353350000001
 11
417.93237349999998
 21
232.6683045
  0
LINE
  8
_0-0_0
  6
CONTINUOUS
 62
    7
 10
417.93237349999998
 20
232.6683045
 11
417.87377950000001
 21
232.68139650000001
  0
LINE
  8
_0-0_0
  6
CONTINUOUS
 62
    7
 10
417.87377950000001
 20
232.68139650000001
 11
417.75698850000003
 21
232.70172149999999
  0
LINE
  8
_0-0_0
  6
CONTINUOUS
 62
    7
 10
417.75698850000003
 20
232.70172149999999
 11
417.64956649999999
 21
232.71443149999999
  0
LINE
  8
_0-0_0
  6
CONTINUOUS
 62
    7
 10
417.64956649999999
 20
232.71443149999999
 11
417.53979450000003
 21
232.7220915
  0
LINE
  8
_0-0_0
  6
CONTINUOUS
 62
    7
 10
417.53979450000003
 20
232.7220915
 11
417.42892449999999
 21
232.72463949999999
  0
LINE
  8
_0-0_0
  6
CONTINUOUS
 62
    7
 10
418.42892449999999
 20
232.31042450000001
 11
418.42892449999999
 21
233.3104855
  0
LINE
  8
_0-0_0
  6
CONTINUOUS
 62
    7
 10
418.42892449999999
 20
233.3104855
 11
418.42602549999998
 21
233.3420715
  0
LINE
  8
_0-0_0
  6
CONTINUOUS
 62
    7
 10
418.42602549999998
 20
233.3420715
 11
418.41729750000002
 21
233.3741455
  0
LINE
  8
_0-0_0
  6
CONTINUOUS
 62
    7
 10
418.41729750000002
 20
233.3741455
 11
418.40274049999999
 21
233.4064175
  0
LINE
  8
_0-0_0
  6
CONTINUOUS
 62
    7
 10
418.40274049999999
 20
233.4064175
 11
418.38250750000003
 21
233.4385675
  0
LINE
  8
_0-0_0
  6
CONTINUOUS
 62
    7
 10
418.38250750000003
 20
233.4385675
 11
418.36593650000003
 21
233.45980850000001
  0
LINE
  8
_0-0_0
  6
CONTINUOUS
 62
    7
 10
418.36593650000003
 20
233.45980850000001
 11
418.34698450000002
 21
233.48075850000001
  0
LINE
  8
_0-0_0
  6
CONTINUOUS
 62
    7
 10
418.34698450000002
 20
233.48075850000001
 11
418.30224650000002
 21
233.52153050000001
  0
LINE
  8
_0-0_0
  6
CONTINUOUS
 62
    7
 10
418.30224650000002
 20
233.52153050000001
 11
418.24899249999999
 21
233.56028750000002
  0
LINE
  8
_0-0_0
  6
CONTINUOUS
 62
    7
 10
418.24899249999999
 20
233.56028750000002
 11
418.19906650000001
 21
233.5904845
  0
LINE
  8
_0-0_0
  6
CONTINUOUS
 62
    7
 10
418.19906650000001
 20
233.5904845
 11
418.14437850000002
 21
233.61871350000001
  0
LINE
  8
_0-0_0
  6
CONTINUOUS
 62
    7
 10
418.14437850000002
 20
233.61871350000001
 11
418.08538850000002
 21
233.6447445
  0
LINE
  8
_0-0_0
  6
CONTINUOUS
 62
    7
 10
418.08538850000002
 20
233.6447445
 11
418.0386355
 21
233.6627345
  0
LINE
  8
_0-0_0
  6
CONTINUOUS
 62
    7
 10
418.0386355
 20
233.6627345
 11
417.9899595
 21
233.6793515
  0
LINE
  8
_0-0_0
  6
CONTINUOUS
 62
    7
 10
417.9899595
 20
233.6793515
 11
417.88757350000003
 21
233.70822150000001
  0
LINE
  8
_0-0_0
  6
CONTINUOUS
 62
    7
 10
417.88757350000003
 20
233.70822150000001
 11
417.77981549999998
 21
233.73104850000001
  0
LINE
  8
_0-0_0
  6
CONTINUOUS
 62
    7
 10
417.77981549999998
 20
233.73104850000001
 11
417.66821249999998
 21
233.7476345
  0
LINE
  8
_0-0_0
  6
CONTINUOUS
 62
    7
 10
417.66821249999998
 20
233.7476345
 11
417.55413850000002
 21
233.75784250000001
  0
LINE
  8
_0-0_0
  6
CONTINUOUS
 62
    7
 10
417.55413850000002
 20
233.75784250000001
 11
417.42892449999999
 21
233.7616275
  0
ARC
  8
_0-0_0
  6
CONTINUOUS
 62
    7
 10
417.42892449999999
 20
205.92465150000001
 40
1
 50
269.99999700000001
 51
0
  0
LINE
  8
_0-0_0
  6
CONTINUOUS
 62
    7
 10
418.42892449999999
 20
205.92465150000001
 11
418.42892449999999
 21
232.31042450000001
  0
LINE
  8
_0-0_0
  6
CONTINUOUS
 62
    7
 10
110.4289165
 20
232.31042450000001
 11
110.4299165
 21
232.32893350000001
  0
LINE
  8
_0-0_0
  6
CONTINUOUS
 62
    7
 10
110.4299165
 20
232.32893350000001
 11
110.43291450000001
 21
232.34738150000001
  0
LINE
  8
_0-0_0
  6
CONTINUOUS
 62
    7
 10
110.43291450000001
 20
232.34738150000001
 11
110.43814850000001
 21
232.36651549999999
  0
LINE
  8
_0-0_0
  6
CONTINUOUS
 62
    7
 10
110.43814850000001
 20
232.36651549999999
 11
110.4455265
 21
232.38552849999999
  0
LINE
  8
_0-0_0
  6
CONTINUOUS
 62
    7
 10
110.4455265
 20
232.38552849999999
 11
110.46607950000001
 21
232.42224150000001
  0
LINE
  8
_0-0_0
  6
CONTINUOUS
 62
    7
 10
110.46607950000001
 20
232.42224150000001
 11
110.4944765
 21
232.4579315
  0
LINE
  8
_0-0_0
  6
CONTINUOUS
 62
    7
 10
110.4944765
 20
232.4579315
 11
110.53035750000001
 21
232.49221750000001
  0
LINE
  8
_0-0_0
  6
CONTINUOUS
 62
    7
 10
110.53035750000001
 20
232.49221750000001
 11
110.5789795
 21
232.5286715
  0
LINE
  8
_0-0_0
  6
CONTINUOUS
 62
    7
 10
110.5789795
 20
232.5286715
 11
110.63576550000001
 21
232.56268249999999
  0
LINE
  8
_0-0_0
  6
CONTINUOUS
 62
    7
 10
110.63576550000001
 20
232.56268249999999
 11
110.6999055
 21
232.59393249999999
  0
LINE
  8
_0-0_0
  6
CONTINUOUS
 62
    7
 10
110.6999055
 20
232.59393249999999
 11
110.77055350000001
 21
232.62219250000001
  0
LINE
  8
_0-0_0
  6
CONTINUOUS
 62
    7
 10
110.77055350000001
 20
232.62219250000001
 11
110.8186345
 21
232.63853449999999
  0
LINE
  8
_0-0_0
  6
CONTINUOUS
 62
    7
 10
110.8186345
 20
232.63853449999999
 11
110.8687745
 21
232.65353350000001
  0
LINE
  8
_0-0_0
  6
CONTINUOUS
 62
    7
 10
110.8687745
 20
232.65353350000001
 11
110.9254765
 21
232.6683045
  0
LINE
  8
_0-0_0
  6
CONTINUOUS
 62
    7
 10
110.9254765
 20
232.6683045
 11
110.98407750000001
 21
232.68139650000001
  0
LINE
  8
_0-0_0
  6
CONTINUOUS
 62
    7
 10
110.98407750000001
 20
232.68139650000001
 11
111.10086050000001
 21
232.70172149999999
  0
LINE
  8
_0-0_0
  6
CONTINUOUS
 62
    7
 10
111.10086050000001
 20
232.70172149999999
 11
111.20826750000001
 21
232.71443149999999
  0
LINE
  8
_0-0_0
  6
CONTINUOUS
 62
    7
 10
111.20826750000001
 20
232.71443149999999
 11
111.3180315
 21
232.7220915
  0
LINE
  8
_0-0_0
  6
CONTINUOUS
 62
    7
 10
111.3180315
 20
232.7220915
 11
111.4289165
 21
232.72463949999999
  0
LINE
  8
_0-0_0
  6
CONTINUOUS
 62
    7
 10
110.4289165
 20
233.2800905
 11
110.4318085
 21
233.3110045
  0
LINE
  8
_0-0_0
  6
CONTINUOUS
 62
    7
 10
110.4318085
 20
233.3110045
 11
110.44050650000001
 21
233.34243749999999
  0
LINE
  8
_0-0_0
  6
CONTINUOUS
 62
    7
 10
110.44050650000001
 20
233.34243749999999
 11
110.4549865
 21
233.37411449999999
  0
LINE
  8
_0-0_0
  6
CONTINUOUS
 62
    7
 10
110.4549865
 20
233.37411449999999
 11
110.47515850000001
 21
233.40570049999999
  0
LINE
  8
_0-0_0
  6
CONTINUOUS
 62
    7
 10
110.47515850000001
 20
233.40570049999999
 11
110.49167650000001
 21
233.42657450000002
  0
LINE
  8
_0-0_0
  6
CONTINUOUS
 62
    7
 10
110.49167650000001
 20
233.42657450000002
 11
110.51058250000001
 21
233.44718950000001
  0
LINE
  8
_0-0_0
  6
CONTINUOUS
 62
    7
 10
110.51058250000001
 20
233.44718950000001
 11
110.5552215
 21
233.4873355
  0
LINE
  8
_0-0_0
  6
CONTINUOUS
 62
    7
 10
110.5552215
 20
233.4873355
 11
110.60835250000001
 21
233.5255435
  0
LINE
  8
_0-0_0
  6
CONTINUOUS
 62
    7
 10
110.60835250000001
 20
233.5255435
 11
110.65824850000001
 21
233.55535850000001
  0
LINE
  8
_0-0_0
  6
CONTINUOUS
 62
    7
 10
110.65824850000001
 20
233.55535850000001
 11
110.71292150000001
 21
233.5832365
  0
LINE
  8
_0-0_0
  6
CONTINUOUS
 62
    7
 10
110.71292150000001
 20
233.5832365
 11
110.7718885
 21
233.60896249999999
  0
LINE
  8
_0-0_0
  6
CONTINUOUS
 62
    7
 10
110.7718885
 20
233.60896249999999
 11
110.81864950000001
 21
233.6267545
  0
LINE
  8
_0-0_0
  6
CONTINUOUS
 62
    7
 10
110.81864950000001
 20
233.6267545
 11
110.8673555
 21
233.64318850000001
  0
LINE
  8
_0-0_0
  6
CONTINUOUS
 62
    7
 10
110.8673555
 20
233.64318850000001
 11
110.96978750000001
 21
233.6717525
  0
LINE
  8
_0-0_0
  6
CONTINUOUS
 62
    7
 10
110.96978750000001
 20
233.6717525
 11
111.0776065
 21
233.6943665
  0
LINE
  8
_0-0_0
  6
CONTINUOUS
 62
    7
 10
111.0776065
 20
233.6943665
 11
111.18929250000001
 21
233.7107695
  0
LINE
  8
_0-0_0
  6
CONTINUOUS
 62
    7
 10
111.18929250000001
 20
233.7107695
 11
111.30345150000001
 21
233.72088650000001
  0
LINE
  8
_0-0_0
  6
CONTINUOUS
 62
    7
 10
111.30345150000001
 20
233.72088650000001
 11
111.4289165
 21
233.72463949999999
  0
LINE
  8
_0-0_0
  6
CONTINUOUS
 62
    7
 10
110.4289165
 20
232.31042450000001
 11
110.4289165
 21
233.2800905
  0
ARC
  8
_0-0_0
  6
CONTINUOUS
 62
    7
 10
111.4289165
 20
205.92465150000001
 40
1
 50
180.00000900000003
 51
269.99999700000001
  0
LINE
  8
_0-0_0
  6
CONTINUOUS
 62
    7
 10
110.4289165
 20
205.92465150000001
 11
110.4289165
 21
232.31042450000001
  0
LINE
  8
_0-0_0
  6
CONTINUOUS
 62
    7
 10
418.42892449999999
 20
233.3104855
 11
418.42892449999999
 21
234.92465150000001
  0
ARC
  8
_0-0_0
  6
CONTINUOUS
 62
    7
 10
417.42892449999999
 20
234.92465150000001
 40
1
 50
0
 51
90.000003000000007
  0
ARC
  8
_0-0_0
  6
CONTINUOUS
 62
    7
 10
111.4289165
 20
234.92465150000001
 40
1
 50
90.000003000000007
 51
180.00000900000001
  0
LINE
  8
_0-0_0
  6
CONTINUOUS
 62
    7
 10
110.4289165
 20
233.2800905
 11
110.4289165
 21
234.92465150000001
  0
LINE
  8
_0-0_0
  6
CONTINUOUS
 62
    7
 10
22.613245500000005
 20
202.8245695
 11
22.613245500000005
 21
202.7995755
  0
LINE
  8
_0-0_0
  6
CONTINUOUS
 62
    7
 10
22.613245500000005
 20
199.74745150000001
 11
22.613245500000005
 21
199.84957850000001
  0
LINE
  8
_0-0_0
  6
CONTINUOUS
 62
    7
 10
22.613245500000005
 20
178.7245715
 11
22.613245500000005
 21
179.50169349999999
  0
LINE
  8
_0-0_0
  6
CONTINUOUS
 62
    7
 10
5.8132454999999936
 20
178.7245715
 11
22.613245500000005
 21
178.7245715
  0
LINE
  8
_0-0_0
  6
CONTINUOUS
 62
    7
 10
5.8132454999999936
 20
186.6245725
 11
5.8132454999999936
 21
178.7245715
  0
LINE
  8
_0-0_0
  6
CONTINUOUS
 62
    7
 10
5.8132454999999936
 20
199.07989449999999
 11
5.8132454999999936
 21
192.6245725
  0
LINE
  8
_0-0_0
  6
CONTINUOUS
 62
    7
 10
23.113229500000017
 20
182.2245715
 11
23.313245499999994
 21
182.2245715
  0
LINE
  8
_0-0_0
  6
CONTINUOUS
 62
    7
 10
23.313245499999994
 20
182.2245715
 11
23.313245499999994
 21
185.2245715
  0
LINE
  8
_0-0_0
  6
CONTINUOUS
 62
    7
 10
23.313245499999994
 20
198.8245695
 11
23.313245499999994
 21
185.2245715
  0
LINE
  8
_0-0_0
  6
CONTINUOUS
 62
    7
 10
23.113241500000015
 20
201.8245695
 11
23.313245499999994
 21
201.8245695
  0
LINE
  8
_0-0_0
  6
CONTINUOUS
 62
    7
 10
23.313245499999994
 20
198.8245695
 11
23.313245499999994
 21
201.8245695
  0
LINE
  8
_0-0_0
  6
CONTINUOUS
 62
    7
 10
22.413246500000014
 20
201.1236265
 11
22.413246500000014
 21
199.94444250000001
  0
LINE
  8
_0-0_0
  6
CONTINUOUS
 62
    7
 10
22.413246500000014
 20
203.3245695
 11
22.413246500000014
 21
202.8245695
  0
LINE
  8
_0-0_0
  6
CONTINUOUS
 62
    7
 10
21.413246500000014
 20
200.4080505
 11
21.413246500000014
 21
201.1245725
  0
ARC
  8
_0-0_0
  6
CONTINUOUS
 62
    7
 10
21.113245500000005
 20
198.4245755
 40
2
 50
0
 51
90.000003000000007
  0
LINE
  8
_0-0_0
  6
CONTINUOUS
 62
    7
 10
23.113245500000005
 20
194.9245755
 11
23.113245500000005
 21
197.9245755
  0
LINE
  8
_0-0_0
  6
CONTINUOUS
 62
    7
 10
23.113245500000005
 20
197.9245755
 11
23.113245500000005
 21
198.4245755
  0
LINE
  8
_0-0_0
  6
CONTINUOUS
 62
    7
 10
23.113245500000005
 20
180.8245695
 11
23.113245500000005
 21
194.4245755
  0
LINE
  8
_0-0_0
  6
CONTINUOUS
 62
    7
 10
23.113245500000005
 20
194.9245755
 11
23.113245500000005
 21
194.4245755
  0
ARC
  8
_0-0_0
  6
CONTINUOUS
 62
    7
 10
21.113245500000005
 20
180.8245695
 40
2
 50
273.84026500000004
 51
0.000010000000014
  0
LINE
  8
_0-0_0
  6
CONTINUOUS
 62
    7
 10
7.8132454999999936
 20
200.4080505
 11
7.8132454999999936
 21
201.1245725
  0
LINE
  8
_0-0_0
  6
CONTINUOUS
 62
    7
 10
7.8132454999999936
 20
200.4080505
 11
7.8132454999999936
 21
200.40194650000001
  0
LINE
  8
_0-0_0
  6
CONTINUOUS
 62
    7
 10
5.8132454999999936
 20
199.07989449999999
 11
5.8132454999999936
 21
199.57989449999999
  0
LINE
  8
_0-0_0
  6
CONTINUOUS
 62
    7
 10
6.113245500000005
 20
198.4245755
 11
6.113245500000005
 21
184.8245695
  0
LINE
  8
_0-0_0
  6
CONTINUOUS
 62
    7
 10
6.113245500000005
 20
184.3245695
 11
6.113245500000005
 21
184.8245695
  0
LINE
  8
_0-0_0
  6
CONTINUOUS
 62
    7
 10
6.113245500000005
 20
181.3245695
 11
6.113245500000005
 21
184.3245695
  0
LINE
  8
_0-0_0
  6
CONTINUOUS
 62
    7
 10
6.113245500000005
 20
180.8245695
 11
6.113245500000005
 21
181.3245695
  0
ARC
  8
_0-0_0
  6
CONTINUOUS
 62
    7
 10
8.113245500000005
 20
198.4245755
 40
2
 50
93.840255999999997
 51
180.00000900000001
  0
LINE
  8
_0-0_0
  6
CONTINUOUS
 62
    7
 10
5.8132454999999936
 20
186.6245725
 11
5.8132454999999936
 21
192.6245725
  0
LINE
  8
_0-0_0
  6
CONTINUOUS
 62
    7
 10
5.8132454999999936
 20
201.1245725
 11
5.8132454999999936
 21
199.5798795
  0
LINE
  8
_0-0_0
  6
CONTINUOUS
 62
    7
 10
5.8132454999999936
 20
192.6245725
 11
6.1132374999999968
 21
192.6245725
  0
LINE
  8
_0-0_0
  6
CONTINUOUS
 62
    7
 10
5.8132454999999936
 20
186.6245725
 11
6.1132374999999968
 21
186.6245725
  0
LINE
  8
_0-0_0
  6
CONTINUOUS
 62
    7
 10
21.113245500000005
 20
178.8245695
 11
12.113245500000005
 21
178.8245695
  0
LINE
  8
_0-0_0
  6
CONTINUOUS
 62
    7
 10
8.613245500000005
 20
178.8245695
 11
8.113245500000005
 21
178.8245695
  0
LINE
  8
_0-0_0
  6
CONTINUOUS
 62
    7
 10
11.613245500000005
 20
178.8245695
 11
8.613245500000005
 21
178.8245695
  0
LINE
  8
_0-0_0
  6
CONTINUOUS
 62
    7
 10
12.113245500000005
 20
178.8245695
 11
11.613245500000005
 21
178.8245695
  0
ARC
  8
_0-0_0
  6
CONTINUOUS
 62
    7
 10
8.113245500000005
 20
180.8245695
 40
2
 50
180.00000900000003
 51
269.99999700000001
  0
ARC
  8
_0-0_0
  6
CONTINUOUS
 62
    7
 10
21.913246500000014
 20
203.3245695
 40
0.5
 50
0
 51
90.000003000000007
  0
LINE
  8
_0-0_0
  6
CONTINUOUS
 62
    7
 10
20.413246500000014
 20
203.8245695
 11
21.913246500000014
 21
203.8245695
  0
ARC
  8
_0-0_0
  6
CONTINUOUS
 62
    7
 10
20.413246500000014
 20
204.8245695
 40
1
 50
180.00000900000003
 51
269.99999700000001
  0
LINE
  8
_0-0_0
  6
CONTINUOUS
 62
    7
 10
19.413246500000014
 20
204.8245695
 11
19.413246500000014
 21
204.92465150000001
  0
LINE
  8
_0-0_0
  6
CONTINUOUS
 62
    7
 10
18.913246500000014
 20
203.8245695
 11
18.913246500000014
 21
204.92465150000001
  0
ARC
  8
_0-0_0
  6
CONTINUOUS
 62
    7
 10
19.913246500000014
 20
203.8245695
 40
1
 50
180.00000900000003
 51
269.99999700000001
  0
LINE
  8
_0-0_0
  6
CONTINUOUS
 62
    7
 10
19.913246500000014
 20
202.8245695
 11
19.713245499999999
 21
202.8245695
  0
ARC
  8
_0-0_0
  6
CONTINUOUS
 62
    7
 10
19.713245499999999
 20
203.8245695
 40
1
 50
180.00000900000003
 51
269.99999700000001
  0
ARC
  8
_0-0_0
  6
CONTINUOUS
 62
    7
 10
9.5132455000000107
 20
203.8245695
 40
1
 50
269.99999700000001
 51
0
  0
LINE
  8
_0-0_0
  6
CONTINUOUS
 62
    7
 10
9.5132455000000107
 20
202.8245695
 11
8.8132454999999936
 21
202.8245695
  0
LINE
  8
_0-0_0
  6
CONTINUOUS
 62
    7
 10
22.613245500000005
 20
202.8245695
 11
22.413246500000014
 21
202.8245695
  0
LINE
  8
_0-0_0
  6
CONTINUOUS
 62
    7
 10
5.8132454999999936
 20
201.1245725
 11
22.613245500000005
 21
201.1245725
  0
LINE
  8
_0-0_0
  6
CONTINUOUS
 62
    7
 10
22.613245500000005
 20
201.1245725
 11
22.613245500000005
 21
202.8245695
  0
LINE
  8
_0-0_0
  6
CONTINUOUS
 62
    7
 10
18.713245499999999
 20
204.92465150000001
 11
18.713245499999999
 21
203.8245695
  0
LINE
  8
_0-0_0
  6
CONTINUOUS
 62
    7
 10
10.513244500000013
 20
203.8245695
 11
10.513244500000013
 21
204.92465150000001
  0
LINE
  8
_0-0_0
  6
CONTINUOUS
 62
    7
 10
6.8132454999999936
 20
202.8245695
 11
5.8132454999999936
 21
202.8245695
  0
LINE
  8
_0-0_0
  6
CONTINUOUS
 62
    7
 10
5.8132454999999936
 20
201.1245725
 11
5.8132454999999936
 21
202.8245695
  0
LINE
  8
_0-0_0
  6
CONTINUOUS
 62
    7
 10
21.113245500000005
 20
200.4245755
 11
20.613245500000005
 21
200.4245755
  0
CIRCLE
  8
_0-0_0
  6
CONTINUOUS
 62
    7
 10
20.613245500000005
 20
197.9245755
 40
2.5
  0
LINE
  8
_0-0_0
  6
CONTINUOUS
 62
    7
 10
8.113245500000005
 20
200.4245755
 11
17.113245500000005
 21
200.4245755
  0
LINE
  8
_0-0_0
  6
CONTINUOUS
 62
    7
 10
20.613245500000005
 20
200.4245755
 11
17.613245500000005
 21
200.4245755
  0
LINE
  8
_0-0_0
  6
CONTINUOUS
 62
    7
 10
17.113245500000005
 20
200.4245755
 11
17.613245500000005
 21
200.4245755
  0
ARC
  8
_0-0_0
  6
CONTINUOUS
 62
    7
 10
22.613245500000005
 20
194.4245755
 40
0.5
 50
0
 51
90.000003000000007
  0
LINE
  8
_0-0_0
  6
CONTINUOUS
 62
    7
 10
21.113245500000005
 20
178.9272005
 11
21.129125500000015
 21
178.89994849999999
  0
LINE
  8
_0-0_0
  6
CONTINUOUS
 62
    7
 10
21.129125500000015
 20
178.89994849999999
 11
21.144970499999999
 21
178.8769685
  0
LINE
  8
_0-0_0
  6
CONTINUOUS
 62
    7
 10
21.144970499999999
 20
178.8769685
 11
21.158950500000003
 21
178.86021449999998
  0
LINE
  8
_0-0_0
  6
CONTINUOUS
 62
    7
 10
21.158950500000003
 20
178.86021449999998
 11
21.172849500000012
 21
178.84688549999998
  0
LINE
  8
_0-0_0
  6
CONTINUOUS
 62
    7
 10
21.172849500000012
 20
178.84688549999998
 11
21.185066500000005
 21
178.83795950000001
  0
LINE
  8
_0-0_0
  6
CONTINUOUS
 62
    7
 10
21.185066500000005
 20
178.83795950000001
 11
21.197185500000018
 21
178.8317485
  0
LINE
  8
_0-0_0
  6
CONTINUOUS
 62
    7
 10
21.197185500000018
 20
178.8317485
 11
21.20805150000001
 21
178.82846849999999
  0
LINE
  8
_0-0_0
  6
CONTINUOUS
 62
    7
 10
21.20805150000001
 20
178.82846849999999
 11
21.218811500000015
 21
178.8274155
  0
LINE
  8
_0-0_0
  6
CONTINUOUS
 62
    7
 10
21.218811500000015
 20
178.8274155
 11
21.2212715
 21
178.8274845
  0
LINE
  8
_0-0_0
  6
CONTINUOUS
 62
    7
 10
6.8132454999999936
 20
199.94444250000001
 11
6.8132454999999936
 21
201.1236265
  0
ARC
  8
_0-0_0
  6
CONTINUOUS
 62
    7
 10
6.613245500000005
 20
184.8245695
 40
0.5
 50
180.00000900000003
 51
269.99999700000001
  0
CIRCLE
  8
_0-0_0
  6
CONTINUOUS
 62
    7
 10
8.613245500000005
 20
181.3245695
 40
2.5
  0
LINE
  8
_0-0_0
  6
CONTINUOUS
 62
    7
 10
8.1132465000000025
 20
200.3219455
 11
8.0973644999999976
 21
200.3491975
  0
LINE
  8
_0-0_0
  6
CONTINUOUS
 62
    7
 10
8.0973644999999976
 20
200.3491975
 11
8.0815195000000131
 21
200.37217749999999
  0
LINE
  8
_0-0_0
  6
CONTINUOUS
 62
    7
 10
8.0815195000000131
 20
200.37217749999999
 11
8.0675405000000069
 21
200.38893150000001
  0
LINE
  8
_0-0_0
  6
CONTINUOUS
 62
    7
 10
8.0675405000000069
 20
200.38893150000001
 11
8.0536395000000027
 21
200.4022525
  0
LINE
  8
_0-0_0
  6
CONTINUOUS
 62
    7
 10
8.0536395000000027
 20
200.4022525
 11
8.0414235000000076
 21
200.41117850000001
  0
LINE
  8
_0-0_0
  6
CONTINUOUS
 62
    7
 10
8.0414235000000076
 20
200.41117850000001
 11
8.029304499999995
 21
200.41738850000002
  0
LINE
  8
_0-0_0
  6
CONTINUOUS
 62
    7
 10
8.029304499999995
 20
200.41738850000002
 11
8.018438500000002
 21
200.4206695
  0
LINE
  8
_0-0_0
  6
CONTINUOUS
 62
    7
 10
8.018438500000002
 20
200.4206695
 11
8.0076794999999947
 21
200.42172250000002
  0
LINE
  8
_0-0_0
  6
CONTINUOUS
 62
    7
 10
8.0076794999999947
 20
200.42172250000002
 11
8.0052185000000122
 21
200.4216615
  0
LINE
  8
_0-0_0
  6
CONTINUOUS
 62
    7
 10
5.8132454999999936
 20
182.2245715
 11
5.7132454999999993
 21
182.2245715
  0
LINE
  8
_0-0_0
  6
CONTINUOUS
 62
    7
 10
5.7132454999999993
 20
182.2245715
 11
5.7132454999999993
 21
185.2245715
  0
LINE
  8
_0-0_0
  6
CONTINUOUS
 62
    7
 10
5.7132454999999993
 20
185.2245715
 11
5.7132454999999993
 21
198.8245695
  0
LINE
  8
_0-0_0
  6
CONTINUOUS
 62
    7
 10
5.8132454999999936
 20
201.8245695
 11
5.7132454999999993
 21
201.8245695
  0
LINE
  8
_0-0_0
  6
CONTINUOUS
 62
    7
 10
5.7132454999999993
 20
198.8245695
 11
5.7132454999999993
 21
201.8245695
  0
ARC
  8
_0-0_0
  6
CONTINUOUS
 62
    7
 10
12.113245500000005
 20
179.3245695
 40
0.5
 50
180.00000900000003
 51
269.99999700000001
  0
ARC
  8
_0-0_0
  6
CONTINUOUS
 62
    7
 10
8.8132454999999936
 20
204.3246455
 40
1.5
 50
269.99999700000001
 51
0
  0
ARC
  8
_0-0_0
  6
CONTINUOUS
 62
    7
 10
7.3132454999999936
 20
203.3246455
 40
0.5
 50
90.000003000000007
 51
180.00000900000001
  0
LINE
  8
_0-0_0
  6
CONTINUOUS
 62
    7
 10
7.3132454999999936
 20
203.8246455
 11
8.8132454999999936
 21
203.8246455
  0
ARC
  8
_0-0_0
  6
CONTINUOUS
 62
    7
 10
8.8132454999999936
 20
204.8246455
 40
1
 50
269.99999700000001
 51
0
  0
LINE
  8
_0-0_0
  6
CONTINUOUS
 62
    7
 10
9.8132454999999936
 20
204.92465150000001
 11
9.8132454999999936
 21
204.8246455
  0
LINE
  8
_0-0_0
  6
CONTINUOUS
 62
    7
 10
10.313245499999994
 20
204.92465150000001
 11
10.313245499999994
 21
204.3246455
  0
LINE
  8
_0-0_0
  6
CONTINUOUS
 62
    7
 10
6.8132454999999936
 20
202.8246455
 11
6.8132454999999936
 21
203.3246455
  0
ARC
  8
_0-0_0
  6
CONTINUOUS
 62
    7
 10
17.113245500000005
 20
199.9245755
 40
0.5
 50
0
 51
90.000003000000007
  0
LINE
  8
_0-0_0
  6
CONTINUOUS
 62
    7
 10
17.613245500000005
 20
199.84759550000001
 11
17.613245500000005
 21
199.9245755
  0
LINE
  8
_0-0_0
  6
CONTINUOUS
 62
    7
 10
17.613245500000005
 20
198.40606650000001
 11
17.613245500000005
 21
199.84759550000001
  0
LINE
  8
_0-0_0
  6
CONTINUOUS
 62
    7
 10
17.613245500000005
 20
197.9245755
 11
17.613245500000005
 21
198.40606650000001
  0
ARC
  8
_0-0_0
  6
CONTINUOUS
 62
    7
 10
20.613245500000005
 20
197.9245755
 40
3
 50
180.00000900000003
 51
269.99999700000001
  0
LINE
  8
_0-0_0
  6
CONTINUOUS
 62
    7
 10
21.094747500000011
 20
194.9245755
 11
20.613245500000005
 21
194.9245755
  0
LINE
  8
_0-0_0
  6
CONTINUOUS
 62
    7
 10
21.094747500000011
 20
194.9245755
 11
22.536270500000001
 21
194.9245755
  0
LINE
  8
_0-0_0
  6
CONTINUOUS
 62
    7
 10
22.613245500000005
 20
194.9245755
 11
22.536270500000001
 21
194.9245755
  0
LINE
  8
_0-0_0
  6
CONTINUOUS
 62
    7
 10
6.6902205000000095
 20
184.3245695
 11
6.613245500000005
 21
184.3245695
  0
LINE
  8
_0-0_0
  6
CONTINUOUS
 62
    7
 10
8.613245500000005
 20
184.3245695
 11
8.1317444999999964
 21
184.3245695
  0
LINE
  8
_0-0_0
  6
CONTINUOUS
 62
    7
 10
8.1317444999999964
 20
184.3245695
 11
6.6902205000000095
 21
184.3245695
  0
LINE
  8
_0-0_0
  6
CONTINUOUS
 62
    7
 10
11.613245500000005
 20
179.3245695
 11
11.613245500000005
 21
179.40155049999998
  0
LINE
  8
_0-0_0
  6
CONTINUOUS
 62
    7
 10
11.613245500000005
 20
180.84307050000001
 11
11.613245500000005
 21
179.40155049999998
  0
LINE
  8
_0-0_0
  6
CONTINUOUS
 62
    7
 10
11.613245500000005
 20
180.84307050000001
 11
11.613245500000005
 21
181.3245695
  0
ARC
  8
_0-0_0
  6
CONTINUOUS
 62
    7
 10
8.613245500000005
 20
181.3245695
 40
3
 50
0
 51
89.999995999999996
  0
LINE
  8
_0-0_0
  6
CONTINUOUS
 62
    7
 10
23.113245500000005
 20
201.93583649999999
 11
23.113245500000005
 21
200.0495755
  0
LINE
  8
_0-0_0
  6
CONTINUOUS
 62
    7
 10
23.113245500000005
 20
202.59957850000001
 11
23.113245500000005
 21
201.93583649999999
  0
ARC
  8
_0-0_0
  6
CONTINUOUS
 62
    7
 10
17.843362500000012
 20
190.79780550000001
 40
3.063396
 50
19.82113
 51
25.289563000000001
  0
ARC
  8
_0-0_0
  6
CONTINUOUS
 62
    7
 10
17.843683499999997
 20
188.45120249999999
 40
3.0630519999999999
 50
334.71006
 51
340.17869200000001
  0
ARC
  8
_0-0_0
  6
CONTINUOUS
 62
    7
 10
11.383131500000019
 20
188.4513245
 40
3.063399
 50
199.82113599999997
 51
205.28948099999999
  0
ARC
  8
_0-0_0
  6
CONTINUOUS
 62
    7
 10
11.382810500000005
 20
190.7979425
 40
3.0630549999999999
 50
154.710137
 51
160.17869999999999
  0
ARC
  8
_0-0_0
  6
CONTINUOUS
 62
    7
 10
14.613245500000005
 20
189.6245725
 40
6.5
 50
340.10416099999998
 51
19.895609999999952
  0
ARC
  8
_0-0_0
  6
CONTINUOUS
 62
    7
 10
14.613245500000005
 20
189.6245725
 40
6.5
 50
160.10415599999999
 51
199.895612
  0
LINE
  8
_0-0_0
  6
CONTINUOUS
 62
    7
 10
6.113245500000005
 20
200.7133785
 11
6.113245500000005
 21
201.12368749999999
  0
LINE
  8
_0-0_0
  6
CONTINUOUS
 62
    7
 10
6.113245500000005
 20
200.0544735
 11
6.113245500000005
 21
200.7133785
  0
LINE
  8
_0-0_0
  6
CONTINUOUS
 62
    7
 10
13.871576500000003
 20
196.1245725
 11
9.3549155000000042
 21
193.5168765
  0
LINE
  8
_0-0_0
  6
CONTINUOUS
 62
    7
 10
15.354915500000004
 20
196.1245725
 11
13.871576500000003
 21
196.1245725
  0
LINE
  8
_0-0_0
  6
CONTINUOUS
 62
    7
 10
19.871576500000003
 20
193.5168765
 11
15.354915500000004
 21
196.1245725
  0
LINE
  8
_0-0_0
  6
CONTINUOUS
 62
    7
 10
20.613245500000005
 20
192.2322695
 11
20.613245500000005
 21
187.01687650000002
  0
LINE
  8
_0-0_0
  6
CONTINUOUS
 62
    7
 10
19.871576500000003
 20
193.5168765
 11
20.613245500000005
 21
192.2322695
  0
LINE
  8
_0-0_0
  6
CONTINUOUS
 62
    7
 10
15.354915500000004
 20
183.1245725
 11
19.871576500000003
 21
185.7322695
  0
LINE
  8
_0-0_0
  6
CONTINUOUS
 62
    7
 10
20.165700500000014
 20
186.24170650000002
 11
20.613245500000005
 21
187.01687650000002
  0
LINE
  8
_0-0_0
  6
CONTINUOUS
 62
    7
 10
20.165700500000014
 20
186.24170650000002
 11
19.871576500000003
 21
185.7322695
  0
LINE
  8
_0-0_0
  6
CONTINUOUS
 62
    7
 10
13.871576500000003
 20
183.1245725
 11
15.354915500000004
 21
183.1245725
  0
LINE
  8
_0-0_0
  6
CONTINUOUS
 62
    7
 10
9.3549155000000042
 20
185.7322695
 11
13.871576500000003
 21
183.1245725
  0
LINE
  8
_0-0_0
  6
CONTINUOUS
 62
    7
 10
8.613245500000005
 20
192.2322695
 11
8.613245500000005
 21
187.01687650000002
  0
LINE
  8
_0-0_0
  6
CONTINUOUS
 62
    7
 10
9.3549155000000042
 20
185.7322695
 11
8.613245500000005
 21
187.01687650000002
  0
LINE
  8
_0-0_0
  6
CONTINUOUS
 62
    7
 10
9.060790499999996
 20
193.0074305
 11
8.613245500000005
 21
192.2322695
  0
LINE
  8
_0-0_0
  6
CONTINUOUS
 62
    7
 10
9.060790499999996
 20
193.0074305
 11
9.3549155000000042
 21
193.5168765
  0
LINE
  8
_0-0_0
  6
CONTINUOUS
 62
    7
 10
22.500253500000014
 20
199.15000950000001
 11
22.778308500000009
 21
199.1745755
  0
LINE
  8
_0-0_0
  6
CONTINUOUS
 62
    7
 10
22.618009499999999
 20
198.9460445
 11
22.778308500000009
 21
199.1745755
  0
LINE
  8
_0-0_0
  6
CONTINUOUS
 62
    7
 10
22.361824500000012
 20
199.34054549999999
 11
22.635788500000018
 21
199.39402749999999
  0
LINE
  8
_0-0_0
  6
CONTINUOUS
 62
    7
 10
22.500253500000014
 20
199.15000950000001
 11
22.635788500000018
 21
199.39402749999999
  0
LINE
  8
_0-0_0
  6
CONTINUOUS
 62
    7
 10
22.20423550000001
 20
199.51556350000001
 11
22.471107500000016
 21
199.5973965
  0
LINE
  8
_0-0_0
  6
CONTINUOUS
 62
    7
 10
22.361824500000012
 20
199.34054549999999
 11
22.471107500000016
 21
199.5973965
  0
LINE
  8
_0-0_0
  6
CONTINUOUS
 62
    7
 10
22.029216500000018
 20
199.6731565
 11
22.286071499999991
 21
199.78244050000001
  0
LINE
  8
_0-0_0
  6
CONTINUOUS
 62
    7
 10
22.20423550000001
 20
199.51556350000001
 11
22.286071499999991
 21
199.78244050000001
  0
LINE
  8
_0-0_0
  6
CONTINUOUS
 62
    7
 10
21.838684499999999
 20
199.81158450000001
 11
22.082708499999995
 21
199.9471125
  0
LINE
  8
_0-0_0
  6
CONTINUOUS
 62
    7
 10
22.029216500000018
 20
199.6731565
 11
22.082708499999995
 21
199.9471125
  0
LINE
  8
_0-0_0
  6
CONTINUOUS
 62
    7
 10
21.634723500000007
 20
199.92933650000001
 11
21.863245500000005
 21
200.0896305
  0
LINE
  8
_0-0_0
  6
CONTINUOUS
 62
    7
 10
21.838684499999999
 20
199.81158450000001
 11
21.863245500000005
 21
200.0896305
  0
LINE
  8
_0-0_0
  6
CONTINUOUS
 62
    7
 10
21.419572500000015
 20
200.02513150000001
 11
21.630086500000004
 21
200.20843450000001
  0
LINE
  8
_0-0_0
  6
CONTINUOUS
 62
    7
 10
21.634723500000007
 20
199.92933650000001
 11
21.630086500000004
 21
200.20843450000001
  0
LINE
  8
_0-0_0
  6
CONTINUOUS
 62
    7
 10
21.195589500000011
 20
200.09790050000001
 11
21.385788500000018
 21
200.30221549999999
  0
LINE
  8
_0-0_0
  6
CONTINUOUS
 62
    7
 10
21.419572500000015
 20
200.02513150000001
 11
21.385788500000018
 21
200.30221549999999
  0
LINE
  8
_0-0_0
  6
CONTINUOUS
 62
    7
 10
20.965223500000008
 20
200.14686549999999
 11
21.133024500000005
 21
200.3699335
  0
LINE
  8
_0-0_0
  6
CONTINUOUS
 62
    7
 10
21.195589500000011
 20
200.09790050000001
 11
21.133024500000005
 21
200.3699335
  0
LINE
  8
_0-0_0
  6
CONTINUOUS
 62
    7
 10
20.731000499999993
 20
200.1714935
 11
20.874567500000012
 21
200.41087350000001
  0
LINE
  8
_0-0_0
  6
CONTINUOUS
 62
    7
 10
20.965223500000008
 20
200.14686549999999
 11
20.874567500000012
 21
200.41087350000001
  0
LINE
  8
_0-0_0
  6
CONTINUOUS
 62
    7
 10
20.495489500000019
 20
200.1714935
 11
20.613245500000005
 21
200.4245755
  0
LINE
  8
_0-0_0
  6
CONTINUOUS
 62
    7
 10
20.731000499999993
 20
200.1714935
 11
20.613245500000005
 21
200.4245755
  0
LINE
  8
_0-0_0
  6
CONTINUOUS
 62
    7
 10
20.2612685
 20
200.14686549999999
 11
20.351924499999996
 21
200.41087350000001
  0
LINE
  8
_0-0_0
  6
CONTINUOUS
 62
    7
 10
20.495489500000019
 20
200.1714935
 11
20.351924499999996
 21
200.41087350000001
  0
LINE
  8
_0-0_0
  6
CONTINUOUS
 62
    7
 10
20.030902499999996
 20
200.09790050000001
 11
20.093465500000008
 21
200.3699335
  0
LINE
  8
_0-0_0
  6
CONTINUOUS
 62
    7
 10
20.2612685
 20
200.14686549999999
 11
20.093465500000008
 21
200.3699335
  0
LINE
  8
_0-0_0
  6
CONTINUOUS
 62
    7
 10
19.806917499999997
 20
200.02513150000001
 11
19.840704500000015
 21
200.30221549999999
  0
LINE
  8
_0-0_0
  6
CONTINUOUS
 62
    7
 10
20.030902499999996
 20
200.09790050000001
 11
19.840704500000015
 21
200.30221549999999
  0
LINE
  8
_0-0_0
  6
CONTINUOUS
 62
    7
 10
19.591766500000006
 20
199.92933650000001
 11
19.596403500000008
 21
200.20843450000001
  0
LINE
  8
_0-0_0
  6
CONTINUOUS
 62
    7
 10
19.806917499999997
 20
200.02513150000001
 11
19.596403500000008
 21
200.20843450000001
  0
LINE
  8
_0-0_0
  6
CONTINUOUS
 62
    7
 10
19.472229499999997
 20
200.0131835
 11
19.363245500000005
 21
200.0896305
  0
LINE
  8
_0-0_0
  6
CONTINUOUS
 62
    7
 10
19.591766500000006
 20
199.92933650000001
 11
19.472229499999997
 21
200.0131835
  0
LINE
  8
_0-0_0
  6
CONTINUOUS
 62
    7
 10
19.387807500000008
 20
199.81158450000001
 11
19.363245500000005
 21
200.0896305
  0
LINE
  8
_0-0_0
  6
CONTINUOUS
 62
    7
 10
19.197275500000018
 20
199.6731565
 11
19.143781500000017
 21
199.9471125
  0
LINE
  8
_0-0_0
  6
CONTINUOUS
 62
    7
 10
19.387807500000008
 20
199.81158450000001
 11
19.143781500000017
 21
199.9471125
  0
LINE
  8
_0-0_0
  6
CONTINUOUS
 62
    7
 10
19.0222555
 20
199.51556350000001
 11
18.940418500000021
 21
199.78244050000001
  0
LINE
  8
_0-0_0
  6
CONTINUOUS
 62
    7
 10
19.197275500000018
 20
199.6731565
 11
18.940418500000021
 21
199.78244050000001
  0
LINE
  8
_0-0_0
  6
CONTINUOUS
 62
    7
 10
18.864667499999996
 20
199.34054549999999
 11
18.755384499999991
 21
199.5973965
  0
LINE
  8
_0-0_0
  6
CONTINUOUS
 62
    7
 10
19.0222555
 20
199.51556350000001
 11
18.755384499999991
 21
199.5973965
  0
LINE
  8
_0-0_0
  6
CONTINUOUS
 62
    7
 10
18.726236499999999
 20
199.15000950000001
 11
18.590704500000015
 21
199.39402749999999
  0
LINE
  8
_0-0_0
  6
CONTINUOUS
 62
    7
 10
18.864667499999996
 20
199.34054549999999
 11
18.590704500000015
 21
199.39402749999999
  0
LINE
  8
_0-0_0
  6
CONTINUOUS
 62
    7
 10
18.608480500000013
 20
198.9460445
 11
18.448183499999999
 21
199.1745755
  0
LINE
  8
_0-0_0
  6
CONTINUOUS
 62
    7
 10
18.726236499999999
 20
199.15000950000001
 11
18.448183499999999
 21
199.1745755
  0
LINE
  8
_0-0_0
  6
CONTINUOUS
 62
    7
 10
18.512689500000022
 20
198.7308955
 11
18.329382500000008
 21
198.9414065
  0
LINE
  8
_0-0_0
  6
CONTINUOUS
 62
    7
 10
18.608480500000013
 20
198.9460445
 11
18.329382500000008
 21
198.9414065
  0
LINE
  8
_0-0_0
  6
CONTINUOUS
 62
    7
 10
18.439912499999991
 20
198.5069125
 11
18.23560550000002
 21
198.6971125
  0
LINE
  8
_0-0_0
  6
CONTINUOUS
 62
    7
 10
18.512689500000022
 20
198.7308955
 11
18.23560550000002
 21
198.6971125
  0
LINE
  8
_0-0_0
  6
CONTINUOUS
 62
    7
 10
18.39094750000001
 20
198.27655050000001
 11
18.167877500000003
 21
198.44435150000001
  0
LINE
  8
_0-0_0
  6
CONTINUOUS
 62
    7
 10
18.439912499999991
 20
198.5069125
 11
18.167877500000003
 21
198.44435150000001
  0
LINE
  8
_0-0_0
  6
CONTINUOUS
 62
    7
 10
18.39094750000001
 20
198.27655050000001
 11
18.126941500000015
 21
198.18589750000001
  0
LINE
  8
_0-0_0
  6
CONTINUOUS
 62
    7
 10
18.366329500000006
 20
198.0423275
 11
18.126941500000015
 21
198.18589750000001
  0
LINE
  8
_0-0_0
  6
CONTINUOUS
 62
    7
 10
18.366329500000006
 20
197.80680849999999
 11
18.113245500000005
 21
197.9245755
  0
LINE
  8
_0-0_0
  6
CONTINUOUS
 62
    7
 10
18.366329500000006
 20
198.0423275
 11
18.113245500000005
 21
197.9245755
  0
LINE
  8
_0-0_0
  6
CONTINUOUS
 62
    7
 10
18.39094750000001
 20
197.57260149999999
 11
18.126941500000015
 21
197.6632535
  0
LINE
  8
_0-0_0
  6
CONTINUOUS
 62
    7
 10
18.366329500000006
 20
197.80680849999999
 11
18.126941500000015
 21
197.6632535
  0
LINE
  8
_0-0_0
  6
CONTINUOUS
 62
    7
 10
18.439912499999991
 20
197.34222450000001
 11
18.167877500000003
 21
197.4047855
  0
LINE
  8
_0-0_0
  6
CONTINUOUS
 62
    7
 10
18.39094750000001
 20
197.57260149999999
 11
18.167877500000003
 21
197.4047855
  0
LINE
  8
_0-0_0
  6
CONTINUOUS
 62
    7
 10
18.512689500000022
 20
197.11824050000001
 11
18.23560550000002
 21
197.15202350000001
  0
LINE
  8
_0-0_0
  6
CONTINUOUS
 62
    7
 10
18.439912499999991
 20
197.34222450000001
 11
18.23560550000002
 21
197.15202350000001
  0
LINE
  8
_0-0_0
  6
CONTINUOUS
 62
    7
 10
18.608480500000013
 20
196.90309150000002
 11
18.329382500000008
 21
196.90772950000002
  0
LINE
  8
_0-0_0
  6
CONTINUOUS
 62
    7
 10
18.512689500000022
 20
197.11824050000001
 11
18.329382500000008
 21
196.90772950000002
  0
LINE
  8
_0-0_0
  6
CONTINUOUS
 62
    7
 10
18.726236499999999
 20
196.6991275
 11
18.448183499999999
 21
196.6745755
  0
LINE
  8
_0-0_0
  6
CONTINUOUS
 62
    7
 10
18.608480500000013
 20
196.90309150000002
 11
18.448183499999999
 21
196.6745755
  0
LINE
  8
_0-0_0
  6
CONTINUOUS
 62
    7
 10
18.864667499999996
 20
196.50860550000002
 11
18.590704500000015
 21
196.45510849999999
  0
LINE
  8
_0-0_0
  6
CONTINUOUS
 62
    7
 10
18.726236499999999
 20
196.6991275
 11
18.590704500000015
 21
196.45510849999999
  0
LINE
  8
_0-0_0
  6
CONTINUOUS
 62
    7
 10
19.0222555
 20
196.33358749999999
 11
18.755384499999991
 21
196.25173950000001
  0
LINE
  8
_0-0_0
  6
CONTINUOUS
 62
    7
 10
18.864667499999996
 20
196.50860550000002
 11
18.755384499999991
 21
196.25173950000001
  0
LINE
  8
_0-0_0
  6
CONTINUOUS
 62
    7
 10
19.197275500000018
 20
196.1759945
 11
18.940418500000021
 21
196.0667115
  0
LINE
  8
_0-0_0
  6
CONTINUOUS
 62
    7
 10
19.0222555
 20
196.33358749999999
 11
18.940418500000021
 21
196.0667115
  0
LINE
  8
_0-0_0
  6
CONTINUOUS
 62
    7
 10
19.387807500000008
 20
196.03756749999999
 11
19.143781500000017
 21
195.90202350000001
  0
LINE
  8
_0-0_0
  6
CONTINUOUS
 62
    7
 10
19.197275500000018
 20
196.1759945
 11
19.143781500000017
 21
195.90202350000001
  0
LINE
  8
_0-0_0
  6
CONTINUOUS
 62
    7
 10
19.591766500000006
 20
195.91979950000001
 11
19.363245500000005
 21
195.75950650000001
  0
LINE
  8
_0-0_0
  6
CONTINUOUS
 62
    7
 10
19.387807500000008
 20
196.03756749999999
 11
19.363245500000005
 21
195.75950650000001
  0
LINE
  8
_0-0_0
  6
CONTINUOUS
 62
    7
 10
19.806917499999997
 20
195.82402049999999
 11
19.596403500000008
 21
195.64070150000001
  0
LINE
  8
_0-0_0
  6
CONTINUOUS
 62
    7
 10
19.591766500000006
 20
195.91979950000001
 11
19.596403500000008
 21
195.64070150000001
  0
LINE
  8
_0-0_0
  6
CONTINUOUS
 62
    7
 10
20.030902499999996
 20
195.75123550000001
 11
19.840704500000015
 21
195.54693549999999
  0
LINE
  8
_0-0_0
  6
CONTINUOUS
 62
    7
 10
19.806917499999997
 20
195.82402049999999
 11
19.840704500000015
 21
195.54693549999999
  0
LINE
  8
_0-0_0
  6
CONTINUOUS
 62
    7
 10
20.2612685
 20
195.7022705
 11
20.093465500000008
 21
195.47920250000001
  0
LINE
  8
_0-0_0
  6
CONTINUOUS
 62
    7
 10
20.030902499999996
 20
195.75123550000001
 11
20.093465500000008
 21
195.47920250000001
  0
LINE
  8
_0-0_0
  6
CONTINUOUS
 62
    7
 10
20.495489500000019
 20
195.67765750000001
 11
20.351924499999996
 21
195.43826250000001
  0
LINE
  8
_0-0_0
  6
CONTINUOUS
 62
    7
 10
20.2612685
 20
195.7022705
 11
20.351924499999996
 21
195.43826250000001
  0
LINE
  8
_0-0_0
  6
CONTINUOUS
 62
    7
 10
20.731000499999993
 20
195.67765750000001
 11
20.613245500000005
 21
195.4245755
  0
LINE
  8
_0-0_0
  6
CONTINUOUS
 62
    7
 10
20.495489500000019
 20
195.67765750000001
 11
20.613245500000005
 21
195.4245755
  0
LINE
  8
_0-0_0
  6
CONTINUOUS
 62
    7
 10
20.965223500000008
 20
195.7022705
 11
20.874567500000012
 21
195.43826250000001
  0
LINE
  8
_0-0_0
  6
CONTINUOUS
 62
    7
 10
20.731000499999993
 20
195.67765750000001
 11
20.874567500000012
 21
195.43826250000001
  0
LINE
  8
_0-0_0
  6
CONTINUOUS
 62
    7
 10
21.195589500000011
 20
195.75123550000001
 11
21.133024500000005
 21
195.47920250000001
  0
LINE
  8
_0-0_0
  6
CONTINUOUS
 62
    7
 10
20.965223500000008
 20
195.7022705
 11
21.133024500000005
 21
195.47920250000001
  0
LINE
  8
_0-0_0
  6
CONTINUOUS
 62
    7
 10
21.419572500000015
 20
195.82402049999999
 11
21.385788500000018
 21
195.54693549999999
  0
LINE
  8
_0-0_0
  6
CONTINUOUS
 62
    7
 10
21.195589500000011
 20
195.75123550000001
 11
21.385788500000018
 21
195.54693549999999
  0
LINE
  8
_0-0_0
  6
CONTINUOUS
 62
    7
 10
21.634723500000007
 20
195.91979950000001
 11
21.630086500000004
 21
195.64070150000001
  0
LINE
  8
_0-0_0
  6
CONTINUOUS
 62
    7
 10
21.419572500000015
 20
195.82402049999999
 11
21.630086500000004
 21
195.64070150000001
  0
LINE
  8
_0-0_0
  6
CONTINUOUS
 62
    7
 10
21.754261500000013
 20
195.83595249999999
 11
21.863245500000005
 21
195.75950650000001
  0
LINE
  8
_0-0_0
  6
CONTINUOUS
 62
    7
 10
21.634723500000007
 20
195.91979950000001
 11
21.754261500000013
 21
195.83595249999999
  0
LINE
  8
_0-0_0
  6
CONTINUOUS
 62
    7
 10
21.838684499999999
 20
196.03756749999999
 11
21.863245500000005
 21
195.75950650000001
  0
LINE
  8
_0-0_0
  6
CONTINUOUS
 62
    7
 10
22.029216500000018
 20
196.1759945
 11
22.082708499999995
 21
195.90202350000001
  0
LINE
  8
_0-0_0
  6
CONTINUOUS
 62
    7
 10
21.838684499999999
 20
196.03756749999999
 11
22.082708499999995
 21
195.90202350000001
  0
LINE
  8
_0-0_0
  6
CONTINUOUS
 62
    7
 10
22.20423550000001
 20
196.33358749999999
 11
22.286071499999991
 21
196.0667115
  0
LINE
  8
_0-0_0
  6
CONTINUOUS
 62
    7
 10
22.029216500000018
 20
196.1759945
 11
22.286071499999991
 21
196.0667115
  0
LINE
  8
_0-0_0
  6
CONTINUOUS
 62
    7
 10
22.361824500000012
 20
196.50860550000002
 11
22.471107500000016
 21
196.25173950000001
  0
LINE
  8
_0-0_0
  6
CONTINUOUS
 62
    7
 10
22.20423550000001
 20
196.33358749999999
 11
22.471107500000016
 21
196.25173950000001
  0
LINE
  8
_0-0_0
  6
CONTINUOUS
 62
    7
 10
22.500253500000014
 20
196.6991275
 11
22.635788500000018
 21
196.45510849999999
  0
LINE
  8
_0-0_0
  6
CONTINUOUS
 62
    7
 10
22.361824500000012
 20
196.50860550000002
 11
22.635788500000018
 21
196.45510849999999
  0
LINE
  8
_0-0_0
  6
CONTINUOUS
 62
    7
 10
22.618009499999999
 20
196.90309150000002
 11
22.778308500000009
 21
196.6745755
  0
LINE
  8
_0-0_0
  6
CONTINUOUS
 62
    7
 10
22.500253500000014
 20
196.6991275
 11
22.778308500000009
 21
196.6745755
  0
LINE
  8
_0-0_0
  6
CONTINUOUS
 62
    7
 10
22.713802500000014
 20
197.11824050000001
 11
22.897108500000002
 21
196.90772950000002
  0
LINE
  8
_0-0_0
  6
CONTINUOUS
 62
    7
 10
22.618009499999999
 20
196.90309150000002
 11
22.897108500000002
 21
196.90772950000002
  0
LINE
  8
_0-0_0
  6
CONTINUOUS
 62
    7
 10
22.786579500000016
 20
197.34222450000001
 11
22.990886500000016
 21
197.15202350000001
  0
LINE
  8
_0-0_0
  6
CONTINUOUS
 62
    7
 10
22.713802500000014
 20
197.11824050000001
 11
22.990886500000016
 21
197.15202350000001
  0
LINE
  8
_0-0_0
  6
CONTINUOUS
 62
    7
 10
22.835544499999997
 20
197.57260149999999
 11
23.058614500000004
 21
197.4047855
  0
LINE
  8
_0-0_0
  6
CONTINUOUS
 62
    7
 10
22.786579500000016
 20
197.34222450000001
 11
23.058614500000004
 21
197.4047855
  0
LINE
  8
_0-0_0
  6
CONTINUOUS
 62
    7
 10
22.860160500000006
 20
197.80680849999999
 11
23.099550500000021
 21
197.6632535
  0
LINE
  8
_0-0_0
  6
CONTINUOUS
 62
    7
 10
22.835544499999997
 20
197.57260149999999
 11
23.099550500000021
 21
197.6632535
  0
LINE
  8
_0-0_0
  6
CONTINUOUS
 62
    7
 10
22.860160500000006
 20
198.0423275
 11
23.113245500000005
 21
197.9245755
  0
LINE
  8
_0-0_0
  6
CONTINUOUS
 62
    7
 10
22.860160500000006
 20
197.80680849999999
 11
23.113245500000005
 21
197.9245755
  0
LINE
  8
_0-0_0
  6
CONTINUOUS
 62
    7
 10
22.835544499999997
 20
198.27655050000001
 11
23.099550500000021
 21
198.18589750000001
  0
LINE
  8
_0-0_0
  6
CONTINUOUS
 62
    7
 10
22.860160500000006
 20
198.0423275
 11
23.099550500000021
 21
198.18589750000001
  0
LINE
  8
_0-0_0
  6
CONTINUOUS
 62
    7
 10
22.786579500000016
 20
198.5069125
 11
23.058614500000004
 21
198.44435150000001
  0
LINE
  8
_0-0_0
  6
CONTINUOUS
 62
    7
 10
22.835544499999997
 20
198.27655050000001
 11
23.058614500000004
 21
198.44435150000001
  0
LINE
  8
_0-0_0
  6
CONTINUOUS
 62
    7
 10
22.713802500000014
 20
198.7308955
 11
22.990886500000016
 21
198.6971125
  0
LINE
  8
_0-0_0
  6
CONTINUOUS
 62
    7
 10
22.786579500000016
 20
198.5069125
 11
22.990886500000016
 21
198.6971125
  0
LINE
  8
_0-0_0
  6
CONTINUOUS
 62
    7
 10
22.618009499999999
 20
198.9460445
 11
22.897108500000002
 21
198.9414065
  0
LINE
  8
_0-0_0
  6
CONTINUOUS
 62
    7
 10
22.713802500000014
 20
198.7308955
 11
22.897108500000002
 21
198.9414065
  0
CIRCLE
  8
_0-0_0
  6
CONTINUOUS
 62
    7
 10
14.613245500000005
 20
189.6245725
 40
5.25
  0
LINE
  8
_0-0_0
  6
CONTINUOUS
 62
    7
 10
10.500253500000014
 20
182.55001049999998
 11
10.778308500000009
 21
182.5745695
  0
LINE
  8
_0-0_0
  6
CONTINUOUS
 62
    7
 10
10.618009499999999
 20
182.34605349999998
 11
10.778308500000009
 21
182.5745695
  0
LINE
  8
_0-0_0
  6
CONTINUOUS
 62
    7
 10
10.361824500000012
 20
182.74053950000001
 11
10.635788500000018
 21
182.7940365
  0
LINE
  8
_0-0_0
  6
CONTINUOUS
 62
    7
 10
10.500253500000014
 20
182.55001049999998
 11
10.635788500000018
 21
182.7940365
  0
LINE
  8
_0-0_0
  6
CONTINUOUS
 62
    7
 10
10.20423550000001
 20
182.91555750000001
 11
10.471107500000016
 21
182.9973985
  0
LINE
  8
_0-0_0
  6
CONTINUOUS
 62
    7
 10
10.361824500000012
 20
182.74053950000001
 11
10.471107500000016
 21
182.9973985
  0
LINE
  8
_0-0_0
  6
CONTINUOUS
 62
    7
 10
10.029216500000018
 20
183.0731505
 11
10.286071499999991
 21
183.1824335
  0
LINE
  8
_0-0_0
  6
CONTINUOUS
 62
    7
 10
10.20423550000001
 20
182.91555750000001
 11
10.286071499999991
 21
183.1824335
  0
LINE
  8
_0-0_0
  6
CONTINUOUS
 62
    7
 10
9.8386825000000044
 20
183.2115785
 11
10.0827065
 21
183.3471145
  0
LINE
  8
_0-0_0
  6
CONTINUOUS
 62
    7
 10
10.029216500000018
 20
183.0731505
 11
10.0827065
 21
183.3471145
  0
LINE
  8
_0-0_0
  6
CONTINUOUS
 62
    7
 10
9.6347245000000044
 20
183.32933750000001
 11
9.863245500000005
 21
183.48963950000001
  0
LINE
  8
_0-0_0
  6
CONTINUOUS
 62
    7
 10
9.8386825000000044
 20
183.2115785
 11
9.863245500000005
 21
183.48963950000001
  0
LINE
  8
_0-0_0
  6
CONTINUOUS
 62
    7
 10
9.4195735000000127
 20
183.42512550000001
 11
9.6300875000000019
 21
183.60843649999998
  0
LINE
  8
_0-0_0
  6
CONTINUOUS
 62
    7
 10
9.6347245000000044
 20
183.32933750000001
 11
9.6300875000000019
 21
183.60843649999998
  0
LINE
  8
_0-0_0
  6
CONTINUOUS
 62
    7
 10
9.1955885000000137
 20
183.49790150000001
 11
9.3857885000000181
 21
183.70221650000002
  0
LINE
  8
_0-0_0
  6
CONTINUOUS
 62
    7
 10
9.4195735000000127
 20
183.42512550000001
 11
9.3857885000000181
 21
183.70221650000002
  0
LINE
  8
_0-0_0
  6
CONTINUOUS
 62
    7
 10
8.9652225000000101
 20
183.54686750000002
 11
9.1330245000000048
 21
183.76994350000001
  0
LINE
  8
_0-0_0
  6
CONTINUOUS
 62
    7
 10
9.1955885000000137
 20
183.49790150000001
 11
9.1330245000000048
 21
183.76994350000001
  0
LINE
  8
_0-0_0
  6
CONTINUOUS
 62
    7
 10
8.7310015000000192
 20
183.57148749999999
 11
8.8745665000000145
 21
183.81087450000001
  0
LINE
  8
_0-0_0
  6
CONTINUOUS
 62
    7
 10
8.9652225000000101
 20
183.54686750000002
 11
8.8745665000000145
 21
183.81087450000001
  0
LINE
  8
_0-0_0
  6
CONTINUOUS
 62
    7
 10
8.4954895000000192
 20
183.57148749999999
 11
8.613245500000005
 21
183.8245695
  0
LINE
  8
_0-0_0
  6
CONTINUOUS
 62
    7
 10
8.7310015000000192
 20
183.57148749999999
 11
8.613245500000005
 21
183.8245695
  0
LINE
  8
_0-0_0
  6
CONTINUOUS
 62
    7
 10
8.2612675000000024
 20
183.54686750000002
 11
8.3519244999999955
 21
183.81087450000001
  0
LINE
  8
_0-0_0
  6
CONTINUOUS
 62
    7
 10
8.4954895000000192
 20
183.57148749999999
 11
8.3519244999999955
 21
183.81087450000001
  0
LINE
  8
_0-0_0
  6
CONTINUOUS
 62
    7
 10
8.0309024999999963
 20
183.49790150000001
 11
8.0934665000000052
 21
183.76994350000001
  0
LINE
  8
_0-0_0
  6
CONTINUOUS
 62
    7
 10
8.2612675000000024
 20
183.54686750000002
 11
8.0934665000000052
 21
183.76994350000001
  0
LINE
  8
_0-0_0
  6
CONTINUOUS
 62
    7
 10
7.8069174999999973
 20
183.42512550000001
 11
7.8407035000000178
 21
183.70221650000002
  0
LINE
  8
_0-0_0
  6
CONTINUOUS
 62
    7
 10
8.0309024999999963
 20
183.49790150000001
 11
7.8407035000000178
 21
183.70221650000002
  0
LINE
  8
_0-0_0
  6
CONTINUOUS
 62
    7
 10
7.5917665000000056
 20
183.32933750000001
 11
7.5964035000000081
 21
183.60843649999998
  0
LINE
  8
_0-0_0
  6
CONTINUOUS
 62
    7
 10
7.8069174999999973
 20
183.42512550000001
 11
7.5964035000000081
 21
183.60843649999998
  0
LINE
  8
_0-0_0
  6
CONTINUOUS
 62
    7
 10
7.4722294999999974
 20
183.4131855
 11
7.363245500000005
 21
183.48963950000001
  0
LINE
  8
_0-0_0
  6
CONTINUOUS
 62
    7
 10
7.5917665000000056
 20
183.32933750000001
 11
7.4722294999999974
 21
183.4131855
  0
LINE
  8
_0-0_0
  6
CONTINUOUS
 62
    7
 10
7.3878075000000081
 20
183.2115785
 11
7.363245500000005
 21
183.48963950000001
  0
LINE
  8
_0-0_0
  6
CONTINUOUS
 62
    7
 10
7.1972744999999918
 20
183.0731505
 11
7.1437825000000146
 21
183.3471145
  0
LINE
  8
_0-0_0
  6
CONTINUOUS
 62
    7
 10
7.3878075000000081
 20
183.2115785
 11
7.1437825000000146
 21
183.3471145
  0
LINE
  8
_0-0_0
  6
CONTINUOUS
 62
    7
 10
7.0222555
 20
182.91555750000001
 11
6.9404184999999927
 21
183.1824335
  0
LINE
  8
_0-0_0
  6
CONTINUOUS
 62
    7
 10
7.1972744999999918
 20
183.0731505
 11
6.9404184999999927
 21
183.1824335
  0
LINE
  8
_0-0_0
  6
CONTINUOUS
 62
    7
 10
6.8646674999999959
 20
182.74053950000001
 11
6.7553834999999935
 21
182.9973985
  0
LINE
  8
_0-0_0
  6
CONTINUOUS
 62
    7
 10
7.0222555
 20
182.91555750000001
 11
6.7553834999999935
 21
182.9973985
  0
LINE
  8
_0-0_0
  6
CONTINUOUS
 62
    7
 10
6.7262364999999988
 20
182.55001049999998
 11
6.5907025000000203
 21
182.7940365
  0
LINE
  8
_0-0_0
  6
CONTINUOUS
 62
    7
 10
6.8646674999999959
 20
182.74053950000001
 11
6.5907025000000203
 21
182.7940365
  0
LINE
  8
_0-0_0
  6
CONTINUOUS
 62
    7
 10
6.6084815000000106
 20
182.34605349999998
 11
6.448181500000004
 21
182.5745695
  0
LINE
  8
_0-0_0
  6
CONTINUOUS
 62
    7
 10
6.7262364999999988
 20
182.55001049999998
 11
6.448181500000004
 21
182.5745695
  0
LINE
  8
_0-0_0
  6
CONTINUOUS
 62
    7
 10
6.5126894999999934
 20
182.1308975
 11
6.3293815000000109
 21
182.34141549999998
  0
LINE
  8
_0-0_0
  6
CONTINUOUS
 62
    7
 10
6.6084815000000106
 20
182.34605349999998
 11
6.3293815000000109
 21
182.34141549999998
  0
LINE
  8
_0-0_0
  6
CONTINUOUS
 62
    7
 10
6.4399125000000197
 20
181.9069135
 11
6.2356034999999963
 21
182.0971145
  0
LINE
  8
_0-0_0
  6
CONTINUOUS
 62
    7
 10
6.5126894999999934
 20
182.1308975
 11
6.2356034999999963
 21
182.0971145
  0
LINE
  8
_0-0_0
  6
CONTINUOUS
 62
    7
 10
6.3909465000000125
 20
181.67654450000001
 11
6.1678765000000055
 21
181.84435250000001
  0
LINE
  8
_0-0_0
  6
CONTINUOUS
 62
    7
 10
6.4399125000000197
 20
181.9069135
 11
6.1678765000000055
 21
181.84435250000001
  0
LINE
  8
_0-0_0
  6
CONTINUOUS
 62
    7
 10
6.3909465000000125
 20
181.67654450000001
 11
6.1269405000000177
 21
181.5858915
  0
LINE
  8
_0-0_0
  6
CONTINUOUS
 62
    7
 10
6.3663285000000087
 20
181.4423295
 11
6.1269405000000177
 21
181.5858915
  0
LINE
  8
_0-0_0
  6
CONTINUOUS
 62
    7
 10
6.3663285000000087
 20
181.2068175
 11
6.113245500000005
 21
181.3245695
  0
LINE
  8
_0-0_0
  6
CONTINUOUS
 62
    7
 10
6.3663285000000087
 20
181.4423295
 11
6.113245500000005
 21
181.3245695
  0
LINE
  8
_0-0_0
  6
CONTINUOUS
 62
    7
 10
6.3909465000000125
 20
180.97259550000001
 11
6.1269405000000177
 21
181.0632555
  0
LINE
  8
_0-0_0
  6
CONTINUOUS
 62
    7
 10
6.3663285000000087
 20
181.2068175
 11
6.1269405000000177
 21
181.0632555
  0
LINE
  8
_0-0_0
  6
CONTINUOUS
 62
    7
 10
6.4399125000000197
 20
180.7422335
 11
6.1678765000000055
 21
180.80479450000001
  0
LINE
  8
_0-0_0
  6
CONTINUOUS
 62
    7
 10
6.3909465000000125
 20
180.97259550000001
 11
6.1678765000000055
 21
180.80479450000001
  0
LINE
  8
_0-0_0
  6
CONTINUOUS
 62
    7
 10
6.5126894999999934
 20
180.51824149999999
 11
6.2356034999999963
 21
180.5520325
  0
LINE
  8
_0-0_0
  6
CONTINUOUS
 62
    7
 10
6.4399125000000197
 20
180.7422335
 11
6.2356034999999963
 21
180.5520325
  0
LINE
  8
_0-0_0
  6
CONTINUOUS
 62
    7
 10
6.6084815000000106
 20
180.30309249999999
 11
6.3293815000000109
 21
180.30772350000001
  0
LINE
  8
_0-0_0
  6
CONTINUOUS
 62
    7
 10
6.5126894999999934
 20
180.51824149999999
 11
6.3293815000000109
 21
180.30772350000001
  0
LINE
  8
_0-0_0
  6
CONTINUOUS
 62
    7
 10
6.7262364999999988
 20
180.09913649999999
 11
6.448181500000004
 21
180.0745695
  0
LINE
  8
_0-0_0
  6
CONTINUOUS
 62
    7
 10
6.6084815000000106
 20
180.30309249999999
 11
6.448181500000004
 21
180.0745695
  0
LINE
  8
_0-0_0
  6
CONTINUOUS
 62
    7
 10
6.8646674999999959
 20
179.90859950000001
 11
6.5907025000000203
 21
179.85511050000002
  0
LINE
  8
_0-0_0
  6
CONTINUOUS
 62
    7
 10
6.7262364999999988
 20
180.09913649999999
 11
6.5907025000000203
 21
179.85511050000002
  0
LINE
  8
_0-0_0
  6
CONTINUOUS
 62
    7
 10
7.0222555
 20
179.73358150000001
 11
6.7553834999999935
 21
179.65174050000002
  0
LINE
  8
_0-0_0
  6
CONTINUOUS
 62
    7
 10
6.8646674999999959
 20
179.90859950000001
 11
6.7553834999999935
 21
179.65174050000002
  0
LINE
  8
_0-0_0
  6
CONTINUOUS
 62
    7
 10
7.1972744999999918
 20
179.5759965
 11
6.9404184999999927
 21
179.46670549999999
  0
LINE
  8
_0-0_0
  6
CONTINUOUS
 62
    7
 10
7.0222555
 20
179.73358150000001
 11
6.9404184999999927
 21
179.46670549999999
  0
LINE
  8
_0-0_0
  6
CONTINUOUS
 62
    7
 10
7.3878075000000081
 20
179.43756050000002
 11
7.1437825000000146
 21
179.3020325
  0
LINE
  8
_0-0_0
  6
CONTINUOUS
 62
    7
 10
7.1972744999999918
 20
179.5759965
 11
7.1437825000000146
 21
179.3020325
  0
LINE
  8
_0-0_0
  6
CONTINUOUS
 62
    7
 10
7.5917665000000056
 20
179.31980149999998
 11
7.363245500000005
 21
179.15950750000002
  0
LINE
  8
_0-0_0
  6
CONTINUOUS
 62
    7
 10
7.3878075000000081
 20
179.43756050000002
 11
7.363245500000005
 21
179.15950750000002
  0
LINE
  8
_0-0_0
  6
CONTINUOUS
 62
    7
 10
7.8069174999999973
 20
179.22401450000001
 11
7.5964035000000081
 21
179.04071049999999
  0
LINE
  8
_0-0_0
  6
CONTINUOUS
 62
    7
 10
7.5917665000000056
 20
179.31980149999998
 11
7.5964035000000081
 21
179.04071049999999
  0
LINE
  8
_0-0_0
  6
CONTINUOUS
 62
    7
 10
8.0309024999999963
 20
179.15123750000001
 11
7.8407035000000178
 21
178.94692950000001
  0
LINE
  8
_0-0_0
  6
CONTINUOUS
 62
    7
 10
7.8069174999999973
 20
179.22401450000001
 11
7.8407035000000178
 21
178.94692950000001
  0
LINE
  8
_0-0_0
  6
CONTINUOUS
 62
    7
 10
8.2612675000000024
 20
179.1022715
 11
8.0934665000000052
 21
178.87920350000002
  0
LINE
  8
_0-0_0
  6
CONTINUOUS
 62
    7
 10
8.0309024999999963
 20
179.15123750000001
 11
8.0934665000000052
 21
178.87920350000002
  0
LINE
  8
_0-0_0
  6
CONTINUOUS
 62
    7
 10
8.4954895000000192
 20
179.0776515
 11
8.3519244999999955
 21
178.83826450000001
  0
LINE
  8
_0-0_0
  6
CONTINUOUS
 62
    7
 10
8.2612675000000024
 20
179.1022715
 11
8.3519244999999955
 21
178.83826450000001
  0
LINE
  8
_0-0_0
  6
CONTINUOUS
 62
    7
 10
8.7310015000000192
 20
179.0776515
 11
8.613245500000005
 21
178.8245695
  0
LINE
  8
_0-0_0
  6
CONTINUOUS
 62
    7
 10
8.4954895000000192
 20
179.0776515
 11
8.613245500000005
 21
178.8245695
  0
LINE
  8
_0-0_0
  6
CONTINUOUS
 62
    7
 10
8.9652225000000101
 20
179.1022715
 11
8.8745665000000145
 21
178.83826450000001
  0
LINE
  8
_0-0_0
  6
CONTINUOUS
 62
    7
 10
8.7310015000000192
 20
179.0776515
 11
8.8745665000000145
 21
178.83826450000001
  0
LINE
  8
_0-0_0
  6
CONTINUOUS
 62
    7
 10
9.1955885000000137
 20
179.15123750000001
 11
9.1330245000000048
 21
178.87920350000002
  0
LINE
  8
_0-0_0
  6
CONTINUOUS
 62
    7
 10
8.9652225000000101
 20
179.1022715
 11
9.1330245000000048
 21
178.87920350000002
  0
LINE
  8
_0-0_0
  6
CONTINUOUS
 62
    7
 10
9.4195735000000127
 20
179.22401450000001
 11
9.3857885000000181
 21
178.94692950000001
  0
LINE
  8
_0-0_0
  6
CONTINUOUS
 62
    7
 10
9.1955885000000137
 20
179.15123750000001
 11
9.3857885000000181
 21
178.94692950000001
  0
LINE
  8
_0-0_0
  6
CONTINUOUS
 62
    7
 10
9.6347245000000044
 20
179.31980149999998
 11
9.6300875000000019
 21
179.04071049999999
  0
LINE
  8
_0-0_0
  6
CONTINUOUS
 62
    7
 10
9.4195735000000127
 20
179.22401450000001
 11
9.6300875000000019
 21
179.04071049999999
  0
LINE
  8
_0-0_0
  6
CONTINUOUS
 62
    7
 10
9.7542605000000151
 20
179.23595449999999
 11
9.863245500000005
 21
179.15950750000002
  0
LINE
  8
_0-0_0
  6
CONTINUOUS
 62
    7
 10
9.6347245000000044
 20
179.31980149999998
 11
9.7542605000000151
 21
179.23595449999999
  0
LINE
  8
_0-0_0
  6
CONTINUOUS
 62
    7
 10
9.8386825000000044
 20
179.43756050000002
 11
9.863245500000005
 21
179.15950750000002
  0
LINE
  8
_0-0_0
  6
CONTINUOUS
 62
    7
 10
10.029216500000018
 20
179.5759965
 11
10.0827065
 21
179.3020325
  0
LINE
  8
_0-0_0
  6
CONTINUOUS
 62
    7
 10
9.8386825000000044
 20
179.43756050000002
 11
10.0827065
 21
179.3020325
  0
LINE
  8
_0-0_0
  6
CONTINUOUS
 62
    7
 10
10.20423550000001
 20
179.73358150000001
 11
10.286071499999991
 21
179.46670549999999
  0
LINE
  8
_0-0_0
  6
CONTINUOUS
 62
    7
 10
10.029216500000018
 20
179.5759965
 11
10.286071499999991
 21
179.46670549999999
  0
LINE
  8
_0-0_0
  6
CONTINUOUS
 62
    7
 10
10.361824500000012
 20
179.90859950000001
 11
10.471107500000016
 21
179.65174050000002
  0
LINE
  8
_0-0_0
  6
CONTINUOUS
 62
    7
 10
10.20423550000001
 20
179.73358150000001
 11
10.471107500000016
 21
179.65174050000002
  0
LINE
  8
_0-0_0
  6
CONTINUOUS
 62
    7
 10
10.500253500000014
 20
180.09913649999999
 11
10.635788500000018
 21
179.85511050000002
  0
LINE
  8
_0-0_0
  6
CONTINUOUS
 62
    7
 10
10.361824500000012
 20
179.90859950000001
 11
10.635788500000018
 21
179.85511050000002
  0
LINE
  8
_0-0_0
  6
CONTINUOUS
 62
    7
 10
10.618009499999999
 20
180.30309249999999
 11
10.778308500000009
 21
180.0745695
  0
LINE
  8
_0-0_0
  6
CONTINUOUS
 62
    7
 10
10.500253500000014
 20
180.09913649999999
 11
10.778308500000009
 21
180.0745695
  0
LINE
  8
_0-0_0
  6
CONTINUOUS
 62
    7
 10
10.713802500000014
 20
180.51824149999999
 11
10.897108500000002
 21
180.30772350000001
  0
LINE
  8
_0-0_0
  6
CONTINUOUS
 62
    7
 10
10.618009499999999
 20
180.30309249999999
 11
10.897108500000002
 21
180.30772350000001
  0
LINE
  8
_0-0_0
  6
CONTINUOUS
 62
    7
 10
10.786577500000021
 20
180.7422335
 11
10.990886500000016
 21
180.5520325
  0
LINE
  8
_0-0_0
  6
CONTINUOUS
 62
    7
 10
10.713802500000014
 20
180.51824149999999
 11
10.990886500000016
 21
180.5520325
  0
LINE
  8
_0-0_0
  6
CONTINUOUS
 62
    7
 10
10.835544499999997
 20
180.97259550000001
 11
11.058614500000004
 21
180.80479450000001
  0
LINE
  8
_0-0_0
  6
CONTINUOUS
 62
    7
 10
10.786577500000021
 20
180.7422335
 11
11.058614500000004
 21
180.80479450000001
  0
LINE
  8
_0-0_0
  6
CONTINUOUS
 62
    7
 10
10.860160500000006
 20
181.2068175
 11
11.099550500000021
 21
181.0632555
  0
LINE
  8
_0-0_0
  6
CONTINUOUS
 62
    7
 10
10.835544499999997
 20
180.97259550000001
 11
11.099550500000021
 21
181.0632555
  0
LINE
  8
_0-0_0
  6
CONTINUOUS
 62
    7
 10
10.860160500000006
 20
181.4423295
 11
11.113245500000005
 21
181.3245695
  0
LINE
  8
_0-0_0
  6
CONTINUOUS
 62
    7
 10
10.860160500000006
 20
181.2068175
 11
11.113245500000005
 21
181.3245695
  0
LINE
  8
_0-0_0
  6
CONTINUOUS
 62
    7
 10
10.835544499999997
 20
181.67654450000001
 11
11.099550500000021
 21
181.5858915
  0
LINE
  8
_0-0_0
  6
CONTINUOUS
 62
    7
 10
10.860160500000006
 20
181.4423295
 11
11.099550500000021
 21
181.5858915
  0
LINE
  8
_0-0_0
  6
CONTINUOUS
 62
    7
 10
10.786577500000021
 20
181.9069135
 11
11.058614500000004
 21
181.84435250000001
  0
LINE
  8
_0-0_0
  6
CONTINUOUS
 62
    7
 10
10.835544499999997
 20
181.67654450000001
 11
11.058614500000004
 21
181.84435250000001
  0
LINE
  8
_0-0_0
  6
CONTINUOUS
 62
    7
 10
10.713802500000014
 20
182.1308975
 11
10.990886500000016
 21
182.0971145
  0
LINE
  8
_0-0_0
  6
CONTINUOUS
 62
    7
 10
10.786577500000021
 20
181.9069135
 11
10.990886500000016
 21
182.0971145
  0
LINE
  8
_0-0_0
  6
CONTINUOUS
 62
    7
 10
10.618009499999999
 20
182.34605349999998
 11
10.897108500000002
 21
182.34141549999998
  0
LINE
  8
_0-0_0
  6
CONTINUOUS
 62
    7
 10
10.713802500000014
 20
182.1308975
 11
10.897108500000002
 21
182.34141549999998
  0
CIRCLE
  8
_0-0_0
  6
CONTINUOUS
 62
    7
 10
20.613245500000005
 20
197.9245755
 40
2
  0
CIRCLE
  8
_0-0_0
  6
CONTINUOUS
 62
    7
 10
8.613245500000005
 20
181.3245695
 40
2
  0
LINE
  8
_0-0_0
  6
CONTINUOUS
 62
    7
 10
21.195354500000008
 20
196.9245755
 11
20.031135500000005
 21
196.9245755
  0
LINE
  8
_0-0_0
  6
CONTINUOUS
 62
    7
 10
20.031135500000005
 20
196.9245755
 11
19.463245499999999
 21
197.9245755
  0
LINE
  8
_0-0_0
  6
CONTINUOUS
 62
    7
 10
19.463245499999999
 20
197.9245755
 11
20.031135500000005
 21
198.9245755
  0
LINE
  8
_0-0_0
  6
CONTINUOUS
 62
    7
 10
20.031135500000005
 20
198.9245755
 11
21.195354500000008
 21
198.9245755
  0
LINE
  8
_0-0_0
  6
CONTINUOUS
 62
    7
 10
21.195354500000008
 20
198.9245755
 11
21.763244500000013
 21
197.9245755
  0
LINE
  8
_0-0_0
  6
CONTINUOUS
 62
    7
 10
21.763244500000013
 20
197.9245755
 11
21.195354500000008
 21
196.9245755
  0
CIRCLE
  8
_0-0_0
  6
CONTINUOUS
 62
    7
 10
14.613245500000005
 20
189.6245725
 40
5
  0
LINE
  8
_0-0_0
  6
CONTINUOUS
 62
    7
 10
9.1953545000000076
 20
180.3245695
 11
8.0311365000000023
 21
180.3245695
  0
LINE
  8
_0-0_0
  6
CONTINUOUS
 62
    7
 10
8.0311365000000023
 20
180.3245695
 11
7.4632454999999993
 21
181.3245695
  0
LINE
  8
_0-0_0
  6
CONTINUOUS
 62
    7
 10
7.4632454999999993
 20
181.3245695
 11
8.0311365000000023
 21
182.3245695
  0
LINE
  8
_0-0_0
  6
CONTINUOUS
 62
    7
 10
8.0311365000000023
 20
182.3245695
 11
9.1953545000000076
 21
182.3245695
  0
LINE
  8
_0-0_0
  6
CONTINUOUS
 62
    7
 10
9.1953545000000076
 20
182.3245695
 11
9.7632455000000107
 21
181.3245695
  0
LINE
  8
_0-0_0
  6
CONTINUOUS
 62
    7
 10
9.7632455000000107
 20
181.3245695
 11
9.1953545000000076
 21
180.3245695
  0
CIRCLE
  8
_0-0_0
  6
CONTINUOUS
 62
    7
 10
14.613245500000005
 20
189.6245725
 40
4.5381200000000002
  0
CIRCLE
  8
_0-0_0
  6
CONTINUOUS
 62
    7
 10
14.613245500000005
 20
189.6245725
 40
4
  0
LINE
  8
_0-0_0
  6
CONTINUOUS
 62
    7
 10
6.4806675000000098
 20
199.57989449999999
 11
5.8132454999999936
 21
199.57989449999999
  0
ARC
  8
_0-0_0
  6
CONTINUOUS
 62
    7
 10
22.613245500000005
 20
200.0495755
 40
0.2
 50
179.94055499999999
 51
269.99997000000002
  0
ARC
  8
_0-0_0
  6
CONTINUOUS
 62
    7
 10
21.113245500000005
 20
180.8245695
 40
2
 50
269.99999700000001
 51
273.84026499999999
  0
ARC
  8
_0-0_0
  6
CONTINUOUS
 62
    7
 10
8.113245500000005
 20
198.4245755
 40
2
 50
90.000003000000007
 51
93.840255999999997
  0
LINE
  8
_0-0_0
  6
CONTINUOUS
 62
    7
 10
22.913246500000014
 20
199.84957850000001
 11
22.613245500000005
 21
199.84957850000001
  0
LINE
  8
_0-0_0
  6
CONTINUOUS
 62
    7
 10
22.913246500000014
 20
202.7995755
 11
22.613245500000005
 21
202.7995755
  0
ARC
  8
_0-0_0
  6
CONTINUOUS
 62
    7
 10
6.613245500000005
 20
200.04965150000001
 40
0.2
 50
270.00002499999994
 51
0.0594439999999606
  0
ARC
  8
_0-0_0
  6
CONTINUOUS
 62
    7
 10
22.913211500000017
 20
200.0496215
 40
0.200055
 50
270.00964199999999
 51
1.3705509999999435
  0
ARC
  8
_0-0_0
  6
CONTINUOUS
 62
    7
 10
22.913244500000019
 20
202.59957850000001
 40
0.2
 50
359.91222800000003
 51
89.999948000000003
  0
LINE
  8
_0-0_0
  6
CONTINUOUS
 62
    7
 10
6.3132454999999936
 20
199.84963949999999
 11
6.613245500000005
 21
199.84963949999999
  0
ARC
  8
_0-0_0
  6
CONTINUOUS
 62
    7
 10
6.3132784999999956
 20
200.04969750000001
 40
0.200055
 50
178.629446
 51
269.99035300000003
  0
LINE
  8
_0-0_0
  6
CONTINUOUS
 62
    7
 10
23.313245499999994
 20
205.3246455
 11
23.313245499999994
 21
218.5246425
  0
ARC
  8
_0-0_0
  6
CONTINUOUS
 62
    7
 10
22.813245499999994
 20
205.3246455
 40
0.5
 50
269.99999700000001
 51
0
  0
ARC
  8
_0-0_0
  6
CONTINUOUS
 62
    7
 10
23.254667500000011
 20
218.72463949999999
 40
0.1
 50
135
 51
225
  0
LINE
  8
_0-0_0
  6
CONTINUOUS
 62
    7
 10
23.183956500000022
 20
218.6539305
 11
23.313245499999994
 21
218.5246425
  0
LINE
  8
_0-0_0
  6
CONTINUOUS
 62
    7
 10
22.813245499999994
 20
204.8246455
 11
20.913246500000014
 21
204.8246455
  0
ARC
  8
_0-0_0
  6
CONTINUOUS
 62
    7
 10
20.913246500000014
 20
205.3246455
 40
0.5
 50
233.12990600000001
 51
269.99999700000001
  0
ARC
  8
_0-0_0
  6
CONTINUOUS
 62
    7
 10
8.2132454999999993
 20
205.3246455
 40
0.5
 50
269.99999700000001
 51
306.87009999999998
  0
LINE
  8
_0-0_0
  6
CONTINUOUS
 62
    7
 10
8.2132454999999993
 20
204.8246455
 11
6.3132454999999936
 21
204.8246455
  0
ARC
  8
_0-0_0
  6
CONTINUOUS
 62
    7
 10
6.3132454999999936
 20
205.3246455
 40
0.5
 50
180.00000900000003
 51
269.99999700000001
  0
LINE
  8
_0-0_0
  6
CONTINUOUS
 62
    7
 10
5.8132454999999936
 20
214.75964350000001
 11
5.8132454999999936
 21
205.3246455
  0
LINE
  8
_0-0_0
  6
CONTINUOUS
 62
    7
 10
5.8132454999999936
 20
214.75964350000001
 11
6.5132445000000132
 21
214.75964350000001
  0
LINE
  8
_0-0_0
  6
CONTINUOUS
 62
    7
 10
22.513246500000008
 20
233.3246455
 11
22.719276500000007
 21
233.3246455
  0
LINE
  8
_0-0_0
  6
CONTINUOUS
 62
    7
 10
22.719276500000007
 20
233.3246455
 11
23.313245499999994
 21
232.7306825
  0
LINE
  8
_0-0_0
  6
CONTINUOUS
 62
    7
 10
23.313245499999994
 20
227.72463949999999
 11
23.313245499999994
 21
232.7306825
  0
LINE
  8
_0-0_0
  6
CONTINUOUS
 62
    7
 10
23.183956500000022
 20
227.59535249999999
 11
23.313245499999994
 21
227.72463949999999
  0
ARC
  8
_0-0_0
  6
CONTINUOUS
 62
    7
 10
23.254667500000011
 20
227.5246425
 40
0.1
 50
135
 51
225
  0
LINE
  8
_0-0_0
  6
CONTINUOUS
 62
    7
 10
23.183956500000022
 20
227.45393350000001
 11
23.313245499999994
 21
227.3246455
  0
LINE
  8
_0-0_0
  6
CONTINUOUS
 62
    7
 10
23.313245499999994
 20
226.62464850000001
 11
23.313245499999994
 21
227.3246455
  0
LINE
  8
_0-0_0
  6
CONTINUOUS
 62
    7
 10
23.183956500000022
 20
226.4953615
 11
23.313245499999994
 21
226.62464850000001
  0
ARC
  8
_0-0_0
  6
CONTINUOUS
 62
    7
 10
23.254667500000011
 20
226.42465150000001
 40
0.1
 50
135
 51
225
  0
LINE
  8
_0-0_0
  6
CONTINUOUS
 62
    7
 10
23.183956500000022
 20
226.3539275
 11
23.313245499999994
 21
226.22463949999999
  0
LINE
  8
_0-0_0
  6
CONTINUOUS
 62
    7
 10
23.313245499999994
 20
225.5246425
 11
23.313245499999994
 21
226.22463949999999
  0
LINE
  8
_0-0_0
  6
CONTINUOUS
 62
    7
 10
23.183956500000022
 20
225.39535549999999
 11
23.313245499999994
 21
225.5246425
  0
ARC
  8
_0-0_0
  6
CONTINUOUS
 62
    7
 10
23.254667500000011
 20
225.3246455
 40
0.1
 50
135
 51
225
  0
LINE
  8
_0-0_0
  6
CONTINUOUS
 62
    7
 10
23.183956500000022
 20
225.25393650000001
 11
23.313245499999994
 21
225.12464850000001
  0
LINE
  8
_0-0_0
  6
CONTINUOUS
 62
    7
 10
23.313245499999994
 20
224.42465150000001
 11
23.313245499999994
 21
225.12464850000001
  0
LINE
  8
_0-0_0
  6
CONTINUOUS
 62
    7
 10
23.183956500000022
 20
224.29534950000001
 11
23.313245499999994
 21
224.42465150000001
  0
ARC
  8
_0-0_0
  6
CONTINUOUS
 62
    7
 10
23.254667500000011
 20
224.22463949999999
 40
0.1
 50
135
 51
225
  0
LINE
  8
_0-0_0
  6
CONTINUOUS
 62
    7
 10
23.183956500000022
 20
224.1539305
 11
23.313245499999994
 21
224.0246425
  0
LINE
  8
_0-0_0
  6
CONTINUOUS
 62
    7
 10
23.313245499999994
 20
223.3246455
 11
23.313245499999994
 21
224.0246425
  0
LINE
  8
_0-0_0
  6
CONTINUOUS
 62
    7
 10
23.183956500000022
 20
223.1953585
 11
23.313245499999994
 21
223.3246455
  0
ARC
  8
_0-0_0
  6
CONTINUOUS
 62
    7
 10
23.254667500000011
 20
223.12464850000001
 40
0.1
 50
135
 51
225
  0
LINE
  8
_0-0_0
  6
CONTINUOUS
 62
    7
 10
23.183956500000022
 20
223.05392449999999
 11
23.313245499999994
 21
222.92465150000001
  0
LINE
  8
_0-0_0
  6
CONTINUOUS
 62
    7
 10
23.313245499999994
 20
222.22463949999999
 11
23.313245499999994
 21
222.92465150000001
  0
LINE
  8
_0-0_0
  6
CONTINUOUS
 62
    7
 10
23.183956500000022
 20
222.09535249999999
 11
23.313245499999994
 21
222.22463949999999
  0
ARC
  8
_0-0_0
  6
CONTINUOUS
 62
    7
 10
23.254667500000011
 20
222.0246425
 40
0.1
 50
135
 51
225
  0
LINE
  8
_0-0_0
  6
CONTINUOUS
 62
    7
 10
23.183956500000022
 20
221.95393350000001
 11
23.313245499999994
 21
221.8246455
  0
LINE
  8
_0-0_0
  6
CONTINUOUS
 62
    7
 10
23.313245499999994
 20
221.12464850000001
 11
23.313245499999994
 21
221.8246455
  0
LINE
  8
_0-0_0
  6
CONTINUOUS
 62
    7
 10
23.183956500000022
 20
220.9953615
 11
23.313245499999994
 21
221.12464850000001
  0
ARC
  8
_0-0_0
  6
CONTINUOUS
 62
    7
 10
23.254667500000011
 20
220.92465150000001
 40
0.1
 50
135
 51
225
  0
LINE
  8
_0-0_0
  6
CONTINUOUS
 62
    7
 10
23.183956500000022
 20
220.85394250000002
 11
23.313245499999994
 21
220.72463949999999
  0
LINE
  8
_0-0_0
  6
CONTINUOUS
 62
    7
 10
23.313245499999994
 20
220.0246425
 11
23.313245499999994
 21
220.72463949999999
  0
LINE
  8
_0-0_0
  6
CONTINUOUS
 62
    7
 10
23.183956500000022
 20
219.89535549999999
 11
23.313245499999994
 21
220.0246425
  0
ARC
  8
_0-0_0
  6
CONTINUOUS
 62
    7
 10
23.254667500000011
 20
219.8246455
 40
0.1
 50
135
 51
225
  0
LINE
  8
_0-0_0
  6
CONTINUOUS
 62
    7
 10
23.183956500000022
 20
219.75393650000001
 11
23.313245499999994
 21
219.62464850000001
  0
LINE
  8
_0-0_0
  6
CONTINUOUS
 62
    7
 10
23.313245499999994
 20
218.92465150000001
 11
23.313245499999994
 21
219.62464850000001
  0
LINE
  8
_0-0_0
  6
CONTINUOUS
 62
    7
 10
23.183956500000022
 20
218.79534950000001
 11
23.313245499999994
 21
218.92465150000001
  0
LINE
  8
_0-0_0
  6
CONTINUOUS
 62
    7
 10
23.313245499999994
 20
210.8246455
 11
23.413246500000014
 21
210.8246455
  0
LINE
  8
_0-0_0
  6
CONTINUOUS
 62
    7
 10
23.413246500000014
 20
210.3246455
 11
23.413246500000014
 21
210.8246455
  0
LINE
  8
_0-0_0
  6
CONTINUOUS
 62
    7
 10
23.413246500000014
 20
210.3246455
 11
23.413246500000014
 21
206.3246455
  0
LINE
  8
_0-0_0
  6
CONTINUOUS
 62
    7
 10
23.313245499999994
 20
205.8246455
 11
23.413246500000014
 21
205.8246455
  0
LINE
  8
_0-0_0
  6
CONTINUOUS
 62
    7
 10
23.413246500000014
 20
205.8246455
 11
23.413246500000014
 21
206.3246455
  0
LINE
  8
_0-0_0
  6
CONTINUOUS
 62
    7
 10
5.8132454999999936
 20
214.82466149999999
 11
5.8132454999999936
 21
214.75964350000001
  0
LINE
  8
_0-0_0
  6
CONTINUOUS
 62
    7
 10
22.313245499999994
 20
233.62464850000001
 11
22.313245499999994
 21
233.5246425
  0
LINE
  8
_0-0_0
  6
CONTINUOUS
 62
    7
 10
5.7132454999999993
 20
214.8246455
 11
6.5132455000000107
 21
214.8246455
  0
LINE
  8
_0-0_0
  6
CONTINUOUS
 62
    7
 10
6.2132454999999993
 20
236.62464850000001
 11
6.2132454999999993
 21
232.40310650000001
  0
LINE
  8
_0-0_0
  6
CONTINUOUS
 62
    7
 10
7.3132454999999936
 20
236.62464850000001
 11
7.3132454999999936
 21
233.62464850000001
  0
LINE
  8
_0-0_0
  6
CONTINUOUS
 62
    7
 10
6.2132454999999993
 20
232.40310650000001
 11
6.5132455000000107
 21
232.40310650000001
  0
ARC
  8
_0-0_0
  6
CONTINUOUS
 62
    7
 10
9.8132454999999936
 20
233.62464850000001
 40
2.5
 50
90.000003000000007
 51
180.00000900000001
  0
ARC
  8
_0-0_0
  6
CONTINUOUS
 62
    7
 10
19.813245499999994
 20
233.62464850000001
 40
2.5
 50
0
 51
90.000003000000007
  0
LINE
  8
_0-0_0
  6
CONTINUOUS
 62
    7
 10
7.3132454999999936
 20
233.5246425
 11
7.3132454999999936
 21
233.62464850000001
  0
LINE
  8
_0-0_0
  6
CONTINUOUS
 62
    7
 10
19.813245499999994
 20
236.12464850000001
 11
9.8132454999999936
 21
236.12464850000001
  0
LINE
  8
_0-0_0
  6
CONTINUOUS
 62
    7
 10
23.513244500000013
 20
206.3246455
 11
23.513244500000013
 21
206.45500150000001
  0
LINE
  8
_0-0_0
  6
CONTINUOUS
 62
    7
 10
23.513244500000013
 20
209.95500150000001
 11
23.513244500000013
 21
206.45500150000001
  0
LINE
  8
_0-0_0
  6
CONTINUOUS
 62
    7
 10
23.413246500000014
 20
210.22463949999999
 11
23.513244500000013
 21
210.22463949999999
  0
LINE
  8
_0-0_0
  6
CONTINUOUS
 62
    7
 10
23.513244500000013
 20
209.95500150000001
 11
23.513244500000013
 21
210.22463949999999
  0
LINE
  8
_0-0_0
  6
CONTINUOUS
 62
    7
 10
23.113246500000002
 20
232.72463949999999
 11
22.113246500000002
 21
233.72463949999999
  0
LINE
  8
_0-0_0
  6
CONTINUOUS
 62
    7
 10
23.113245500000005
 20
204.92465150000001
 11
23.113246500000002
 21
232.72463949999999
  0
LINE
  8
_0-0_0
  6
CONTINUOUS
 62
    7
 10
6.5132455000000107
 20
204.92465150000001
 11
23.113245500000005
 21
204.92465150000001
  0
LINE
  8
_0-0_0
  6
CONTINUOUS
 62
    7
 10
6.5132455000000107
 20
232.72463949999999
 11
6.5132455000000107
 21
204.92465150000001
  0
LINE
  8
_0-0_0
  6
CONTINUOUS
 62
    7
 10
5.7132454999999993
 20
214.8246455
 11
5.7132454999999993
 21
231.6374515
  0
LINE
  8
_0-0_0
  6
CONTINUOUS
 62
    7
 10
5.7132454999999993
 20
236.12464850000001
 11
5.7132454999999993
 21
231.6374515
  0
ARC
  8
_0-0_0
  6
CONTINUOUS
 62
    7
 10
37.1649855
 20
211.6424715
 40
37.269466000000001
 50
146.14857699999999
 51
147.55443399999999
  0
ARC
  8
_0-0_0
  6
CONTINUOUS
 62
    7
 10
19.544199499999991
 20
233.3246455
 40
2.6000000000000001
 50
8.8498839999999994
 51
90.000002999999992
  0
LINE
  8
_0-0_0
  6
CONTINUOUS
 62
    7
 10
19.544199499999991
 20
235.92465150000001
 11
10.082292499999994
 21
235.92465150000001
  0
ARC
  8
_0-0_0
  6
CONTINUOUS
 62
    7
 10
10.082292499999994
 20
233.3246455
 40
2.6000000000000001
 50
90.000003000000007
 51
171.150115
  0
LINE
  8
_0-0_0
  6
CONTINUOUS
 62
    7
 10
6.5132455000000107
 20
232.72463949999999
 11
7.5132455000000107
 21
233.72463949999999
  0
LINE
  8
_0-0_0
  6
CONTINUOUS
 62
    7
 10
22.113246500000002
 20
232.31042450000001
 11
23.113246500000002
 21
232.72463949999999
  0
ARC
  8
_0-0_0
  6
CONTINUOUS
 62
    7
 10
16.570705500000003
 20
244.5107725
 40
12.126564999999999
 50
292.155034
 51
297.19674500000002
  0
LINE
  8
_0-0_0
  6
CONTINUOUS
 62
    7
 10
22.113245500000005
 20
205.92465150000001
 11
23.113245500000005
 21
204.92465150000001
  0
LINE
  8
_0-0_0
  6
CONTINUOUS
 62
    7
 10
7.5132455000000107
 20
205.92465150000001
 11
6.5132455000000107
 21
204.92465150000001
  0
LINE
  8
_0-0_0
  6
CONTINUOUS
 62
    7
 10
7.5132455000000107
 20
232.31042450000001
 11
6.5132455000000107
 21
232.72463949999999
  0
ARC
  8
_0-0_0
  6
CONTINUOUS
 62
    7
 10
13.055786500000011
 20
244.5107725
 40
12.126567
 50
242.80325699999997
 51
247.84494000000001
  0
CIRCLE
  8
_0-0_0
  6
CONTINUOUS
 62
    7
 10
14.813245499999994
 20
213.12464850000001
 40
2.0670000000000002
  0
LINE
  8
_0-0_0
  6
CONTINUOUS
 62
    7
 10
7.3132454999999936
 20
236.62464850000001
 11
6.2132454999999993
 21
236.62464850000001
  0
LINE
  8
_0-0_0
  6
CONTINUOUS
 62
    7
 10
23.413246500000014
 20
206.3246455
 11
23.513244500000013
 21
206.3246455
  0
LINE
  8
_0-0_0
  6
CONTINUOUS
 62
    7
 10
23.413246500000014
 20
206.3246455
 11
23.513244500000013
 21
206.3246455
  0
LINE
  8
_0-0_0
  6
CONTINUOUS
 62
    7
 10
5.7132454999999993
 20
236.12464850000001
 11
6.2132454999999993
 21
236.62464850000001
  0
ENDSEC
  0
EOF
