  0
SECTION
  2
HEADER
  9
$ACADVER
  1
AC1009
  9
$INSBASE
 10
0
 20
0
 30
0
  9
$EXTMIN
 10
0
 20
0
  9
$EXTMAX
 10
420.5
 20
297
  9
$LIMMIN
 10
0
 20
0
  9
$LIMMAX
 10
420.5
 20
297
  9
$LTSCALE
 40
0.5
  0
ENDSEC
  0
SECTION
  2
TABLES
  0
TABLE
  2
LTYPE
 70
     9
  0
LTYPE
  2
CONTINUOUS
 70
    64
  3
実線
 72
    65
 73
     0
 40
0.0
  0
LTYPE
  2
DASHED1
 70
    64
  3
--  --  --  --  --  --  --  --  
 72
    65
 73
     2
 40
2.5
 49
1.25
 49
-1.25
  0
LTYPE
  2
DASHED2
 70
    64
  3
----    ----    ----    ----    
 72
    65
 73
     2
 40
5.0
 49
2.5
 49
-2.5
  0
LTYPE
  2
DASHED3
 70
    64
  3
------  ------  ------  ------  
 72
    65
 73
     2
 40
5.0
 49
3.75
 49
-1.25
  0
LTYPE
  2
CENTER1
 70
    64
  3
----- - ----- - ----- - ----- - 
 72
    65
 73
     4
 40
10.0
 49
6.25
 49
-1.25
 49
1.25
 49
-1.25
  0
LTYPE
  2
CENTER2
 70
    64
  3
----------  --  ----------  --  
 72
    65
 73
     4
 40
20.0
 49
12.5
 49
-2.5
 49
2.5
 49
-2.5
  0
LTYPE
  2
PHANTOM1
 70
    64
  3
--- - - --- - - --- - - --- - - 
 72
    65
 73
     6
 40
10.0
 49
3.25
 49
-1.25
 49
1.25
 49
-1.25
 49
1.25
 49
-1.25
  0
LTYPE
  2
PHANTOM2
 70
    64
  3
--------  -  -  --------  -  -  
 72
    65
 73
     6
 40
20.0
 49
10.0
 49
-2.5
 49
1.25
 49
-2.5
 49
1.25
 49
-2.5
  0
LTYPE
  2
DOT
 70
    64
  3
-   -   -   -   -   -   -   -   
 72
    65
 73
     2
 40
2.5
 49
0.625
 49
-1.875
  0
LTYPE
  2
DUMMY
 70
    64
  3
ダミー
 72
    65
 73
     0
 40
0.0
  0
LTYPE
  2
RAND1
 70
    64
  3
ランダム線1
 72
    65
 73
     4
 40
10.0
 49
1.0
 49
-2.0
 49
3.0
 49
-4.0
  0
LTYPE
  2
RAND2
 70
    64
  3
ランダム線2
 72
    65
 73
     4
 40
14.0
 49
2.0
 49
-3.0
 49
4.0
 49
-5.0
  0
LTYPE
  2
RAND3
 70
    64
  3
ランダム線3
 72
    65
 73
     4
 40
18.0
 49
3.0
 49
-4.0
 49
5.0
 49
-6.0
  0
LTYPE
  2
RAND4
 70
    64
  3
ランダム線4
 72
    65
 73
     4
 40
22.0
 49
4.0
 49
-5.0
 49
6.0
 49
-7.0
  0
LTYPE
  2
RAND5
 70
    64
  3
ランダム線5
 72
    65
 73
     4
 40
26.0
 49
5.0
 49
-6.0
 49
7.0
 49
-8.0
  0
LTYPE
  2
LONG1
 70
    64
  3
----------  --  ----------  --  
 72
    65
 73
     4
 40
40.0
 49
32.5
 49
-2.5
 49
2.5
 49
-2.5
  0
LTYPE
  2
LONG2
 70
    64
  3
--------  -  -  --------  -  -  
 72
    65
 73
     6
 40
40.0
 49
30.0
 49
-2.5
 49
1.25
 49
-2.5
 49
1.25
 49
-2.5
  0
LTYPE
  2
LONG3
 70
    64
  3
+++++++++++++++..+++++++++++++++
 72
    65
 73
     2
 40
40.0
 49
37.5
 49
-2.5
  0
LTYPE
  2
LONG4
 70
    64
  3
+++++++++++++++..+++++++++++++++
 72
    65
 73
     2
 40
80.0
 49
75.0
 49
-5.0
  0
LTYPE
  2
LONG5
 70
    64
  3
----------  --  ----------  --  
 72
    65
 73
     4
 40
60.0
 49
37.5
 49
-7.5
 49
7.5
 49
-7.5
  0
LTYPE
  2
dashed
 70
   64
  3
-------   -------------   ------
 72
   65
 73
    2
 40
7.5
 49
6
 49
-1.5
  0
LTYPE
  2
dashed_spaced
 70
   64
  3
----        --------        ----
 72
   65
 73
    2
 40
12
 49
6
 49
-6
  0
LTYPE
  2
long_dashed_dotted
 70
   64
  3
------------- --- --------------
 72
   65
 73
    4
 40
15.25
 49
12
 49
-1.5
 49
0.25
 49
-1.5
  0
LTYPE
  2
long_dashed_double-dotted
 70
   64
  3
----------- --- --- ------------
 72
   65
 73
    6
 40
17
 49
12
 49
-1.5
 49
0.25
 49
-1.5
 49
0.25
 49
-1.5
  0
LTYPE
  2
long_dashed_triplicate-dotted
 70
   64
  3
--------- --- --- --- ----------
 72
   65
 73
    8
 40
18.75
 49
12
 49
-1.5
 49
0.25
 49
-1.5
 49
0.25
 49
-1.5
 49
0.25
 49
-1.5
  0
LTYPE
  2
dotted
 70
   64
  3
   -       -       -       -    
 72
   65
 73
    2
 40
1.75
 49
0.25
 49
-1.5
  0
LTYPE
  2
chain
 70
   64
  3
-------------- -- --------------
 72
   65
 73
    4
 40
18.5
 49
12
 49
-1.5
 49
3.5
 49
-1.5
  0
LTYPE
  2
chain_double_dash
 70
   64
  3
------------ -- -- -------------
 72
   65
 73
    6
 40
23.5
 49
12
 49
-1.5
 49
3.5
 49
-1.5
 49
3.5
 49
-1.5
  0
LTYPE
  2
dashed_dotted
 70
   64
  3
-----------     -     ----------
 72
   65
 73
    4
 40
9.25
 49
6
 49
-1.5
 49
0.25
 49
-1.5
  0
LTYPE
  2
double-dashed_dotted
 70
   64
  3
------   -----------   -   -----
 72
   65
 73
    6
 40
16.75
 49
6
 49
-1.5
 49
6
 49
-1.5
 49
0.25
 49
-1.5
  0
LTYPE
  2
dashed_double-dotted
 70
   64
  3
---------    -    -    ---------
 72
   65
 73
    6
 40
11
 49
6
 49
-1.5
 49
0.25
 49
-1.5
 49
0.25
 49
-1.5
  0
LTYPE
  2
double-dashed_double-dotted
 70
   64
  3
-----   ---------   -   -   ----
 72
   65
 73
    8
 40
18.5
 49
6
 49
-1.5
 49
6
 49
-1.5
 49
0.25
 49
-1.5
 49
0.25
 49
-1.5
  0
LTYPE
  2
dashed_triplicate-dotted
 70
   64
  3
-------    -    -    -    ------
 72
   65
 73
    8
 40
12.75
 49
6
 49
-1.5
 49
0.25
 49
-1.5
 49
0.25
 49
-1.5
 49
0.25
 49
-1.5
  0
LTYPE
  2
double-dashed_triplicate-dotted
 70
   64
  3
-----  ---------  -  -  -  -----
 72
   65
 73
   10
 40
20.25
 49
6
 49
-1.5
 49
6
 49
-1.5
 49
0.25
 49
-1.5
 49
0.25
 49
-1.5
 49
0.25
 49
-1.5
  0
LTYPE
  2
undefined
 70
   64
  3
--------------------------------
 72
   65
 73
    0
 40
0
  0
ENDTAB
  0
TABLE
  2
STYLE
  5
3
100
AcDbSymbolTable
 70
     1
  0
STYLE
  5
10
100
AcDbSymbolTableRecord
100
AcDbTextStyleTableRecord
  2
STANDARD
 70
     0
 40
0.0
 41
1.0
 50
0.0
 71
     0
 42
0.2
  3
txt
  4
bigfont.shx
  0
STYLE
  5
26
100
AcDbSymbolTableRecord
100
AcDbTextStyleTableRecord
  2
TATEGAKI
 70
    68
 40
0.0
 41
1.0
 50
0.0
 71
     0
 42
1.0
  3
txt
  4
bigfont.shx
  0
ENDTAB
  0
TABLE
  2
LAYER
 70
    2
  0
LAYER
  2
_0-0_0
 70
   64
 62
    7
  6
CONTINUOUS
  0
LAYER
  2
ADD_LINE
 70
   64
 62
    7
  6
CONTINUOUS
  0
ENDTAB
  0
ENDSEC
  0
SECTION
  2
BLOCKS
  0
ENDSEC
  0
SECTION
  2
ENTITIES
  0
LINE
  8
_0-0_0
  6
CONTINUOUS
 62
    7
 10
67.928916500000014
 20
237.4251405
 11
67.928916500000014
 21
237.4241485
  0
LINE
  8
_0-0_0
  6
CONTINUOUS
 62
    7
 10
220.74142449999999
 20
198.4942015
 11
219.44142150000002
 21
194.9942015
  0
ARC
  8
_0-0_0
  6
CONTINUOUS
 62
    7
 10
220.9289095
 20
198.4245755
 40
0.2
 50
20.376434999999997
 51
159.62357000000003
  0
ARC
  8
_0-0_0
  6
CONTINUOUS
 62
    7
 10
258.92890950000003
 20
201.3245695
 40
2.2000000000000002
 50
180.00000900000003
 51
303.74900400000001
  0
LINE
  8
_0-0_0
  6
CONTINUOUS
 62
    7
 10
256.72891249999998
 20
202.8245695
 11
256.72891249999998
 21
201.3245695
  0
LINE
  8
_0-0_0
  6
CONTINUOUS
 62
    7
 10
256.72891249999998
 20
202.8245695
 11
182.12892150000002
 21
202.8245695
  0
LINE
  8
_0-0_0
  6
CONTINUOUS
 62
    7
 10
182.12892150000002
 20
202.8245695
 11
182.12892150000002
 21
201.3245695
  0
ARC
  8
_0-0_0
  6
CONTINUOUS
 62
    7
 10
179.9289095
 20
201.3245695
 40
2.2000000000000002
 50
236.25102899999999
 51
0
  0
ARC
  8
_0-0_0
  6
CONTINUOUS
 62
    7
 10
178.4289095
 20
199.07957450000001
 40
0.5
 50
56.251010000000008
 51
180.00000900000001
  0
LINE
  8
_0-0_0
  6
CONTINUOUS
 62
    7
 10
177.9289095
 20
178.7245715
 11
177.9289095
 21
179.50169349999999
  0
LINE
  8
_0-0_0
  6
CONTINUOUS
 62
    7
 10
177.9289095
 20
178.7245715
 11
187.72891250000001
 21
178.7245715
  0
ARC
  8
_0-0_0
  6
CONTINUOUS
 62
    7
 10
187.72891250000001
 20
178.92456850000002
 40
0.2
 50
269.99999700000001
 51
0
  0
LINE
  8
_0-0_0
  6
CONTINUOUS
 62
    7
 10
187.9289095
 20
180.6245725
 11
187.9289095
 21
178.92456850000002
  0
ARC
  8
_0-0_0
  6
CONTINUOUS
 62
    7
 10
188.12892150000002
 20
180.6245725
 40
0.2
 50
90.000003000000007
 51
180.00000900000001
  0
LINE
  8
_0-0_0
  6
CONTINUOUS
 62
    7
 10
188.62892150000002
 20
180.8245695
 11
188.12892150000002
 21
180.8245695
  0
ARC
  8
_0-0_0
  6
CONTINUOUS
 62
    7
 10
188.62892150000002
 20
180.3245695
 40
0.5
 50
90.000003000000007
 51
180.00000900000001
  0
LINE
  8
_0-0_0
  6
CONTINUOUS
 62
    7
 10
188.12892150000002
 20
178.8245695
 11
188.12892150000002
 21
180.3245695
  0
LINE
  8
_0-0_0
  6
CONTINUOUS
 62
    7
 10
257.72891249999998
 20
178.8245695
 11
188.12892150000002
 21
178.8245695
  0
LINE
  8
_0-0_0
  6
CONTINUOUS
 62
    7
 10
257.72891249999998
 20
178.8245695
 11
257.72891249999998
 21
180.3245695
  0
ARC
  8
_0-0_0
  6
CONTINUOUS
 62
    7
 10
257.22891249999998
 20
180.3245695
 40
0.5
 50
0
 51
90.000003000000007
  0
LINE
  8
_0-0_0
  6
CONTINUOUS
 62
    7
 10
257.72891249999998
 20
180.8245695
 11
257.22891249999998
 21
180.8245695
  0
ARC
  8
_0-0_0
  6
CONTINUOUS
 62
    7
 10
257.72891249999998
 20
180.6245725
 40
0.2
 50
0
 51
90.000003000000007
  0
LINE
  8
_0-0_0
  6
CONTINUOUS
 62
    7
 10
257.92890950000003
 20
178.92456850000002
 11
257.92890950000003
 21
180.6245725
  0
ARC
  8
_0-0_0
  6
CONTINUOUS
 62
    7
 10
258.12890649999997
 20
178.92456850000002
 40
0.2
 50
180.00000900000003
 51
269.99999700000001
  0
LINE
  8
_0-0_0
  6
CONTINUOUS
 62
    7
 10
258.12890649999997
 20
178.7245715
 11
258.92890950000003
 21
178.7245715
  0
ARC
  8
_0-0_0
  6
CONTINUOUS
 62
    7
 10
258.92890950000003
 20
180.7245715
 40
2
 50
269.99999700000001
 51
0.0000099999999886
  0
LINE
  8
_0-0_0
  6
CONTINUOUS
 62
    7
 10
260.92890950000003
 20
199.07957450000001
 11
260.92890950000003
 21
180.7245715
  0
ARC
  8
_0-0_0
  6
CONTINUOUS
 62
    7
 10
260.42890950000003
 20
199.07957450000001
 40
0.5
 50
0
 51
123.74898500000002
  0
LINE
  8
_0-0_0
  6
CONTINUOUS
 62
    7
 10
189.4289095
 20
181.0245745
 11
189.4289095
 21
181.2245715
  0
LINE
  8
_0-0_0
  6
CONTINUOUS
 62
    7
 10
189.4289095
 20
181.2245715
 11
256.42890950000003
 21
181.2245715
  0
LINE
  8
_0-0_0
  6
CONTINUOUS
 62
    7
 10
256.42890950000003
 20
181.0245745
 11
256.42890950000003
 21
181.2245715
  0
ARC
  8
_0-0_0
  6
CONTINUOUS
 62
    7
 10
256.62890649999997
 20
181.0245745
 40
0.2
 50
180.00000900000003
 51
269.99999700000001
  0
LINE
  8
_0-0_0
  6
CONTINUOUS
 62
    7
 10
256.62890649999997
 20
180.8245695
 11
189.22891250000001
 21
180.8245695
  0
ARC
  8
_0-0_0
  6
CONTINUOUS
 62
    7
 10
189.22891250000001
 20
181.0245745
 40
0.2
 50
269.99999700000001
 51
0
  0
ARC
  8
_0-0_0
  6
CONTINUOUS
 62
    7
 10
219.6289065
 20
194.9245755
 40
0.2
 50
159.62357
 51
269.99999700000001
  0
LINE
  8
_0-0_0
  6
CONTINUOUS
 62
    7
 10
219.6289065
 20
194.72457850000001
 11
222.22891250000001
 21
194.72457850000001
  0
ARC
  8
_0-0_0
  6
CONTINUOUS
 62
    7
 10
222.22891250000001
 20
194.9245755
 40
0.2
 50
269.99999700000001
 51
20.376435000000019
  0
LINE
  8
_0-0_0
  6
CONTINUOUS
 62
    7
 10
222.41639750000002
 20
194.9942015
 11
221.11639450000001
 21
198.4942015
  0
LINE
  8
_0-0_0
  6
CONTINUOUS
 62
    7
 10
177.9289095
 20
198.4245755
 11
177.9289095
 21
200.40194650000001
  0
LINE
  8
_0-0_0
  6
CONTINUOUS
 62
    7
 10
177.9289095
 20
198.4245755
 11
177.9289095
 21
180.8245695
  0
LINE
  8
_0-0_0
  6
CONTINUOUS
 62
    7
 10
177.9289095
 20
179.50169349999999
 11
177.9289095
 21
180.8245695
  0
LINE
  8
_0-0_0
  6
CONTINUOUS
 62
    7
 10
260.92890950000003
 20
204.8245695
 11
260.92890950000003
 21
203.8245695
  0
LINE
  8
_0-0_0
  6
CONTINUOUS
 62
    7
 10
260.92890950000003
 20
203.8245695
 11
260.92890950000003
 21
203.3245695
  0
LINE
  8
_0-0_0
  6
CONTINUOUS
 62
    7
 10
260.92890950000003
 20
203.3245695
 11
260.92890950000003
 21
201.3245695
  0
LINE
  8
_0-0_0
  6
CONTINUOUS
 62
    7
 10
260.92890950000003
 20
201.3245695
 11
260.92890950000003
 21
199.07957450000001
  0
LINE
  8
_0-0_0
  6
CONTINUOUS
 62
    7
 10
238.9289095
 20
198.8245695
 11
238.9289095
 21
185.2245715
  0
ARC
  8
_0-0_0
  6
CONTINUOUS
 62
    7
 10
241.9289095
 20
198.8245695
 40
3
 50
90.000003000000007
 51
180.00000900000001
  0
LINE
  8
_0-0_0
  6
CONTINUOUS
 62
    7
 10
255.26284749999999
 20
201.8245695
 11
241.9289095
 21
201.8245695
  0
ARC
  8
_0-0_0
  6
CONTINUOUS
 62
    7
 10
255.26284749999999
 20
200.8245695
 40
1
 50
7.7664340000000012
 51
90.000002999999992
  0
ARC
  8
_0-0_0
  6
CONTINUOUS
 62
    7
 10
258.92890950000003
 20
201.3245695
 40
2.7000000000000002
 50
187.76643899999999
 51
254.31966600000001
  0
ARC
  8
_0-0_0
  6
CONTINUOUS
 62
    7
 10
257.92890950000003
 20
197.76226750000001
 40
1
 50
0
 51
74.319649999999996
  0
LINE
  8
_0-0_0
  6
CONTINUOUS
 62
    7
 10
258.92890950000003
 20
185.2245715
 11
258.92890950000003
 21
197.76226750000001
  0
ARC
  8
_0-0_0
  6
CONTINUOUS
 62
    7
 10
255.9289095
 20
185.2245715
 40
3
 50
269.99999700000001
 51
0.0000099999999886
  0
LINE
  8
_0-0_0
  6
CONTINUOUS
 62
    7
 10
241.9289095
 20
182.2245715
 11
255.9289095
 21
182.2245715
  0
ARC
  8
_0-0_0
  6
CONTINUOUS
 62
    7
 10
241.9289095
 20
185.2245715
 40
3
 50
180.00000900000003
 51
269.99999700000001
  0
LINE
  8
_0-0_0
  6
CONTINUOUS
 62
    7
 10
184.9289095
 20
182.2245715
 11
199.9289095
 21
182.2245715
  0
ARC
  8
_0-0_0
  6
CONTINUOUS
 62
    7
 10
184.9289095
 20
185.2245715
 40
3
 50
180.00000900000003
 51
269.99999700000001
  0
LINE
  8
_0-0_0
  6
CONTINUOUS
 62
    7
 10
181.9289095
 20
198.8245695
 11
181.9289095
 21
185.2245715
  0
ARC
  8
_0-0_0
  6
CONTINUOUS
 62
    7
 10
184.9289095
 20
198.8245695
 40
3
 50
90.000003000000007
 51
180.00000900000001
  0
LINE
  8
_0-0_0
  6
CONTINUOUS
 62
    7
 10
199.9289095
 20
201.8245695
 11
184.9289095
 21
201.8245695
  0
ARC
  8
_0-0_0
  6
CONTINUOUS
 62
    7
 10
199.9289095
 20
198.8245695
 40
3
 50
0
 51
90.000003000000007
  0
LINE
  8
_0-0_0
  6
CONTINUOUS
 62
    7
 10
202.9289095
 20
185.2245715
 11
202.9289095
 21
198.8245695
  0
ARC
  8
_0-0_0
  6
CONTINUOUS
 62
    7
 10
199.9289095
 20
185.2245715
 40
3
 50
269.99999700000001
 51
0.0000099999999886
  0
LINE
  8
_0-0_0
  6
CONTINUOUS
 62
    7
 10
256.92890950000003
 20
202.8245695
 11
256.72891249999998
 21
202.8245695
  0
ARC
  8
_0-0_0
  6
CONTINUOUS
 62
    7
 10
258.92890950000003
 20
201.3245695
 40
2
 50
180.00000900000003
 51
0.0000000000000254
  0
LINE
  8
_0-0_0
  6
CONTINUOUS
 62
    7
 10
256.92890950000003
 20
202.8245695
 11
256.92890950000003
 21
201.3245695
  0
LINE
  8
_0-0_0
  6
CONTINUOUS
 62
    7
 10
182.12892150000002
 20
202.8245695
 11
181.9289095
 21
202.8245695
  0
LINE
  8
_0-0_0
  6
CONTINUOUS
 62
    7
 10
181.9289095
 20
202.8245695
 11
181.9289095
 21
201.3245695
  0
ARC
  8
_0-0_0
  6
CONTINUOUS
 62
    7
 10
179.9289095
 20
201.3245695
 40
2
 50
180.00000900000003
 51
0.0000000000000254
  0
LINE
  8
_0-0_0
  6
CONTINUOUS
 62
    7
 10
164.42892449999999
 20
203.3245695
 11
164.42892449999999
 21
202.8245695
  0
LINE
  8
_0-0_0
  6
CONTINUOUS
 62
    7
 10
177.9289095
 20
200.4080505
 11
177.9289095
 21
201.1245725
  0
LINE
  8
_0-0_0
  6
CONTINUOUS
 62
    7
 10
177.9289095
 20
200.4080505
 11
177.9289095
 21
200.40194650000001
  0
LINE
  8
_0-0_0
  6
CONTINUOUS
 62
    7
 10
177.9289095
 20
199.1934205
 11
177.9289095
 21
199.07957450000001
  0
LINE
  8
_0-0_0
  6
CONTINUOUS
 62
    7
 10
165.92892449999999
 20
200.4245755
 11
165.92892449999999
 21
198.4245755
  0
LINE
  8
_0-0_0
  6
CONTINUOUS
 62
    7
 10
177.9289095
 20
200.4245755
 11
165.92892449999999
 21
200.4245755
  0
LINE
  8
_0-0_0
  6
CONTINUOUS
 62
    7
 10
165.92892449999999
 20
194.9245755
 11
165.92892449999999
 21
197.9245755
  0
LINE
  8
_0-0_0
  6
CONTINUOUS
 62
    7
 10
165.92892449999999
 20
197.9245755
 11
165.92892449999999
 21
198.4245755
  0
LINE
  8
_0-0_0
  6
CONTINUOUS
 62
    7
 10
165.92892449999999
 20
194.9245755
 11
165.92892449999999
 21
194.4245755
  0
ARC
  8
_0-0_0
  6
CONTINUOUS
 62
    7
 10
171.92892449999999
 20
195.12455750000001
 40
0.500016
 50
0.001164
 51
179.99560600000004
  0
LINE
  8
_0-0_0
  6
CONTINUOUS
 62
    7
 10
171.4289095
 20
195.1245725
 11
171.4289095
 21
183.1245725
  0
ARC
  8
_0-0_0
  6
CONTINUOUS
 62
    7
 10
171.92892449999999
 20
183.12458050000001
 40
0.500016
 50
180.00117
 51
359.995611
  0
LINE
  8
_0-0_0
  6
CONTINUOUS
 62
    7
 10
172.4289095
 20
195.1245725
 11
172.4289095
 21
183.1245725
  0
ARC
  8
_0-0_0
  6
CONTINUOUS
 62
    7
 10
170.42892449999999
 20
195.12455750000001
 40
0.500016
 50
0.001164
 51
179.99560600000004
  0
LINE
  8
_0-0_0
  6
CONTINUOUS
 62
    7
 10
169.9289095
 20
195.1245725
 11
169.9289095
 21
183.1245725
  0
ARC
  8
_0-0_0
  6
CONTINUOUS
 62
    7
 10
170.42892449999999
 20
183.12458050000001
 40
0.500016
 50
180.00117
 51
359.995611
  0
LINE
  8
_0-0_0
  6
CONTINUOUS
 62
    7
 10
170.9289095
 20
195.1245725
 11
170.9289095
 21
183.1245725
  0
ARC
  8
_0-0_0
  6
CONTINUOUS
 62
    7
 10
168.92892449999999
 20
195.12455750000001
 40
0.500016
 50
0.001164
 51
179.99560600000004
  0
LINE
  8
_0-0_0
  6
CONTINUOUS
 62
    7
 10
168.4289095
 20
195.1245725
 11
168.4289095
 21
183.1245725
  0
ARC
  8
_0-0_0
  6
CONTINUOUS
 62
    7
 10
168.92892449999999
 20
183.12458050000001
 40
0.500016
 50
180.00117
 51
359.995611
  0
LINE
  8
_0-0_0
  6
CONTINUOUS
 62
    7
 10
169.4289095
 20
195.1245725
 11
169.4289095
 21
183.1245725
  0
ARC
  8
_0-0_0
  6
CONTINUOUS
 62
    7
 10
167.42892449999999
 20
195.12455750000001
 40
0.500016
 50
0.001164
 51
179.99560600000004
  0
LINE
  8
_0-0_0
  6
CONTINUOUS
 62
    7
 10
166.92892449999999
 20
195.1245725
 11
166.92892449999999
 21
183.1245725
  0
ARC
  8
_0-0_0
  6
CONTINUOUS
 62
    7
 10
167.42892449999999
 20
183.12458050000001
 40
0.500016
 50
180.00117
 51
359.995611
  0
LINE
  8
_0-0_0
  6
CONTINUOUS
 62
    7
 10
167.9289095
 20
195.1245725
 11
167.9289095
 21
183.1245725
  0
LINE
  8
_0-0_0
  6
CONTINUOUS
 62
    7
 10
177.9289095
 20
178.8245695
 11
161.2534795
 21
178.8245695
  0
LINE
  8
_0-0_0
  6
CONTINUOUS
 62
    7
 10
188.47891250000001
 20
180.80154450000001
 11
188.47891250000001
 21
180.8245695
  0
LINE
  8
_0-0_0
  6
CONTINUOUS
 62
    7
 10
257.37890649999997
 20
180.80154450000001
 11
257.37890649999997
 21
180.8245695
  0
LINE
  8
_0-0_0
  6
CONTINUOUS
 62
    7
 10
164.42892449999999
 20
203.3245695
 11
164.42892449999999
 21
203.8245695
  0
LINE
  8
_0-0_0
  6
CONTINUOUS
 62
    7
 10
260.92890950000003
 20
203.8245695
 11
164.42892449999999
 21
203.8245695
  0
LINE
  8
_0-0_0
  6
CONTINUOUS
 62
    7
 10
164.42892449999999
 20
203.8245695
 11
164.42892449999999
 21
204.8245695
  0
LINE
  8
_0-0_0
  6
CONTINUOUS
 62
    7
 10
260.92904650000003
 20
204.82463050000001
 11
260.92904650000003
 21
204.3246455
  0
LINE
  8
_0-0_0
  6
CONTINUOUS
 62
    7
 10
260.92904650000003
 20
204.3246455
 11
260.92904650000003
 21
202.8246455
  0
ARC
  8
_0-0_0
  6
CONTINUOUS
 62
    7
 10
251.4289095
 20
194.4245755
 40
4.5
 50
269.99999700000001
 51
90.000002999999992
  0
LINE
  8
_0-0_0
  6
CONTINUOUS
 62
    7
 10
251.4289095
 20
189.9245755
 11
246.4289095
 21
189.9245755
  0
ARC
  8
_0-0_0
  6
CONTINUOUS
 62
    7
 10
246.4289095
 20
194.4245755
 40
4.5
 50
90.000003000000007
 51
269.99999700000006
  0
LINE
  8
_0-0_0
  6
CONTINUOUS
 62
    7
 10
246.4289095
 20
198.9245755
 11
251.4289095
 21
198.9245755
  0
ARC
  8
_0-0_0
  6
CONTINUOUS
 62
    7
 10
195.4289095
 20
194.4245755
 40
4.5
 50
269.99999700000001
 51
90.000002999999992
  0
LINE
  8
_0-0_0
  6
CONTINUOUS
 62
    7
 10
195.4289095
 20
189.9245755
 11
190.4289095
 21
189.9245755
  0
ARC
  8
_0-0_0
  6
CONTINUOUS
 62
    7
 10
190.4289095
 20
194.4245755
 40
4.5
 50
90.000003000000007
 51
269.99999700000006
  0
LINE
  8
_0-0_0
  6
CONTINUOUS
 62
    7
 10
190.4289095
 20
198.9245755
 11
195.4289095
 21
198.9245755
  0
LINE
  8
_0-0_0
  6
CONTINUOUS
 62
    7
 10
177.9289095
 20
201.1245725
 11
177.9289095
 21
202.8245695
  0
LINE
  8
_0-0_0
  6
CONTINUOUS
 62
    7
 10
177.9289095
 20
202.8245695
 11
164.42892449999999
 21
202.8245695
  0
LINE
  8
_0-0_0
  6
CONTINUOUS
 62
    7
 10
164.42892449999999
 20
201.1245725
 11
164.42892449999999
 21
202.8245695
  0
LINE
  8
_0-0_0
  6
CONTINUOUS
 62
    7
 10
165.92892449999999
 20
200.4245755
 11
161.2534795
 21
200.4245755
  0
LINE
  8
_0-0_0
  6
CONTINUOUS
 62
    7
 10
165.92892449999999
 20
194.9245755
 11
161.2534795
 21
194.9245755
  0
LINE
  8
_0-0_0
  6
CONTINUOUS
 62
    7
 10
160.62101749999999
 20
178.9272005
 11
160.7405095
 21
178.89158650000002
  0
LINE
  8
_0-0_0
  6
CONTINUOUS
 62
    7
 10
160.7405095
 20
178.89158650000002
 11
160.86206050000001
 21
178.8637085
  0
LINE
  8
_0-0_0
  6
CONTINUOUS
 62
    7
 10
160.86206050000001
 20
178.8637085
 11
160.98519949999999
 21
178.84366549999999
  0
LINE
  8
_0-0_0
  6
CONTINUOUS
 62
    7
 10
160.98519949999999
 20
178.84366549999999
 11
161.10943650000002
 21
178.83155049999999
  0
LINE
  8
_0-0_0
  6
CONTINUOUS
 62
    7
 10
161.10943650000002
 20
178.83155049999999
 11
161.2342525
 21
178.8274155
  0
LINE
  8
_0-0_0
  6
CONTINUOUS
 62
    7
 10
161.2342525
 20
178.8274155
 11
161.2534795
 21
178.82749150000001
  0
ARC
  8
_0-0_0
  6
CONTINUOUS
 62
    7
 10
161.2534795
 20
180.8245695
 40
2
 50
251.56498899999997
 51
269.99999700000001
  0
LINE
  8
_0-0_0
  6
CONTINUOUS
 62
    7
 10
164.42892449999999
 20
201.1245725
 11
177.9289095
 21
201.1245725
  0
CIRCLE
  8
_0-0_0
  6
CONTINUOUS
 62
    7
 10
258.92890950000003
 20
201.3245695
 40
1.4750000000000001
  0
CIRCLE
  8
_0-0_0
  6
CONTINUOUS
 62
    7
 10
179.9289095
 20
201.3245695
 40
1.4750000000000001
  0
ARC
  8
_0-0_0
  6
CONTINUOUS
 62
    7
 10
161.2534795
 20
198.4245755
 40
2
 50
90.000003000000007
 51
108.434997
  0
LINE
  8
_0-0_0
  6
CONTINUOUS
 62
    7
 10
156.45457450000001
 20
194.9245755
 11
155.76121550000002
 21
194.9245755
  0
LINE
  8
_0-0_0
  6
CONTINUOUS
 62
    7
 10
156.45457450000001
 20
194.9245755
 11
160.77912950000001
 21
194.9245755
  0
LINE
  8
_0-0_0
  6
CONTINUOUS
 62
    7
 10
161.2534795
 20
194.9245755
 11
160.77912950000001
 21
194.9245755
  0
LINE
  8
_0-0_0
  6
CONTINUOUS
 62
    7
 10
156.29646350000002
 20
180.3687285
 11
160.62101749999999
 21
178.9272005
  0
LINE
  8
_0-0_0
  6
CONTINUOUS
 62
    7
 10
255.47891250000001
 20
194.4245755
 11
253.1695095
 21
190.4245755
  0
LINE
  8
_0-0_0
  6
CONTINUOUS
 62
    7
 10
244.68830850000001
 20
190.4245755
 11
253.1695095
 21
190.4245755
  0
LINE
  8
_0-0_0
  6
CONTINUOUS
 62
    7
 10
244.68830850000001
 20
190.4245755
 11
242.3789065
 21
194.4245755
  0
LINE
  8
_0-0_0
  6
CONTINUOUS
 62
    7
 10
242.3789065
 20
194.4245755
 11
244.68830850000001
 21
198.4245755
  0
LINE
  8
_0-0_0
  6
CONTINUOUS
 62
    7
 10
253.1695095
 20
198.4245755
 11
244.68830850000001
 21
198.4245755
  0
LINE
  8
_0-0_0
  6
CONTINUOUS
 62
    7
 10
253.1695095
 20
198.4245755
 11
255.47891250000001
 21
194.4245755
  0
LINE
  8
_0-0_0
  6
CONTINUOUS
 62
    7
 10
188.68830850000001
 20
198.4245755
 11
186.37892150000002
 21
194.4245755
  0
LINE
  8
_0-0_0
  6
CONTINUOUS
 62
    7
 10
197.1695095
 20
198.4245755
 11
188.68830850000001
 21
198.4245755
  0
LINE
  8
_0-0_0
  6
CONTINUOUS
 62
    7
 10
199.47891250000001
 20
194.4245755
 11
197.1695095
 21
198.4245755
  0
LINE
  8
_0-0_0
  6
CONTINUOUS
 62
    7
 10
197.1695095
 20
190.4245755
 11
199.47891250000001
 21
194.4245755
  0
LINE
  8
_0-0_0
  6
CONTINUOUS
 62
    7
 10
188.68830850000001
 20
190.4245755
 11
197.1695095
 21
190.4245755
  0
LINE
  8
_0-0_0
  6
CONTINUOUS
 62
    7
 10
186.37892150000002
 20
194.4245755
 11
188.68830850000001
 21
190.4245755
  0
LINE
  8
_0-0_0
  6
CONTINUOUS
 62
    7
 10
160.1789095
 20
200.17456050000001
 11
160.62101749999999
 21
200.32192950000001
  0
LINE
  8
_0-0_0
  6
CONTINUOUS
 62
    7
 10
154.92892449999999
 20
195.67460650000001
 11
154.92892449999999
 21
194.55358849999999
  0
LINE
  8
_0-0_0
  6
CONTINUOUS
 62
    7
 10
154.92892449999999
 20
193.63226349999999
 11
154.92892449999999
 21
194.55358849999999
  0
LINE
  8
_0-0_0
  6
CONTINUOUS
 62
    7
 10
155.22891250000001
 20
191.8365785
 11
155.1701205
 21
192.0834045
  0
LINE
  8
_0-0_0
  6
CONTINUOUS
 62
    7
 10
155.1701205
 20
192.0834045
 11
155.1203615
 21
192.27574150000001
  0
LINE
  8
_0-0_0
  6
CONTINUOUS
 62
    7
 10
155.1203615
 20
192.27574150000001
 11
155.04922450000001
 21
192.54153450000001
  0
LINE
  8
_0-0_0
  6
CONTINUOUS
 62
    7
 10
155.04922450000001
 20
192.54153450000001
 11
155.0162655
 21
192.66824349999999
  0
LINE
  8
_0-0_0
  6
CONTINUOUS
 62
    7
 10
155.0162655
 20
192.66824349999999
 11
154.99099750000002
 21
192.77166750000001
  0
LINE
  8
_0-0_0
  6
CONTINUOUS
 62
    7
 10
154.99099750000002
 20
192.77166750000001
 11
154.96897850000002
 21
192.8716125
  0
LINE
  8
_0-0_0
  6
CONTINUOUS
 62
    7
 10
154.96897850000002
 20
192.8716125
 11
154.94760150000002
 21
192.9893185
  0
LINE
  8
_0-0_0
  6
CONTINUOUS
 62
    7
 10
154.94760150000002
 20
192.9893185
 11
154.93902550000001
 21
193.05145250000001
  0
LINE
  8
_0-0_0
  6
CONTINUOUS
 62
    7
 10
154.93902550000001
 20
193.05145250000001
 11
154.9329525
 21
193.11206050000001
  0
LINE
  8
_0-0_0
  6
CONTINUOUS
 62
    7
 10
154.9329525
 20
193.11206050000001
 11
154.92993150000001
 21
193.16128549999999
  0
LINE
  8
_0-0_0
  6
CONTINUOUS
 62
    7
 10
154.92993150000001
 20
193.16128549999999
 11
154.92892449999999
 21
193.2095185
  0
LINE
  8
_0-0_0
  6
CONTINUOUS
 62
    7
 10
155.22891250000001
 20
187.4125445
 11
155.3123775
 21
187.79122950000001
  0
LINE
  8
_0-0_0
  6
CONTINUOUS
 62
    7
 10
155.3123775
 20
187.79122950000001
 11
155.35247850000002
 21
187.98275749999999
  0
LINE
  8
_0-0_0
  6
CONTINUOUS
 62
    7
 10
155.35247850000002
 20
187.98275749999999
 11
155.40855450000001
 21
188.27278150000001
  0
LINE
  8
_0-0_0
  6
CONTINUOUS
 62
    7
 10
155.40855450000001
 20
188.27278150000001
 11
155.44615150000001
 21
188.49237049999999
  0
LINE
  8
_0-0_0
  6
CONTINUOUS
 62
    7
 10
155.44615150000001
 20
188.49237049999999
 11
155.4787905
 21
188.71362250000001
  0
LINE
  8
_0-0_0
  6
CONTINUOUS
 62
    7
 10
155.4787905
 20
188.71362250000001
 11
155.50595050000001
 21
188.9404145
  0
LINE
  8
_0-0_0
  6
CONTINUOUS
 62
    7
 10
155.50595050000001
 20
188.9404145
 11
155.52603150000002
 21
189.16781650000001
  0
LINE
  8
_0-0_0
  6
CONTINUOUS
 62
    7
 10
155.52603150000002
 20
189.16781650000001
 11
155.53317250000001
 21
189.28153950000001
  0
LINE
  8
_0-0_0
  6
CONTINUOUS
 62
    7
 10
155.53317250000001
 20
189.28153950000001
 11
155.5383305
 21
189.3952175
  0
LINE
  8
_0-0_0
  6
CONTINUOUS
 62
    7
 10
155.5383305
 20
189.3952175
 11
155.54205350000001
 21
189.5466615
  0
LINE
  8
_0-0_0
  6
CONTINUOUS
 62
    7
 10
155.54205350000001
 20
189.5466615
 11
155.5421145
 21
189.69790650000002
  0
LINE
  8
_0-0_0
  6
CONTINUOUS
 62
    7
 10
155.5421145
 20
189.69790650000002
 11
155.53852850000001
 21
189.84896850000001
  0
LINE
  8
_0-0_0
  6
CONTINUOUS
 62
    7
 10
155.53852850000001
 20
189.84896850000001
 11
155.5290225
 21
190.03750550000001
  0
LINE
  8
_0-0_0
  6
CONTINUOUS
 62
    7
 10
155.5290225
 20
190.03750550000001
 11
155.5141605
 21
190.22576850000002
  0
LINE
  8
_0-0_0
  6
CONTINUOUS
 62
    7
 10
155.5141605
 20
190.22576850000002
 11
155.49423250000001
 21
190.41369650000001
  0
LINE
  8
_0-0_0
  6
CONTINUOUS
 62
    7
 10
155.49423250000001
 20
190.41369650000001
 11
155.4778445
 21
190.54257150000001
  0
LINE
  8
_0-0_0
  6
CONTINUOUS
 62
    7
 10
155.4778445
 20
190.54257150000001
 11
155.45944249999999
 21
190.6712345
  0
LINE
  8
_0-0_0
  6
CONTINUOUS
 62
    7
 10
155.45944249999999
 20
190.6712345
 11
155.4352725
 21
190.82316550000002
  0
LINE
  8
_0-0_0
  6
CONTINUOUS
 62
    7
 10
155.4352725
 20
190.82316550000002
 11
155.4088745
 21
190.9745025
  0
LINE
  8
_0-0_0
  6
CONTINUOUS
 62
    7
 10
155.4088745
 20
190.9745025
 11
155.3527225
 21
191.26512149999999
  0
LINE
  8
_0-0_0
  6
CONTINUOUS
 62
    7
 10
155.3527225
 20
191.26512149999999
 11
155.31256150000002
 21
191.4570765
  0
LINE
  8
_0-0_0
  6
CONTINUOUS
 62
    7
 10
155.31256150000002
 20
191.4570765
 11
155.22891250000001
 21
191.8365785
  0
LINE
  8
_0-0_0
  6
CONTINUOUS
 62
    7
 10
155.22891250000001
 20
187.4125445
 11
155.17010550000001
 21
187.16570250000001
  0
LINE
  8
_0-0_0
  6
CONTINUOUS
 62
    7
 10
155.17010550000001
 20
187.16570250000001
 11
155.1203615
 21
186.97337350000001
  0
LINE
  8
_0-0_0
  6
CONTINUOUS
 62
    7
 10
155.1203615
 20
186.97337350000001
 11
155.04922450000001
 21
186.7076265
  0
LINE
  8
_0-0_0
  6
CONTINUOUS
 62
    7
 10
155.04922450000001
 20
186.7076265
 11
155.0162655
 21
186.58093250000002
  0
LINE
  8
_0-0_0
  6
CONTINUOUS
 62
    7
 10
155.0162655
 20
186.58093250000002
 11
154.99101250000001
 21
186.47749350000001
  0
LINE
  8
_0-0_0
  6
CONTINUOUS
 62
    7
 10
154.99101250000001
 20
186.47749350000001
 11
154.96897850000002
 21
186.37751750000001
  0
LINE
  8
_0-0_0
  6
CONTINUOUS
 62
    7
 10
154.96897850000002
 20
186.37751750000001
 11
154.94760150000002
 21
186.25981849999999
  0
LINE
  8
_0-0_0
  6
CONTINUOUS
 62
    7
 10
154.94760150000002
 20
186.25981849999999
 11
154.93902550000001
 21
186.19769250000002
  0
LINE
  8
_0-0_0
  6
CONTINUOUS
 62
    7
 10
154.93902550000001
 20
186.19769250000002
 11
154.9329525
 21
186.13708450000001
  0
LINE
  8
_0-0_0
  6
CONTINUOUS
 62
    7
 10
154.9329525
 20
186.13708450000001
 11
154.92993150000001
 21
186.08784450000002
  0
LINE
  8
_0-0_0
  6
CONTINUOUS
 62
    7
 10
154.92993150000001
 20
186.08784450000002
 11
154.92892449999999
 21
186.0396265
  0
LINE
  8
_0-0_0
  6
CONTINUOUS
 62
    7
 10
154.92892449999999
 20
182.26609050000002
 11
154.92892449999999
 21
185.6168825
  0
ARC
  8
_0-0_0
  6
CONTINUOUS
 62
    7
 10
156.92892449999999
 20
182.26609050000002
 40
2
 50
180.00000900000003
 51
251.56498900000003
  0
LINE
  8
_0-0_0
  6
CONTINUOUS
 62
    7
 10
259.37890649999997
 20
201.1245725
 11
260.02891550000004
 21
201.1245725
  0
ARC
  8
_0-0_0
  6
CONTINUOUS
 62
    7
 10
259.37890649999997
 20
200.8745725
 40
0.25
 50
90.000003000000007
 51
180.00000900000001
  0
LINE
  8
_0-0_0
  6
CONTINUOUS
 62
    7
 10
259.12890649999997
 20
200.8745725
 11
259.12890649999997
 21
200.22457850000001
  0
LINE
  8
_0-0_0
  6
CONTINUOUS
 62
    7
 10
258.72891249999998
 20
200.22457850000001
 11
259.12890649999997
 21
200.22457850000001
  0
LINE
  8
_0-0_0
  6
CONTINUOUS
 62
    7
 10
258.72891249999998
 20
200.22457850000001
 11
258.72891249999998
 21
200.8745725
  0
ARC
  8
_0-0_0
  6
CONTINUOUS
 62
    7
 10
258.47891249999998
 20
200.8745725
 40
0.25
 50
0
 51
90.000003000000007
  0
LINE
  8
_0-0_0
  6
CONTINUOUS
 62
    7
 10
257.82891849999999
 20
201.1245725
 11
258.47891249999998
 21
201.1245725
  0
LINE
  8
_0-0_0
  6
CONTINUOUS
 62
    7
 10
257.82891849999999
 20
201.1245725
 11
257.82891849999999
 21
201.52456649999999
  0
LINE
  8
_0-0_0
  6
CONTINUOUS
 62
    7
 10
258.47891249999998
 20
201.52456649999999
 11
257.82891849999999
 21
201.52456649999999
  0
ARC
  8
_0-0_0
  6
CONTINUOUS
 62
    7
 10
258.47891249999998
 20
201.77456649999999
 40
0.25
 50
269.99999700000001
 51
0
  0
LINE
  8
_0-0_0
  6
CONTINUOUS
 62
    7
 10
258.72891249999998
 20
201.77456649999999
 11
258.72891249999998
 21
202.4245755
  0
LINE
  8
_0-0_0
  6
CONTINUOUS
 62
    7
 10
259.12890649999997
 20
202.4245755
 11
258.72891249999998
 21
202.4245755
  0
LINE
  8
_0-0_0
  6
CONTINUOUS
 62
    7
 10
259.12890649999997
 20
202.4245755
 11
259.12890649999997
 21
201.77456649999999
  0
ARC
  8
_0-0_0
  6
CONTINUOUS
 62
    7
 10
259.37890649999997
 20
201.77456649999999
 40
0.25
 50
180.00000900000003
 51
269.99999700000001
  0
LINE
  8
_0-0_0
  6
CONTINUOUS
 62
    7
 10
260.02891550000004
 20
201.52456649999999
 11
259.37890649999997
 21
201.52456649999999
  0
LINE
  8
_0-0_0
  6
CONTINUOUS
 62
    7
 10
260.02891550000004
 20
201.52456649999999
 11
260.02891550000004
 21
201.1245725
  0
LINE
  8
_0-0_0
  6
CONTINUOUS
 62
    7
 10
180.37892150000002
 20
201.1245725
 11
181.02891550000001
 21
201.1245725
  0
ARC
  8
_0-0_0
  6
CONTINUOUS
 62
    7
 10
180.37892150000002
 20
200.8745725
 40
0.25
 50
90.000003000000007
 51
180.00000900000001
  0
LINE
  8
_0-0_0
  6
CONTINUOUS
 62
    7
 10
180.12892150000002
 20
200.8745725
 11
180.12892150000002
 21
200.22457850000001
  0
LINE
  8
_0-0_0
  6
CONTINUOUS
 62
    7
 10
179.72891250000001
 20
200.22457850000001
 11
180.12892150000002
 21
200.22457850000001
  0
LINE
  8
_0-0_0
  6
CONTINUOUS
 62
    7
 10
179.72891250000001
 20
200.22457850000001
 11
179.72891250000001
 21
200.8745725
  0
ARC
  8
_0-0_0
  6
CONTINUOUS
 62
    7
 10
179.47891250000001
 20
200.8745725
 40
0.25
 50
0
 51
90.000003000000007
  0
LINE
  8
_0-0_0
  6
CONTINUOUS
 62
    7
 10
178.82891850000001
 20
201.1245725
 11
179.47891250000001
 21
201.1245725
  0
LINE
  8
_0-0_0
  6
CONTINUOUS
 62
    7
 10
178.82891850000001
 20
201.1245725
 11
178.82891850000001
 21
201.52456649999999
  0
LINE
  8
_0-0_0
  6
CONTINUOUS
 62
    7
 10
179.47891250000001
 20
201.52456649999999
 11
178.82891850000001
 21
201.52456649999999
  0
ARC
  8
_0-0_0
  6
CONTINUOUS
 62
    7
 10
179.47891250000001
 20
201.77456649999999
 40
0.25
 50
269.99999700000001
 51
0
  0
LINE
  8
_0-0_0
  6
CONTINUOUS
 62
    7
 10
179.72891250000001
 20
201.77456649999999
 11
179.72891250000001
 21
202.4245755
  0
LINE
  8
_0-0_0
  6
CONTINUOUS
 62
    7
 10
180.12892150000002
 20
202.4245755
 11
179.72891250000001
 21
202.4245755
  0
LINE
  8
_0-0_0
  6
CONTINUOUS
 62
    7
 10
180.12892150000002
 20
202.4245755
 11
180.12892150000002
 21
201.77456649999999
  0
ARC
  8
_0-0_0
  6
CONTINUOUS
 62
    7
 10
180.37892150000002
 20
201.77456649999999
 40
0.25
 50
180.00000900000003
 51
269.99999700000001
  0
LINE
  8
_0-0_0
  6
CONTINUOUS
 62
    7
 10
181.02891550000001
 20
201.52456649999999
 11
180.37892150000002
 21
201.52456649999999
  0
LINE
  8
_0-0_0
  6
CONTINUOUS
 62
    7
 10
181.02891550000001
 20
201.52456649999999
 11
181.02891550000001
 21
201.1245725
  0
LINE
  8
_0-0_0
  6
CONTINUOUS
 62
    7
 10
139.92891650000001
 20
199.15000950000001
 11
139.92891650000001
 21
199.00328049999999
  0
LINE
  8
_0-0_0
  6
CONTINUOUS
 62
    7
 10
139.92891650000001
 20
199.34054549999999
 11
139.92891650000001
 21
199.15000950000001
  0
LINE
  8
_0-0_0
  6
CONTINUOUS
 62
    7
 10
139.92891650000001
 20
199.51556350000001
 11
139.92891650000001
 21
199.34054549999999
  0
LINE
  8
_0-0_0
  6
CONTINUOUS
 62
    7
 10
139.92891650000001
 20
199.6731565
 11
139.92891650000001
 21
199.51556350000001
  0
LINE
  8
_0-0_0
  6
CONTINUOUS
 62
    7
 10
139.92891650000001
 20
199.81158450000001
 11
139.92891650000001
 21
199.6731565
  0
LINE
  8
_0-0_0
  6
CONTINUOUS
 62
    7
 10
139.92891650000001
 20
199.92933650000001
 11
139.92891650000001
 21
199.81158450000001
  0
LINE
  8
_0-0_0
  6
CONTINUOUS
 62
    7
 10
139.92891650000001
 20
200.02513150000001
 11
139.92891650000001
 21
199.92933650000001
  0
LINE
  8
_0-0_0
  6
CONTINUOUS
 62
    7
 10
139.92891650000001
 20
200.09790050000001
 11
139.92891650000001
 21
200.02513150000001
  0
LINE
  8
_0-0_0
  6
CONTINUOUS
 62
    7
 10
139.92891650000001
 20
200.1745755
 11
139.92891650000001
 21
200.09790050000001
  0
LINE
  8
_0-0_0
  6
CONTINUOUS
 62
    7
 10
139.92891650000001
 20
200.1714935
 11
139.92891650000001
 21
200.14686549999999
  0
LINE
  8
_0-0_0
  6
CONTINUOUS
 62
    7
 10
139.92891650000001
 20
200.1745755
 11
139.92891650000001
 21
200.1714935
  0
LINE
  8
_0-0_0
  6
CONTINUOUS
 62
    7
 10
139.92891650000001
 20
195.67765750000001
 11
139.92891650000001
 21
195.6745755
  0
LINE
  8
_0-0_0
  6
CONTINUOUS
 62
    7
 10
139.92891650000001
 20
195.7022705
 11
139.92891650000001
 21
195.67765750000001
  0
LINE
  8
_0-0_0
  6
CONTINUOUS
 62
    7
 10
139.92891650000001
 20
195.75123550000001
 11
139.92891650000001
 21
195.7022705
  0
LINE
  8
_0-0_0
  6
CONTINUOUS
 62
    7
 10
139.92891650000001
 20
195.82402049999999
 11
139.92891650000001
 21
195.75123550000001
  0
LINE
  8
_0-0_0
  6
CONTINUOUS
 62
    7
 10
139.92891650000001
 20
195.91979950000001
 11
139.92891650000001
 21
195.82402049999999
  0
LINE
  8
_0-0_0
  6
CONTINUOUS
 62
    7
 10
139.92891650000001
 20
195.95001250000001
 11
139.92891650000001
 21
195.91979950000001
  0
LINE
  8
_0-0_0
  6
CONTINUOUS
 62
    7
 10
139.92891650000001
 20
196.03756749999999
 11
139.92891650000001
 21
195.95001250000001
  0
LINE
  8
_0-0_0
  6
CONTINUOUS
 62
    7
 10
139.92891650000001
 20
196.1759945
 11
139.92891650000001
 21
196.03756749999999
  0
LINE
  8
_0-0_0
  6
CONTINUOUS
 62
    7
 10
139.92891650000001
 20
196.33358749999999
 11
139.92891650000001
 21
196.1759945
  0
LINE
  8
_0-0_0
  6
CONTINUOUS
 62
    7
 10
139.92891650000001
 20
196.50860550000002
 11
139.92891650000001
 21
196.33358749999999
  0
LINE
  8
_0-0_0
  6
CONTINUOUS
 62
    7
 10
139.92891650000001
 20
196.6991275
 11
139.92891650000001
 21
196.50860550000002
  0
LINE
  8
_0-0_0
  6
CONTINUOUS
 62
    7
 10
139.92891650000001
 20
196.90309150000002
 11
139.92891650000001
 21
196.6991275
  0
LINE
  8
_0-0_0
  6
CONTINUOUS
 62
    7
 10
139.92891650000001
 20
197.11824050000001
 11
139.92891650000001
 21
196.90309150000002
  0
LINE
  8
_0-0_0
  6
CONTINUOUS
 62
    7
 10
139.92891650000001
 20
197.34222450000001
 11
139.92891650000001
 21
197.11824050000001
  0
LINE
  8
_0-0_0
  6
CONTINUOUS
 62
    7
 10
139.92891650000001
 20
197.57260149999999
 11
139.92891650000001
 21
197.34222450000001
  0
LINE
  8
_0-0_0
  6
CONTINUOUS
 62
    7
 10
139.92891650000001
 20
197.80682350000001
 11
139.92891650000001
 21
197.57260149999999
  0
LINE
  8
_0-0_0
  6
CONTINUOUS
 62
    7
 10
139.92891650000001
 20
198.0423275
 11
139.92891650000001
 21
197.80682350000001
  0
LINE
  8
_0-0_0
  6
CONTINUOUS
 62
    7
 10
139.92891650000001
 20
198.27655050000001
 11
139.92891650000001
 21
198.0423275
  0
LINE
  8
_0-0_0
  6
CONTINUOUS
 62
    7
 10
139.92891650000001
 20
198.5069125
 11
139.92891650000001
 21
198.27655050000001
  0
LINE
  8
_0-0_0
  6
CONTINUOUS
 62
    7
 10
139.92891650000001
 20
198.7308955
 11
139.92891650000001
 21
198.5069125
  0
LINE
  8
_0-0_0
  6
CONTINUOUS
 62
    7
 10
139.92891650000001
 20
198.9460445
 11
139.92891650000001
 21
198.7308955
  0
LINE
  8
_0-0_0
  6
CONTINUOUS
 62
    7
 10
139.92891650000001
 20
199.00328049999999
 11
139.92891650000001
 21
198.9460445
  0
LINE
  8
_0-0_0
  6
CONTINUOUS
 62
    7
 10
154.92892449999999
 20
191.18661449999999
 11
154.92892449999999
 21
192.2322695
  0
LINE
  8
_0-0_0
  6
CONTINUOUS
 62
    7
 10
154.92892449999999
 20
193.5168765
 11
154.92892449999999
 21
192.2322695
  0
LINE
  8
_0-0_0
  6
CONTINUOUS
 62
    7
 10
154.92892449999999
 20
193.63226349999999
 11
154.92892449999999
 21
193.5168765
  0
LINE
  8
_0-0_0
  6
CONTINUOUS
 62
    7
 10
154.92892449999999
 20
191.18661449999999
 11
154.92892449999999
 21
188.06251549999999
  0
LINE
  8
_0-0_0
  6
CONTINUOUS
 62
    7
 10
154.92892449999999
 20
185.6168825
 11
154.92892449999999
 21
185.7322695
  0
LINE
  8
_0-0_0
  6
CONTINUOUS
 62
    7
 10
154.92892449999999
 20
187.01687650000002
 11
154.92892449999999
 21
185.7322695
  0
LINE
  8
_0-0_0
  6
CONTINUOUS
 62
    7
 10
154.92892449999999
 20
187.01687650000002
 11
154.92892449999999
 21
188.06251549999999
  0
LINE
  8
_0-0_0
  6
CONTINUOUS
 62
    7
 10
139.92891650000001
 20
182.55001049999998
 11
139.92891650000001
 21
182.40328249999999
  0
LINE
  8
_0-0_0
  6
CONTINUOUS
 62
    7
 10
139.92891650000001
 20
182.74053950000001
 11
139.92891650000001
 21
182.55001049999998
  0
LINE
  8
_0-0_0
  6
CONTINUOUS
 62
    7
 10
139.92891650000001
 20
182.91555750000001
 11
139.92891650000001
 21
182.74053950000001
  0
LINE
  8
_0-0_0
  6
CONTINUOUS
 62
    7
 10
139.92891650000001
 20
183.0731505
 11
139.92891650000001
 21
182.91555750000001
  0
LINE
  8
_0-0_0
  6
CONTINUOUS
 62
    7
 10
139.92891650000001
 20
183.2115785
 11
139.92891650000001
 21
183.0731505
  0
LINE
  8
_0-0_0
  6
CONTINUOUS
 62
    7
 10
139.92891650000001
 20
183.5745695
 11
139.92891650000001
 21
183.2115785
  0
LINE
  8
_0-0_0
  6
CONTINUOUS
 62
    7
 10
139.92891650000001
 20
183.42512550000001
 11
139.92891650000001
 21
183.32933750000001
  0
LINE
  8
_0-0_0
  6
CONTINUOUS
 62
    7
 10
139.92891650000001
 20
183.49790150000001
 11
139.92891650000001
 21
183.42512550000001
  0
LINE
  8
_0-0_0
  6
CONTINUOUS
 62
    7
 10
139.92891650000001
 20
183.54686750000002
 11
139.92891650000001
 21
183.49790150000001
  0
LINE
  8
_0-0_0
  6
CONTINUOUS
 62
    7
 10
139.92891650000001
 20
183.57148749999999
 11
139.92891650000001
 21
183.54686750000002
  0
LINE
  8
_0-0_0
  6
CONTINUOUS
 62
    7
 10
139.92891650000001
 20
183.5745695
 11
139.92891650000001
 21
183.57148749999999
  0
LINE
  8
_0-0_0
  6
CONTINUOUS
 62
    7
 10
139.92891650000001
 20
179.0776515
 11
139.92891650000001
 21
179.0745695
  0
LINE
  8
_0-0_0
  6
CONTINUOUS
 62
    7
 10
139.92891650000001
 20
179.1022715
 11
139.92891650000001
 21
179.0776515
  0
LINE
  8
_0-0_0
  6
CONTINUOUS
 62
    7
 10
139.92891650000001
 20
179.15123750000001
 11
139.92891650000001
 21
179.1022715
  0
LINE
  8
_0-0_0
  6
CONTINUOUS
 62
    7
 10
139.92891650000001
 20
179.22401450000001
 11
139.92891650000001
 21
179.15123750000001
  0
LINE
  8
_0-0_0
  6
CONTINUOUS
 62
    7
 10
139.92891650000001
 20
179.31980149999998
 11
139.92891650000001
 21
179.0745695
  0
LINE
  8
_0-0_0
  6
CONTINUOUS
 62
    7
 10
139.92891650000001
 20
179.35000550000001
 11
139.92891650000001
 21
179.31980149999998
  0
LINE
  8
_0-0_0
  6
CONTINUOUS
 62
    7
 10
139.92891650000001
 20
179.43756050000002
 11
139.92891650000001
 21
179.35000550000001
  0
LINE
  8
_0-0_0
  6
CONTINUOUS
 62
    7
 10
139.92891650000001
 20
179.5759965
 11
139.92891650000001
 21
179.43756050000002
  0
LINE
  8
_0-0_0
  6
CONTINUOUS
 62
    7
 10
139.92891650000001
 20
179.73358150000001
 11
139.92891650000001
 21
179.5759965
  0
LINE
  8
_0-0_0
  6
CONTINUOUS
 62
    7
 10
139.92891650000001
 20
179.90859950000001
 11
139.92891650000001
 21
179.73358150000001
  0
LINE
  8
_0-0_0
  6
CONTINUOUS
 62
    7
 10
139.92891650000001
 20
180.09913649999999
 11
139.92891650000001
 21
179.90859950000001
  0
LINE
  8
_0-0_0
  6
CONTINUOUS
 62
    7
 10
139.92891650000001
 20
180.30309249999999
 11
139.92891650000001
 21
180.09913649999999
  0
LINE
  8
_0-0_0
  6
CONTINUOUS
 62
    7
 10
139.92891650000001
 20
180.51824149999999
 11
139.92891650000001
 21
180.30309249999999
  0
LINE
  8
_0-0_0
  6
CONTINUOUS
 62
    7
 10
139.92891650000001
 20
180.7422335
 11
139.92891650000001
 21
180.51824149999999
  0
LINE
  8
_0-0_0
  6
CONTINUOUS
 62
    7
 10
139.92891650000001
 20
180.97259550000001
 11
139.92891650000001
 21
180.7422335
  0
LINE
  8
_0-0_0
  6
CONTINUOUS
 62
    7
 10
139.92891650000001
 20
181.2068175
 11
139.92891650000001
 21
180.97259550000001
  0
LINE
  8
_0-0_0
  6
CONTINUOUS
 62
    7
 10
139.92891650000001
 20
181.4423295
 11
139.92891650000001
 21
181.2068175
  0
LINE
  8
_0-0_0
  6
CONTINUOUS
 62
    7
 10
139.92891650000001
 20
181.67654450000001
 11
139.92891650000001
 21
181.4423295
  0
LINE
  8
_0-0_0
  6
CONTINUOUS
 62
    7
 10
139.92891650000001
 20
181.9069135
 11
139.92891650000001
 21
181.67654450000001
  0
LINE
  8
_0-0_0
  6
CONTINUOUS
 62
    7
 10
139.92891650000001
 20
182.1308975
 11
139.92891650000001
 21
181.9069135
  0
LINE
  8
_0-0_0
  6
CONTINUOUS
 62
    7
 10
139.92891650000001
 20
182.34605349999998
 11
139.92891650000001
 21
182.1308975
  0
LINE
  8
_0-0_0
  6
CONTINUOUS
 62
    7
 10
139.92891650000001
 20
182.40328249999999
 11
139.92891650000001
 21
182.34605349999998
  0
LINE
  8
_0-0_0
  6
CONTINUOUS
 62
    7
 10
250.9289095
 20
192.1745755
 11
246.9289095
 21
192.1745755
  0
ARC
  8
_0-0_0
  6
CONTINUOUS
 62
    7
 10
246.9289095
 20
194.4245755
 40
2.25
 50
90.000003000000007
 51
269.99999700000006
  0
LINE
  8
_0-0_0
  6
CONTINUOUS
 62
    7
 10
246.9289095
 20
196.6745755
 11
250.9289095
 21
196.6745755
  0
ARC
  8
_0-0_0
  6
CONTINUOUS
 62
    7
 10
250.9289095
 20
194.4245755
 40
2.25
 50
269.99999700000001
 51
90.000002999999992
  0
ARC
  8
_0-0_0
  6
CONTINUOUS
 62
    7
 10
190.9289095
 20
194.4245755
 40
2.25
 50
90.000003000000007
 51
269.99999700000006
  0
LINE
  8
_0-0_0
  6
CONTINUOUS
 62
    7
 10
190.9289095
 20
196.6745755
 11
194.9289095
 21
196.6745755
  0
ARC
  8
_0-0_0
  6
CONTINUOUS
 62
    7
 10
194.9289095
 20
194.4245755
 40
2.25
 50
269.99999700000001
 51
90.000002999999992
  0
LINE
  8
_0-0_0
  6
CONTINUOUS
 62
    7
 10
194.9289095
 20
192.1745755
 11
190.9289095
 21
192.1745755
  0
LINE
  8
_0-0_0
  6
CONTINUOUS
 62
    7
 10
139.92891650000001
 20
199.15000950000001
 11
139.67891650000001
 21
199.1745755
  0
LINE
  8
_0-0_0
  6
CONTINUOUS
 62
    7
 10
139.92891650000001
 20
198.9460445
 11
139.67891650000001
 21
199.1745755
  0
LINE
  8
_0-0_0
  6
CONTINUOUS
 62
    7
 10
139.92891650000001
 20
199.34054549999999
 11
139.67891650000001
 21
199.39404250000001
  0
LINE
  8
_0-0_0
  6
CONTINUOUS
 62
    7
 10
139.92891650000001
 20
199.15000950000001
 11
139.67891650000001
 21
199.39404250000001
  0
LINE
  8
_0-0_0
  6
CONTINUOUS
 62
    7
 10
139.92891650000001
 20
199.51556350000001
 11
139.67891650000001
 21
199.5973965
  0
LINE
  8
_0-0_0
  6
CONTINUOUS
 62
    7
 10
139.92891650000001
 20
199.34054549999999
 11
139.67891650000001
 21
199.5973965
  0
LINE
  8
_0-0_0
  6
CONTINUOUS
 62
    7
 10
139.92891650000001
 20
199.6731565
 11
139.67891650000001
 21
199.78244050000001
  0
LINE
  8
_0-0_0
  6
CONTINUOUS
 62
    7
 10
139.92891650000001
 20
199.51556350000001
 11
139.67891650000001
 21
199.78244050000001
  0
LINE
  8
_0-0_0
  6
CONTINUOUS
 62
    7
 10
139.92891650000001
 20
199.81158450000001
 11
139.67891650000001
 21
199.9471125
  0
LINE
  8
_0-0_0
  6
CONTINUOUS
 62
    7
 10
139.92891650000001
 20
199.6731565
 11
139.67891650000001
 21
199.9471125
  0
LINE
  8
_0-0_0
  6
CONTINUOUS
 62
    7
 10
139.92891650000001
 20
199.92933650000001
 11
139.67891650000001
 21
200.0896305
  0
LINE
  8
_0-0_0
  6
CONTINUOUS
 62
    7
 10
139.92891650000001
 20
199.81158450000001
 11
139.67891650000001
 21
200.0896305
  0
LINE
  8
_0-0_0
  6
CONTINUOUS
 62
    7
 10
139.92891650000001
 20
200.02513150000001
 11
139.67891650000001
 21
200.20843450000001
  0
LINE
  8
_0-0_0
  6
CONTINUOUS
 62
    7
 10
139.92891650000001
 20
199.92933650000001
 11
139.67891650000001
 21
200.20843450000001
  0
LINE
  8
_0-0_0
  6
CONTINUOUS
 62
    7
 10
139.92891650000001
 20
200.09790050000001
 11
139.67891650000001
 21
200.30221549999999
  0
LINE
  8
_0-0_0
  6
CONTINUOUS
 62
    7
 10
139.92891650000001
 20
200.02513150000001
 11
139.67891650000001
 21
200.30221549999999
  0
LINE
  8
_0-0_0
  6
CONTINUOUS
 62
    7
 10
139.92891650000001
 20
200.14686549999999
 11
139.67891650000001
 21
200.3699335
  0
LINE
  8
_0-0_0
  6
CONTINUOUS
 62
    7
 10
139.92891650000001
 20
200.09790050000001
 11
139.67891650000001
 21
200.3699335
  0
LINE
  8
_0-0_0
  6
CONTINUOUS
 62
    7
 10
139.92891650000001
 20
200.1714935
 11
139.67891650000001
 21
200.41087350000001
  0
LINE
  8
_0-0_0
  6
CONTINUOUS
 62
    7
 10
139.92891650000001
 20
200.14686549999999
 11
139.67891650000001
 21
200.41087350000001
  0
LINE
  8
_0-0_0
  6
CONTINUOUS
 62
    7
 10
139.92891650000001
 20
200.1714935
 11
139.67891650000001
 21
200.4245755
  0
LINE
  8
_0-0_0
  6
CONTINUOUS
 62
    7
 10
139.92891650000001
 20
195.67765750000001
 11
139.67891650000001
 21
195.4245755
  0
LINE
  8
_0-0_0
  6
CONTINUOUS
 62
    7
 10
139.92891650000001
 20
195.7022705
 11
139.67891650000001
 21
195.43826250000001
  0
LINE
  8
_0-0_0
  6
CONTINUOUS
 62
    7
 10
139.92891650000001
 20
195.67765750000001
 11
139.67891650000001
 21
195.43826250000001
  0
LINE
  8
_0-0_0
  6
CONTINUOUS
 62
    7
 10
139.92891650000001
 20
195.75123550000001
 11
139.67891650000001
 21
195.47920250000001
  0
LINE
  8
_0-0_0
  6
CONTINUOUS
 62
    7
 10
139.92891650000001
 20
195.7022705
 11
139.67891650000001
 21
195.47920250000001
  0
LINE
  8
_0-0_0
  6
CONTINUOUS
 62
    7
 10
139.92891650000001
 20
195.82402049999999
 11
139.67891650000001
 21
195.54693549999999
  0
LINE
  8
_0-0_0
  6
CONTINUOUS
 62
    7
 10
139.92891650000001
 20
195.75123550000001
 11
139.67891650000001
 21
195.54693549999999
  0
LINE
  8
_0-0_0
  6
CONTINUOUS
 62
    7
 10
139.92891650000001
 20
195.91979950000001
 11
139.67891650000001
 21
195.64070150000001
  0
LINE
  8
_0-0_0
  6
CONTINUOUS
 62
    7
 10
139.92891650000001
 20
195.82402049999999
 11
139.67891650000001
 21
195.64070150000001
  0
LINE
  8
_0-0_0
  6
CONTINUOUS
 62
    7
 10
139.92891650000001
 20
195.91979950000001
 11
139.79895049999999
 21
195.83595249999999
  0
LINE
  8
_0-0_0
  6
CONTINUOUS
 62
    7
 10
139.92891650000001
 20
196.03756749999999
 11
139.67891650000001
 21
195.75950650000001
  0
LINE
  8
_0-0_0
  6
CONTINUOUS
 62
    7
 10
139.79895049999999
 20
195.83595249999999
 11
139.67891650000001
 21
195.75950650000001
  0
LINE
  8
_0-0_0
  6
CONTINUOUS
 62
    7
 10
139.92891650000001
 20
196.1759945
 11
139.67891650000001
 21
195.90202350000001
  0
LINE
  8
_0-0_0
  6
CONTINUOUS
 62
    7
 10
139.92891650000001
 20
196.03756749999999
 11
139.67891650000001
 21
195.90202350000001
  0
LINE
  8
_0-0_0
  6
CONTINUOUS
 62
    7
 10
139.92891650000001
 20
196.33358749999999
 11
139.67891650000001
 21
196.0667115
  0
LINE
  8
_0-0_0
  6
CONTINUOUS
 62
    7
 10
139.92891650000001
 20
196.1759945
 11
139.67891650000001
 21
196.0667115
  0
LINE
  8
_0-0_0
  6
CONTINUOUS
 62
    7
 10
139.92891650000001
 20
196.50860550000002
 11
139.67891650000001
 21
196.25173950000001
  0
LINE
  8
_0-0_0
  6
CONTINUOUS
 62
    7
 10
139.92891650000001
 20
196.33358749999999
 11
139.67891650000001
 21
196.25173950000001
  0
LINE
  8
_0-0_0
  6
CONTINUOUS
 62
    7
 10
139.92891650000001
 20
196.6991275
 11
139.67891650000001
 21
196.45510849999999
  0
LINE
  8
_0-0_0
  6
CONTINUOUS
 62
    7
 10
139.92891650000001
 20
196.50860550000002
 11
139.67891650000001
 21
196.45510849999999
  0
LINE
  8
_0-0_0
  6
CONTINUOUS
 62
    7
 10
139.92891650000001
 20
196.90309150000002
 11
139.67891650000001
 21
196.6745755
  0
LINE
  8
_0-0_0
  6
CONTINUOUS
 62
    7
 10
139.92891650000001
 20
196.6991275
 11
139.67891650000001
 21
196.6745755
  0
LINE
  8
_0-0_0
  6
CONTINUOUS
 62
    7
 10
139.92891650000001
 20
197.11824050000001
 11
139.67891650000001
 21
196.90772950000002
  0
LINE
  8
_0-0_0
  6
CONTINUOUS
 62
    7
 10
139.92891650000001
 20
196.90309150000002
 11
139.67891650000001
 21
196.90772950000002
  0
LINE
  8
_0-0_0
  6
CONTINUOUS
 62
    7
 10
139.92891650000001
 20
197.34222450000001
 11
139.67891650000001
 21
197.15202350000001
  0
LINE
  8
_0-0_0
  6
CONTINUOUS
 62
    7
 10
139.92891650000001
 20
197.11824050000001
 11
139.67891650000001
 21
197.15202350000001
  0
LINE
  8
_0-0_0
  6
CONTINUOUS
 62
    7
 10
139.92891650000001
 20
197.57260149999999
 11
139.67891650000001
 21
197.4047855
  0
LINE
  8
_0-0_0
  6
CONTINUOUS
 62
    7
 10
139.92891650000001
 20
197.34222450000001
 11
139.67891650000001
 21
197.4047855
  0
LINE
  8
_0-0_0
  6
CONTINUOUS
 62
    7
 10
139.92891650000001
 20
197.80682350000001
 11
139.67891650000001
 21
197.6632535
  0
LINE
  8
_0-0_0
  6
CONTINUOUS
 62
    7
 10
139.92891650000001
 20
197.57260149999999
 11
139.67891650000001
 21
197.6632535
  0
LINE
  8
_0-0_0
  6
CONTINUOUS
 62
    7
 10
139.92891650000001
 20
198.0423275
 11
139.67891650000001
 21
197.9245755
  0
LINE
  8
_0-0_0
  6
CONTINUOUS
 62
    7
 10
139.92891650000001
 20
197.80682350000001
 11
139.67891650000001
 21
197.9245755
  0
LINE
  8
_0-0_0
  6
CONTINUOUS
 62
    7
 10
139.92891650000001
 20
198.27655050000001
 11
139.67891650000001
 21
198.18589750000001
  0
LINE
  8
_0-0_0
  6
CONTINUOUS
 62
    7
 10
139.92891650000001
 20
198.0423275
 11
139.67891650000001
 21
198.18589750000001
  0
LINE
  8
_0-0_0
  6
CONTINUOUS
 62
    7
 10
139.92891650000001
 20
198.5069125
 11
139.67891650000001
 21
198.44435150000001
  0
LINE
  8
_0-0_0
  6
CONTINUOUS
 62
    7
 10
139.92891650000001
 20
198.27655050000001
 11
139.67891650000001
 21
198.44435150000001
  0
LINE
  8
_0-0_0
  6
CONTINUOUS
 62
    7
 10
139.92891650000001
 20
198.7308955
 11
139.67891650000001
 21
198.6971125
  0
LINE
  8
_0-0_0
  6
CONTINUOUS
 62
    7
 10
139.92891650000001
 20
198.5069125
 11
139.67891650000001
 21
198.6971125
  0
LINE
  8
_0-0_0
  6
CONTINUOUS
 62
    7
 10
139.92891650000001
 20
198.9460445
 11
139.67891650000001
 21
198.9414065
  0
LINE
  8
_0-0_0
  6
CONTINUOUS
 62
    7
 10
139.92891650000001
 20
198.7308955
 11
139.67891650000001
 21
198.9414065
  0
LINE
  8
_0-0_0
  6
CONTINUOUS
 62
    7
 10
154.92892449999999
 20
193.5168765
 11
145.22109950000001
 21
193.5168765
  0
LINE
  8
_0-0_0
  6
CONTINUOUS
 62
    7
 10
145.22109950000001
 20
193.5168765
 11
145.16661050000002
 21
193.58682250000001
  0
LINE
  8
_0-0_0
  6
CONTINUOUS
 62
    7
 10
145.16661050000002
 20
193.58682250000001
 11
145.1155095
 21
193.65563950000001
  0
LINE
  8
_0-0_0
  6
CONTINUOUS
 62
    7
 10
145.1155095
 20
193.65563950000001
 11
145.0678715
 21
193.72314449999999
  0
LINE
  8
_0-0_0
  6
CONTINUOUS
 62
    7
 10
145.0678715
 20
193.72314449999999
 11
145.02337650000001
 21
193.78968750000001
  0
LINE
  8
_0-0_0
  6
CONTINUOUS
 62
    7
 10
145.02337650000001
 20
193.78968750000001
 11
144.96864350000001
 21
193.8772275
  0
LINE
  8
_0-0_0
  6
CONTINUOUS
 62
    7
 10
144.96864350000001
 20
193.8772275
 11
144.91914350000002
 21
193.9633335
  0
LINE
  8
_0-0_0
  6
CONTINUOUS
 62
    7
 10
144.91914350000002
 20
193.9633335
 11
144.87466449999999
 21
194.0481715
  0
LINE
  8
_0-0_0
  6
CONTINUOUS
 62
    7
 10
144.87466449999999
 20
194.0481715
 11
144.8276975
 21
194.1484835
  0
LINE
  8
_0-0_0
  6
CONTINUOUS
 62
    7
 10
144.8276975
 20
194.1484835
 11
144.78750650000001
 21
194.24740550000001
  0
LINE
  8
_0-0_0
  6
CONTINUOUS
 62
    7
 10
144.78750650000001
 20
194.24740550000001
 11
144.75383049999999
 21
194.3451685
  0
LINE
  8
_0-0_0
  6
CONTINUOUS
 62
    7
 10
144.75383049999999
 20
194.3451685
 11
144.72654750000001
 21
194.4419705
  0
LINE
  8
_0-0_0
  6
CONTINUOUS
 62
    7
 10
144.72654750000001
 20
194.4419705
 11
144.70550550000002
 21
194.53802450000001
  0
LINE
  8
_0-0_0
  6
CONTINUOUS
 62
    7
 10
144.70550550000002
 20
194.53802450000001
 11
144.68957550000002
 21
194.6418765
  0
LINE
  8
_0-0_0
  6
CONTINUOUS
 62
    7
 10
144.68957550000002
 20
194.6418765
 11
144.68081650000002
 21
194.74530050000001
  0
LINE
  8
_0-0_0
  6
CONTINUOUS
 62
    7
 10
144.68081650000002
 20
194.74530050000001
 11
144.6791685
 21
194.84854150000001
  0
LINE
  8
_0-0_0
  6
CONTINUOUS
 62
    7
 10
144.6791685
 20
194.84854150000001
 11
144.68464650000001
 21
194.95182750000001
  0
LINE
  8
_0-0_0
  6
CONTINUOUS
 62
    7
 10
144.68464650000001
 20
194.95182750000001
 11
144.6972505
 21
195.0554195
  0
LINE
  8
_0-0_0
  6
CONTINUOUS
 62
    7
 10
144.6972505
 20
195.0554195
 11
144.7170715
 21
195.15957650000001
  0
LINE
  8
_0-0_0
  6
CONTINUOUS
 62
    7
 10
144.7170715
 20
195.15957650000001
 11
144.74421649999999
 21
195.26452649999999
  0
LINE
  8
_0-0_0
  6
CONTINUOUS
 62
    7
 10
144.74421649999999
 20
195.26452649999999
 11
144.77886950000001
 21
195.37055950000001
  0
LINE
  8
_0-0_0
  6
CONTINUOUS
 62
    7
 10
144.77886950000001
 20
195.37055950000001
 11
144.82119750000001
 21
195.4779355
  0
LINE
  8
_0-0_0
  6
CONTINUOUS
 62
    7
 10
144.82119750000001
 20
195.4779355
 11
144.8715215
 21
195.58694450000002
  0
LINE
  8
_0-0_0
  6
CONTINUOUS
 62
    7
 10
144.8715215
 20
195.58694450000002
 11
144.91722150000001
 21
195.67460650000001
  0
LINE
  8
_0-0_0
  6
CONTINUOUS
 62
    7
 10
154.92892449999999
 20
192.2322695
 11
145.22109950000001
 21
192.2322695
  0
LINE
  8
_0-0_0
  6
CONTINUOUS
 62
    7
 10
145.22109950000001
 20
192.2322695
 11
145.1267545
 21
191.98564150000001
  0
LINE
  8
_0-0_0
  6
CONTINUOUS
 62
    7
 10
145.1267545
 20
191.98564150000001
 11
145.04281650000001
 21
191.74568149999999
  0
LINE
  8
_0-0_0
  6
CONTINUOUS
 62
    7
 10
145.04281650000001
 20
191.74568149999999
 11
144.96864350000001
 21
191.51156650000001
  0
LINE
  8
_0-0_0
  6
CONTINUOUS
 62
    7
 10
144.96864350000001
 20
191.51156650000001
 11
144.90377850000002
 21
191.28251650000001
  0
LINE
  8
_0-0_0
  6
CONTINUOUS
 62
    7
 10
144.90377850000002
 20
191.28251650000001
 11
144.84773250000001
 21
191.05784550000001
  0
LINE
  8
_0-0_0
  6
CONTINUOUS
 62
    7
 10
144.84773250000001
 20
191.05784550000001
 11
144.80017050000001
 21
190.83686850000001
  0
LINE
  8
_0-0_0
  6
CONTINUOUS
 62
    7
 10
144.80017050000001
 20
190.83686850000001
 11
144.76075750000001
 21
190.61895749999999
  0
LINE
  8
_0-0_0
  6
CONTINUOUS
 62
    7
 10
144.76075750000001
 20
190.61895749999999
 11
144.7292635
 21
190.4035035
  0
LINE
  8
_0-0_0
  6
CONTINUOUS
 62
    7
 10
144.7292635
 20
190.4035035
 11
144.70550550000002
 21
190.18997150000001
  0
LINE
  8
_0-0_0
  6
CONTINUOUS
 62
    7
 10
144.70550550000002
 20
190.18997150000001
 11
144.68957550000002
 21
189.98225350000001
  0
LINE
  8
_0-0_0
  6
CONTINUOUS
 62
    7
 10
144.68957550000002
 20
189.98225350000001
 11
144.68081650000002
 21
189.77540550000001
  0
LINE
  8
_0-0_0
  6
CONTINUOUS
 62
    7
 10
144.68081650000002
 20
189.77540550000001
 11
144.6791685
 21
189.5689395
  0
LINE
  8
_0-0_0
  6
CONTINUOUS
 62
    7
 10
144.6791685
 20
189.5689395
 11
144.68464650000001
 21
189.36235049999999
  0
LINE
  8
_0-0_0
  6
CONTINUOUS
 62
    7
 10
144.68464650000001
 20
189.36235049999999
 11
144.6972505
 21
189.15516650000001
  0
LINE
  8
_0-0_0
  6
CONTINUOUS
 62
    7
 10
144.6972505
 20
189.15516650000001
 11
144.7170715
 21
188.94686849999999
  0
LINE
  8
_0-0_0
  6
CONTINUOUS
 62
    7
 10
144.7170715
 20
188.94686849999999
 11
144.74421649999999
 21
188.7369535
  0
LINE
  8
_0-0_0
  6
CONTINUOUS
 62
    7
 10
144.74421649999999
 20
188.7369535
 11
144.77886950000001
 21
188.52488650000001
  0
LINE
  8
_0-0_0
  6
CONTINUOUS
 62
    7
 10
144.77886950000001
 20
188.52488650000001
 11
144.82119750000001
 21
188.3101345
  0
LINE
  8
_0-0_0
  6
CONTINUOUS
 62
    7
 10
144.82119750000001
 20
188.3101345
 11
144.8715215
 21
188.09213249999999
  0
LINE
  8
_0-0_0
  6
CONTINUOUS
 62
    7
 10
144.8715215
 20
188.09213249999999
 11
144.9257815
 21
187.88584850000001
  0
LINE
  8
_0-0_0
  6
CONTINUOUS
 62
    7
 10
144.9257815
 20
187.88584850000001
 11
144.98748750000001
 21
187.6757355
  0
LINE
  8
_0-0_0
  6
CONTINUOUS
 62
    7
 10
144.98748750000001
 20
187.6757355
 11
145.0570065
 21
187.4612655
  0
LINE
  8
_0-0_0
  6
CONTINUOUS
 62
    7
 10
145.0570065
 20
187.4612655
 11
145.1347045
 21
187.2418515
  0
LINE
  8
_0-0_0
  6
CONTINUOUS
 62
    7
 10
145.1347045
 20
187.2418515
 11
145.22109950000001
 21
187.01687650000002
  0
LINE
  8
_0-0_0
  6
CONTINUOUS
 62
    7
 10
154.92892449999999
 20
187.01687650000002
 11
145.22109950000001
 21
187.01687650000002
  0
ARC
  8
_0-0_0
  6
CONTINUOUS
 62
    7
 10
150.09265150000002
 20
192.8745725
 40
4.9136889999999998
 50
172.48898299999999
 51
187.51101699999998
  0
LINE
  8
_0-0_0
  6
CONTINUOUS
 62
    7
 10
154.92892449999999
 20
185.7322695
 11
145.22109950000001
 21
185.7322695
  0
LINE
  8
_0-0_0
  6
CONTINUOUS
 62
    7
 10
145.22109950000001
 20
183.1245725
 11
145.16661050000002
 21
183.1945115
  0
LINE
  8
_0-0_0
  6
CONTINUOUS
 62
    7
 10
145.16661050000002
 20
183.1945115
 11
145.1155095
 21
183.26333650000001
  0
LINE
  8
_0-0_0
  6
CONTINUOUS
 62
    7
 10
145.1155095
 20
183.26333650000001
 11
145.0678715
 21
183.33084050000002
  0
LINE
  8
_0-0_0
  6
CONTINUOUS
 62
    7
 10
145.0678715
 20
183.33084050000002
 11
145.02337650000001
 21
183.39739250000002
  0
LINE
  8
_0-0_0
  6
CONTINUOUS
 62
    7
 10
145.02337650000001
 20
183.39739250000002
 11
144.96864350000001
 21
183.48492450000001
  0
LINE
  8
_0-0_0
  6
CONTINUOUS
 62
    7
 10
144.96864350000001
 20
183.48492450000001
 11
144.91914350000002
 21
183.57102950000001
  0
LINE
  8
_0-0_0
  6
CONTINUOUS
 62
    7
 10
144.91914350000002
 20
183.57102950000001
 11
144.87466449999999
 21
183.65586050000002
  0
LINE
  8
_0-0_0
  6
CONTINUOUS
 62
    7
 10
144.87466449999999
 20
183.65586050000002
 11
144.8276975
 21
183.7561795
  0
LINE
  8
_0-0_0
  6
CONTINUOUS
 62
    7
 10
144.8276975
 20
183.7561795
 11
144.78750650000001
 21
183.85510249999999
  0
LINE
  8
_0-0_0
  6
CONTINUOUS
 62
    7
 10
144.78750650000001
 20
183.85510249999999
 11
144.75383049999999
 21
183.9528655
  0
LINE
  8
_0-0_0
  6
CONTINUOUS
 62
    7
 10
144.75383049999999
 20
183.9528655
 11
144.72654750000001
 21
184.0496675
  0
LINE
  8
_0-0_0
  6
CONTINUOUS
 62
    7
 10
144.72654750000001
 20
184.0496675
 11
144.70550550000002
 21
184.14572150000001
  0
LINE
  8
_0-0_0
  6
CONTINUOUS
 62
    7
 10
144.70550550000002
 20
184.14572150000001
 11
144.68957550000002
 21
184.2495725
  0
LINE
  8
_0-0_0
  6
CONTINUOUS
 62
    7
 10
144.68957550000002
 20
184.2495725
 11
144.68081650000002
 21
184.35299650000002
  0
LINE
  8
_0-0_0
  6
CONTINUOUS
 62
    7
 10
144.68081650000002
 20
184.35299650000002
 11
144.6791685
 21
184.45623749999999
  0
LINE
  8
_0-0_0
  6
CONTINUOUS
 62
    7
 10
144.6791685
 20
184.45623749999999
 11
144.68464650000001
 21
184.55953249999999
  0
LINE
  8
_0-0_0
  6
CONTINUOUS
 62
    7
 10
144.68464650000001
 20
184.55953249999999
 11
144.6972505
 21
184.66312349999998
  0
LINE
  8
_0-0_0
  6
CONTINUOUS
 62
    7
 10
144.6972505
 20
184.66312349999998
 11
144.7170715
 21
184.76726550000001
  0
LINE
  8
_0-0_0
  6
CONTINUOUS
 62
    7
 10
144.7170715
 20
184.76726550000001
 11
144.74421649999999
 21
184.87222250000002
  0
LINE
  8
_0-0_0
  6
CONTINUOUS
 62
    7
 10
144.74421649999999
 20
184.87222250000002
 11
144.77886950000001
 21
184.97825649999999
  0
LINE
  8
_0-0_0
  6
CONTINUOUS
 62
    7
 10
144.77886950000001
 20
184.97825649999999
 11
144.82119750000001
 21
185.08563950000001
  0
LINE
  8
_0-0_0
  6
CONTINUOUS
 62
    7
 10
144.82119750000001
 20
185.08563950000001
 11
144.8715215
 21
185.19464049999999
  0
LINE
  8
_0-0_0
  6
CONTINUOUS
 62
    7
 10
144.8715215
 20
185.19464049999999
 11
144.9257815
 21
185.29778249999998
  0
LINE
  8
_0-0_0
  6
CONTINUOUS
 62
    7
 10
144.9257815
 20
185.29778249999998
 11
144.98748750000001
 21
185.40283149999999
  0
LINE
  8
_0-0_0
  6
CONTINUOUS
 62
    7
 10
144.98748750000001
 20
185.40283149999999
 11
145.0570065
 21
185.51007049999998
  0
LINE
  8
_0-0_0
  6
CONTINUOUS
 62
    7
 10
145.0570065
 20
185.51007049999998
 11
145.1347045
 21
185.61978149999999
  0
LINE
  8
_0-0_0
  6
CONTINUOUS
 62
    7
 10
145.1347045
 20
185.61978149999999
 11
145.22109950000001
 21
185.7322695
  0
LINE
  8
_0-0_0
  6
CONTINUOUS
 62
    7
 10
154.92892449999999
 20
183.1245725
 11
145.22109950000001
 21
183.1245725
  0
ARC
  8
_0-0_0
  6
CONTINUOUS
 62
    7
 10
150.1028135
 20
186.37368750000002
 40
4.9238749999999998
 50
172.49424200000001
 51
181.535968
  0
ARC
  8
_0-0_0
  6
CONTINUOUS
 62
    7
 10
150.1408385
 20
186.37863149999998
 40
4.9620009999999999
 50
181.58130700000004
 51
187.48478900000003
  0
LINE
  8
_0-0_0
  6
CONTINUOUS
 62
    7
 10
145.17892449999999
 20
183.1245725
 11
145.22109950000001
 21
183.1245725
  0
LINE
  8
_0-0_0
  6
CONTINUOUS
 62
    7
 10
139.92891650000001
 20
182.55001049999998
 11
139.67891650000001
 21
182.5745695
  0
LINE
  8
_0-0_0
  6
CONTINUOUS
 62
    7
 10
139.92891650000001
 20
182.34605349999998
 11
139.67891650000001
 21
182.5745695
  0
LINE
  8
_0-0_0
  6
CONTINUOUS
 62
    7
 10
139.92891650000001
 20
182.74053950000001
 11
139.67891650000001
 21
182.7940365
  0
LINE
  8
_0-0_0
  6
CONTINUOUS
 62
    7
 10
139.92891650000001
 20
182.55001049999998
 11
139.67891650000001
 21
182.7940365
  0
LINE
  8
_0-0_0
  6
CONTINUOUS
 62
    7
 10
139.92891650000001
 20
182.91555750000001
 11
139.67891650000001
 21
182.9973985
  0
LINE
  8
_0-0_0
  6
CONTINUOUS
 62
    7
 10
139.92891650000001
 20
182.74053950000001
 11
139.67891650000001
 21
182.9973985
  0
LINE
  8
_0-0_0
  6
CONTINUOUS
 62
    7
 10
139.92891650000001
 20
183.0731505
 11
139.67891650000001
 21
183.1824335
  0
LINE
  8
_0-0_0
  6
CONTINUOUS
 62
    7
 10
139.92891650000001
 20
182.91555750000001
 11
139.67891650000001
 21
183.1824335
  0
LINE
  8
_0-0_0
  6
CONTINUOUS
 62
    7
 10
139.92891650000001
 20
183.2115785
 11
139.67891650000001
 21
183.3471145
  0
LINE
  8
_0-0_0
  6
CONTINUOUS
 62
    7
 10
139.92891650000001
 20
183.0731505
 11
139.67891650000001
 21
183.3471145
  0
LINE
  8
_0-0_0
  6
CONTINUOUS
 62
    7
 10
139.92891650000001
 20
183.32933750000001
 11
139.67891650000001
 21
183.48963950000001
  0
LINE
  8
_0-0_0
  6
CONTINUOUS
 62
    7
 10
139.92891650000001
 20
183.2115785
 11
139.67891650000001
 21
183.48963950000001
  0
LINE
  8
_0-0_0
  6
CONTINUOUS
 62
    7
 10
139.92891650000001
 20
183.42512550000001
 11
139.67891650000001
 21
183.60843649999998
  0
LINE
  8
_0-0_0
  6
CONTINUOUS
 62
    7
 10
139.92891650000001
 20
183.32933750000001
 11
139.67891650000001
 21
183.60843649999998
  0
LINE
  8
_0-0_0
  6
CONTINUOUS
 62
    7
 10
139.92891650000001
 20
183.49790150000001
 11
139.67891650000001
 21
183.70221650000002
  0
LINE
  8
_0-0_0
  6
CONTINUOUS
 62
    7
 10
139.92891650000001
 20
183.42512550000001
 11
139.67891650000001
 21
183.70221650000002
  0
LINE
  8
_0-0_0
  6
CONTINUOUS
 62
    7
 10
139.92891650000001
 20
183.54686750000002
 11
139.67891650000001
 21
183.76994350000001
  0
LINE
  8
_0-0_0
  6
CONTINUOUS
 62
    7
 10
139.92891650000001
 20
183.49790150000001
 11
139.67891650000001
 21
183.76994350000001
  0
LINE
  8
_0-0_0
  6
CONTINUOUS
 62
    7
 10
139.92891650000001
 20
183.57148749999999
 11
139.67891650000001
 21
183.81087450000001
  0
LINE
  8
_0-0_0
  6
CONTINUOUS
 62
    7
 10
139.92891650000001
 20
183.54686750000002
 11
139.67891650000001
 21
183.81087450000001
  0
LINE
  8
_0-0_0
  6
CONTINUOUS
 62
    7
 10
139.92891650000001
 20
183.57148749999999
 11
139.67891650000001
 21
183.8245695
  0
LINE
  8
_0-0_0
  6
CONTINUOUS
 62
    7
 10
139.92891650000001
 20
179.0776515
 11
139.67891650000001
 21
178.8245695
  0
LINE
  8
_0-0_0
  6
CONTINUOUS
 62
    7
 10
139.92891650000001
 20
179.1022715
 11
139.67891650000001
 21
178.83826450000001
  0
LINE
  8
_0-0_0
  6
CONTINUOUS
 62
    7
 10
139.92891650000001
 20
179.0776515
 11
139.67891650000001
 21
178.83826450000001
  0
LINE
  8
_0-0_0
  6
CONTINUOUS
 62
    7
 10
139.92891650000001
 20
179.15123750000001
 11
139.67891650000001
 21
178.87920350000002
  0
LINE
  8
_0-0_0
  6
CONTINUOUS
 62
    7
 10
139.92891650000001
 20
179.1022715
 11
139.67891650000001
 21
178.87920350000002
  0
LINE
  8
_0-0_0
  6
CONTINUOUS
 62
    7
 10
139.92891650000001
 20
179.22401450000001
 11
139.67891650000001
 21
178.94692950000001
  0
LINE
  8
_0-0_0
  6
CONTINUOUS
 62
    7
 10
139.92891650000001
 20
179.15123750000001
 11
139.67891650000001
 21
178.94692950000001
  0
LINE
  8
_0-0_0
  6
CONTINUOUS
 62
    7
 10
139.92891650000001
 20
179.31980149999998
 11
139.67891650000001
 21
179.04071049999999
  0
LINE
  8
_0-0_0
  6
CONTINUOUS
 62
    7
 10
139.92891650000001
 20
179.22401450000001
 11
139.67891650000001
 21
179.04071049999999
  0
LINE
  8
_0-0_0
  6
CONTINUOUS
 62
    7
 10
139.92891650000001
 20
179.31980149999998
 11
139.79895049999999
 21
179.23595449999999
  0
LINE
  8
_0-0_0
  6
CONTINUOUS
 62
    7
 10
139.92891650000001
 20
179.43756050000002
 11
139.67891650000001
 21
179.15950750000002
  0
LINE
  8
_0-0_0
  6
CONTINUOUS
 62
    7
 10
139.79895049999999
 20
179.23595449999999
 11
139.67891650000001
 21
179.15950750000002
  0
LINE
  8
_0-0_0
  6
CONTINUOUS
 62
    7
 10
139.92891650000001
 20
179.5759965
 11
139.67891650000001
 21
179.3020325
  0
LINE
  8
_0-0_0
  6
CONTINUOUS
 62
    7
 10
139.92891650000001
 20
179.43756050000002
 11
139.67891650000001
 21
179.3020325
  0
LINE
  8
_0-0_0
  6
CONTINUOUS
 62
    7
 10
139.92891650000001
 20
179.73358150000001
 11
139.67891650000001
 21
179.46670549999999
  0
LINE
  8
_0-0_0
  6
CONTINUOUS
 62
    7
 10
139.92891650000001
 20
179.5759965
 11
139.67891650000001
 21
179.46670549999999
  0
LINE
  8
_0-0_0
  6
CONTINUOUS
 62
    7
 10
139.92891650000001
 20
179.90859950000001
 11
139.67891650000001
 21
179.65174050000002
  0
LINE
  8
_0-0_0
  6
CONTINUOUS
 62
    7
 10
139.92891650000001
 20
179.73358150000001
 11
139.67891650000001
 21
179.65174050000002
  0
LINE
  8
_0-0_0
  6
CONTINUOUS
 62
    7
 10
139.92891650000001
 20
180.09913649999999
 11
139.67891650000001
 21
179.85511050000002
  0
LINE
  8
_0-0_0
  6
CONTINUOUS
 62
    7
 10
139.92891650000001
 20
179.90859950000001
 11
139.67891650000001
 21
179.85511050000002
  0
LINE
  8
_0-0_0
  6
CONTINUOUS
 62
    7
 10
139.92891650000001
 20
180.30309249999999
 11
139.67891650000001
 21
180.0745695
  0
LINE
  8
_0-0_0
  6
CONTINUOUS
 62
    7
 10
139.92891650000001
 20
180.09913649999999
 11
139.67891650000001
 21
180.0745695
  0
LINE
  8
_0-0_0
  6
CONTINUOUS
 62
    7
 10
139.92891650000001
 20
180.51824149999999
 11
139.67891650000001
 21
180.30772350000001
  0
LINE
  8
_0-0_0
  6
CONTINUOUS
 62
    7
 10
139.92891650000001
 20
180.30309249999999
 11
139.67891650000001
 21
180.30772350000001
  0
LINE
  8
_0-0_0
  6
CONTINUOUS
 62
    7
 10
139.92891650000001
 20
180.7422335
 11
139.67891650000001
 21
180.5520325
  0
LINE
  8
_0-0_0
  6
CONTINUOUS
 62
    7
 10
139.92891650000001
 20
180.51824149999999
 11
139.67891650000001
 21
180.5520325
  0
LINE
  8
_0-0_0
  6
CONTINUOUS
 62
    7
 10
139.92891650000001
 20
180.97259550000001
 11
139.67891650000001
 21
180.80479450000001
  0
LINE
  8
_0-0_0
  6
CONTINUOUS
 62
    7
 10
139.92891650000001
 20
180.7422335
 11
139.67891650000001
 21
180.80479450000001
  0
LINE
  8
_0-0_0
  6
CONTINUOUS
 62
    7
 10
139.92891650000001
 20
181.2068175
 11
139.67891650000001
 21
181.0632555
  0
LINE
  8
_0-0_0
  6
CONTINUOUS
 62
    7
 10
139.92891650000001
 20
180.97259550000001
 11
139.67891650000001
 21
181.0632555
  0
LINE
  8
_0-0_0
  6
CONTINUOUS
 62
    7
 10
139.92891650000001
 20
181.4423295
 11
139.67891650000001
 21
181.3245695
  0
LINE
  8
_0-0_0
  6
CONTINUOUS
 62
    7
 10
139.92891650000001
 20
181.2068175
 11
139.67891650000001
 21
181.3245695
  0
LINE
  8
_0-0_0
  6
CONTINUOUS
 62
    7
 10
139.92891650000001
 20
181.67654450000001
 11
139.67891650000001
 21
181.5858915
  0
LINE
  8
_0-0_0
  6
CONTINUOUS
 62
    7
 10
139.92891650000001
 20
181.4423295
 11
139.67891650000001
 21
181.5858915
  0
LINE
  8
_0-0_0
  6
CONTINUOUS
 62
    7
 10
139.92891650000001
 20
181.9069135
 11
139.67891650000001
 21
181.84435250000001
  0
LINE
  8
_0-0_0
  6
CONTINUOUS
 62
    7
 10
139.92891650000001
 20
181.67654450000001
 11
139.67891650000001
 21
181.84435250000001
  0
LINE
  8
_0-0_0
  6
CONTINUOUS
 62
    7
 10
139.92891650000001
 20
182.1308975
 11
139.67891650000001
 21
182.0971145
  0
LINE
  8
_0-0_0
  6
CONTINUOUS
 62
    7
 10
139.92891650000001
 20
181.9069135
 11
139.67891650000001
 21
182.0971145
  0
LINE
  8
_0-0_0
  6
CONTINUOUS
 62
    7
 10
139.92891650000001
 20
182.34605349999998
 11
139.67891650000001
 21
182.34141549999998
  0
LINE
  8
_0-0_0
  6
CONTINUOUS
 62
    7
 10
139.92891650000001
 20
182.1308975
 11
139.67891650000001
 21
182.34141549999998
  0
LINE
  8
_0-0_0
  6
CONTINUOUS
 62
    7
 10
130.17891650000001
 20
199.15000950000001
 11
130.42891650000001
 21
199.1745755
  0
LINE
  8
_0-0_0
  6
CONTINUOUS
 62
    7
 10
130.42891650000001
 20
199.1745755
 11
139.67891650000001
 21
199.1745755
  0
LINE
  8
_0-0_0
  6
CONTINUOUS
 62
    7
 10
130.17891650000001
 20
198.9460445
 11
130.42891650000001
 21
199.1745755
  0
LINE
  8
_0-0_0
  6
CONTINUOUS
 62
    7
 10
130.17891650000001
 20
198.9460445
 11
139.92891650000001
 21
198.9460445
  0
LINE
  8
_0-0_0
  6
CONTINUOUS
 62
    7
 10
130.17891650000001
 20
199.34054549999999
 11
130.42891650000001
 21
199.39404250000001
  0
LINE
  8
_0-0_0
  6
CONTINUOUS
 62
    7
 10
130.42891650000001
 20
199.39404250000001
 11
139.67891650000001
 21
199.39404250000001
  0
LINE
  8
_0-0_0
  6
CONTINUOUS
 62
    7
 10
130.17891650000001
 20
199.15000950000001
 11
130.42891650000001
 21
199.39404250000001
  0
LINE
  8
_0-0_0
  6
CONTINUOUS
 62
    7
 10
130.17891650000001
 20
199.51556350000001
 11
130.42891650000001
 21
199.5973965
  0
LINE
  8
_0-0_0
  6
CONTINUOUS
 62
    7
 10
130.42891650000001
 20
199.5973965
 11
139.67891650000001
 21
199.5973965
  0
LINE
  8
_0-0_0
  6
CONTINUOUS
 62
    7
 10
130.17891650000001
 20
199.34054549999999
 11
130.42891650000001
 21
199.5973965
  0
LINE
  8
_0-0_0
  6
CONTINUOUS
 62
    7
 10
130.17891650000001
 20
199.6731565
 11
130.42891650000001
 21
199.78244050000001
  0
LINE
  8
_0-0_0
  6
CONTINUOUS
 62
    7
 10
130.42891650000001
 20
199.78244050000001
 11
139.67891650000001
 21
199.78244050000001
  0
LINE
  8
_0-0_0
  6
CONTINUOUS
 62
    7
 10
130.17891650000001
 20
199.51556350000001
 11
130.42891650000001
 21
199.78244050000001
  0
LINE
  8
_0-0_0
  6
CONTINUOUS
 62
    7
 10
130.17891650000001
 20
199.81158450000001
 11
130.42891650000001
 21
199.9471125
  0
LINE
  8
_0-0_0
  6
CONTINUOUS
 62
    7
 10
130.42891650000001
 20
199.9471125
 11
139.67891650000001
 21
199.9471125
  0
LINE
  8
_0-0_0
  6
CONTINUOUS
 62
    7
 10
130.17891650000001
 20
199.6731565
 11
130.42891650000001
 21
199.9471125
  0
LINE
  8
_0-0_0
  6
CONTINUOUS
 62
    7
 10
130.17891650000001
 20
199.92933650000001
 11
130.42891650000001
 21
200.0896305
  0
LINE
  8
_0-0_0
  6
CONTINUOUS
 62
    7
 10
130.42891650000001
 20
200.0896305
 11
139.67891650000001
 21
200.0896305
  0
LINE
  8
_0-0_0
  6
CONTINUOUS
 62
    7
 10
130.17891650000001
 20
199.81158450000001
 11
130.42891650000001
 21
200.0896305
  0
LINE
  8
_0-0_0
  6
CONTINUOUS
 62
    7
 10
130.17891650000001
 20
200.02513150000001
 11
130.42891650000001
 21
200.20843450000001
  0
LINE
  8
_0-0_0
  6
CONTINUOUS
 62
    7
 10
130.42891650000001
 20
200.20843450000001
 11
139.67891650000001
 21
200.20843450000001
  0
LINE
  8
_0-0_0
  6
CONTINUOUS
 62
    7
 10
130.17891650000001
 20
199.92933650000001
 11
130.42891650000001
 21
200.20843450000001
  0
LINE
  8
_0-0_0
  6
CONTINUOUS
 62
    7
 10
130.17891650000001
 20
200.09790050000001
 11
130.42891650000001
 21
200.30221549999999
  0
LINE
  8
_0-0_0
  6
CONTINUOUS
 62
    7
 10
130.42891650000001
 20
200.30221549999999
 11
139.67891650000001
 21
200.30221549999999
  0
LINE
  8
_0-0_0
  6
CONTINUOUS
 62
    7
 10
130.17891650000001
 20
200.02513150000001
 11
130.42891650000001
 21
200.30221549999999
  0
LINE
  8
_0-0_0
  6
CONTINUOUS
 62
    7
 10
130.17891650000001
 20
200.14686549999999
 11
130.42891650000001
 21
200.3699335
  0
LINE
  8
_0-0_0
  6
CONTINUOUS
 62
    7
 10
130.42891650000001
 20
200.3699335
 11
139.67891650000001
 21
200.3699335
  0
LINE
  8
_0-0_0
  6
CONTINUOUS
 62
    7
 10
130.17891650000001
 20
200.09790050000001
 11
130.42891650000001
 21
200.3699335
  0
LINE
  8
_0-0_0
  6
CONTINUOUS
 62
    7
 10
130.17891650000001
 20
200.1714935
 11
130.42891650000001
 21
200.41087350000001
  0
LINE
  8
_0-0_0
  6
CONTINUOUS
 62
    7
 10
130.42891650000001
 20
200.41087350000001
 11
139.67891650000001
 21
200.41087350000001
  0
LINE
  8
_0-0_0
  6
CONTINUOUS
 62
    7
 10
130.17891650000001
 20
200.14686549999999
 11
130.42891650000001
 21
200.41087350000001
  0
LINE
  8
_0-0_0
  6
CONTINUOUS
 62
    7
 10
130.42891650000001
 20
200.4245755
 11
139.67891650000001
 21
200.4245755
  0
LINE
  8
_0-0_0
  6
CONTINUOUS
 62
    7
 10
130.17891650000001
 20
200.1714935
 11
130.42891650000001
 21
200.4245755
  0
LINE
  8
_0-0_0
  6
CONTINUOUS
 62
    7
 10
130.17891650000001
 20
195.67765750000001
 11
130.42891650000001
 21
195.4245755
  0
LINE
  8
_0-0_0
  6
CONTINUOUS
 62
    7
 10
130.42891650000001
 20
195.4245755
 11
139.67891650000001
 21
195.4245755
  0
LINE
  8
_0-0_0
  6
CONTINUOUS
 62
    7
 10
130.17891650000001
 20
195.7022705
 11
130.42891650000001
 21
195.43826250000001
  0
LINE
  8
_0-0_0
  6
CONTINUOUS
 62
    7
 10
130.42891650000001
 20
195.43826250000001
 11
139.67891650000001
 21
195.43826250000001
  0
LINE
  8
_0-0_0
  6
CONTINUOUS
 62
    7
 10
130.17891650000001
 20
195.67765750000001
 11
130.42891650000001
 21
195.43826250000001
  0
LINE
  8
_0-0_0
  6
CONTINUOUS
 62
    7
 10
130.17891650000001
 20
195.75123550000001
 11
130.42891650000001
 21
195.47920250000001
  0
LINE
  8
_0-0_0
  6
CONTINUOUS
 62
    7
 10
130.42891650000001
 20
195.47920250000001
 11
139.67891650000001
 21
195.47920250000001
  0
LINE
  8
_0-0_0
  6
CONTINUOUS
 62
    7
 10
130.17891650000001
 20
195.7022705
 11
130.42891650000001
 21
195.47920250000001
  0
LINE
  8
_0-0_0
  6
CONTINUOUS
 62
    7
 10
130.17891650000001
 20
195.82402049999999
 11
130.42891650000001
 21
195.54693549999999
  0
LINE
  8
_0-0_0
  6
CONTINUOUS
 62
    7
 10
130.42891650000001
 20
195.54693549999999
 11
139.67891650000001
 21
195.54693549999999
  0
LINE
  8
_0-0_0
  6
CONTINUOUS
 62
    7
 10
130.17891650000001
 20
195.75123550000001
 11
130.42891650000001
 21
195.54693549999999
  0
LINE
  8
_0-0_0
  6
CONTINUOUS
 62
    7
 10
130.17891650000001
 20
195.91979950000001
 11
130.42891650000001
 21
195.64070150000001
  0
LINE
  8
_0-0_0
  6
CONTINUOUS
 62
    7
 10
130.42891650000001
 20
195.64070150000001
 11
139.67891650000001
 21
195.64070150000001
  0
LINE
  8
_0-0_0
  6
CONTINUOUS
 62
    7
 10
130.17891650000001
 20
195.82402049999999
 11
130.42891650000001
 21
195.64070150000001
  0
LINE
  8
_0-0_0
  6
CONTINUOUS
 62
    7
 10
130.42891650000001
 20
195.75950650000001
 11
139.67891650000001
 21
195.75950650000001
  0
LINE
  8
_0-0_0
  6
CONTINUOUS
 62
    7
 10
130.30888350000001
 20
195.83595249999999
 11
130.42891650000001
 21
195.75950650000001
  0
LINE
  8
_0-0_0
  6
CONTINUOUS
 62
    7
 10
130.17891650000001
 20
195.91979950000001
 11
130.30888350000001
 21
195.83595249999999
  0
LINE
  8
_0-0_0
  6
CONTINUOUS
 62
    7
 10
130.17891650000001
 20
196.03756749999999
 11
130.42891650000001
 21
195.75950650000001
  0
LINE
  8
_0-0_0
  6
CONTINUOUS
 62
    7
 10
130.17891650000001
 20
196.1759945
 11
130.42891650000001
 21
195.90202350000001
  0
LINE
  8
_0-0_0
  6
CONTINUOUS
 62
    7
 10
130.42891650000001
 20
195.90202350000001
 11
139.67891650000001
 21
195.90202350000001
  0
LINE
  8
_0-0_0
  6
CONTINUOUS
 62
    7
 10
130.17891650000001
 20
196.03756749999999
 11
130.42891650000001
 21
195.90202350000001
  0
LINE
  8
_0-0_0
  6
CONTINUOUS
 62
    7
 10
130.17891650000001
 20
196.33358749999999
 11
130.42891650000001
 21
196.0667115
  0
LINE
  8
_0-0_0
  6
CONTINUOUS
 62
    7
 10
130.42891650000001
 20
196.0667115
 11
139.67891650000001
 21
196.0667115
  0
LINE
  8
_0-0_0
  6
CONTINUOUS
 62
    7
 10
130.17891650000001
 20
196.1759945
 11
130.42891650000001
 21
196.0667115
  0
LINE
  8
_0-0_0
  6
CONTINUOUS
 62
    7
 10
130.17891650000001
 20
196.50860550000002
 11
130.42891650000001
 21
196.25173950000001
  0
LINE
  8
_0-0_0
  6
CONTINUOUS
 62
    7
 10
130.42891650000001
 20
196.25173950000001
 11
139.67891650000001
 21
196.25173950000001
  0
LINE
  8
_0-0_0
  6
CONTINUOUS
 62
    7
 10
130.17891650000001
 20
196.33358749999999
 11
130.42891650000001
 21
196.25173950000001
  0
LINE
  8
_0-0_0
  6
CONTINUOUS
 62
    7
 10
130.17891650000001
 20
196.6991275
 11
130.42891650000001
 21
196.45510849999999
  0
LINE
  8
_0-0_0
  6
CONTINUOUS
 62
    7
 10
130.42891650000001
 20
196.45510849999999
 11
139.67891650000001
 21
196.45510849999999
  0
LINE
  8
_0-0_0
  6
CONTINUOUS
 62
    7
 10
130.17891650000001
 20
196.50860550000002
 11
130.42891650000001
 21
196.45510849999999
  0
LINE
  8
_0-0_0
  6
CONTINUOUS
 62
    7
 10
130.17891650000001
 20
196.90309150000002
 11
130.42891650000001
 21
196.6745755
  0
LINE
  8
_0-0_0
  6
CONTINUOUS
 62
    7
 10
130.42891650000001
 20
196.6745755
 11
139.67891650000001
 21
196.6745755
  0
LINE
  8
_0-0_0
  6
CONTINUOUS
 62
    7
 10
130.17891650000001
 20
196.90309150000002
 11
139.92891650000001
 21
196.90309150000002
  0
LINE
  8
_0-0_0
  6
CONTINUOUS
 62
    7
 10
130.17891650000001
 20
196.6991275
 11
130.42891650000001
 21
196.6745755
  0
LINE
  8
_0-0_0
  6
CONTINUOUS
 62
    7
 10
130.17891650000001
 20
197.11824050000001
 11
130.42891650000001
 21
196.90772950000002
  0
LINE
  8
_0-0_0
  6
CONTINUOUS
 62
    7
 10
130.42891650000001
 20
196.90772950000002
 11
139.67891650000001
 21
196.90772950000002
  0
LINE
  8
_0-0_0
  6
CONTINUOUS
 62
    7
 10
130.17891650000001
 20
197.11824050000001
 11
139.92891650000001
 21
197.11824050000001
  0
LINE
  8
_0-0_0
  6
CONTINUOUS
 62
    7
 10
130.17891650000001
 20
196.90309150000002
 11
130.42891650000001
 21
196.90772950000002
  0
LINE
  8
_0-0_0
  6
CONTINUOUS
 62
    7
 10
130.17891650000001
 20
197.34222450000001
 11
130.42891650000001
 21
197.15202350000001
  0
LINE
  8
_0-0_0
  6
CONTINUOUS
 62
    7
 10
130.42891650000001
 20
197.15202350000001
 11
139.67891650000001
 21
197.15202350000001
  0
LINE
  8
_0-0_0
  6
CONTINUOUS
 62
    7
 10
130.17891650000001
 20
197.34222450000001
 11
139.92891650000001
 21
197.34222450000001
  0
LINE
  8
_0-0_0
  6
CONTINUOUS
 62
    7
 10
130.17891650000001
 20
197.11824050000001
 11
130.42891650000001
 21
197.15202350000001
  0
LINE
  8
_0-0_0
  6
CONTINUOUS
 62
    7
 10
130.17891650000001
 20
197.57260149999999
 11
130.42891650000001
 21
197.4047855
  0
LINE
  8
_0-0_0
  6
CONTINUOUS
 62
    7
 10
130.42891650000001
 20
197.4047855
 11
139.67891650000001
 21
197.4047855
  0
LINE
  8
_0-0_0
  6
CONTINUOUS
 62
    7
 10
130.17891650000001
 20
197.57260149999999
 11
139.92891650000001
 21
197.57260149999999
  0
LINE
  8
_0-0_0
  6
CONTINUOUS
 62
    7
 10
130.17891650000001
 20
197.34222450000001
 11
130.42891650000001
 21
197.4047855
  0
LINE
  8
_0-0_0
  6
CONTINUOUS
 62
    7
 10
130.17891650000001
 20
197.80682350000001
 11
130.42891650000001
 21
197.6632535
  0
LINE
  8
_0-0_0
  6
CONTINUOUS
 62
    7
 10
130.42891650000001
 20
197.6632535
 11
139.67891650000001
 21
197.6632535
  0
LINE
  8
_0-0_0
  6
CONTINUOUS
 62
    7
 10
130.17891650000001
 20
197.80682350000001
 11
139.92891650000001
 21
197.80682350000001
  0
LINE
  8
_0-0_0
  6
CONTINUOUS
 62
    7
 10
130.17891650000001
 20
197.57260149999999
 11
130.42891650000001
 21
197.6632535
  0
LINE
  8
_0-0_0
  6
CONTINUOUS
 62
    7
 10
130.17891650000001
 20
198.0423275
 11
130.42891650000001
 21
197.9245755
  0
LINE
  8
_0-0_0
  6
CONTINUOUS
 62
    7
 10
130.42891650000001
 20
197.9245755
 11
139.67891650000001
 21
197.9245755
  0
LINE
  8
_0-0_0
  6
CONTINUOUS
 62
    7
 10
130.17891650000001
 20
198.0423275
 11
139.92891650000001
 21
198.0423275
  0
LINE
  8
_0-0_0
  6
CONTINUOUS
 62
    7
 10
130.17891650000001
 20
197.80682350000001
 11
130.42891650000001
 21
197.9245755
  0
LINE
  8
_0-0_0
  6
CONTINUOUS
 62
    7
 10
130.17891650000001
 20
198.27655050000001
 11
130.42891650000001
 21
198.18589750000001
  0
LINE
  8
_0-0_0
  6
CONTINUOUS
 62
    7
 10
130.42891650000001
 20
198.18589750000001
 11
139.67891650000001
 21
198.18589750000001
  0
LINE
  8
_0-0_0
  6
CONTINUOUS
 62
    7
 10
130.17891650000001
 20
198.27655050000001
 11
139.92891650000001
 21
198.27655050000001
  0
LINE
  8
_0-0_0
  6
CONTINUOUS
 62
    7
 10
130.17891650000001
 20
198.0423275
 11
130.42891650000001
 21
198.18589750000001
  0
LINE
  8
_0-0_0
  6
CONTINUOUS
 62
    7
 10
130.17891650000001
 20
198.5069125
 11
130.42891650000001
 21
198.44435150000001
  0
LINE
  8
_0-0_0
  6
CONTINUOUS
 62
    7
 10
130.42891650000001
 20
198.44435150000001
 11
139.67891650000001
 21
198.44435150000001
  0
LINE
  8
_0-0_0
  6
CONTINUOUS
 62
    7
 10
130.17891650000001
 20
198.5069125
 11
139.92891650000001
 21
198.5069125
  0
LINE
  8
_0-0_0
  6
CONTINUOUS
 62
    7
 10
130.17891650000001
 20
198.27655050000001
 11
130.42891650000001
 21
198.44435150000001
  0
LINE
  8
_0-0_0
  6
CONTINUOUS
 62
    7
 10
130.17891650000001
 20
198.7308955
 11
130.42891650000001
 21
198.6971125
  0
LINE
  8
_0-0_0
  6
CONTINUOUS
 62
    7
 10
130.42891650000001
 20
198.6971125
 11
139.67891650000001
 21
198.6971125
  0
LINE
  8
_0-0_0
  6
CONTINUOUS
 62
    7
 10
130.17891650000001
 20
198.7308955
 11
139.92891650000001
 21
198.7308955
  0
LINE
  8
_0-0_0
  6
CONTINUOUS
 62
    7
 10
130.17891650000001
 20
198.5069125
 11
130.42891650000001
 21
198.6971125
  0
LINE
  8
_0-0_0
  6
CONTINUOUS
 62
    7
 10
130.17891650000001
 20
198.9460445
 11
130.42891650000001
 21
198.9414065
  0
LINE
  8
_0-0_0
  6
CONTINUOUS
 62
    7
 10
130.42891650000001
 20
198.9414065
 11
139.67891650000001
 21
198.9414065
  0
LINE
  8
_0-0_0
  6
CONTINUOUS
 62
    7
 10
130.17891650000001
 20
198.7308955
 11
130.42891650000001
 21
198.9414065
  0
LINE
  8
_0-0_0
  6
CONTINUOUS
 62
    7
 10
143.92892449999999
 20
194.8745725
 11
143.92892449999999
 21
186.89302050000001
  0
LINE
  8
_0-0_0
  6
CONTINUOUS
 62
    7
 10
143.92892449999999
 20
186.89302050000001
 11
143.92892449999999
 21
184.3745725
  0
LINE
  8
_0-0_0
  6
CONTINUOUS
 62
    7
 10
130.17891650000001
 20
182.55001049999998
 11
130.42891650000001
 21
182.5745695
  0
LINE
  8
_0-0_0
  6
CONTINUOUS
 62
    7
 10
130.42891650000001
 20
182.5745695
 11
139.67891650000001
 21
182.5745695
  0
LINE
  8
_0-0_0
  6
CONTINUOUS
 62
    7
 10
130.17891650000001
 20
182.34605349999998
 11
130.42891650000001
 21
182.5745695
  0
LINE
  8
_0-0_0
  6
CONTINUOUS
 62
    7
 10
130.17891650000001
 20
182.34605349999998
 11
139.92891650000001
 21
182.34605349999998
  0
LINE
  8
_0-0_0
  6
CONTINUOUS
 62
    7
 10
130.17891650000001
 20
182.74053950000001
 11
130.42891650000001
 21
182.7940365
  0
LINE
  8
_0-0_0
  6
CONTINUOUS
 62
    7
 10
130.42891650000001
 20
182.7940365
 11
139.67891650000001
 21
182.7940365
  0
LINE
  8
_0-0_0
  6
CONTINUOUS
 62
    7
 10
130.17891650000001
 20
182.55001049999998
 11
130.42891650000001
 21
182.7940365
  0
LINE
  8
_0-0_0
  6
CONTINUOUS
 62
    7
 10
130.17891650000001
 20
182.91555750000001
 11
130.42891650000001
 21
182.9973985
  0
LINE
  8
_0-0_0
  6
CONTINUOUS
 62
    7
 10
130.42891650000001
 20
182.9973985
 11
139.67891650000001
 21
182.9973985
  0
LINE
  8
_0-0_0
  6
CONTINUOUS
 62
    7
 10
130.17891650000001
 20
182.74053950000001
 11
130.42891650000001
 21
182.9973985
  0
LINE
  8
_0-0_0
  6
CONTINUOUS
 62
    7
 10
130.17891650000001
 20
183.0731505
 11
130.42891650000001
 21
183.1824335
  0
LINE
  8
_0-0_0
  6
CONTINUOUS
 62
    7
 10
130.42891650000001
 20
183.1824335
 11
139.67891650000001
 21
183.1824335
  0
LINE
  8
_0-0_0
  6
CONTINUOUS
 62
    7
 10
130.17891650000001
 20
182.91555750000001
 11
130.42891650000001
 21
183.1824335
  0
LINE
  8
_0-0_0
  6
CONTINUOUS
 62
    7
 10
130.17891650000001
 20
183.2115785
 11
130.42891650000001
 21
183.3471145
  0
LINE
  8
_0-0_0
  6
CONTINUOUS
 62
    7
 10
130.42891650000001
 20
183.3471145
 11
139.67891650000001
 21
183.3471145
  0
LINE
  8
_0-0_0
  6
CONTINUOUS
 62
    7
 10
130.17891650000001
 20
183.0731505
 11
130.42891650000001
 21
183.3471145
  0
LINE
  8
_0-0_0
  6
CONTINUOUS
 62
    7
 10
130.17891650000001
 20
183.32933750000001
 11
130.42891650000001
 21
183.48963950000001
  0
LINE
  8
_0-0_0
  6
CONTINUOUS
 62
    7
 10
130.42891650000001
 20
183.48963950000001
 11
139.67891650000001
 21
183.48963950000001
  0
LINE
  8
_0-0_0
  6
CONTINUOUS
 62
    7
 10
130.17891650000001
 20
183.2115785
 11
130.42891650000001
 21
183.48963950000001
  0
LINE
  8
_0-0_0
  6
CONTINUOUS
 62
    7
 10
130.17891650000001
 20
183.42512550000001
 11
130.42891650000001
 21
183.60843649999998
  0
LINE
  8
_0-0_0
  6
CONTINUOUS
 62
    7
 10
130.42891650000001
 20
183.60843649999998
 11
139.67891650000001
 21
183.60843649999998
  0
LINE
  8
_0-0_0
  6
CONTINUOUS
 62
    7
 10
130.17891650000001
 20
183.32933750000001
 11
130.42891650000001
 21
183.60843649999998
  0
LINE
  8
_0-0_0
  6
CONTINUOUS
 62
    7
 10
130.17891650000001
 20
183.49790150000001
 11
130.42891650000001
 21
183.70221650000002
  0
LINE
  8
_0-0_0
  6
CONTINUOUS
 62
    7
 10
130.42891650000001
 20
183.70221650000002
 11
139.67891650000001
 21
183.70221650000002
  0
LINE
  8
_0-0_0
  6
CONTINUOUS
 62
    7
 10
130.17891650000001
 20
183.42512550000001
 11
130.42891650000001
 21
183.70221650000002
  0
LINE
  8
_0-0_0
  6
CONTINUOUS
 62
    7
 10
130.17891650000001
 20
183.54686750000002
 11
130.42891650000001
 21
183.76994350000001
  0
LINE
  8
_0-0_0
  6
CONTINUOUS
 62
    7
 10
130.42891650000001
 20
183.76994350000001
 11
139.67891650000001
 21
183.76994350000001
  0
LINE
  8
_0-0_0
  6
CONTINUOUS
 62
    7
 10
130.17891650000001
 20
183.49790150000001
 11
130.42891650000001
 21
183.76994350000001
  0
LINE
  8
_0-0_0
  6
CONTINUOUS
 62
    7
 10
130.17891650000001
 20
183.57148749999999
 11
130.42891650000001
 21
183.81087450000001
  0
LINE
  8
_0-0_0
  6
CONTINUOUS
 62
    7
 10
130.42891650000001
 20
183.81087450000001
 11
139.67891650000001
 21
183.81087450000001
  0
LINE
  8
_0-0_0
  6
CONTINUOUS
 62
    7
 10
130.17891650000001
 20
183.54686750000002
 11
130.42891650000001
 21
183.81087450000001
  0
LINE
  8
_0-0_0
  6
CONTINUOUS
 62
    7
 10
130.42891650000001
 20
183.8245695
 11
139.67891650000001
 21
183.8245695
  0
LINE
  8
_0-0_0
  6
CONTINUOUS
 62
    7
 10
130.17891650000001
 20
183.57148749999999
 11
130.42891650000001
 21
183.8245695
  0
LINE
  8
_0-0_0
  6
CONTINUOUS
 62
    7
 10
130.17891650000001
 20
179.0776515
 11
130.42891650000001
 21
178.8245695
  0
LINE
  8
_0-0_0
  6
CONTINUOUS
 62
    7
 10
130.42891650000001
 20
178.8245695
 11
139.67891650000001
 21
178.8245695
  0
LINE
  8
_0-0_0
  6
CONTINUOUS
 62
    7
 10
130.17891650000001
 20
179.1022715
 11
130.42891650000001
 21
178.83826450000001
  0
LINE
  8
_0-0_0
  6
CONTINUOUS
 62
    7
 10
130.42891650000001
 20
178.83826450000001
 11
139.67891650000001
 21
178.83826450000001
  0
LINE
  8
_0-0_0
  6
CONTINUOUS
 62
    7
 10
130.17891650000001
 20
179.0776515
 11
130.42891650000001
 21
178.83826450000001
  0
LINE
  8
_0-0_0
  6
CONTINUOUS
 62
    7
 10
130.17891650000001
 20
179.15123750000001
 11
130.42891650000001
 21
178.87920350000002
  0
LINE
  8
_0-0_0
  6
CONTINUOUS
 62
    7
 10
130.42891650000001
 20
178.87920350000002
 11
139.67891650000001
 21
178.87920350000002
  0
LINE
  8
_0-0_0
  6
CONTINUOUS
 62
    7
 10
130.17891650000001
 20
179.1022715
 11
130.42891650000001
 21
178.87920350000002
  0
LINE
  8
_0-0_0
  6
CONTINUOUS
 62
    7
 10
130.17891650000001
 20
179.22401450000001
 11
130.42891650000001
 21
178.94692950000001
  0
LINE
  8
_0-0_0
  6
CONTINUOUS
 62
    7
 10
130.42891650000001
 20
178.94692950000001
 11
139.67891650000001
 21
178.94692950000001
  0
LINE
  8
_0-0_0
  6
CONTINUOUS
 62
    7
 10
130.17891650000001
 20
179.15123750000001
 11
130.42891650000001
 21
178.94692950000001
  0
LINE
  8
_0-0_0
  6
CONTINUOUS
 62
    7
 10
130.17891650000001
 20
179.31980149999998
 11
130.42891650000001
 21
179.04071049999999
  0
LINE
  8
_0-0_0
  6
CONTINUOUS
 62
    7
 10
130.42891650000001
 20
179.04071049999999
 11
139.67891650000001
 21
179.04071049999999
  0
LINE
  8
_0-0_0
  6
CONTINUOUS
 62
    7
 10
130.17891650000001
 20
179.22401450000001
 11
130.42891650000001
 21
179.04071049999999
  0
LINE
  8
_0-0_0
  6
CONTINUOUS
 62
    7
 10
130.42891650000001
 20
179.15950750000002
 11
139.67891650000001
 21
179.15950750000002
  0
LINE
  8
_0-0_0
  6
CONTINUOUS
 62
    7
 10
130.30888350000001
 20
179.23595449999999
 11
130.42891650000001
 21
179.15950750000002
  0
LINE
  8
_0-0_0
  6
CONTINUOUS
 62
    7
 10
130.17891650000001
 20
179.31980149999998
 11
130.30888350000001
 21
179.23595449999999
  0
LINE
  8
_0-0_0
  6
CONTINUOUS
 62
    7
 10
130.17891650000001
 20
179.43756050000002
 11
130.42891650000001
 21
179.15950750000002
  0
LINE
  8
_0-0_0
  6
CONTINUOUS
 62
    7
 10
130.17891650000001
 20
179.5759965
 11
130.42891650000001
 21
179.3020325
  0
LINE
  8
_0-0_0
  6
CONTINUOUS
 62
    7
 10
130.42891650000001
 20
179.3020325
 11
139.67891650000001
 21
179.3020325
  0
LINE
  8
_0-0_0
  6
CONTINUOUS
 62
    7
 10
130.17891650000001
 20
179.43756050000002
 11
130.42891650000001
 21
179.3020325
  0
LINE
  8
_0-0_0
  6
CONTINUOUS
 62
    7
 10
130.17891650000001
 20
179.73358150000001
 11
130.42891650000001
 21
179.46670549999999
  0
LINE
  8
_0-0_0
  6
CONTINUOUS
 62
    7
 10
130.42891650000001
 20
179.46670549999999
 11
139.67891650000001
 21
179.46670549999999
  0
LINE
  8
_0-0_0
  6
CONTINUOUS
 62
    7
 10
130.17891650000001
 20
179.5759965
 11
130.42891650000001
 21
179.46670549999999
  0
LINE
  8
_0-0_0
  6
CONTINUOUS
 62
    7
 10
130.17891650000001
 20
179.90859950000001
 11
130.42891650000001
 21
179.65174050000002
  0
LINE
  8
_0-0_0
  6
CONTINUOUS
 62
    7
 10
130.42891650000001
 20
179.65174050000002
 11
139.67891650000001
 21
179.65174050000002
  0
LINE
  8
_0-0_0
  6
CONTINUOUS
 62
    7
 10
130.17891650000001
 20
179.73358150000001
 11
130.42891650000001
 21
179.65174050000002
  0
LINE
  8
_0-0_0
  6
CONTINUOUS
 62
    7
 10
130.17891650000001
 20
180.09913649999999
 11
130.42891650000001
 21
179.85511050000002
  0
LINE
  8
_0-0_0
  6
CONTINUOUS
 62
    7
 10
130.42891650000001
 20
179.85511050000002
 11
139.67891650000001
 21
179.85511050000002
  0
LINE
  8
_0-0_0
  6
CONTINUOUS
 62
    7
 10
130.17891650000001
 20
179.90859950000001
 11
130.42891650000001
 21
179.85511050000002
  0
LINE
  8
_0-0_0
  6
CONTINUOUS
 62
    7
 10
130.17891650000001
 20
180.30309249999999
 11
130.42891650000001
 21
180.0745695
  0
LINE
  8
_0-0_0
  6
CONTINUOUS
 62
    7
 10
130.42891650000001
 20
180.0745695
 11
139.67891650000001
 21
180.0745695
  0
LINE
  8
_0-0_0
  6
CONTINUOUS
 62
    7
 10
130.17891650000001
 20
180.30309249999999
 11
139.92891650000001
 21
180.30309249999999
  0
LINE
  8
_0-0_0
  6
CONTINUOUS
 62
    7
 10
130.17891650000001
 20
180.09913649999999
 11
130.42891650000001
 21
180.0745695
  0
LINE
  8
_0-0_0
  6
CONTINUOUS
 62
    7
 10
130.17891650000001
 20
180.51824149999999
 11
130.42891650000001
 21
180.30772350000001
  0
LINE
  8
_0-0_0
  6
CONTINUOUS
 62
    7
 10
130.42891650000001
 20
180.30772350000001
 11
139.67891650000001
 21
180.30772350000001
  0
LINE
  8
_0-0_0
  6
CONTINUOUS
 62
    7
 10
130.17891650000001
 20
180.51824149999999
 11
139.92891650000001
 21
180.51824149999999
  0
LINE
  8
_0-0_0
  6
CONTINUOUS
 62
    7
 10
130.17891650000001
 20
180.30309249999999
 11
130.42891650000001
 21
180.30772350000001
  0
LINE
  8
_0-0_0
  6
CONTINUOUS
 62
    7
 10
130.17891650000001
 20
180.7422335
 11
130.42891650000001
 21
180.5520325
  0
LINE
  8
_0-0_0
  6
CONTINUOUS
 62
    7
 10
130.42891650000001
 20
180.5520325
 11
139.67891650000001
 21
180.5520325
  0
LINE
  8
_0-0_0
  6
CONTINUOUS
 62
    7
 10
130.17891650000001
 20
180.7422335
 11
139.92891650000001
 21
180.7422335
  0
LINE
  8
_0-0_0
  6
CONTINUOUS
 62
    7
 10
130.17891650000001
 20
180.51824149999999
 11
130.42891650000001
 21
180.5520325
  0
LINE
  8
_0-0_0
  6
CONTINUOUS
 62
    7
 10
130.17891650000001
 20
180.97259550000001
 11
130.42891650000001
 21
180.80479450000001
  0
LINE
  8
_0-0_0
  6
CONTINUOUS
 62
    7
 10
130.42891650000001
 20
180.80479450000001
 11
139.67891650000001
 21
180.80479450000001
  0
LINE
  8
_0-0_0
  6
CONTINUOUS
 62
    7
 10
130.17891650000001
 20
180.97259550000001
 11
139.92891650000001
 21
180.97259550000001
  0
LINE
  8
_0-0_0
  6
CONTINUOUS
 62
    7
 10
130.17891650000001
 20
180.7422335
 11
130.42891650000001
 21
180.80479450000001
  0
LINE
  8
_0-0_0
  6
CONTINUOUS
 62
    7
 10
130.17891650000001
 20
181.2068175
 11
130.42891650000001
 21
181.0632555
  0
LINE
  8
_0-0_0
  6
CONTINUOUS
 62
    7
 10
130.42891650000001
 20
181.0632555
 11
139.67891650000001
 21
181.0632555
  0
LINE
  8
_0-0_0
  6
CONTINUOUS
 62
    7
 10
130.17891650000001
 20
181.2068175
 11
139.92891650000001
 21
181.2068175
  0
LINE
  8
_0-0_0
  6
CONTINUOUS
 62
    7
 10
130.17891650000001
 20
180.97259550000001
 11
130.42891650000001
 21
181.0632555
  0
LINE
  8
_0-0_0
  6
CONTINUOUS
 62
    7
 10
130.17891650000001
 20
181.4423295
 11
130.42891650000001
 21
181.3245695
  0
LINE
  8
_0-0_0
  6
CONTINUOUS
 62
    7
 10
130.42891650000001
 20
181.3245695
 11
139.67891650000001
 21
181.3245695
  0
LINE
  8
_0-0_0
  6
CONTINUOUS
 62
    7
 10
130.17891650000001
 20
181.4423295
 11
139.92891650000001
 21
181.4423295
  0
LINE
  8
_0-0_0
  6
CONTINUOUS
 62
    7
 10
130.17891650000001
 20
181.2068175
 11
130.42891650000001
 21
181.3245695
  0
LINE
  8
_0-0_0
  6
CONTINUOUS
 62
    7
 10
130.17891650000001
 20
181.67654450000001
 11
130.42891650000001
 21
181.5858915
  0
LINE
  8
_0-0_0
  6
CONTINUOUS
 62
    7
 10
130.42891650000001
 20
181.5858915
 11
139.67891650000001
 21
181.5858915
  0
LINE
  8
_0-0_0
  6
CONTINUOUS
 62
    7
 10
130.17891650000001
 20
181.67654450000001
 11
139.92891650000001
 21
181.67654450000001
  0
LINE
  8
_0-0_0
  6
CONTINUOUS
 62
    7
 10
130.17891650000001
 20
181.4423295
 11
130.42891650000001
 21
181.5858915
  0
LINE
  8
_0-0_0
  6
CONTINUOUS
 62
    7
 10
130.17891650000001
 20
181.9069135
 11
130.42891650000001
 21
181.84435250000001
  0
LINE
  8
_0-0_0
  6
CONTINUOUS
 62
    7
 10
130.42891650000001
 20
181.84435250000001
 11
139.67891650000001
 21
181.84435250000001
  0
LINE
  8
_0-0_0
  6
CONTINUOUS
 62
    7
 10
130.17891650000001
 20
181.9069135
 11
139.92891650000001
 21
181.9069135
  0
LINE
  8
_0-0_0
  6
CONTINUOUS
 62
    7
 10
130.17891650000001
 20
181.67654450000001
 11
130.42891650000001
 21
181.84435250000001
  0
LINE
  8
_0-0_0
  6
CONTINUOUS
 62
    7
 10
130.17891650000001
 20
182.1308975
 11
130.42891650000001
 21
182.0971145
  0
LINE
  8
_0-0_0
  6
CONTINUOUS
 62
    7
 10
130.42891650000001
 20
182.0971145
 11
139.67891650000001
 21
182.0971145
  0
LINE
  8
_0-0_0
  6
CONTINUOUS
 62
    7
 10
130.17891650000001
 20
182.1308975
 11
139.92891650000001
 21
182.1308975
  0
LINE
  8
_0-0_0
  6
CONTINUOUS
 62
    7
 10
130.17891650000001
 20
181.9069135
 11
130.42891650000001
 21
182.0971145
  0
LINE
  8
_0-0_0
  6
CONTINUOUS
 62
    7
 10
130.17891650000001
 20
182.34605349999998
 11
130.42891650000001
 21
182.34141549999998
  0
LINE
  8
_0-0_0
  6
CONTINUOUS
 62
    7
 10
130.42891650000001
 20
182.34141549999998
 11
139.67891650000001
 21
182.34141549999998
  0
LINE
  8
_0-0_0
  6
CONTINUOUS
 62
    7
 10
130.17891650000001
 20
182.1308975
 11
130.42891650000001
 21
182.34141549999998
  0
LINE
  8
_0-0_0
  6
CONTINUOUS
 62
    7
 10
129.92891650000001
 20
199.9245755
 11
129.92891650000001
 21
196.16940249999999
  0
LINE
  8
_0-0_0
  6
CONTINUOUS
 62
    7
 10
129.92891650000001
 20
196.16940249999999
 11
129.92891650000001
 21
195.9245755
  0
LINE
  8
_0-0_0
  6
CONTINUOUS
 62
    7
 10
129.92891650000001
 20
183.3245695
 11
129.92891650000001
 21
179.56940450000002
  0
LINE
  8
_0-0_0
  6
CONTINUOUS
 62
    7
 10
129.92891650000001
 20
179.56940450000002
 11
129.92891650000001
 21
179.3245695
  0
LINE
  8
_0-0_0
  6
CONTINUOUS
 62
    7
 10
143.52891550000001
 20
194.6245725
 11
143.52891550000001
 21
192.1245725
  0
LINE
  8
_0-0_0
  6
CONTINUOUS
 62
    7
 10
143.52891550000001
 20
192.1245725
 11
143.52891550000001
 21
184.6245725
  0
LINE
  8
_0-0_0
  6
CONTINUOUS
 62
    7
 10
142.72891250000001
 20
194.1626895
 11
142.72891250000001
 21
191.8936305
  0
LINE
  8
_0-0_0
  6
CONTINUOUS
 62
    7
 10
142.72891250000001
 20
191.8936305
 11
142.72891250000001
 21
185.08644850000002
  0
LINE
  8
_0-0_0
  6
CONTINUOUS
 62
    7
 10
84.728912500000007
 20
193.6245725
 11
84.728912500000007
 21
193.62322950000001
  0
LINE
  8
_0-0_0
  6
CONTINUOUS
 62
    7
 10
84.728912500000007
 20
193.62322950000001
 11
84.728912500000007
 21
185.6245725
  0
LINE
  8
_0-0_0
  6
CONTINUOUS
 62
    7
 10
165.92892449999999
 20
200.1745755
 11
139.92891650000001
 21
200.1745755
  0
LINE
  8
_0-0_0
  6
CONTINUOUS
 62
    7
 10
165.92892449999999
 20
195.6745755
 11
139.92891650000001
 21
195.6745755
  0
LINE
  8
_0-0_0
  6
CONTINUOUS
 62
    7
 10
144.72891250000001
 20
183.5745695
 11
139.92891650000001
 21
183.5745695
  0
LINE
  8
_0-0_0
  6
CONTINUOUS
 62
    7
 10
160.17889450000001
 20
179.0745695
 11
139.92891650000001
 21
179.0745695
  0
LINE
  8
_0-0_0
  6
CONTINUOUS
 62
    7
 10
139.92891650000001
 20
200.1745755
 11
139.67891650000001
 21
200.4245755
  0
LINE
  8
_0-0_0
  6
CONTINUOUS
 62
    7
 10
139.92891650000001
 20
195.6745755
 11
139.67891650000001
 21
195.4245755
  0
LINE
  8
_0-0_0
  6
CONTINUOUS
 62
    7
 10
139.92891650000001
 20
183.5745695
 11
139.67891650000001
 21
183.8245695
  0
LINE
  8
_0-0_0
  6
CONTINUOUS
 62
    7
 10
139.92891650000001
 20
179.0745695
 11
139.67891650000001
 21
178.8245695
  0
LINE
  8
_0-0_0
  6
CONTINUOUS
 62
    7
 10
143.92892449999999
 20
194.8745725
 11
144.72891250000001
 21
195.67456050000001
  0
LINE
  8
_0-0_0
  6
CONTINUOUS
 62
    7
 10
143.92892449999999
 20
184.3745725
 11
145.17892449999999
 21
183.1245725
  0
LINE
  8
_0-0_0
  6
CONTINUOUS
 62
    7
 10
129.92891650000001
 20
199.9245755
 11
130.4287645
 21
200.4244075
  0
LINE
  8
_0-0_0
  6
CONTINUOUS
 62
    7
 10
129.92891650000001
 20
195.9245755
 11
130.4287645
 21
195.42472850000001
  0
LINE
  8
_0-0_0
  6
CONTINUOUS
 62
    7
 10
129.92891650000001
 20
183.3245695
 11
130.4287645
 21
183.82441649999998
  0
LINE
  8
_0-0_0
  6
CONTINUOUS
 62
    7
 10
129.92891650000001
 20
179.3245695
 11
130.4287645
 21
178.82472250000001
  0
LINE
  8
_0-0_0
  6
CONTINUOUS
 62
    7
 10
143.92892449999999
 20
194.6245725
 11
143.52891550000001
 21
194.6245725
  0
LINE
  8
_0-0_0
  6
CONTINUOUS
 62
    7
 10
143.92892449999999
 20
184.6245725
 11
143.52891550000001
 21
184.6245725
  0
LINE
  8
_0-0_0
  6
CONTINUOUS
 62
    7
 10
142.72891250000001
 20
194.1626895
 11
143.52891550000001
 21
194.6245725
  0
LINE
  8
_0-0_0
  6
CONTINUOUS
 62
    7
 10
142.72891250000001
 20
185.08644850000002
 11
143.52891550000001
 21
184.6245725
  0
LINE
  8
_0-0_0
  6
CONTINUOUS
 62
    7
 10
142.72891250000001
 20
193.6245725
 11
84.728912500000007
 21
193.6245725
  0
LINE
  8
_0-0_0
  6
CONTINUOUS
 62
    7
 10
142.72891250000001
 20
185.6245725
 11
84.728912500000007
 21
185.6245725
  0
LINE
  8
_0-0_0
  6
CONTINUOUS
 62
    7
 10
150.42892449999999
 20
218.5246425
 11
152.88369750000001
 21
218.5246425
  0
LINE
  8
_0-0_0
  6
CONTINUOUS
 62
    7
 10
150.42892449999999
 20
205.3246455
 11
150.42892449999999
 21
218.5246425
  0
LINE
  8
_0-0_0
  6
CONTINUOUS
 62
    7
 10
403.42892449999999
 20
205.3246455
 11
403.42892449999999
 21
218.5246425
  0
LINE
  8
_0-0_0
  6
CONTINUOUS
 62
    7
 10
400.9741515
 20
218.5246425
 11
403.42892449999999
 21
218.5246425
  0
ARC
  8
_0-0_0
  6
CONTINUOUS
 62
    7
 10
394.42892449999999
 20
223.12464850000001
 40
8
 50
215.099627
 51
324.90037799999999
  0
LINE
  8
_0-0_0
  6
CONTINUOUS
 62
    7
 10
165.9741515
 20
218.5246425
 11
387.88369749999998
 21
218.5246425
  0
ARC
  8
_0-0_0
  6
CONTINUOUS
 62
    7
 10
159.42892449999999
 20
223.12464850000001
 40
8
 50
215.099627
 51
324.90037799999999
  0
LINE
  8
_0-0_0
  6
CONTINUOUS
 62
    7
 10
152.88369750000001
 20
218.5246425
 11
152.79470850000001
 21
218.6539305
  0
LINE
  8
_0-0_0
  6
CONTINUOUS
 62
    7
 10
165.9741515
 20
218.5246425
 11
166.06312550000001
 21
218.6539305
  0
LINE
  8
_0-0_0
  6
CONTINUOUS
 62
    7
 10
166.15626550000002
 20
218.79534950000001
 11
166.06312550000001
 21
218.6539305
  0
LINE
  8
_0-0_0
  6
CONTINUOUS
 62
    7
 10
166.15626550000002
 20
218.79534950000001
 11
166.2377315
 21
218.92465150000001
  0
ARC
  8
_0-0_0
  6
CONTINUOUS
 62
    7
 10
159.42892449999999
 20
223.12464850000001
 40
8
 50
328.33175599999993
 51
334.05550899999992
  0
LINE
  8
_0-0_0
  6
CONTINUOUS
 62
    7
 10
166.62266550000001
 20
219.62464850000001
 11
166.6841435
 21
219.75393650000001
  0
LINE
  8
_0-0_0
  6
CONTINUOUS
 62
    7
 10
166.74818450000001
 20
219.89535549999999
 11
166.6841435
 21
219.75393650000001
  0
LINE
  8
_0-0_0
  6
CONTINUOUS
 62
    7
 10
166.74818450000001
 20
219.89535549999999
 11
166.8038785
 21
220.0246425
  0
ARC
  8
_0-0_0
  6
CONTINUOUS
 62
    7
 10
159.42892449999999
 20
223.12464850000001
 40
8
 50
337.20097500000003
 51
342.54240199999998
  0
LINE
  8
_0-0_0
  6
CONTINUOUS
 62
    7
 10
167.06042450000001
 20
220.72463949999999
 11
167.0998845
 21
220.85394250000002
  0
LINE
  8
_0-0_0
  6
CONTINUOUS
 62
    7
 10
167.14035050000001
 20
220.9953615
 11
167.0998845
 21
220.85394250000002
  0
LINE
  8
_0-0_0
  6
CONTINUOUS
 62
    7
 10
167.14035050000001
 20
220.9953615
 11
167.1748815
 21
221.12464850000001
  0
ARC
  8
_0-0_0
  6
CONTINUOUS
 62
    7
 10
159.42892449999999
 20
223.12464850000001
 40
8
 50
345.52249499999999
 51
350.64797900000002
  0
LINE
  8
_0-0_0
  6
CONTINUOUS
 62
    7
 10
167.3225865
 20
221.8246455
 11
167.34278850000001
 21
221.95393350000001
  0
LINE
  8
_0-0_0
  6
CONTINUOUS
 62
    7
 10
167.3624265
 20
222.09535249999999
 11
167.34278850000001
 21
221.95393350000001
  0
LINE
  8
_0-0_0
  6
CONTINUOUS
 62
    7
 10
167.3624265
 20
222.09535249999999
 11
167.3781285
 21
222.22463949999999
  0
ARC
  8
_0-0_0
  6
CONTINUOUS
 62
    7
 10
159.42892449999999
 20
223.12464850000001
 40
8
 50
353.54056400000002
 51
358.56744600000002
  0
LINE
  8
_0-0_0
  6
CONTINUOUS
 62
    7
 10
167.4264225
 20
222.92465150000001
 11
167.42860450000001
 21
223.05392449999999
  0
LINE
  8
_0-0_0
  6
CONTINUOUS
 62
    7
 10
167.42860450000001
 20
223.05392449999999
 11
167.42892449999999
 21
223.12464850000001
  0
LINE
  8
_0-0_0
  6
CONTINUOUS
 62
    7
 10
151.42922950000002
 20
223.05392449999999
 11
151.42892449999999
 21
223.12464850000001
  0
LINE
  8
_0-0_0
  6
CONTINUOUS
 62
    7
 10
151.43142750000001
 20
222.92465150000001
 11
151.42922950000002
 21
223.05392449999999
  0
ARC
  8
_0-0_0
  6
CONTINUOUS
 62
    7
 10
159.42892449999999
 20
223.12464850000001
 40
8
 50
181.432545
 51
186.45945499999999
  0
LINE
  8
_0-0_0
  6
CONTINUOUS
 62
    7
 10
151.4954075
 20
222.09535249999999
 11
151.47970549999999
 21
222.22463949999999
  0
LINE
  8
_0-0_0
  6
CONTINUOUS
 62
    7
 10
151.4954075
 20
222.09535249999999
 11
151.51504550000001
 21
221.95393350000001
  0
LINE
  8
_0-0_0
  6
CONTINUOUS
 62
    7
 10
151.5352475
 20
221.8246455
 11
151.51504550000001
 21
221.95393350000001
  0
ARC
  8
_0-0_0
  6
CONTINUOUS
 62
    7
 10
159.42892449999999
 20
223.12464850000001
 40
8
 50
189.35203999999999
 51
194.47751
  0
LINE
  8
_0-0_0
  6
CONTINUOUS
 62
    7
 10
151.7174985
 20
220.9953615
 11
151.6829525
 21
221.12464850000001
  0
LINE
  8
_0-0_0
  6
CONTINUOUS
 62
    7
 10
151.7174985
 20
220.9953615
 11
151.7579345
 21
220.85394250000002
  0
LINE
  8
_0-0_0
  6
CONTINUOUS
 62
    7
 10
151.7973935
 20
220.72463949999999
 11
151.7579345
 21
220.85394250000002
  0
ARC
  8
_0-0_0
  6
CONTINUOUS
 62
    7
 10
159.42892449999999
 20
223.12464850000001
 40
8
 50
197.45760300000001
 51
202.79902999999999
  0
LINE
  8
_0-0_0
  6
CONTINUOUS
 62
    7
 10
152.10964950000002
 20
219.89535549999999
 11
152.0539555
 21
220.0246425
  0
LINE
  8
_0-0_0
  6
CONTINUOUS
 62
    7
 10
152.10964950000002
 20
219.89535549999999
 11
152.17369049999999
 21
219.75393650000001
  0
LINE
  8
_0-0_0
  6
CONTINUOUS
 62
    7
 10
152.23516850000001
 20
219.62464850000001
 11
152.17369049999999
 21
219.75393650000001
  0
ARC
  8
_0-0_0
  6
CONTINUOUS
 62
    7
 10
159.42892449999999
 20
223.12464850000001
 40
8
 50
205.94448199999999
 51
211.66823500000001
  0
LINE
  8
_0-0_0
  6
CONTINUOUS
 62
    7
 10
152.70156850000001
 20
218.79534950000001
 11
152.6201015
 21
218.92465150000001
  0
LINE
  8
_0-0_0
  6
CONTINUOUS
 62
    7
 10
152.70156850000001
 20
218.79534950000001
 11
152.79470850000001
 21
218.6539305
  0
LINE
  8
_0-0_0
  6
CONTINUOUS
 62
    7
 10
387.88369749999998
 20
218.5246425
 11
387.79470850000001
 21
218.6539305
  0
LINE
  8
_0-0_0
  6
CONTINUOUS
 62
    7
 10
386.42922950000002
 20
223.05392449999999
 11
386.42892449999999
 21
223.12464850000001
  0
LINE
  8
_0-0_0
  6
CONTINUOUS
 62
    7
 10
386.43142749999998
 20
222.92465150000001
 11
386.42922950000002
 21
223.05392449999999
  0
ARC
  8
_0-0_0
  6
CONTINUOUS
 62
    7
 10
394.42892449999999
 20
223.12464850000001
 40
8
 50
181.432545
 51
186.45945499999999
  0
LINE
  8
_0-0_0
  6
CONTINUOUS
 62
    7
 10
386.49542250000002
 20
222.09535249999999
 11
386.47970550000002
 21
222.22463949999999
  0
LINE
  8
_0-0_0
  6
CONTINUOUS
 62
    7
 10
386.49542250000002
 20
222.09535249999999
 11
386.51504549999999
 21
221.95393350000001
  0
LINE
  8
_0-0_0
  6
CONTINUOUS
 62
    7
 10
386.53524750000003
 20
221.8246455
 11
386.51504549999999
 21
221.95393350000001
  0
ARC
  8
_0-0_0
  6
CONTINUOUS
 62
    7
 10
394.42892449999999
 20
223.12464850000001
 40
8
 50
189.35203999999999
 51
194.47751
  0
LINE
  8
_0-0_0
  6
CONTINUOUS
 62
    7
 10
386.71749850000003
 20
220.9953615
 11
386.6829525
 21
221.12464850000001
  0
LINE
  8
_0-0_0
  6
CONTINUOUS
 62
    7
 10
386.71749850000003
 20
220.9953615
 11
386.75793450000003
 21
220.85394250000002
  0
LINE
  8
_0-0_0
  6
CONTINUOUS
 62
    7
 10
386.7973935
 20
220.72463949999999
 11
386.75793450000003
 21
220.85394250000002
  0
ARC
  8
_0-0_0
  6
CONTINUOUS
 62
    7
 10
394.42892449999999
 20
223.12464850000001
 40
8
 50
197.45760300000001
 51
202.79902999999999
  0
LINE
  8
_0-0_0
  6
CONTINUOUS
 62
    7
 10
387.10964949999999
 20
219.89535549999999
 11
387.05395550000003
 21
220.0246425
  0
LINE
  8
_0-0_0
  6
CONTINUOUS
 62
    7
 10
387.10964949999999
 20
219.89535549999999
 11
387.1736755
 21
219.75393650000001
  0
LINE
  8
_0-0_0
  6
CONTINUOUS
 62
    7
 10
387.23516849999999
 20
219.62464850000001
 11
387.1736755
 21
219.75393650000001
  0
ARC
  8
_0-0_0
  6
CONTINUOUS
 62
    7
 10
394.42892449999999
 20
223.12464850000001
 40
8
 50
205.94448199999999
 51
211.66823500000001
  0
LINE
  8
_0-0_0
  6
CONTINUOUS
 62
    7
 10
387.70156850000001
 20
218.79534950000001
 11
387.62008650000001
 21
218.92465150000001
  0
LINE
  8
_0-0_0
  6
CONTINUOUS
 62
    7
 10
387.70156850000001
 20
218.79534950000001
 11
387.79470850000001
 21
218.6539305
  0
LINE
  8
_0-0_0
  6
CONTINUOUS
 62
    7
 10
400.9741515
 20
218.5246425
 11
401.06314050000003
 21
218.6539305
  0
LINE
  8
_0-0_0
  6
CONTINUOUS
 62
    7
 10
401.15628049999998
 20
218.79534950000001
 11
401.06314050000003
 21
218.6539305
  0
LINE
  8
_0-0_0
  6
CONTINUOUS
 62
    7
 10
401.15628049999998
 20
218.79534950000001
 11
401.2377315
 21
218.92465150000001
  0
ARC
  8
_0-0_0
  6
CONTINUOUS
 62
    7
 10
394.42892449999999
 20
223.12464850000001
 40
8
 50
328.33175599999993
 51
334.05550899999992
  0
LINE
  8
_0-0_0
  6
CONTINUOUS
 62
    7
 10
401.62265050000002
 20
219.62464850000001
 11
401.6841435
 21
219.75393650000001
  0
LINE
  8
_0-0_0
  6
CONTINUOUS
 62
    7
 10
401.7481995
 20
219.89535549999999
 11
401.6841435
 21
219.75393650000001
  0
LINE
  8
_0-0_0
  6
CONTINUOUS
 62
    7
 10
401.7481995
 20
219.89535549999999
 11
401.80386350000003
 21
220.0246425
  0
ARC
  8
_0-0_0
  6
CONTINUOUS
 62
    7
 10
394.42892449999999
 20
223.12464850000001
 40
8
 50
337.20097500000003
 51
342.54240199999998
  0
LINE
  8
_0-0_0
  6
CONTINUOUS
 62
    7
 10
402.06042450000001
 20
220.72463949999999
 11
402.09988450000003
 21
220.85394250000002
  0
LINE
  8
_0-0_0
  6
CONTINUOUS
 62
    7
 10
402.14035050000001
 20
220.9953615
 11
402.09988450000003
 21
220.85394250000002
  0
LINE
  8
_0-0_0
  6
CONTINUOUS
 62
    7
 10
402.14035050000001
 20
220.9953615
 11
402.17489649999999
 21
221.12464850000001
  0
ARC
  8
_0-0_0
  6
CONTINUOUS
 62
    7
 10
394.42892449999999
 20
223.12464850000001
 40
8
 50
345.52249499999999
 51
350.64797900000002
  0
LINE
  8
_0-0_0
  6
CONTINUOUS
 62
    7
 10
402.32257049999998
 20
221.8246455
 11
402.3428045
 21
221.95393350000001
  0
LINE
  8
_0-0_0
  6
CONTINUOUS
 62
    7
 10
402.36242650000003
 20
222.09535249999999
 11
402.3428045
 21
221.95393350000001
  0
LINE
  8
_0-0_0
  6
CONTINUOUS
 62
    7
 10
402.36242650000003
 20
222.09535249999999
 11
402.37814350000002
 21
222.22463949999999
  0
ARC
  8
_0-0_0
  6
CONTINUOUS
 62
    7
 10
394.42892449999999
 20
223.12464850000001
 40
8
 50
353.54056400000002
 51
358.56744600000002
  0
LINE
  8
_0-0_0
  6
CONTINUOUS
 62
    7
 10
402.4264225
 20
222.92465150000001
 11
402.42861950000002
 21
223.05392449999999
  0
LINE
  8
_0-0_0
  6
CONTINUOUS
 62
    7
 10
402.42861950000002
 20
223.05392449999999
 11
402.42892449999999
 21
223.12464850000001
  0
LINE
  8
_0-0_0
  6
CONTINUOUS
 62
    7
 10
403.42892449999999
 20
218.6539305
 11
403.42892449999999
 21
218.5246425
  0
LINE
  8
_0-0_0
  6
CONTINUOUS
 62
    7
 10
403.42892449999999
 20
227.45393350000001
 11
403.42892449999999
 21
227.59535249999999
  0
LINE
  8
_0-0_0
  6
CONTINUOUS
 62
    7
 10
403.42892449999999
 20
227.45393350000001
 11
403.42892449999999
 21
227.3246455
  0
LINE
  8
_0-0_0
  6
CONTINUOUS
 62
    7
 10
403.42892449999999
 20
226.62464850000001
 11
403.42892449999999
 21
227.3246455
  0
LINE
  8
_0-0_0
  6
CONTINUOUS
 62
    7
 10
403.42892449999999
 20
226.4953615
 11
403.42892449999999
 21
226.62464850000001
  0
LINE
  8
_0-0_0
  6
CONTINUOUS
 62
    7
 10
403.42892449999999
 20
226.3539275
 11
403.42892449999999
 21
226.4953615
  0
LINE
  8
_0-0_0
  6
CONTINUOUS
 62
    7
 10
403.42892449999999
 20
226.3539275
 11
403.42892449999999
 21
226.22463949999999
  0
LINE
  8
_0-0_0
  6
CONTINUOUS
 62
    7
 10
403.42892449999999
 20
225.5246425
 11
403.42892449999999
 21
226.22463949999999
  0
LINE
  8
_0-0_0
  6
CONTINUOUS
 62
    7
 10
403.42892449999999
 20
225.39535549999999
 11
403.42892449999999
 21
225.5246425
  0
LINE
  8
_0-0_0
  6
CONTINUOUS
 62
    7
 10
403.42892449999999
 20
225.25393650000001
 11
403.42892449999999
 21
225.39535549999999
  0
LINE
  8
_0-0_0
  6
CONTINUOUS
 62
    7
 10
403.42892449999999
 20
225.25393650000001
 11
403.42892449999999
 21
225.12464850000001
  0
LINE
  8
_0-0_0
  6
CONTINUOUS
 62
    7
 10
403.42892449999999
 20
224.42465150000001
 11
403.42892449999999
 21
225.12464850000001
  0
LINE
  8
_0-0_0
  6
CONTINUOUS
 62
    7
 10
403.42892449999999
 20
224.29534950000001
 11
403.42892449999999
 21
224.42465150000001
  0
LINE
  8
_0-0_0
  6
CONTINUOUS
 62
    7
 10
403.42892449999999
 20
224.1539305
 11
403.42892449999999
 21
224.29534950000001
  0
LINE
  8
_0-0_0
  6
CONTINUOUS
 62
    7
 10
403.42892449999999
 20
224.1539305
 11
403.42892449999999
 21
224.0246425
  0
LINE
  8
_0-0_0
  6
CONTINUOUS
 62
    7
 10
403.42892449999999
 20
223.3246455
 11
403.42892449999999
 21
224.0246425
  0
LINE
  8
_0-0_0
  6
CONTINUOUS
 62
    7
 10
403.42892449999999
 20
223.1953585
 11
403.42892449999999
 21
223.3246455
  0
LINE
  8
_0-0_0
  6
CONTINUOUS
 62
    7
 10
403.42892449999999
 20
223.05392449999999
 11
403.42892449999999
 21
223.1953585
  0
LINE
  8
_0-0_0
  6
CONTINUOUS
 62
    7
 10
403.42892449999999
 20
223.05392449999999
 11
403.42892449999999
 21
222.92465150000001
  0
LINE
  8
_0-0_0
  6
CONTINUOUS
 62
    7
 10
403.42892449999999
 20
222.22463949999999
 11
403.42892449999999
 21
222.92465150000001
  0
LINE
  8
_0-0_0
  6
CONTINUOUS
 62
    7
 10
403.42892449999999
 20
222.09535249999999
 11
403.42892449999999
 21
222.22463949999999
  0
LINE
  8
_0-0_0
  6
CONTINUOUS
 62
    7
 10
403.42892449999999
 20
221.95393350000001
 11
403.42892449999999
 21
222.09535249999999
  0
LINE
  8
_0-0_0
  6
CONTINUOUS
 62
    7
 10
403.42892449999999
 20
221.95393350000001
 11
403.42892449999999
 21
221.8246455
  0
LINE
  8
_0-0_0
  6
CONTINUOUS
 62
    7
 10
403.42892449999999
 20
221.12464850000001
 11
403.42892449999999
 21
221.8246455
  0
LINE
  8
_0-0_0
  6
CONTINUOUS
 62
    7
 10
403.42892449999999
 20
220.9953615
 11
403.42892449999999
 21
221.12464850000001
  0
LINE
  8
_0-0_0
  6
CONTINUOUS
 62
    7
 10
403.42892449999999
 20
220.85394250000002
 11
403.42892449999999
 21
220.9953615
  0
LINE
  8
_0-0_0
  6
CONTINUOUS
 62
    7
 10
403.42892449999999
 20
220.85394250000002
 11
403.42892449999999
 21
220.72463949999999
  0
LINE
  8
_0-0_0
  6
CONTINUOUS
 62
    7
 10
403.42892449999999
 20
220.0246425
 11
403.42892449999999
 21
220.72463949999999
  0
LINE
  8
_0-0_0
  6
CONTINUOUS
 62
    7
 10
403.42892449999999
 20
219.89535549999999
 11
403.42892449999999
 21
220.0246425
  0
LINE
  8
_0-0_0
  6
CONTINUOUS
 62
    7
 10
403.42892449999999
 20
219.75393650000001
 11
403.42892449999999
 21
219.89535549999999
  0
LINE
  8
_0-0_0
  6
CONTINUOUS
 62
    7
 10
403.42892449999999
 20
219.75393650000001
 11
403.42892449999999
 21
219.62464850000001
  0
LINE
  8
_0-0_0
  6
CONTINUOUS
 62
    7
 10
403.42892449999999
 20
218.92465150000001
 11
403.42892449999999
 21
219.62464850000001
  0
LINE
  8
_0-0_0
  6
CONTINUOUS
 62
    7
 10
403.42892449999999
 20
218.79534950000001
 11
403.42892449999999
 21
218.92465150000001
  0
LINE
  8
_0-0_0
  6
CONTINUOUS
 62
    7
 10
403.42892449999999
 20
218.6539305
 11
403.42892449999999
 21
218.79534950000001
  0
LINE
  8
_0-0_0
  6
CONTINUOUS
 62
    7
 10
403.42892449999999
 20
204.8246455
 11
403.42892449999999
 21
205.3246455
  0
LINE
  8
_0-0_0
  6
CONTINUOUS
 62
    7
 10
403.42892449999999
 20
233.3246455
 11
403.42892449999999
 21
232.7306825
  0
LINE
  8
_0-0_0
  6
CONTINUOUS
 62
    7
 10
403.42892449999999
 20
227.72463949999999
 11
403.42892449999999
 21
232.7306825
  0
LINE
  8
_0-0_0
  6
CONTINUOUS
 62
    7
 10
403.42892449999999
 20
227.59535249999999
 11
403.42892449999999
 21
227.72463949999999
  0
LINE
  8
_0-0_0
  6
CONTINUOUS
 62
    7
 10
150.42892449999999
 20
204.8246455
 11
150.42892449999999
 21
205.3246455
  0
LINE
  8
_0-0_0
  6
CONTINUOUS
 62
    7
 10
150.42892449999999
 20
204.8246455
 11
403.42892449999999
 21
204.8246455
  0
LINE
  8
_0-0_0
  6
CONTINUOUS
 62
    7
 10
150.42892449999999
 20
218.6539305
 11
150.42892449999999
 21
218.79534950000001
  0
LINE
  8
_0-0_0
  6
CONTINUOUS
 62
    7
 10
150.42892449999999
 20
218.6539305
 11
150.42892449999999
 21
218.5246425
  0
LINE
  8
_0-0_0
  6
CONTINUOUS
 62
    7
 10
150.42892449999999
 20
233.3246455
 11
150.42892449999999
 21
232.7306825
  0
LINE
  8
_0-0_0
  6
CONTINUOUS
 62
    7
 10
150.42892449999999
 20
227.72463949999999
 11
150.42892449999999
 21
232.7306825
  0
LINE
  8
_0-0_0
  6
CONTINUOUS
 62
    7
 10
150.42892449999999
 20
227.59535249999999
 11
150.42892449999999
 21
227.72463949999999
  0
LINE
  8
_0-0_0
  6
CONTINUOUS
 62
    7
 10
150.42892449999999
 20
227.45393350000001
 11
150.42892449999999
 21
227.59535249999999
  0
LINE
  8
_0-0_0
  6
CONTINUOUS
 62
    7
 10
150.42892449999999
 20
227.45393350000001
 11
150.42892449999999
 21
227.3246455
  0
LINE
  8
_0-0_0
  6
CONTINUOUS
 62
    7
 10
150.42892449999999
 20
226.62464850000001
 11
150.42892449999999
 21
227.3246455
  0
LINE
  8
_0-0_0
  6
CONTINUOUS
 62
    7
 10
150.42892449999999
 20
226.4953615
 11
150.42892449999999
 21
226.62464850000001
  0
LINE
  8
_0-0_0
  6
CONTINUOUS
 62
    7
 10
150.42892449999999
 20
226.3539275
 11
150.42892449999999
 21
226.4953615
  0
LINE
  8
_0-0_0
  6
CONTINUOUS
 62
    7
 10
150.42892449999999
 20
226.3539275
 11
150.42892449999999
 21
226.22463949999999
  0
LINE
  8
_0-0_0
  6
CONTINUOUS
 62
    7
 10
150.42892449999999
 20
225.5246425
 11
150.42892449999999
 21
226.22463949999999
  0
LINE
  8
_0-0_0
  6
CONTINUOUS
 62
    7
 10
150.42892449999999
 20
225.39535549999999
 11
150.42892449999999
 21
225.5246425
  0
LINE
  8
_0-0_0
  6
CONTINUOUS
 62
    7
 10
150.42892449999999
 20
225.25393650000001
 11
150.42892449999999
 21
225.39535549999999
  0
LINE
  8
_0-0_0
  6
CONTINUOUS
 62
    7
 10
150.42892449999999
 20
225.25393650000001
 11
150.42892449999999
 21
225.12464850000001
  0
LINE
  8
_0-0_0
  6
CONTINUOUS
 62
    7
 10
150.42892449999999
 20
224.42465150000001
 11
150.42892449999999
 21
225.12464850000001
  0
LINE
  8
_0-0_0
  6
CONTINUOUS
 62
    7
 10
150.42892449999999
 20
224.29534950000001
 11
150.42892449999999
 21
224.42465150000001
  0
LINE
  8
_0-0_0
  6
CONTINUOUS
 62
    7
 10
150.42892449999999
 20
224.1539305
 11
150.42892449999999
 21
224.29534950000001
  0
LINE
  8
_0-0_0
  6
CONTINUOUS
 62
    7
 10
150.42892449999999
 20
224.1539305
 11
150.42892449999999
 21
224.0246425
  0
LINE
  8
_0-0_0
  6
CONTINUOUS
 62
    7
 10
150.42892449999999
 20
223.3246455
 11
150.42892449999999
 21
224.0246425
  0
LINE
  8
_0-0_0
  6
CONTINUOUS
 62
    7
 10
150.42892449999999
 20
223.1953585
 11
150.42892449999999
 21
223.3246455
  0
LINE
  8
_0-0_0
  6
CONTINUOUS
 62
    7
 10
150.42892449999999
 20
223.05392449999999
 11
150.42892449999999
 21
223.1953585
  0
LINE
  8
_0-0_0
  6
CONTINUOUS
 62
    7
 10
150.42892449999999
 20
223.05392449999999
 11
150.42892449999999
 21
222.92465150000001
  0
LINE
  8
_0-0_0
  6
CONTINUOUS
 62
    7
 10
150.42892449999999
 20
222.22463949999999
 11
150.42892449999999
 21
222.92465150000001
  0
LINE
  8
_0-0_0
  6
CONTINUOUS
 62
    7
 10
150.42892449999999
 20
222.09535249999999
 11
150.42892449999999
 21
222.22463949999999
  0
LINE
  8
_0-0_0
  6
CONTINUOUS
 62
    7
 10
150.42892449999999
 20
221.95393350000001
 11
150.42892449999999
 21
222.09535249999999
  0
LINE
  8
_0-0_0
  6
CONTINUOUS
 62
    7
 10
150.42892449999999
 20
221.95393350000001
 11
150.42892449999999
 21
221.8246455
  0
LINE
  8
_0-0_0
  6
CONTINUOUS
 62
    7
 10
150.42892449999999
 20
221.12464850000001
 11
150.42892449999999
 21
221.8246455
  0
LINE
  8
_0-0_0
  6
CONTINUOUS
 62
    7
 10
150.42892449999999
 20
220.9953615
 11
150.42892449999999
 21
221.12464850000001
  0
LINE
  8
_0-0_0
  6
CONTINUOUS
 62
    7
 10
150.42892449999999
 20
220.85394250000002
 11
150.42892449999999
 21
220.9953615
  0
LINE
  8
_0-0_0
  6
CONTINUOUS
 62
    7
 10
150.42892449999999
 20
220.85394250000002
 11
150.42892449999999
 21
220.72463949999999
  0
LINE
  8
_0-0_0
  6
CONTINUOUS
 62
    7
 10
150.42892449999999
 20
220.0246425
 11
150.42892449999999
 21
220.72463949999999
  0
LINE
  8
_0-0_0
  6
CONTINUOUS
 62
    7
 10
150.42892449999999
 20
219.89535549999999
 11
150.42892449999999
 21
220.0246425
  0
LINE
  8
_0-0_0
  6
CONTINUOUS
 62
    7
 10
150.42892449999999
 20
219.75393650000001
 11
150.42892449999999
 21
219.89535549999999
  0
LINE
  8
_0-0_0
  6
CONTINUOUS
 62
    7
 10
150.42892449999999
 20
219.75393650000001
 11
150.42892449999999
 21
219.62464850000001
  0
LINE
  8
_0-0_0
  6
CONTINUOUS
 62
    7
 10
150.42892449999999
 20
218.92465150000001
 11
150.42892449999999
 21
219.62464850000001
  0
LINE
  8
_0-0_0
  6
CONTINUOUS
 62
    7
 10
150.42892449999999
 20
218.79534950000001
 11
150.42892449999999
 21
218.92465150000001
  0
LINE
  8
_0-0_0
  6
CONTINUOUS
 62
    7
 10
337.42892449999999
 20
210.8246455
 11
344.42892449999999
 21
210.8246455
  0
ARC
  8
_0-0_0
  6
CONTINUOUS
 62
    7
 10
337.42892449999999
 20
210.3246455
 40
0.5
 50
90.000003000000007
 51
180.00000900000001
  0
LINE
  8
_0-0_0
  6
CONTINUOUS
 62
    7
 10
336.92892449999999
 20
210.3246455
 11
336.92892449999999
 21
206.3246455
  0
ARC
  8
_0-0_0
  6
CONTINUOUS
 62
    7
 10
337.42892449999999
 20
206.3246455
 40
0.5
 50
180.00000900000003
 51
269.99999700000001
  0
LINE
  8
_0-0_0
  6
CONTINUOUS
 62
    7
 10
344.42892449999999
 20
205.8246455
 11
337.42892449999999
 21
205.8246455
  0
ARC
  8
_0-0_0
  6
CONTINUOUS
 62
    7
 10
344.42892449999999
 20
206.3246455
 40
0.5
 50
269.99999700000001
 51
0
  0
LINE
  8
_0-0_0
  6
CONTINUOUS
 62
    7
 10
344.92892449999999
 20
206.3246455
 11
344.92892449999999
 21
210.3246455
  0
ARC
  8
_0-0_0
  6
CONTINUOUS
 62
    7
 10
344.42892449999999
 20
210.3246455
 40
0.5
 50
0
 51
90.000003000000007
  0
ARC
  8
_0-0_0
  6
CONTINUOUS
 62
    7
 10
217.4289095
 20
210.3246455
 40
0.5
 50
90.000003000000007
 51
180.00000900000001
  0
LINE
  8
_0-0_0
  6
CONTINUOUS
 62
    7
 10
216.9289095
 20
210.3246455
 11
216.9289095
 21
206.3246455
  0
ARC
  8
_0-0_0
  6
CONTINUOUS
 62
    7
 10
217.4289095
 20
206.3246455
 40
0.5
 50
180.00000900000003
 51
269.99999700000001
  0
LINE
  8
_0-0_0
  6
CONTINUOUS
 62
    7
 10
224.4289095
 20
205.8246455
 11
217.4289095
 21
205.8246455
  0
ARC
  8
_0-0_0
  6
CONTINUOUS
 62
    7
 10
224.4289095
 20
206.3246455
 40
0.5
 50
269.99999700000001
 51
0
  0
LINE
  8
_0-0_0
  6
CONTINUOUS
 62
    7
 10
224.9289095
 20
206.3246455
 11
224.9289095
 21
210.3246455
  0
ARC
  8
_0-0_0
  6
CONTINUOUS
 62
    7
 10
224.4289095
 20
210.3246455
 40
0.5
 50
0
 51
90.000003000000007
  0
LINE
  8
_0-0_0
  6
CONTINUOUS
 62
    7
 10
217.4289095
 20
210.8246455
 11
224.4289095
 21
210.8246455
  0
LINE
  8
_0-0_0
  6
CONTINUOUS
 62
    7
 10
150.42892449999999
 20
218.92465150000001
 11
152.6201015
 21
218.92465150000001
  0
LINE
  8
_0-0_0
  6
CONTINUOUS
 62
    7
 10
150.42892449999999
 20
219.62464850000001
 11
152.23516850000001
 21
219.62464850000001
  0
LINE
  8
_0-0_0
  6
CONTINUOUS
 62
    7
 10
150.42892449999999
 20
220.0246425
 11
152.0539555
 21
220.0246425
  0
LINE
  8
_0-0_0
  6
CONTINUOUS
 62
    7
 10
150.42892449999999
 20
220.72463949999999
 11
151.7973935
 21
220.72463949999999
  0
LINE
  8
_0-0_0
  6
CONTINUOUS
 62
    7
 10
150.42892449999999
 20
221.12464850000001
 11
151.6829525
 21
221.12464850000001
  0
LINE
  8
_0-0_0
  6
CONTINUOUS
 62
    7
 10
150.42892449999999
 20
221.8246455
 11
151.5352475
 21
221.8246455
  0
LINE
  8
_0-0_0
  6
CONTINUOUS
 62
    7
 10
150.42892449999999
 20
222.22463949999999
 11
151.47970549999999
 21
222.22463949999999
  0
LINE
  8
_0-0_0
  6
CONTINUOUS
 62
    7
 10
150.42892449999999
 20
222.92465150000001
 11
151.43142750000001
 21
222.92465150000001
  0
LINE
  8
_0-0_0
  6
CONTINUOUS
 62
    7
 10
151.42892449999999
 20
223.12464850000001
 11
151.42922950000002
 21
223.1953585
  0
LINE
  8
_0-0_0
  6
CONTINUOUS
 62
    7
 10
167.42892449999999
 20
223.12464850000001
 11
167.42860450000001
 21
223.1953585
  0
LINE
  8
_0-0_0
  6
CONTINUOUS
 62
    7
 10
167.4264225
 20
223.3246455
 11
167.42860450000001
 21
223.1953585
  0
ARC
  8
_0-0_0
  6
CONTINUOUS
 62
    7
 10
159.42892449999999
 20
223.12464850000001
 40
8
 50
1.432544
 51
6.4594489999999993
  0
LINE
  8
_0-0_0
  6
CONTINUOUS
 62
    7
 10
167.3624265
 20
224.1539305
 11
167.3781285
 21
224.0246425
  0
LINE
  8
_0-0_0
  6
CONTINUOUS
 62
    7
 10
167.3624265
 20
224.1539305
 11
167.34278850000001
 21
224.29534950000001
  0
LINE
  8
_0-0_0
  6
CONTINUOUS
 62
    7
 10
167.3225865
 20
224.42465150000001
 11
167.34278850000001
 21
224.29534950000001
  0
ARC
  8
_0-0_0
  6
CONTINUOUS
 62
    7
 10
159.42892449999999
 20
223.12464850000001
 40
8
 50
9.3520350000000008
 51
14.477510999999998
  0
LINE
  8
_0-0_0
  6
CONTINUOUS
 62
    7
 10
167.14035050000001
 20
225.25393650000001
 11
167.1748815
 21
225.12464850000001
  0
LINE
  8
_0-0_0
  6
CONTINUOUS
 62
    7
 10
167.14035050000001
 20
225.25393650000001
 11
167.0998845
 21
225.39535549999999
  0
LINE
  8
_0-0_0
  6
CONTINUOUS
 62
    7
 10
167.06042450000001
 20
225.5246425
 11
167.0998845
 21
225.39535549999999
  0
ARC
  8
_0-0_0
  6
CONTINUOUS
 62
    7
 10
159.42892449999999
 20
223.12464850000001
 40
8
 50
17.457602999999999
 51
22.799030999999999
  0
LINE
  8
_0-0_0
  6
CONTINUOUS
 62
    7
 10
166.74818450000001
 20
226.3539275
 11
166.8038785
 21
226.22463949999999
  0
LINE
  8
_0-0_0
  6
CONTINUOUS
 62
    7
 10
166.74818450000001
 20
226.3539275
 11
166.6841435
 21
226.4953615
  0
LINE
  8
_0-0_0
  6
CONTINUOUS
 62
    7
 10
166.62266550000001
 20
226.62464850000001
 11
166.6841435
 21
226.4953615
  0
ARC
  8
_0-0_0
  6
CONTINUOUS
 62
    7
 10
159.42892449999999
 20
223.12464850000001
 40
8
 50
25.944476999999999
 51
31.668240000000001
  0
LINE
  8
_0-0_0
  6
CONTINUOUS
 62
    7
 10
166.15626550000002
 20
227.45393350000001
 11
166.2377315
 21
227.3246455
  0
LINE
  8
_0-0_0
  6
CONTINUOUS
 62
    7
 10
166.15626550000002
 20
227.45393350000001
 11
166.06312550000001
 21
227.59535249999999
  0
LINE
  8
_0-0_0
  6
CONTINUOUS
 62
    7
 10
165.9741515
 20
227.72463949999999
 11
166.06312550000001
 21
227.59535249999999
  0
ARC
  8
_0-0_0
  6
CONTINUOUS
 62
    7
 10
159.42892449999999
 20
223.12464850000001
 40
8
 50
35.099632
 51
144.900373
  0
LINE
  8
_0-0_0
  6
CONTINUOUS
 62
    7
 10
152.88369750000001
 20
227.72463949999999
 11
152.79470850000001
 21
227.59535249999999
  0
LINE
  8
_0-0_0
  6
CONTINUOUS
 62
    7
 10
152.70156850000001
 20
227.45393350000001
 11
152.79470850000001
 21
227.59535249999999
  0
LINE
  8
_0-0_0
  6
CONTINUOUS
 62
    7
 10
152.70156850000001
 20
227.45393350000001
 11
152.6201015
 21
227.3246455
  0
ARC
  8
_0-0_0
  6
CONTINUOUS
 62
    7
 10
159.42892449999999
 20
223.12464850000001
 40
8
 50
148.33176499999999
 51
154.05551800000001
  0
LINE
  8
_0-0_0
  6
CONTINUOUS
 62
    7
 10
152.23516850000001
 20
226.62464850000001
 11
152.17369049999999
 21
226.4953615
  0
LINE
  8
_0-0_0
  6
CONTINUOUS
 62
    7
 10
152.10964950000002
 20
226.3539275
 11
152.17369049999999
 21
226.4953615
  0
LINE
  8
_0-0_0
  6
CONTINUOUS
 62
    7
 10
152.10964950000002
 20
226.3539275
 11
152.0539555
 21
226.22463949999999
  0
ARC
  8
_0-0_0
  6
CONTINUOUS
 62
    7
 10
159.42892449999999
 20
223.12464850000001
 40
8
 50
157.20097000000001
 51
162.54239699999999
  0
LINE
  8
_0-0_0
  6
CONTINUOUS
 62
    7
 10
151.7973935
 20
225.5246425
 11
151.7579345
 21
225.39535549999999
  0
LINE
  8
_0-0_0
  6
CONTINUOUS
 62
    7
 10
151.7174985
 20
225.25393650000001
 11
151.7579345
 21
225.39535549999999
  0
LINE
  8
_0-0_0
  6
CONTINUOUS
 62
    7
 10
151.7174985
 20
225.25393650000001
 11
151.6829525
 21
225.12464850000001
  0
ARC
  8
_0-0_0
  6
CONTINUOUS
 62
    7
 10
159.42892449999999
 20
223.12464850000001
 40
8
 50
165.52249
 51
170.64796000000001
  0
LINE
  8
_0-0_0
  6
CONTINUOUS
 62
    7
 10
151.5352475
 20
224.42465150000001
 11
151.51504550000001
 21
224.29534950000001
  0
LINE
  8
_0-0_0
  6
CONTINUOUS
 62
    7
 10
151.4954075
 20
224.1539305
 11
151.51504550000001
 21
224.29534950000001
  0
LINE
  8
_0-0_0
  6
CONTINUOUS
 62
    7
 10
151.4954075
 20
224.1539305
 11
151.47970549999999
 21
224.0246425
  0
ARC
  8
_0-0_0
  6
CONTINUOUS
 62
    7
 10
159.42892449999999
 20
223.12464850000001
 40
8
 50
173.54054500000001
 51
178.567455
  0
LINE
  8
_0-0_0
  6
CONTINUOUS
 62
    7
 10
151.43142750000001
 20
223.3246455
 11
151.42922950000002
 21
223.1953585
  0
CIRCLE
  8
_0-0_0
  6
CONTINUOUS
 62
    7
 10
159.42892449999999
 20
223.12464850000001
 40
7.5
  0
LINE
  8
_0-0_0
  6
CONTINUOUS
 62
    7
 10
386.42892449999999
 20
223.12464850000001
 11
386.42922950000002
 21
223.1953585
  0
LINE
  8
_0-0_0
  6
CONTINUOUS
 62
    7
 10
167.4264225
 20
222.92465150000001
 11
386.43142749999998
 21
222.92465150000001
  0
LINE
  8
_0-0_0
  6
CONTINUOUS
 62
    7
 10
167.3781285
 20
222.22463949999999
 11
386.47970550000002
 21
222.22463949999999
  0
LINE
  8
_0-0_0
  6
CONTINUOUS
 62
    7
 10
167.3225865
 20
221.8246455
 11
386.53524750000003
 21
221.8246455
  0
LINE
  8
_0-0_0
  6
CONTINUOUS
 62
    7
 10
167.1748815
 20
221.12464850000001
 11
386.6829525
 21
221.12464850000001
  0
LINE
  8
_0-0_0
  6
CONTINUOUS
 62
    7
 10
167.06042450000001
 20
220.72463949999999
 11
386.7973935
 21
220.72463949999999
  0
LINE
  8
_0-0_0
  6
CONTINUOUS
 62
    7
 10
166.8038785
 20
220.0246425
 11
387.05395550000003
 21
220.0246425
  0
LINE
  8
_0-0_0
  6
CONTINUOUS
 62
    7
 10
166.62266550000001
 20
219.62464850000001
 11
387.23516849999999
 21
219.62464850000001
  0
LINE
  8
_0-0_0
  6
CONTINUOUS
 62
    7
 10
166.2377315
 20
218.92465150000001
 11
387.62008650000001
 21
218.92465150000001
  0
LINE
  8
_0-0_0
  6
CONTINUOUS
 62
    7
 10
402.42892449999999
 20
223.12464850000001
 11
402.42861950000002
 21
223.1953585
  0
LINE
  8
_0-0_0
  6
CONTINUOUS
 62
    7
 10
402.4264225
 20
222.92465150000001
 11
403.42892449999999
 21
222.92465150000001
  0
LINE
  8
_0-0_0
  6
CONTINUOUS
 62
    7
 10
402.37814350000002
 20
222.22463949999999
 11
403.42892449999999
 21
222.22463949999999
  0
LINE
  8
_0-0_0
  6
CONTINUOUS
 62
    7
 10
402.32257049999998
 20
221.8246455
 11
403.42892449999999
 21
221.8246455
  0
LINE
  8
_0-0_0
  6
CONTINUOUS
 62
    7
 10
402.17489649999999
 20
221.12464850000001
 11
403.42892449999999
 21
221.12464850000001
  0
LINE
  8
_0-0_0
  6
CONTINUOUS
 62
    7
 10
402.06042450000001
 20
220.72463949999999
 11
403.42892449999999
 21
220.72463949999999
  0
LINE
  8
_0-0_0
  6
CONTINUOUS
 62
    7
 10
401.80386350000003
 20
220.0246425
 11
403.42892449999999
 21
220.0246425
  0
LINE
  8
_0-0_0
  6
CONTINUOUS
 62
    7
 10
401.62265050000002
 20
219.62464850000001
 11
403.42892449999999
 21
219.62464850000001
  0
LINE
  8
_0-0_0
  6
CONTINUOUS
 62
    7
 10
401.2377315
 20
218.92465150000001
 11
403.42892449999999
 21
218.92465150000001
  0
LINE
  8
_0-0_0
  6
CONTINUOUS
 62
    7
 10
400.9741515
 20
227.72463949999999
 11
401.06314050000003
 21
227.59535249999999
  0
ARC
  8
_0-0_0
  6
CONTINUOUS
 62
    7
 10
394.42892449999999
 20
223.12464850000001
 40
8
 50
35.099632
 51
144.900373
  0
LINE
  8
_0-0_0
  6
CONTINUOUS
 62
    7
 10
387.88369749999998
 20
227.72463949999999
 11
387.79470850000001
 21
227.59535249999999
  0
LINE
  8
_0-0_0
  6
CONTINUOUS
 62
    7
 10
387.70156850000001
 20
227.45393350000001
 11
387.79470850000001
 21
227.59535249999999
  0
LINE
  8
_0-0_0
  6
CONTINUOUS
 62
    7
 10
387.70156850000001
 20
227.45393350000001
 11
387.62008650000001
 21
227.3246455
  0
ARC
  8
_0-0_0
  6
CONTINUOUS
 62
    7
 10
394.42892449999999
 20
223.12464850000001
 40
8
 50
148.33176499999999
 51
154.05551800000001
  0
LINE
  8
_0-0_0
  6
CONTINUOUS
 62
    7
 10
387.23516849999999
 20
226.62464850000001
 11
387.1736755
 21
226.4953615
  0
LINE
  8
_0-0_0
  6
CONTINUOUS
 62
    7
 10
387.10964949999999
 20
226.3539275
 11
387.1736755
 21
226.4953615
  0
LINE
  8
_0-0_0
  6
CONTINUOUS
 62
    7
 10
387.10964949999999
 20
226.3539275
 11
387.05395550000003
 21
226.22463949999999
  0
ARC
  8
_0-0_0
  6
CONTINUOUS
 62
    7
 10
394.42892449999999
 20
223.12464850000001
 40
8
 50
157.20097000000001
 51
162.54239699999999
  0
LINE
  8
_0-0_0
  6
CONTINUOUS
 62
    7
 10
386.7973935
 20
225.5246425
 11
386.75793450000003
 21
225.39535549999999
  0
LINE
  8
_0-0_0
  6
CONTINUOUS
 62
    7
 10
386.71749850000003
 20
225.25393650000001
 11
386.75793450000003
 21
225.39535549999999
  0
LINE
  8
_0-0_0
  6
CONTINUOUS
 62
    7
 10
386.71749850000003
 20
225.25393650000001
 11
386.6829525
 21
225.12464850000001
  0
ARC
  8
_0-0_0
  6
CONTINUOUS
 62
    7
 10
394.42892449999999
 20
223.12464850000001
 40
8
 50
165.52249
 51
170.64796000000001
  0
LINE
  8
_0-0_0
  6
CONTINUOUS
 62
    7
 10
386.53524750000003
 20
224.42465150000001
 11
386.51504549999999
 21
224.29534950000001
  0
LINE
  8
_0-0_0
  6
CONTINUOUS
 62
    7
 10
386.49542250000002
 20
224.1539305
 11
386.51504549999999
 21
224.29534950000001
  0
LINE
  8
_0-0_0
  6
CONTINUOUS
 62
    7
 10
386.49542250000002
 20
224.1539305
 11
386.47970550000002
 21
224.0246425
  0
ARC
  8
_0-0_0
  6
CONTINUOUS
 62
    7
 10
394.42892449999999
 20
223.12464850000001
 40
8
 50
173.54054500000001
 51
178.567455
  0
LINE
  8
_0-0_0
  6
CONTINUOUS
 62
    7
 10
386.43142749999998
 20
223.3246455
 11
386.42922950000002
 21
223.1953585
  0
LINE
  8
_0-0_0
  6
CONTINUOUS
 62
    7
 10
402.4264225
 20
223.3246455
 11
402.42861950000002
 21
223.1953585
  0
ARC
  8
_0-0_0
  6
CONTINUOUS
 62
    7
 10
394.42892449999999
 20
223.12464850000001
 40
8
 50
1.432544
 51
6.4594489999999993
  0
LINE
  8
_0-0_0
  6
CONTINUOUS
 62
    7
 10
402.36242650000003
 20
224.1539305
 11
402.37814350000002
 21
224.0246425
  0
LINE
  8
_0-0_0
  6
CONTINUOUS
 62
    7
 10
402.36242650000003
 20
224.1539305
 11
402.3428045
 21
224.29534950000001
  0
LINE
  8
_0-0_0
  6
CONTINUOUS
 62
    7
 10
402.32257049999998
 20
224.42465150000001
 11
402.3428045
 21
224.29534950000001
  0
ARC
  8
_0-0_0
  6
CONTINUOUS
 62
    7
 10
394.42892449999999
 20
223.12464850000001
 40
8
 50
9.3520350000000008
 51
14.477510999999998
  0
LINE
  8
_0-0_0
  6
CONTINUOUS
 62
    7
 10
402.14035050000001
 20
225.25393650000001
 11
402.17489649999999
 21
225.12464850000001
  0
LINE
  8
_0-0_0
  6
CONTINUOUS
 62
    7
 10
402.14035050000001
 20
225.25393650000001
 11
402.09988450000003
 21
225.39535549999999
  0
LINE
  8
_0-0_0
  6
CONTINUOUS
 62
    7
 10
402.06042450000001
 20
225.5246425
 11
402.09988450000003
 21
225.39535549999999
  0
ARC
  8
_0-0_0
  6
CONTINUOUS
 62
    7
 10
394.42892449999999
 20
223.12464850000001
 40
8
 50
17.457602999999999
 51
22.799030999999999
  0
LINE
  8
_0-0_0
  6
CONTINUOUS
 62
    7
 10
401.7481995
 20
226.3539275
 11
401.80386350000003
 21
226.22463949999999
  0
LINE
  8
_0-0_0
  6
CONTINUOUS
 62
    7
 10
401.7481995
 20
226.3539275
 11
401.6841435
 21
226.4953615
  0
LINE
  8
_0-0_0
  6
CONTINUOUS
 62
    7
 10
401.62265050000002
 20
226.62464850000001
 11
401.6841435
 21
226.4953615
  0
ARC
  8
_0-0_0
  6
CONTINUOUS
 62
    7
 10
394.42892449999999
 20
223.12464850000001
 40
8
 50
25.944476999999999
 51
31.668240000000001
  0
LINE
  8
_0-0_0
  6
CONTINUOUS
 62
    7
 10
401.15628049999998
 20
227.45393350000001
 11
401.2377315
 21
227.3246455
  0
LINE
  8
_0-0_0
  6
CONTINUOUS
 62
    7
 10
401.15628049999998
 20
227.45393350000001
 11
401.06314050000003
 21
227.59535249999999
  0
CIRCLE
  8
_0-0_0
  6
CONTINUOUS
 62
    7
 10
394.42892449999999
 20
223.12464850000001
 40
7.5
  0
LINE
  8
_0-0_0
  6
CONTINUOUS
 62
    7
 10
401.2377315
 20
227.3246455
 11
403.42892449999999
 21
227.3246455
  0
LINE
  8
_0-0_0
  6
CONTINUOUS
 62
    7
 10
401.62265050000002
 20
226.62464850000001
 11
403.42892449999999
 21
226.62464850000001
  0
LINE
  8
_0-0_0
  6
CONTINUOUS
 62
    7
 10
401.80386350000003
 20
226.22463949999999
 11
403.42892449999999
 21
226.22463949999999
  0
LINE
  8
_0-0_0
  6
CONTINUOUS
 62
    7
 10
402.06042450000001
 20
225.5246425
 11
403.42892449999999
 21
225.5246425
  0
LINE
  8
_0-0_0
  6
CONTINUOUS
 62
    7
 10
402.17489649999999
 20
225.12464850000001
 11
403.42892449999999
 21
225.12464850000001
  0
LINE
  8
_0-0_0
  6
CONTINUOUS
 62
    7
 10
402.32257049999998
 20
224.42465150000001
 11
403.42892449999999
 21
224.42465150000001
  0
LINE
  8
_0-0_0
  6
CONTINUOUS
 62
    7
 10
402.37814350000002
 20
224.0246425
 11
403.42892449999999
 21
224.0246425
  0
LINE
  8
_0-0_0
  6
CONTINUOUS
 62
    7
 10
402.4264225
 20
223.3246455
 11
403.42892449999999
 21
223.3246455
  0
LINE
  8
_0-0_0
  6
CONTINUOUS
 62
    7
 10
403.92892449999999
 20
206.62464850000001
 11
403.42892449999999
 21
206.62464850000001
  0
LINE
  8
_0-0_0
  6
CONTINUOUS
 62
    7
 10
403.92892449999999
 20
208.8246455
 11
403.42892449999999
 21
208.8246455
  0
LINE
  8
_0-0_0
  6
CONTINUOUS
 62
    7
 10
403.92892449999999
 20
211.12464850000001
 11
403.42892449999999
 21
211.12464850000001
  0
LINE
  8
_0-0_0
  6
CONTINUOUS
 62
    7
 10
403.42892449999999
 20
213.42465150000001
 11
403.92892449999999
 21
213.42465150000001
  0
LINE
  8
_0-0_0
  6
CONTINUOUS
 62
    7
 10
403.92892449999999
 20
233.62464850000001
 11
403.92892449999999
 21
233.5246425
  0
LINE
  8
_0-0_0
  6
CONTINUOUS
 62
    7
 10
149.92892449999999
 20
233.62464850000001
 11
149.92892449999999
 21
233.5246425
  0
LINE
  8
_0-0_0
  6
CONTINUOUS
 62
    7
 10
149.92892449999999
 20
213.42465150000001
 11
150.42892449999999
 21
213.42465150000001
  0
LINE
  8
_0-0_0
  6
CONTINUOUS
 62
    7
 10
150.42892449999999
 20
233.3246455
 11
403.42892449999999
 21
233.3246455
  0
LINE
  8
_0-0_0
  6
CONTINUOUS
 62
    7
 10
150.42892449999999
 20
232.7306825
 11
403.42892449999999
 21
232.7306825
  0
LINE
  8
_0-0_0
  6
CONTINUOUS
 62
    7
 10
165.9741515
 20
227.72463949999999
 11
387.88369749999998
 21
227.72463949999999
  0
LINE
  8
_0-0_0
  6
CONTINUOUS
 62
    7
 10
400.9741515
 20
227.72463949999999
 11
403.42892449999999
 21
227.72463949999999
  0
LINE
  8
_0-0_0
  6
CONTINUOUS
 62
    7
 10
150.42892449999999
 20
227.72463949999999
 11
152.88369750000001
 21
227.72463949999999
  0
LINE
  8
_0-0_0
  6
CONTINUOUS
 62
    7
 10
149.92892449999999
 20
206.62464850000001
 11
150.42892449999999
 21
206.62464850000001
  0
LINE
  8
_0-0_0
  6
CONTINUOUS
 62
    7
 10
149.92892449999999
 20
208.8246455
 11
150.42892449999999
 21
208.8246455
  0
LINE
  8
_0-0_0
  6
CONTINUOUS
 62
    7
 10
149.92892449999999
 20
211.12464850000001
 11
150.42892449999999
 21
211.12464850000001
  0
LINE
  8
_0-0_0
  6
CONTINUOUS
 62
    7
 10
150.42892449999999
 20
227.3246455
 11
152.6201015
 21
227.3246455
  0
LINE
  8
_0-0_0
  6
CONTINUOUS
 62
    7
 10
150.42892449999999
 20
226.62464850000001
 11
152.23516850000001
 21
226.62464850000001
  0
LINE
  8
_0-0_0
  6
CONTINUOUS
 62
    7
 10
150.42892449999999
 20
226.22463949999999
 11
152.0539555
 21
226.22463949999999
  0
LINE
  8
_0-0_0
  6
CONTINUOUS
 62
    7
 10
150.42892449999999
 20
225.5246425
 11
151.7973935
 21
225.5246425
  0
LINE
  8
_0-0_0
  6
CONTINUOUS
 62
    7
 10
150.42892449999999
 20
225.12464850000001
 11
151.6829525
 21
225.12464850000001
  0
LINE
  8
_0-0_0
  6
CONTINUOUS
 62
    7
 10
150.42892449999999
 20
224.42465150000001
 11
151.5352475
 21
224.42465150000001
  0
LINE
  8
_0-0_0
  6
CONTINUOUS
 62
    7
 10
150.42892449999999
 20
224.0246425
 11
151.47970549999999
 21
224.0246425
  0
LINE
  8
_0-0_0
  6
CONTINUOUS
 62
    7
 10
150.42892449999999
 20
223.3246455
 11
151.43142750000001
 21
223.3246455
  0
LINE
  8
_0-0_0
  6
CONTINUOUS
 62
    7
 10
166.2377315
 20
227.3246455
 11
387.62008650000001
 21
227.3246455
  0
LINE
  8
_0-0_0
  6
CONTINUOUS
 62
    7
 10
166.62266550000001
 20
226.62464850000001
 11
387.23516849999999
 21
226.62464850000001
  0
LINE
  8
_0-0_0
  6
CONTINUOUS
 62
    7
 10
166.8038785
 20
226.22463949999999
 11
387.05395550000003
 21
226.22463949999999
  0
LINE
  8
_0-0_0
  6
CONTINUOUS
 62
    7
 10
167.06042450000001
 20
225.5246425
 11
386.7973935
 21
225.5246425
  0
LINE
  8
_0-0_0
  6
CONTINUOUS
 62
    7
 10
167.1748815
 20
225.12464850000001
 11
386.6829525
 21
225.12464850000001
  0
LINE
  8
_0-0_0
  6
CONTINUOUS
 62
    7
 10
167.3225865
 20
224.42465150000001
 11
386.53524750000003
 21
224.42465150000001
  0
LINE
  8
_0-0_0
  6
CONTINUOUS
 62
    7
 10
167.3781285
 20
224.0246425
 11
386.47970550000002
 21
224.0246425
  0
LINE
  8
_0-0_0
  6
CONTINUOUS
 62
    7
 10
167.4264225
 20
223.3246455
 11
386.43142749999998
 21
223.3246455
  0
LINE
  8
_0-0_0
  6
CONTINUOUS
 62
    7
 10
403.92892449999999
 20
205.12464850000001
 11
403.42892449999999
 21
205.12464850000001
  0
LINE
  8
_0-0_0
  6
CONTINUOUS
 62
    7
 10
403.92892449999999
 20
232.72463949999999
 11
403.92892449999999
 21
233.5246425
  0
LINE
  8
_0-0_0
  6
CONTINUOUS
 62
    7
 10
403.92892449999999
 20
204.92465150000001
 11
403.92892449999999
 21
232.72463949999999
  0
LINE
  8
_0-0_0
  6
CONTINUOUS
 62
    7
 10
149.92892449999999
 20
232.72463949999999
 11
149.92892449999999
 21
233.5246425
  0
LINE
  8
_0-0_0
  6
CONTINUOUS
 62
    7
 10
149.92892449999999
 20
204.92465150000001
 11
149.92892449999999
 21
232.72463949999999
  0
ARC
  8
_0-0_0
  6
CONTINUOUS
 62
    7
 10
159.42892449999999
 20
223.8246455
 40
12.800000000000001
 50
73.932597000000001
 51
106.06740099999999
  0
ARC
  8
_0-0_0
  6
CONTINUOUS
 62
    7
 10
394.42892449999999
 20
223.8246455
 40
12.800000000000001
 50
73.932597000000001
 51
106.06740099999999
  0
LINE
  8
_0-0_0
  6
CONTINUOUS
 62
    7
 10
403.92892449999999
 20
233.62464850000001
 11
403.92892449999999
 21
236.12464850000001
  0
LINE
  8
_0-0_0
  6
CONTINUOUS
 62
    7
 10
149.92892449999999
 20
236.12464850000001
 11
403.92892449999999
 21
236.12464850000001
  0
LINE
  8
_0-0_0
  6
CONTINUOUS
 62
    7
 10
149.92892449999999
 20
233.62464850000001
 11
149.92892449999999
 21
236.12464850000001
  0
LINE
  8
_0-0_0
  6
CONTINUOUS
 62
    7
 10
149.92892449999999
 20
205.12464850000001
 11
150.42892449999999
 21
205.12464850000001
  0
ARC
  8
_0-0_0
  6
CONTINUOUS
 62
    7
 10
342.22891249999998
 20
210.0246425
 40
0.2
 50
339.62356199999999
 51
90.000002999999978
  0
LINE
  8
_0-0_0
  6
CONTINUOUS
 62
    7
 10
342.41641249999998
 20
209.95500150000001
 11
341.11639450000001
 21
206.45500150000001
  0
ARC
  8
_0-0_0
  6
CONTINUOUS
 62
    7
 10
340.92892449999999
 20
206.5246425
 40
0.2
 50
200.37643
 51
339.62356199999999
  0
LINE
  8
_0-0_0
  6
CONTINUOUS
 62
    7
 10
339.44143650000001
 20
209.95500150000001
 11
340.74142449999999
 21
206.45500150000001
  0
ARC
  8
_0-0_0
  6
CONTINUOUS
 62
    7
 10
339.62890650000003
 20
210.0246425
 40
0.2
 50
90.000003000000007
 51
200.37643
  0
LINE
  8
_0-0_0
  6
CONTINUOUS
 62
    7
 10
339.62890650000003
 20
210.22463949999999
 11
342.22891249999998
 21
210.22463949999999
  0
ARC
  8
_0-0_0
  6
CONTINUOUS
 62
    7
 10
222.22891250000001
 20
210.0246425
 40
0.2
 50
339.62356199999999
 51
90.000002999999978
  0
LINE
  8
_0-0_0
  6
CONTINUOUS
 62
    7
 10
222.41639750000002
 20
209.95500150000001
 11
221.11639450000001
 21
206.45500150000001
  0
ARC
  8
_0-0_0
  6
CONTINUOUS
 62
    7
 10
220.9289095
 20
206.5246425
 40
0.2
 50
200.37643
 51
339.62356199999999
  0
LINE
  8
_0-0_0
  6
CONTINUOUS
 62
    7
 10
219.44142150000002
 20
209.95500150000001
 11
220.74142449999999
 21
206.45500150000001
  0
ARC
  8
_0-0_0
  6
CONTINUOUS
 62
    7
 10
219.6289065
 20
210.0246425
 40
0.2
 50
90.000003000000007
 51
200.37643
  0
LINE
  8
_0-0_0
  6
CONTINUOUS
 62
    7
 10
219.6289065
 20
210.22463949999999
 11
222.22891250000001
 21
210.22463949999999
  0
CIRCLE
  8
_0-0_0
  6
CONTINUOUS
 62
    7
 10
159.42892449999999
 20
223.12464850000001
 40
5
  0
CIRCLE
  8
_0-0_0
  6
CONTINUOUS
 62
    7
 10
394.42892449999999
 20
223.12464850000001
 40
5
  0
LINE
  8
_0-0_0
  6
CONTINUOUS
 62
    7
 10
404.92892449999999
 20
232.72463949999999
 11
403.92892449999999
 21
232.72463949999999
  0
LINE
  8
_0-0_0
  6
CONTINUOUS
 62
    7
 10
404.92892449999999
 20
233.7616275
 11
403.92892449999999
 21
233.7616275
  0
LINE
  8
_0-0_0
  6
CONTINUOUS
 62
    7
 10
404.92892449999999
 20
204.92465150000001
 11
403.92892449999999
 21
204.92465150000001
  0
LINE
  8
_0-0_0
  6
CONTINUOUS
 62
    7
 10
148.92892449999999
 20
232.72463949999999
 11
149.92892449999999
 21
232.72463949999999
  0
LINE
  8
_0-0_0
  6
CONTINUOUS
 62
    7
 10
148.92892449999999
 20
233.72463949999999
 11
149.92892449999999
 21
233.72463949999999
  0
LINE
  8
_0-0_0
  6
CONTINUOUS
 62
    7
 10
148.92892449999999
 20
204.92465150000001
 11
149.92892449999999
 21
204.92465150000001
  0
LINE
  8
_0-0_0
  6
CONTINUOUS
 62
    7
 10
404.92892449999999
 20
235.92465150000001
 11
403.92892449999999
 21
235.92465150000001
  0
LINE
  8
_0-0_0
  6
CONTINUOUS
 62
    7
 10
148.92892449999999
 20
235.92465150000001
 11
149.92892449999999
 21
235.92465150000001
  0
LINE
  8
_0-0_0
  6
CONTINUOUS
 62
    7
 10
405.92892449999999
 20
232.31042450000001
 11
405.92791749999998
 21
232.32893350000001
  0
LINE
  8
_0-0_0
  6
CONTINUOUS
 62
    7
 10
405.92791749999998
 20
232.32893350000001
 11
405.92492650000003
 21
232.34738150000001
  0
LINE
  8
_0-0_0
  6
CONTINUOUS
 62
    7
 10
405.92492650000003
 20
232.34738150000001
 11
405.91967750000003
 21
232.36651549999999
  0
LINE
  8
_0-0_0
  6
CONTINUOUS
 62
    7
 10
405.91967750000003
 20
232.36651549999999
 11
405.91232350000001
 21
232.38552849999999
  0
LINE
  8
_0-0_0
  6
CONTINUOUS
 62
    7
 10
405.91232350000001
 20
232.38552849999999
 11
405.89175449999999
 21
232.42224150000001
  0
LINE
  8
_0-0_0
  6
CONTINUOUS
 62
    7
 10
405.89175449999999
 20
232.42224150000001
 11
405.86337250000003
 21
232.4579315
  0
LINE
  8
_0-0_0
  6
CONTINUOUS
 62
    7
 10
405.86337250000003
 20
232.4579315
 11
405.82748450000003
 21
232.49221750000001
  0
LINE
  8
_0-0_0
  6
CONTINUOUS
 62
    7
 10
405.82748450000003
 20
232.49221750000001
 11
405.77886949999998
 21
232.5286715
  0
LINE
  8
_0-0_0
  6
CONTINUOUS
 62
    7
 10
405.77886949999998
 20
232.5286715
 11
405.72207650000001
 21
232.56268249999999
  0
LINE
  8
_0-0_0
  6
CONTINUOUS
 62
    7
 10
405.72207650000001
 20
232.56268249999999
 11
405.65792850000003
 21
232.59393249999999
  0
LINE
  8
_0-0_0
  6
CONTINUOUS
 62
    7
 10
405.65792850000003
 20
232.59393249999999
 11
405.58728050000002
 21
232.62219250000001
  0
LINE
  8
_0-0_0
  6
CONTINUOUS
 62
    7
 10
405.58728050000002
 20
232.62219250000001
 11
405.53921550000001
 21
232.63853449999999
  0
LINE
  8
_0-0_0
  6
CONTINUOUS
 62
    7
 10
405.53921550000001
 20
232.63853449999999
 11
405.48907450000002
 21
232.65353350000001
  0
LINE
  8
_0-0_0
  6
CONTINUOUS
 62
    7
 10
405.48907450000002
 20
232.65353350000001
 11
405.43237349999998
 21
232.6683045
  0
LINE
  8
_0-0_0
  6
CONTINUOUS
 62
    7
 10
405.43237349999998
 20
232.6683045
 11
405.37377950000001
 21
232.68139650000001
  0
LINE
  8
_0-0_0
  6
CONTINUOUS
 62
    7
 10
405.37377950000001
 20
232.68139650000001
 11
405.25698850000003
 21
232.70172149999999
  0
LINE
  8
_0-0_0
  6
CONTINUOUS
 62
    7
 10
405.25698850000003
 20
232.70172149999999
 11
405.14956649999999
 21
232.71443149999999
  0
LINE
  8
_0-0_0
  6
CONTINUOUS
 62
    7
 10
405.14956649999999
 20
232.71443149999999
 11
405.03979450000003
 21
232.7220915
  0
LINE
  8
_0-0_0
  6
CONTINUOUS
 62
    7
 10
405.03979450000003
 20
232.7220915
 11
404.92892449999999
 21
232.72463949999999
  0
LINE
  8
_0-0_0
  6
CONTINUOUS
 62
    7
 10
405.92892449999999
 20
232.31042450000001
 11
405.92892449999999
 21
233.3104855
  0
LINE
  8
_0-0_0
  6
CONTINUOUS
 62
    7
 10
405.92892449999999
 20
233.3104855
 11
405.92602549999998
 21
233.3420715
  0
LINE
  8
_0-0_0
  6
CONTINUOUS
 62
    7
 10
405.92602549999998
 20
233.3420715
 11
405.91729750000002
 21
233.3741455
  0
LINE
  8
_0-0_0
  6
CONTINUOUS
 62
    7
 10
405.91729750000002
 20
233.3741455
 11
405.90274049999999
 21
233.4064175
  0
LINE
  8
_0-0_0
  6
CONTINUOUS
 62
    7
 10
405.90274049999999
 20
233.4064175
 11
405.88250750000003
 21
233.4385675
  0
LINE
  8
_0-0_0
  6
CONTINUOUS
 62
    7
 10
405.88250750000003
 20
233.4385675
 11
405.86593650000003
 21
233.45980850000001
  0
LINE
  8
_0-0_0
  6
CONTINUOUS
 62
    7
 10
405.86593650000003
 20
233.45980850000001
 11
405.84698450000002
 21
233.48075850000001
  0
LINE
  8
_0-0_0
  6
CONTINUOUS
 62
    7
 10
405.84698450000002
 20
233.48075850000001
 11
405.80224650000002
 21
233.52153050000001
  0
LINE
  8
_0-0_0
  6
CONTINUOUS
 62
    7
 10
405.80224650000002
 20
233.52153050000001
 11
405.74899249999999
 21
233.56028750000002
  0
LINE
  8
_0-0_0
  6
CONTINUOUS
 62
    7
 10
405.74899249999999
 20
233.56028750000002
 11
405.69906650000001
 21
233.5904845
  0
LINE
  8
_0-0_0
  6
CONTINUOUS
 62
    7
 10
405.69906650000001
 20
233.5904845
 11
405.64437850000002
 21
233.61871350000001
  0
LINE
  8
_0-0_0
  6
CONTINUOUS
 62
    7
 10
405.64437850000002
 20
233.61871350000001
 11
405.58538850000002
 21
233.6447445
  0
LINE
  8
_0-0_0
  6
CONTINUOUS
 62
    7
 10
405.58538850000002
 20
233.6447445
 11
405.5386355
 21
233.6627345
  0
LINE
  8
_0-0_0
  6
CONTINUOUS
 62
    7
 10
405.5386355
 20
233.6627345
 11
405.4899595
 21
233.6793515
  0
LINE
  8
_0-0_0
  6
CONTINUOUS
 62
    7
 10
405.4899595
 20
233.6793515
 11
405.38757350000003
 21
233.70822150000001
  0
LINE
  8
_0-0_0
  6
CONTINUOUS
 62
    7
 10
405.38757350000003
 20
233.70822150000001
 11
405.27981549999998
 21
233.73104850000001
  0
LINE
  8
_0-0_0
  6
CONTINUOUS
 62
    7
 10
405.27981549999998
 20
233.73104850000001
 11
405.16821249999998
 21
233.7476345
  0
LINE
  8
_0-0_0
  6
CONTINUOUS
 62
    7
 10
405.16821249999998
 20
233.7476345
 11
405.05413850000002
 21
233.75784250000001
  0
LINE
  8
_0-0_0
  6
CONTINUOUS
 62
    7
 10
405.05413850000002
 20
233.75784250000001
 11
404.92892449999999
 21
233.7616275
  0
ARC
  8
_0-0_0
  6
CONTINUOUS
 62
    7
 10
404.92892449999999
 20
205.92465150000001
 40
1
 50
269.99999700000001
 51
0
  0
LINE
  8
_0-0_0
  6
CONTINUOUS
 62
    7
 10
405.92892449999999
 20
205.92465150000001
 11
405.92892449999999
 21
232.31042450000001
  0
LINE
  8
_0-0_0
  6
CONTINUOUS
 62
    7
 10
147.92892449999999
 20
232.31042450000001
 11
147.92991650000002
 21
232.32893350000001
  0
LINE
  8
_0-0_0
  6
CONTINUOUS
 62
    7
 10
147.92991650000002
 20
232.32893350000001
 11
147.93292250000002
 21
232.34738150000001
  0
LINE
  8
_0-0_0
  6
CONTINUOUS
 62
    7
 10
147.93292250000002
 20
232.34738150000001
 11
147.9381405
 21
232.36651549999999
  0
LINE
  8
_0-0_0
  6
CONTINUOUS
 62
    7
 10
147.9381405
 20
232.36651549999999
 11
147.9455265
 21
232.38552849999999
  0
LINE
  8
_0-0_0
  6
CONTINUOUS
 62
    7
 10
147.9455265
 20
232.38552849999999
 11
147.96607950000001
 21
232.42224150000001
  0
LINE
  8
_0-0_0
  6
CONTINUOUS
 62
    7
 10
147.96607950000001
 20
232.42224150000001
 11
147.99447650000002
 21
232.4579315
  0
LINE
  8
_0-0_0
  6
CONTINUOUS
 62
    7
 10
147.99447650000002
 20
232.4579315
 11
148.03036550000002
 21
232.49221750000001
  0
LINE
  8
_0-0_0
  6
CONTINUOUS
 62
    7
 10
148.03036550000002
 20
232.49221750000001
 11
148.0789795
 21
232.5286715
  0
LINE
  8
_0-0_0
  6
CONTINUOUS
 62
    7
 10
148.0789795
 20
232.5286715
 11
148.1357725
 21
232.56268249999999
  0
LINE
  8
_0-0_0
  6
CONTINUOUS
 62
    7
 10
148.1357725
 20
232.56268249999999
 11
148.1999055
 21
232.59393249999999
  0
LINE
  8
_0-0_0
  6
CONTINUOUS
 62
    7
 10
148.1999055
 20
232.59393249999999
 11
148.27055350000001
 21
232.62219250000001
  0
LINE
  8
_0-0_0
  6
CONTINUOUS
 62
    7
 10
148.27055350000001
 20
232.62219250000001
 11
148.3186345
 21
232.63853449999999
  0
LINE
  8
_0-0_0
  6
CONTINUOUS
 62
    7
 10
148.3186345
 20
232.63853449999999
 11
148.3687745
 21
232.65353350000001
  0
LINE
  8
_0-0_0
  6
CONTINUOUS
 62
    7
 10
148.3687745
 20
232.65353350000001
 11
148.4254765
 21
232.6683045
  0
LINE
  8
_0-0_0
  6
CONTINUOUS
 62
    7
 10
148.4254765
 20
232.6683045
 11
148.4840695
 21
232.68139650000001
  0
LINE
  8
_0-0_0
  6
CONTINUOUS
 62
    7
 10
148.4840695
 20
232.68139650000001
 11
148.60086050000001
 21
232.70172149999999
  0
LINE
  8
_0-0_0
  6
CONTINUOUS
 62
    7
 10
148.60086050000001
 20
232.70172149999999
 11
148.70826750000001
 21
232.71443149999999
  0
LINE
  8
_0-0_0
  6
CONTINUOUS
 62
    7
 10
148.70826750000001
 20
232.71443149999999
 11
148.81802350000001
 21
232.7220915
  0
LINE
  8
_0-0_0
  6
CONTINUOUS
 62
    7
 10
148.81802350000001
 20
232.7220915
 11
148.92892449999999
 21
232.72463949999999
  0
LINE
  8
_0-0_0
  6
CONTINUOUS
 62
    7
 10
147.92892449999999
 20
233.2800905
 11
147.93180850000002
 21
233.3110045
  0
LINE
  8
_0-0_0
  6
CONTINUOUS
 62
    7
 10
147.93180850000002
 20
233.3110045
 11
147.9405065
 21
233.34243749999999
  0
LINE
  8
_0-0_0
  6
CONTINUOUS
 62
    7
 10
147.9405065
 20
233.34243749999999
 11
147.95498650000002
 21
233.37411449999999
  0
LINE
  8
_0-0_0
  6
CONTINUOUS
 62
    7
 10
147.95498650000002
 20
233.37411449999999
 11
147.97515850000002
 21
233.40570049999999
  0
LINE
  8
_0-0_0
  6
CONTINUOUS
 62
    7
 10
147.97515850000002
 20
233.40570049999999
 11
147.9916685
 21
233.42657450000002
  0
LINE
  8
_0-0_0
  6
CONTINUOUS
 62
    7
 10
147.9916685
 20
233.42657450000002
 11
148.01058950000001
 21
233.44718950000001
  0
LINE
  8
_0-0_0
  6
CONTINUOUS
 62
    7
 10
148.01058950000001
 20
233.44718950000001
 11
148.05522150000002
 21
233.4873355
  0
LINE
  8
_0-0_0
  6
CONTINUOUS
 62
    7
 10
148.05522150000002
 20
233.4873355
 11
148.1083525
 21
233.5255435
  0
LINE
  8
_0-0_0
  6
CONTINUOUS
 62
    7
 10
148.1083525
 20
233.5255435
 11
148.15824850000001
 21
233.55535850000001
  0
LINE
  8
_0-0_0
  6
CONTINUOUS
 62
    7
 10
148.15824850000001
 20
233.55535850000001
 11
148.21292149999999
 21
233.5832365
  0
LINE
  8
_0-0_0
  6
CONTINUOUS
 62
    7
 10
148.21292149999999
 20
233.5832365
 11
148.27188150000001
 21
233.60896249999999
  0
LINE
  8
_0-0_0
  6
CONTINUOUS
 62
    7
 10
148.27188150000001
 20
233.60896249999999
 11
148.31864949999999
 21
233.6267545
  0
LINE
  8
_0-0_0
  6
CONTINUOUS
 62
    7
 10
148.31864949999999
 20
233.6267545
 11
148.3673555
 21
233.64318850000001
  0
LINE
  8
_0-0_0
  6
CONTINUOUS
 62
    7
 10
148.3673555
 20
233.64318850000001
 11
148.4697875
 21
233.6717525
  0
LINE
  8
_0-0_0
  6
CONTINUOUS
 62
    7
 10
148.4697875
 20
233.6717525
 11
148.5776065
 21
233.6943665
  0
LINE
  8
_0-0_0
  6
CONTINUOUS
 62
    7
 10
148.5776065
 20
233.6943665
 11
148.6893005
 21
233.7107695
  0
LINE
  8
_0-0_0
  6
CONTINUOUS
 62
    7
 10
148.6893005
 20
233.7107695
 11
148.80345149999999
 21
233.72088650000001
  0
LINE
  8
_0-0_0
  6
CONTINUOUS
 62
    7
 10
148.80345149999999
 20
233.72088650000001
 11
148.92892449999999
 21
233.72463949999999
  0
LINE
  8
_0-0_0
  6
CONTINUOUS
 62
    7
 10
147.92892449999999
 20
232.31042450000001
 11
147.92892449999999
 21
233.2800905
  0
ARC
  8
_0-0_0
  6
CONTINUOUS
 62
    7
 10
148.92892449999999
 20
205.92465150000001
 40
1
 50
180.00000900000003
 51
269.99999700000001
  0
LINE
  8
_0-0_0
  6
CONTINUOUS
 62
    7
 10
147.92892449999999
 20
205.92465150000001
 11
147.92892449999999
 21
232.31042450000001
  0
LINE
  8
_0-0_0
  6
CONTINUOUS
 62
    7
 10
405.92892449999999
 20
233.3104855
 11
405.92892449999999
 21
234.92465150000001
  0
ARC
  8
_0-0_0
  6
CONTINUOUS
 62
    7
 10
404.92892449999999
 20
234.92465150000001
 40
1
 50
0
 51
90.000003000000007
  0
ARC
  8
_0-0_0
  6
CONTINUOUS
 62
    7
 10
148.92892449999999
 20
234.92465150000001
 40
1
 50
90.000003000000007
 51
180.00000900000001
  0
LINE
  8
_0-0_0
  6
CONTINUOUS
 62
    7
 10
147.92892449999999
 20
233.2800905
 11
147.92892449999999
 21
234.92465150000001
  0
LINE
  8
_0-0_0
  6
CONTINUOUS
 62
    7
 10
60.11324350000001
 20
202.8245695
 11
60.11324350000001
 21
202.7995755
  0
LINE
  8
_0-0_0
  6
CONTINUOUS
 62
    7
 10
60.11324350000001
 20
199.74745150000001
 11
60.11324350000001
 21
199.84957850000001
  0
LINE
  8
_0-0_0
  6
CONTINUOUS
 62
    7
 10
60.11324350000001
 20
178.7245715
 11
60.11324350000001
 21
179.50169349999999
  0
LINE
  8
_0-0_0
  6
CONTINUOUS
 62
    7
 10
43.313245499999994
 20
178.7245715
 11
60.11324350000001
 21
178.7245715
  0
LINE
  8
_0-0_0
  6
CONTINUOUS
 62
    7
 10
43.313245499999994
 20
186.6245725
 11
43.313245499999994
 21
178.7245715
  0
LINE
  8
_0-0_0
  6
CONTINUOUS
 62
    7
 10
43.313245499999994
 20
199.07989449999999
 11
43.313245499999994
 21
192.6245725
  0
LINE
  8
_0-0_0
  6
CONTINUOUS
 62
    7
 10
60.613227499999994
 20
182.2245715
 11
60.813247499999989
 21
182.2245715
  0
LINE
  8
_0-0_0
  6
CONTINUOUS
 62
    7
 10
60.813247499999989
 20
182.2245715
 11
60.813247499999989
 21
185.2245715
  0
LINE
  8
_0-0_0
  6
CONTINUOUS
 62
    7
 10
60.813247499999989
 20
198.8245695
 11
60.813247499999989
 21
185.2245715
  0
LINE
  8
_0-0_0
  6
CONTINUOUS
 62
    7
 10
60.61324350000001
 20
201.8245695
 11
60.813247499999989
 21
201.8245695
  0
LINE
  8
_0-0_0
  6
CONTINUOUS
 62
    7
 10
60.813247499999989
 20
198.8245695
 11
60.813247499999989
 21
201.8245695
  0
LINE
  8
_0-0_0
  6
CONTINUOUS
 62
    7
 10
59.913246500000014
 20
201.1236265
 11
59.913246500000014
 21
199.94444250000001
  0
LINE
  8
_0-0_0
  6
CONTINUOUS
 62
    7
 10
59.913246500000014
 20
203.3245695
 11
59.913246500000014
 21
202.8245695
  0
LINE
  8
_0-0_0
  6
CONTINUOUS
 62
    7
 10
58.913246500000014
 20
200.4080505
 11
58.913246500000014
 21
201.1245725
  0
ARC
  8
_0-0_0
  6
CONTINUOUS
 62
    7
 10
58.61324350000001
 20
198.4245755
 40
2
 50
0
 51
90.000003000000007
  0
LINE
  8
_0-0_0
  6
CONTINUOUS
 62
    7
 10
60.61324350000001
 20
194.9245755
 11
60.61324350000001
 21
197.9245755
  0
LINE
  8
_0-0_0
  6
CONTINUOUS
 62
    7
 10
60.61324350000001
 20
197.9245755
 11
60.61324350000001
 21
198.4245755
  0
LINE
  8
_0-0_0
  6
CONTINUOUS
 62
    7
 10
60.61324350000001
 20
180.8245695
 11
60.61324350000001
 21
194.4245755
  0
LINE
  8
_0-0_0
  6
CONTINUOUS
 62
    7
 10
60.61324350000001
 20
194.9245755
 11
60.61324350000001
 21
194.4245755
  0
ARC
  8
_0-0_0
  6
CONTINUOUS
 62
    7
 10
58.61324350000001
 20
180.8245695
 40
2
 50
273.84026500000004
 51
0.000010000000014
  0
LINE
  8
_0-0_0
  6
CONTINUOUS
 62
    7
 10
45.313245499999994
 20
200.4080505
 11
45.313245499999994
 21
201.1245725
  0
LINE
  8
_0-0_0
  6
CONTINUOUS
 62
    7
 10
45.313245499999994
 20
200.4080505
 11
45.313245499999994
 21
200.40194650000001
  0
LINE
  8
_0-0_0
  6
CONTINUOUS
 62
    7
 10
43.313245499999994
 20
199.07989449999999
 11
43.313245499999994
 21
199.57989449999999
  0
LINE
  8
_0-0_0
  6
CONTINUOUS
 62
    7
 10
43.613246500000002
 20
198.4245755
 11
43.613246500000002
 21
184.8245695
  0
LINE
  8
_0-0_0
  6
CONTINUOUS
 62
    7
 10
43.613246500000002
 20
184.3245695
 11
43.613246500000002
 21
184.8245695
  0
LINE
  8
_0-0_0
  6
CONTINUOUS
 62
    7
 10
43.613246500000002
 20
181.3245695
 11
43.613246500000002
 21
184.3245695
  0
LINE
  8
_0-0_0
  6
CONTINUOUS
 62
    7
 10
43.613246500000002
 20
180.8245695
 11
43.613246500000002
 21
181.3245695
  0
ARC
  8
_0-0_0
  6
CONTINUOUS
 62
    7
 10
45.613246500000002
 20
198.4245755
 40
2
 50
93.840255999999997
 51
180.00000900000001
  0
LINE
  8
_0-0_0
  6
CONTINUOUS
 62
    7
 10
43.313245499999994
 20
186.6245725
 11
43.313245499999994
 21
192.6245725
  0
LINE
  8
_0-0_0
  6
CONTINUOUS
 62
    7
 10
43.313245499999994
 20
201.1245725
 11
43.313245499999994
 21
199.5798795
  0
LINE
  8
_0-0_0
  6
CONTINUOUS
 62
    7
 10
43.313245499999994
 20
192.6245725
 11
43.613237499999997
 21
192.6245725
  0
LINE
  8
_0-0_0
  6
CONTINUOUS
 62
    7
 10
43.313245499999994
 20
186.6245725
 11
43.613237499999997
 21
186.6245725
  0
LINE
  8
_0-0_0
  6
CONTINUOUS
 62
    7
 10
58.61324350000001
 20
178.8245695
 11
49.613246500000002
 21
178.8245695
  0
LINE
  8
_0-0_0
  6
CONTINUOUS
 62
    7
 10
46.113246500000002
 20
178.8245695
 11
45.613246500000002
 21
178.8245695
  0
LINE
  8
_0-0_0
  6
CONTINUOUS
 62
    7
 10
49.113246500000002
 20
178.8245695
 11
46.113246500000002
 21
178.8245695
  0
LINE
  8
_0-0_0
  6
CONTINUOUS
 62
    7
 10
49.613246500000002
 20
178.8245695
 11
49.113246500000002
 21
178.8245695
  0
ARC
  8
_0-0_0
  6
CONTINUOUS
 62
    7
 10
45.613246500000002
 20
180.8245695
 40
2
 50
180.00000900000003
 51
269.99999700000001
  0
ARC
  8
_0-0_0
  6
CONTINUOUS
 62
    7
 10
59.413246500000014
 20
203.3245695
 40
0.5
 50
0
 51
90.000003000000007
  0
LINE
  8
_0-0_0
  6
CONTINUOUS
 62
    7
 10
57.913246500000014
 20
203.8245695
 11
59.413246500000014
 21
203.8245695
  0
ARC
  8
_0-0_0
  6
CONTINUOUS
 62
    7
 10
57.913246500000014
 20
204.8245695
 40
1
 50
180.00000900000003
 51
269.99999700000001
  0
LINE
  8
_0-0_0
  6
CONTINUOUS
 62
    7
 10
56.913246500000014
 20
204.8245695
 11
56.913246500000014
 21
204.92465150000001
  0
LINE
  8
_0-0_0
  6
CONTINUOUS
 62
    7
 10
56.413246500000014
 20
203.8245695
 11
56.413246500000014
 21
204.92465150000001
  0
ARC
  8
_0-0_0
  6
CONTINUOUS
 62
    7
 10
57.413246500000014
 20
203.8245695
 40
1
 50
180.00000900000003
 51
269.99999700000001
  0
LINE
  8
_0-0_0
  6
CONTINUOUS
 62
    7
 10
57.413246500000014
 20
202.8245695
 11
57.213245499999999
 21
202.8245695
  0
ARC
  8
_0-0_0
  6
CONTINUOUS
 62
    7
 10
57.213245499999999
 20
203.8245695
 40
1
 50
180.00000900000003
 51
269.99999700000001
  0
ARC
  8
_0-0_0
  6
CONTINUOUS
 62
    7
 10
47.013244500000013
 20
203.8245695
 40
1
 50
269.99999700000001
 51
0
  0
LINE
  8
_0-0_0
  6
CONTINUOUS
 62
    7
 10
47.013244500000013
 20
202.8245695
 11
46.313245499999994
 21
202.8245695
  0
LINE
  8
_0-0_0
  6
CONTINUOUS
 62
    7
 10
60.11324350000001
 20
202.8245695
 11
59.913246500000014
 21
202.8245695
  0
LINE
  8
_0-0_0
  6
CONTINUOUS
 62
    7
 10
43.313245499999994
 20
201.1245725
 11
60.11324350000001
 21
201.1245725
  0
LINE
  8
_0-0_0
  6
CONTINUOUS
 62
    7
 10
60.11324350000001
 20
201.1245725
 11
60.11324350000001
 21
202.8245695
  0
LINE
  8
_0-0_0
  6
CONTINUOUS
 62
    7
 10
56.213245499999999
 20
204.92465150000001
 11
56.213245499999999
 21
203.8245695
  0
LINE
  8
_0-0_0
  6
CONTINUOUS
 62
    7
 10
48.013244500000013
 20
203.8245695
 11
48.013244500000013
 21
204.92465150000001
  0
LINE
  8
_0-0_0
  6
CONTINUOUS
 62
    7
 10
44.313245499999994
 20
202.8245695
 11
43.313245499999994
 21
202.8245695
  0
LINE
  8
_0-0_0
  6
CONTINUOUS
 62
    7
 10
43.313245499999994
 20
201.1245725
 11
43.313245499999994
 21
202.8245695
  0
LINE
  8
_0-0_0
  6
CONTINUOUS
 62
    7
 10
58.61324350000001
 20
200.4245755
 11
58.11324350000001
 21
200.4245755
  0
CIRCLE
  8
_0-0_0
  6
CONTINUOUS
 62
    7
 10
58.11324350000001
 20
197.9245755
 40
2.5
  0
LINE
  8
_0-0_0
  6
CONTINUOUS
 62
    7
 10
45.613246500000002
 20
200.4245755
 11
54.613246500000002
 21
200.4245755
  0
LINE
  8
_0-0_0
  6
CONTINUOUS
 62
    7
 10
58.11324350000001
 20
200.4245755
 11
55.113246500000002
 21
200.4245755
  0
LINE
  8
_0-0_0
  6
CONTINUOUS
 62
    7
 10
54.613246500000002
 20
200.4245755
 11
55.113246500000002
 21
200.4245755
  0
ARC
  8
_0-0_0
  6
CONTINUOUS
 62
    7
 10
60.11324350000001
 20
194.4245755
 40
0.5
 50
0
 51
90.000003000000007
  0
LINE
  8
_0-0_0
  6
CONTINUOUS
 62
    7
 10
58.61324350000001
 20
178.9272005
 11
58.62912750000001
 21
178.89994849999999
  0
LINE
  8
_0-0_0
  6
CONTINUOUS
 62
    7
 10
58.62912750000001
 20
178.89994849999999
 11
58.644970499999999
 21
178.8769685
  0
LINE
  8
_0-0_0
  6
CONTINUOUS
 62
    7
 10
58.644970499999999
 20
178.8769685
 11
58.658950500000003
 21
178.86021449999998
  0
LINE
  8
_0-0_0
  6
CONTINUOUS
 62
    7
 10
58.658950500000003
 20
178.86021449999998
 11
58.672851500000007
 21
178.84688549999998
  0
LINE
  8
_0-0_0
  6
CONTINUOUS
 62
    7
 10
58.672851500000007
 20
178.84688549999998
 11
58.685066500000005
 21
178.83795950000001
  0
LINE
  8
_0-0_0
  6
CONTINUOUS
 62
    7
 10
58.685066500000005
 20
178.83795950000001
 11
58.697185499999989
 21
178.8317485
  0
LINE
  8
_0-0_0
  6
CONTINUOUS
 62
    7
 10
58.697185499999989
 20
178.8317485
 11
58.708053500000005
 21
178.82846849999999
  0
LINE
  8
_0-0_0
  6
CONTINUOUS
 62
    7
 10
58.708053500000005
 20
178.82846849999999
 11
58.718811500000015
 21
178.8274155
  0
LINE
  8
_0-0_0
  6
CONTINUOUS
 62
    7
 10
58.718811500000015
 20
178.8274155
 11
58.7212715
 21
178.8274845
  0
LINE
  8
_0-0_0
  6
CONTINUOUS
 62
    7
 10
44.313245499999994
 20
199.94444250000001
 11
44.313245499999994
 21
201.1236265
  0
ARC
  8
_0-0_0
  6
CONTINUOUS
 62
    7
 10
44.113246500000002
 20
184.8245695
 40
0.5
 50
180.00000900000003
 51
269.99999700000001
  0
CIRCLE
  8
_0-0_0
  6
CONTINUOUS
 62
    7
 10
46.113246500000002
 20
181.3245695
 40
2.5
  0
LINE
  8
_0-0_0
  6
CONTINUOUS
 62
    7
 10
45.613246500000002
 20
200.3219455
 11
45.597366500000021
 21
200.3491975
  0
LINE
  8
_0-0_0
  6
CONTINUOUS
 62
    7
 10
45.597366500000021
 20
200.3491975
 11
45.581520500000011
 21
200.37217749999999
  0
LINE
  8
_0-0_0
  6
CONTINUOUS
 62
    7
 10
45.581520500000011
 20
200.37217749999999
 11
45.567541500000004
 21
200.38893150000001
  0
LINE
  8
_0-0_0
  6
CONTINUOUS
 62
    7
 10
45.567541500000004
 20
200.38893150000001
 11
45.5536405
 21
200.4022525
  0
LINE
  8
_0-0_0
  6
CONTINUOUS
 62
    7
 10
45.5536405
 20
200.4022525
 11
45.541423500000008
 21
200.41117850000001
  0
LINE
  8
_0-0_0
  6
CONTINUOUS
 62
    7
 10
45.541423500000008
 20
200.41117850000001
 11
45.529304499999995
 21
200.41738850000002
  0
LINE
  8
_0-0_0
  6
CONTINUOUS
 62
    7
 10
45.529304499999995
 20
200.41738850000002
 11
45.518440499999997
 21
200.4206695
  0
LINE
  8
_0-0_0
  6
CONTINUOUS
 62
    7
 10
45.518440499999997
 20
200.4206695
 11
45.507679499999995
 21
200.42172250000002
  0
LINE
  8
_0-0_0
  6
CONTINUOUS
 62
    7
 10
45.507679499999995
 20
200.42172250000002
 11
45.505218500000012
 21
200.4216615
  0
LINE
  8
_0-0_0
  6
CONTINUOUS
 62
    7
 10
43.313245499999994
 20
182.2245715
 11
43.213245499999999
 21
182.2245715
  0
LINE
  8
_0-0_0
  6
CONTINUOUS
 62
    7
 10
43.213245499999999
 20
182.2245715
 11
43.213245499999999
 21
185.2245715
  0
LINE
  8
_0-0_0
  6
CONTINUOUS
 62
    7
 10
43.213245499999999
 20
185.2245715
 11
43.213245499999999
 21
198.8245695
  0
LINE
  8
_0-0_0
  6
CONTINUOUS
 62
    7
 10
43.313245499999994
 20
201.8245695
 11
43.213245499999999
 21
201.8245695
  0
LINE
  8
_0-0_0
  6
CONTINUOUS
 62
    7
 10
43.213245499999999
 20
198.8245695
 11
43.213245499999999
 21
201.8245695
  0
ARC
  8
_0-0_0
  6
CONTINUOUS
 62
    7
 10
49.613246500000002
 20
179.3245695
 40
0.5
 50
180.00000900000003
 51
269.99999700000001
  0
ARC
  8
_0-0_0
  6
CONTINUOUS
 62
    7
 10
46.313245499999994
 20
204.3246455
 40
1.5
 50
269.99999700000001
 51
0
  0
ARC
  8
_0-0_0
  6
CONTINUOUS
 62
    7
 10
44.813245499999994
 20
203.3246455
 40
0.5
 50
90.000003000000007
 51
180.00000900000001
  0
LINE
  8
_0-0_0
  6
CONTINUOUS
 62
    7
 10
44.813245499999994
 20
203.8246455
 11
46.313245499999994
 21
203.8246455
  0
ARC
  8
_0-0_0
  6
CONTINUOUS
 62
    7
 10
46.313245499999994
 20
204.8246455
 40
1
 50
269.99999700000001
 51
0
  0
LINE
  8
_0-0_0
  6
CONTINUOUS
 62
    7
 10
47.313247499999989
 20
204.92465150000001
 11
47.313247499999989
 21
204.8246455
  0
LINE
  8
_0-0_0
  6
CONTINUOUS
 62
    7
 10
47.813247499999989
 20
204.92465150000001
 11
47.813247499999989
 21
204.3246455
  0
LINE
  8
_0-0_0
  6
CONTINUOUS
 62
    7
 10
44.313245499999994
 20
202.8246455
 11
44.313245499999994
 21
203.3246455
  0
ARC
  8
_0-0_0
  6
CONTINUOUS
 62
    7
 10
54.613246500000002
 20
199.9245755
 40
0.5
 50
0
 51
90.000003000000007
  0
LINE
  8
_0-0_0
  6
CONTINUOUS
 62
    7
 10
55.113246500000002
 20
199.84759550000001
 11
55.113246500000002
 21
199.9245755
  0
LINE
  8
_0-0_0
  6
CONTINUOUS
 62
    7
 10
55.113246500000002
 20
198.40606650000001
 11
55.113246500000002
 21
199.84759550000001
  0
LINE
  8
_0-0_0
  6
CONTINUOUS
 62
    7
 10
55.113246500000002
 20
197.9245755
 11
55.113246500000002
 21
198.40606650000001
  0
ARC
  8
_0-0_0
  6
CONTINUOUS
 62
    7
 10
58.11324350000001
 20
197.9245755
 40
3
 50
180.00000900000003
 51
269.99999700000001
  0
LINE
  8
_0-0_0
  6
CONTINUOUS
 62
    7
 10
58.594749500000006
 20
194.9245755
 11
58.11324350000001
 21
194.9245755
  0
LINE
  8
_0-0_0
  6
CONTINUOUS
 62
    7
 10
58.594749500000006
 20
194.9245755
 11
60.036270500000001
 21
194.9245755
  0
LINE
  8
_0-0_0
  6
CONTINUOUS
 62
    7
 10
60.11324350000001
 20
194.9245755
 11
60.036270500000001
 21
194.9245755
  0
LINE
  8
_0-0_0
  6
CONTINUOUS
 62
    7
 10
44.190219500000012
 20
184.3245695
 11
44.113246500000002
 21
184.3245695
  0
LINE
  8
_0-0_0
  6
CONTINUOUS
 62
    7
 10
46.113246500000002
 20
184.3245695
 11
45.631744499999996
 21
184.3245695
  0
LINE
  8
_0-0_0
  6
CONTINUOUS
 62
    7
 10
45.631744499999996
 20
184.3245695
 11
44.190219500000012
 21
184.3245695
  0
LINE
  8
_0-0_0
  6
CONTINUOUS
 62
    7
 10
49.113246500000002
 20
179.3245695
 11
49.113246500000002
 21
179.40155049999998
  0
LINE
  8
_0-0_0
  6
CONTINUOUS
 62
    7
 10
49.113246500000002
 20
180.84307050000001
 11
49.113246500000002
 21
179.40155049999998
  0
LINE
  8
_0-0_0
  6
CONTINUOUS
 62
    7
 10
49.113246500000002
 20
180.84307050000001
 11
49.113246500000002
 21
181.3245695
  0
ARC
  8
_0-0_0
  6
CONTINUOUS
 62
    7
 10
46.113246500000002
 20
181.3245695
 40
3
 50
0
 51
89.999995999999996
  0
LINE
  8
_0-0_0
  6
CONTINUOUS
 62
    7
 10
60.61324350000001
 20
201.93583649999999
 11
60.61324350000001
 21
200.0495755
  0
LINE
  8
_0-0_0
  6
CONTINUOUS
 62
    7
 10
60.61324350000001
 20
202.59957850000001
 11
60.61324350000001
 21
201.93583649999999
  0
ARC
  8
_0-0_0
  6
CONTINUOUS
 62
    7
 10
55.343360500000017
 20
190.79780550000001
 40
3.063396
 50
19.82113
 51
25.289563000000001
  0
ARC
  8
_0-0_0
  6
CONTINUOUS
 62
    7
 10
55.343681500000002
 20
188.45120249999999
 40
3.0630519999999999
 50
334.71006
 51
340.17869200000001
  0
ARC
  8
_0-0_0
  6
CONTINUOUS
 62
    7
 10
48.883132500000016
 20
188.4513245
 40
3.063399
 50
199.82113599999997
 51
205.28948099999999
  0
ARC
  8
_0-0_0
  6
CONTINUOUS
 62
    7
 10
48.8828125
 20
190.7979425
 40
3.0630549999999999
 50
154.710137
 51
160.17869999999999
  0
ARC
  8
_0-0_0
  6
CONTINUOUS
 62
    7
 10
52.113246500000002
 20
189.6245725
 40
6.5
 50
340.10416099999998
 51
19.895609999999952
  0
ARC
  8
_0-0_0
  6
CONTINUOUS
 62
    7
 10
52.113246500000002
 20
189.6245725
 40
6.5
 50
160.10415599999999
 51
199.895612
  0
LINE
  8
_0-0_0
  6
CONTINUOUS
 62
    7
 10
43.613246500000002
 20
200.7133785
 11
43.613246500000002
 21
201.12368749999999
  0
LINE
  8
_0-0_0
  6
CONTINUOUS
 62
    7
 10
43.613246500000002
 20
200.0544735
 11
43.613246500000002
 21
200.7133785
  0
LINE
  8
_0-0_0
  6
CONTINUOUS
 62
    7
 10
51.371574500000008
 20
196.1245725
 11
46.854915500000004
 21
193.5168765
  0
LINE
  8
_0-0_0
  6
CONTINUOUS
 62
    7
 10
52.854915500000004
 20
196.1245725
 11
51.371574500000008
 21
196.1245725
  0
LINE
  8
_0-0_0
  6
CONTINUOUS
 62
    7
 10
57.371574500000008
 20
193.5168765
 11
52.854915500000004
 21
196.1245725
  0
LINE
  8
_0-0_0
  6
CONTINUOUS
 62
    7
 10
58.11324350000001
 20
192.2322695
 11
58.11324350000001
 21
187.01687650000002
  0
LINE
  8
_0-0_0
  6
CONTINUOUS
 62
    7
 10
57.371574500000008
 20
193.5168765
 11
58.11324350000001
 21
192.2322695
  0
LINE
  8
_0-0_0
  6
CONTINUOUS
 62
    7
 10
52.854915500000004
 20
183.1245725
 11
57.371574500000008
 21
185.7322695
  0
LINE
  8
_0-0_0
  6
CONTINUOUS
 62
    7
 10
57.665702500000009
 20
186.24170650000002
 11
58.11324350000001
 21
187.01687650000002
  0
LINE
  8
_0-0_0
  6
CONTINUOUS
 62
    7
 10
57.665702500000009
 20
186.24170650000002
 11
57.371574500000008
 21
185.7322695
  0
LINE
  8
_0-0_0
  6
CONTINUOUS
 62
    7
 10
51.371574500000008
 20
183.1245725
 11
52.854915500000004
 21
183.1245725
  0
LINE
  8
_0-0_0
  6
CONTINUOUS
 62
    7
 10
46.854915500000004
 20
185.7322695
 11
51.371574500000008
 21
183.1245725
  0
LINE
  8
_0-0_0
  6
CONTINUOUS
 62
    7
 10
46.113246500000002
 20
192.2322695
 11
46.113246500000002
 21
187.01687650000002
  0
LINE
  8
_0-0_0
  6
CONTINUOUS
 62
    7
 10
46.854915500000004
 20
185.7322695
 11
46.113246500000002
 21
187.01687650000002
  0
LINE
  8
_0-0_0
  6
CONTINUOUS
 62
    7
 10
46.560791499999993
 20
193.0074305
 11
46.113246500000002
 21
192.2322695
  0
LINE
  8
_0-0_0
  6
CONTINUOUS
 62
    7
 10
46.560791499999993
 20
193.0074305
 11
46.854915500000004
 21
193.5168765
  0
LINE
  8
_0-0_0
  6
CONTINUOUS
 62
    7
 10
60.00025149999999
 20
199.15000950000001
 11
60.278308500000009
 21
199.1745755
  0
LINE
  8
_0-0_0
  6
CONTINUOUS
 62
    7
 10
60.118011500000023
 20
198.9460445
 11
60.278308500000009
 21
199.1745755
  0
LINE
  8
_0-0_0
  6
CONTINUOUS
 62
    7
 10
59.861824500000012
 20
199.34054549999999
 11
60.13578849999999
 21
199.39402749999999
  0
LINE
  8
_0-0_0
  6
CONTINUOUS
 62
    7
 10
60.00025149999999
 20
199.15000950000001
 11
60.13578849999999
 21
199.39402749999999
  0
LINE
  8
_0-0_0
  6
CONTINUOUS
 62
    7
 10
59.70423550000001
 20
199.51556350000001
 11
59.971107500000016
 21
199.5973965
  0
LINE
  8
_0-0_0
  6
CONTINUOUS
 62
    7
 10
59.861824500000012
 20
199.34054549999999
 11
59.971107500000016
 21
199.5973965
  0
LINE
  8
_0-0_0
  6
CONTINUOUS
 62
    7
 10
59.529216500000018
 20
199.6731565
 11
59.786071499999991
 21
199.78244050000001
  0
LINE
  8
_0-0_0
  6
CONTINUOUS
 62
    7
 10
59.70423550000001
 20
199.51556350000001
 11
59.786071499999991
 21
199.78244050000001
  0
LINE
  8
_0-0_0
  6
CONTINUOUS
 62
    7
 10
59.338684499999999
 20
199.81158450000001
 11
59.582710500000019
 21
199.9471125
  0
LINE
  8
_0-0_0
  6
CONTINUOUS
 62
    7
 10
59.529216500000018
 20
199.6731565
 11
59.582710500000019
 21
199.9471125
  0
LINE
  8
_0-0_0
  6
CONTINUOUS
 62
    7
 10
59.134723500000007
 20
199.92933650000001
 11
59.36324350000001
 21
200.0896305
  0
LINE
  8
_0-0_0
  6
CONTINUOUS
 62
    7
 10
59.338684499999999
 20
199.81158450000001
 11
59.36324350000001
 21
200.0896305
  0
LINE
  8
_0-0_0
  6
CONTINUOUS
 62
    7
 10
58.91957050000002
 20
200.02513150000001
 11
59.130088499999999
 21
200.20843450000001
  0
LINE
  8
_0-0_0
  6
CONTINUOUS
 62
    7
 10
59.134723500000007
 20
199.92933650000001
 11
59.130088499999999
 21
200.20843450000001
  0
LINE
  8
_0-0_0
  6
CONTINUOUS
 62
    7
 10
58.695587500000016
 20
200.09790050000001
 11
58.88578849999999
 21
200.30221549999999
  0
LINE
  8
_0-0_0
  6
CONTINUOUS
 62
    7
 10
58.91957050000002
 20
200.02513150000001
 11
58.88578849999999
 21
200.30221549999999
  0
LINE
  8
_0-0_0
  6
CONTINUOUS
 62
    7
 10
58.465225500000003
 20
200.14686549999999
 11
58.6330265
 21
200.3699335
  0
LINE
  8
_0-0_0
  6
CONTINUOUS
 62
    7
 10
58.695587500000016
 20
200.09790050000001
 11
58.6330265
 21
200.3699335
  0
LINE
  8
_0-0_0
  6
CONTINUOUS
 62
    7
 10
58.231002500000017
 20
200.1714935
 11
58.374565500000017
 21
200.41087350000001
  0
LINE
  8
_0-0_0
  6
CONTINUOUS
 62
    7
 10
58.465225500000003
 20
200.14686549999999
 11
58.374565500000017
 21
200.41087350000001
  0
LINE
  8
_0-0_0
  6
CONTINUOUS
 62
    7
 10
57.995491500000014
 20
200.1714935
 11
58.11324350000001
 21
200.4245755
  0
LINE
  8
_0-0_0
  6
CONTINUOUS
 62
    7
 10
58.231002500000017
 20
200.1714935
 11
58.11324350000001
 21
200.4245755
  0
LINE
  8
_0-0_0
  6
CONTINUOUS
 62
    7
 10
57.7612685
 20
200.14686549999999
 11
57.851924499999996
 21
200.41087350000001
  0
LINE
  8
_0-0_0
  6
CONTINUOUS
 62
    7
 10
57.995491500000014
 20
200.1714935
 11
57.851924499999996
 21
200.41087350000001
  0
LINE
  8
_0-0_0
  6
CONTINUOUS
 62
    7
 10
57.530902499999996
 20
200.09790050000001
 11
57.593467500000003
 21
200.3699335
  0
LINE
  8
_0-0_0
  6
CONTINUOUS
 62
    7
 10
57.7612685
 20
200.14686549999999
 11
57.593467500000003
 21
200.3699335
  0
LINE
  8
_0-0_0
  6
CONTINUOUS
 62
    7
 10
57.306915500000002
 20
200.02513150000001
 11
57.340705500000013
 21
200.30221549999999
  0
LINE
  8
_0-0_0
  6
CONTINUOUS
 62
    7
 10
57.530902499999996
 20
200.09790050000001
 11
57.340705500000013
 21
200.30221549999999
  0
LINE
  8
_0-0_0
  6
CONTINUOUS
 62
    7
 10
57.091766500000006
 20
199.92933650000001
 11
57.096405500000003
 21
200.20843450000001
  0
LINE
  8
_0-0_0
  6
CONTINUOUS
 62
    7
 10
57.306915500000002
 20
200.02513150000001
 11
57.096405500000003
 21
200.20843450000001
  0
LINE
  8
_0-0_0
  6
CONTINUOUS
 62
    7
 10
56.972229499999997
 20
200.0131835
 11
56.86324350000001
 21
200.0896305
  0
LINE
  8
_0-0_0
  6
CONTINUOUS
 62
    7
 10
57.091766500000006
 20
199.92933650000001
 11
56.972229499999997
 21
200.0131835
  0
LINE
  8
_0-0_0
  6
CONTINUOUS
 62
    7
 10
56.887809500000003
 20
199.81158450000001
 11
56.86324350000001
 21
200.0896305
  0
LINE
  8
_0-0_0
  6
CONTINUOUS
 62
    7
 10
56.697273499999994
 20
199.6731565
 11
56.643783500000012
 21
199.9471125
  0
LINE
  8
_0-0_0
  6
CONTINUOUS
 62
    7
 10
56.887809500000003
 20
199.81158450000001
 11
56.643783500000012
 21
199.9471125
  0
LINE
  8
_0-0_0
  6
CONTINUOUS
 62
    7
 10
56.5222555
 20
199.51556350000001
 11
56.440418500000021
 21
199.78244050000001
  0
LINE
  8
_0-0_0
  6
CONTINUOUS
 62
    7
 10
56.697273499999994
 20
199.6731565
 11
56.440418500000021
 21
199.78244050000001
  0
LINE
  8
_0-0_0
  6
CONTINUOUS
 62
    7
 10
56.364669499999991
 20
199.34054549999999
 11
56.255386500000014
 21
199.5973965
  0
LINE
  8
_0-0_0
  6
CONTINUOUS
 62
    7
 10
56.5222555
 20
199.51556350000001
 11
56.255386500000014
 21
199.5973965
  0
LINE
  8
_0-0_0
  6
CONTINUOUS
 62
    7
 10
56.226234500000004
 20
199.15000950000001
 11
56.090705500000013
 21
199.39402749999999
  0
LINE
  8
_0-0_0
  6
CONTINUOUS
 62
    7
 10
56.364669499999991
 20
199.34054549999999
 11
56.090705500000013
 21
199.39402749999999
  0
LINE
  8
_0-0_0
  6
CONTINUOUS
 62
    7
 10
56.108482500000008
 20
198.9460445
 11
55.948181500000004
 21
199.1745755
  0
LINE
  8
_0-0_0
  6
CONTINUOUS
 62
    7
 10
56.226234500000004
 20
199.15000950000001
 11
55.948181500000004
 21
199.1745755
  0
LINE
  8
_0-0_0
  6
CONTINUOUS
 62
    7
 10
56.012687499999998
 20
198.7308955
 11
55.829383500000006
 21
198.9414065
  0
LINE
  8
_0-0_0
  6
CONTINUOUS
 62
    7
 10
56.108482500000008
 20
198.9460445
 11
55.829383500000006
 21
198.9414065
  0
LINE
  8
_0-0_0
  6
CONTINUOUS
 62
    7
 10
55.939910499999996
 20
198.5069125
 11
55.735603499999996
 21
198.6971125
  0
LINE
  8
_0-0_0
  6
CONTINUOUS
 62
    7
 10
56.012687499999998
 20
198.7308955
 11
55.735603499999996
 21
198.6971125
  0
LINE
  8
_0-0_0
  6
CONTINUOUS
 62
    7
 10
55.890945500000015
 20
198.27655050000001
 11
55.667877500000003
 21
198.44435150000001
  0
LINE
  8
_0-0_0
  6
CONTINUOUS
 62
    7
 10
55.939910499999996
 20
198.5069125
 11
55.667877500000003
 21
198.44435150000001
  0
LINE
  8
_0-0_0
  6
CONTINUOUS
 62
    7
 10
55.890945500000015
 20
198.27655050000001
 11
55.626941500000015
 21
198.18589750000001
  0
LINE
  8
_0-0_0
  6
CONTINUOUS
 62
    7
 10
55.866329500000006
 20
198.0423275
 11
55.626941500000015
 21
198.18589750000001
  0
LINE
  8
_0-0_0
  6
CONTINUOUS
 62
    7
 10
55.866329500000006
 20
197.80680849999999
 11
55.61324350000001
 21
197.9245755
  0
LINE
  8
_0-0_0
  6
CONTINUOUS
 62
    7
 10
55.866329500000006
 20
198.0423275
 11
55.61324350000001
 21
197.9245755
  0
LINE
  8
_0-0_0
  6
CONTINUOUS
 62
    7
 10
55.890945500000015
 20
197.57260149999999
 11
55.626941500000015
 21
197.6632535
  0
LINE
  8
_0-0_0
  6
CONTINUOUS
 62
    7
 10
55.866329500000006
 20
197.80680849999999
 11
55.626941500000015
 21
197.6632535
  0
LINE
  8
_0-0_0
  6
CONTINUOUS
 62
    7
 10
55.939910499999996
 20
197.34222450000001
 11
55.667877500000003
 21
197.4047855
  0
LINE
  8
_0-0_0
  6
CONTINUOUS
 62
    7
 10
55.890945500000015
 20
197.57260149999999
 11
55.667877500000003
 21
197.4047855
  0
LINE
  8
_0-0_0
  6
CONTINUOUS
 62
    7
 10
56.012687499999998
 20
197.11824050000001
 11
55.735603499999996
 21
197.15202350000001
  0
LINE
  8
_0-0_0
  6
CONTINUOUS
 62
    7
 10
55.939910499999996
 20
197.34222450000001
 11
55.735603499999996
 21
197.15202350000001
  0
LINE
  8
_0-0_0
  6
CONTINUOUS
 62
    7
 10
56.108482500000008
 20
196.90309150000002
 11
55.829383500000006
 21
196.90772950000002
  0
LINE
  8
_0-0_0
  6
CONTINUOUS
 62
    7
 10
56.012687499999998
 20
197.11824050000001
 11
55.829383500000006
 21
196.90772950000002
  0
LINE
  8
_0-0_0
  6
CONTINUOUS
 62
    7
 10
56.226234500000004
 20
196.6991275
 11
55.948181500000004
 21
196.6745755
  0
LINE
  8
_0-0_0
  6
CONTINUOUS
 62
    7
 10
56.108482500000008
 20
196.90309150000002
 11
55.948181500000004
 21
196.6745755
  0
LINE
  8
_0-0_0
  6
CONTINUOUS
 62
    7
 10
56.364669499999991
 20
196.50860550000002
 11
56.090705500000013
 21
196.45510849999999
  0
LINE
  8
_0-0_0
  6
CONTINUOUS
 62
    7
 10
56.226234500000004
 20
196.6991275
 11
56.090705500000013
 21
196.45510849999999
  0
LINE
  8
_0-0_0
  6
CONTINUOUS
 62
    7
 10
56.5222555
 20
196.33358749999999
 11
56.255386500000014
 21
196.25173950000001
  0
LINE
  8
_0-0_0
  6
CONTINUOUS
 62
    7
 10
56.364669499999991
 20
196.50860550000002
 11
56.255386500000014
 21
196.25173950000001
  0
LINE
  8
_0-0_0
  6
CONTINUOUS
 62
    7
 10
56.697273499999994
 20
196.1759945
 11
56.440418500000021
 21
196.0667115
  0
LINE
  8
_0-0_0
  6
CONTINUOUS
 62
    7
 10
56.5222555
 20
196.33358749999999
 11
56.440418500000021
 21
196.0667115
  0
LINE
  8
_0-0_0
  6
CONTINUOUS
 62
    7
 10
56.887809500000003
 20
196.03756749999999
 11
56.643783500000012
 21
195.90202350000001
  0
LINE
  8
_0-0_0
  6
CONTINUOUS
 62
    7
 10
56.697273499999994
 20
196.1759945
 11
56.643783500000012
 21
195.90202350000001
  0
LINE
  8
_0-0_0
  6
CONTINUOUS
 62
    7
 10
57.091766500000006
 20
195.91979950000001
 11
56.86324350000001
 21
195.75950650000001
  0
LINE
  8
_0-0_0
  6
CONTINUOUS
 62
    7
 10
56.887809500000003
 20
196.03756749999999
 11
56.86324350000001
 21
195.75950650000001
  0
LINE
  8
_0-0_0
  6
CONTINUOUS
 62
    7
 10
57.306915500000002
 20
195.82402049999999
 11
57.096405500000003
 21
195.64070150000001
  0
LINE
  8
_0-0_0
  6
CONTINUOUS
 62
    7
 10
57.091766500000006
 20
195.91979950000001
 11
57.096405500000003
 21
195.64070150000001
  0
LINE
  8
_0-0_0
  6
CONTINUOUS
 62
    7
 10
57.530902499999996
 20
195.75123550000001
 11
57.340705500000013
 21
195.54693549999999
  0
LINE
  8
_0-0_0
  6
CONTINUOUS
 62
    7
 10
57.306915500000002
 20
195.82402049999999
 11
57.340705500000013
 21
195.54693549999999
  0
LINE
  8
_0-0_0
  6
CONTINUOUS
 62
    7
 10
57.7612685
 20
195.7022705
 11
57.593467500000003
 21
195.47920250000001
  0
LINE
  8
_0-0_0
  6
CONTINUOUS
 62
    7
 10
57.530902499999996
 20
195.75123550000001
 11
57.593467500000003
 21
195.47920250000001
  0
LINE
  8
_0-0_0
  6
CONTINUOUS
 62
    7
 10
57.995491500000014
 20
195.67765750000001
 11
57.851924499999996
 21
195.43826250000001
  0
LINE
  8
_0-0_0
  6
CONTINUOUS
 62
    7
 10
57.7612685
 20
195.7022705
 11
57.851924499999996
 21
195.43826250000001
  0
LINE
  8
_0-0_0
  6
CONTINUOUS
 62
    7
 10
58.231002500000017
 20
195.67765750000001
 11
58.11324350000001
 21
195.4245755
  0
LINE
  8
_0-0_0
  6
CONTINUOUS
 62
    7
 10
57.995491500000014
 20
195.67765750000001
 11
58.11324350000001
 21
195.4245755
  0
LINE
  8
_0-0_0
  6
CONTINUOUS
 62
    7
 10
58.465225500000003
 20
195.7022705
 11
58.374565500000017
 21
195.43826250000001
  0
LINE
  8
_0-0_0
  6
CONTINUOUS
 62
    7
 10
58.231002500000017
 20
195.67765750000001
 11
58.374565500000017
 21
195.43826250000001
  0
LINE
  8
_0-0_0
  6
CONTINUOUS
 62
    7
 10
58.695587500000016
 20
195.75123550000001
 11
58.6330265
 21
195.47920250000001
  0
LINE
  8
_0-0_0
  6
CONTINUOUS
 62
    7
 10
58.465225500000003
 20
195.7022705
 11
58.6330265
 21
195.47920250000001
  0
LINE
  8
_0-0_0
  6
CONTINUOUS
 62
    7
 10
58.91957050000002
 20
195.82402049999999
 11
58.88578849999999
 21
195.54693549999999
  0
LINE
  8
_0-0_0
  6
CONTINUOUS
 62
    7
 10
58.695587500000016
 20
195.75123550000001
 11
58.88578849999999
 21
195.54693549999999
  0
LINE
  8
_0-0_0
  6
CONTINUOUS
 62
    7
 10
59.134723500000007
 20
195.91979950000001
 11
59.130088499999999
 21
195.64070150000001
  0
LINE
  8
_0-0_0
  6
CONTINUOUS
 62
    7
 10
58.91957050000002
 20
195.82402049999999
 11
59.130088499999999
 21
195.64070150000001
  0
LINE
  8
_0-0_0
  6
CONTINUOUS
 62
    7
 10
59.254261500000013
 20
195.83595249999999
 11
59.36324350000001
 21
195.75950650000001
  0
LINE
  8
_0-0_0
  6
CONTINUOUS
 62
    7
 10
59.134723500000007
 20
195.91979950000001
 11
59.254261500000013
 21
195.83595249999999
  0
LINE
  8
_0-0_0
  6
CONTINUOUS
 62
    7
 10
59.338684499999999
 20
196.03756749999999
 11
59.36324350000001
 21
195.75950650000001
  0
LINE
  8
_0-0_0
  6
CONTINUOUS
 62
    7
 10
59.529216500000018
 20
196.1759945
 11
59.582710500000019
 21
195.90202350000001
  0
LINE
  8
_0-0_0
  6
CONTINUOUS
 62
    7
 10
59.338684499999999
 20
196.03756749999999
 11
59.582710500000019
 21
195.90202350000001
  0
LINE
  8
_0-0_0
  6
CONTINUOUS
 62
    7
 10
59.70423550000001
 20
196.33358749999999
 11
59.786071499999991
 21
196.0667115
  0
LINE
  8
_0-0_0
  6
CONTINUOUS
 62
    7
 10
59.529216500000018
 20
196.1759945
 11
59.786071499999991
 21
196.0667115
  0
LINE
  8
_0-0_0
  6
CONTINUOUS
 62
    7
 10
59.861824500000012
 20
196.50860550000002
 11
59.971107500000016
 21
196.25173950000001
  0
LINE
  8
_0-0_0
  6
CONTINUOUS
 62
    7
 10
59.70423550000001
 20
196.33358749999999
 11
59.971107500000016
 21
196.25173950000001
  0
LINE
  8
_0-0_0
  6
CONTINUOUS
 62
    7
 10
60.00025149999999
 20
196.6991275
 11
60.13578849999999
 21
196.45510849999999
  0
LINE
  8
_0-0_0
  6
CONTINUOUS
 62
    7
 10
59.861824500000012
 20
196.50860550000002
 11
60.13578849999999
 21
196.45510849999999
  0
LINE
  8
_0-0_0
  6
CONTINUOUS
 62
    7
 10
60.118011500000023
 20
196.90309150000002
 11
60.278308500000009
 21
196.6745755
  0
LINE
  8
_0-0_0
  6
CONTINUOUS
 62
    7
 10
60.00025149999999
 20
196.6991275
 11
60.278308500000009
 21
196.6745755
  0
LINE
  8
_0-0_0
  6
CONTINUOUS
 62
    7
 10
60.213802500000014
 20
197.11824050000001
 11
60.397110499999997
 21
196.90772950000002
  0
LINE
  8
_0-0_0
  6
CONTINUOUS
 62
    7
 10
60.118011500000023
 20
196.90309150000002
 11
60.397110499999997
 21
196.90772950000002
  0
LINE
  8
_0-0_0
  6
CONTINUOUS
 62
    7
 10
60.286579500000016
 20
197.34222450000001
 11
60.490886500000016
 21
197.15202350000001
  0
LINE
  8
_0-0_0
  6
CONTINUOUS
 62
    7
 10
60.213802500000014
 20
197.11824050000001
 11
60.490886500000016
 21
197.15202350000001
  0
LINE
  8
_0-0_0
  6
CONTINUOUS
 62
    7
 10
60.335544499999997
 20
197.57260149999999
 11
60.558616499999999
 21
197.4047855
  0
LINE
  8
_0-0_0
  6
CONTINUOUS
 62
    7
 10
60.286579500000016
 20
197.34222450000001
 11
60.558616499999999
 21
197.4047855
  0
LINE
  8
_0-0_0
  6
CONTINUOUS
 62
    7
 10
60.360160500000006
 20
197.80680849999999
 11
60.599548499999997
 21
197.6632535
  0
LINE
  8
_0-0_0
  6
CONTINUOUS
 62
    7
 10
60.335544499999997
 20
197.57260149999999
 11
60.599548499999997
 21
197.6632535
  0
LINE
  8
_0-0_0
  6
CONTINUOUS
 62
    7
 10
60.360160500000006
 20
198.0423275
 11
60.61324350000001
 21
197.9245755
  0
LINE
  8
_0-0_0
  6
CONTINUOUS
 62
    7
 10
60.360160500000006
 20
197.80680849999999
 11
60.61324350000001
 21
197.9245755
  0
LINE
  8
_0-0_0
  6
CONTINUOUS
 62
    7
 10
60.335544499999997
 20
198.27655050000001
 11
60.599548499999997
 21
198.18589750000001
  0
LINE
  8
_0-0_0
  6
CONTINUOUS
 62
    7
 10
60.360160500000006
 20
198.0423275
 11
60.599548499999997
 21
198.18589750000001
  0
LINE
  8
_0-0_0
  6
CONTINUOUS
 62
    7
 10
60.286579500000016
 20
198.5069125
 11
60.558616499999999
 21
198.44435150000001
  0
LINE
  8
_0-0_0
  6
CONTINUOUS
 62
    7
 10
60.335544499999997
 20
198.27655050000001
 11
60.558616499999999
 21
198.44435150000001
  0
LINE
  8
_0-0_0
  6
CONTINUOUS
 62
    7
 10
60.213802500000014
 20
198.7308955
 11
60.490886500000016
 21
198.6971125
  0
LINE
  8
_0-0_0
  6
CONTINUOUS
 62
    7
 10
60.286579500000016
 20
198.5069125
 11
60.490886500000016
 21
198.6971125
  0
LINE
  8
_0-0_0
  6
CONTINUOUS
 62
    7
 10
60.118011500000023
 20
198.9460445
 11
60.397110499999997
 21
198.9414065
  0
LINE
  8
_0-0_0
  6
CONTINUOUS
 62
    7
 10
60.213802500000014
 20
198.7308955
 11
60.397110499999997
 21
198.9414065
  0
CIRCLE
  8
_0-0_0
  6
CONTINUOUS
 62
    7
 10
52.113246500000002
 20
189.6245725
 40
5.25
  0
LINE
  8
_0-0_0
  6
CONTINUOUS
 62
    7
 10
48.000255500000009
 20
182.55001049999998
 11
48.278308500000009
 21
182.5745695
  0
LINE
  8
_0-0_0
  6
CONTINUOUS
 62
    7
 10
48.118011500000023
 20
182.34605349999998
 11
48.278308500000009
 21
182.5745695
  0
LINE
  8
_0-0_0
  6
CONTINUOUS
 62
    7
 10
47.861824500000012
 20
182.74053950000001
 11
48.13578849999999
 21
182.7940365
  0
LINE
  8
_0-0_0
  6
CONTINUOUS
 62
    7
 10
48.000255500000009
 20
182.55001049999998
 11
48.13578849999999
 21
182.7940365
  0
LINE
  8
_0-0_0
  6
CONTINUOUS
 62
    7
 10
47.70423550000001
 20
182.91555750000001
 11
47.971107500000016
 21
182.9973985
  0
LINE
  8
_0-0_0
  6
CONTINUOUS
 62
    7
 10
47.861824500000012
 20
182.74053950000001
 11
47.971107500000016
 21
182.9973985
  0
LINE
  8
_0-0_0
  6
CONTINUOUS
 62
    7
 10
47.529216500000018
 20
183.0731505
 11
47.786071499999991
 21
183.1824335
  0
LINE
  8
_0-0_0
  6
CONTINUOUS
 62
    7
 10
47.70423550000001
 20
182.91555750000001
 11
47.786071499999991
 21
183.1824335
  0
LINE
  8
_0-0_0
  6
CONTINUOUS
 62
    7
 10
47.338684499999999
 20
183.2115785
 11
47.5827065
 21
183.3471145
  0
LINE
  8
_0-0_0
  6
CONTINUOUS
 62
    7
 10
47.529216500000018
 20
183.0731505
 11
47.5827065
 21
183.3471145
  0
LINE
  8
_0-0_0
  6
CONTINUOUS
 62
    7
 10
47.134723500000007
 20
183.32933750000001
 11
47.363246500000002
 21
183.48963950000001
  0
LINE
  8
_0-0_0
  6
CONTINUOUS
 62
    7
 10
47.338684499999999
 20
183.2115785
 11
47.363246500000002
 21
183.48963950000001
  0
LINE
  8
_0-0_0
  6
CONTINUOUS
 62
    7
 10
46.91957450000001
 20
183.42512550000001
 11
47.130088499999999
 21
183.60843649999998
  0
LINE
  8
_0-0_0
  6
CONTINUOUS
 62
    7
 10
47.134723500000007
 20
183.32933750000001
 11
47.130088499999999
 21
183.60843649999998
  0
LINE
  8
_0-0_0
  6
CONTINUOUS
 62
    7
 10
46.695587500000016
 20
183.49790150000001
 11
46.88578849999999
 21
183.70221650000002
  0
LINE
  8
_0-0_0
  6
CONTINUOUS
 62
    7
 10
46.91957450000001
 20
183.42512550000001
 11
46.88578849999999
 21
183.70221650000002
  0
LINE
  8
_0-0_0
  6
CONTINUOUS
 62
    7
 10
46.465223500000008
 20
183.54686750000002
 11
46.6330265
 21
183.76994350000001
  0
LINE
  8
_0-0_0
  6
CONTINUOUS
 62
    7
 10
46.695587500000016
 20
183.49790150000001
 11
46.6330265
 21
183.76994350000001
  0
LINE
  8
_0-0_0
  6
CONTINUOUS
 62
    7
 10
46.231002500000017
 20
183.57148749999999
 11
46.374567500000012
 21
183.81087450000001
  0
LINE
  8
_0-0_0
  6
CONTINUOUS
 62
    7
 10
46.465223500000008
 20
183.54686750000002
 11
46.374567500000012
 21
183.81087450000001
  0
LINE
  8
_0-0_0
  6
CONTINUOUS
 62
    7
 10
45.995491500000014
 20
183.57148749999999
 11
46.113246500000002
 21
183.8245695
  0
LINE
  8
_0-0_0
  6
CONTINUOUS
 62
    7
 10
46.231002500000017
 20
183.57148749999999
 11
46.113246500000002
 21
183.8245695
  0
LINE
  8
_0-0_0
  6
CONTINUOUS
 62
    7
 10
45.7612685
 20
183.54686750000002
 11
45.851924499999996
 21
183.81087450000001
  0
LINE
  8
_0-0_0
  6
CONTINUOUS
 62
    7
 10
45.995491500000014
 20
183.57148749999999
 11
45.851924499999996
 21
183.81087450000001
  0
LINE
  8
_0-0_0
  6
CONTINUOUS
 62
    7
 10
45.530902499999996
 20
183.49790150000001
 11
45.593467500000003
 21
183.76994350000001
  0
LINE
  8
_0-0_0
  6
CONTINUOUS
 62
    7
 10
45.7612685
 20
183.54686750000002
 11
45.593467500000003
 21
183.76994350000001
  0
LINE
  8
_0-0_0
  6
CONTINUOUS
 62
    7
 10
45.306917499999997
 20
183.42512550000001
 11
45.340704500000015
 21
183.70221650000002
  0
LINE
  8
_0-0_0
  6
CONTINUOUS
 62
    7
 10
45.530902499999996
 20
183.49790150000001
 11
45.340704500000015
 21
183.70221650000002
  0
LINE
  8
_0-0_0
  6
CONTINUOUS
 62
    7
 10
45.091766500000006
 20
183.32933750000001
 11
45.096405500000003
 21
183.60843649999998
  0
LINE
  8
_0-0_0
  6
CONTINUOUS
 62
    7
 10
45.306917499999997
 20
183.42512550000001
 11
45.096405500000003
 21
183.60843649999998
  0
LINE
  8
_0-0_0
  6
CONTINUOUS
 62
    7
 10
44.972229499999997
 20
183.4131855
 11
44.863246500000002
 21
183.48963950000001
  0
LINE
  8
_0-0_0
  6
CONTINUOUS
 62
    7
 10
45.091766500000006
 20
183.32933750000001
 11
44.972229499999997
 21
183.4131855
  0
LINE
  8
_0-0_0
  6
CONTINUOUS
 62
    7
 10
44.887807500000008
 20
183.2115785
 11
44.863246500000002
 21
183.48963950000001
  0
LINE
  8
_0-0_0
  6
CONTINUOUS
 62
    7
 10
44.697275500000018
 20
183.0731505
 11
44.643783500000012
 21
183.3471145
  0
LINE
  8
_0-0_0
  6
CONTINUOUS
 62
    7
 10
44.887807500000008
 20
183.2115785
 11
44.643783500000012
 21
183.3471145
  0
LINE
  8
_0-0_0
  6
CONTINUOUS
 62
    7
 10
44.5222555
 20
182.91555750000001
 11
44.440418500000021
 21
183.1824335
  0
LINE
  8
_0-0_0
  6
CONTINUOUS
 62
    7
 10
44.697275500000018
 20
183.0731505
 11
44.440418500000021
 21
183.1824335
  0
LINE
  8
_0-0_0
  6
CONTINUOUS
 62
    7
 10
44.364667499999996
 20
182.74053950000001
 11
44.255384499999991
 21
182.9973985
  0
LINE
  8
_0-0_0
  6
CONTINUOUS
 62
    7
 10
44.5222555
 20
182.91555750000001
 11
44.255384499999991
 21
182.9973985
  0
LINE
  8
_0-0_0
  6
CONTINUOUS
 62
    7
 10
44.226236499999999
 20
182.55001049999998
 11
44.09070250000002
 21
182.7940365
  0
LINE
  8
_0-0_0
  6
CONTINUOUS
 62
    7
 10
44.364667499999996
 20
182.74053950000001
 11
44.09070250000002
 21
182.7940365
  0
LINE
  8
_0-0_0
  6
CONTINUOUS
 62
    7
 10
44.108482500000008
 20
182.34605349999998
 11
43.948181500000004
 21
182.5745695
  0
LINE
  8
_0-0_0
  6
CONTINUOUS
 62
    7
 10
44.226236499999999
 20
182.55001049999998
 11
43.948181500000004
 21
182.5745695
  0
LINE
  8
_0-0_0
  6
CONTINUOUS
 62
    7
 10
44.012689500000022
 20
182.1308975
 11
43.829382500000008
 21
182.34141549999998
  0
LINE
  8
_0-0_0
  6
CONTINUOUS
 62
    7
 10
44.108482500000008
 20
182.34605349999998
 11
43.829382500000008
 21
182.34141549999998
  0
LINE
  8
_0-0_0
  6
CONTINUOUS
 62
    7
 10
43.939912499999991
 20
181.9069135
 11
43.735603499999996
 21
182.0971145
  0
LINE
  8
_0-0_0
  6
CONTINUOUS
 62
    7
 10
44.012689500000022
 20
182.1308975
 11
43.735603499999996
 21
182.0971145
  0
LINE
  8
_0-0_0
  6
CONTINUOUS
 62
    7
 10
43.89094750000001
 20
181.67654450000001
 11
43.667877500000003
 21
181.84435250000001
  0
LINE
  8
_0-0_0
  6
CONTINUOUS
 62
    7
 10
43.939912499999991
 20
181.9069135
 11
43.667877500000003
 21
181.84435250000001
  0
LINE
  8
_0-0_0
  6
CONTINUOUS
 62
    7
 10
43.89094750000001
 20
181.67654450000001
 11
43.626941500000015
 21
181.5858915
  0
LINE
  8
_0-0_0
  6
CONTINUOUS
 62
    7
 10
43.866329500000006
 20
181.4423295
 11
43.626941500000015
 21
181.5858915
  0
LINE
  8
_0-0_0
  6
CONTINUOUS
 62
    7
 10
43.866329500000006
 20
181.2068175
 11
43.613246500000002
 21
181.3245695
  0
LINE
  8
_0-0_0
  6
CONTINUOUS
 62
    7
 10
43.866329500000006
 20
181.4423295
 11
43.613246500000002
 21
181.3245695
  0
LINE
  8
_0-0_0
  6
CONTINUOUS
 62
    7
 10
43.89094750000001
 20
180.97259550000001
 11
43.626941500000015
 21
181.0632555
  0
LINE
  8
_0-0_0
  6
CONTINUOUS
 62
    7
 10
43.866329500000006
 20
181.2068175
 11
43.626941500000015
 21
181.0632555
  0
LINE
  8
_0-0_0
  6
CONTINUOUS
 62
    7
 10
43.939912499999991
 20
180.7422335
 11
43.667877500000003
 21
180.80479450000001
  0
LINE
  8
_0-0_0
  6
CONTINUOUS
 62
    7
 10
43.89094750000001
 20
180.97259550000001
 11
43.667877500000003
 21
180.80479450000001
  0
LINE
  8
_0-0_0
  6
CONTINUOUS
 62
    7
 10
44.012689500000022
 20
180.51824149999999
 11
43.735603499999996
 21
180.5520325
  0
LINE
  8
_0-0_0
  6
CONTINUOUS
 62
    7
 10
43.939912499999991
 20
180.7422335
 11
43.735603499999996
 21
180.5520325
  0
LINE
  8
_0-0_0
  6
CONTINUOUS
 62
    7
 10
44.108482500000008
 20
180.30309249999999
 11
43.829382500000008
 21
180.30772350000001
  0
LINE
  8
_0-0_0
  6
CONTINUOUS
 62
    7
 10
44.012689500000022
 20
180.51824149999999
 11
43.829382500000008
 21
180.30772350000001
  0
LINE
  8
_0-0_0
  6
CONTINUOUS
 62
    7
 10
44.226236499999999
 20
180.09913649999999
 11
43.948181500000004
 21
180.0745695
  0
LINE
  8
_0-0_0
  6
CONTINUOUS
 62
    7
 10
44.108482500000008
 20
180.30309249999999
 11
43.948181500000004
 21
180.0745695
  0
LINE
  8
_0-0_0
  6
CONTINUOUS
 62
    7
 10
44.364667499999996
 20
179.90859950000001
 11
44.09070250000002
 21
179.85511050000002
  0
LINE
  8
_0-0_0
  6
CONTINUOUS
 62
    7
 10
44.226236499999999
 20
180.09913649999999
 11
44.09070250000002
 21
179.85511050000002
  0
LINE
  8
_0-0_0
  6
CONTINUOUS
 62
    7
 10
44.5222555
 20
179.73358150000001
 11
44.255384499999991
 21
179.65174050000002
  0
LINE
  8
_0-0_0
  6
CONTINUOUS
 62
    7
 10
44.364667499999996
 20
179.90859950000001
 11
44.255384499999991
 21
179.65174050000002
  0
LINE
  8
_0-0_0
  6
CONTINUOUS
 62
    7
 10
44.697275500000018
 20
179.5759965
 11
44.440418500000021
 21
179.46670549999999
  0
LINE
  8
_0-0_0
  6
CONTINUOUS
 62
    7
 10
44.5222555
 20
179.73358150000001
 11
44.440418500000021
 21
179.46670549999999
  0
LINE
  8
_0-0_0
  6
CONTINUOUS
 62
    7
 10
44.887807500000008
 20
179.43756050000002
 11
44.643783500000012
 21
179.3020325
  0
LINE
  8
_0-0_0
  6
CONTINUOUS
 62
    7
 10
44.697275500000018
 20
179.5759965
 11
44.643783500000012
 21
179.3020325
  0
LINE
  8
_0-0_0
  6
CONTINUOUS
 62
    7
 10
45.091766500000006
 20
179.31980149999998
 11
44.863246500000002
 21
179.15950750000002
  0
LINE
  8
_0-0_0
  6
CONTINUOUS
 62
    7
 10
44.887807500000008
 20
179.43756050000002
 11
44.863246500000002
 21
179.15950750000002
  0
LINE
  8
_0-0_0
  6
CONTINUOUS
 62
    7
 10
45.306917499999997
 20
179.22401450000001
 11
45.096405500000003
 21
179.04071049999999
  0
LINE
  8
_0-0_0
  6
CONTINUOUS
 62
    7
 10
45.091766500000006
 20
179.31980149999998
 11
45.096405500000003
 21
179.04071049999999
  0
LINE
  8
_0-0_0
  6
CONTINUOUS
 62
    7
 10
45.530902499999996
 20
179.15123750000001
 11
45.340704500000015
 21
178.94692950000001
  0
LINE
  8
_0-0_0
  6
CONTINUOUS
 62
    7
 10
45.306917499999997
 20
179.22401450000001
 11
45.340704500000015
 21
178.94692950000001
  0
LINE
  8
_0-0_0
  6
CONTINUOUS
 62
    7
 10
45.7612685
 20
179.1022715
 11
45.593467500000003
 21
178.87920350000002
  0
LINE
  8
_0-0_0
  6
CONTINUOUS
 62
    7
 10
45.530902499999996
 20
179.15123750000001
 11
45.593467500000003
 21
178.87920350000002
  0
LINE
  8
_0-0_0
  6
CONTINUOUS
 62
    7
 10
45.995491500000014
 20
179.0776515
 11
45.851924499999996
 21
178.83826450000001
  0
LINE
  8
_0-0_0
  6
CONTINUOUS
 62
    7
 10
45.7612685
 20
179.1022715
 11
45.851924499999996
 21
178.83826450000001
  0
LINE
  8
_0-0_0
  6
CONTINUOUS
 62
    7
 10
46.231002500000017
 20
179.0776515
 11
46.113246500000002
 21
178.8245695
  0
LINE
  8
_0-0_0
  6
CONTINUOUS
 62
    7
 10
45.995491500000014
 20
179.0776515
 11
46.113246500000002
 21
178.8245695
  0
LINE
  8
_0-0_0
  6
CONTINUOUS
 62
    7
 10
46.465223500000008
 20
179.1022715
 11
46.374567500000012
 21
178.83826450000001
  0
LINE
  8
_0-0_0
  6
CONTINUOUS
 62
    7
 10
46.231002500000017
 20
179.0776515
 11
46.374567500000012
 21
178.83826450000001
  0
LINE
  8
_0-0_0
  6
CONTINUOUS
 62
    7
 10
46.695587500000016
 20
179.15123750000001
 11
46.6330265
 21
178.87920350000002
  0
LINE
  8
_0-0_0
  6
CONTINUOUS
 62
    7
 10
46.465223500000008
 20
179.1022715
 11
46.6330265
 21
178.87920350000002
  0
LINE
  8
_0-0_0
  6
CONTINUOUS
 62
    7
 10
46.91957450000001
 20
179.22401450000001
 11
46.88578849999999
 21
178.94692950000001
  0
LINE
  8
_0-0_0
  6
CONTINUOUS
 62
    7
 10
46.695587500000016
 20
179.15123750000001
 11
46.88578849999999
 21
178.94692950000001
  0
LINE
  8
_0-0_0
  6
CONTINUOUS
 62
    7
 10
47.134723500000007
 20
179.31980149999998
 11
47.130088499999999
 21
179.04071049999999
  0
LINE
  8
_0-0_0
  6
CONTINUOUS
 62
    7
 10
46.91957450000001
 20
179.22401450000001
 11
47.130088499999999
 21
179.04071049999999
  0
LINE
  8
_0-0_0
  6
CONTINUOUS
 62
    7
 10
47.254261500000013
 20
179.23595449999999
 11
47.363246500000002
 21
179.15950750000002
  0
LINE
  8
_0-0_0
  6
CONTINUOUS
 62
    7
 10
47.134723500000007
 20
179.31980149999998
 11
47.254261500000013
 21
179.23595449999999
  0
LINE
  8
_0-0_0
  6
CONTINUOUS
 62
    7
 10
47.338684499999999
 20
179.43756050000002
 11
47.363246500000002
 21
179.15950750000002
  0
LINE
  8
_0-0_0
  6
CONTINUOUS
 62
    7
 10
47.529216500000018
 20
179.5759965
 11
47.5827065
 21
179.3020325
  0
LINE
  8
_0-0_0
  6
CONTINUOUS
 62
    7
 10
47.338684499999999
 20
179.43756050000002
 11
47.5827065
 21
179.3020325
  0
LINE
  8
_0-0_0
  6
CONTINUOUS
 62
    7
 10
47.70423550000001
 20
179.73358150000001
 11
47.786071499999991
 21
179.46670549999999
  0
LINE
  8
_0-0_0
  6
CONTINUOUS
 62
    7
 10
47.529216500000018
 20
179.5759965
 11
47.786071499999991
 21
179.46670549999999
  0
LINE
  8
_0-0_0
  6
CONTINUOUS
 62
    7
 10
47.861824500000012
 20
179.90859950000001
 11
47.971107500000016
 21
179.65174050000002
  0
LINE
  8
_0-0_0
  6
CONTINUOUS
 62
    7
 10
47.70423550000001
 20
179.73358150000001
 11
47.971107500000016
 21
179.65174050000002
  0
LINE
  8
_0-0_0
  6
CONTINUOUS
 62
    7
 10
48.000255500000009
 20
180.09913649999999
 11
48.13578849999999
 21
179.85511050000002
  0
LINE
  8
_0-0_0
  6
CONTINUOUS
 62
    7
 10
47.861824500000012
 20
179.90859950000001
 11
48.13578849999999
 21
179.85511050000002
  0
LINE
  8
_0-0_0
  6
CONTINUOUS
 62
    7
 10
48.118011500000023
 20
180.30309249999999
 11
48.278308500000009
 21
180.0745695
  0
LINE
  8
_0-0_0
  6
CONTINUOUS
 62
    7
 10
48.000255500000009
 20
180.09913649999999
 11
48.278308500000009
 21
180.0745695
  0
LINE
  8
_0-0_0
  6
CONTINUOUS
 62
    7
 10
48.213802500000014
 20
180.51824149999999
 11
48.397110499999997
 21
180.30772350000001
  0
LINE
  8
_0-0_0
  6
CONTINUOUS
 62
    7
 10
48.118011500000023
 20
180.30309249999999
 11
48.397110499999997
 21
180.30772350000001
  0
LINE
  8
_0-0_0
  6
CONTINUOUS
 62
    7
 10
48.286579500000016
 20
180.7422335
 11
48.490886500000016
 21
180.5520325
  0
LINE
  8
_0-0_0
  6
CONTINUOUS
 62
    7
 10
48.213802500000014
 20
180.51824149999999
 11
48.490886500000016
 21
180.5520325
  0
LINE
  8
_0-0_0
  6
CONTINUOUS
 62
    7
 10
48.335544499999997
 20
180.97259550000001
 11
48.558616499999999
 21
180.80479450000001
  0
LINE
  8
_0-0_0
  6
CONTINUOUS
 62
    7
 10
48.286579500000016
 20
180.7422335
 11
48.558616499999999
 21
180.80479450000001
  0
LINE
  8
_0-0_0
  6
CONTINUOUS
 62
    7
 10
48.360160500000006
 20
181.2068175
 11
48.599548499999997
 21
181.0632555
  0
LINE
  8
_0-0_0
  6
CONTINUOUS
 62
    7
 10
48.335544499999997
 20
180.97259550000001
 11
48.599548499999997
 21
181.0632555
  0
LINE
  8
_0-0_0
  6
CONTINUOUS
 62
    7
 10
48.360160500000006
 20
181.4423295
 11
48.613246500000002
 21
181.3245695
  0
LINE
  8
_0-0_0
  6
CONTINUOUS
 62
    7
 10
48.360160500000006
 20
181.2068175
 11
48.613246500000002
 21
181.3245695
  0
LINE
  8
_0-0_0
  6
CONTINUOUS
 62
    7
 10
48.335544499999997
 20
181.67654450000001
 11
48.599548499999997
 21
181.5858915
  0
LINE
  8
_0-0_0
  6
CONTINUOUS
 62
    7
 10
48.360160500000006
 20
181.4423295
 11
48.599548499999997
 21
181.5858915
  0
LINE
  8
_0-0_0
  6
CONTINUOUS
 62
    7
 10
48.286579500000016
 20
181.9069135
 11
48.558616499999999
 21
181.84435250000001
  0
LINE
  8
_0-0_0
  6
CONTINUOUS
 62
    7
 10
48.335544499999997
 20
181.67654450000001
 11
48.558616499999999
 21
181.84435250000001
  0
LINE
  8
_0-0_0
  6
CONTINUOUS
 62
    7
 10
48.213802500000014
 20
182.1308975
 11
48.490886500000016
 21
182.0971145
  0
LINE
  8
_0-0_0
  6
CONTINUOUS
 62
    7
 10
48.286579500000016
 20
181.9069135
 11
48.490886500000016
 21
182.0971145
  0
LINE
  8
_0-0_0
  6
CONTINUOUS
 62
    7
 10
48.118011500000023
 20
182.34605349999998
 11
48.397110499999997
 21
182.34141549999998
  0
LINE
  8
_0-0_0
  6
CONTINUOUS
 62
    7
 10
48.213802500000014
 20
182.1308975
 11
48.397110499999997
 21
182.34141549999998
  0
CIRCLE
  8
_0-0_0
  6
CONTINUOUS
 62
    7
 10
58.11324350000001
 20
197.9245755
 40
2
  0
CIRCLE
  8
_0-0_0
  6
CONTINUOUS
 62
    7
 10
46.113246500000002
 20
181.3245695
 40
2
  0
LINE
  8
_0-0_0
  6
CONTINUOUS
 62
    7
 10
58.695354500000008
 20
196.9245755
 11
57.531135500000005
 21
196.9245755
  0
LINE
  8
_0-0_0
  6
CONTINUOUS
 62
    7
 10
57.531135500000005
 20
196.9245755
 11
56.963245499999999
 21
197.9245755
  0
LINE
  8
_0-0_0
  6
CONTINUOUS
 62
    7
 10
56.963245499999999
 20
197.9245755
 11
57.531135500000005
 21
198.9245755
  0
LINE
  8
_0-0_0
  6
CONTINUOUS
 62
    7
 10
57.531135500000005
 20
198.9245755
 11
58.695354500000008
 21
198.9245755
  0
LINE
  8
_0-0_0
  6
CONTINUOUS
 62
    7
 10
58.695354500000008
 20
198.9245755
 11
59.263244500000013
 21
197.9245755
  0
LINE
  8
_0-0_0
  6
CONTINUOUS
 62
    7
 10
59.263244500000013
 20
197.9245755
 11
58.695354500000008
 21
196.9245755
  0
CIRCLE
  8
_0-0_0
  6
CONTINUOUS
 62
    7
 10
52.113246500000002
 20
189.6245725
 40
5
  0
LINE
  8
_0-0_0
  6
CONTINUOUS
 62
    7
 10
46.695354500000008
 20
180.3245695
 11
45.5311375
 21
180.3245695
  0
LINE
  8
_0-0_0
  6
CONTINUOUS
 62
    7
 10
45.5311375
 20
180.3245695
 11
44.963245499999999
 21
181.3245695
  0
LINE
  8
_0-0_0
  6
CONTINUOUS
 62
    7
 10
44.963245499999999
 20
181.3245695
 11
45.5311375
 21
182.3245695
  0
LINE
  8
_0-0_0
  6
CONTINUOUS
 62
    7
 10
45.5311375
 20
182.3245695
 11
46.695354500000008
 21
182.3245695
  0
LINE
  8
_0-0_0
  6
CONTINUOUS
 62
    7
 10
46.695354500000008
 20
182.3245695
 11
47.263244500000013
 21
181.3245695
  0
LINE
  8
_0-0_0
  6
CONTINUOUS
 62
    7
 10
47.263244500000013
 20
181.3245695
 11
46.695354500000008
 21
180.3245695
  0
CIRCLE
  8
_0-0_0
  6
CONTINUOUS
 62
    7
 10
52.113246500000002
 20
189.6245725
 40
4.5381200000000002
  0
CIRCLE
  8
_0-0_0
  6
CONTINUOUS
 62
    7
 10
52.113246500000002
 20
189.6245725
 40
4
  0
LINE
  8
_0-0_0
  6
CONTINUOUS
 62
    7
 10
43.98066750000001
 20
199.57989449999999
 11
43.313245499999994
 21
199.57989449999999
  0
ARC
  8
_0-0_0
  6
CONTINUOUS
 62
    7
 10
60.11324350000001
 20
200.0495755
 40
0.2
 50
179.94055499999999
 51
269.99997000000002
  0
ARC
  8
_0-0_0
  6
CONTINUOUS
 62
    7
 10
58.61324350000001
 20
180.8245695
 40
2
 50
269.99999700000001
 51
273.84026499999999
  0
ARC
  8
_0-0_0
  6
CONTINUOUS
 62
    7
 10
45.613246500000002
 20
198.4245755
 40
2
 50
90.000003000000007
 51
93.840255999999997
  0
LINE
  8
_0-0_0
  6
CONTINUOUS
 62
    7
 10
60.413246500000014
 20
199.84957850000001
 11
60.11324350000001
 21
199.84957850000001
  0
LINE
  8
_0-0_0
  6
CONTINUOUS
 62
    7
 10
60.413246500000014
 20
202.7995755
 11
60.11324350000001
 21
202.7995755
  0
ARC
  8
_0-0_0
  6
CONTINUOUS
 62
    7
 10
44.113246500000002
 20
200.04965150000001
 40
0.2
 50
270.00002499999994
 51
0.0594439999999606
  0
ARC
  8
_0-0_0
  6
CONTINUOUS
 62
    7
 10
60.413211500000017
 20
200.0496215
 40
0.200055
 50
270.00964199999999
 51
1.3705509999999435
  0
ARC
  8
_0-0_0
  6
CONTINUOUS
 62
    7
 10
60.413246500000014
 20
202.59957850000001
 40
0.2
 50
359.91222800000003
 51
89.999948000000003
  0
LINE
  8
_0-0_0
  6
CONTINUOUS
 62
    7
 10
43.813245499999994
 20
199.84963949999999
 11
44.113246500000002
 21
199.84963949999999
  0
ARC
  8
_0-0_0
  6
CONTINUOUS
 62
    7
 10
43.813278499999996
 20
200.04969750000001
 40
0.200055
 50
178.629446
 51
269.99035300000003
  0
LINE
  8
_0-0_0
  6
CONTINUOUS
 62
    7
 10
60.813247499999989
 20
205.3246455
 11
60.813247499999989
 21
218.5246425
  0
ARC
  8
_0-0_0
  6
CONTINUOUS
 62
    7
 10
60.313247499999989
 20
205.3246455
 40
0.5
 50
269.99999700000001
 51
0
  0
ARC
  8
_0-0_0
  6
CONTINUOUS
 62
    7
 10
60.754669500000006
 20
218.72463949999999
 40
0.1
 50
135
 51
225
  0
LINE
  8
_0-0_0
  6
CONTINUOUS
 62
    7
 10
60.683956500000022
 20
218.6539305
 11
60.813247499999989
 21
218.5246425
  0
LINE
  8
_0-0_0
  6
CONTINUOUS
 62
    7
 10
60.313247499999989
 20
204.8246455
 11
58.413246500000014
 21
204.8246455
  0
ARC
  8
_0-0_0
  6
CONTINUOUS
 62
    7
 10
58.413246500000014
 20
205.3246455
 40
0.5
 50
233.12990600000001
 51
269.99999700000001
  0
ARC
  8
_0-0_0
  6
CONTINUOUS
 62
    7
 10
45.713245499999999
 20
205.3246455
 40
0.5
 50
269.99999700000001
 51
306.87009999999998
  0
LINE
  8
_0-0_0
  6
CONTINUOUS
 62
    7
 10
45.713245499999999
 20
204.8246455
 11
43.813245499999994
 21
204.8246455
  0
ARC
  8
_0-0_0
  6
CONTINUOUS
 62
    7
 10
43.813245499999994
 20
205.3246455
 40
0.5
 50
180.00000900000003
 51
269.99999700000001
  0
LINE
  8
_0-0_0
  6
CONTINUOUS
 62
    7
 10
43.313245499999994
 20
214.75964350000001
 11
43.313245499999994
 21
205.3246455
  0
LINE
  8
_0-0_0
  6
CONTINUOUS
 62
    7
 10
43.313245499999994
 20
214.75964350000001
 11
44.013244500000013
 21
214.75964350000001
  0
LINE
  8
_0-0_0
  6
CONTINUOUS
 62
    7
 10
60.013244500000013
 20
233.3246455
 11
60.219276500000007
 21
233.3246455
  0
LINE
  8
_0-0_0
  6
CONTINUOUS
 62
    7
 10
60.219276500000007
 20
233.3246455
 11
60.813247499999989
 21
232.7306825
  0
LINE
  8
_0-0_0
  6
CONTINUOUS
 62
    7
 10
60.813247499999989
 20
227.72463949999999
 11
60.813247499999989
 21
232.7306825
  0
LINE
  8
_0-0_0
  6
CONTINUOUS
 62
    7
 10
60.683956500000022
 20
227.59535249999999
 11
60.813247499999989
 21
227.72463949999999
  0
ARC
  8
_0-0_0
  6
CONTINUOUS
 62
    7
 10
60.754669500000006
 20
227.5246425
 40
0.1
 50
135
 51
225
  0
LINE
  8
_0-0_0
  6
CONTINUOUS
 62
    7
 10
60.683956500000022
 20
227.45393350000001
 11
60.813247499999989
 21
227.3246455
  0
LINE
  8
_0-0_0
  6
CONTINUOUS
 62
    7
 10
60.813247499999989
 20
226.62464850000001
 11
60.813247499999989
 21
227.3246455
  0
LINE
  8
_0-0_0
  6
CONTINUOUS
 62
    7
 10
60.683956500000022
 20
226.4953615
 11
60.813247499999989
 21
226.62464850000001
  0
ARC
  8
_0-0_0
  6
CONTINUOUS
 62
    7
 10
60.754669500000006
 20
226.42465150000001
 40
0.1
 50
135
 51
225
  0
LINE
  8
_0-0_0
  6
CONTINUOUS
 62
    7
 10
60.683956500000022
 20
226.3539275
 11
60.813247499999989
 21
226.22463949999999
  0
LINE
  8
_0-0_0
  6
CONTINUOUS
 62
    7
 10
60.813247499999989
 20
225.5246425
 11
60.813247499999989
 21
226.22463949999999
  0
LINE
  8
_0-0_0
  6
CONTINUOUS
 62
    7
 10
60.683956500000022
 20
225.39535549999999
 11
60.813247499999989
 21
225.5246425
  0
ARC
  8
_0-0_0
  6
CONTINUOUS
 62
    7
 10
60.754669500000006
 20
225.3246455
 40
0.1
 50
135
 51
225
  0
LINE
  8
_0-0_0
  6
CONTINUOUS
 62
    7
 10
60.683956500000022
 20
225.25393650000001
 11
60.813247499999989
 21
225.12464850000001
  0
LINE
  8
_0-0_0
  6
CONTINUOUS
 62
    7
 10
60.813247499999989
 20
224.42465150000001
 11
60.813247499999989
 21
225.12464850000001
  0
LINE
  8
_0-0_0
  6
CONTINUOUS
 62
    7
 10
60.683956500000022
 20
224.29534950000001
 11
60.813247499999989
 21
224.42465150000001
  0
ARC
  8
_0-0_0
  6
CONTINUOUS
 62
    7
 10
60.754669500000006
 20
224.22463949999999
 40
0.1
 50
135
 51
225
  0
LINE
  8
_0-0_0
  6
CONTINUOUS
 62
    7
 10
60.683956500000022
 20
224.1539305
 11
60.813247499999989
 21
224.0246425
  0
LINE
  8
_0-0_0
  6
CONTINUOUS
 62
    7
 10
60.813247499999989
 20
223.3246455
 11
60.813247499999989
 21
224.0246425
  0
LINE
  8
_0-0_0
  6
CONTINUOUS
 62
    7
 10
60.683956500000022
 20
223.1953585
 11
60.813247499999989
 21
223.3246455
  0
ARC
  8
_0-0_0
  6
CONTINUOUS
 62
    7
 10
60.754669500000006
 20
223.12464850000001
 40
0.1
 50
135
 51
225
  0
LINE
  8
_0-0_0
  6
CONTINUOUS
 62
    7
 10
60.683956500000022
 20
223.05392449999999
 11
60.813247499999989
 21
222.92465150000001
  0
LINE
  8
_0-0_0
  6
CONTINUOUS
 62
    7
 10
60.813247499999989
 20
222.22463949999999
 11
60.813247499999989
 21
222.92465150000001
  0
LINE
  8
_0-0_0
  6
CONTINUOUS
 62
    7
 10
60.683956500000022
 20
222.09535249999999
 11
60.813247499999989
 21
222.22463949999999
  0
ARC
  8
_0-0_0
  6
CONTINUOUS
 62
    7
 10
60.754669500000006
 20
222.0246425
 40
0.1
 50
135
 51
225
  0
LINE
  8
_0-0_0
  6
CONTINUOUS
 62
    7
 10
60.683956500000022
 20
221.95393350000001
 11
60.813247499999989
 21
221.8246455
  0
LINE
  8
_0-0_0
  6
CONTINUOUS
 62
    7
 10
60.813247499999989
 20
221.12464850000001
 11
60.813247499999989
 21
221.8246455
  0
LINE
  8
_0-0_0
  6
CONTINUOUS
 62
    7
 10
60.683956500000022
 20
220.9953615
 11
60.813247499999989
 21
221.12464850000001
  0
ARC
  8
_0-0_0
  6
CONTINUOUS
 62
    7
 10
60.754669500000006
 20
220.92465150000001
 40
0.1
 50
135
 51
225
  0
LINE
  8
_0-0_0
  6
CONTINUOUS
 62
    7
 10
60.683956500000022
 20
220.85394250000002
 11
60.813247499999989
 21
220.72463949999999
  0
LINE
  8
_0-0_0
  6
CONTINUOUS
 62
    7
 10
60.813247499999989
 20
220.0246425
 11
60.813247499999989
 21
220.72463949999999
  0
LINE
  8
_0-0_0
  6
CONTINUOUS
 62
    7
 10
60.683956500000022
 20
219.89535549999999
 11
60.813247499999989
 21
220.0246425
  0
ARC
  8
_0-0_0
  6
CONTINUOUS
 62
    7
 10
60.754669500000006
 20
219.8246455
 40
0.1
 50
135
 51
225
  0
LINE
  8
_0-0_0
  6
CONTINUOUS
 62
    7
 10
60.683956500000022
 20
219.75393650000001
 11
60.813247499999989
 21
219.62464850000001
  0
LINE
  8
_0-0_0
  6
CONTINUOUS
 62
    7
 10
60.813247499999989
 20
218.92465150000001
 11
60.813247499999989
 21
219.62464850000001
  0
LINE
  8
_0-0_0
  6
CONTINUOUS
 62
    7
 10
60.683956500000022
 20
218.79534950000001
 11
60.813247499999989
 21
218.92465150000001
  0
LINE
  8
_0-0_0
  6
CONTINUOUS
 62
    7
 10
60.813247499999989
 20
210.8246455
 11
60.913246500000014
 21
210.8246455
  0
LINE
  8
_0-0_0
  6
CONTINUOUS
 62
    7
 10
60.913246500000014
 20
210.3246455
 11
60.913246500000014
 21
210.8246455
  0
LINE
  8
_0-0_0
  6
CONTINUOUS
 62
    7
 10
60.913246500000014
 20
210.3246455
 11
60.913246500000014
 21
206.3246455
  0
LINE
  8
_0-0_0
  6
CONTINUOUS
 62
    7
 10
60.813247499999989
 20
205.8246455
 11
60.913246500000014
 21
205.8246455
  0
LINE
  8
_0-0_0
  6
CONTINUOUS
 62
    7
 10
60.913246500000014
 20
205.8246455
 11
60.913246500000014
 21
206.3246455
  0
LINE
  8
_0-0_0
  6
CONTINUOUS
 62
    7
 10
43.313245499999994
 20
214.82466149999999
 11
43.313245499999994
 21
214.75964350000001
  0
LINE
  8
_0-0_0
  6
CONTINUOUS
 62
    7
 10
59.813247499999989
 20
233.62464850000001
 11
59.813247499999989
 21
233.5246425
  0
LINE
  8
_0-0_0
  6
CONTINUOUS
 62
    7
 10
43.213245499999999
 20
214.8246455
 11
44.013246500000008
 21
214.8246455
  0
LINE
  8
_0-0_0
  6
CONTINUOUS
 62
    7
 10
43.713245499999999
 20
236.62464850000001
 11
43.713245499999999
 21
232.40310650000001
  0
LINE
  8
_0-0_0
  6
CONTINUOUS
 62
    7
 10
44.813245499999994
 20
236.62464850000001
 11
44.813245499999994
 21
233.62464850000001
  0
LINE
  8
_0-0_0
  6
CONTINUOUS
 62
    7
 10
43.713245499999999
 20
232.40310650000001
 11
44.013246500000008
 21
232.40310650000001
  0
ARC
  8
_0-0_0
  6
CONTINUOUS
 62
    7
 10
47.313247499999989
 20
233.62464850000001
 40
2.5
 50
90.000003000000007
 51
180.00000900000001
  0
ARC
  8
_0-0_0
  6
CONTINUOUS
 62
    7
 10
57.313247499999989
 20
233.62464850000001
 40
2.5
 50
0
 51
90.000003000000007
  0
LINE
  8
_0-0_0
  6
CONTINUOUS
 62
    7
 10
44.813245499999994
 20
233.5246425
 11
44.813245499999994
 21
233.62464850000001
  0
LINE
  8
_0-0_0
  6
CONTINUOUS
 62
    7
 10
57.313247499999989
 20
236.12464850000001
 11
47.313247499999989
 21
236.12464850000001
  0
LINE
  8
_0-0_0
  6
CONTINUOUS
 62
    7
 10
61.013244500000013
 20
206.3246455
 11
61.013244500000013
 21
206.45500150000001
  0
LINE
  8
_0-0_0
  6
CONTINUOUS
 62
    7
 10
61.013244500000013
 20
209.95500150000001
 11
61.013244500000013
 21
206.45500150000001
  0
LINE
  8
_0-0_0
  6
CONTINUOUS
 62
    7
 10
60.913246500000014
 20
210.22463949999999
 11
61.013244500000013
 21
210.22463949999999
  0
LINE
  8
_0-0_0
  6
CONTINUOUS
 62
    7
 10
61.013244500000013
 20
209.95500150000001
 11
61.013244500000013
 21
210.22463949999999
  0
LINE
  8
_0-0_0
  6
CONTINUOUS
 62
    7
 10
60.613246500000002
 20
232.72463949999999
 11
59.613246500000002
 21
233.72463949999999
  0
LINE
  8
_0-0_0
  6
CONTINUOUS
 62
    7
 10
60.61324350000001
 20
204.92465150000001
 11
60.613246500000002
 21
232.72463949999999
  0
LINE
  8
_0-0_0
  6
CONTINUOUS
 62
    7
 10
44.013246500000008
 20
204.92465150000001
 11
60.61324350000001
 21
204.92465150000001
  0
LINE
  8
_0-0_0
  6
CONTINUOUS
 62
    7
 10
44.013246500000008
 20
232.72463949999999
 11
44.013246500000008
 21
204.92465150000001
  0
LINE
  8
_0-0_0
  6
CONTINUOUS
 62
    7
 10
43.213245499999999
 20
214.8246455
 11
43.213245499999999
 21
231.6374515
  0
LINE
  8
_0-0_0
  6
CONTINUOUS
 62
    7
 10
43.213245499999999
 20
236.12464850000001
 11
43.213245499999999
 21
231.6374515
  0
ARC
  8
_0-0_0
  6
CONTINUOUS
 62
    7
 10
74.6649855
 20
211.6424715
 40
37.269466000000001
 50
146.14857699999999
 51
147.55443399999999
  0
ARC
  8
_0-0_0
  6
CONTINUOUS
 62
    7
 10
57.044197499999996
 20
233.3246455
 40
2.6000000000000001
 50
8.8498839999999994
 51
90.000002999999992
  0
LINE
  8
_0-0_0
  6
CONTINUOUS
 62
    7
 10
57.044197499999996
 20
235.92465150000001
 11
47.582290499999999
 21
235.92465150000001
  0
ARC
  8
_0-0_0
  6
CONTINUOUS
 62
    7
 10
47.582290499999999
 20
233.3246455
 40
2.6000000000000001
 50
90.000003000000007
 51
171.150115
  0
LINE
  8
_0-0_0
  6
CONTINUOUS
 62
    7
 10
44.013246500000008
 20
232.72463949999999
 11
45.013246500000008
 21
233.72463949999999
  0
LINE
  8
_0-0_0
  6
CONTINUOUS
 62
    7
 10
59.613246500000002
 20
232.31042450000001
 11
60.613246500000002
 21
232.72463949999999
  0
ARC
  8
_0-0_0
  6
CONTINUOUS
 62
    7
 10
54.070705500000003
 20
244.5107725
 40
12.126564999999999
 50
292.155034
 51
297.19674500000002
  0
LINE
  8
_0-0_0
  6
CONTINUOUS
 62
    7
 10
59.61324350000001
 20
205.92465150000001
 11
60.61324350000001
 21
204.92465150000001
  0
LINE
  8
_0-0_0
  6
CONTINUOUS
 62
    7
 10
45.013246500000008
 20
205.92465150000001
 11
44.013246500000008
 21
204.92465150000001
  0
LINE
  8
_0-0_0
  6
CONTINUOUS
 62
    7
 10
45.013246500000008
 20
232.31042450000001
 11
44.013246500000008
 21
232.72463949999999
  0
ARC
  8
_0-0_0
  6
CONTINUOUS
 62
    7
 10
50.555786500000011
 20
244.5107725
 40
12.126567
 50
242.80325699999997
 51
247.84494000000001
  0
CIRCLE
  8
_0-0_0
  6
CONTINUOUS
 62
    7
 10
52.313247499999989
 20
213.12464850000001
 40
2.0670000000000002
  0
LINE
  8
_0-0_0
  6
CONTINUOUS
 62
    7
 10
44.813245499999994
 20
236.62464850000001
 11
43.713245499999999
 21
236.62464850000001
  0
LINE
  8
_0-0_0
  6
CONTINUOUS
 62
    7
 10
60.913246500000014
 20
206.3246455
 11
61.013244500000013
 21
206.3246455
  0
LINE
  8
_0-0_0
  6
CONTINUOUS
 62
    7
 10
60.913246500000014
 20
206.3246455
 11
61.013244500000013
 21
206.3246455
  0
LINE
  8
_0-0_0
  6
CONTINUOUS
 62
    7
 10
43.213245499999999
 20
236.12464850000001
 11
43.713245499999999
 21
236.62464850000001
  0
ENDSEC
  0
EOF
