  0
SECTION
  2
HEADER
  9
$ACADVER
  1
AC1015
  9
$ACADMAINTVER
 70
     6
  9
$DWGCODEPAGE
  3
ANSI_1252
  9
$INSBASE
 10
0.0
 20
0.0
 30
0.0
  9
$EXTMIN
 10
0.0
 20
0.0
 30
0.0
  9
$EXTMAX
 10
1800.187012
 20
165.683334
 30
2.0
  9
$LIMMIN
 10
0.0
 20
0.0
  9
$LIMMAX
 10
420.0
 20
297.0
  9
$ORTHOMODE
 70
     0
  9
$REGENMODE
 70
     1
  9
$FILLMODE
 70
     1
  9
$QTEXTMODE
 70
     0
  9
$MIRRTEXT
 70
     1
  9
$LTSCALE
 40
1.0
  9
$ATTMODE
 70
     1
  9
$TEXTSIZE
 40
2.5
  9
$TRACEWID
 40
1.0
  9
$TEXTSTYLE
  7
Standard
  9
$CLAYER
  8
0
  9
$CELTYPE
  6
ByLayer
  9
$CECOLOR
 62
   256
  9
$CELTSCALE
 40
1.0
  9
$DISPSILH
 70
     0
  9
$DIMSCALE
 40
1.0
  9
$DIMASZ
 40
2.5
  9
$DIMEXO
 40
0.625
  9
$DIMDLI
 40
3.75
  9
$DIMRND
 40
0.0
  9
$DIMDLE
 40
0.0
  9
$DIMEXE
 40
1.25
  9
$DIMTP
 40
0.0
  9
$DIMTM
 40
0.0
  9
$DIMTXT
 40
2.5
  9
$DIMCEN
 40
2.5
  9
$DIMTSZ
 40
0.0
  9
$DIMTOL
 70
     0
  9
$DIMLIM
 70
     0
  9
$DIMTIH
 70
     0
  9
$DIMTOH
 70
     0
  9
$DIMSE1
 70
     0
  9
$DIMSE2
 70
     0
  9
$DIMTAD
 70
     1
  9
$DIMZIN
 70
     8
  9
$DIMBLK
  1

  9
$DIMASO
 70
     1
  9
$DIMSHO
 70
     1
  9
$DIMPOST
  1

  9
$DIMAPOST
  1

  9
$DIMALT
 70
     0
  9
$DIMALTD
 70
     3
  9
$DIMALTF
 40
0.03937
  9
$DIMLFAC
 40
1.0
  9
$DIMTOFL
 70
     1
  9
$DIMTVP
 40
0.0
  9
$DIMTIX
 70
     0
  9
$DIMSOXD
 70
     0
  9
$DIMSAH
 70
     0
  9
$DIMBLK1
  1

  9
$DIMBLK2
  1

  9
$DIMSTYLE
  2

  9
$DIMCLRD
 70
     0
  9
$DIMCLRE
 70
     0
  9
$DIMCLRT
 70
     0
  9
$DIMTFAC
 40
1.0
  9
$DIMGAP
 40
0.625
  9
$DIMJUST
 70
     0
  9
$DIMSD1
 70
     0
  9
$DIMSD2
 70
     0
  9
$DIMTOLJ
 70
     0
  9
$DIMTZIN
 70
     8
  9
$DIMALTZ
 70
     0
  9
$DIMALTTZ
 70
     0
  9
$DIMUPT
 70
     0
  9
$DIMDEC
 70
     2
  9
$DIMTDEC
 70
     2
  9
$DIMALTU
 70
     2
  9
$DIMALTTD
 70
     3
  9
$DIMTXSTY
  7
Standard
  9
$DIMAUNIT
 70
     0
  9
$DIMADEC
 70
     0
  9
$DIMALTRND
 40
0.0
  9
$DIMAZIN
 70
     0
  9
$DIMDSEP
 70
    44
  9
$DIMATFIT
 70
     0
  9
$DIMFRAC
 70
     0
  9
$DIMLDRBLK
  1

  9
$DIMLUNIT
 70
     2
  9
$DIMLWD
 70
    -2
  9
$DIMLWE
 70
    -2
  9
$DIMTMOVE
 70
     0
  9
$LUNITS
 70
     2
  9
$LUPREC
 70
     4
  9
$SKETCHINC
 40
1.0
  9
$FILLETRAD
 40
2.5
  9
$AUNITS
 70
     0
  9
$AUPREC
 70
     0
  9
$MENU
  1
.
  9
$ELEVATION
 40
0.0
  9
$PELEVATION
 40
0.0
  9
$THICKNESS
 40
0.0
  9
$LIMCHECK
 70
     0
  9
$CHAMFERA
 40
2.5
  9
$CHAMFERB
 40
2.5
  9
$CHAMFERC
 40
0.0
  9
$CHAMFERD
 40
0.0
  9
$SKPOLY
 70
     0
  9
$TDCREATE
 40
0.000000000
  9
$TDUCREATE
 40
0.000000000
  9
$TDUPDATE
 40
0.000000000
  9
$TDUUPDATE
 40
0.000000000
  9
$TDINDWG
 40
0.0000000000
  9
$TDUSRTIMER
 40
0.0000000000
  9
$USRTIMER
 70
     1
  9
$ANGBASE
 50
0.0
  9
$ANGDIR
 70
     0
  9
$PDMODE
 70
     0
  9
$PDSIZE
 40
0.0
  9
$PLINEWID
 40
0.0
  9
$SPLFRAME
 70
     0
  9
$SPLINETYPE
 70
     6
  9
$SPLINESEGS
 70
     8
  9
$HANDSEED
  5
722
  9
$SURFTAB1
 70
     6
  9
$SURFTAB2
 70
     6
  9
$SURFTYPE
 70
     6
  9
$SURFU
 70
     6
  9
$SURFV
 70
     6
  9
$UCSBASE
  2

  9
$UCSNAME
  2

  9
$UCSORG
 10
0.0
 20
0.0
 30
0.0
  9
$UCSXDIR
 10
1.0
 20
0.0
 30
0.0
  9
$UCSYDIR
 10
0.0
 20
1.0
 30
0.0
  9
$UCSORTHOREF
  2

  9
$UCSORTHOVIEW
 70
     1
  9
$UCSORGTOP
 10
0.0
 20
0.0
 30
0.0
  9
$UCSORGBOTTOM
 10
0.0
 20
0.0
 30
0.0
  9
$UCSORGLEFT
 10
0.0
 20
0.0
 30
0.0
  9
$UCSORGRIGHT
 10
0.0
 20
0.0
 30
0.0
  9
$UCSORGFRONT
 10
0.0
 20
0.0
 30
0.0
  9
$UCSORGBACK
 10
0.0
 20
0.0
 30
0.0
  9
$PUCSBASE
  2

  9
$PUCSNAME
  2

  9
$PUCSORG
 10
0.0
 20
0.0
 30
0.0
  9
$PUCSXDIR
 10
1.0
 20
0.0
 30
0.0
  9
$PUCSYDIR
 10
0.0
 20
1.0
 30
0.0
  9
$PUCSORTHOREF
  2

  9
$PUCSORTHOVIEW
 70
     0
  9
$PUCSORGTOP
 10
0.0
 20
0.0
 30
0.0
  9
$PUCSORGBOTTOM
 10
0.0
 20
0.0
 30
0.0
  9
$PUCSORGLEFT
 10
0.0
 20
0.0
 30
0.0
  9
$PUCSORGRIGHT
 10
0.0
 20
0.0
 30
0.0
  9
$PUCSORGFRONT
 10
0.0
 20
0.0
 30
0.0
  9
$PUCSORGBACK
 10
0.0
 20
0.0
 30
0.0
  9
$USERI1
 70
     0
  9
$USERI2
 70
     0
  9
$USERI3
 70
     0
  9
$USERI4
 70
     0
  9
$USERI5
 70
     0
  9
$USERR1
 40
0.0
  9
$USERR2
 40
0.0
  9
$USERR3
 40
0.0
  9
$USERR4
 40
0.0
  9
$USERR5
 40
0.0
  9
$WORLDVIEW
 70
     1
  9
$SHADEDGE
 70
     3
  9
$SHADEDIF
 70
    70
  9
$TILEMODE
 70
     1
  9
$MAXACTVP
 70
    48
  9
$PINSBASE
 10
0.0
 20
0.0
 30
0.0
  9
$PLIMCHECK
 70
     0
  9
$PEXTMIN
 10
0.0
 20
0.0
 30
0.0
  9
$PEXTMAX
 10
1800.187012
 20
165.683334
 30
2.0
  9
$PLIMMIN
 10
0.0
 20
0.0
  9
$PLIMMAX
 10
420.0
 20
297.0
  9
$UNITMODE
 70
     0
  9
$VISRETAIN
 70
     0
  9
$PLINEGEN
 70
     0
  9
$PSLTSCALE
 70
     1
  9
$TREEDEPTH
 70
  3020
  9
$CMLSTYLE
  2
Standard
  9
$CMLJUST
 70
     0
  9
$CMLSCALE
 40
20.0
  9
$PROXYGRAPHICS
 70
     1
  9
$MEASUREMENT
 70
     1
  9
$CELWEIGHT
370
    -1
  9
$ENDCAPS
280
     0
  9
$JOINSTYLE
280
     0
  9
$LWDISPLAY
290
     0
  9
$INSUNITS
 70
     0
  9
$HYPERLINKBASE
  1

  9
$STYLESHEET
  1

  9
$XEDIT
290
     1
  9
$CEPSNTYPE
380
     0
  9
$PSTYLEMODE
290
     0
  9
$FINGERPRINTGUID
  2

  9
$VERSIONGUID
  2

  9
$EXTNAMES
290
     0
  9
$PSVPSCALE
 40
0.0
  0
ENDSEC
  0
SECTION
  2
CLASSES
  0
CLASS
  1
LWPOLYLINE
  2
AcDbPolyline
  3
AutoCAD 2000
 90
        0
280
     0
281
     1
  0
CLASS
  1
IMAGE
  2
AcDbRasterImage
  3
ISM
 90
      127
280
     0
281
     1
  0
CLASS
  1
OLE2FRAME
  2
AcDbOle2Frame
  3
AutoCAD 2000
 90
        0
280
     0
281
     1
  0
CLASS
  1
HATCH
  2
AcDbHatch
  3
AutoCAD 2000
 90
        0
280
     0
281
     1
  0
CLASS
  1
DICTIONARYVAR
  2
AcDbDictionaryVar
  3
AutoCAD 2000
 90
        0
280
     0
281
     0
  0
CLASS
  1
RASTERVARIABLES
  2
AcDbRasterVariables
  3
ISM
 90
        0
280
     0
281
     0
  0
CLASS
  1
IMAGEDEF
  2
AcDbRasterImageDef
  3
ISM
 90
        0
280
     0
281
     0
  0
CLASS
  1
IMAGEDEF_REACTOR
  2
AcDbRasterImageDefReactor
  3
ISM
 90
        1
280
     0
281
     0
  0
CLASS
  1
IDBUFFER
  2
AcDbIdBuffer
  3
AutoCAD 2000
 90
        0
280
     0
281
     0
  0
CLASS
  1
SPATIAL_FILTER
  2
AcDbSpatialFilter
  3
AutoCAD 2000
 90
        0
280
     0
281
     0
  0
CLASS
  1
XRECORD
  2
AcDbXrecord
  3
AutoCAD 2000
 90
        0
280
     0
281
     0
  0
CLASS
  1
SORTENTSTABLE
  2
AcDbSortentsTable
  3
AutoCAD 2000
 90
        0
280
     0
281
     0
  0
CLASS
  1
LAYER_INDEX
  2
AcDbLayerIndex
  3
AutoCAD 2000
 90
        0
280
     0
281
     0
  0
CLASS
  1
SPATIAL_INDEX
  2
AcDbSpatialIndex
  3
AutoCAD 2000
 90
        0
280
     0
281
     0
  0
CLASS
  1
OBJECT_PTR
  2
CAseDLPNTableRecord
  3
"ASE-LPNTableRecord"
 90
        1
280
     0
281
     0
  0
CLASS
  1
LAYOUT
  2
AcDbLayout
  3
AutoCAD 2000
 90
        0
280
     0
281
     0
  0
CLASS
  1
PLOTSETTINGS
  2
AcDbPlotSettings
  3
AutoCAD 2000
 90
        0
280
     0
281
     0
  0
CLASS
  1
ACDBDICTIONARYWDFLT
  2
AcDbDictionaryWithDefault
  3
AutoCAD 2000
 90
        0
280
     0
281
     0
  0
CLASS
  1
ACDBPLACEHOLDER
  2
AcDbPlaceHolder
  3
AutoCAD 2000
 90
        0
280
     0
281
     0
  0
CLASS
  1
VBA_PROJECT
  2
AcDbVbaProject
  3
acadvba
 90
        0
280
     0
281
     0
  0
CLASS
  1
WIPEOUT
  2
AcDbWipeout
  3
WipeOut|AutoCAD Express Tool|expresstools@autodesk.com
 90
      127
280
     0
281
     1
  0
CLASS
  1
WIPEOUTVARIABLES
  2
AcDbWipeoutVariables
  3
WipeOut|AutoCAD Express Tool|expresstools@autodesk.com
 90
        0
280
     0
281
     0
  0
CLASS
  1
RTEXT
  2
RText
  3
RText|AutoCAD Express Tool|expresstools@autodesk.com
 90
        0
280
     0
281
     1
  0
CLASS
  1
ARCALIGNEDTEXT
  2
AcDbArcAlignedText
  3
ATEXT|AutoCAD Express Tool|expresstools@autodesk.com
 90
        0
280
     0
281
     1
  0
ENDSEC
  0
SECTION
  2
TABLES
  0
TABLE
  2
VPORT
  5
7
100
AcDbSymbolTable
 70
     1
  0
VPORT
  5
15
100
AcDbSymbolTableRecord
100
AcDbViewportTableRecord
  2
*ACTIVE
 70
     0
 10
0.0
 20
0.0
 11
1.0
 21
1.0
 12
6.591288
 22
4.579184
 13
0.0
 23
0.0
 14
1.0
 24
1.0
 15
0.0
 25
0.0
 16
0.0
 26
0.0
 36
1.0
 17
0.0
 27
0.0
 37
0.0
 40
9.158369
 41
0.688564
 42
50.0
 43
0.0
 44
0.0
 50
0.0
 51
0.0
 71
     0
 72
   100
 73
     1
 74
     1
 75
     0
 76
     0
 77
     0
 78
     0
281
     0
 65
     0
110
0.0
120
0.0
130
0.0
111
1.0
121
0.0
131
0.0
112
0.0
122
1.0
132
0.0
345
0
346
0
 79
     0
146
0.0
  0
ENDTAB
  0
TABLE
  2
LTYPE
  5
4
100
AcDbSymbolTable
 70
     3
  0
LTYPE
  5
11
100
AcDbSymbolTableRecord
100
AcDbLinetypeTableRecord
  2
ByBlock
 70
    64
  3

 72
    65
 73
     0
 40
0.0
  0
LTYPE
  5
12
100
AcDbSymbolTableRecord
100
AcDbLinetypeTableRecord
  2
ByLayer
 70
    64
  3

 72
    65
 73
     0
 40
0.0
  0
LTYPE
  5
13
100
AcDbSymbolTableRecord
100
AcDbLinetypeTableRecord
  2
Continuous
 70
    64
  3
Solid line
 72
    65
 73
     0
 40
0.0
  0
ENDTAB
  0
TABLE
  2
LAYER
  5
2
100
AcDbSymbolTable
 70
     1
  0
LAYER
  5
14
100
AcDbSymbolTableRecord
100
AcDbLayerTableRecord
  2
0
 70
     0
 62
     7
  6
Continuous
290
     1
370
    -3
390
1D
  0
ENDTAB
  0
TABLE
  2
STYLE
  5
3
100
AcDbSymbolTable
 70
     1
  0
STYLE
  5
17
100
AcDbSymbolTableRecord
100
AcDbTextStyleTableRecord
  2
Standard
 70
     0
 40
0.0
 41
1.0
 50
0.0
 71
     0
 42
0.0
  3
txt
  4

  0
ENDTAB
  0
TABLE
  2
VIEW
  5
5
100
AcDbSymbolTable
 70
     0
  0
ENDTAB
  0
TABLE
  2
UCS
  5
6
100
AcDbSymbolTable
 70
     0
  0
ENDTAB
  0
TABLE
  2
APPID
  5
8
100
AcDbSymbolTable
 70
     1
  0
APPID
  5
16
100
AcDbSymbolTableRecord
100
AcDbRegAppTableRecord
  2
ACAD
 70
     0
  0
ENDTAB
  0
TABLE
  2
DIMSTYLE
  5
9
100
AcDbSymbolTable
 70
     1
100
AcDbDimStyleTable
 71
     0
  0
DIMSTYLE
105
18
100
AcDbSymbolTableRecord
100
AcDbDimStyleTableRecord
  2
Standard
 70
     0
  3

  4

 40
1.0
 41
0.18
 42
0.0625
 43
0.38
 44
0.18
 45
0.0
 46
0.0
 47
0.0
 48
0.0
 71
     0
 72
     0
 73
     1
 74
     1
 75
     0
 76
     0
 77
     0
 78
     0
 79
     0
140
0.18
141
0.09
142
0.0
143
25.4
144
1.0
145
0.0
146
1.0
147
0.09
148
0.0
170
     0
171
     2
172
     0
173
     0
174
     0
175
     0
176
     0
177
     0
178
     0
179
     0
271
     4
272
     4
273
     2
274
     2
275
     0
276
     0
277
     2
278
    46
279
     0
280
     0
281
     0
282
     0
283
     1
284
     0
285
     0
286
     0
288
     0
289
     3
340
17
341
0
342
0
343
0
344
0
371
    -2
372
    -2
  0
ENDTAB
  0
TABLE
  2
BLOCK_RECORD
  5
1
100
AcDbSymbolTable
 70
     0
  0
BLOCK_RECORD
  5
A
100
AcDbSymbolTableRecord
100
AcDbBlockTableRecord
  2
*MODEL_SPACE
340
20
  0
BLOCK_RECORD
  5
B
100
AcDbSymbolTableRecord
100
AcDbBlockTableRecord
  2
*PAPER_SPACE
340
21
  0
ENDTAB
  0
ENDSEC
  0
SECTION
  2
BLOCKS
  0
BLOCK
  5
D
100
AcDbEntity
  8
0
390
0
100
AcDbBlockBegin
  2
*MODEL_SPACE
 70
     0
 10
0.0
 20
0.0
 30
0.0
  3
*MODEL_SPACE
  1

  0
ENDBLK
  5
E
100
AcDbEntity
  8
0
390
0
100
AcDbBlockEnd
  0
BLOCK
  5
F
100
AcDbEntity
 67
     1
  8
0
390
0
100
AcDbBlockBegin
  2
*PAPER_SPACE
 70
     0
 10
0.0
 20
0.0
 30
0.0
  3
*PAPER_SPACE
  1

  0
ENDBLK
  5
10
100
AcDbEntity
 67
     1
  8
0
390
0
100
AcDbBlockEnd
  0
ENDSEC
  0
SECTION
  2
ENTITIES
  0
VIEWPORT
  5
721
100
AcDbEntity
 67
     1
  8
0
370
     0
390
0
 62
     0
 48
0.0
100
AcDbViewport
 10
0.0
 20
0.0
 30
0.0
 40
1000.0
 41
1000.0
 68
     1
 69
     1
 12
0.0
 22
0.0
 13
0.0
 23
0.0
 14
1.0
 24
1.0
 15
1.0
 25
1.0
 16
0.0
 26
0.0
 36
1.0
 17
0.0
 27
0.0
 37
0.0
 42
50.0
 43
0.0
 44
0.0
 45
1000.0
 50
0.0
 51
0.0
 72
   100
 90
        0
340
0
  1

281
     0
 71
     0
 74
     1
110
0.0
120
0.0
130
0.0
111
1.0
121
0.0
131
0.0
112
0.0
122
1.0
132
0.0
345
0
346
0
 79
     0
146
0.0
  0
POLYLINE
  5
24
100
AcDbEntity
  8
0
370
    13
390
0
 62
     7
100
AcDb2dPolyline
 66
     1
 10
0.0
 20
0.0
 30
0.0
 71
     8
  0
VERTEX
  5
25
100
AcDbEntity
  8
0
370
     0
390
0
100
AcDbVertex
100
AcDb2dVertex
 10
221.91156
 20
20.836561
 30
0.0
  0
VERTEX
  5
26
100
AcDbEntity
  8
0
370
     0
390
0
100
AcDbVertex
100
AcDb2dVertex
 10
221.450912
 20
21.401077
 30
0.0
  0
VERTEX
  5
27
100
AcDbEntity
  8
0
370
     0
390
0
100
AcDbVertex
100
AcDb2dVertex
 10
220.759949
 20
21.643013
 30
0.0
  0
VERTEX
  5
28
100
AcDbEntity
  8
0
370
     0
390
0
100
AcDbVertex
100
AcDb2dVertex
 10
220.068985
 20
21.643013
 30
0.0
  0
VERTEX
  5
29
100
AcDbEntity
  8
0
370
     0
390
0
100
AcDbVertex
100
AcDb2dVertex
 10
219.378006
 20
21.401077
 30
0.0
  0
VERTEX
  5
2A
100
AcDbEntity
  8
0
370
     0
390
0
100
AcDbVertex
100
AcDb2dVertex
 10
218.917358
 20
20.755917
 30
0.0
  0
VERTEX
  5
2B
100
AcDbEntity
  8
0
370
     0
390
0
100
AcDbVertex
100
AcDb2dVertex
 10
218.917358
 20
20.191401
 30
0.0
  0
VERTEX
  5
2C
100
AcDbEntity
  8
0
370
     0
390
0
100
AcDbVertex
100
AcDb2dVertex
 10
219.320435
 20
19.626884
 30
0.0
  0
SEQEND
  5
2D
100
AcDbEntity
  8
0
370
     0
390
0
  0
POLYLINE
  5
2E
100
AcDbEntity
  8
0
370
    13
390
0
 62
     7
100
AcDb2dPolyline
 66
     1
 10
0.0
 20
0.0
 30
0.0
 71
     2
  0
VERTEX
  5
2F
100
AcDbEntity
  8
0
370
     0
390
0
100
AcDbVertex
100
AcDb2dVertex
 10
220.414459
 20
19.223658
 30
0.0
  0
VERTEX
  5
30
100
AcDbEntity
  8
0
370
     0
390
0
100
AcDbVertex
100
AcDb2dVertex
 10
220.932693
 20
19.062368
 30
0.0
  0
SEQEND
  5
31
100
AcDbEntity
  8
0
370
     0
390
0
  0
POLYLINE
  5
32
100
AcDbEntity
  8
0
370
    13
390
0
 62
     7
100
AcDb2dPolyline
 66
     1
 10
0.0
 20
0.0
 30
0.0
 71
     5
  0
VERTEX
  5
33
100
AcDbEntity
  8
0
370
     0
390
0
100
AcDbVertex
100
AcDb2dVertex
 10
221.450912
 20
16.804304
 30
0.0
  0
VERTEX
  5
34
100
AcDbEntity
  8
0
370
     0
390
0
100
AcDbVertex
100
AcDb2dVertex
 10
220.759949
 20
16.643013
 30
0.0
  0
VERTEX
  5
35
100
AcDbEntity
  8
0
370
     0
390
0
100
AcDbVertex
100
AcDb2dVertex
 10
220.068985
 20
16.643013
 30
0.0
  0
VERTEX
  5
36
100
AcDbEntity
  8
0
370
     0
390
0
100
AcDbVertex
100
AcDb2dVertex
 10
219.378006
 20
16.965593
 30
0.0
  0
VERTEX
  5
37
100
AcDbEntity
  8
0
370
     0
390
0
100
AcDbVertex
100
AcDb2dVertex
 10
218.917358
 20
17.530109
 30
0.0
  0
SEQEND
  5
38
100
AcDbEntity
  8
0
370
     0
390
0
  0
POLYLINE
  5
39
100
AcDbEntity
  8
0
370
    13
390
0
 62
     7
100
AcDb2dPolyline
 66
     1
 10
0.0
 20
0.0
 30
0.0
 71
     2
  0
VERTEX
  5
3A
100
AcDbEntity
  8
0
370
     0
390
0
100
AcDbVertex
100
AcDb2dVertex
 10
219.953812
 20
19.304302
 30
0.0
  0
VERTEX
  5
3B
100
AcDbEntity
  8
0
370
     0
390
0
100
AcDbVertex
100
AcDb2dVertex
 10
220.414459
 20
19.223658
 30
0.0
  0
SEQEND
  5
3C
100
AcDbEntity
  8
0
370
     0
390
0
  0
POLYLINE
  5
3D
100
AcDbEntity
  8
0
370
    13
390
0
 62
     7
100
AcDb2dPolyline
 66
     1
 10
0.0
 20
0.0
 30
0.0
 71
     2
  0
VERTEX
  5
3E
100
AcDbEntity
  8
0
370
     0
390
0
100
AcDbVertex
100
AcDb2dVertex
 10
219.320435
 20
19.626884
 30
0.0
  0
VERTEX
  5
3F
100
AcDbEntity
  8
0
370
     0
390
0
100
AcDbVertex
100
AcDb2dVertex
 10
219.953812
 20
19.304302
 30
0.0
  0
SEQEND
  5
40
100
AcDbEntity
  8
0
370
     0
390
0
  0
POLYLINE
  5
41
100
AcDbEntity
  8
0
370
    13
390
0
 62
     7
100
AcDb2dPolyline
 66
     1
 10
0.0
 20
0.0
 30
0.0
 71
     2
  0
VERTEX
  5
42
100
AcDbEntity
  8
0
370
     0
390
0
100
AcDbVertex
100
AcDb2dVertex
 10
221.91156
 20
17.449465
 30
0.0
  0
VERTEX
  5
43
100
AcDbEntity
  8
0
370
     0
390
0
100
AcDbVertex
100
AcDb2dVertex
 10
221.450912
 20
16.804304
 30
0.0
  0
SEQEND
  5
44
100
AcDbEntity
  8
0
370
     0
390
0
  0
POLYLINE
  5
45
100
AcDbEntity
  8
0
370
    13
390
0
 62
     7
100
AcDb2dPolyline
 66
     1
 10
0.0
 20
0.0
 30
0.0
 71
     2
  0
VERTEX
  5
46
100
AcDbEntity
  8
0
370
     0
390
0
100
AcDbVertex
100
AcDb2dVertex
 10
221.91156
 20
18.17527
 30
0.0
  0
VERTEX
  5
47
100
AcDbEntity
  8
0
370
     0
390
0
100
AcDbVertex
100
AcDb2dVertex
 10
221.91156
 20
17.449465
 30
0.0
  0
SEQEND
  5
48
100
AcDbEntity
  8
0
370
     0
390
0
  0
POLYLINE
  5
49
100
AcDbEntity
  8
0
370
    13
390
0
 62
     7
100
AcDb2dPolyline
 66
     1
 10
0.0
 20
0.0
 30
0.0
 71
     3
  0
VERTEX
  5
4A
100
AcDbEntity
  8
0
370
     0
390
0
100
AcDbVertex
100
AcDb2dVertex
 10
220.932693
 20
19.062368
 30
0.0
  0
VERTEX
  5
4B
100
AcDbEntity
  8
0
370
     0
390
0
100
AcDbVertex
100
AcDb2dVertex
 10
221.450912
 20
18.739788
 30
0.0
  0
VERTEX
  5
4C
100
AcDbEntity
  8
0
370
     0
390
0
100
AcDbVertex
100
AcDb2dVertex
 10
221.91156
 20
18.17527
 30
0.0
  0
SEQEND
  5
4D
100
AcDbEntity
  8
0
370
     0
390
0
  0
POLYLINE
  5
4E
100
AcDbEntity
  8
0
370
    13
390
0
 62
     7
100
AcDb2dPolyline
 66
     1
 10
0.0
 20
0.0
 30
0.0
 71
     2
  0
VERTEX
  5
4F
100
AcDbEntity
  8
0
370
     0
390
0
100
AcDbVertex
100
AcDb2dVertex
 10
224.829941
 20
21.643013
 30
0.0
  0
VERTEX
  5
50
100
AcDbEntity
  8
0
370
     0
390
0
100
AcDbVertex
100
AcDb2dVertex
 10
222.872208
 20
21.643013
 30
0.0
  0
SEQEND
  5
51
100
AcDbEntity
  8
0
370
     0
390
0
  0
POLYLINE
  5
52
100
AcDbEntity
  8
0
370
    13
390
0
 62
     7
100
AcDb2dPolyline
 66
     1
 10
0.0
 20
0.0
 30
0.0
 71
     2
  0
VERTEX
  5
53
100
AcDbEntity
  8
0
370
     0
390
0
100
AcDbVertex
100
AcDb2dVertex
 10
222.872208
 20
19.223658
 30
0.0
  0
VERTEX
  5
54
100
AcDbEntity
  8
0
370
     0
390
0
100
AcDbVertex
100
AcDb2dVertex
 10
224.945099
 20
19.223658
 30
0.0
  0
SEQEND
  5
55
100
AcDbEntity
  8
0
370
     0
390
0
  0
POLYLINE
  5
56
100
AcDbEntity
  8
0
370
    13
390
0
 62
     7
100
AcDb2dPolyline
 66
     1
 10
0.0
 20
0.0
 30
0.0
 71
     2
  0
VERTEX
  5
57
100
AcDbEntity
  8
0
370
     0
390
0
100
AcDbVertex
100
AcDb2dVertex
 10
222.872208
 20
21.643013
 30
0.0
  0
VERTEX
  5
58
100
AcDbEntity
  8
0
370
     0
390
0
100
AcDbVertex
100
AcDb2dVertex
 10
222.872208
 20
16.643013
 30
0.0
  0
SEQEND
  5
59
100
AcDbEntity
  8
0
370
     0
390
0
  0
POLYLINE
  5
5A
100
AcDbEntity
  8
0
370
    13
390
0
 62
     7
100
AcDb2dPolyline
 66
     1
 10
0.0
 20
0.0
 30
0.0
 71
     6
  0
VERTEX
  5
5B
100
AcDbEntity
  8
0
370
     0
390
0
100
AcDbVertex
100
AcDb2dVertex
 10
224.829941
 20
21.643013
 30
0.0
  0
VERTEX
  5
5C
100
AcDbEntity
  8
0
370
     0
390
0
100
AcDbVertex
100
AcDb2dVertex
 10
225.233002
 20
21.401077
 30
0.0
  0
VERTEX
  5
5D
100
AcDbEntity
  8
0
370
     0
390
0
100
AcDbVertex
100
AcDb2dVertex
 10
225.636078
 20
20.836561
 30
0.0
  0
VERTEX
  5
5E
100
AcDbEntity
  8
0
370
     0
390
0
100
AcDbVertex
100
AcDb2dVertex
 10
225.636078
 20
20.030109
 30
0.0
  0
VERTEX
  5
5F
100
AcDbEntity
  8
0
370
     0
390
0
100
AcDbVertex
100
AcDb2dVertex
 10
225.348175
 20
19.546238
 30
0.0
  0
VERTEX
  5
60
100
AcDbEntity
  8
0
370
     0
390
0
100
AcDbVertex
100
AcDb2dVertex
 10
224.945099
 20
19.223658
 30
0.0
  0
SEQEND
  5
61
100
AcDbEntity
  8
0
370
     0
390
0
  0
POLYLINE
  5
62
100
AcDbEntity
  8
0
370
    13
390
0
 62
     7
100
AcDb2dPolyline
 66
     1
 10
0.0
 20
0.0
 30
0.0
 71
     2
  0
VERTEX
  5
63
100
AcDbEntity
  8
0
370
     0
390
0
100
AcDbVertex
100
AcDb2dVertex
 10
224.484467
 20
19.223658
 30
0.0
  0
VERTEX
  5
64
100
AcDbEntity
  8
0
370
     0
390
0
100
AcDbVertex
100
AcDb2dVertex
 10
225.636078
 20
16.643013
 30
0.0
  0
SEQEND
  5
65
100
AcDbEntity
  8
0
370
     0
390
0
  0
POLYLINE
  5
66
100
AcDbEntity
  8
0
370
    13
390
0
 62
     7
100
AcDb2dPolyline
 66
     1
 10
0.0
 20
0.0
 30
0.0
 71
    23
  0
VERTEX
  5
67
100
AcDbEntity
  8
0
370
     0
390
0
100
AcDbVertex
100
AcDb2dVertex
 10
229.475754
 20
20.997852
 30
0.0
  0
VERTEX
  5
68
100
AcDbEntity
  8
0
370
     0
390
0
100
AcDbVertex
100
AcDb2dVertex
 10
229.303009
 20
21.401077
 30
0.0
  0
VERTEX
  5
69
100
AcDbEntity
  8
0
370
     0
390
0
100
AcDbVertex
100
AcDb2dVertex
 10
228.669617
 20
21.643013
 30
0.0
  0
VERTEX
  5
6A
100
AcDbEntity
  8
0
370
     0
390
0
100
AcDbVertex
100
AcDb2dVertex
 10
228.324142
 20
21.643013
 30
0.0
  0
VERTEX
  5
6B
100
AcDbEntity
  8
0
370
     0
390
0
100
AcDbVertex
100
AcDb2dVertex
 10
227.69075
 20
21.401077
 30
0.0
  0
VERTEX
  5
6C
100
AcDbEntity
  8
0
370
     0
390
0
100
AcDbVertex
100
AcDb2dVertex
 10
227.287689
 20
20.755917
 30
0.0
  0
VERTEX
  5
6D
100
AcDbEntity
  8
0
370
     0
390
0
100
AcDbVertex
100
AcDb2dVertex
 10
227.114944
 20
19.626884
 30
0.0
  0
VERTEX
  5
6E
100
AcDbEntity
  8
0
370
     0
390
0
100
AcDbVertex
100
AcDb2dVertex
 10
227.114944
 20
18.497852
 30
0.0
  0
VERTEX
  5
6F
100
AcDbEntity
  8
0
370
     0
390
0
100
AcDbVertex
100
AcDb2dVertex
 10
227.287689
 20
17.610754
 30
0.0
  0
VERTEX
  5
70
100
AcDbEntity
  8
0
370
     0
390
0
100
AcDbVertex
100
AcDb2dVertex
 10
227.633179
 20
17.046238
 30
0.0
  0
VERTEX
  5
71
100
AcDbEntity
  8
0
370
     0
390
0
100
AcDbVertex
100
AcDb2dVertex
 10
228.266556
 20
16.643013
 30
0.0
  0
VERTEX
  5
72
100
AcDbEntity
  8
0
370
     0
390
0
100
AcDbVertex
100
AcDb2dVertex
 10
228.496887
 20
16.643013
 30
0.0
  0
VERTEX
  5
73
100
AcDbEntity
  8
0
370
     0
390
0
100
AcDbVertex
100
AcDb2dVertex
 10
229.130264
 20
16.884949
 30
0.0
  0
VERTEX
  5
74
100
AcDbEntity
  8
0
370
     0
390
0
100
AcDbVertex
100
AcDb2dVertex
 10
229.475754
 20
17.36882
 30
0.0
  0
VERTEX
  5
75
100
AcDbEntity
  8
0
370
     0
390
0
100
AcDbVertex
100
AcDb2dVertex
 10
229.648499
 20
18.013981
 30
0.0
  0
VERTEX
  5
76
100
AcDbEntity
  8
0
370
     0
390
0
100
AcDbVertex
100
AcDb2dVertex
 10
229.648499
 20
18.255917
 30
0.0
  0
VERTEX
  5
77
100
AcDbEntity
  8
0
370
     0
390
0
100
AcDbVertex
100
AcDb2dVertex
 10
229.475754
 20
18.901077
 30
0.0
  0
VERTEX
  5
78
100
AcDbEntity
  8
0
370
     0
390
0
100
AcDbVertex
100
AcDb2dVertex
 10
229.130264
 20
19.384949
 30
0.0
  0
VERTEX
  5
79
100
AcDbEntity
  8
0
370
     0
390
0
100
AcDbVertex
100
AcDb2dVertex
 10
228.496887
 20
19.626884
 30
0.0
  0
VERTEX
  5
7A
100
AcDbEntity
  8
0
370
     0
390
0
100
AcDbVertex
100
AcDb2dVertex
 10
228.266556
 20
19.626884
 30
0.0
  0
VERTEX
  5
7B
100
AcDbEntity
  8
0
370
     0
390
0
100
AcDbVertex
100
AcDb2dVertex
 10
227.633179
 20
19.384949
 30
0.0
  0
VERTEX
  5
7C
100
AcDbEntity
  8
0
370
     0
390
0
100
AcDbVertex
100
AcDb2dVertex
 10
227.287689
 20
18.981722
 30
0.0
  0
VERTEX
  5
7D
100
AcDbEntity
  8
0
370
     0
390
0
100
AcDbVertex
100
AcDb2dVertex
 10
227.114944
 20
18.417206
 30
0.0
  0
SEQEND
  5
7E
100
AcDbEntity
  8
0
370
     0
390
0
  0
POLYLINE
  5
7F
100
AcDbEntity
  8
0
370
    13
390
0
 62
     7
100
AcDb2dPolyline
 66
     1
 10
0.0
 20
0.0
 30
0.0
 71
     3
  0
VERTEX
  5
80
100
AcDbEntity
  8
0
370
     0
390
0
100
AcDbVertex
100
AcDb2dVertex
 10
230.897049
 20
21.643013
 30
0.0
  0
VERTEX
  5
81
100
AcDbEntity
  8
0
370
     0
390
0
100
AcDbVertex
100
AcDb2dVertex
 10
233.660919
 20
21.643013
 30
0.0
  0
VERTEX
  5
82
100
AcDbEntity
  8
0
370
     0
390
0
100
AcDbVertex
100
AcDb2dVertex
 10
231.588013
 20
16.643013
 30
0.0
  0
SEQEND
  5
83
100
AcDbEntity
  8
0
370
     0
390
0
  0
POLYLINE
  5
84
100
AcDbEntity
  8
0
370
    13
390
0
 62
     7
100
AcDb2dPolyline
 66
     1
 10
0.0
 20
0.0
 30
0.0
 71
     3
  0
VERTEX
  5
85
100
AcDbEntity
  8
0
370
     0
390
0
100
AcDbVertex
100
AcDb2dVertex
 10
234.679138
 20
16.643013
 30
0.0
  0
VERTEX
  5
86
100
AcDbEntity
  8
0
370
     0
390
0
100
AcDbVertex
100
AcDb2dVertex
 10
236.23381
 20
21.643013
 30
0.0
  0
VERTEX
  5
87
100
AcDbEntity
  8
0
370
     0
390
0
100
AcDbVertex
100
AcDb2dVertex
 10
237.788498
 20
16.643013
 30
0.0
  0
SEQEND
  5
88
100
AcDbEntity
  8
0
370
     0
390
0
  0
POLYLINE
  5
89
100
AcDbEntity
  8
0
370
    13
390
0
 62
     7
100
AcDb2dPolyline
 66
     1
 10
0.0
 20
0.0
 30
0.0
 71
     2
  0
VERTEX
  5
8A
100
AcDbEntity
  8
0
370
     0
390
0
100
AcDbVertex
100
AcDb2dVertex
 10
235.197357
 20
18.336561
 30
0.0
  0
VERTEX
  5
8B
100
AcDbEntity
  8
0
370
     0
390
0
100
AcDbVertex
100
AcDb2dVertex
 10
237.270264
 20
18.336561
 30
0.0
  0
SEQEND
  5
8C
100
AcDbEntity
  8
0
370
     0
390
0
  0
POLYLINE
  5
8D
100
AcDbEntity
  8
0
370
    13
390
0
 62
     7
100
AcDb2dPolyline
 66
     1
 10
0.0
 20
0.0
 30
0.0
 71
     2
  0
VERTEX
  5
8E
100
AcDbEntity
  8
0
370
     0
390
0
100
AcDbVertex
100
AcDb2dVertex
 10
238.979462
 20
18.659142
 30
0.0
  0
VERTEX
  5
8F
100
AcDbEntity
  8
0
370
     0
390
0
100
AcDbVertex
100
AcDb2dVertex
 10
241.628174
 20
18.659142
 30
0.0
  0
SEQEND
  5
90
100
AcDbEntity
  8
0
370
     0
390
0
  0
POLYLINE
  5
91
100
AcDbEntity
  8
0
370
    13
390
0
 62
     7
100
AcDb2dPolyline
 66
     1
 10
0.0
 20
0.0
 30
0.0
 71
     3
  0
VERTEX
  5
92
100
AcDbEntity
  8
0
370
     0
390
0
100
AcDbVertex
100
AcDb2dVertex
 10
243.625259
 20
20.997852
 30
0.0
  0
VERTEX
  5
93
100
AcDbEntity
  8
0
370
     0
390
0
100
AcDbVertex
100
AcDb2dVertex
 10
244.258652
 20
21.643013
 30
0.0
  0
VERTEX
  5
94
100
AcDbEntity
  8
0
370
     0
390
0
100
AcDbVertex
100
AcDb2dVertex
 10
244.258652
 20
16.643013
 30
0.0
  0
SEQEND
  5
95
100
AcDbEntity
  8
0
370
     0
390
0
  0
POLYLINE
  5
96
100
AcDbEntity
  8
0
370
    13
390
0
 62
     7
100
AcDb2dPolyline
 66
     1
 10
0.0
 20
0.0
 30
0.0
 71
     2
  0
VERTEX
  5
97
100
AcDbEntity
  8
0
370
     0
390
0
100
AcDbVertex
100
AcDb2dVertex
 10
243.279785
 20
20.755917
 30
0.0
  0
VERTEX
  5
98
100
AcDbEntity
  8
0
370
     0
390
0
100
AcDbVertex
100
AcDb2dVertex
 10
243.625259
 20
20.997852
 30
0.0
  0
SEQEND
  5
99
100
AcDbEntity
  8
0
370
     0
390
0
  0
POLYLINE
  5
9A
100
AcDbEntity
  8
0
370
    13
390
0
 62
     7
100
AcDb2dPolyline
 66
     1
 10
0.0
 20
0.0
 30
0.0
 71
    17
  0
VERTEX
  5
9B
100
AcDbEntity
  8
0
370
     0
390
0
100
AcDbVertex
100
AcDb2dVertex
 10
246.7164
 20
17.530109
 30
0.0
  0
VERTEX
  5
9C
100
AcDbEntity
  8
0
370
     0
390
0
100
AcDbVertex
100
AcDb2dVertex
 10
246.88913
 20
17.126884
 30
0.0
  0
VERTEX
  5
9D
100
AcDbEntity
  8
0
370
     0
390
0
100
AcDbVertex
100
AcDb2dVertex
 10
247.061874
 20
16.884949
 30
0.0
  0
VERTEX
  5
9E
100
AcDbEntity
  8
0
370
     0
390
0
100
AcDbVertex
100
AcDb2dVertex
 10
247.695267
 20
16.643013
 30
0.0
  0
VERTEX
  5
9F
100
AcDbEntity
  8
0
370
     0
390
0
100
AcDbVertex
100
AcDb2dVertex
 10
248.328644
 20
16.643013
 30
0.0
  0
VERTEX
  5
A0
100
AcDbEntity
  8
0
370
     0
390
0
100
AcDbVertex
100
AcDb2dVertex
 10
249.019623
 20
16.884949
 30
0.0
  0
VERTEX
  5
A1
100
AcDbEntity
  8
0
370
     0
390
0
100
AcDbVertex
100
AcDb2dVertex
 10
249.365097
 20
17.36882
 30
0.0
  0
VERTEX
  5
A2
100
AcDbEntity
  8
0
370
     0
390
0
100
AcDbVertex
100
AcDb2dVertex
 10
249.537842
 20
18.094625
 30
0.0
  0
VERTEX
  5
A3
100
AcDbEntity
  8
0
370
     0
390
0
100
AcDbVertex
100
AcDb2dVertex
 10
249.537842
 20
18.578497
 30
0.0
  0
VERTEX
  5
A4
100
AcDbEntity
  8
0
370
     0
390
0
100
AcDbVertex
100
AcDb2dVertex
 10
249.365097
 20
19.304302
 30
0.0
  0
VERTEX
  5
A5
100
AcDbEntity
  8
0
370
     0
390
0
100
AcDbVertex
100
AcDb2dVertex
 10
249.019623
 20
19.707529
 30
0.0
  0
VERTEX
  5
A6
100
AcDbEntity
  8
0
370
     0
390
0
100
AcDbVertex
100
AcDb2dVertex
 10
248.328644
 20
19.949465
 30
0.0
  0
VERTEX
  5
A7
100
AcDbEntity
  8
0
370
     0
390
0
100
AcDbVertex
100
AcDb2dVertex
 10
247.695267
 20
19.949465
 30
0.0
  0
VERTEX
  5
A8
100
AcDbEntity
  8
0
370
     0
390
0
100
AcDbVertex
100
AcDb2dVertex
 10
247.177032
 20
19.707529
 30
0.0
  0
VERTEX
  5
A9
100
AcDbEntity
  8
0
370
     0
390
0
100
AcDbVertex
100
AcDb2dVertex
 10
247.004303
 20
19.465593
 30
0.0
  0
VERTEX
  5
AA
100
AcDbEntity
  8
0
370
     0
390
0
100
AcDbVertex
100
AcDb2dVertex
 10
247.177032
 20
21.643013
 30
0.0
  0
VERTEX
  5
AB
100
AcDbEntity
  8
0
370
     0
390
0
100
AcDbVertex
100
AcDb2dVertex
 10
249.307526
 20
21.643013
 30
0.0
  0
SEQEND
  5
AC
100
AcDbEntity
  8
0
370
     0
390
0
  0
POLYLINE
  5
AD
100
AcDbEntity
  8
0
370
    13
390
0
 62
     7
100
AcDb2dPolyline
 66
     1
 10
0.0
 20
0.0
 30
0.0
 71
     5
  0
VERTEX
  5
AE
100
AcDbEntity
  8
0
370
     0
390
0
100
AcDbVertex
100
AcDb2dVertex
 10
253.319946
 20
18.417206
 30
0.0
  0
VERTEX
  5
AF
100
AcDbEntity
  8
0
370
     0
390
0
100
AcDbVertex
100
AcDb2dVertex
 10
250.671234
 20
18.417206
 30
0.0
  0
VERTEX
  5
B0
100
AcDbEntity
  8
0
370
     0
390
0
100
AcDbVertex
100
AcDb2dVertex
 10
252.628967
 20
21.643013
 30
0.0
  0
VERTEX
  5
B1
100
AcDbEntity
  8
0
370
     0
390
0
100
AcDbVertex
100
AcDb2dVertex
 10
252.628967
 20
19.223658
 30
0.0
  0
VERTEX
  5
B2
100
AcDbEntity
  8
0
370
     0
390
0
100
AcDbVertex
100
AcDb2dVertex
 10
252.628967
 20
16.643013
 30
0.0
  0
SEQEND
  5
B3
100
AcDbEntity
  8
0
370
     0
390
0
  0
LINE
  5
B4
100
AcDbEntity
  8
0
370
    35
390
0
 62
     7
 48
0.000175
100
AcDbLine
 10
250.187042
 20
116.176323
 30
0.0
 11
250.187042
 21
116.183334
 31
0.0
210
0.0
220
0.0
230
1.0
  0
LINE
  5
B5
100
AcDbEntity
  8
0
370
    35
390
0
 62
     7
 48
0.006308
100
AcDbLine
 10
250.187042
 20
115.924019
 30
0.0
 11
250.187042
 21
116.176331
 31
0.0
210
0.0
220
0.0
230
1.0
  0
LINE
  5
B6
100
AcDbEntity
  8
0
370
    35
390
0
 62
     7
 48
0.006017
100
AcDbLine
 10
250.187042
 20
115.924019
 30
0.0
 11
250.187042
 21
115.683334
 31
0.0
210
0.0
220
0.0
230
1.0
  0
LINE
  5
B7
100
AcDbEntity
  8
0
370
    35
390
0
 62
     7
 48
0.004182
100
AcDbLine
 10
142.62027
 20
116.016678
 30
0.0
 11
142.634872
 21
116.183334
 31
0.0
210
0.0
220
0.0
230
1.0
  0
ARC
  5
B8
100
AcDbEntity
  8
0
370
    35
390
0
 62
     7
100
AcDbCircle
 10
160.624435
 20
223.183334
 30
0.0
 40
108.0
210
0.0
220
0.0
230
1.0
100
AcDbArc
 50
262.197743
 51
267.372403
  0
ARC
  5
B9
100
AcDbEntity
  8
0
370
    35
390
0
 62
     7
100
AcDbCircle
 10
250.687042
 20
115.683334
 30
0.0
 40
0.5
210
0.0
220
0.0
230
1.0
100
AcDbArc
 50
180.000005
 51
269.999997
  0
LINE
  5
BA
100
AcDbEntity
  8
0
370
    35
390
0
 62
     7
 48
0.023107
100
AcDbLine
 10
123.611305
 20
115.183334
 30
0.0
 11
122.687042
 21
115.183334
 31
0.0
210
0.0
220
0.0
230
1.0
  0
LINE
  5
BB
100
AcDbEntity
  8
0
370
    35
390
0
 62
     7
100
AcDbLine
 10
253.762787
 20
115.183334
 30
0.0
 11
123.611305
 21
115.183334
 31
0.0
210
0.0
220
0.0
230
1.0
  0
LINE
  5
BC
100
AcDbEntity
  8
0
370
    35
390
0
 62
     7
 48
0.023106
100
AcDbLine
 10
254.687042
 20
115.183334
 30
0.0
 11
253.762787
 21
115.183334
 31
0.0
210
0.0
220
0.0
230
1.0
  0
ARC
  5
BD
100
AcDbEntity
  8
0
370
    35
390
0
 62
     7
100
AcDbCircle
 10
130.687042
 20
115.683334
 30
0.0
 40
0.5
210
0.0
220
0.0
230
1.0
100
AcDbArc
 50
269.999997
 51
360.0
  0
LINE
  5
BE
100
AcDbEntity
  8
0
370
    35
390
0
 62
     7
 48
0.00625
100
AcDbLine
 10
131.187042
 20
115.933334
 30
0.0
 11
131.187042
 21
115.683334
 31
0.0
210
0.0
220
0.0
230
1.0
  0
LINE
  5
BF
100
AcDbEntity
  8
0
370
    35
390
0
 62
     7
 48
0.00625
100
AcDbLine
 10
131.187042
 20
116.183334
 30
0.0
 11
131.187042
 21
115.933334
 31
0.0
210
0.0
220
0.0
230
1.0
  0
ARC
  5
C0
100
AcDbEntity
  8
0
370
    35
390
0
 62
     7
100
AcDbCircle
 10
160.586304
 20
309.382813
 30
0.0
 40
194.199269
210
0.0
220
0.0
230
1.0
100
AcDbArc
 50
264.691779
 51
270.011254
  0
ARC
  5
C1
100
AcDbEntity
  8
0
370
    35
390
0
 62
     7
100
AcDbCircle
 10
231.788208
 20
309.401489
 30
0.0
 40
194.217864
210
0.0
220
0.0
230
1.0
100
AcDbArc
 50
269.988625
 51
275.287807
  0
ARC
  5
C2
100
AcDbEntity
  8
0
370
    35
390
0
 62
     7
100
AcDbCircle
 10
231.749649
 20
223.183334
 30
0.0
 40
108.0
210
0.0
220
0.0
230
1.0
100
AcDbArc
 50
272.77733
 51
277.802225
  0
ARC
  5
C3
100
AcDbEntity
  8
0
370
    35
390
0
 62
     7
100
AcDbCircle
 10
122.687042
 20
114.683334
 30
0.0
 40
0.5
210
0.0
220
0.0
230
1.0
100
AcDbArc
 50
90.000003
 51
179.999995
  0
ELLIPSE
  5
C4
100
AcDbEntity
  8
0
370
    35
390
0
 62
     7
100
AcDbEllipse
 10
122.493423
 20
114.957153
 30
0.0
 11
-0.2582626342773438
 21
-0.1826171875
 31
0.0
210
0.0
220
0.0
230
1.0
 40
0.5
 41
1.8499316671477897
 42
3.9265988266856993
  0
LINE
  5
C5
100
AcDbEntity
  8
0
370
    35
390
0
 62
     7
 48
0.020867
100
AcDbLine
 10
123.487045
 20
114.883331
 30
0.0
 11
122.652359
 21
114.883331
 31
0.0
210
0.0
220
0.0
230
1.0
  0
LINE
  5
C6
100
AcDbEntity
  8
0
370
    35
390
0
 62
     7
 48
0.008118
100
AcDbLine
 10
123.487045
 20
114.883331
 30
0.0
 11
123.611305
 21
115.183334
 31
0.0
210
0.0
220
0.0
230
1.0
  0
LINE
  5
C7
100
AcDbEntity
  8
0
370
    35
390
0
 62
     7
100
AcDbLine
 10
253.887039
 20
114.883331
 30
0.0
 11
123.487045
 21
114.883331
 31
0.0
210
0.0
220
0.0
230
1.0
  0
LINE
  5
C8
100
AcDbEntity
  8
0
370
    35
390
0
 62
     7
 48
0.008118
100
AcDbLine
 10
253.887039
 20
114.883331
 30
0.0
 11
253.762787
 21
115.183334
 31
0.0
210
0.0
220
0.0
230
1.0
  0
LINE
  5
C9
100
AcDbEntity
  8
0
370
    35
390
0
 62
     7
 48
0.020867
100
AcDbLine
 10
254.721725
 20
114.883331
 30
0.0
 11
253.887039
 21
114.883331
 31
0.0
210
0.0
220
0.0
230
1.0
  0
ELLIPSE
  5
CA
100
AcDbEntity
  8
0
370
    35
390
0
 62
     7
100
AcDbEllipse
 10
254.880661
 20
114.957153
 30
0.0
 11
-0.2582626342773438
 21
0.1826171875
 31
0.0
210
0.0
220
0.0
230
1.0
 40
0.5
 41
5.4981720034658608
 42
7.5748460918883449
  0
ARC
  5
CB
100
AcDbEntity
  8
0
370
    35
390
0
 62
     7
100
AcDbCircle
 10
254.687042
 20
114.683334
 30
0.0
 40
0.5
210
0.0
220
0.0
230
1.0
100
AcDbArc
 50
360.0
 51
90.000003
  0
LINE
  5
CC
100
AcDbEntity
  8
0
370
    35
390
0
 62
     7
100
AcDbLine
 10
255.187042
 20
94.671722
 30
0.0
 11
255.187042
 21
114.683334
 31
0.0
210
0.0
220
0.0
230
1.0
  0
LINE
  5
CD
100
AcDbEntity
  8
0
370
    35
390
0
 62
     7
 48
0.002951
100
AcDbLine
 10
255.187042
 20
94.55368
 30
0.0
 11
255.187042
 21
94.671722
 31
0.0
210
0.0
220
0.0
230
1.0
  0
LINE
  5
CE
100
AcDbEntity
  8
0
370
    35
390
0
 62
     7
 48
0.159259
100
AcDbLine
 10
255.187042
 20
88.183334
 30
0.0
 11
255.187042
 21
94.55368
 31
0.0
210
0.0
220
0.0
230
1.0
  0
LINE
  5
CF
100
AcDbEntity
  8
0
370
    35
390
0
 62
     7
 48
0.005178
100
AcDbLine
 10
255.187042
 20
88.183334
 30
0.0
 11
255.040588
 21
88.036888
 31
0.0
210
0.0
220
0.0
230
1.0
  0
LINE
  5
D0
100
AcDbEntity
  8
0
370
    35
390
0
 62
     7
 48
0.0125
100
AcDbLine
 10
254.687042
 20
87.683334
 30
0.0
 11
255.040588
 21
88.036888
 31
0.0
210
0.0
220
0.0
230
1.0
  0
LINE
  5
D1
100
AcDbEntity
  8
0
370
    35
390
0
 62
     7
 48
0.07
100
AcDbLine
 10
130.187042
 20
88.183334
 30
0.0
 11
130.187042
 21
90.983337
 31
0.0
210
0.0
220
0.0
230
1.0
  0
LINE
  5
D2
100
AcDbEntity
  8
0
370
    35
390
0
 62
     7
 48
0.01
100
AcDbLine
 10
130.187042
 20
88.183334
 30
0.0
 11
130.187042
 21
87.783333
 31
0.0
210
0.0
220
0.0
230
1.0
  0
LINE
  5
D3
100
AcDbEntity
  8
0
370
    35
390
0
 62
     7
100
AcDbLine
 10
214.787048
 20
90.983337
 30
0.0
 11
247.187042
 21
90.983337
 31
0.0
210
0.0
220
0.0
230
1.0
  0
LINE
  5
D4
100
AcDbEntity
  8
0
370
    35
390
0
 62
     7
 48
0.0125
100
AcDbLine
 10
214.287048
 20
90.983337
 30
0.0
 11
214.787048
 21
90.983337
 31
0.0
210
0.0
220
0.0
230
1.0
  0
LINE
  5
D5
100
AcDbEntity
  8
0
370
    35
390
0
 62
     7
 48
0.0125
100
AcDbLine
 10
203.887039
 20
90.983337
 30
0.0
 11
203.387039
 21
90.983337
 31
0.0
210
0.0
220
0.0
230
1.0
  0
LINE
  5
D6
100
AcDbEntity
  8
0
370
    35
390
0
 62
     7
100
AcDbLine
 10
148.987045
 20
90.983337
 30
0.0
 11
203.387039
 21
90.983337
 31
0.0
210
0.0
220
0.0
230
1.0
  0
LINE
  5
D7
100
AcDbEntity
  8
0
370
    35
390
0
 62
     7
 48
0.0125
100
AcDbLine
 10
148.487045
 20
90.983337
 30
0.0
 11
148.987045
 21
90.983337
 31
0.0
210
0.0
220
0.0
230
1.0
  0
LINE
  5
D8
100
AcDbEntity
  8
0
370
    35
390
0
 62
     7
 48
0.0125
100
AcDbLine
 10
138.087036
 20
90.983337
 30
0.0
 11
137.587036
 21
90.983337
 31
0.0
210
0.0
220
0.0
230
1.0
  0
LINE
  5
D9
100
AcDbEntity
  8
0
370
    35
390
0
 62
     7
 48
0.185
100
AcDbLine
 10
130.187042
 20
90.983337
 30
0.0
 11
137.587036
 21
90.983337
 31
0.0
210
0.0
220
0.0
230
1.0
  0
LINE
  5
DA
100
AcDbEntity
  8
0
370
    35
390
0
 62
     7
 48
0.01
100
AcDbLine
 10
247.187042
 20
87.783333
 30
0.0
 11
247.187042
 21
88.183334
 31
0.0
210
0.0
220
0.0
230
1.0
  0
LINE
  5
DB
100
AcDbEntity
  8
0
370
    35
390
0
 62
     7
 48
0.07
100
AcDbLine
 10
247.187042
 20
88.183334
 30
0.0
 11
247.187042
 21
90.983337
 31
0.0
210
0.0
220
0.0
230
1.0
  0
LINE
  5
DC
100
AcDbEntity
  8
0
370
    35
390
0
 62
     7
 48
0.159259
100
AcDbLine
 10
122.187042
 20
88.183334
 30
0.0
 11
122.187042
 21
94.55368
 31
0.0
210
0.0
220
0.0
230
1.0
  0
LINE
  5
DD
100
AcDbEntity
  8
0
370
    35
390
0
 62
     7
 48
0.002951
100
AcDbLine
 10
122.187042
 20
94.671722
 30
0.0
 11
122.187042
 21
94.55368
 31
0.0
210
0.0
220
0.0
230
1.0
  0
LINE
  5
DE
100
AcDbEntity
  8
0
370
    35
390
0
 62
     7
100
AcDbLine
 10
122.187042
 20
114.683334
 30
0.0
 11
122.187042
 21
94.671722
 31
0.0
210
0.0
220
0.0
230
1.0
  0
LINE
  5
DF
100
AcDbEntity
  8
0
370
    35
390
0
 62
     7
 48
0.0125
100
AcDbLine
 10
122.687042
 20
87.683334
 30
0.0
 11
122.333488
 21
88.036888
 31
0.0
210
0.0
220
0.0
230
1.0
  0
LINE
  5
E0
100
AcDbEntity
  8
0
370
    35
390
0
 62
     7
 48
0.005178
100
AcDbLine
 10
122.333488
 20
88.036888
 30
0.0
 11
122.187042
 21
88.183334
 31
0.0
210
0.0
220
0.0
230
1.0
  0
ARC
  5
E1
100
AcDbEntity
  8
0
370
    35
390
0
 62
     7
100
AcDbCircle
 10
122.249794
 20
114.695488
 30
0.0
 40
0.444278
210
0.0
220
0.0
230
1.0
100
AcDbArc
 50
10.235973
 51
25.01461
  0
LINE
  5
E2
100
AcDbEntity
  8
0
370
    35
390
0
 62
     7
 48
0.000813
100
AcDbLine
 10
122.691925
 20
114.742294
 30
0.0
 11
122.687042
 21
114.774445
 31
0.0
210
0.0
220
0.0
230
1.0
  0
ARC
  5
E3
100
AcDbEntity
  8
0
370
    35
390
0
 62
     7
100
AcDbCircle
 10
37.969597
 20
104.682365
 30
0.0
 40
85.3175
210
0.0
220
0.0
230
1.0
100
AcDbArc
 50
5.381035
 51
6.771593
  0
LINE
  5
E4
100
AcDbEntity
  8
0
370
    35
390
0
 62
     7
 48
0.055
100
AcDbLine
 10
123.487045
 20
112.683334
 30
0.0
 11
123.487045
 21
114.883331
 31
0.0
210
0.0
220
0.0
230
1.0
  0
ARC
  5
E5
100
AcDbEntity
  8
0
370
    35
390
0
 62
     7
100
AcDbCircle
 10
124.487045
 20
112.683334
 30
0.0
 40
1.0
210
0.0
220
0.0
230
1.0
100
AcDbArc
 50
180.000005
 51
269.999997
  0
LINE
  5
E6
100
AcDbEntity
  8
0
370
    35
390
0
 62
     7
 48
0.2975
100
AcDbLine
 10
136.387039
 20
111.683334
 30
0.0
 11
124.487045
 21
111.683334
 31
0.0
210
0.0
220
0.0
230
1.0
  0
ARC
  5
E7
100
AcDbEntity
  8
0
370
    35
390
0
 62
     7
100
AcDbCircle
 10
136.387039
 20
109.683334
 30
0.0
 40
2.0
210
0.0
220
0.0
230
1.0
100
AcDbArc
 50
360.0
 51
90.000003
  0
LINE
  5
E8
100
AcDbEntity
  8
0
370
    35
390
0
 62
     7
100
AcDbLine
 10
138.387039
 20
109.683334
 30
0.0
 11
138.387039
 21
88.683334
 31
0.0
210
0.0
220
0.0
230
1.0
  0
LINE
  5
E9
100
AcDbEntity
  8
0
370
    35
390
0
 62
     7
 48
0.035355
100
AcDbLine
 10
139.387039
 20
87.683334
 30
0.0
 11
138.387039
 21
88.683334
 31
0.0
210
0.0
220
0.0
230
1.0
  0
LINE
  5
EA
100
AcDbEntity
  8
0
370
    35
390
0
 62
     7
 48
0.195
100
AcDbLine
 10
147.187042
 20
87.683334
 30
0.0
 11
139.387039
 21
87.683334
 31
0.0
210
0.0
220
0.0
230
1.0
  0
LINE
  5
EB
100
AcDbEntity
  8
0
370
    35
390
0
 62
     7
 48
0.035355
100
AcDbLine
 10
147.187042
 20
87.683334
 30
0.0
 11
148.187042
 21
88.683334
 31
0.0
210
0.0
220
0.0
230
1.0
  0
LINE
  5
EC
100
AcDbEntity
  8
0
370
    35
390
0
 62
     7
 48
0.25
100
AcDbLine
 10
148.187042
 20
88.683334
 30
0.0
 11
148.187042
 21
98.683334
 31
0.0
210
0.0
220
0.0
230
1.0
  0
ARC
  5
ED
100
AcDbEntity
  8
0
370
    35
390
0
 62
     7
100
AcDbCircle
 10
149.187042
 20
98.683334
 30
0.0
 40
1.0
210
0.0
220
0.0
230
1.0
100
AcDbArc
 50
90.000003
 51
180.000005
  0
LINE
  5
EE
100
AcDbEntity
  8
0
370
    35
390
0
 62
     7
 48
0.17
100
AcDbLine
 10
149.187042
 20
99.683334
 30
0.0
 11
155.987045
 21
99.683334
 31
0.0
210
0.0
220
0.0
230
1.0
  0
ARC
  5
EF
100
AcDbEntity
  8
0
370
    35
390
0
 62
     7
100
AcDbCircle
 10
155.987045
 20
101.683334
 30
0.0
 40
2.0
210
0.0
220
0.0
230
1.0
100
AcDbArc
 50
269.999997
 51
0.0
  0
LINE
  5
F0
100
AcDbEntity
  8
0
370
    35
390
0
 62
     7
 48
0.2
100
AcDbLine
 10
157.987045
 20
109.683334
 30
0.0
 11
157.987045
 21
101.683334
 31
0.0
210
0.0
220
0.0
230
1.0
  0
ARC
  5
F1
100
AcDbEntity
  8
0
370
    35
390
0
 62
     7
100
AcDbCircle
 10
159.987045
 20
109.683334
 30
0.0
 40
2.0
210
0.0
220
0.0
230
1.0
100
AcDbArc
 50
90.000003
 51
179.999995
  0
LINE
  5
F2
100
AcDbEntity
  8
0
370
    35
390
0
 62
     7
100
AcDbLine
 10
192.387039
 20
111.683334
 30
0.0
 11
159.987045
 21
111.683334
 31
0.0
210
0.0
220
0.0
230
1.0
  0
ARC
  5
F3
100
AcDbEntity
  8
0
370
    35
390
0
 62
     7
100
AcDbCircle
 10
192.387039
 20
109.683334
 30
0.0
 40
2.0
210
0.0
220
0.0
230
1.0
100
AcDbArc
 50
360.0
 51
90.000003
  0
LINE
  5
F4
100
AcDbEntity
  8
0
370
    35
390
0
 62
     7
 48
0.2
100
AcDbLine
 10
194.387039
 20
101.683334
 30
0.0
 11
194.387039
 21
109.683334
 31
0.0
210
0.0
220
0.0
230
1.0
  0
ARC
  5
F5
100
AcDbEntity
  8
0
370
    35
390
0
 62
     7
100
AcDbCircle
 10
196.387039
 20
101.683334
 30
0.0
 40
2.0
210
0.0
220
0.0
230
1.0
100
AcDbArc
 50
180.000005
 51
269.999997
  0
LINE
  5
F6
100
AcDbEntity
  8
0
370
    35
390
0
 62
     7
 48
0.17
100
AcDbLine
 10
196.387039
 20
99.683334
 30
0.0
 11
203.187042
 21
99.683334
 31
0.0
210
0.0
220
0.0
230
1.0
  0
ARC
  5
F7
100
AcDbEntity
  8
0
370
    35
390
0
 62
     7
100
AcDbCircle
 10
203.187042
 20
98.683334
 30
0.0
 40
1.0
210
0.0
220
0.0
230
1.0
100
AcDbArc
 50
0.0
 51
90.000003
  0
LINE
  5
F8
100
AcDbEntity
  8
0
370
    35
390
0
 62
     7
 48
0.25
100
AcDbLine
 10
204.187042
 20
98.683334
 30
0.0
 11
204.187042
 21
88.683334
 31
0.0
210
0.0
220
0.0
230
1.0
  0
LINE
  5
F9
100
AcDbEntity
  8
0
370
    35
390
0
 62
     7
 48
0.035355
100
AcDbLine
 10
205.187042
 20
87.683334
 30
0.0
 11
204.187042
 21
88.683334
 31
0.0
210
0.0
220
0.0
230
1.0
  0
LINE
  5
FA
100
AcDbEntity
  8
0
370
    35
390
0
 62
     7
 48
0.195
100
AcDbLine
 10
212.987045
 20
87.683334
 30
0.0
 11
205.187042
 21
87.683334
 31
0.0
210
0.0
220
0.0
230
1.0
  0
LINE
  5
FB
100
AcDbEntity
  8
0
370
    35
390
0
 62
     7
 48
0.035355
100
AcDbLine
 10
212.987045
 20
87.683334
 30
0.0
 11
213.987045
 21
88.683334
 31
0.0
210
0.0
220
0.0
230
1.0
  0
LINE
  5
FC
100
AcDbEntity
  8
0
370
    35
390
0
 62
     7
100
AcDbLine
 10
213.987045
 20
88.683334
 30
0.0
 11
213.987045
 21
109.683334
 31
0.0
210
0.0
220
0.0
230
1.0
  0
ARC
  5
FD
100
AcDbEntity
  8
0
370
    35
390
0
 62
     7
100
AcDbCircle
 10
215.987045
 20
109.683334
 30
0.0
 40
2.0
210
0.0
220
0.0
230
1.0
100
AcDbArc
 50
90.000003
 51
180.000005
  0
LINE
  5
FE
100
AcDbEntity
  8
0
370
    35
390
0
 62
     7
100
AcDbLine
 10
215.987045
 20
111.683334
 30
0.0
 11
252.887039
 21
111.683334
 31
0.0
210
0.0
220
0.0
230
1.0
  0
ARC
  5
FF
100
AcDbEntity
  8
0
370
    35
390
0
 62
     7
100
AcDbCircle
 10
252.887039
 20
112.683334
 30
0.0
 40
1.0
210
0.0
220
0.0
230
1.0
100
AcDbArc
 50
269.999997
 51
360.0
  0
LINE
  5
100
100
AcDbEntity
  8
0
370
    35
390
0
 62
     7
 48
0.055
100
AcDbLine
 10
253.887039
 20
114.883331
 30
0.0
 11
253.887039
 21
112.683334
 31
0.0
210
0.0
220
0.0
230
1.0
  0
CIRCLE
  5
101
100
AcDbEntity
  8
0
370
    35
390
0
 62
     7
100
AcDbCircle
 10
204.187042
 20
107.183334
 30
0.0
 40
4.55
210
0.0
220
0.0
230
1.0
  0
CIRCLE
  5
102
100
AcDbEntity
  8
0
370
    35
390
0
 62
     7
100
AcDbCircle
 10
148.187042
 20
107.183334
 30
0.0
 40
4.55
210
0.0
220
0.0
230
1.0
  0
ARC
  5
103
100
AcDbEntity
  8
0
370
    35
390
0
 62
     7
100
AcDbCircle
 10
255.124298
 20
114.695488
 30
0.0
 40
0.444278
210
0.0
220
0.0
230
1.0
100
AcDbArc
 50
154.985393
 51
169.764024
  0
ARC
  5
104
100
AcDbEntity
  8
0
370
    35
390
0
 62
     7
100
AcDbCircle
 10
339.403687
 20
104.682449
 30
0.0
 40
85.316704
210
0.0
220
0.0
230
1.0
100
AcDbArc
 50
173.228405
 51
174.618977
  0
LINE
  5
105
100
AcDbEntity
  8
0
370
    35
390
0
 62
     7
 48
0.000813
100
AcDbLine
 10
254.682159
 20
114.742294
 30
0.0
 11
254.687042
 21
114.774445
 31
0.0
210
0.0
220
0.0
230
1.0
  0
ARC
  5
106
100
AcDbEntity
  8
0
370
    35
390
0
 62
     7
100
AcDbCircle
 10
254.687241
 20
87.683128
 30
0.0
 40
0.500098
210
0.0
220
0.0
230
1.0
100
AcDbArc
 50
45.032831
 51
90.022761
  0
LINE
  5
107
100
AcDbEntity
  8
0
370
    35
390
0
 62
     7
 48
0.1875
100
AcDbLine
 10
247.187042
 20
88.183334
 30
0.0
 11
254.687042
 21
88.183334
 31
0.0
210
0.0
220
0.0
230
1.0
  0
ARC
  5
108
100
AcDbEntity
  8
0
370
    35
390
0
 62
     7
100
AcDbCircle
 10
247.287048
 20
87.783333
 30
0.0
 40
0.1
210
0.0
220
0.0
230
1.0
100
AcDbArc
 50
179.999995
 51
269.999997
  0
LINE
  5
109
100
AcDbEntity
  8
0
370
    35
390
0
 62
     7
 48
0.185
100
AcDbLine
 10
247.287048
 20
87.683334
 30
0.0
 11
254.687042
 21
87.683334
 31
0.0
210
0.0
220
0.0
230
1.0
  0
LINE
  5
10A
100
AcDbEntity
  8
0
370
    35
390
0
 62
     7
 48
0.185
100
AcDbLine
 10
122.687042
 20
87.683334
 30
0.0
 11
130.087036
 21
87.683334
 31
0.0
210
0.0
220
0.0
230
1.0
  0
ARC
  5
10B
100
AcDbEntity
  8
0
370
    35
390
0
 62
     7
100
AcDbCircle
 10
130.087036
 20
87.783333
 30
0.0
 40
0.1
210
0.0
220
0.0
230
1.0
100
AcDbArc
 50
269.999997
 51
360.0
  0
LINE
  5
10C
100
AcDbEntity
  8
0
370
    35
390
0
 62
     7
 48
0.1875
100
AcDbLine
 10
122.687042
 20
88.183334
 30
0.0
 11
130.187042
 21
88.183334
 31
0.0
210
0.0
220
0.0
230
1.0
  0
LINE
  5
10D
100
AcDbEntity
  8
0
370
    35
390
0
 62
     7
 48
0.089259
100
AcDbLine
 10
137.587036
 20
94.55368
 30
0.0
 11
137.587036
 21
90.983337
 31
0.0
210
0.0
220
0.0
230
1.0
  0
ARC
  5
10E
100
AcDbEntity
  8
0
370
    35
390
0
 62
     7
100
AcDbCircle
 10
122.686775
 20
87.683136
 30
0.0
 40
0.500079
210
0.0
220
0.0
230
1.0
100
AcDbArc
 50
89.969772
 51
134.962407
  0
LINE
  5
10F
100
AcDbEntity
  8
0
370
    35
390
0
 62
     7
 48
0.089259
100
AcDbLine
 10
214.787048
 20
94.55368
 30
0.0
 11
214.787048
 21
90.983337
 31
0.0
210
0.0
220
0.0
230
1.0
  0
LINE
  5
110
100
AcDbEntity
  8
0
370
    35
390
0
 62
     7
 48
0.001478
100
AcDbLine
 10
214.787048
 20
94.55368
 30
0.0
 11
214.783539
 21
94.612701
 31
0.0
210
0.0
220
0.0
230
1.0
  0
ARC
  5
111
100
AcDbEntity
  8
0
370
    35
390
0
 62
     7
100
AcDbCircle
 10
299.495667
 20
104.683319
 30
0.0
 40
85.308633
210
0.0
220
0.0
230
1.0
100
AcDbArc
 50
176.639921
 51
186.779531
  0
LINE
  5
112
100
AcDbEntity
  8
0
370
    35
390
0
 62
     7
 48
0.010607
100
AcDbLine
 10
214.287048
 20
88.983337
 30
0.0
 11
213.987045
 21
88.683334
 31
0.0
210
0.0
220
0.0
230
1.0
  0
LINE
  5
113
100
AcDbEntity
  8
0
370
    35
390
0
 62
     7
 48
0.05
100
AcDbLine
 10
214.287048
 20
88.983337
 30
0.0
 11
214.287048
 21
90.983337
 31
0.0
210
0.0
220
0.0
230
1.0
  0
LINE
  5
114
100
AcDbEntity
  8
0
370
    35
390
0
 62
     7
 48
0.05
100
AcDbLine
 10
203.887039
 20
90.983337
 30
0.0
 11
203.887039
 21
88.983337
 31
0.0
210
0.0
220
0.0
230
1.0
  0
LINE
  5
115
100
AcDbEntity
  8
0
370
    35
390
0
 62
     7
 48
0.001478
100
AcDbLine
 10
203.387039
 20
94.55368
 30
0.0
 11
203.390533
 21
94.612701
 31
0.0
210
0.0
220
0.0
230
1.0
  0
LINE
  5
116
100
AcDbEntity
  8
0
370
    35
390
0
 62
     7
 48
0.089259
100
AcDbLine
 10
203.387039
 20
94.55368
 30
0.0
 11
203.387039
 21
90.983337
 31
0.0
210
0.0
220
0.0
230
1.0
  0
LINE
  5
117
100
AcDbEntity
  8
0
370
    35
390
0
 62
     7
 48
0.010607
100
AcDbLine
 10
203.887039
 20
88.983337
 30
0.0
 11
204.187042
 21
88.683334
 31
0.0
210
0.0
220
0.0
230
1.0
  0
ARC
  5
118
100
AcDbEntity
  8
0
370
    35
390
0
 62
     7
100
AcDbCircle
 10
118.646255
 20
104.686401
 30
0.0
 40
85.340922
210
0.0
220
0.0
230
1.0
100
AcDbArc
 50
353.220958
 51
355.966355
  0
LINE
  5
119
100
AcDbEntity
  8
0
370
    35
390
0
 62
     7
 48
0.089259
100
AcDbLine
 10
148.987045
 20
94.55368
 30
0.0
 11
148.987045
 21
90.983337
 31
0.0
210
0.0
220
0.0
230
1.0
  0
LINE
  5
11A
100
AcDbEntity
  8
0
370
    35
390
0
 62
     7
 48
0.001478
100
AcDbLine
 10
148.987045
 20
94.55368
 30
0.0
 11
148.983551
 21
94.612701
 31
0.0
210
0.0
220
0.0
230
1.0
  0
ARC
  5
11B
100
AcDbEntity
  8
0
370
    35
390
0
 62
     7
100
AcDbCircle
 10
233.727829
 20
104.686401
 30
0.0
 40
85.340922
210
0.0
220
0.0
230
1.0
100
AcDbArc
 50
184.033645
 51
186.77904
  0
LINE
  5
11C
100
AcDbEntity
  8
0
370
    35
390
0
 62
     7
 48
0.010607
100
AcDbLine
 10
148.487045
 20
88.983337
 30
0.0
 11
148.187042
 21
88.683334
 31
0.0
210
0.0
220
0.0
230
1.0
  0
LINE
  5
11D
100
AcDbEntity
  8
0
370
    35
390
0
 62
     7
 48
0.05
100
AcDbLine
 10
148.487045
 20
88.983337
 30
0.0
 11
148.487045
 21
90.983337
 31
0.0
210
0.0
220
0.0
230
1.0
  0
LINE
  5
11E
100
AcDbEntity
  8
0
370
    35
390
0
 62
     7
 48
0.05
100
AcDbLine
 10
138.087036
 20
90.983337
 30
0.0
 11
138.087036
 21
88.983337
 31
0.0
210
0.0
220
0.0
230
1.0
  0
LINE
  5
11F
100
AcDbEntity
  8
0
370
    35
390
0
 62
     7
 48
0.001478
100
AcDbLine
 10
137.587036
 20
94.55368
 30
0.0
 11
137.590546
 21
94.612701
 31
0.0
210
0.0
220
0.0
230
1.0
  0
LINE
  5
120
100
AcDbEntity
  8
0
370
    35
390
0
 62
     7
 48
0.010607
100
AcDbLine
 10
138.087036
 20
88.983337
 30
0.0
 11
138.387039
 21
88.683334
 31
0.0
210
0.0
220
0.0
230
1.0
  0
ARC
  5
121
100
AcDbEntity
  8
0
370
    35
390
0
 62
     7
100
AcDbCircle
 10
52.87841
 20
104.683319
 30
0.0
 40
85.308632
210
0.0
220
0.0
230
1.0
100
AcDbArc
 50
353.220469
 51
3.360084
  0
LINE
  5
122
100
AcDbEntity
  8
0
370
    35
390
0
 62
     7
 48
0.005
100
AcDbLine
 10
231.463837
 20
90.833336
 30
0.0
 11
231.663834
 21
90.833336
 31
0.0
210
0.0
220
0.0
230
1.0
  0
LINE
  5
123
100
AcDbEntity
  8
0
370
    35
390
0
 62
     7
 48
0.07616
100
AcDbLine
 10
231.663834
 20
90.833336
 30
0.0
 11
234.710251
 21
90.833336
 31
0.0
210
0.0
220
0.0
230
1.0
  0
LINE
  5
124
100
AcDbEntity
  8
0
370
    35
390
0
 62
     7
 48
0.005
100
AcDbLine
 10
234.710251
 20
90.833336
 30
0.0
 11
234.910248
 21
90.833336
 31
0.0
210
0.0
220
0.0
230
1.0
  0
LINE
  5
125
100
AcDbEntity
  8
0
370
    35
390
0
 62
     7
 48
0.01
100
AcDbLine
 10
236.787048
 20
90.583336
 30
0.0
 11
236.787048
 21
90.983337
 31
0.0
210
0.0
220
0.0
230
1.0
  0
LINE
  5
126
100
AcDbEntity
  8
0
370
    35
390
0
 62
     7
 48
0.01
100
AcDbLine
 10
238.587036
 20
90.583336
 30
0.0
 11
238.587036
 21
90.983337
 31
0.0
210
0.0
220
0.0
230
1.0
  0
LINE
  5
127
100
AcDbEntity
  8
0
370
    35
390
0
 62
     7
 48
0.01
100
AcDbLine
 10
230.187042
 20
90.583336
 30
0.0
 11
230.187042
 21
90.983337
 31
0.0
210
0.0
220
0.0
230
1.0
  0
CIRCLE
  5
128
100
AcDbEntity
  8
0
370
    35
390
0
 62
     7
100
AcDbCircle
 10
204.187042
 20
107.183334
 30
0.0
 40
2.5
210
0.0
220
0.0
230
1.0
  0
CIRCLE
  5
129
100
AcDbEntity
  8
0
370
    35
390
0
 62
     7
100
AcDbCircle
 10
148.187042
 20
107.183334
 30
0.0
 40
2.5
210
0.0
220
0.0
230
1.0
  0
ARC
  5
12A
100
AcDbEntity
  8
0
370
    35
390
0
 62
     7
100
AcDbCircle
 10
136.392792
 20
109.579636
 30
0.0
 40
1.651438
210
0.0
220
0.0
230
1.0
100
AcDbArc
 50
3.60149
 51
90.199246
  0
LINE
  5
12B
100
AcDbEntity
  8
0
370
    35
390
0
 62
     7
 48
0.2975
100
AcDbLine
 10
136.387039
 20
111.231636
 30
0.0
 11
124.487045
 21
111.231636
 31
0.0
210
0.0
220
0.0
230
1.0
  0
POLYLINE
  5
12C
100
AcDbEntity
  8
0
370
    35
390
0
 62
     7
100
AcDb2dPolyline
 66
     1
 10
0.0
 20
0.0
 30
0.0
 71
    24
  0
VERTEX
  5
12D
100
AcDbEntity
  8
0
370
     0
390
0
100
AcDbVertex
100
AcDb2dVertex
 10
122.911102
 20
112.683334
 30
0.0
  0
VERTEX
  5
12E
100
AcDbEntity
  8
0
370
     0
390
0
100
AcDbVertex
100
AcDb2dVertex
 10
122.9254
 20
112.572556
 30
0.0
  0
VERTEX
  5
12F
100
AcDbEntity
  8
0
370
     0
390
0
100
AcDbVertex
100
AcDb2dVertex
 10
122.947144
 20
112.463577
 30
0.0
  0
VERTEX
  5
130
100
AcDbEntity
  8
0
370
     0
390
0
100
AcDbVertex
100
AcDb2dVertex
 10
122.976151
 20
112.356766
 30
0.0
  0
VERTEX
  5
131
100
AcDbEntity
  8
0
370
     0
390
0
100
AcDbVertex
100
AcDb2dVertex
 10
123.012253
 20
112.252502
 30
0.0
  0
VERTEX
  5
132
100
AcDbEntity
  8
0
370
     0
390
0
100
AcDbVertex
100
AcDb2dVertex
 10
123.055244
 20
112.151184
 30
0.0
  0
VERTEX
  5
133
100
AcDbEntity
  8
0
370
     0
390
0
100
AcDbVertex
100
AcDb2dVertex
 10
123.104919
 20
112.053268
 30
0.0
  0
VERTEX
  5
134
100
AcDbEntity
  8
0
370
     0
390
0
100
AcDbVertex
100
AcDb2dVertex
 10
123.161018
 20
111.959175
 30
0.0
  0
VERTEX
  5
135
100
AcDbEntity
  8
0
370
     0
390
0
100
AcDbVertex
100
AcDb2dVertex
 10
123.223236
 20
111.869362
 30
0.0
  0
VERTEX
  5
136
100
AcDbEntity
  8
0
370
     0
390
0
100
AcDbVertex
100
AcDb2dVertex
 10
123.291229
 20
111.784271
 30
0.0
  0
VERTEX
  5
137
100
AcDbEntity
  8
0
370
     0
390
0
100
AcDbVertex
100
AcDb2dVertex
 10
123.364563
 20
111.70433
 30
0.0
  0
VERTEX
  5
138
100
AcDbEntity
  8
0
370
     0
390
0
100
AcDbVertex
100
AcDb2dVertex
 10
123.442734
 20
111.629974
 30
0.0
  0
VERTEX
  5
139
100
AcDbEntity
  8
0
370
     0
390
0
100
AcDbVertex
100
AcDb2dVertex
 10
123.520142
 20
111.565491
 30
0.0
  0
VERTEX
  5
13A
100
AcDbEntity
  8
0
370
     0
390
0
100
AcDbVertex
100
AcDb2dVertex
 10
123.600868
 20
111.50647
 30
0.0
  0
VERTEX
  5
13B
100
AcDbEntity
  8
0
370
     0
390
0
100
AcDbVertex
100
AcDb2dVertex
 10
123.684517
 20
111.453064
 30
0.0
  0
VERTEX
  5
13C
100
AcDbEntity
  8
0
370
     0
390
0
100
AcDbVertex
100
AcDb2dVertex
 10
123.770714
 20
111.40535
 30
0.0
  0
VERTEX
  5
13D
100
AcDbEntity
  8
0
370
     0
390
0
100
AcDbVertex
100
AcDb2dVertex
 10
123.859161
 20
111.363342
 30
0.0
  0
VERTEX
  5
13E
100
AcDbEntity
  8
0
370
     0
390
0
100
AcDbVertex
100
AcDb2dVertex
 10
123.949585
 20
111.327087
 30
0.0
  0
VERTEX
  5
13F
100
AcDbEntity
  8
0
370
     0
390
0
100
AcDbVertex
100
AcDb2dVertex
 10
124.041756
 20
111.29657
 30
0.0
  0
VERTEX
  5
140
100
AcDbEntity
  8
0
370
     0
390
0
100
AcDbVertex
100
AcDb2dVertex
 10
124.129166
 20
111.273315
 30
0.0
  0
VERTEX
  5
141
100
AcDbEntity
  8
0
370
     0
390
0
100
AcDbVertex
100
AcDb2dVertex
 10
124.217667
 20
111.255142
 30
0.0
  0
VERTEX
  5
142
100
AcDbEntity
  8
0
370
     0
390
0
100
AcDbVertex
100
AcDb2dVertex
 10
124.306999
 20
111.242111
 30
0.0
  0
VERTEX
  5
143
100
AcDbEntity
  8
0
370
     0
390
0
100
AcDbVertex
100
AcDb2dVertex
 10
124.396881
 20
111.234261
 30
0.0
  0
VERTEX
  5
144
100
AcDbEntity
  8
0
370
     0
390
0
100
AcDbVertex
100
AcDb2dVertex
 10
124.487045
 20
111.231636
 30
0.0
  0
SEQEND
  5
145
100
AcDbEntity
  8
0
370
     0
390
0
  0
ARC
  5
146
100
AcDbEntity
  8
0
370
    35
390
0
 62
     7
100
AcDbCircle
 10
149.186584
 20
98.724274
 30
0.0
 40
0.589764
210
0.0
220
0.0
230
1.0
100
AcDbArc
 50
89.954718
 51
183.980493
  0
LINE
  5
147
100
AcDbEntity
  8
0
370
    35
390
0
 62
     7
 48
0.17
100
AcDbLine
 10
149.187042
 20
99.314209
 30
0.0
 11
155.987045
 21
99.314209
 31
0.0
210
0.0
220
0.0
230
1.0
  0
POLYLINE
  5
148
100
AcDbEntity
  8
0
370
    35
390
0
 62
     7
100
AcDb2dPolyline
 66
     1
 10
0.0
 20
0.0
 30
0.0
 71
    29
  0
VERTEX
  5
149
100
AcDbEntity
  8
0
370
     0
390
0
100
AcDbVertex
100
AcDb2dVertex
 10
155.987045
 20
99.314209
 30
0.0
  0
VERTEX
  5
14A
100
AcDbEntity
  8
0
370
     0
390
0
100
AcDbVertex
100
AcDb2dVertex
 10
156.118057
 20
99.318085
 30
0.0
  0
VERTEX
  5
14B
100
AcDbEntity
  8
0
370
     0
390
0
100
AcDbVertex
100
AcDb2dVertex
 10
156.248566
 20
99.329674
 30
0.0
  0
VERTEX
  5
14C
100
AcDbEntity
  8
0
370
     0
390
0
100
AcDbVertex
100
AcDb2dVertex
 10
156.378082
 20
99.348923
 30
0.0
  0
VERTEX
  5
14D
100
AcDbEntity
  8
0
370
     0
390
0
100
AcDbVertex
100
AcDb2dVertex
 10
156.506134
 20
99.375748
 30
0.0
  0
VERTEX
  5
14E
100
AcDbEntity
  8
0
370
     0
390
0
100
AcDbVertex
100
AcDb2dVertex
 10
156.632248
 20
99.409996
 30
0.0
  0
VERTEX
  5
14F
100
AcDbEntity
  8
0
370
     0
390
0
100
AcDbVertex
100
AcDb2dVertex
 10
156.756012
 20
99.451523
 30
0.0
  0
VERTEX
  5
150
100
AcDbEntity
  8
0
370
     0
390
0
100
AcDbVertex
100
AcDb2dVertex
 10
156.876984
 20
99.500153
 30
0.0
  0
VERTEX
  5
151
100
AcDbEntity
  8
0
370
     0
390
0
100
AcDbVertex
100
AcDb2dVertex
 10
156.994751
 20
99.555679
 30
0.0
  0
VERTEX
  5
152
100
AcDbEntity
  8
0
370
     0
390
0
100
AcDbVertex
100
AcDb2dVertex
 10
157.108948
 20
99.617844
 30
0.0
  0
VERTEX
  5
153
100
AcDbEntity
  8
0
370
     0
390
0
100
AcDbVertex
100
AcDb2dVertex
 10
157.219177
 20
99.686417
 30
0.0
  0
VERTEX
  5
154
100
AcDbEntity
  8
0
370
     0
390
0
100
AcDbVertex
100
AcDb2dVertex
 10
157.325134
 20
99.761093
 30
0.0
  0
VERTEX
  5
155
100
AcDbEntity
  8
0
370
     0
390
0
100
AcDbVertex
100
AcDb2dVertex
 10
157.426453
 20
99.841606
 30
0.0
  0
VERTEX
  5
156
100
AcDbEntity
  8
0
370
     0
390
0
100
AcDbVertex
100
AcDb2dVertex
 10
157.522858
 20
99.92762
 30
0.0
  0
VERTEX
  5
157
100
AcDbEntity
  8
0
370
     0
390
0
100
AcDbVertex
100
AcDb2dVertex
 10
157.614029
 20
100.018814
 30
0.0
  0
VERTEX
  5
158
100
AcDbEntity
  8
0
370
     0
390
0
100
AcDbVertex
100
AcDb2dVertex
 10
157.699738
 20
100.114822
 30
0.0
  0
VERTEX
  5
159
100
AcDbEntity
  8
0
370
     0
390
0
100
AcDbVertex
100
AcDb2dVertex
 10
157.779755
 20
100.215317
 30
0.0
  0
VERTEX
  5
15A
100
AcDbEntity
  8
0
370
     0
390
0
100
AcDbVertex
100
AcDb2dVertex
 10
157.853821
 20
100.319908
 30
0.0
  0
VERTEX
  5
15B
100
AcDbEntity
  8
0
370
     0
390
0
100
AcDbVertex
100
AcDb2dVertex
 10
157.924133
 20
100.43222
 30
0.0
  0
VERTEX
  5
15C
100
AcDbEntity
  8
0
370
     0
390
0
100
AcDbVertex
100
AcDb2dVertex
 10
157.987717
 20
100.548111
 30
0.0
  0
VERTEX
  5
15D
100
AcDbEntity
  8
0
370
     0
390
0
100
AcDbVertex
100
AcDb2dVertex
 10
158.044388
 20
100.66716
 30
0.0
  0
VERTEX
  5
15E
100
AcDbEntity
  8
0
370
     0
390
0
100
AcDbVertex
100
AcDb2dVertex
 10
158.094055
 20
100.788948
 30
0.0
  0
VERTEX
  5
15F
100
AcDbEntity
  8
0
370
     0
390
0
100
AcDbVertex
100
AcDb2dVertex
 10
158.136612
 20
100.913063
 30
0.0
  0
VERTEX
  5
160
100
AcDbEntity
  8
0
370
     0
390
0
100
AcDbVertex
100
AcDb2dVertex
 10
158.171967
 20
101.039085
 30
0.0
  0
VERTEX
  5
161
100
AcDbEntity
  8
0
370
     0
390
0
100
AcDbVertex
100
AcDb2dVertex
 10
158.200073
 20
101.166595
 30
0.0
  0
VERTEX
  5
162
100
AcDbEntity
  8
0
370
     0
390
0
100
AcDbVertex
100
AcDb2dVertex
 10
158.220917
 20
101.295181
 30
0.0
  0
VERTEX
  5
163
100
AcDbEntity
  8
0
370
     0
390
0
100
AcDbVertex
100
AcDb2dVertex
 10
158.234467
 20
101.424431
 30
0.0
  0
VERTEX
  5
164
100
AcDbEntity
  8
0
370
     0
390
0
100
AcDbVertex
100
AcDb2dVertex
 10
158.240753
 20
101.553947
 30
0.0
  0
VERTEX
  5
165
100
AcDbEntity
  8
0
370
     0
390
0
100
AcDbVertex
100
AcDb2dVertex
 10
158.239807
 20
101.683334
 30
0.0
  0
SEQEND
  5
166
100
AcDbEntity
  8
0
370
     0
390
0
  0
ARC
  5
167
100
AcDbEntity
  8
0
370
    35
390
0
 62
     7
100
AcDbCircle
 10
243.574188
 20
104.682404
 30
0.0
 40
85.387079
210
0.0
220
0.0
230
1.0
100
AcDbArc
 50
176.642393
 51
182.012824
  0
ARC
  5
168
100
AcDbEntity
  8
0
370
    35
390
0
 62
     7
100
AcDbCircle
 10
159.981262
 20
109.579659
 30
0.0
 40
1.651395
210
0.0
220
0.0
230
1.0
100
AcDbArc
 50
89.799243
 51
176.399266
  0
LINE
  5
169
100
AcDbEntity
  8
0
370
    35
390
0
 62
     7
100
AcDbLine
 10
192.387039
 20
111.231636
 30
0.0
 11
159.987045
 21
111.231636
 31
0.0
210
0.0
220
0.0
230
1.0
  0
ARC
  5
16A
100
AcDbEntity
  8
0
370
    35
390
0
 62
     7
100
AcDbCircle
 10
192.392792
 20
109.579636
 30
0.0
 40
1.651438
210
0.0
220
0.0
230
1.0
100
AcDbArc
 50
3.60149
 51
90.199246
  0
ARC
  5
16B
100
AcDbEntity
  8
0
370
    35
390
0
 62
     7
100
AcDbCircle
 10
108.804245
 20
104.682465
 30
0.0
 40
85.382724
210
0.0
220
0.0
230
1.0
100
AcDbArc
 50
357.987033
 51
3.357741
  0
POLYLINE
  5
16C
100
AcDbEntity
  8
0
370
    35
390
0
 62
     7
100
AcDb2dPolyline
 66
     1
 10
0.0
 20
0.0
 30
0.0
 71
    35
  0
VERTEX
  5
16D
100
AcDbEntity
  8
0
370
     0
390
0
100
AcDbVertex
100
AcDb2dVertex
 10
194.134277
 20
101.683334
 30
0.0
  0
VERTEX
  5
16E
100
AcDbEntity
  8
0
370
     0
390
0
100
AcDbVertex
100
AcDb2dVertex
 10
194.133408
 20
101.550369
 30
0.0
  0
VERTEX
  5
16F
100
AcDbEntity
  8
0
370
     0
390
0
100
AcDbVertex
100
AcDb2dVertex
 10
194.140167
 20
101.417267
 30
0.0
  0
VERTEX
  5
170
100
AcDbEntity
  8
0
370
     0
390
0
100
AcDbVertex
100
AcDb2dVertex
 10
194.154602
 20
101.28447
 30
0.0
  0
VERTEX
  5
171
100
AcDbEntity
  8
0
370
     0
390
0
100
AcDbVertex
100
AcDb2dVertex
 10
194.176743
 20
101.152412
 30
0.0
  0
VERTEX
  5
172
100
AcDbEntity
  8
0
370
     0
390
0
100
AcDbVertex
100
AcDb2dVertex
 10
194.206543
 20
101.02153
 30
0.0
  0
VERTEX
  5
173
100
AcDbEntity
  8
0
370
     0
390
0
100
AcDbVertex
100
AcDb2dVertex
 10
194.244019
 20
100.892273
 30
0.0
  0
VERTEX
  5
174
100
AcDbEntity
  8
0
370
     0
390
0
100
AcDbVertex
100
AcDb2dVertex
 10
194.289063
 20
100.765106
 30
0.0
  0
VERTEX
  5
175
100
AcDbEntity
  8
0
370
     0
390
0
100
AcDbVertex
100
AcDb2dVertex
 10
194.341614
 20
100.640488
 30
0.0
  0
VERTEX
  5
176
100
AcDbEntity
  8
0
370
     0
390
0
100
AcDbVertex
100
AcDb2dVertex
 10
194.370728
 20
100.579147
 30
0.0
  0
VERTEX
  5
177
100
AcDbEntity
  8
0
370
     0
390
0
100
AcDbVertex
100
AcDb2dVertex
 10
194.401672
 20
100.518616
 30
0.0
  0
VERTEX
  5
178
100
AcDbEntity
  8
0
370
     0
390
0
100
AcDbVertex
100
AcDb2dVertex
 10
194.434311
 20
100.45919
 30
0.0
  0
VERTEX
  5
179
100
AcDbEntity
  8
0
370
     0
390
0
100
AcDbVertex
100
AcDb2dVertex
 10
194.468719
 20
100.400681
 30
0.0
  0
VERTEX
  5
17A
100
AcDbEntity
  8
0
370
     0
390
0
100
AcDbVertex
100
AcDb2dVertex
 10
194.517456
 20
100.324043
 30
0.0
  0
VERTEX
  5
17B
100
AcDbEntity
  8
0
370
     0
390
0
100
AcDbVertex
100
AcDb2dVertex
 10
194.569275
 20
100.249268
 30
0.0
  0
VERTEX
  5
17C
100
AcDbEntity
  8
0
370
     0
390
0
100
AcDbVertex
100
AcDb2dVertex
 10
194.624115
 20
100.176498
 30
0.0
  0
VERTEX
  5
17D
100
AcDbEntity
  8
0
370
     0
390
0
100
AcDbVertex
100
AcDb2dVertex
 10
194.693817
 20
100.09201
 30
0.0
  0
VERTEX
  5
17E
100
AcDbEntity
  8
0
370
     0
390
0
100
AcDbVertex
100
AcDb2dVertex
 10
194.767639
 20
100.010803
 30
0.0
  0
VERTEX
  5
17F
100
AcDbEntity
  8
0
370
     0
390
0
100
AcDbVertex
100
AcDb2dVertex
 10
194.845428
 20
99.933121
 30
0.0
  0
VERTEX
  5
180
100
AcDbEntity
  8
0
370
     0
390
0
100
AcDbVertex
100
AcDb2dVertex
 10
194.927032
 20
99.859161
 30
0.0
  0
VERTEX
  5
181
100
AcDbEntity
  8
0
370
     0
390
0
100
AcDbVertex
100
AcDb2dVertex
 10
195.012283
 20
99.789154
 30
0.0
  0
VERTEX
  5
182
100
AcDbEntity
  8
0
370
     0
390
0
100
AcDbVertex
100
AcDb2dVertex
 10
195.120087
 20
99.709946
 30
0.0
  0
VERTEX
  5
183
100
AcDbEntity
  8
0
370
     0
390
0
100
AcDbVertex
100
AcDb2dVertex
 10
195.175781
 20
99.672737
 30
0.0
  0
VERTEX
  5
184
100
AcDbEntity
  8
0
370
     0
390
0
100
AcDbVertex
100
AcDb2dVertex
 10
195.232605
 20
99.637169
 30
0.0
  0
VERTEX
  5
185
100
AcDbEntity
  8
0
370
     0
390
0
100
AcDbVertex
100
AcDb2dVertex
 10
195.31987
 20
99.586983
 30
0.0
  0
VERTEX
  5
186
100
AcDbEntity
  8
0
370
     0
390
0
100
AcDbVertex
100
AcDb2dVertex
 10
195.409393
 20
99.54071
 30
0.0
  0
VERTEX
  5
187
100
AcDbEntity
  8
0
370
     0
390
0
100
AcDbVertex
100
AcDb2dVertex
 10
195.501038
 20
99.498474
 30
0.0
  0
VERTEX
  5
188
100
AcDbEntity
  8
0
370
     0
390
0
100
AcDbVertex
100
AcDb2dVertex
 10
195.594559
 20
99.460373
 30
0.0
  0
VERTEX
  5
189
100
AcDbEntity
  8
0
370
     0
390
0
100
AcDbVertex
100
AcDb2dVertex
 10
195.703522
 20
99.422012
 30
0.0
  0
VERTEX
  5
18A
100
AcDbEntity
  8
0
370
     0
390
0
100
AcDbVertex
100
AcDb2dVertex
 10
195.814453
 20
99.389328
 30
0.0
  0
VERTEX
  5
18B
100
AcDbEntity
  8
0
370
     0
390
0
100
AcDbVertex
100
AcDb2dVertex
 10
195.926987
 20
99.362411
 30
0.0
  0
VERTEX
  5
18C
100
AcDbEntity
  8
0
370
     0
390
0
100
AcDbVertex
100
AcDb2dVertex
 10
196.040833
 20
99.341385
 30
0.0
  0
VERTEX
  5
18D
100
AcDbEntity
  8
0
370
     0
390
0
100
AcDbVertex
100
AcDb2dVertex
 10
196.155701
 20
99.326309
 30
0.0
  0
VERTEX
  5
18E
100
AcDbEntity
  8
0
370
     0
390
0
100
AcDbVertex
100
AcDb2dVertex
 10
196.27121
 20
99.31723
 30
0.0
  0
VERTEX
  5
18F
100
AcDbEntity
  8
0
370
     0
390
0
100
AcDbVertex
100
AcDb2dVertex
 10
196.387039
 20
99.314209
 30
0.0
  0
SEQEND
  5
190
100
AcDbEntity
  8
0
370
     0
390
0
  0
LINE
  5
191
100
AcDbEntity
  8
0
370
    35
390
0
 62
     7
 48
0.17
100
AcDbLine
 10
196.387039
 20
99.314209
 30
0.0
 11
203.187042
 21
99.314209
 31
0.0
210
0.0
220
0.0
230
1.0
  0
ARC
  5
192
100
AcDbEntity
  8
0
370
    35
390
0
 62
     7
100
AcDbCircle
 10
203.187546
 20
98.724289
 30
0.0
 40
0.589737
210
0.0
220
0.0
230
1.0
100
AcDbArc
 50
356.017259
 51
90.049002
  0
ARC
  5
193
100
AcDbEntity
  8
0
370
    35
390
0
 62
     7
100
AcDbCircle
 10
215.981506
 20
109.57972
 30
0.0
 40
1.651441
210
0.0
220
0.0
230
1.0
100
AcDbArc
 50
89.807903
 51
176.402012
  0
LINE
  5
194
100
AcDbEntity
  8
0
370
    35
390
0
 62
     7
100
AcDbLine
 10
252.887039
 20
111.231636
 30
0.0
 11
215.987045
 21
111.231636
 31
0.0
210
0.0
220
0.0
230
1.0
  0
POLYLINE
  5
195
100
AcDbEntity
  8
0
370
    35
390
0
 62
     7
100
AcDb2dPolyline
 66
     1
 10
0.0
 20
0.0
 30
0.0
 71
    25
  0
VERTEX
  5
196
100
AcDbEntity
  8
0
370
     0
390
0
100
AcDbVertex
100
AcDb2dVertex
 10
254.462982
 20
112.683334
 30
0.0
  0
VERTEX
  5
197
100
AcDbEntity
  8
0
370
     0
390
0
100
AcDbVertex
100
AcDb2dVertex
 10
254.449738
 20
112.579086
 30
0.0
  0
VERTEX
  5
198
100
AcDbEntity
  8
0
370
     0
390
0
100
AcDbVertex
100
AcDb2dVertex
 10
254.429749
 20
112.475922
 30
0.0
  0
VERTEX
  5
199
100
AcDbEntity
  8
0
370
     0
390
0
100
AcDbVertex
100
AcDb2dVertex
 10
254.403152
 20
112.37429
 30
0.0
  0
VERTEX
  5
19A
100
AcDbEntity
  8
0
370
     0
390
0
100
AcDbVertex
100
AcDb2dVertex
 10
254.370071
 20
112.274628
 30
0.0
  0
VERTEX
  5
19B
100
AcDbEntity
  8
0
370
     0
390
0
100
AcDbVertex
100
AcDb2dVertex
 10
254.330627
 20
112.177368
 30
0.0
  0
VERTEX
  5
19C
100
AcDbEntity
  8
0
370
     0
390
0
100
AcDbVertex
100
AcDb2dVertex
 10
254.285004
 20
112.082909
 30
0.0
  0
VERTEX
  5
19D
100
AcDbEntity
  8
0
370
     0
390
0
100
AcDbVertex
100
AcDb2dVertex
 10
254.233353
 20
111.991669
 30
0.0
  0
VERTEX
  5
19E
100
AcDbEntity
  8
0
370
     0
390
0
100
AcDbVertex
100
AcDb2dVertex
 10
254.175903
 20
111.904045
 30
0.0
  0
VERTEX
  5
19F
100
AcDbEntity
  8
0
370
     0
390
0
100
AcDbVertex
100
AcDb2dVertex
 10
254.112854
 20
111.820404
 30
0.0
  0
VERTEX
  5
1A0
100
AcDbEntity
  8
0
370
     0
390
0
100
AcDbVertex
100
AcDb2dVertex
 10
254.047089
 20
111.743942
 30
0.0
  0
VERTEX
  5
1A1
100
AcDbEntity
  8
0
370
     0
390
0
100
AcDbVertex
100
AcDb2dVertex
 10
253.976624
 20
111.671822
 30
0.0
  0
VERTEX
  5
1A2
100
AcDbEntity
  8
0
370
     0
390
0
100
AcDbVertex
100
AcDb2dVertex
 10
253.901733
 20
111.604347
 30
0.0
  0
VERTEX
  5
1A3
100
AcDbEntity
  8
0
370
     0
390
0
100
AcDbVertex
100
AcDb2dVertex
 10
253.822723
 20
111.541794
 30
0.0
  0
VERTEX
  5
1A4
100
AcDbEntity
  8
0
370
     0
390
0
100
AcDbVertex
100
AcDb2dVertex
 10
253.739868
 20
111.48439
 30
0.0
  0
VERTEX
  5
1A5
100
AcDbEntity
  8
0
370
     0
390
0
100
AcDbVertex
100
AcDb2dVertex
 10
253.653534
 20
111.432388
 30
0.0
  0
VERTEX
  5
1A6
100
AcDbEntity
  8
0
370
     0
390
0
100
AcDbVertex
100
AcDb2dVertex
 10
253.564056
 20
111.386002
 30
0.0
  0
VERTEX
  5
1A7
100
AcDbEntity
  8
0
370
     0
390
0
100
AcDbVertex
100
AcDb2dVertex
 10
253.478088
 20
111.347954
 30
0.0
  0
VERTEX
  5
1A8
100
AcDbEntity
  8
0
370
     0
390
0
100
AcDbVertex
100
AcDb2dVertex
 10
253.389908
 20
111.315063
 30
0.0
  0
VERTEX
  5
1A9
100
AcDbEntity
  8
0
370
     0
390
0
100
AcDbVertex
100
AcDb2dVertex
 10
253.299805
 20
111.287445
 30
0.0
  0
VERTEX
  5
1AA
100
AcDbEntity
  8
0
370
     0
390
0
100
AcDbVertex
100
AcDb2dVertex
 10
253.20816
 20
111.265259
 30
0.0
  0
VERTEX
  5
1AB
100
AcDbEntity
  8
0
370
     0
390
0
100
AcDbVertex
100
AcDb2dVertex
 10
253.115387
 20
111.248604
 30
0.0
  0
VERTEX
  5
1AC
100
AcDbEntity
  8
0
370
     0
390
0
100
AcDbVertex
100
AcDb2dVertex
 10
253.039505
 20
111.239197
 30
0.0
  0
VERTEX
  5
1AD
100
AcDbEntity
  8
0
370
     0
390
0
100
AcDbVertex
100
AcDb2dVertex
 10
252.963318
 20
111.233536
 30
0.0
  0
VERTEX
  5
1AE
100
AcDbEntity
  8
0
370
     0
390
0
100
AcDbVertex
100
AcDb2dVertex
 10
252.887039
 20
111.231636
 30
0.0
  0
SEQEND
  5
1AF
100
AcDbEntity
  8
0
370
     0
390
0
  0
CIRCLE
  5
1B0
100
AcDbEntity
  8
0
370
    35
390
0
 62
     7
100
AcDbCircle
 10
204.187042
 20
107.183334
 30
0.0
 40
4.25
210
0.0
220
0.0
230
1.0
  0
CIRCLE
  5
1B1
100
AcDbEntity
  8
0
370
    35
390
0
 62
     7
100
AcDbCircle
 10
148.187042
 20
107.183334
 30
0.0
 40
4.25
210
0.0
220
0.0
230
1.0
  0
LINE
  5
1B2
100
AcDbEntity
  8
0
370
    35
390
0
 62
     7
 48
0.093341
100
AcDbLine
 10
175.999557
 20
109.952972
 30
0.0
 11
174.699554
 21
106.452972
 31
0.0
210
0.0
220
0.0
230
1.0
  0
ARC
  5
1B3
100
AcDbEntity
  8
0
370
    35
390
0
 62
     7
100
AcDbCircle
 10
176.187042
 20
109.883331
 30
0.0
 40
0.2
210
0.0
220
0.0
230
1.0
100
AcDbArc
 50
20.376416
 51
159.62357
  0
LINE
  5
1B4
100
AcDbEntity
  8
0
370
    35
390
0
 62
     7
 48
0.093341
100
AcDbLine
 10
176.374527
 20
109.952972
 30
0.0
 11
177.67453
 21
106.452972
 31
0.0
210
0.0
220
0.0
230
1.0
  0
ARC
  5
1B5
100
AcDbEntity
  8
0
370
    35
390
0
 62
     7
100
AcDbCircle
 10
177.487045
 20
106.383331
 30
0.0
 40
0.2
210
0.0
220
0.0
230
1.0
100
AcDbArc
 50
269.999997
 51
20.376456
  0
LINE
  5
1B6
100
AcDbEntity
  8
0
370
    35
390
0
 62
     7
 48
0.065
100
AcDbLine
 10
177.487045
 20
106.183334
 30
0.0
 11
174.887039
 21
106.183334
 31
0.0
210
0.0
220
0.0
230
1.0
  0
ARC
  5
1B7
100
AcDbEntity
  8
0
370
    35
390
0
 62
     7
100
AcDbCircle
 10
174.887039
 20
106.383331
 30
0.0
 40
0.2
210
0.0
220
0.0
230
1.0
100
AcDbArc
 50
159.623543
 51
269.999997
  0
LINE
  5
1B8
100
AcDbEntity
  8
0
370
    35
390
0
 62
     7
 48
0.17125
100
AcDbLine
 10
138.087036
 20
90.583336
 30
0.0
 11
131.237045
 21
90.583336
 31
0.0
210
0.0
220
0.0
230
1.0
  0
LINE
  5
1B9
100
AcDbEntity
  8
0
370
    35
390
0
 62
     7
100
AcDbLine
 10
246.137039
 20
88.083336
 30
0.0
 11
213.387039
 21
88.083336
 31
0.0
210
0.0
220
0.0
230
1.0
  0
LINE
  5
1BA
100
AcDbEntity
  8
0
370
    35
390
0
 62
     7
100
AcDbLine
 10
204.787048
 20
88.083336
 30
0.0
 11
147.587036
 21
88.083336
 31
0.0
210
0.0
220
0.0
230
1.0
  0
LINE
  5
1BB
100
AcDbEntity
  8
0
370
    35
390
0
 62
     7
 48
0.19375
100
AcDbLine
 10
138.987045
 20
88.083336
 30
0.0
 11
131.237045
 21
88.083336
 31
0.0
210
0.0
220
0.0
230
1.0
  0
LINE
  5
1BC
100
AcDbEntity
  8
0
370
    35
390
0
 62
     7
 48
0.28567
100
AcDbLine
 10
246.137039
 20
90.583336
 30
0.0
 11
234.710251
 21
90.583336
 31
0.0
210
0.0
220
0.0
230
1.0
  0
LINE
  5
1BD
100
AcDbEntity
  8
0
370
    35
390
0
 62
     7
 48
0.43442
100
AcDbLine
 10
231.663834
 20
90.583336
 30
0.0
 11
214.287048
 21
90.583336
 31
0.0
210
0.0
220
0.0
230
1.0
  0
LINE
  5
1BE
100
AcDbEntity
  8
0
370
    35
390
0
 62
     7
100
AcDbLine
 10
203.887039
 20
90.583336
 30
0.0
 11
148.487045
 21
90.583336
 31
0.0
210
0.0
220
0.0
230
1.0
  0
LINE
  5
1BF
100
AcDbEntity
  8
0
370
    35
390
0
 62
     7
 48
0.025
100
AcDbLine
 10
130.237045
 20
90.583336
 30
0.0
 11
131.237045
 21
90.583336
 31
0.0
210
0.0
220
0.0
230
1.0
  0
LINE
  5
1C0
100
AcDbEntity
  8
0
370
    35
390
0
 62
     7
 48
0.025
100
AcDbLine
 10
246.137039
 20
90.583336
 30
0.0
 11
247.137039
 21
90.583336
 31
0.0
210
0.0
220
0.0
230
1.0
  0
LINE
  5
1C1
100
AcDbEntity
  8
0
370
    35
390
0
 62
     7
 48
0.025
100
AcDbLine
 10
246.137039
 20
88.083336
 30
0.0
 11
247.137039
 21
88.083336
 31
0.0
210
0.0
220
0.0
230
1.0
  0
LINE
  5
1C2
100
AcDbEntity
  8
0
370
    35
390
0
 62
     7
 48
0.025
100
AcDbLine
 10
130.237045
 20
88.083336
 30
0.0
 11
131.237045
 21
88.083336
 31
0.0
210
0.0
220
0.0
230
1.0
  0
LINE
  5
1C3
100
AcDbEntity
  8
0
370
    35
390
0
 62
     7
 48
0.0625
100
AcDbLine
 10
247.137039
 20
88.083336
 30
0.0
 11
247.137039
 21
90.583336
 31
0.0
210
0.0
220
0.0
230
1.0
  0
LINE
  5
1C4
100
AcDbEntity
  8
0
370
    35
390
0
 62
     7
 48
0.0625
100
AcDbLine
 10
130.237045
 20
88.083336
 30
0.0
 11
130.237045
 21
90.583336
 31
0.0
210
0.0
220
0.0
230
1.0
  0
LINE
  5
1C5
100
AcDbEntity
  8
0
370
    35
390
0
 62
     7
 48
0.0725
100
AcDbLine
 10
255.187042
 20
110.833336
 30
0.0
 11
255.187042
 21
113.733337
 31
0.0
210
0.0
220
0.0
230
1.0
  0
LINE
  5
1C6
100
AcDbEntity
  8
0
370
    35
390
0
 62
     7
 48
0.0725
100
AcDbLine
 10
255.187042
 20
106.633331
 30
0.0
 11
255.187042
 21
109.533333
 31
0.0
210
0.0
220
0.0
230
1.0
  0
LINE
  5
1C7
100
AcDbEntity
  8
0
370
    35
390
0
 62
     7
 48
0.089799
100
AcDbLine
 10
255.187042
 20
103.783333
 30
0.0
 11
255.187042
 21
100.191376
 31
0.0
210
0.0
220
0.0
230
1.0
  0
LINE
  5
1C8
100
AcDbEntity
  8
0
370
    35
390
0
 62
     7
 48
0.255201
100
AcDbLine
 10
255.187042
 20
100.191376
 30
0.0
 11
255.187042
 21
89.983337
 31
0.0
210
0.0
220
0.0
230
1.0
  0
ARC
  5
1C9
100
AcDbEntity
  8
0
370
    35
390
0
 62
     7
100
AcDbCircle
 10
160.625153
 20
223.226715
 30
0.0
 40
108.043386
210
0.0
220
0.0
230
1.0
100
AcDbArc
 50
267.373428
 51
269.999622
  0
ARC
  5
1CA
100
AcDbEntity
  8
0
370
    35
390
0
 62
     7
100
AcDbCircle
 10
231.749451
 20
223.197281
 30
0.0
 40
108.013945
210
0.0
220
0.0
230
1.0
100
AcDbArc
 50
270.000107
 51
272.776633
  0
LINE
  5
1CB
100
AcDbEntity
  8
0
370
    35
390
0
 62
     7
 48
0.00433
100
AcDbLine
 10
234.823639
 20
90.983337
 30
0.0
 11
234.910248
 21
90.833336
 31
0.0
210
0.0
220
0.0
230
1.0
  0
LINE
  5
1CC
100
AcDbEntity
  8
0
370
    35
390
0
 62
     7
 48
0.00433
100
AcDbLine
 10
231.550446
 20
90.983337
 30
0.0
 11
231.463837
 21
90.833336
 31
0.0
210
0.0
220
0.0
230
1.0
  0
LINE
  5
1CD
100
AcDbEntity
  8
0
370
    35
390
0
 62
     7
 48
0.00433
100
AcDbLine
 10
234.823639
 20
90.983337
 30
0.0
 11
234.910248
 21
90.833336
 31
0.0
210
0.0
220
0.0
230
1.0
  0
LINE
  5
1CE
100
AcDbEntity
  8
0
370
    35
390
0
 62
     7
 48
0.00625
100
AcDbLine
 10
234.910248
 20
90.583336
 30
0.0
 11
234.910248
 21
90.833336
 31
0.0
210
0.0
220
0.0
230
1.0
  0
LINE
  5
1CF
100
AcDbEntity
  8
0
370
    35
390
0
 62
     7
 48
0.00625
100
AcDbLine
 10
231.463837
 20
90.833336
 30
0.0
 11
231.463837
 21
90.583336
 31
0.0
210
0.0
220
0.0
230
1.0
  0
LINE
  5
1D0
100
AcDbEntity
  8
0
370
    35
390
0
 62
     7
 48
0.00625
100
AcDbLine
 10
234.910248
 20
90.833336
 30
0.0
 11
234.910248
 21
90.583336
 31
0.0
210
0.0
220
0.0
230
1.0
  0
LINE
  5
1D1
100
AcDbEntity
  8
0
370
    35
390
0
 62
     7
 48
0.085
100
AcDbLine
 10
366.587036
 20
11.883331
 30
0.0
 11
363.187042
 21
11.883331
 31
0.0
210
0.0
220
0.0
230
1.0
  0
LINE
  5
1D2
100
AcDbEntity
  8
0
370
    35
390
0
 62
     7
 48
0.085
100
AcDbLine
 10
363.187042
 20
11.883331
 30
0.0
 11
359.787048
 21
11.883331
 31
0.0
210
0.0
220
0.0
230
1.0
  0
LINE
  5
1D3
100
AcDbEntity
  8
0
370
    35
390
0
 62
     7
 48
0.003751
100
AcDbLine
 10
283.787048
 20
100.433334
 30
0.0
 11
283.787048
 21
100.28331
 31
0.0
210
0.0
220
0.0
230
1.0
  0
LINE
  5
1D4
100
AcDbEntity
  8
0
370
    35
390
0
 62
     7
 48
0.003751
100
AcDbLine
 10
285.987061
 20
100.433334
 30
0.0
 11
285.987061
 21
100.28331
 31
0.0
210
0.0
220
0.0
230
1.0
  0
LINE
  5
1D5
100
AcDbEntity
  8
0
370
    35
390
0
 62
     7
 48
0.003751
100
AcDbLine
 10
288.187042
 20
100.433334
 30
0.0
 11
288.187042
 21
100.28331
 31
0.0
210
0.0
220
0.0
230
1.0
  0
LINE
  5
1D6
100
AcDbEntity
  8
0
370
    35
390
0
 62
     7
 48
0.092813
100
AcDbLine
 10
283.787048
 20
101.595833
 30
0.0
 11
283.787048
 21
97.883331
 31
0.0
210
0.0
220
0.0
230
1.0
  0
LINE
  5
1D7
100
AcDbEntity
  8
0
370
    35
390
0
 62
     7
 48
0.09125
100
AcDbLine
 10
284.787048
 20
97.883331
 30
0.0
 11
284.787048
 21
101.533333
 31
0.0
210
0.0
220
0.0
230
1.0
  0
LINE
  5
1D8
100
AcDbEntity
  8
0
370
    35
390
0
 62
     7
 48
0.089375
100
AcDbLine
 10
285.987061
 20
101.458336
 30
0.0
 11
285.987061
 21
97.883331
 31
0.0
210
0.0
220
0.0
230
1.0
  0
LINE
  5
1D9
100
AcDbEntity
  8
0
370
    35
390
0
 62
     7
 48
0.087813
100
AcDbLine
 10
286.987061
 20
97.883331
 30
0.0
 11
286.987061
 21
101.395836
 31
0.0
210
0.0
220
0.0
230
1.0
  0
LINE
  5
1DA
100
AcDbEntity
  8
0
370
    35
390
0
 62
     7
 48
0.085938
100
AcDbLine
 10
288.187042
 20
101.320831
 30
0.0
 11
288.187042
 21
97.883331
 31
0.0
210
0.0
220
0.0
230
1.0
  0
LINE
  5
1DB
100
AcDbEntity
  8
0
370
    35
390
0
 62
     7
 48
0.084375
100
AcDbLine
 10
289.187042
 20
97.883331
 30
0.0
 11
289.187042
 21
101.258331
 31
0.0
210
0.0
220
0.0
230
1.0
  0
LINE
  5
1DC
100
AcDbEntity
  8
0
370
    35
390
0
 62
     7
 48
0.013007
100
AcDbLine
 10
291.187042
 20
93.15361
 30
0.0
 11
291.187042
 21
92.633331
 31
0.0
210
0.0
220
0.0
230
1.0
  0
LINE
  5
1DD
100
AcDbEntity
  8
0
370
    35
390
0
 62
     7
 48
0.199493
100
AcDbLine
 10
291.187042
 20
101.133331
 30
0.0
 11
291.187042
 21
93.15361
 31
0.0
210
0.0
220
0.0
230
1.0
  0
LINE
  5
1DE
100
AcDbEntity
  8
0
370
    35
390
0
 62
     7
 48
0.01339
100
AcDbLine
 10
289.187042
 20
92.508331
 30
0.0
 11
289.187042
 21
93.043915
 31
0.0
210
0.0
220
0.0
230
1.0
  0
LINE
  5
1DF
100
AcDbEntity
  8
0
370
    35
390
0
 62
     7
 48
0.070985
100
AcDbLine
 10
289.187042
 20
93.043915
 30
0.0
 11
289.187042
 21
95.883331
 31
0.0
210
0.0
220
0.0
230
1.0
  0
LINE
  5
1E0
100
AcDbEntity
  8
0
370
    35
390
0
 62
     7
 48
0.072357
100
AcDbLine
 10
288.187042
 20
95.883331
 30
0.0
 11
288.187042
 21
92.989059
 31
0.0
210
0.0
220
0.0
230
1.0
  0
LINE
  5
1E1
100
AcDbEntity
  8
0
370
    35
390
0
 62
     7
 48
0.013581
100
AcDbLine
 10
288.187042
 20
92.989059
 30
0.0
 11
288.187042
 21
92.445831
 31
0.0
210
0.0
220
0.0
230
1.0
  0
LINE
  5
1E2
100
AcDbEntity
  8
0
370
    35
390
0
 62
     7
 48
0.01381
100
AcDbLine
 10
286.987061
 20
92.370834
 30
0.0
 11
286.987061
 21
92.923248
 31
0.0
210
0.0
220
0.0
230
1.0
  0
LINE
  5
1E3
100
AcDbEntity
  8
0
370
    35
390
0
 62
     7
 48
0.074002
100
AcDbLine
 10
286.987061
 20
92.923248
 30
0.0
 11
286.987061
 21
95.883331
 31
0.0
210
0.0
220
0.0
230
1.0
  0
LINE
  5
1E4
100
AcDbEntity
  8
0
370
    35
390
0
 62
     7
 48
0.075373
100
AcDbLine
 10
285.987061
 20
95.883331
 30
0.0
 11
285.987061
 21
92.868393
 31
0.0
210
0.0
220
0.0
230
1.0
  0
LINE
  5
1E5
100
AcDbEntity
  8
0
370
    35
390
0
 62
     7
 48
0.014001
100
AcDbLine
 10
285.987061
 20
92.868393
 30
0.0
 11
285.987061
 21
92.308334
 31
0.0
210
0.0
220
0.0
230
1.0
  0
LINE
  5
1E6
100
AcDbEntity
  8
0
370
    35
390
0
 62
     7
 48
0.014231
100
AcDbLine
 10
284.787048
 20
92.233337
 30
0.0
 11
284.787048
 21
92.802574
 31
0.0
210
0.0
220
0.0
230
1.0
  0
LINE
  5
1E7
100
AcDbEntity
  8
0
370
    35
390
0
 62
     7
 48
0.077019
100
AcDbLine
 10
284.787048
 20
92.802574
 30
0.0
 11
284.787048
 21
95.883331
 31
0.0
210
0.0
220
0.0
230
1.0
  0
LINE
  5
1E8
100
AcDbEntity
  8
0
370
    35
390
0
 62
     7
 48
0.07839
100
AcDbLine
 10
283.787048
 20
95.883331
 30
0.0
 11
283.787048
 21
92.747726
 31
0.0
210
0.0
220
0.0
230
1.0
  0
LINE
  5
1E9
100
AcDbEntity
  8
0
370
    35
390
0
 62
     7
 48
0.014422
100
AcDbLine
 10
283.787048
 20
92.747726
 30
0.0
 11
283.787048
 21
92.170837
 31
0.0
210
0.0
220
0.0
230
1.0
  0
LINE
  5
1EA
100
AcDbEntity
  8
0
370
    35
390
0
 62
     7
 48
0.025
100
AcDbLine
 10
286.987061
 20
95.883331
 30
0.0
 11
285.987061
 21
95.883331
 31
0.0
210
0.0
220
0.0
230
1.0
  0
LINE
  5
1EB
100
AcDbEntity
  8
0
370
    35
390
0
 62
     7
 48
0.025
100
AcDbLine
 10
289.187042
 20
95.883331
 30
0.0
 11
288.187042
 21
95.883331
 31
0.0
210
0.0
220
0.0
230
1.0
  0
LINE
  5
1EC
100
AcDbEntity
  8
0
370
    35
390
0
 62
     7
 48
0.025
100
AcDbLine
 10
289.187042
 20
97.883331
 30
0.0
 11
288.187042
 21
97.883331
 31
0.0
210
0.0
220
0.0
230
1.0
  0
LINE
  5
1ED
100
AcDbEntity
  8
0
370
    35
390
0
 62
     7
 48
0.025
100
AcDbLine
 10
286.987061
 20
97.883331
 30
0.0
 11
285.987061
 21
97.883331
 31
0.0
210
0.0
220
0.0
230
1.0
  0
LINE
  5
1EE
100
AcDbEntity
  8
0
370
    35
390
0
 62
     7
 48
0.025
100
AcDbLine
 10
284.787048
 20
97.883331
 30
0.0
 11
283.787048
 21
97.883331
 31
0.0
210
0.0
220
0.0
230
1.0
  0
LINE
  5
1EF
100
AcDbEntity
  8
0
370
    35
390
0
 62
     7
 48
0.025
100
AcDbLine
 10
284.787048
 20
95.883331
 30
0.0
 11
283.787048
 21
95.883331
 31
0.0
210
0.0
220
0.0
230
1.0
  0
LINE
  5
1F0
100
AcDbEntity
  8
0
370
    35
390
0
 62
     7
 48
0.234698
100
AcDbLine
 10
279.187042
 20
101.883331
 30
0.0
 11
279.187042
 21
92.495422
 31
0.0
210
0.0
220
0.0
230
1.0
  0
LINE
  5
1F1
100
AcDbEntity
  8
0
370
    35
390
0
 62
     7
 48
0.015302
100
AcDbLine
 10
279.187042
 20
92.495422
 30
0.0
 11
279.187042
 21
91.883331
 31
0.0
210
0.0
220
0.0
230
1.0
  0
LINE
  5
1F2
100
AcDbEntity
  8
0
370
    35
390
0
 62
     7
 48
0.24878
100
AcDbLine
 10
278.187042
 20
102.183334
 30
0.0
 11
278.187042
 21
92.232147
 31
0.0
210
0.0
220
0.0
230
1.0
  0
LINE
  5
1F3
100
AcDbEntity
  8
0
370
    35
390
0
 62
     7
 48
0.01622
100
AcDbLine
 10
278.187042
 20
92.232147
 30
0.0
 11
278.187042
 21
91.583336
 31
0.0
210
0.0
220
0.0
230
1.0
  0
LINE
  5
1F4
100
AcDbEntity
  8
0
370
    35
390
0
 62
     7
 48
0.040764
100
AcDbLine
 10
266.187042
 20
101.338104
 30
0.0
 11
266.187042
 21
102.968666
 31
0.0
210
0.0
220
0.0
230
1.0
  0
LINE
  5
1F5
100
AcDbEntity
  8
0
370
    35
390
0
 62
     7
 48
0.25
100
AcDbLine
 10
266.187042
 20
102.968666
 30
0.0
 11
256.187042
 21
102.968666
 31
0.0
210
0.0
220
0.0
230
1.0
  0
LINE
  5
1F6
100
AcDbEntity
  8
0
370
    35
390
0
 62
     7
 48
0.005367
100
AcDbLine
 10
256.187042
 20
103.183334
 30
0.0
 11
256.187042
 21
102.968666
 31
0.0
210
0.0
220
0.0
230
1.0
  0
LINE
  5
1F7
100
AcDbEntity
  8
0
370
    35
390
0
 62
     7
 48
0.005367
100
AcDbLine
 10
256.187042
 20
90.798004
 30
0.0
 11
256.187042
 21
90.583336
 31
0.0
210
0.0
220
0.0
230
1.0
  0
LINE
  5
1F8
100
AcDbEntity
  8
0
370
    35
390
0
 62
     7
 48
0.25
100
AcDbLine
 10
266.187042
 20
90.798004
 30
0.0
 11
256.187042
 21
90.798004
 31
0.0
210
0.0
220
0.0
230
1.0
  0
LINE
  5
1F9
100
AcDbEntity
  8
0
370
    35
390
0
 62
     7
 48
0.040764
100
AcDbLine
 10
266.187042
 20
90.798004
 30
0.0
 11
266.187042
 21
92.428558
 31
0.0
210
0.0
220
0.0
230
1.0
  0
LINE
  5
1FA
100
AcDbEntity
  8
0
370
    35
390
0
 62
     7
 48
0.070605
100
AcDbLine
 10
256.187042
 20
95.252777
 30
0.0
 11
256.187042
 21
92.428558
 31
0.0
210
0.0
220
0.0
230
1.0
  0
LINE
  5
1FB
100
AcDbEntity
  8
0
370
    35
390
0
 62
     7
 48
0.25
100
AcDbLine
 10
266.187042
 20
95.252777
 30
0.0
 11
256.187042
 21
95.252777
 31
0.0
210
0.0
220
0.0
230
1.0
  0
LINE
  5
1FC
100
AcDbEntity
  8
0
370
    35
390
0
 62
     7
 48
0.081528
100
AcDbLine
 10
266.187042
 20
95.252777
 30
0.0
 11
266.187042
 21
98.513893
 31
0.0
210
0.0
220
0.0
230
1.0
  0
LINE
  5
1FD
100
AcDbEntity
  8
0
370
    35
390
0
 62
     7
 48
0.25
100
AcDbLine
 10
266.187042
 20
98.513893
 30
0.0
 11
256.187042
 21
98.513893
 31
0.0
210
0.0
220
0.0
230
1.0
  0
LINE
  5
1FE
100
AcDbEntity
  8
0
370
    35
390
0
 62
     7
 48
0.070605
100
AcDbLine
 10
256.187042
 20
101.338104
 30
0.0
 11
256.187042
 21
98.513893
 31
0.0
210
0.0
220
0.0
230
1.0
  0
LINE
  5
1FF
100
AcDbEntity
  8
0
370
    35
390
0
 62
     7
 48
0.001782
100
AcDbLine
 10
266.187042
 20
102.968666
 30
0.0
 11
266.187042
 21
103.039955
 31
0.0
210
0.0
220
0.0
230
1.0
  0
LINE
  5
200
100
AcDbEntity
  8
0
370
    35
390
0
 62
     7
 48
0.005477
100
AcDbLine
 10
266.187042
 20
101.119019
 30
0.0
 11
266.187042
 21
101.338104
 31
0.0
210
0.0
220
0.0
230
1.0
  0
ARC
  5
201
100
AcDbEntity
  8
0
370
    35
390
0
 62
     7
100
AcDbCircle
 10
217.876282
 20
59.629433
 30
0.0
 40
64.901613
210
0.0
220
0.0
230
1.0
100
AcDbArc
 50
41.895052
 51
42.551911
  0
LINE
  5
202
100
AcDbEntity
  8
0
370
    35
390
0
 62
     7
 48
0.225
100
AcDbLine
 10
265.687042
 20
103.519669
 30
0.0
 11
256.687042
 21
103.519669
 31
0.0
210
0.0
220
0.0
230
1.0
  0
ARC
  5
203
100
AcDbEntity
  8
0
370
    35
390
0
 62
     7
100
AcDbCircle
 10
304.497803
 20
59.629433
 30
0.0
 40
64.901613
210
0.0
220
0.0
230
1.0
100
AcDbArc
 50
137.44809
 51
138.10495
  0
LINE
  5
204
100
AcDbEntity
  8
0
370
    35
390
0
 62
     7
 48
0.004092
100
AcDbLine
 10
256.687042
 20
103.683334
 30
0.0
 11
256.687042
 21
103.519669
 31
0.0
210
0.0
220
0.0
230
1.0
  0
LINE
  5
205
100
AcDbEntity
  8
0
370
    35
390
0
 62
     7
 48
0.004091
100
AcDbLine
 10
256.687042
 20
90.246994
 30
0.0
 11
256.687042
 21
90.083336
 31
0.0
210
0.0
220
0.0
230
1.0
  0
ARC
  5
206
100
AcDbEntity
  8
0
370
    35
390
0
 62
     7
100
AcDbCircle
 10
304.497803
 20
134.137238
 30
0.0
 40
64.901613
210
0.0
220
0.0
230
1.0
100
AcDbArc
 50
221.89505
 51
222.55191
  0
LINE
  5
207
100
AcDbEntity
  8
0
370
    35
390
0
 62
     7
 48
0.225
100
AcDbLine
 10
265.687042
 20
90.246994
 30
0.0
 11
256.687042
 21
90.246994
 31
0.0
210
0.0
220
0.0
230
1.0
  0
ARC
  5
208
100
AcDbEntity
  8
0
370
    35
390
0
 62
     7
100
AcDbCircle
 10
217.876282
 20
134.137238
 30
0.0
 40
64.901613
210
0.0
220
0.0
230
1.0
100
AcDbArc
 50
317.448089
 51
318.104948
  0
LINE
  5
209
100
AcDbEntity
  8
0
370
    35
390
0
 62
     7
 48
0.005477
100
AcDbLine
 10
266.187042
 20
92.428558
 30
0.0
 11
266.187042
 21
92.647652
 31
0.0
210
0.0
220
0.0
230
1.0
  0
LINE
  5
20A
100
AcDbEntity
  8
0
370
    35
390
0
 62
     7
 48
0.001782
100
AcDbLine
 10
266.187042
 20
90.726715
 30
0.0
 11
266.187042
 21
90.798004
 31
0.0
210
0.0
220
0.0
230
1.0
  0
LINE
  5
20B
100
AcDbEntity
  8
0
370
    35
390
0
 62
     7
 48
0.013034
100
AcDbLine
 10
266.187042
 20
92.428558
 30
0.0
 11
265.687042
 21
92.280922
 31
0.0
210
0.0
220
0.0
230
1.0
  0
LINE
  5
20C
100
AcDbEntity
  8
0
370
    35
390
0
 62
     7
 48
0.225
100
AcDbLine
 10
265.687042
 20
92.280922
 30
0.0
 11
256.687042
 21
92.280922
 31
0.0
210
0.0
220
0.0
230
1.0
  0
LINE
  5
20D
100
AcDbEntity
  8
0
370
    35
390
0
 62
     7
 48
0.013034
100
AcDbLine
 10
256.187042
 20
92.428558
 30
0.0
 11
256.687042
 21
92.280922
 31
0.0
210
0.0
220
0.0
230
1.0
  0
LINE
  5
20E
100
AcDbEntity
  8
0
370
    35
390
0
 62
     7
 48
0.016061
100
AcDbLine
 10
256.187042
 20
95.252777
 30
0.0
 11
256.687042
 21
94.849411
 31
0.0
210
0.0
220
0.0
230
1.0
  0
LINE
  5
20F
100
AcDbEntity
  8
0
370
    35
390
0
 62
     7
 48
0.064212
100
AcDbLine
 10
256.687042
 20
94.849411
 30
0.0
 11
256.687042
 21
92.280922
 31
0.0
210
0.0
220
0.0
230
1.0
  0
LINE
  5
210
100
AcDbEntity
  8
0
370
    35
390
0
 62
     7
 48
0.225
100
AcDbLine
 10
265.687042
 20
94.849411
 30
0.0
 11
256.687042
 21
94.849411
 31
0.0
210
0.0
220
0.0
230
1.0
  0
LINE
  5
211
100
AcDbEntity
  8
0
370
    35
390
0
 62
     7
 48
0.016061
100
AcDbLine
 10
266.187042
 20
95.252777
 30
0.0
 11
265.687042
 21
94.849411
 31
0.0
210
0.0
220
0.0
230
1.0
  0
LINE
  5
212
100
AcDbEntity
  8
0
370
    35
390
0
 62
     7
 48
0.00726
100
AcDbLine
 10
266.187042
 20
98.513893
 30
0.0
 11
266.187042
 21
98.804276
 31
0.0
210
0.0
220
0.0
230
1.0
  0
LINE
  5
213
100
AcDbEntity
  8
0
370
    35
390
0
 62
     7
 48
0.007259
100
AcDbLine
 10
266.187042
 20
94.962402
 30
0.0
 11
266.187042
 21
95.252777
 31
0.0
210
0.0
220
0.0
230
1.0
  0
LINE
  5
214
100
AcDbEntity
  8
0
370
    35
390
0
 62
     7
 48
0.01606
100
AcDbLine
 10
266.187042
 20
98.513893
 30
0.0
 11
265.687042
 21
98.917252
 31
0.0
210
0.0
220
0.0
230
1.0
  0
LINE
  5
215
100
AcDbEntity
  8
0
370
    35
390
0
 62
     7
 48
0.225
100
AcDbLine
 10
265.687042
 20
98.917252
 30
0.0
 11
256.687042
 21
98.917252
 31
0.0
210
0.0
220
0.0
230
1.0
  0
LINE
  5
216
100
AcDbEntity
  8
0
370
    35
390
0
 62
     7
 48
0.01606
100
AcDbLine
 10
256.187042
 20
98.513893
 30
0.0
 11
256.687042
 21
98.917252
 31
0.0
210
0.0
220
0.0
230
1.0
  0
LINE
  5
217
100
AcDbEntity
  8
0
370
    35
390
0
 62
     7
 48
0.064212
100
AcDbLine
 10
256.687042
 20
101.485748
 30
0.0
 11
256.687042
 21
98.917252
 31
0.0
210
0.0
220
0.0
230
1.0
  0
LINE
  5
218
100
AcDbEntity
  8
0
370
    35
390
0
 62
     7
 48
0.013034
100
AcDbLine
 10
256.187042
 20
101.338104
 30
0.0
 11
256.687042
 21
101.485748
 31
0.0
210
0.0
220
0.0
230
1.0
  0
LINE
  5
219
100
AcDbEntity
  8
0
370
    35
390
0
 62
     7
 48
0.225
100
AcDbLine
 10
265.687042
 20
101.485748
 30
0.0
 11
256.687042
 21
101.485748
 31
0.0
210
0.0
220
0.0
230
1.0
  0
LINE
  5
21A
100
AcDbEntity
  8
0
370
    35
390
0
 62
     7
 48
0.013034
100
AcDbLine
 10
266.187042
 20
101.338104
 30
0.0
 11
265.687042
 21
101.485748
 31
0.0
210
0.0
220
0.0
230
1.0
  0
LINE
  5
21B
100
AcDbEntity
  8
0
370
    35
390
0
 62
     7
 48
0.003584
100
AcDbLine
 10
266.187042
 20
103.183334
 30
0.0
 11
266.187042
 21
103.039955
 31
0.0
210
0.0
220
0.0
230
1.0
  0
LINE
  5
21C
100
AcDbEntity
  8
0
370
    35
390
0
 62
     7
 48
0.004092
100
AcDbLine
 10
265.687042
 20
103.683334
 30
0.0
 11
265.687042
 21
103.519669
 31
0.0
210
0.0
220
0.0
230
1.0
  0
LINE
  5
21D
100
AcDbEntity
  8
0
370
    35
390
0
 62
     7
 48
0.064212
100
AcDbLine
 10
265.687042
 20
101.485748
 30
0.0
 11
265.687042
 21
98.917252
 31
0.0
210
0.0
220
0.0
230
1.0
  0
LINE
  5
21E
100
AcDbEntity
  8
0
370
    35
390
0
 62
     7
 48
0.057869
100
AcDbLine
 10
266.187042
 20
101.119019
 30
0.0
 11
266.187042
 21
98.804276
 31
0.0
210
0.0
220
0.0
230
1.0
  0
LINE
  5
21F
100
AcDbEntity
  8
0
370
    35
390
0
 62
     7
 48
0.169221
100
AcDbLine
 10
272.955872
 20
101.119019
 30
0.0
 11
266.187042
 21
101.119019
 31
0.0
210
0.0
220
0.0
230
1.0
  0
LINE
  5
220
100
AcDbEntity
  8
0
370
    35
390
0
 62
     7
 48
0.169221
100
AcDbLine
 10
272.955872
 20
103.039955
 30
0.0
 11
266.187042
 21
103.039955
 31
0.0
210
0.0
220
0.0
230
1.0
  0
ARC
  5
221
100
AcDbEntity
  8
0
370
    35
390
0
 62
     7
100
AcDbCircle
 10
270.441467
 20
102.079483
 30
0.0
 40
2.691781
210
0.0
220
0.0
230
1.0
100
AcDbArc
 50
339.09394
 51
20.906017
  0
LINE
  5
222
100
AcDbEntity
  8
0
370
    35
390
0
 62
     7
 48
0.003584
100
AcDbLine
 10
266.187042
 20
90.726715
 30
0.0
 11
266.187042
 21
90.583336
 31
0.0
210
0.0
220
0.0
230
1.0
  0
LINE
  5
223
100
AcDbEntity
  8
0
370
    35
390
0
 62
     7
 48
0.004091
100
AcDbLine
 10
265.687042
 20
90.246994
 30
0.0
 11
265.687042
 21
90.083336
 31
0.0
210
0.0
220
0.0
230
1.0
  0
LINE
  5
224
100
AcDbEntity
  8
0
370
    35
390
0
 62
     7
 48
0.064212
100
AcDbLine
 10
265.687042
 20
94.849411
 30
0.0
 11
265.687042
 21
92.280922
 31
0.0
210
0.0
220
0.0
230
1.0
  0
LINE
  5
225
100
AcDbEntity
  8
0
370
    35
390
0
 62
     7
 48
0.057869
100
AcDbLine
 10
266.187042
 20
94.962402
 30
0.0
 11
266.187042
 21
92.647652
 31
0.0
210
0.0
220
0.0
230
1.0
  0
LINE
  5
226
100
AcDbEntity
  8
0
370
    35
390
0
 62
     7
 48
0.169221
100
AcDbLine
 10
266.187042
 20
90.726715
 30
0.0
 11
272.955872
 21
90.726715
 31
0.0
210
0.0
220
0.0
230
1.0
  0
LINE
  5
227
100
AcDbEntity
  8
0
370
    35
390
0
 62
     7
 48
0.169221
100
AcDbLine
 10
272.955872
 20
92.647652
 30
0.0
 11
266.187042
 21
92.647652
 31
0.0
210
0.0
220
0.0
230
1.0
  0
ARC
  5
228
100
AcDbEntity
  8
0
370
    35
390
0
 62
     7
100
AcDbCircle
 10
270.441467
 20
91.68718
 30
0.0
 40
2.691781
210
0.0
220
0.0
230
1.0
100
AcDbArc
 50
339.09394
 51
20.906017
  0
LINE
  5
229
100
AcDbEntity
  8
0
370
    35
390
0
 62
     7
 48
0.169221
100
AcDbLine
 10
266.187042
 20
94.962402
 30
0.0
 11
272.955872
 21
94.962402
 31
0.0
210
0.0
220
0.0
230
1.0
  0
LINE
  5
22A
100
AcDbEntity
  8
0
370
    35
390
0
 62
     7
 48
0.169221
100
AcDbLine
 10
272.955872
 20
98.804276
 30
0.0
 11
266.187042
 21
98.804276
 31
0.0
210
0.0
220
0.0
230
1.0
  0
ARC
  5
22B
100
AcDbEntity
  8
0
370
    35
390
0
 62
     7
100
AcDbCircle
 10
262.629547
 20
96.883331
 30
0.0
 40
10.504192
210
0.0
220
0.0
230
1.0
100
AcDbArc
 50
349.462088
 51
10.537886
  0
LINE
  5
22C
100
AcDbEntity
  8
0
370
    35
390
0
 62
     7
 48
0.003584
100
AcDbLine
 10
272.955872
 20
103.183334
 30
0.0
 11
272.955872
 21
103.039955
 31
0.0
210
0.0
220
0.0
230
1.0
  0
LINE
  5
22D
100
AcDbEntity
  8
0
370
    35
390
0
 62
     7
 48
0.027486
100
AcDbLine
 10
272.955872
 20
99.903717
 30
0.0
 11
272.955872
 21
98.804276
 31
0.0
210
0.0
220
0.0
230
1.0
  0
LINE
  5
22E
100
AcDbEntity
  8
0
370
    35
390
0
 62
     7
 48
0.030383
100
AcDbLine
 10
272.955872
 20
99.903717
 30
0.0
 11
272.955872
 21
101.119019
 31
0.0
210
0.0
220
0.0
230
1.0
  0
LINE
  5
22F
100
AcDbEntity
  8
0
370
    35
390
0
 62
     7
 48
0.076785
100
AcDbLine
 10
273.187042
 20
102.783333
 30
0.0
 11
273.187042
 21
99.711945
 31
0.0
210
0.0
220
0.0
230
1.0
  0
LINE
  5
230
100
AcDbEntity
  8
0
370
    35
390
0
 62
     7
 48
0.003584
100
AcDbLine
 10
272.955872
 20
90.726715
 30
0.0
 11
272.955872
 21
90.583336
 31
0.0
210
0.0
220
0.0
230
1.0
  0
LINE
  5
231
100
AcDbEntity
  8
0
370
    35
390
0
 62
     7
 48
0.218215
100
AcDbLine
 10
273.187042
 20
99.711945
 30
0.0
 11
273.187042
 21
90.983337
 31
0.0
210
0.0
220
0.0
230
1.0
  0
LINE
  5
232
100
AcDbEntity
  8
0
370
    35
390
0
 62
     7
 48
0.057869
100
AcDbLine
 10
272.955872
 20
94.962402
 30
0.0
 11
272.955872
 21
92.647652
 31
0.0
210
0.0
220
0.0
230
1.0
  0
ARC
  5
233
100
AcDbEntity
  8
0
370
    35
390
0
 62
     7
100
AcDbCircle
 10
288.187042
 20
21.883331
 30
0.0
 40
78.400003
210
0.0
220
0.0
230
1.0
100
AcDbArc
 50
0.000002
 51
87.807034
  0
ARC
  5
234
100
AcDbEntity
  8
0
370
    35
390
0
 62
     7
100
AcDbCircle
 10
288.187012
 20
21.887169
 30
0.0
 40
78.396164
210
0.0
220
0.0
230
1.0
100
AcDbArc
 50
89.269111
 51
89.999968
  0
ARC
  5
235
100
AcDbEntity
  8
0
370
    35
390
0
 62
     7
100
AcDbCircle
 10
288.187042
 20
21.883331
 30
0.0
 40
71.600002
210
0.0
220
0.0
230
1.0
100
AcDbArc
 50
0.000002
 51
87.598651
  0
ARC
  5
236
100
AcDbEntity
  8
0
370
    35
390
0
 62
     7
100
AcDbCircle
 10
288.187012
 20
21.885536
 30
0.0
 40
71.597796
210
0.0
220
0.0
230
1.0
100
AcDbArc
 50
89.199702
 51
89.999962
  0
LINE
  5
237
100
AcDbEntity
  8
0
370
    35
390
0
 62
     7
 48
0.025
100
AcDbLine
 10
286.987061
 20
100.283333
 30
0.0
 11
285.987061
 21
100.283333
 31
0.0
210
0.0
220
0.0
230
1.0
  0
LINE
  5
238
100
AcDbEntity
  8
0
370
    35
390
0
 62
     7
 48
0.025
100
AcDbLine
 10
284.787048
 20
100.283333
 30
0.0
 11
283.787048
 21
100.283333
 31
0.0
210
0.0
220
0.0
230
1.0
  0
LINE
  5
239
100
AcDbEntity
  8
0
370
    35
390
0
 62
     7
 48
0.25
100
AcDbLine
 10
366.587036
 20
11.883331
 30
0.0
 11
366.587036
 21
21.883331
 31
0.0
210
0.0
220
0.0
230
1.0
  0
LINE
  5
23A
100
AcDbEntity
  8
0
370
    35
390
0
 62
     7
 48
0.025
100
AcDbLine
 10
286.987061
 20
93.483337
 30
0.0
 11
285.987061
 21
93.483337
 31
0.0
210
0.0
220
0.0
230
1.0
  0
LINE
  5
23B
100
AcDbEntity
  8
0
370
    35
390
0
 62
     7
 48
0.025
100
AcDbLine
 10
284.787048
 20
93.483337
 30
0.0
 11
283.787048
 21
93.483337
 31
0.0
210
0.0
220
0.0
230
1.0
  0
LINE
  5
23C
100
AcDbEntity
  8
0
370
    35
390
0
 62
     7
 48
0.25
100
AcDbLine
 10
359.787048
 20
11.883331
 30
0.0
 11
359.787048
 21
21.883331
 31
0.0
210
0.0
220
0.0
230
1.0
  0
LINE
  5
23D
100
AcDbEntity
  8
0
370
    35
390
0
 62
     7
 48
0.050098
100
AcDbLine
 10
291.187042
 20
101.133331
 30
0.0
 11
289.187042
 21
101.258331
 31
0.0
210
0.0
220
0.0
230
1.0
  0
LINE
  5
23E
100
AcDbEntity
  8
0
370
    35
390
0
 62
     7
 48
0.030058
100
AcDbLine
 10
288.187042
 20
101.320831
 30
0.0
 11
286.987061
 21
101.395836
 31
0.0
210
0.0
220
0.0
230
1.0
  0
LINE
  5
23F
100
AcDbEntity
  8
0
370
    35
390
0
 62
     7
 48
0.030059
100
AcDbLine
 10
285.987061
 20
101.458336
 30
0.0
 11
284.787048
 21
101.533333
 31
0.0
210
0.0
220
0.0
230
1.0
  0
LINE
  5
240
100
AcDbEntity
  8
0
370
    35
390
0
 62
     7
 48
0.115225
100
AcDbLine
 10
283.787048
 20
101.595833
 30
0.0
 11
279.187042
 21
101.883331
 31
0.0
210
0.0
220
0.0
230
1.0
  0
LINE
  5
241
100
AcDbEntity
  8
0
370
    35
390
0
 62
     7
 48
0.050098
100
AcDbLine
 10
291.187042
 20
92.633331
 30
0.0
 11
289.187042
 21
92.508331
 31
0.0
210
0.0
220
0.0
230
1.0
  0
LINE
  5
242
100
AcDbEntity
  8
0
370
    35
390
0
 62
     7
 48
0.030058
100
AcDbLine
 10
288.187042
 20
92.445831
 30
0.0
 11
286.987061
 21
92.370834
 31
0.0
210
0.0
220
0.0
230
1.0
  0
LINE
  5
243
100
AcDbEntity
  8
0
370
    35
390
0
 62
     7
 48
0.030059
100
AcDbLine
 10
285.987061
 20
92.308334
 30
0.0
 11
284.787048
 21
92.233337
 31
0.0
210
0.0
220
0.0
230
1.0
  0
LINE
  5
244
100
AcDbEntity
  8
0
370
    35
390
0
 62
     7
 48
0.115225
100
AcDbLine
 10
283.787048
 20
92.170837
 30
0.0
 11
279.187042
 21
91.883331
 31
0.0
210
0.0
220
0.0
230
1.0
  0
LINE
  5
245
100
AcDbEntity
  8
0
370
    35
390
0
 62
     7
 48
0.026101
100
AcDbLine
 10
279.187042
 20
101.883331
 30
0.0
 11
278.187042
 21
102.183334
 31
0.0
210
0.0
220
0.0
230
1.0
  0
LINE
  5
246
100
AcDbEntity
  8
0
370
    35
390
0
 62
     7
 48
0.026101
100
AcDbLine
 10
279.187042
 20
91.883331
 30
0.0
 11
278.187042
 21
91.583336
 31
0.0
210
0.0
220
0.0
230
1.0
  0
LINE
  5
247
100
AcDbEntity
  8
0
370
    35
390
0
 62
     7
 48
0.125
100
AcDbLine
 10
278.187042
 20
91.883331
 30
0.0
 11
273.187042
 21
91.883331
 31
0.0
210
0.0
220
0.0
230
1.0
  0
LINE
  5
248
100
AcDbEntity
  8
0
370
    35
390
0
 62
     7
 48
0.125
100
AcDbLine
 10
278.187042
 20
101.883331
 30
0.0
 11
273.187042
 21
101.883331
 31
0.0
210
0.0
220
0.0
230
1.0
  0
LINE
  5
249
100
AcDbEntity
  8
0
370
    35
390
0
 62
     7
 48
0.025
100
AcDbLine
 10
256.187042
 20
90.583336
 30
0.0
 11
255.187042
 21
90.583336
 31
0.0
210
0.0
220
0.0
230
1.0
  0
LINE
  5
24A
100
AcDbEntity
  8
0
370
    35
390
0
 62
     7
 48
0.025
100
AcDbLine
 10
256.187042
 20
103.183334
 30
0.0
 11
255.187042
 21
103.183334
 31
0.0
210
0.0
220
0.0
230
1.0
  0
LINE
  5
24B
100
AcDbEntity
  8
0
370
    35
390
0
 62
     7
 48
0.017678
100
AcDbLine
 10
256.187042
 20
103.183334
 30
0.0
 11
256.687042
 21
103.683334
 31
0.0
210
0.0
220
0.0
230
1.0
  0
LINE
  5
24C
100
AcDbEntity
  8
0
370
    35
390
0
 62
     7
 48
0.017678
100
AcDbLine
 10
256.187042
 20
90.583336
 30
0.0
 11
256.687042
 21
90.083336
 31
0.0
210
0.0
220
0.0
230
1.0
  0
LINE
  5
24D
100
AcDbEntity
  8
0
370
    35
390
0
 62
     7
 48
0.017678
100
AcDbLine
 10
266.187042
 20
103.183334
 30
0.0
 11
265.687042
 21
103.683334
 31
0.0
210
0.0
220
0.0
230
1.0
  0
LINE
  5
24E
100
AcDbEntity
  8
0
370
    35
390
0
 62
     7
 48
0.225
100
AcDbLine
 10
265.687042
 20
103.683334
 30
0.0
 11
256.687042
 21
103.683334
 31
0.0
210
0.0
220
0.0
230
1.0
  0
LINE
  5
24F
100
AcDbEntity
  8
0
370
    35
390
0
 62
     7
 48
0.017678
100
AcDbLine
 10
266.187042
 20
90.583336
 30
0.0
 11
265.687042
 21
90.083336
 31
0.0
210
0.0
220
0.0
230
1.0
  0
LINE
  5
250
100
AcDbEntity
  8
0
370
    35
390
0
 62
     7
 48
0.225
100
AcDbLine
 10
265.687042
 20
90.083336
 30
0.0
 11
256.687042
 21
90.083336
 31
0.0
210
0.0
220
0.0
230
1.0
  0
LINE
  5
251
100
AcDbEntity
  8
0
370
    35
390
0
 62
     7
 48
0.169221
100
AcDbLine
 10
272.955872
 20
103.183334
 30
0.0
 11
266.187042
 21
103.183334
 31
0.0
210
0.0
220
0.0
230
1.0
  0
ARC
  5
252
100
AcDbEntity
  8
0
370
    35
390
0
 62
     7
100
AcDbCircle
 10
267.880432
 20
99.983337
 30
0.0
 40
6.000002
210
0.0
220
0.0
230
1.0
100
AcDbArc
 50
27.81814
 51
32.230949
  0
LINE
  5
253
100
AcDbEntity
  8
0
370
    35
390
0
 62
     7
 48
0.169221
100
AcDbLine
 10
272.955872
 20
90.583336
 30
0.0
 11
266.187042
 21
90.583336
 31
0.0
210
0.0
220
0.0
230
1.0
  0
ARC
  5
254
100
AcDbEntity
  8
0
370
    35
390
0
 62
     7
100
AcDbCircle
 10
267.880432
 20
93.78334
 30
0.0
 40
6.000002
210
0.0
220
0.0
230
1.0
100
AcDbArc
 50
327.769051
 51
332.18186
  0
CIRCLE
  5
255
100
AcDbEntity
  8
0
370
    35
390
0
 62
     7
100
AcDbCircle
 10
160.687042
 20
153.183334
 30
0.0
 40
3.5
210
0.0
220
0.0
230
1.0
  0
CIRCLE
  5
256
100
AcDbEntity
  8
0
370
    35
390
0
 62
     7
100
AcDbCircle
 10
260.687042
 20
153.183334
 30
0.0
 40
3.5
210
0.0
220
0.0
230
1.0
  0
CIRCLE
  5
257
100
AcDbEntity
  8
0
370
    35
390
0
 62
     7
100
AcDbCircle
 10
360.687042
 20
153.183334
 30
0.0
 40
3.5
210
0.0
220
0.0
230
1.0
  0
CIRCLE
  5
258
100
AcDbEntity
  8
0
370
    35
390
0
 62
     7
100
AcDbCircle
 10
460.687042
 20
153.183334
 30
0.0
 40
3.5
210
0.0
220
0.0
230
1.0
  0
CIRCLE
  5
259
100
AcDbEntity
  8
0
370
    35
390
0
 62
     7
100
AcDbCircle
 10
560.687012
 20
153.183334
 30
0.0
 40
3.5
210
0.0
220
0.0
230
1.0
  0
CIRCLE
  5
25A
100
AcDbEntity
  8
0
370
    35
390
0
 62
     7
100
AcDbCircle
 10
660.687012
 20
153.183334
 30
0.0
 40
3.5
210
0.0
220
0.0
230
1.0
  0
CIRCLE
  5
25B
100
AcDbEntity
  8
0
370
    35
390
0
 62
     7
100
AcDbCircle
 10
760.687012
 20
153.183334
 30
0.0
 40
3.5
210
0.0
220
0.0
230
1.0
  0
CIRCLE
  5
25C
100
AcDbEntity
  8
0
370
    35
390
0
 62
     7
100
AcDbCircle
 10
860.687012
 20
153.183334
 30
0.0
 40
3.5
210
0.0
220
0.0
230
1.0
  0
CIRCLE
  5
25D
100
AcDbEntity
  8
0
370
    35
390
0
 62
     7
100
AcDbCircle
 10
960.687012
 20
153.183334
 30
0.0
 40
3.5
210
0.0
220
0.0
230
1.0
  0
CIRCLE
  5
25E
100
AcDbEntity
  8
0
370
    35
390
0
 62
     7
100
AcDbCircle
 10
1060.687012
 20
153.183334
 30
0.0
 40
3.5
210
0.0
220
0.0
230
1.0
  0
CIRCLE
  5
25F
100
AcDbEntity
  8
0
370
    35
390
0
 62
     7
100
AcDbCircle
 10
1160.687012
 20
153.183334
 30
0.0
 40
3.5
210
0.0
220
0.0
230
1.0
  0
CIRCLE
  5
260
100
AcDbEntity
  8
0
370
    35
390
0
 62
     7
100
AcDbCircle
 10
1260.687012
 20
153.183334
 30
0.0
 40
3.5
210
0.0
220
0.0
230
1.0
  0
CIRCLE
  5
261
100
AcDbEntity
  8
0
370
    35
390
0
 62
     7
100
AcDbCircle
 10
1360.687012
 20
153.183334
 30
0.0
 40
3.5
210
0.0
220
0.0
230
1.0
  0
CIRCLE
  5
262
100
AcDbEntity
  8
0
370
    35
390
0
 62
     7
100
AcDbCircle
 10
1460.687012
 20
153.183334
 30
0.0
 40
3.5
210
0.0
220
0.0
230
1.0
  0
CIRCLE
  5
263
100
AcDbEntity
  8
0
370
    35
390
0
 62
     7
100
AcDbCircle
 10
1560.687012
 20
153.183334
 30
0.0
 40
3.5
210
0.0
220
0.0
230
1.0
  0
CIRCLE
  5
264
100
AcDbEntity
  8
0
370
    35
390
0
 62
     7
100
AcDbCircle
 10
1660.687012
 20
153.183334
 30
0.0
 40
3.5
210
0.0
220
0.0
230
1.0
  0
CIRCLE
  5
265
100
AcDbEntity
  8
0
370
    35
390
0
 62
     7
100
AcDbCircle
 10
1760.687012
 20
153.183334
 30
0.0
 40
3.5
210
0.0
220
0.0
230
1.0
  0
LINE
  5
266
100
AcDbEntity
  8
0
370
    35
390
0
 62
     7
100
AcDbLine
 10
128.687042
 20
122.183334
 30
0.0
 11
1792.687012
 21
122.183334
 31
0.0
210
0.0
220
0.0
230
1.0
  0
LINE
  5
267
100
AcDbEntity
  8
0
370
    35
390
0
 62
     7
100
AcDbLine
 10
1792.687012
 20
160.683334
 30
0.0
 11
128.687042
 21
160.683334
 31
0.0
210
0.0
220
0.0
230
1.0
  0
CIRCLE
  5
268
100
AcDbEntity
  8
0
370
    35
390
0
 62
     7
100
AcDbCircle
 10
1660.687012
 20
127.883331
 30
0.0
 40
3.5
210
0.0
220
0.0
230
1.0
  0
CIRCLE
  5
269
100
AcDbEntity
  8
0
370
    35
390
0
 62
     7
100
AcDbCircle
 10
510.687042
 20
150.183334
 30
0.0
 40
3.35
210
0.0
220
0.0
230
1.0
  0
CIRCLE
  5
26A
100
AcDbEntity
  8
0
370
    35
390
0
 62
     7
100
AcDbCircle
 10
610.687012
 20
150.183334
 30
0.0
 40
3.35
210
0.0
220
0.0
230
1.0
  0
CIRCLE
  5
26B
100
AcDbEntity
  8
0
370
    35
390
0
 62
     7
100
AcDbCircle
 10
710.687012
 20
150.183334
 30
0.0
 40
3.35
210
0.0
220
0.0
230
1.0
  0
CIRCLE
  5
26C
100
AcDbEntity
  8
0
370
    35
390
0
 62
     7
100
AcDbCircle
 10
810.687012
 20
150.183334
 30
0.0
 40
3.35
210
0.0
220
0.0
230
1.0
  0
CIRCLE
  5
26D
100
AcDbEntity
  8
0
370
    35
390
0
 62
     7
100
AcDbCircle
 10
910.687012
 20
150.183334
 30
0.0
 40
3.35
210
0.0
220
0.0
230
1.0
  0
CIRCLE
  5
26E
100
AcDbEntity
  8
0
370
    35
390
0
 62
     7
100
AcDbCircle
 10
1010.687012
 20
150.183334
 30
0.0
 40
3.35
210
0.0
220
0.0
230
1.0
  0
CIRCLE
  5
26F
100
AcDbEntity
  8
0
370
    35
390
0
 62
     7
100
AcDbCircle
 10
1110.687012
 20
150.183334
 30
0.0
 40
3.35
210
0.0
220
0.0
230
1.0
  0
CIRCLE
  5
270
100
AcDbEntity
  8
0
370
    35
390
0
 62
     7
100
AcDbCircle
 10
1210.687012
 20
150.183334
 30
0.0
 40
3.35
210
0.0
220
0.0
230
1.0
  0
CIRCLE
  5
271
100
AcDbEntity
  8
0
370
    35
390
0
 62
     7
100
AcDbCircle
 10
1310.687012
 20
150.183334
 30
0.0
 40
3.35
210
0.0
220
0.0
230
1.0
  0
CIRCLE
  5
272
100
AcDbEntity
  8
0
370
    35
390
0
 62
     7
100
AcDbCircle
 10
1410.687012
 20
150.183334
 30
0.0
 40
3.35
210
0.0
220
0.0
230
1.0
  0
CIRCLE
  5
273
100
AcDbEntity
  8
0
370
    35
390
0
 62
     7
100
AcDbCircle
 10
1510.687012
 20
150.183334
 30
0.0
 40
3.35
210
0.0
220
0.0
230
1.0
  0
CIRCLE
  5
274
100
AcDbEntity
  8
0
370
    35
390
0
 62
     7
100
AcDbCircle
 10
1610.687012
 20
150.183334
 30
0.0
 40
3.35
210
0.0
220
0.0
230
1.0
  0
CIRCLE
  5
275
100
AcDbEntity
  8
0
370
    35
390
0
 62
     7
100
AcDbCircle
 10
1710.687012
 20
150.183334
 30
0.0
 40
3.35
210
0.0
220
0.0
230
1.0
  0
CIRCLE
  5
276
100
AcDbEntity
  8
0
370
    35
390
0
 62
     7
100
AcDbCircle
 10
141.687042
 20
150.183334
 30
0.0
 40
3.35
210
0.0
220
0.0
230
1.0
  0
CIRCLE
  5
277
100
AcDbEntity
  8
0
370
    35
390
0
 62
     7
100
AcDbCircle
 10
1779.687012
 20
150.183334
 30
0.0
 40
3.35
210
0.0
220
0.0
230
1.0
  0
CIRCLE
  5
278
100
AcDbEntity
  8
0
370
    35
390
0
 62
     7
100
AcDbCircle
 10
160.687042
 20
153.183334
 30
0.0
 40
5.5
210
0.0
220
0.0
230
1.0
  0
CIRCLE
  5
279
100
AcDbEntity
  8
0
370
    35
390
0
 62
     7
100
AcDbCircle
 10
260.687042
 20
153.183334
 30
0.0
 40
5.5
210
0.0
220
0.0
230
1.0
  0
CIRCLE
  5
27A
100
AcDbEntity
  8
0
370
    35
390
0
 62
     7
100
AcDbCircle
 10
360.687042
 20
153.183334
 30
0.0
 40
5.5
210
0.0
220
0.0
230
1.0
  0
CIRCLE
  5
27B
100
AcDbEntity
  8
0
370
    35
390
0
 62
     7
100
AcDbCircle
 10
460.687042
 20
153.183334
 30
0.0
 40
5.5
210
0.0
220
0.0
230
1.0
  0
CIRCLE
  5
27C
100
AcDbEntity
  8
0
370
    35
390
0
 62
     7
100
AcDbCircle
 10
560.687012
 20
153.183334
 30
0.0
 40
5.5
210
0.0
220
0.0
230
1.0
  0
CIRCLE
  5
27D
100
AcDbEntity
  8
0
370
    35
390
0
 62
     7
100
AcDbCircle
 10
660.687012
 20
153.183334
 30
0.0
 40
5.5
210
0.0
220
0.0
230
1.0
  0
CIRCLE
  5
27E
100
AcDbEntity
  8
0
370
    35
390
0
 62
     7
100
AcDbCircle
 10
760.687012
 20
153.183334
 30
0.0
 40
5.5
210
0.0
220
0.0
230
1.0
  0
CIRCLE
  5
27F
100
AcDbEntity
  8
0
370
    35
390
0
 62
     7
100
AcDbCircle
 10
860.687012
 20
153.183334
 30
0.0
 40
5.5
210
0.0
220
0.0
230
1.0
  0
CIRCLE
  5
280
100
AcDbEntity
  8
0
370
    35
390
0
 62
     7
100
AcDbCircle
 10
960.687012
 20
153.183334
 30
0.0
 40
5.5
210
0.0
220
0.0
230
1.0
  0
CIRCLE
  5
281
100
AcDbEntity
  8
0
370
    35
390
0
 62
     7
100
AcDbCircle
 10
1060.687012
 20
153.183334
 30
0.0
 40
5.5
210
0.0
220
0.0
230
1.0
  0
CIRCLE
  5
282
100
AcDbEntity
  8
0
370
    35
390
0
 62
     7
100
AcDbCircle
 10
1160.687012
 20
153.183334
 30
0.0
 40
5.5
210
0.0
220
0.0
230
1.0
  0
CIRCLE
  5
283
100
AcDbEntity
  8
0
370
    35
390
0
 62
     7
100
AcDbCircle
 10
1260.687012
 20
153.183334
 30
0.0
 40
5.5
210
0.0
220
0.0
230
1.0
  0
CIRCLE
  5
284
100
AcDbEntity
  8
0
370
    35
390
0
 62
     7
100
AcDbCircle
 10
1360.687012
 20
153.183334
 30
0.0
 40
5.5
210
0.0
220
0.0
230
1.0
  0
CIRCLE
  5
285
100
AcDbEntity
  8
0
370
    35
390
0
 62
     7
100
AcDbCircle
 10
1460.687012
 20
153.183334
 30
0.0
 40
5.5
210
0.0
220
0.0
230
1.0
  0
CIRCLE
  5
286
100
AcDbEntity
  8
0
370
    35
390
0
 62
     7
100
AcDbCircle
 10
1560.687012
 20
153.183334
 30
0.0
 40
5.5
210
0.0
220
0.0
230
1.0
  0
CIRCLE
  5
287
100
AcDbEntity
  8
0
370
    35
390
0
 62
     7
100
AcDbCircle
 10
1660.687012
 20
153.183334
 30
0.0
 40
5.5
210
0.0
220
0.0
230
1.0
  0
CIRCLE
  5
288
100
AcDbEntity
  8
0
370
    35
390
0
 62
     7
100
AcDbCircle
 10
1760.687012
 20
153.183334
 30
0.0
 40
5.5
210
0.0
220
0.0
230
1.0
  0
CIRCLE
  5
289
100
AcDbEntity
  8
0
370
    35
390
0
 62
     7
100
AcDbCircle
 10
160.687042
 20
127.883331
 30
0.0
 40
3.5
210
0.0
220
0.0
230
1.0
  0
CIRCLE
  5
28A
100
AcDbEntity
  8
0
370
    35
390
0
 62
     7
100
AcDbCircle
 10
260.687042
 20
127.883331
 30
0.0
 40
3.5
210
0.0
220
0.0
230
1.0
  0
CIRCLE
  5
28B
100
AcDbEntity
  8
0
370
    35
390
0
 62
     7
100
AcDbCircle
 10
360.687042
 20
127.883331
 30
0.0
 40
3.5
210
0.0
220
0.0
230
1.0
  0
CIRCLE
  5
28C
100
AcDbEntity
  8
0
370
    35
390
0
 62
     7
100
AcDbCircle
 10
460.687042
 20
127.883331
 30
0.0
 40
3.5
210
0.0
220
0.0
230
1.0
  0
CIRCLE
  5
28D
100
AcDbEntity
  8
0
370
    35
390
0
 62
     7
100
AcDbCircle
 10
560.687012
 20
127.883331
 30
0.0
 40
3.5
210
0.0
220
0.0
230
1.0
  0
CIRCLE
  5
28E
100
AcDbEntity
  8
0
370
    35
390
0
 62
     7
100
AcDbCircle
 10
660.687012
 20
127.883331
 30
0.0
 40
3.5
210
0.0
220
0.0
230
1.0
  0
CIRCLE
  5
28F
100
AcDbEntity
  8
0
370
    35
390
0
 62
     7
100
AcDbCircle
 10
760.687012
 20
127.883331
 30
0.0
 40
3.5
210
0.0
220
0.0
230
1.0
  0
CIRCLE
  5
290
100
AcDbEntity
  8
0
370
    35
390
0
 62
     7
100
AcDbCircle
 10
860.687012
 20
127.883331
 30
0.0
 40
3.5
210
0.0
220
0.0
230
1.0
  0
CIRCLE
  5
291
100
AcDbEntity
  8
0
370
    35
390
0
 62
     7
100
AcDbCircle
 10
960.687012
 20
127.883331
 30
0.0
 40
3.5
210
0.0
220
0.0
230
1.0
  0
CIRCLE
  5
292
100
AcDbEntity
  8
0
370
    35
390
0
 62
     7
100
AcDbCircle
 10
1060.687012
 20
127.883331
 30
0.0
 40
3.5
210
0.0
220
0.0
230
1.0
  0
CIRCLE
  5
293
100
AcDbEntity
  8
0
370
    35
390
0
 62
     7
100
AcDbCircle
 10
1160.687012
 20
127.883331
 30
0.0
 40
3.5
210
0.0
220
0.0
230
1.0
  0
CIRCLE
  5
294
100
AcDbEntity
  8
0
370
    35
390
0
 62
     7
100
AcDbCircle
 10
1260.687012
 20
127.883331
 30
0.0
 40
3.5
210
0.0
220
0.0
230
1.0
  0
CIRCLE
  5
295
100
AcDbEntity
  8
0
370
    35
390
0
 62
     7
100
AcDbCircle
 10
1360.687012
 20
127.883331
 30
0.0
 40
3.5
210
0.0
220
0.0
230
1.0
  0
CIRCLE
  5
296
100
AcDbEntity
  8
0
370
    35
390
0
 62
     7
100
AcDbCircle
 10
1460.687012
 20
127.883331
 30
0.0
 40
3.5
210
0.0
220
0.0
230
1.0
  0
CIRCLE
  5
297
100
AcDbEntity
  8
0
370
    35
390
0
 62
     7
100
AcDbCircle
 10
1560.687012
 20
127.883331
 30
0.0
 40
3.5
210
0.0
220
0.0
230
1.0
  0
CIRCLE
  5
298
100
AcDbEntity
  8
0
370
    35
390
0
 62
     7
100
AcDbCircle
 10
1760.687012
 20
127.883331
 30
0.0
 40
3.5
210
0.0
220
0.0
230
1.0
  0
CIRCLE
  5
299
100
AcDbEntity
  8
0
370
    35
390
0
 62
     7
100
AcDbCircle
 10
410.687042
 20
150.183334
 30
0.0
 40
3.35
210
0.0
220
0.0
230
1.0
  0
CIRCLE
  5
29A
100
AcDbEntity
  8
0
370
    35
390
0
 62
     7
100
AcDbCircle
 10
310.687042
 20
150.183334
 30
0.0
 40
3.35
210
0.0
220
0.0
230
1.0
  0
CIRCLE
  5
29B
100
AcDbEntity
  8
0
370
    35
390
0
 62
     7
100
AcDbCircle
 10
210.687042
 20
150.183334
 30
0.0
 40
3.35
210
0.0
220
0.0
230
1.0
  0
LINE
  5
29C
100
AcDbEntity
  8
0
370
    35
390
0
 62
     7
100
AcDbLine
 10
128.687042
 20
162.183334
 30
0.0
 11
1792.687012
 21
162.183334
 31
0.0
210
0.0
220
0.0
230
1.0
  0
LINE
  5
29D
100
AcDbEntity
  8
0
370
    35
390
0
 62
     7
 48
0.1
100
AcDbLine
 10
1712.187012
 20
127.683334
 30
0.0
 11
1712.187012
 21
123.683334
 31
0.0
210
0.0
220
0.0
230
1.0
  0
ARC
  5
29E
100
AcDbEntity
  8
0
370
    35
390
0
 62
     7
100
AcDbCircle
 10
1712.687012
 20
127.683334
 30
0.0
 40
0.5
210
0.0
220
0.0
230
1.0
100
AcDbArc
 50
90.000003
 51
180.000005
  0
LINE
  5
29F
100
AcDbEntity
  8
0
370
    35
390
0
 62
     7
 48
0.175
100
AcDbLine
 10
1712.687012
 20
128.183334
 30
0.0
 11
1719.687012
 21
128.183334
 31
0.0
210
0.0
220
0.0
230
1.0
  0
ARC
  5
2A0
100
AcDbEntity
  8
0
370
    35
390
0
 62
     7
100
AcDbCircle
 10
1719.687012
 20
127.683334
 30
0.0
 40
0.5
210
0.0
220
0.0
230
1.0
100
AcDbArc
 50
0.0
 51
90.000003
  0
LINE
  5
2A1
100
AcDbEntity
  8
0
370
    35
390
0
 62
     7
 48
0.1
100
AcDbLine
 10
1720.187012
 20
123.683334
 30
0.0
 11
1720.187012
 21
127.683334
 31
0.0
210
0.0
220
0.0
230
1.0
  0
ARC
  5
2A2
100
AcDbEntity
  8
0
370
    35
390
0
 62
     7
100
AcDbCircle
 10
1719.687012
 20
123.683334
 30
0.0
 40
0.5
210
0.0
220
0.0
230
1.0
100
AcDbArc
 50
269.999997
 51
360.0
  0
LINE
  5
2A3
100
AcDbEntity
  8
0
370
    35
390
0
 62
     7
 48
0.175
100
AcDbLine
 10
1719.687012
 20
123.183334
 30
0.0
 11
1712.687012
 21
123.183334
 31
0.0
210
0.0
220
0.0
230
1.0
  0
ARC
  5
2A4
100
AcDbEntity
  8
0
370
    35
390
0
 62
     7
100
AcDbCircle
 10
1712.687012
 20
123.683334
 30
0.0
 40
0.5
210
0.0
220
0.0
230
1.0
100
AcDbArc
 50
180.000005
 51
269.999997
  0
LINE
  5
2A5
100
AcDbEntity
  8
0
370
    35
390
0
 62
     7
 48
0.1
100
AcDbLine
 10
172.187042
 20
127.683334
 30
0.0
 11
172.187042
 21
123.683334
 31
0.0
210
0.0
220
0.0
230
1.0
  0
ARC
  5
2A6
100
AcDbEntity
  8
0
370
    35
390
0
 62
     7
100
AcDbCircle
 10
172.687042
 20
127.683334
 30
0.0
 40
0.5
210
0.0
220
0.0
230
1.0
100
AcDbArc
 50
90.000003
 51
180.000005
  0
LINE
  5
2A7
100
AcDbEntity
  8
0
370
    35
390
0
 62
     7
 48
0.175
100
AcDbLine
 10
172.687042
 20
128.183334
 30
0.0
 11
179.687042
 21
128.183334
 31
0.0
210
0.0
220
0.0
230
1.0
  0
ARC
  5
2A8
100
AcDbEntity
  8
0
370
    35
390
0
 62
     7
100
AcDbCircle
 10
179.687042
 20
127.683334
 30
0.0
 40
0.5
210
0.0
220
0.0
230
1.0
100
AcDbArc
 50
0.0
 51
90.000003
  0
LINE
  5
2A9
100
AcDbEntity
  8
0
370
    35
390
0
 62
     7
 48
0.1
100
AcDbLine
 10
180.187042
 20
123.683334
 30
0.0
 11
180.187042
 21
127.683334
 31
0.0
210
0.0
220
0.0
230
1.0
  0
ARC
  5
2AA
100
AcDbEntity
  8
0
370
    35
390
0
 62
     7
100
AcDbCircle
 10
179.687042
 20
123.683334
 30
0.0
 40
0.5
210
0.0
220
0.0
230
1.0
100
AcDbArc
 50
269.999997
 51
360.0
  0
LINE
  5
2AB
100
AcDbEntity
  8
0
370
    35
390
0
 62
     7
 48
0.175
100
AcDbLine
 10
179.687042
 20
123.183334
 30
0.0
 11
172.687042
 21
123.183334
 31
0.0
210
0.0
220
0.0
230
1.0
  0
ARC
  5
2AC
100
AcDbEntity
  8
0
370
    35
390
0
 62
     7
100
AcDbCircle
 10
172.687042
 20
123.683334
 30
0.0
 40
0.5
210
0.0
220
0.0
230
1.0
100
AcDbArc
 50
180.000005
 51
269.999997
  0
LINE
  5
2AD
100
AcDbEntity
  8
0
370
    35
390
0
 62
     7
 48
0.005
100
AcDbLine
 10
1794.187012
 20
165.383331
 30
0.0
 11
1794.187012
 21
165.183334
 31
0.0
210
0.0
220
0.0
230
1.0
  0
LINE
  5
2AE
100
AcDbEntity
  8
0
370
    35
390
0
 62
     7
 48
0.0075
100
AcDbLine
 10
1794.187012
 20
165.683334
 30
0.0
 11
1794.187012
 21
165.383331
 31
0.0
210
0.0
220
0.0
230
1.0
  0
LINE
  5
2AF
100
AcDbEntity
  8
0
370
    35
390
0
 62
     7
 48
0.005
100
AcDbLine
 10
127.187042
 20
165.383331
 30
0.0
 11
127.187042
 21
165.183334
 31
0.0
210
0.0
220
0.0
230
1.0
  0
LINE
  5
2B0
100
AcDbEntity
  8
0
370
    35
390
0
 62
     7
 48
0.0075
100
AcDbLine
 10
127.187042
 20
165.683334
 30
0.0
 11
127.187042
 21
165.383331
 31
0.0
210
0.0
220
0.0
230
1.0
  0
LINE
  5
2B1
100
AcDbEntity
  8
0
370
    35
390
0
 62
     7
100
AcDbLine
 10
128.687042
 20
120.183334
 30
0.0
 11
1792.687012
 21
120.183334
 31
0.0
210
0.0
220
0.0
230
1.0
  0
LINE
  5
2B2
100
AcDbEntity
  8
0
370
    35
390
0
 62
     7
 48
0.099341
100
AcDbLine
 10
1718.053589
 20
127.2985
 30
0.0
 11
1716.368164
 21
123.70002
 31
0.0
210
0.0
220
0.0
230
1.0
  0
ARC
  5
2B3
100
AcDbEntity
  8
0
370
    35
390
0
 62
     7
100
AcDbCircle
 10
1716.187012
 20
123.784851
 30
0.0
 40
0.2
210
0.0
220
0.0
230
1.0
100
AcDbArc
 50
205.097648
 51
334.902357
  0
LINE
  5
2B4
100
AcDbEntity
  8
0
370
    35
390
0
 62
     7
 48
0.099341
100
AcDbLine
 10
1714.320435
 20
127.2985
 30
0.0
 11
1716.005859
 21
123.70002
 31
0.0
210
0.0
220
0.0
230
1.0
  0
ARC
  5
2B5
100
AcDbEntity
  8
0
370
    35
390
0
 62
     7
100
AcDbCircle
 10
1714.501587
 20
127.383331
 30
0.0
 40
0.2
210
0.0
220
0.0
230
1.0
100
AcDbArc
 50
90.000003
 51
205.097648
  0
LINE
  5
2B6
100
AcDbEntity
  8
0
370
    35
390
0
 62
     7
 48
0.084271
100
AcDbLine
 10
1717.872437
 20
127.583336
 30
0.0
 11
1714.501587
 21
127.583336
 31
0.0
210
0.0
220
0.0
230
1.0
  0
ARC
  5
2B7
100
AcDbEntity
  8
0
370
    35
390
0
 62
     7
100
AcDbCircle
 10
1717.872437
 20
127.383331
 30
0.0
 40
0.2
210
0.0
220
0.0
230
1.0
100
AcDbArc
 50
334.902357
 51
90.000003
  0
LINE
  5
2B8
100
AcDbEntity
  8
0
370
    35
390
0
 62
     7
 48
0.099341
100
AcDbLine
 10
178.053635
 20
127.2985
 30
0.0
 11
176.368164
 21
123.70002
 31
0.0
210
0.0
220
0.0
230
1.0
  0
ARC
  5
2B9
100
AcDbEntity
  8
0
370
    35
390
0
 62
     7
100
AcDbCircle
 10
176.187042
 20
123.784851
 30
0.0
 40
0.2
210
0.0
220
0.0
230
1.0
100
AcDbArc
 50
205.097648
 51
334.902357
  0
LINE
  5
2BA
100
AcDbEntity
  8
0
370
    35
390
0
 62
     7
 48
0.099341
100
AcDbLine
 10
174.32045
 20
127.2985
 30
0.0
 11
176.00592
 21
123.70002
 31
0.0
210
0.0
220
0.0
230
1.0
  0
ARC
  5
2BB
100
AcDbEntity
  8
0
370
    35
390
0
 62
     7
100
AcDbCircle
 10
174.501572
 20
127.383331
 30
0.0
 40
0.2
210
0.0
220
0.0
230
1.0
100
AcDbArc
 50
90.000003
 51
205.097648
  0
LINE
  5
2BC
100
AcDbEntity
  8
0
370
    35
390
0
 62
     7
 48
0.084274
100
AcDbLine
 10
177.872513
 20
127.583336
 30
0.0
 11
174.501572
 21
127.583336
 31
0.0
210
0.0
220
0.0
230
1.0
  0
ARC
  5
2BD
100
AcDbEntity
  8
0
370
    35
390
0
 62
     7
100
AcDbCircle
 10
177.872513
 20
127.383331
 30
0.0
 40
0.2
210
0.0
220
0.0
230
1.0
100
AcDbArc
 50
334.902357
 51
90.000003
  0
LINE
  5
2BE
100
AcDbEntity
  8
0
370
    35
390
0
 62
     7
100
AcDbLine
 10
127.187042
 20
165.683334
 30
0.0
 11
1794.187012
 21
165.683334
 31
0.0
210
0.0
220
0.0
230
1.0
  0
LINE
  5
2BF
100
AcDbEntity
  8
0
370
    35
390
0
 62
     7
 48
0.1625
100
AcDbLine
 10
1799.187012
 20
165.183334
 30
0.0
 11
1792.687012
 21
165.183334
 31
0.0
210
0.0
220
0.0
230
1.0
  0
LINE
  5
2C0
100
AcDbEntity
  8
0
370
    35
390
0
 62
     7
 48
0.067678
100
AcDbLine
 10
1799.687012
 20
161.976227
 30
0.0
 11
1799.687012
 21
164.683334
 31
0.0
210
0.0
220
0.0
230
1.0
  0
LINE
  5
2C1
100
AcDbEntity
  8
0
370
    35
390
0
 62
     7
100
AcDbLine
 10
1799.687012
 20
161.976227
 30
0.0
 11
1799.687012
 21
119.390442
 31
0.0
210
0.0
220
0.0
230
1.0
  0
LINE
  5
2C2
100
AcDbEntity
  8
0
370
    35
390
0
 62
     7
 48
0.067678
100
AcDbLine
 10
1799.687012
 20
119.390442
 30
0.0
 11
1799.687012
 21
116.683334
 31
0.0
210
0.0
220
0.0
230
1.0
  0
LINE
  5
2C3
100
AcDbEntity
  8
0
370
    35
390
0
 62
     7
100
AcDbLine
 10
128.687042
 20
116.183334
 30
0.0
 11
1792.687012
 21
116.183334
 31
0.0
210
0.0
220
0.0
230
1.0
  0
LINE
  5
2C4
100
AcDbEntity
  8
0
370
    35
390
0
 62
     7
 48
0.1625
100
AcDbLine
 10
122.187042
 20
116.183334
 30
0.0
 11
128.687042
 21
116.183334
 31
0.0
210
0.0
220
0.0
230
1.0
  0
LINE
  5
2C5
100
AcDbEntity
  8
0
370
    35
390
0
 62
     7
 48
0.1625
100
AcDbLine
 10
1799.187012
 20
116.183334
 30
0.0
 11
1792.687012
 21
116.183334
 31
0.0
210
0.0
220
0.0
230
1.0
  0
LINE
  5
2C6
100
AcDbEntity
  8
0
370
    35
390
0
 62
     7
 48
0.1625
100
AcDbLine
 10
122.187042
 20
165.183334
 30
0.0
 11
128.687042
 21
165.183334
 31
0.0
210
0.0
220
0.0
230
1.0
  0
LINE
  5
2C7
100
AcDbEntity
  8
0
370
    35
390
0
 62
     7
 48
0.067678
100
AcDbLine
 10
121.687042
 20
119.390442
 30
0.0
 11
121.687042
 21
116.683334
 31
0.0
210
0.0
220
0.0
230
1.0
  0
LINE
  5
2C8
100
AcDbEntity
  8
0
370
    35
390
0
 62
     7
100
AcDbLine
 10
121.687042
 20
161.976227
 30
0.0
 11
121.687042
 21
119.390442
 31
0.0
210
0.0
220
0.0
230
1.0
  0
LINE
  5
2C9
100
AcDbEntity
  8
0
370
    35
390
0
 62
     7
 48
0.067678
100
AcDbLine
 10
121.687042
 20
161.976227
 30
0.0
 11
121.687042
 21
164.683334
 31
0.0
210
0.0
220
0.0
230
1.0
  0
LINE
  5
2CA
100
AcDbEntity
  8
0
370
    35
390
0
 62
     7
 48
0.032907
100
AcDbLine
 10
133.487045
 20
120.183334
 30
0.0
 11
133.487045
 21
118.867065
 31
0.0
210
0.0
220
0.0
230
1.0
  0
LINE
  5
2CB
100
AcDbEntity
  8
0
370
    35
390
0
 62
     7
 48
0.12
100
AcDbLine
 10
133.487045
 20
118.867065
 30
0.0
 11
128.687042
 21
118.867065
 31
0.0
210
0.0
220
0.0
230
1.0
  0
LINE
  5
2CC
100
AcDbEntity
  8
0
370
    35
390
0
 62
     7
 48
0.028081
100
AcDbLine
 10
1787.886963
 20
119.060081
 30
0.0
 11
1787.886963
 21
120.183334
 31
0.0
210
0.0
220
0.0
230
1.0
  0
LINE
  5
2CD
100
AcDbEntity
  8
0
370
    35
390
0
 62
     7
 48
0.004825
100
AcDbLine
 10
1787.886963
 20
118.867065
 30
0.0
 11
1787.886963
 21
119.060081
 31
0.0
210
0.0
220
0.0
230
1.0
  0
LINE
  5
2CE
100
AcDbEntity
  8
0
370
    35
390
0
 62
     7
 48
0.003661
100
AcDbLine
 10
1792.687012
 20
116.183334
 30
0.0
 11
1792.687012
 21
116.329781
 31
0.0
210
0.0
220
0.0
230
1.0
  0
LINE
  5
2CF
100
AcDbEntity
  8
0
370
    35
390
0
 62
     7
 48
0.067678
100
AcDbLine
 10
1792.687012
 20
116.329781
 30
0.0
 11
1792.687012
 21
119.036888
 31
0.0
210
0.0
220
0.0
230
1.0
  0
LINE
  5
2D0
100
AcDbEntity
  8
0
370
    35
390
0
 62
     7
 48
0.008839
100
AcDbLine
 10
1792.687012
 20
119.036888
 30
0.0
 11
1792.687012
 21
119.390442
 31
0.0
210
0.0
220
0.0
230
1.0
  0
LINE
  5
2D1
100
AcDbEntity
  8
0
370
    35
390
0
 62
     7
100
AcDbLine
 10
1792.687012
 20
119.390442
 30
0.0
 11
1792.687012
 21
161.976227
 31
0.0
210
0.0
220
0.0
230
1.0
  0
LINE
  5
2D2
100
AcDbEntity
  8
0
370
    35
390
0
 62
     7
 48
0.008839
100
AcDbLine
 10
1792.687012
 20
161.976227
 30
0.0
 11
1792.687012
 21
162.329773
 31
0.0
210
0.0
220
0.0
230
1.0
  0
LINE
  5
2D3
100
AcDbEntity
  8
0
370
    35
390
0
 62
     7
 48
0.067678
100
AcDbLine
 10
1792.687012
 20
162.329773
 30
0.0
 11
1792.687012
 21
165.036896
 31
0.0
210
0.0
220
0.0
230
1.0
  0
LINE
  5
2D4
100
AcDbEntity
  8
0
370
    35
390
0
 62
     7
 48
0.003661
100
AcDbLine
 10
1792.687012
 20
165.036896
 30
0.0
 11
1792.687012
 21
165.183334
 31
0.0
210
0.0
220
0.0
230
1.0
  0
LINE
  5
2D5
100
AcDbEntity
  8
0
370
    35
390
0
 62
     7
 48
0.003661
100
AcDbLine
 10
128.687042
 20
165.036896
 30
0.0
 11
128.687042
 21
165.183334
 31
0.0
210
0.0
220
0.0
230
1.0
  0
LINE
  5
2D6
100
AcDbEntity
  8
0
370
    35
390
0
 62
     7
 48
0.067678
100
AcDbLine
 10
128.687042
 20
162.329773
 30
0.0
 11
128.687042
 21
165.036896
 31
0.0
210
0.0
220
0.0
230
1.0
  0
LINE
  5
2D7
100
AcDbEntity
  8
0
370
    35
390
0
 62
     7
 48
0.008839
100
AcDbLine
 10
128.687042
 20
161.976227
 30
0.0
 11
128.687042
 21
162.329773
 31
0.0
210
0.0
220
0.0
230
1.0
  0
LINE
  5
2D8
100
AcDbEntity
  8
0
370
    35
390
0
 62
     7
100
AcDbLine
 10
128.687042
 20
119.390442
 30
0.0
 11
128.687042
 21
161.976227
 31
0.0
210
0.0
220
0.0
230
1.0
  0
LINE
  5
2D9
100
AcDbEntity
  8
0
370
    35
390
0
 62
     7
 48
0.008839
100
AcDbLine
 10
128.687042
 20
119.036888
 30
0.0
 11
128.687042
 21
119.390442
 31
0.0
210
0.0
220
0.0
230
1.0
  0
LINE
  5
2DA
100
AcDbEntity
  8
0
370
    35
390
0
 62
     7
 48
0.067678
100
AcDbLine
 10
128.687042
 20
116.329781
 30
0.0
 11
128.687042
 21
119.036888
 31
0.0
210
0.0
220
0.0
230
1.0
  0
LINE
  5
2DB
100
AcDbEntity
  8
0
370
    35
390
0
 62
     7
 48
0.003661
100
AcDbLine
 10
128.687042
 20
116.183334
 30
0.0
 11
128.687042
 21
116.329781
 31
0.0
210
0.0
220
0.0
230
1.0
  0
CIRCLE
  5
2DC
100
AcDbEntity
  8
0
370
    35
390
0
 62
     7
100
AcDbCircle
 10
1660.687012
 20
127.883331
 30
0.0
 40
3.0
210
0.0
220
0.0
230
1.0
  0
CIRCLE
  5
2DD
100
AcDbEntity
  8
0
370
    35
390
0
 62
     7
100
AcDbCircle
 10
510.687042
 20
150.183334
 30
0.0
 40
3.0
210
0.0
220
0.0
230
1.0
  0
CIRCLE
  5
2DE
100
AcDbEntity
  8
0
370
    35
390
0
 62
     7
100
AcDbCircle
 10
610.687012
 20
150.183334
 30
0.0
 40
3.0
210
0.0
220
0.0
230
1.0
  0
CIRCLE
  5
2DF
100
AcDbEntity
  8
0
370
    35
390
0
 62
     7
100
AcDbCircle
 10
710.687012
 20
150.183334
 30
0.0
 40
3.0
210
0.0
220
0.0
230
1.0
  0
CIRCLE
  5
2E0
100
AcDbEntity
  8
0
370
    35
390
0
 62
     7
100
AcDbCircle
 10
810.687012
 20
150.183334
 30
0.0
 40
3.0
210
0.0
220
0.0
230
1.0
  0
CIRCLE
  5
2E1
100
AcDbEntity
  8
0
370
    35
390
0
 62
     7
100
AcDbCircle
 10
910.687012
 20
150.183334
 30
0.0
 40
3.0
210
0.0
220
0.0
230
1.0
  0
CIRCLE
  5
2E2
100
AcDbEntity
  8
0
370
    35
390
0
 62
     7
100
AcDbCircle
 10
1010.687012
 20
150.183334
 30
0.0
 40
3.0
210
0.0
220
0.0
230
1.0
  0
CIRCLE
  5
2E3
100
AcDbEntity
  8
0
370
    35
390
0
 62
     7
100
AcDbCircle
 10
1110.687012
 20
150.183334
 30
0.0
 40
3.0
210
0.0
220
0.0
230
1.0
  0
CIRCLE
  5
2E4
100
AcDbEntity
  8
0
370
    35
390
0
 62
     7
100
AcDbCircle
 10
1210.687012
 20
150.183334
 30
0.0
 40
3.0
210
0.0
220
0.0
230
1.0
  0
CIRCLE
  5
2E5
100
AcDbEntity
  8
0
370
    35
390
0
 62
     7
100
AcDbCircle
 10
1310.687012
 20
150.183334
 30
0.0
 40
3.0
210
0.0
220
0.0
230
1.0
  0
CIRCLE
  5
2E6
100
AcDbEntity
  8
0
370
    35
390
0
 62
     7
100
AcDbCircle
 10
1410.687012
 20
150.183334
 30
0.0
 40
3.0
210
0.0
220
0.0
230
1.0
  0
CIRCLE
  5
2E7
100
AcDbEntity
  8
0
370
    35
390
0
 62
     7
100
AcDbCircle
 10
1510.687012
 20
150.183334
 30
0.0
 40
3.0
210
0.0
220
0.0
230
1.0
  0
CIRCLE
  5
2E8
100
AcDbEntity
  8
0
370
    35
390
0
 62
     7
100
AcDbCircle
 10
1610.687012
 20
150.183334
 30
0.0
 40
3.0
210
0.0
220
0.0
230
1.0
  0
CIRCLE
  5
2E9
100
AcDbEntity
  8
0
370
    35
390
0
 62
     7
100
AcDbCircle
 10
1710.687012
 20
150.183334
 30
0.0
 40
3.0
210
0.0
220
0.0
230
1.0
  0
CIRCLE
  5
2EA
100
AcDbEntity
  8
0
370
    35
390
0
 62
     7
100
AcDbCircle
 10
141.687042
 20
150.183334
 30
0.0
 40
3.0
210
0.0
220
0.0
230
1.0
  0
CIRCLE
  5
2EB
100
AcDbEntity
  8
0
370
    35
390
0
 62
     7
100
AcDbCircle
 10
1779.687012
 20
150.183334
 30
0.0
 40
3.0
210
0.0
220
0.0
230
1.0
  0
CIRCLE
  5
2EC
100
AcDbEntity
  8
0
370
    35
390
0
 62
     7
100
AcDbCircle
 10
160.687042
 20
127.883331
 30
0.0
 40
3.0
210
0.0
220
0.0
230
1.0
  0
CIRCLE
  5
2ED
100
AcDbEntity
  8
0
370
    35
390
0
 62
     7
100
AcDbCircle
 10
260.687042
 20
127.883331
 30
0.0
 40
3.0
210
0.0
220
0.0
230
1.0
  0
CIRCLE
  5
2EE
100
AcDbEntity
  8
0
370
    35
390
0
 62
     7
100
AcDbCircle
 10
360.687042
 20
127.883331
 30
0.0
 40
3.0
210
0.0
220
0.0
230
1.0
  0
CIRCLE
  5
2EF
100
AcDbEntity
  8
0
370
    35
390
0
 62
     7
100
AcDbCircle
 10
460.687042
 20
127.883331
 30
0.0
 40
3.0
210
0.0
220
0.0
230
1.0
  0
CIRCLE
  5
2F0
100
AcDbEntity
  8
0
370
    35
390
0
 62
     7
100
AcDbCircle
 10
560.687012
 20
127.883331
 30
0.0
 40
3.0
210
0.0
220
0.0
230
1.0
  0
CIRCLE
  5
2F1
100
AcDbEntity
  8
0
370
    35
390
0
 62
     7
100
AcDbCircle
 10
660.687012
 20
127.883331
 30
0.0
 40
3.0
210
0.0
220
0.0
230
1.0
  0
CIRCLE
  5
2F2
100
AcDbEntity
  8
0
370
    35
390
0
 62
     7
100
AcDbCircle
 10
760.687012
 20
127.883331
 30
0.0
 40
3.0
210
0.0
220
0.0
230
1.0
  0
CIRCLE
  5
2F3
100
AcDbEntity
  8
0
370
    35
390
0
 62
     7
100
AcDbCircle
 10
860.687012
 20
127.883331
 30
0.0
 40
3.0
210
0.0
220
0.0
230
1.0
  0
CIRCLE
  5
2F4
100
AcDbEntity
  8
0
370
    35
390
0
 62
     7
100
AcDbCircle
 10
960.687012
 20
127.883331
 30
0.0
 40
3.0
210
0.0
220
0.0
230
1.0
  0
CIRCLE
  5
2F5
100
AcDbEntity
  8
0
370
    35
390
0
 62
     7
100
AcDbCircle
 10
1060.687012
 20
127.883331
 30
0.0
 40
3.0
210
0.0
220
0.0
230
1.0
  0
CIRCLE
  5
2F6
100
AcDbEntity
  8
0
370
    35
390
0
 62
     7
100
AcDbCircle
 10
1160.687012
 20
127.883331
 30
0.0
 40
3.0
210
0.0
220
0.0
230
1.0
  0
CIRCLE
  5
2F7
100
AcDbEntity
  8
0
370
    35
390
0
 62
     7
100
AcDbCircle
 10
1260.687012
 20
127.883331
 30
0.0
 40
3.0
210
0.0
220
0.0
230
1.0
  0
CIRCLE
  5
2F8
100
AcDbEntity
  8
0
370
    35
390
0
 62
     7
100
AcDbCircle
 10
1360.687012
 20
127.883331
 30
0.0
 40
3.0
210
0.0
220
0.0
230
1.0
  0
CIRCLE
  5
2F9
100
AcDbEntity
  8
0
370
    35
390
0
 62
     7
100
AcDbCircle
 10
1460.687012
 20
127.883331
 30
0.0
 40
3.0
210
0.0
220
0.0
230
1.0
  0
CIRCLE
  5
2FA
100
AcDbEntity
  8
0
370
    35
390
0
 62
     7
100
AcDbCircle
 10
1560.687012
 20
127.883331
 30
0.0
 40
3.0
210
0.0
220
0.0
230
1.0
  0
CIRCLE
  5
2FB
100
AcDbEntity
  8
0
370
    35
390
0
 62
     7
100
AcDbCircle
 10
1760.687012
 20
127.883331
 30
0.0
 40
3.0
210
0.0
220
0.0
230
1.0
  0
CIRCLE
  5
2FC
100
AcDbEntity
  8
0
370
    35
390
0
 62
     7
100
AcDbCircle
 10
410.687042
 20
150.183334
 30
0.0
 40
3.0
210
0.0
220
0.0
230
1.0
  0
CIRCLE
  5
2FD
100
AcDbEntity
  8
0
370
    35
390
0
 62
     7
100
AcDbCircle
 10
310.687042
 20
150.183334
 30
0.0
 40
3.0
210
0.0
220
0.0
230
1.0
  0
CIRCLE
  5
2FE
100
AcDbEntity
  8
0
370
    35
390
0
 62
     7
100
AcDbCircle
 10
210.687042
 20
150.183334
 30
0.0
 40
3.0
210
0.0
220
0.0
230
1.0
  0
ARC
  5
2FF
100
AcDbEntity
  8
0
370
    35
390
0
 62
     7
100
AcDbCircle
 10
1799.187012
 20
164.683334
 30
0.0
 40
0.5
210
0.0
220
0.0
230
1.0
100
AcDbArc
 50
0.0
 51
90.000003
  0
ARC
  5
300
100
AcDbEntity
  8
0
370
    35
390
0
 62
     7
100
AcDbCircle
 10
1799.187012
 20
116.683334
 30
0.0
 40
0.5
210
0.0
220
0.0
230
1.0
100
AcDbArc
 50
269.999997
 51
360.0
  0
ARC
  5
301
100
AcDbEntity
  8
0
370
    35
390
0
 62
     7
100
AcDbCircle
 10
122.187042
 20
116.683334
 30
0.0
 40
0.5
210
0.0
220
0.0
230
1.0
100
AcDbArc
 50
180.000005
 51
269.999997
  0
ARC
  5
302
100
AcDbEntity
  8
0
370
    35
390
0
 62
     7
100
AcDbCircle
 10
122.187042
 20
164.683334
 30
0.0
 40
0.5
210
0.0
220
0.0
230
1.0
100
AcDbArc
 50
90.000003
 51
180.000005
  0
LINE
  5
303
100
AcDbEntity
  8
0
370
    35
390
0
 62
     7
 48
0.120001
100
AcDbLine
 10
1787.886963
 20
118.867065
 30
0.0
 11
1792.687012
 21
118.867065
 31
0.0
210
0.0
220
0.0
230
1.0
  0
LINE
  5
304
100
AcDbEntity
  8
0
370
    35
390
0
 62
     7
 48
0.02
100
AcDbLine
 10
511.087036
 20
151.933334
 30
0.0
 11
510.287048
 21
151.933334
 31
0.0
210
0.0
220
0.0
230
1.0
  0
LINE
  5
305
100
AcDbEntity
  8
0
370
    35
390
0
 62
     7
 48
0.01625
100
AcDbLine
 10
510.287048
 20
151.933334
 30
0.0
 11
510.287048
 21
151.28334
 31
0.0
210
0.0
220
0.0
230
1.0
  0
ARC
  5
306
100
AcDbEntity
  8
0
370
    35
390
0
 62
     7
100
AcDbCircle
 10
509.587036
 20
151.28334
 30
0.0
 40
0.7
210
0.0
220
0.0
230
1.0
100
AcDbArc
 50
269.999997
 51
360.0
  0
LINE
  5
307
100
AcDbEntity
  8
0
370
    35
390
0
 62
     7
 48
0.01625
100
AcDbLine
 10
509.587036
 20
150.583328
 30
0.0
 11
508.937042
 21
150.583328
 31
0.0
210
0.0
220
0.0
230
1.0
  0
LINE
  5
308
100
AcDbEntity
  8
0
370
    35
390
0
 62
     7
 48
0.02
100
AcDbLine
 10
508.937042
 20
150.583328
 30
0.0
 11
508.937042
 21
149.78334
 31
0.0
210
0.0
220
0.0
230
1.0
  0
LINE
  5
309
100
AcDbEntity
  8
0
370
    35
390
0
 62
     7
 48
0.01625
100
AcDbLine
 10
508.937042
 20
149.78334
 30
0.0
 11
509.587036
 21
149.78334
 31
0.0
210
0.0
220
0.0
230
1.0
  0
ARC
  5
30A
100
AcDbEntity
  8
0
370
    35
390
0
 62
     7
100
AcDbCircle
 10
509.587036
 20
149.083328
 30
0.0
 40
0.7
210
0.0
220
0.0
230
1.0
100
AcDbArc
 50
0.0
 51
90.000003
  0
LINE
  5
30B
100
AcDbEntity
  8
0
370
    35
390
0
 62
     7
 48
0.01625
100
AcDbLine
 10
510.287048
 20
149.083328
 30
0.0
 11
510.287048
 21
148.433334
 31
0.0
210
0.0
220
0.0
230
1.0
  0
LINE
  5
30C
100
AcDbEntity
  8
0
370
    35
390
0
 62
     7
 48
0.02
100
AcDbLine
 10
510.287048
 20
148.433334
 30
0.0
 11
511.087036
 21
148.433334
 31
0.0
210
0.0
220
0.0
230
1.0
  0
LINE
  5
30D
100
AcDbEntity
  8
0
370
    35
390
0
 62
     7
 48
0.01625
100
AcDbLine
 10
511.087036
 20
148.433334
 30
0.0
 11
511.087036
 21
149.083328
 31
0.0
210
0.0
220
0.0
230
1.0
  0
ARC
  5
30E
100
AcDbEntity
  8
0
370
    35
390
0
 62
     7
100
AcDbCircle
 10
511.787048
 20
149.083328
 30
0.0
 40
0.7
210
0.0
220
0.0
230
1.0
100
AcDbArc
 50
90.000003
 51
180.000005
  0
LINE
  5
30F
100
AcDbEntity
  8
0
370
    35
390
0
 62
     7
 48
0.016249
100
AcDbLine
 10
511.787048
 20
149.78334
 30
0.0
 11
512.437012
 21
149.78334
 31
0.0
210
0.0
220
0.0
230
1.0
  0
LINE
  5
310
100
AcDbEntity
  8
0
370
    35
390
0
 62
     7
 48
0.02
100
AcDbLine
 10
512.437012
 20
149.78334
 30
0.0
 11
512.437012
 21
150.583328
 31
0.0
210
0.0
220
0.0
230
1.0
  0
LINE
  5
311
100
AcDbEntity
  8
0
370
    35
390
0
 62
     7
 48
0.016249
100
AcDbLine
 10
512.437012
 20
150.583328
 30
0.0
 11
511.787048
 21
150.583328
 31
0.0
210
0.0
220
0.0
230
1.0
  0
ARC
  5
312
100
AcDbEntity
  8
0
370
    35
390
0
 62
     7
100
AcDbCircle
 10
511.787048
 20
151.28334
 30
0.0
 40
0.7
210
0.0
220
0.0
230
1.0
100
AcDbArc
 50
180.000005
 51
269.999997
  0
LINE
  5
313
100
AcDbEntity
  8
0
370
    35
390
0
 62
     7
 48
0.01625
100
AcDbLine
 10
511.087036
 20
151.28334
 30
0.0
 11
511.087036
 21
151.933334
 31
0.0
210
0.0
220
0.0
230
1.0
  0
LINE
  5
314
100
AcDbEntity
  8
0
370
    35
390
0
 62
     7
 48
0.02
100
AcDbLine
 10
611.087036
 20
151.933334
 30
0.0
 11
610.287048
 21
151.933334
 31
0.0
210
0.0
220
0.0
230
1.0
  0
LINE
  5
315
100
AcDbEntity
  8
0
370
    35
390
0
 62
     7
 48
0.01625
100
AcDbLine
 10
610.287048
 20
151.933334
 30
0.0
 11
610.287048
 21
151.28334
 31
0.0
210
0.0
220
0.0
230
1.0
  0
ARC
  5
316
100
AcDbEntity
  8
0
370
    35
390
0
 62
     7
100
AcDbCircle
 10
609.587036
 20
151.28334
 30
0.0
 40
0.7
210
0.0
220
0.0
230
1.0
100
AcDbArc
 50
269.999997
 51
360.0
  0
LINE
  5
317
100
AcDbEntity
  8
0
370
    35
390
0
 62
     7
 48
0.016251
100
AcDbLine
 10
609.587036
 20
150.583328
 30
0.0
 11
608.937012
 21
150.583328
 31
0.0
210
0.0
220
0.0
230
1.0
  0
LINE
  5
318
100
AcDbEntity
  8
0
370
    35
390
0
 62
     7
 48
0.02
100
AcDbLine
 10
608.937012
 20
150.583328
 30
0.0
 11
608.937012
 21
149.78334
 31
0.0
210
0.0
220
0.0
230
1.0
  0
LINE
  5
319
100
AcDbEntity
  8
0
370
    35
390
0
 62
     7
 48
0.016251
100
AcDbLine
 10
608.937012
 20
149.78334
 30
0.0
 11
609.587036
 21
149.78334
 31
0.0
210
0.0
220
0.0
230
1.0
  0
ARC
  5
31A
100
AcDbEntity
  8
0
370
    35
390
0
 62
     7
100
AcDbCircle
 10
609.587036
 20
149.083328
 30
0.0
 40
0.7
210
0.0
220
0.0
230
1.0
100
AcDbArc
 50
0.0
 51
90.000003
  0
LINE
  5
31B
100
AcDbEntity
  8
0
370
    35
390
0
 62
     7
 48
0.01625
100
AcDbLine
 10
610.287048
 20
149.083328
 30
0.0
 11
610.287048
 21
148.433334
 31
0.0
210
0.0
220
0.0
230
1.0
  0
LINE
  5
31C
100
AcDbEntity
  8
0
370
    35
390
0
 62
     7
 48
0.02
100
AcDbLine
 10
610.287048
 20
148.433334
 30
0.0
 11
611.087036
 21
148.433334
 31
0.0
210
0.0
220
0.0
230
1.0
  0
LINE
  5
31D
100
AcDbEntity
  8
0
370
    35
390
0
 62
     7
 48
0.01625
100
AcDbLine
 10
611.087036
 20
148.433334
 30
0.0
 11
611.087036
 21
149.083328
 31
0.0
210
0.0
220
0.0
230
1.0
  0
ARC
  5
31E
100
AcDbEntity
  8
0
370
    35
390
0
 62
     7
100
AcDbCircle
 10
611.787048
 20
149.083328
 30
0.0
 40
0.7
210
0.0
220
0.0
230
1.0
100
AcDbArc
 50
90.000003
 51
180.000005
  0
LINE
  5
31F
100
AcDbEntity
  8
0
370
    35
390
0
 62
     7
 48
0.016249
100
AcDbLine
 10
611.787048
 20
149.78334
 30
0.0
 11
612.437012
 21
149.78334
 31
0.0
210
0.0
220
0.0
230
1.0
  0
LINE
  5
320
100
AcDbEntity
  8
0
370
    35
390
0
 62
     7
 48
0.02
100
AcDbLine
 10
612.437012
 20
149.78334
 30
0.0
 11
612.437012
 21
150.583328
 31
0.0
210
0.0
220
0.0
230
1.0
  0
LINE
  5
321
100
AcDbEntity
  8
0
370
    35
390
0
 62
     7
 48
0.016249
100
AcDbLine
 10
612.437012
 20
150.583328
 30
0.0
 11
611.787048
 21
150.583328
 31
0.0
210
0.0
220
0.0
230
1.0
  0
ARC
  5
322
100
AcDbEntity
  8
0
370
    35
390
0
 62
     7
100
AcDbCircle
 10
611.787048
 20
151.28334
 30
0.0
 40
0.7
210
0.0
220
0.0
230
1.0
100
AcDbArc
 50
180.000005
 51
269.999997
  0
LINE
  5
323
100
AcDbEntity
  8
0
370
    35
390
0
 62
     7
 48
0.01625
100
AcDbLine
 10
611.087036
 20
151.28334
 30
0.0
 11
611.087036
 21
151.933334
 31
0.0
210
0.0
220
0.0
230
1.0
  0
LINE
  5
324
100
AcDbEntity
  8
0
370
    35
390
0
 62
     7
 48
0.020001
100
AcDbLine
 10
711.087036
 20
151.933334
 30
0.0
 11
710.286987
 21
151.933334
 31
0.0
210
0.0
220
0.0
230
1.0
  0
LINE
  5
325
100
AcDbEntity
  8
0
370
    35
390
0
 62
     7
 48
0.01625
100
AcDbLine
 10
710.286987
 20
151.933334
 30
0.0
 11
710.286987
 21
151.28334
 31
0.0
210
0.0
220
0.0
230
1.0
  0
ARC
  5
326
100
AcDbEntity
  8
0
370
    35
390
0
 62
     7
100
AcDbCircle
 10
709.587036
 20
151.28334
 30
0.0
 40
0.7
210
0.0
220
0.0
230
1.0
100
AcDbArc
 50
269.999997
 51
360.0
  0
LINE
  5
327
100
AcDbEntity
  8
0
370
    35
390
0
 62
     7
 48
0.016251
100
AcDbLine
 10
709.587036
 20
150.583328
 30
0.0
 11
708.937012
 21
150.583328
 31
0.0
210
0.0
220
0.0
230
1.0
  0
LINE
  5
328
100
AcDbEntity
  8
0
370
    35
390
0
 62
     7
 48
0.02
100
AcDbLine
 10
708.937012
 20
150.583328
 30
0.0
 11
708.937012
 21
149.78334
 31
0.0
210
0.0
220
0.0
230
1.0
  0
LINE
  5
329
100
AcDbEntity
  8
0
370
    35
390
0
 62
     7
 48
0.016251
100
AcDbLine
 10
708.937012
 20
149.78334
 30
0.0
 11
709.587036
 21
149.78334
 31
0.0
210
0.0
220
0.0
230
1.0
  0
ARC
  5
32A
100
AcDbEntity
  8
0
370
    35
390
0
 62
     7
100
AcDbCircle
 10
709.587036
 20
149.083328
 30
0.0
 40
0.7
210
0.0
220
0.0
230
1.0
100
AcDbArc
 50
0.0
 51
90.000003
  0
LINE
  5
32B
100
AcDbEntity
  8
0
370
    35
390
0
 62
     7
 48
0.01625
100
AcDbLine
 10
710.286987
 20
149.083328
 30
0.0
 11
710.286987
 21
148.433334
 31
0.0
210
0.0
220
0.0
230
1.0
  0
LINE
  5
32C
100
AcDbEntity
  8
0
370
    35
390
0
 62
     7
 48
0.020001
100
AcDbLine
 10
710.286987
 20
148.433334
 30
0.0
 11
711.087036
 21
148.433334
 31
0.0
210
0.0
220
0.0
230
1.0
  0
LINE
  5
32D
100
AcDbEntity
  8
0
370
    35
390
0
 62
     7
 48
0.01625
100
AcDbLine
 10
711.087036
 20
148.433334
 30
0.0
 11
711.087036
 21
149.083328
 31
0.0
210
0.0
220
0.0
230
1.0
  0
ARC
  5
32E
100
AcDbEntity
  8
0
370
    35
390
0
 62
     7
100
AcDbCircle
 10
711.786987
 20
149.083328
 30
0.0
 40
0.7
210
0.0
220
0.0
230
1.0
100
AcDbArc
 50
90.000003
 51
180.000005
  0
LINE
  5
32F
100
AcDbEntity
  8
0
370
    35
390
0
 62
     7
 48
0.016251
100
AcDbLine
 10
711.786987
 20
149.78334
 30
0.0
 11
712.437012
 21
149.78334
 31
0.0
210
0.0
220
0.0
230
1.0
  0
LINE
  5
330
100
AcDbEntity
  8
0
370
    35
390
0
 62
     7
 48
0.02
100
AcDbLine
 10
712.437012
 20
149.78334
 30
0.0
 11
712.437012
 21
150.583328
 31
0.0
210
0.0
220
0.0
230
1.0
  0
LINE
  5
331
100
AcDbEntity
  8
0
370
    35
390
0
 62
     7
 48
0.016251
100
AcDbLine
 10
712.437012
 20
150.583328
 30
0.0
 11
711.786987
 21
150.583328
 31
0.0
210
0.0
220
0.0
230
1.0
  0
ARC
  5
332
100
AcDbEntity
  8
0
370
    35
390
0
 62
     7
100
AcDbCircle
 10
711.786987
 20
151.28334
 30
0.0
 40
0.7
210
0.0
220
0.0
230
1.0
100
AcDbArc
 50
180.000005
 51
269.999997
  0
LINE
  5
333
100
AcDbEntity
  8
0
370
    35
390
0
 62
     7
 48
0.01625
100
AcDbLine
 10
711.087036
 20
151.28334
 30
0.0
 11
711.087036
 21
151.933334
 31
0.0
210
0.0
220
0.0
230
1.0
  0
LINE
  5
334
100
AcDbEntity
  8
0
370
    35
390
0
 62
     7
 48
0.020001
100
AcDbLine
 10
811.087036
 20
151.933334
 30
0.0
 11
810.286987
 21
151.933334
 31
0.0
210
0.0
220
0.0
230
1.0
  0
LINE
  5
335
100
AcDbEntity
  8
0
370
    35
390
0
 62
     7
 48
0.01625
100
AcDbLine
 10
810.286987
 20
151.933334
 30
0.0
 11
810.286987
 21
151.28334
 31
0.0
210
0.0
220
0.0
230
1.0
  0
ARC
  5
336
100
AcDbEntity
  8
0
370
    35
390
0
 62
     7
100
AcDbCircle
 10
809.587036
 20
151.28334
 30
0.0
 40
0.7
210
0.0
220
0.0
230
1.0
100
AcDbArc
 50
269.999997
 51
360.0
  0
LINE
  5
337
100
AcDbEntity
  8
0
370
    35
390
0
 62
     7
 48
0.016251
100
AcDbLine
 10
809.587036
 20
150.583328
 30
0.0
 11
808.937012
 21
150.583328
 31
0.0
210
0.0
220
0.0
230
1.0
  0
LINE
  5
338
100
AcDbEntity
  8
0
370
    35
390
0
 62
     7
 48
0.02
100
AcDbLine
 10
808.937012
 20
150.583328
 30
0.0
 11
808.937012
 21
149.78334
 31
0.0
210
0.0
220
0.0
230
1.0
  0
LINE
  5
339
100
AcDbEntity
  8
0
370
    35
390
0
 62
     7
 48
0.016251
100
AcDbLine
 10
808.937012
 20
149.78334
 30
0.0
 11
809.587036
 21
149.78334
 31
0.0
210
0.0
220
0.0
230
1.0
  0
ARC
  5
33A
100
AcDbEntity
  8
0
370
    35
390
0
 62
     7
100
AcDbCircle
 10
809.587036
 20
149.083328
 30
0.0
 40
0.7
210
0.0
220
0.0
230
1.0
100
AcDbArc
 50
0.0
 51
90.000003
  0
LINE
  5
33B
100
AcDbEntity
  8
0
370
    35
390
0
 62
     7
 48
0.01625
100
AcDbLine
 10
810.286987
 20
149.083328
 30
0.0
 11
810.286987
 21
148.433334
 31
0.0
210
0.0
220
0.0
230
1.0
  0
LINE
  5
33C
100
AcDbEntity
  8
0
370
    35
390
0
 62
     7
 48
0.020001
100
AcDbLine
 10
810.286987
 20
148.433334
 30
0.0
 11
811.087036
 21
148.433334
 31
0.0
210
0.0
220
0.0
230
1.0
  0
LINE
  5
33D
100
AcDbEntity
  8
0
370
    35
390
0
 62
     7
 48
0.01625
100
AcDbLine
 10
811.087036
 20
148.433334
 30
0.0
 11
811.087036
 21
149.083328
 31
0.0
210
0.0
220
0.0
230
1.0
  0
ARC
  5
33E
100
AcDbEntity
  8
0
370
    35
390
0
 62
     7
100
AcDbCircle
 10
811.786987
 20
149.083328
 30
0.0
 40
0.7
210
0.0
220
0.0
230
1.0
100
AcDbArc
 50
90.000003
 51
180.000005
  0
LINE
  5
33F
100
AcDbEntity
  8
0
370
    35
390
0
 62
     7
 48
0.016251
100
AcDbLine
 10
811.786987
 20
149.78334
 30
0.0
 11
812.437012
 21
149.78334
 31
0.0
210
0.0
220
0.0
230
1.0
  0
LINE
  5
340
100
AcDbEntity
  8
0
370
    35
390
0
 62
     7
 48
0.02
100
AcDbLine
 10
812.437012
 20
149.78334
 30
0.0
 11
812.437012
 21
150.583328
 31
0.0
210
0.0
220
0.0
230
1.0
  0
LINE
  5
341
100
AcDbEntity
  8
0
370
    35
390
0
 62
     7
 48
0.016251
100
AcDbLine
 10
812.437012
 20
150.583328
 30
0.0
 11
811.786987
 21
150.583328
 31
0.0
210
0.0
220
0.0
230
1.0
  0
ARC
  5
342
100
AcDbEntity
  8
0
370
    35
390
0
 62
     7
100
AcDbCircle
 10
811.786987
 20
151.28334
 30
0.0
 40
0.7
210
0.0
220
0.0
230
1.0
100
AcDbArc
 50
180.000005
 51
269.999997
  0
LINE
  5
343
100
AcDbEntity
  8
0
370
    35
390
0
 62
     7
 48
0.01625
100
AcDbLine
 10
811.087036
 20
151.28334
 30
0.0
 11
811.087036
 21
151.933334
 31
0.0
210
0.0
220
0.0
230
1.0
  0
LINE
  5
344
100
AcDbEntity
  8
0
370
    35
390
0
 62
     7
 48
0.020001
100
AcDbLine
 10
911.087036
 20
151.933334
 30
0.0
 11
910.286987
 21
151.933334
 31
0.0
210
0.0
220
0.0
230
1.0
  0
LINE
  5
345
100
AcDbEntity
  8
0
370
    35
390
0
 62
     7
 48
0.01625
100
AcDbLine
 10
910.286987
 20
151.933334
 30
0.0
 11
910.286987
 21
151.28334
 31
0.0
210
0.0
220
0.0
230
1.0
  0
ARC
  5
346
100
AcDbEntity
  8
0
370
    35
390
0
 62
     7
100
AcDbCircle
 10
909.587036
 20
151.28334
 30
0.0
 40
0.7
210
0.0
220
0.0
230
1.0
100
AcDbArc
 50
269.999997
 51
360.0
  0
LINE
  5
347
100
AcDbEntity
  8
0
370
    35
390
0
 62
     7
 48
0.016251
100
AcDbLine
 10
909.587036
 20
150.583328
 30
0.0
 11
908.937012
 21
150.583328
 31
0.0
210
0.0
220
0.0
230
1.0
  0
LINE
  5
348
100
AcDbEntity
  8
0
370
    35
390
0
 62
     7
 48
0.02
100
AcDbLine
 10
908.937012
 20
150.583328
 30
0.0
 11
908.937012
 21
149.78334
 31
0.0
210
0.0
220
0.0
230
1.0
  0
LINE
  5
349
100
AcDbEntity
  8
0
370
    35
390
0
 62
     7
 48
0.016251
100
AcDbLine
 10
908.937012
 20
149.78334
 30
0.0
 11
909.587036
 21
149.78334
 31
0.0
210
0.0
220
0.0
230
1.0
  0
ARC
  5
34A
100
AcDbEntity
  8
0
370
    35
390
0
 62
     7
100
AcDbCircle
 10
909.587036
 20
149.083328
 30
0.0
 40
0.7
210
0.0
220
0.0
230
1.0
100
AcDbArc
 50
0.0
 51
90.000003
  0
LINE
  5
34B
100
AcDbEntity
  8
0
370
    35
390
0
 62
     7
 48
0.01625
100
AcDbLine
 10
910.286987
 20
149.083328
 30
0.0
 11
910.286987
 21
148.433334
 31
0.0
210
0.0
220
0.0
230
1.0
  0
LINE
  5
34C
100
AcDbEntity
  8
0
370
    35
390
0
 62
     7
 48
0.020001
100
AcDbLine
 10
910.286987
 20
148.433334
 30
0.0
 11
911.087036
 21
148.433334
 31
0.0
210
0.0
220
0.0
230
1.0
  0
LINE
  5
34D
100
AcDbEntity
  8
0
370
    35
390
0
 62
     7
 48
0.01625
100
AcDbLine
 10
911.087036
 20
148.433334
 30
0.0
 11
911.087036
 21
149.083328
 31
0.0
210
0.0
220
0.0
230
1.0
  0
ARC
  5
34E
100
AcDbEntity
  8
0
370
    35
390
0
 62
     7
100
AcDbCircle
 10
911.786987
 20
149.083328
 30
0.0
 40
0.7
210
0.0
220
0.0
230
1.0
100
AcDbArc
 50
90.000003
 51
180.000005
  0
LINE
  5
34F
100
AcDbEntity
  8
0
370
    35
390
0
 62
     7
 48
0.016251
100
AcDbLine
 10
911.786987
 20
149.78334
 30
0.0
 11
912.437012
 21
149.78334
 31
0.0
210
0.0
220
0.0
230
1.0
  0
LINE
  5
350
100
AcDbEntity
  8
0
370
    35
390
0
 62
     7
 48
0.02
100
AcDbLine
 10
912.437012
 20
149.78334
 30
0.0
 11
912.437012
 21
150.583328
 31
0.0
210
0.0
220
0.0
230
1.0
  0
LINE
  5
351
100
AcDbEntity
  8
0
370
    35
390
0
 62
     7
 48
0.016251
100
AcDbLine
 10
912.437012
 20
150.583328
 30
0.0
 11
911.786987
 21
150.583328
 31
0.0
210
0.0
220
0.0
230
1.0
  0
ARC
  5
352
100
AcDbEntity
  8
0
370
    35
390
0
 62
     7
100
AcDbCircle
 10
911.786987
 20
151.28334
 30
0.0
 40
0.7
210
0.0
220
0.0
230
1.0
100
AcDbArc
 50
180.000005
 51
269.999997
  0
LINE
  5
353
100
AcDbEntity
  8
0
370
    35
390
0
 62
     7
 48
0.01625
100
AcDbLine
 10
911.087036
 20
151.28334
 30
0.0
 11
911.087036
 21
151.933334
 31
0.0
210
0.0
220
0.0
230
1.0
  0
LINE
  5
354
100
AcDbEntity
  8
0
370
    35
390
0
 62
     7
 48
0.020001
100
AcDbLine
 10
1011.087036
 20
151.933334
 30
0.0
 11
1010.286987
 21
151.933334
 31
0.0
210
0.0
220
0.0
230
1.0
  0
LINE
  5
355
100
AcDbEntity
  8
0
370
    35
390
0
 62
     7
 48
0.01625
100
AcDbLine
 10
1010.286987
 20
151.933334
 30
0.0
 11
1010.286987
 21
151.28334
 31
0.0
210
0.0
220
0.0
230
1.0
  0
ARC
  5
356
100
AcDbEntity
  8
0
370
    35
390
0
 62
     7
100
AcDbCircle
 10
1009.587036
 20
151.28334
 30
0.0
 40
0.7
210
0.0
220
0.0
230
1.0
100
AcDbArc
 50
269.999997
 51
360.0
  0
LINE
  5
357
100
AcDbEntity
  8
0
370
    35
390
0
 62
     7
 48
0.016251
100
AcDbLine
 10
1009.587036
 20
150.583328
 30
0.0
 11
1008.937012
 21
150.583328
 31
0.0
210
0.0
220
0.0
230
1.0
  0
LINE
  5
358
100
AcDbEntity
  8
0
370
    35
390
0
 62
     7
 48
0.02
100
AcDbLine
 10
1008.937012
 20
150.583328
 30
0.0
 11
1008.937012
 21
149.78334
 31
0.0
210
0.0
220
0.0
230
1.0
  0
LINE
  5
359
100
AcDbEntity
  8
0
370
    35
390
0
 62
     7
 48
0.016251
100
AcDbLine
 10
1008.937012
 20
149.78334
 30
0.0
 11
1009.587036
 21
149.78334
 31
0.0
210
0.0
220
0.0
230
1.0
  0
ARC
  5
35A
100
AcDbEntity
  8
0
370
    35
390
0
 62
     7
100
AcDbCircle
 10
1009.587036
 20
149.083328
 30
0.0
 40
0.7
210
0.0
220
0.0
230
1.0
100
AcDbArc
 50
0.0
 51
90.000003
  0
LINE
  5
35B
100
AcDbEntity
  8
0
370
    35
390
0
 62
     7
 48
0.01625
100
AcDbLine
 10
1010.286987
 20
149.083328
 30
0.0
 11
1010.286987
 21
148.433334
 31
0.0
210
0.0
220
0.0
230
1.0
  0
LINE
  5
35C
100
AcDbEntity
  8
0
370
    35
390
0
 62
     7
 48
0.020001
100
AcDbLine
 10
1010.286987
 20
148.433334
 30
0.0
 11
1011.087036
 21
148.433334
 31
0.0
210
0.0
220
0.0
230
1.0
  0
LINE
  5
35D
100
AcDbEntity
  8
0
370
    35
390
0
 62
     7
 48
0.01625
100
AcDbLine
 10
1011.087036
 20
148.433334
 30
0.0
 11
1011.087036
 21
149.083328
 31
0.0
210
0.0
220
0.0
230
1.0
  0
ARC
  5
35E
100
AcDbEntity
  8
0
370
    35
390
0
 62
     7
100
AcDbCircle
 10
1011.786987
 20
149.083328
 30
0.0
 40
0.7
210
0.0
220
0.0
230
1.0
100
AcDbArc
 50
90.000003
 51
180.000005
  0
LINE
  5
35F
100
AcDbEntity
  8
0
370
    35
390
0
 62
     7
 48
0.016251
100
AcDbLine
 10
1011.786987
 20
149.78334
 30
0.0
 11
1012.437012
 21
149.78334
 31
0.0
210
0.0
220
0.0
230
1.0
  0
LINE
  5
360
100
AcDbEntity
  8
0
370
    35
390
0
 62
     7
 48
0.02
100
AcDbLine
 10
1012.437012
 20
149.78334
 30
0.0
 11
1012.437012
 21
150.583328
 31
0.0
210
0.0
220
0.0
230
1.0
  0
LINE
  5
361
100
AcDbEntity
  8
0
370
    35
390
0
 62
     7
 48
0.016251
100
AcDbLine
 10
1012.437012
 20
150.583328
 30
0.0
 11
1011.786987
 21
150.583328
 31
0.0
210
0.0
220
0.0
230
1.0
  0
ARC
  5
362
100
AcDbEntity
  8
0
370
    35
390
0
 62
     7
100
AcDbCircle
 10
1011.786987
 20
151.28334
 30
0.0
 40
0.7
210
0.0
220
0.0
230
1.0
100
AcDbArc
 50
180.000005
 51
269.999997
  0
LINE
  5
363
100
AcDbEntity
  8
0
370
    35
390
0
 62
     7
 48
0.01625
100
AcDbLine
 10
1011.087036
 20
151.28334
 30
0.0
 11
1011.087036
 21
151.933334
 31
0.0
210
0.0
220
0.0
230
1.0
  0
LINE
  5
364
100
AcDbEntity
  8
0
370
    35
390
0
 62
     7
 48
0.020001
100
AcDbLine
 10
1111.087036
 20
151.933334
 30
0.0
 11
1110.286987
 21
151.933334
 31
0.0
210
0.0
220
0.0
230
1.0
  0
LINE
  5
365
100
AcDbEntity
  8
0
370
    35
390
0
 62
     7
 48
0.01625
100
AcDbLine
 10
1110.286987
 20
151.933334
 30
0.0
 11
1110.286987
 21
151.28334
 31
0.0
210
0.0
220
0.0
230
1.0
  0
ARC
  5
366
100
AcDbEntity
  8
0
370
    35
390
0
 62
     7
100
AcDbCircle
 10
1109.587036
 20
151.28334
 30
0.0
 40
0.7
210
0.0
220
0.0
230
1.0
100
AcDbArc
 50
269.999997
 51
360.0
  0
LINE
  5
367
100
AcDbEntity
  8
0
370
    35
390
0
 62
     7
 48
0.016251
100
AcDbLine
 10
1109.587036
 20
150.583328
 30
0.0
 11
1108.937012
 21
150.583328
 31
0.0
210
0.0
220
0.0
230
1.0
  0
LINE
  5
368
100
AcDbEntity
  8
0
370
    35
390
0
 62
     7
 48
0.02
100
AcDbLine
 10
1108.937012
 20
150.583328
 30
0.0
 11
1108.937012
 21
149.78334
 31
0.0
210
0.0
220
0.0
230
1.0
  0
LINE
  5
369
100
AcDbEntity
  8
0
370
    35
390
0
 62
     7
 48
0.016251
100
AcDbLine
 10
1108.937012
 20
149.78334
 30
0.0
 11
1109.587036
 21
149.78334
 31
0.0
210
0.0
220
0.0
230
1.0
  0
ARC
  5
36A
100
AcDbEntity
  8
0
370
    35
390
0
 62
     7
100
AcDbCircle
 10
1109.587036
 20
149.083328
 30
0.0
 40
0.7
210
0.0
220
0.0
230
1.0
100
AcDbArc
 50
0.0
 51
90.000003
  0
LINE
  5
36B
100
AcDbEntity
  8
0
370
    35
390
0
 62
     7
 48
0.01625
100
AcDbLine
 10
1110.286987
 20
149.083328
 30
0.0
 11
1110.286987
 21
148.433334
 31
0.0
210
0.0
220
0.0
230
1.0
  0
LINE
  5
36C
100
AcDbEntity
  8
0
370
    35
390
0
 62
     7
 48
0.020001
100
AcDbLine
 10
1110.286987
 20
148.433334
 30
0.0
 11
1111.087036
 21
148.433334
 31
0.0
210
0.0
220
0.0
230
1.0
  0
LINE
  5
36D
100
AcDbEntity
  8
0
370
    35
390
0
 62
     7
 48
0.01625
100
AcDbLine
 10
1111.087036
 20
148.433334
 30
0.0
 11
1111.087036
 21
149.083328
 31
0.0
210
0.0
220
0.0
230
1.0
  0
ARC
  5
36E
100
AcDbEntity
  8
0
370
    35
390
0
 62
     7
100
AcDbCircle
 10
1111.786987
 20
149.083328
 30
0.0
 40
0.7
210
0.0
220
0.0
230
1.0
100
AcDbArc
 50
90.000003
 51
180.000005
  0
LINE
  5
36F
100
AcDbEntity
  8
0
370
    35
390
0
 62
     7
 48
0.016251
100
AcDbLine
 10
1111.786987
 20
149.78334
 30
0.0
 11
1112.437012
 21
149.78334
 31
0.0
210
0.0
220
0.0
230
1.0
  0
LINE
  5
370
100
AcDbEntity
  8
0
370
    35
390
0
 62
     7
 48
0.02
100
AcDbLine
 10
1112.437012
 20
149.78334
 30
0.0
 11
1112.437012
 21
150.583328
 31
0.0
210
0.0
220
0.0
230
1.0
  0
LINE
  5
371
100
AcDbEntity
  8
0
370
    35
390
0
 62
     7
 48
0.016251
100
AcDbLine
 10
1112.437012
 20
150.583328
 30
0.0
 11
1111.786987
 21
150.583328
 31
0.0
210
0.0
220
0.0
230
1.0
  0
ARC
  5
372
100
AcDbEntity
  8
0
370
    35
390
0
 62
     7
100
AcDbCircle
 10
1111.786987
 20
151.28334
 30
0.0
 40
0.7
210
0.0
220
0.0
230
1.0
100
AcDbArc
 50
180.000005
 51
269.999997
  0
LINE
  5
373
100
AcDbEntity
  8
0
370
    35
390
0
 62
     7
 48
0.01625
100
AcDbLine
 10
1111.087036
 20
151.28334
 30
0.0
 11
1111.087036
 21
151.933334
 31
0.0
210
0.0
220
0.0
230
1.0
  0
LINE
  5
374
100
AcDbEntity
  8
0
370
    35
390
0
 62
     7
 48
0.020001
100
AcDbLine
 10
1211.087036
 20
151.933334
 30
0.0
 11
1210.286987
 21
151.933334
 31
0.0
210
0.0
220
0.0
230
1.0
  0
LINE
  5
375
100
AcDbEntity
  8
0
370
    35
390
0
 62
     7
 48
0.01625
100
AcDbLine
 10
1210.286987
 20
151.933334
 30
0.0
 11
1210.286987
 21
151.28334
 31
0.0
210
0.0
220
0.0
230
1.0
  0
ARC
  5
376
100
AcDbEntity
  8
0
370
    35
390
0
 62
     7
100
AcDbCircle
 10
1209.587036
 20
151.28334
 30
0.0
 40
0.7
210
0.0
220
0.0
230
1.0
100
AcDbArc
 50
269.999997
 51
360.0
  0
LINE
  5
377
100
AcDbEntity
  8
0
370
    35
390
0
 62
     7
 48
0.016251
100
AcDbLine
 10
1209.587036
 20
150.583328
 30
0.0
 11
1208.937012
 21
150.583328
 31
0.0
210
0.0
220
0.0
230
1.0
  0
LINE
  5
378
100
AcDbEntity
  8
0
370
    35
390
0
 62
     7
 48
0.02
100
AcDbLine
 10
1208.937012
 20
150.583328
 30
0.0
 11
1208.937012
 21
149.78334
 31
0.0
210
0.0
220
0.0
230
1.0
  0
LINE
  5
379
100
AcDbEntity
  8
0
370
    35
390
0
 62
     7
 48
0.016251
100
AcDbLine
 10
1208.937012
 20
149.78334
 30
0.0
 11
1209.587036
 21
149.78334
 31
0.0
210
0.0
220
0.0
230
1.0
  0
ARC
  5
37A
100
AcDbEntity
  8
0
370
    35
390
0
 62
     7
100
AcDbCircle
 10
1209.587036
 20
149.083328
 30
0.0
 40
0.7
210
0.0
220
0.0
230
1.0
100
AcDbArc
 50
0.0
 51
90.000003
  0
LINE
  5
37B
100
AcDbEntity
  8
0
370
    35
390
0
 62
     7
 48
0.01625
100
AcDbLine
 10
1210.286987
 20
149.083328
 30
0.0
 11
1210.286987
 21
148.433334
 31
0.0
210
0.0
220
0.0
230
1.0
  0
LINE
  5
37C
100
AcDbEntity
  8
0
370
    35
390
0
 62
     7
 48
0.020001
100
AcDbLine
 10
1210.286987
 20
148.433334
 30
0.0
 11
1211.087036
 21
148.433334
 31
0.0
210
0.0
220
0.0
230
1.0
  0
LINE
  5
37D
100
AcDbEntity
  8
0
370
    35
390
0
 62
     7
 48
0.01625
100
AcDbLine
 10
1211.087036
 20
148.433334
 30
0.0
 11
1211.087036
 21
149.083328
 31
0.0
210
0.0
220
0.0
230
1.0
  0
ARC
  5
37E
100
AcDbEntity
  8
0
370
    35
390
0
 62
     7
100
AcDbCircle
 10
1211.786987
 20
149.083328
 30
0.0
 40
0.7
210
0.0
220
0.0
230
1.0
100
AcDbArc
 50
90.000003
 51
180.000005
  0
LINE
  5
37F
100
AcDbEntity
  8
0
370
    35
390
0
 62
     7
 48
0.016251
100
AcDbLine
 10
1211.786987
 20
149.78334
 30
0.0
 11
1212.437012
 21
149.78334
 31
0.0
210
0.0
220
0.0
230
1.0
  0
LINE
  5
380
100
AcDbEntity
  8
0
370
    35
390
0
 62
     7
 48
0.02
100
AcDbLine
 10
1212.437012
 20
149.78334
 30
0.0
 11
1212.437012
 21
150.583328
 31
0.0
210
0.0
220
0.0
230
1.0
  0
LINE
  5
381
100
AcDbEntity
  8
0
370
    35
390
0
 62
     7
 48
0.016251
100
AcDbLine
 10
1212.437012
 20
150.583328
 30
0.0
 11
1211.786987
 21
150.583328
 31
0.0
210
0.0
220
0.0
230
1.0
  0
ARC
  5
382
100
AcDbEntity
  8
0
370
    35
390
0
 62
     7
100
AcDbCircle
 10
1211.786987
 20
151.28334
 30
0.0
 40
0.7
210
0.0
220
0.0
230
1.0
100
AcDbArc
 50
180.000005
 51
269.999997
  0
LINE
  5
383
100
AcDbEntity
  8
0
370
    35
390
0
 62
     7
 48
0.01625
100
AcDbLine
 10
1211.087036
 20
151.28334
 30
0.0
 11
1211.087036
 21
151.933334
 31
0.0
210
0.0
220
0.0
230
1.0
  0
LINE
  5
384
100
AcDbEntity
  8
0
370
    35
390
0
 62
     7
 48
0.020001
100
AcDbLine
 10
1311.087036
 20
151.933334
 30
0.0
 11
1310.286987
 21
151.933334
 31
0.0
210
0.0
220
0.0
230
1.0
  0
LINE
  5
385
100
AcDbEntity
  8
0
370
    35
390
0
 62
     7
 48
0.01625
100
AcDbLine
 10
1310.286987
 20
151.933334
 30
0.0
 11
1310.286987
 21
151.28334
 31
0.0
210
0.0
220
0.0
230
1.0
  0
ARC
  5
386
100
AcDbEntity
  8
0
370
    35
390
0
 62
     7
100
AcDbCircle
 10
1309.587036
 20
151.28334
 30
0.0
 40
0.7
210
0.0
220
0.0
230
1.0
100
AcDbArc
 50
269.999997
 51
360.0
  0
LINE
  5
387
100
AcDbEntity
  8
0
370
    35
390
0
 62
     7
 48
0.016251
100
AcDbLine
 10
1309.587036
 20
150.583328
 30
0.0
 11
1308.937012
 21
150.583328
 31
0.0
210
0.0
220
0.0
230
1.0
  0
LINE
  5
388
100
AcDbEntity
  8
0
370
    35
390
0
 62
     7
 48
0.02
100
AcDbLine
 10
1308.937012
 20
150.583328
 30
0.0
 11
1308.937012
 21
149.78334
 31
0.0
210
0.0
220
0.0
230
1.0
  0
LINE
  5
389
100
AcDbEntity
  8
0
370
    35
390
0
 62
     7
 48
0.016251
100
AcDbLine
 10
1308.937012
 20
149.78334
 30
0.0
 11
1309.587036
 21
149.78334
 31
0.0
210
0.0
220
0.0
230
1.0
  0
ARC
  5
38A
100
AcDbEntity
  8
0
370
    35
390
0
 62
     7
100
AcDbCircle
 10
1309.587036
 20
149.083328
 30
0.0
 40
0.7
210
0.0
220
0.0
230
1.0
100
AcDbArc
 50
0.0
 51
90.000003
  0
LINE
  5
38B
100
AcDbEntity
  8
0
370
    35
390
0
 62
     7
 48
0.01625
100
AcDbLine
 10
1310.286987
 20
149.083328
 30
0.0
 11
1310.286987
 21
148.433334
 31
0.0
210
0.0
220
0.0
230
1.0
  0
LINE
  5
38C
100
AcDbEntity
  8
0
370
    35
390
0
 62
     7
 48
0.020001
100
AcDbLine
 10
1310.286987
 20
148.433334
 30
0.0
 11
1311.087036
 21
148.433334
 31
0.0
210
0.0
220
0.0
230
1.0
  0
LINE
  5
38D
100
AcDbEntity
  8
0
370
    35
390
0
 62
     7
 48
0.01625
100
AcDbLine
 10
1311.087036
 20
148.433334
 30
0.0
 11
1311.087036
 21
149.083328
 31
0.0
210
0.0
220
0.0
230
1.0
  0
ARC
  5
38E
100
AcDbEntity
  8
0
370
    35
390
0
 62
     7
100
AcDbCircle
 10
1311.786987
 20
149.083328
 30
0.0
 40
0.7
210
0.0
220
0.0
230
1.0
100
AcDbArc
 50
90.000003
 51
180.000005
  0
LINE
  5
38F
100
AcDbEntity
  8
0
370
    35
390
0
 62
     7
 48
0.016251
100
AcDbLine
 10
1311.786987
 20
149.78334
 30
0.0
 11
1312.437012
 21
149.78334
 31
0.0
210
0.0
220
0.0
230
1.0
  0
LINE
  5
390
100
AcDbEntity
  8
0
370
    35
390
0
 62
     7
 48
0.02
100
AcDbLine
 10
1312.437012
 20
149.78334
 30
0.0
 11
1312.437012
 21
150.583328
 31
0.0
210
0.0
220
0.0
230
1.0
  0
LINE
  5
391
100
AcDbEntity
  8
0
370
    35
390
0
 62
     7
 48
0.016251
100
AcDbLine
 10
1312.437012
 20
150.583328
 30
0.0
 11
1311.786987
 21
150.583328
 31
0.0
210
0.0
220
0.0
230
1.0
  0
ARC
  5
392
100
AcDbEntity
  8
0
370
    35
390
0
 62
     7
100
AcDbCircle
 10
1311.786987
 20
151.28334
 30
0.0
 40
0.7
210
0.0
220
0.0
230
1.0
100
AcDbArc
 50
180.000005
 51
269.999997
  0
LINE
  5
393
100
AcDbEntity
  8
0
370
    35
390
0
 62
     7
 48
0.01625
100
AcDbLine
 10
1311.087036
 20
151.28334
 30
0.0
 11
1311.087036
 21
151.933334
 31
0.0
210
0.0
220
0.0
230
1.0
  0
LINE
  5
394
100
AcDbEntity
  8
0
370
    35
390
0
 62
     7
 48
0.020001
100
AcDbLine
 10
1411.087036
 20
151.933334
 30
0.0
 11
1410.286987
 21
151.933334
 31
0.0
210
0.0
220
0.0
230
1.0
  0
LINE
  5
395
100
AcDbEntity
  8
0
370
    35
390
0
 62
     7
 48
0.01625
100
AcDbLine
 10
1410.286987
 20
151.933334
 30
0.0
 11
1410.286987
 21
151.28334
 31
0.0
210
0.0
220
0.0
230
1.0
  0
ARC
  5
396
100
AcDbEntity
  8
0
370
    35
390
0
 62
     7
100
AcDbCircle
 10
1409.587036
 20
151.28334
 30
0.0
 40
0.7
210
0.0
220
0.0
230
1.0
100
AcDbArc
 50
269.999997
 51
360.0
  0
LINE
  5
397
100
AcDbEntity
  8
0
370
    35
390
0
 62
     7
 48
0.016251
100
AcDbLine
 10
1409.587036
 20
150.583328
 30
0.0
 11
1408.937012
 21
150.583328
 31
0.0
210
0.0
220
0.0
230
1.0
  0
LINE
  5
398
100
AcDbEntity
  8
0
370
    35
390
0
 62
     7
 48
0.02
100
AcDbLine
 10
1408.937012
 20
150.583328
 30
0.0
 11
1408.937012
 21
149.78334
 31
0.0
210
0.0
220
0.0
230
1.0
  0
LINE
  5
399
100
AcDbEntity
  8
0
370
    35
390
0
 62
     7
 48
0.016251
100
AcDbLine
 10
1408.937012
 20
149.78334
 30
0.0
 11
1409.587036
 21
149.78334
 31
0.0
210
0.0
220
0.0
230
1.0
  0
ARC
  5
39A
100
AcDbEntity
  8
0
370
    35
390
0
 62
     7
100
AcDbCircle
 10
1409.587036
 20
149.083328
 30
0.0
 40
0.7
210
0.0
220
0.0
230
1.0
100
AcDbArc
 50
0.0
 51
90.000003
  0
LINE
  5
39B
100
AcDbEntity
  8
0
370
    35
390
0
 62
     7
 48
0.01625
100
AcDbLine
 10
1410.286987
 20
149.083328
 30
0.0
 11
1410.286987
 21
148.433334
 31
0.0
210
0.0
220
0.0
230
1.0
  0
LINE
  5
39C
100
AcDbEntity
  8
0
370
    35
390
0
 62
     7
 48
0.020001
100
AcDbLine
 10
1410.286987
 20
148.433334
 30
0.0
 11
1411.087036
 21
148.433334
 31
0.0
210
0.0
220
0.0
230
1.0
  0
LINE
  5
39D
100
AcDbEntity
  8
0
370
    35
390
0
 62
     7
 48
0.01625
100
AcDbLine
 10
1411.087036
 20
148.433334
 30
0.0
 11
1411.087036
 21
149.083328
 31
0.0
210
0.0
220
0.0
230
1.0
  0
ARC
  5
39E
100
AcDbEntity
  8
0
370
    35
390
0
 62
     7
100
AcDbCircle
 10
1411.786987
 20
149.083328
 30
0.0
 40
0.7
210
0.0
220
0.0
230
1.0
100
AcDbArc
 50
90.000003
 51
180.000005
  0
LINE
  5
39F
100
AcDbEntity
  8
0
370
    35
390
0
 62
     7
 48
0.016251
100
AcDbLine
 10
1411.786987
 20
149.78334
 30
0.0
 11
1412.437012
 21
149.78334
 31
0.0
210
0.0
220
0.0
230
1.0
  0
LINE
  5
3A0
100
AcDbEntity
  8
0
370
    35
390
0
 62
     7
 48
0.02
100
AcDbLine
 10
1412.437012
 20
149.78334
 30
0.0
 11
1412.437012
 21
150.583328
 31
0.0
210
0.0
220
0.0
230
1.0
  0
LINE
  5
3A1
100
AcDbEntity
  8
0
370
    35
390
0
 62
     7
 48
0.016251
100
AcDbLine
 10
1412.437012
 20
150.583328
 30
0.0
 11
1411.786987
 21
150.583328
 31
0.0
210
0.0
220
0.0
230
1.0
  0
ARC
  5
3A2
100
AcDbEntity
  8
0
370
    35
390
0
 62
     7
100
AcDbCircle
 10
1411.786987
 20
151.28334
 30
0.0
 40
0.7
210
0.0
220
0.0
230
1.0
100
AcDbArc
 50
180.000005
 51
269.999997
  0
LINE
  5
3A3
100
AcDbEntity
  8
0
370
    35
390
0
 62
     7
 48
0.01625
100
AcDbLine
 10
1411.087036
 20
151.28334
 30
0.0
 11
1411.087036
 21
151.933334
 31
0.0
210
0.0
220
0.0
230
1.0
  0
LINE
  5
3A4
100
AcDbEntity
  8
0
370
    35
390
0
 62
     7
 48
0.020001
100
AcDbLine
 10
1511.087036
 20
151.933334
 30
0.0
 11
1510.286987
 21
151.933334
 31
0.0
210
0.0
220
0.0
230
1.0
  0
LINE
  5
3A5
100
AcDbEntity
  8
0
370
    35
390
0
 62
     7
 48
0.01625
100
AcDbLine
 10
1510.286987
 20
151.933334
 30
0.0
 11
1510.286987
 21
151.28334
 31
0.0
210
0.0
220
0.0
230
1.0
  0
ARC
  5
3A6
100
AcDbEntity
  8
0
370
    35
390
0
 62
     7
100
AcDbCircle
 10
1509.587036
 20
151.28334
 30
0.0
 40
0.7
210
0.0
220
0.0
230
1.0
100
AcDbArc
 50
269.999997
 51
360.0
  0
LINE
  5
3A7
100
AcDbEntity
  8
0
370
    35
390
0
 62
     7
 48
0.016251
100
AcDbLine
 10
1509.587036
 20
150.583328
 30
0.0
 11
1508.937012
 21
150.583328
 31
0.0
210
0.0
220
0.0
230
1.0
  0
LINE
  5
3A8
100
AcDbEntity
  8
0
370
    35
390
0
 62
     7
 48
0.02
100
AcDbLine
 10
1508.937012
 20
150.583328
 30
0.0
 11
1508.937012
 21
149.78334
 31
0.0
210
0.0
220
0.0
230
1.0
  0
LINE
  5
3A9
100
AcDbEntity
  8
0
370
    35
390
0
 62
     7
 48
0.016251
100
AcDbLine
 10
1508.937012
 20
149.78334
 30
0.0
 11
1509.587036
 21
149.78334
 31
0.0
210
0.0
220
0.0
230
1.0
  0
ARC
  5
3AA
100
AcDbEntity
  8
0
370
    35
390
0
 62
     7
100
AcDbCircle
 10
1509.587036
 20
149.083328
 30
0.0
 40
0.7
210
0.0
220
0.0
230
1.0
100
AcDbArc
 50
0.0
 51
90.000003
  0
LINE
  5
3AB
100
AcDbEntity
  8
0
370
    35
390
0
 62
     7
 48
0.01625
100
AcDbLine
 10
1510.286987
 20
149.083328
 30
0.0
 11
1510.286987
 21
148.433334
 31
0.0
210
0.0
220
0.0
230
1.0
  0
LINE
  5
3AC
100
AcDbEntity
  8
0
370
    35
390
0
 62
     7
 48
0.020001
100
AcDbLine
 10
1510.286987
 20
148.433334
 30
0.0
 11
1511.087036
 21
148.433334
 31
0.0
210
0.0
220
0.0
230
1.0
  0
LINE
  5
3AD
100
AcDbEntity
  8
0
370
    35
390
0
 62
     7
 48
0.01625
100
AcDbLine
 10
1511.087036
 20
148.433334
 30
0.0
 11
1511.087036
 21
149.083328
 31
0.0
210
0.0
220
0.0
230
1.0
  0
ARC
  5
3AE
100
AcDbEntity
  8
0
370
    35
390
0
 62
     7
100
AcDbCircle
 10
1511.786987
 20
149.083328
 30
0.0
 40
0.7
210
0.0
220
0.0
230
1.0
100
AcDbArc
 50
90.000003
 51
180.000005
  0
LINE
  5
3AF
100
AcDbEntity
  8
0
370
    35
390
0
 62
     7
 48
0.016251
100
AcDbLine
 10
1511.786987
 20
149.78334
 30
0.0
 11
1512.437012
 21
149.78334
 31
0.0
210
0.0
220
0.0
230
1.0
  0
LINE
  5
3B0
100
AcDbEntity
  8
0
370
    35
390
0
 62
     7
 48
0.02
100
AcDbLine
 10
1512.437012
 20
149.78334
 30
0.0
 11
1512.437012
 21
150.583328
 31
0.0
210
0.0
220
0.0
230
1.0
  0
LINE
  5
3B1
100
AcDbEntity
  8
0
370
    35
390
0
 62
     7
 48
0.016251
100
AcDbLine
 10
1512.437012
 20
150.583328
 30
0.0
 11
1511.786987
 21
150.583328
 31
0.0
210
0.0
220
0.0
230
1.0
  0
ARC
  5
3B2
100
AcDbEntity
  8
0
370
    35
390
0
 62
     7
100
AcDbCircle
 10
1511.786987
 20
151.28334
 30
0.0
 40
0.7
210
0.0
220
0.0
230
1.0
100
AcDbArc
 50
180.000005
 51
269.999997
  0
LINE
  5
3B3
100
AcDbEntity
  8
0
370
    35
390
0
 62
     7
 48
0.01625
100
AcDbLine
 10
1511.087036
 20
151.28334
 30
0.0
 11
1511.087036
 21
151.933334
 31
0.0
210
0.0
220
0.0
230
1.0
  0
LINE
  5
3B4
100
AcDbEntity
  8
0
370
    35
390
0
 62
     7
 48
0.020001
100
AcDbLine
 10
1611.087036
 20
151.933334
 30
0.0
 11
1610.286987
 21
151.933334
 31
0.0
210
0.0
220
0.0
230
1.0
  0
LINE
  5
3B5
100
AcDbEntity
  8
0
370
    35
390
0
 62
     7
 48
0.01625
100
AcDbLine
 10
1610.286987
 20
151.933334
 30
0.0
 11
1610.286987
 21
151.28334
 31
0.0
210
0.0
220
0.0
230
1.0
  0
ARC
  5
3B6
100
AcDbEntity
  8
0
370
    35
390
0
 62
     7
100
AcDbCircle
 10
1609.587036
 20
151.28334
 30
0.0
 40
0.7
210
0.0
220
0.0
230
1.0
100
AcDbArc
 50
269.999997
 51
360.0
  0
LINE
  5
3B7
100
AcDbEntity
  8
0
370
    35
390
0
 62
     7
 48
0.016251
100
AcDbLine
 10
1609.587036
 20
150.583328
 30
0.0
 11
1608.937012
 21
150.583328
 31
0.0
210
0.0
220
0.0
230
1.0
  0
LINE
  5
3B8
100
AcDbEntity
  8
0
370
    35
390
0
 62
     7
 48
0.02
100
AcDbLine
 10
1608.937012
 20
150.583328
 30
0.0
 11
1608.937012
 21
149.78334
 31
0.0
210
0.0
220
0.0
230
1.0
  0
LINE
  5
3B9
100
AcDbEntity
  8
0
370
    35
390
0
 62
     7
 48
0.016251
100
AcDbLine
 10
1608.937012
 20
149.78334
 30
0.0
 11
1609.587036
 21
149.78334
 31
0.0
210
0.0
220
0.0
230
1.0
  0
ARC
  5
3BA
100
AcDbEntity
  8
0
370
    35
390
0
 62
     7
100
AcDbCircle
 10
1609.587036
 20
149.083328
 30
0.0
 40
0.7
210
0.0
220
0.0
230
1.0
100
AcDbArc
 50
0.0
 51
90.000003
  0
LINE
  5
3BB
100
AcDbEntity
  8
0
370
    35
390
0
 62
     7
 48
0.01625
100
AcDbLine
 10
1610.286987
 20
149.083328
 30
0.0
 11
1610.286987
 21
148.433334
 31
0.0
210
0.0
220
0.0
230
1.0
  0
LINE
  5
3BC
100
AcDbEntity
  8
0
370
    35
390
0
 62
     7
 48
0.020001
100
AcDbLine
 10
1610.286987
 20
148.433334
 30
0.0
 11
1611.087036
 21
148.433334
 31
0.0
210
0.0
220
0.0
230
1.0
  0
LINE
  5
3BD
100
AcDbEntity
  8
0
370
    35
390
0
 62
     7
 48
0.01625
100
AcDbLine
 10
1611.087036
 20
148.433334
 30
0.0
 11
1611.087036
 21
149.083328
 31
0.0
210
0.0
220
0.0
230
1.0
  0
ARC
  5
3BE
100
AcDbEntity
  8
0
370
    35
390
0
 62
     7
100
AcDbCircle
 10
1611.786987
 20
149.083328
 30
0.0
 40
0.7
210
0.0
220
0.0
230
1.0
100
AcDbArc
 50
90.000003
 51
180.000005
  0
LINE
  5
3BF
100
AcDbEntity
  8
0
370
    35
390
0
 62
     7
 48
0.016251
100
AcDbLine
 10
1611.786987
 20
149.78334
 30
0.0
 11
1612.437012
 21
149.78334
 31
0.0
210
0.0
220
0.0
230
1.0
  0
LINE
  5
3C0
100
AcDbEntity
  8
0
370
    35
390
0
 62
     7
 48
0.02
100
AcDbLine
 10
1612.437012
 20
149.78334
 30
0.0
 11
1612.437012
 21
150.583328
 31
0.0
210
0.0
220
0.0
230
1.0
  0
LINE
  5
3C1
100
AcDbEntity
  8
0
370
    35
390
0
 62
     7
 48
0.016251
100
AcDbLine
 10
1612.437012
 20
150.583328
 30
0.0
 11
1611.786987
 21
150.583328
 31
0.0
210
0.0
220
0.0
230
1.0
  0
ARC
  5
3C2
100
AcDbEntity
  8
0
370
    35
390
0
 62
     7
100
AcDbCircle
 10
1611.786987
 20
151.28334
 30
0.0
 40
0.7
210
0.0
220
0.0
230
1.0
100
AcDbArc
 50
180.000005
 51
269.999997
  0
LINE
  5
3C3
100
AcDbEntity
  8
0
370
    35
390
0
 62
     7
 48
0.01625
100
AcDbLine
 10
1611.087036
 20
151.28334
 30
0.0
 11
1611.087036
 21
151.933334
 31
0.0
210
0.0
220
0.0
230
1.0
  0
LINE
  5
3C4
100
AcDbEntity
  8
0
370
    35
390
0
 62
     7
 48
0.020001
100
AcDbLine
 10
1711.087036
 20
151.933334
 30
0.0
 11
1710.286987
 21
151.933334
 31
0.0
210
0.0
220
0.0
230
1.0
  0
LINE
  5
3C5
100
AcDbEntity
  8
0
370
    35
390
0
 62
     7
 48
0.01625
100
AcDbLine
 10
1710.286987
 20
151.933334
 30
0.0
 11
1710.286987
 21
151.28334
 31
0.0
210
0.0
220
0.0
230
1.0
  0
ARC
  5
3C6
100
AcDbEntity
  8
0
370
    35
390
0
 62
     7
100
AcDbCircle
 10
1709.587036
 20
151.28334
 30
0.0
 40
0.7
210
0.0
220
0.0
230
1.0
100
AcDbArc
 50
269.999997
 51
360.0
  0
LINE
  5
3C7
100
AcDbEntity
  8
0
370
    35
390
0
 62
     7
 48
0.016251
100
AcDbLine
 10
1709.587036
 20
150.583328
 30
0.0
 11
1708.937012
 21
150.583328
 31
0.0
210
0.0
220
0.0
230
1.0
  0
LINE
  5
3C8
100
AcDbEntity
  8
0
370
    35
390
0
 62
     7
 48
0.02
100
AcDbLine
 10
1708.937012
 20
150.583328
 30
0.0
 11
1708.937012
 21
149.78334
 31
0.0
210
0.0
220
0.0
230
1.0
  0
LINE
  5
3C9
100
AcDbEntity
  8
0
370
    35
390
0
 62
     7
 48
0.016251
100
AcDbLine
 10
1708.937012
 20
149.78334
 30
0.0
 11
1709.587036
 21
149.78334
 31
0.0
210
0.0
220
0.0
230
1.0
  0
ARC
  5
3CA
100
AcDbEntity
  8
0
370
    35
390
0
 62
     7
100
AcDbCircle
 10
1709.587036
 20
149.083328
 30
0.0
 40
0.7
210
0.0
220
0.0
230
1.0
100
AcDbArc
 50
0.0
 51
90.000003
  0
LINE
  5
3CB
100
AcDbEntity
  8
0
370
    35
390
0
 62
     7
 48
0.01625
100
AcDbLine
 10
1710.286987
 20
149.083328
 30
0.0
 11
1710.286987
 21
148.433334
 31
0.0
210
0.0
220
0.0
230
1.0
  0
LINE
  5
3CC
100
AcDbEntity
  8
0
370
    35
390
0
 62
     7
 48
0.020001
100
AcDbLine
 10
1710.286987
 20
148.433334
 30
0.0
 11
1711.087036
 21
148.433334
 31
0.0
210
0.0
220
0.0
230
1.0
  0
LINE
  5
3CD
100
AcDbEntity
  8
0
370
    35
390
0
 62
     7
 48
0.01625
100
AcDbLine
 10
1711.087036
 20
148.433334
 30
0.0
 11
1711.087036
 21
149.083328
 31
0.0
210
0.0
220
0.0
230
1.0
  0
ARC
  5
3CE
100
AcDbEntity
  8
0
370
    35
390
0
 62
     7
100
AcDbCircle
 10
1711.786987
 20
149.083328
 30
0.0
 40
0.7
210
0.0
220
0.0
230
1.0
100
AcDbArc
 50
90.000003
 51
180.000005
  0
LINE
  5
3CF
100
AcDbEntity
  8
0
370
    35
390
0
 62
     7
 48
0.016251
100
AcDbLine
 10
1711.786987
 20
149.78334
 30
0.0
 11
1712.437012
 21
149.78334
 31
0.0
210
0.0
220
0.0
230
1.0
  0
LINE
  5
3D0
100
AcDbEntity
  8
0
370
    35
390
0
 62
     7
 48
0.02
100
AcDbLine
 10
1712.437012
 20
149.78334
 30
0.0
 11
1712.437012
 21
150.583328
 31
0.0
210
0.0
220
0.0
230
1.0
  0
LINE
  5
3D1
100
AcDbEntity
  8
0
370
    35
390
0
 62
     7
 48
0.016251
100
AcDbLine
 10
1712.437012
 20
150.583328
 30
0.0
 11
1711.786987
 21
150.583328
 31
0.0
210
0.0
220
0.0
230
1.0
  0
ARC
  5
3D2
100
AcDbEntity
  8
0
370
    35
390
0
 62
     7
100
AcDbCircle
 10
1711.786987
 20
151.28334
 30
0.0
 40
0.7
210
0.0
220
0.0
230
1.0
100
AcDbArc
 50
180.000005
 51
269.999997
  0
LINE
  5
3D3
100
AcDbEntity
  8
0
370
    35
390
0
 62
     7
 48
0.01625
100
AcDbLine
 10
1711.087036
 20
151.28334
 30
0.0
 11
1711.087036
 21
151.933334
 31
0.0
210
0.0
220
0.0
230
1.0
  0
LINE
  5
3D4
100
AcDbEntity
  8
0
370
    35
390
0
 62
     7
 48
0.02
100
AcDbLine
 10
142.087036
 20
151.933334
 30
0.0
 11
141.287048
 21
151.933334
 31
0.0
210
0.0
220
0.0
230
1.0
  0
LINE
  5
3D5
100
AcDbEntity
  8
0
370
    35
390
0
 62
     7
 48
0.01625
100
AcDbLine
 10
141.287048
 20
151.933334
 30
0.0
 11
141.287048
 21
151.28334
 31
0.0
210
0.0
220
0.0
230
1.0
  0
ARC
  5
3D6
100
AcDbEntity
  8
0
370
    35
390
0
 62
     7
100
AcDbCircle
 10
140.587036
 20
151.28334
 30
0.0
 40
0.7
210
0.0
220
0.0
230
1.0
100
AcDbArc
 50
269.999997
 51
360.0
  0
LINE
  5
3D7
100
AcDbEntity
  8
0
370
    35
390
0
 62
     7
 48
0.01625
100
AcDbLine
 10
140.587036
 20
150.583328
 30
0.0
 11
139.937042
 21
150.583328
 31
0.0
210
0.0
220
0.0
230
1.0
  0
LINE
  5
3D8
100
AcDbEntity
  8
0
370
    35
390
0
 62
     7
 48
0.02
100
AcDbLine
 10
139.937042
 20
150.583328
 30
0.0
 11
139.937042
 21
149.78334
 31
0.0
210
0.0
220
0.0
230
1.0
  0
LINE
  5
3D9
100
AcDbEntity
  8
0
370
    35
390
0
 62
     7
 48
0.01625
100
AcDbLine
 10
139.937042
 20
149.78334
 30
0.0
 11
140.587036
 21
149.78334
 31
0.0
210
0.0
220
0.0
230
1.0
  0
ARC
  5
3DA
100
AcDbEntity
  8
0
370
    35
390
0
 62
     7
100
AcDbCircle
 10
140.587036
 20
149.083328
 30
0.0
 40
0.7
210
0.0
220
0.0
230
1.0
100
AcDbArc
 50
0.0
 51
90.000003
  0
LINE
  5
3DB
100
AcDbEntity
  8
0
370
    35
390
0
 62
     7
 48
0.01625
100
AcDbLine
 10
141.287048
 20
149.083328
 30
0.0
 11
141.287048
 21
148.433334
 31
0.0
210
0.0
220
0.0
230
1.0
  0
LINE
  5
3DC
100
AcDbEntity
  8
0
370
    35
390
0
 62
     7
 48
0.02
100
AcDbLine
 10
141.287048
 20
148.433334
 30
0.0
 11
142.087036
 21
148.433334
 31
0.0
210
0.0
220
0.0
230
1.0
  0
LINE
  5
3DD
100
AcDbEntity
  8
0
370
    35
390
0
 62
     7
 48
0.01625
100
AcDbLine
 10
142.087036
 20
148.433334
 30
0.0
 11
142.087036
 21
149.083328
 31
0.0
210
0.0
220
0.0
230
1.0
  0
ARC
  5
3DE
100
AcDbEntity
  8
0
370
    35
390
0
 62
     7
100
AcDbCircle
 10
142.787048
 20
149.083328
 30
0.0
 40
0.7
210
0.0
220
0.0
230
1.0
100
AcDbArc
 50
90.000003
 51
180.000005
  0
LINE
  5
3DF
100
AcDbEntity
  8
0
370
    35
390
0
 62
     7
 48
0.01625
100
AcDbLine
 10
142.787048
 20
149.78334
 30
0.0
 11
143.437042
 21
149.78334
 31
0.0
210
0.0
220
0.0
230
1.0
  0
LINE
  5
3E0
100
AcDbEntity
  8
0
370
    35
390
0
 62
     7
 48
0.02
100
AcDbLine
 10
143.437042
 20
149.78334
 30
0.0
 11
143.437042
 21
150.583328
 31
0.0
210
0.0
220
0.0
230
1.0
  0
LINE
  5
3E1
100
AcDbEntity
  8
0
370
    35
390
0
 62
     7
 48
0.01625
100
AcDbLine
 10
143.437042
 20
150.583328
 30
0.0
 11
142.787048
 21
150.583328
 31
0.0
210
0.0
220
0.0
230
1.0
  0
ARC
  5
3E2
100
AcDbEntity
  8
0
370
    35
390
0
 62
     7
100
AcDbCircle
 10
142.787048
 20
151.28334
 30
0.0
 40
0.7
210
0.0
220
0.0
230
1.0
100
AcDbArc
 50
180.000005
 51
269.999997
  0
LINE
  5
3E3
100
AcDbEntity
  8
0
370
    35
390
0
 62
     7
 48
0.01625
100
AcDbLine
 10
142.087036
 20
151.28334
 30
0.0
 11
142.087036
 21
151.933334
 31
0.0
210
0.0
220
0.0
230
1.0
  0
LINE
  5
3E4
100
AcDbEntity
  8
0
370
    35
390
0
 62
     7
 48
0.020001
100
AcDbLine
 10
1780.087036
 20
151.933334
 30
0.0
 11
1779.286987
 21
151.933334
 31
0.0
210
0.0
220
0.0
230
1.0
  0
LINE
  5
3E5
100
AcDbEntity
  8
0
370
    35
390
0
 62
     7
 48
0.01625
100
AcDbLine
 10
1779.286987
 20
151.933334
 30
0.0
 11
1779.286987
 21
151.28334
 31
0.0
210
0.0
220
0.0
230
1.0
  0
ARC
  5
3E6
100
AcDbEntity
  8
0
370
    35
390
0
 62
     7
100
AcDbCircle
 10
1778.587036
 20
151.28334
 30
0.0
 40
0.7
210
0.0
220
0.0
230
1.0
100
AcDbArc
 50
269.999997
 51
360.0
  0
LINE
  5
3E7
100
AcDbEntity
  8
0
370
    35
390
0
 62
     7
 48
0.016251
100
AcDbLine
 10
1778.587036
 20
150.583328
 30
0.0
 11
1777.937012
 21
150.583328
 31
0.0
210
0.0
220
0.0
230
1.0
  0
LINE
  5
3E8
100
AcDbEntity
  8
0
370
    35
390
0
 62
     7
 48
0.02
100
AcDbLine
 10
1777.937012
 20
150.583328
 30
0.0
 11
1777.937012
 21
149.78334
 31
0.0
210
0.0
220
0.0
230
1.0
  0
LINE
  5
3E9
100
AcDbEntity
  8
0
370
    35
390
0
 62
     7
 48
0.016251
100
AcDbLine
 10
1777.937012
 20
149.78334
 30
0.0
 11
1778.587036
 21
149.78334
 31
0.0
210
0.0
220
0.0
230
1.0
  0
ARC
  5
3EA
100
AcDbEntity
  8
0
370
    35
390
0
 62
     7
100
AcDbCircle
 10
1778.587036
 20
149.083328
 30
0.0
 40
0.7
210
0.0
220
0.0
230
1.0
100
AcDbArc
 50
0.0
 51
90.000003
  0
LINE
  5
3EB
100
AcDbEntity
  8
0
370
    35
390
0
 62
     7
 48
0.01625
100
AcDbLine
 10
1779.286987
 20
149.083328
 30
0.0
 11
1779.286987
 21
148.433334
 31
0.0
210
0.0
220
0.0
230
1.0
  0
LINE
  5
3EC
100
AcDbEntity
  8
0
370
    35
390
0
 62
     7
 48
0.020001
100
AcDbLine
 10
1779.286987
 20
148.433334
 30
0.0
 11
1780.087036
 21
148.433334
 31
0.0
210
0.0
220
0.0
230
1.0
  0
LINE
  5
3ED
100
AcDbEntity
  8
0
370
    35
390
0
 62
     7
 48
0.01625
100
AcDbLine
 10
1780.087036
 20
148.433334
 30
0.0
 11
1780.087036
 21
149.083328
 31
0.0
210
0.0
220
0.0
230
1.0
  0
ARC
  5
3EE
100
AcDbEntity
  8
0
370
    35
390
0
 62
     7
100
AcDbCircle
 10
1780.786987
 20
149.083328
 30
0.0
 40
0.7
210
0.0
220
0.0
230
1.0
100
AcDbArc
 50
90.000003
 51
180.000005
  0
LINE
  5
3EF
100
AcDbEntity
  8
0
370
    35
390
0
 62
     7
 48
0.016251
100
AcDbLine
 10
1780.786987
 20
149.78334
 30
0.0
 11
1781.437012
 21
149.78334
 31
0.0
210
0.0
220
0.0
230
1.0
  0
LINE
  5
3F0
100
AcDbEntity
  8
0
370
    35
390
0
 62
     7
 48
0.02
100
AcDbLine
 10
1781.437012
 20
149.78334
 30
0.0
 11
1781.437012
 21
150.583328
 31
0.0
210
0.0
220
0.0
230
1.0
  0
LINE
  5
3F1
100
AcDbEntity
  8
0
370
    35
390
0
 62
     7
 48
0.016251
100
AcDbLine
 10
1781.437012
 20
150.583328
 30
0.0
 11
1780.786987
 21
150.583328
 31
0.0
210
0.0
220
0.0
230
1.0
  0
ARC
  5
3F2
100
AcDbEntity
  8
0
370
    35
390
0
 62
     7
100
AcDbCircle
 10
1780.786987
 20
151.28334
 30
0.0
 40
0.7
210
0.0
220
0.0
230
1.0
100
AcDbArc
 50
180.000005
 51
269.999997
  0
LINE
  5
3F3
100
AcDbEntity
  8
0
370
    35
390
0
 62
     7
 48
0.01625
100
AcDbLine
 10
1780.087036
 20
151.28334
 30
0.0
 11
1780.087036
 21
151.933334
 31
0.0
210
0.0
220
0.0
230
1.0
  0
LINE
  5
3F4
100
AcDbEntity
  8
0
370
    35
390
0
 62
     7
 48
0.02
100
AcDbLine
 10
411.087036
 20
151.933334
 30
0.0
 11
410.287048
 21
151.933334
 31
0.0
210
0.0
220
0.0
230
1.0
  0
LINE
  5
3F5
100
AcDbEntity
  8
0
370
    35
390
0
 62
     7
 48
0.01625
100
AcDbLine
 10
410.287048
 20
151.933334
 30
0.0
 11
410.287048
 21
151.28334
 31
0.0
210
0.0
220
0.0
230
1.0
  0
ARC
  5
3F6
100
AcDbEntity
  8
0
370
    35
390
0
 62
     7
100
AcDbCircle
 10
409.587036
 20
151.28334
 30
0.0
 40
0.7
210
0.0
220
0.0
230
1.0
100
AcDbArc
 50
269.999997
 51
360.0
  0
LINE
  5
3F7
100
AcDbEntity
  8
0
370
    35
390
0
 62
     7
 48
0.01625
100
AcDbLine
 10
409.587036
 20
150.583328
 30
0.0
 11
408.937042
 21
150.583328
 31
0.0
210
0.0
220
0.0
230
1.0
  0
LINE
  5
3F8
100
AcDbEntity
  8
0
370
    35
390
0
 62
     7
 48
0.02
100
AcDbLine
 10
408.937042
 20
150.583328
 30
0.0
 11
408.937042
 21
149.78334
 31
0.0
210
0.0
220
0.0
230
1.0
  0
LINE
  5
3F9
100
AcDbEntity
  8
0
370
    35
390
0
 62
     7
 48
0.01625
100
AcDbLine
 10
408.937042
 20
149.78334
 30
0.0
 11
409.587036
 21
149.78334
 31
0.0
210
0.0
220
0.0
230
1.0
  0
ARC
  5
3FA
100
AcDbEntity
  8
0
370
    35
390
0
 62
     7
100
AcDbCircle
 10
409.587036
 20
149.083328
 30
0.0
 40
0.7
210
0.0
220
0.0
230
1.0
100
AcDbArc
 50
0.0
 51
90.000003
  0
LINE
  5
3FB
100
AcDbEntity
  8
0
370
    35
390
0
 62
     7
 48
0.01625
100
AcDbLine
 10
410.287048
 20
149.083328
 30
0.0
 11
410.287048
 21
148.433334
 31
0.0
210
0.0
220
0.0
230
1.0
  0
LINE
  5
3FC
100
AcDbEntity
  8
0
370
    35
390
0
 62
     7
 48
0.02
100
AcDbLine
 10
410.287048
 20
148.433334
 30
0.0
 11
411.087036
 21
148.433334
 31
0.0
210
0.0
220
0.0
230
1.0
  0
LINE
  5
3FD
100
AcDbEntity
  8
0
370
    35
390
0
 62
     7
 48
0.01625
100
AcDbLine
 10
411.087036
 20
148.433334
 30
0.0
 11
411.087036
 21
149.083328
 31
0.0
210
0.0
220
0.0
230
1.0
  0
ARC
  5
3FE
100
AcDbEntity
  8
0
370
    35
390
0
 62
     7
100
AcDbCircle
 10
411.787048
 20
149.083328
 30
0.0
 40
0.7
210
0.0
220
0.0
230
1.0
100
AcDbArc
 50
90.000003
 51
180.000005
  0
LINE
  5
3FF
100
AcDbEntity
  8
0
370
    35
390
0
 62
     7
 48
0.01625
100
AcDbLine
 10
411.787048
 20
149.78334
 30
0.0
 11
412.437042
 21
149.78334
 31
0.0
210
0.0
220
0.0
230
1.0
  0
LINE
  5
400
100
AcDbEntity
  8
0
370
    35
390
0
 62
     7
 48
0.02
100
AcDbLine
 10
412.437042
 20
149.78334
 30
0.0
 11
412.437042
 21
150.583328
 31
0.0
210
0.0
220
0.0
230
1.0
  0
LINE
  5
401
100
AcDbEntity
  8
0
370
    35
390
0
 62
     7
 48
0.01625
100
AcDbLine
 10
412.437042
 20
150.583328
 30
0.0
 11
411.787048
 21
150.583328
 31
0.0
210
0.0
220
0.0
230
1.0
  0
ARC
  5
402
100
AcDbEntity
  8
0
370
    35
390
0
 62
     7
100
AcDbCircle
 10
411.787048
 20
151.28334
 30
0.0
 40
0.7
210
0.0
220
0.0
230
1.0
100
AcDbArc
 50
180.000005
 51
269.999997
  0
LINE
  5
403
100
AcDbEntity
  8
0
370
    35
390
0
 62
     7
 48
0.01625
100
AcDbLine
 10
411.087036
 20
151.28334
 30
0.0
 11
411.087036
 21
151.933334
 31
0.0
210
0.0
220
0.0
230
1.0
  0
LINE
  5
404
100
AcDbEntity
  8
0
370
    35
390
0
 62
     7
 48
0.02
100
AcDbLine
 10
311.087036
 20
151.933334
 30
0.0
 11
310.287048
 21
151.933334
 31
0.0
210
0.0
220
0.0
230
1.0
  0
LINE
  5
405
100
AcDbEntity
  8
0
370
    35
390
0
 62
     7
 48
0.01625
100
AcDbLine
 10
310.287048
 20
151.933334
 30
0.0
 11
310.287048
 21
151.28334
 31
0.0
210
0.0
220
0.0
230
1.0
  0
ARC
  5
406
100
AcDbEntity
  8
0
370
    35
390
0
 62
     7
100
AcDbCircle
 10
309.587036
 20
151.28334
 30
0.0
 40
0.7
210
0.0
220
0.0
230
1.0
100
AcDbArc
 50
269.999997
 51
360.0
  0
LINE
  5
407
100
AcDbEntity
  8
0
370
    35
390
0
 62
     7
 48
0.01625
100
AcDbLine
 10
309.587036
 20
150.583328
 30
0.0
 11
308.937042
 21
150.583328
 31
0.0
210
0.0
220
0.0
230
1.0
  0
LINE
  5
408
100
AcDbEntity
  8
0
370
    35
390
0
 62
     7
 48
0.02
100
AcDbLine
 10
308.937042
 20
150.583328
 30
0.0
 11
308.937042
 21
149.78334
 31
0.0
210
0.0
220
0.0
230
1.0
  0
LINE
  5
409
100
AcDbEntity
  8
0
370
    35
390
0
 62
     7
 48
0.01625
100
AcDbLine
 10
308.937042
 20
149.78334
 30
0.0
 11
309.587036
 21
149.78334
 31
0.0
210
0.0
220
0.0
230
1.0
  0
ARC
  5
40A
100
AcDbEntity
  8
0
370
    35
390
0
 62
     7
100
AcDbCircle
 10
309.587036
 20
149.083328
 30
0.0
 40
0.7
210
0.0
220
0.0
230
1.0
100
AcDbArc
 50
0.0
 51
90.000003
  0
LINE
  5
40B
100
AcDbEntity
  8
0
370
    35
390
0
 62
     7
 48
0.01625
100
AcDbLine
 10
310.287048
 20
149.083328
 30
0.0
 11
310.287048
 21
148.433334
 31
0.0
210
0.0
220
0.0
230
1.0
  0
LINE
  5
40C
100
AcDbEntity
  8
0
370
    35
390
0
 62
     7
 48
0.02
100
AcDbLine
 10
310.287048
 20
148.433334
 30
0.0
 11
311.087036
 21
148.433334
 31
0.0
210
0.0
220
0.0
230
1.0
  0
LINE
  5
40D
100
AcDbEntity
  8
0
370
    35
390
0
 62
     7
 48
0.01625
100
AcDbLine
 10
311.087036
 20
148.433334
 30
0.0
 11
311.087036
 21
149.083328
 31
0.0
210
0.0
220
0.0
230
1.0
  0
ARC
  5
40E
100
AcDbEntity
  8
0
370
    35
390
0
 62
     7
100
AcDbCircle
 10
311.787048
 20
149.083328
 30
0.0
 40
0.7
210
0.0
220
0.0
230
1.0
100
AcDbArc
 50
90.000003
 51
180.000005
  0
LINE
  5
40F
100
AcDbEntity
  8
0
370
    35
390
0
 62
     7
 48
0.01625
100
AcDbLine
 10
311.787048
 20
149.78334
 30
0.0
 11
312.437042
 21
149.78334
 31
0.0
210
0.0
220
0.0
230
1.0
  0
LINE
  5
410
100
AcDbEntity
  8
0
370
    35
390
0
 62
     7
 48
0.02
100
AcDbLine
 10
312.437042
 20
149.78334
 30
0.0
 11
312.437042
 21
150.583328
 31
0.0
210
0.0
220
0.0
230
1.0
  0
LINE
  5
411
100
AcDbEntity
  8
0
370
    35
390
0
 62
     7
 48
0.01625
100
AcDbLine
 10
312.437042
 20
150.583328
 30
0.0
 11
311.787048
 21
150.583328
 31
0.0
210
0.0
220
0.0
230
1.0
  0
ARC
  5
412
100
AcDbEntity
  8
0
370
    35
390
0
 62
     7
100
AcDbCircle
 10
311.787048
 20
151.28334
 30
0.0
 40
0.7
210
0.0
220
0.0
230
1.0
100
AcDbArc
 50
180.000005
 51
269.999997
  0
LINE
  5
413
100
AcDbEntity
  8
0
370
    35
390
0
 62
     7
 48
0.01625
100
AcDbLine
 10
311.087036
 20
151.28334
 30
0.0
 11
311.087036
 21
151.933334
 31
0.0
210
0.0
220
0.0
230
1.0
  0
LINE
  5
414
100
AcDbEntity
  8
0
370
    35
390
0
 62
     7
 48
0.02
100
AcDbLine
 10
211.087036
 20
151.933334
 30
0.0
 11
210.287048
 21
151.933334
 31
0.0
210
0.0
220
0.0
230
1.0
  0
LINE
  5
415
100
AcDbEntity
  8
0
370
    35
390
0
 62
     7
 48
0.01625
100
AcDbLine
 10
210.287048
 20
151.933334
 30
0.0
 11
210.287048
 21
151.28334
 31
0.0
210
0.0
220
0.0
230
1.0
  0
ARC
  5
416
100
AcDbEntity
  8
0
370
    35
390
0
 62
     7
100
AcDbCircle
 10
209.587036
 20
151.28334
 30
0.0
 40
0.7
210
0.0
220
0.0
230
1.0
100
AcDbArc
 50
269.999997
 51
360.0
  0
LINE
  5
417
100
AcDbEntity
  8
0
370
    35
390
0
 62
     7
 48
0.01625
100
AcDbLine
 10
209.587036
 20
150.583328
 30
0.0
 11
208.937042
 21
150.583328
 31
0.0
210
0.0
220
0.0
230
1.0
  0
LINE
  5
418
100
AcDbEntity
  8
0
370
    35
390
0
 62
     7
 48
0.02
100
AcDbLine
 10
208.937042
 20
150.583328
 30
0.0
 11
208.937042
 21
149.78334
 31
0.0
210
0.0
220
0.0
230
1.0
  0
LINE
  5
419
100
AcDbEntity
  8
0
370
    35
390
0
 62
     7
 48
0.01625
100
AcDbLine
 10
208.937042
 20
149.78334
 30
0.0
 11
209.587036
 21
149.78334
 31
0.0
210
0.0
220
0.0
230
1.0
  0
ARC
  5
41A
100
AcDbEntity
  8
0
370
    35
390
0
 62
     7
100
AcDbCircle
 10
209.587036
 20
149.083328
 30
0.0
 40
0.7
210
0.0
220
0.0
230
1.0
100
AcDbArc
 50
0.0
 51
90.000003
  0
LINE
  5
41B
100
AcDbEntity
  8
0
370
    35
390
0
 62
     7
 48
0.01625
100
AcDbLine
 10
210.287048
 20
149.083328
 30
0.0
 11
210.287048
 21
148.433334
 31
0.0
210
0.0
220
0.0
230
1.0
  0
LINE
  5
41C
100
AcDbEntity
  8
0
370
    35
390
0
 62
     7
 48
0.02
100
AcDbLine
 10
210.287048
 20
148.433334
 30
0.0
 11
211.087036
 21
148.433334
 31
0.0
210
0.0
220
0.0
230
1.0
  0
LINE
  5
41D
100
AcDbEntity
  8
0
370
    35
390
0
 62
     7
 48
0.01625
100
AcDbLine
 10
211.087036
 20
148.433334
 30
0.0
 11
211.087036
 21
149.083328
 31
0.0
210
0.0
220
0.0
230
1.0
  0
ARC
  5
41E
100
AcDbEntity
  8
0
370
    35
390
0
 62
     7
100
AcDbCircle
 10
211.787048
 20
149.083328
 30
0.0
 40
0.7
210
0.0
220
0.0
230
1.0
100
AcDbArc
 50
90.000003
 51
180.000005
  0
LINE
  5
41F
100
AcDbEntity
  8
0
370
    35
390
0
 62
     7
 48
0.01625
100
AcDbLine
 10
211.787048
 20
149.78334
 30
0.0
 11
212.437042
 21
149.78334
 31
0.0
210
0.0
220
0.0
230
1.0
  0
LINE
  5
420
100
AcDbEntity
  8
0
370
    35
390
0
 62
     7
 48
0.02
100
AcDbLine
 10
212.437042
 20
149.78334
 30
0.0
 11
212.437042
 21
150.583328
 31
0.0
210
0.0
220
0.0
230
1.0
  0
LINE
  5
421
100
AcDbEntity
  8
0
370
    35
390
0
 62
     7
 48
0.01625
100
AcDbLine
 10
212.437042
 20
150.583328
 30
0.0
 11
211.787048
 21
150.583328
 31
0.0
210
0.0
220
0.0
230
1.0
  0
ARC
  5
422
100
AcDbEntity
  8
0
370
    35
390
0
 62
     7
100
AcDbCircle
 10
211.787048
 20
151.28334
 30
0.0
 40
0.7
210
0.0
220
0.0
230
1.0
100
AcDbArc
 50
180.000005
 51
269.999997
  0
LINE
  5
423
100
AcDbEntity
  8
0
370
    35
390
0
 62
     7
 48
0.01625
100
AcDbLine
 10
211.087036
 20
151.28334
 30
0.0
 11
211.087036
 21
151.933334
 31
0.0
210
0.0
220
0.0
230
1.0
  0
LINE
  5
424
100
AcDbEntity
  8
0
370
    35
390
0
 62
     7
 48
0.0775
100
AcDbLine
 10
1799.987061
 20
124.433334
 30
0.0
 11
1799.987061
 21
127.533333
 31
0.0
210
0.0
220
0.0
230
1.0
  0
LINE
  5
425
100
AcDbEntity
  8
0
370
    35
390
0
 62
     7
 48
0.007501
100
AcDbLine
 10
1799.987061
 20
127.533333
 30
0.0
 11
1799.687012
 21
127.533333
 31
0.0
210
0.0
220
0.0
230
1.0
  0
LINE
  5
426
100
AcDbEntity
  8
0
370
    35
390
0
 62
     7
 48
0.007501
100
AcDbLine
 10
1799.987061
 20
128.833328
 30
0.0
 11
1799.687012
 21
128.833328
 31
0.0
210
0.0
220
0.0
230
1.0
  0
LINE
  5
427
100
AcDbEntity
  8
0
370
    35
390
0
 62
     7
 48
0.0775
100
AcDbLine
 10
1799.987061
 20
128.833328
 30
0.0
 11
1799.987061
 21
131.933334
 31
0.0
210
0.0
220
0.0
230
1.0
  0
LINE
  5
428
100
AcDbEntity
  8
0
370
    35
390
0
 62
     7
 48
0.024689
100
AcDbLine
 10
510.193268
 20
150.933334
 30
0.0
 11
511.180817
 21
150.933334
 31
0.0
210
0.0
220
0.0
230
1.0
  0
LINE
  5
429
100
AcDbEntity
  8
0
370
    35
390
0
 62
     7
 48
0.024689
100
AcDbLine
 10
509.937042
 20
149.689545
 30
0.0
 11
509.937042
 21
150.677124
 31
0.0
210
0.0
220
0.0
230
1.0
  0
LINE
  5
42A
100
AcDbEntity
  8
0
370
    35
390
0
 62
     7
 48
0.024689
100
AcDbLine
 10
511.437042
 20
150.677124
 30
0.0
 11
511.437042
 21
149.689545
 31
0.0
210
0.0
220
0.0
230
1.0
  0
LINE
  5
42B
100
AcDbEntity
  8
0
370
    35
390
0
 62
     7
 48
0.024689
100
AcDbLine
 10
511.180817
 20
149.433334
 30
0.0
 11
510.193268
 21
149.433334
 31
0.0
210
0.0
220
0.0
230
1.0
  0
LINE
  5
42C
100
AcDbEntity
  8
0
370
    35
390
0
 62
     7
 48
0.024689
100
AcDbLine
 10
610.193237
 20
150.933334
 30
0.0
 11
611.180786
 21
150.933334
 31
0.0
210
0.0
220
0.0
230
1.0
  0
LINE
  5
42D
100
AcDbEntity
  8
0
370
    35
390
0
 62
     7
 48
0.024689
100
AcDbLine
 10
609.937012
 20
149.689545
 30
0.0
 11
609.937012
 21
150.677124
 31
0.0
210
0.0
220
0.0
230
1.0
  0
LINE
  5
42E
100
AcDbEntity
  8
0
370
    35
390
0
 62
     7
 48
0.024689
100
AcDbLine
 10
611.437012
 20
150.677124
 30
0.0
 11
611.437012
 21
149.689545
 31
0.0
210
0.0
220
0.0
230
1.0
  0
LINE
  5
42F
100
AcDbEntity
  8
0
370
    35
390
0
 62
     7
 48
0.024689
100
AcDbLine
 10
611.180786
 20
149.433334
 30
0.0
 11
610.193237
 21
149.433334
 31
0.0
210
0.0
220
0.0
230
1.0
  0
LINE
  5
430
100
AcDbEntity
  8
0
370
    35
390
0
 62
     7
 48
0.024689
100
AcDbLine
 10
710.193237
 20
150.933334
 30
0.0
 11
711.180786
 21
150.933334
 31
0.0
210
0.0
220
0.0
230
1.0
  0
LINE
  5
431
100
AcDbEntity
  8
0
370
    35
390
0
 62
     7
 48
0.024689
100
AcDbLine
 10
709.937012
 20
149.689545
 30
0.0
 11
709.937012
 21
150.677124
 31
0.0
210
0.0
220
0.0
230
1.0
  0
LINE
  5
432
100
AcDbEntity
  8
0
370
    35
390
0
 62
     7
 48
0.024689
100
AcDbLine
 10
711.437012
 20
150.677124
 30
0.0
 11
711.437012
 21
149.689545
 31
0.0
210
0.0
220
0.0
230
1.0
  0
LINE
  5
433
100
AcDbEntity
  8
0
370
    35
390
0
 62
     7
 48
0.024689
100
AcDbLine
 10
711.180786
 20
149.433334
 30
0.0
 11
710.193237
 21
149.433334
 31
0.0
210
0.0
220
0.0
230
1.0
  0
LINE
  5
434
100
AcDbEntity
  8
0
370
    35
390
0
 62
     7
 48
0.024689
100
AcDbLine
 10
810.193237
 20
150.933334
 30
0.0
 11
811.180786
 21
150.933334
 31
0.0
210
0.0
220
0.0
230
1.0
  0
LINE
  5
435
100
AcDbEntity
  8
0
370
    35
390
0
 62
     7
 48
0.024689
100
AcDbLine
 10
809.937012
 20
149.689545
 30
0.0
 11
809.937012
 21
150.677124
 31
0.0
210
0.0
220
0.0
230
1.0
  0
LINE
  5
436
100
AcDbEntity
  8
0
370
    35
390
0
 62
     7
 48
0.024689
100
AcDbLine
 10
811.437012
 20
150.677124
 30
0.0
 11
811.437012
 21
149.689545
 31
0.0
210
0.0
220
0.0
230
1.0
  0
LINE
  5
437
100
AcDbEntity
  8
0
370
    35
390
0
 62
     7
 48
0.024689
100
AcDbLine
 10
811.180786
 20
149.433334
 30
0.0
 11
810.193237
 21
149.433334
 31
0.0
210
0.0
220
0.0
230
1.0
  0
LINE
  5
438
100
AcDbEntity
  8
0
370
    35
390
0
 62
     7
 48
0.024689
100
AcDbLine
 10
910.193237
 20
150.933334
 30
0.0
 11
911.180786
 21
150.933334
 31
0.0
210
0.0
220
0.0
230
1.0
  0
LINE
  5
439
100
AcDbEntity
  8
0
370
    35
390
0
 62
     7
 48
0.024689
100
AcDbLine
 10
909.937012
 20
149.689545
 30
0.0
 11
909.937012
 21
150.677124
 31
0.0
210
0.0
220
0.0
230
1.0
  0
LINE
  5
43A
100
AcDbEntity
  8
0
370
    35
390
0
 62
     7
 48
0.024689
100
AcDbLine
 10
911.437012
 20
150.677124
 30
0.0
 11
911.437012
 21
149.689545
 31
0.0
210
0.0
220
0.0
230
1.0
  0
LINE
  5
43B
100
AcDbEntity
  8
0
370
    35
390
0
 62
     7
 48
0.024689
100
AcDbLine
 10
911.180786
 20
149.433334
 30
0.0
 11
910.193237
 21
149.433334
 31
0.0
210
0.0
220
0.0
230
1.0
  0
LINE
  5
43C
100
AcDbEntity
  8
0
370
    35
390
0
 62
     7
 48
0.024689
100
AcDbLine
 10
1010.193237
 20
150.933334
 30
0.0
 11
1011.180786
 21
150.933334
 31
0.0
210
0.0
220
0.0
230
1.0
  0
LINE
  5
43D
100
AcDbEntity
  8
0
370
    35
390
0
 62
     7
 48
0.024689
100
AcDbLine
 10
1009.937012
 20
149.689545
 30
0.0
 11
1009.937012
 21
150.677124
 31
0.0
210
0.0
220
0.0
230
1.0
  0
LINE
  5
43E
100
AcDbEntity
  8
0
370
    35
390
0
 62
     7
 48
0.024689
100
AcDbLine
 10
1011.437012
 20
150.677124
 30
0.0
 11
1011.437012
 21
149.689545
 31
0.0
210
0.0
220
0.0
230
1.0
  0
LINE
  5
43F
100
AcDbEntity
  8
0
370
    35
390
0
 62
     7
 48
0.024689
100
AcDbLine
 10
1011.180786
 20
149.433334
 30
0.0
 11
1010.193237
 21
149.433334
 31
0.0
210
0.0
220
0.0
230
1.0
  0
LINE
  5
440
100
AcDbEntity
  8
0
370
    35
390
0
 62
     7
 48
0.024689
100
AcDbLine
 10
1110.193237
 20
150.933334
 30
0.0
 11
1111.180786
 21
150.933334
 31
0.0
210
0.0
220
0.0
230
1.0
  0
LINE
  5
441
100
AcDbEntity
  8
0
370
    35
390
0
 62
     7
 48
0.024689
100
AcDbLine
 10
1109.937012
 20
149.689545
 30
0.0
 11
1109.937012
 21
150.677124
 31
0.0
210
0.0
220
0.0
230
1.0
  0
LINE
  5
442
100
AcDbEntity
  8
0
370
    35
390
0
 62
     7
 48
0.024689
100
AcDbLine
 10
1111.437012
 20
150.677124
 30
0.0
 11
1111.437012
 21
149.689545
 31
0.0
210
0.0
220
0.0
230
1.0
  0
LINE
  5
443
100
AcDbEntity
  8
0
370
    35
390
0
 62
     7
 48
0.024689
100
AcDbLine
 10
1111.180786
 20
149.433334
 30
0.0
 11
1110.193237
 21
149.433334
 31
0.0
210
0.0
220
0.0
230
1.0
  0
LINE
  5
444
100
AcDbEntity
  8
0
370
    35
390
0
 62
     7
 48
0.024689
100
AcDbLine
 10
1210.193237
 20
150.933334
 30
0.0
 11
1211.180786
 21
150.933334
 31
0.0
210
0.0
220
0.0
230
1.0
  0
LINE
  5
445
100
AcDbEntity
  8
0
370
    35
390
0
 62
     7
 48
0.024689
100
AcDbLine
 10
1209.937012
 20
149.689545
 30
0.0
 11
1209.937012
 21
150.677124
 31
0.0
210
0.0
220
0.0
230
1.0
  0
LINE
  5
446
100
AcDbEntity
  8
0
370
    35
390
0
 62
     7
 48
0.024689
100
AcDbLine
 10
1211.437012
 20
150.677124
 30
0.0
 11
1211.437012
 21
149.689545
 31
0.0
210
0.0
220
0.0
230
1.0
  0
LINE
  5
447
100
AcDbEntity
  8
0
370
    35
390
0
 62
     7
 48
0.024689
100
AcDbLine
 10
1211.180786
 20
149.433334
 30
0.0
 11
1210.193237
 21
149.433334
 31
0.0
210
0.0
220
0.0
230
1.0
  0
LINE
  5
448
100
AcDbEntity
  8
0
370
    35
390
0
 62
     7
 48
0.024689
100
AcDbLine
 10
1310.193237
 20
150.933334
 30
0.0
 11
1311.180786
 21
150.933334
 31
0.0
210
0.0
220
0.0
230
1.0
  0
LINE
  5
449
100
AcDbEntity
  8
0
370
    35
390
0
 62
     7
 48
0.024689
100
AcDbLine
 10
1309.937012
 20
149.689545
 30
0.0
 11
1309.937012
 21
150.677124
 31
0.0
210
0.0
220
0.0
230
1.0
  0
LINE
  5
44A
100
AcDbEntity
  8
0
370
    35
390
0
 62
     7
 48
0.024689
100
AcDbLine
 10
1311.437012
 20
150.677124
 30
0.0
 11
1311.437012
 21
149.689545
 31
0.0
210
0.0
220
0.0
230
1.0
  0
LINE
  5
44B
100
AcDbEntity
  8
0
370
    35
390
0
 62
     7
 48
0.024689
100
AcDbLine
 10
1311.180786
 20
149.433334
 30
0.0
 11
1310.193237
 21
149.433334
 31
0.0
210
0.0
220
0.0
230
1.0
  0
LINE
  5
44C
100
AcDbEntity
  8
0
370
    35
390
0
 62
     7
 48
0.024689
100
AcDbLine
 10
1410.193237
 20
150.933334
 30
0.0
 11
1411.180786
 21
150.933334
 31
0.0
210
0.0
220
0.0
230
1.0
  0
LINE
  5
44D
100
AcDbEntity
  8
0
370
    35
390
0
 62
     7
 48
0.024689
100
AcDbLine
 10
1409.937012
 20
149.689545
 30
0.0
 11
1409.937012
 21
150.677124
 31
0.0
210
0.0
220
0.0
230
1.0
  0
LINE
  5
44E
100
AcDbEntity
  8
0
370
    35
390
0
 62
     7
 48
0.024689
100
AcDbLine
 10
1411.437012
 20
150.677124
 30
0.0
 11
1411.437012
 21
149.689545
 31
0.0
210
0.0
220
0.0
230
1.0
  0
LINE
  5
44F
100
AcDbEntity
  8
0
370
    35
390
0
 62
     7
 48
0.024689
100
AcDbLine
 10
1411.180786
 20
149.433334
 30
0.0
 11
1410.193237
 21
149.433334
 31
0.0
210
0.0
220
0.0
230
1.0
  0
LINE
  5
450
100
AcDbEntity
  8
0
370
    35
390
0
 62
     7
 48
0.024689
100
AcDbLine
 10
1510.193237
 20
150.933334
 30
0.0
 11
1511.180786
 21
150.933334
 31
0.0
210
0.0
220
0.0
230
1.0
  0
LINE
  5
451
100
AcDbEntity
  8
0
370
    35
390
0
 62
     7
 48
0.024689
100
AcDbLine
 10
1509.937012
 20
149.689545
 30
0.0
 11
1509.937012
 21
150.677124
 31
0.0
210
0.0
220
0.0
230
1.0
  0
LINE
  5
452
100
AcDbEntity
  8
0
370
    35
390
0
 62
     7
 48
0.024689
100
AcDbLine
 10
1511.437012
 20
150.677124
 30
0.0
 11
1511.437012
 21
149.689545
 31
0.0
210
0.0
220
0.0
230
1.0
  0
LINE
  5
453
100
AcDbEntity
  8
0
370
    35
390
0
 62
     7
 48
0.024689
100
AcDbLine
 10
1511.180786
 20
149.433334
 30
0.0
 11
1510.193237
 21
149.433334
 31
0.0
210
0.0
220
0.0
230
1.0
  0
LINE
  5
454
100
AcDbEntity
  8
0
370
    35
390
0
 62
     7
 48
0.024689
100
AcDbLine
 10
1610.193237
 20
150.933334
 30
0.0
 11
1611.180786
 21
150.933334
 31
0.0
210
0.0
220
0.0
230
1.0
  0
LINE
  5
455
100
AcDbEntity
  8
0
370
    35
390
0
 62
     7
 48
0.024689
100
AcDbLine
 10
1609.937012
 20
149.689545
 30
0.0
 11
1609.937012
 21
150.677124
 31
0.0
210
0.0
220
0.0
230
1.0
  0
LINE
  5
456
100
AcDbEntity
  8
0
370
    35
390
0
 62
     7
 48
0.024689
100
AcDbLine
 10
1611.437012
 20
150.677124
 30
0.0
 11
1611.437012
 21
149.689545
 31
0.0
210
0.0
220
0.0
230
1.0
  0
LINE
  5
457
100
AcDbEntity
  8
0
370
    35
390
0
 62
     7
 48
0.024689
100
AcDbLine
 10
1611.180786
 20
149.433334
 30
0.0
 11
1610.193237
 21
149.433334
 31
0.0
210
0.0
220
0.0
230
1.0
  0
LINE
  5
458
100
AcDbEntity
  8
0
370
    35
390
0
 62
     7
 48
0.024689
100
AcDbLine
 10
1710.193237
 20
150.933334
 30
0.0
 11
1711.180786
 21
150.933334
 31
0.0
210
0.0
220
0.0
230
1.0
  0
LINE
  5
459
100
AcDbEntity
  8
0
370
    35
390
0
 62
     7
 48
0.024689
100
AcDbLine
 10
1709.937012
 20
149.689545
 30
0.0
 11
1709.937012
 21
150.677124
 31
0.0
210
0.0
220
0.0
230
1.0
  0
LINE
  5
45A
100
AcDbEntity
  8
0
370
    35
390
0
 62
     7
 48
0.024689
100
AcDbLine
 10
1711.437012
 20
150.677124
 30
0.0
 11
1711.437012
 21
149.689545
 31
0.0
210
0.0
220
0.0
230
1.0
  0
LINE
  5
45B
100
AcDbEntity
  8
0
370
    35
390
0
 62
     7
 48
0.024689
100
AcDbLine
 10
1711.180786
 20
149.433334
 30
0.0
 11
1710.193237
 21
149.433334
 31
0.0
210
0.0
220
0.0
230
1.0
  0
LINE
  5
45C
100
AcDbEntity
  8
0
370
    35
390
0
 62
     7
 48
0.024689
100
AcDbLine
 10
141.193268
 20
150.933334
 30
0.0
 11
142.180817
 21
150.933334
 31
0.0
210
0.0
220
0.0
230
1.0
  0
LINE
  5
45D
100
AcDbEntity
  8
0
370
    35
390
0
 62
     7
 48
0.024689
100
AcDbLine
 10
140.937042
 20
149.689545
 30
0.0
 11
140.937042
 21
150.677124
 31
0.0
210
0.0
220
0.0
230
1.0
  0
LINE
  5
45E
100
AcDbEntity
  8
0
370
    35
390
0
 62
     7
 48
0.024689
100
AcDbLine
 10
142.437042
 20
150.677124
 30
0.0
 11
142.437042
 21
149.689545
 31
0.0
210
0.0
220
0.0
230
1.0
  0
LINE
  5
45F
100
AcDbEntity
  8
0
370
    35
390
0
 62
     7
 48
0.024689
100
AcDbLine
 10
142.180817
 20
149.433334
 30
0.0
 11
141.193268
 21
149.433334
 31
0.0
210
0.0
220
0.0
230
1.0
  0
LINE
  5
460
100
AcDbEntity
  8
0
370
    35
390
0
 62
     7
 48
0.024689
100
AcDbLine
 10
1779.193237
 20
150.933334
 30
0.0
 11
1780.180786
 21
150.933334
 31
0.0
210
0.0
220
0.0
230
1.0
  0
LINE
  5
461
100
AcDbEntity
  8
0
370
    35
390
0
 62
     7
 48
0.024689
100
AcDbLine
 10
1778.937012
 20
149.689545
 30
0.0
 11
1778.937012
 21
150.677124
 31
0.0
210
0.0
220
0.0
230
1.0
  0
LINE
  5
462
100
AcDbEntity
  8
0
370
    35
390
0
 62
     7
 48
0.024689
100
AcDbLine
 10
1780.437012
 20
150.677124
 30
0.0
 11
1780.437012
 21
149.689545
 31
0.0
210
0.0
220
0.0
230
1.0
  0
LINE
  5
463
100
AcDbEntity
  8
0
370
    35
390
0
 62
     7
 48
0.024689
100
AcDbLine
 10
1780.180786
 20
149.433334
 30
0.0
 11
1779.193237
 21
149.433334
 31
0.0
210
0.0
220
0.0
230
1.0
  0
LINE
  5
464
100
AcDbEntity
  8
0
370
    35
390
0
 62
     7
 48
0.024689
100
AcDbLine
 10
410.193268
 20
150.933334
 30
0.0
 11
411.180817
 21
150.933334
 31
0.0
210
0.0
220
0.0
230
1.0
  0
LINE
  5
465
100
AcDbEntity
  8
0
370
    35
390
0
 62
     7
 48
0.024689
100
AcDbLine
 10
409.937042
 20
149.689545
 30
0.0
 11
409.937042
 21
150.677124
 31
0.0
210
0.0
220
0.0
230
1.0
  0
LINE
  5
466
100
AcDbEntity
  8
0
370
    35
390
0
 62
     7
 48
0.024689
100
AcDbLine
 10
411.437042
 20
150.677124
 30
0.0
 11
411.437042
 21
149.689545
 31
0.0
210
0.0
220
0.0
230
1.0
  0
LINE
  5
467
100
AcDbEntity
  8
0
370
    35
390
0
 62
     7
 48
0.024689
100
AcDbLine
 10
411.180817
 20
149.433334
 30
0.0
 11
410.193268
 21
149.433334
 31
0.0
210
0.0
220
0.0
230
1.0
  0
LINE
  5
468
100
AcDbEntity
  8
0
370
    35
390
0
 62
     7
 48
0.02469
100
AcDbLine
 10
310.193237
 20
150.933334
 30
0.0
 11
311.180847
 21
150.933334
 31
0.0
210
0.0
220
0.0
230
1.0
  0
LINE
  5
469
100
AcDbEntity
  8
0
370
    35
390
0
 62
     7
 48
0.024689
100
AcDbLine
 10
309.937042
 20
149.689545
 30
0.0
 11
309.937042
 21
150.677124
 31
0.0
210
0.0
220
0.0
230
1.0
  0
LINE
  5
46A
100
AcDbEntity
  8
0
370
    35
390
0
 62
     7
 48
0.024689
100
AcDbLine
 10
311.437042
 20
150.677124
 30
0.0
 11
311.437042
 21
149.689545
 31
0.0
210
0.0
220
0.0
230
1.0
  0
LINE
  5
46B
100
AcDbEntity
  8
0
370
    35
390
0
 62
     7
 48
0.02469
100
AcDbLine
 10
311.180847
 20
149.433334
 30
0.0
 11
310.193237
 21
149.433334
 31
0.0
210
0.0
220
0.0
230
1.0
  0
LINE
  5
46C
100
AcDbEntity
  8
0
370
    35
390
0
 62
     7
 48
0.024689
100
AcDbLine
 10
210.193268
 20
150.933334
 30
0.0
 11
211.180817
 21
150.933334
 31
0.0
210
0.0
220
0.0
230
1.0
  0
LINE
  5
46D
100
AcDbEntity
  8
0
370
    35
390
0
 62
     7
 48
0.024689
100
AcDbLine
 10
209.937042
 20
149.689545
 30
0.0
 11
209.937042
 21
150.677124
 31
0.0
210
0.0
220
0.0
230
1.0
  0
LINE
  5
46E
100
AcDbEntity
  8
0
370
    35
390
0
 62
     7
 48
0.024689
100
AcDbLine
 10
211.437042
 20
150.677124
 30
0.0
 11
211.437042
 21
149.689545
 31
0.0
210
0.0
220
0.0
230
1.0
  0
LINE
  5
46F
100
AcDbEntity
  8
0
370
    35
390
0
 62
     7
 48
0.024689
100
AcDbLine
 10
211.180817
 20
149.433334
 30
0.0
 11
210.193268
 21
149.433334
 31
0.0
210
0.0
220
0.0
230
1.0
  0
LINE
  5
470
100
AcDbEntity
  8
0
370
    35
390
0
 62
     7
 48
0.004999
100
AcDbLine
 10
1800.187012
 20
127.533333
 30
0.0
 11
1799.987061
 21
127.533333
 31
0.0
210
0.0
220
0.0
230
1.0
  0
LINE
  5
471
100
AcDbEntity
  8
0
370
    35
390
0
 62
     7
 48
0.0725
100
AcDbLine
 10
1800.187012
 20
124.633331
 30
0.0
 11
1800.187012
 21
127.533333
 31
0.0
210
0.0
220
0.0
230
1.0
  0
LINE
  5
472
100
AcDbEntity
  8
0
370
    35
390
0
 62
     7
 48
0.004999
100
AcDbLine
 10
1800.187012
 20
128.833328
 30
0.0
 11
1799.987061
 21
128.833328
 31
0.0
210
0.0
220
0.0
230
1.0
  0
LINE
  5
473
100
AcDbEntity
  8
0
370
    35
390
0
 62
     7
 48
0.0725
100
AcDbLine
 10
1800.187012
 20
128.833328
 30
0.0
 11
1800.187012
 21
131.733337
 31
0.0
210
0.0
220
0.0
230
1.0
  0
LINE
  5
474
100
AcDbEntity
  8
0
370
    35
390
0
 62
     7
 48
0.005272
100
AcDbLine
 10
1660.147217
 20
128.305634
 30
0.0
 11
1660.352417
 21
128.256989
 31
0.0
210
0.0
220
0.0
230
1.0
  0
ARC
  5
475
100
AcDbEntity
  8
0
370
    35
390
0
 62
     7
100
AcDbCircle
 10
1660.386963
 20
128.402954
 30
0.0
 40
0.15
210
0.0
220
0.0
230
1.0
100
AcDbArc
 50
256.667229
 51
343.332767
  0
LINE
  5
476
100
AcDbEntity
  8
0
370
    35
390
0
 62
     7
 48
0.005273
100
AcDbLine
 10
1660.591187
 20
128.562012
 30
0.0
 11
1660.530762
 21
128.359924
 31
0.0
210
0.0
220
0.0
230
1.0
  0
ARC
  5
477
100
AcDbEntity
  8
0
370
    35
390
0
 62
     7
100
AcDbCircle
 10
1660.687012
 20
128.53334
 30
0.0
 40
0.1
210
0.0
220
0.0
230
1.0
100
AcDbArc
 50
16.667233
 51
163.332772
  0
LINE
  5
478
100
AcDbEntity
  8
0
370
    35
390
0
 62
     7
 48
0.005273
100
AcDbLine
 10
1660.782837
 20
128.562012
 30
0.0
 11
1660.843262
 21
128.359924
 31
0.0
210
0.0
220
0.0
230
1.0
  0
ARC
  5
479
100
AcDbEntity
  8
0
370
    35
390
0
 62
     7
100
AcDbCircle
 10
1660.987061
 20
128.402954
 30
0.0
 40
0.15
210
0.0
220
0.0
230
1.0
100
AcDbArc
 50
196.667228
 51
283.332766
  0
LINE
  5
47A
100
AcDbEntity
  8
0
370
    35
390
0
 62
     7
 48
0.005272
100
AcDbLine
 10
1661.226807
 20
128.305634
 30
0.0
 11
1661.021606
 21
128.256989
 31
0.0
210
0.0
220
0.0
230
1.0
  0
ARC
  5
47B
100
AcDbEntity
  8
0
370
    35
390
0
 62
     7
100
AcDbCircle
 10
1661.249878
 20
128.208328
 30
0.0
 40
0.1
210
0.0
220
0.0
230
1.0
100
AcDbArc
 50
316.667231
 51
103.332771
  0
LINE
  5
47C
100
AcDbEntity
  8
0
370
    35
390
0
 62
     7
 48
0.005274
100
AcDbLine
 10
1661.322632
 20
128.139709
 30
0.0
 11
1661.177856
 21
127.986267
 31
0.0
210
0.0
220
0.0
230
1.0
  0
ARC
  5
47D
100
AcDbEntity
  8
0
370
    35
390
0
 62
     7
100
AcDbCircle
 10
1661.286987
 20
127.883331
 30
0.0
 40
0.15
210
0.0
220
0.0
230
1.0
100
AcDbArc
 50
136.667236
 51
223.332764
  0
LINE
  5
47E
100
AcDbEntity
  8
0
370
    35
390
0
 62
     7
 48
0.005274
100
AcDbLine
 10
1661.322632
 20
127.626953
 30
0.0
 11
1661.177856
 21
127.780396
 31
0.0
210
0.0
220
0.0
230
1.0
  0
ARC
  5
47F
100
AcDbEntity
  8
0
370
    35
390
0
 62
     7
100
AcDbCircle
 10
1661.249878
 20
127.558334
 30
0.0
 40
0.1
210
0.0
220
0.0
230
1.0
100
AcDbArc
 50
256.667229
 51
43.332769
  0
LINE
  5
480
100
AcDbEntity
  8
0
370
    35
390
0
 62
     7
 48
0.005272
100
AcDbLine
 10
1661.226807
 20
127.461029
 30
0.0
 11
1661.021606
 21
127.509674
 31
0.0
210
0.0
220
0.0
230
1.0
  0
ARC
  5
481
100
AcDbEntity
  8
0
370
    35
390
0
 62
     7
100
AcDbCircle
 10
1660.987061
 20
127.363724
 30
0.0
 40
0.15
210
0.0
220
0.0
230
1.0
100
AcDbArc
 50
76.667234
 51
163.332772
  0
LINE
  5
482
100
AcDbEntity
  8
0
370
    35
390
0
 62
     7
 48
0.005273
100
AcDbLine
 10
1660.782837
 20
127.204651
 30
0.0
 11
1660.843262
 21
127.406738
 31
0.0
210
0.0
220
0.0
230
1.0
  0
ARC
  5
483
100
AcDbEntity
  8
0
370
    35
390
0
 62
     7
100
AcDbCircle
 10
1660.687012
 20
127.233337
 30
0.0
 40
0.1
210
0.0
220
0.0
230
1.0
100
AcDbArc
 50
196.667228
 51
343.332771
  0
LINE
  5
484
100
AcDbEntity
  8
0
370
    35
390
0
 62
     7
 48
0.005273
100
AcDbLine
 10
1660.591187
 20
127.204651
 30
0.0
 11
1660.530762
 21
127.406738
 31
0.0
210
0.0
220
0.0
230
1.0
  0
ARC
  5
485
100
AcDbEntity
  8
0
370
    35
390
0
 62
     7
100
AcDbCircle
 10
1660.386963
 20
127.363724
 30
0.0
 40
0.15
210
0.0
220
0.0
230
1.0
100
AcDbArc
 50
16.667233
 51
103.332771
  0
LINE
  5
486
100
AcDbEntity
  8
0
370
    35
390
0
 62
     7
 48
0.005272
100
AcDbLine
 10
1660.147217
 20
127.461029
 30
0.0
 11
1660.352417
 21
127.509674
 31
0.0
210
0.0
220
0.0
230
1.0
  0
ARC
  5
487
100
AcDbEntity
  8
0
370
    35
390
0
 62
     7
100
AcDbCircle
 10
1660.124146
 20
127.558334
 30
0.0
 40
0.1
210
0.0
220
0.0
230
1.0
100
AcDbArc
 50
136.667236
 51
283.332773
  0
LINE
  5
488
100
AcDbEntity
  8
0
370
    35
390
0
 62
     7
 48
0.005274
100
AcDbLine
 10
1660.051392
 20
127.626953
 30
0.0
 11
1660.196167
 21
127.780396
 31
0.0
210
0.0
220
0.0
230
1.0
  0
ARC
  5
489
100
AcDbEntity
  8
0
370
    35
390
0
 62
     7
100
AcDbCircle
 10
1660.087036
 20
127.883331
 30
0.0
 40
0.15
210
0.0
220
0.0
230
1.0
100
AcDbArc
 50
316.667231
 51
43.332769
  0
LINE
  5
48A
100
AcDbEntity
  8
0
370
    35
390
0
 62
     7
 48
0.005274
100
AcDbLine
 10
1660.051392
 20
128.139709
 30
0.0
 11
1660.196167
 21
127.986267
 31
0.0
210
0.0
220
0.0
230
1.0
  0
ARC
  5
48B
100
AcDbEntity
  8
0
370
    35
390
0
 62
     7
100
AcDbCircle
 10
1660.124146
 20
128.208328
 30
0.0
 40
0.1
210
0.0
220
0.0
230
1.0
100
AcDbArc
 50
76.667234
 51
223.332764
  0
LINE
  5
48C
100
AcDbEntity
  8
0
370
    35
390
0
 62
     7
 48
0.005274
100
AcDbLine
 10
160.147186
 20
128.305634
 30
0.0
 11
160.352448
 21
128.256989
 31
0.0
210
0.0
220
0.0
230
1.0
  0
ARC
  5
48D
100
AcDbEntity
  8
0
370
    35
390
0
 62
     7
100
AcDbCircle
 10
160.387039
 20
128.402954
 30
0.0
 40
0.15
210
0.0
220
0.0
230
1.0
100
AcDbArc
 50
256.667229
 51
343.332767
  0
LINE
  5
48E
100
AcDbEntity
  8
0
370
    35
390
0
 62
     7
 48
0.005274
100
AcDbLine
 10
160.591248
 20
128.562012
 30
0.0
 11
160.530731
 21
128.359924
 31
0.0
210
0.0
220
0.0
230
1.0
  0
ARC
  5
48F
100
AcDbEntity
  8
0
370
    35
390
0
 62
     7
100
AcDbCircle
 10
160.687042
 20
128.53334
 30
0.0
 40
0.1
210
0.0
220
0.0
230
1.0
100
AcDbArc
 50
16.667233
 51
163.332772
  0
LINE
  5
490
100
AcDbEntity
  8
0
370
    35
390
0
 62
     7
 48
0.005274
100
AcDbLine
 10
160.782837
 20
128.562012
 30
0.0
 11
160.843353
 21
128.359924
 31
0.0
210
0.0
220
0.0
230
1.0
  0
ARC
  5
491
100
AcDbEntity
  8
0
370
    35
390
0
 62
     7
100
AcDbCircle
 10
160.987045
 20
128.402954
 30
0.0
 40
0.15
210
0.0
220
0.0
230
1.0
100
AcDbArc
 50
196.667228
 51
283.332766
  0
LINE
  5
492
100
AcDbEntity
  8
0
370
    35
390
0
 62
     7
 48
0.005274
100
AcDbLine
 10
161.226898
 20
128.305634
 30
0.0
 11
161.021637
 21
128.256989
 31
0.0
210
0.0
220
0.0
230
1.0
  0
ARC
  5
493
100
AcDbEntity
  8
0
370
    35
390
0
 62
     7
100
AcDbCircle
 10
161.249954
 20
128.208328
 30
0.0
 40
0.1
210
0.0
220
0.0
230
1.0
100
AcDbArc
 50
316.667231
 51
103.332771
  0
LINE
  5
494
100
AcDbEntity
  8
0
370
    35
390
0
 62
     7
 48
0.005274
100
AcDbLine
 10
161.322693
 20
128.139709
 30
0.0
 11
161.177933
 21
127.986267
 31
0.0
210
0.0
220
0.0
230
1.0
  0
ARC
  5
495
100
AcDbEntity
  8
0
370
    35
390
0
 62
     7
100
AcDbCircle
 10
161.287048
 20
127.883331
 30
0.0
 40
0.15
210
0.0
220
0.0
230
1.0
100
AcDbArc
 50
136.667236
 51
223.332764
  0
LINE
  5
496
100
AcDbEntity
  8
0
370
    35
390
0
 62
     7
 48
0.005274
100
AcDbLine
 10
161.322693
 20
127.626953
 30
0.0
 11
161.177933
 21
127.780396
 31
0.0
210
0.0
220
0.0
230
1.0
  0
ARC
  5
497
100
AcDbEntity
  8
0
370
    35
390
0
 62
     7
100
AcDbCircle
 10
161.249954
 20
127.558334
 30
0.0
 40
0.1
210
0.0
220
0.0
230
1.0
100
AcDbArc
 50
256.667229
 51
43.332769
  0
LINE
  5
498
100
AcDbEntity
  8
0
370
    35
390
0
 62
     7
 48
0.005274
100
AcDbLine
 10
161.226898
 20
127.461029
 30
0.0
 11
161.021637
 21
127.509674
 31
0.0
210
0.0
220
0.0
230
1.0
  0
ARC
  5
499
100
AcDbEntity
  8
0
370
    35
390
0
 62
     7
100
AcDbCircle
 10
160.987045
 20
127.363724
 30
0.0
 40
0.15
210
0.0
220
0.0
230
1.0
100
AcDbArc
 50
76.667234
 51
163.332772
  0
LINE
  5
49A
100
AcDbEntity
  8
0
370
    35
390
0
 62
     7
 48
0.005274
100
AcDbLine
 10
160.782837
 20
127.204651
 30
0.0
 11
160.843353
 21
127.406738
 31
0.0
210
0.0
220
0.0
230
1.0
  0
ARC
  5
49B
100
AcDbEntity
  8
0
370
    35
390
0
 62
     7
100
AcDbCircle
 10
160.687042
 20
127.233337
 30
0.0
 40
0.1
210
0.0
220
0.0
230
1.0
100
AcDbArc
 50
196.667228
 51
343.332771
  0
LINE
  5
49C
100
AcDbEntity
  8
0
370
    35
390
0
 62
     7
 48
0.005274
100
AcDbLine
 10
160.591248
 20
127.204651
 30
0.0
 11
160.530731
 21
127.406738
 31
0.0
210
0.0
220
0.0
230
1.0
  0
ARC
  5
49D
100
AcDbEntity
  8
0
370
    35
390
0
 62
     7
100
AcDbCircle
 10
160.387039
 20
127.363724
 30
0.0
 40
0.15
210
0.0
220
0.0
230
1.0
100
AcDbArc
 50
16.667233
 51
103.332771
  0
LINE
  5
49E
100
AcDbEntity
  8
0
370
    35
390
0
 62
     7
 48
0.005274
100
AcDbLine
 10
160.147186
 20
127.461029
 30
0.0
 11
160.352448
 21
127.509674
 31
0.0
210
0.0
220
0.0
230
1.0
  0
ARC
  5
49F
100
AcDbEntity
  8
0
370
    35
390
0
 62
     7
100
AcDbCircle
 10
160.12413
 20
127.558334
 30
0.0
 40
0.1
210
0.0
220
0.0
230
1.0
100
AcDbArc
 50
136.667236
 51
283.332773
  0
LINE
  5
4A0
100
AcDbEntity
  8
0
370
    35
390
0
 62
     7
 48
0.005274
100
AcDbLine
 10
160.051392
 20
127.626953
 30
0.0
 11
160.196152
 21
127.780396
 31
0.0
210
0.0
220
0.0
230
1.0
  0
ARC
  5
4A1
100
AcDbEntity
  8
0
370
    35
390
0
 62
     7
100
AcDbCircle
 10
160.087036
 20
127.883331
 30
0.0
 40
0.15
210
0.0
220
0.0
230
1.0
100
AcDbArc
 50
316.667231
 51
43.332769
  0
LINE
  5
4A2
100
AcDbEntity
  8
0
370
    35
390
0
 62
     7
 48
0.005274
100
AcDbLine
 10
160.051392
 20
128.139709
 30
0.0
 11
160.196152
 21
127.986267
 31
0.0
210
0.0
220
0.0
230
1.0
  0
ARC
  5
4A3
100
AcDbEntity
  8
0
370
    35
390
0
 62
     7
100
AcDbCircle
 10
160.12413
 20
128.208328
 30
0.0
 40
0.1
210
0.0
220
0.0
230
1.0
100
AcDbArc
 50
76.667234
 51
223.332764
  0
LINE
  5
4A4
100
AcDbEntity
  8
0
370
    35
390
0
 62
     7
 48
0.005274
100
AcDbLine
 10
260.147186
 20
128.305634
 30
0.0
 11
260.352448
 21
128.256989
 31
0.0
210
0.0
220
0.0
230
1.0
  0
ARC
  5
4A5
100
AcDbEntity
  8
0
370
    35
390
0
 62
     7
100
AcDbCircle
 10
260.387024
 20
128.402954
 30
0.0
 40
0.15
210
0.0
220
0.0
230
1.0
100
AcDbArc
 50
256.667229
 51
343.332767
  0
LINE
  5
4A6
100
AcDbEntity
  8
0
370
    35
390
0
 62
     7
 48
0.005274
100
AcDbLine
 10
260.591248
 20
128.562012
 30
0.0
 11
260.530762
 21
128.359924
 31
0.0
210
0.0
220
0.0
230
1.0
  0
ARC
  5
4A7
100
AcDbEntity
  8
0
370
    35
390
0
 62
     7
100
AcDbCircle
 10
260.687042
 20
128.53334
 30
0.0
 40
0.1
210
0.0
220
0.0
230
1.0
100
AcDbArc
 50
16.667233
 51
163.332772
  0
LINE
  5
4A8
100
AcDbEntity
  8
0
370
    35
390
0
 62
     7
 48
0.005274
100
AcDbLine
 10
260.782837
 20
128.562012
 30
0.0
 11
260.843323
 21
128.359924
 31
0.0
210
0.0
220
0.0
230
1.0
  0
ARC
  5
4A9
100
AcDbEntity
  8
0
370
    35
390
0
 62
     7
100
AcDbCircle
 10
260.987061
 20
128.402954
 30
0.0
 40
0.15
210
0.0
220
0.0
230
1.0
100
AcDbArc
 50
196.667228
 51
283.332766
  0
LINE
  5
4AA
100
AcDbEntity
  8
0
370
    35
390
0
 62
     7
 48
0.005274
100
AcDbLine
 10
261.226898
 20
128.305634
 30
0.0
 11
261.021637
 21
128.256989
 31
0.0
210
0.0
220
0.0
230
1.0
  0
ARC
  5
4AB
100
AcDbEntity
  8
0
370
    35
390
0
 62
     7
100
AcDbCircle
 10
261.249939
 20
128.208328
 30
0.0
 40
0.1
210
0.0
220
0.0
230
1.0
100
AcDbArc
 50
316.667231
 51
103.332771
  0
LINE
  5
4AC
100
AcDbEntity
  8
0
370
    35
390
0
 62
     7
 48
0.005274
100
AcDbLine
 10
261.322693
 20
128.139709
 30
0.0
 11
261.177917
 21
127.986267
 31
0.0
210
0.0
220
0.0
230
1.0
  0
ARC
  5
4AD
100
AcDbEntity
  8
0
370
    35
390
0
 62
     7
100
AcDbCircle
 10
261.287048
 20
127.883331
 30
0.0
 40
0.15
210
0.0
220
0.0
230
1.0
100
AcDbArc
 50
136.667236
 51
223.332764
  0
LINE
  5
4AE
100
AcDbEntity
  8
0
370
    35
390
0
 62
     7
 48
0.005274
100
AcDbLine
 10
261.322693
 20
127.626953
 30
0.0
 11
261.177917
 21
127.780396
 31
0.0
210
0.0
220
0.0
230
1.0
  0
ARC
  5
4AF
100
AcDbEntity
  8
0
370
    35
390
0
 62
     7
100
AcDbCircle
 10
261.249939
 20
127.558334
 30
0.0
 40
0.1
210
0.0
220
0.0
230
1.0
100
AcDbArc
 50
256.667229
 51
43.332769
  0
LINE
  5
4B0
100
AcDbEntity
  8
0
370
    35
390
0
 62
     7
 48
0.005274
100
AcDbLine
 10
261.226898
 20
127.461029
 30
0.0
 11
261.021637
 21
127.509674
 31
0.0
210
0.0
220
0.0
230
1.0
  0
ARC
  5
4B1
100
AcDbEntity
  8
0
370
    35
390
0
 62
     7
100
AcDbCircle
 10
260.987061
 20
127.363724
 30
0.0
 40
0.15
210
0.0
220
0.0
230
1.0
100
AcDbArc
 50
76.667234
 51
163.332772
  0
LINE
  5
4B2
100
AcDbEntity
  8
0
370
    35
390
0
 62
     7
 48
0.005274
100
AcDbLine
 10
260.782837
 20
127.204651
 30
0.0
 11
260.843323
 21
127.406738
 31
0.0
210
0.0
220
0.0
230
1.0
  0
ARC
  5
4B3
100
AcDbEntity
  8
0
370
    35
390
0
 62
     7
100
AcDbCircle
 10
260.687042
 20
127.233337
 30
0.0
 40
0.1
210
0.0
220
0.0
230
1.0
100
AcDbArc
 50
196.667228
 51
343.332771
  0
LINE
  5
4B4
100
AcDbEntity
  8
0
370
    35
390
0
 62
     7
 48
0.005274
100
AcDbLine
 10
260.591248
 20
127.204651
 30
0.0
 11
260.530762
 21
127.406738
 31
0.0
210
0.0
220
0.0
230
1.0
  0
ARC
  5
4B5
100
AcDbEntity
  8
0
370
    35
390
0
 62
     7
100
AcDbCircle
 10
260.387024
 20
127.363724
 30
0.0
 40
0.15
210
0.0
220
0.0
230
1.0
100
AcDbArc
 50
16.667233
 51
103.332771
  0
LINE
  5
4B6
100
AcDbEntity
  8
0
370
    35
390
0
 62
     7
 48
0.005274
100
AcDbLine
 10
260.147186
 20
127.461029
 30
0.0
 11
260.352448
 21
127.509674
 31
0.0
210
0.0
220
0.0
230
1.0
  0
ARC
  5
4B7
100
AcDbEntity
  8
0
370
    35
390
0
 62
     7
100
AcDbCircle
 10
260.124146
 20
127.558334
 30
0.0
 40
0.1
210
0.0
220
0.0
230
1.0
100
AcDbArc
 50
136.667236
 51
283.332773
  0
LINE
  5
4B8
100
AcDbEntity
  8
0
370
    35
390
0
 62
     7
 48
0.005274
100
AcDbLine
 10
260.051392
 20
127.626953
 30
0.0
 11
260.196167
 21
127.780396
 31
0.0
210
0.0
220
0.0
230
1.0
  0
ARC
  5
4B9
100
AcDbEntity
  8
0
370
    35
390
0
 62
     7
100
AcDbCircle
 10
260.087036
 20
127.883331
 30
0.0
 40
0.15
210
0.0
220
0.0
230
1.0
100
AcDbArc
 50
316.667231
 51
43.332769
  0
LINE
  5
4BA
100
AcDbEntity
  8
0
370
    35
390
0
 62
     7
 48
0.005274
100
AcDbLine
 10
260.051392
 20
128.139709
 30
0.0
 11
260.196167
 21
127.986267
 31
0.0
210
0.0
220
0.0
230
1.0
  0
ARC
  5
4BB
100
AcDbEntity
  8
0
370
    35
390
0
 62
     7
100
AcDbCircle
 10
260.124146
 20
128.208328
 30
0.0
 40
0.1
210
0.0
220
0.0
230
1.0
100
AcDbArc
 50
76.667234
 51
223.332764
  0
LINE
  5
4BC
100
AcDbEntity
  8
0
370
    35
390
0
 62
     7
 48
0.005274
100
AcDbLine
 10
360.147186
 20
128.305634
 30
0.0
 11
360.352448
 21
128.256989
 31
0.0
210
0.0
220
0.0
230
1.0
  0
ARC
  5
4BD
100
AcDbEntity
  8
0
370
    35
390
0
 62
     7
100
AcDbCircle
 10
360.387024
 20
128.402954
 30
0.0
 40
0.15
210
0.0
220
0.0
230
1.0
100
AcDbArc
 50
256.667229
 51
343.332767
  0
LINE
  5
4BE
100
AcDbEntity
  8
0
370
    35
390
0
 62
     7
 48
0.005274
100
AcDbLine
 10
360.591248
 20
128.562012
 30
0.0
 11
360.530762
 21
128.359924
 31
0.0
210
0.0
220
0.0
230
1.0
  0
ARC
  5
4BF
100
AcDbEntity
  8
0
370
    35
390
0
 62
     7
100
AcDbCircle
 10
360.687042
 20
128.53334
 30
0.0
 40
0.1
210
0.0
220
0.0
230
1.0
100
AcDbArc
 50
16.667233
 51
163.332772
  0
LINE
  5
4C0
100
AcDbEntity
  8
0
370
    35
390
0
 62
     7
 48
0.005274
100
AcDbLine
 10
360.782837
 20
128.562012
 30
0.0
 11
360.843323
 21
128.359924
 31
0.0
210
0.0
220
0.0
230
1.0
  0
ARC
  5
4C1
100
AcDbEntity
  8
0
370
    35
390
0
 62
     7
100
AcDbCircle
 10
360.987061
 20
128.402954
 30
0.0
 40
0.15
210
0.0
220
0.0
230
1.0
100
AcDbArc
 50
196.667228
 51
283.332766
  0
LINE
  5
4C2
100
AcDbEntity
  8
0
370
    35
390
0
 62
     7
 48
0.005274
100
AcDbLine
 10
361.226898
 20
128.305634
 30
0.0
 11
361.021637
 21
128.256989
 31
0.0
210
0.0
220
0.0
230
1.0
  0
ARC
  5
4C3
100
AcDbEntity
  8
0
370
    35
390
0
 62
     7
100
AcDbCircle
 10
361.249939
 20
128.208328
 30
0.0
 40
0.1
210
0.0
220
0.0
230
1.0
100
AcDbArc
 50
316.667231
 51
103.332771
  0
LINE
  5
4C4
100
AcDbEntity
  8
0
370
    35
390
0
 62
     7
 48
0.005274
100
AcDbLine
 10
361.322693
 20
128.139709
 30
0.0
 11
361.177917
 21
127.986267
 31
0.0
210
0.0
220
0.0
230
1.0
  0
ARC
  5
4C5
100
AcDbEntity
  8
0
370
    35
390
0
 62
     7
100
AcDbCircle
 10
361.287048
 20
127.883331
 30
0.0
 40
0.15
210
0.0
220
0.0
230
1.0
100
AcDbArc
 50
136.667236
 51
223.332764
  0
LINE
  5
4C6
100
AcDbEntity
  8
0
370
    35
390
0
 62
     7
 48
0.005274
100
AcDbLine
 10
361.322693
 20
127.626953
 30
0.0
 11
361.177917
 21
127.780396
 31
0.0
210
0.0
220
0.0
230
1.0
  0
ARC
  5
4C7
100
AcDbEntity
  8
0
370
    35
390
0
 62
     7
100
AcDbCircle
 10
361.249939
 20
127.558334
 30
0.0
 40
0.1
210
0.0
220
0.0
230
1.0
100
AcDbArc
 50
256.667229
 51
43.332769
  0
LINE
  5
4C8
100
AcDbEntity
  8
0
370
    35
390
0
 62
     7
 48
0.005274
100
AcDbLine
 10
361.226898
 20
127.461029
 30
0.0
 11
361.021637
 21
127.509674
 31
0.0
210
0.0
220
0.0
230
1.0
  0
ARC
  5
4C9
100
AcDbEntity
  8
0
370
    35
390
0
 62
     7
100
AcDbCircle
 10
360.987061
 20
127.363724
 30
0.0
 40
0.15
210
0.0
220
0.0
230
1.0
100
AcDbArc
 50
76.667234
 51
163.332772
  0
LINE
  5
4CA
100
AcDbEntity
  8
0
370
    35
390
0
 62
     7
 48
0.005274
100
AcDbLine
 10
360.782837
 20
127.204651
 30
0.0
 11
360.843323
 21
127.406738
 31
0.0
210
0.0
220
0.0
230
1.0
  0
ARC
  5
4CB
100
AcDbEntity
  8
0
370
    35
390
0
 62
     7
100
AcDbCircle
 10
360.687042
 20
127.233337
 30
0.0
 40
0.1
210
0.0
220
0.0
230
1.0
100
AcDbArc
 50
196.667228
 51
343.332771
  0
LINE
  5
4CC
100
AcDbEntity
  8
0
370
    35
390
0
 62
     7
 48
0.005274
100
AcDbLine
 10
360.591248
 20
127.204651
 30
0.0
 11
360.530762
 21
127.406738
 31
0.0
210
0.0
220
0.0
230
1.0
  0
ARC
  5
4CD
100
AcDbEntity
  8
0
370
    35
390
0
 62
     7
100
AcDbCircle
 10
360.387024
 20
127.363724
 30
0.0
 40
0.15
210
0.0
220
0.0
230
1.0
100
AcDbArc
 50
16.667233
 51
103.332771
  0
LINE
  5
4CE
100
AcDbEntity
  8
0
370
    35
390
0
 62
     7
 48
0.005274
100
AcDbLine
 10
360.147186
 20
127.461029
 30
0.0
 11
360.352448
 21
127.509674
 31
0.0
210
0.0
220
0.0
230
1.0
  0
ARC
  5
4CF
100
AcDbEntity
  8
0
370
    35
390
0
 62
     7
100
AcDbCircle
 10
360.124146
 20
127.558334
 30
0.0
 40
0.1
210
0.0
220
0.0
230
1.0
100
AcDbArc
 50
136.667236
 51
283.332773
  0
LINE
  5
4D0
100
AcDbEntity
  8
0
370
    35
390
0
 62
     7
 48
0.005274
100
AcDbLine
 10
360.051392
 20
127.626953
 30
0.0
 11
360.196167
 21
127.780396
 31
0.0
210
0.0
220
0.0
230
1.0
  0
ARC
  5
4D1
100
AcDbEntity
  8
0
370
    35
390
0
 62
     7
100
AcDbCircle
 10
360.087036
 20
127.883331
 30
0.0
 40
0.15
210
0.0
220
0.0
230
1.0
100
AcDbArc
 50
316.667231
 51
43.332769
  0
LINE
  5
4D2
100
AcDbEntity
  8
0
370
    35
390
0
 62
     7
 48
0.005274
100
AcDbLine
 10
360.051392
 20
128.139709
 30
0.0
 11
360.196167
 21
127.986267
 31
0.0
210
0.0
220
0.0
230
1.0
  0
ARC
  5
4D3
100
AcDbEntity
  8
0
370
    35
390
0
 62
     7
100
AcDbCircle
 10
360.124146
 20
128.208328
 30
0.0
 40
0.1
210
0.0
220
0.0
230
1.0
100
AcDbArc
 50
76.667234
 51
223.332764
  0
LINE
  5
4D4
100
AcDbEntity
  8
0
370
    35
390
0
 62
     7
 48
0.005274
100
AcDbLine
 10
460.147186
 20
128.305634
 30
0.0
 11
460.352448
 21
128.256989
 31
0.0
210
0.0
220
0.0
230
1.0
  0
ARC
  5
4D5
100
AcDbEntity
  8
0
370
    35
390
0
 62
     7
100
AcDbCircle
 10
460.387054
 20
128.402954
 30
0.0
 40
0.15
210
0.0
220
0.0
230
1.0
100
AcDbArc
 50
256.667229
 51
343.332767
  0
LINE
  5
4D6
100
AcDbEntity
  8
0
370
    35
390
0
 62
     7
 48
0.005274
100
AcDbLine
 10
460.591248
 20
128.562012
 30
0.0
 11
460.530731
 21
128.359924
 31
0.0
210
0.0
220
0.0
230
1.0
  0
ARC
  5
4D7
100
AcDbEntity
  8
0
370
    35
390
0
 62
     7
100
AcDbCircle
 10
460.687042
 20
128.53334
 30
0.0
 40
0.1
210
0.0
220
0.0
230
1.0
100
AcDbArc
 50
16.667233
 51
163.332772
  0
LINE
  5
4D8
100
AcDbEntity
  8
0
370
    35
390
0
 62
     7
 48
0.005274
100
AcDbLine
 10
460.782837
 20
128.562012
 30
0.0
 11
460.843353
 21
128.359924
 31
0.0
210
0.0
220
0.0
230
1.0
  0
ARC
  5
4D9
100
AcDbEntity
  8
0
370
    35
390
0
 62
     7
100
AcDbCircle
 10
460.98703
 20
128.402954
 30
0.0
 40
0.15
210
0.0
220
0.0
230
1.0
100
AcDbArc
 50
196.667228
 51
283.332766
  0
LINE
  5
4DA
100
AcDbEntity
  8
0
370
    35
390
0
 62
     7
 48
0.005274
100
AcDbLine
 10
461.226898
 20
128.305634
 30
0.0
 11
461.021637
 21
128.256989
 31
0.0
210
0.0
220
0.0
230
1.0
  0
ARC
  5
4DB
100
AcDbEntity
  8
0
370
    35
390
0
 62
     7
100
AcDbCircle
 10
461.249969
 20
128.208328
 30
0.0
 40
0.1
210
0.0
220
0.0
230
1.0
100
AcDbArc
 50
316.667231
 51
103.332771
  0
LINE
  5
4DC
100
AcDbEntity
  8
0
370
    35
390
0
 62
     7
 48
0.005273
100
AcDbLine
 10
461.322693
 20
128.139709
 30
0.0
 11
461.177948
 21
127.986267
 31
0.0
210
0.0
220
0.0
230
1.0
  0
ARC
  5
4DD
100
AcDbEntity
  8
0
370
    35
390
0
 62
     7
100
AcDbCircle
 10
461.287048
 20
127.883331
 30
0.0
 40
0.15
210
0.0
220
0.0
230
1.0
100
AcDbArc
 50
136.667236
 51
223.332764
  0
LINE
  5
4DE
100
AcDbEntity
  8
0
370
    35
390
0
 62
     7
 48
0.005273
100
AcDbLine
 10
461.322693
 20
127.626953
 30
0.0
 11
461.177948
 21
127.780396
 31
0.0
210
0.0
220
0.0
230
1.0
  0
ARC
  5
4DF
100
AcDbEntity
  8
0
370
    35
390
0
 62
     7
100
AcDbCircle
 10
461.249969
 20
127.558334
 30
0.0
 40
0.1
210
0.0
220
0.0
230
1.0
100
AcDbArc
 50
256.667229
 51
43.332769
  0
LINE
  5
4E0
100
AcDbEntity
  8
0
370
    35
390
0
 62
     7
 48
0.005274
100
AcDbLine
 10
461.226898
 20
127.461029
 30
0.0
 11
461.021637
 21
127.509674
 31
0.0
210
0.0
220
0.0
230
1.0
  0
ARC
  5
4E1
100
AcDbEntity
  8
0
370
    35
390
0
 62
     7
100
AcDbCircle
 10
460.98703
 20
127.363724
 30
0.0
 40
0.15
210
0.0
220
0.0
230
1.0
100
AcDbArc
 50
76.667234
 51
163.332772
  0
LINE
  5
4E2
100
AcDbEntity
  8
0
370
    35
390
0
 62
     7
 48
0.005274
100
AcDbLine
 10
460.782837
 20
127.204651
 30
0.0
 11
460.843353
 21
127.406738
 31
0.0
210
0.0
220
0.0
230
1.0
  0
ARC
  5
4E3
100
AcDbEntity
  8
0
370
    35
390
0
 62
     7
100
AcDbCircle
 10
460.687042
 20
127.233337
 30
0.0
 40
0.1
210
0.0
220
0.0
230
1.0
100
AcDbArc
 50
196.667228
 51
343.332771
  0
LINE
  5
4E4
100
AcDbEntity
  8
0
370
    35
390
0
 62
     7
 48
0.005274
100
AcDbLine
 10
460.591248
 20
127.204651
 30
0.0
 11
460.530731
 21
127.406738
 31
0.0
210
0.0
220
0.0
230
1.0
  0
ARC
  5
4E5
100
AcDbEntity
  8
0
370
    35
390
0
 62
     7
100
AcDbCircle
 10
460.387054
 20
127.363724
 30
0.0
 40
0.15
210
0.0
220
0.0
230
1.0
100
AcDbArc
 50
16.667233
 51
103.332771
  0
LINE
  5
4E6
100
AcDbEntity
  8
0
370
    35
390
0
 62
     7
 48
0.005274
100
AcDbLine
 10
460.147186
 20
127.461029
 30
0.0
 11
460.352448
 21
127.509674
 31
0.0
210
0.0
220
0.0
230
1.0
  0
ARC
  5
4E7
100
AcDbEntity
  8
0
370
    35
390
0
 62
     7
100
AcDbCircle
 10
460.124115
 20
127.558334
 30
0.0
 40
0.1
210
0.0
220
0.0
230
1.0
100
AcDbArc
 50
136.667236
 51
283.332773
  0
LINE
  5
4E8
100
AcDbEntity
  8
0
370
    35
390
0
 62
     7
 48
0.005273
100
AcDbLine
 10
460.051392
 20
127.626953
 30
0.0
 11
460.196136
 21
127.780396
 31
0.0
210
0.0
220
0.0
230
1.0
  0
ARC
  5
4E9
100
AcDbEntity
  8
0
370
    35
390
0
 62
     7
100
AcDbCircle
 10
460.087036
 20
127.883331
 30
0.0
 40
0.15
210
0.0
220
0.0
230
1.0
100
AcDbArc
 50
316.667231
 51
43.332769
  0
LINE
  5
4EA
100
AcDbEntity
  8
0
370
    35
390
0
 62
     7
 48
0.005273
100
AcDbLine
 10
460.051392
 20
128.139709
 30
0.0
 11
460.196136
 21
127.986267
 31
0.0
210
0.0
220
0.0
230
1.0
  0
ARC
  5
4EB
100
AcDbEntity
  8
0
370
    35
390
0
 62
     7
100
AcDbCircle
 10
460.124115
 20
128.208328
 30
0.0
 40
0.1
210
0.0
220
0.0
230
1.0
100
AcDbArc
 50
76.667234
 51
223.332764
  0
LINE
  5
4EC
100
AcDbEntity
  8
0
370
    35
390
0
 62
     7
 48
0.005272
100
AcDbLine
 10
560.147217
 20
128.305634
 30
0.0
 11
560.352417
 21
128.256989
 31
0.0
210
0.0
220
0.0
230
1.0
  0
ARC
  5
4ED
100
AcDbEntity
  8
0
370
    35
390
0
 62
     7
100
AcDbCircle
 10
560.387085
 20
128.402954
 30
0.0
 40
0.15
210
0.0
220
0.0
230
1.0
100
AcDbArc
 50
256.667229
 51
343.332767
  0
LINE
  5
4EE
100
AcDbEntity
  8
0
370
    35
390
0
 62
     7
 48
0.005274
100
AcDbLine
 10
560.591248
 20
128.562012
 30
0.0
 11
560.530762
 21
128.359924
 31
0.0
210
0.0
220
0.0
230
1.0
  0
ARC
  5
4EF
100
AcDbEntity
  8
0
370
    35
390
0
 62
     7
100
AcDbCircle
 10
560.687012
 20
128.53334
 30
0.0
 40
0.1
210
0.0
220
0.0
230
1.0
100
AcDbArc
 50
16.667233
 51
163.332772
  0
LINE
  5
4F0
100
AcDbEntity
  8
0
370
    35
390
0
 62
     7
 48
0.005274
100
AcDbLine
 10
560.782837
 20
128.562012
 30
0.0
 11
560.843384
 21
128.359924
 31
0.0
210
0.0
220
0.0
230
1.0
  0
ARC
  5
4F1
100
AcDbEntity
  8
0
370
    35
390
0
 62
     7
100
AcDbCircle
 10
560.987061
 20
128.402954
 30
0.0
 40
0.15
210
0.0
220
0.0
230
1.0
100
AcDbArc
 50
196.667228
 51
283.332766
  0
LINE
  5
4F2
100
AcDbEntity
  8
0
370
    35
390
0
 62
     7
 48
0.005275
100
AcDbLine
 10
561.226929
 20
128.305634
 30
0.0
 11
561.021606
 21
128.256989
 31
0.0
210
0.0
220
0.0
230
1.0
  0
ARC
  5
4F3
100
AcDbEntity
  8
0
370
    35
390
0
 62
     7
100
AcDbCircle
 10
561.25
 20
128.208328
 30
0.0
 40
0.1
210
0.0
220
0.0
230
1.0
100
AcDbArc
 50
316.667231
 51
103.332771
  0
LINE
  5
4F4
100
AcDbEntity
  8
0
370
    35
390
0
 62
     7
 48
0.005273
100
AcDbLine
 10
561.322693
 20
128.139709
 30
0.0
 11
561.177979
 21
127.986267
 31
0.0
210
0.0
220
0.0
230
1.0
  0
ARC
  5
4F5
100
AcDbEntity
  8
0
370
    35
390
0
 62
     7
100
AcDbCircle
 10
561.287048
 20
127.883331
 30
0.0
 40
0.15
210
0.0
220
0.0
230
1.0
100
AcDbArc
 50
136.667236
 51
223.332764
  0
LINE
  5
4F6
100
AcDbEntity
  8
0
370
    35
390
0
 62
     7
 48
0.005273
100
AcDbLine
 10
561.322693
 20
127.626953
 30
0.0
 11
561.177979
 21
127.780396
 31
0.0
210
0.0
220
0.0
230
1.0
  0
ARC
  5
4F7
100
AcDbEntity
  8
0
370
    35
390
0
 62
     7
100
AcDbCircle
 10
561.25
 20
127.558334
 30
0.0
 40
0.1
210
0.0
220
0.0
230
1.0
100
AcDbArc
 50
256.667229
 51
43.332769
  0
LINE
  5
4F8
100
AcDbEntity
  8
0
370
    35
390
0
 62
     7
 48
0.005275
100
AcDbLine
 10
561.226929
 20
127.461029
 30
0.0
 11
561.021606
 21
127.509674
 31
0.0
210
0.0
220
0.0
230
1.0
  0
ARC
  5
4F9
100
AcDbEntity
  8
0
370
    35
390
0
 62
     7
100
AcDbCircle
 10
560.987061
 20
127.363724
 30
0.0
 40
0.15
210
0.0
220
0.0
230
1.0
100
AcDbArc
 50
76.667234
 51
163.332772
  0
LINE
  5
4FA
100
AcDbEntity
  8
0
370
    35
390
0
 62
     7
 48
0.005274
100
AcDbLine
 10
560.782837
 20
127.204651
 30
0.0
 11
560.843384
 21
127.406738
 31
0.0
210
0.0
220
0.0
230
1.0
  0
ARC
  5
4FB
100
AcDbEntity
  8
0
370
    35
390
0
 62
     7
100
AcDbCircle
 10
560.687012
 20
127.233337
 30
0.0
 40
0.1
210
0.0
220
0.0
230
1.0
100
AcDbArc
 50
196.667228
 51
343.332771
  0
LINE
  5
4FC
100
AcDbEntity
  8
0
370
    35
390
0
 62
     7
 48
0.005274
100
AcDbLine
 10
560.591248
 20
127.204651
 30
0.0
 11
560.530762
 21
127.406738
 31
0.0
210
0.0
220
0.0
230
1.0
  0
ARC
  5
4FD
100
AcDbEntity
  8
0
370
    35
390
0
 62
     7
100
AcDbCircle
 10
560.387085
 20
127.363724
 30
0.0
 40
0.15
210
0.0
220
0.0
230
1.0
100
AcDbArc
 50
16.667233
 51
103.332771
  0
LINE
  5
4FE
100
AcDbEntity
  8
0
370
    35
390
0
 62
     7
 48
0.005272
100
AcDbLine
 10
560.147217
 20
127.461029
 30
0.0
 11
560.352417
 21
127.509674
 31
0.0
210
0.0
220
0.0
230
1.0
  0
ARC
  5
4FF
100
AcDbEntity
  8
0
370
    35
390
0
 62
     7
100
AcDbCircle
 10
560.124146
 20
127.558334
 30
0.0
 40
0.1
210
0.0
220
0.0
230
1.0
100
AcDbArc
 50
136.667236
 51
283.332773
  0
LINE
  5
500
100
AcDbEntity
  8
0
370
    35
390
0
 62
     7
 48
0.005274
100
AcDbLine
 10
560.051392
 20
127.626953
 30
0.0
 11
560.196167
 21
127.780396
 31
0.0
210
0.0
220
0.0
230
1.0
  0
ARC
  5
501
100
AcDbEntity
  8
0
370
    35
390
0
 62
     7
100
AcDbCircle
 10
560.087036
 20
127.883331
 30
0.0
 40
0.15
210
0.0
220
0.0
230
1.0
100
AcDbArc
 50
316.667231
 51
43.332769
  0
LINE
  5
502
100
AcDbEntity
  8
0
370
    35
390
0
 62
     7
 48
0.005274
100
AcDbLine
 10
560.051392
 20
128.139709
 30
0.0
 11
560.196167
 21
127.986267
 31
0.0
210
0.0
220
0.0
230
1.0
  0
ARC
  5
503
100
AcDbEntity
  8
0
370
    35
390
0
 62
     7
100
AcDbCircle
 10
560.124146
 20
128.208328
 30
0.0
 40
0.1
210
0.0
220
0.0
230
1.0
100
AcDbArc
 50
76.667234
 51
223.332764
  0
LINE
  5
504
100
AcDbEntity
  8
0
370
    35
390
0
 62
     7
 48
0.005272
100
AcDbLine
 10
660.147217
 20
128.305634
 30
0.0
 11
660.352417
 21
128.256989
 31
0.0
210
0.0
220
0.0
230
1.0
  0
ARC
  5
505
100
AcDbEntity
  8
0
370
    35
390
0
 62
     7
100
AcDbCircle
 10
660.387085
 20
128.402954
 30
0.0
 40
0.15
210
0.0
220
0.0
230
1.0
100
AcDbArc
 50
256.667229
 51
343.332767
  0
LINE
  5
506
100
AcDbEntity
  8
0
370
    35
390
0
 62
     7
 48
0.005273
100
AcDbLine
 10
660.591187
 20
128.562012
 30
0.0
 11
660.530762
 21
128.359924
 31
0.0
210
0.0
220
0.0
230
1.0
  0
ARC
  5
507
100
AcDbEntity
  8
0
370
    35
390
0
 62
     7
100
AcDbCircle
 10
660.687012
 20
128.53334
 30
0.0
 40
0.1
210
0.0
220
0.0
230
1.0
100
AcDbArc
 50
16.667233
 51
163.332772
  0
LINE
  5
508
100
AcDbEntity
  8
0
370
    35
390
0
 62
     7
 48
0.005274
100
AcDbLine
 10
660.782837
 20
128.562012
 30
0.0
 11
660.843384
 21
128.359924
 31
0.0
210
0.0
220
0.0
230
1.0
  0
ARC
  5
509
100
AcDbEntity
  8
0
370
    35
390
0
 62
     7
100
AcDbCircle
 10
660.987061
 20
128.402954
 30
0.0
 40
0.15
210
0.0
220
0.0
230
1.0
100
AcDbArc
 50
196.667228
 51
283.332766
  0
LINE
  5
50A
100
AcDbEntity
  8
0
370
    35
390
0
 62
     7
 48
0.005275
100
AcDbLine
 10
661.226929
 20
128.305634
 30
0.0
 11
661.021606
 21
128.256989
 31
0.0
210
0.0
220
0.0
230
1.0
  0
ARC
  5
50B
100
AcDbEntity
  8
0
370
    35
390
0
 62
     7
100
AcDbCircle
 10
661.25
 20
128.208328
 30
0.0
 40
0.1
210
0.0
220
0.0
230
1.0
100
AcDbArc
 50
316.667231
 51
103.332771
  0
LINE
  5
50C
100
AcDbEntity
  8
0
370
    35
390
0
 62
     7
 48
0.005274
100
AcDbLine
 10
661.322754
 20
128.139709
 30
0.0
 11
661.177979
 21
127.986267
 31
0.0
210
0.0
220
0.0
230
1.0
  0
ARC
  5
50D
100
AcDbEntity
  8
0
370
    35
390
0
 62
     7
100
AcDbCircle
 10
661.286987
 20
127.883331
 30
0.0
 40
0.15
210
0.0
220
0.0
230
1.0
100
AcDbArc
 50
136.667236
 51
223.332764
  0
LINE
  5
50E
100
AcDbEntity
  8
0
370
    35
390
0
 62
     7
 48
0.005274
100
AcDbLine
 10
661.322754
 20
127.626953
 30
0.0
 11
661.177979
 21
127.780396
 31
0.0
210
0.0
220
0.0
230
1.0
  0
ARC
  5
50F
100
AcDbEntity
  8
0
370
    35
390
0
 62
     7
100
AcDbCircle
 10
661.25
 20
127.558334
 30
0.0
 40
0.1
210
0.0
220
0.0
230
1.0
100
AcDbArc
 50
256.667229
 51
43.332769
  0
LINE
  5
510
100
AcDbEntity
  8
0
370
    35
390
0
 62
     7
 48
0.005275
100
AcDbLine
 10
661.226929
 20
127.461029
 30
0.0
 11
661.021606
 21
127.509674
 31
0.0
210
0.0
220
0.0
230
1.0
  0
ARC
  5
511
100
AcDbEntity
  8
0
370
    35
390
0
 62
     7
100
AcDbCircle
 10
660.987061
 20
127.363724
 30
0.0
 40
0.15
210
0.0
220
0.0
230
1.0
100
AcDbArc
 50
76.667234
 51
163.332772
  0
LINE
  5
512
100
AcDbEntity
  8
0
370
    35
390
0
 62
     7
 48
0.005274
100
AcDbLine
 10
660.782837
 20
127.204651
 30
0.0
 11
660.843384
 21
127.406738
 31
0.0
210
0.0
220
0.0
230
1.0
  0
ARC
  5
513
100
AcDbEntity
  8
0
370
    35
390
0
 62
     7
100
AcDbCircle
 10
660.687012
 20
127.233337
 30
0.0
 40
0.1
210
0.0
220
0.0
230
1.0
100
AcDbArc
 50
196.667228
 51
343.332771
  0
LINE
  5
514
100
AcDbEntity
  8
0
370
    35
390
0
 62
     7
 48
0.005273
100
AcDbLine
 10
660.591187
 20
127.204651
 30
0.0
 11
660.530762
 21
127.406738
 31
0.0
210
0.0
220
0.0
230
1.0
  0
ARC
  5
515
100
AcDbEntity
  8
0
370
    35
390
0
 62
     7
100
AcDbCircle
 10
660.387085
 20
127.363724
 30
0.0
 40
0.15
210
0.0
220
0.0
230
1.0
100
AcDbArc
 50
16.667233
 51
103.332771
  0
LINE
  5
516
100
AcDbEntity
  8
0
370
    35
390
0
 62
     7
 48
0.005272
100
AcDbLine
 10
660.147217
 20
127.461029
 30
0.0
 11
660.352417
 21
127.509674
 31
0.0
210
0.0
220
0.0
230
1.0
  0
ARC
  5
517
100
AcDbEntity
  8
0
370
    35
390
0
 62
     7
100
AcDbCircle
 10
660.124146
 20
127.558334
 30
0.0
 40
0.1
210
0.0
220
0.0
230
1.0
100
AcDbArc
 50
136.667236
 51
283.332773
  0
LINE
  5
518
100
AcDbEntity
  8
0
370
    35
390
0
 62
     7
 48
0.005274
100
AcDbLine
 10
660.051392
 20
127.626953
 30
0.0
 11
660.196167
 21
127.780396
 31
0.0
210
0.0
220
0.0
230
1.0
  0
ARC
  5
519
100
AcDbEntity
  8
0
370
    35
390
0
 62
     7
100
AcDbCircle
 10
660.087036
 20
127.883331
 30
0.0
 40
0.15
210
0.0
220
0.0
230
1.0
100
AcDbArc
 50
316.667231
 51
43.332769
  0
LINE
  5
51A
100
AcDbEntity
  8
0
370
    35
390
0
 62
     7
 48
0.005274
100
AcDbLine
 10
660.051392
 20
128.139709
 30
0.0
 11
660.196167
 21
127.986267
 31
0.0
210
0.0
220
0.0
230
1.0
  0
ARC
  5
51B
100
AcDbEntity
  8
0
370
    35
390
0
 62
     7
100
AcDbCircle
 10
660.124146
 20
128.208328
 30
0.0
 40
0.1
210
0.0
220
0.0
230
1.0
100
AcDbArc
 50
76.667234
 51
223.332764
  0
LINE
  5
51C
100
AcDbEntity
  8
0
370
    35
390
0
 62
     7
 48
0.005272
100
AcDbLine
 10
760.147217
 20
128.305634
 30
0.0
 11
760.352417
 21
128.256989
 31
0.0
210
0.0
220
0.0
230
1.0
  0
ARC
  5
51D
100
AcDbEntity
  8
0
370
    35
390
0
 62
     7
100
AcDbCircle
 10
760.387085
 20
128.402954
 30
0.0
 40
0.15
210
0.0
220
0.0
230
1.0
100
AcDbArc
 50
256.667229
 51
343.332767
  0
LINE
  5
51E
100
AcDbEntity
  8
0
370
    35
390
0
 62
     7
 48
0.005273
100
AcDbLine
 10
760.591187
 20
128.562012
 30
0.0
 11
760.530762
 21
128.359924
 31
0.0
210
0.0
220
0.0
230
1.0
  0
ARC
  5
51F
100
AcDbEntity
  8
0
370
    35
390
0
 62
     7
100
AcDbCircle
 10
760.687012
 20
128.53334
 30
0.0
 40
0.1
210
0.0
220
0.0
230
1.0
100
AcDbArc
 50
16.667233
 51
163.332772
  0
LINE
  5
520
100
AcDbEntity
  8
0
370
    35
390
0
 62
     7
 48
0.005274
100
AcDbLine
 10
760.782837
 20
128.562012
 30
0.0
 11
760.843384
 21
128.359924
 31
0.0
210
0.0
220
0.0
230
1.0
  0
ARC
  5
521
100
AcDbEntity
  8
0
370
    35
390
0
 62
     7
100
AcDbCircle
 10
760.987061
 20
128.402954
 30
0.0
 40
0.15
210
0.0
220
0.0
230
1.0
100
AcDbArc
 50
196.667228
 51
283.332766
  0
LINE
  5
522
100
AcDbEntity
  8
0
370
    35
390
0
 62
     7
 48
0.005275
100
AcDbLine
 10
761.226929
 20
128.305634
 30
0.0
 11
761.021606
 21
128.256989
 31
0.0
210
0.0
220
0.0
230
1.0
  0
ARC
  5
523
100
AcDbEntity
  8
0
370
    35
390
0
 62
     7
100
AcDbCircle
 10
761.25
 20
128.208328
 30
0.0
 40
0.1
210
0.0
220
0.0
230
1.0
100
AcDbArc
 50
316.667231
 51
103.332771
  0
LINE
  5
524
100
AcDbEntity
  8
0
370
    35
390
0
 62
     7
 48
0.005274
100
AcDbLine
 10
761.322754
 20
128.139709
 30
0.0
 11
761.177979
 21
127.986267
 31
0.0
210
0.0
220
0.0
230
1.0
  0
ARC
  5
525
100
AcDbEntity
  8
0
370
    35
390
0
 62
     7
100
AcDbCircle
 10
761.286987
 20
127.883331
 30
0.0
 40
0.15
210
0.0
220
0.0
230
1.0
100
AcDbArc
 50
136.667236
 51
223.332764
  0
LINE
  5
526
100
AcDbEntity
  8
0
370
    35
390
0
 62
     7
 48
0.005274
100
AcDbLine
 10
761.322754
 20
127.626953
 30
0.0
 11
761.177979
 21
127.780396
 31
0.0
210
0.0
220
0.0
230
1.0
  0
ARC
  5
527
100
AcDbEntity
  8
0
370
    35
390
0
 62
     7
100
AcDbCircle
 10
761.25
 20
127.558334
 30
0.0
 40
0.1
210
0.0
220
0.0
230
1.0
100
AcDbArc
 50
256.667229
 51
43.332769
  0
LINE
  5
528
100
AcDbEntity
  8
0
370
    35
390
0
 62
     7
 48
0.005275
100
AcDbLine
 10
761.226929
 20
127.461029
 30
0.0
 11
761.021606
 21
127.509674
 31
0.0
210
0.0
220
0.0
230
1.0
  0
ARC
  5
529
100
AcDbEntity
  8
0
370
    35
390
0
 62
     7
100
AcDbCircle
 10
760.987061
 20
127.363724
 30
0.0
 40
0.15
210
0.0
220
0.0
230
1.0
100
AcDbArc
 50
76.667234
 51
163.332772
  0
LINE
  5
52A
100
AcDbEntity
  8
0
370
    35
390
0
 62
     7
 48
0.005274
100
AcDbLine
 10
760.782837
 20
127.204651
 30
0.0
 11
760.843384
 21
127.406738
 31
0.0
210
0.0
220
0.0
230
1.0
  0
ARC
  5
52B
100
AcDbEntity
  8
0
370
    35
390
0
 62
     7
100
AcDbCircle
 10
760.687012
 20
127.233337
 30
0.0
 40
0.1
210
0.0
220
0.0
230
1.0
100
AcDbArc
 50
196.667228
 51
343.332771
  0
LINE
  5
52C
100
AcDbEntity
  8
0
370
    35
390
0
 62
     7
 48
0.005273
100
AcDbLine
 10
760.591187
 20
127.204651
 30
0.0
 11
760.530762
 21
127.406738
 31
0.0
210
0.0
220
0.0
230
1.0
  0
ARC
  5
52D
100
AcDbEntity
  8
0
370
    35
390
0
 62
     7
100
AcDbCircle
 10
760.387085
 20
127.363724
 30
0.0
 40
0.15
210
0.0
220
0.0
230
1.0
100
AcDbArc
 50
16.667233
 51
103.332771
  0
LINE
  5
52E
100
AcDbEntity
  8
0
370
    35
390
0
 62
     7
 48
0.005272
100
AcDbLine
 10
760.147217
 20
127.461029
 30
0.0
 11
760.352417
 21
127.509674
 31
0.0
210
0.0
220
0.0
230
1.0
  0
ARC
  5
52F
100
AcDbEntity
  8
0
370
    35
390
0
 62
     7
100
AcDbCircle
 10
760.124146
 20
127.558334
 30
0.0
 40
0.1
210
0.0
220
0.0
230
1.0
100
AcDbArc
 50
136.667236
 51
283.332773
  0
LINE
  5
530
100
AcDbEntity
  8
0
370
    35
390
0
 62
     7
 48
0.005274
100
AcDbLine
 10
760.051392
 20
127.626953
 30
0.0
 11
760.196167
 21
127.780396
 31
0.0
210
0.0
220
0.0
230
1.0
  0
ARC
  5
531
100
AcDbEntity
  8
0
370
    35
390
0
 62
     7
100
AcDbCircle
 10
760.087036
 20
127.883331
 30
0.0
 40
0.15
210
0.0
220
0.0
230
1.0
100
AcDbArc
 50
316.667231
 51
43.332769
  0
LINE
  5
532
100
AcDbEntity
  8
0
370
    35
390
0
 62
     7
 48
0.005274
100
AcDbLine
 10
760.051392
 20
128.139709
 30
0.0
 11
760.196167
 21
127.986267
 31
0.0
210
0.0
220
0.0
230
1.0
  0
ARC
  5
533
100
AcDbEntity
  8
0
370
    35
390
0
 62
     7
100
AcDbCircle
 10
760.124146
 20
128.208328
 30
0.0
 40
0.1
210
0.0
220
0.0
230
1.0
100
AcDbArc
 50
76.667234
 51
223.332764
  0
LINE
  5
534
100
AcDbEntity
  8
0
370
    35
390
0
 62
     7
 48
0.005272
100
AcDbLine
 10
860.147217
 20
128.305634
 30
0.0
 11
860.352417
 21
128.256989
 31
0.0
210
0.0
220
0.0
230
1.0
  0
ARC
  5
535
100
AcDbEntity
  8
0
370
    35
390
0
 62
     7
100
AcDbCircle
 10
860.387085
 20
128.402954
 30
0.0
 40
0.15
210
0.0
220
0.0
230
1.0
100
AcDbArc
 50
256.667229
 51
343.332767
  0
LINE
  5
536
100
AcDbEntity
  8
0
370
    35
390
0
 62
     7
 48
0.005273
100
AcDbLine
 10
860.591187
 20
128.562012
 30
0.0
 11
860.530762
 21
128.359924
 31
0.0
210
0.0
220
0.0
230
1.0
  0
ARC
  5
537
100
AcDbEntity
  8
0
370
    35
390
0
 62
     7
100
AcDbCircle
 10
860.687012
 20
128.53334
 30
0.0
 40
0.1
210
0.0
220
0.0
230
1.0
100
AcDbArc
 50
16.667233
 51
163.332772
  0
LINE
  5
538
100
AcDbEntity
  8
0
370
    35
390
0
 62
     7
 48
0.005274
100
AcDbLine
 10
860.782837
 20
128.562012
 30
0.0
 11
860.843384
 21
128.359924
 31
0.0
210
0.0
220
0.0
230
1.0
  0
ARC
  5
539
100
AcDbEntity
  8
0
370
    35
390
0
 62
     7
100
AcDbCircle
 10
860.987061
 20
128.402954
 30
0.0
 40
0.15
210
0.0
220
0.0
230
1.0
100
AcDbArc
 50
196.667228
 51
283.332766
  0
LINE
  5
53A
100
AcDbEntity
  8
0
370
    35
390
0
 62
     7
 48
0.005275
100
AcDbLine
 10
861.226929
 20
128.305634
 30
0.0
 11
861.021606
 21
128.256989
 31
0.0
210
0.0
220
0.0
230
1.0
  0
ARC
  5
53B
100
AcDbEntity
  8
0
370
    35
390
0
 62
     7
100
AcDbCircle
 10
861.25
 20
128.208328
 30
0.0
 40
0.1
210
0.0
220
0.0
230
1.0
100
AcDbArc
 50
316.667231
 51
103.332771
  0
LINE
  5
53C
100
AcDbEntity
  8
0
370
    35
390
0
 62
     7
 48
0.005274
100
AcDbLine
 10
861.322754
 20
128.139709
 30
0.0
 11
861.177979
 21
127.986267
 31
0.0
210
0.0
220
0.0
230
1.0
  0
ARC
  5
53D
100
AcDbEntity
  8
0
370
    35
390
0
 62
     7
100
AcDbCircle
 10
861.286987
 20
127.883331
 30
0.0
 40
0.15
210
0.0
220
0.0
230
1.0
100
AcDbArc
 50
136.667236
 51
223.332764
  0
LINE
  5
53E
100
AcDbEntity
  8
0
370
    35
390
0
 62
     7
 48
0.005274
100
AcDbLine
 10
861.322754
 20
127.626953
 30
0.0
 11
861.177979
 21
127.780396
 31
0.0
210
0.0
220
0.0
230
1.0
  0
ARC
  5
53F
100
AcDbEntity
  8
0
370
    35
390
0
 62
     7
100
AcDbCircle
 10
861.25
 20
127.558334
 30
0.0
 40
0.1
210
0.0
220
0.0
230
1.0
100
AcDbArc
 50
256.667229
 51
43.332769
  0
LINE
  5
540
100
AcDbEntity
  8
0
370
    35
390
0
 62
     7
 48
0.005275
100
AcDbLine
 10
861.226929
 20
127.461029
 30
0.0
 11
861.021606
 21
127.509674
 31
0.0
210
0.0
220
0.0
230
1.0
  0
ARC
  5
541
100
AcDbEntity
  8
0
370
    35
390
0
 62
     7
100
AcDbCircle
 10
860.987061
 20
127.363724
 30
0.0
 40
0.15
210
0.0
220
0.0
230
1.0
100
AcDbArc
 50
76.667234
 51
163.332772
  0
LINE
  5
542
100
AcDbEntity
  8
0
370
    35
390
0
 62
     7
 48
0.005274
100
AcDbLine
 10
860.782837
 20
127.204651
 30
0.0
 11
860.843384
 21
127.406738
 31
0.0
210
0.0
220
0.0
230
1.0
  0
ARC
  5
543
100
AcDbEntity
  8
0
370
    35
390
0
 62
     7
100
AcDbCircle
 10
860.687012
 20
127.233337
 30
0.0
 40
0.1
210
0.0
220
0.0
230
1.0
100
AcDbArc
 50
196.667228
 51
343.332771
  0
LINE
  5
544
100
AcDbEntity
  8
0
370
    35
390
0
 62
     7
 48
0.005273
100
AcDbLine
 10
860.591187
 20
127.204651
 30
0.0
 11
860.530762
 21
127.406738
 31
0.0
210
0.0
220
0.0
230
1.0
  0
ARC
  5
545
100
AcDbEntity
  8
0
370
    35
390
0
 62
     7
100
AcDbCircle
 10
860.387085
 20
127.363724
 30
0.0
 40
0.15
210
0.0
220
0.0
230
1.0
100
AcDbArc
 50
16.667233
 51
103.332771
  0
LINE
  5
546
100
AcDbEntity
  8
0
370
    35
390
0
 62
     7
 48
0.005272
100
AcDbLine
 10
860.147217
 20
127.461029
 30
0.0
 11
860.352417
 21
127.509674
 31
0.0
210
0.0
220
0.0
230
1.0
  0
ARC
  5
547
100
AcDbEntity
  8
0
370
    35
390
0
 62
     7
100
AcDbCircle
 10
860.124146
 20
127.558334
 30
0.0
 40
0.1
210
0.0
220
0.0
230
1.0
100
AcDbArc
 50
136.667236
 51
283.332773
  0
LINE
  5
548
100
AcDbEntity
  8
0
370
    35
390
0
 62
     7
 48
0.005274
100
AcDbLine
 10
860.051392
 20
127.626953
 30
0.0
 11
860.196167
 21
127.780396
 31
0.0
210
0.0
220
0.0
230
1.0
  0
ARC
  5
549
100
AcDbEntity
  8
0
370
    35
390
0
 62
     7
100
AcDbCircle
 10
860.087036
 20
127.883331
 30
0.0
 40
0.15
210
0.0
220
0.0
230
1.0
100
AcDbArc
 50
316.667231
 51
43.332769
  0
LINE
  5
54A
100
AcDbEntity
  8
0
370
    35
390
0
 62
     7
 48
0.005274
100
AcDbLine
 10
860.051392
 20
128.139709
 30
0.0
 11
860.196167
 21
127.986267
 31
0.0
210
0.0
220
0.0
230
1.0
  0
ARC
  5
54B
100
AcDbEntity
  8
0
370
    35
390
0
 62
     7
100
AcDbCircle
 10
860.124146
 20
128.208328
 30
0.0
 40
0.1
210
0.0
220
0.0
230
1.0
100
AcDbArc
 50
76.667234
 51
223.332764
  0
LINE
  5
54C
100
AcDbEntity
  8
0
370
    35
390
0
 62
     7
 48
0.005272
100
AcDbLine
 10
960.147217
 20
128.305634
 30
0.0
 11
960.352417
 21
128.256989
 31
0.0
210
0.0
220
0.0
230
1.0
  0
ARC
  5
54D
100
AcDbEntity
  8
0
370
    35
390
0
 62
     7
100
AcDbCircle
 10
960.387085
 20
128.402954
 30
0.0
 40
0.15
210
0.0
220
0.0
230
1.0
100
AcDbArc
 50
256.667229
 51
343.332767
  0
LINE
  5
54E
100
AcDbEntity
  8
0
370
    35
390
0
 62
     7
 48
0.005273
100
AcDbLine
 10
960.591187
 20
128.562012
 30
0.0
 11
960.530762
 21
128.359924
 31
0.0
210
0.0
220
0.0
230
1.0
  0
ARC
  5
54F
100
AcDbEntity
  8
0
370
    35
390
0
 62
     7
100
AcDbCircle
 10
960.687012
 20
128.53334
 30
0.0
 40
0.1
210
0.0
220
0.0
230
1.0
100
AcDbArc
 50
16.667233
 51
163.332772
  0
LINE
  5
550
100
AcDbEntity
  8
0
370
    35
390
0
 62
     7
 48
0.005274
100
AcDbLine
 10
960.782837
 20
128.562012
 30
0.0
 11
960.843384
 21
128.359924
 31
0.0
210
0.0
220
0.0
230
1.0
  0
ARC
  5
551
100
AcDbEntity
  8
0
370
    35
390
0
 62
     7
100
AcDbCircle
 10
960.987061
 20
128.402954
 30
0.0
 40
0.15
210
0.0
220
0.0
230
1.0
100
AcDbArc
 50
196.667228
 51
283.332766
  0
LINE
  5
552
100
AcDbEntity
  8
0
370
    35
390
0
 62
     7
 48
0.005275
100
AcDbLine
 10
961.226929
 20
128.305634
 30
0.0
 11
961.021606
 21
128.256989
 31
0.0
210
0.0
220
0.0
230
1.0
  0
ARC
  5
553
100
AcDbEntity
  8
0
370
    35
390
0
 62
     7
100
AcDbCircle
 10
961.25
 20
128.208328
 30
0.0
 40
0.1
210
0.0
220
0.0
230
1.0
100
AcDbArc
 50
316.667231
 51
103.332771
  0
LINE
  5
554
100
AcDbEntity
  8
0
370
    35
390
0
 62
     7
 48
0.005274
100
AcDbLine
 10
961.322754
 20
128.139709
 30
0.0
 11
961.177979
 21
127.986267
 31
0.0
210
0.0
220
0.0
230
1.0
  0
ARC
  5
555
100
AcDbEntity
  8
0
370
    35
390
0
 62
     7
100
AcDbCircle
 10
961.286987
 20
127.883331
 30
0.0
 40
0.15
210
0.0
220
0.0
230
1.0
100
AcDbArc
 50
136.667236
 51
223.332764
  0
LINE
  5
556
100
AcDbEntity
  8
0
370
    35
390
0
 62
     7
 48
0.005274
100
AcDbLine
 10
961.322754
 20
127.626953
 30
0.0
 11
961.177979
 21
127.780396
 31
0.0
210
0.0
220
0.0
230
1.0
  0
ARC
  5
557
100
AcDbEntity
  8
0
370
    35
390
0
 62
     7
100
AcDbCircle
 10
961.25
 20
127.558334
 30
0.0
 40
0.1
210
0.0
220
0.0
230
1.0
100
AcDbArc
 50
256.667229
 51
43.332769
  0
LINE
  5
558
100
AcDbEntity
  8
0
370
    35
390
0
 62
     7
 48
0.005275
100
AcDbLine
 10
961.226929
 20
127.461029
 30
0.0
 11
961.021606
 21
127.509674
 31
0.0
210
0.0
220
0.0
230
1.0
  0
ARC
  5
559
100
AcDbEntity
  8
0
370
    35
390
0
 62
     7
100
AcDbCircle
 10
960.987061
 20
127.363724
 30
0.0
 40
0.15
210
0.0
220
0.0
230
1.0
100
AcDbArc
 50
76.667234
 51
163.332772
  0
LINE
  5
55A
100
AcDbEntity
  8
0
370
    35
390
0
 62
     7
 48
0.005274
100
AcDbLine
 10
960.782837
 20
127.204651
 30
0.0
 11
960.843384
 21
127.406738
 31
0.0
210
0.0
220
0.0
230
1.0
  0
ARC
  5
55B
100
AcDbEntity
  8
0
370
    35
390
0
 62
     7
100
AcDbCircle
 10
960.687012
 20
127.233337
 30
0.0
 40
0.1
210
0.0
220
0.0
230
1.0
100
AcDbArc
 50
196.667228
 51
343.332771
  0
LINE
  5
55C
100
AcDbEntity
  8
0
370
    35
390
0
 62
     7
 48
0.005273
100
AcDbLine
 10
960.591187
 20
127.204651
 30
0.0
 11
960.530762
 21
127.406738
 31
0.0
210
0.0
220
0.0
230
1.0
  0
ARC
  5
55D
100
AcDbEntity
  8
0
370
    35
390
0
 62
     7
100
AcDbCircle
 10
960.387085
 20
127.363724
 30
0.0
 40
0.15
210
0.0
220
0.0
230
1.0
100
AcDbArc
 50
16.667233
 51
103.332771
  0
LINE
  5
55E
100
AcDbEntity
  8
0
370
    35
390
0
 62
     7
 48
0.005272
100
AcDbLine
 10
960.147217
 20
127.461029
 30
0.0
 11
960.352417
 21
127.509674
 31
0.0
210
0.0
220
0.0
230
1.0
  0
ARC
  5
55F
100
AcDbEntity
  8
0
370
    35
390
0
 62
     7
100
AcDbCircle
 10
960.124146
 20
127.558334
 30
0.0
 40
0.1
210
0.0
220
0.0
230
1.0
100
AcDbArc
 50
136.667236
 51
283.332773
  0
LINE
  5
560
100
AcDbEntity
  8
0
370
    35
390
0
 62
     7
 48
0.005274
100
AcDbLine
 10
960.051392
 20
127.626953
 30
0.0
 11
960.196167
 21
127.780396
 31
0.0
210
0.0
220
0.0
230
1.0
  0
ARC
  5
561
100
AcDbEntity
  8
0
370
    35
390
0
 62
     7
100
AcDbCircle
 10
960.087036
 20
127.883331
 30
0.0
 40
0.15
210
0.0
220
0.0
230
1.0
100
AcDbArc
 50
316.667231
 51
43.332769
  0
LINE
  5
562
100
AcDbEntity
  8
0
370
    35
390
0
 62
     7
 48
0.005274
100
AcDbLine
 10
960.051392
 20
128.139709
 30
0.0
 11
960.196167
 21
127.986267
 31
0.0
210
0.0
220
0.0
230
1.0
  0
ARC
  5
563
100
AcDbEntity
  8
0
370
    35
390
0
 62
     7
100
AcDbCircle
 10
960.124146
 20
128.208328
 30
0.0
 40
0.1
210
0.0
220
0.0
230
1.0
100
AcDbArc
 50
76.667234
 51
223.332764
  0
LINE
  5
564
100
AcDbEntity
  8
0
370
    35
390
0
 62
     7
 48
0.005272
100
AcDbLine
 10
1060.147217
 20
128.305634
 30
0.0
 11
1060.352417
 21
128.256989
 31
0.0
210
0.0
220
0.0
230
1.0
  0
ARC
  5
565
100
AcDbEntity
  8
0
370
    35
390
0
 62
     7
100
AcDbCircle
 10
1060.387085
 20
128.402954
 30
0.0
 40
0.15
210
0.0
220
0.0
230
1.0
100
AcDbArc
 50
256.667229
 51
343.332767
  0
LINE
  5
566
100
AcDbEntity
  8
0
370
    35
390
0
 62
     7
 48
0.005273
100
AcDbLine
 10
1060.591187
 20
128.562012
 30
0.0
 11
1060.530762
 21
128.359924
 31
0.0
210
0.0
220
0.0
230
1.0
  0
ARC
  5
567
100
AcDbEntity
  8
0
370
    35
390
0
 62
     7
100
AcDbCircle
 10
1060.687012
 20
128.53334
 30
0.0
 40
0.1
210
0.0
220
0.0
230
1.0
100
AcDbArc
 50
16.667233
 51
163.332772
  0
LINE
  5
568
100
AcDbEntity
  8
0
370
    35
390
0
 62
     7
 48
0.005274
100
AcDbLine
 10
1060.782837
 20
128.562012
 30
0.0
 11
1060.843384
 21
128.359924
 31
0.0
210
0.0
220
0.0
230
1.0
  0
ARC
  5
569
100
AcDbEntity
  8
0
370
    35
390
0
 62
     7
100
AcDbCircle
 10
1060.987061
 20
128.402954
 30
0.0
 40
0.15
210
0.0
220
0.0
230
1.0
100
AcDbArc
 50
196.667228
 51
283.332766
  0
LINE
  5
56A
100
AcDbEntity
  8
0
370
    35
390
0
 62
     7
 48
0.005275
100
AcDbLine
 10
1061.226929
 20
128.305634
 30
0.0
 11
1061.021606
 21
128.256989
 31
0.0
210
0.0
220
0.0
230
1.0
  0
ARC
  5
56B
100
AcDbEntity
  8
0
370
    35
390
0
 62
     7
100
AcDbCircle
 10
1061.25
 20
128.208328
 30
0.0
 40
0.1
210
0.0
220
0.0
230
1.0
100
AcDbArc
 50
316.667231
 51
103.332771
  0
LINE
  5
56C
100
AcDbEntity
  8
0
370
    35
390
0
 62
     7
 48
0.005274
100
AcDbLine
 10
1061.322754
 20
128.139709
 30
0.0
 11
1061.177979
 21
127.986267
 31
0.0
210
0.0
220
0.0
230
1.0
  0
ARC
  5
56D
100
AcDbEntity
  8
0
370
    35
390
0
 62
     7
100
AcDbCircle
 10
1061.286987
 20
127.883331
 30
0.0
 40
0.15
210
0.0
220
0.0
230
1.0
100
AcDbArc
 50
136.667236
 51
223.332764
  0
LINE
  5
56E
100
AcDbEntity
  8
0
370
    35
390
0
 62
     7
 48
0.005274
100
AcDbLine
 10
1061.322754
 20
127.626953
 30
0.0
 11
1061.177979
 21
127.780396
 31
0.0
210
0.0
220
0.0
230
1.0
  0
ARC
  5
56F
100
AcDbEntity
  8
0
370
    35
390
0
 62
     7
100
AcDbCircle
 10
1061.25
 20
127.558334
 30
0.0
 40
0.1
210
0.0
220
0.0
230
1.0
100
AcDbArc
 50
256.667229
 51
43.332769
  0
LINE
  5
570
100
AcDbEntity
  8
0
370
    35
390
0
 62
     7
 48
0.005275
100
AcDbLine
 10
1061.226929
 20
127.461029
 30
0.0
 11
1061.021606
 21
127.509674
 31
0.0
210
0.0
220
0.0
230
1.0
  0
ARC
  5
571
100
AcDbEntity
  8
0
370
    35
390
0
 62
     7
100
AcDbCircle
 10
1060.987061
 20
127.363724
 30
0.0
 40
0.15
210
0.0
220
0.0
230
1.0
100
AcDbArc
 50
76.667234
 51
163.332772
  0
LINE
  5
572
100
AcDbEntity
  8
0
370
    35
390
0
 62
     7
 48
0.005274
100
AcDbLine
 10
1060.782837
 20
127.204651
 30
0.0
 11
1060.843384
 21
127.406738
 31
0.0
210
0.0
220
0.0
230
1.0
  0
ARC
  5
573
100
AcDbEntity
  8
0
370
    35
390
0
 62
     7
100
AcDbCircle
 10
1060.687012
 20
127.233337
 30
0.0
 40
0.1
210
0.0
220
0.0
230
1.0
100
AcDbArc
 50
196.667228
 51
343.332771
  0
LINE
  5
574
100
AcDbEntity
  8
0
370
    35
390
0
 62
     7
 48
0.005273
100
AcDbLine
 10
1060.591187
 20
127.204651
 30
0.0
 11
1060.530762
 21
127.406738
 31
0.0
210
0.0
220
0.0
230
1.0
  0
ARC
  5
575
100
AcDbEntity
  8
0
370
    35
390
0
 62
     7
100
AcDbCircle
 10
1060.387085
 20
127.363724
 30
0.0
 40
0.15
210
0.0
220
0.0
230
1.0
100
AcDbArc
 50
16.667233
 51
103.332771
  0
LINE
  5
576
100
AcDbEntity
  8
0
370
    35
390
0
 62
     7
 48
0.005272
100
AcDbLine
 10
1060.147217
 20
127.461029
 30
0.0
 11
1060.352417
 21
127.509674
 31
0.0
210
0.0
220
0.0
230
1.0
  0
ARC
  5
577
100
AcDbEntity
  8
0
370
    35
390
0
 62
     7
100
AcDbCircle
 10
1060.124146
 20
127.558334
 30
0.0
 40
0.1
210
0.0
220
0.0
230
1.0
100
AcDbArc
 50
136.667236
 51
283.332773
  0
LINE
  5
578
100
AcDbEntity
  8
0
370
    35
390
0
 62
     7
 48
0.005274
100
AcDbLine
 10
1060.051392
 20
127.626953
 30
0.0
 11
1060.196167
 21
127.780396
 31
0.0
210
0.0
220
0.0
230
1.0
  0
ARC
  5
579
100
AcDbEntity
  8
0
370
    35
390
0
 62
     7
100
AcDbCircle
 10
1060.087036
 20
127.883331
 30
0.0
 40
0.15
210
0.0
220
0.0
230
1.0
100
AcDbArc
 50
316.667231
 51
43.332769
  0
LINE
  5
57A
100
AcDbEntity
  8
0
370
    35
390
0
 62
     7
 48
0.005274
100
AcDbLine
 10
1060.051392
 20
128.139709
 30
0.0
 11
1060.196167
 21
127.986267
 31
0.0
210
0.0
220
0.0
230
1.0
  0
ARC
  5
57B
100
AcDbEntity
  8
0
370
    35
390
0
 62
     7
100
AcDbCircle
 10
1060.124146
 20
128.208328
 30
0.0
 40
0.1
210
0.0
220
0.0
230
1.0
100
AcDbArc
 50
76.667234
 51
223.332764
  0
LINE
  5
57C
100
AcDbEntity
  8
0
370
    35
390
0
 62
     7
 48
0.005272
100
AcDbLine
 10
1160.147217
 20
128.305634
 30
0.0
 11
1160.352417
 21
128.256989
 31
0.0
210
0.0
220
0.0
230
1.0
  0
ARC
  5
57D
100
AcDbEntity
  8
0
370
    35
390
0
 62
     7
100
AcDbCircle
 10
1160.386963
 20
128.402954
 30
0.0
 40
0.15
210
0.0
220
0.0
230
1.0
100
AcDbArc
 50
256.667229
 51
343.332767
  0
LINE
  5
57E
100
AcDbEntity
  8
0
370
    35
390
0
 62
     7
 48
0.005273
100
AcDbLine
 10
1160.591187
 20
128.562012
 30
0.0
 11
1160.530762
 21
128.359924
 31
0.0
210
0.0
220
0.0
230
1.0
  0
ARC
  5
57F
100
AcDbEntity
  8
0
370
    35
390
0
 62
     7
100
AcDbCircle
 10
1160.687012
 20
128.53334
 30
0.0
 40
0.1
210
0.0
220
0.0
230
1.0
100
AcDbArc
 50
16.667233
 51
163.332772
  0
LINE
  5
580
100
AcDbEntity
  8
0
370
    35
390
0
 62
     7
 48
0.005273
100
AcDbLine
 10
1160.782837
 20
128.562012
 30
0.0
 11
1160.843262
 21
128.359924
 31
0.0
210
0.0
220
0.0
230
1.0
  0
ARC
  5
581
100
AcDbEntity
  8
0
370
    35
390
0
 62
     7
100
AcDbCircle
 10
1160.987061
 20
128.402954
 30
0.0
 40
0.15
210
0.0
220
0.0
230
1.0
100
AcDbArc
 50
196.667228
 51
283.332766
  0
LINE
  5
582
100
AcDbEntity
  8
0
370
    35
390
0
 62
     7
 48
0.005272
100
AcDbLine
 10
1161.226807
 20
128.305634
 30
0.0
 11
1161.021606
 21
128.256989
 31
0.0
210
0.0
220
0.0
230
1.0
  0
ARC
  5
583
100
AcDbEntity
  8
0
370
    35
390
0
 62
     7
100
AcDbCircle
 10
1161.249878
 20
128.208328
 30
0.0
 40
0.1
210
0.0
220
0.0
230
1.0
100
AcDbArc
 50
316.667231
 51
103.332771
  0
LINE
  5
584
100
AcDbEntity
  8
0
370
    35
390
0
 62
     7
 48
0.005274
100
AcDbLine
 10
1161.322632
 20
128.139709
 30
0.0
 11
1161.177856
 21
127.986267
 31
0.0
210
0.0
220
0.0
230
1.0
  0
ARC
  5
585
100
AcDbEntity
  8
0
370
    35
390
0
 62
     7
100
AcDbCircle
 10
1161.286987
 20
127.883331
 30
0.0
 40
0.15
210
0.0
220
0.0
230
1.0
100
AcDbArc
 50
136.667236
 51
223.332764
  0
LINE
  5
586
100
AcDbEntity
  8
0
370
    35
390
0
 62
     7
 48
0.005274
100
AcDbLine
 10
1161.322632
 20
127.626953
 30
0.0
 11
1161.177856
 21
127.780396
 31
0.0
210
0.0
220
0.0
230
1.0
  0
ARC
  5
587
100
AcDbEntity
  8
0
370
    35
390
0
 62
     7
100
AcDbCircle
 10
1161.249878
 20
127.558334
 30
0.0
 40
0.1
210
0.0
220
0.0
230
1.0
100
AcDbArc
 50
256.667229
 51
43.332769
  0
LINE
  5
588
100
AcDbEntity
  8
0
370
    35
390
0
 62
     7
 48
0.005272
100
AcDbLine
 10
1161.226807
 20
127.461029
 30
0.0
 11
1161.021606
 21
127.509674
 31
0.0
210
0.0
220
0.0
230
1.0
  0
ARC
  5
589
100
AcDbEntity
  8
0
370
    35
390
0
 62
     7
100
AcDbCircle
 10
1160.987061
 20
127.363724
 30
0.0
 40
0.15
210
0.0
220
0.0
230
1.0
100
AcDbArc
 50
76.667234
 51
163.332772
  0
LINE
  5
58A
100
AcDbEntity
  8
0
370
    35
390
0
 62
     7
 48
0.005273
100
AcDbLine
 10
1160.782837
 20
127.204651
 30
0.0
 11
1160.843262
 21
127.406738
 31
0.0
210
0.0
220
0.0
230
1.0
  0
ARC
  5
58B
100
AcDbEntity
  8
0
370
    35
390
0
 62
     7
100
AcDbCircle
 10
1160.687012
 20
127.233337
 30
0.0
 40
0.1
210
0.0
220
0.0
230
1.0
100
AcDbArc
 50
196.667228
 51
343.332771
  0
LINE
  5
58C
100
AcDbEntity
  8
0
370
    35
390
0
 62
     7
 48
0.005273
100
AcDbLine
 10
1160.591187
 20
127.204651
 30
0.0
 11
1160.530762
 21
127.406738
 31
0.0
210
0.0
220
0.0
230
1.0
  0
ARC
  5
58D
100
AcDbEntity
  8
0
370
    35
390
0
 62
     7
100
AcDbCircle
 10
1160.386963
 20
127.363724
 30
0.0
 40
0.15
210
0.0
220
0.0
230
1.0
100
AcDbArc
 50
16.667233
 51
103.332771
  0
LINE
  5
58E
100
AcDbEntity
  8
0
370
    35
390
0
 62
     7
 48
0.005272
100
AcDbLine
 10
1160.147217
 20
127.461029
 30
0.0
 11
1160.352417
 21
127.509674
 31
0.0
210
0.0
220
0.0
230
1.0
  0
ARC
  5
58F
100
AcDbEntity
  8
0
370
    35
390
0
 62
     7
100
AcDbCircle
 10
1160.124146
 20
127.558334
 30
0.0
 40
0.1
210
0.0
220
0.0
230
1.0
100
AcDbArc
 50
136.667236
 51
283.332773
  0
LINE
  5
590
100
AcDbEntity
  8
0
370
    35
390
0
 62
     7
 48
0.005274
100
AcDbLine
 10
1160.051392
 20
127.626953
 30
0.0
 11
1160.196167
 21
127.780396
 31
0.0
210
0.0
220
0.0
230
1.0
  0
ARC
  5
591
100
AcDbEntity
  8
0
370
    35
390
0
 62
     7
100
AcDbCircle
 10
1160.087036
 20
127.883331
 30
0.0
 40
0.15
210
0.0
220
0.0
230
1.0
100
AcDbArc
 50
316.667231
 51
43.332769
  0
LINE
  5
592
100
AcDbEntity
  8
0
370
    35
390
0
 62
     7
 48
0.005274
100
AcDbLine
 10
1160.051392
 20
128.139709
 30
0.0
 11
1160.196167
 21
127.986267
 31
0.0
210
0.0
220
0.0
230
1.0
  0
ARC
  5
593
100
AcDbEntity
  8
0
370
    35
390
0
 62
     7
100
AcDbCircle
 10
1160.124146
 20
128.208328
 30
0.0
 40
0.1
210
0.0
220
0.0
230
1.0
100
AcDbArc
 50
76.667234
 51
223.332764
  0
LINE
  5
594
100
AcDbEntity
  8
0
370
    35
390
0
 62
     7
 48
0.005272
100
AcDbLine
 10
1260.147217
 20
128.305634
 30
0.0
 11
1260.352417
 21
128.256989
 31
0.0
210
0.0
220
0.0
230
1.0
  0
ARC
  5
595
100
AcDbEntity
  8
0
370
    35
390
0
 62
     7
100
AcDbCircle
 10
1260.386963
 20
128.402954
 30
0.0
 40
0.15
210
0.0
220
0.0
230
1.0
100
AcDbArc
 50
256.667229
 51
343.332767
  0
LINE
  5
596
100
AcDbEntity
  8
0
370
    35
390
0
 62
     7
 48
0.005273
100
AcDbLine
 10
1260.591187
 20
128.562012
 30
0.0
 11
1260.530762
 21
128.359924
 31
0.0
210
0.0
220
0.0
230
1.0
  0
ARC
  5
597
100
AcDbEntity
  8
0
370
    35
390
0
 62
     7
100
AcDbCircle
 10
1260.687012
 20
128.53334
 30
0.0
 40
0.1
210
0.0
220
0.0
230
1.0
100
AcDbArc
 50
16.667233
 51
163.332772
  0
LINE
  5
598
100
AcDbEntity
  8
0
370
    35
390
0
 62
     7
 48
0.005273
100
AcDbLine
 10
1260.782837
 20
128.562012
 30
0.0
 11
1260.843262
 21
128.359924
 31
0.0
210
0.0
220
0.0
230
1.0
  0
ARC
  5
599
100
AcDbEntity
  8
0
370
    35
390
0
 62
     7
100
AcDbCircle
 10
1260.987061
 20
128.402954
 30
0.0
 40
0.15
210
0.0
220
0.0
230
1.0
100
AcDbArc
 50
196.667228
 51
283.332766
  0
LINE
  5
59A
100
AcDbEntity
  8
0
370
    35
390
0
 62
     7
 48
0.005272
100
AcDbLine
 10
1261.226807
 20
128.305634
 30
0.0
 11
1261.021606
 21
128.256989
 31
0.0
210
0.0
220
0.0
230
1.0
  0
ARC
  5
59B
100
AcDbEntity
  8
0
370
    35
390
0
 62
     7
100
AcDbCircle
 10
1261.249878
 20
128.208328
 30
0.0
 40
0.1
210
0.0
220
0.0
230
1.0
100
AcDbArc
 50
316.667231
 51
103.332771
  0
LINE
  5
59C
100
AcDbEntity
  8
0
370
    35
390
0
 62
     7
 48
0.005274
100
AcDbLine
 10
1261.322632
 20
128.139709
 30
0.0
 11
1261.177856
 21
127.986267
 31
0.0
210
0.0
220
0.0
230
1.0
  0
ARC
  5
59D
100
AcDbEntity
  8
0
370
    35
390
0
 62
     7
100
AcDbCircle
 10
1261.286987
 20
127.883331
 30
0.0
 40
0.15
210
0.0
220
0.0
230
1.0
100
AcDbArc
 50
136.667236
 51
223.332764
  0
LINE
  5
59E
100
AcDbEntity
  8
0
370
    35
390
0
 62
     7
 48
0.005274
100
AcDbLine
 10
1261.322632
 20
127.626953
 30
0.0
 11
1261.177856
 21
127.780396
 31
0.0
210
0.0
220
0.0
230
1.0
  0
ARC
  5
59F
100
AcDbEntity
  8
0
370
    35
390
0
 62
     7
100
AcDbCircle
 10
1261.249878
 20
127.558334
 30
0.0
 40
0.1
210
0.0
220
0.0
230
1.0
100
AcDbArc
 50
256.667229
 51
43.332769
  0
LINE
  5
5A0
100
AcDbEntity
  8
0
370
    35
390
0
 62
     7
 48
0.005272
100
AcDbLine
 10
1261.226807
 20
127.461029
 30
0.0
 11
1261.021606
 21
127.509674
 31
0.0
210
0.0
220
0.0
230
1.0
  0
ARC
  5
5A1
100
AcDbEntity
  8
0
370
    35
390
0
 62
     7
100
AcDbCircle
 10
1260.987061
 20
127.363724
 30
0.0
 40
0.15
210
0.0
220
0.0
230
1.0
100
AcDbArc
 50
76.667234
 51
163.332772
  0
LINE
  5
5A2
100
AcDbEntity
  8
0
370
    35
390
0
 62
     7
 48
0.005273
100
AcDbLine
 10
1260.782837
 20
127.204651
 30
0.0
 11
1260.843262
 21
127.406738
 31
0.0
210
0.0
220
0.0
230
1.0
  0
ARC
  5
5A3
100
AcDbEntity
  8
0
370
    35
390
0
 62
     7
100
AcDbCircle
 10
1260.687012
 20
127.233337
 30
0.0
 40
0.1
210
0.0
220
0.0
230
1.0
100
AcDbArc
 50
196.667228
 51
343.332771
  0
LINE
  5
5A4
100
AcDbEntity
  8
0
370
    35
390
0
 62
     7
 48
0.005273
100
AcDbLine
 10
1260.591187
 20
127.204651
 30
0.0
 11
1260.530762
 21
127.406738
 31
0.0
210
0.0
220
0.0
230
1.0
  0
ARC
  5
5A5
100
AcDbEntity
  8
0
370
    35
390
0
 62
     7
100
AcDbCircle
 10
1260.386963
 20
127.363724
 30
0.0
 40
0.15
210
0.0
220
0.0
230
1.0
100
AcDbArc
 50
16.667233
 51
103.332771
  0
LINE
  5
5A6
100
AcDbEntity
  8
0
370
    35
390
0
 62
     7
 48
0.005272
100
AcDbLine
 10
1260.147217
 20
127.461029
 30
0.0
 11
1260.352417
 21
127.509674
 31
0.0
210
0.0
220
0.0
230
1.0
  0
ARC
  5
5A7
100
AcDbEntity
  8
0
370
    35
390
0
 62
     7
100
AcDbCircle
 10
1260.124146
 20
127.558334
 30
0.0
 40
0.1
210
0.0
220
0.0
230
1.0
100
AcDbArc
 50
136.667236
 51
283.332773
  0
LINE
  5
5A8
100
AcDbEntity
  8
0
370
    35
390
0
 62
     7
 48
0.005274
100
AcDbLine
 10
1260.051392
 20
127.626953
 30
0.0
 11
1260.196167
 21
127.780396
 31
0.0
210
0.0
220
0.0
230
1.0
  0
ARC
  5
5A9
100
AcDbEntity
  8
0
370
    35
390
0
 62
     7
100
AcDbCircle
 10
1260.087036
 20
127.883331
 30
0.0
 40
0.15
210
0.0
220
0.0
230
1.0
100
AcDbArc
 50
316.667231
 51
43.332769
  0
LINE
  5
5AA
100
AcDbEntity
  8
0
370
    35
390
0
 62
     7
 48
0.005274
100
AcDbLine
 10
1260.051392
 20
128.139709
 30
0.0
 11
1260.196167
 21
127.986267
 31
0.0
210
0.0
220
0.0
230
1.0
  0
ARC
  5
5AB
100
AcDbEntity
  8
0
370
    35
390
0
 62
     7
100
AcDbCircle
 10
1260.124146
 20
128.208328
 30
0.0
 40
0.1
210
0.0
220
0.0
230
1.0
100
AcDbArc
 50
76.667234
 51
223.332764
  0
LINE
  5
5AC
100
AcDbEntity
  8
0
370
    35
390
0
 62
     7
 48
0.005272
100
AcDbLine
 10
1360.147217
 20
128.305634
 30
0.0
 11
1360.352417
 21
128.256989
 31
0.0
210
0.0
220
0.0
230
1.0
  0
ARC
  5
5AD
100
AcDbEntity
  8
0
370
    35
390
0
 62
     7
100
AcDbCircle
 10
1360.386963
 20
128.402954
 30
0.0
 40
0.15
210
0.0
220
0.0
230
1.0
100
AcDbArc
 50
256.667229
 51
343.332767
  0
LINE
  5
5AE
100
AcDbEntity
  8
0
370
    35
390
0
 62
     7
 48
0.005273
100
AcDbLine
 10
1360.591187
 20
128.562012
 30
0.0
 11
1360.530762
 21
128.359924
 31
0.0
210
0.0
220
0.0
230
1.0
  0
ARC
  5
5AF
100
AcDbEntity
  8
0
370
    35
390
0
 62
     7
100
AcDbCircle
 10
1360.687012
 20
128.53334
 30
0.0
 40
0.1
210
0.0
220
0.0
230
1.0
100
AcDbArc
 50
16.667233
 51
163.332772
  0
LINE
  5
5B0
100
AcDbEntity
  8
0
370
    35
390
0
 62
     7
 48
0.005273
100
AcDbLine
 10
1360.782837
 20
128.562012
 30
0.0
 11
1360.843262
 21
128.359924
 31
0.0
210
0.0
220
0.0
230
1.0
  0
ARC
  5
5B1
100
AcDbEntity
  8
0
370
    35
390
0
 62
     7
100
AcDbCircle
 10
1360.987061
 20
128.402954
 30
0.0
 40
0.15
210
0.0
220
0.0
230
1.0
100
AcDbArc
 50
196.667228
 51
283.332766
  0
LINE
  5
5B2
100
AcDbEntity
  8
0
370
    35
390
0
 62
     7
 48
0.005272
100
AcDbLine
 10
1361.226807
 20
128.305634
 30
0.0
 11
1361.021606
 21
128.256989
 31
0.0
210
0.0
220
0.0
230
1.0
  0
ARC
  5
5B3
100
AcDbEntity
  8
0
370
    35
390
0
 62
     7
100
AcDbCircle
 10
1361.249878
 20
128.208328
 30
0.0
 40
0.1
210
0.0
220
0.0
230
1.0
100
AcDbArc
 50
316.667231
 51
103.332771
  0
LINE
  5
5B4
100
AcDbEntity
  8
0
370
    35
390
0
 62
     7
 48
0.005274
100
AcDbLine
 10
1361.322632
 20
128.139709
 30
0.0
 11
1361.177856
 21
127.986267
 31
0.0
210
0.0
220
0.0
230
1.0
  0
ARC
  5
5B5
100
AcDbEntity
  8
0
370
    35
390
0
 62
     7
100
AcDbCircle
 10
1361.286987
 20
127.883331
 30
0.0
 40
0.15
210
0.0
220
0.0
230
1.0
100
AcDbArc
 50
136.667236
 51
223.332764
  0
LINE
  5
5B6
100
AcDbEntity
  8
0
370
    35
390
0
 62
     7
 48
0.005274
100
AcDbLine
 10
1361.322632
 20
127.626953
 30
0.0
 11
1361.177856
 21
127.780396
 31
0.0
210
0.0
220
0.0
230
1.0
  0
ARC
  5
5B7
100
AcDbEntity
  8
0
370
    35
390
0
 62
     7
100
AcDbCircle
 10
1361.249878
 20
127.558334
 30
0.0
 40
0.1
210
0.0
220
0.0
230
1.0
100
AcDbArc
 50
256.667229
 51
43.332769
  0
LINE
  5
5B8
100
AcDbEntity
  8
0
370
    35
390
0
 62
     7
 48
0.005272
100
AcDbLine
 10
1361.226807
 20
127.461029
 30
0.0
 11
1361.021606
 21
127.509674
 31
0.0
210
0.0
220
0.0
230
1.0
  0
ARC
  5
5B9
100
AcDbEntity
  8
0
370
    35
390
0
 62
     7
100
AcDbCircle
 10
1360.987061
 20
127.363724
 30
0.0
 40
0.15
210
0.0
220
0.0
230
1.0
100
AcDbArc
 50
76.667234
 51
163.332772
  0
LINE
  5
5BA
100
AcDbEntity
  8
0
370
    35
390
0
 62
     7
 48
0.005273
100
AcDbLine
 10
1360.782837
 20
127.204651
 30
0.0
 11
1360.843262
 21
127.406738
 31
0.0
210
0.0
220
0.0
230
1.0
  0
ARC
  5
5BB
100
AcDbEntity
  8
0
370
    35
390
0
 62
     7
100
AcDbCircle
 10
1360.687012
 20
127.233337
 30
0.0
 40
0.1
210
0.0
220
0.0
230
1.0
100
AcDbArc
 50
196.667228
 51
343.332771
  0
LINE
  5
5BC
100
AcDbEntity
  8
0
370
    35
390
0
 62
     7
 48
0.005273
100
AcDbLine
 10
1360.591187
 20
127.204651
 30
0.0
 11
1360.530762
 21
127.406738
 31
0.0
210
0.0
220
0.0
230
1.0
  0
ARC
  5
5BD
100
AcDbEntity
  8
0
370
    35
390
0
 62
     7
100
AcDbCircle
 10
1360.386963
 20
127.363724
 30
0.0
 40
0.15
210
0.0
220
0.0
230
1.0
100
AcDbArc
 50
16.667233
 51
103.332771
  0
LINE
  5
5BE
100
AcDbEntity
  8
0
370
    35
390
0
 62
     7
 48
0.005272
100
AcDbLine
 10
1360.147217
 20
127.461029
 30
0.0
 11
1360.352417
 21
127.509674
 31
0.0
210
0.0
220
0.0
230
1.0
  0
ARC
  5
5BF
100
AcDbEntity
  8
0
370
    35
390
0
 62
     7
100
AcDbCircle
 10
1360.124146
 20
127.558334
 30
0.0
 40
0.1
210
0.0
220
0.0
230
1.0
100
AcDbArc
 50
136.667236
 51
283.332773
  0
LINE
  5
5C0
100
AcDbEntity
  8
0
370
    35
390
0
 62
     7
 48
0.005274
100
AcDbLine
 10
1360.051392
 20
127.626953
 30
0.0
 11
1360.196167
 21
127.780396
 31
0.0
210
0.0
220
0.0
230
1.0
  0
ARC
  5
5C1
100
AcDbEntity
  8
0
370
    35
390
0
 62
     7
100
AcDbCircle
 10
1360.087036
 20
127.883331
 30
0.0
 40
0.15
210
0.0
220
0.0
230
1.0
100
AcDbArc
 50
316.667231
 51
43.332769
  0
LINE
  5
5C2
100
AcDbEntity
  8
0
370
    35
390
0
 62
     7
 48
0.005274
100
AcDbLine
 10
1360.051392
 20
128.139709
 30
0.0
 11
1360.196167
 21
127.986267
 31
0.0
210
0.0
220
0.0
230
1.0
  0
ARC
  5
5C3
100
AcDbEntity
  8
0
370
    35
390
0
 62
     7
100
AcDbCircle
 10
1360.124146
 20
128.208328
 30
0.0
 40
0.1
210
0.0
220
0.0
230
1.0
100
AcDbArc
 50
76.667234
 51
223.332764
  0
LINE
  5
5C4
100
AcDbEntity
  8
0
370
    35
390
0
 62
     7
 48
0.005272
100
AcDbLine
 10
1460.147217
 20
128.305634
 30
0.0
 11
1460.352417
 21
128.256989
 31
0.0
210
0.0
220
0.0
230
1.0
  0
ARC
  5
5C5
100
AcDbEntity
  8
0
370
    35
390
0
 62
     7
100
AcDbCircle
 10
1460.386963
 20
128.402954
 30
0.0
 40
0.15
210
0.0
220
0.0
230
1.0
100
AcDbArc
 50
256.667229
 51
343.332767
  0
LINE
  5
5C6
100
AcDbEntity
  8
0
370
    35
390
0
 62
     7
 48
0.005273
100
AcDbLine
 10
1460.591187
 20
128.562012
 30
0.0
 11
1460.530762
 21
128.359924
 31
0.0
210
0.0
220
0.0
230
1.0
  0
ARC
  5
5C7
100
AcDbEntity
  8
0
370
    35
390
0
 62
     7
100
AcDbCircle
 10
1460.687012
 20
128.53334
 30
0.0
 40
0.1
210
0.0
220
0.0
230
1.0
100
AcDbArc
 50
16.667233
 51
163.332772
  0
LINE
  5
5C8
100
AcDbEntity
  8
0
370
    35
390
0
 62
     7
 48
0.005273
100
AcDbLine
 10
1460.782837
 20
128.562012
 30
0.0
 11
1460.843262
 21
128.359924
 31
0.0
210
0.0
220
0.0
230
1.0
  0
ARC
  5
5C9
100
AcDbEntity
  8
0
370
    35
390
0
 62
     7
100
AcDbCircle
 10
1460.987061
 20
128.402954
 30
0.0
 40
0.15
210
0.0
220
0.0
230
1.0
100
AcDbArc
 50
196.667228
 51
283.332766
  0
LINE
  5
5CA
100
AcDbEntity
  8
0
370
    35
390
0
 62
     7
 48
0.005272
100
AcDbLine
 10
1461.226807
 20
128.305634
 30
0.0
 11
1461.021606
 21
128.256989
 31
0.0
210
0.0
220
0.0
230
1.0
  0
ARC
  5
5CB
100
AcDbEntity
  8
0
370
    35
390
0
 62
     7
100
AcDbCircle
 10
1461.249878
 20
128.208328
 30
0.0
 40
0.1
210
0.0
220
0.0
230
1.0
100
AcDbArc
 50
316.667231
 51
103.332771
  0
LINE
  5
5CC
100
AcDbEntity
  8
0
370
    35
390
0
 62
     7
 48
0.005274
100
AcDbLine
 10
1461.322632
 20
128.139709
 30
0.0
 11
1461.177856
 21
127.986267
 31
0.0
210
0.0
220
0.0
230
1.0
  0
ARC
  5
5CD
100
AcDbEntity
  8
0
370
    35
390
0
 62
     7
100
AcDbCircle
 10
1461.286987
 20
127.883331
 30
0.0
 40
0.15
210
0.0
220
0.0
230
1.0
100
AcDbArc
 50
136.667236
 51
223.332764
  0
LINE
  5
5CE
100
AcDbEntity
  8
0
370
    35
390
0
 62
     7
 48
0.005274
100
AcDbLine
 10
1461.322632
 20
127.626953
 30
0.0
 11
1461.177856
 21
127.780396
 31
0.0
210
0.0
220
0.0
230
1.0
  0
ARC
  5
5CF
100
AcDbEntity
  8
0
370
    35
390
0
 62
     7
100
AcDbCircle
 10
1461.249878
 20
127.558334
 30
0.0
 40
0.1
210
0.0
220
0.0
230
1.0
100
AcDbArc
 50
256.667229
 51
43.332769
  0
LINE
  5
5D0
100
AcDbEntity
  8
0
370
    35
390
0
 62
     7
 48
0.005272
100
AcDbLine
 10
1461.226807
 20
127.461029
 30
0.0
 11
1461.021606
 21
127.509674
 31
0.0
210
0.0
220
0.0
230
1.0
  0
ARC
  5
5D1
100
AcDbEntity
  8
0
370
    35
390
0
 62
     7
100
AcDbCircle
 10
1460.987061
 20
127.363724
 30
0.0
 40
0.15
210
0.0
220
0.0
230
1.0
100
AcDbArc
 50
76.667234
 51
163.332772
  0
LINE
  5
5D2
100
AcDbEntity
  8
0
370
    35
390
0
 62
     7
 48
0.005273
100
AcDbLine
 10
1460.782837
 20
127.204651
 30
0.0
 11
1460.843262
 21
127.406738
 31
0.0
210
0.0
220
0.0
230
1.0
  0
ARC
  5
5D3
100
AcDbEntity
  8
0
370
    35
390
0
 62
     7
100
AcDbCircle
 10
1460.687012
 20
127.233337
 30
0.0
 40
0.1
210
0.0
220
0.0
230
1.0
100
AcDbArc
 50
196.667228
 51
343.332771
  0
LINE
  5
5D4
100
AcDbEntity
  8
0
370
    35
390
0
 62
     7
 48
0.005273
100
AcDbLine
 10
1460.591187
 20
127.204651
 30
0.0
 11
1460.530762
 21
127.406738
 31
0.0
210
0.0
220
0.0
230
1.0
  0
ARC
  5
5D5
100
AcDbEntity
  8
0
370
    35
390
0
 62
     7
100
AcDbCircle
 10
1460.386963
 20
127.363724
 30
0.0
 40
0.15
210
0.0
220
0.0
230
1.0
100
AcDbArc
 50
16.667233
 51
103.332771
  0
LINE
  5
5D6
100
AcDbEntity
  8
0
370
    35
390
0
 62
     7
 48
0.005272
100
AcDbLine
 10
1460.147217
 20
127.461029
 30
0.0
 11
1460.352417
 21
127.509674
 31
0.0
210
0.0
220
0.0
230
1.0
  0
ARC
  5
5D7
100
AcDbEntity
  8
0
370
    35
390
0
 62
     7
100
AcDbCircle
 10
1460.124146
 20
127.558334
 30
0.0
 40
0.1
210
0.0
220
0.0
230
1.0
100
AcDbArc
 50
136.667236
 51
283.332773
  0
LINE
  5
5D8
100
AcDbEntity
  8
0
370
    35
390
0
 62
     7
 48
0.005274
100
AcDbLine
 10
1460.051392
 20
127.626953
 30
0.0
 11
1460.196167
 21
127.780396
 31
0.0
210
0.0
220
0.0
230
1.0
  0
ARC
  5
5D9
100
AcDbEntity
  8
0
370
    35
390
0
 62
     7
100
AcDbCircle
 10
1460.087036
 20
127.883331
 30
0.0
 40
0.15
210
0.0
220
0.0
230
1.0
100
AcDbArc
 50
316.667231
 51
43.332769
  0
LINE
  5
5DA
100
AcDbEntity
  8
0
370
    35
390
0
 62
     7
 48
0.005274
100
AcDbLine
 10
1460.051392
 20
128.139709
 30
0.0
 11
1460.196167
 21
127.986267
 31
0.0
210
0.0
220
0.0
230
1.0
  0
ARC
  5
5DB
100
AcDbEntity
  8
0
370
    35
390
0
 62
     7
100
AcDbCircle
 10
1460.124146
 20
128.208328
 30
0.0
 40
0.1
210
0.0
220
0.0
230
1.0
100
AcDbArc
 50
76.667234
 51
223.332764
  0
LINE
  5
5DC
100
AcDbEntity
  8
0
370
    35
390
0
 62
     7
 48
0.005272
100
AcDbLine
 10
1560.147217
 20
128.305634
 30
0.0
 11
1560.352417
 21
128.256989
 31
0.0
210
0.0
220
0.0
230
1.0
  0
ARC
  5
5DD
100
AcDbEntity
  8
0
370
    35
390
0
 62
     7
100
AcDbCircle
 10
1560.386963
 20
128.402954
 30
0.0
 40
0.15
210
0.0
220
0.0
230
1.0
100
AcDbArc
 50
256.667229
 51
343.332767
  0
LINE
  5
5DE
100
AcDbEntity
  8
0
370
    35
390
0
 62
     7
 48
0.005273
100
AcDbLine
 10
1560.591187
 20
128.562012
 30
0.0
 11
1560.530762
 21
128.359924
 31
0.0
210
0.0
220
0.0
230
1.0
  0
ARC
  5
5DF
100
AcDbEntity
  8
0
370
    35
390
0
 62
     7
100
AcDbCircle
 10
1560.687012
 20
128.53334
 30
0.0
 40
0.1
210
0.0
220
0.0
230
1.0
100
AcDbArc
 50
16.667233
 51
163.332772
  0
LINE
  5
5E0
100
AcDbEntity
  8
0
370
    35
390
0
 62
     7
 48
0.005273
100
AcDbLine
 10
1560.782837
 20
128.562012
 30
0.0
 11
1560.843262
 21
128.359924
 31
0.0
210
0.0
220
0.0
230
1.0
  0
ARC
  5
5E1
100
AcDbEntity
  8
0
370
    35
390
0
 62
     7
100
AcDbCircle
 10
1560.987061
 20
128.402954
 30
0.0
 40
0.15
210
0.0
220
0.0
230
1.0
100
AcDbArc
 50
196.667228
 51
283.332766
  0
LINE
  5
5E2
100
AcDbEntity
  8
0
370
    35
390
0
 62
     7
 48
0.005272
100
AcDbLine
 10
1561.226807
 20
128.305634
 30
0.0
 11
1561.021606
 21
128.256989
 31
0.0
210
0.0
220
0.0
230
1.0
  0
ARC
  5
5E3
100
AcDbEntity
  8
0
370
    35
390
0
 62
     7
100
AcDbCircle
 10
1561.249878
 20
128.208328
 30
0.0
 40
0.1
210
0.0
220
0.0
230
1.0
100
AcDbArc
 50
316.667231
 51
103.332771
  0
LINE
  5
5E4
100
AcDbEntity
  8
0
370
    35
390
0
 62
     7
 48
0.005274
100
AcDbLine
 10
1561.322632
 20
128.139709
 30
0.0
 11
1561.177856
 21
127.986267
 31
0.0
210
0.0
220
0.0
230
1.0
  0
ARC
  5
5E5
100
AcDbEntity
  8
0
370
    35
390
0
 62
     7
100
AcDbCircle
 10
1561.286987
 20
127.883331
 30
0.0
 40
0.15
210
0.0
220
0.0
230
1.0
100
AcDbArc
 50
136.667236
 51
223.332764
  0
LINE
  5
5E6
100
AcDbEntity
  8
0
370
    35
390
0
 62
     7
 48
0.005274
100
AcDbLine
 10
1561.322632
 20
127.626953
 30
0.0
 11
1561.177856
 21
127.780396
 31
0.0
210
0.0
220
0.0
230
1.0
  0
ARC
  5
5E7
100
AcDbEntity
  8
0
370
    35
390
0
 62
     7
100
AcDbCircle
 10
1561.249878
 20
127.558334
 30
0.0
 40
0.1
210
0.0
220
0.0
230
1.0
100
AcDbArc
 50
256.667229
 51
43.332769
  0
LINE
  5
5E8
100
AcDbEntity
  8
0
370
    35
390
0
 62
     7
 48
0.005272
100
AcDbLine
 10
1561.226807
 20
127.461029
 30
0.0
 11
1561.021606
 21
127.509674
 31
0.0
210
0.0
220
0.0
230
1.0
  0
ARC
  5
5E9
100
AcDbEntity
  8
0
370
    35
390
0
 62
     7
100
AcDbCircle
 10
1560.987061
 20
127.363724
 30
0.0
 40
0.15
210
0.0
220
0.0
230
1.0
100
AcDbArc
 50
76.667234
 51
163.332772
  0
LINE
  5
5EA
100
AcDbEntity
  8
0
370
    35
390
0
 62
     7
 48
0.005273
100
AcDbLine
 10
1560.782837
 20
127.204651
 30
0.0
 11
1560.843262
 21
127.406738
 31
0.0
210
0.0
220
0.0
230
1.0
  0
ARC
  5
5EB
100
AcDbEntity
  8
0
370
    35
390
0
 62
     7
100
AcDbCircle
 10
1560.687012
 20
127.233337
 30
0.0
 40
0.1
210
0.0
220
0.0
230
1.0
100
AcDbArc
 50
196.667228
 51
343.332771
  0
LINE
  5
5EC
100
AcDbEntity
  8
0
370
    35
390
0
 62
     7
 48
0.005273
100
AcDbLine
 10
1560.591187
 20
127.204651
 30
0.0
 11
1560.530762
 21
127.406738
 31
0.0
210
0.0
220
0.0
230
1.0
  0
ARC
  5
5ED
100
AcDbEntity
  8
0
370
    35
390
0
 62
     7
100
AcDbCircle
 10
1560.386963
 20
127.363724
 30
0.0
 40
0.15
210
0.0
220
0.0
230
1.0
100
AcDbArc
 50
16.667233
 51
103.332771
  0
LINE
  5
5EE
100
AcDbEntity
  8
0
370
    35
390
0
 62
     7
 48
0.005272
100
AcDbLine
 10
1560.147217
 20
127.461029
 30
0.0
 11
1560.352417
 21
127.509674
 31
0.0
210
0.0
220
0.0
230
1.0
  0
ARC
  5
5EF
100
AcDbEntity
  8
0
370
    35
390
0
 62
     7
100
AcDbCircle
 10
1560.124146
 20
127.558334
 30
0.0
 40
0.1
210
0.0
220
0.0
230
1.0
100
AcDbArc
 50
136.667236
 51
283.332773
  0
LINE
  5
5F0
100
AcDbEntity
  8
0
370
    35
390
0
 62
     7
 48
0.005274
100
AcDbLine
 10
1560.051392
 20
127.626953
 30
0.0
 11
1560.196167
 21
127.780396
 31
0.0
210
0.0
220
0.0
230
1.0
  0
ARC
  5
5F1
100
AcDbEntity
  8
0
370
    35
390
0
 62
     7
100
AcDbCircle
 10
1560.087036
 20
127.883331
 30
0.0
 40
0.15
210
0.0
220
0.0
230
1.0
100
AcDbArc
 50
316.667231
 51
43.332769
  0
LINE
  5
5F2
100
AcDbEntity
  8
0
370
    35
390
0
 62
     7
 48
0.005274
100
AcDbLine
 10
1560.051392
 20
128.139709
 30
0.0
 11
1560.196167
 21
127.986267
 31
0.0
210
0.0
220
0.0
230
1.0
  0
ARC
  5
5F3
100
AcDbEntity
  8
0
370
    35
390
0
 62
     7
100
AcDbCircle
 10
1560.124146
 20
128.208328
 30
0.0
 40
0.1
210
0.0
220
0.0
230
1.0
100
AcDbArc
 50
76.667234
 51
223.332764
  0
LINE
  5
5F4
100
AcDbEntity
  8
0
370
    35
390
0
 62
     7
 48
0.005272
100
AcDbLine
 10
1760.147217
 20
128.305634
 30
0.0
 11
1760.352417
 21
128.256989
 31
0.0
210
0.0
220
0.0
230
1.0
  0
ARC
  5
5F5
100
AcDbEntity
  8
0
370
    35
390
0
 62
     7
100
AcDbCircle
 10
1760.386963
 20
128.402954
 30
0.0
 40
0.15
210
0.0
220
0.0
230
1.0
100
AcDbArc
 50
256.667229
 51
343.332767
  0
LINE
  5
5F6
100
AcDbEntity
  8
0
370
    35
390
0
 62
     7
 48
0.005273
100
AcDbLine
 10
1760.591187
 20
128.562012
 30
0.0
 11
1760.530762
 21
128.359924
 31
0.0
210
0.0
220
0.0
230
1.0
  0
ARC
  5
5F7
100
AcDbEntity
  8
0
370
    35
390
0
 62
     7
100
AcDbCircle
 10
1760.687012
 20
128.53334
 30
0.0
 40
0.1
210
0.0
220
0.0
230
1.0
100
AcDbArc
 50
16.667233
 51
163.332772
  0
LINE
  5
5F8
100
AcDbEntity
  8
0
370
    35
390
0
 62
     7
 48
0.005273
100
AcDbLine
 10
1760.782837
 20
128.562012
 30
0.0
 11
1760.843262
 21
128.359924
 31
0.0
210
0.0
220
0.0
230
1.0
  0
ARC
  5
5F9
100
AcDbEntity
  8
0
370
    35
390
0
 62
     7
100
AcDbCircle
 10
1760.987061
 20
128.402954
 30
0.0
 40
0.15
210
0.0
220
0.0
230
1.0
100
AcDbArc
 50
196.667228
 51
283.332766
  0
LINE
  5
5FA
100
AcDbEntity
  8
0
370
    35
390
0
 62
     7
 48
0.005272
100
AcDbLine
 10
1761.226807
 20
128.305634
 30
0.0
 11
1761.021606
 21
128.256989
 31
0.0
210
0.0
220
0.0
230
1.0
  0
ARC
  5
5FB
100
AcDbEntity
  8
0
370
    35
390
0
 62
     7
100
AcDbCircle
 10
1761.249878
 20
128.208328
 30
0.0
 40
0.1
210
0.0
220
0.0
230
1.0
100
AcDbArc
 50
316.667231
 51
103.332771
  0
LINE
  5
5FC
100
AcDbEntity
  8
0
370
    35
390
0
 62
     7
 48
0.005274
100
AcDbLine
 10
1761.322632
 20
128.139709
 30
0.0
 11
1761.177856
 21
127.986267
 31
0.0
210
0.0
220
0.0
230
1.0
  0
ARC
  5
5FD
100
AcDbEntity
  8
0
370
    35
390
0
 62
     7
100
AcDbCircle
 10
1761.286987
 20
127.883331
 30
0.0
 40
0.15
210
0.0
220
0.0
230
1.0
100
AcDbArc
 50
136.667236
 51
223.332764
  0
LINE
  5
5FE
100
AcDbEntity
  8
0
370
    35
390
0
 62
     7
 48
0.005274
100
AcDbLine
 10
1761.322632
 20
127.626953
 30
0.0
 11
1761.177856
 21
127.780396
 31
0.0
210
0.0
220
0.0
230
1.0
  0
ARC
  5
5FF
100
AcDbEntity
  8
0
370
    35
390
0
 62
     7
100
AcDbCircle
 10
1761.249878
 20
127.558334
 30
0.0
 40
0.1
210
0.0
220
0.0
230
1.0
100
AcDbArc
 50
256.667229
 51
43.332769
  0
LINE
  5
600
100
AcDbEntity
  8
0
370
    35
390
0
 62
     7
 48
0.005272
100
AcDbLine
 10
1761.226807
 20
127.461029
 30
0.0
 11
1761.021606
 21
127.509674
 31
0.0
210
0.0
220
0.0
230
1.0
  0
ARC
  5
601
100
AcDbEntity
  8
0
370
    35
390
0
 62
     7
100
AcDbCircle
 10
1760.987061
 20
127.363724
 30
0.0
 40
0.15
210
0.0
220
0.0
230
1.0
100
AcDbArc
 50
76.667234
 51
163.332772
  0
LINE
  5
602
100
AcDbEntity
  8
0
370
    35
390
0
 62
     7
 48
0.005273
100
AcDbLine
 10
1760.782837
 20
127.204651
 30
0.0
 11
1760.843262
 21
127.406738
 31
0.0
210
0.0
220
0.0
230
1.0
  0
ARC
  5
603
100
AcDbEntity
  8
0
370
    35
390
0
 62
     7
100
AcDbCircle
 10
1760.687012
 20
127.233337
 30
0.0
 40
0.1
210
0.0
220
0.0
230
1.0
100
AcDbArc
 50
196.667228
 51
343.332771
  0
LINE
  5
604
100
AcDbEntity
  8
0
370
    35
390
0
 62
     7
 48
0.005273
100
AcDbLine
 10
1760.591187
 20
127.204651
 30
0.0
 11
1760.530762
 21
127.406738
 31
0.0
210
0.0
220
0.0
230
1.0
  0
ARC
  5
605
100
AcDbEntity
  8
0
370
    35
390
0
 62
     7
100
AcDbCircle
 10
1760.386963
 20
127.363724
 30
0.0
 40
0.15
210
0.0
220
0.0
230
1.0
100
AcDbArc
 50
16.667233
 51
103.332771
  0
LINE
  5
606
100
AcDbEntity
  8
0
370
    35
390
0
 62
     7
 48
0.005272
100
AcDbLine
 10
1760.147217
 20
127.461029
 30
0.0
 11
1760.352417
 21
127.509674
 31
0.0
210
0.0
220
0.0
230
1.0
  0
ARC
  5
607
100
AcDbEntity
  8
0
370
    35
390
0
 62
     7
100
AcDbCircle
 10
1760.124146
 20
127.558334
 30
0.0
 40
0.1
210
0.0
220
0.0
230
1.0
100
AcDbArc
 50
136.667236
 51
283.332773
  0
LINE
  5
608
100
AcDbEntity
  8
0
370
    35
390
0
 62
     7
 48
0.005274
100
AcDbLine
 10
1760.051392
 20
127.626953
 30
0.0
 11
1760.196167
 21
127.780396
 31
0.0
210
0.0
220
0.0
230
1.0
  0
ARC
  5
609
100
AcDbEntity
  8
0
370
    35
390
0
 62
     7
100
AcDbCircle
 10
1760.087036
 20
127.883331
 30
0.0
 40
0.15
210
0.0
220
0.0
230
1.0
100
AcDbArc
 50
316.667231
 51
43.332769
  0
LINE
  5
60A
100
AcDbEntity
  8
0
370
    35
390
0
 62
     7
 48
0.005274
100
AcDbLine
 10
1760.051392
 20
128.139709
 30
0.0
 11
1760.196167
 21
127.986267
 31
0.0
210
0.0
220
0.0
230
1.0
  0
ARC
  5
60B
100
AcDbEntity
  8
0
370
    35
390
0
 62
     7
100
AcDbCircle
 10
1760.124146
 20
128.208328
 30
0.0
 40
0.1
210
0.0
220
0.0
230
1.0
100
AcDbArc
 50
76.667234
 51
223.332764
  0
LINE
  5
60C
100
AcDbEntity
  8
0
370
    35
390
0
 62
     7
 48
0.02
100
AcDbLine
 10
120.887039
 20
127.533333
 30
0.0
 11
121.687035
 21
127.533333
 31
0.0
210
0.0
220
0.0
230
1.0
  0
LINE
  5
60D
100
AcDbEntity
  8
0
370
    35
390
0
 62
     7
 48
0.0775
100
AcDbLine
 10
120.887039
 20
127.533333
 30
0.0
 11
120.887039
 21
124.433334
 31
0.0
210
0.0
220
0.0
230
1.0
  0
LINE
  5
60E
100
AcDbEntity
  8
0
370
    35
390
0
 62
     7
 48
0.0775
100
AcDbLine
 10
120.887039
 20
131.933334
 30
0.0
 11
120.887039
 21
128.833328
 31
0.0
210
0.0
220
0.0
230
1.0
  0
LINE
  5
60F
100
AcDbEntity
  8
0
370
    35
390
0
 62
     7
 48
0.02
100
AcDbLine
 10
120.887039
 20
128.833328
 30
0.0
 11
121.687035
 21
128.833328
 31
0.0
210
0.0
220
0.0
230
1.0
  0
LINE
  5
610
100
AcDbEntity
  8
0
370
    35
390
0
 62
     7
 48
0.005
100
AcDbLine
 10
120.687042
 20
127.533333
 30
0.0
 11
120.887039
 21
127.533333
 31
0.0
210
0.0
220
0.0
230
1.0
  0
LINE
  5
611
100
AcDbEntity
  8
0
370
    35
390
0
 62
     7
 48
0.0725
100
AcDbLine
 10
120.687042
 20
127.533333
 30
0.0
 11
120.687042
 21
124.633331
 31
0.0
210
0.0
220
0.0
230
1.0
  0
LINE
  5
612
100
AcDbEntity
  8
0
370
    35
390
0
 62
     7
 48
0.005
100
AcDbLine
 10
120.687042
 20
128.833328
 30
0.0
 11
120.887039
 21
128.833328
 31
0.0
210
0.0
220
0.0
230
1.0
  0
LINE
  5
613
100
AcDbEntity
  8
0
370
    35
390
0
 62
     7
 48
0.0725
100
AcDbLine
 10
120.687042
 20
131.733337
 30
0.0
 11
120.687042
 21
128.833328
 31
0.0
210
0.0
220
0.0
230
1.0
  0
LINE
  5
614
100
AcDbEntity
  8
0
370
    35
390
0
 62
     7
100
AcDbLine
 10
1787.886963
 20
118.926476
 30
0.0
 11
133.487045
 21
118.926476
 31
0.0
210
0.0
220
0.0
230
1.0
  0
LINE
  5
615
100
AcDbEntity
  8
0
370
    35
390
0
 62
     7
 48
0.007501
100
AcDbLine
 10
1799.687012
 20
124.433334
 30
0.0
 11
1799.987061
 21
124.433334
 31
0.0
210
0.0
220
0.0
230
1.0
  0
LINE
  5
616
100
AcDbEntity
  8
0
370
    35
390
0
 62
     7
 48
0.007501
100
AcDbLine
 10
1799.687012
 20
131.933334
 30
0.0
 11
1799.987061
 21
131.933334
 31
0.0
210
0.0
220
0.0
230
1.0
  0
LINE
  5
617
100
AcDbEntity
  8
0
370
    35
390
0
 62
     7
 48
0.00707
100
AcDbLine
 10
1800.187012
 20
124.633331
 30
0.0
 11
1799.987061
 21
124.433334
 31
0.0
210
0.0
220
0.0
230
1.0
  0
LINE
  5
618
100
AcDbEntity
  8
0
370
    35
390
0
 62
     7
 48
0.00707
100
AcDbLine
 10
1800.187012
 20
131.733337
 30
0.0
 11
1799.987061
 21
131.933334
 31
0.0
210
0.0
220
0.0
230
1.0
  0
LINE
  5
619
100
AcDbEntity
  8
0
370
    35
390
0
 62
     7
 48
0.02
100
AcDbLine
 10
121.687035
 20
124.433334
 30
0.0
 11
120.887039
 21
124.433334
 31
0.0
210
0.0
220
0.0
230
1.0
  0
LINE
  5
61A
100
AcDbEntity
  8
0
370
    35
390
0
 62
     7
 48
0.02
100
AcDbLine
 10
121.687035
 20
131.933334
 30
0.0
 11
120.887039
 21
131.933334
 31
0.0
210
0.0
220
0.0
230
1.0
  0
LINE
  5
61B
100
AcDbEntity
  8
0
370
    35
390
0
 62
     7
 48
0.007071
100
AcDbLine
 10
120.687042
 20
124.633331
 30
0.0
 11
120.887039
 21
124.433334
 31
0.0
210
0.0
220
0.0
230
1.0
  0
LINE
  5
61C
100
AcDbEntity
  8
0
370
    35
390
0
 62
     7
 48
0.007071
100
AcDbLine
 10
120.687042
 20
131.733337
 30
0.0
 11
120.887039
 21
131.933334
 31
0.0
210
0.0
220
0.0
230
1.0
  0
LINE
  5
61D
100
AcDbEntity
  8
0
370
    35
390
0
 62
     7
 48
0.007071
100
AcDbLine
 10
37.735886
 20
116.683334
 30
0.0
 11
37.535885
 21
116.483337
 31
0.0
210
0.0
220
0.0
230
1.0
  0
LINE
  5
61E
100
AcDbEntity
  8
0
370
    35
390
0
 62
     7
 48
0.05
100
AcDbLine
 10
37.535885
 20
101.683334
 30
0.0
 11
37.535885
 21
99.683334
 31
0.0
210
0.0
220
0.0
230
1.0
  0
LINE
  5
61F
100
AcDbEntity
  8
0
370
    35
390
0
 62
     7
 48
0.2
100
AcDbLine
 10
37.535885
 20
109.683334
 30
0.0
 11
37.535885
 21
101.683334
 31
0.0
210
0.0
220
0.0
230
1.0
  0
LINE
  5
620
100
AcDbEntity
  8
0
370
    35
390
0
 62
     7
 48
0.05
100
AcDbLine
 10
37.535885
 20
111.683334
 30
0.0
 11
37.535885
 21
109.683334
 31
0.0
210
0.0
220
0.0
230
1.0
  0
LINE
  5
621
100
AcDbEntity
  8
0
370
    35
390
0
 62
     7
 48
0.025
100
AcDbLine
 10
37.535885
 20
112.683334
 30
0.0
 11
37.535885
 21
111.683334
 31
0.0
210
0.0
220
0.0
230
1.0
  0
LINE
  5
622
100
AcDbEntity
  8
0
370
    35
390
0
 62
     7
 48
0.0325
100
AcDbLine
 10
37.535885
 20
113.983337
 30
0.0
 11
37.535885
 21
112.683334
 31
0.0
210
0.0
220
0.0
230
1.0
  0
LINE
  5
623
100
AcDbEntity
  8
0
370
    35
390
0
 62
     7
 48
0.025
100
AcDbLine
 10
37.535885
 20
114.983337
 30
0.0
 11
37.535885
 21
113.983337
 31
0.0
210
0.0
220
0.0
230
1.0
  0
LINE
  5
624
100
AcDbEntity
  8
0
370
    35
390
0
 62
     7
 48
0.0175
100
AcDbLine
 10
37.535885
 20
115.683334
 30
0.0
 11
37.535885
 21
114.983337
 31
0.0
210
0.0
220
0.0
230
1.0
  0
LINE
  5
625
100
AcDbEntity
  8
0
370
    35
390
0
 62
     7
 48
0.0125
100
AcDbLine
 10
37.535885
 20
115.683334
 30
0.0
 11
37.535885
 21
116.183334
 31
0.0
210
0.0
220
0.0
230
1.0
  0
LINE
  5
626
100
AcDbEntity
  8
0
370
    35
390
0
 62
     7
 48
0.0075
100
AcDbLine
 10
37.535885
 20
116.483337
 30
0.0
 11
37.535885
 21
116.183334
 31
0.0
210
0.0
220
0.0
230
1.0
  0
LINE
  5
627
100
AcDbEntity
  8
0
370
    35
390
0
 62
     7
 48
0.02
100
AcDbLine
 10
38.535885
 20
116.683334
 30
0.0
 11
37.735886
 21
116.683334
 31
0.0
210
0.0
220
0.0
230
1.0
  0
LINE
  5
628
100
AcDbEntity
  8
0
370
    35
390
0
 62
     7
 48
0.0125
100
AcDbLine
 10
37.735886
 20
116.683334
 30
0.0
 11
37.735886
 21
116.183334
 31
0.0
210
0.0
220
0.0
230
1.0
  0
LINE
  5
629
100
AcDbEntity
  8
0
370
    35
390
0
 62
     7
 48
0.007071
100
AcDbLine
 10
37.735886
 20
99.483337
 30
0.0
 11
37.535885
 21
99.683334
 31
0.0
210
0.0
220
0.0
230
1.0
  0
LINE
  5
62A
100
AcDbEntity
  8
0
370
    35
390
0
 62
     7
 48
0.007071
100
AcDbLine
 10
37.735886
 20
111.483337
 30
0.0
 11
37.535885
 21
111.683334
 31
0.0
210
0.0
220
0.0
230
1.0
  0
LINE
  5
62B
100
AcDbEntity
  8
0
370
    35
390
0
 62
     7
 48
0.0325
100
AcDbLine
 10
37.735886
 20
112.683334
 30
0.0
 11
37.735886
 21
113.983337
 31
0.0
210
0.0
220
0.0
230
1.0
  0
LINE
  5
62C
100
AcDbEntity
  8
0
370
    35
390
0
 62
     7
 48
0.012426
100
AcDbLine
 10
37.735886
 20
115.183334
 30
0.0
 11
38.232941
 21
115.183334
 31
0.0
210
0.0
220
0.0
230
1.0
  0
LINE
  5
62D
100
AcDbEntity
  8
0
370
    35
390
0
 62
     7
 48
0.007071
100
AcDbLine
 10
37.735886
 20
115.183334
 30
0.0
 11
37.535885
 21
114.983337
 31
0.0
210
0.0
220
0.0
230
1.0
  0
LINE
  5
62E
100
AcDbEntity
  8
0
370
    35
390
0
 62
     7
 48
0.0125
100
AcDbLine
 10
37.735886
 20
115.683334
 30
0.0
 11
37.735886
 21
115.183334
 31
0.0
210
0.0
220
0.0
230
1.0
  0
LINE
  5
62F
100
AcDbEntity
  8
0
370
    35
390
0
 62
     7
 48
0.0125
100
AcDbLine
 10
37.735886
 20
115.683334
 30
0.0
 11
37.735886
 21
116.183334
 31
0.0
210
0.0
220
0.0
230
1.0
  0
ARC
  5
630
100
AcDbEntity
  8
0
370
    35
390
0
 62
     7
100
AcDbCircle
 10
41.080975
 20
115.883331
 30
0.0
 40
0.8
210
0.0
220
0.0
230
1.0
100
AcDbArc
 50
9.594069
 51
22.024812
  0
ARC
  5
631
100
AcDbEntity
  8
0
370
    35
390
0
 62
     7
100
AcDbCircle
 10
38.063789
 20
117.483337
 30
0.0
 40
0.8
210
0.0
220
0.0
230
1.0
100
AcDbArc
 50
270.000148
 51
298.152056
  0
LINE
  5
632
100
AcDbEntity
  8
0
370
    35
390
0
 62
     7
 48
0.426967
100
AcDbLine
 10
55.311623
 20
115.183334
 30
0.0
 11
38.232941
 21
115.183334
 31
0.0
210
0.0
220
0.0
230
1.0
  0
LINE
  5
633
100
AcDbEntity
  8
0
370
    35
390
0
 62
     7
 48
0.023107
100
AcDbLine
 10
56.235886
 20
115.183334
 30
0.0
 11
55.311623
 21
115.183334
 31
0.0
210
0.0
220
0.0
230
1.0
  0
LINE
  5
634
100
AcDbEntity
  8
0
370
    35
390
0
 62
     7
100
AcDbLine
 10
37.735886
 20
88.183334
 30
0.0
 11
37.735886
 21
112.683334
 31
0.0
210
0.0
220
0.0
230
1.0
  0
LINE
  5
635
100
AcDbEntity
  8
0
370
    35
390
0
 62
     7
 48
0.0175
100
AcDbLine
 10
37.735886
 20
113.983337
 30
0.0
 11
37.735886
 21
114.683334
 31
0.0
210
0.0
220
0.0
230
1.0
  0
LINE
  5
636
100
AcDbEntity
  8
0
370
    35
390
0
 62
     7
 48
0.005178
100
AcDbLine
 10
37.882332
 20
88.036888
 30
0.0
 11
37.735886
 21
88.183334
 31
0.0
210
0.0
220
0.0
230
1.0
  0
ARC
  5
637
100
AcDbEntity
  8
0
370
    35
390
0
 62
     7
100
AcDbCircle
 10
38.235695
 20
87.683105
 30
0.0
 40
0.500122
210
0.0
220
0.0
230
1.0
100
AcDbArc
 50
89.978446
 51
134.966191
  0
ARC
  5
638
100
AcDbEntity
  8
0
370
    35
390
0
 62
     7
100
AcDbCircle
 10
38.235886
 20
114.683334
 30
0.0
 40
0.5
210
0.0
220
0.0
230
1.0
100
AcDbArc
 50
90.337325
 51
180.000005
  0
ARC
  5
639
100
AcDbEntity
  8
0
370
    35
390
0
 62
     7
100
AcDbCircle
 10
42.855797
 20
116.183334
 30
0.0
 40
1.0
210
0.0
220
0.0
230
1.0
100
AcDbArc
 50
189.594075
 51
269.999997
  0
ARC
  5
63A
100
AcDbEntity
  8
0
370
    35
390
0
 62
     7
100
AcDbCircle
 10
55.307487
 20
114.827209
 30
0.0
 40
0.356097
210
0.0
220
0.0
230
1.0
100
AcDbArc
 50
89.334769
 51
100.229112
  0
ARC
  5
63B
100
AcDbEntity
  8
0
370
    35
390
0
 62
     7
100
AcDbCircle
 10
55.281548
 20
114.957008
 30
0.0
 40
0.223809
210
0.0
220
0.0
230
1.0
100
AcDbArc
 50
80.181551
 51
99.595148
  0
LINE
  5
63C
100
AcDbEntity
  8
0
370
    35
390
0
 62
     7
 48
0.000986
100
AcDbLine
 10
55.701202
 20
114.883331
 30
0.0
 11
55.685116
 21
114.919342
 31
0.0
210
0.0
220
0.0
230
1.0
  0
LINE
  5
63D
100
AcDbEntity
  8
0
370
    35
390
0
 62
     7
 48
0.020867
100
AcDbLine
 10
56.535885
 20
114.883331
 30
0.0
 11
55.701202
 21
114.883331
 31
0.0
210
0.0
220
0.0
230
1.0
  0
LINE
  5
63E
100
AcDbEntity
  8
0
370
    35
390
0
 62
     7
 48
0.010607
100
AcDbLine
 10
56.535885
 20
114.883331
 30
0.0
 11
56.235886
 21
115.183334
 31
0.0
210
0.0
220
0.0
230
1.0
  0
LINE
  5
63F
100
AcDbEntity
  8
0
370
    35
390
0
 62
     7
 48
0.0125
100
AcDbLine
 10
38.235886
 20
87.683334
 30
0.0
 11
37.882332
 21
88.036888
 31
0.0
210
0.0
220
0.0
230
1.0
  0
LINE
  5
640
100
AcDbEntity
  8
0
370
    35
390
0
 62
     7
 48
0.0125
100
AcDbLine
 10
56.235886
 20
90.983337
 30
0.0
 11
55.735886
 21
90.983337
 31
0.0
210
0.0
220
0.0
230
1.0
  0
LINE
  5
641
100
AcDbEntity
  8
0
370
    35
390
0
 62
     7
 48
0.1975
100
AcDbLine
 10
46.135887
 20
88.183334
 30
0.0
 11
38.235886
 21
88.183334
 31
0.0
210
0.0
220
0.0
230
1.0
  0
LINE
  5
642
100
AcDbEntity
  8
0
370
    35
390
0
 62
     7
 48
0.0175
100
AcDbLine
 10
46.135887
 20
88.183334
 30
0.0
 11
46.135887
 21
88.883331
 31
0.0
210
0.0
220
0.0
230
1.0
  0
LINE
  5
643
100
AcDbEntity
  8
0
370
    35
390
0
 62
     7
 48
0.03
100
AcDbLine
 10
46.135887
 20
88.883331
 30
0.0
 11
47.335884
 21
88.883331
 31
0.0
210
0.0
220
0.0
230
1.0
  0
LINE
  5
644
100
AcDbEntity
  8
0
370
    35
390
0
 62
     7
 48
0.0175
100
AcDbLine
 10
47.335884
 20
88.183334
 30
0.0
 11
47.335884
 21
88.883331
 31
0.0
210
0.0
220
0.0
230
1.0
  0
LINE
  5
645
100
AcDbEntity
  8
0
370
    35
390
0
 62
     7
 48
0.1975
100
AcDbLine
 10
55.235886
 20
88.183334
 30
0.0
 11
47.335884
 21
88.183334
 31
0.0
210
0.0
220
0.0
230
1.0
  0
ARC
  5
646
100
AcDbEntity
  8
0
370
    35
390
0
 62
     7
100
AcDbCircle
 10
39.985886
 20
103.883331
 30
0.0
 40
1.75
210
0.0
220
0.0
230
1.0
100
AcDbArc
 50
90.000003
 51
269.999997
  0
LINE
  5
647
100
AcDbEntity
  8
0
370
    35
390
0
 62
     7
 48
0.0075
100
AcDbLine
 10
39.985886
 20
105.633331
 30
0.0
 11
40.285885
 21
105.633331
 31
0.0
210
0.0
220
0.0
230
1.0
  0
ARC
  5
648
100
AcDbEntity
  8
0
370
    35
390
0
 62
     7
100
AcDbCircle
 10
40.285885
 20
103.883331
 30
0.0
 40
1.75
210
0.0
220
0.0
230
1.0
100
AcDbArc
 50
269.999997
 51
90.000037
  0
LINE
  5
649
100
AcDbEntity
  8
0
370
    35
390
0
 62
     7
 48
0.0075
100
AcDbLine
 10
40.285885
 20
102.133331
 30
0.0
 11
39.985886
 21
102.133331
 31
0.0
210
0.0
220
0.0
230
1.0
  0
CIRCLE
  5
64A
100
AcDbEntity
  8
0
370
    35
390
0
 62
     7
100
AcDbCircle
 10
43.135887
 20
110.183334
 30
0.0
 40
4.15
210
0.0
220
0.0
230
1.0
  0
CIRCLE
  5
64B
100
AcDbEntity
  8
0
370
    35
390
0
 62
     7
100
AcDbCircle
 10
51.735886
 20
109.683334
 30
0.0
 40
2.25
210
0.0
220
0.0
230
1.0
  0
CIRCLE
  5
64C
100
AcDbEntity
  8
0
370
    35
390
0
 62
     7
100
AcDbCircle
 10
46.735886
 20
96.883331
 30
0.0
 40
7.3
210
0.0
220
0.0
230
1.0
  0
LINE
  5
64D
100
AcDbEntity
  8
0
370
    35
390
0
 62
     7
 48
0.425
100
AcDbLine
 10
55.235886
 20
87.683334
 30
0.0
 11
38.235886
 21
87.683334
 31
0.0
210
0.0
220
0.0
230
1.0
  0
LINE
  5
64E
100
AcDbEntity
  8
0
370
    35
390
0
 62
     7
 48
0.0125
100
AcDbLine
 10
55.235886
 20
87.683334
 30
0.0
 11
55.589439
 21
88.036888
 31
0.0
210
0.0
220
0.0
230
1.0
  0
ARC
  5
64F
100
AcDbEntity
  8
0
370
    35
390
0
 62
     7
100
AcDbCircle
 10
55.236164
 20
87.683121
 30
0.0
 40
0.500082
210
0.0
220
0.0
230
1.0
100
AcDbArc
 50
45.0399
 51
90.032063
  0
LINE
  5
650
100
AcDbEntity
  8
0
370
    35
390
0
 62
     7
 48
0.0075
100
AcDbLine
 10
47.335884
 20
87.883331
 30
0.0
 11
47.335884
 21
88.183334
 31
0.0
210
0.0
220
0.0
230
1.0
  0
LINE
  5
651
100
AcDbEntity
  8
0
370
    35
390
0
 62
     7
 48
0.03
100
AcDbLine
 10
47.335884
 20
87.883331
 30
0.0
 11
46.135887
 21
87.883331
 31
0.0
210
0.0
220
0.0
230
1.0
  0
LINE
  5
652
100
AcDbEntity
  8
0
370
    35
390
0
 62
     7
 48
0.0075
100
AcDbLine
 10
46.135887
 20
87.883331
 30
0.0
 11
46.135887
 21
88.183334
 31
0.0
210
0.0
220
0.0
230
1.0
  0
ARC
  5
653
100
AcDbEntity
  8
0
370
    35
390
0
 62
     7
100
AcDbCircle
 10
55.244255
 20
114.683334
 30
0.0
 40
0.5
210
0.0
220
0.0
230
1.0
100
AcDbArc
 50
6.77167
 51
10.499454
  0
ARC
  5
654
100
AcDbEntity
  8
0
370
    35
390
0
 62
     7
100
AcDbCircle
 10
55.298927
 20
114.695465
 30
0.0
 40
0.44401
210
0.0
220
0.0
230
1.0
100
AcDbArc
 50
10.245349
 51
25.032961
  0
LINE
  5
655
100
AcDbEntity
  8
0
370
    35
390
0
 62
     7
 48
0.055
100
AcDbLine
 10
56.535885
 20
112.683334
 30
0.0
 11
56.535885
 21
114.883331
 31
0.0
210
0.0
220
0.0
230
1.0
  0
LINE
  5
656
100
AcDbEntity
  8
0
370
    35
390
0
 62
     7
 48
0.025
100
AcDbLine
 10
56.535885
 20
111.683334
 30
0.0
 11
56.535885
 21
112.683334
 31
0.0
210
0.0
220
0.0
230
1.0
  0
LINE
  5
657
100
AcDbEntity
  8
0
370
    35
390
0
 62
     7
 48
0.05
100
AcDbLine
 10
56.535885
 20
109.683334
 30
0.0
 11
56.535885
 21
111.683334
 31
0.0
210
0.0
220
0.0
230
1.0
  0
LINE
  5
658
100
AcDbEntity
  8
0
370
    35
390
0
 62
     7
100
AcDbLine
 10
56.535885
 20
109.683334
 30
0.0
 11
56.535885
 21
88.683334
 31
0.0
210
0.0
220
0.0
230
1.0
  0
LINE
  5
659
100
AcDbEntity
  8
0
370
    35
390
0
 62
     7
 48
0.025
100
AcDbLine
 10
56.535885
 20
87.683334
 30
0.0
 11
56.535885
 21
88.683334
 31
0.0
210
0.0
220
0.0
230
1.0
  0
LINE
  5
65A
100
AcDbEntity
  8
0
370
    35
390
0
 62
     7
 48
0.159259
100
AcDbLine
 10
55.735886
 20
88.183334
 30
0.0
 11
55.735886
 21
94.55368
 31
0.0
210
0.0
220
0.0
230
1.0
  0
LINE
  5
65B
100
AcDbEntity
  8
0
370
    35
390
0
 62
     7
 48
0.005178
100
AcDbLine
 10
55.735886
 20
88.183334
 30
0.0
 11
55.589439
 21
88.036888
 31
0.0
210
0.0
220
0.0
230
1.0
  0
LINE
  5
65C
100
AcDbEntity
  8
0
370
    35
390
0
 62
     7
 48
0.0125
100
AcDbLine
 10
55.735886
 20
87.683334
 30
0.0
 11
55.735886
 21
88.183342
 31
0.0
210
0.0
220
0.0
230
1.0
  0
LINE
  5
65D
100
AcDbEntity
  8
0
370
    35
390
0
 62
     7
 48
0.0125
100
AcDbLine
 10
56.235886
 20
88.983337
 30
0.0
 11
55.735886
 21
88.983337
 31
0.0
210
0.0
220
0.0
230
1.0
  0
LINE
  5
65E
100
AcDbEntity
  8
0
370
    35
390
0
 62
     7
 48
0.05
100
AcDbLine
 10
56.235886
 20
90.983337
 30
0.0
 11
56.235886
 21
88.983337
 31
0.0
210
0.0
220
0.0
230
1.0
  0
LINE
  5
65F
100
AcDbEntity
  8
0
370
    35
390
0
 62
     7
 48
0.010607
100
AcDbLine
 10
56.235886
 20
88.983337
 30
0.0
 11
56.535885
 21
88.683334
 31
0.0
210
0.0
220
0.0
230
1.0
  0
ARC
  5
660
100
AcDbEntity
  8
0
370
    35
390
0
 62
     7
100
AcDbCircle
 10
56.235886
 20
94.55368
 30
0.0
 40
0.5
210
0.0
220
0.0
230
1.0
100
AcDbArc
 50
173.220428
 51
180.000005
  0
ARC
  5
661
100
AcDbEntity
  8
0
370
    35
390
0
 62
     7
100
AcDbCircle
 10
-28.97245
 20
104.683334
 30
0.0
 40
85.308333
210
0.0
220
0.0
230
1.0
100
AcDbArc
 50
353.220434
 51
6.771668
  0
ARC
  5
662
100
AcDbEntity
  8
0
370
    35
390
0
 62
     7
100
AcDbCircle
 10
39.985886
 20
103.883331
 30
0.0
 40
1.55
210
0.0
220
0.0
230
1.0
100
AcDbArc
 50
90.000003
 51
269.999997
  0
LINE
  5
663
100
AcDbEntity
  8
0
370
    35
390
0
 62
     7
 48
0.0075
100
AcDbLine
 10
39.985886
 20
105.433334
 30
0.0
 11
40.285885
 21
105.433334
 31
0.0
210
0.0
220
0.0
230
1.0
  0
ARC
  5
664
100
AcDbEntity
  8
0
370
    35
390
0
 62
     7
100
AcDbCircle
 10
40.285885
 20
103.883331
 30
0.0
 40
1.55
210
0.0
220
0.0
230
1.0
100
AcDbArc
 50
269.999997
 51
90.000003
  0
LINE
  5
665
100
AcDbEntity
  8
0
370
    35
390
0
 62
     7
 48
0.0075
100
AcDbLine
 10
40.285885
 20
102.333336
 30
0.0
 11
39.985886
 21
102.333336
 31
0.0
210
0.0
220
0.0
230
1.0
  0
CIRCLE
  5
666
100
AcDbEntity
  8
0
370
    35
390
0
 62
     7
100
AcDbCircle
 10
51.735886
 20
109.683334
 30
0.0
 40
2.05
210
0.0
220
0.0
230
1.0
  0
CIRCLE
  5
667
100
AcDbEntity
  8
0
370
    35
390
0
 62
     7
100
AcDbCircle
 10
46.735886
 20
96.883331
 30
0.0
 40
7.1
210
0.0
220
0.0
230
1.0
  0
LINE
  5
668
100
AcDbEntity
  8
0
370
    35
390
0
 62
     7
 48
0.01597
100
AcDbLine
 10
56.535885
 20
111.683334
 30
0.0
 11
56.08419
 21
111.231636
 31
0.0
210
0.0
220
0.0
230
1.0
  0
LINE
  5
669
100
AcDbEntity
  8
0
370
    35
390
0
 62
     7
 48
0.02
100
AcDbLine
 10
56.535885
 20
87.683334
 30
0.0
 11
55.735886
 21
87.683334
 31
0.0
210
0.0
220
0.0
230
1.0
  0
ARC
  5
66A
100
AcDbEntity
  8
0
370
    35
390
0
 62
     7
100
AcDbCircle
 10
43.135887
 20
110.183334
 30
0.0
 40
3.75
210
0.0
220
0.0
230
1.0
100
AcDbArc
 50
170.018312
 51
189.981688
  0
ARC
  5
66B
100
AcDbEntity
  8
0
370
    35
390
0
 62
     7
100
AcDbCircle
 10
43.135887
 20
110.183334
 30
0.0
 40
3.75
210
0.0
220
0.0
230
1.0
100
AcDbArc
 50
9.981683
 51
170.018312
  0
ARC
  5
66C
100
AcDbEntity
  8
0
370
    35
390
0
 62
     7
100
AcDbCircle
 10
43.135887
 20
110.183334
 30
0.0
 40
3.75
210
0.0
220
0.0
230
1.0
100
AcDbArc
 50
350.018317
 51
9.981683
  0
ARC
  5
66D
100
AcDbEntity
  8
0
370
    35
390
0
 62
     7
100
AcDbCircle
 10
43.135887
 20
110.183334
 30
0.0
 40
3.75
210
0.0
220
0.0
230
1.0
100
AcDbArc
 50
189.981688
 51
350.018317
  0
LINE
  5
66E
100
AcDbEntity
  8
0
370
    35
390
0
 62
     7
 48
0.174499
100
AcDbLine
 10
46.62587
 20
110.833336
 30
0.0
 11
39.645901
 21
110.833336
 31
0.0
210
0.0
220
0.0
230
1.0
  0
LINE
  5
66F
100
AcDbEntity
  8
0
370
    35
390
0
 62
     7
 48
0.005081
100
AcDbLine
 10
46.62587
 20
110.833336
 30
0.0
 11
46.829121
 21
110.833336
 31
0.0
210
0.0
220
0.0
230
1.0
  0
LINE
  5
670
100
AcDbEntity
  8
0
370
    35
390
0
 62
     7
 48
0.005081
100
AcDbLine
 10
39.645901
 20
110.833336
 30
0.0
 11
39.44265
 21
110.833336
 31
0.0
210
0.0
220
0.0
230
1.0
  0
ARC
  5
671
100
AcDbEntity
  8
0
370
    35
390
0
 62
     7
100
AcDbCircle
 10
43.135887
 20
110.183334
 30
0.0
 40
3.55
210
0.0
220
0.0
230
1.0
100
AcDbArc
 50
10.550296
 51
169.449699
  0
LINE
  5
672
100
AcDbEntity
  8
0
370
    35
390
0
 62
     7
 48
0.174499
100
AcDbLine
 10
39.645901
 20
109.533333
 30
0.0
 11
46.62587
 21
109.533333
 31
0.0
210
0.0
220
0.0
230
1.0
  0
LINE
  5
673
100
AcDbEntity
  8
0
370
    35
390
0
 62
     7
 48
0.005081
100
AcDbLine
 10
39.645901
 20
109.533333
 30
0.0
 11
39.44265
 21
109.533333
 31
0.0
210
0.0
220
0.0
230
1.0
  0
LINE
  5
674
100
AcDbEntity
  8
0
370
    35
390
0
 62
     7
 48
0.005081
100
AcDbLine
 10
46.62587
 20
109.533333
 30
0.0
 11
46.829121
 21
109.533333
 31
0.0
210
0.0
220
0.0
230
1.0
  0
ARC
  5
675
100
AcDbEntity
  8
0
370
    35
390
0
 62
     7
100
AcDbCircle
 10
43.135887
 20
110.183334
 30
0.0
 40
3.55
210
0.0
220
0.0
230
1.0
100
AcDbArc
 50
190.550301
 51
349.449704
  0
CIRCLE
  5
676
100
AcDbEntity
  8
0
370
    35
390
0
 62
     7
100
AcDbCircle
 10
46.735886
 20
96.883331
 30
0.0
 40
7.0
210
0.0
220
0.0
230
1.0
  0
CIRCLE
  5
677
100
AcDbEntity
  8
0
370
    35
390
0
 62
     7
100
AcDbCircle
 10
46.735886
 20
96.883331
 30
0.0
 40
6.9
210
0.0
220
0.0
230
1.0
  0
LINE
  5
678
100
AcDbEntity
  8
0
370
    35
390
0
 62
     7
 48
0.109697
100
AcDbLine
 10
42.835884
 20
94.516205
 30
0.0
 11
46.635883
 21
92.322266
 31
0.0
210
0.0
220
0.0
230
1.0
  0
ARC
  5
679
100
AcDbEntity
  8
0
370
    35
390
0
 62
     7
100
AcDbCircle
 10
42.935883
 20
94.689407
 30
0.0
 40
0.2
210
0.0
220
0.0
230
1.0
100
AcDbArc
 50
179.999991
 51
239.999983
  0
LINE
  5
67A
100
AcDbEntity
  8
0
370
    35
390
0
 62
     7
 48
0.109697
100
AcDbLine
 10
42.735886
 20
99.077271
 30
0.0
 11
42.735886
 21
94.689407
 31
0.0
210
0.0
220
0.0
230
1.0
  0
ARC
  5
67B
100
AcDbEntity
  8
0
370
    35
390
0
 62
     7
100
AcDbCircle
 10
42.935886
 20
99.077271
 30
0.0
 40
0.2
210
0.0
220
0.0
230
1.0
100
AcDbArc
 50
119.99999
 51
179.999991
  0
LINE
  5
67C
100
AcDbEntity
  8
0
370
    35
390
0
 62
     7
 48
0.109697
100
AcDbLine
 10
46.635887
 20
101.444405
 30
0.0
 11
42.835884
 21
99.250473
 31
0.0
210
0.0
220
0.0
230
1.0
  0
ARC
  5
67D
100
AcDbEntity
  8
0
370
    35
390
0
 62
     7
100
AcDbCircle
 10
46.735886
 20
101.271194
 30
0.0
 40
0.2
210
0.0
220
0.0
230
1.0
100
AcDbArc
 50
59.999988
 51
119.99999
  0
LINE
  5
67E
100
AcDbEntity
  8
0
370
    35
390
0
 62
     7
 48
0.109697
100
AcDbLine
 10
50.635887
 20
99.250473
 30
0.0
 11
46.835884
 21
101.444405
 31
0.0
210
0.0
220
0.0
230
1.0
  0
ARC
  5
67F
100
AcDbEntity
  8
0
370
    35
390
0
 62
     7
100
AcDbCircle
 10
50.535885
 20
99.077271
 30
0.0
 40
0.2
210
0.0
220
0.0
230
1.0
100
AcDbArc
 50
359.999989
 51
59.999988
  0
LINE
  5
680
100
AcDbEntity
  8
0
370
    35
390
0
 62
     7
 48
0.109697
100
AcDbLine
 10
50.735886
 20
94.689407
 30
0.0
 11
50.735886
 21
99.077271
 31
0.0
210
0.0
220
0.0
230
1.0
  0
ARC
  5
681
100
AcDbEntity
  8
0
370
    35
390
0
 62
     7
100
AcDbCircle
 10
50.535885
 20
94.689407
 30
0.0
 40
0.2
210
0.0
220
0.0
230
1.0
100
AcDbArc
 50
299.999992
 51
359.999987
  0
LINE
  5
682
100
AcDbEntity
  8
0
370
    35
390
0
 62
     7
 48
0.109697
100
AcDbLine
 10
46.835884
 20
92.322266
 30
0.0
 11
50.635887
 21
94.516205
 31
0.0
210
0.0
220
0.0
230
1.0
  0
ARC
  5
683
100
AcDbEntity
  8
0
370
    35
390
0
 62
     7
100
AcDbCircle
 10
46.735886
 20
92.495476
 30
0.0
 40
0.2
210
0.0
220
0.0
230
1.0
100
AcDbArc
 50
239.999983
 51
299.999992
  0
ARC
  5
684
100
AcDbEntity
  8
0
370
    35
390
0
 62
     7
100
AcDbCircle
 10
44.080074
 20
96.883331
 30
0.0
 40
0.2
210
0.0
220
0.0
230
1.0
100
AcDbArc
 50
149.999984
 51
209.999989
  0
LINE
  5
685
100
AcDbEntity
  8
0
370
    35
390
0
 62
     7
 48
0.066395
100
AcDbLine
 10
45.234776
 20
99.28334
 30
0.0
 11
43.906868
 21
96.983337
 31
0.0
210
0.0
220
0.0
230
1.0
  0
ARC
  5
686
100
AcDbEntity
  8
0
370
    35
390
0
 62
     7
100
AcDbCircle
 10
45.407982
 20
99.183334
 30
0.0
 40
0.2
210
0.0
220
0.0
230
1.0
100
AcDbArc
 50
89.999989
 51
149.999984
  0
LINE
  5
687
100
AcDbEntity
  8
0
370
    35
390
0
 62
     7
 48
0.066395
100
AcDbLine
 10
48.063789
 20
99.383331
 30
0.0
 11
45.407982
 21
99.383331
 31
0.0
210
0.0
220
0.0
230
1.0
  0
ARC
  5
688
100
AcDbEntity
  8
0
370
    35
390
0
 62
     7
100
AcDbCircle
 10
48.063789
 20
99.183334
 30
0.0
 40
0.2
210
0.0
220
0.0
230
1.0
100
AcDbArc
 50
29.999987
 51
89.999989
  0
LINE
  5
689
100
AcDbEntity
  8
0
370
    35
390
0
 62
     7
 48
0.066395
100
AcDbLine
 10
49.564903
 20
96.983337
 30
0.0
 11
48.236996
 21
99.28334
 31
0.0
210
0.0
220
0.0
230
1.0
  0
ARC
  5
68A
100
AcDbEntity
  8
0
370
    35
390
0
 62
     7
100
AcDbCircle
 10
49.391697
 20
96.883331
 30
0.0
 40
0.2
210
0.0
220
0.0
230
1.0
100
AcDbArc
 50
329.999989
 51
29.999987
  0
LINE
  5
68B
100
AcDbEntity
  8
0
370
    35
390
0
 62
     7
 48
0.066395
100
AcDbLine
 10
48.236996
 20
94.483337
 30
0.0
 11
49.564903
 21
96.78334
 31
0.0
210
0.0
220
0.0
230
1.0
  0
ARC
  5
68C
100
AcDbEntity
  8
0
370
    35
390
0
 62
     7
100
AcDbCircle
 10
48.063789
 20
94.583336
 30
0.0
 40
0.2
210
0.0
220
0.0
230
1.0
100
AcDbArc
 50
269.999991
 51
329.999989
  0
LINE
  5
68D
100
AcDbEntity
  8
0
370
    35
390
0
 62
     7
 48
0.066395
100
AcDbLine
 10
45.407978
 20
94.383331
 30
0.0
 11
48.063789
 21
94.383331
 31
0.0
210
0.0
220
0.0
230
1.0
  0
ARC
  5
68E
100
AcDbEntity
  8
0
370
    35
390
0
 62
     7
100
AcDbCircle
 10
45.407978
 20
94.583336
 30
0.0
 40
0.2
210
0.0
220
0.0
230
1.0
100
AcDbArc
 50
209.999989
 51
269.999991
  0
LINE
  5
68F
100
AcDbEntity
  8
0
370
    35
390
0
 62
     7
 48
0.066395
100
AcDbLine
 10
43.906868
 20
96.78334
 30
0.0
 11
45.234772
 21
94.483337
 31
0.0
210
0.0
220
0.0
230
1.0
  0
ARC
  5
690
100
AcDbEntity
  8
0
370
    35
390
0
 62
     7
100
AcDbCircle
 10
42.866966
 20
116.187096
 30
0.0
 40
1.011549
210
0.0
220
0.0
230
1.0
100
AcDbArc
 50
189.900832
 51
214.219379
  0
ARC
  5
691
100
AcDbEntity
  8
0
370
    35
390
0
 62
     7
100
AcDbCircle
 10
55.244255
 20
114.683334
 30
0.0
 40
0.5
210
0.0
220
0.0
230
1.0
100
AcDbArc
 50
28.136435
 51
81.320137
  0
LINE
  5
692
100
AcDbEntity
  8
0
370
    35
390
0
 62
     7
 48
0.000238
100
AcDbLine
 10
55.319687
 20
115.177612
 30
0.0
 11
55.329086
 21
115.176086
 31
0.0
210
0.0
220
0.0
230
1.0
  0
LINE
  5
693
100
AcDbEntity
  8
0
370
    35
390
0
 62
     7
100
AcDbLine
 10
50.135887
 20
87.683319
 30
0.0
 11
50.135887
 21
21.883331
 31
0.0
210
0.0
220
0.0
230
1.0
  0
LINE
  5
694
100
AcDbEntity
  8
0
370
    35
390
0
 62
     7
100
AcDbLine
 10
43.335884
 20
87.683319
 30
0.0
 11
43.335884
 21
21.883331
 31
0.0
210
0.0
220
0.0
230
1.0
  0
LINE
  5
695
100
AcDbEntity
  8
0
370
    35
390
0
 62
     7
 48
0.25
100
AcDbLine
 10
50.135887
 20
21.883331
 30
0.0
 11
50.135887
 21
11.883331
 31
0.0
210
0.0
220
0.0
230
1.0
  0
LINE
  5
696
100
AcDbEntity
  8
0
370
    35
390
0
 62
     7
 48
0.25
100
AcDbLine
 10
43.335884
 20
21.883331
 30
0.0
 11
43.335884
 21
11.883331
 31
0.0
210
0.0
220
0.0
230
1.0
  0
LINE
  5
697
100
AcDbEntity
  8
0
370
    35
390
0
 62
     7
 48
0.17
100
AcDbLine
 10
50.135887
 20
11.883331
 30
0.0
 11
43.335884
 21
11.883331
 31
0.0
210
0.0
220
0.0
230
1.0
  0
LINE
  5
698
100
AcDbEntity
  8
0
370
    35
390
0
 62
     7
100
AcDbLine
 10
32.535885
 20
161.183334
 30
0.0
 11
32.535885
 21
127.383331
 31
0.0
210
0.0
220
0.0
230
1.0
  0
LINE
  5
699
100
AcDbEntity
  8
0
370
    35
390
0
 62
     7
 48
0.0125
100
AcDbLine
 10
32.535885
 20
127.383331
 30
0.0
 11
33.035885
 21
127.383331
 31
0.0
210
0.0
220
0.0
230
1.0
  0
LINE
  5
69A
100
AcDbEntity
  8
0
370
    35
390
0
 62
     7
 48
0.0125
100
AcDbLine
 10
32.535885
 20
161.183334
 30
0.0
 11
33.035881
 21
161.183334
 31
0.0
210
0.0
220
0.0
230
1.0
  0
LINE
  5
69B
100
AcDbEntity
  8
0
370
    35
390
0
 62
     7
 48
0.1675
100
AcDbLine
 10
35.535885
 20
162.183334
 30
0.0
 11
42.235882
 21
162.183334
 31
0.0
210
0.0
220
0.0
230
1.0
  0
LINE
  5
69C
100
AcDbEntity
  8
0
370
    35
390
0
 62
     7
 48
0.017678
100
AcDbLine
 10
35.035889
 20
161.683334
 30
0.0
 11
35.535885
 21
162.183334
 31
0.0
210
0.0
220
0.0
230
1.0
  0
ARC
  5
69D
100
AcDbEntity
  8
0
370
    35
390
0
 62
     7
100
AcDbCircle
 10
33.185886
 20
127.133331
 30
0.0
 40
0.25
210
0.0
220
0.0
230
1.0
100
AcDbArc
 50
126.869903
 51
180.000005
  0
LINE
  5
69E
100
AcDbEntity
  8
0
370
    35
390
0
 62
     7
100
AcDbLine
 10
33.035885
 20
122.390442
 30
0.0
 11
33.035885
 21
161.183334
 31
0.0
210
0.0
220
0.0
230
1.0
  0
LINE
  5
69F
100
AcDbEntity
  8
0
370
    35
390
0
 62
     7
 48
0.03375
100
AcDbLine
 10
32.935886
 20
127.133331
 30
0.0
 11
32.935886
 21
125.78334
 31
0.0
210
0.0
220
0.0
230
1.0
  0
ARC
  5
6A0
100
AcDbEntity
  8
0
370
    35
390
0
 62
     7
100
AcDbCircle
 10
33.235886
 20
125.78334
 30
0.0
 40
0.3
210
0.0
220
0.0
230
1.0
100
AcDbArc
 50
180.000009
 51
228.188837
  0
ARC
  5
6A1
100
AcDbEntity
  8
0
370
    35
390
0
 62
     7
100
AcDbCircle
 10
42.035885
 20
162.483337
 30
0.0
 40
0.3
210
0.0
220
0.0
230
1.0
100
AcDbArc
 50
180.000005
 51
269.999997
  0
LINE
  5
6A2
100
AcDbEntity
  8
0
370
    35
390
0
 62
     7
 48
0.005
100
AcDbLine
 10
57.035885
 20
165.383331
 30
0.0
 11
57.035885
 21
165.183334
 31
0.0
210
0.0
220
0.0
230
1.0
  0
ARC
  5
6A3
100
AcDbEntity
  8
0
370
    35
390
0
 62
     7
100
AcDbCircle
 10
56.735886
 20
165.383331
 30
0.0
 40
0.3
210
0.0
220
0.0
230
1.0
100
AcDbArc
 50
0.0
 51
90.000003
  0
LINE
  5
6A4
100
AcDbEntity
  8
0
370
    35
390
0
 62
     7
 48
0.3675
100
AcDbLine
 10
42.035885
 20
165.683334
 30
0.0
 11
56.735886
 21
165.683334
 31
0.0
210
0.0
220
0.0
230
1.0
  0
ARC
  5
6A5
100
AcDbEntity
  8
0
370
    35
390
0
 62
     7
100
AcDbCircle
 10
42.035885
 20
165.383331
 30
0.0
 40
0.3
210
0.0
220
0.0
230
1.0
100
AcDbArc
 50
90.000003
 51
180.000005
  0
LINE
  5
6A6
100
AcDbEntity
  8
0
370
    35
390
0
 62
     7
 48
0.0725
100
AcDbLine
 10
41.735886
 20
162.483337
 30
0.0
 11
41.735886
 21
165.383331
 31
0.0
210
0.0
220
0.0
230
1.0
  0
ARC
  5
6A7
100
AcDbEntity
  8
0
370
    35
390
0
 62
     7
100
AcDbCircle
 10
33.535885
 20
161.183334
 30
0.0
 40
0.5
210
0.0
220
0.0
230
1.0
100
AcDbArc
 50
90.000003
 51
180.000005
  0
CIRCLE
  5
6A8
100
AcDbEntity
  8
0
370
    35
390
0
 62
     7
100
AcDbCircle
 10
35.935886
 20
136.483337
 30
0.0
 40
2.5
210
0.0
220
0.0
230
1.0
  0
ARC
  5
6A9
100
AcDbEntity
  8
0
370
    35
390
0
 62
     7
100
AcDbCircle
 10
33.535885
 20
122.390442
 30
0.0
 40
0.5
210
0.0
220
0.0
230
1.0
100
AcDbArc
 50
180.000005
 51
225.0
  0
LINE
  5
6AA
100
AcDbEntity
  8
0
370
    35
390
0
 62
     7
100
AcDbLine
 10
60.828777
 20
116.183334
 30
0.0
 11
39.242992
 21
116.183334
 31
0.0
210
0.0
220
0.0
230
1.0
  0
LINE
  5
6AB
100
AcDbEntity
  8
0
370
    35
390
0
 62
     7
 48
0.205
100
AcDbLine
 10
33.535885
 20
161.683334
 30
0.0
 11
41.735886
 21
161.683334
 31
0.0
210
0.0
220
0.0
230
1.0
  0
ARC
  5
6AC
100
AcDbEntity
  8
0
370
    35
390
0
 62
     7
100
AcDbCircle
 10
41.735886
 20
162.183334
 30
0.0
 40
0.5
210
0.0
220
0.0
230
1.0
100
AcDbArc
 50
269.999997
 51
360.0
  0
LINE
  5
6AD
100
AcDbEntity
  8
0
370
    35
390
0
 62
     7
 48
0.0625
100
AcDbLine
 10
42.235886
 20
162.183334
 30
0.0
 11
42.235886
 21
164.683334
 31
0.0
210
0.0
220
0.0
230
1.0
  0
ARC
  5
6AE
100
AcDbEntity
  8
0
370
    35
390
0
 62
     7
100
AcDbCircle
 10
42.735886
 20
164.683334
 30
0.0
 40
0.5
210
0.0
220
0.0
230
1.0
100
AcDbArc
 50
90.000003
 51
180.000005
  0
LINE
  5
6AF
100
AcDbEntity
  8
0
370
    35
390
0
 62
     7
 48
0.452322
100
AcDbLine
 10
42.735886
 20
165.183334
 30
0.0
 11
60.828777
 21
165.183334
 31
0.0
210
0.0
220
0.0
230
1.0
  0
CIRCLE
  5
6B0
100
AcDbEntity
  8
0
370
    35
390
0
 62
     7
100
AcDbCircle
 10
39.535885
 20
150.183334
 30
0.0
 40
2.5
210
0.0
220
0.0
230
1.0
  0
CIRCLE
  5
6B1
100
AcDbEntity
  8
0
370
    35
390
0
 62
     7
100
AcDbCircle
 10
49.335884
 20
128.183334
 30
0.0
 40
4.15
210
0.0
220
0.0
230
1.0
  0
CIRCLE
  5
6B2
100
AcDbEntity
  8
0
370
    35
390
0
 62
     7
100
AcDbCircle
 10
55.535885
 20
150.183334
 30
0.0
 40
2.5
210
0.0
220
0.0
230
1.0
  0
CIRCLE
  5
6B3
100
AcDbEntity
  8
0
370
    35
390
0
 62
     7
100
AcDbCircle
 10
55.435883
 20
119.683334
 30
0.0
 40
2.5
210
0.0
220
0.0
230
1.0
  0
LINE
  5
6B4
100
AcDbEntity
  8
0
370
    35
390
0
 62
     7
 48
0.201777
100
AcDbLine
 10
38.889439
 20
116.329781
 30
0.0
 11
33.182331
 21
122.036888
 31
0.0
210
0.0
220
0.0
230
1.0
  0
ARC
  5
6B5
100
AcDbEntity
  8
0
370
    35
390
0
 62
     7
100
AcDbCircle
 10
39.242992
 20
116.683334
 30
0.0
 40
0.5
210
0.0
220
0.0
230
1.0
100
AcDbArc
 50
225.0
 51
269.999997
  0
ARC
  5
6B6
100
AcDbEntity
  8
0
370
    35
390
0
 62
     7
100
AcDbCircle
 10
60.828777
 20
116.683334
 30
0.0
 40
0.5
210
0.0
220
0.0
230
1.0
100
AcDbArc
 50
269.999997
 51
314.999999
  0
ARC
  5
6B7
100
AcDbEntity
  8
0
370
    35
390
0
 62
     7
100
AcDbCircle
 10
60.828777
 20
164.683334
 30
0.0
 40
0.5
210
0.0
220
0.0
230
1.0
100
AcDbArc
 50
45.000001
 51
90.000003
  0
LINE
  5
6B8
100
AcDbEntity
  8
0
370
    35
390
0
 62
     7
 48
0.095711
100
AcDbLine
 10
63.889439
 20
119.036888
 30
0.0
 11
61.182331
 21
116.329781
 31
0.0
210
0.0
220
0.0
230
1.0
  0
LINE
  5
6B9
100
AcDbEntity
  8
0
370
    35
390
0
 62
     7
100
AcDbLine
 10
64.035889
 20
161.976227
 30
0.0
 11
64.035889
 21
119.390442
 31
0.0
210
0.0
220
0.0
230
1.0
  0
LINE
  5
6BA
100
AcDbEntity
  8
0
370
    35
390
0
 62
     7
 48
0.095711
100
AcDbLine
 10
63.889439
 20
162.329773
 30
0.0
 11
61.182331
 21
165.036896
 31
0.0
210
0.0
220
0.0
230
1.0
  0
ARC
  5
6BB
100
AcDbEntity
  8
0
370
    35
390
0
 62
     7
100
AcDbCircle
 10
63.535885
 20
161.976227
 30
0.0
 40
0.5
210
0.0
220
0.0
230
1.0
100
AcDbArc
 50
0.0
 51
45.000001
  0
ARC
  5
6BC
100
AcDbEntity
  8
0
370
    35
390
0
 62
     7
100
AcDbCircle
 10
63.535885
 20
119.390442
 30
0.0
 40
0.5
210
0.0
220
0.0
230
1.0
100
AcDbArc
 50
314.999999
 51
360.0
  0
ARC
  5
6BD
100
AcDbEntity
  8
0
370
    35
390
0
 62
     7
100
AcDbCircle
 10
51.268852
 20
120.565506
 30
0.0
 40
2.00035
210
0.0
220
0.0
230
1.0
100
AcDbArc
 50
354.99373
 51
9.186304
  0
LINE
  5
6BE
100
AcDbEntity
  8
0
370
    35
390
0
 62
     7
 48
0.014216
100
AcDbLine
 10
53.139557
 20
118.996277
 30
0.0
 11
53.189117
 21
119.562767
 31
0.0
210
0.0
220
0.0
230
1.0
  0
ARC
  5
6BF
100
AcDbEntity
  8
0
370
    35
390
0
 62
     7
100
AcDbCircle
 10
51.144333
 20
119.170776
 30
0.0
 40
2.002837
210
0.0
220
0.0
230
1.0
100
AcDbArc
 50
348.556636
 51
355.001671
  0
LINE
  5
6C0
100
AcDbEntity
  8
0
370
    35
390
0
 62
     7
 48
0.004987
100
AcDbLine
 10
53.244186
 20
120.192215
 30
0.0
 11
53.261574
 21
120.390945
 31
0.0
210
0.0
220
0.0
230
1.0
  0
CIRCLE
  5
6C1
100
AcDbEntity
  8
0
370
    35
390
0
 62
     7
100
AcDbCircle
 10
35.935886
 20
136.483337
 30
0.0
 40
2.25
210
0.0
220
0.0
230
1.0
  0
CIRCLE
  5
6C2
100
AcDbEntity
  8
0
370
    35
390
0
 62
     7
100
AcDbCircle
 10
39.535885
 20
150.183334
 30
0.0
 40
2.25
210
0.0
220
0.0
230
1.0
  0
CIRCLE
  5
6C3
100
AcDbEntity
  8
0
370
    35
390
0
 62
     7
100
AcDbCircle
 10
55.535885
 20
150.183334
 30
0.0
 40
2.25
210
0.0
220
0.0
230
1.0
  0
CIRCLE
  5
6C4
100
AcDbEntity
  8
0
370
    35
390
0
 62
     7
100
AcDbCircle
 10
55.435883
 20
119.683334
 30
0.0
 40
2.25
210
0.0
220
0.0
230
1.0
  0
ARC
  5
6C5
100
AcDbEntity
  8
0
370
    35
390
0
 62
     7
100
AcDbCircle
 10
34.935886
 20
135.483337
 30
0.0
 40
0.7
210
0.0
220
0.0
230
1.0
100
AcDbArc
 50
360.0
 51
90.000003
  0
LINE
  5
6C6
100
AcDbEntity
  8
0
370
    35
390
0
 62
     7
 48
0.0075
100
AcDbLine
 10
35.635883
 20
135.483337
 30
0.0
 11
35.635883
 21
135.183334
 31
0.0
210
0.0
220
0.0
230
1.0
  0
LINE
  5
6C7
100
AcDbEntity
  8
0
370
    35
390
0
 62
     7
 48
0.015
100
AcDbLine
 10
35.635883
 20
135.183334
 30
0.0
 11
36.235886
 21
135.183334
 31
0.0
210
0.0
220
0.0
230
1.0
  0
LINE
  5
6C8
100
AcDbEntity
  8
0
370
    35
390
0
 62
     7
 48
0.0075
100
AcDbLine
 10
36.235886
 20
135.183334
 30
0.0
 11
36.235886
 21
135.483337
 31
0.0
210
0.0
220
0.0
230
1.0
  0
ARC
  5
6C9
100
AcDbEntity
  8
0
370
    35
390
0
 62
     7
100
AcDbCircle
 10
36.935886
 20
135.483337
 30
0.0
 40
0.7
210
0.0
220
0.0
230
1.0
100
AcDbArc
 50
90.000003
 51
179.999995
  0
LINE
  5
6CA
100
AcDbEntity
  8
0
370
    35
390
0
 62
     7
 48
0.0075
100
AcDbLine
 10
36.935886
 20
136.183334
 30
0.0
 11
37.235886
 21
136.183334
 31
0.0
210
0.0
220
0.0
230
1.0
  0
LINE
  5
6CB
100
AcDbEntity
  8
0
370
    35
390
0
 62
     7
 48
0.015
100
AcDbLine
 10
37.235886
 20
136.183334
 30
0.0
 11
37.235886
 21
136.78334
 31
0.0
210
0.0
220
0.0
230
1.0
  0
LINE
  5
6CC
100
AcDbEntity
  8
0
370
    35
390
0
 62
     7
 48
0.0075
100
AcDbLine
 10
37.235886
 20
136.78334
 30
0.0
 11
36.935886
 21
136.78334
 31
0.0
210
0.0
220
0.0
230
1.0
  0
ARC
  5
6CD
100
AcDbEntity
  8
0
370
    35
390
0
 62
     7
100
AcDbCircle
 10
36.935886
 20
137.483337
 30
0.0
 40
0.7
210
0.0
220
0.0
230
1.0
100
AcDbArc
 50
180.000005
 51
269.999997
  0
LINE
  5
6CE
100
AcDbEntity
  8
0
370
    35
390
0
 62
     7
 48
0.0075
100
AcDbLine
 10
36.235886
 20
137.483337
 30
0.0
 11
36.235886
 21
137.78334
 31
0.0
210
0.0
220
0.0
230
1.0
  0
LINE
  5
6CF
100
AcDbEntity
  8
0
370
    35
390
0
 62
     7
 48
0.015
100
AcDbLine
 10
36.235886
 20
137.78334
 30
0.0
 11
35.635883
 21
137.78334
 31
0.0
210
0.0
220
0.0
230
1.0
  0
LINE
  5
6D0
100
AcDbEntity
  8
0
370
    35
390
0
 62
     7
 48
0.0075
100
AcDbLine
 10
35.635883
 20
137.78334
 30
0.0
 11
35.635883
 21
137.483337
 31
0.0
210
0.0
220
0.0
230
1.0
  0
ARC
  5
6D1
100
AcDbEntity
  8
0
370
    35
390
0
 62
     7
100
AcDbCircle
 10
34.935886
 20
137.483337
 30
0.0
 40
0.7
210
0.0
220
0.0
230
1.0
100
AcDbArc
 50
269.999997
 51
0.0
  0
LINE
  5
6D2
100
AcDbEntity
  8
0
370
    35
390
0
 62
     7
 48
0.0075
100
AcDbLine
 10
34.935886
 20
136.78334
 30
0.0
 11
34.635883
 21
136.78334
 31
0.0
210
0.0
220
0.0
230
1.0
  0
LINE
  5
6D3
100
AcDbEntity
  8
0
370
    35
390
0
 62
     7
 48
0.015
100
AcDbLine
 10
34.635883
 20
136.78334
 30
0.0
 11
34.635883
 21
136.183334
 31
0.0
210
0.0
220
0.0
230
1.0
  0
LINE
  5
6D4
100
AcDbEntity
  8
0
370
    35
390
0
 62
     7
 48
0.0075
100
AcDbLine
 10
34.635883
 20
136.183334
 30
0.0
 11
34.935886
 21
136.183334
 31
0.0
210
0.0
220
0.0
230
1.0
  0
ARC
  5
6D5
100
AcDbEntity
  8
0
370
    35
390
0
 62
     7
100
AcDbCircle
 10
38.535885
 20
149.183334
 30
0.0
 40
0.7
210
0.0
220
0.0
230
1.0
100
AcDbArc
 50
360.0
 51
90.000003
  0
LINE
  5
6D6
100
AcDbEntity
  8
0
370
    35
390
0
 62
     7
 48
0.0075
100
AcDbLine
 10
39.235886
 20
149.183334
 30
0.0
 11
39.235886
 21
148.883331
 31
0.0
210
0.0
220
0.0
230
1.0
  0
LINE
  5
6D7
100
AcDbEntity
  8
0
370
    35
390
0
 62
     7
 48
0.015
100
AcDbLine
 10
39.235886
 20
148.883331
 30
0.0
 11
39.835884
 21
148.883331
 31
0.0
210
0.0
220
0.0
230
1.0
  0
LINE
  5
6D8
100
AcDbEntity
  8
0
370
    35
390
0
 62
     7
 48
0.0075
100
AcDbLine
 10
39.835884
 20
148.883331
 30
0.0
 11
39.835884
 21
149.183334
 31
0.0
210
0.0
220
0.0
230
1.0
  0
ARC
  5
6D9
100
AcDbEntity
  8
0
370
    35
390
0
 62
     7
100
AcDbCircle
 10
40.535885
 20
149.183334
 30
0.0
 40
0.7
210
0.0
220
0.0
230
1.0
100
AcDbArc
 50
90.000003
 51
179.999995
  0
LINE
  5
6DA
100
AcDbEntity
  8
0
370
    35
390
0
 62
     7
 48
0.0075
100
AcDbLine
 10
40.535885
 20
149.883331
 30
0.0
 11
40.835884
 21
149.883331
 31
0.0
210
0.0
220
0.0
230
1.0
  0
LINE
  5
6DB
100
AcDbEntity
  8
0
370
    35
390
0
 62
     7
 48
0.015
100
AcDbLine
 10
40.835884
 20
149.883331
 30
0.0
 11
40.835884
 21
150.483337
 31
0.0
210
0.0
220
0.0
230
1.0
  0
LINE
  5
6DC
100
AcDbEntity
  8
0
370
    35
390
0
 62
     7
 48
0.0075
100
AcDbLine
 10
40.835884
 20
150.483337
 30
0.0
 11
40.535885
 21
150.483337
 31
0.0
210
0.0
220
0.0
230
1.0
  0
ARC
  5
6DD
100
AcDbEntity
  8
0
370
    35
390
0
 62
     7
100
AcDbCircle
 10
40.535885
 20
151.183334
 30
0.0
 40
0.7
210
0.0
220
0.0
230
1.0
100
AcDbArc
 50
180.000005
 51
269.999997
  0
LINE
  5
6DE
100
AcDbEntity
  8
0
370
    35
390
0
 62
     7
 48
0.0075
100
AcDbLine
 10
39.835884
 20
151.183334
 30
0.0
 11
39.835884
 21
151.483337
 31
0.0
210
0.0
220
0.0
230
1.0
  0
LINE
  5
6DF
100
AcDbEntity
  8
0
370
    35
390
0
 62
     7
 48
0.015
100
AcDbLine
 10
39.835884
 20
151.483337
 30
0.0
 11
39.235886
 21
151.483337
 31
0.0
210
0.0
220
0.0
230
1.0
  0
LINE
  5
6E0
100
AcDbEntity
  8
0
370
    35
390
0
 62
     7
 48
0.0075
100
AcDbLine
 10
39.235886
 20
151.483337
 30
0.0
 11
39.235886
 21
151.183334
 31
0.0
210
0.0
220
0.0
230
1.0
  0
ARC
  5
6E1
100
AcDbEntity
  8
0
370
    35
390
0
 62
     7
100
AcDbCircle
 10
38.535885
 20
151.183334
 30
0.0
 40
0.7
210
0.0
220
0.0
230
1.0
100
AcDbArc
 50
269.999997
 51
0.0
  0
LINE
  5
6E2
100
AcDbEntity
  8
0
370
    35
390
0
 62
     7
 48
0.0075
100
AcDbLine
 10
38.535885
 20
150.483337
 30
0.0
 11
38.235886
 21
150.483337
 31
0.0
210
0.0
220
0.0
230
1.0
  0
LINE
  5
6E3
100
AcDbEntity
  8
0
370
    35
390
0
 62
     7
 48
0.015
100
AcDbLine
 10
38.235886
 20
150.483337
 30
0.0
 11
38.235886
 21
149.883331
 31
0.0
210
0.0
220
0.0
230
1.0
  0
LINE
  5
6E4
100
AcDbEntity
  8
0
370
    35
390
0
 62
     7
 48
0.0075
100
AcDbLine
 10
38.235886
 20
149.883331
 30
0.0
 11
38.535885
 21
149.883331
 31
0.0
210
0.0
220
0.0
230
1.0
  0
ARC
  5
6E5
100
AcDbEntity
  8
0
370
    35
390
0
 62
     7
100
AcDbCircle
 10
49.335884
 20
128.183334
 30
0.0
 40
3.75
210
0.0
220
0.0
230
1.0
100
AcDbArc
 50
350.018317
 51
9.981683
  0
ARC
  5
6E6
100
AcDbEntity
  8
0
370
    35
390
0
 62
     7
100
AcDbCircle
 10
49.335884
 20
128.183334
 30
0.0
 40
3.75
210
0.0
220
0.0
230
1.0
100
AcDbArc
 50
189.981688
 51
350.018317
  0
ARC
  5
6E7
100
AcDbEntity
  8
0
370
    35
390
0
 62
     7
100
AcDbCircle
 10
49.335884
 20
128.183334
 30
0.0
 40
3.75
210
0.0
220
0.0
230
1.0
100
AcDbArc
 50
170.018312
 51
189.981688
  0
ARC
  5
6E8
100
AcDbEntity
  8
0
370
    35
390
0
 62
     7
100
AcDbCircle
 10
49.335884
 20
128.183334
 30
0.0
 40
3.75
210
0.0
220
0.0
230
1.0
100
AcDbArc
 50
9.981683
 51
170.018312
  0
ARC
  5
6E9
100
AcDbEntity
  8
0
370
    35
390
0
 62
     7
100
AcDbCircle
 10
54.535885
 20
149.183334
 30
0.0
 40
0.7
210
0.0
220
0.0
230
1.0
100
AcDbArc
 50
360.0
 51
90.000003
  0
LINE
  5
6EA
100
AcDbEntity
  8
0
370
    35
390
0
 62
     7
 48
0.0075
100
AcDbLine
 10
55.235886
 20
149.183334
 30
0.0
 11
55.235886
 21
148.883331
 31
0.0
210
0.0
220
0.0
230
1.0
  0
LINE
  5
6EB
100
AcDbEntity
  8
0
370
    35
390
0
 62
     7
 48
0.015
100
AcDbLine
 10
55.235886
 20
148.883331
 30
0.0
 11
55.835884
 21
148.883331
 31
0.0
210
0.0
220
0.0
230
1.0
  0
LINE
  5
6EC
100
AcDbEntity
  8
0
370
    35
390
0
 62
     7
 48
0.0075
100
AcDbLine
 10
55.835884
 20
148.883331
 30
0.0
 11
55.835884
 21
149.183334
 31
0.0
210
0.0
220
0.0
230
1.0
  0
ARC
  5
6ED
100
AcDbEntity
  8
0
370
    35
390
0
 62
     7
100
AcDbCircle
 10
56.535885
 20
149.183334
 30
0.0
 40
0.7
210
0.0
220
0.0
230
1.0
100
AcDbArc
 50
90.000003
 51
179.999995
  0
LINE
  5
6EE
100
AcDbEntity
  8
0
370
    35
390
0
 62
     7
 48
0.0075
100
AcDbLine
 10
56.535885
 20
149.883331
 30
0.0
 11
56.835884
 21
149.883331
 31
0.0
210
0.0
220
0.0
230
1.0
  0
LINE
  5
6EF
100
AcDbEntity
  8
0
370
    35
390
0
 62
     7
 48
0.015
100
AcDbLine
 10
56.835884
 20
149.883331
 30
0.0
 11
56.835884
 21
150.483337
 31
0.0
210
0.0
220
0.0
230
1.0
  0
LINE
  5
6F0
100
AcDbEntity
  8
0
370
    35
390
0
 62
     7
 48
0.0075
100
AcDbLine
 10
56.835884
 20
150.483337
 30
0.0
 11
56.535885
 21
150.483337
 31
0.0
210
0.0
220
0.0
230
1.0
  0
ARC
  5
6F1
100
AcDbEntity
  8
0
370
    35
390
0
 62
     7
100
AcDbCircle
 10
56.535885
 20
151.183334
 30
0.0
 40
0.7
210
0.0
220
0.0
230
1.0
100
AcDbArc
 50
180.000005
 51
269.999997
  0
LINE
  5
6F2
100
AcDbEntity
  8
0
370
    35
390
0
 62
     7
 48
0.0075
100
AcDbLine
 10
55.835884
 20
151.183334
 30
0.0
 11
55.835884
 21
151.483337
 31
0.0
210
0.0
220
0.0
230
1.0
  0
LINE
  5
6F3
100
AcDbEntity
  8
0
370
    35
390
0
 62
     7
 48
0.015
100
AcDbLine
 10
55.835884
 20
151.483337
 30
0.0
 11
55.235886
 21
151.483337
 31
0.0
210
0.0
220
0.0
230
1.0
  0
LINE
  5
6F4
100
AcDbEntity
  8
0
370
    35
390
0
 62
     7
 48
0.0075
100
AcDbLine
 10
55.235886
 20
151.483337
 30
0.0
 11
55.235886
 21
151.183334
 31
0.0
210
0.0
220
0.0
230
1.0
  0
ARC
  5
6F5
100
AcDbEntity
  8
0
370
    35
390
0
 62
     7
100
AcDbCircle
 10
54.535885
 20
151.183334
 30
0.0
 40
0.7
210
0.0
220
0.0
230
1.0
100
AcDbArc
 50
269.999997
 51
0.0
  0
LINE
  5
6F6
100
AcDbEntity
  8
0
370
    35
390
0
 62
     7
 48
0.0075
100
AcDbLine
 10
54.535885
 20
150.483337
 30
0.0
 11
54.235886
 21
150.483337
 31
0.0
210
0.0
220
0.0
230
1.0
  0
LINE
  5
6F7
100
AcDbEntity
  8
0
370
    35
390
0
 62
     7
 48
0.015
100
AcDbLine
 10
54.235886
 20
150.483337
 30
0.0
 11
54.235886
 21
149.883331
 31
0.0
210
0.0
220
0.0
230
1.0
  0
LINE
  5
6F8
100
AcDbEntity
  8
0
370
    35
390
0
 62
     7
 48
0.0075
100
AcDbLine
 10
54.235886
 20
149.883331
 30
0.0
 11
54.535885
 21
149.883331
 31
0.0
210
0.0
220
0.0
230
1.0
  0
ARC
  5
6F9
100
AcDbEntity
  8
0
370
    35
390
0
 62
     7
100
AcDbCircle
 10
56.435883
 20
120.683334
 30
0.0
 40
0.7
210
0.0
220
0.0
230
1.0
100
AcDbArc
 50
180.000005
 51
269.999997
  0
LINE
  5
6FA
100
AcDbEntity
  8
0
370
    35
390
0
 62
     7
 48
0.0075
100
AcDbLine
 10
55.735886
 20
120.683334
 30
0.0
 11
55.735886
 21
120.983337
 31
0.0
210
0.0
220
0.0
230
1.0
  0
LINE
  5
6FB
100
AcDbEntity
  8
0
370
    35
390
0
 62
     7
 48
0.015
100
AcDbLine
 10
55.735886
 20
120.983337
 30
0.0
 11
55.135887
 21
120.983337
 31
0.0
210
0.0
220
0.0
230
1.0
  0
LINE
  5
6FC
100
AcDbEntity
  8
0
370
    35
390
0
 62
     7
 48
0.0075
100
AcDbLine
 10
55.135887
 20
120.983337
 30
0.0
 11
55.135887
 21
120.683334
 31
0.0
210
0.0
220
0.0
230
1.0
  0
ARC
  5
6FD
100
AcDbEntity
  8
0
370
    35
390
0
 62
     7
100
AcDbCircle
 10
54.435883
 20
120.683334
 30
0.0
 40
0.7
210
0.0
220
0.0
230
1.0
100
AcDbArc
 50
269.999997
 51
0.0
  0
LINE
  5
6FE
100
AcDbEntity
  8
0
370
    35
390
0
 62
     7
 48
0.0075
100
AcDbLine
 10
54.435883
 20
119.983337
 30
0.0
 11
54.135887
 21
119.983337
 31
0.0
210
0.0
220
0.0
230
1.0
  0
LINE
  5
6FF
100
AcDbEntity
  8
0
370
    35
390
0
 62
     7
 48
0.015
100
AcDbLine
 10
54.135887
 20
119.983337
 30
0.0
 11
54.135887
 21
119.383331
 31
0.0
210
0.0
220
0.0
230
1.0
  0
LINE
  5
700
100
AcDbEntity
  8
0
370
    35
390
0
 62
     7
 48
0.0075
100
AcDbLine
 10
54.135887
 20
119.383331
 30
0.0
 11
54.435883
 21
119.383331
 31
0.0
210
0.0
220
0.0
230
1.0
  0
ARC
  5
701
100
AcDbEntity
  8
0
370
    35
390
0
 62
     7
100
AcDbCircle
 10
54.435883
 20
118.683334
 30
0.0
 40
0.7
210
0.0
220
0.0
230
1.0
100
AcDbArc
 50
360.0
 51
90.000003
  0
LINE
  5
702
100
AcDbEntity
  8
0
370
    35
390
0
 62
     7
 48
0.0075
100
AcDbLine
 10
55.135887
 20
118.683334
 30
0.0
 11
55.135887
 21
118.383331
 31
0.0
210
0.0
220
0.0
230
1.0
  0
LINE
  5
703
100
AcDbEntity
  8
0
370
    35
390
0
 62
     7
 48
0.015
100
AcDbLine
 10
55.135887
 20
118.383331
 30
0.0
 11
55.735886
 21
118.383331
 31
0.0
210
0.0
220
0.0
230
1.0
  0
LINE
  5
704
100
AcDbEntity
  8
0
370
    35
390
0
 62
     7
 48
0.0075
100
AcDbLine
 10
55.735886
 20
118.383331
 30
0.0
 11
55.735886
 21
118.683334
 31
0.0
210
0.0
220
0.0
230
1.0
  0
ARC
  5
705
100
AcDbEntity
  8
0
370
    35
390
0
 62
     7
100
AcDbCircle
 10
56.435883
 20
118.683334
 30
0.0
 40
0.7
210
0.0
220
0.0
230
1.0
100
AcDbArc
 50
90.000003
 51
179.999995
  0
LINE
  5
706
100
AcDbEntity
  8
0
370
    35
390
0
 62
     7
 48
0.0075
100
AcDbLine
 10
56.435883
 20
119.383331
 30
0.0
 11
56.735886
 21
119.383331
 31
0.0
210
0.0
220
0.0
230
1.0
  0
LINE
  5
707
100
AcDbEntity
  8
0
370
    35
390
0
 62
     7
 48
0.015
100
AcDbLine
 10
56.735886
 20
119.383331
 30
0.0
 11
56.735886
 21
119.983337
 31
0.0
210
0.0
220
0.0
230
1.0
  0
LINE
  5
708
100
AcDbEntity
  8
0
370
    35
390
0
 62
     7
 48
0.0075
100
AcDbLine
 10
56.735886
 20
119.983337
 30
0.0
 11
56.435883
 21
119.983337
 31
0.0
210
0.0
220
0.0
230
1.0
  0
LINE
  5
709
100
AcDbEntity
  8
0
370
    35
390
0
 62
     7
 48
0.005081
100
AcDbLine
 10
52.825871
 20
127.533333
 30
0.0
 11
53.029121
 21
127.533333
 31
0.0
210
0.0
220
0.0
230
1.0
  0
LINE
  5
70A
100
AcDbEntity
  8
0
370
    35
390
0
 62
     7
 48
0.005081
100
AcDbLine
 10
45.845901
 20
127.533333
 30
0.0
 11
45.642647
 21
127.533333
 31
0.0
210
0.0
220
0.0
230
1.0
  0
LINE
  5
70B
100
AcDbEntity
  8
0
370
    35
390
0
 62
     7
 48
0.174499
100
AcDbLine
 10
52.825871
 20
127.533333
 30
0.0
 11
45.845901
 21
127.533333
 31
0.0
210
0.0
220
0.0
230
1.0
  0
ARC
  5
70C
100
AcDbEntity
  8
0
370
    35
390
0
 62
     7
100
AcDbCircle
 10
49.335884
 20
128.183334
 30
0.0
 40
3.55
210
0.0
220
0.0
230
1.0
100
AcDbArc
 50
190.550301
 51
349.449695
  0
LINE
  5
70D
100
AcDbEntity
  8
0
370
    35
390
0
 62
     7
 48
0.005081
100
AcDbLine
 10
45.845901
 20
128.833328
 30
0.0
 11
45.642647
 21
128.833328
 31
0.0
210
0.0
220
0.0
230
1.0
  0
LINE
  5
70E
100
AcDbEntity
  8
0
370
    35
390
0
 62
     7
 48
0.005081
100
AcDbLine
 10
52.825871
 20
128.833328
 30
0.0
 11
53.029121
 21
128.833328
 31
0.0
210
0.0
220
0.0
230
1.0
  0
LINE
  5
70F
100
AcDbEntity
  8
0
370
    35
390
0
 62
     7
 48
0.174499
100
AcDbLine
 10
45.845901
 20
128.833328
 30
0.0
 11
52.825871
 21
128.833328
 31
0.0
210
0.0
220
0.0
230
1.0
  0
ARC
  5
710
100
AcDbEntity
  8
0
370
    35
390
0
 62
     7
100
AcDbCircle
 10
49.335884
 20
128.183334
 30
0.0
 40
3.55
210
0.0
220
0.0
230
1.0
100
AcDbArc
 50
10.550303
 51
169.449699
  0
LINE
  5
711
100
AcDbEntity
  8
0
370
    35
390
0
 62
     7
 48
0.021277
100
AcDbLine
 10
36.361427
 20
135.883331
 30
0.0
 11
35.510342
 21
135.883331
 31
0.0
210
0.0
220
0.0
230
1.0
  0
LINE
  5
712
100
AcDbEntity
  8
0
370
    35
390
0
 62
     7
 48
0.021277
100
AcDbLine
 10
36.535885
 20
136.908875
 30
0.0
 11
36.535885
 21
136.057785
 31
0.0
210
0.0
220
0.0
230
1.0
  0
LINE
  5
713
100
AcDbEntity
  8
0
370
    35
390
0
 62
     7
 48
0.021277
100
AcDbLine
 10
35.510342
 20
137.083328
 30
0.0
 11
36.361427
 21
137.083328
 31
0.0
210
0.0
220
0.0
230
1.0
  0
LINE
  5
714
100
AcDbEntity
  8
0
370
    35
390
0
 62
     7
 48
0.021277
100
AcDbLine
 10
35.335884
 20
136.057785
 30
0.0
 11
35.335884
 21
136.908875
 31
0.0
210
0.0
220
0.0
230
1.0
  0
LINE
  5
715
100
AcDbEntity
  8
0
370
    35
390
0
 62
     7
 48
0.021277
100
AcDbLine
 10
39.96143
 20
149.583328
 30
0.0
 11
39.11034
 21
149.583328
 31
0.0
210
0.0
220
0.0
230
1.0
  0
LINE
  5
716
100
AcDbEntity
  8
0
370
    35
390
0
 62
     7
 48
0.021277
100
AcDbLine
 10
40.135883
 20
150.608871
 30
0.0
 11
40.135883
 21
149.757797
 31
0.0
210
0.0
220
0.0
230
1.0
  0
LINE
  5
717
100
AcDbEntity
  8
0
370
    35
390
0
 62
     7
 48
0.021277
100
AcDbLine
 10
39.11034
 20
150.78334
 30
0.0
 11
39.96143
 21
150.78334
 31
0.0
210
0.0
220
0.0
230
1.0
  0
LINE
  5
718
100
AcDbEntity
  8
0
370
    35
390
0
 62
     7
 48
0.021277
100
AcDbLine
 10
38.935886
 20
149.757797
 30
0.0
 11
38.935886
 21
150.608871
 31
0.0
210
0.0
220
0.0
230
1.0
  0
LINE
  5
719
100
AcDbEntity
  8
0
370
    35
390
0
 62
     7
 48
0.021277
100
AcDbLine
 10
55.961426
 20
149.583328
 30
0.0
 11
55.110344
 21
149.583328
 31
0.0
210
0.0
220
0.0
230
1.0
  0
LINE
  5
71A
100
AcDbEntity
  8
0
370
    35
390
0
 62
     7
 48
0.021277
100
AcDbLine
 10
56.135887
 20
150.608871
 30
0.0
 11
56.135887
 21
149.757797
 31
0.0
210
0.0
220
0.0
230
1.0
  0
LINE
  5
71B
100
AcDbEntity
  8
0
370
    35
390
0
 62
     7
 48
0.021277
100
AcDbLine
 10
55.110344
 20
150.78334
 30
0.0
 11
55.961426
 21
150.78334
 31
0.0
210
0.0
220
0.0
230
1.0
  0
LINE
  5
71C
100
AcDbEntity
  8
0
370
    35
390
0
 62
     7
 48
0.021277
100
AcDbLine
 10
54.935883
 20
149.757797
 30
0.0
 11
54.935883
 21
150.608871
 31
0.0
210
0.0
220
0.0
230
1.0
  0
LINE
  5
71D
100
AcDbEntity
  8
0
370
    35
390
0
 62
     7
 48
0.021277
100
AcDbLine
 10
55.010342
 20
120.283333
 30
0.0
 11
55.861427
 21
120.283333
 31
0.0
210
0.0
220
0.0
230
1.0
  0
LINE
  5
71E
100
AcDbEntity
  8
0
370
    35
390
0
 62
     7
 48
0.021277
100
AcDbLine
 10
55.861427
 20
119.083336
 30
0.0
 11
55.010342
 21
119.083336
 31
0.0
210
0.0
220
0.0
230
1.0
  0
LINE
  5
71F
100
AcDbEntity
  8
0
370
    35
390
0
 62
     7
 48
0.021277
100
AcDbLine
 10
56.035885
 20
120.108879
 30
0.0
 11
56.035885
 21
119.25779
 31
0.0
210
0.0
220
0.0
230
1.0
  0
LINE
  5
720
100
AcDbEntity
  8
0
370
    35
390
0
 62
     7
 48
0.021277
100
AcDbLine
 10
54.835884
 20
119.25779
 30
0.0
 11
54.835884
 21
120.108879
 31
0.0
210
0.0
220
0.0
230
1.0
  0
ENDSEC
  0
SECTION
  2
OBJECTS
  0
DICTIONARY
  5
19
100
AcDbDictionary
280
     0
281
     1
  3
ACAD_GROUP
350
1A
  3
ACAD_MLINESTYLE
350
1B
  3
ACAD_LAYOUT
350
1E
  3
ACAD_PLOTSETTINGS
350
22
  3
ACAD_PLOTSTYLENAME
350
1F
  3
ACAD_WIPEOUT_VARS
350
23
  0
DICTIONARY
  5
1A
102
{ACAD_REACTORS
330
19
102
}
100
AcDbDictionary
280
     0
281
     1
  0
DICTIONARY
  5
1B
102
{ACAD_REACTORS
330
19
102
}
100
AcDbDictionary
280
     0
281
     1
  3
Standard
350
1C
  0
MLINESTYLE
  5
1C
102
{ACAD_REACTORS
330
1B
102
}
100
AcDbMlineStyle
  2
Standard
 70
     0
  3

 62
     0
 51
90.0
 52
90.0
 71
     2
 49
0.5
 62
   256
  6
ByLayer
 49
-0.5
 62
   256
  6
ByLayer
  0
ACDBDICTIONARYWDFLT
  5
1F
102
{ACAD_REACTORS
330
19
102
}
100
AcDbDictionary
281
     1
  3
Normal
350
1D
100
AcDbDictionaryWithDefault
340
1D
  0
ACDBPLACEHOLDER
  5
1D
102
{ACAD_REACTORS
330
1F
102
}
  0
LAYOUT
  5
20
102
{ACAD_REACTORS
330
1E
102
}
100
AcDbPlotSettings
  1

  2

  4

  6

 40
0.0
 41
0.0
 42
0.0
 43
0.0
 44
0.0
 45
0.0
 46
0.0
 47
0.0
 48
0.0
 49
0.0
140
0.0
141
0.0
142
1.0
143
1.0
 70
  1024
 72
     0
 73
     0
 74
     0
  7

 75
     0
147
1.0
148
0.0
149
0.0
100
AcDbLayout
  1
Model
 70
     0
 71
     0
 10
0.0
 20
0.0
 11
0.0
 21
0.0
 12
0.0
 22
0.0
 32
0.0
 14
0.0
 24
0.0
 34
0.0
 15
0.0
 25
0.0
 35
0.0
146
0.0
 13
0.0
 23
0.0
 33
0.0
 16
0.0
 26
0.0
 36
0.0
 17
0.0
 27
0.0
 37
0.0
 76
     0
330
A
331
0
345
0
346
0
  0
LAYOUT
  5
21
102
{ACAD_REACTORS
330
1E
102
}
100
AcDbPlotSettings
  1

  2

  4

  6

 40
0.0
 41
0.0
 42
0.0
 43
0.0
 44
0.0
 45
0.0
 46
0.0
 47
0.0
 48
0.0
 49
0.0
140
0.0
141
0.0
142
1.0
143
1.0
 70
     0
 72
     0
 73
     0
 74
     0
  7

 75
     0
147
1.0
148
0.0
149
0.0
100
AcDbLayout
  1
Layout1
 70
     0
 71
     0
 10
0.0
 20
0.0
 11
0.0
 21
0.0
 12
0.0
 22
0.0
 32
0.0
 14
0.0
 24
0.0
 34
0.0
 15
0.0
 25
0.0
 35
0.0
146
0.0
 13
0.0
 23
0.0
 33
0.0
 16
0.0
 26
0.0
 36
0.0
 17
0.0
 27
0.0
 37
0.0
 76
     0
330
B
331
0
345
0
346
0
  0
DICTIONARY
  5
1E
102
{ACAD_REACTORS
330
19
102
}
100
AcDbDictionary
280
     0
281
     1
  3
Layout1
350
21
  3
Model
350
20
  0
DICTIONARY
  5
22
102
{ACAD_REACTORS
330
19
102
}
100
AcDbDictionary
280
     0
281
     1
  0
WIPEOUTVARIABLES
  5
23
100
AcDbWipeoutVariables
 70
     1
  0
ENDSEC
  0
EOF
