  0
SECTION
  2
HEADER
  9
$ACADVER
  1
AC1015
  9
$ACADMAINTVER
 70
     6
  9
$DWGCODEPAGE
  3
ANSI_1252
  9
$INSBASE
 10
0.0
 20
0.0
 30
0.0
  9
$EXTMIN
 10
0.0
 20
0.0
 30
0.0
  9
$EXTMAX
 10
581.111572
 20
167.955551
 30
2.0
  9
$LIMMIN
 10
0.0
 20
0.0
  9
$LIMMAX
 10
420.0
 20
297.0
  9
$ORTHOMODE
 70
     0
  9
$REGENMODE
 70
     1
  9
$FILLMODE
 70
     1
  9
$QTEXTMODE
 70
     0
  9
$MIRRTEXT
 70
     1
  9
$LTSCALE
 40
1.0
  9
$ATTMODE
 70
     1
  9
$TEXTSIZE
 40
2.5
  9
$TRACEWID
 40
1.0
  9
$TEXTSTYLE
  7
Standard
  9
$CLAYER
  8
0
  9
$CELTYPE
  6
ByLayer
  9
$CECOLOR
 62
   256
  9
$CELTSCALE
 40
1.0
  9
$DISPSILH
 70
     0
  9
$DIMSCALE
 40
1.0
  9
$DIMASZ
 40
2.5
  9
$DIMEXO
 40
0.625
  9
$DIMDLI
 40
3.75
  9
$DIMRND
 40
0.0
  9
$DIMDLE
 40
0.0
  9
$DIMEXE
 40
1.25
  9
$DIMTP
 40
0.0
  9
$DIMTM
 40
0.0
  9
$DIMTXT
 40
2.5
  9
$DIMCEN
 40
2.5
  9
$DIMTSZ
 40
0.0
  9
$DIMTOL
 70
     0
  9
$DIMLIM
 70
     0
  9
$DIMTIH
 70
     0
  9
$DIMTOH
 70
     0
  9
$DIMSE1
 70
     0
  9
$DIMSE2
 70
     0
  9
$DIMTAD
 70
     1
  9
$DIMZIN
 70
     8
  9
$DIMBLK
  1

  9
$DIMASO
 70
     1
  9
$DIMSHO
 70
     1
  9
$DIMPOST
  1

  9
$DIMAPOST
  1

  9
$DIMALT
 70
     0
  9
$DIMALTD
 70
     3
  9
$DIMALTF
 40
0.03937
  9
$DIMLFAC
 40
1.0
  9
$DIMTOFL
 70
     1
  9
$DIMTVP
 40
0.0
  9
$DIMTIX
 70
     0
  9
$DIMSOXD
 70
     0
  9
$DIMSAH
 70
     0
  9
$DIMBLK1
  1

  9
$DIMBLK2
  1

  9
$DIMSTYLE
  2

  9
$DIMCLRD
 70
     0
  9
$DIMCLRE
 70
     0
  9
$DIMCLRT
 70
     0
  9
$DIMTFAC
 40
1.0
  9
$DIMGAP
 40
0.625
  9
$DIMJUST
 70
     0
  9
$DIMSD1
 70
     0
  9
$DIMSD2
 70
     0
  9
$DIMTOLJ
 70
     0
  9
$DIMTZIN
 70
     8
  9
$DIMALTZ
 70
     0
  9
$DIMALTTZ
 70
     0
  9
$DIMUPT
 70
     0
  9
$DIMDEC
 70
     2
  9
$DIMTDEC
 70
     2
  9
$DIMALTU
 70
     2
  9
$DIMALTTD
 70
     3
  9
$DIMTXSTY
  7
Standard
  9
$DIMAUNIT
 70
     0
  9
$DIMADEC
 70
     0
  9
$DIMALTRND
 40
0.0
  9
$DIMAZIN
 70
     0
  9
$DIMDSEP
 70
    44
  9
$DIMATFIT
 70
     0
  9
$DIMFRAC
 70
     0
  9
$DIMLDRBLK
  1

  9
$DIMLUNIT
 70
     2
  9
$DIMLWD
 70
    -2
  9
$DIMLWE
 70
    -2
  9
$DIMTMOVE
 70
     0
  9
$LUNITS
 70
     2
  9
$LUPREC
 70
     4
  9
$SKETCHINC
 40
1.0
  9
$FILLETRAD
 40
2.5
  9
$AUNITS
 70
     0
  9
$AUPREC
 70
     0
  9
$MENU
  1
.
  9
$ELEVATION
 40
0.0
  9
$PELEVATION
 40
0.0
  9
$THICKNESS
 40
0.0
  9
$LIMCHECK
 70
     0
  9
$CHAMFERA
 40
2.5
  9
$CHAMFERB
 40
2.5
  9
$CHAMFERC
 40
0.0
  9
$CHAMFERD
 40
0.0
  9
$SKPOLY
 70
     0
  9
$TDCREATE
 40
0.000000000
  9
$TDUCREATE
 40
0.000000000
  9
$TDUPDATE
 40
0.000000000
  9
$TDUUPDATE
 40
0.000000000
  9
$TDINDWG
 40
0.0000000000
  9
$TDUSRTIMER
 40
0.0000000000
  9
$USRTIMER
 70
     1
  9
$ANGBASE
 50
0.0
  9
$ANGDIR
 70
     0
  9
$PDMODE
 70
     0
  9
$PDSIZE
 40
0.0
  9
$PLINEWID
 40
0.0
  9
$SPLFRAME
 70
     0
  9
$SPLINETYPE
 70
     6
  9
$SPLINESEGS
 70
     8
  9
$HANDSEED
  5
505
  9
$SURFTAB1
 70
     6
  9
$SURFTAB2
 70
     6
  9
$SURFTYPE
 70
     6
  9
$SURFU
 70
     6
  9
$SURFV
 70
     6
  9
$UCSBASE
  2

  9
$UCSNAME
  2

  9
$UCSORG
 10
0.0
 20
0.0
 30
0.0
  9
$UCSXDIR
 10
1.0
 20
0.0
 30
0.0
  9
$UCSYDIR
 10
0.0
 20
1.0
 30
0.0
  9
$UCSORTHOREF
  2

  9
$UCSORTHOVIEW
 70
     1
  9
$UCSORGTOP
 10
0.0
 20
0.0
 30
0.0
  9
$UCSORGBOTTOM
 10
0.0
 20
0.0
 30
0.0
  9
$UCSORGLEFT
 10
0.0
 20
0.0
 30
0.0
  9
$UCSORGRIGHT
 10
0.0
 20
0.0
 30
0.0
  9
$UCSORGFRONT
 10
0.0
 20
0.0
 30
0.0
  9
$UCSORGBACK
 10
0.0
 20
0.0
 30
0.0
  9
$PUCSBASE
  2

  9
$PUCSNAME
  2

  9
$PUCSORG
 10
0.0
 20
0.0
 30
0.0
  9
$PUCSXDIR
 10
1.0
 20
0.0
 30
0.0
  9
$PUCSYDIR
 10
0.0
 20
1.0
 30
0.0
  9
$PUCSORTHOREF
  2

  9
$PUCSORTHOVIEW
 70
     0
  9
$PUCSORGTOP
 10
0.0
 20
0.0
 30
0.0
  9
$PUCSORGBOTTOM
 10
0.0
 20
0.0
 30
0.0
  9
$PUCSORGLEFT
 10
0.0
 20
0.0
 30
0.0
  9
$PUCSORGRIGHT
 10
0.0
 20
0.0
 30
0.0
  9
$PUCSORGFRONT
 10
0.0
 20
0.0
 30
0.0
  9
$PUCSORGBACK
 10
0.0
 20
0.0
 30
0.0
  9
$USERI1
 70
     0
  9
$USERI2
 70
     0
  9
$USERI3
 70
     0
  9
$USERI4
 70
     0
  9
$USERI5
 70
     0
  9
$USERR1
 40
0.0
  9
$USERR2
 40
0.0
  9
$USERR3
 40
0.0
  9
$USERR4
 40
0.0
  9
$USERR5
 40
0.0
  9
$WORLDVIEW
 70
     1
  9
$SHADEDGE
 70
     3
  9
$SHADEDIF
 70
    70
  9
$TILEMODE
 70
     1
  9
$MAXACTVP
 70
    48
  9
$PINSBASE
 10
0.0
 20
0.0
 30
0.0
  9
$PLIMCHECK
 70
     0
  9
$PEXTMIN
 10
0.0
 20
0.0
 30
0.0
  9
$PEXTMAX
 10
581.111572
 20
167.955551
 30
2.0
  9
$PLIMMIN
 10
0.0
 20
0.0
  9
$PLIMMAX
 10
420.0
 20
297.0
  9
$UNITMODE
 70
     0
  9
$VISRETAIN
 70
     0
  9
$PLINEGEN
 70
     0
  9
$PSLTSCALE
 70
     1
  9
$TREEDEPTH
 70
  3020
  9
$CMLSTYLE
  2
Standard
  9
$CMLJUST
 70
     0
  9
$CMLSCALE
 40
20.0
  9
$PROXYGRAPHICS
 70
     1
  9
$MEASUREMENT
 70
     1
  9
$CELWEIGHT
370
    -1
  9
$ENDCAPS
280
     0
  9
$JOINSTYLE
280
     0
  9
$LWDISPLAY
290
     0
  9
$INSUNITS
 70
     0
  9
$HYPERLINKBASE
  1

  9
$STYLESHEET
  1

  9
$XEDIT
290
     1
  9
$CEPSNTYPE
380
     0
  9
$PSTYLEMODE
290
     0
  9
$FINGERPRINTGUID
  2

  9
$VERSIONGUID
  2

  9
$EXTNAMES
290
     0
  9
$PSVPSCALE
 40
0.0
  0
ENDSEC
  0
SECTION
  2
CLASSES
  0
CLASS
  1
LWPOLYLINE
  2
AcDbPolyline
  3
AutoCAD 2000
 90
        0
280
     0
281
     1
  0
CLASS
  1
IMAGE
  2
AcDbRasterImage
  3
ISM
 90
      127
280
     0
281
     1
  0
CLASS
  1
OLE2FRAME
  2
AcDbOle2Frame
  3
AutoCAD 2000
 90
        0
280
     0
281
     1
  0
CLASS
  1
HATCH
  2
AcDbHatch
  3
AutoCAD 2000
 90
        0
280
     0
281
     1
  0
CLASS
  1
DICTIONARYVAR
  2
AcDbDictionaryVar
  3
AutoCAD 2000
 90
        0
280
     0
281
     0
  0
CLASS
  1
RASTERVARIABLES
  2
AcDbRasterVariables
  3
ISM
 90
        0
280
     0
281
     0
  0
CLASS
  1
IMAGEDEF
  2
AcDbRasterImageDef
  3
ISM
 90
        0
280
     0
281
     0
  0
CLASS
  1
IMAGEDEF_REACTOR
  2
AcDbRasterImageDefReactor
  3
ISM
 90
        1
280
     0
281
     0
  0
CLASS
  1
IDBUFFER
  2
AcDbIdBuffer
  3
AutoCAD 2000
 90
        0
280
     0
281
     0
  0
CLASS
  1
SPATIAL_FILTER
  2
AcDbSpatialFilter
  3
AutoCAD 2000
 90
        0
280
     0
281
     0
  0
CLASS
  1
XRECORD
  2
AcDbXrecord
  3
AutoCAD 2000
 90
        0
280
     0
281
     0
  0
CLASS
  1
SORTENTSTABLE
  2
AcDbSortentsTable
  3
AutoCAD 2000
 90
        0
280
     0
281
     0
  0
CLASS
  1
LAYER_INDEX
  2
AcDbLayerIndex
  3
AutoCAD 2000
 90
        0
280
     0
281
     0
  0
CLASS
  1
SPATIAL_INDEX
  2
AcDbSpatialIndex
  3
AutoCAD 2000
 90
        0
280
     0
281
     0
  0
CLASS
  1
OBJECT_PTR
  2
CAseDLPNTableRecord
  3
"ASE-LPNTableRecord"
 90
        1
280
     0
281
     0
  0
CLASS
  1
LAYOUT
  2
AcDbLayout
  3
AutoCAD 2000
 90
        0
280
     0
281
     0
  0
CLASS
  1
PLOTSETTINGS
  2
AcDbPlotSettings
  3
AutoCAD 2000
 90
        0
280
     0
281
     0
  0
CLASS
  1
ACDBDICTIONARYWDFLT
  2
AcDbDictionaryWithDefault
  3
AutoCAD 2000
 90
        0
280
     0
281
     0
  0
CLASS
  1
ACDBPLACEHOLDER
  2
AcDbPlaceHolder
  3
AutoCAD 2000
 90
        0
280
     0
281
     0
  0
CLASS
  1
VBA_PROJECT
  2
AcDbVbaProject
  3
acadvba
 90
        0
280
     0
281
     0
  0
CLASS
  1
WIPEOUT
  2
AcDbWipeout
  3
WipeOut|AutoCAD Express Tool|expresstools@autodesk.com
 90
      127
280
     0
281
     1
  0
CLASS
  1
WIPEOUTVARIABLES
  2
AcDbWipeoutVariables
  3
WipeOut|AutoCAD Express Tool|expresstools@autodesk.com
 90
        0
280
     0
281
     0
  0
CLASS
  1
RTEXT
  2
RText
  3
RText|AutoCAD Express Tool|expresstools@autodesk.com
 90
        0
280
     0
281
     1
  0
CLASS
  1
ARCALIGNEDTEXT
  2
AcDbArcAlignedText
  3
ATEXT|AutoCAD Express Tool|expresstools@autodesk.com
 90
        0
280
     0
281
     1
  0
ENDSEC
  0
SECTION
  2
TABLES
  0
TABLE
  2
VPORT
  5
7
100
AcDbSymbolTable
 70
     1
  0
VPORT
  5
15
100
AcDbSymbolTableRecord
100
AcDbViewportTableRecord
  2
*ACTIVE
 70
     0
 10
0.0
 20
0.0
 11
1.0
 21
1.0
 12
6.591288
 22
4.579184
 13
0.0
 23
0.0
 14
1.0
 24
1.0
 15
0.0
 25
0.0
 16
0.0
 26
0.0
 36
1.0
 17
0.0
 27
0.0
 37
0.0
 40
9.158369
 41
0.688564
 42
50.0
 43
0.0
 44
0.0
 50
0.0
 51
0.0
 71
     0
 72
   100
 73
     1
 74
     1
 75
     0
 76
     0
 77
     0
 78
     0
281
     0
 65
     0
110
0.0
120
0.0
130
0.0
111
1.0
121
0.0
131
0.0
112
0.0
122
1.0
132
0.0
345
0
346
0
 79
     0
146
0.0
  0
ENDTAB
  0
TABLE
  2
LTYPE
  5
4
100
AcDbSymbolTable
 70
     3
  0
LTYPE
  5
11
100
AcDbSymbolTableRecord
100
AcDbLinetypeTableRecord
  2
ByBlock
 70
    64
  3

 72
    65
 73
     0
 40
0.0
  0
LTYPE
  5
12
100
AcDbSymbolTableRecord
100
AcDbLinetypeTableRecord
  2
ByLayer
 70
    64
  3

 72
    65
 73
     0
 40
0.0
  0
LTYPE
  5
13
100
AcDbSymbolTableRecord
100
AcDbLinetypeTableRecord
  2
Continuous
 70
    64
  3
Solid line
 72
    65
 73
     0
 40
0.0
  0
ENDTAB
  0
TABLE
  2
LAYER
  5
2
100
AcDbSymbolTable
 70
     1
  0
LAYER
  5
14
100
AcDbSymbolTableRecord
100
AcDbLayerTableRecord
  2
0
 70
     0
 62
     7
  6
Continuous
290
     1
370
    -3
390
1D
  0
ENDTAB
  0
TABLE
  2
STYLE
  5
3
100
AcDbSymbolTable
 70
     1
  0
STYLE
  5
17
100
AcDbSymbolTableRecord
100
AcDbTextStyleTableRecord
  2
Standard
 70
     0
 40
0.0
 41
1.0
 50
0.0
 71
     0
 42
0.0
  3
txt
  4

  0
ENDTAB
  0
TABLE
  2
VIEW
  5
5
100
AcDbSymbolTable
 70
     0
  0
ENDTAB
  0
TABLE
  2
UCS
  5
6
100
AcDbSymbolTable
 70
     0
  0
ENDTAB
  0
TABLE
  2
APPID
  5
8
100
AcDbSymbolTable
 70
     1
  0
APPID
  5
16
100
AcDbSymbolTableRecord
100
AcDbRegAppTableRecord
  2
ACAD
 70
     0
  0
ENDTAB
  0
TABLE
  2
DIMSTYLE
  5
9
100
AcDbSymbolTable
 70
     1
100
AcDbDimStyleTable
 71
     0
  0
DIMSTYLE
105
18
100
AcDbSymbolTableRecord
100
AcDbDimStyleTableRecord
  2
Standard
 70
     0
  3

  4

 40
1.0
 41
0.18
 42
0.0625
 43
0.38
 44
0.18
 45
0.0
 46
0.0
 47
0.0
 48
0.0
 71
     0
 72
     0
 73
     1
 74
     1
 75
     0
 76
     0
 77
     0
 78
     0
 79
     0
140
0.18
141
0.09
142
0.0
143
25.4
144
1.0
145
0.0
146
1.0
147
0.09
148
0.0
170
     0
171
     2
172
     0
173
     0
174
     0
175
     0
176
     0
177
     0
178
     0
179
     0
271
     4
272
     4
273
     2
274
     2
275
     0
276
     0
277
     2
278
    46
279
     0
280
     0
281
     0
282
     0
283
     1
284
     0
285
     0
286
     0
288
     0
289
     3
340
17
341
0
342
0
343
0
344
0
371
    -2
372
    -2
  0
ENDTAB
  0
TABLE
  2
BLOCK_RECORD
  5
1
100
AcDbSymbolTable
 70
     0
  0
BLOCK_RECORD
  5
A
100
AcDbSymbolTableRecord
100
AcDbBlockTableRecord
  2
*MODEL_SPACE
340
20
  0
BLOCK_RECORD
  5
B
100
AcDbSymbolTableRecord
100
AcDbBlockTableRecord
  2
*PAPER_SPACE
340
21
  0
ENDTAB
  0
ENDSEC
  0
SECTION
  2
BLOCKS
  0
BLOCK
  5
D
100
AcDbEntity
  8
0
390
0
100
AcDbBlockBegin
  2
*MODEL_SPACE
 70
     0
 10
0.0
 20
0.0
 30
0.0
  3
*MODEL_SPACE
  1

  0
ENDBLK
  5
E
100
AcDbEntity
  8
0
390
0
100
AcDbBlockEnd
  0
BLOCK
  5
F
100
AcDbEntity
 67
     1
  8
0
390
0
100
AcDbBlockBegin
  2
*PAPER_SPACE
 70
     0
 10
0.0
 20
0.0
 30
0.0
  3
*PAPER_SPACE
  1

  0
ENDBLK
  5
10
100
AcDbEntity
 67
     1
  8
0
390
0
100
AcDbBlockEnd
  0
ENDSEC
  0
SECTION
  2
ENTITIES
  0
VIEWPORT
  5
504
100
AcDbEntity
 67
     1
  8
0
370
     0
390
0
 62
     0
 48
0.0
100
AcDbViewport
 10
0.0
 20
0.0
 30
0.0
 40
1000.0
 41
1000.0
 68
     1
 69
     1
 12
0.0
 22
0.0
 13
0.0
 23
0.0
 14
1.0
 24
1.0
 15
1.0
 25
1.0
 16
0.0
 26
0.0
 36
1.0
 17
0.0
 27
0.0
 37
0.0
 42
50.0
 43
0.0
 44
0.0
 45
1000.0
 50
0.0
 51
0.0
 72
   100
 90
        0
340
0
  1

281
     0
 71
     0
 74
     1
110
0.0
120
0.0
130
0.0
111
1.0
121
0.0
131
0.0
112
0.0
122
1.0
132
0.0
345
0
346
0
 79
     0
146
0.0
  0
POLYLINE
  5
24
100
AcDbEntity
  8
0
370
    13
390
0
 62
     7
100
AcDb2dPolyline
 66
     1
 10
0.0
 20
0.0
 30
0.0
 71
     8
  0
VERTEX
  5
25
100
AcDbEntity
  8
0
370
     0
390
0
100
AcDbVertex
100
AcDb2dVertex
 10
128.83609
 20
30.108776
 30
0.0
  0
VERTEX
  5
26
100
AcDbEntity
  8
0
370
     0
390
0
100
AcDbVertex
100
AcDb2dVertex
 10
128.375443
 20
30.673292
 30
0.0
  0
VERTEX
  5
27
100
AcDbEntity
  8
0
370
     0
390
0
100
AcDbVertex
100
AcDb2dVertex
 10
127.684479
 20
30.915228
 30
0.0
  0
VERTEX
  5
28
100
AcDbEntity
  8
0
370
     0
390
0
100
AcDbVertex
100
AcDb2dVertex
 10
126.993507
 20
30.915228
 30
0.0
  0
VERTEX
  5
29
100
AcDbEntity
  8
0
370
     0
390
0
100
AcDbVertex
100
AcDb2dVertex
 10
126.302544
 20
30.673292
 30
0.0
  0
VERTEX
  5
2A
100
AcDbEntity
  8
0
370
     0
390
0
100
AcDbVertex
100
AcDb2dVertex
 10
125.841896
 20
30.028131
 30
0.0
  0
VERTEX
  5
2B
100
AcDbEntity
  8
0
370
     0
390
0
100
AcDbVertex
100
AcDb2dVertex
 10
125.841896
 20
29.463615
 30
0.0
  0
VERTEX
  5
2C
100
AcDbEntity
  8
0
370
     0
390
0
100
AcDbVertex
100
AcDb2dVertex
 10
126.244957
 20
28.899099
 30
0.0
  0
SEQEND
  5
2D
100
AcDbEntity
  8
0
370
     0
390
0
  0
POLYLINE
  5
2E
100
AcDbEntity
  8
0
370
    13
390
0
 62
     7
100
AcDb2dPolyline
 66
     1
 10
0.0
 20
0.0
 30
0.0
 71
     2
  0
VERTEX
  5
2F
100
AcDbEntity
  8
0
370
     0
390
0
100
AcDbVertex
100
AcDb2dVertex
 10
127.338989
 20
28.495872
 30
0.0
  0
VERTEX
  5
30
100
AcDbEntity
  8
0
370
     0
390
0
100
AcDbVertex
100
AcDb2dVertex
 10
127.857216
 20
28.334583
 30
0.0
  0
SEQEND
  5
31
100
AcDbEntity
  8
0
370
     0
390
0
  0
POLYLINE
  5
32
100
AcDbEntity
  8
0
370
    13
390
0
 62
     7
100
AcDb2dPolyline
 66
     1
 10
0.0
 20
0.0
 30
0.0
 71
     5
  0
VERTEX
  5
33
100
AcDbEntity
  8
0
370
     0
390
0
100
AcDbVertex
100
AcDb2dVertex
 10
128.375443
 20
26.076517
 30
0.0
  0
VERTEX
  5
34
100
AcDbEntity
  8
0
370
     0
390
0
100
AcDbVertex
100
AcDb2dVertex
 10
127.684479
 20
25.915228
 30
0.0
  0
VERTEX
  5
35
100
AcDbEntity
  8
0
370
     0
390
0
100
AcDbVertex
100
AcDb2dVertex
 10
126.993507
 20
25.915228
 30
0.0
  0
VERTEX
  5
36
100
AcDbEntity
  8
0
370
     0
390
0
100
AcDbVertex
100
AcDb2dVertex
 10
126.302544
 20
26.237808
 30
0.0
  0
VERTEX
  5
37
100
AcDbEntity
  8
0
370
     0
390
0
100
AcDbVertex
100
AcDb2dVertex
 10
125.841896
 20
26.802324
 30
0.0
  0
SEQEND
  5
38
100
AcDbEntity
  8
0
370
     0
390
0
  0
POLYLINE
  5
39
100
AcDbEntity
  8
0
370
    13
390
0
 62
     7
100
AcDb2dPolyline
 66
     1
 10
0.0
 20
0.0
 30
0.0
 71
     2
  0
VERTEX
  5
3A
100
AcDbEntity
  8
0
370
     0
390
0
100
AcDbVertex
100
AcDb2dVertex
 10
126.878349
 20
28.576517
 30
0.0
  0
VERTEX
  5
3B
100
AcDbEntity
  8
0
370
     0
390
0
100
AcDbVertex
100
AcDb2dVertex
 10
127.338989
 20
28.495872
 30
0.0
  0
SEQEND
  5
3C
100
AcDbEntity
  8
0
370
     0
390
0
  0
POLYLINE
  5
3D
100
AcDbEntity
  8
0
370
    13
390
0
 62
     7
100
AcDb2dPolyline
 66
     1
 10
0.0
 20
0.0
 30
0.0
 71
     2
  0
VERTEX
  5
3E
100
AcDbEntity
  8
0
370
     0
390
0
100
AcDbVertex
100
AcDb2dVertex
 10
126.244957
 20
28.899099
 30
0.0
  0
VERTEX
  5
3F
100
AcDbEntity
  8
0
370
     0
390
0
100
AcDbVertex
100
AcDb2dVertex
 10
126.878349
 20
28.576517
 30
0.0
  0
SEQEND
  5
40
100
AcDbEntity
  8
0
370
     0
390
0
  0
POLYLINE
  5
41
100
AcDbEntity
  8
0
370
    13
390
0
 62
     7
100
AcDb2dPolyline
 66
     1
 10
0.0
 20
0.0
 30
0.0
 71
     2
  0
VERTEX
  5
42
100
AcDbEntity
  8
0
370
     0
390
0
100
AcDbVertex
100
AcDb2dVertex
 10
128.83609
 20
26.72168
 30
0.0
  0
VERTEX
  5
43
100
AcDbEntity
  8
0
370
     0
390
0
100
AcDbVertex
100
AcDb2dVertex
 10
128.375443
 20
26.076517
 30
0.0
  0
SEQEND
  5
44
100
AcDbEntity
  8
0
370
     0
390
0
  0
POLYLINE
  5
45
100
AcDbEntity
  8
0
370
    13
390
0
 62
     7
100
AcDb2dPolyline
 66
     1
 10
0.0
 20
0.0
 30
0.0
 71
     2
  0
VERTEX
  5
46
100
AcDbEntity
  8
0
370
     0
390
0
100
AcDbVertex
100
AcDb2dVertex
 10
128.83609
 20
27.447485
 30
0.0
  0
VERTEX
  5
47
100
AcDbEntity
  8
0
370
     0
390
0
100
AcDbVertex
100
AcDb2dVertex
 10
128.83609
 20
26.72168
 30
0.0
  0
SEQEND
  5
48
100
AcDbEntity
  8
0
370
     0
390
0
  0
POLYLINE
  5
49
100
AcDbEntity
  8
0
370
    13
390
0
 62
     7
100
AcDb2dPolyline
 66
     1
 10
0.0
 20
0.0
 30
0.0
 71
     3
  0
VERTEX
  5
4A
100
AcDbEntity
  8
0
370
     0
390
0
100
AcDbVertex
100
AcDb2dVertex
 10
127.857216
 20
28.334583
 30
0.0
  0
VERTEX
  5
4B
100
AcDbEntity
  8
0
370
     0
390
0
100
AcDbVertex
100
AcDb2dVertex
 10
128.375443
 20
28.012001
 30
0.0
  0
VERTEX
  5
4C
100
AcDbEntity
  8
0
370
     0
390
0
100
AcDbVertex
100
AcDb2dVertex
 10
128.83609
 20
27.447485
 30
0.0
  0
SEQEND
  5
4D
100
AcDbEntity
  8
0
370
     0
390
0
  0
POLYLINE
  5
4E
100
AcDbEntity
  8
0
370
    13
390
0
 62
     7
100
AcDb2dPolyline
 66
     1
 10
0.0
 20
0.0
 30
0.0
 71
     2
  0
VERTEX
  5
4F
100
AcDbEntity
  8
0
370
     0
390
0
100
AcDbVertex
100
AcDb2dVertex
 10
131.754471
 20
30.915228
 30
0.0
  0
VERTEX
  5
50
100
AcDbEntity
  8
0
370
     0
390
0
100
AcDbVertex
100
AcDb2dVertex
 10
129.796738
 20
30.915228
 30
0.0
  0
SEQEND
  5
51
100
AcDbEntity
  8
0
370
     0
390
0
  0
POLYLINE
  5
52
100
AcDbEntity
  8
0
370
    13
390
0
 62
     7
100
AcDb2dPolyline
 66
     1
 10
0.0
 20
0.0
 30
0.0
 71
     2
  0
VERTEX
  5
53
100
AcDbEntity
  8
0
370
     0
390
0
100
AcDbVertex
100
AcDb2dVertex
 10
129.796738
 20
28.495872
 30
0.0
  0
VERTEX
  5
54
100
AcDbEntity
  8
0
370
     0
390
0
100
AcDbVertex
100
AcDb2dVertex
 10
131.869644
 20
28.495872
 30
0.0
  0
SEQEND
  5
55
100
AcDbEntity
  8
0
370
     0
390
0
  0
POLYLINE
  5
56
100
AcDbEntity
  8
0
370
    13
390
0
 62
     7
100
AcDb2dPolyline
 66
     1
 10
0.0
 20
0.0
 30
0.0
 71
     2
  0
VERTEX
  5
57
100
AcDbEntity
  8
0
370
     0
390
0
100
AcDbVertex
100
AcDb2dVertex
 10
129.796738
 20
30.915228
 30
0.0
  0
VERTEX
  5
58
100
AcDbEntity
  8
0
370
     0
390
0
100
AcDbVertex
100
AcDb2dVertex
 10
129.796738
 20
25.915228
 30
0.0
  0
SEQEND
  5
59
100
AcDbEntity
  8
0
370
     0
390
0
  0
POLYLINE
  5
5A
100
AcDbEntity
  8
0
370
    13
390
0
 62
     7
100
AcDb2dPolyline
 66
     1
 10
0.0
 20
0.0
 30
0.0
 71
     6
  0
VERTEX
  5
5B
100
AcDbEntity
  8
0
370
     0
390
0
100
AcDbVertex
100
AcDb2dVertex
 10
131.754471
 20
30.915228
 30
0.0
  0
VERTEX
  5
5C
100
AcDbEntity
  8
0
370
     0
390
0
100
AcDbVertex
100
AcDb2dVertex
 10
132.157547
 20
30.673292
 30
0.0
  0
VERTEX
  5
5D
100
AcDbEntity
  8
0
370
     0
390
0
100
AcDbVertex
100
AcDb2dVertex
 10
132.560608
 20
30.108776
 30
0.0
  0
VERTEX
  5
5E
100
AcDbEntity
  8
0
370
     0
390
0
100
AcDbVertex
100
AcDb2dVertex
 10
132.560608
 20
29.302324
 30
0.0
  0
VERTEX
  5
5F
100
AcDbEntity
  8
0
370
     0
390
0
100
AcDbVertex
100
AcDb2dVertex
 10
132.272705
 20
28.818453
 30
0.0
  0
VERTEX
  5
60
100
AcDbEntity
  8
0
370
     0
390
0
100
AcDbVertex
100
AcDb2dVertex
 10
131.869644
 20
28.495872
 30
0.0
  0
SEQEND
  5
61
100
AcDbEntity
  8
0
370
     0
390
0
  0
POLYLINE
  5
62
100
AcDbEntity
  8
0
370
    13
390
0
 62
     7
100
AcDb2dPolyline
 66
     1
 10
0.0
 20
0.0
 30
0.0
 71
     2
  0
VERTEX
  5
63
100
AcDbEntity
  8
0
370
     0
390
0
100
AcDbVertex
100
AcDb2dVertex
 10
131.408997
 20
28.495872
 30
0.0
  0
VERTEX
  5
64
100
AcDbEntity
  8
0
370
     0
390
0
100
AcDbVertex
100
AcDb2dVertex
 10
132.560608
 20
25.915228
 30
0.0
  0
SEQEND
  5
65
100
AcDbEntity
  8
0
370
     0
390
0
  0
POLYLINE
  5
66
100
AcDbEntity
  8
0
370
    13
390
0
 62
     7
100
AcDb2dPolyline
 66
     1
 10
0.0
 20
0.0
 30
0.0
 71
    23
  0
VERTEX
  5
67
100
AcDbEntity
  8
0
370
     0
390
0
100
AcDbVertex
100
AcDb2dVertex
 10
136.400284
 20
30.270065
 30
0.0
  0
VERTEX
  5
68
100
AcDbEntity
  8
0
370
     0
390
0
100
AcDbVertex
100
AcDb2dVertex
 10
136.227539
 20
30.673292
 30
0.0
  0
VERTEX
  5
69
100
AcDbEntity
  8
0
370
     0
390
0
100
AcDbVertex
100
AcDb2dVertex
 10
135.594147
 20
30.915228
 30
0.0
  0
VERTEX
  5
6A
100
AcDbEntity
  8
0
370
     0
390
0
100
AcDbVertex
100
AcDb2dVertex
 10
135.248672
 20
30.915228
 30
0.0
  0
VERTEX
  5
6B
100
AcDbEntity
  8
0
370
     0
390
0
100
AcDbVertex
100
AcDb2dVertex
 10
134.61528
 20
30.673292
 30
0.0
  0
VERTEX
  5
6C
100
AcDbEntity
  8
0
370
     0
390
0
100
AcDbVertex
100
AcDb2dVertex
 10
134.212219
 20
30.02813
 30
0.0
  0
VERTEX
  5
6D
100
AcDbEntity
  8
0
370
     0
390
0
100
AcDbVertex
100
AcDb2dVertex
 10
134.039474
 20
28.899097
 30
0.0
  0
VERTEX
  5
6E
100
AcDbEntity
  8
0
370
     0
390
0
100
AcDbVertex
100
AcDb2dVertex
 10
134.039474
 20
27.770065
 30
0.0
  0
VERTEX
  5
6F
100
AcDbEntity
  8
0
370
     0
390
0
100
AcDbVertex
100
AcDb2dVertex
 10
134.212219
 20
26.882969
 30
0.0
  0
VERTEX
  5
70
100
AcDbEntity
  8
0
370
     0
390
0
100
AcDbVertex
100
AcDb2dVertex
 10
134.557709
 20
26.318453
 30
0.0
  0
VERTEX
  5
71
100
AcDbEntity
  8
0
370
     0
390
0
100
AcDbVertex
100
AcDb2dVertex
 10
135.191086
 20
25.915228
 30
0.0
  0
VERTEX
  5
72
100
AcDbEntity
  8
0
370
     0
390
0
100
AcDbVertex
100
AcDb2dVertex
 10
135.421417
 20
25.915228
 30
0.0
  0
VERTEX
  5
73
100
AcDbEntity
  8
0
370
     0
390
0
100
AcDbVertex
100
AcDb2dVertex
 10
136.054794
 20
26.157162
 30
0.0
  0
VERTEX
  5
74
100
AcDbEntity
  8
0
370
     0
390
0
100
AcDbVertex
100
AcDb2dVertex
 10
136.400284
 20
26.641033
 30
0.0
  0
VERTEX
  5
75
100
AcDbEntity
  8
0
370
     0
390
0
100
AcDbVertex
100
AcDb2dVertex
 10
136.573029
 20
27.286194
 30
0.0
  0
VERTEX
  5
76
100
AcDbEntity
  8
0
370
     0
390
0
100
AcDbVertex
100
AcDb2dVertex
 10
136.573029
 20
27.52813
 30
0.0
  0
VERTEX
  5
77
100
AcDbEntity
  8
0
370
     0
390
0
100
AcDbVertex
100
AcDb2dVertex
 10
136.400284
 20
28.173292
 30
0.0
  0
VERTEX
  5
78
100
AcDbEntity
  8
0
370
     0
390
0
100
AcDbVertex
100
AcDb2dVertex
 10
136.054794
 20
28.657162
 30
0.0
  0
VERTEX
  5
79
100
AcDbEntity
  8
0
370
     0
390
0
100
AcDbVertex
100
AcDb2dVertex
 10
135.421417
 20
28.899097
 30
0.0
  0
VERTEX
  5
7A
100
AcDbEntity
  8
0
370
     0
390
0
100
AcDbVertex
100
AcDb2dVertex
 10
135.191086
 20
28.899097
 30
0.0
  0
VERTEX
  5
7B
100
AcDbEntity
  8
0
370
     0
390
0
100
AcDbVertex
100
AcDb2dVertex
 10
134.557709
 20
28.657162
 30
0.0
  0
VERTEX
  5
7C
100
AcDbEntity
  8
0
370
     0
390
0
100
AcDbVertex
100
AcDb2dVertex
 10
134.212219
 20
28.253937
 30
0.0
  0
VERTEX
  5
7D
100
AcDbEntity
  8
0
370
     0
390
0
100
AcDbVertex
100
AcDb2dVertex
 10
134.039474
 20
27.689421
 30
0.0
  0
SEQEND
  5
7E
100
AcDbEntity
  8
0
370
     0
390
0
  0
POLYLINE
  5
7F
100
AcDbEntity
  8
0
370
    13
390
0
 62
     7
100
AcDb2dPolyline
 66
     1
 10
0.0
 20
0.0
 30
0.0
 71
     3
  0
VERTEX
  5
80
100
AcDbEntity
  8
0
370
     0
390
0
100
AcDbVertex
100
AcDb2dVertex
 10
137.821579
 20
30.915226
 30
0.0
  0
VERTEX
  5
81
100
AcDbEntity
  8
0
370
     0
390
0
100
AcDbVertex
100
AcDb2dVertex
 10
140.585449
 20
30.915226
 30
0.0
  0
VERTEX
  5
82
100
AcDbEntity
  8
0
370
     0
390
0
100
AcDbVertex
100
AcDb2dVertex
 10
138.512543
 20
25.915226
 30
0.0
  0
SEQEND
  5
83
100
AcDbEntity
  8
0
370
     0
390
0
  0
POLYLINE
  5
84
100
AcDbEntity
  8
0
370
    13
390
0
 62
     7
100
AcDb2dPolyline
 66
     1
 10
0.0
 20
0.0
 30
0.0
 71
     3
  0
VERTEX
  5
85
100
AcDbEntity
  8
0
370
     0
390
0
100
AcDbVertex
100
AcDb2dVertex
 10
141.603668
 20
25.915226
 30
0.0
  0
VERTEX
  5
86
100
AcDbEntity
  8
0
370
     0
390
0
100
AcDbVertex
100
AcDb2dVertex
 10
143.15834
 20
30.915226
 30
0.0
  0
VERTEX
  5
87
100
AcDbEntity
  8
0
370
     0
390
0
100
AcDbVertex
100
AcDb2dVertex
 10
144.713028
 20
25.915226
 30
0.0
  0
SEQEND
  5
88
100
AcDbEntity
  8
0
370
     0
390
0
  0
POLYLINE
  5
89
100
AcDbEntity
  8
0
370
    13
390
0
 62
     7
100
AcDb2dPolyline
 66
     1
 10
0.0
 20
0.0
 30
0.0
 71
     2
  0
VERTEX
  5
8A
100
AcDbEntity
  8
0
370
     0
390
0
100
AcDbVertex
100
AcDb2dVertex
 10
142.121902
 20
27.608774
 30
0.0
  0
VERTEX
  5
8B
100
AcDbEntity
  8
0
370
     0
390
0
100
AcDbVertex
100
AcDb2dVertex
 10
144.194794
 20
27.608774
 30
0.0
  0
SEQEND
  5
8C
100
AcDbEntity
  8
0
370
     0
390
0
  0
POLYLINE
  5
8D
100
AcDbEntity
  8
0
370
    13
390
0
 62
     7
100
AcDb2dPolyline
 66
     1
 10
0.0
 20
0.0
 30
0.0
 71
     2
  0
VERTEX
  5
8E
100
AcDbEntity
  8
0
370
     0
390
0
100
AcDbVertex
100
AcDb2dVertex
 10
145.903992
 20
27.931355
 30
0.0
  0
VERTEX
  5
8F
100
AcDbEntity
  8
0
370
     0
390
0
100
AcDbVertex
100
AcDb2dVertex
 10
148.552704
 20
27.931355
 30
0.0
  0
SEQEND
  5
90
100
AcDbEntity
  8
0
370
     0
390
0
  0
POLYLINE
  5
91
100
AcDbEntity
  8
0
370
    13
390
0
 62
     7
100
AcDb2dPolyline
 66
     1
 10
0.0
 20
0.0
 30
0.0
 70
     1
 71
    16
  0
VERTEX
  5
92
100
AcDbEntity
  8
0
370
     0
390
0
100
AcDbVertex
100
AcDb2dVertex
 10
150.837708
 20
30.915226
 30
0.0
  0
VERTEX
  5
93
100
AcDbEntity
  8
0
370
     0
390
0
100
AcDbVertex
100
AcDb2dVertex
 10
150.204315
 20
30.67329
 30
0.0
  0
VERTEX
  5
94
100
AcDbEntity
  8
0
370
     0
390
0
100
AcDbVertex
100
AcDb2dVertex
 10
149.801254
 20
29.866838
 30
0.0
  0
VERTEX
  5
95
100
AcDbEntity
  8
0
370
     0
390
0
100
AcDbVertex
100
AcDb2dVertex
 10
149.62851
 20
29.060387
 30
0.0
  0
VERTEX
  5
96
100
AcDbEntity
  8
0
370
     0
390
0
100
AcDbVertex
100
AcDb2dVertex
 10
149.62851
 20
28.011999
 30
0.0
  0
VERTEX
  5
97
100
AcDbEntity
  8
0
370
     0
390
0
100
AcDbVertex
100
AcDb2dVertex
 10
149.801254
 20
26.963614
 30
0.0
  0
VERTEX
  5
98
100
AcDbEntity
  8
0
370
     0
390
0
100
AcDbVertex
100
AcDb2dVertex
 10
150.204315
 20
26.157162
 30
0.0
  0
VERTEX
  5
99
100
AcDbEntity
  8
0
370
     0
390
0
100
AcDbVertex
100
AcDb2dVertex
 10
150.837708
 20
25.915226
 30
0.0
  0
VERTEX
  5
9A
100
AcDbEntity
  8
0
370
     0
390
0
100
AcDbVertex
100
AcDb2dVertex
 10
151.29834
 20
25.915226
 30
0.0
  0
VERTEX
  5
9B
100
AcDbEntity
  8
0
370
     0
390
0
100
AcDbVertex
100
AcDb2dVertex
 10
151.931732
 20
26.157162
 30
0.0
  0
VERTEX
  5
9C
100
AcDbEntity
  8
0
370
     0
390
0
100
AcDbVertex
100
AcDb2dVertex
 10
152.334793
 20
26.963614
 30
0.0
  0
VERTEX
  5
9D
100
AcDbEntity
  8
0
370
     0
390
0
100
AcDbVertex
100
AcDb2dVertex
 10
152.507538
 20
27.931355
 30
0.0
  0
VERTEX
  5
9E
100
AcDbEntity
  8
0
370
     0
390
0
100
AcDbVertex
100
AcDb2dVertex
 10
152.507538
 20
29.060387
 30
0.0
  0
VERTEX
  5
9F
100
AcDbEntity
  8
0
370
     0
390
0
100
AcDbVertex
100
AcDb2dVertex
 10
152.334793
 20
29.866838
 30
0.0
  0
VERTEX
  5
A0
100
AcDbEntity
  8
0
370
     0
390
0
100
AcDbVertex
100
AcDb2dVertex
 10
151.931732
 20
30.67329
 30
0.0
  0
VERTEX
  5
A1
100
AcDbEntity
  8
0
370
     0
390
0
100
AcDbVertex
100
AcDb2dVertex
 10
151.29834
 20
30.915226
 30
0.0
  0
SEQEND
  5
A2
100
AcDbEntity
  8
0
370
     0
390
0
  0
POLYLINE
  5
A3
100
AcDbEntity
  8
0
370
    13
390
0
 62
     7
100
AcDb2dPolyline
 66
     1
 10
0.0
 20
0.0
 30
0.0
 71
    15
  0
VERTEX
  5
A4
100
AcDbEntity
  8
0
370
     0
390
0
100
AcDbVertex
100
AcDb2dVertex
 10
153.64093
 20
26.802322
 30
0.0
  0
VERTEX
  5
A5
100
AcDbEntity
  8
0
370
     0
390
0
100
AcDbVertex
100
AcDb2dVertex
 10
153.81366
 20
26.399096
 30
0.0
  0
VERTEX
  5
A6
100
AcDbEntity
  8
0
370
     0
390
0
100
AcDbVertex
100
AcDb2dVertex
 10
153.986404
 20
26.157162
 30
0.0
  0
VERTEX
  5
A7
100
AcDbEntity
  8
0
370
     0
390
0
100
AcDbVertex
100
AcDb2dVertex
 10
154.619797
 20
25.915226
 30
0.0
  0
VERTEX
  5
A8
100
AcDbEntity
  8
0
370
     0
390
0
100
AcDbVertex
100
AcDb2dVertex
 10
155.253174
 20
25.915226
 30
0.0
  0
VERTEX
  5
A9
100
AcDbEntity
  8
0
370
     0
390
0
100
AcDbVertex
100
AcDb2dVertex
 10
155.944153
 20
26.15716
 30
0.0
  0
VERTEX
  5
AA
100
AcDbEntity
  8
0
370
     0
390
0
100
AcDbVertex
100
AcDb2dVertex
 10
156.289627
 20
26.641031
 30
0.0
  0
VERTEX
  5
AB
100
AcDbEntity
  8
0
370
     0
390
0
100
AcDbVertex
100
AcDb2dVertex
 10
156.462372
 20
27.366838
 30
0.0
  0
VERTEX
  5
AC
100
AcDbEntity
  8
0
370
     0
390
0
100
AcDbVertex
100
AcDb2dVertex
 10
156.462372
 20
27.85071
 30
0.0
  0
VERTEX
  5
AD
100
AcDbEntity
  8
0
370
     0
390
0
100
AcDbVertex
100
AcDb2dVertex
 10
156.289627
 20
28.576515
 30
0.0
  0
VERTEX
  5
AE
100
AcDbEntity
  8
0
370
     0
390
0
100
AcDbVertex
100
AcDb2dVertex
 10
156.116898
 20
28.818451
 30
0.0
  0
VERTEX
  5
AF
100
AcDbEntity
  8
0
370
     0
390
0
100
AcDbVertex
100
AcDb2dVertex
 10
155.771408
 20
29.060387
 30
0.0
  0
VERTEX
  5
B0
100
AcDbEntity
  8
0
370
     0
390
0
100
AcDbVertex
100
AcDb2dVertex
 10
154.965286
 20
29.060387
 30
0.0
  0
VERTEX
  5
B1
100
AcDbEntity
  8
0
370
     0
390
0
100
AcDbVertex
100
AcDb2dVertex
 10
156.174469
 20
30.915226
 30
0.0
  0
VERTEX
  5
B2
100
AcDbEntity
  8
0
370
     0
390
0
100
AcDbVertex
100
AcDb2dVertex
 10
154.043991
 20
30.915226
 30
0.0
  0
SEQEND
  5
B3
100
AcDbEntity
  8
0
370
     0
390
0
  0
POLYLINE
  5
B4
100
AcDbEntity
  8
0
370
    13
390
0
 62
     7
100
AcDb2dPolyline
 66
     1
 10
0.0
 20
0.0
 30
0.0
 71
     5
  0
VERTEX
  5
B5
100
AcDbEntity
  8
0
370
     0
390
0
100
AcDbVertex
100
AcDb2dVertex
 10
160.244476
 20
27.689419
 30
0.0
  0
VERTEX
  5
B6
100
AcDbEntity
  8
0
370
     0
390
0
100
AcDbVertex
100
AcDb2dVertex
 10
157.595764
 20
27.689419
 30
0.0
  0
VERTEX
  5
B7
100
AcDbEntity
  8
0
370
     0
390
0
100
AcDbVertex
100
AcDb2dVertex
 10
159.553513
 20
30.915224
 30
0.0
  0
VERTEX
  5
B8
100
AcDbEntity
  8
0
370
     0
390
0
100
AcDbVertex
100
AcDb2dVertex
 10
159.553513
 20
28.495871
 30
0.0
  0
VERTEX
  5
B9
100
AcDbEntity
  8
0
370
     0
390
0
100
AcDbVertex
100
AcDb2dVertex
 10
159.553497
 20
25.915224
 30
0.0
  0
SEQEND
  5
BA
100
AcDbEntity
  8
0
370
     0
390
0
  0
LINE
  5
BB
100
AcDbEntity
  8
0
370
    35
390
0
 62
     7
 48
0.000175
100
AcDbLine
 10
231.111572
 20
118.44854
 30
0.0
 11
231.111572
 21
118.455551
 31
0.0
210
0.0
220
0.0
230
1.0
  0
LINE
  5
BC
100
AcDbEntity
  8
0
370
    35
390
0
 62
     7
 48
0.006308
100
AcDbLine
 10
231.111572
 20
118.196236
 30
0.0
 11
231.111572
 21
118.448547
 31
0.0
210
0.0
220
0.0
230
1.0
  0
LINE
  5
BD
100
AcDbEntity
  8
0
370
    35
390
0
 62
     7
 48
0.006017
100
AcDbLine
 10
231.111572
 20
118.196236
 30
0.0
 11
231.111572
 21
117.955551
 31
0.0
210
0.0
220
0.0
230
1.0
  0
LINE
  5
BE
100
AcDbEntity
  8
0
370
    35
390
0
 62
     7
 48
0.004182
100
AcDbLine
 10
123.544807
 20
118.288895
 30
0.0
 11
123.55941
 21
118.455551
 31
0.0
210
0.0
220
0.0
230
1.0
  0
ARC
  5
BF
100
AcDbEntity
  8
0
370
    35
390
0
 62
     7
100
AcDbCircle
 10
141.548965
 20
225.455551
 30
0.0
 40
108.0
210
0.0
220
0.0
230
1.0
100
AcDbArc
 50
262.197743
 51
267.372403
  0
ARC
  5
C0
100
AcDbEntity
  8
0
370
    35
390
0
 62
     7
100
AcDbCircle
 10
231.611572
 20
117.955551
 30
0.0
 40
0.5
210
0.0
220
0.0
230
1.0
100
AcDbArc
 50
179.999995
 51
269.999997
  0
LINE
  5
C1
100
AcDbEntity
  8
0
370
    35
390
0
 62
     7
 48
0.023107
100
AcDbLine
 10
104.535835
 20
117.455551
 30
0.0
 11
103.611572
 21
117.455551
 31
0.0
210
0.0
220
0.0
230
1.0
  0
LINE
  5
C2
100
AcDbEntity
  8
0
370
    35
390
0
 62
     7
100
AcDbLine
 10
234.687317
 20
117.455551
 30
0.0
 11
104.535835
 21
117.455551
 31
0.0
210
0.0
220
0.0
230
1.0
  0
LINE
  5
C3
100
AcDbEntity
  8
0
370
    35
390
0
 62
     7
 48
0.023106
100
AcDbLine
 10
235.611572
 20
117.455551
 30
0.0
 11
234.687317
 21
117.455551
 31
0.0
210
0.0
220
0.0
230
1.0
  0
ARC
  5
C4
100
AcDbEntity
  8
0
370
    35
390
0
 62
     7
100
AcDbCircle
 10
111.611572
 20
117.955551
 30
0.0
 40
0.5
210
0.0
220
0.0
230
1.0
100
AcDbArc
 50
269.999997
 51
0.0
  0
LINE
  5
C5
100
AcDbEntity
  8
0
370
    35
390
0
 62
     7
 48
0.00625
100
AcDbLine
 10
112.111572
 20
118.205551
 30
0.0
 11
112.111572
 21
117.955551
 31
0.0
210
0.0
220
0.0
230
1.0
  0
LINE
  5
C6
100
AcDbEntity
  8
0
370
    35
390
0
 62
     7
 48
0.00625
100
AcDbLine
 10
112.111572
 20
118.455551
 30
0.0
 11
112.111572
 21
118.205551
 31
0.0
210
0.0
220
0.0
230
1.0
  0
ARC
  5
C7
100
AcDbEntity
  8
0
370
    35
390
0
 62
     7
100
AcDbCircle
 10
141.510834
 20
311.65506
 30
0.0
 40
194.199269
210
0.0
220
0.0
230
1.0
100
AcDbArc
 50
264.691779
 51
270.011254
  0
ARC
  5
C8
100
AcDbEntity
  8
0
370
    35
390
0
 62
     7
100
AcDbCircle
 10
212.712723
 20
311.673706
 30
0.0
 40
194.217864
210
0.0
220
0.0
230
1.0
100
AcDbArc
 50
269.988625
 51
275.287807
  0
ARC
  5
C9
100
AcDbEntity
  8
0
370
    35
390
0
 62
     7
100
AcDbCircle
 10
212.674179
 20
225.455551
 30
0.0
 40
108.0
210
0.0
220
0.0
230
1.0
100
AcDbArc
 50
272.77733
 51
277.802225
  0
ARC
  5
CA
100
AcDbEntity
  8
0
370
    35
390
0
 62
     7
100
AcDbCircle
 10
103.611572
 20
116.955551
 30
0.0
 40
0.5
210
0.0
220
0.0
230
1.0
100
AcDbArc
 50
90.000003
 51
179.999995
  0
ELLIPSE
  5
CB
100
AcDbEntity
  8
0
370
    35
390
0
 62
     7
100
AcDbEllipse
 10
103.417953
 20
117.22937
 30
0.0
 11
-0.2582626342773438
 21
-0.1826171875
 31
0.0
210
0.0
220
0.0
230
1.0
 40
0.5
 41
1.8499316671477897
 42
3.9265988266856993
  0
LINE
  5
CC
100
AcDbEntity
  8
0
370
    35
390
0
 62
     7
 48
0.020867
100
AcDbLine
 10
104.411575
 20
117.155548
 30
0.0
 11
103.576889
 21
117.155548
 31
0.0
210
0.0
220
0.0
230
1.0
  0
LINE
  5
CD
100
AcDbEntity
  8
0
370
    35
390
0
 62
     7
 48
0.008118
100
AcDbLine
 10
104.411575
 20
117.155548
 30
0.0
 11
104.535835
 21
117.455551
 31
0.0
210
0.0
220
0.0
230
1.0
  0
LINE
  5
CE
100
AcDbEntity
  8
0
370
    35
390
0
 62
     7
100
AcDbLine
 10
234.811569
 20
117.155556
 30
0.0
 11
104.411575
 21
117.155548
 31
0.0
210
0.0
220
0.0
230
1.0
  0
LINE
  5
CF
100
AcDbEntity
  8
0
370
    35
390
0
 62
     7
 48
0.008118
100
AcDbLine
 10
234.811569
 20
117.155556
 30
0.0
 11
234.687317
 21
117.455551
 31
0.0
210
0.0
220
0.0
230
1.0
  0
LINE
  5
D0
100
AcDbEntity
  8
0
370
    35
390
0
 62
     7
 48
0.020867
100
AcDbLine
 10
235.646255
 20
117.155556
 30
0.0
 11
234.811569
 21
117.155556
 31
0.0
210
0.0
220
0.0
230
1.0
  0
ELLIPSE
  5
D1
100
AcDbEntity
  8
0
370
    35
390
0
 62
     7
100
AcDbEllipse
 10
235.805191
 20
117.22937
 30
0.0
 11
-0.2582626342773438
 21
0.1826171875
 31
0.0
210
0.0
220
0.0
230
1.0
 40
0.5
 41
5.4981720034658608
 42
7.5748460918883449
  0
ARC
  5
D2
100
AcDbEntity
  8
0
370
    35
390
0
 62
     7
100
AcDbCircle
 10
235.611572
 20
116.955551
 30
0.0
 40
0.5
210
0.0
220
0.0
230
1.0
100
AcDbArc
 50
0.0
 51
90.000003
  0
LINE
  5
D3
100
AcDbEntity
  8
0
370
    35
390
0
 62
     7
100
AcDbLine
 10
236.111572
 20
96.943947
 30
0.0
 11
236.111572
 21
116.955551
 31
0.0
210
0.0
220
0.0
230
1.0
  0
LINE
  5
D4
100
AcDbEntity
  8
0
370
    35
390
0
 62
     7
 48
0.002951
100
AcDbLine
 10
236.111572
 20
96.825897
 30
0.0
 11
236.111572
 21
96.943947
 31
0.0
210
0.0
220
0.0
230
1.0
  0
LINE
  5
D5
100
AcDbEntity
  8
0
370
    35
390
0
 62
     7
 48
0.159259
100
AcDbLine
 10
236.111572
 20
90.455551
 30
0.0
 11
236.111572
 21
96.825897
 31
0.0
210
0.0
220
0.0
230
1.0
  0
LINE
  5
D6
100
AcDbEntity
  8
0
370
    35
390
0
 62
     7
 48
0.005178
100
AcDbLine
 10
236.111572
 20
90.455551
 30
0.0
 11
235.965118
 21
90.309105
 31
0.0
210
0.0
220
0.0
230
1.0
  0
LINE
  5
D7
100
AcDbEntity
  8
0
370
    35
390
0
 62
     7
 48
0.0125
100
AcDbLine
 10
235.611572
 20
89.955551
 30
0.0
 11
235.965118
 21
90.309105
 31
0.0
210
0.0
220
0.0
230
1.0
  0
LINE
  5
D8
100
AcDbEntity
  8
0
370
    35
390
0
 62
     7
 48
0.07
100
AcDbLine
 10
111.111572
 20
90.455551
 30
0.0
 11
111.111572
 21
93.255554
 31
0.0
210
0.0
220
0.0
230
1.0
  0
LINE
  5
D9
100
AcDbEntity
  8
0
370
    35
390
0
 62
     7
 48
0.01
100
AcDbLine
 10
111.111572
 20
90.455551
 30
0.0
 11
111.111572
 21
90.05555
 31
0.0
210
0.0
220
0.0
230
1.0
  0
LINE
  5
DA
100
AcDbEntity
  8
0
370
    35
390
0
 62
     7
100
AcDbLine
 10
195.711578
 20
93.255554
 30
0.0
 11
228.111572
 21
93.255554
 31
0.0
210
0.0
220
0.0
230
1.0
  0
LINE
  5
DB
100
AcDbEntity
  8
0
370
    35
390
0
 62
     7
 48
0.0125
100
AcDbLine
 10
195.211578
 20
93.255554
 30
0.0
 11
195.711578
 21
93.255554
 31
0.0
210
0.0
220
0.0
230
1.0
  0
LINE
  5
DC
100
AcDbEntity
  8
0
370
    35
390
0
 62
     7
 48
0.0125
100
AcDbLine
 10
184.811569
 20
93.255554
 30
0.0
 11
184.311569
 21
93.255554
 31
0.0
210
0.0
220
0.0
230
1.0
  0
LINE
  5
DD
100
AcDbEntity
  8
0
370
    35
390
0
 62
     7
100
AcDbLine
 10
129.911575
 20
93.255554
 30
0.0
 11
184.311569
 21
93.255554
 31
0.0
210
0.0
220
0.0
230
1.0
  0
LINE
  5
DE
100
AcDbEntity
  8
0
370
    35
390
0
 62
     7
 48
0.0125
100
AcDbLine
 10
129.411575
 20
93.255554
 30
0.0
 11
129.911575
 21
93.255554
 31
0.0
210
0.0
220
0.0
230
1.0
  0
LINE
  5
DF
100
AcDbEntity
  8
0
370
    35
390
0
 62
     7
 48
0.0125
100
AcDbLine
 10
119.011574
 20
93.255554
 30
0.0
 11
118.511574
 21
93.255554
 31
0.0
210
0.0
220
0.0
230
1.0
  0
LINE
  5
E0
100
AcDbEntity
  8
0
370
    35
390
0
 62
     7
 48
0.185
100
AcDbLine
 10
111.111572
 20
93.255554
 30
0.0
 11
118.511574
 21
93.255554
 31
0.0
210
0.0
220
0.0
230
1.0
  0
LINE
  5
E1
100
AcDbEntity
  8
0
370
    35
390
0
 62
     7
 48
0.01
100
AcDbLine
 10
228.111572
 20
90.05555
 30
0.0
 11
228.111572
 21
90.455551
 31
0.0
210
0.0
220
0.0
230
1.0
  0
LINE
  5
E2
100
AcDbEntity
  8
0
370
    35
390
0
 62
     7
 48
0.07
100
AcDbLine
 10
228.111572
 20
90.455551
 30
0.0
 11
228.111572
 21
93.255554
 31
0.0
210
0.0
220
0.0
230
1.0
  0
LINE
  5
E3
100
AcDbEntity
  8
0
370
    35
390
0
 62
     7
 48
0.159258
100
AcDbLine
 10
103.111572
 20
90.455551
 30
0.0
 11
103.111572
 21
96.82589
 31
0.0
210
0.0
220
0.0
230
1.0
  0
LINE
  5
E4
100
AcDbEntity
  8
0
370
    35
390
0
 62
     7
 48
0.002951
100
AcDbLine
 10
103.111572
 20
96.943939
 30
0.0
 11
103.111572
 21
96.82589
 31
0.0
210
0.0
220
0.0
230
1.0
  0
LINE
  5
E5
100
AcDbEntity
  8
0
370
    35
390
0
 62
     7
100
AcDbLine
 10
103.111572
 20
116.955551
 30
0.0
 11
103.111572
 21
96.943939
 31
0.0
210
0.0
220
0.0
230
1.0
  0
LINE
  5
E6
100
AcDbEntity
  8
0
370
    35
390
0
 62
     7
 48
0.0125
100
AcDbLine
 10
103.611572
 20
89.955551
 30
0.0
 11
103.258018
 21
90.309105
 31
0.0
210
0.0
220
0.0
230
1.0
  0
LINE
  5
E7
100
AcDbEntity
  8
0
370
    35
390
0
 62
     7
 48
0.005178
100
AcDbLine
 10
103.258018
 20
90.309105
 30
0.0
 11
103.111572
 21
90.455551
 31
0.0
210
0.0
220
0.0
230
1.0
  0
ARC
  5
E8
100
AcDbEntity
  8
0
370
    35
390
0
 62
     7
100
AcDbCircle
 10
103.174324
 20
116.967705
 30
0.0
 40
0.444278
210
0.0
220
0.0
230
1.0
100
AcDbArc
 50
10.235973
 51
25.01461
  0
LINE
  5
E9
100
AcDbEntity
  8
0
370
    35
390
0
 62
     7
 48
0.000813
100
AcDbLine
 10
103.616455
 20
117.014503
 30
0.0
 11
103.611572
 21
117.046661
 31
0.0
210
0.0
220
0.0
230
1.0
  0
ARC
  5
EA
100
AcDbEntity
  8
0
370
    35
390
0
 62
     7
100
AcDbCircle
 10
18.894127
 20
106.954582
 30
0.0
 40
85.3175
210
0.0
220
0.0
230
1.0
100
AcDbArc
 50
5.381035
 51
6.771593
  0
LINE
  5
EB
100
AcDbEntity
  8
0
370
    35
390
0
 62
     7
 48
0.055
100
AcDbLine
 10
104.411575
 20
114.955551
 30
0.0
 11
104.411575
 21
117.155548
 31
0.0
210
0.0
220
0.0
230
1.0
  0
ARC
  5
EC
100
AcDbEntity
  8
0
370
    35
390
0
 62
     7
100
AcDbCircle
 10
105.411575
 20
114.955551
 30
0.0
 40
1.0
210
0.0
220
0.0
230
1.0
100
AcDbArc
 50
180.000005
 51
269.999997
  0
LINE
  5
ED
100
AcDbEntity
  8
0
370
    35
390
0
 62
     7
 48
0.2975
100
AcDbLine
 10
117.311569
 20
113.955551
 30
0.0
 11
105.411575
 21
113.955551
 31
0.0
210
0.0
220
0.0
230
1.0
  0
ARC
  5
EE
100
AcDbEntity
  8
0
370
    35
390
0
 62
     7
100
AcDbCircle
 10
117.311569
 20
111.955551
 30
0.0
 40
2.0
210
0.0
220
0.0
230
1.0
100
AcDbArc
 50
360.0
 51
90.000003
  0
LINE
  5
EF
100
AcDbEntity
  8
0
370
    35
390
0
 62
     7
100
AcDbLine
 10
119.311569
 20
111.955551
 30
0.0
 11
119.311569
 21
90.955551
 31
0.0
210
0.0
220
0.0
230
1.0
  0
LINE
  5
F0
100
AcDbEntity
  8
0
370
    35
390
0
 62
     7
 48
0.035355
100
AcDbLine
 10
120.311569
 20
89.955551
 30
0.0
 11
119.311569
 21
90.955551
 31
0.0
210
0.0
220
0.0
230
1.0
  0
LINE
  5
F1
100
AcDbEntity
  8
0
370
    35
390
0
 62
     7
 48
0.195
100
AcDbLine
 10
128.111572
 20
89.955551
 30
0.0
 11
120.311569
 21
89.955551
 31
0.0
210
0.0
220
0.0
230
1.0
  0
LINE
  5
F2
100
AcDbEntity
  8
0
370
    35
390
0
 62
     7
 48
0.035355
100
AcDbLine
 10
128.111572
 20
89.955551
 30
0.0
 11
129.111572
 21
90.955551
 31
0.0
210
0.0
220
0.0
230
1.0
  0
LINE
  5
F3
100
AcDbEntity
  8
0
370
    35
390
0
 62
     7
 48
0.25
100
AcDbLine
 10
129.111572
 20
90.955551
 30
0.0
 11
129.111572
 21
100.955551
 31
0.0
210
0.0
220
0.0
230
1.0
  0
ARC
  5
F4
100
AcDbEntity
  8
0
370
    35
390
0
 62
     7
100
AcDbCircle
 10
130.111572
 20
100.955551
 30
0.0
 40
1.0
210
0.0
220
0.0
230
1.0
100
AcDbArc
 50
90.000003
 51
180.000005
  0
LINE
  5
F5
100
AcDbEntity
  8
0
370
    35
390
0
 62
     7
 48
0.17
100
AcDbLine
 10
130.111572
 20
101.955551
 30
0.0
 11
136.911575
 21
101.955551
 31
0.0
210
0.0
220
0.0
230
1.0
  0
ARC
  5
F6
100
AcDbEntity
  8
0
370
    35
390
0
 62
     7
100
AcDbCircle
 10
136.911575
 20
103.955551
 30
0.0
 40
2.0
210
0.0
220
0.0
230
1.0
100
AcDbArc
 50
269.999997
 51
0.0
  0
LINE
  5
F7
100
AcDbEntity
  8
0
370
    35
390
0
 62
     7
 48
0.2
100
AcDbLine
 10
138.911575
 20
111.955551
 30
0.0
 11
138.911575
 21
103.955551
 31
0.0
210
0.0
220
0.0
230
1.0
  0
ARC
  5
F8
100
AcDbEntity
  8
0
370
    35
390
0
 62
     7
100
AcDbCircle
 10
140.911575
 20
111.955551
 30
0.0
 40
2.0
210
0.0
220
0.0
230
1.0
100
AcDbArc
 50
90.000003
 51
179.999995
  0
LINE
  5
F9
100
AcDbEntity
  8
0
370
    35
390
0
 62
     7
100
AcDbLine
 10
173.311569
 20
113.955551
 30
0.0
 11
140.911575
 21
113.955551
 31
0.0
210
0.0
220
0.0
230
1.0
  0
ARC
  5
FA
100
AcDbEntity
  8
0
370
    35
390
0
 62
     7
100
AcDbCircle
 10
173.311569
 20
111.955551
 30
0.0
 40
2.0
210
0.0
220
0.0
230
1.0
100
AcDbArc
 50
360.0
 51
90.000003
  0
LINE
  5
FB
100
AcDbEntity
  8
0
370
    35
390
0
 62
     7
 48
0.2
100
AcDbLine
 10
175.311569
 20
103.955551
 30
0.0
 11
175.311569
 21
111.955551
 31
0.0
210
0.0
220
0.0
230
1.0
  0
ARC
  5
FC
100
AcDbEntity
  8
0
370
    35
390
0
 62
     7
100
AcDbCircle
 10
177.311569
 20
103.955551
 30
0.0
 40
2.0
210
0.0
220
0.0
230
1.0
100
AcDbArc
 50
180.000005
 51
269.999997
  0
LINE
  5
FD
100
AcDbEntity
  8
0
370
    35
390
0
 62
     7
 48
0.17
100
AcDbLine
 10
177.311569
 20
101.955551
 30
0.0
 11
184.111572
 21
101.955551
 31
0.0
210
0.0
220
0.0
230
1.0
  0
ARC
  5
FE
100
AcDbEntity
  8
0
370
    35
390
0
 62
     7
100
AcDbCircle
 10
184.111572
 20
100.955551
 30
0.0
 40
1.0
210
0.0
220
0.0
230
1.0
100
AcDbArc
 50
0.0
 51
90.000003
  0
LINE
  5
FF
100
AcDbEntity
  8
0
370
    35
390
0
 62
     7
 48
0.25
100
AcDbLine
 10
185.111572
 20
100.955551
 30
0.0
 11
185.111572
 21
90.955551
 31
0.0
210
0.0
220
0.0
230
1.0
  0
LINE
  5
100
100
AcDbEntity
  8
0
370
    35
390
0
 62
     7
 48
0.035355
100
AcDbLine
 10
186.111572
 20
89.955551
 30
0.0
 11
185.111572
 21
90.955551
 31
0.0
210
0.0
220
0.0
230
1.0
  0
LINE
  5
101
100
AcDbEntity
  8
0
370
    35
390
0
 62
     7
 48
0.195
100
AcDbLine
 10
193.911575
 20
89.955551
 30
0.0
 11
186.111572
 21
89.955551
 31
0.0
210
0.0
220
0.0
230
1.0
  0
LINE
  5
102
100
AcDbEntity
  8
0
370
    35
390
0
 62
     7
 48
0.035355
100
AcDbLine
 10
193.911575
 20
89.955551
 30
0.0
 11
194.911575
 21
90.955551
 31
0.0
210
0.0
220
0.0
230
1.0
  0
LINE
  5
103
100
AcDbEntity
  8
0
370
    35
390
0
 62
     7
100
AcDbLine
 10
194.911575
 20
90.955551
 30
0.0
 11
194.911575
 21
111.955551
 31
0.0
210
0.0
220
0.0
230
1.0
  0
ARC
  5
104
100
AcDbEntity
  8
0
370
    35
390
0
 62
     7
100
AcDbCircle
 10
196.911575
 20
111.955551
 30
0.0
 40
2.0
210
0.0
220
0.0
230
1.0
100
AcDbArc
 50
90.000003
 51
179.999995
  0
LINE
  5
105
100
AcDbEntity
  8
0
370
    35
390
0
 62
     7
100
AcDbLine
 10
196.911575
 20
113.955551
 30
0.0
 11
233.811569
 21
113.955551
 31
0.0
210
0.0
220
0.0
230
1.0
  0
ARC
  5
106
100
AcDbEntity
  8
0
370
    35
390
0
 62
     7
100
AcDbCircle
 10
233.811569
 20
114.955551
 30
0.0
 40
1.0
210
0.0
220
0.0
230
1.0
100
AcDbArc
 50
269.999997
 51
0.0
  0
LINE
  5
107
100
AcDbEntity
  8
0
370
    35
390
0
 62
     7
 48
0.055
100
AcDbLine
 10
234.811569
 20
117.155556
 30
0.0
 11
234.811569
 21
114.955551
 31
0.0
210
0.0
220
0.0
230
1.0
  0
CIRCLE
  5
108
100
AcDbEntity
  8
0
370
    35
390
0
 62
     7
100
AcDbCircle
 10
185.111572
 20
109.455551
 30
0.0
 40
4.55
210
0.0
220
0.0
230
1.0
  0
CIRCLE
  5
109
100
AcDbEntity
  8
0
370
    35
390
0
 62
     7
100
AcDbCircle
 10
129.111572
 20
109.455551
 30
0.0
 40
4.55
210
0.0
220
0.0
230
1.0
  0
ARC
  5
10A
100
AcDbEntity
  8
0
370
    35
390
0
 62
     7
100
AcDbCircle
 10
236.048828
 20
116.967705
 30
0.0
 40
0.444278
210
0.0
220
0.0
230
1.0
100
AcDbArc
 50
154.985393
 51
169.764024
  0
ARC
  5
10B
100
AcDbEntity
  8
0
370
    35
390
0
 62
     7
100
AcDbCircle
 10
320.328247
 20
106.954666
 30
0.0
 40
85.316704
210
0.0
220
0.0
230
1.0
100
AcDbArc
 50
173.228405
 51
174.618977
  0
LINE
  5
10C
100
AcDbEntity
  8
0
370
    35
390
0
 62
     7
 48
0.000813
100
AcDbLine
 10
235.606689
 20
117.014511
 30
0.0
 11
235.611572
 21
117.046661
 31
0.0
210
0.0
220
0.0
230
1.0
  0
ARC
  5
10D
100
AcDbEntity
  8
0
370
    35
390
0
 62
     7
100
AcDbCircle
 10
235.611771
 20
89.955345
 30
0.0
 40
0.500098
210
0.0
220
0.0
230
1.0
100
AcDbArc
 50
45.032831
 51
90.022761
  0
LINE
  5
10E
100
AcDbEntity
  8
0
370
    35
390
0
 62
     7
 48
0.1875
100
AcDbLine
 10
228.111572
 20
90.455551
 30
0.0
 11
235.611572
 21
90.455551
 31
0.0
210
0.0
220
0.0
230
1.0
  0
ARC
  5
10F
100
AcDbEntity
  8
0
370
    35
390
0
 62
     7
100
AcDbCircle
 10
228.211578
 20
90.05555
 30
0.0
 40
0.1
210
0.0
220
0.0
230
1.0
100
AcDbArc
 50
179.999995
 51
269.999997
  0
LINE
  5
110
100
AcDbEntity
  8
0
370
    35
390
0
 62
     7
 48
0.185
100
AcDbLine
 10
228.211578
 20
89.955551
 30
0.0
 11
235.611572
 21
89.955551
 31
0.0
210
0.0
220
0.0
230
1.0
  0
LINE
  5
111
100
AcDbEntity
  8
0
370
    35
390
0
 62
     7
 48
0.185
100
AcDbLine
 10
103.611572
 20
89.955551
 30
0.0
 11
111.011574
 21
89.955551
 31
0.0
210
0.0
220
0.0
230
1.0
  0
ARC
  5
112
100
AcDbEntity
  8
0
370
    35
390
0
 62
     7
100
AcDbCircle
 10
111.011574
 20
90.05555
 30
0.0
 40
0.1
210
0.0
220
0.0
230
1.0
100
AcDbArc
 50
269.999997
 51
0.0
  0
LINE
  5
113
100
AcDbEntity
  8
0
370
    35
390
0
 62
     7
 48
0.1875
100
AcDbLine
 10
103.611572
 20
90.455551
 30
0.0
 11
111.111572
 21
90.455551
 31
0.0
210
0.0
220
0.0
230
1.0
  0
LINE
  5
114
100
AcDbEntity
  8
0
370
    35
390
0
 62
     7
 48
0.089259
100
AcDbLine
 10
118.511574
 20
96.825897
 30
0.0
 11
118.511574
 21
93.255554
 31
0.0
210
0.0
220
0.0
230
1.0
  0
ARC
  5
115
100
AcDbEntity
  8
0
370
    35
390
0
 62
     7
100
AcDbCircle
 10
103.611305
 20
89.955353
 30
0.0
 40
0.500079
210
0.0
220
0.0
230
1.0
100
AcDbArc
 50
89.969772
 51
134.962407
  0
LINE
  5
116
100
AcDbEntity
  8
0
370
    35
390
0
 62
     7
 48
0.089259
100
AcDbLine
 10
195.711578
 20
96.825897
 30
0.0
 11
195.711578
 21
93.255554
 31
0.0
210
0.0
220
0.0
230
1.0
  0
LINE
  5
117
100
AcDbEntity
  8
0
370
    35
390
0
 62
     7
 48
0.001478
100
AcDbLine
 10
195.711578
 20
96.825897
 30
0.0
 11
195.708084
 21
96.884918
 31
0.0
210
0.0
220
0.0
230
1.0
  0
ARC
  5
118
100
AcDbEntity
  8
0
370
    35
390
0
 62
     7
100
AcDbCircle
 10
280.420227
 20
106.955536
 30
0.0
 40
85.308633
210
0.0
220
0.0
230
1.0
100
AcDbArc
 50
176.639921
 51
186.779531
  0
LINE
  5
119
100
AcDbEntity
  8
0
370
    35
390
0
 62
     7
 48
0.010607
100
AcDbLine
 10
195.211578
 20
91.255554
 30
0.0
 11
194.911575
 21
90.955551
 31
0.0
210
0.0
220
0.0
230
1.0
  0
LINE
  5
11A
100
AcDbEntity
  8
0
370
    35
390
0
 62
     7
 48
0.05
100
AcDbLine
 10
195.211578
 20
91.255554
 30
0.0
 11
195.211578
 21
93.255554
 31
0.0
210
0.0
220
0.0
230
1.0
  0
LINE
  5
11B
100
AcDbEntity
  8
0
370
    35
390
0
 62
     7
 48
0.05
100
AcDbLine
 10
184.811569
 20
93.255554
 30
0.0
 11
184.811569
 21
91.255554
 31
0.0
210
0.0
220
0.0
230
1.0
  0
LINE
  5
11C
100
AcDbEntity
  8
0
370
    35
390
0
 62
     7
 48
0.001478
100
AcDbLine
 10
184.311569
 20
96.825897
 30
0.0
 11
184.315079
 21
96.884918
 31
0.0
210
0.0
220
0.0
230
1.0
  0
LINE
  5
11D
100
AcDbEntity
  8
0
370
    35
390
0
 62
     7
 48
0.089259
100
AcDbLine
 10
184.311569
 20
96.825897
 30
0.0
 11
184.311569
 21
93.255554
 31
0.0
210
0.0
220
0.0
230
1.0
  0
LINE
  5
11E
100
AcDbEntity
  8
0
370
    35
390
0
 62
     7
 48
0.010607
100
AcDbLine
 10
184.811569
 20
91.255554
 30
0.0
 11
185.111572
 21
90.955551
 31
0.0
210
0.0
220
0.0
230
1.0
  0
ARC
  5
11F
100
AcDbEntity
  8
0
370
    35
390
0
 62
     7
100
AcDbCircle
 10
99.570786
 20
106.958618
 30
0.0
 40
85.340922
210
0.0
220
0.0
230
1.0
100
AcDbArc
 50
353.220958
 51
355.966355
  0
LINE
  5
120
100
AcDbEntity
  8
0
370
    35
390
0
 62
     7
 48
0.089259
100
AcDbLine
 10
129.911575
 20
96.825897
 30
0.0
 11
129.911575
 21
93.255554
 31
0.0
210
0.0
220
0.0
230
1.0
  0
LINE
  5
121
100
AcDbEntity
  8
0
370
    35
390
0
 62
     7
 48
0.001478
100
AcDbLine
 10
129.911575
 20
96.825897
 30
0.0
 11
129.908081
 21
96.884918
 31
0.0
210
0.0
220
0.0
230
1.0
  0
ARC
  5
122
100
AcDbEntity
  8
0
370
    35
390
0
 62
     7
100
AcDbCircle
 10
214.652359
 20
106.958626
 30
0.0
 40
85.340922
210
0.0
220
0.0
230
1.0
100
AcDbArc
 50
184.033645
 51
186.77904
  0
LINE
  5
123
100
AcDbEntity
  8
0
370
    35
390
0
 62
     7
 48
0.010607
100
AcDbLine
 10
129.411575
 20
91.255554
 30
0.0
 11
129.111572
 21
90.955551
 31
0.0
210
0.0
220
0.0
230
1.0
  0
LINE
  5
124
100
AcDbEntity
  8
0
370
    35
390
0
 62
     7
 48
0.05
100
AcDbLine
 10
129.411575
 20
91.255554
 30
0.0
 11
129.411575
 21
93.255554
 31
0.0
210
0.0
220
0.0
230
1.0
  0
LINE
  5
125
100
AcDbEntity
  8
0
370
    35
390
0
 62
     7
 48
0.05
100
AcDbLine
 10
119.011574
 20
93.255554
 30
0.0
 11
119.011574
 21
91.255554
 31
0.0
210
0.0
220
0.0
230
1.0
  0
LINE
  5
126
100
AcDbEntity
  8
0
370
    35
390
0
 62
     7
 48
0.001478
100
AcDbLine
 10
118.511574
 20
96.825897
 30
0.0
 11
118.515068
 21
96.884918
 31
0.0
210
0.0
220
0.0
230
1.0
  0
LINE
  5
127
100
AcDbEntity
  8
0
370
    35
390
0
 62
     7
 48
0.010607
100
AcDbLine
 10
119.011574
 20
91.255554
 30
0.0
 11
119.311569
 21
90.955551
 31
0.0
210
0.0
220
0.0
230
1.0
  0
ARC
  5
128
100
AcDbEntity
  8
0
370
    35
390
0
 62
     7
100
AcDbCircle
 10
33.80294
 20
106.955536
 30
0.0
 40
85.308632
210
0.0
220
0.0
230
1.0
100
AcDbArc
 50
353.220469
 51
3.360084
  0
LINE
  5
129
100
AcDbEntity
  8
0
370
    35
390
0
 62
     7
 48
0.005
100
AcDbLine
 10
212.388367
 20
93.105553
 30
0.0
 11
212.588364
 21
93.105553
 31
0.0
210
0.0
220
0.0
230
1.0
  0
LINE
  5
12A
100
AcDbEntity
  8
0
370
    35
390
0
 62
     7
 48
0.07616
100
AcDbLine
 10
212.588364
 20
93.105553
 30
0.0
 11
215.634781
 21
93.105553
 31
0.0
210
0.0
220
0.0
230
1.0
  0
LINE
  5
12B
100
AcDbEntity
  8
0
370
    35
390
0
 62
     7
 48
0.005
100
AcDbLine
 10
215.634781
 20
93.105553
 30
0.0
 11
215.834778
 21
93.105553
 31
0.0
210
0.0
220
0.0
230
1.0
  0
LINE
  5
12C
100
AcDbEntity
  8
0
370
    35
390
0
 62
     7
 48
0.01
100
AcDbLine
 10
217.711578
 20
92.855553
 30
0.0
 11
217.711578
 21
93.255554
 31
0.0
210
0.0
220
0.0
230
1.0
  0
LINE
  5
12D
100
AcDbEntity
  8
0
370
    35
390
0
 62
     7
 48
0.01
100
AcDbLine
 10
219.511581
 20
92.855553
 30
0.0
 11
219.511581
 21
93.255554
 31
0.0
210
0.0
220
0.0
230
1.0
  0
LINE
  5
12E
100
AcDbEntity
  8
0
370
    35
390
0
 62
     7
 48
0.01
100
AcDbLine
 10
211.111572
 20
92.855553
 30
0.0
 11
211.111572
 21
93.255554
 31
0.0
210
0.0
220
0.0
230
1.0
  0
CIRCLE
  5
12F
100
AcDbEntity
  8
0
370
    35
390
0
 62
     7
100
AcDbCircle
 10
185.111572
 20
109.455551
 30
0.0
 40
2.5
210
0.0
220
0.0
230
1.0
  0
CIRCLE
  5
130
100
AcDbEntity
  8
0
370
    35
390
0
 62
     7
100
AcDbCircle
 10
129.111572
 20
109.455551
 30
0.0
 40
2.5
210
0.0
220
0.0
230
1.0
  0
ARC
  5
131
100
AcDbEntity
  8
0
370
    35
390
0
 62
     7
100
AcDbCircle
 10
117.317314
 20
111.851852
 30
0.0
 40
1.651438
210
0.0
220
0.0
230
1.0
100
AcDbArc
 50
3.60149
 51
90.199246
  0
LINE
  5
132
100
AcDbEntity
  8
0
370
    35
390
0
 62
     7
 48
0.2975
100
AcDbLine
 10
117.311569
 20
113.503853
 30
0.0
 11
105.411575
 21
113.503853
 31
0.0
210
0.0
220
0.0
230
1.0
  0
POLYLINE
  5
133
100
AcDbEntity
  8
0
370
    35
390
0
 62
     7
100
AcDb2dPolyline
 66
     1
 10
0.0
 20
0.0
 30
0.0
 71
    24
  0
VERTEX
  5
134
100
AcDbEntity
  8
0
370
     0
390
0
100
AcDbVertex
100
AcDb2dVertex
 10
103.835632
 20
114.955551
 30
0.0
  0
VERTEX
  5
135
100
AcDbEntity
  8
0
370
     0
390
0
100
AcDbVertex
100
AcDb2dVertex
 10
103.84993
 20
114.844772
 30
0.0
  0
VERTEX
  5
136
100
AcDbEntity
  8
0
370
     0
390
0
100
AcDbVertex
100
AcDb2dVertex
 10
103.871674
 20
114.735794
 30
0.0
  0
VERTEX
  5
137
100
AcDbEntity
  8
0
370
     0
390
0
100
AcDbVertex
100
AcDb2dVertex
 10
103.900681
 20
114.628983
 30
0.0
  0
VERTEX
  5
138
100
AcDbEntity
  8
0
370
     0
390
0
100
AcDbVertex
100
AcDb2dVertex
 10
103.936783
 20
114.524719
 30
0.0
  0
VERTEX
  5
139
100
AcDbEntity
  8
0
370
     0
390
0
100
AcDbVertex
100
AcDb2dVertex
 10
103.979774
 20
114.423401
 30
0.0
  0
VERTEX
  5
13A
100
AcDbEntity
  8
0
370
     0
390
0
100
AcDbVertex
100
AcDb2dVertex
 10
104.029449
 20
114.325485
 30
0.0
  0
VERTEX
  5
13B
100
AcDbEntity
  8
0
370
     0
390
0
100
AcDbVertex
100
AcDb2dVertex
 10
104.085548
 20
114.231392
 30
0.0
  0
VERTEX
  5
13C
100
AcDbEntity
  8
0
370
     0
390
0
100
AcDbVertex
100
AcDb2dVertex
 10
104.147766
 20
114.141579
 30
0.0
  0
VERTEX
  5
13D
100
AcDbEntity
  8
0
370
     0
390
0
100
AcDbVertex
100
AcDb2dVertex
 10
104.215759
 20
114.05648
 30
0.0
  0
VERTEX
  5
13E
100
AcDbEntity
  8
0
370
     0
390
0
100
AcDbVertex
100
AcDb2dVertex
 10
104.289093
 20
113.976547
 30
0.0
  0
VERTEX
  5
13F
100
AcDbEntity
  8
0
370
     0
390
0
100
AcDbVertex
100
AcDb2dVertex
 10
104.367264
 20
113.902191
 30
0.0
  0
VERTEX
  5
140
100
AcDbEntity
  8
0
370
     0
390
0
100
AcDbVertex
100
AcDb2dVertex
 10
104.444672
 20
113.8377
 30
0.0
  0
VERTEX
  5
141
100
AcDbEntity
  8
0
370
     0
390
0
100
AcDbVertex
100
AcDb2dVertex
 10
104.525398
 20
113.778687
 30
0.0
  0
VERTEX
  5
142
100
AcDbEntity
  8
0
370
     0
390
0
100
AcDbVertex
100
AcDb2dVertex
 10
104.609047
 20
113.725281
 30
0.0
  0
VERTEX
  5
143
100
AcDbEntity
  8
0
370
     0
390
0
100
AcDbVertex
100
AcDb2dVertex
 10
104.695244
 20
113.677559
 30
0.0
  0
VERTEX
  5
144
100
AcDbEntity
  8
0
370
     0
390
0
100
AcDbVertex
100
AcDb2dVertex
 10
104.783691
 20
113.635559
 30
0.0
  0
VERTEX
  5
145
100
AcDbEntity
  8
0
370
     0
390
0
100
AcDbVertex
100
AcDb2dVertex
 10
104.874115
 20
113.599297
 30
0.0
  0
VERTEX
  5
146
100
AcDbEntity
  8
0
370
     0
390
0
100
AcDbVertex
100
AcDb2dVertex
 10
104.966286
 20
113.568787
 30
0.0
  0
VERTEX
  5
147
100
AcDbEntity
  8
0
370
     0
390
0
100
AcDbVertex
100
AcDb2dVertex
 10
105.053696
 20
113.545525
 30
0.0
  0
VERTEX
  5
148
100
AcDbEntity
  8
0
370
     0
390
0
100
AcDbVertex
100
AcDb2dVertex
 10
105.142197
 20
113.527351
 30
0.0
  0
VERTEX
  5
149
100
AcDbEntity
  8
0
370
     0
390
0
100
AcDbVertex
100
AcDb2dVertex
 10
105.231529
 20
113.51432
 30
0.0
  0
VERTEX
  5
14A
100
AcDbEntity
  8
0
370
     0
390
0
100
AcDbVertex
100
AcDb2dVertex
 10
105.321411
 20
113.506477
 30
0.0
  0
VERTEX
  5
14B
100
AcDbEntity
  8
0
370
     0
390
0
100
AcDbVertex
100
AcDb2dVertex
 10
105.411575
 20
113.503853
 30
0.0
  0
SEQEND
  5
14C
100
AcDbEntity
  8
0
370
     0
390
0
  0
ARC
  5
14D
100
AcDbEntity
  8
0
370
    35
390
0
 62
     7
100
AcDbCircle
 10
130.111115
 20
100.99649
 30
0.0
 40
0.589764
210
0.0
220
0.0
230
1.0
100
AcDbArc
 50
89.954718
 51
183.980493
  0
LINE
  5
14E
100
AcDbEntity
  8
0
370
    35
390
0
 62
     7
 48
0.17
100
AcDbLine
 10
130.111572
 20
101.586426
 30
0.0
 11
136.911575
 21
101.586426
 31
0.0
210
0.0
220
0.0
230
1.0
  0
POLYLINE
  5
14F
100
AcDbEntity
  8
0
370
    35
390
0
 62
     7
100
AcDb2dPolyline
 66
     1
 10
0.0
 20
0.0
 30
0.0
 71
    29
  0
VERTEX
  5
150
100
AcDbEntity
  8
0
370
     0
390
0
100
AcDbVertex
100
AcDb2dVertex
 10
136.911575
 20
101.586426
 30
0.0
  0
VERTEX
  5
151
100
AcDbEntity
  8
0
370
     0
390
0
100
AcDbVertex
100
AcDb2dVertex
 10
137.042587
 20
101.590302
 30
0.0
  0
VERTEX
  5
152
100
AcDbEntity
  8
0
370
     0
390
0
100
AcDbVertex
100
AcDb2dVertex
 10
137.173096
 20
101.601891
 30
0.0
  0
VERTEX
  5
153
100
AcDbEntity
  8
0
370
     0
390
0
100
AcDbVertex
100
AcDb2dVertex
 10
137.302612
 20
101.621147
 30
0.0
  0
VERTEX
  5
154
100
AcDbEntity
  8
0
370
     0
390
0
100
AcDbVertex
100
AcDb2dVertex
 10
137.430664
 20
101.647964
 30
0.0
  0
VERTEX
  5
155
100
AcDbEntity
  8
0
370
     0
390
0
100
AcDbVertex
100
AcDb2dVertex
 10
137.556778
 20
101.682213
 30
0.0
  0
VERTEX
  5
156
100
AcDbEntity
  8
0
370
     0
390
0
100
AcDbVertex
100
AcDb2dVertex
 10
137.680542
 20
101.723747
 30
0.0
  0
VERTEX
  5
157
100
AcDbEntity
  8
0
370
     0
390
0
100
AcDbVertex
100
AcDb2dVertex
 10
137.801514
 20
101.772377
 30
0.0
  0
VERTEX
  5
158
100
AcDbEntity
  8
0
370
     0
390
0
100
AcDbVertex
100
AcDb2dVertex
 10
137.919281
 20
101.827896
 30
0.0
  0
VERTEX
  5
159
100
AcDbEntity
  8
0
370
     0
390
0
100
AcDbVertex
100
AcDb2dVertex
 10
138.033478
 20
101.89006
 30
0.0
  0
VERTEX
  5
15A
100
AcDbEntity
  8
0
370
     0
390
0
100
AcDbVertex
100
AcDb2dVertex
 10
138.143707
 20
101.958633
 30
0.0
  0
VERTEX
  5
15B
100
AcDbEntity
  8
0
370
     0
390
0
100
AcDbVertex
100
AcDb2dVertex
 10
138.249664
 20
102.033318
 30
0.0
  0
VERTEX
  5
15C
100
AcDbEntity
  8
0
370
     0
390
0
100
AcDbVertex
100
AcDb2dVertex
 10
138.350983
 20
102.113823
 30
0.0
  0
VERTEX
  5
15D
100
AcDbEntity
  8
0
370
     0
390
0
100
AcDbVertex
100
AcDb2dVertex
 10
138.447388
 20
102.199837
 30
0.0
  0
VERTEX
  5
15E
100
AcDbEntity
  8
0
370
     0
390
0
100
AcDbVertex
100
AcDb2dVertex
 10
138.538559
 20
102.291031
 30
0.0
  0
VERTEX
  5
15F
100
AcDbEntity
  8
0
370
     0
390
0
100
AcDbVertex
100
AcDb2dVertex
 10
138.624283
 20
102.387047
 30
0.0
  0
VERTEX
  5
160
100
AcDbEntity
  8
0
370
     0
390
0
100
AcDbVertex
100
AcDb2dVertex
 10
138.704285
 20
102.487534
 30
0.0
  0
VERTEX
  5
161
100
AcDbEntity
  8
0
370
     0
390
0
100
AcDbVertex
100
AcDb2dVertex
 10
138.778351
 20
102.592125
 30
0.0
  0
VERTEX
  5
162
100
AcDbEntity
  8
0
370
     0
390
0
100
AcDbVertex
100
AcDb2dVertex
 10
138.848663
 20
102.704437
 30
0.0
  0
VERTEX
  5
163
100
AcDbEntity
  8
0
370
     0
390
0
100
AcDbVertex
100
AcDb2dVertex
 10
138.912247
 20
102.820328
 30
0.0
  0
VERTEX
  5
164
100
AcDbEntity
  8
0
370
     0
390
0
100
AcDbVertex
100
AcDb2dVertex
 10
138.968918
 20
102.939377
 30
0.0
  0
VERTEX
  5
165
100
AcDbEntity
  8
0
370
     0
390
0
100
AcDbVertex
100
AcDb2dVertex
 10
139.018585
 20
103.061165
 30
0.0
  0
VERTEX
  5
166
100
AcDbEntity
  8
0
370
     0
390
0
100
AcDbVertex
100
AcDb2dVertex
 10
139.061142
 20
103.18528
 30
0.0
  0
VERTEX
  5
167
100
AcDbEntity
  8
0
370
     0
390
0
100
AcDbVertex
100
AcDb2dVertex
 10
139.096497
 20
103.311302
 30
0.0
  0
VERTEX
  5
168
100
AcDbEntity
  8
0
370
     0
390
0
100
AcDbVertex
100
AcDb2dVertex
 10
139.124603
 20
103.438812
 30
0.0
  0
VERTEX
  5
169
100
AcDbEntity
  8
0
370
     0
390
0
100
AcDbVertex
100
AcDb2dVertex
 10
139.145447
 20
103.567398
 30
0.0
  0
VERTEX
  5
16A
100
AcDbEntity
  8
0
370
     0
390
0
100
AcDbVertex
100
AcDb2dVertex
 10
139.158997
 20
103.696648
 30
0.0
  0
VERTEX
  5
16B
100
AcDbEntity
  8
0
370
     0
390
0
100
AcDbVertex
100
AcDb2dVertex
 10
139.165283
 20
103.826164
 30
0.0
  0
VERTEX
  5
16C
100
AcDbEntity
  8
0
370
     0
390
0
100
AcDbVertex
100
AcDb2dVertex
 10
139.164337
 20
103.955551
 30
0.0
  0
SEQEND
  5
16D
100
AcDbEntity
  8
0
370
     0
390
0
  0
ARC
  5
16E
100
AcDbEntity
  8
0
370
    35
390
0
 62
     7
100
AcDbCircle
 10
224.498718
 20
106.954628
 30
0.0
 40
85.387079
210
0.0
220
0.0
230
1.0
100
AcDbArc
 50
176.642393
 51
182.012824
  0
ARC
  5
16F
100
AcDbEntity
  8
0
370
    35
390
0
 62
     7
100
AcDbCircle
 10
140.905792
 20
111.851875
 30
0.0
 40
1.651395
210
0.0
220
0.0
230
1.0
100
AcDbArc
 50
89.799243
 51
176.399266
  0
LINE
  5
170
100
AcDbEntity
  8
0
370
    35
390
0
 62
     7
100
AcDbLine
 10
173.311569
 20
113.503853
 30
0.0
 11
140.911575
 21
113.503853
 31
0.0
210
0.0
220
0.0
230
1.0
  0
ARC
  5
171
100
AcDbEntity
  8
0
370
    35
390
0
 62
     7
100
AcDbCircle
 10
173.317322
 20
111.851852
 30
0.0
 40
1.651438
210
0.0
220
0.0
230
1.0
100
AcDbArc
 50
3.60149
 51
90.199246
  0
ARC
  5
172
100
AcDbEntity
  8
0
370
    35
390
0
 62
     7
100
AcDbCircle
 10
89.728783
 20
106.954674
 30
0.0
 40
85.382724
210
0.0
220
0.0
230
1.0
100
AcDbArc
 50
357.987033
 51
3.357741
  0
POLYLINE
  5
173
100
AcDbEntity
  8
0
370
    35
390
0
 62
     7
100
AcDb2dPolyline
 66
     1
 10
0.0
 20
0.0
 30
0.0
 71
    35
  0
VERTEX
  5
174
100
AcDbEntity
  8
0
370
     0
390
0
100
AcDbVertex
100
AcDb2dVertex
 10
175.058807
 20
103.955551
 30
0.0
  0
VERTEX
  5
175
100
AcDbEntity
  8
0
370
     0
390
0
100
AcDbVertex
100
AcDb2dVertex
 10
175.057938
 20
103.822586
 30
0.0
  0
VERTEX
  5
176
100
AcDbEntity
  8
0
370
     0
390
0
100
AcDbVertex
100
AcDb2dVertex
 10
175.064697
 20
103.689491
 30
0.0
  0
VERTEX
  5
177
100
AcDbEntity
  8
0
370
     0
390
0
100
AcDbVertex
100
AcDb2dVertex
 10
175.079147
 20
103.556694
 30
0.0
  0
VERTEX
  5
178
100
AcDbEntity
  8
0
370
     0
390
0
100
AcDbVertex
100
AcDb2dVertex
 10
175.101273
 20
103.424629
 30
0.0
  0
VERTEX
  5
179
100
AcDbEntity
  8
0
370
     0
390
0
100
AcDbVertex
100
AcDb2dVertex
 10
175.131088
 20
103.293747
 30
0.0
  0
VERTEX
  5
17A
100
AcDbEntity
  8
0
370
     0
390
0
100
AcDbVertex
100
AcDb2dVertex
 10
175.168549
 20
103.164497
 30
0.0
  0
VERTEX
  5
17B
100
AcDbEntity
  8
0
370
     0
390
0
100
AcDbVertex
100
AcDb2dVertex
 10
175.213593
 20
103.037331
 30
0.0
  0
VERTEX
  5
17C
100
AcDbEntity
  8
0
370
     0
390
0
100
AcDbVertex
100
AcDb2dVertex
 10
175.266144
 20
102.912704
 30
0.0
  0
VERTEX
  5
17D
100
AcDbEntity
  8
0
370
     0
390
0
100
AcDbVertex
100
AcDb2dVertex
 10
175.295258
 20
102.851364
 30
0.0
  0
VERTEX
  5
17E
100
AcDbEntity
  8
0
370
     0
390
0
100
AcDbVertex
100
AcDb2dVertex
 10
175.326202
 20
102.790833
 30
0.0
  0
VERTEX
  5
17F
100
AcDbEntity
  8
0
370
     0
390
0
100
AcDbVertex
100
AcDb2dVertex
 10
175.358841
 20
102.731407
 30
0.0
  0
VERTEX
  5
180
100
AcDbEntity
  8
0
370
     0
390
0
100
AcDbVertex
100
AcDb2dVertex
 10
175.393265
 20
102.672905
 30
0.0
  0
VERTEX
  5
181
100
AcDbEntity
  8
0
370
     0
390
0
100
AcDbVertex
100
AcDb2dVertex
 10
175.441986
 20
102.59626
 30
0.0
  0
VERTEX
  5
182
100
AcDbEntity
  8
0
370
     0
390
0
100
AcDbVertex
100
AcDb2dVertex
 10
175.493805
 20
102.521492
 30
0.0
  0
VERTEX
  5
183
100
AcDbEntity
  8
0
370
     0
390
0
100
AcDbVertex
100
AcDb2dVertex
 10
175.548645
 20
102.448723
 30
0.0
  0
VERTEX
  5
184
100
AcDbEntity
  8
0
370
     0
390
0
100
AcDbVertex
100
AcDb2dVertex
 10
175.618347
 20
102.364227
 30
0.0
  0
VERTEX
  5
185
100
AcDbEntity
  8
0
370
     0
390
0
100
AcDbVertex
100
AcDb2dVertex
 10
175.692169
 20
102.283028
 30
0.0
  0
VERTEX
  5
186
100
AcDbEntity
  8
0
370
     0
390
0
100
AcDbVertex
100
AcDb2dVertex
 10
175.769958
 20
102.205338
 30
0.0
  0
VERTEX
  5
187
100
AcDbEntity
  8
0
370
     0
390
0
100
AcDbVertex
100
AcDb2dVertex
 10
175.851578
 20
102.131386
 30
0.0
  0
VERTEX
  5
188
100
AcDbEntity
  8
0
370
     0
390
0
100
AcDbVertex
100
AcDb2dVertex
 10
175.936813
 20
102.061371
 30
0.0
  0
VERTEX
  5
189
100
AcDbEntity
  8
0
370
     0
390
0
100
AcDbVertex
100
AcDb2dVertex
 10
176.044632
 20
101.98217
 30
0.0
  0
VERTEX
  5
18A
100
AcDbEntity
  8
0
370
     0
390
0
100
AcDbVertex
100
AcDb2dVertex
 10
176.100327
 20
101.944954
 30
0.0
  0
VERTEX
  5
18B
100
AcDbEntity
  8
0
370
     0
390
0
100
AcDbVertex
100
AcDb2dVertex
 10
176.15715
 20
101.909386
 30
0.0
  0
VERTEX
  5
18C
100
AcDbEntity
  8
0
370
     0
390
0
100
AcDbVertex
100
AcDb2dVertex
 10
176.2444
 20
101.8592
 30
0.0
  0
VERTEX
  5
18D
100
AcDbEntity
  8
0
370
     0
390
0
100
AcDbVertex
100
AcDb2dVertex
 10
176.333939
 20
101.812935
 30
0.0
  0
VERTEX
  5
18E
100
AcDbEntity
  8
0
370
     0
390
0
100
AcDbVertex
100
AcDb2dVertex
 10
176.425568
 20
101.770691
 30
0.0
  0
VERTEX
  5
18F
100
AcDbEntity
  8
0
370
     0
390
0
100
AcDbVertex
100
AcDb2dVertex
 10
176.519089
 20
101.73259
 30
0.0
  0
VERTEX
  5
190
100
AcDbEntity
  8
0
370
     0
390
0
100
AcDbVertex
100
AcDb2dVertex
 10
176.628067
 20
101.694229
 30
0.0
  0
VERTEX
  5
191
100
AcDbEntity
  8
0
370
     0
390
0
100
AcDbVertex
100
AcDb2dVertex
 10
176.738983
 20
101.661545
 30
0.0
  0
VERTEX
  5
192
100
AcDbEntity
  8
0
370
     0
390
0
100
AcDbVertex
100
AcDb2dVertex
 10
176.851517
 20
101.634636
 30
0.0
  0
VERTEX
  5
193
100
AcDbEntity
  8
0
370
     0
390
0
100
AcDbVertex
100
AcDb2dVertex
 10
176.965378
 20
101.613602
 30
0.0
  0
VERTEX
  5
194
100
AcDbEntity
  8
0
370
     0
390
0
100
AcDbVertex
100
AcDb2dVertex
 10
177.080231
 20
101.598526
 30
0.0
  0
VERTEX
  5
195
100
AcDbEntity
  8
0
370
     0
390
0
100
AcDbVertex
100
AcDb2dVertex
 10
177.19574
 20
101.589455
 30
0.0
  0
VERTEX
  5
196
100
AcDbEntity
  8
0
370
     0
390
0
100
AcDbVertex
100
AcDb2dVertex
 10
177.311569
 20
101.586426
 30
0.0
  0
SEQEND
  5
197
100
AcDbEntity
  8
0
370
     0
390
0
  0
LINE
  5
198
100
AcDbEntity
  8
0
370
    35
390
0
 62
     7
 48
0.17
100
AcDbLine
 10
177.311569
 20
101.586426
 30
0.0
 11
184.111572
 21
101.586426
 31
0.0
210
0.0
220
0.0
230
1.0
  0
ARC
  5
199
100
AcDbEntity
  8
0
370
    35
390
0
 62
     7
100
AcDbCircle
 10
184.112076
 20
100.996506
 30
0.0
 40
0.589737
210
0.0
220
0.0
230
1.0
100
AcDbArc
 50
356.017259
 51
90.049002
  0
ARC
  5
19A
100
AcDbEntity
  8
0
370
    35
390
0
 62
     7
100
AcDbCircle
 10
196.906036
 20
111.851936
 30
0.0
 40
1.651441
210
0.0
220
0.0
230
1.0
100
AcDbArc
 50
89.807903
 51
176.402012
  0
LINE
  5
19B
100
AcDbEntity
  8
0
370
    35
390
0
 62
     7
100
AcDbLine
 10
233.811569
 20
113.503853
 30
0.0
 11
196.911575
 21
113.503853
 31
0.0
210
0.0
220
0.0
230
1.0
  0
POLYLINE
  5
19C
100
AcDbEntity
  8
0
370
    35
390
0
 62
     7
100
AcDb2dPolyline
 66
     1
 10
0.0
 20
0.0
 30
0.0
 71
    25
  0
VERTEX
  5
19D
100
AcDbEntity
  8
0
370
     0
390
0
100
AcDbVertex
100
AcDb2dVertex
 10
235.387512
 20
114.955551
 30
0.0
  0
VERTEX
  5
19E
100
AcDbEntity
  8
0
370
     0
390
0
100
AcDbVertex
100
AcDb2dVertex
 10
235.374268
 20
114.851303
 30
0.0
  0
VERTEX
  5
19F
100
AcDbEntity
  8
0
370
     0
390
0
100
AcDbVertex
100
AcDb2dVertex
 10
235.354279
 20
114.748138
 30
0.0
  0
VERTEX
  5
1A0
100
AcDbEntity
  8
0
370
     0
390
0
100
AcDbVertex
100
AcDb2dVertex
 10
235.327682
 20
114.646507
 30
0.0
  0
VERTEX
  5
1A1
100
AcDbEntity
  8
0
370
     0
390
0
100
AcDbVertex
100
AcDb2dVertex
 10
235.294601
 20
114.546844
 30
0.0
  0
VERTEX
  5
1A2
100
AcDbEntity
  8
0
370
     0
390
0
100
AcDbVertex
100
AcDb2dVertex
 10
235.255157
 20
114.449585
 30
0.0
  0
VERTEX
  5
1A3
100
AcDbEntity
  8
0
370
     0
390
0
100
AcDbVertex
100
AcDb2dVertex
 10
235.209534
 20
114.355125
 30
0.0
  0
VERTEX
  5
1A4
100
AcDbEntity
  8
0
370
     0
390
0
100
AcDbVertex
100
AcDb2dVertex
 10
235.157883
 20
114.263893
 30
0.0
  0
VERTEX
  5
1A5
100
AcDbEntity
  8
0
370
     0
390
0
100
AcDbVertex
100
AcDb2dVertex
 10
235.100433
 20
114.176262
 30
0.0
  0
VERTEX
  5
1A6
100
AcDbEntity
  8
0
370
     0
390
0
100
AcDbVertex
100
AcDb2dVertex
 10
235.037399
 20
114.092621
 30
0.0
  0
VERTEX
  5
1A7
100
AcDbEntity
  8
0
370
     0
390
0
100
AcDbVertex
100
AcDb2dVertex
 10
234.971619
 20
114.016159
 30
0.0
  0
VERTEX
  5
1A8
100
AcDbEntity
  8
0
370
     0
390
0
100
AcDbVertex
100
AcDb2dVertex
 10
234.901154
 20
113.944038
 30
0.0
  0
VERTEX
  5
1A9
100
AcDbEntity
  8
0
370
     0
390
0
100
AcDbVertex
100
AcDb2dVertex
 10
234.826279
 20
113.876564
 30
0.0
  0
VERTEX
  5
1AA
100
AcDbEntity
  8
0
370
     0
390
0
100
AcDbVertex
100
AcDb2dVertex
 10
234.747253
 20
113.814011
 30
0.0
  0
VERTEX
  5
1AB
100
AcDbEntity
  8
0
370
     0
390
0
100
AcDbVertex
100
AcDb2dVertex
 10
234.664413
 20
113.756607
 30
0.0
  0
VERTEX
  5
1AC
100
AcDbEntity
  8
0
370
     0
390
0
100
AcDbVertex
100
AcDb2dVertex
 10
234.578079
 20
113.704613
 30
0.0
  0
VERTEX
  5
1AD
100
AcDbEntity
  8
0
370
     0
390
0
100
AcDbVertex
100
AcDb2dVertex
 10
234.488602
 20
113.658218
 30
0.0
  0
VERTEX
  5
1AE
100
AcDbEntity
  8
0
370
     0
390
0
100
AcDbVertex
100
AcDb2dVertex
 10
234.402634
 20
113.620171
 30
0.0
  0
VERTEX
  5
1AF
100
AcDbEntity
  8
0
370
     0
390
0
100
AcDbVertex
100
AcDb2dVertex
 10
234.314438
 20
113.58728
 30
0.0
  0
VERTEX
  5
1B0
100
AcDbEntity
  8
0
370
     0
390
0
100
AcDbVertex
100
AcDb2dVertex
 10
234.224335
 20
113.559669
 30
0.0
  0
VERTEX
  5
1B1
100
AcDbEntity
  8
0
370
     0
390
0
100
AcDbVertex
100
AcDb2dVertex
 10
234.132706
 20
113.537483
 30
0.0
  0
VERTEX
  5
1B2
100
AcDbEntity
  8
0
370
     0
390
0
100
AcDbVertex
100
AcDb2dVertex
 10
234.039932
 20
113.520821
 30
0.0
  0
VERTEX
  5
1B3
100
AcDbEntity
  8
0
370
     0
390
0
100
AcDbVertex
100
AcDb2dVertex
 10
233.964035
 20
113.511421
 30
0.0
  0
VERTEX
  5
1B4
100
AcDbEntity
  8
0
370
     0
390
0
100
AcDbVertex
100
AcDb2dVertex
 10
233.887848
 20
113.505753
 30
0.0
  0
VERTEX
  5
1B5
100
AcDbEntity
  8
0
370
     0
390
0
100
AcDbVertex
100
AcDb2dVertex
 10
233.811569
 20
113.503853
 30
0.0
  0
SEQEND
  5
1B6
100
AcDbEntity
  8
0
370
     0
390
0
  0
CIRCLE
  5
1B7
100
AcDbEntity
  8
0
370
    35
390
0
 62
     7
100
AcDbCircle
 10
185.111572
 20
109.455551
 30
0.0
 40
4.25
210
0.0
220
0.0
230
1.0
  0
CIRCLE
  5
1B8
100
AcDbEntity
  8
0
370
    35
390
0
 62
     7
100
AcDbCircle
 10
129.111572
 20
109.455551
 30
0.0
 40
4.25
210
0.0
220
0.0
230
1.0
  0
LINE
  5
1B9
100
AcDbEntity
  8
0
370
    35
390
0
 62
     7
 48
0.093341
100
AcDbLine
 10
156.924088
 20
112.225189
 30
0.0
 11
155.624084
 21
108.725189
 31
0.0
210
0.0
220
0.0
230
1.0
  0
ARC
  5
1BA
100
AcDbEntity
  8
0
370
    35
390
0
 62
     7
100
AcDbCircle
 10
157.111572
 20
112.155556
 30
0.0
 40
0.2
210
0.0
220
0.0
230
1.0
100
AcDbArc
 50
20.376416
 51
159.62357
  0
LINE
  5
1BB
100
AcDbEntity
  8
0
370
    35
390
0
 62
     7
 48
0.093341
100
AcDbLine
 10
157.299057
 20
112.225189
 30
0.0
 11
158.59906
 21
108.725189
 31
0.0
210
0.0
220
0.0
230
1.0
  0
ARC
  5
1BC
100
AcDbEntity
  8
0
370
    35
390
0
 62
     7
100
AcDbCircle
 10
158.411575
 20
108.655556
 30
0.0
 40
0.2
210
0.0
220
0.0
230
1.0
100
AcDbArc
 50
269.999997
 51
20.376456
  0
LINE
  5
1BD
100
AcDbEntity
  8
0
370
    35
390
0
 62
     7
 48
0.065
100
AcDbLine
 10
158.411575
 20
108.455551
 30
0.0
 11
155.811569
 21
108.455551
 31
0.0
210
0.0
220
0.0
230
1.0
  0
ARC
  5
1BE
100
AcDbEntity
  8
0
370
    35
390
0
 62
     7
100
AcDbCircle
 10
155.811569
 20
108.655556
 30
0.0
 40
0.2
210
0.0
220
0.0
230
1.0
100
AcDbArc
 50
159.623543
 51
269.999997
  0
LINE
  5
1BF
100
AcDbEntity
  8
0
370
    35
390
0
 62
     7
 48
0.17125
100
AcDbLine
 10
119.011574
 20
92.855553
 30
0.0
 11
112.161575
 21
92.855553
 31
0.0
210
0.0
220
0.0
230
1.0
  0
LINE
  5
1C0
100
AcDbEntity
  8
0
370
    35
390
0
 62
     7
100
AcDbLine
 10
227.061569
 20
90.355553
 30
0.0
 11
194.311569
 21
90.355553
 31
0.0
210
0.0
220
0.0
230
1.0
  0
LINE
  5
1C1
100
AcDbEntity
  8
0
370
    35
390
0
 62
     7
100
AcDbLine
 10
185.711578
 20
90.355553
 30
0.0
 11
128.511566
 21
90.355553
 31
0.0
210
0.0
220
0.0
230
1.0
  0
LINE
  5
1C2
100
AcDbEntity
  8
0
370
    35
390
0
 62
     7
 48
0.19375
100
AcDbLine
 10
119.911568
 20
90.355553
 30
0.0
 11
112.161575
 21
90.355553
 31
0.0
210
0.0
220
0.0
230
1.0
  0
LINE
  5
1C3
100
AcDbEntity
  8
0
370
    35
390
0
 62
     7
 48
0.28567
100
AcDbLine
 10
227.061569
 20
92.855553
 30
0.0
 11
215.634781
 21
92.855553
 31
0.0
210
0.0
220
0.0
230
1.0
  0
LINE
  5
1C4
100
AcDbEntity
  8
0
370
    35
390
0
 62
     7
 48
0.43442
100
AcDbLine
 10
212.588364
 20
92.855553
 30
0.0
 11
195.211578
 21
92.855553
 31
0.0
210
0.0
220
0.0
230
1.0
  0
LINE
  5
1C5
100
AcDbEntity
  8
0
370
    35
390
0
 62
     7
100
AcDbLine
 10
184.811569
 20
92.855553
 30
0.0
 11
129.411575
 21
92.855553
 31
0.0
210
0.0
220
0.0
230
1.0
  0
LINE
  5
1C6
100
AcDbEntity
  8
0
370
    35
390
0
 62
     7
 48
0.025
100
AcDbLine
 10
111.161575
 20
92.855553
 30
0.0
 11
112.161575
 21
92.855553
 31
0.0
210
0.0
220
0.0
230
1.0
  0
LINE
  5
1C7
100
AcDbEntity
  8
0
370
    35
390
0
 62
     7
 48
0.025
100
AcDbLine
 10
227.061569
 20
92.855553
 30
0.0
 11
228.061569
 21
92.855553
 31
0.0
210
0.0
220
0.0
230
1.0
  0
LINE
  5
1C8
100
AcDbEntity
  8
0
370
    35
390
0
 62
     7
 48
0.025
100
AcDbLine
 10
227.061569
 20
90.355553
 30
0.0
 11
228.061569
 21
90.355553
 31
0.0
210
0.0
220
0.0
230
1.0
  0
LINE
  5
1C9
100
AcDbEntity
  8
0
370
    35
390
0
 62
     7
 48
0.025
100
AcDbLine
 10
111.161575
 20
90.355553
 30
0.0
 11
112.161575
 21
90.355553
 31
0.0
210
0.0
220
0.0
230
1.0
  0
LINE
  5
1CA
100
AcDbEntity
  8
0
370
    35
390
0
 62
     7
 48
0.0625
100
AcDbLine
 10
228.061569
 20
90.355553
 30
0.0
 11
228.061569
 21
92.855553
 31
0.0
210
0.0
220
0.0
230
1.0
  0
LINE
  5
1CB
100
AcDbEntity
  8
0
370
    35
390
0
 62
     7
 48
0.0625
100
AcDbLine
 10
111.161575
 20
90.355553
 30
0.0
 11
111.161575
 21
92.855553
 31
0.0
210
0.0
220
0.0
230
1.0
  0
LINE
  5
1CC
100
AcDbEntity
  8
0
370
    35
390
0
 62
     7
 48
0.0725
100
AcDbLine
 10
236.111572
 20
113.105553
 30
0.0
 11
236.111572
 21
116.005554
 31
0.0
210
0.0
220
0.0
230
1.0
  0
LINE
  5
1CD
100
AcDbEntity
  8
0
370
    35
390
0
 62
     7
 48
0.0725
100
AcDbLine
 10
236.111572
 20
108.905556
 30
0.0
 11
236.111572
 21
111.80555
 31
0.0
210
0.0
220
0.0
230
1.0
  0
LINE
  5
1CE
100
AcDbEntity
  8
0
370
    35
390
0
 62
     7
 48
0.089799
100
AcDbLine
 10
236.111572
 20
106.05555
 30
0.0
 11
236.111572
 21
102.463593
 31
0.0
210
0.0
220
0.0
230
1.0
  0
LINE
  5
1CF
100
AcDbEntity
  8
0
370
    35
390
0
 62
     7
 48
0.255201
100
AcDbLine
 10
236.111572
 20
102.463593
 30
0.0
 11
236.111572
 21
92.255554
 31
0.0
210
0.0
220
0.0
230
1.0
  0
ARC
  5
1D0
100
AcDbEntity
  8
0
370
    35
390
0
 62
     7
100
AcDbCircle
 10
141.549683
 20
225.498947
 30
0.0
 40
108.043386
210
0.0
220
0.0
230
1.0
100
AcDbArc
 50
267.373428
 51
269.999622
  0
ARC
  5
1D1
100
AcDbEntity
  8
0
370
    35
390
0
 62
     7
100
AcDbCircle
 10
212.673981
 20
225.469498
 30
0.0
 40
108.013945
210
0.0
220
0.0
230
1.0
100
AcDbArc
 50
270.000107
 51
272.776633
  0
LINE
  5
1D2
100
AcDbEntity
  8
0
370
    35
390
0
 62
     7
 48
0.00433
100
AcDbLine
 10
215.748184
 20
93.255554
 30
0.0
 11
215.834778
 21
93.105553
 31
0.0
210
0.0
220
0.0
230
1.0
  0
LINE
  5
1D3
100
AcDbEntity
  8
0
370
    35
390
0
 62
     7
 48
0.00433
100
AcDbLine
 10
212.474976
 20
93.255554
 30
0.0
 11
212.388367
 21
93.105553
 31
0.0
210
0.0
220
0.0
230
1.0
  0
LINE
  5
1D4
100
AcDbEntity
  8
0
370
    35
390
0
 62
     7
 48
0.00433
100
AcDbLine
 10
215.748184
 20
93.255554
 30
0.0
 11
215.834778
 21
93.105553
 31
0.0
210
0.0
220
0.0
230
1.0
  0
LINE
  5
1D5
100
AcDbEntity
  8
0
370
    35
390
0
 62
     7
 48
0.00625
100
AcDbLine
 10
215.834778
 20
92.855553
 30
0.0
 11
215.834778
 21
93.105553
 31
0.0
210
0.0
220
0.0
230
1.0
  0
LINE
  5
1D6
100
AcDbEntity
  8
0
370
    35
390
0
 62
     7
 48
0.00625
100
AcDbLine
 10
212.388367
 20
93.105553
 30
0.0
 11
212.388367
 21
92.855553
 31
0.0
210
0.0
220
0.0
230
1.0
  0
LINE
  5
1D7
100
AcDbEntity
  8
0
370
    35
390
0
 62
     7
 48
0.00625
100
AcDbLine
 10
215.834778
 20
93.105553
 30
0.0
 11
215.834778
 21
92.855553
 31
0.0
210
0.0
220
0.0
230
1.0
  0
LINE
  5
1D8
100
AcDbEntity
  8
0
370
    35
390
0
 62
     7
 48
0.085
100
AcDbLine
 10
-4.888428
 20
14.155548
 30
0.0
 11
-8.288429
 21
14.155548
 31
0.0
210
0.0
220
0.0
230
1.0
  0
LINE
  5
1D9
100
AcDbEntity
  8
0
370
    35
390
0
 62
     7
 48
0.085
100
AcDbLine
 10
-1.488426
 20
14.155548
 30
0.0
 11
-4.888428
 21
14.155548
 31
0.0
210
0.0
220
0.0
230
1.0
  0
LINE
  5
1DA
100
AcDbEntity
  8
0
370
    35
390
0
 62
     7
 48
0.003751
100
AcDbLine
 10
73.511574
 20
95.755577
 30
0.0
 11
73.511574
 21
95.605553
 31
0.0
210
0.0
220
0.0
230
1.0
  0
LINE
  5
1DB
100
AcDbEntity
  8
0
370
    35
390
0
 62
     7
 48
0.003751
100
AcDbLine
 10
71.311577
 20
95.755577
 30
0.0
 11
71.311577
 21
95.605553
 31
0.0
210
0.0
220
0.0
230
1.0
  0
LINE
  5
1DC
100
AcDbEntity
  8
0
370
    35
390
0
 62
     7
 48
0.003576
100
AcDbLine
 10
69.111572
 20
95.748573
 30
0.0
 11
69.111572
 21
95.605553
 31
0.0
210
0.0
220
0.0
230
1.0
  0
LINE
  5
1DD
100
AcDbEntity
  8
0
370
    35
390
0
 62
     7
 48
0.014422
100
AcDbLine
 10
74.511574
 20
103.291161
 30
0.0
 11
74.511574
 21
103.86805
 31
0.0
210
0.0
220
0.0
230
1.0
  0
LINE
  5
1DE
100
AcDbEntity
  8
0
370
    35
390
0
 62
     7
 48
0.07839
100
AcDbLine
 10
74.511574
 20
100.155548
 30
0.0
 11
74.511574
 21
103.291161
 31
0.0
210
0.0
220
0.0
230
1.0
  0
LINE
  5
1DF
100
AcDbEntity
  8
0
370
    35
390
0
 62
     7
 48
0.025
100
AcDbLine
 10
73.511574
 20
100.155548
 30
0.0
 11
74.511574
 21
100.155548
 31
0.0
210
0.0
220
0.0
230
1.0
  0
LINE
  5
1E0
100
AcDbEntity
  8
0
370
    35
390
0
 62
     7
 48
0.077019
100
AcDbLine
 10
73.511574
 20
103.236305
 30
0.0
 11
73.511574
 21
100.155548
 31
0.0
210
0.0
220
0.0
230
1.0
  0
LINE
  5
1E1
100
AcDbEntity
  8
0
370
    35
390
0
 62
     7
 48
0.014231
100
AcDbLine
 10
73.511574
 20
103.80555
 30
0.0
 11
73.511574
 21
103.236305
 31
0.0
210
0.0
220
0.0
230
1.0
  0
LINE
  5
1E2
100
AcDbEntity
  8
0
370
    35
390
0
 62
     7
 48
0.014002
100
AcDbLine
 10
72.311577
 20
103.170486
 30
0.0
 11
72.311577
 21
103.730553
 31
0.0
210
0.0
220
0.0
230
1.0
  0
LINE
  5
1E3
100
AcDbEntity
  8
0
370
    35
390
0
 62
     7
 48
0.075373
100
AcDbLine
 10
72.311577
 20
100.155548
 30
0.0
 11
72.311577
 21
103.170486
 31
0.0
210
0.0
220
0.0
230
1.0
  0
LINE
  5
1E4
100
AcDbEntity
  8
0
370
    35
390
0
 62
     7
 48
0.025
100
AcDbLine
 10
71.311577
 20
100.155548
 30
0.0
 11
72.311577
 21
100.155548
 31
0.0
210
0.0
220
0.0
230
1.0
  0
LINE
  5
1E5
100
AcDbEntity
  8
0
370
    35
390
0
 62
     7
 48
0.074002
100
AcDbLine
 10
71.311577
 20
103.115639
 30
0.0
 11
71.311577
 21
100.155548
 31
0.0
210
0.0
220
0.0
230
1.0
  0
LINE
  5
1E6
100
AcDbEntity
  8
0
370
    35
390
0
 62
     7
 48
0.01381
100
AcDbLine
 10
71.311577
 20
103.668053
 30
0.0
 11
71.311577
 21
103.115639
 31
0.0
210
0.0
220
0.0
230
1.0
  0
LINE
  5
1E7
100
AcDbEntity
  8
0
370
    35
390
0
 62
     7
 48
0.013581
100
AcDbLine
 10
70.111572
 20
103.04982
 30
0.0
 11
70.111572
 21
103.593048
 31
0.0
210
0.0
220
0.0
230
1.0
  0
LINE
  5
1E8
100
AcDbEntity
  8
0
370
    35
390
0
 62
     7
 48
0.072357
100
AcDbLine
 10
70.111572
 20
100.155548
 30
0.0
 11
70.111572
 21
103.04982
 31
0.0
210
0.0
220
0.0
230
1.0
  0
LINE
  5
1E9
100
AcDbEntity
  8
0
370
    35
390
0
 62
     7
 48
0.025
100
AcDbLine
 10
69.111572
 20
100.155548
 30
0.0
 11
70.111572
 21
100.155548
 31
0.0
210
0.0
220
0.0
230
1.0
  0
LINE
  5
1EA
100
AcDbEntity
  8
0
370
    35
390
0
 62
     7
 48
0.070986
100
AcDbLine
 10
69.111572
 20
102.994972
 30
0.0
 11
69.111572
 21
100.155548
 31
0.0
210
0.0
220
0.0
230
1.0
  0
LINE
  5
1EB
100
AcDbEntity
  8
0
370
    35
390
0
 62
     7
 48
0.013389
100
AcDbLine
 10
69.111572
 20
103.530548
 30
0.0
 11
69.111572
 21
102.994972
 31
0.0
210
0.0
220
0.0
230
1.0
  0
LINE
  5
1EC
100
AcDbEntity
  8
0
370
    35
390
0
 62
     7
 48
0.199493
100
AcDbLine
 10
67.111572
 20
94.905548
 30
0.0
 11
67.111572
 21
102.885277
 31
0.0
210
0.0
220
0.0
230
1.0
  0
LINE
  5
1ED
100
AcDbEntity
  8
0
370
    35
390
0
 62
     7
 48
0.013007
100
AcDbLine
 10
67.111572
 20
102.885277
 30
0.0
 11
67.111572
 21
103.405548
 31
0.0
210
0.0
220
0.0
230
1.0
  0
LINE
  5
1EE
100
AcDbEntity
  8
0
370
    35
390
0
 62
     7
 48
0.084375
100
AcDbLine
 10
69.111572
 20
98.155548
 30
0.0
 11
69.111572
 21
94.780548
 31
0.0
210
0.0
220
0.0
230
1.0
  0
LINE
  5
1EF
100
AcDbEntity
  8
0
370
    35
390
0
 62
     7
 48
0.025
100
AcDbLine
 10
69.111572
 20
98.155548
 30
0.0
 11
70.111572
 21
98.155548
 31
0.0
210
0.0
220
0.0
230
1.0
  0
LINE
  5
1F0
100
AcDbEntity
  8
0
370
    35
390
0
 62
     7
 48
0.085938
100
AcDbLine
 10
70.111572
 20
94.718048
 30
0.0
 11
70.111572
 21
98.155548
 31
0.0
210
0.0
220
0.0
230
1.0
  0
LINE
  5
1F1
100
AcDbEntity
  8
0
370
    35
390
0
 62
     7
 48
0.087812
100
AcDbLine
 10
71.311577
 20
98.155548
 30
0.0
 11
71.311577
 21
94.643051
 31
0.0
210
0.0
220
0.0
230
1.0
  0
LINE
  5
1F2
100
AcDbEntity
  8
0
370
    35
390
0
 62
     7
 48
0.025
100
AcDbLine
 10
71.311577
 20
98.155548
 30
0.0
 11
72.311577
 21
98.155548
 31
0.0
210
0.0
220
0.0
230
1.0
  0
LINE
  5
1F3
100
AcDbEntity
  8
0
370
    35
390
0
 62
     7
 48
0.089375
100
AcDbLine
 10
72.311577
 20
94.580551
 30
0.0
 11
72.311577
 21
98.155548
 31
0.0
210
0.0
220
0.0
230
1.0
  0
LINE
  5
1F4
100
AcDbEntity
  8
0
370
    35
390
0
 62
     7
 48
0.09125
100
AcDbLine
 10
73.511574
 20
98.155548
 30
0.0
 11
73.511574
 21
94.505547
 31
0.0
210
0.0
220
0.0
230
1.0
  0
LINE
  5
1F5
100
AcDbEntity
  8
0
370
    35
390
0
 62
     7
 48
0.025
100
AcDbLine
 10
73.511574
 20
98.155548
 30
0.0
 11
74.511574
 21
98.155548
 31
0.0
210
0.0
220
0.0
230
1.0
  0
LINE
  5
1F6
100
AcDbEntity
  8
0
370
    35
390
0
 62
     7
 48
0.092813
100
AcDbLine
 10
74.511574
 20
94.443047
 30
0.0
 11
74.511574
 21
98.155548
 31
0.0
210
0.0
220
0.0
230
1.0
  0
LINE
  5
1F7
100
AcDbEntity
  8
0
370
    35
390
0
 62
     7
 48
0.015302
100
AcDbLine
 10
79.111572
 20
103.543465
 30
0.0
 11
79.111572
 21
104.155548
 31
0.0
210
0.0
220
0.0
230
1.0
  0
LINE
  5
1F8
100
AcDbEntity
  8
0
370
    35
390
0
 62
     7
 48
0.234698
100
AcDbLine
 10
79.111572
 20
94.155548
 30
0.0
 11
79.111572
 21
103.543465
 31
0.0
210
0.0
220
0.0
230
1.0
  0
LINE
  5
1F9
100
AcDbEntity
  8
0
370
    35
390
0
 62
     7
 48
0.01622
100
AcDbLine
 10
80.111572
 20
103.80674
 30
0.0
 11
80.111572
 21
104.455551
 31
0.0
210
0.0
220
0.0
230
1.0
  0
LINE
  5
1FA
100
AcDbEntity
  8
0
370
    35
390
0
 62
     7
 48
0.24878
100
AcDbLine
 10
80.111572
 20
93.855553
 30
0.0
 11
80.111572
 21
103.80674
 31
0.0
210
0.0
220
0.0
230
1.0
  0
LINE
  5
1FB
100
AcDbEntity
  8
0
370
    35
390
0
 62
     7
 48
0.070605
100
AcDbLine
 10
102.111572
 20
100.78611
 30
0.0
 11
102.111572
 21
103.610321
 31
0.0
210
0.0
220
0.0
230
1.0
  0
LINE
  5
1FC
100
AcDbEntity
  8
0
370
    35
390
0
 62
     7
 48
0.005367
100
AcDbLine
 10
102.111572
 20
105.240883
 30
0.0
 11
102.111572
 21
105.455551
 31
0.0
210
0.0
220
0.0
230
1.0
  0
LINE
  5
1FD
100
AcDbEntity
  8
0
370
    35
390
0
 62
     7
 48
0.25
100
AcDbLine
 10
92.111572
 20
100.78611
 30
0.0
 11
102.111572
 21
100.78611
 31
0.0
210
0.0
220
0.0
230
1.0
  0
LINE
  5
1FE
100
AcDbEntity
  8
0
370
    35
390
0
 62
     7
 48
0.081528
100
AcDbLine
 10
92.111572
 20
100.78611
 30
0.0
 11
92.111572
 21
97.524986
 31
0.0
210
0.0
220
0.0
230
1.0
  0
LINE
  5
1FF
100
AcDbEntity
  8
0
370
    35
390
0
 62
     7
 48
0.25
100
AcDbLine
 10
92.111572
 20
97.524986
 30
0.0
 11
102.111572
 21
97.524986
 31
0.0
210
0.0
220
0.0
230
1.0
  0
LINE
  5
200
100
AcDbEntity
  8
0
370
    35
390
0
 62
     7
 48
0.070605
100
AcDbLine
 10
102.111572
 20
94.700775
 30
0.0
 11
102.111572
 21
97.524986
 31
0.0
210
0.0
220
0.0
230
1.0
  0
LINE
  5
201
100
AcDbEntity
  8
0
370
    35
390
0
 62
     7
 48
0.040764
100
AcDbLine
 10
92.111572
 20
94.700775
 30
0.0
 11
92.111572
 21
93.070213
 31
0.0
210
0.0
220
0.0
230
1.0
  0
LINE
  5
202
100
AcDbEntity
  8
0
370
    35
390
0
 62
     7
 48
0.25
100
AcDbLine
 10
92.111572
 20
93.070213
 30
0.0
 11
102.111572
 21
93.070213
 31
0.0
210
0.0
220
0.0
230
1.0
  0
LINE
  5
203
100
AcDbEntity
  8
0
370
    35
390
0
 62
     7
 48
0.005367
100
AcDbLine
 10
102.111572
 20
92.855553
 30
0.0
 11
102.111572
 21
93.070213
 31
0.0
210
0.0
220
0.0
230
1.0
  0
LINE
  5
204
100
AcDbEntity
  8
0
370
    35
390
0
 62
     7
 48
0.040764
100
AcDbLine
 10
92.111572
 20
105.240883
 30
0.0
 11
92.111572
 21
103.610321
 31
0.0
210
0.0
220
0.0
230
1.0
  0
LINE
  5
205
100
AcDbEntity
  8
0
370
    35
390
0
 62
     7
 48
0.25
100
AcDbLine
 10
92.111572
 20
105.240883
 30
0.0
 11
102.111572
 21
105.240883
 31
0.0
210
0.0
220
0.0
230
1.0
  0
LINE
  5
206
100
AcDbEntity
  8
0
370
    35
390
0
 62
     7
 48
0.013034
100
AcDbLine
 10
102.111572
 20
103.610321
 30
0.0
 11
101.611572
 21
103.757965
 31
0.0
210
0.0
220
0.0
230
1.0
  0
LINE
  5
207
100
AcDbEntity
  8
0
370
    35
390
0
 62
     7
 48
0.064212
100
AcDbLine
 10
101.611572
 20
101.189468
 30
0.0
 11
101.611572
 21
103.757965
 31
0.0
210
0.0
220
0.0
230
1.0
  0
LINE
  5
208
100
AcDbEntity
  8
0
370
    35
390
0
 62
     7
 48
0.01606
100
AcDbLine
 10
102.111572
 20
100.78611
 30
0.0
 11
101.611572
 21
101.189468
 31
0.0
210
0.0
220
0.0
230
1.0
  0
LINE
  5
209
100
AcDbEntity
  8
0
370
    35
390
0
 62
     7
 48
0.004092
100
AcDbLine
 10
101.611572
 20
105.791885
 30
0.0
 11
101.611572
 21
105.955551
 31
0.0
210
0.0
220
0.0
230
1.0
  0
ARC
  5
20A
100
AcDbEntity
  8
0
370
    35
390
0
 62
     7
100
AcDbCircle
 10
53.800819
 20
61.901649
 30
0.0
 40
64.901613
210
0.0
220
0.0
230
1.0
100
AcDbArc
 50
41.895052
 51
42.551911
  0
LINE
  5
20B
100
AcDbEntity
  8
0
370
    35
390
0
 62
     7
 48
0.225
100
AcDbLine
 10
92.611572
 20
101.189468
 30
0.0
 11
101.611572
 21
101.189468
 31
0.0
210
0.0
220
0.0
230
1.0
  0
LINE
  5
20C
100
AcDbEntity
  8
0
370
    35
390
0
 62
     7
 48
0.01606
100
AcDbLine
 10
92.111572
 20
100.78611
 30
0.0
 11
92.611572
 21
101.189468
 31
0.0
210
0.0
220
0.0
230
1.0
  0
LINE
  5
20D
100
AcDbEntity
  8
0
370
    35
390
0
 62
     7
 48
0.007259
100
AcDbLine
 10
92.111572
 20
97.524986
 30
0.0
 11
92.111572
 21
97.234612
 31
0.0
210
0.0
220
0.0
230
1.0
  0
LINE
  5
20E
100
AcDbEntity
  8
0
370
    35
390
0
 62
     7
 48
0.007259
100
AcDbLine
 10
92.111572
 20
100.78611
 30
0.0
 11
92.111572
 21
101.076485
 31
0.0
210
0.0
220
0.0
230
1.0
  0
LINE
  5
20F
100
AcDbEntity
  8
0
370
    35
390
0
 62
     7
 48
0.01606
100
AcDbLine
 10
92.111572
 20
97.524986
 30
0.0
 11
92.611572
 21
97.121628
 31
0.0
210
0.0
220
0.0
230
1.0
  0
LINE
  5
210
100
AcDbEntity
  8
0
370
    35
390
0
 62
     7
 48
0.225
100
AcDbLine
 10
92.611572
 20
97.121628
 30
0.0
 11
101.611572
 21
97.121628
 31
0.0
210
0.0
220
0.0
230
1.0
  0
LINE
  5
211
100
AcDbEntity
  8
0
370
    35
390
0
 62
     7
 48
0.01606
100
AcDbLine
 10
102.111572
 20
97.524986
 30
0.0
 11
101.611572
 21
97.121628
 31
0.0
210
0.0
220
0.0
230
1.0
  0
LINE
  5
212
100
AcDbEntity
  8
0
370
    35
390
0
 62
     7
 48
0.064212
100
AcDbLine
 10
101.611572
 20
94.553139
 30
0.0
 11
101.611572
 21
97.121628
 31
0.0
210
0.0
220
0.0
230
1.0
  0
LINE
  5
213
100
AcDbEntity
  8
0
370
    35
390
0
 62
     7
 48
0.013034
100
AcDbLine
 10
102.111572
 20
94.700775
 30
0.0
 11
101.611572
 21
94.553139
 31
0.0
210
0.0
220
0.0
230
1.0
  0
LINE
  5
214
100
AcDbEntity
  8
0
370
    35
390
0
 62
     7
 48
0.225
100
AcDbLine
 10
92.611572
 20
94.553139
 30
0.0
 11
101.611572
 21
94.553139
 31
0.0
210
0.0
220
0.0
230
1.0
  0
LINE
  5
215
100
AcDbEntity
  8
0
370
    35
390
0
 62
     7
 48
0.013034
100
AcDbLine
 10
92.111572
 20
94.700775
 30
0.0
 11
92.611572
 21
94.553139
 31
0.0
210
0.0
220
0.0
230
1.0
  0
LINE
  5
216
100
AcDbEntity
  8
0
370
    35
390
0
 62
     7
 48
0.001782
100
AcDbLine
 10
92.111572
 20
93.070213
 30
0.0
 11
92.111572
 21
92.998932
 31
0.0
210
0.0
220
0.0
230
1.0
  0
LINE
  5
217
100
AcDbEntity
  8
0
370
    35
390
0
 62
     7
 48
0.005477
100
AcDbLine
 10
92.111572
 20
94.919868
 30
0.0
 11
92.111572
 21
94.700775
 31
0.0
210
0.0
220
0.0
230
1.0
  0
ARC
  5
218
100
AcDbEntity
  8
0
370
    35
390
0
 62
     7
100
AcDbCircle
 10
140.422333
 20
136.409454
 30
0.0
 40
64.901613
210
0.0
220
0.0
230
1.0
100
AcDbArc
 50
221.89505
 51
222.55191
  0
LINE
  5
219
100
AcDbEntity
  8
0
370
    35
390
0
 62
     7
 48
0.225
100
AcDbLine
 10
92.611572
 20
92.519211
 30
0.0
 11
101.611572
 21
92.519211
 31
0.0
210
0.0
220
0.0
230
1.0
  0
ARC
  5
21A
100
AcDbEntity
  8
0
370
    35
390
0
 62
     7
100
AcDbCircle
 10
53.800819
 20
136.409454
 30
0.0
 40
64.901613
210
0.0
220
0.0
230
1.0
100
AcDbArc
 50
317.448089
 51
318.104948
  0
LINE
  5
21B
100
AcDbEntity
  8
0
370
    35
390
0
 62
     7
 48
0.004091
100
AcDbLine
 10
101.611572
 20
92.355553
 30
0.0
 11
101.611572
 21
92.519211
 31
0.0
210
0.0
220
0.0
230
1.0
  0
LINE
  5
21C
100
AcDbEntity
  8
0
370
    35
390
0
 62
     7
 48
0.005477
100
AcDbLine
 10
92.111572
 20
103.391235
 30
0.0
 11
92.111572
 21
103.610321
 31
0.0
210
0.0
220
0.0
230
1.0
  0
LINE
  5
21D
100
AcDbEntity
  8
0
370
    35
390
0
 62
     7
 48
0.001782
100
AcDbLine
 10
92.111572
 20
105.312172
 30
0.0
 11
92.111572
 21
105.240883
 31
0.0
210
0.0
220
0.0
230
1.0
  0
LINE
  5
21E
100
AcDbEntity
  8
0
370
    35
390
0
 62
     7
 48
0.013034
100
AcDbLine
 10
92.111572
 20
103.610321
 30
0.0
 11
92.611572
 21
103.757965
 31
0.0
210
0.0
220
0.0
230
1.0
  0
LINE
  5
21F
100
AcDbEntity
  8
0
370
    35
390
0
 62
     7
 48
0.225
100
AcDbLine
 10
92.611572
 20
103.757965
 30
0.0
 11
101.611572
 21
103.757965
 31
0.0
210
0.0
220
0.0
230
1.0
  0
LINE
  5
220
100
AcDbEntity
  8
0
370
    35
390
0
 62
     7
 48
0.225
100
AcDbLine
 10
92.611572
 20
105.791885
 30
0.0
 11
101.611572
 21
105.791885
 31
0.0
210
0.0
220
0.0
230
1.0
  0
ARC
  5
221
100
AcDbEntity
  8
0
370
    35
390
0
 62
     7
100
AcDbCircle
 10
140.422333
 20
61.901649
 30
0.0
 40
64.901613
210
0.0
220
0.0
230
1.0
100
AcDbArc
 50
137.44809
 51
138.10495
  0
LINE
  5
222
100
AcDbEntity
  8
0
370
    35
390
0
 62
     7
 48
0.064212
100
AcDbLine
 10
92.611572
 20
101.189468
 30
0.0
 11
92.611572
 21
103.757965
 31
0.0
210
0.0
220
0.0
230
1.0
  0
LINE
  5
223
100
AcDbEntity
  8
0
370
    35
390
0
 62
     7
 48
0.003584
100
AcDbLine
 10
92.111572
 20
105.312172
 30
0.0
 11
92.111572
 21
105.455551
 31
0.0
210
0.0
220
0.0
230
1.0
  0
LINE
  5
224
100
AcDbEntity
  8
0
370
    35
390
0
 62
     7
 48
0.004092
100
AcDbLine
 10
92.611572
 20
105.791885
 30
0.0
 11
92.611572
 21
105.955551
 31
0.0
210
0.0
220
0.0
230
1.0
  0
LINE
  5
225
100
AcDbEntity
  8
0
370
    35
390
0
 62
     7
 48
0.057869
100
AcDbLine
 10
92.111572
 20
101.076485
 30
0.0
 11
92.111572
 21
103.391235
 31
0.0
210
0.0
220
0.0
230
1.0
  0
LINE
  5
226
100
AcDbEntity
  8
0
370
    35
390
0
 62
     7
 48
0.057869
100
AcDbLine
 10
92.111572
 20
94.919868
 30
0.0
 11
92.111572
 21
97.234612
 31
0.0
210
0.0
220
0.0
230
1.0
  0
LINE
  5
227
100
AcDbEntity
  8
0
370
    35
390
0
 62
     7
 48
0.064212
100
AcDbLine
 10
92.611572
 20
94.553139
 30
0.0
 11
92.611572
 21
97.121628
 31
0.0
210
0.0
220
0.0
230
1.0
  0
LINE
  5
228
100
AcDbEntity
  8
0
370
    35
390
0
 62
     7
 48
0.169221
100
AcDbLine
 10
85.342743
 20
101.076485
 30
0.0
 11
92.111572
 21
101.076485
 31
0.0
210
0.0
220
0.0
230
1.0
  0
LINE
  5
229
100
AcDbEntity
  8
0
370
    35
390
0
 62
     7
 48
0.169221
100
AcDbLine
 10
85.342743
 20
97.234612
 30
0.0
 11
92.111572
 21
97.234612
 31
0.0
210
0.0
220
0.0
230
1.0
  0
ARC
  5
22A
100
AcDbEntity
  8
0
370
    35
390
0
 62
     7
100
AcDbCircle
 10
95.669067
 20
99.155548
 30
0.0
 40
10.504192
210
0.0
220
0.0
230
1.0
100
AcDbArc
 50
169.462089
 51
190.537884
  0
LINE
  5
22B
100
AcDbEntity
  8
0
370
    35
390
0
 62
     7
 48
0.169221
100
AcDbLine
 10
85.342743
 20
94.919868
 30
0.0
 11
92.111572
 21
94.919868
 31
0.0
210
0.0
220
0.0
230
1.0
  0
LINE
  5
22C
100
AcDbEntity
  8
0
370
    35
390
0
 62
     7
 48
0.169221
100
AcDbLine
 10
85.342743
 20
92.998932
 30
0.0
 11
92.111572
 21
92.998932
 31
0.0
210
0.0
220
0.0
230
1.0
  0
ARC
  5
22D
100
AcDbEntity
  8
0
370
    35
390
0
 62
     7
100
AcDbCircle
 10
87.857162
 20
93.959396
 30
0.0
 40
2.691781
210
0.0
220
0.0
230
1.0
100
AcDbArc
 50
159.093943
 51
200.906016
  0
LINE
  5
22E
100
AcDbEntity
  8
0
370
    35
390
0
 62
     7
 48
0.003584
100
AcDbLine
 10
92.111572
 20
92.855553
 30
0.0
 11
92.111572
 21
92.998932
 31
0.0
210
0.0
220
0.0
230
1.0
  0
LINE
  5
22F
100
AcDbEntity
  8
0
370
    35
390
0
 62
     7
 48
0.004091
100
AcDbLine
 10
92.611572
 20
92.355553
 30
0.0
 11
92.611572
 21
92.519211
 31
0.0
210
0.0
220
0.0
230
1.0
  0
LINE
  5
230
100
AcDbEntity
  8
0
370
    35
390
0
 62
     7
 48
0.169221
100
AcDbLine
 10
85.342743
 20
105.312172
 30
0.0
 11
92.111572
 21
105.312172
 31
0.0
210
0.0
220
0.0
230
1.0
  0
LINE
  5
231
100
AcDbEntity
  8
0
370
    35
390
0
 62
     7
 48
0.169221
100
AcDbLine
 10
85.342743
 20
103.391235
 30
0.0
 11
92.111572
 21
103.391235
 31
0.0
210
0.0
220
0.0
230
1.0
  0
ARC
  5
232
100
AcDbEntity
  8
0
370
    35
390
0
 62
     7
100
AcDbCircle
 10
87.857162
 20
104.3517
 30
0.0
 40
2.691781
210
0.0
220
0.0
230
1.0
100
AcDbArc
 50
159.093943
 51
200.906016
  0
LINE
  5
233
100
AcDbEntity
  8
0
370
    35
390
0
 62
     7
 48
0.003584
100
AcDbLine
 10
85.342743
 20
105.312172
 30
0.0
 11
85.342743
 21
105.455551
 31
0.0
210
0.0
220
0.0
230
1.0
  0
LINE
  5
234
100
AcDbEntity
  8
0
370
    35
390
0
 62
     7
 48
0.218215
100
AcDbLine
 10
85.111572
 20
96.326935
 30
0.0
 11
85.111572
 21
105.05555
 31
0.0
210
0.0
220
0.0
230
1.0
  0
LINE
  5
235
100
AcDbEntity
  8
0
370
    35
390
0
 62
     7
 48
0.027486
100
AcDbLine
 10
85.342743
 20
96.13517
 30
0.0
 11
85.342743
 21
97.234612
 31
0.0
210
0.0
220
0.0
230
1.0
  0
LINE
  5
236
100
AcDbEntity
  8
0
370
    35
390
0
 62
     7
 48
0.057869
100
AcDbLine
 10
85.342743
 20
101.076485
 30
0.0
 11
85.342743
 21
103.391235
 31
0.0
210
0.0
220
0.0
230
1.0
  0
LINE
  5
237
100
AcDbEntity
  8
0
370
    35
390
0
 62
     7
 48
0.030383
100
AcDbLine
 10
85.342743
 20
96.13517
 30
0.0
 11
85.342743
 21
94.919868
 31
0.0
210
0.0
220
0.0
230
1.0
  0
LINE
  5
238
100
AcDbEntity
  8
0
370
    35
390
0
 62
     7
 48
0.003584
100
AcDbLine
 10
85.342743
 20
92.855553
 30
0.0
 11
85.342743
 21
92.998932
 31
0.0
210
0.0
220
0.0
230
1.0
  0
LINE
  5
239
100
AcDbEntity
  8
0
370
    35
390
0
 62
     7
 48
0.076785
100
AcDbLine
 10
85.111572
 20
93.255547
 30
0.0
 11
85.111572
 21
96.326935
 31
0.0
210
0.0
220
0.0
230
1.0
  0
ARC
  5
23A
100
AcDbEntity
  8
0
370
    35
390
0
 62
     7
100
AcDbCircle
 10
70.11158
 20
24.155548
 30
0.0
 40
78.400003
210
0.0
220
0.0
230
1.0
100
AcDbArc
 50
92.192971
 51
179.999991
  0
ARC
  5
23B
100
AcDbEntity
  8
0
370
    35
390
0
 62
     7
100
AcDbCircle
 10
70.111618
 20
24.159386
 30
0.0
 40
78.396164
210
0.0
220
0.0
230
1.0
100
AcDbArc
 50
90.00003
 51
90.730894
  0
ARC
  5
23C
100
AcDbEntity
  8
0
370
    35
390
0
 62
     7
100
AcDbCircle
 10
70.111572
 20
24.155548
 30
0.0
 40
71.600002
210
0.0
220
0.0
230
1.0
100
AcDbArc
 50
92.401354
 51
180.000005
  0
ARC
  5
23D
100
AcDbEntity
  8
0
370
    35
390
0
 62
     7
100
AcDbCircle
 10
70.111626
 20
24.157753
 30
0.0
 40
71.597796
210
0.0
220
0.0
230
1.0
100
AcDbArc
 50
90.000037
 51
90.800303
  0
LINE
  5
23E
100
AcDbEntity
  8
0
370
    35
390
0
 62
     7
 48
0.025
100
AcDbLine
 10
71.311569
 20
102.55555
 30
0.0
 11
72.311569
 21
102.55555
 31
0.0
210
0.0
220
0.0
230
1.0
  0
LINE
  5
23F
100
AcDbEntity
  8
0
370
    35
390
0
 62
     7
 48
0.025
100
AcDbLine
 10
73.511574
 20
102.55555
 30
0.0
 11
74.511574
 21
102.55555
 31
0.0
210
0.0
220
0.0
230
1.0
  0
LINE
  5
240
100
AcDbEntity
  8
0
370
    35
390
0
 62
     7
 48
0.25
100
AcDbLine
 10
-8.288429
 20
14.155548
 30
0.0
 11
-8.288429
 21
24.155548
 31
0.0
210
0.0
220
0.0
230
1.0
  0
LINE
  5
241
100
AcDbEntity
  8
0
370
    35
390
0
 62
     7
 48
0.025
100
AcDbLine
 10
71.311569
 20
95.755547
 30
0.0
 11
72.311569
 21
95.755547
 31
0.0
210
0.0
220
0.0
230
1.0
  0
LINE
  5
242
100
AcDbEntity
  8
0
370
    35
390
0
 62
     7
 48
0.025
100
AcDbLine
 10
73.511574
 20
95.755547
 30
0.0
 11
74.511574
 21
95.755547
 31
0.0
210
0.0
220
0.0
230
1.0
  0
LINE
  5
243
100
AcDbEntity
  8
0
370
    35
390
0
 62
     7
 48
0.25
100
AcDbLine
 10
-1.488426
 20
14.155548
 30
0.0
 11
-1.488426
 21
24.155548
 31
0.0
210
0.0
220
0.0
230
1.0
  0
LINE
  5
244
100
AcDbEntity
  8
0
370
    35
390
0
 62
     7
 48
0.050098
100
AcDbLine
 10
67.111572
 20
103.405548
 30
0.0
 11
69.111572
 21
103.530548
 31
0.0
210
0.0
220
0.0
230
1.0
  0
LINE
  5
245
100
AcDbEntity
  8
0
370
    35
390
0
 62
     7
 48
0.030059
100
AcDbLine
 10
70.111572
 20
103.593048
 30
0.0
 11
71.311577
 21
103.668053
 31
0.0
210
0.0
220
0.0
230
1.0
  0
LINE
  5
246
100
AcDbEntity
  8
0
370
    35
390
0
 62
     7
 48
0.030058
100
AcDbLine
 10
72.311577
 20
103.730553
 30
0.0
 11
73.511574
 21
103.80555
 31
0.0
210
0.0
220
0.0
230
1.0
  0
LINE
  5
247
100
AcDbEntity
  8
0
370
    35
390
0
 62
     7
 48
0.115224
100
AcDbLine
 10
74.511574
 20
103.86805
 30
0.0
 11
79.111572
 21
104.155548
 31
0.0
210
0.0
220
0.0
230
1.0
  0
LINE
  5
248
100
AcDbEntity
  8
0
370
    35
390
0
 62
     7
 48
0.050098
100
AcDbLine
 10
67.111572
 20
94.905548
 30
0.0
 11
69.111572
 21
94.780548
 31
0.0
210
0.0
220
0.0
230
1.0
  0
LINE
  5
249
100
AcDbEntity
  8
0
370
    35
390
0
 62
     7
 48
0.030059
100
AcDbLine
 10
70.111572
 20
94.718048
 30
0.0
 11
71.311577
 21
94.643051
 31
0.0
210
0.0
220
0.0
230
1.0
  0
LINE
  5
24A
100
AcDbEntity
  8
0
370
    35
390
0
 62
     7
 48
0.030058
100
AcDbLine
 10
72.311577
 20
94.580551
 30
0.0
 11
73.511574
 21
94.505547
 31
0.0
210
0.0
220
0.0
230
1.0
  0
LINE
  5
24B
100
AcDbEntity
  8
0
370
    35
390
0
 62
     7
 48
0.115224
100
AcDbLine
 10
74.511574
 20
94.443047
 30
0.0
 11
79.111572
 21
94.155548
 31
0.0
210
0.0
220
0.0
230
1.0
  0
LINE
  5
24C
100
AcDbEntity
  8
0
370
    35
390
0
 62
     7
 48
0.026101
100
AcDbLine
 10
79.111572
 20
104.155548
 30
0.0
 11
80.111572
 21
104.455551
 31
0.0
210
0.0
220
0.0
230
1.0
  0
LINE
  5
24D
100
AcDbEntity
  8
0
370
    35
390
0
 62
     7
 48
0.026101
100
AcDbLine
 10
79.111572
 20
94.155548
 30
0.0
 11
80.111572
 21
93.855553
 31
0.0
210
0.0
220
0.0
230
1.0
  0
LINE
  5
24E
100
AcDbEntity
  8
0
370
    35
390
0
 62
     7
 48
0.125
100
AcDbLine
 10
80.111572
 20
94.155548
 30
0.0
 11
85.111572
 21
94.155548
 31
0.0
210
0.0
220
0.0
230
1.0
  0
LINE
  5
24F
100
AcDbEntity
  8
0
370
    35
390
0
 62
     7
 48
0.125
100
AcDbLine
 10
80.111572
 20
104.155548
 30
0.0
 11
85.111572
 21
104.155548
 31
0.0
210
0.0
220
0.0
230
1.0
  0
LINE
  5
250
100
AcDbEntity
  8
0
370
    35
390
0
 62
     7
 48
0.025
100
AcDbLine
 10
102.111572
 20
92.855553
 30
0.0
 11
103.111572
 21
92.855553
 31
0.0
210
0.0
220
0.0
230
1.0
  0
LINE
  5
251
100
AcDbEntity
  8
0
370
    35
390
0
 62
     7
 48
0.025
100
AcDbLine
 10
102.111572
 20
105.455551
 30
0.0
 11
103.111572
 21
105.455551
 31
0.0
210
0.0
220
0.0
230
1.0
  0
LINE
  5
252
100
AcDbEntity
  8
0
370
    35
390
0
 62
     7
 48
0.017678
100
AcDbLine
 10
102.111572
 20
105.455551
 30
0.0
 11
101.611572
 21
105.955551
 31
0.0
210
0.0
220
0.0
230
1.0
  0
LINE
  5
253
100
AcDbEntity
  8
0
370
    35
390
0
 62
     7
 48
0.017678
100
AcDbLine
 10
102.111572
 20
92.855553
 30
0.0
 11
101.611572
 21
92.355553
 31
0.0
210
0.0
220
0.0
230
1.0
  0
LINE
  5
254
100
AcDbEntity
  8
0
370
    35
390
0
 62
     7
 48
0.017678
100
AcDbLine
 10
92.111572
 20
105.455551
 30
0.0
 11
92.611572
 21
105.955551
 31
0.0
210
0.0
220
0.0
230
1.0
  0
LINE
  5
255
100
AcDbEntity
  8
0
370
    35
390
0
 62
     7
 48
0.225
100
AcDbLine
 10
92.611572
 20
105.955551
 30
0.0
 11
101.611572
 21
105.955551
 31
0.0
210
0.0
220
0.0
230
1.0
  0
LINE
  5
256
100
AcDbEntity
  8
0
370
    35
390
0
 62
     7
 48
0.017678
100
AcDbLine
 10
92.111572
 20
92.855553
 30
0.0
 11
92.611572
 21
92.355553
 31
0.0
210
0.0
220
0.0
230
1.0
  0
LINE
  5
257
100
AcDbEntity
  8
0
370
    35
390
0
 62
     7
 48
0.225
100
AcDbLine
 10
92.611572
 20
92.355553
 30
0.0
 11
101.611572
 21
92.355553
 31
0.0
210
0.0
220
0.0
230
1.0
  0
LINE
  5
258
100
AcDbEntity
  8
0
370
    35
390
0
 62
     7
 48
0.169221
100
AcDbLine
 10
85.342743
 20
105.455551
 30
0.0
 11
92.111572
 21
105.455551
 31
0.0
210
0.0
220
0.0
230
1.0
  0
ARC
  5
259
100
AcDbEntity
  8
0
370
    35
390
0
 62
     7
100
AcDbCircle
 10
90.418175
 20
102.255547
 30
0.0
 40
6.000002
210
0.0
220
0.0
230
1.0
100
AcDbArc
 50
147.769053
 51
152.18186
  0
LINE
  5
25A
100
AcDbEntity
  8
0
370
    35
390
0
 62
     7
 48
0.169221
100
AcDbLine
 10
85.342743
 20
92.855553
 30
0.0
 11
92.111572
 21
92.855553
 31
0.0
210
0.0
220
0.0
230
1.0
  0
ARC
  5
25B
100
AcDbEntity
  8
0
370
    35
390
0
 62
     7
100
AcDbCircle
 10
90.418175
 20
96.05555
 30
0.0
 40
6.000002
210
0.0
220
0.0
230
1.0
100
AcDbArc
 50
207.81814
 51
212.230947
  0
CIRCLE
  5
25C
100
AcDbEntity
  8
0
370
    35
390
0
 62
     7
100
AcDbCircle
 10
141.611572
 20
155.455551
 30
0.0
 40
3.5
210
0.0
220
0.0
230
1.0
  0
CIRCLE
  5
25D
100
AcDbEntity
  8
0
370
    35
390
0
 62
     7
100
AcDbCircle
 10
241.611572
 20
155.455551
 30
0.0
 40
3.5
210
0.0
220
0.0
230
1.0
  0
CIRCLE
  5
25E
100
AcDbEntity
  8
0
370
    35
390
0
 62
     7
100
AcDbCircle
 10
341.611572
 20
155.455551
 30
0.0
 40
3.5
210
0.0
220
0.0
230
1.0
  0
CIRCLE
  5
25F
100
AcDbEntity
  8
0
370
    35
390
0
 62
     7
100
AcDbCircle
 10
441.611572
 20
155.455551
 30
0.0
 40
3.5
210
0.0
220
0.0
230
1.0
  0
CIRCLE
  5
260
100
AcDbEntity
  8
0
370
    35
390
0
 62
     7
100
AcDbCircle
 10
541.611572
 20
155.455551
 30
0.0
 40
3.5
210
0.0
220
0.0
230
1.0
  0
LINE
  5
261
100
AcDbEntity
  8
0
370
    35
390
0
 62
     7
100
AcDbLine
 10
109.611572
 20
124.455551
 30
0.0
 11
573.611572
 21
124.455551
 31
0.0
210
0.0
220
0.0
230
1.0
  0
LINE
  5
262
100
AcDbEntity
  8
0
370
    35
390
0
 62
     7
100
AcDbLine
 10
573.611572
 20
162.955551
 30
0.0
 11
109.611572
 21
162.955551
 31
0.0
210
0.0
220
0.0
230
1.0
  0
CIRCLE
  5
263
100
AcDbEntity
  8
0
370
    35
390
0
 62
     7
100
AcDbCircle
 10
441.611572
 20
130.155548
 30
0.0
 40
3.5
210
0.0
220
0.0
230
1.0
  0
CIRCLE
  5
264
100
AcDbEntity
  8
0
370
    35
390
0
 62
     7
100
AcDbCircle
 10
491.611572
 20
152.455551
 30
0.0
 40
3.35
210
0.0
220
0.0
230
1.0
  0
CIRCLE
  5
265
100
AcDbEntity
  8
0
370
    35
390
0
 62
     7
100
AcDbCircle
 10
122.611572
 20
152.455551
 30
0.0
 40
3.35
210
0.0
220
0.0
230
1.0
  0
CIRCLE
  5
266
100
AcDbEntity
  8
0
370
    35
390
0
 62
     7
100
AcDbCircle
 10
560.611572
 20
152.455551
 30
0.0
 40
3.35
210
0.0
220
0.0
230
1.0
  0
CIRCLE
  5
267
100
AcDbEntity
  8
0
370
    35
390
0
 62
     7
100
AcDbCircle
 10
141.611572
 20
155.455551
 30
0.0
 40
5.5
210
0.0
220
0.0
230
1.0
  0
CIRCLE
  5
268
100
AcDbEntity
  8
0
370
    35
390
0
 62
     7
100
AcDbCircle
 10
241.611572
 20
155.455551
 30
0.0
 40
5.5
210
0.0
220
0.0
230
1.0
  0
CIRCLE
  5
269
100
AcDbEntity
  8
0
370
    35
390
0
 62
     7
100
AcDbCircle
 10
341.611572
 20
155.455551
 30
0.0
 40
5.5
210
0.0
220
0.0
230
1.0
  0
CIRCLE
  5
26A
100
AcDbEntity
  8
0
370
    35
390
0
 62
     7
100
AcDbCircle
 10
441.611572
 20
155.455551
 30
0.0
 40
5.5
210
0.0
220
0.0
230
1.0
  0
CIRCLE
  5
26B
100
AcDbEntity
  8
0
370
    35
390
0
 62
     7
100
AcDbCircle
 10
541.611572
 20
155.455551
 30
0.0
 40
5.5
210
0.0
220
0.0
230
1.0
  0
CIRCLE
  5
26C
100
AcDbEntity
  8
0
370
    35
390
0
 62
     7
100
AcDbCircle
 10
141.611572
 20
130.155548
 30
0.0
 40
3.5
210
0.0
220
0.0
230
1.0
  0
CIRCLE
  5
26D
100
AcDbEntity
  8
0
370
    35
390
0
 62
     7
100
AcDbCircle
 10
241.611572
 20
130.155548
 30
0.0
 40
3.5
210
0.0
220
0.0
230
1.0
  0
CIRCLE
  5
26E
100
AcDbEntity
  8
0
370
    35
390
0
 62
     7
100
AcDbCircle
 10
341.611572
 20
130.155548
 30
0.0
 40
3.5
210
0.0
220
0.0
230
1.0
  0
CIRCLE
  5
26F
100
AcDbEntity
  8
0
370
    35
390
0
 62
     7
100
AcDbCircle
 10
541.611572
 20
130.155548
 30
0.0
 40
3.5
210
0.0
220
0.0
230
1.0
  0
CIRCLE
  5
270
100
AcDbEntity
  8
0
370
    35
390
0
 62
     7
100
AcDbCircle
 10
391.611572
 20
152.455551
 30
0.0
 40
3.35
210
0.0
220
0.0
230
1.0
  0
CIRCLE
  5
271
100
AcDbEntity
  8
0
370
    35
390
0
 62
     7
100
AcDbCircle
 10
291.611572
 20
152.455551
 30
0.0
 40
3.35
210
0.0
220
0.0
230
1.0
  0
CIRCLE
  5
272
100
AcDbEntity
  8
0
370
    35
390
0
 62
     7
100
AcDbCircle
 10
191.611572
 20
152.455551
 30
0.0
 40
3.35
210
0.0
220
0.0
230
1.0
  0
LINE
  5
273
100
AcDbEntity
  8
0
370
    35
390
0
 62
     7
100
AcDbLine
 10
109.611572
 20
164.455551
 30
0.0
 11
573.611572
 21
164.455551
 31
0.0
210
0.0
220
0.0
230
1.0
  0
LINE
  5
274
100
AcDbEntity
  8
0
370
    35
390
0
 62
     7
 48
0.1
100
AcDbLine
 10
493.111572
 20
129.955551
 30
0.0
 11
493.111572
 21
125.955551
 31
0.0
210
0.0
220
0.0
230
1.0
  0
ARC
  5
275
100
AcDbEntity
  8
0
370
    35
390
0
 62
     7
100
AcDbCircle
 10
493.611572
 20
129.955551
 30
0.0
 40
0.5
210
0.0
220
0.0
230
1.0
100
AcDbArc
 50
90.000003
 51
179.999995
  0
LINE
  5
276
100
AcDbEntity
  8
0
370
    35
390
0
 62
     7
 48
0.175
100
AcDbLine
 10
493.611572
 20
130.455551
 30
0.0
 11
500.611572
 21
130.455551
 31
0.0
210
0.0
220
0.0
230
1.0
  0
ARC
  5
277
100
AcDbEntity
  8
0
370
    35
390
0
 62
     7
100
AcDbCircle
 10
500.611572
 20
129.955551
 30
0.0
 40
0.5
210
0.0
220
0.0
230
1.0
100
AcDbArc
 50
0.0
 51
90.000003
  0
LINE
  5
278
100
AcDbEntity
  8
0
370
    35
390
0
 62
     7
 48
0.1
100
AcDbLine
 10
501.111572
 20
125.955551
 30
0.0
 11
501.111572
 21
129.955551
 31
0.0
210
0.0
220
0.0
230
1.0
  0
ARC
  5
279
100
AcDbEntity
  8
0
370
    35
390
0
 62
     7
100
AcDbCircle
 10
500.611572
 20
125.955551
 30
0.0
 40
0.5
210
0.0
220
0.0
230
1.0
100
AcDbArc
 50
269.999997
 51
0.0
  0
LINE
  5
27A
100
AcDbEntity
  8
0
370
    35
390
0
 62
     7
 48
0.175
100
AcDbLine
 10
500.611572
 20
125.455551
 30
0.0
 11
493.611572
 21
125.455551
 31
0.0
210
0.0
220
0.0
230
1.0
  0
ARC
  5
27B
100
AcDbEntity
  8
0
370
    35
390
0
 62
     7
100
AcDbCircle
 10
493.611572
 20
125.955551
 30
0.0
 40
0.5
210
0.0
220
0.0
230
1.0
100
AcDbArc
 50
179.999995
 51
269.999997
  0
LINE
  5
27C
100
AcDbEntity
  8
0
370
    35
390
0
 62
     7
 48
0.1
100
AcDbLine
 10
153.111572
 20
129.955551
 30
0.0
 11
153.111572
 21
125.955551
 31
0.0
210
0.0
220
0.0
230
1.0
  0
ARC
  5
27D
100
AcDbEntity
  8
0
370
    35
390
0
 62
     7
100
AcDbCircle
 10
153.611572
 20
129.955551
 30
0.0
 40
0.5
210
0.0
220
0.0
230
1.0
100
AcDbArc
 50
90.000003
 51
179.999995
  0
LINE
  5
27E
100
AcDbEntity
  8
0
370
    35
390
0
 62
     7
 48
0.175
100
AcDbLine
 10
153.611572
 20
130.455551
 30
0.0
 11
160.611572
 21
130.455551
 31
0.0
210
0.0
220
0.0
230
1.0
  0
ARC
  5
27F
100
AcDbEntity
  8
0
370
    35
390
0
 62
     7
100
AcDbCircle
 10
160.611572
 20
129.955551
 30
0.0
 40
0.5
210
0.0
220
0.0
230
1.0
100
AcDbArc
 50
0.0
 51
90.000003
  0
LINE
  5
280
100
AcDbEntity
  8
0
370
    35
390
0
 62
     7
 48
0.1
100
AcDbLine
 10
161.111572
 20
125.955551
 30
0.0
 11
161.111572
 21
129.955551
 31
0.0
210
0.0
220
0.0
230
1.0
  0
ARC
  5
281
100
AcDbEntity
  8
0
370
    35
390
0
 62
     7
100
AcDbCircle
 10
160.611572
 20
125.955551
 30
0.0
 40
0.5
210
0.0
220
0.0
230
1.0
100
AcDbArc
 50
269.999997
 51
0.0
  0
LINE
  5
282
100
AcDbEntity
  8
0
370
    35
390
0
 62
     7
 48
0.175
100
AcDbLine
 10
160.611572
 20
125.455551
 30
0.0
 11
153.611572
 21
125.455551
 31
0.0
210
0.0
220
0.0
230
1.0
  0
ARC
  5
283
100
AcDbEntity
  8
0
370
    35
390
0
 62
     7
100
AcDbCircle
 10
153.611572
 20
125.955551
 30
0.0
 40
0.5
210
0.0
220
0.0
230
1.0
100
AcDbArc
 50
179.999995
 51
269.999997
  0
LINE
  5
284
100
AcDbEntity
  8
0
370
    35
390
0
 62
     7
 48
0.005
100
AcDbLine
 10
575.111572
 20
167.655548
 30
0.0
 11
575.111572
 21
167.455551
 31
0.0
210
0.0
220
0.0
230
1.0
  0
LINE
  5
285
100
AcDbEntity
  8
0
370
    35
390
0
 62
     7
 48
0.0075
100
AcDbLine
 10
575.111572
 20
167.955551
 30
0.0
 11
575.111572
 21
167.655548
 31
0.0
210
0.0
220
0.0
230
1.0
  0
LINE
  5
286
100
AcDbEntity
  8
0
370
    35
390
0
 62
     7
 48
0.005
100
AcDbLine
 10
108.111572
 20
167.655548
 30
0.0
 11
108.111572
 21
167.455551
 31
0.0
210
0.0
220
0.0
230
1.0
  0
LINE
  5
287
100
AcDbEntity
  8
0
370
    35
390
0
 62
     7
 48
0.0075
100
AcDbLine
 10
108.111572
 20
167.955551
 30
0.0
 11
108.111572
 21
167.655548
 31
0.0
210
0.0
220
0.0
230
1.0
  0
LINE
  5
288
100
AcDbEntity
  8
0
370
    35
390
0
 62
     7
100
AcDbLine
 10
109.611572
 20
122.455551
 30
0.0
 11
573.611572
 21
122.455551
 31
0.0
210
0.0
220
0.0
230
1.0
  0
LINE
  5
289
100
AcDbEntity
  8
0
370
    35
390
0
 62
     7
 48
0.099341
100
AcDbLine
 10
498.978149
 20
129.570724
 30
0.0
 11
497.292694
 21
125.972237
 31
0.0
210
0.0
220
0.0
230
1.0
  0
ARC
  5
28A
100
AcDbEntity
  8
0
370
    35
390
0
 62
     7
100
AcDbCircle
 10
497.111572
 20
126.057068
 30
0.0
 40
0.2
210
0.0
220
0.0
230
1.0
100
AcDbArc
 50
205.097648
 51
334.902357
  0
LINE
  5
28B
100
AcDbEntity
  8
0
370
    35
390
0
 62
     7
 48
0.099341
100
AcDbLine
 10
495.244995
 20
129.570724
 30
0.0
 11
496.93045
 21
125.972237
 31
0.0
210
0.0
220
0.0
230
1.0
  0
ARC
  5
28C
100
AcDbEntity
  8
0
370
    35
390
0
 62
     7
100
AcDbCircle
 10
495.426086
 20
129.655548
 30
0.0
 40
0.2
210
0.0
220
0.0
230
1.0
100
AcDbArc
 50
90.000003
 51
205.097648
  0
LINE
  5
28D
100
AcDbEntity
  8
0
370
    35
390
0
 62
     7
 48
0.084274
100
AcDbLine
 10
498.797058
 20
129.855545
 30
0.0
 11
495.426086
 21
129.855545
 31
0.0
210
0.0
220
0.0
230
1.0
  0
ARC
  5
28E
100
AcDbEntity
  8
0
370
    35
390
0
 62
     7
100
AcDbCircle
 10
498.797058
 20
129.655548
 30
0.0
 40
0.2
210
0.0
220
0.0
230
1.0
100
AcDbArc
 50
334.902357
 51
90.000003
  0
LINE
  5
28F
100
AcDbEntity
  8
0
370
    35
390
0
 62
     7
 48
0.099341
100
AcDbLine
 10
158.978165
 20
129.570724
 30
0.0
 11
157.292694
 21
125.972237
 31
0.0
210
0.0
220
0.0
230
1.0
  0
ARC
  5
290
100
AcDbEntity
  8
0
370
    35
390
0
 62
     7
100
AcDbCircle
 10
157.111572
 20
126.057068
 30
0.0
 40
0.2
210
0.0
220
0.0
230
1.0
100
AcDbArc
 50
205.097648
 51
334.902357
  0
LINE
  5
291
100
AcDbEntity
  8
0
370
    35
390
0
 62
     7
 48
0.099341
100
AcDbLine
 10
155.24498
 20
129.570724
 30
0.0
 11
156.93045
 21
125.972237
 31
0.0
210
0.0
220
0.0
230
1.0
  0
ARC
  5
292
100
AcDbEntity
  8
0
370
    35
390
0
 62
     7
100
AcDbCircle
 10
155.426102
 20
129.655548
 30
0.0
 40
0.2
210
0.0
220
0.0
230
1.0
100
AcDbArc
 50
90.000003
 51
205.097648
  0
LINE
  5
293
100
AcDbEntity
  8
0
370
    35
390
0
 62
     7
 48
0.084274
100
AcDbLine
 10
158.797043
 20
129.855545
 30
0.0
 11
155.426102
 21
129.855545
 31
0.0
210
0.0
220
0.0
230
1.0
  0
ARC
  5
294
100
AcDbEntity
  8
0
370
    35
390
0
 62
     7
100
AcDbCircle
 10
158.797043
 20
129.655548
 30
0.0
 40
0.2
210
0.0
220
0.0
230
1.0
100
AcDbArc
 50
334.902357
 51
90.000003
  0
LINE
  5
295
100
AcDbEntity
  8
0
370
    35
390
0
 62
     7
100
AcDbLine
 10
108.111572
 20
167.955551
 30
0.0
 11
575.111572
 21
167.955551
 31
0.0
210
0.0
220
0.0
230
1.0
  0
LINE
  5
296
100
AcDbEntity
  8
0
370
    35
390
0
 62
     7
 48
0.1625
100
AcDbLine
 10
580.111572
 20
167.455551
 30
0.0
 11
573.611572
 21
167.455551
 31
0.0
210
0.0
220
0.0
230
1.0
  0
LINE
  5
297
100
AcDbEntity
  8
0
370
    35
390
0
 62
     7
 48
0.067678
100
AcDbLine
 10
580.611572
 20
164.248444
 30
0.0
 11
580.611572
 21
166.955551
 31
0.0
210
0.0
220
0.0
230
1.0
  0
LINE
  5
298
100
AcDbEntity
  8
0
370
    35
390
0
 62
     7
100
AcDbLine
 10
580.611572
 20
164.248444
 30
0.0
 11
580.611572
 21
121.662659
 31
0.0
210
0.0
220
0.0
230
1.0
  0
LINE
  5
299
100
AcDbEntity
  8
0
370
    35
390
0
 62
     7
 48
0.067678
100
AcDbLine
 10
580.611572
 20
121.662659
 30
0.0
 11
580.611572
 21
118.955551
 31
0.0
210
0.0
220
0.0
230
1.0
  0
LINE
  5
29A
100
AcDbEntity
  8
0
370
    35
390
0
 62
     7
100
AcDbLine
 10
109.611572
 20
118.455551
 30
0.0
 11
573.611572
 21
118.455551
 31
0.0
210
0.0
220
0.0
230
1.0
  0
LINE
  5
29B
100
AcDbEntity
  8
0
370
    35
390
0
 62
     7
 48
0.1625
100
AcDbLine
 10
103.111572
 20
118.455551
 30
0.0
 11
109.611572
 21
118.455551
 31
0.0
210
0.0
220
0.0
230
1.0
  0
LINE
  5
29C
100
AcDbEntity
  8
0
370
    35
390
0
 62
     7
 48
0.1625
100
AcDbLine
 10
580.111572
 20
118.455551
 30
0.0
 11
573.611572
 21
118.455551
 31
0.0
210
0.0
220
0.0
230
1.0
  0
LINE
  5
29D
100
AcDbEntity
  8
0
370
    35
390
0
 62
     7
 48
0.1625
100
AcDbLine
 10
103.111572
 20
167.455551
 30
0.0
 11
109.611572
 21
167.455551
 31
0.0
210
0.0
220
0.0
230
1.0
  0
LINE
  5
29E
100
AcDbEntity
  8
0
370
    35
390
0
 62
     7
 48
0.067678
100
AcDbLine
 10
102.611572
 20
121.662659
 30
0.0
 11
102.611572
 21
118.955551
 31
0.0
210
0.0
220
0.0
230
1.0
  0
LINE
  5
29F
100
AcDbEntity
  8
0
370
    35
390
0
 62
     7
100
AcDbLine
 10
102.611572
 20
164.248444
 30
0.0
 11
102.611572
 21
121.662659
 31
0.0
210
0.0
220
0.0
230
1.0
  0
LINE
  5
2A0
100
AcDbEntity
  8
0
370
    35
390
0
 62
     7
 48
0.067678
100
AcDbLine
 10
102.611572
 20
164.248444
 30
0.0
 11
102.611572
 21
166.955551
 31
0.0
210
0.0
220
0.0
230
1.0
  0
LINE
  5
2A1
100
AcDbEntity
  8
0
370
    35
390
0
 62
     7
 48
0.032907
100
AcDbLine
 10
114.411575
 20
122.455551
 30
0.0
 11
114.411575
 21
121.139282
 31
0.0
210
0.0
220
0.0
230
1.0
  0
LINE
  5
2A2
100
AcDbEntity
  8
0
370
    35
390
0
 62
     7
 48
0.12
100
AcDbLine
 10
114.411575
 20
121.139282
 30
0.0
 11
109.611565
 21
121.139282
 31
0.0
210
0.0
220
0.0
230
1.0
  0
LINE
  5
2A3
100
AcDbEntity
  8
0
370
    35
390
0
 62
     7
 48
0.028081
100
AcDbLine
 10
568.811584
 20
121.332298
 30
0.0
 11
568.811584
 21
122.455551
 31
0.0
210
0.0
220
0.0
230
1.0
  0
LINE
  5
2A4
100
AcDbEntity
  8
0
370
    35
390
0
 62
     7
 48
0.004825
100
AcDbLine
 10
568.811584
 20
121.139282
 30
0.0
 11
568.811584
 21
121.332298
 31
0.0
210
0.0
220
0.0
230
1.0
  0
LINE
  5
2A5
100
AcDbEntity
  8
0
370
    35
390
0
 62
     7
 48
0.003661
100
AcDbLine
 10
573.611572
 20
118.455551
 30
0.0
 11
573.611572
 21
118.601997
 31
0.0
210
0.0
220
0.0
230
1.0
  0
LINE
  5
2A6
100
AcDbEntity
  8
0
370
    35
390
0
 62
     7
 48
0.067678
100
AcDbLine
 10
573.611572
 20
118.601997
 30
0.0
 11
573.611572
 21
121.309105
 31
0.0
210
0.0
220
0.0
230
1.0
  0
LINE
  5
2A7
100
AcDbEntity
  8
0
370
    35
390
0
 62
     7
 48
0.008839
100
AcDbLine
 10
573.611572
 20
121.309105
 30
0.0
 11
573.611572
 21
121.662659
 31
0.0
210
0.0
220
0.0
230
1.0
  0
LINE
  5
2A8
100
AcDbEntity
  8
0
370
    35
390
0
 62
     7
100
AcDbLine
 10
573.611572
 20
121.662659
 30
0.0
 11
573.611572
 21
164.248444
 31
0.0
210
0.0
220
0.0
230
1.0
  0
LINE
  5
2A9
100
AcDbEntity
  8
0
370
    35
390
0
 62
     7
 48
0.008839
100
AcDbLine
 10
573.611572
 20
164.248444
 30
0.0
 11
573.611572
 21
164.602005
 31
0.0
210
0.0
220
0.0
230
1.0
  0
LINE
  5
2AA
100
AcDbEntity
  8
0
370
    35
390
0
 62
     7
 48
0.067678
100
AcDbLine
 10
573.611572
 20
164.602005
 30
0.0
 11
573.611572
 21
167.309113
 31
0.0
210
0.0
220
0.0
230
1.0
  0
LINE
  5
2AB
100
AcDbEntity
  8
0
370
    35
390
0
 62
     7
 48
0.003661
100
AcDbLine
 10
573.611572
 20
167.309113
 30
0.0
 11
573.611572
 21
167.455551
 31
0.0
210
0.0
220
0.0
230
1.0
  0
LINE
  5
2AC
100
AcDbEntity
  8
0
370
    35
390
0
 62
     7
 48
0.003661
100
AcDbLine
 10
109.611572
 20
167.309113
 30
0.0
 11
109.611572
 21
167.455551
 31
0.0
210
0.0
220
0.0
230
1.0
  0
LINE
  5
2AD
100
AcDbEntity
  8
0
370
    35
390
0
 62
     7
 48
0.067678
100
AcDbLine
 10
109.611572
 20
164.602005
 30
0.0
 11
109.611572
 21
167.309113
 31
0.0
210
0.0
220
0.0
230
1.0
  0
LINE
  5
2AE
100
AcDbEntity
  8
0
370
    35
390
0
 62
     7
 48
0.008839
100
AcDbLine
 10
109.611572
 20
164.248444
 30
0.0
 11
109.611572
 21
164.602005
 31
0.0
210
0.0
220
0.0
230
1.0
  0
LINE
  5
2AF
100
AcDbEntity
  8
0
370
    35
390
0
 62
     7
100
AcDbLine
 10
109.611572
 20
121.662659
 30
0.0
 11
109.611572
 21
164.248444
 31
0.0
210
0.0
220
0.0
230
1.0
  0
LINE
  5
2B0
100
AcDbEntity
  8
0
370
    35
390
0
 62
     7
 48
0.008839
100
AcDbLine
 10
109.611572
 20
121.309105
 30
0.0
 11
109.611572
 21
121.662659
 31
0.0
210
0.0
220
0.0
230
1.0
  0
LINE
  5
2B1
100
AcDbEntity
  8
0
370
    35
390
0
 62
     7
 48
0.067678
100
AcDbLine
 10
109.611572
 20
118.601997
 30
0.0
 11
109.611572
 21
121.309105
 31
0.0
210
0.0
220
0.0
230
1.0
  0
LINE
  5
2B2
100
AcDbEntity
  8
0
370
    35
390
0
 62
     7
 48
0.003661
100
AcDbLine
 10
109.611572
 20
118.455551
 30
0.0
 11
109.611572
 21
118.601997
 31
0.0
210
0.0
220
0.0
230
1.0
  0
CIRCLE
  5
2B3
100
AcDbEntity
  8
0
370
    35
390
0
 62
     7
100
AcDbCircle
 10
441.611572
 20
130.155548
 30
0.0
 40
3.0
210
0.0
220
0.0
230
1.0
  0
CIRCLE
  5
2B4
100
AcDbEntity
  8
0
370
    35
390
0
 62
     7
100
AcDbCircle
 10
491.611572
 20
152.455551
 30
0.0
 40
3.0
210
0.0
220
0.0
230
1.0
  0
CIRCLE
  5
2B5
100
AcDbEntity
  8
0
370
    35
390
0
 62
     7
100
AcDbCircle
 10
122.611572
 20
152.455551
 30
0.0
 40
3.0
210
0.0
220
0.0
230
1.0
  0
CIRCLE
  5
2B6
100
AcDbEntity
  8
0
370
    35
390
0
 62
     7
100
AcDbCircle
 10
560.611572
 20
152.455551
 30
0.0
 40
3.0
210
0.0
220
0.0
230
1.0
  0
CIRCLE
  5
2B7
100
AcDbEntity
  8
0
370
    35
390
0
 62
     7
100
AcDbCircle
 10
141.611572
 20
130.155548
 30
0.0
 40
3.0
210
0.0
220
0.0
230
1.0
  0
CIRCLE
  5
2B8
100
AcDbEntity
  8
0
370
    35
390
0
 62
     7
100
AcDbCircle
 10
241.611572
 20
130.155548
 30
0.0
 40
3.0
210
0.0
220
0.0
230
1.0
  0
CIRCLE
  5
2B9
100
AcDbEntity
  8
0
370
    35
390
0
 62
     7
100
AcDbCircle
 10
341.611572
 20
130.155548
 30
0.0
 40
3.0
210
0.0
220
0.0
230
1.0
  0
CIRCLE
  5
2BA
100
AcDbEntity
  8
0
370
    35
390
0
 62
     7
100
AcDbCircle
 10
541.611572
 20
130.155548
 30
0.0
 40
3.0
210
0.0
220
0.0
230
1.0
  0
CIRCLE
  5
2BB
100
AcDbEntity
  8
0
370
    35
390
0
 62
     7
100
AcDbCircle
 10
391.611572
 20
152.455551
 30
0.0
 40
3.0
210
0.0
220
0.0
230
1.0
  0
CIRCLE
  5
2BC
100
AcDbEntity
  8
0
370
    35
390
0
 62
     7
100
AcDbCircle
 10
291.611572
 20
152.455551
 30
0.0
 40
3.0
210
0.0
220
0.0
230
1.0
  0
CIRCLE
  5
2BD
100
AcDbEntity
  8
0
370
    35
390
0
 62
     7
100
AcDbCircle
 10
191.611572
 20
152.455551
 30
0.0
 40
3.0
210
0.0
220
0.0
230
1.0
  0
ARC
  5
2BE
100
AcDbEntity
  8
0
370
    35
390
0
 62
     7
100
AcDbCircle
 10
580.111572
 20
166.955551
 30
0.0
 40
0.5
210
0.0
220
0.0
230
1.0
100
AcDbArc
 50
0.0
 51
90.000003
  0
ARC
  5
2BF
100
AcDbEntity
  8
0
370
    35
390
0
 62
     7
100
AcDbCircle
 10
580.111572
 20
118.955551
 30
0.0
 40
0.5
210
0.0
220
0.0
230
1.0
100
AcDbArc
 50
269.999997
 51
0.0
  0
ARC
  5
2C0
100
AcDbEntity
  8
0
370
    35
390
0
 62
     7
100
AcDbCircle
 10
103.111572
 20
118.955551
 30
0.0
 40
0.5
210
0.0
220
0.0
230
1.0
100
AcDbArc
 50
179.999995
 51
269.999997
  0
ARC
  5
2C1
100
AcDbEntity
  8
0
370
    35
390
0
 62
     7
100
AcDbCircle
 10
103.111572
 20
166.955551
 30
0.0
 40
0.5
210
0.0
220
0.0
230
1.0
100
AcDbArc
 50
90.000003
 51
179.999995
  0
LINE
  5
2C2
100
AcDbEntity
  8
0
370
    35
390
0
 62
     7
 48
0.12
100
AcDbLine
 10
568.811584
 20
121.139282
 30
0.0
 11
573.611572
 21
121.139282
 31
0.0
210
0.0
220
0.0
230
1.0
  0
LINE
  5
2C3
100
AcDbEntity
  8
0
370
    35
390
0
 62
     7
 48
0.02
100
AcDbLine
 10
492.011566
 20
154.205551
 30
0.0
 11
491.211578
 21
154.205551
 31
0.0
210
0.0
220
0.0
230
1.0
  0
LINE
  5
2C4
100
AcDbEntity
  8
0
370
    35
390
0
 62
     7
 48
0.01625
100
AcDbLine
 10
491.211578
 20
154.205551
 30
0.0
 11
491.211578
 21
153.555557
 31
0.0
210
0.0
220
0.0
230
1.0
  0
ARC
  5
2C5
100
AcDbEntity
  8
0
370
    35
390
0
 62
     7
100
AcDbCircle
 10
490.511566
 20
153.555557
 30
0.0
 40
0.7
210
0.0
220
0.0
230
1.0
100
AcDbArc
 50
269.999997
 51
0.0
  0
LINE
  5
2C6
100
AcDbEntity
  8
0
370
    35
390
0
 62
     7
 48
0.01625
100
AcDbLine
 10
490.511566
 20
152.855545
 30
0.0
 11
489.861572
 21
152.855545
 31
0.0
210
0.0
220
0.0
230
1.0
  0
LINE
  5
2C7
100
AcDbEntity
  8
0
370
    35
390
0
 62
     7
 48
0.02
100
AcDbLine
 10
489.861572
 20
152.855545
 30
0.0
 11
489.861572
 21
152.055557
 31
0.0
210
0.0
220
0.0
230
1.0
  0
LINE
  5
2C8
100
AcDbEntity
  8
0
370
    35
390
0
 62
     7
 48
0.01625
100
AcDbLine
 10
489.861572
 20
152.055557
 30
0.0
 11
490.511566
 21
152.055557
 31
0.0
210
0.0
220
0.0
230
1.0
  0
ARC
  5
2C9
100
AcDbEntity
  8
0
370
    35
390
0
 62
     7
100
AcDbCircle
 10
490.511566
 20
151.355545
 30
0.0
 40
0.7
210
0.0
220
0.0
230
1.0
100
AcDbArc
 50
0.0
 51
90.000003
  0
LINE
  5
2CA
100
AcDbEntity
  8
0
370
    35
390
0
 62
     7
 48
0.01625
100
AcDbLine
 10
491.211578
 20
151.355545
 30
0.0
 11
491.211578
 21
150.705551
 31
0.0
210
0.0
220
0.0
230
1.0
  0
LINE
  5
2CB
100
AcDbEntity
  8
0
370
    35
390
0
 62
     7
 48
0.02
100
AcDbLine
 10
491.211578
 20
150.705551
 30
0.0
 11
492.011566
 21
150.705551
 31
0.0
210
0.0
220
0.0
230
1.0
  0
LINE
  5
2CC
100
AcDbEntity
  8
0
370
    35
390
0
 62
     7
 48
0.01625
100
AcDbLine
 10
492.011566
 20
150.705551
 30
0.0
 11
492.011566
 21
151.355545
 31
0.0
210
0.0
220
0.0
230
1.0
  0
ARC
  5
2CD
100
AcDbEntity
  8
0
370
    35
390
0
 62
     7
100
AcDbCircle
 10
492.711578
 20
151.355545
 30
0.0
 40
0.7
210
0.0
220
0.0
230
1.0
100
AcDbArc
 50
90.000003
 51
179.999995
  0
LINE
  5
2CE
100
AcDbEntity
  8
0
370
    35
390
0
 62
     7
 48
0.01625
100
AcDbLine
 10
492.711578
 20
152.055557
 30
0.0
 11
493.361572
 21
152.055557
 31
0.0
210
0.0
220
0.0
230
1.0
  0
LINE
  5
2CF
100
AcDbEntity
  8
0
370
    35
390
0
 62
     7
 48
0.02
100
AcDbLine
 10
493.361572
 20
152.055557
 30
0.0
 11
493.361572
 21
152.855545
 31
0.0
210
0.0
220
0.0
230
1.0
  0
LINE
  5
2D0
100
AcDbEntity
  8
0
370
    35
390
0
 62
     7
 48
0.01625
100
AcDbLine
 10
493.361572
 20
152.855545
 30
0.0
 11
492.711578
 21
152.855545
 31
0.0
210
0.0
220
0.0
230
1.0
  0
ARC
  5
2D1
100
AcDbEntity
  8
0
370
    35
390
0
 62
     7
100
AcDbCircle
 10
492.711578
 20
153.555557
 30
0.0
 40
0.7
210
0.0
220
0.0
230
1.0
100
AcDbArc
 50
179.999995
 51
269.999997
  0
LINE
  5
2D2
100
AcDbEntity
  8
0
370
    35
390
0
 62
     7
 48
0.01625
100
AcDbLine
 10
492.011566
 20
153.555557
 30
0.0
 11
492.011566
 21
154.205551
 31
0.0
210
0.0
220
0.0
230
1.0
  0
LINE
  5
2D3
100
AcDbEntity
  8
0
370
    35
390
0
 62
     7
 48
0.02
100
AcDbLine
 10
123.011574
 20
154.205551
 30
0.0
 11
122.211571
 21
154.205551
 31
0.0
210
0.0
220
0.0
230
1.0
  0
LINE
  5
2D4
100
AcDbEntity
  8
0
370
    35
390
0
 62
     7
 48
0.01625
100
AcDbLine
 10
122.211571
 20
154.205551
 30
0.0
 11
122.211571
 21
153.555557
 31
0.0
210
0.0
220
0.0
230
1.0
  0
ARC
  5
2D5
100
AcDbEntity
  8
0
370
    35
390
0
 62
     7
100
AcDbCircle
 10
121.511574
 20
153.555557
 30
0.0
 40
0.7
210
0.0
220
0.0
230
1.0
100
AcDbArc
 50
269.999997
 51
0.0
  0
LINE
  5
2D6
100
AcDbEntity
  8
0
370
    35
390
0
 62
     7
 48
0.01625
100
AcDbLine
 10
121.511574
 20
152.855545
 30
0.0
 11
120.861572
 21
152.855545
 31
0.0
210
0.0
220
0.0
230
1.0
  0
LINE
  5
2D7
100
AcDbEntity
  8
0
370
    35
390
0
 62
     7
 48
0.02
100
AcDbLine
 10
120.861572
 20
152.855545
 30
0.0
 11
120.861572
 21
152.055557
 31
0.0
210
0.0
220
0.0
230
1.0
  0
LINE
  5
2D8
100
AcDbEntity
  8
0
370
    35
390
0
 62
     7
 48
0.01625
100
AcDbLine
 10
120.861572
 20
152.055557
 30
0.0
 11
121.511574
 21
152.055557
 31
0.0
210
0.0
220
0.0
230
1.0
  0
ARC
  5
2D9
100
AcDbEntity
  8
0
370
    35
390
0
 62
     7
100
AcDbCircle
 10
121.511574
 20
151.355545
 30
0.0
 40
0.7
210
0.0
220
0.0
230
1.0
100
AcDbArc
 50
0.0
 51
90.000003
  0
LINE
  5
2DA
100
AcDbEntity
  8
0
370
    35
390
0
 62
     7
 48
0.01625
100
AcDbLine
 10
122.211571
 20
151.355545
 30
0.0
 11
122.211571
 21
150.705551
 31
0.0
210
0.0
220
0.0
230
1.0
  0
LINE
  5
2DB
100
AcDbEntity
  8
0
370
    35
390
0
 62
     7
 48
0.02
100
AcDbLine
 10
122.211571
 20
150.705551
 30
0.0
 11
123.011574
 21
150.705551
 31
0.0
210
0.0
220
0.0
230
1.0
  0
LINE
  5
2DC
100
AcDbEntity
  8
0
370
    35
390
0
 62
     7
 48
0.01625
100
AcDbLine
 10
123.011574
 20
150.705551
 30
0.0
 11
123.011574
 21
151.355545
 31
0.0
210
0.0
220
0.0
230
1.0
  0
ARC
  5
2DD
100
AcDbEntity
  8
0
370
    35
390
0
 62
     7
100
AcDbCircle
 10
123.711571
 20
151.355545
 30
0.0
 40
0.7
210
0.0
220
0.0
230
1.0
100
AcDbArc
 50
90.000003
 51
179.999995
  0
LINE
  5
2DE
100
AcDbEntity
  8
0
370
    35
390
0
 62
     7
 48
0.01625
100
AcDbLine
 10
123.711571
 20
152.055557
 30
0.0
 11
124.361572
 21
152.055557
 31
0.0
210
0.0
220
0.0
230
1.0
  0
LINE
  5
2DF
100
AcDbEntity
  8
0
370
    35
390
0
 62
     7
 48
0.02
100
AcDbLine
 10
124.361572
 20
152.055557
 30
0.0
 11
124.361572
 21
152.855545
 31
0.0
210
0.0
220
0.0
230
1.0
  0
LINE
  5
2E0
100
AcDbEntity
  8
0
370
    35
390
0
 62
     7
 48
0.01625
100
AcDbLine
 10
124.361572
 20
152.855545
 30
0.0
 11
123.711571
 21
152.855545
 31
0.0
210
0.0
220
0.0
230
1.0
  0
ARC
  5
2E1
100
AcDbEntity
  8
0
370
    35
390
0
 62
     7
100
AcDbCircle
 10
123.711571
 20
153.555557
 30
0.0
 40
0.7
210
0.0
220
0.0
230
1.0
100
AcDbArc
 50
179.999995
 51
269.999997
  0
LINE
  5
2E2
100
AcDbEntity
  8
0
370
    35
390
0
 62
     7
 48
0.01625
100
AcDbLine
 10
123.011574
 20
153.555557
 30
0.0
 11
123.011574
 21
154.205551
 31
0.0
210
0.0
220
0.0
230
1.0
  0
LINE
  5
2E3
100
AcDbEntity
  8
0
370
    35
390
0
 62
     7
 48
0.02
100
AcDbLine
 10
561.011536
 20
154.205551
 30
0.0
 11
560.211548
 21
154.205551
 31
0.0
210
0.0
220
0.0
230
1.0
  0
LINE
  5
2E4
100
AcDbEntity
  8
0
370
    35
390
0
 62
     7
 48
0.01625
100
AcDbLine
 10
560.211548
 20
154.205551
 30
0.0
 11
560.211548
 21
153.555557
 31
0.0
210
0.0
220
0.0
230
1.0
  0
ARC
  5
2E5
100
AcDbEntity
  8
0
370
    35
390
0
 62
     7
100
AcDbCircle
 10
559.511536
 20
153.555557
 30
0.0
 40
0.7
210
0.0
220
0.0
230
1.0
100
AcDbArc
 50
269.999997
 51
0.0
  0
LINE
  5
2E6
100
AcDbEntity
  8
0
370
    35
390
0
 62
     7
 48
0.016249
100
AcDbLine
 10
559.511536
 20
152.855545
 30
0.0
 11
558.861572
 21
152.855545
 31
0.0
210
0.0
220
0.0
230
1.0
  0
LINE
  5
2E7
100
AcDbEntity
  8
0
370
    35
390
0
 62
     7
 48
0.02
100
AcDbLine
 10
558.861572
 20
152.855545
 30
0.0
 11
558.861572
 21
152.055557
 31
0.0
210
0.0
220
0.0
230
1.0
  0
LINE
  5
2E8
100
AcDbEntity
  8
0
370
    35
390
0
 62
     7
 48
0.016249
100
AcDbLine
 10
558.861572
 20
152.055557
 30
0.0
 11
559.511536
 21
152.055557
 31
0.0
210
0.0
220
0.0
230
1.0
  0
ARC
  5
2E9
100
AcDbEntity
  8
0
370
    35
390
0
 62
     7
100
AcDbCircle
 10
559.511536
 20
151.355545
 30
0.0
 40
0.7
210
0.0
220
0.0
230
1.0
100
AcDbArc
 50
0.0
 51
90.000003
  0
LINE
  5
2EA
100
AcDbEntity
  8
0
370
    35
390
0
 62
     7
 48
0.01625
100
AcDbLine
 10
560.211548
 20
151.355545
 30
0.0
 11
560.211548
 21
150.705551
 31
0.0
210
0.0
220
0.0
230
1.0
  0
LINE
  5
2EB
100
AcDbEntity
  8
0
370
    35
390
0
 62
     7
 48
0.02
100
AcDbLine
 10
560.211548
 20
150.705551
 30
0.0
 11
561.011536
 21
150.705551
 31
0.0
210
0.0
220
0.0
230
1.0
  0
LINE
  5
2EC
100
AcDbEntity
  8
0
370
    35
390
0
 62
     7
 48
0.01625
100
AcDbLine
 10
561.011536
 20
150.705551
 30
0.0
 11
561.011536
 21
151.355545
 31
0.0
210
0.0
220
0.0
230
1.0
  0
ARC
  5
2ED
100
AcDbEntity
  8
0
370
    35
390
0
 62
     7
100
AcDbCircle
 10
561.711548
 20
151.355545
 30
0.0
 40
0.7
210
0.0
220
0.0
230
1.0
100
AcDbArc
 50
90.000003
 51
179.999995
  0
LINE
  5
2EE
100
AcDbEntity
  8
0
370
    35
390
0
 62
     7
 48
0.016251
100
AcDbLine
 10
561.711548
 20
152.055557
 30
0.0
 11
562.361572
 21
152.055557
 31
0.0
210
0.0
220
0.0
230
1.0
  0
LINE
  5
2EF
100
AcDbEntity
  8
0
370
    35
390
0
 62
     7
 48
0.02
100
AcDbLine
 10
562.361572
 20
152.055557
 30
0.0
 11
562.361572
 21
152.855545
 31
0.0
210
0.0
220
0.0
230
1.0
  0
LINE
  5
2F0
100
AcDbEntity
  8
0
370
    35
390
0
 62
     7
 48
0.016251
100
AcDbLine
 10
562.361572
 20
152.855545
 30
0.0
 11
561.711548
 21
152.855545
 31
0.0
210
0.0
220
0.0
230
1.0
  0
ARC
  5
2F1
100
AcDbEntity
  8
0
370
    35
390
0
 62
     7
100
AcDbCircle
 10
561.711548
 20
153.555557
 30
0.0
 40
0.7
210
0.0
220
0.0
230
1.0
100
AcDbArc
 50
179.999995
 51
269.999997
  0
LINE
  5
2F2
100
AcDbEntity
  8
0
370
    35
390
0
 62
     7
 48
0.01625
100
AcDbLine
 10
561.011536
 20
153.555557
 30
0.0
 11
561.011536
 21
154.205551
 31
0.0
210
0.0
220
0.0
230
1.0
  0
LINE
  5
2F3
100
AcDbEntity
  8
0
370
    35
390
0
 62
     7
 48
0.02
100
AcDbLine
 10
392.011566
 20
154.205551
 30
0.0
 11
391.211578
 21
154.205551
 31
0.0
210
0.0
220
0.0
230
1.0
  0
LINE
  5
2F4
100
AcDbEntity
  8
0
370
    35
390
0
 62
     7
 48
0.01625
100
AcDbLine
 10
391.211578
 20
154.205551
 30
0.0
 11
391.211578
 21
153.555557
 31
0.0
210
0.0
220
0.0
230
1.0
  0
ARC
  5
2F5
100
AcDbEntity
  8
0
370
    35
390
0
 62
     7
100
AcDbCircle
 10
390.511566
 20
153.555557
 30
0.0
 40
0.7
210
0.0
220
0.0
230
1.0
100
AcDbArc
 50
269.999997
 51
0.0
  0
LINE
  5
2F6
100
AcDbEntity
  8
0
370
    35
390
0
 62
     7
 48
0.01625
100
AcDbLine
 10
390.511566
 20
152.855545
 30
0.0
 11
389.861572
 21
152.855545
 31
0.0
210
0.0
220
0.0
230
1.0
  0
LINE
  5
2F7
100
AcDbEntity
  8
0
370
    35
390
0
 62
     7
 48
0.02
100
AcDbLine
 10
389.861572
 20
152.855545
 30
0.0
 11
389.861572
 21
152.055557
 31
0.0
210
0.0
220
0.0
230
1.0
  0
LINE
  5
2F8
100
AcDbEntity
  8
0
370
    35
390
0
 62
     7
 48
0.01625
100
AcDbLine
 10
389.861572
 20
152.055557
 30
0.0
 11
390.511566
 21
152.055557
 31
0.0
210
0.0
220
0.0
230
1.0
  0
ARC
  5
2F9
100
AcDbEntity
  8
0
370
    35
390
0
 62
     7
100
AcDbCircle
 10
390.511566
 20
151.355545
 30
0.0
 40
0.7
210
0.0
220
0.0
230
1.0
100
AcDbArc
 50
0.0
 51
90.000003
  0
LINE
  5
2FA
100
AcDbEntity
  8
0
370
    35
390
0
 62
     7
 48
0.01625
100
AcDbLine
 10
391.211578
 20
151.355545
 30
0.0
 11
391.211578
 21
150.705551
 31
0.0
210
0.0
220
0.0
230
1.0
  0
LINE
  5
2FB
100
AcDbEntity
  8
0
370
    35
390
0
 62
     7
 48
0.02
100
AcDbLine
 10
391.211578
 20
150.705551
 30
0.0
 11
392.011566
 21
150.705551
 31
0.0
210
0.0
220
0.0
230
1.0
  0
LINE
  5
2FC
100
AcDbEntity
  8
0
370
    35
390
0
 62
     7
 48
0.01625
100
AcDbLine
 10
392.011566
 20
150.705551
 30
0.0
 11
392.011566
 21
151.355545
 31
0.0
210
0.0
220
0.0
230
1.0
  0
ARC
  5
2FD
100
AcDbEntity
  8
0
370
    35
390
0
 62
     7
100
AcDbCircle
 10
392.711578
 20
151.355545
 30
0.0
 40
0.7
210
0.0
220
0.0
230
1.0
100
AcDbArc
 50
90.000003
 51
179.999995
  0
LINE
  5
2FE
100
AcDbEntity
  8
0
370
    35
390
0
 62
     7
 48
0.01625
100
AcDbLine
 10
392.711578
 20
152.055557
 30
0.0
 11
393.361572
 21
152.055557
 31
0.0
210
0.0
220
0.0
230
1.0
  0
LINE
  5
2FF
100
AcDbEntity
  8
0
370
    35
390
0
 62
     7
 48
0.02
100
AcDbLine
 10
393.361572
 20
152.055557
 30
0.0
 11
393.361572
 21
152.855545
 31
0.0
210
0.0
220
0.0
230
1.0
  0
LINE
  5
300
100
AcDbEntity
  8
0
370
    35
390
0
 62
     7
 48
0.01625
100
AcDbLine
 10
393.361572
 20
152.855545
 30
0.0
 11
392.711578
 21
152.855545
 31
0.0
210
0.0
220
0.0
230
1.0
  0
ARC
  5
301
100
AcDbEntity
  8
0
370
    35
390
0
 62
     7
100
AcDbCircle
 10
392.711578
 20
153.555557
 30
0.0
 40
0.7
210
0.0
220
0.0
230
1.0
100
AcDbArc
 50
179.999995
 51
269.999997
  0
LINE
  5
302
100
AcDbEntity
  8
0
370
    35
390
0
 62
     7
 48
0.01625
100
AcDbLine
 10
392.011566
 20
153.555557
 30
0.0
 11
392.011566
 21
154.205551
 31
0.0
210
0.0
220
0.0
230
1.0
  0
LINE
  5
303
100
AcDbEntity
  8
0
370
    35
390
0
 62
     7
 48
0.02
100
AcDbLine
 10
292.011566
 20
154.205551
 30
0.0
 11
291.211578
 21
154.205551
 31
0.0
210
0.0
220
0.0
230
1.0
  0
LINE
  5
304
100
AcDbEntity
  8
0
370
    35
390
0
 62
     7
 48
0.01625
100
AcDbLine
 10
291.211578
 20
154.205551
 30
0.0
 11
291.211578
 21
153.555557
 31
0.0
210
0.0
220
0.0
230
1.0
  0
ARC
  5
305
100
AcDbEntity
  8
0
370
    35
390
0
 62
     7
100
AcDbCircle
 10
290.511566
 20
153.555557
 30
0.0
 40
0.7
210
0.0
220
0.0
230
1.0
100
AcDbArc
 50
269.999997
 51
0.0
  0
LINE
  5
306
100
AcDbEntity
  8
0
370
    35
390
0
 62
     7
 48
0.01625
100
AcDbLine
 10
290.511566
 20
152.855545
 30
0.0
 11
289.861572
 21
152.855545
 31
0.0
210
0.0
220
0.0
230
1.0
  0
LINE
  5
307
100
AcDbEntity
  8
0
370
    35
390
0
 62
     7
 48
0.02
100
AcDbLine
 10
289.861572
 20
152.855545
 30
0.0
 11
289.861572
 21
152.055557
 31
0.0
210
0.0
220
0.0
230
1.0
  0
LINE
  5
308
100
AcDbEntity
  8
0
370
    35
390
0
 62
     7
 48
0.01625
100
AcDbLine
 10
289.861572
 20
152.055557
 30
0.0
 11
290.511566
 21
152.055557
 31
0.0
210
0.0
220
0.0
230
1.0
  0
ARC
  5
309
100
AcDbEntity
  8
0
370
    35
390
0
 62
     7
100
AcDbCircle
 10
290.511566
 20
151.355545
 30
0.0
 40
0.7
210
0.0
220
0.0
230
1.0
100
AcDbArc
 50
0.0
 51
90.000003
  0
LINE
  5
30A
100
AcDbEntity
  8
0
370
    35
390
0
 62
     7
 48
0.01625
100
AcDbLine
 10
291.211578
 20
151.355545
 30
0.0
 11
291.211578
 21
150.705551
 31
0.0
210
0.0
220
0.0
230
1.0
  0
LINE
  5
30B
100
AcDbEntity
  8
0
370
    35
390
0
 62
     7
 48
0.02
100
AcDbLine
 10
291.211578
 20
150.705551
 30
0.0
 11
292.011566
 21
150.705551
 31
0.0
210
0.0
220
0.0
230
1.0
  0
LINE
  5
30C
100
AcDbEntity
  8
0
370
    35
390
0
 62
     7
 48
0.01625
100
AcDbLine
 10
292.011566
 20
150.705551
 30
0.0
 11
292.011566
 21
151.355545
 31
0.0
210
0.0
220
0.0
230
1.0
  0
ARC
  5
30D
100
AcDbEntity
  8
0
370
    35
390
0
 62
     7
100
AcDbCircle
 10
292.711578
 20
151.355545
 30
0.0
 40
0.7
210
0.0
220
0.0
230
1.0
100
AcDbArc
 50
90.000003
 51
179.999995
  0
LINE
  5
30E
100
AcDbEntity
  8
0
370
    35
390
0
 62
     7
 48
0.01625
100
AcDbLine
 10
292.711578
 20
152.055557
 30
0.0
 11
293.361572
 21
152.055557
 31
0.0
210
0.0
220
0.0
230
1.0
  0
LINE
  5
30F
100
AcDbEntity
  8
0
370
    35
390
0
 62
     7
 48
0.02
100
AcDbLine
 10
293.361572
 20
152.055557
 30
0.0
 11
293.361572
 21
152.855545
 31
0.0
210
0.0
220
0.0
230
1.0
  0
LINE
  5
310
100
AcDbEntity
  8
0
370
    35
390
0
 62
     7
 48
0.01625
100
AcDbLine
 10
293.361572
 20
152.855545
 30
0.0
 11
292.711578
 21
152.855545
 31
0.0
210
0.0
220
0.0
230
1.0
  0
ARC
  5
311
100
AcDbEntity
  8
0
370
    35
390
0
 62
     7
100
AcDbCircle
 10
292.711578
 20
153.555557
 30
0.0
 40
0.7
210
0.0
220
0.0
230
1.0
100
AcDbArc
 50
179.999995
 51
269.999997
  0
LINE
  5
312
100
AcDbEntity
  8
0
370
    35
390
0
 62
     7
 48
0.01625
100
AcDbLine
 10
292.011566
 20
153.555557
 30
0.0
 11
292.011566
 21
154.205551
 31
0.0
210
0.0
220
0.0
230
1.0
  0
LINE
  5
313
100
AcDbEntity
  8
0
370
    35
390
0
 62
     7
 48
0.02
100
AcDbLine
 10
192.011566
 20
154.205551
 30
0.0
 11
191.211563
 21
154.205551
 31
0.0
210
0.0
220
0.0
230
1.0
  0
LINE
  5
314
100
AcDbEntity
  8
0
370
    35
390
0
 62
     7
 48
0.01625
100
AcDbLine
 10
191.211563
 20
154.205551
 30
0.0
 11
191.211563
 21
153.555557
 31
0.0
210
0.0
220
0.0
230
1.0
  0
ARC
  5
315
100
AcDbEntity
  8
0
370
    35
390
0
 62
     7
100
AcDbCircle
 10
190.511566
 20
153.555557
 30
0.0
 40
0.7
210
0.0
220
0.0
230
1.0
100
AcDbArc
 50
269.999997
 51
0.0
  0
LINE
  5
316
100
AcDbEntity
  8
0
370
    35
390
0
 62
     7
 48
0.01625
100
AcDbLine
 10
190.511566
 20
152.855545
 30
0.0
 11
189.861572
 21
152.855545
 31
0.0
210
0.0
220
0.0
230
1.0
  0
LINE
  5
317
100
AcDbEntity
  8
0
370
    35
390
0
 62
     7
 48
0.02
100
AcDbLine
 10
189.861572
 20
152.855545
 30
0.0
 11
189.861572
 21
152.055557
 31
0.0
210
0.0
220
0.0
230
1.0
  0
LINE
  5
318
100
AcDbEntity
  8
0
370
    35
390
0
 62
     7
 48
0.01625
100
AcDbLine
 10
189.861572
 20
152.055557
 30
0.0
 11
190.511566
 21
152.055557
 31
0.0
210
0.0
220
0.0
230
1.0
  0
ARC
  5
319
100
AcDbEntity
  8
0
370
    35
390
0
 62
     7
100
AcDbCircle
 10
190.511566
 20
151.355545
 30
0.0
 40
0.7
210
0.0
220
0.0
230
1.0
100
AcDbArc
 50
0.0
 51
90.000003
  0
LINE
  5
31A
100
AcDbEntity
  8
0
370
    35
390
0
 62
     7
 48
0.01625
100
AcDbLine
 10
191.211563
 20
151.355545
 30
0.0
 11
191.211563
 21
150.705551
 31
0.0
210
0.0
220
0.0
230
1.0
  0
LINE
  5
31B
100
AcDbEntity
  8
0
370
    35
390
0
 62
     7
 48
0.02
100
AcDbLine
 10
191.211563
 20
150.705551
 30
0.0
 11
192.011566
 21
150.705551
 31
0.0
210
0.0
220
0.0
230
1.0
  0
LINE
  5
31C
100
AcDbEntity
  8
0
370
    35
390
0
 62
     7
 48
0.01625
100
AcDbLine
 10
192.011566
 20
150.705551
 30
0.0
 11
192.011566
 21
151.355545
 31
0.0
210
0.0
220
0.0
230
1.0
  0
ARC
  5
31D
100
AcDbEntity
  8
0
370
    35
390
0
 62
     7
100
AcDbCircle
 10
192.711563
 20
151.355545
 30
0.0
 40
0.7
210
0.0
220
0.0
230
1.0
100
AcDbArc
 50
90.000003
 51
179.999995
  0
LINE
  5
31E
100
AcDbEntity
  8
0
370
    35
390
0
 62
     7
 48
0.01625
100
AcDbLine
 10
192.711563
 20
152.055557
 30
0.0
 11
193.361572
 21
152.055557
 31
0.0
210
0.0
220
0.0
230
1.0
  0
LINE
  5
31F
100
AcDbEntity
  8
0
370
    35
390
0
 62
     7
 48
0.02
100
AcDbLine
 10
193.361572
 20
152.055557
 30
0.0
 11
193.361572
 21
152.855545
 31
0.0
210
0.0
220
0.0
230
1.0
  0
LINE
  5
320
100
AcDbEntity
  8
0
370
    35
390
0
 62
     7
 48
0.01625
100
AcDbLine
 10
193.361572
 20
152.855545
 30
0.0
 11
192.711563
 21
152.855545
 31
0.0
210
0.0
220
0.0
230
1.0
  0
ARC
  5
321
100
AcDbEntity
  8
0
370
    35
390
0
 62
     7
100
AcDbCircle
 10
192.711563
 20
153.555557
 30
0.0
 40
0.7
210
0.0
220
0.0
230
1.0
100
AcDbArc
 50
179.999995
 51
269.999997
  0
LINE
  5
322
100
AcDbEntity
  8
0
370
    35
390
0
 62
     7
 48
0.01625
100
AcDbLine
 10
192.011566
 20
153.555557
 30
0.0
 11
192.011566
 21
154.205551
 31
0.0
210
0.0
220
0.0
230
1.0
  0
LINE
  5
323
100
AcDbEntity
  8
0
370
    35
390
0
 62
     7
 48
0.0775
100
AcDbLine
 10
580.91156
 20
126.705551
 30
0.0
 11
580.91156
 21
129.805557
 31
0.0
210
0.0
220
0.0
230
1.0
  0
LINE
  5
324
100
AcDbEntity
  8
0
370
    35
390
0
 62
     7
 48
0.0075
100
AcDbLine
 10
580.91156
 20
129.805557
 30
0.0
 11
580.611572
 21
129.805557
 31
0.0
210
0.0
220
0.0
230
1.0
  0
LINE
  5
325
100
AcDbEntity
  8
0
370
    35
390
0
 62
     7
 48
0.0075
100
AcDbLine
 10
580.91156
 20
131.105545
 30
0.0
 11
580.611572
 21
131.105545
 31
0.0
210
0.0
220
0.0
230
1.0
  0
LINE
  5
326
100
AcDbEntity
  8
0
370
    35
390
0
 62
     7
 48
0.0775
100
AcDbLine
 10
580.91156
 20
131.105545
 30
0.0
 11
580.91156
 21
134.205551
 31
0.0
210
0.0
220
0.0
230
1.0
  0
LINE
  5
327
100
AcDbEntity
  8
0
370
    35
390
0
 62
     7
 48
0.024689
100
AcDbLine
 10
491.117798
 20
153.205551
 30
0.0
 11
492.105347
 21
153.205551
 31
0.0
210
0.0
220
0.0
230
1.0
  0
LINE
  5
328
100
AcDbEntity
  8
0
370
    35
390
0
 62
     7
 48
0.024689
100
AcDbLine
 10
490.861572
 20
151.961777
 30
0.0
 11
490.861572
 21
152.949341
 31
0.0
210
0.0
220
0.0
230
1.0
  0
LINE
  5
329
100
AcDbEntity
  8
0
370
    35
390
0
 62
     7
 48
0.024689
100
AcDbLine
 10
492.361572
 20
152.949341
 30
0.0
 11
492.361572
 21
151.961777
 31
0.0
210
0.0
220
0.0
230
1.0
  0
LINE
  5
32A
100
AcDbEntity
  8
0
370
    35
390
0
 62
     7
 48
0.024689
100
AcDbLine
 10
492.105347
 20
151.705551
 30
0.0
 11
491.117798
 21
151.705551
 31
0.0
210
0.0
220
0.0
230
1.0
  0
LINE
  5
32B
100
AcDbEntity
  8
0
370
    35
390
0
 62
     7
 48
0.024689
100
AcDbLine
 10
122.11779
 20
153.205551
 30
0.0
 11
123.105354
 21
153.205551
 31
0.0
210
0.0
220
0.0
230
1.0
  0
LINE
  5
32C
100
AcDbEntity
  8
0
370
    35
390
0
 62
     7
 48
0.024689
100
AcDbLine
 10
121.861572
 20
151.961777
 30
0.0
 11
121.861572
 21
152.949341
 31
0.0
210
0.0
220
0.0
230
1.0
  0
LINE
  5
32D
100
AcDbEntity
  8
0
370
    35
390
0
 62
     7
 48
0.024689
100
AcDbLine
 10
123.361572
 20
152.949341
 30
0.0
 11
123.361572
 21
151.961777
 31
0.0
210
0.0
220
0.0
230
1.0
  0
LINE
  5
32E
100
AcDbEntity
  8
0
370
    35
390
0
 62
     7
 48
0.024689
100
AcDbLine
 10
123.105354
 20
151.705551
 30
0.0
 11
122.11779
 21
151.705551
 31
0.0
210
0.0
220
0.0
230
1.0
  0
LINE
  5
32F
100
AcDbEntity
  8
0
370
    35
390
0
 62
     7
 48
0.024689
100
AcDbLine
 10
560.117798
 20
153.205551
 30
0.0
 11
561.105347
 21
153.205551
 31
0.0
210
0.0
220
0.0
230
1.0
  0
LINE
  5
330
100
AcDbEntity
  8
0
370
    35
390
0
 62
     7
 48
0.024689
100
AcDbLine
 10
559.861572
 20
151.961777
 30
0.0
 11
559.861572
 21
152.949341
 31
0.0
210
0.0
220
0.0
230
1.0
  0
LINE
  5
331
100
AcDbEntity
  8
0
370
    35
390
0
 62
     7
 48
0.024689
100
AcDbLine
 10
561.361572
 20
152.949341
 30
0.0
 11
561.361572
 21
151.961777
 31
0.0
210
0.0
220
0.0
230
1.0
  0
LINE
  5
332
100
AcDbEntity
  8
0
370
    35
390
0
 62
     7
 48
0.024689
100
AcDbLine
 10
561.105347
 20
151.705551
 30
0.0
 11
560.117798
 21
151.705551
 31
0.0
210
0.0
220
0.0
230
1.0
  0
LINE
  5
333
100
AcDbEntity
  8
0
370
    35
390
0
 62
     7
 48
0.024689
100
AcDbLine
 10
391.117798
 20
153.205551
 30
0.0
 11
392.105347
 21
153.205551
 31
0.0
210
0.0
220
0.0
230
1.0
  0
LINE
  5
334
100
AcDbEntity
  8
0
370
    35
390
0
 62
     7
 48
0.024689
100
AcDbLine
 10
390.861572
 20
151.961777
 30
0.0
 11
390.861572
 21
152.949341
 31
0.0
210
0.0
220
0.0
230
1.0
  0
LINE
  5
335
100
AcDbEntity
  8
0
370
    35
390
0
 62
     7
 48
0.024689
100
AcDbLine
 10
392.361572
 20
152.949341
 30
0.0
 11
392.361572
 21
151.961777
 31
0.0
210
0.0
220
0.0
230
1.0
  0
LINE
  5
336
100
AcDbEntity
  8
0
370
    35
390
0
 62
     7
 48
0.024689
100
AcDbLine
 10
392.105347
 20
151.705551
 30
0.0
 11
391.117798
 21
151.705551
 31
0.0
210
0.0
220
0.0
230
1.0
  0
LINE
  5
337
100
AcDbEntity
  8
0
370
    35
390
0
 62
     7
 48
0.024689
100
AcDbLine
 10
291.117767
 20
153.205551
 30
0.0
 11
292.105347
 21
153.205551
 31
0.0
210
0.0
220
0.0
230
1.0
  0
LINE
  5
338
100
AcDbEntity
  8
0
370
    35
390
0
 62
     7
 48
0.024689
100
AcDbLine
 10
290.861572
 20
151.961777
 30
0.0
 11
290.861572
 21
152.949341
 31
0.0
210
0.0
220
0.0
230
1.0
  0
LINE
  5
339
100
AcDbEntity
  8
0
370
    35
390
0
 62
     7
 48
0.024689
100
AcDbLine
 10
292.361572
 20
152.949341
 30
0.0
 11
292.361572
 21
151.961777
 31
0.0
210
0.0
220
0.0
230
1.0
  0
LINE
  5
33A
100
AcDbEntity
  8
0
370
    35
390
0
 62
     7
 48
0.024689
100
AcDbLine
 10
292.105347
 20
151.705551
 30
0.0
 11
291.117767
 21
151.705551
 31
0.0
210
0.0
220
0.0
230
1.0
  0
LINE
  5
33B
100
AcDbEntity
  8
0
370
    35
390
0
 62
     7
 48
0.024689
100
AcDbLine
 10
191.117783
 20
153.205551
 30
0.0
 11
192.105347
 21
153.205551
 31
0.0
210
0.0
220
0.0
230
1.0
  0
LINE
  5
33C
100
AcDbEntity
  8
0
370
    35
390
0
 62
     7
 48
0.024689
100
AcDbLine
 10
190.861572
 20
151.961777
 30
0.0
 11
190.861572
 21
152.949341
 31
0.0
210
0.0
220
0.0
230
1.0
  0
LINE
  5
33D
100
AcDbEntity
  8
0
370
    35
390
0
 62
     7
 48
0.024689
100
AcDbLine
 10
192.361572
 20
152.949341
 30
0.0
 11
192.361572
 21
151.961777
 31
0.0
210
0.0
220
0.0
230
1.0
  0
LINE
  5
33E
100
AcDbEntity
  8
0
370
    35
390
0
 62
     7
 48
0.024689
100
AcDbLine
 10
192.105347
 20
151.705551
 30
0.0
 11
191.117783
 21
151.705551
 31
0.0
210
0.0
220
0.0
230
1.0
  0
LINE
  5
33F
100
AcDbEntity
  8
0
370
    35
390
0
 62
     7
 48
0.005
100
AcDbLine
 10
581.111572
 20
129.805557
 30
0.0
 11
580.91156
 21
129.805557
 31
0.0
210
0.0
220
0.0
230
1.0
  0
LINE
  5
340
100
AcDbEntity
  8
0
370
    35
390
0
 62
     7
 48
0.0725
100
AcDbLine
 10
581.111572
 20
126.905556
 30
0.0
 11
581.111572
 21
129.805557
 31
0.0
210
0.0
220
0.0
230
1.0
  0
LINE
  5
341
100
AcDbEntity
  8
0
370
    35
390
0
 62
     7
 48
0.005
100
AcDbLine
 10
581.111572
 20
131.105545
 30
0.0
 11
580.91156
 21
131.105545
 31
0.0
210
0.0
220
0.0
230
1.0
  0
LINE
  5
342
100
AcDbEntity
  8
0
370
    35
390
0
 62
     7
 48
0.0725
100
AcDbLine
 10
581.111572
 20
131.105545
 30
0.0
 11
581.111572
 21
134.005554
 31
0.0
210
0.0
220
0.0
230
1.0
  0
LINE
  5
343
100
AcDbEntity
  8
0
370
    35
390
0
 62
     7
 48
0.005274
100
AcDbLine
 10
441.071716
 20
130.57785
 30
0.0
 11
441.276978
 21
130.529205
 31
0.0
210
0.0
220
0.0
230
1.0
  0
ARC
  5
344
100
AcDbEntity
  8
0
370
    35
390
0
 62
     7
100
AcDbCircle
 10
441.311584
 20
130.675171
 30
0.0
 40
0.15
210
0.0
220
0.0
230
1.0
100
AcDbArc
 50
256.667229
 51
343.332767
  0
LINE
  5
345
100
AcDbEntity
  8
0
370
    35
390
0
 62
     7
 48
0.005274
100
AcDbLine
 10
441.515778
 20
130.834229
 30
0.0
 11
441.455261
 21
130.632141
 31
0.0
210
0.0
220
0.0
230
1.0
  0
ARC
  5
346
100
AcDbEntity
  8
0
370
    35
390
0
 62
     7
100
AcDbCircle
 10
441.611572
 20
130.805557
 30
0.0
 40
0.1
210
0.0
220
0.0
230
1.0
100
AcDbArc
 50
16.667233
 51
163.332772
  0
LINE
  5
347
100
AcDbEntity
  8
0
370
    35
390
0
 62
     7
 48
0.005274
100
AcDbLine
 10
441.707367
 20
130.834229
 30
0.0
 11
441.767883
 21
130.632141
 31
0.0
210
0.0
220
0.0
230
1.0
  0
ARC
  5
348
100
AcDbEntity
  8
0
370
    35
390
0
 62
     7
100
AcDbCircle
 10
441.91156
 20
130.675171
 30
0.0
 40
0.15
210
0.0
220
0.0
230
1.0
100
AcDbArc
 50
196.667228
 51
283.332766
  0
LINE
  5
349
100
AcDbEntity
  8
0
370
    35
390
0
 62
     7
 48
0.005274
100
AcDbLine
 10
442.151428
 20
130.57785
 30
0.0
 11
441.946167
 21
130.529205
 31
0.0
210
0.0
220
0.0
230
1.0
  0
ARC
  5
34A
100
AcDbEntity
  8
0
370
    35
390
0
 62
     7
100
AcDbCircle
 10
442.1745
 20
130.480545
 30
0.0
 40
0.1
210
0.0
220
0.0
230
1.0
100
AcDbArc
 50
316.667231
 51
103.332771
  0
LINE
  5
34B
100
AcDbEntity
  8
0
370
    35
390
0
 62
     7
 48
0.005273
100
AcDbLine
 10
442.247223
 20
130.411926
 30
0.0
 11
442.102478
 21
130.258484
 31
0.0
210
0.0
220
0.0
230
1.0
  0
ARC
  5
34C
100
AcDbEntity
  8
0
370
    35
390
0
 62
     7
100
AcDbCircle
 10
442.211578
 20
130.155548
 30
0.0
 40
0.15
210
0.0
220
0.0
230
1.0
100
AcDbArc
 50
136.667236
 51
223.332764
  0
LINE
  5
34D
100
AcDbEntity
  8
0
370
    35
390
0
 62
     7
 48
0.005273
100
AcDbLine
 10
442.247223
 20
129.89917
 30
0.0
 11
442.102478
 21
130.052612
 31
0.0
210
0.0
220
0.0
230
1.0
  0
ARC
  5
34E
100
AcDbEntity
  8
0
370
    35
390
0
 62
     7
100
AcDbCircle
 10
442.1745
 20
129.830551
 30
0.0
 40
0.1
210
0.0
220
0.0
230
1.0
100
AcDbArc
 50
256.667229
 51
43.332769
  0
LINE
  5
34F
100
AcDbEntity
  8
0
370
    35
390
0
 62
     7
 48
0.005274
100
AcDbLine
 10
442.151428
 20
129.733246
 30
0.0
 11
441.946167
 21
129.781891
 31
0.0
210
0.0
220
0.0
230
1.0
  0
ARC
  5
350
100
AcDbEntity
  8
0
370
    35
390
0
 62
     7
100
AcDbCircle
 10
441.91156
 20
129.635941
 30
0.0
 40
0.15
210
0.0
220
0.0
230
1.0
100
AcDbArc
 50
76.667234
 51
163.332772
  0
LINE
  5
351
100
AcDbEntity
  8
0
370
    35
390
0
 62
     7
 48
0.005274
100
AcDbLine
 10
441.707367
 20
129.476868
 30
0.0
 11
441.767883
 21
129.678955
 31
0.0
210
0.0
220
0.0
230
1.0
  0
ARC
  5
352
100
AcDbEntity
  8
0
370
    35
390
0
 62
     7
100
AcDbCircle
 10
441.611572
 20
129.505554
 30
0.0
 40
0.1
210
0.0
220
0.0
230
1.0
100
AcDbArc
 50
196.667228
 51
343.332771
  0
LINE
  5
353
100
AcDbEntity
  8
0
370
    35
390
0
 62
     7
 48
0.005274
100
AcDbLine
 10
441.515778
 20
129.476868
 30
0.0
 11
441.455261
 21
129.678955
 31
0.0
210
0.0
220
0.0
230
1.0
  0
ARC
  5
354
100
AcDbEntity
  8
0
370
    35
390
0
 62
     7
100
AcDbCircle
 10
441.311584
 20
129.635941
 30
0.0
 40
0.15
210
0.0
220
0.0
230
1.0
100
AcDbArc
 50
16.667233
 51
103.332771
  0
LINE
  5
355
100
AcDbEntity
  8
0
370
    35
390
0
 62
     7
 48
0.005274
100
AcDbLine
 10
441.071716
 20
129.733246
 30
0.0
 11
441.276978
 21
129.781891
 31
0.0
210
0.0
220
0.0
230
1.0
  0
ARC
  5
356
100
AcDbEntity
  8
0
370
    35
390
0
 62
     7
100
AcDbCircle
 10
441.048645
 20
129.830551
 30
0.0
 40
0.1
210
0.0
220
0.0
230
1.0
100
AcDbArc
 50
136.667236
 51
283.332773
  0
LINE
  5
357
100
AcDbEntity
  8
0
370
    35
390
0
 62
     7
 48
0.005273
100
AcDbLine
 10
440.975922
 20
129.89917
 30
0.0
 11
441.120667
 21
130.052612
 31
0.0
210
0.0
220
0.0
230
1.0
  0
ARC
  5
358
100
AcDbEntity
  8
0
370
    35
390
0
 62
     7
100
AcDbCircle
 10
441.011566
 20
130.155548
 30
0.0
 40
0.15
210
0.0
220
0.0
230
1.0
100
AcDbArc
 50
316.667231
 51
43.332769
  0
LINE
  5
359
100
AcDbEntity
  8
0
370
    35
390
0
 62
     7
 48
0.005273
100
AcDbLine
 10
440.975922
 20
130.411926
 30
0.0
 11
441.120667
 21
130.258484
 31
0.0
210
0.0
220
0.0
230
1.0
  0
ARC
  5
35A
100
AcDbEntity
  8
0
370
    35
390
0
 62
     7
100
AcDbCircle
 10
441.048645
 20
130.480545
 30
0.0
 40
0.1
210
0.0
220
0.0
230
1.0
100
AcDbArc
 50
76.667234
 51
223.332764
  0
LINE
  5
35B
100
AcDbEntity
  8
0
370
    35
390
0
 62
     7
 48
0.005274
100
AcDbLine
 10
141.071716
 20
130.57785
 30
0.0
 11
141.276978
 21
130.529205
 31
0.0
210
0.0
220
0.0
230
1.0
  0
ARC
  5
35C
100
AcDbEntity
  8
0
370
    35
390
0
 62
     7
100
AcDbCircle
 10
141.311569
 20
130.675171
 30
0.0
 40
0.15
210
0.0
220
0.0
230
1.0
100
AcDbArc
 50
256.667229
 51
343.332767
  0
LINE
  5
35D
100
AcDbEntity
  8
0
370
    35
390
0
 62
     7
 48
0.005274
100
AcDbLine
 10
141.515778
 20
130.834229
 30
0.0
 11
141.455276
 21
130.632141
 31
0.0
210
0.0
220
0.0
230
1.0
  0
ARC
  5
35E
100
AcDbEntity
  8
0
370
    35
390
0
 62
     7
100
AcDbCircle
 10
141.611572
 20
130.805557
 30
0.0
 40
0.1
210
0.0
220
0.0
230
1.0
100
AcDbArc
 50
16.667233
 51
163.332772
  0
LINE
  5
35F
100
AcDbEntity
  8
0
370
    35
390
0
 62
     7
 48
0.005274
100
AcDbLine
 10
141.707367
 20
130.834229
 30
0.0
 11
141.767883
 21
130.632141
 31
0.0
210
0.0
220
0.0
230
1.0
  0
ARC
  5
360
100
AcDbEntity
  8
0
370
    35
390
0
 62
     7
100
AcDbCircle
 10
141.911575
 20
130.675171
 30
0.0
 40
0.15
210
0.0
220
0.0
230
1.0
100
AcDbArc
 50
196.667228
 51
283.332766
  0
LINE
  5
361
100
AcDbEntity
  8
0
370
    35
390
0
 62
     7
 48
0.005274
100
AcDbLine
 10
142.151428
 20
130.57785
 30
0.0
 11
141.946167
 21
130.529205
 31
0.0
210
0.0
220
0.0
230
1.0
  0
ARC
  5
362
100
AcDbEntity
  8
0
370
    35
390
0
 62
     7
100
AcDbCircle
 10
142.174484
 20
130.480545
 30
0.0
 40
0.1
210
0.0
220
0.0
230
1.0
100
AcDbArc
 50
316.667231
 51
103.332771
  0
LINE
  5
363
100
AcDbEntity
  8
0
370
    35
390
0
 62
     7
 48
0.005274
100
AcDbLine
 10
142.247223
 20
130.411926
 30
0.0
 11
142.102463
 21
130.258484
 31
0.0
210
0.0
220
0.0
230
1.0
  0
ARC
  5
364
100
AcDbEntity
  8
0
370
    35
390
0
 62
     7
100
AcDbCircle
 10
142.211578
 20
130.155548
 30
0.0
 40
0.15
210
0.0
220
0.0
230
1.0
100
AcDbArc
 50
136.667236
 51
223.332764
  0
LINE
  5
365
100
AcDbEntity
  8
0
370
    35
390
0
 62
     7
 48
0.005274
100
AcDbLine
 10
142.247223
 20
129.89917
 30
0.0
 11
142.102463
 21
130.052612
 31
0.0
210
0.0
220
0.0
230
1.0
  0
ARC
  5
366
100
AcDbEntity
  8
0
370
    35
390
0
 62
     7
100
AcDbCircle
 10
142.174484
 20
129.830551
 30
0.0
 40
0.1
210
0.0
220
0.0
230
1.0
100
AcDbArc
 50
256.667229
 51
43.332769
  0
LINE
  5
367
100
AcDbEntity
  8
0
370
    35
390
0
 62
     7
 48
0.005274
100
AcDbLine
 10
142.151428
 20
129.733246
 30
0.0
 11
141.946167
 21
129.781891
 31
0.0
210
0.0
220
0.0
230
1.0
  0
ARC
  5
368
100
AcDbEntity
  8
0
370
    35
390
0
 62
     7
100
AcDbCircle
 10
141.911575
 20
129.635941
 30
0.0
 40
0.15
210
0.0
220
0.0
230
1.0
100
AcDbArc
 50
76.667234
 51
163.332772
  0
LINE
  5
369
100
AcDbEntity
  8
0
370
    35
390
0
 62
     7
 48
0.005274
100
AcDbLine
 10
141.707367
 20
129.476868
 30
0.0
 11
141.767883
 21
129.678955
 31
0.0
210
0.0
220
0.0
230
1.0
  0
ARC
  5
36A
100
AcDbEntity
  8
0
370
    35
390
0
 62
     7
100
AcDbCircle
 10
141.611572
 20
129.505554
 30
0.0
 40
0.1
210
0.0
220
0.0
230
1.0
100
AcDbArc
 50
196.667228
 51
343.332771
  0
LINE
  5
36B
100
AcDbEntity
  8
0
370
    35
390
0
 62
     7
 48
0.005274
100
AcDbLine
 10
141.515778
 20
129.476868
 30
0.0
 11
141.455276
 21
129.678955
 31
0.0
210
0.0
220
0.0
230
1.0
  0
ARC
  5
36C
100
AcDbEntity
  8
0
370
    35
390
0
 62
     7
100
AcDbCircle
 10
141.311569
 20
129.635941
 30
0.0
 40
0.15
210
0.0
220
0.0
230
1.0
100
AcDbArc
 50
16.667233
 51
103.332771
  0
LINE
  5
36D
100
AcDbEntity
  8
0
370
    35
390
0
 62
     7
 48
0.005274
100
AcDbLine
 10
141.071716
 20
129.733246
 30
0.0
 11
141.276978
 21
129.781891
 31
0.0
210
0.0
220
0.0
230
1.0
  0
ARC
  5
36E
100
AcDbEntity
  8
0
370
    35
390
0
 62
     7
100
AcDbCircle
 10
141.04866
 20
129.830551
 30
0.0
 40
0.1
210
0.0
220
0.0
230
1.0
100
AcDbArc
 50
136.667236
 51
283.332773
  0
LINE
  5
36F
100
AcDbEntity
  8
0
370
    35
390
0
 62
     7
 48
0.005274
100
AcDbLine
 10
140.975922
 20
129.89917
 30
0.0
 11
141.120682
 21
130.052612
 31
0.0
210
0.0
220
0.0
230
1.0
  0
ARC
  5
370
100
AcDbEntity
  8
0
370
    35
390
0
 62
     7
100
AcDbCircle
 10
141.011581
 20
130.155548
 30
0.0
 40
0.15
210
0.0
220
0.0
230
1.0
100
AcDbArc
 50
316.667231
 51
43.332769
  0
LINE
  5
371
100
AcDbEntity
  8
0
370
    35
390
0
 62
     7
 48
0.005274
100
AcDbLine
 10
140.975922
 20
130.411926
 30
0.0
 11
141.120682
 21
130.258484
 31
0.0
210
0.0
220
0.0
230
1.0
  0
ARC
  5
372
100
AcDbEntity
  8
0
370
    35
390
0
 62
     7
100
AcDbCircle
 10
141.04866
 20
130.480545
 30
0.0
 40
0.1
210
0.0
220
0.0
230
1.0
100
AcDbArc
 50
76.667234
 51
223.332764
  0
LINE
  5
373
100
AcDbEntity
  8
0
370
    35
390
0
 62
     7
 48
0.005274
100
AcDbLine
 10
241.071716
 20
130.57785
 30
0.0
 11
241.276978
 21
130.529205
 31
0.0
210
0.0
220
0.0
230
1.0
  0
ARC
  5
374
100
AcDbEntity
  8
0
370
    35
390
0
 62
     7
100
AcDbCircle
 10
241.311569
 20
130.675171
 30
0.0
 40
0.15
210
0.0
220
0.0
230
1.0
100
AcDbArc
 50
256.667229
 51
343.332767
  0
LINE
  5
375
100
AcDbEntity
  8
0
370
    35
390
0
 62
     7
 48
0.005274
100
AcDbLine
 10
241.515778
 20
130.834229
 30
0.0
 11
241.455276
 21
130.632141
 31
0.0
210
0.0
220
0.0
230
1.0
  0
ARC
  5
376
100
AcDbEntity
  8
0
370
    35
390
0
 62
     7
100
AcDbCircle
 10
241.611572
 20
130.805557
 30
0.0
 40
0.1
210
0.0
220
0.0
230
1.0
100
AcDbArc
 50
16.667233
 51
163.332772
  0
LINE
  5
377
100
AcDbEntity
  8
0
370
    35
390
0
 62
     7
 48
0.005274
100
AcDbLine
 10
241.707367
 20
130.834229
 30
0.0
 11
241.767868
 21
130.632141
 31
0.0
210
0.0
220
0.0
230
1.0
  0
ARC
  5
378
100
AcDbEntity
  8
0
370
    35
390
0
 62
     7
100
AcDbCircle
 10
241.911575
 20
130.675171
 30
0.0
 40
0.15
210
0.0
220
0.0
230
1.0
100
AcDbArc
 50
196.667228
 51
283.332766
  0
LINE
  5
379
100
AcDbEntity
  8
0
370
    35
390
0
 62
     7
 48
0.005274
100
AcDbLine
 10
242.151428
 20
130.57785
 30
0.0
 11
241.946167
 21
130.529205
 31
0.0
210
0.0
220
0.0
230
1.0
  0
ARC
  5
37A
100
AcDbEntity
  8
0
370
    35
390
0
 62
     7
100
AcDbCircle
 10
242.174484
 20
130.480545
 30
0.0
 40
0.1
210
0.0
220
0.0
230
1.0
100
AcDbArc
 50
316.667231
 51
103.332771
  0
LINE
  5
37B
100
AcDbEntity
  8
0
370
    35
390
0
 62
     7
 48
0.005274
100
AcDbLine
 10
242.247223
 20
130.411926
 30
0.0
 11
242.102463
 21
130.258484
 31
0.0
210
0.0
220
0.0
230
1.0
  0
ARC
  5
37C
100
AcDbEntity
  8
0
370
    35
390
0
 62
     7
100
AcDbCircle
 10
242.211578
 20
130.155548
 30
0.0
 40
0.15
210
0.0
220
0.0
230
1.0
100
AcDbArc
 50
136.667236
 51
223.332764
  0
LINE
  5
37D
100
AcDbEntity
  8
0
370
    35
390
0
 62
     7
 48
0.005274
100
AcDbLine
 10
242.247223
 20
129.89917
 30
0.0
 11
242.102463
 21
130.052612
 31
0.0
210
0.0
220
0.0
230
1.0
  0
ARC
  5
37E
100
AcDbEntity
  8
0
370
    35
390
0
 62
     7
100
AcDbCircle
 10
242.174484
 20
129.830551
 30
0.0
 40
0.1
210
0.0
220
0.0
230
1.0
100
AcDbArc
 50
256.667229
 51
43.332769
  0
LINE
  5
37F
100
AcDbEntity
  8
0
370
    35
390
0
 62
     7
 48
0.005274
100
AcDbLine
 10
242.151428
 20
129.733246
 30
0.0
 11
241.946167
 21
129.781891
 31
0.0
210
0.0
220
0.0
230
1.0
  0
ARC
  5
380
100
AcDbEntity
  8
0
370
    35
390
0
 62
     7
100
AcDbCircle
 10
241.911575
 20
129.635941
 30
0.0
 40
0.15
210
0.0
220
0.0
230
1.0
100
AcDbArc
 50
76.667234
 51
163.332772
  0
LINE
  5
381
100
AcDbEntity
  8
0
370
    35
390
0
 62
     7
 48
0.005274
100
AcDbLine
 10
241.707367
 20
129.476868
 30
0.0
 11
241.767868
 21
129.678955
 31
0.0
210
0.0
220
0.0
230
1.0
  0
ARC
  5
382
100
AcDbEntity
  8
0
370
    35
390
0
 62
     7
100
AcDbCircle
 10
241.611572
 20
129.505554
 30
0.0
 40
0.1
210
0.0
220
0.0
230
1.0
100
AcDbArc
 50
196.667228
 51
343.332771
  0
LINE
  5
383
100
AcDbEntity
  8
0
370
    35
390
0
 62
     7
 48
0.005274
100
AcDbLine
 10
241.515778
 20
129.476868
 30
0.0
 11
241.455276
 21
129.678955
 31
0.0
210
0.0
220
0.0
230
1.0
  0
ARC
  5
384
100
AcDbEntity
  8
0
370
    35
390
0
 62
     7
100
AcDbCircle
 10
241.311569
 20
129.635941
 30
0.0
 40
0.15
210
0.0
220
0.0
230
1.0
100
AcDbArc
 50
16.667233
 51
103.332771
  0
LINE
  5
385
100
AcDbEntity
  8
0
370
    35
390
0
 62
     7
 48
0.005274
100
AcDbLine
 10
241.071716
 20
129.733246
 30
0.0
 11
241.276978
 21
129.781891
 31
0.0
210
0.0
220
0.0
230
1.0
  0
ARC
  5
386
100
AcDbEntity
  8
0
370
    35
390
0
 62
     7
100
AcDbCircle
 10
241.04866
 20
129.830551
 30
0.0
 40
0.1
210
0.0
220
0.0
230
1.0
100
AcDbArc
 50
136.667236
 51
283.332773
  0
LINE
  5
387
100
AcDbEntity
  8
0
370
    35
390
0
 62
     7
 48
0.005274
100
AcDbLine
 10
240.975922
 20
129.89917
 30
0.0
 11
241.120682
 21
130.052612
 31
0.0
210
0.0
220
0.0
230
1.0
  0
ARC
  5
388
100
AcDbEntity
  8
0
370
    35
390
0
 62
     7
100
AcDbCircle
 10
241.011566
 20
130.155548
 30
0.0
 40
0.15
210
0.0
220
0.0
230
1.0
100
AcDbArc
 50
316.667231
 51
43.332769
  0
LINE
  5
389
100
AcDbEntity
  8
0
370
    35
390
0
 62
     7
 48
0.005274
100
AcDbLine
 10
240.975922
 20
130.411926
 30
0.0
 11
241.120682
 21
130.258484
 31
0.0
210
0.0
220
0.0
230
1.0
  0
ARC
  5
38A
100
AcDbEntity
  8
0
370
    35
390
0
 62
     7
100
AcDbCircle
 10
241.04866
 20
130.480545
 30
0.0
 40
0.1
210
0.0
220
0.0
230
1.0
100
AcDbArc
 50
76.667234
 51
223.332764
  0
LINE
  5
38B
100
AcDbEntity
  8
0
370
    35
390
0
 62
     7
 48
0.005274
100
AcDbLine
 10
341.071716
 20
130.57785
 30
0.0
 11
341.276978
 21
130.529205
 31
0.0
210
0.0
220
0.0
230
1.0
  0
ARC
  5
38C
100
AcDbEntity
  8
0
370
    35
390
0
 62
     7
100
AcDbCircle
 10
341.311584
 20
130.675171
 30
0.0
 40
0.15
210
0.0
220
0.0
230
1.0
100
AcDbArc
 50
256.667229
 51
343.332767
  0
LINE
  5
38D
100
AcDbEntity
  8
0
370
    35
390
0
 62
     7
 48
0.005274
100
AcDbLine
 10
341.515778
 20
130.834229
 30
0.0
 11
341.455292
 21
130.632141
 31
0.0
210
0.0
220
0.0
230
1.0
  0
ARC
  5
38E
100
AcDbEntity
  8
0
370
    35
390
0
 62
     7
100
AcDbCircle
 10
341.611572
 20
130.805557
 30
0.0
 40
0.1
210
0.0
220
0.0
230
1.0
100
AcDbArc
 50
16.667233
 51
163.332772
  0
LINE
  5
38F
100
AcDbEntity
  8
0
370
    35
390
0
 62
     7
 48
0.005274
100
AcDbLine
 10
341.707367
 20
130.834229
 30
0.0
 11
341.767883
 21
130.632141
 31
0.0
210
0.0
220
0.0
230
1.0
  0
ARC
  5
390
100
AcDbEntity
  8
0
370
    35
390
0
 62
     7
100
AcDbCircle
 10
341.911591
 20
130.675171
 30
0.0
 40
0.15
210
0.0
220
0.0
230
1.0
100
AcDbArc
 50
196.667228
 51
283.332766
  0
LINE
  5
391
100
AcDbEntity
  8
0
370
    35
390
0
 62
     7
 48
0.005274
100
AcDbLine
 10
342.151428
 20
130.57785
 30
0.0
 11
341.946167
 21
130.529205
 31
0.0
210
0.0
220
0.0
230
1.0
  0
ARC
  5
392
100
AcDbEntity
  8
0
370
    35
390
0
 62
     7
100
AcDbCircle
 10
342.1745
 20
130.480545
 30
0.0
 40
0.1
210
0.0
220
0.0
230
1.0
100
AcDbArc
 50
316.667231
 51
103.332771
  0
LINE
  5
393
100
AcDbEntity
  8
0
370
    35
390
0
 62
     7
 48
0.005273
100
AcDbLine
 10
342.247223
 20
130.411926
 30
0.0
 11
342.102478
 21
130.258484
 31
0.0
210
0.0
220
0.0
230
1.0
  0
ARC
  5
394
100
AcDbEntity
  8
0
370
    35
390
0
 62
     7
100
AcDbCircle
 10
342.211578
 20
130.155548
 30
0.0
 40
0.15
210
0.0
220
0.0
230
1.0
100
AcDbArc
 50
136.667236
 51
223.332764
  0
LINE
  5
395
100
AcDbEntity
  8
0
370
    35
390
0
 62
     7
 48
0.005273
100
AcDbLine
 10
342.247223
 20
129.89917
 30
0.0
 11
342.102478
 21
130.052612
 31
0.0
210
0.0
220
0.0
230
1.0
  0
ARC
  5
396
100
AcDbEntity
  8
0
370
    35
390
0
 62
     7
100
AcDbCircle
 10
342.1745
 20
129.830551
 30
0.0
 40
0.1
210
0.0
220
0.0
230
1.0
100
AcDbArc
 50
256.667229
 51
43.332769
  0
LINE
  5
397
100
AcDbEntity
  8
0
370
    35
390
0
 62
     7
 48
0.005274
100
AcDbLine
 10
342.151428
 20
129.733246
 30
0.0
 11
341.946167
 21
129.781891
 31
0.0
210
0.0
220
0.0
230
1.0
  0
ARC
  5
398
100
AcDbEntity
  8
0
370
    35
390
0
 62
     7
100
AcDbCircle
 10
341.911591
 20
129.635941
 30
0.0
 40
0.15
210
0.0
220
0.0
230
1.0
100
AcDbArc
 50
76.667234
 51
163.332772
  0
LINE
  5
399
100
AcDbEntity
  8
0
370
    35
390
0
 62
     7
 48
0.005274
100
AcDbLine
 10
341.707367
 20
129.476868
 30
0.0
 11
341.767883
 21
129.678955
 31
0.0
210
0.0
220
0.0
230
1.0
  0
ARC
  5
39A
100
AcDbEntity
  8
0
370
    35
390
0
 62
     7
100
AcDbCircle
 10
341.611572
 20
129.505554
 30
0.0
 40
0.1
210
0.0
220
0.0
230
1.0
100
AcDbArc
 50
196.667228
 51
343.332771
  0
LINE
  5
39B
100
AcDbEntity
  8
0
370
    35
390
0
 62
     7
 48
0.005274
100
AcDbLine
 10
341.515778
 20
129.476868
 30
0.0
 11
341.455292
 21
129.678955
 31
0.0
210
0.0
220
0.0
230
1.0
  0
ARC
  5
39C
100
AcDbEntity
  8
0
370
    35
390
0
 62
     7
100
AcDbCircle
 10
341.311584
 20
129.635941
 30
0.0
 40
0.15
210
0.0
220
0.0
230
1.0
100
AcDbArc
 50
16.667233
 51
103.332771
  0
LINE
  5
39D
100
AcDbEntity
  8
0
370
    35
390
0
 62
     7
 48
0.005274
100
AcDbLine
 10
341.071716
 20
129.733246
 30
0.0
 11
341.276978
 21
129.781891
 31
0.0
210
0.0
220
0.0
230
1.0
  0
ARC
  5
39E
100
AcDbEntity
  8
0
370
    35
390
0
 62
     7
100
AcDbCircle
 10
341.048676
 20
129.830551
 30
0.0
 40
0.1
210
0.0
220
0.0
230
1.0
100
AcDbArc
 50
136.667236
 51
283.332773
  0
LINE
  5
39F
100
AcDbEntity
  8
0
370
    35
390
0
 62
     7
 48
0.005274
100
AcDbLine
 10
340.975922
 20
129.89917
 30
0.0
 11
341.120697
 21
130.052612
 31
0.0
210
0.0
220
0.0
230
1.0
  0
ARC
  5
3A0
100
AcDbEntity
  8
0
370
    35
390
0
 62
     7
100
AcDbCircle
 10
341.011566
 20
130.155548
 30
0.0
 40
0.15
210
0.0
220
0.0
230
1.0
100
AcDbArc
 50
316.667231
 51
43.332769
  0
LINE
  5
3A1
100
AcDbEntity
  8
0
370
    35
390
0
 62
     7
 48
0.005274
100
AcDbLine
 10
340.975922
 20
130.411926
 30
0.0
 11
341.120697
 21
130.258484
 31
0.0
210
0.0
220
0.0
230
1.0
  0
ARC
  5
3A2
100
AcDbEntity
  8
0
370
    35
390
0
 62
     7
100
AcDbCircle
 10
341.048676
 20
130.480545
 30
0.0
 40
0.1
210
0.0
220
0.0
230
1.0
100
AcDbArc
 50
76.667234
 51
223.332764
  0
LINE
  5
3A3
100
AcDbEntity
  8
0
370
    35
390
0
 62
     7
 48
0.005274
100
AcDbLine
 10
541.071716
 20
130.57785
 30
0.0
 11
541.276978
 21
130.529205
 31
0.0
210
0.0
220
0.0
230
1.0
  0
ARC
  5
3A4
100
AcDbEntity
  8
0
370
    35
390
0
 62
     7
100
AcDbCircle
 10
541.311584
 20
130.675171
 30
0.0
 40
0.15
210
0.0
220
0.0
230
1.0
100
AcDbArc
 50
256.667229
 51
343.332767
  0
LINE
  5
3A5
100
AcDbEntity
  8
0
370
    35
390
0
 62
     7
 48
0.005274
100
AcDbLine
 10
541.515808
 20
130.834229
 30
0.0
 11
541.455261
 21
130.632141
 31
0.0
210
0.0
220
0.0
230
1.0
  0
ARC
  5
3A6
100
AcDbEntity
  8
0
370
    35
390
0
 62
     7
100
AcDbCircle
 10
541.611572
 20
130.805557
 30
0.0
 40
0.1
210
0.0
220
0.0
230
1.0
100
AcDbArc
 50
16.667233
 51
163.332772
  0
LINE
  5
3A7
100
AcDbEntity
  8
0
370
    35
390
0
 62
     7
 48
0.005274
100
AcDbLine
 10
541.707397
 20
130.834229
 30
0.0
 11
541.767883
 21
130.632141
 31
0.0
210
0.0
220
0.0
230
1.0
  0
ARC
  5
3A8
100
AcDbEntity
  8
0
370
    35
390
0
 62
     7
100
AcDbCircle
 10
541.91156
 20
130.675171
 30
0.0
 40
0.15
210
0.0
220
0.0
230
1.0
100
AcDbArc
 50
196.667228
 51
283.332766
  0
LINE
  5
3A9
100
AcDbEntity
  8
0
370
    35
390
0
 62
     7
 48
0.005274
100
AcDbLine
 10
542.151428
 20
130.57785
 30
0.0
 11
541.946167
 21
130.529205
 31
0.0
210
0.0
220
0.0
230
1.0
  0
ARC
  5
3AA
100
AcDbEntity
  8
0
370
    35
390
0
 62
     7
100
AcDbCircle
 10
542.1745
 20
130.480545
 30
0.0
 40
0.1
210
0.0
220
0.0
230
1.0
100
AcDbArc
 50
316.667231
 51
103.332771
  0
LINE
  5
3AB
100
AcDbEntity
  8
0
370
    35
390
0
 62
     7
 48
0.005274
100
AcDbLine
 10
542.247253
 20
130.411926
 30
0.0
 11
542.102478
 21
130.258484
 31
0.0
210
0.0
220
0.0
230
1.0
  0
ARC
  5
3AC
100
AcDbEntity
  8
0
370
    35
390
0
 62
     7
100
AcDbCircle
 10
542.211609
 20
130.155548
 30
0.0
 40
0.15
210
0.0
220
0.0
230
1.0
100
AcDbArc
 50
136.667236
 51
223.332764
  0
LINE
  5
3AD
100
AcDbEntity
  8
0
370
    35
390
0
 62
     7
 48
0.005274
100
AcDbLine
 10
542.247253
 20
129.89917
 30
0.0
 11
542.102478
 21
130.052612
 31
0.0
210
0.0
220
0.0
230
1.0
  0
ARC
  5
3AE
100
AcDbEntity
  8
0
370
    35
390
0
 62
     7
100
AcDbCircle
 10
542.1745
 20
129.830551
 30
0.0
 40
0.1
210
0.0
220
0.0
230
1.0
100
AcDbArc
 50
256.667229
 51
43.332769
  0
LINE
  5
3AF
100
AcDbEntity
  8
0
370
    35
390
0
 62
     7
 48
0.005274
100
AcDbLine
 10
542.151428
 20
129.733246
 30
0.0
 11
541.946167
 21
129.781891
 31
0.0
210
0.0
220
0.0
230
1.0
  0
ARC
  5
3B0
100
AcDbEntity
  8
0
370
    35
390
0
 62
     7
100
AcDbCircle
 10
541.91156
 20
129.635941
 30
0.0
 40
0.15
210
0.0
220
0.0
230
1.0
100
AcDbArc
 50
76.667234
 51
163.332772
  0
LINE
  5
3B1
100
AcDbEntity
  8
0
370
    35
390
0
 62
     7
 48
0.005274
100
AcDbLine
 10
541.707397
 20
129.476868
 30
0.0
 11
541.767883
 21
129.678955
 31
0.0
210
0.0
220
0.0
230
1.0
  0
ARC
  5
3B2
100
AcDbEntity
  8
0
370
    35
390
0
 62
     7
100
AcDbCircle
 10
541.611572
 20
129.505554
 30
0.0
 40
0.1
210
0.0
220
0.0
230
1.0
100
AcDbArc
 50
196.667228
 51
343.332771
  0
LINE
  5
3B3
100
AcDbEntity
  8
0
370
    35
390
0
 62
     7
 48
0.005274
100
AcDbLine
 10
541.515808
 20
129.476868
 30
0.0
 11
541.455261
 21
129.678955
 31
0.0
210
0.0
220
0.0
230
1.0
  0
ARC
  5
3B4
100
AcDbEntity
  8
0
370
    35
390
0
 62
     7
100
AcDbCircle
 10
541.311584
 20
129.635941
 30
0.0
 40
0.15
210
0.0
220
0.0
230
1.0
100
AcDbArc
 50
16.667233
 51
103.332771
  0
LINE
  5
3B5
100
AcDbEntity
  8
0
370
    35
390
0
 62
     7
 48
0.005274
100
AcDbLine
 10
541.071716
 20
129.733246
 30
0.0
 11
541.276978
 21
129.781891
 31
0.0
210
0.0
220
0.0
230
1.0
  0
ARC
  5
3B6
100
AcDbEntity
  8
0
370
    35
390
0
 62
     7
100
AcDbCircle
 10
541.048645
 20
129.830551
 30
0.0
 40
0.1
210
0.0
220
0.0
230
1.0
100
AcDbArc
 50
136.667236
 51
283.332773
  0
LINE
  5
3B7
100
AcDbEntity
  8
0
370
    35
390
0
 62
     7
 48
0.005273
100
AcDbLine
 10
540.975952
 20
129.89917
 30
0.0
 11
541.120667
 21
130.052612
 31
0.0
210
0.0
220
0.0
230
1.0
  0
ARC
  5
3B8
100
AcDbEntity
  8
0
370
    35
390
0
 62
     7
100
AcDbCircle
 10
541.011597
 20
130.155548
 30
0.0
 40
0.15
210
0.0
220
0.0
230
1.0
100
AcDbArc
 50
316.667231
 51
43.332769
  0
LINE
  5
3B9
100
AcDbEntity
  8
0
370
    35
390
0
 62
     7
 48
0.005273
100
AcDbLine
 10
540.975952
 20
130.411926
 30
0.0
 11
541.120667
 21
130.258484
 31
0.0
210
0.0
220
0.0
230
1.0
  0
ARC
  5
3BA
100
AcDbEntity
  8
0
370
    35
390
0
 62
     7
100
AcDbCircle
 10
541.048645
 20
130.480545
 30
0.0
 40
0.1
210
0.0
220
0.0
230
1.0
100
AcDbArc
 50
76.667234
 51
223.332764
  0
LINE
  5
3BB
100
AcDbEntity
  8
0
370
    35
390
0
 62
     7
 48
0.02
100
AcDbLine
 10
101.811569
 20
129.805557
 30
0.0
 11
102.611565
 21
129.805557
 31
0.0
210
0.0
220
0.0
230
1.0
  0
LINE
  5
3BC
100
AcDbEntity
  8
0
370
    35
390
0
 62
     7
 48
0.0775
100
AcDbLine
 10
101.811569
 20
129.805557
 30
0.0
 11
101.811569
 21
126.705551
 31
0.0
210
0.0
220
0.0
230
1.0
  0
LINE
  5
3BD
100
AcDbEntity
  8
0
370
    35
390
0
 62
     7
 48
0.0775
100
AcDbLine
 10
101.811569
 20
134.205551
 30
0.0
 11
101.811569
 21
131.105545
 31
0.0
210
0.0
220
0.0
230
1.0
  0
LINE
  5
3BE
100
AcDbEntity
  8
0
370
    35
390
0
 62
     7
 48
0.02
100
AcDbLine
 10
101.811569
 20
131.105545
 30
0.0
 11
102.611565
 21
131.105545
 31
0.0
210
0.0
220
0.0
230
1.0
  0
LINE
  5
3BF
100
AcDbEntity
  8
0
370
    35
390
0
 62
     7
 48
0.005
100
AcDbLine
 10
101.611572
 20
129.805557
 30
0.0
 11
101.811569
 21
129.805557
 31
0.0
210
0.0
220
0.0
230
1.0
  0
LINE
  5
3C0
100
AcDbEntity
  8
0
370
    35
390
0
 62
     7
 48
0.0725
100
AcDbLine
 10
101.611572
 20
129.805557
 30
0.0
 11
101.611572
 21
126.905548
 31
0.0
210
0.0
220
0.0
230
1.0
  0
LINE
  5
3C1
100
AcDbEntity
  8
0
370
    35
390
0
 62
     7
 48
0.005
100
AcDbLine
 10
101.611572
 20
131.105545
 30
0.0
 11
101.811569
 21
131.105545
 31
0.0
210
0.0
220
0.0
230
1.0
  0
LINE
  5
3C2
100
AcDbEntity
  8
0
370
    35
390
0
 62
     7
 48
0.0725
100
AcDbLine
 10
101.611572
 20
134.005554
 30
0.0
 11
101.611572
 21
131.105545
 31
0.0
210
0.0
220
0.0
230
1.0
  0
LINE
  5
3C3
100
AcDbEntity
  8
0
370
    35
390
0
 62
     7
100
AcDbLine
 10
568.811584
 20
121.198692
 30
0.0
 11
114.411575
 21
121.198692
 31
0.0
210
0.0
220
0.0
230
1.0
  0
LINE
  5
3C4
100
AcDbEntity
  8
0
370
    35
390
0
 62
     7
 48
0.0075
100
AcDbLine
 10
580.611572
 20
126.705551
 30
0.0
 11
580.91156
 21
126.705551
 31
0.0
210
0.0
220
0.0
230
1.0
  0
LINE
  5
3C5
100
AcDbEntity
  8
0
370
    35
390
0
 62
     7
 48
0.0075
100
AcDbLine
 10
580.611572
 20
134.205551
 30
0.0
 11
580.91156
 21
134.205551
 31
0.0
210
0.0
220
0.0
230
1.0
  0
LINE
  5
3C6
100
AcDbEntity
  8
0
370
    35
390
0
 62
     7
 48
0.007071
100
AcDbLine
 10
581.111572
 20
126.905556
 30
0.0
 11
580.91156
 21
126.705551
 31
0.0
210
0.0
220
0.0
230
1.0
  0
LINE
  5
3C7
100
AcDbEntity
  8
0
370
    35
390
0
 62
     7
 48
0.007071
100
AcDbLine
 10
581.111572
 20
134.005554
 30
0.0
 11
580.91156
 21
134.205551
 31
0.0
210
0.0
220
0.0
230
1.0
  0
LINE
  5
3C8
100
AcDbEntity
  8
0
370
    35
390
0
 62
     7
 48
0.02
100
AcDbLine
 10
102.611565
 20
126.705551
 30
0.0
 11
101.811569
 21
126.705551
 31
0.0
210
0.0
220
0.0
230
1.0
  0
LINE
  5
3C9
100
AcDbEntity
  8
0
370
    35
390
0
 62
     7
 48
0.02
100
AcDbLine
 10
102.611565
 20
134.205551
 30
0.0
 11
101.811569
 21
134.205551
 31
0.0
210
0.0
220
0.0
230
1.0
  0
LINE
  5
3CA
100
AcDbEntity
  8
0
370
    35
390
0
 62
     7
 48
0.007071
100
AcDbLine
 10
101.611572
 20
126.905548
 30
0.0
 11
101.811569
 21
126.705551
 31
0.0
210
0.0
220
0.0
230
1.0
  0
LINE
  5
3CB
100
AcDbEntity
  8
0
370
    35
390
0
 62
     7
 48
0.007071
100
AcDbLine
 10
101.611572
 20
134.005554
 30
0.0
 11
101.811569
 21
134.205551
 31
0.0
210
0.0
220
0.0
230
1.0
  0
LINE
  5
3CC
100
AcDbEntity
  8
0
370
    35
390
0
 62
     7
 48
0.007071
100
AcDbLine
 10
-77.208961
 20
118.955551
 30
0.0
 11
-77.408958
 21
118.755554
 31
0.0
210
0.0
220
0.0
230
1.0
  0
LINE
  5
3CD
100
AcDbEntity
  8
0
370
    35
390
0
 62
     7
 48
0.05
100
AcDbLine
 10
-77.408958
 20
103.955551
 30
0.0
 11
-77.408958
 21
101.955551
 31
0.0
210
0.0
220
0.0
230
1.0
  0
LINE
  5
3CE
100
AcDbEntity
  8
0
370
    35
390
0
 62
     7
 48
0.2
100
AcDbLine
 10
-77.408958
 20
111.955551
 30
0.0
 11
-77.408958
 21
103.955551
 31
0.0
210
0.0
220
0.0
230
1.0
  0
LINE
  5
3CF
100
AcDbEntity
  8
0
370
    35
390
0
 62
     7
 48
0.05
100
AcDbLine
 10
-77.408958
 20
113.955551
 30
0.0
 11
-77.408958
 21
111.955551
 31
0.0
210
0.0
220
0.0
230
1.0
  0
LINE
  5
3D0
100
AcDbEntity
  8
0
370
    35
390
0
 62
     7
 48
0.025
100
AcDbLine
 10
-77.408958
 20
114.955551
 30
0.0
 11
-77.408958
 21
113.955551
 31
0.0
210
0.0
220
0.0
230
1.0
  0
LINE
  5
3D1
100
AcDbEntity
  8
0
370
    35
390
0
 62
     7
 48
0.0325
100
AcDbLine
 10
-77.408958
 20
116.255554
 30
0.0
 11
-77.408958
 21
114.955551
 31
0.0
210
0.0
220
0.0
230
1.0
  0
LINE
  5
3D2
100
AcDbEntity
  8
0
370
    35
390
0
 62
     7
 48
0.025
100
AcDbLine
 10
-77.408958
 20
117.255554
 30
0.0
 11
-77.408958
 21
116.255554
 31
0.0
210
0.0
220
0.0
230
1.0
  0
LINE
  5
3D3
100
AcDbEntity
  8
0
370
    35
390
0
 62
     7
 48
0.0175
100
AcDbLine
 10
-77.408958
 20
117.955551
 30
0.0
 11
-77.408958
 21
117.255554
 31
0.0
210
0.0
220
0.0
230
1.0
  0
LINE
  5
3D4
100
AcDbEntity
  8
0
370
    35
390
0
 62
     7
 48
0.0125
100
AcDbLine
 10
-77.408958
 20
117.955551
 30
0.0
 11
-77.408958
 21
118.455551
 31
0.0
210
0.0
220
0.0
230
1.0
  0
LINE
  5
3D5
100
AcDbEntity
  8
0
370
    35
390
0
 62
     7
 48
0.0075
100
AcDbLine
 10
-77.408958
 20
118.755554
 30
0.0
 11
-77.408958
 21
118.455551
 31
0.0
210
0.0
220
0.0
230
1.0
  0
LINE
  5
3D6
100
AcDbEntity
  8
0
370
    35
390
0
 62
     7
 48
0.02
100
AcDbLine
 10
-76.408958
 20
118.955551
 30
0.0
 11
-77.208961
 21
118.955551
 31
0.0
210
0.0
220
0.0
230
1.0
  0
LINE
  5
3D7
100
AcDbEntity
  8
0
370
    35
390
0
 62
     7
 48
0.0125
100
AcDbLine
 10
-77.208961
 20
118.955551
 30
0.0
 11
-77.208961
 21
118.455551
 31
0.0
210
0.0
220
0.0
230
1.0
  0
LINE
  5
3D8
100
AcDbEntity
  8
0
370
    35
390
0
 62
     7
 48
0.007071
100
AcDbLine
 10
-77.208961
 20
101.755554
 30
0.0
 11
-77.408958
 21
101.955551
 31
0.0
210
0.0
220
0.0
230
1.0
  0
LINE
  5
3D9
100
AcDbEntity
  8
0
370
    35
390
0
 62
     7
 48
0.007071
100
AcDbLine
 10
-77.208961
 20
113.755554
 30
0.0
 11
-77.408958
 21
113.955551
 31
0.0
210
0.0
220
0.0
230
1.0
  0
LINE
  5
3DA
100
AcDbEntity
  8
0
370
    35
390
0
 62
     7
 48
0.0325
100
AcDbLine
 10
-77.208961
 20
114.955551
 30
0.0
 11
-77.208961
 21
116.255554
 31
0.0
210
0.0
220
0.0
230
1.0
  0
LINE
  5
3DB
100
AcDbEntity
  8
0
370
    35
390
0
 62
     7
 48
0.012427
100
AcDbLine
 10
-77.208961
 20
117.455551
 30
0.0
 11
-76.711899
 21
117.455551
 31
0.0
210
0.0
220
0.0
230
1.0
  0
LINE
  5
3DC
100
AcDbEntity
  8
0
370
    35
390
0
 62
     7
 48
0.007071
100
AcDbLine
 10
-77.208961
 20
117.455551
 30
0.0
 11
-77.408958
 21
117.255554
 31
0.0
210
0.0
220
0.0
230
1.0
  0
LINE
  5
3DD
100
AcDbEntity
  8
0
370
    35
390
0
 62
     7
 48
0.0125
100
AcDbLine
 10
-77.208961
 20
117.955551
 30
0.0
 11
-77.208961
 21
117.455551
 31
0.0
210
0.0
220
0.0
230
1.0
  0
LINE
  5
3DE
100
AcDbEntity
  8
0
370
    35
390
0
 62
     7
 48
0.0125
100
AcDbLine
 10
-77.208961
 20
117.955551
 30
0.0
 11
-77.208961
 21
118.455551
 31
0.0
210
0.0
220
0.0
230
1.0
  0
ARC
  5
3DF
100
AcDbEntity
  8
0
370
    35
390
0
 62
     7
100
AcDbCircle
 10
-73.863869
 20
118.155548
 30
0.0
 40
0.8
210
0.0
220
0.0
230
1.0
100
AcDbArc
 50
9.594069
 51
22.024812
  0
ARC
  5
3E0
100
AcDbEntity
  8
0
370
    35
390
0
 62
     7
100
AcDbCircle
 10
-76.88105
 20
119.755554
 30
0.0
 40
0.8
210
0.0
220
0.0
230
1.0
100
AcDbArc
 50
270.000148
 51
298.152056
  0
LINE
  5
3E1
100
AcDbEntity
  8
0
370
    35
390
0
 62
     7
 48
0.426967
100
AcDbLine
 10
-59.633224
 20
117.455551
 30
0.0
 11
-76.711899
 21
117.455551
 31
0.0
210
0.0
220
0.0
230
1.0
  0
LINE
  5
3E2
100
AcDbEntity
  8
0
370
    35
390
0
 62
     7
 48
0.023107
100
AcDbLine
 10
-58.708958
 20
117.455551
 30
0.0
 11
-59.633224
 21
117.455551
 31
0.0
210
0.0
220
0.0
230
1.0
  0
LINE
  5
3E3
100
AcDbEntity
  8
0
370
    35
390
0
 62
     7
100
AcDbLine
 10
-77.208961
 20
90.455551
 30
0.0
 11
-77.208961
 21
114.955551
 31
0.0
210
0.0
220
0.0
230
1.0
  0
LINE
  5
3E4
100
AcDbEntity
  8
0
370
    35
390
0
 62
     7
 48
0.0175
100
AcDbLine
 10
-77.208961
 20
116.255554
 30
0.0
 11
-77.208961
 21
116.955551
 31
0.0
210
0.0
220
0.0
230
1.0
  0
LINE
  5
3E5
100
AcDbEntity
  8
0
370
    35
390
0
 62
     7
 48
0.005178
100
AcDbLine
 10
-77.062515
 20
90.309105
 30
0.0
 11
-77.208961
 21
90.455551
 31
0.0
210
0.0
220
0.0
230
1.0
  0
ARC
  5
3E6
100
AcDbEntity
  8
0
370
    35
390
0
 62
     7
100
AcDbCircle
 10
-76.709145
 20
89.955322
 30
0.0
 40
0.500122
210
0.0
220
0.0
230
1.0
100
AcDbArc
 50
89.978446
 51
134.966191
  0
ARC
  5
3E7
100
AcDbEntity
  8
0
370
    35
390
0
 62
     7
100
AcDbCircle
 10
-76.708961
 20
116.955551
 30
0.0
 40
0.5
210
0.0
220
0.0
230
1.0
100
AcDbArc
 50
90.337325
 51
180.000005
  0
ARC
  5
3E8
100
AcDbEntity
  8
0
370
    35
390
0
 62
     7
100
AcDbCircle
 10
-72.089043
 20
118.455551
 30
0.0
 40
1.0
210
0.0
220
0.0
230
1.0
100
AcDbArc
 50
189.594075
 51
269.999997
  0
ARC
  5
3E9
100
AcDbEntity
  8
0
370
    35
390
0
 62
     7
100
AcDbCircle
 10
-59.63736
 20
117.099426
 30
0.0
 40
0.356097
210
0.0
220
0.0
230
1.0
100
AcDbArc
 50
89.334769
 51
100.229112
  0
ARC
  5
3EA
100
AcDbEntity
  8
0
370
    35
390
0
 62
     7
100
AcDbCircle
 10
-59.663296
 20
117.229225
 30
0.0
 40
0.223809
210
0.0
220
0.0
230
1.0
100
AcDbArc
 50
80.181551
 51
99.595148
  0
LINE
  5
3EB
100
AcDbEntity
  8
0
370
    35
390
0
 62
     7
 48
0.000986
100
AcDbLine
 10
-59.243645
 20
117.155548
 30
0.0
 11
-59.259727
 21
117.191559
 31
0.0
210
0.0
220
0.0
230
1.0
  0
LINE
  5
3EC
100
AcDbEntity
  8
0
370
    35
390
0
 62
     7
 48
0.020867
100
AcDbLine
 10
-58.408958
 20
117.155548
 30
0.0
 11
-59.243645
 21
117.155548
 31
0.0
210
0.0
220
0.0
230
1.0
  0
LINE
  5
3ED
100
AcDbEntity
  8
0
370
    35
390
0
 62
     7
 48
0.010607
100
AcDbLine
 10
-58.408958
 20
117.155548
 30
0.0
 11
-58.708958
 21
117.455551
 31
0.0
210
0.0
220
0.0
230
1.0
  0
LINE
  5
3EE
100
AcDbEntity
  8
0
370
    35
390
0
 62
     7
 48
0.0125
100
AcDbLine
 10
-76.708961
 20
89.955551
 30
0.0
 11
-77.062515
 21
90.309105
 31
0.0
210
0.0
220
0.0
230
1.0
  0
LINE
  5
3EF
100
AcDbEntity
  8
0
370
    35
390
0
 62
     7
 48
0.0125
100
AcDbLine
 10
-58.708958
 20
93.255554
 30
0.0
 11
-59.208958
 21
93.255554
 31
0.0
210
0.0
220
0.0
230
1.0
  0
LINE
  5
3F0
100
AcDbEntity
  8
0
370
    35
390
0
 62
     7
 48
0.127499
100
AcDbLine
 10
-71.609009
 20
90.455551
 30
0.0
 11
-76.708961
 21
90.455551
 31
0.0
210
0.0
220
0.0
230
1.0
  0
LINE
  5
3F1
100
AcDbEntity
  8
0
370
    35
390
0
 62
     7
 48
0.127501
100
AcDbLine
 10
-59.708958
 20
90.455551
 30
0.0
 11
-64.809006
 21
90.455551
 31
0.0
210
0.0
220
0.0
230
1.0
  0
ARC
  5
3F2
100
AcDbEntity
  8
0
370
    35
390
0
 62
     7
100
AcDbCircle
 10
-74.958961
 20
106.155548
 30
0.0
 40
1.75
210
0.0
220
0.0
230
1.0
100
AcDbArc
 50
90.000003
 51
269.999997
  0
LINE
  5
3F3
100
AcDbEntity
  8
0
370
    35
390
0
 62
     7
 48
0.0075
100
AcDbLine
 10
-74.958961
 20
107.905548
 30
0.0
 11
-74.658958
 21
107.905548
 31
0.0
210
0.0
220
0.0
230
1.0
  0
ARC
  5
3F4
100
AcDbEntity
  8
0
370
    35
390
0
 62
     7
100
AcDbCircle
 10
-74.658958
 20
106.155548
 30
0.0
 40
1.75
210
0.0
220
0.0
230
1.0
100
AcDbArc
 50
269.999997
 51
90.000037
  0
LINE
  5
3F5
100
AcDbEntity
  8
0
370
    35
390
0
 62
     7
 48
0.0075
100
AcDbLine
 10
-74.658958
 20
104.405548
 30
0.0
 11
-74.958961
 21
104.405548
 31
0.0
210
0.0
220
0.0
230
1.0
  0
CIRCLE
  5
3F6
100
AcDbEntity
  8
0
370
    35
390
0
 62
     7
100
AcDbCircle
 10
-71.80896
 20
112.455551
 30
0.0
 40
4.15
210
0.0
220
0.0
230
1.0
  0
CIRCLE
  5
3F7
100
AcDbEntity
  8
0
370
    35
390
0
 62
     7
100
AcDbCircle
 10
-63.208958
 20
111.955551
 30
0.0
 40
2.25
210
0.0
220
0.0
230
1.0
  0
ARC
  5
3F8
100
AcDbEntity
  8
0
370
    35
390
0
 62
     7
100
AcDbCircle
 10
-68.208961
 20
99.155548
 30
0.0
 40
7.3
210
0.0
220
0.0
230
1.0
100
AcDbArc
 50
297.758959
 51
242.241036
  0
LINE
  5
3F9
100
AcDbEntity
  8
0
370
    35
390
0
 62
     7
 48
0.127499
100
AcDbLine
 10
-71.609009
 20
89.955551
 30
0.0
 11
-76.708961
 21
89.955551
 31
0.0
210
0.0
220
0.0
230
1.0
  0
LINE
  5
3FA
100
AcDbEntity
  8
0
370
    35
390
0
 62
     7
 48
0.127501
100
AcDbLine
 10
-59.708958
 20
89.955551
 30
0.0
 11
-64.809006
 21
89.955551
 31
0.0
210
0.0
220
0.0
230
1.0
  0
LINE
  5
3FB
100
AcDbEntity
  8
0
370
    35
390
0
 62
     7
 48
0.0125
100
AcDbLine
 10
-59.708958
 20
89.955551
 30
0.0
 11
-59.355408
 21
90.309105
 31
0.0
210
0.0
220
0.0
230
1.0
  0
ARC
  5
3FC
100
AcDbEntity
  8
0
370
    35
390
0
 62
     7
100
AcDbCircle
 10
-59.708679
 20
89.955338
 30
0.0
 40
0.500082
210
0.0
220
0.0
230
1.0
100
AcDbArc
 50
45.0399
 51
90.032063
  0
ARC
  5
3FD
100
AcDbEntity
  8
0
370
    35
390
0
 62
     7
100
AcDbCircle
 10
-59.700584
 20
116.955551
 30
0.0
 40
0.5
210
0.0
220
0.0
230
1.0
100
AcDbArc
 50
6.77167
 51
10.499454
  0
ARC
  5
3FE
100
AcDbEntity
  8
0
370
    35
390
0
 62
     7
100
AcDbCircle
 10
-59.64592
 20
116.967682
 30
0.0
 40
0.44401
210
0.0
220
0.0
230
1.0
100
AcDbArc
 50
10.245349
 51
25.032961
  0
LINE
  5
3FF
100
AcDbEntity
  8
0
370
    35
390
0
 62
     7
 48
0.055
100
AcDbLine
 10
-58.408958
 20
114.955551
 30
0.0
 11
-58.408958
 21
117.155548
 31
0.0
210
0.0
220
0.0
230
1.0
  0
LINE
  5
400
100
AcDbEntity
  8
0
370
    35
390
0
 62
     7
 48
0.025
100
AcDbLine
 10
-58.408958
 20
113.955551
 30
0.0
 11
-58.408958
 21
114.955551
 31
0.0
210
0.0
220
0.0
230
1.0
  0
LINE
  5
401
100
AcDbEntity
  8
0
370
    35
390
0
 62
     7
 48
0.05
100
AcDbLine
 10
-58.408958
 20
111.955551
 30
0.0
 11
-58.408958
 21
113.955551
 31
0.0
210
0.0
220
0.0
230
1.0
  0
LINE
  5
402
100
AcDbEntity
  8
0
370
    35
390
0
 62
     7
100
AcDbLine
 10
-58.408958
 20
111.955551
 30
0.0
 11
-58.408958
 21
90.955551
 31
0.0
210
0.0
220
0.0
230
1.0
  0
LINE
  5
403
100
AcDbEntity
  8
0
370
    35
390
0
 62
     7
 48
0.025
100
AcDbLine
 10
-58.408958
 20
89.955551
 30
0.0
 11
-58.408958
 21
90.955551
 31
0.0
210
0.0
220
0.0
230
1.0
  0
LINE
  5
404
100
AcDbEntity
  8
0
370
    35
390
0
 62
     7
 48
0.159259
100
AcDbLine
 10
-59.208958
 20
90.455551
 30
0.0
 11
-59.208958
 21
96.825897
 31
0.0
210
0.0
220
0.0
230
1.0
  0
LINE
  5
405
100
AcDbEntity
  8
0
370
    35
390
0
 62
     7
 48
0.005178
100
AcDbLine
 10
-59.208958
 20
90.455551
 30
0.0
 11
-59.355408
 21
90.309105
 31
0.0
210
0.0
220
0.0
230
1.0
  0
LINE
  5
406
100
AcDbEntity
  8
0
370
    35
390
0
 62
     7
 48
0.0125
100
AcDbLine
 10
-59.208958
 20
89.955551
 30
0.0
 11
-59.208958
 21
90.455559
 31
0.0
210
0.0
220
0.0
230
1.0
  0
LINE
  5
407
100
AcDbEntity
  8
0
370
    35
390
0
 62
     7
 48
0.0125
100
AcDbLine
 10
-58.708958
 20
91.255554
 30
0.0
 11
-59.208958
 21
91.255554
 31
0.0
210
0.0
220
0.0
230
1.0
  0
LINE
  5
408
100
AcDbEntity
  8
0
370
    35
390
0
 62
     7
 48
0.05
100
AcDbLine
 10
-58.708958
 20
93.255554
 30
0.0
 11
-58.708958
 21
91.255554
 31
0.0
210
0.0
220
0.0
230
1.0
  0
LINE
  5
409
100
AcDbEntity
  8
0
370
    35
390
0
 62
     7
 48
0.010607
100
AcDbLine
 10
-58.708958
 20
91.255554
 30
0.0
 11
-58.408958
 21
90.955551
 31
0.0
210
0.0
220
0.0
230
1.0
  0
ARC
  5
40A
100
AcDbEntity
  8
0
370
    35
390
0
 62
     7
100
AcDbCircle
 10
-58.708958
 20
96.825897
 30
0.0
 40
0.5
210
0.0
220
0.0
230
1.0
100
AcDbArc
 50
173.220428
 51
180.000005
  0
ARC
  5
40B
100
AcDbEntity
  8
0
370
    35
390
0
 62
     7
100
AcDbCircle
 10
-143.917297
 20
106.955551
 30
0.0
 40
85.308333
210
0.0
220
0.0
230
1.0
100
AcDbArc
 50
353.220434
 51
6.771668
  0
ARC
  5
40C
100
AcDbEntity
  8
0
370
    35
390
0
 62
     7
100
AcDbCircle
 10
-74.958961
 20
106.155548
 30
0.0
 40
1.55
210
0.0
220
0.0
230
1.0
100
AcDbArc
 50
90.000003
 51
269.999997
  0
LINE
  5
40D
100
AcDbEntity
  8
0
370
    35
390
0
 62
     7
 48
0.0075
100
AcDbLine
 10
-74.958961
 20
107.705551
 30
0.0
 11
-74.658958
 21
107.705551
 31
0.0
210
0.0
220
0.0
230
1.0
  0
ARC
  5
40E
100
AcDbEntity
  8
0
370
    35
390
0
 62
     7
100
AcDbCircle
 10
-74.658958
 20
106.155548
 30
0.0
 40
1.55
210
0.0
220
0.0
230
1.0
100
AcDbArc
 50
269.999997
 51
90.000003
  0
LINE
  5
40F
100
AcDbEntity
  8
0
370
    35
390
0
 62
     7
 48
0.0075
100
AcDbLine
 10
-74.658958
 20
104.605553
 30
0.0
 11
-74.958961
 21
104.605553
 31
0.0
210
0.0
220
0.0
230
1.0
  0
CIRCLE
  5
410
100
AcDbEntity
  8
0
370
    35
390
0
 62
     7
100
AcDbCircle
 10
-63.208958
 20
111.955551
 30
0.0
 40
2.05
210
0.0
220
0.0
230
1.0
  0
ARC
  5
411
100
AcDbEntity
  8
0
370
    35
390
0
 62
     7
100
AcDbCircle
 10
-68.208961
 20
99.155548
 30
0.0
 40
7.1
210
0.0
220
0.0
230
1.0
100
AcDbArc
 50
298.61181
 51
180.000005
  0
ARC
  5
412
100
AcDbEntity
  8
0
370
    35
390
0
 62
     7
100
AcDbCircle
 10
-68.208961
 20
99.155548
 30
0.0
 40
7.1
210
0.0
220
0.0
230
1.0
100
AcDbArc
 50
180.000005
 51
241.388178
  0
LINE
  5
413
100
AcDbEntity
  8
0
370
    35
390
0
 62
     7
 48
0.01597
100
AcDbLine
 10
-58.408958
 20
113.955551
 30
0.0
 11
-58.860657
 21
113.503853
 31
0.0
210
0.0
220
0.0
230
1.0
  0
LINE
  5
414
100
AcDbEntity
  8
0
370
    35
390
0
 62
     7
 48
0.02
100
AcDbLine
 10
-58.408958
 20
89.955551
 30
0.0
 11
-59.208958
 21
89.955551
 31
0.0
210
0.0
220
0.0
230
1.0
  0
ARC
  5
415
100
AcDbEntity
  8
0
370
    35
390
0
 62
     7
100
AcDbCircle
 10
-71.80896
 20
112.455551
 30
0.0
 40
3.75
210
0.0
220
0.0
230
1.0
100
AcDbArc
 50
170.018312
 51
189.981688
  0
ARC
  5
416
100
AcDbEntity
  8
0
370
    35
390
0
 62
     7
100
AcDbCircle
 10
-71.80896
 20
112.455551
 30
0.0
 40
3.75
210
0.0
220
0.0
230
1.0
100
AcDbArc
 50
9.981683
 51
170.018312
  0
ARC
  5
417
100
AcDbEntity
  8
0
370
    35
390
0
 62
     7
100
AcDbCircle
 10
-71.80896
 20
112.455551
 30
0.0
 40
3.75
210
0.0
220
0.0
230
1.0
100
AcDbArc
 50
350.018317
 51
9.981683
  0
ARC
  5
418
100
AcDbEntity
  8
0
370
    35
390
0
 62
     7
100
AcDbCircle
 10
-71.80896
 20
112.455551
 30
0.0
 40
3.75
210
0.0
220
0.0
230
1.0
100
AcDbArc
 50
189.981688
 51
350.018317
  0
LINE
  5
419
100
AcDbEntity
  8
0
370
    35
390
0
 62
     7
 48
0.174499
100
AcDbLine
 10
-68.31897
 20
113.105553
 30
0.0
 11
-75.298943
 21
113.105553
 31
0.0
210
0.0
220
0.0
230
1.0
  0
LINE
  5
41A
100
AcDbEntity
  8
0
370
    35
390
0
 62
     7
 48
0.005081
100
AcDbLine
 10
-68.31897
 20
113.105553
 30
0.0
 11
-68.115723
 21
113.105553
 31
0.0
210
0.0
220
0.0
230
1.0
  0
LINE
  5
41B
100
AcDbEntity
  8
0
370
    35
390
0
 62
     7
 48
0.005081
100
AcDbLine
 10
-75.298943
 20
113.105553
 30
0.0
 11
-75.502197
 21
113.105553
 31
0.0
210
0.0
220
0.0
230
1.0
  0
ARC
  5
41C
100
AcDbEntity
  8
0
370
    35
390
0
 62
     7
100
AcDbCircle
 10
-71.80896
 20
112.455551
 30
0.0
 40
3.55
210
0.0
220
0.0
230
1.0
100
AcDbArc
 50
10.550296
 51
169.449699
  0
LINE
  5
41D
100
AcDbEntity
  8
0
370
    35
390
0
 62
     7
 48
0.174499
100
AcDbLine
 10
-75.298943
 20
111.80555
 30
0.0
 11
-68.31897
 21
111.80555
 31
0.0
210
0.0
220
0.0
230
1.0
  0
LINE
  5
41E
100
AcDbEntity
  8
0
370
    35
390
0
 62
     7
 48
0.005081
100
AcDbLine
 10
-75.298943
 20
111.80555
 30
0.0
 11
-75.502197
 21
111.80555
 31
0.0
210
0.0
220
0.0
230
1.0
  0
LINE
  5
41F
100
AcDbEntity
  8
0
370
    35
390
0
 62
     7
 48
0.005081
100
AcDbLine
 10
-68.31897
 20
111.80555
 30
0.0
 11
-68.115723
 21
111.80555
 31
0.0
210
0.0
220
0.0
230
1.0
  0
ARC
  5
420
100
AcDbEntity
  8
0
370
    35
390
0
 62
     7
100
AcDbCircle
 10
-71.80896
 20
112.455551
 30
0.0
 40
3.55
210
0.0
220
0.0
230
1.0
100
AcDbArc
 50
190.550301
 51
349.449704
  0
ARC
  5
421
100
AcDbEntity
  8
0
370
    35
390
0
 62
     7
100
AcDbCircle
 10
-68.208961
 20
99.155548
 30
0.0
 40
7.0
210
0.0
220
0.0
230
1.0
100
AcDbArc
 50
299.059263
 51
240.940732
  0
ARC
  5
422
100
AcDbEntity
  8
0
370
    35
390
0
 62
     7
100
AcDbCircle
 10
-68.208961
 20
99.155548
 30
0.0
 40
6.9
210
0.0
220
0.0
230
1.0
100
AcDbArc
 50
299.521667
 51
240.478287
  0
ARC
  5
423
100
AcDbEntity
  8
0
370
    35
390
0
 62
     7
100
AcDbCircle
 10
-72.077881
 20
118.459312
 30
0.0
 40
1.011549
210
0.0
220
0.0
230
1.0
100
AcDbArc
 50
189.900832
 51
214.219393
  0
ARC
  5
424
100
AcDbEntity
  8
0
370
    35
390
0
 62
     7
100
AcDbCircle
 10
-59.700584
 20
116.955551
 30
0.0
 40
0.5
210
0.0
220
0.0
230
1.0
100
AcDbArc
 50
28.136435
 51
81.320137
  0
LINE
  5
425
100
AcDbEntity
  8
0
370
    35
390
0
 62
     7
 48
0.000238
100
AcDbLine
 10
-59.625153
 20
117.449829
 30
0.0
 11
-59.615761
 21
117.448303
 31
0.0
210
0.0
220
0.0
230
1.0
  0
LINE
  5
426
100
AcDbEntity
  8
0
370
    35
390
0
 62
     7
100
AcDbLine
 10
-71.608955
 20
24.155548
 30
0.0
 11
-71.608955
 21
99.155548
 31
0.0
210
0.0
220
0.0
230
1.0
  0
ARC
  5
427
100
AcDbEntity
  8
0
370
    35
390
0
 62
     7
100
AcDbCircle
 10
-68.208961
 20
99.155548
 30
0.0
 40
3.4
210
0.0
220
0.0
230
1.0
100
AcDbArc
 50
0.0
 51
180.000005
  0
LINE
  5
428
100
AcDbEntity
  8
0
370
    35
390
0
 62
     7
100
AcDbLine
 10
-64.80896
 20
24.155548
 30
0.0
 11
-64.80896
 21
99.155548
 31
0.0
210
0.0
220
0.0
230
1.0
  0
LINE
  5
429
100
AcDbEntity
  8
0
370
    35
390
0
 62
     7
 48
0.25
100
AcDbLine
 10
-71.608955
 20
24.155548
 30
0.0
 11
-71.608955
 21
14.155548
 31
0.0
210
0.0
220
0.0
230
1.0
  0
LINE
  5
42A
100
AcDbEntity
  8
0
370
    35
390
0
 62
     7
 48
0.25
100
AcDbLine
 10
-64.80896
 20
24.155548
 30
0.0
 11
-64.80896
 21
14.155548
 31
0.0
210
0.0
220
0.0
230
1.0
  0
LINE
  5
42B
100
AcDbEntity
  8
0
370
    35
390
0
 62
     7
 48
0.17
100
AcDbLine
 10
-64.80896
 20
14.155548
 30
0.0
 11
-71.608955
 21
14.155548
 31
0.0
210
0.0
220
0.0
230
1.0
  0
ARC
  5
42C
100
AcDbEntity
  8
0
370
    35
390
0
 62
     7
100
AcDbCircle
 10
-68.208961
 20
99.155548
 30
0.0
 40
3.55
210
0.0
220
0.0
230
1.0
100
AcDbArc
 50
344.596907
 51
195.402372
  0
ARC
  5
42D
100
AcDbEntity
  8
0
370
    35
390
0
 62
     7
100
AcDbCircle
 10
-68.208961
 20
99.155548
 30
0.0
 40
4.7125
210
0.0
220
0.0
230
1.0
100
AcDbArc
 50
12.251403
 51
167.748599
  0
LINE
  5
42E
100
AcDbEntity
  8
0
370
    35
390
0
 62
     7
 48
0.001599
100
AcDbLine
 10
-63.667759
 20
100.155548
 30
0.0
 11
-63.603783
 21
100.155548
 31
0.0
210
0.0
220
0.0
230
1.0
  0
ARC
  5
42F
100
AcDbEntity
  8
0
370
    35
390
0
 62
     7
100
AcDbCircle
 10
-68.208961
 20
99.155548
 30
0.0
 40
4.65
210
0.0
220
0.0
230
1.0
100
AcDbArc
 50
12.418682
 51
167.581314
  0
ARC
  5
430
100
AcDbEntity
  8
0
370
    35
390
0
 62
     7
100
AcDbCircle
 10
-68.208961
 20
99.155548
 30
0.0
 40
4.575
210
0.0
220
0.0
230
1.0
100
AcDbArc
 50
12.625598
 51
167.3744
  0
LINE
  5
431
100
AcDbEntity
  8
0
370
    35
390
0
 62
     7
 48
0.001602
100
AcDbLine
 10
-63.808655
 20
100.155548
 30
0.0
 11
-63.744583
 21
100.155548
 31
0.0
210
0.0
220
0.0
230
1.0
  0
ARC
  5
432
100
AcDbEntity
  8
0
370
    35
390
0
 62
     7
100
AcDbCircle
 10
-68.208961
 20
99.155548
 30
0.0
 40
4.5125
210
0.0
220
0.0
230
1.0
100
AcDbArc
 50
12.803416
 51
167.196583
  0
ARC
  5
433
100
AcDbEntity
  8
0
370
    35
390
0
 62
     7
100
AcDbCircle
 10
-68.208961
 20
99.155548
 30
0.0
 40
4.4375
210
0.0
220
0.0
230
1.0
100
AcDbArc
 50
13.023584
 51
166.976419
  0
LINE
  5
434
100
AcDbEntity
  8
0
370
    35
390
0
 62
     7
 48
0.001604
100
AcDbLine
 10
-63.949776
 20
100.155548
 30
0.0
 11
-63.885605
 21
100.155548
 31
0.0
210
0.0
220
0.0
230
1.0
  0
ARC
  5
435
100
AcDbEntity
  8
0
370
    35
390
0
 62
     7
100
AcDbCircle
 10
-68.208961
 20
99.155548
 30
0.0
 40
4.375
210
0.0
220
0.0
230
1.0
100
AcDbArc
 50
13.21298
 51
166.787018
  0
ARC
  5
436
100
AcDbEntity
  8
0
370
    35
390
0
 62
     7
100
AcDbCircle
 10
-68.208961
 20
99.155548
 30
0.0
 40
4.25
210
0.0
220
0.0
230
1.0
100
AcDbArc
 50
323.12973
 51
216.870258
  0
ARC
  5
437
100
AcDbEntity
  8
0
370
    35
390
0
 62
     7
100
AcDbCircle
 10
-68.208961
 20
99.155548
 30
0.0
 40
4.375
210
0.0
220
0.0
230
1.0
100
AcDbArc
 50
320.999388
 51
346.78702
  0
ARC
  5
438
100
AcDbEntity
  8
0
370
    35
390
0
 62
     7
100
AcDbCircle
 10
-68.208961
 20
99.155548
 30
0.0
 40
4.375
210
0.0
220
0.0
230
1.0
100
AcDbArc
 50
193.212982
 51
219.000594
  0
LINE
  5
439
100
AcDbEntity
  8
0
370
    35
390
0
 62
     7
 48
0.001604
100
AcDbLine
 10
-63.949776
 20
98.155548
 30
0.0
 11
-63.885605
 21
98.155548
 31
0.0
210
0.0
220
0.0
230
1.0
  0
ARC
  5
43A
100
AcDbEntity
  8
0
370
    35
390
0
 62
     7
100
AcDbCircle
 10
-68.208961
 20
99.155548
 30
0.0
 40
4.4375
210
0.0
220
0.0
230
1.0
100
AcDbArc
 50
193.023581
 51
219.986545
  0
ARC
  5
43B
100
AcDbEntity
  8
0
370
    35
390
0
 62
     7
100
AcDbCircle
 10
-68.208961
 20
99.155548
 30
0.0
 40
4.4375
210
0.0
220
0.0
230
1.0
100
AcDbArc
 50
320.013443
 51
346.976416
  0
ARC
  5
43C
100
AcDbEntity
  8
0
370
    35
390
0
 62
     7
100
AcDbCircle
 10
-68.208961
 20
99.155548
 30
0.0
 40
4.5125
210
0.0
220
0.0
230
1.0
100
AcDbArc
 50
318.891093
 51
347.196584
  0
ARC
  5
43D
100
AcDbEntity
  8
0
370
    35
390
0
 62
     7
100
AcDbCircle
 10
-68.208961
 20
99.155548
 30
0.0
 40
4.5125
210
0.0
220
0.0
230
1.0
100
AcDbArc
 50
192.803417
 51
221.108896
  0
LINE
  5
43E
100
AcDbEntity
  8
0
370
    35
390
0
 62
     7
 48
0.001602
100
AcDbLine
 10
-63.808655
 20
98.155548
 30
0.0
 11
-63.744583
 21
98.155548
 31
0.0
210
0.0
220
0.0
230
1.0
  0
ARC
  5
43F
100
AcDbEntity
  8
0
370
    35
390
0
 62
     7
100
AcDbCircle
 10
-68.208961
 20
99.155548
 30
0.0
 40
4.575
210
0.0
220
0.0
230
1.0
100
AcDbArc
 50
192.6256
 51
221.997954
  0
ARC
  5
440
100
AcDbEntity
  8
0
370
    35
390
0
 62
     7
100
AcDbCircle
 10
-68.208961
 20
99.155548
 30
0.0
 40
4.575
210
0.0
220
0.0
230
1.0
100
AcDbArc
 50
318.002021
 51
347.374402
  0
ARC
  5
441
100
AcDbEntity
  8
0
370
    35
390
0
 62
     7
100
AcDbCircle
 10
-68.208961
 20
99.155548
 30
0.0
 40
4.65
210
0.0
220
0.0
230
1.0
100
AcDbArc
 50
316.985593
 51
347.581318
  0
ARC
  5
442
100
AcDbEntity
  8
0
370
    35
390
0
 62
     7
100
AcDbCircle
 10
-68.208961
 20
99.155548
 30
0.0
 40
4.65
210
0.0
220
0.0
230
1.0
100
AcDbArc
 50
192.418686
 51
223.014354
  0
LINE
  5
443
100
AcDbEntity
  8
0
370
    35
390
0
 62
     7
 48
0.001599
100
AcDbLine
 10
-63.667759
 20
98.155548
 30
0.0
 11
-63.603783
 21
98.155548
 31
0.0
210
0.0
220
0.0
230
1.0
  0
ARC
  5
444
100
AcDbEntity
  8
0
370
    35
390
0
 62
     7
100
AcDbCircle
 10
-68.208961
 20
99.155548
 30
0.0
 40
4.7125
210
0.0
220
0.0
230
1.0
100
AcDbArc
 50
192.251401
 51
223.822666
  0
ARC
  5
445
100
AcDbEntity
  8
0
370
    35
390
0
 62
     7
100
AcDbCircle
 10
-68.208961
 20
99.155548
 30
0.0
 40
4.7125
210
0.0
220
0.0
230
1.0
100
AcDbArc
 50
316.177155
 51
347.748597
  0
LINE
  5
446
100
AcDbEntity
  8
0
370
    35
390
0
 62
     7
 48
0.001602
100
AcDbLine
 10
-72.609261
 20
98.155548
 30
0.0
 11
-72.673332
 21
98.155548
 31
0.0
210
0.0
220
0.0
230
1.0
  0
LINE
  5
447
100
AcDbEntity
  8
0
370
    35
390
0
 62
     7
 48
0.001604
100
AcDbLine
 10
-72.46814
 20
98.155548
 30
0.0
 11
-72.532318
 21
98.155548
 31
0.0
210
0.0
220
0.0
230
1.0
  0
LINE
  5
448
100
AcDbEntity
  8
0
370
    35
390
0
 62
     7
 48
0.001604
100
AcDbLine
 10
-72.46814
 20
100.155548
 30
0.0
 11
-72.532318
 21
100.155548
 31
0.0
210
0.0
220
0.0
230
1.0
  0
LINE
  5
449
100
AcDbEntity
  8
0
370
    35
390
0
 62
     7
 48
0.001602
100
AcDbLine
 10
-72.609261
 20
100.155548
 30
0.0
 11
-72.673332
 21
100.155548
 31
0.0
210
0.0
220
0.0
230
1.0
  0
LINE
  5
44A
100
AcDbEntity
  8
0
370
    35
390
0
 62
     7
 48
0.001599
100
AcDbLine
 10
-72.75016
 20
100.155548
 30
0.0
 11
-72.814133
 21
100.155548
 31
0.0
210
0.0
220
0.0
230
1.0
  0
LINE
  5
44B
100
AcDbEntity
  8
0
370
    35
390
0
 62
     7
 48
0.001599
100
AcDbLine
 10
-72.75016
 20
98.155548
 30
0.0
 11
-72.814133
 21
98.155548
 31
0.0
210
0.0
220
0.0
230
1.0
  0
ARC
  5
44C
100
AcDbEntity
  8
0
370
    35
390
0
 62
     7
100
AcDbCircle
 10
-68.208961
 20
99.155548
 30
0.0
 40
5.0
210
0.0
220
0.0
230
1.0
100
AcDbArc
 50
312.843527
 51
227.156454
  0
ARC
  5
44D
100
AcDbEntity
  8
0
370
    35
390
0
 62
     7
100
AcDbCircle
 10
-68.208961
 20
99.155548
 30
0.0
 40
5.3
210
0.0
220
0.0
230
1.0
100
AcDbArc
 50
309.904343
 51
230.095649
  0
ARC
  5
44E
100
AcDbEntity
  8
0
370
    35
390
0
 62
     7
100
AcDbCircle
 10
-68.208961
 20
99.155548
 30
0.0
 40
7.0
210
0.0
220
0.0
230
1.0
100
AcDbArc
 50
299.059263
 51
61.352113
  0
ARC
  5
44F
100
AcDbEntity
  8
0
370
    35
390
0
 62
     7
100
AcDbCircle
 10
-68.208961
 20
99.155548
 30
0.0
 40
6.3
210
0.0
220
0.0
230
1.0
100
AcDbArc
 50
105.0
 51
135.0
  0
ARC
  5
450
100
AcDbEntity
  8
0
370
    35
390
0
 62
     7
100
AcDbCircle
 10
-68.208961
 20
99.155548
 30
0.0
 40
6.3
210
0.0
220
0.0
230
1.0
100
AcDbArc
 50
345.0
 51
15.0
  0
ARC
  5
451
100
AcDbEntity
  8
0
370
    35
390
0
 62
     7
100
AcDbCircle
 10
-68.208961
 20
99.155548
 30
0.0
 40
6.3
210
0.0
220
0.0
230
1.0
100
AcDbArc
 50
302.661962
 51
314.999999
  0
ARC
  5
452
100
AcDbEntity
  8
0
370
    35
390
0
 62
     7
100
AcDbCircle
 10
-68.208961
 20
99.155548
 30
0.0
 40
6.3
210
0.0
220
0.0
230
1.0
100
AcDbArc
 50
225.0
 51
237.338012
  0
ARC
  5
453
100
AcDbEntity
  8
0
370
    35
390
0
 62
     7
100
AcDbCircle
 10
-68.208961
 20
99.155548
 30
0.0
 40
6.3
210
0.0
220
0.0
230
1.0
100
AcDbArc
 50
164.999994
 51
195.000006
  0
ARC
  5
454
100
AcDbEntity
  8
0
370
    35
390
0
 62
     7
100
AcDbCircle
 10
-68.208961
 20
99.155548
 30
0.0
 40
6.3
210
0.0
220
0.0
230
1.0
100
AcDbArc
 50
45.000001
 51
74.999999
  0
ARC
  5
455
100
AcDbEntity
  8
0
370
    35
390
0
 62
     7
100
AcDbCircle
 10
-68.208961
 20
99.155548
 30
0.0
 40
6.3
210
0.0
220
0.0
230
1.0
100
AcDbArc
 50
102.247215
 51
105.0
  0
ARC
  5
456
100
AcDbEntity
  8
0
370
    35
390
0
 62
     7
100
AcDbCircle
 10
-68.208961
 20
99.155548
 30
0.0
 40
6.3
210
0.0
220
0.0
230
1.0
100
AcDbArc
 50
135.0
 51
137.752785
  0
LINE
  5
457
100
AcDbEntity
  8
0
370
    35
390
0
 62
     7
 48
0.014261
100
AcDbLine
 10
-69.839516
 20
105.240883
 30
0.0
 11
-69.691879
 21
105.791885
 31
0.0
210
0.0
220
0.0
230
1.0
  0
LINE
  5
458
100
AcDbEntity
  8
0
370
    35
390
0
 62
     7
 48
0.014261
100
AcDbLine
 10
-62.123627
 20
100.78611
 30
0.0
 11
-61.720264
 21
101.189468
 31
0.0
210
0.0
220
0.0
230
1.0
  0
ARC
  5
459
100
AcDbEntity
  8
0
370
    35
390
0
 62
     7
100
AcDbCircle
 10
-68.208961
 20
99.155548
 30
0.0
 40
6.3
210
0.0
220
0.0
230
1.0
100
AcDbArc
 50
342.247213
 51
345.0
  0
ARC
  5
45A
100
AcDbEntity
  8
0
370
    35
390
0
 62
     7
100
AcDbCircle
 10
-68.208961
 20
99.155548
 30
0.0
 40
6.3
210
0.0
220
0.0
230
1.0
100
AcDbArc
 50
15.0
 51
17.75279
  0
LINE
  5
45B
100
AcDbEntity
  8
0
370
    35
390
0
 62
     7
 48
0.014261
100
AcDbLine
 10
-62.123627
 20
97.524994
 30
0.0
 11
-61.720264
 21
97.121628
 31
0.0
210
0.0
220
0.0
230
1.0
  0
LINE
  5
45C
100
AcDbEntity
  8
0
370
    35
390
0
 62
     7
 48
0.014261
100
AcDbLine
 10
-63.754189
 20
94.700775
 30
0.0
 11
-63.203182
 21
94.553139
 31
0.0
210
0.0
220
0.0
230
1.0
  0
ARC
  5
45D
100
AcDbEntity
  8
0
370
    35
390
0
 62
     7
100
AcDbCircle
 10
-68.208961
 20
99.155548
 30
0.0
 40
6.3
210
0.0
220
0.0
230
1.0
100
AcDbArc
 50
314.999999
 51
317.75279
  0
ARC
  5
45E
100
AcDbEntity
  8
0
370
    35
390
0
 62
     7
100
AcDbCircle
 10
-68.208961
 20
99.155548
 30
0.0
 40
6.3
210
0.0
220
0.0
230
1.0
100
AcDbArc
 50
222.247215
 51
225.0
  0
LINE
  5
45F
100
AcDbEntity
  8
0
370
    35
390
0
 62
     7
 48
0.014261
100
AcDbLine
 10
-72.663734
 20
94.700775
 30
0.0
 11
-73.214737
 21
94.553139
 31
0.0
210
0.0
220
0.0
230
1.0
  0
LINE
  5
460
100
AcDbEntity
  8
0
370
    35
390
0
 62
     7
 48
0.014261
100
AcDbLine
 10
-74.294289
 20
97.524994
 30
0.0
 11
-74.697655
 21
97.121628
 31
0.0
210
0.0
220
0.0
230
1.0
  0
ARC
  5
461
100
AcDbEntity
  8
0
370
    35
390
0
 62
     7
100
AcDbCircle
 10
-68.208961
 20
99.155548
 30
0.0
 40
6.3
210
0.0
220
0.0
230
1.0
100
AcDbArc
 50
162.24721
 51
164.999994
  0
ARC
  5
462
100
AcDbEntity
  8
0
370
    35
390
0
 62
     7
100
AcDbCircle
 10
-68.208961
 20
99.155548
 30
0.0
 40
6.3
210
0.0
220
0.0
230
1.0
100
AcDbArc
 50
195.000006
 51
197.75279
  0
LINE
  5
463
100
AcDbEntity
  8
0
370
    35
390
0
 62
     7
 48
0.014261
100
AcDbLine
 10
-74.294289
 20
100.78611
 30
0.0
 11
-74.697655
 21
101.189468
 31
0.0
210
0.0
220
0.0
230
1.0
  0
LINE
  5
464
100
AcDbEntity
  8
0
370
    35
390
0
 62
     7
 48
0.014261
100
AcDbLine
 10
-72.663734
 20
103.610321
 30
0.0
 11
-73.214737
 21
103.757965
 31
0.0
210
0.0
220
0.0
230
1.0
  0
ARC
  5
465
100
AcDbEntity
  8
0
370
    35
390
0
 62
     7
100
AcDbCircle
 10
-68.208961
 20
99.155548
 30
0.0
 40
6.3
210
0.0
220
0.0
230
1.0
100
AcDbArc
 50
42.24721
 51
45.000001
  0
ARC
  5
466
100
AcDbEntity
  8
0
370
    35
390
0
 62
     7
100
AcDbCircle
 10
-68.208961
 20
99.155548
 30
0.0
 40
6.3
210
0.0
220
0.0
230
1.0
100
AcDbArc
 50
74.999999
 51
77.75279
  0
LINE
  5
467
100
AcDbEntity
  8
0
370
    35
390
0
 62
     7
 48
0.014261
100
AcDbLine
 10
-63.754189
 20
103.610321
 30
0.0
 11
-63.203182
 21
103.757965
 31
0.0
210
0.0
220
0.0
230
1.0
  0
LINE
  5
468
100
AcDbEntity
  8
0
370
    35
390
0
 62
     7
 48
0.014261
100
AcDbLine
 10
-66.5784
 20
105.240883
 30
0.0
 11
-66.726036
 21
105.791885
 31
0.0
210
0.0
220
0.0
230
1.0
  0
ARC
  5
469
100
AcDbEntity
  8
0
370
    35
390
0
 62
     7
100
AcDbCircle
 10
-68.208961
 20
99.155548
 30
0.0
 40
6.8
210
0.0
220
0.0
230
1.0
100
AcDbArc
 50
17.403926
 51
42.596075
  0
ARC
  5
46A
100
AcDbEntity
  8
0
370
    35
390
0
 62
     7
100
AcDbCircle
 10
-68.208961
 20
99.155548
 30
0.0
 40
6.8
210
0.0
220
0.0
230
1.0
100
AcDbArc
 50
77.403925
 51
102.596073
  0
ARC
  5
46B
100
AcDbEntity
  8
0
370
    35
390
0
 62
     7
100
AcDbCircle
 10
-68.208961
 20
99.155548
 30
0.0
 40
6.8
210
0.0
220
0.0
230
1.0
100
AcDbArc
 50
137.403926
 51
162.596068
  0
LINE
  5
46C
100
AcDbEntity
  8
0
370
    35
390
0
 62
     7
 48
0.096047
100
AcDbLine
 10
-69.54538
 20
105.312172
 30
0.0
 11
-72.872536
 21
103.391235
 31
0.0
210
0.0
220
0.0
230
1.0
  0
ARC
  5
46D
100
AcDbEntity
  8
0
370
    35
390
0
 62
     7
100
AcDbCircle
 10
-68.208961
 20
99.155548
 30
0.0
 40
6.8
210
0.0
220
0.0
230
1.0
100
AcDbArc
 50
317.403925
 51
342.596074
  0
LINE
  5
46E
100
AcDbEntity
  8
0
370
    35
390
0
 62
     7
 48
0.096047
100
AcDbLine
 10
-62.208958
 20
97.234619
 30
0.0
 11
-62.208958
 21
101.076492
 31
0.0
210
0.0
220
0.0
230
1.0
  0
LINE
  5
46F
100
AcDbEntity
  8
0
370
    35
390
0
 62
     7
 48
0.036474
100
AcDbLine
 10
-64.808884
 20
94.190384
 30
0.0
 11
-63.54538
 21
94.919868
 31
0.0
210
0.0
220
0.0
230
1.0
  0
ARC
  5
470
100
AcDbEntity
  8
0
370
    35
390
0
 62
     7
100
AcDbCircle
 10
-68.208961
 20
99.155548
 30
0.0
 40
6.8
210
0.0
220
0.0
230
1.0
100
AcDbArc
 50
197.403932
 51
222.596074
  0
LINE
  5
471
100
AcDbEntity
  8
0
370
    35
390
0
 62
     7
 48
0.036474
100
AcDbLine
 10
-72.872536
 20
94.919868
 30
0.0
 11
-71.609039
 21
94.190384
 31
0.0
210
0.0
220
0.0
230
1.0
  0
LINE
  5
472
100
AcDbEntity
  8
0
370
    35
390
0
 62
     7
 48
0.096047
100
AcDbLine
 10
-74.208961
 20
101.076492
 30
0.0
 11
-74.208961
 21
97.234619
 31
0.0
210
0.0
220
0.0
230
1.0
  0
LINE
  5
473
100
AcDbEntity
  8
0
370
    35
390
0
 62
     7
 48
0.096047
100
AcDbLine
 10
-63.54538
 20
103.391235
 30
0.0
 11
-66.872536
 21
105.312172
 31
0.0
210
0.0
220
0.0
230
1.0
  0
ARC
  5
474
100
AcDbEntity
  8
0
370
    35
390
0
 62
     7
100
AcDbCircle
 10
-68.208961
 20
99.155548
 30
0.0
 40
6.3
210
0.0
220
0.0
230
1.0
100
AcDbArc
 50
77.75279
 51
102.247215
  0
ARC
  5
475
100
AcDbEntity
  8
0
370
    35
390
0
 62
     7
100
AcDbCircle
 10
-68.208961
 20
99.155548
 30
0.0
 40
6.3
210
0.0
220
0.0
230
1.0
100
AcDbArc
 50
137.752785
 51
162.24721
  0
ARC
  5
476
100
AcDbEntity
  8
0
370
    35
390
0
 62
     7
100
AcDbCircle
 10
-68.208961
 20
99.155548
 30
0.0
 40
5.9
210
0.0
220
0.0
230
1.0
100
AcDbArc
 50
305.188603
 51
234.811389
  0
ARC
  5
477
100
AcDbEntity
  8
0
370
    35
390
0
 62
     7
100
AcDbCircle
 10
-68.208961
 20
99.155548
 30
0.0
 40
6.3
210
0.0
220
0.0
230
1.0
100
AcDbArc
 50
317.75279
 51
342.247213
  0
ARC
  5
478
100
AcDbEntity
  8
0
370
    35
390
0
 62
     7
100
AcDbCircle
 10
-68.208961
 20
99.155548
 30
0.0
 40
6.3
210
0.0
220
0.0
230
1.0
100
AcDbArc
 50
17.75279
 51
42.24721
  0
ARC
  5
479
100
AcDbEntity
  8
0
370
    35
390
0
 62
     7
100
AcDbCircle
 10
-68.208961
 20
99.155548
 30
0.0
 40
6.3
210
0.0
220
0.0
230
1.0
100
AcDbArc
 50
197.75279
 51
222.247215
  0
ARC
  5
47A
100
AcDbEntity
  8
0
370
    35
390
0
 62
     7
100
AcDbCircle
 10
-68.208961
 20
99.155548
 30
0.0
 40
7.0
210
0.0
220
0.0
230
1.0
100
AcDbArc
 50
299.059263
 51
61.352113
  0
LINE
  5
47B
100
AcDbEntity
  8
0
370
    35
390
0
 62
     7
100
AcDbLine
 10
-82.408958
 20
163.455551
 30
0.0
 11
-82.408958
 21
129.655548
 31
0.0
210
0.0
220
0.0
230
1.0
  0
LINE
  5
47C
100
AcDbEntity
  8
0
370
    35
390
0
 62
     7
 48
0.0125
100
AcDbLine
 10
-82.408958
 20
129.655548
 30
0.0
 11
-81.908958
 21
129.655548
 31
0.0
210
0.0
220
0.0
230
1.0
  0
LINE
  5
47D
100
AcDbEntity
  8
0
370
    35
390
0
 62
     7
 48
0.0125
100
AcDbLine
 10
-82.408958
 20
163.455551
 30
0.0
 11
-81.908958
 21
163.455551
 31
0.0
210
0.0
220
0.0
230
1.0
  0
LINE
  5
47E
100
AcDbEntity
  8
0
370
    35
390
0
 62
     7
 48
0.1675
100
AcDbLine
 10
-79.408958
 20
164.455551
 30
0.0
 11
-72.708961
 21
164.455551
 31
0.0
210
0.0
220
0.0
230
1.0
  0
LINE
  5
47F
100
AcDbEntity
  8
0
370
    35
390
0
 62
     7
 48
0.017678
100
AcDbLine
 10
-79.908958
 20
163.955551
 30
0.0
 11
-79.408958
 21
164.455551
 31
0.0
210
0.0
220
0.0
230
1.0
  0
ARC
  5
480
100
AcDbEntity
  8
0
370
    35
390
0
 62
     7
100
AcDbCircle
 10
-81.758957
 20
129.405548
 30
0.0
 40
0.25
210
0.0
220
0.0
230
1.0
100
AcDbArc
 50
126.869903
 51
180.000005
  0
LINE
  5
481
100
AcDbEntity
  8
0
370
    35
390
0
 62
     7
100
AcDbLine
 10
-81.908958
 20
124.662659
 30
0.0
 11
-81.908958
 21
163.455551
 31
0.0
210
0.0
220
0.0
230
1.0
  0
LINE
  5
482
100
AcDbEntity
  8
0
370
    35
390
0
 62
     7
 48
0.03375
100
AcDbLine
 10
-82.008957
 20
129.405548
 30
0.0
 11
-82.008957
 21
128.055557
 31
0.0
210
0.0
220
0.0
230
1.0
  0
ARC
  5
483
100
AcDbEntity
  8
0
370
    35
390
0
 62
     7
100
AcDbCircle
 10
-81.708961
 20
128.055557
 30
0.0
 40
0.3
210
0.0
220
0.0
230
1.0
100
AcDbArc
 50
180.000009
 51
228.188837
  0
ARC
  5
484
100
AcDbEntity
  8
0
370
    35
390
0
 62
     7
100
AcDbCircle
 10
-72.908958
 20
164.755554
 30
0.0
 40
0.3
210
0.0
220
0.0
230
1.0
100
AcDbArc
 50
180.000005
 51
269.999997
  0
LINE
  5
485
100
AcDbEntity
  8
0
370
    35
390
0
 62
     7
 48
0.005
100
AcDbLine
 10
-57.908958
 20
167.655548
 30
0.0
 11
-57.908958
 21
167.455551
 31
0.0
210
0.0
220
0.0
230
1.0
  0
ARC
  5
486
100
AcDbEntity
  8
0
370
    35
390
0
 62
     7
100
AcDbCircle
 10
-58.208958
 20
167.655548
 30
0.0
 40
0.3
210
0.0
220
0.0
230
1.0
100
AcDbArc
 50
0.0
 51
90.000003
  0
LINE
  5
487
100
AcDbEntity
  8
0
370
    35
390
0
 62
     7
 48
0.3675
100
AcDbLine
 10
-72.908958
 20
167.955551
 30
0.0
 11
-58.208958
 21
167.955551
 31
0.0
210
0.0
220
0.0
230
1.0
  0
ARC
  5
488
100
AcDbEntity
  8
0
370
    35
390
0
 62
     7
100
AcDbCircle
 10
-72.908958
 20
167.655548
 30
0.0
 40
0.3
210
0.0
220
0.0
230
1.0
100
AcDbArc
 50
90.000003
 51
180.000005
  0
LINE
  5
489
100
AcDbEntity
  8
0
370
    35
390
0
 62
     7
 48
0.0725
100
AcDbLine
 10
-73.208961
 20
164.755554
 30
0.0
 11
-73.208961
 21
167.655548
 31
0.0
210
0.0
220
0.0
230
1.0
  0
ARC
  5
48A
100
AcDbEntity
  8
0
370
    35
390
0
 62
     7
100
AcDbCircle
 10
-81.408958
 20
163.455551
 30
0.0
 40
0.5
210
0.0
220
0.0
230
1.0
100
AcDbArc
 50
90.000003
 51
180.000005
  0
CIRCLE
  5
48B
100
AcDbEntity
  8
0
370
    35
390
0
 62
     7
100
AcDbCircle
 10
-79.008957
 20
138.755554
 30
0.0
 40
2.5
210
0.0
220
0.0
230
1.0
  0
ARC
  5
48C
100
AcDbEntity
  8
0
370
    35
390
0
 62
     7
100
AcDbCircle
 10
-81.408958
 20
124.662659
 30
0.0
 40
0.5
210
0.0
220
0.0
230
1.0
100
AcDbArc
 50
180.000005
 51
225.0
  0
LINE
  5
48D
100
AcDbEntity
  8
0
370
    35
390
0
 62
     7
100
AcDbLine
 10
-54.116066
 20
118.455551
 30
0.0
 11
-75.701851
 21
118.455551
 31
0.0
210
0.0
220
0.0
230
1.0
  0
LINE
  5
48E
100
AcDbEntity
  8
0
370
    35
390
0
 62
     7
 48
0.205
100
AcDbLine
 10
-81.408958
 20
163.955551
 30
0.0
 11
-73.208961
 21
163.955551
 31
0.0
210
0.0
220
0.0
230
1.0
  0
ARC
  5
48F
100
AcDbEntity
  8
0
370
    35
390
0
 62
     7
100
AcDbCircle
 10
-73.208961
 20
164.455551
 30
0.0
 40
0.5
210
0.0
220
0.0
230
1.0
100
AcDbArc
 50
269.999997
 51
360.0
  0
LINE
  5
490
100
AcDbEntity
  8
0
370
    35
390
0
 62
     7
 48
0.0625
100
AcDbLine
 10
-72.708961
 20
164.455551
 30
0.0
 11
-72.708961
 21
166.955551
 31
0.0
210
0.0
220
0.0
230
1.0
  0
ARC
  5
491
100
AcDbEntity
  8
0
370
    35
390
0
 62
     7
100
AcDbCircle
 10
-72.208961
 20
166.955551
 30
0.0
 40
0.5
210
0.0
220
0.0
230
1.0
100
AcDbArc
 50
90.000003
 51
180.000005
  0
LINE
  5
492
100
AcDbEntity
  8
0
370
    35
390
0
 62
     7
 48
0.452322
100
AcDbLine
 10
-72.208961
 20
167.455551
 30
0.0
 11
-54.116066
 21
167.455551
 31
0.0
210
0.0
220
0.0
230
1.0
  0
CIRCLE
  5
493
100
AcDbEntity
  8
0
370
    35
390
0
 62
     7
100
AcDbCircle
 10
-75.408958
 20
152.455551
 30
0.0
 40
2.5
210
0.0
220
0.0
230
1.0
  0
CIRCLE
  5
494
100
AcDbEntity
  8
0
370
    35
390
0
 62
     7
100
AcDbCircle
 10
-65.608955
 20
130.455551
 30
0.0
 40
4.15
210
0.0
220
0.0
230
1.0
  0
CIRCLE
  5
495
100
AcDbEntity
  8
0
370
    35
390
0
 62
     7
100
AcDbCircle
 10
-59.408958
 20
152.455551
 30
0.0
 40
2.5
210
0.0
220
0.0
230
1.0
  0
CIRCLE
  5
496
100
AcDbEntity
  8
0
370
    35
390
0
 62
     7
100
AcDbCircle
 10
-59.508957
 20
121.955551
 30
0.0
 40
2.5
210
0.0
220
0.0
230
1.0
  0
LINE
  5
497
100
AcDbEntity
  8
0
370
    35
390
0
 62
     7
 48
0.201777
100
AcDbLine
 10
-76.055405
 20
118.601997
 30
0.0
 11
-81.762512
 21
124.309105
 31
0.0
210
0.0
220
0.0
230
1.0
  0
ARC
  5
498
100
AcDbEntity
  8
0
370
    35
390
0
 62
     7
100
AcDbCircle
 10
-75.701851
 20
118.955551
 30
0.0
 40
0.5
210
0.0
220
0.0
230
1.0
100
AcDbArc
 50
225.0
 51
269.999997
  0
ARC
  5
499
100
AcDbEntity
  8
0
370
    35
390
0
 62
     7
100
AcDbCircle
 10
-54.116066
 20
118.955551
 30
0.0
 40
0.5
210
0.0
220
0.0
230
1.0
100
AcDbArc
 50
269.999997
 51
314.999999
  0
ARC
  5
49A
100
AcDbEntity
  8
0
370
    35
390
0
 62
     7
100
AcDbCircle
 10
-54.116066
 20
166.955551
 30
0.0
 40
0.5
210
0.0
220
0.0
230
1.0
100
AcDbArc
 50
45.000001
 51
90.000003
  0
LINE
  5
49B
100
AcDbEntity
  8
0
370
    35
390
0
 62
     7
 48
0.095711
100
AcDbLine
 10
-51.055405
 20
121.309105
 30
0.0
 11
-53.762512
 21
118.601997
 31
0.0
210
0.0
220
0.0
230
1.0
  0
LINE
  5
49C
100
AcDbEntity
  8
0
370
    35
390
0
 62
     7
100
AcDbLine
 10
-50.908958
 20
164.248444
 30
0.0
 11
-50.908958
 21
121.662659
 31
0.0
210
0.0
220
0.0
230
1.0
  0
LINE
  5
49D
100
AcDbEntity
  8
0
370
    35
390
0
 62
     7
 48
0.095711
100
AcDbLine
 10
-51.055405
 20
164.60199
 30
0.0
 11
-53.762512
 21
167.309113
 31
0.0
210
0.0
220
0.0
230
1.0
  0
ARC
  5
49E
100
AcDbEntity
  8
0
370
    35
390
0
 62
     7
100
AcDbCircle
 10
-51.408958
 20
164.248444
 30
0.0
 40
0.5
210
0.0
220
0.0
230
1.0
100
AcDbArc
 50
0.0
 51
45.000001
  0
ARC
  5
49F
100
AcDbEntity
  8
0
370
    35
390
0
 62
     7
100
AcDbCircle
 10
-51.408958
 20
121.662659
 30
0.0
 40
0.5
210
0.0
220
0.0
230
1.0
100
AcDbArc
 50
314.999999
 51
360.0
  0
ARC
  5
4A0
100
AcDbEntity
  8
0
370
    35
390
0
 62
     7
100
AcDbCircle
 10
-63.675991
 20
122.837723
 30
0.0
 40
2.00035
210
0.0
220
0.0
230
1.0
100
AcDbArc
 50
354.99373
 51
9.186304
  0
LINE
  5
4A1
100
AcDbEntity
  8
0
370
    35
390
0
 62
     7
 48
0.014216
100
AcDbLine
 10
-61.80529
 20
121.268494
 30
0.0
 11
-61.755726
 21
121.834984
 31
0.0
210
0.0
220
0.0
230
1.0
  0
ARC
  5
4A2
100
AcDbEntity
  8
0
370
    35
390
0
 62
     7
100
AcDbCircle
 10
-63.800507
 20
121.442993
 30
0.0
 40
2.002837
210
0.0
220
0.0
230
1.0
100
AcDbArc
 50
348.556636
 51
355.001671
  0
LINE
  5
4A3
100
AcDbEntity
  8
0
370
    35
390
0
 62
     7
 48
0.004987
100
AcDbLine
 10
-61.700657
 20
122.464432
 30
0.0
 11
-61.68327
 21
122.663162
 31
0.0
210
0.0
220
0.0
230
1.0
  0
CIRCLE
  5
4A4
100
AcDbEntity
  8
0
370
    35
390
0
 62
     7
100
AcDbCircle
 10
-79.008957
 20
138.755554
 30
0.0
 40
2.25
210
0.0
220
0.0
230
1.0
  0
CIRCLE
  5
4A5
100
AcDbEntity
  8
0
370
    35
390
0
 62
     7
100
AcDbCircle
 10
-75.408958
 20
152.455551
 30
0.0
 40
2.25
210
0.0
220
0.0
230
1.0
  0
CIRCLE
  5
4A6
100
AcDbEntity
  8
0
370
    35
390
0
 62
     7
100
AcDbCircle
 10
-59.408958
 20
152.455551
 30
0.0
 40
2.25
210
0.0
220
0.0
230
1.0
  0
CIRCLE
  5
4A7
100
AcDbEntity
  8
0
370
    35
390
0
 62
     7
100
AcDbCircle
 10
-59.508957
 20
121.955551
 30
0.0
 40
2.25
210
0.0
220
0.0
230
1.0
  0
ARC
  5
4A8
100
AcDbEntity
  8
0
370
    35
390
0
 62
     7
100
AcDbCircle
 10
-80.008957
 20
137.755554
 30
0.0
 40
0.7
210
0.0
220
0.0
230
1.0
100
AcDbArc
 50
360.0
 51
90.000003
  0
LINE
  5
4A9
100
AcDbEntity
  8
0
370
    35
390
0
 62
     7
 48
0.0075
100
AcDbLine
 10
-79.30896
 20
137.755554
 30
0.0
 11
-79.30896
 21
137.455551
 31
0.0
210
0.0
220
0.0
230
1.0
  0
LINE
  5
4AA
100
AcDbEntity
  8
0
370
    35
390
0
 62
     7
 48
0.015
100
AcDbLine
 10
-79.30896
 20
137.455551
 30
0.0
 11
-78.708961
 21
137.455551
 31
0.0
210
0.0
220
0.0
230
1.0
  0
LINE
  5
4AB
100
AcDbEntity
  8
0
370
    35
390
0
 62
     7
 48
0.0075
100
AcDbLine
 10
-78.708961
 20
137.455551
 30
0.0
 11
-78.708961
 21
137.755554
 31
0.0
210
0.0
220
0.0
230
1.0
  0
ARC
  5
4AC
100
AcDbEntity
  8
0
370
    35
390
0
 62
     7
100
AcDbCircle
 10
-78.008957
 20
137.755554
 30
0.0
 40
0.7
210
0.0
220
0.0
230
1.0
100
AcDbArc
 50
90.000003
 51
179.999995
  0
LINE
  5
4AD
100
AcDbEntity
  8
0
370
    35
390
0
 62
     7
 48
0.0075
100
AcDbLine
 10
-78.008957
 20
138.455551
 30
0.0
 11
-77.708961
 21
138.455551
 31
0.0
210
0.0
220
0.0
230
1.0
  0
LINE
  5
4AE
100
AcDbEntity
  8
0
370
    35
390
0
 62
     7
 48
0.015
100
AcDbLine
 10
-77.708961
 20
138.455551
 30
0.0
 11
-77.708961
 21
139.055557
 31
0.0
210
0.0
220
0.0
230
1.0
  0
LINE
  5
4AF
100
AcDbEntity
  8
0
370
    35
390
0
 62
     7
 48
0.0075
100
AcDbLine
 10
-77.708961
 20
139.055557
 30
0.0
 11
-78.008957
 21
139.055557
 31
0.0
210
0.0
220
0.0
230
1.0
  0
ARC
  5
4B0
100
AcDbEntity
  8
0
370
    35
390
0
 62
     7
100
AcDbCircle
 10
-78.008957
 20
139.755554
 30
0.0
 40
0.7
210
0.0
220
0.0
230
1.0
100
AcDbArc
 50
179.999995
 51
269.999997
  0
LINE
  5
4B1
100
AcDbEntity
  8
0
370
    35
390
0
 62
     7
 48
0.0075
100
AcDbLine
 10
-78.708961
 20
139.755554
 30
0.0
 11
-78.708961
 21
140.055557
 31
0.0
210
0.0
220
0.0
230
1.0
  0
LINE
  5
4B2
100
AcDbEntity
  8
0
370
    35
390
0
 62
     7
 48
0.015
100
AcDbLine
 10
-78.708961
 20
140.055557
 30
0.0
 11
-79.30896
 21
140.055557
 31
0.0
210
0.0
220
0.0
230
1.0
  0
LINE
  5
4B3
100
AcDbEntity
  8
0
370
    35
390
0
 62
     7
 48
0.0075
100
AcDbLine
 10
-79.30896
 20
140.055557
 30
0.0
 11
-79.30896
 21
139.755554
 31
0.0
210
0.0
220
0.0
230
1.0
  0
ARC
  5
4B4
100
AcDbEntity
  8
0
370
    35
390
0
 62
     7
100
AcDbCircle
 10
-80.008957
 20
139.755554
 30
0.0
 40
0.7
210
0.0
220
0.0
230
1.0
100
AcDbArc
 50
269.999997
 51
0.0
  0
LINE
  5
4B5
100
AcDbEntity
  8
0
370
    35
390
0
 62
     7
 48
0.0075
100
AcDbLine
 10
-80.008957
 20
139.055557
 30
0.0
 11
-80.30896
 21
139.055557
 31
0.0
210
0.0
220
0.0
230
1.0
  0
LINE
  5
4B6
100
AcDbEntity
  8
0
370
    35
390
0
 62
     7
 48
0.015
100
AcDbLine
 10
-80.30896
 20
139.055557
 30
0.0
 11
-80.30896
 21
138.455551
 31
0.0
210
0.0
220
0.0
230
1.0
  0
LINE
  5
4B7
100
AcDbEntity
  8
0
370
    35
390
0
 62
     7
 48
0.0075
100
AcDbLine
 10
-80.30896
 20
138.455551
 30
0.0
 11
-80.008957
 21
138.455551
 31
0.0
210
0.0
220
0.0
230
1.0
  0
ARC
  5
4B8
100
AcDbEntity
  8
0
370
    35
390
0
 62
     7
100
AcDbCircle
 10
-76.408958
 20
151.455551
 30
0.0
 40
0.7
210
0.0
220
0.0
230
1.0
100
AcDbArc
 50
360.0
 51
90.000003
  0
LINE
  5
4B9
100
AcDbEntity
  8
0
370
    35
390
0
 62
     7
 48
0.0075
100
AcDbLine
 10
-75.708961
 20
151.455551
 30
0.0
 11
-75.708961
 21
151.155548
 31
0.0
210
0.0
220
0.0
230
1.0
  0
LINE
  5
4BA
100
AcDbEntity
  8
0
370
    35
390
0
 62
     7
 48
0.015
100
AcDbLine
 10
-75.708961
 20
151.155548
 30
0.0
 11
-75.108955
 21
151.155548
 31
0.0
210
0.0
220
0.0
230
1.0
  0
LINE
  5
4BB
100
AcDbEntity
  8
0
370
    35
390
0
 62
     7
 48
0.0075
100
AcDbLine
 10
-75.108955
 20
151.155548
 30
0.0
 11
-75.108955
 21
151.455551
 31
0.0
210
0.0
220
0.0
230
1.0
  0
ARC
  5
4BC
100
AcDbEntity
  8
0
370
    35
390
0
 62
     7
100
AcDbCircle
 10
-74.408958
 20
151.455551
 30
0.0
 40
0.7
210
0.0
220
0.0
230
1.0
100
AcDbArc
 50
90.000003
 51
179.999995
  0
LINE
  5
4BD
100
AcDbEntity
  8
0
370
    35
390
0
 62
     7
 48
0.0075
100
AcDbLine
 10
-74.408958
 20
152.155548
 30
0.0
 11
-74.108955
 21
152.155548
 31
0.0
210
0.0
220
0.0
230
1.0
  0
LINE
  5
4BE
100
AcDbEntity
  8
0
370
    35
390
0
 62
     7
 48
0.015
100
AcDbLine
 10
-74.108955
 20
152.155548
 30
0.0
 11
-74.108955
 21
152.755554
 31
0.0
210
0.0
220
0.0
230
1.0
  0
LINE
  5
4BF
100
AcDbEntity
  8
0
370
    35
390
0
 62
     7
 48
0.0075
100
AcDbLine
 10
-74.108955
 20
152.755554
 30
0.0
 11
-74.408958
 21
152.755554
 31
0.0
210
0.0
220
0.0
230
1.0
  0
ARC
  5
4C0
100
AcDbEntity
  8
0
370
    35
390
0
 62
     7
100
AcDbCircle
 10
-74.408958
 20
153.455551
 30
0.0
 40
0.7
210
0.0
220
0.0
230
1.0
100
AcDbArc
 50
179.999995
 51
269.999997
  0
LINE
  5
4C1
100
AcDbEntity
  8
0
370
    35
390
0
 62
     7
 48
0.0075
100
AcDbLine
 10
-75.108955
 20
153.455551
 30
0.0
 11
-75.108955
 21
153.755554
 31
0.0
210
0.0
220
0.0
230
1.0
  0
LINE
  5
4C2
100
AcDbEntity
  8
0
370
    35
390
0
 62
     7
 48
0.015
100
AcDbLine
 10
-75.108955
 20
153.755554
 30
0.0
 11
-75.708961
 21
153.755554
 31
0.0
210
0.0
220
0.0
230
1.0
  0
LINE
  5
4C3
100
AcDbEntity
  8
0
370
    35
390
0
 62
     7
 48
0.0075
100
AcDbLine
 10
-75.708961
 20
153.755554
 30
0.0
 11
-75.708961
 21
153.455551
 31
0.0
210
0.0
220
0.0
230
1.0
  0
ARC
  5
4C4
100
AcDbEntity
  8
0
370
    35
390
0
 62
     7
100
AcDbCircle
 10
-76.408958
 20
153.455551
 30
0.0
 40
0.7
210
0.0
220
0.0
230
1.0
100
AcDbArc
 50
269.999997
 51
0.0
  0
LINE
  5
4C5
100
AcDbEntity
  8
0
370
    35
390
0
 62
     7
 48
0.0075
100
AcDbLine
 10
-76.408958
 20
152.755554
 30
0.0
 11
-76.708961
 21
152.755554
 31
0.0
210
0.0
220
0.0
230
1.0
  0
LINE
  5
4C6
100
AcDbEntity
  8
0
370
    35
390
0
 62
     7
 48
0.015
100
AcDbLine
 10
-76.708961
 20
152.755554
 30
0.0
 11
-76.708961
 21
152.155548
 31
0.0
210
0.0
220
0.0
230
1.0
  0
LINE
  5
4C7
100
AcDbEntity
  8
0
370
    35
390
0
 62
     7
 48
0.0075
100
AcDbLine
 10
-76.708961
 20
152.155548
 30
0.0
 11
-76.408958
 21
152.155548
 31
0.0
210
0.0
220
0.0
230
1.0
  0
ARC
  5
4C8
100
AcDbEntity
  8
0
370
    35
390
0
 62
     7
100
AcDbCircle
 10
-65.608955
 20
130.455551
 30
0.0
 40
3.75
210
0.0
220
0.0
230
1.0
100
AcDbArc
 50
350.018317
 51
9.981683
  0
ARC
  5
4C9
100
AcDbEntity
  8
0
370
    35
390
0
 62
     7
100
AcDbCircle
 10
-65.608955
 20
130.455551
 30
0.0
 40
3.75
210
0.0
220
0.0
230
1.0
100
AcDbArc
 50
189.981688
 51
350.018317
  0
ARC
  5
4CA
100
AcDbEntity
  8
0
370
    35
390
0
 62
     7
100
AcDbCircle
 10
-65.608955
 20
130.455551
 30
0.0
 40
3.75
210
0.0
220
0.0
230
1.0
100
AcDbArc
 50
170.018312
 51
189.981688
  0
ARC
  5
4CB
100
AcDbEntity
  8
0
370
    35
390
0
 62
     7
100
AcDbCircle
 10
-65.608955
 20
130.455551
 30
0.0
 40
3.75
210
0.0
220
0.0
230
1.0
100
AcDbArc
 50
9.981683
 51
170.018312
  0
ARC
  5
4CC
100
AcDbEntity
  8
0
370
    35
390
0
 62
     7
100
AcDbCircle
 10
-60.408958
 20
151.455551
 30
0.0
 40
0.7
210
0.0
220
0.0
230
1.0
100
AcDbArc
 50
360.0
 51
90.000003
  0
LINE
  5
4CD
100
AcDbEntity
  8
0
370
    35
390
0
 62
     7
 48
0.0075
100
AcDbLine
 10
-59.708958
 20
151.455551
 30
0.0
 11
-59.708958
 21
151.155548
 31
0.0
210
0.0
220
0.0
230
1.0
  0
LINE
  5
4CE
100
AcDbEntity
  8
0
370
    35
390
0
 62
     7
 48
0.015
100
AcDbLine
 10
-59.708958
 20
151.155548
 30
0.0
 11
-59.108959
 21
151.155548
 31
0.0
210
0.0
220
0.0
230
1.0
  0
LINE
  5
4CF
100
AcDbEntity
  8
0
370
    35
390
0
 62
     7
 48
0.0075
100
AcDbLine
 10
-59.108959
 20
151.155548
 30
0.0
 11
-59.108959
 21
151.455551
 31
0.0
210
0.0
220
0.0
230
1.0
  0
ARC
  5
4D0
100
AcDbEntity
  8
0
370
    35
390
0
 62
     7
100
AcDbCircle
 10
-58.408958
 20
151.455551
 30
0.0
 40
0.7
210
0.0
220
0.0
230
1.0
100
AcDbArc
 50
90.000003
 51
179.999995
  0
LINE
  5
4D1
100
AcDbEntity
  8
0
370
    35
390
0
 62
     7
 48
0.0075
100
AcDbLine
 10
-58.408958
 20
152.155548
 30
0.0
 11
-58.108959
 21
152.155548
 31
0.0
210
0.0
220
0.0
230
1.0
  0
LINE
  5
4D2
100
AcDbEntity
  8
0
370
    35
390
0
 62
     7
 48
0.015
100
AcDbLine
 10
-58.108959
 20
152.155548
 30
0.0
 11
-58.108959
 21
152.755554
 31
0.0
210
0.0
220
0.0
230
1.0
  0
LINE
  5
4D3
100
AcDbEntity
  8
0
370
    35
390
0
 62
     7
 48
0.0075
100
AcDbLine
 10
-58.108959
 20
152.755554
 30
0.0
 11
-58.408958
 21
152.755554
 31
0.0
210
0.0
220
0.0
230
1.0
  0
ARC
  5
4D4
100
AcDbEntity
  8
0
370
    35
390
0
 62
     7
100
AcDbCircle
 10
-58.408958
 20
153.455551
 30
0.0
 40
0.7
210
0.0
220
0.0
230
1.0
100
AcDbArc
 50
179.999995
 51
269.999997
  0
LINE
  5
4D5
100
AcDbEntity
  8
0
370
    35
390
0
 62
     7
 48
0.0075
100
AcDbLine
 10
-59.108959
 20
153.455551
 30
0.0
 11
-59.108959
 21
153.755554
 31
0.0
210
0.0
220
0.0
230
1.0
  0
LINE
  5
4D6
100
AcDbEntity
  8
0
370
    35
390
0
 62
     7
 48
0.015
100
AcDbLine
 10
-59.108959
 20
153.755554
 30
0.0
 11
-59.708958
 21
153.755554
 31
0.0
210
0.0
220
0.0
230
1.0
  0
LINE
  5
4D7
100
AcDbEntity
  8
0
370
    35
390
0
 62
     7
 48
0.0075
100
AcDbLine
 10
-59.708958
 20
153.755554
 30
0.0
 11
-59.708958
 21
153.455551
 31
0.0
210
0.0
220
0.0
230
1.0
  0
ARC
  5
4D8
100
AcDbEntity
  8
0
370
    35
390
0
 62
     7
100
AcDbCircle
 10
-60.408958
 20
153.455551
 30
0.0
 40
0.7
210
0.0
220
0.0
230
1.0
100
AcDbArc
 50
269.999997
 51
0.0
  0
LINE
  5
4D9
100
AcDbEntity
  8
0
370
    35
390
0
 62
     7
 48
0.0075
100
AcDbLine
 10
-60.408958
 20
152.755554
 30
0.0
 11
-60.708958
 21
152.755554
 31
0.0
210
0.0
220
0.0
230
1.0
  0
LINE
  5
4DA
100
AcDbEntity
  8
0
370
    35
390
0
 62
     7
 48
0.015
100
AcDbLine
 10
-60.708958
 20
152.755554
 30
0.0
 11
-60.708958
 21
152.155548
 31
0.0
210
0.0
220
0.0
230
1.0
  0
LINE
  5
4DB
100
AcDbEntity
  8
0
370
    35
390
0
 62
     7
 48
0.0075
100
AcDbLine
 10
-60.708958
 20
152.155548
 30
0.0
 11
-60.408958
 21
152.155548
 31
0.0
210
0.0
220
0.0
230
1.0
  0
ARC
  5
4DC
100
AcDbEntity
  8
0
370
    35
390
0
 62
     7
100
AcDbCircle
 10
-58.508957
 20
122.955551
 30
0.0
 40
0.7
210
0.0
220
0.0
230
1.0
100
AcDbArc
 50
179.999995
 51
269.999997
  0
LINE
  5
4DD
100
AcDbEntity
  8
0
370
    35
390
0
 62
     7
 48
0.0075
100
AcDbLine
 10
-59.208958
 20
122.955551
 30
0.0
 11
-59.208958
 21
123.255554
 31
0.0
210
0.0
220
0.0
230
1.0
  0
LINE
  5
4DE
100
AcDbEntity
  8
0
370
    35
390
0
 62
     7
 48
0.015
100
AcDbLine
 10
-59.208958
 20
123.255554
 30
0.0
 11
-59.80896
 21
123.255554
 31
0.0
210
0.0
220
0.0
230
1.0
  0
LINE
  5
4DF
100
AcDbEntity
  8
0
370
    35
390
0
 62
     7
 48
0.0075
100
AcDbLine
 10
-59.80896
 20
123.255554
 30
0.0
 11
-59.80896
 21
122.955551
 31
0.0
210
0.0
220
0.0
230
1.0
  0
ARC
  5
4E0
100
AcDbEntity
  8
0
370
    35
390
0
 62
     7
100
AcDbCircle
 10
-60.508957
 20
122.955551
 30
0.0
 40
0.7
210
0.0
220
0.0
230
1.0
100
AcDbArc
 50
269.999997
 51
0.0
  0
LINE
  5
4E1
100
AcDbEntity
  8
0
370
    35
390
0
 62
     7
 48
0.0075
100
AcDbLine
 10
-60.508957
 20
122.255554
 30
0.0
 11
-60.80896
 21
122.255554
 31
0.0
210
0.0
220
0.0
230
1.0
  0
LINE
  5
4E2
100
AcDbEntity
  8
0
370
    35
390
0
 62
     7
 48
0.015
100
AcDbLine
 10
-60.80896
 20
122.255554
 30
0.0
 11
-60.80896
 21
121.655548
 31
0.0
210
0.0
220
0.0
230
1.0
  0
LINE
  5
4E3
100
AcDbEntity
  8
0
370
    35
390
0
 62
     7
 48
0.0075
100
AcDbLine
 10
-60.80896
 20
121.655548
 30
0.0
 11
-60.508957
 21
121.655548
 31
0.0
210
0.0
220
0.0
230
1.0
  0
ARC
  5
4E4
100
AcDbEntity
  8
0
370
    35
390
0
 62
     7
100
AcDbCircle
 10
-60.508957
 20
120.955551
 30
0.0
 40
0.7
210
0.0
220
0.0
230
1.0
100
AcDbArc
 50
360.0
 51
90.000003
  0
LINE
  5
4E5
100
AcDbEntity
  8
0
370
    35
390
0
 62
     7
 48
0.0075
100
AcDbLine
 10
-59.80896
 20
120.955551
 30
0.0
 11
-59.80896
 21
120.655548
 31
0.0
210
0.0
220
0.0
230
1.0
  0
LINE
  5
4E6
100
AcDbEntity
  8
0
370
    35
390
0
 62
     7
 48
0.015
100
AcDbLine
 10
-59.80896
 20
120.655548
 30
0.0
 11
-59.208958
 21
120.655548
 31
0.0
210
0.0
220
0.0
230
1.0
  0
LINE
  5
4E7
100
AcDbEntity
  8
0
370
    35
390
0
 62
     7
 48
0.0075
100
AcDbLine
 10
-59.208958
 20
120.655548
 30
0.0
 11
-59.208958
 21
120.955551
 31
0.0
210
0.0
220
0.0
230
1.0
  0
ARC
  5
4E8
100
AcDbEntity
  8
0
370
    35
390
0
 62
     7
100
AcDbCircle
 10
-58.508957
 20
120.955551
 30
0.0
 40
0.7
210
0.0
220
0.0
230
1.0
100
AcDbArc
 50
90.000003
 51
179.999995
  0
LINE
  5
4E9
100
AcDbEntity
  8
0
370
    35
390
0
 62
     7
 48
0.0075
100
AcDbLine
 10
-58.508957
 20
121.655548
 30
0.0
 11
-58.208958
 21
121.655548
 31
0.0
210
0.0
220
0.0
230
1.0
  0
LINE
  5
4EA
100
AcDbEntity
  8
0
370
    35
390
0
 62
     7
 48
0.015
100
AcDbLine
 10
-58.208958
 20
121.655548
 30
0.0
 11
-58.208958
 21
122.255554
 31
0.0
210
0.0
220
0.0
230
1.0
  0
LINE
  5
4EB
100
AcDbEntity
  8
0
370
    35
390
0
 62
     7
 48
0.0075
100
AcDbLine
 10
-58.208958
 20
122.255554
 30
0.0
 11
-58.508957
 21
122.255554
 31
0.0
210
0.0
220
0.0
230
1.0
  0
LINE
  5
4EC
100
AcDbEntity
  8
0
370
    35
390
0
 62
     7
 48
0.005081
100
AcDbLine
 10
-62.118973
 20
129.805557
 30
0.0
 11
-61.915722
 21
129.805557
 31
0.0
210
0.0
220
0.0
230
1.0
  0
LINE
  5
4ED
100
AcDbEntity
  8
0
370
    35
390
0
 62
     7
 48
0.005081
100
AcDbLine
 10
-69.098946
 20
129.805557
 30
0.0
 11
-69.302193
 21
129.805557
 31
0.0
210
0.0
220
0.0
230
1.0
  0
LINE
  5
4EE
100
AcDbEntity
  8
0
370
    35
390
0
 62
     7
 48
0.174499
100
AcDbLine
 10
-62.118973
 20
129.805557
 30
0.0
 11
-69.098946
 21
129.805557
 31
0.0
210
0.0
220
0.0
230
1.0
  0
ARC
  5
4EF
100
AcDbEntity
  8
0
370
    35
390
0
 62
     7
100
AcDbCircle
 10
-65.608955
 20
130.455551
 30
0.0
 40
3.55
210
0.0
220
0.0
230
1.0
100
AcDbArc
 50
190.550301
 51
349.449695
  0
LINE
  5
4F0
100
AcDbEntity
  8
0
370
    35
390
0
 62
     7
 48
0.005081
100
AcDbLine
 10
-69.098946
 20
131.105545
 30
0.0
 11
-69.302193
 21
131.105545
 31
0.0
210
0.0
220
0.0
230
1.0
  0
LINE
  5
4F1
100
AcDbEntity
  8
0
370
    35
390
0
 62
     7
 48
0.005081
100
AcDbLine
 10
-62.118973
 20
131.105545
 30
0.0
 11
-61.915722
 21
131.105545
 31
0.0
210
0.0
220
0.0
230
1.0
  0
LINE
  5
4F2
100
AcDbEntity
  8
0
370
    35
390
0
 62
     7
 48
0.174499
100
AcDbLine
 10
-69.098946
 20
131.105545
 30
0.0
 11
-62.118973
 21
131.105545
 31
0.0
210
0.0
220
0.0
230
1.0
  0
ARC
  5
4F3
100
AcDbEntity
  8
0
370
    35
390
0
 62
     7
100
AcDbCircle
 10
-65.608955
 20
130.455551
 30
0.0
 40
3.55
210
0.0
220
0.0
230
1.0
100
AcDbArc
 50
10.550303
 51
169.449699
  0
LINE
  5
4F4
100
AcDbEntity
  8
0
370
    35
390
0
 62
     7
 48
0.021277
100
AcDbLine
 10
-78.583412
 20
138.155548
 30
0.0
 11
-79.434502
 21
138.155548
 31
0.0
210
0.0
220
0.0
230
1.0
  0
LINE
  5
4F5
100
AcDbEntity
  8
0
370
    35
390
0
 62
     7
 48
0.021277
100
AcDbLine
 10
-78.408958
 20
139.181091
 30
0.0
 11
-78.408958
 21
138.330002
 31
0.0
210
0.0
220
0.0
230
1.0
  0
LINE
  5
4F6
100
AcDbEntity
  8
0
370
    35
390
0
 62
     7
 48
0.021277
100
AcDbLine
 10
-79.434502
 20
139.355545
 30
0.0
 11
-78.583412
 21
139.355545
 31
0.0
210
0.0
220
0.0
230
1.0
  0
LINE
  5
4F7
100
AcDbEntity
  8
0
370
    35
390
0
 62
     7
 48
0.021277
100
AcDbLine
 10
-79.608955
 20
138.330002
 30
0.0
 11
-79.608955
 21
139.181091
 31
0.0
210
0.0
220
0.0
230
1.0
  0
LINE
  5
4F8
100
AcDbEntity
  8
0
370
    35
390
0
 62
     7
 48
0.021277
100
AcDbLine
 10
-74.983414
 20
151.855545
 30
0.0
 11
-75.834503
 21
151.855545
 31
0.0
210
0.0
220
0.0
230
1.0
  0
LINE
  5
4F9
100
AcDbEntity
  8
0
370
    35
390
0
 62
     7
 48
0.021277
100
AcDbLine
 10
-74.80896
 20
152.881088
 30
0.0
 11
-74.80896
 21
152.030014
 31
0.0
210
0.0
220
0.0
230
1.0
  0
LINE
  5
4FA
100
AcDbEntity
  8
0
370
    35
390
0
 62
     7
 48
0.021277
100
AcDbLine
 10
-75.834503
 20
153.055557
 30
0.0
 11
-74.983414
 21
153.055557
 31
0.0
210
0.0
220
0.0
230
1.0
  0
LINE
  5
4FB
100
AcDbEntity
  8
0
370
    35
390
0
 62
     7
 48
0.021277
100
AcDbLine
 10
-76.008957
 20
152.030014
 30
0.0
 11
-76.008957
 21
152.881088
 31
0.0
210
0.0
220
0.0
230
1.0
  0
LINE
  5
4FC
100
AcDbEntity
  8
0
370
    35
390
0
 62
     7
 48
0.021277
100
AcDbLine
 10
-58.983414
 20
151.855545
 30
0.0
 11
-59.834503
 21
151.855545
 31
0.0
210
0.0
220
0.0
230
1.0
  0
LINE
  5
4FD
100
AcDbEntity
  8
0
370
    35
390
0
 62
     7
 48
0.021277
100
AcDbLine
 10
-58.80896
 20
152.881088
 30
0.0
 11
-58.80896
 21
152.030014
 31
0.0
210
0.0
220
0.0
230
1.0
  0
LINE
  5
4FE
100
AcDbEntity
  8
0
370
    35
390
0
 62
     7
 48
0.021277
100
AcDbLine
 10
-59.834503
 20
153.055557
 30
0.0
 11
-58.983414
 21
153.055557
 31
0.0
210
0.0
220
0.0
230
1.0
  0
LINE
  5
4FF
100
AcDbEntity
  8
0
370
    35
390
0
 62
     7
 48
0.021277
100
AcDbLine
 10
-60.008957
 20
152.030014
 30
0.0
 11
-60.008957
 21
152.881088
 31
0.0
210
0.0
220
0.0
230
1.0
  0
LINE
  5
500
100
AcDbEntity
  8
0
370
    35
390
0
 62
     7
 48
0.021277
100
AcDbLine
 10
-59.934502
 20
122.55555
 30
0.0
 11
-59.083412
 21
122.55555
 31
0.0
210
0.0
220
0.0
230
1.0
  0
LINE
  5
501
100
AcDbEntity
  8
0
370
    35
390
0
 62
     7
 48
0.021277
100
AcDbLine
 10
-59.083412
 20
121.355553
 30
0.0
 11
-59.934502
 21
121.355553
 31
0.0
210
0.0
220
0.0
230
1.0
  0
LINE
  5
502
100
AcDbEntity
  8
0
370
    35
390
0
 62
     7
 48
0.021277
100
AcDbLine
 10
-58.908958
 20
122.381096
 30
0.0
 11
-58.908958
 21
121.530006
 31
0.0
210
0.0
220
0.0
230
1.0
  0
LINE
  5
503
100
AcDbEntity
  8
0
370
    35
390
0
 62
     7
 48
0.021277
100
AcDbLine
 10
-60.108959
 20
121.530006
 30
0.0
 11
-60.108959
 21
122.381096
 31
0.0
210
0.0
220
0.0
230
1.0
  0
ENDSEC
  0
SECTION
  2
OBJECTS
  0
DICTIONARY
  5
19
100
AcDbDictionary
280
     0
281
     1
  3
ACAD_GROUP
350
1A
  3
ACAD_MLINESTYLE
350
1B
  3
ACAD_LAYOUT
350
1E
  3
ACAD_PLOTSETTINGS
350
22
  3
ACAD_PLOTSTYLENAME
350
1F
  3
ACAD_WIPEOUT_VARS
350
23
  0
DICTIONARY
  5
1A
102
{ACAD_REACTORS
330
19
102
}
100
AcDbDictionary
280
     0
281
     1
  0
DICTIONARY
  5
1B
102
{ACAD_REACTORS
330
19
102
}
100
AcDbDictionary
280
     0
281
     1
  3
Standard
350
1C
  0
MLINESTYLE
  5
1C
102
{ACAD_REACTORS
330
1B
102
}
100
AcDbMlineStyle
  2
Standard
 70
     0
  3

 62
     0
 51
90.0
 52
90.0
 71
     2
 49
0.5
 62
   256
  6
ByLayer
 49
-0.5
 62
   256
  6
ByLayer
  0
ACDBDICTIONARYWDFLT
  5
1F
102
{ACAD_REACTORS
330
19
102
}
100
AcDbDictionary
281
     1
  3
Normal
350
1D
100
AcDbDictionaryWithDefault
340
1D
  0
ACDBPLACEHOLDER
  5
1D
102
{ACAD_REACTORS
330
1F
102
}
  0
LAYOUT
  5
20
102
{ACAD_REACTORS
330
1E
102
}
100
AcDbPlotSettings
  1

  2

  4

  6

 40
0.0
 41
0.0
 42
0.0
 43
0.0
 44
0.0
 45
0.0
 46
0.0
 47
0.0
 48
0.0
 49
0.0
140
0.0
141
0.0
142
1.0
143
1.0
 70
  1024
 72
     0
 73
     0
 74
     0
  7

 75
     0
147
1.0
148
0.0
149
0.0
100
AcDbLayout
  1
Model
 70
     0
 71
     0
 10
0.0
 20
0.0
 11
0.0
 21
0.0
 12
0.0
 22
0.0
 32
0.0
 14
0.0
 24
0.0
 34
0.0
 15
0.0
 25
0.0
 35
0.0
146
0.0
 13
0.0
 23
0.0
 33
0.0
 16
0.0
 26
0.0
 36
0.0
 17
0.0
 27
0.0
 37
0.0
 76
     0
330
A
331
0
345
0
346
0
  0
LAYOUT
  5
21
102
{ACAD_REACTORS
330
1E
102
}
100
AcDbPlotSettings
  1

  2

  4

  6

 40
0.0
 41
0.0
 42
0.0
 43
0.0
 44
0.0
 45
0.0
 46
0.0
 47
0.0
 48
0.0
 49
0.0
140
0.0
141
0.0
142
1.0
143
1.0
 70
     0
 72
     0
 73
     0
 74
     0
  7

 75
     0
147
1.0
148
0.0
149
0.0
100
AcDbLayout
  1
Layout1
 70
     0
 71
     0
 10
0.0
 20
0.0
 11
0.0
 21
0.0
 12
0.0
 22
0.0
 32
0.0
 14
0.0
 24
0.0
 34
0.0
 15
0.0
 25
0.0
 35
0.0
146
0.0
 13
0.0
 23
0.0
 33
0.0
 16
0.0
 26
0.0
 36
0.0
 17
0.0
 27
0.0
 37
0.0
 76
     0
330
B
331
0
345
0
346
0
  0
DICTIONARY
  5
1E
102
{ACAD_REACTORS
330
19
102
}
100
AcDbDictionary
280
     0
281
     1
  3
Layout1
350
21
  3
Model
350
20
  0
DICTIONARY
  5
22
102
{ACAD_REACTORS
330
19
102
}
100
AcDbDictionary
280
     0
281
     1
  0
WIPEOUTVARIABLES
  5
23
100
AcDbWipeoutVariables
 70
     1
  0
ENDSEC
  0
EOF
