  0
SECTION
  2
HEADER
  9
$ACADVER
  1
AC1015
  9
$ACADMAINTVER
 70
     6
  9
$DWGCODEPAGE
  3
ANSI_1252
  9
$INSBASE
 10
0.0
 20
0.0
 30
0.0
  9
$EXTMIN
 10
0.0
 20
0.0
 30
0.0
  9
$EXTMAX
 10
389.647034
 20
215.350006
 30
2.0
  9
$LIMMIN
 10
0.0
 20
0.0
  9
$LIMMAX
 10
420.0
 20
297.0
  9
$ORTHOMODE
 70
     0
  9
$REGENMODE
 70
     1
  9
$FILLMODE
 70
     1
  9
$QTEXTMODE
 70
     0
  9
$MIRRTEXT
 70
     1
  9
$LTSCALE
 40
1.0
  9
$ATTMODE
 70
     1
  9
$TEXTSIZE
 40
2.5
  9
$TRACEWID
 40
1.0
  9
$TEXTSTYLE
  7
Standard
  9
$CLAYER
  8
0
  9
$CELTYPE
  6
ByLayer
  9
$CECOLOR
 62
   256
  9
$CELTSCALE
 40
1.0
  9
$DISPSILH
 70
     0
  9
$DIMSCALE
 40
1.0
  9
$DIMASZ
 40
2.5
  9
$DIMEXO
 40
0.625
  9
$DIMDLI
 40
3.75
  9
$DIMRND
 40
0.0
  9
$DIMDLE
 40
0.0
  9
$DIMEXE
 40
1.25
  9
$DIMTP
 40
0.0
  9
$DIMTM
 40
0.0
  9
$DIMTXT
 40
2.5
  9
$DIMCEN
 40
2.5
  9
$DIMTSZ
 40
0.0
  9
$DIMTOL
 70
     0
  9
$DIMLIM
 70
     0
  9
$DIMTIH
 70
     0
  9
$DIMTOH
 70
     0
  9
$DIMSE1
 70
     0
  9
$DIMSE2
 70
     0
  9
$DIMTAD
 70
     1
  9
$DIMZIN
 70
     8
  9
$DIMBLK
  1

  9
$DIMASO
 70
     1
  9
$DIMSHO
 70
     1
  9
$DIMPOST
  1

  9
$DIMAPOST
  1

  9
$DIMALT
 70
     0
  9
$DIMALTD
 70
     3
  9
$DIMALTF
 40
0.03937
  9
$DIMLFAC
 40
1.0
  9
$DIMTOFL
 70
     1
  9
$DIMTVP
 40
0.0
  9
$DIMTIX
 70
     0
  9
$DIMSOXD
 70
     0
  9
$DIMSAH
 70
     0
  9
$DIMBLK1
  1

  9
$DIMBLK2
  1

  9
$DIMSTYLE
  2

  9
$DIMCLRD
 70
     0
  9
$DIMCLRE
 70
     0
  9
$DIMCLRT
 70
     0
  9
$DIMTFAC
 40
1.0
  9
$DIMGAP
 40
0.625
  9
$DIMJUST
 70
     0
  9
$DIMSD1
 70
     0
  9
$DIMSD2
 70
     0
  9
$DIMTOLJ
 70
     0
  9
$DIMTZIN
 70
     8
  9
$DIMALTZ
 70
     0
  9
$DIMALTTZ
 70
     0
  9
$DIMUPT
 70
     0
  9
$DIMDEC
 70
     2
  9
$DIMTDEC
 70
     2
  9
$DIMALTU
 70
     2
  9
$DIMALTTD
 70
     3
  9
$DIMTXSTY
  7
Standard
  9
$DIMAUNIT
 70
     0
  9
$DIMADEC
 70
     0
  9
$DIMALTRND
 40
0.0
  9
$DIMAZIN
 70
     0
  9
$DIMDSEP
 70
    44
  9
$DIMATFIT
 70
     0
  9
$DIMFRAC
 70
     0
  9
$DIMLDRBLK
  1

  9
$DIMLUNIT
 70
     2
  9
$DIMLWD
 70
    -2
  9
$DIMLWE
 70
    -2
  9
$DIMTMOVE
 70
     0
  9
$LUNITS
 70
     2
  9
$LUPREC
 70
     4
  9
$SKETCHINC
 40
1.0
  9
$FILLETRAD
 40
2.5
  9
$AUNITS
 70
     0
  9
$AUPREC
 70
     0
  9
$MENU
  1
.
  9
$ELEVATION
 40
0.0
  9
$PELEVATION
 40
0.0
  9
$THICKNESS
 40
0.0
  9
$LIMCHECK
 70
     0
  9
$CHAMFERA
 40
2.5
  9
$CHAMFERB
 40
2.5
  9
$CHAMFERC
 40
0.0
  9
$CHAMFERD
 40
0.0
  9
$SKPOLY
 70
     0
  9
$TDCREATE
 40
0.000000000
  9
$TDUCREATE
 40
0.000000000
  9
$TDUPDATE
 40
0.000000000
  9
$TDUUPDATE
 40
0.000000000
  9
$TDINDWG
 40
0.0000000000
  9
$TDUSRTIMER
 40
0.0000000000
  9
$USRTIMER
 70
     1
  9
$ANGBASE
 50
0.0
  9
$ANGDIR
 70
     0
  9
$PDMODE
 70
     0
  9
$PDSIZE
 40
0.0
  9
$PLINEWID
 40
0.0
  9
$SPLFRAME
 70
     0
  9
$SPLINETYPE
 70
     6
  9
$SPLINESEGS
 70
     8
  9
$HANDSEED
  5
677
  9
$SURFTAB1
 70
     6
  9
$SURFTAB2
 70
     6
  9
$SURFTYPE
 70
     6
  9
$SURFU
 70
     6
  9
$SURFV
 70
     6
  9
$UCSBASE
  2

  9
$UCSNAME
  2

  9
$UCSORG
 10
0.0
 20
0.0
 30
0.0
  9
$UCSXDIR
 10
1.0
 20
0.0
 30
0.0
  9
$UCSYDIR
 10
0.0
 20
1.0
 30
0.0
  9
$UCSORTHOREF
  2

  9
$UCSORTHOVIEW
 70
     1
  9
$UCSORGTOP
 10
0.0
 20
0.0
 30
0.0
  9
$UCSORGBOTTOM
 10
0.0
 20
0.0
 30
0.0
  9
$UCSORGLEFT
 10
0.0
 20
0.0
 30
0.0
  9
$UCSORGRIGHT
 10
0.0
 20
0.0
 30
0.0
  9
$UCSORGFRONT
 10
0.0
 20
0.0
 30
0.0
  9
$UCSORGBACK
 10
0.0
 20
0.0
 30
0.0
  9
$PUCSBASE
  2

  9
$PUCSNAME
  2

  9
$PUCSORG
 10
0.0
 20
0.0
 30
0.0
  9
$PUCSXDIR
 10
1.0
 20
0.0
 30
0.0
  9
$PUCSYDIR
 10
0.0
 20
1.0
 30
0.0
  9
$PUCSORTHOREF
  2

  9
$PUCSORTHOVIEW
 70
     0
  9
$PUCSORGTOP
 10
0.0
 20
0.0
 30
0.0
  9
$PUCSORGBOTTOM
 10
0.0
 20
0.0
 30
0.0
  9
$PUCSORGLEFT
 10
0.0
 20
0.0
 30
0.0
  9
$PUCSORGRIGHT
 10
0.0
 20
0.0
 30
0.0
  9
$PUCSORGFRONT
 10
0.0
 20
0.0
 30
0.0
  9
$PUCSORGBACK
 10
0.0
 20
0.0
 30
0.0
  9
$USERI1
 70
     0
  9
$USERI2
 70
     0
  9
$USERI3
 70
     0
  9
$USERI4
 70
     0
  9
$USERI5
 70
     0
  9
$USERR1
 40
0.0
  9
$USERR2
 40
0.0
  9
$USERR3
 40
0.0
  9
$USERR4
 40
0.0
  9
$USERR5
 40
0.0
  9
$WORLDVIEW
 70
     1
  9
$SHADEDGE
 70
     3
  9
$SHADEDIF
 70
    70
  9
$TILEMODE
 70
     1
  9
$MAXACTVP
 70
    48
  9
$PINSBASE
 10
0.0
 20
0.0
 30
0.0
  9
$PLIMCHECK
 70
     0
  9
$PEXTMIN
 10
0.0
 20
0.0
 30
0.0
  9
$PEXTMAX
 10
389.647034
 20
215.350006
 30
2.0
  9
$PLIMMIN
 10
0.0
 20
0.0
  9
$PLIMMAX
 10
420.0
 20
297.0
  9
$UNITMODE
 70
     0
  9
$VISRETAIN
 70
     0
  9
$PLINEGEN
 70
     0
  9
$PSLTSCALE
 70
     1
  9
$TREEDEPTH
 70
  3020
  9
$CMLSTYLE
  2
Standard
  9
$CMLJUST
 70
     0
  9
$CMLSCALE
 40
20.0
  9
$PROXYGRAPHICS
 70
     1
  9
$MEASUREMENT
 70
     1
  9
$CELWEIGHT
370
    -1
  9
$ENDCAPS
280
     0
  9
$JOINSTYLE
280
     0
  9
$LWDISPLAY
290
     0
  9
$INSUNITS
 70
     0
  9
$HYPERLINKBASE
  1

  9
$STYLESHEET
  1

  9
$XEDIT
290
     1
  9
$CEPSNTYPE
380
     0
  9
$PSTYLEMODE
290
     0
  9
$FINGERPRINTGUID
  2

  9
$VERSIONGUID
  2

  9
$EXTNAMES
290
     0
  9
$PSVPSCALE
 40
0.0
  0
ENDSEC
  0
SECTION
  2
CLASSES
  0
CLASS
  1
LWPOLYLINE
  2
AcDbPolyline
  3
AutoCAD 2000
 90
        0
280
     0
281
     1
  0
CLASS
  1
IMAGE
  2
AcDbRasterImage
  3
ISM
 90
      127
280
     0
281
     1
  0
CLASS
  1
OLE2FRAME
  2
AcDbOle2Frame
  3
AutoCAD 2000
 90
        0
280
     0
281
     1
  0
CLASS
  1
HATCH
  2
AcDbHatch
  3
AutoCAD 2000
 90
        0
280
     0
281
     1
  0
CLASS
  1
DICTIONARYVAR
  2
AcDbDictionaryVar
  3
AutoCAD 2000
 90
        0
280
     0
281
     0
  0
CLASS
  1
RASTERVARIABLES
  2
AcDbRasterVariables
  3
ISM
 90
        0
280
     0
281
     0
  0
CLASS
  1
IMAGEDEF
  2
AcDbRasterImageDef
  3
ISM
 90
        0
280
     0
281
     0
  0
CLASS
  1
IMAGEDEF_REACTOR
  2
AcDbRasterImageDefReactor
  3
ISM
 90
        1
280
     0
281
     0
  0
CLASS
  1
IDBUFFER
  2
AcDbIdBuffer
  3
AutoCAD 2000
 90
        0
280
     0
281
     0
  0
CLASS
  1
SPATIAL_FILTER
  2
AcDbSpatialFilter
  3
AutoCAD 2000
 90
        0
280
     0
281
     0
  0
CLASS
  1
XRECORD
  2
AcDbXrecord
  3
AutoCAD 2000
 90
        0
280
     0
281
     0
  0
CLASS
  1
SORTENTSTABLE
  2
AcDbSortentsTable
  3
AutoCAD 2000
 90
        0
280
     0
281
     0
  0
CLASS
  1
LAYER_INDEX
  2
AcDbLayerIndex
  3
AutoCAD 2000
 90
        0
280
     0
281
     0
  0
CLASS
  1
SPATIAL_INDEX
  2
AcDbSpatialIndex
  3
AutoCAD 2000
 90
        0
280
     0
281
     0
  0
CLASS
  1
OBJECT_PTR
  2
CAseDLPNTableRecord
  3
"ASE-LPNTableRecord"
 90
        1
280
     0
281
     0
  0
CLASS
  1
LAYOUT
  2
AcDbLayout
  3
AutoCAD 2000
 90
        0
280
     0
281
     0
  0
CLASS
  1
PLOTSETTINGS
  2
AcDbPlotSettings
  3
AutoCAD 2000
 90
        0
280
     0
281
     0
  0
CLASS
  1
ACDBDICTIONARYWDFLT
  2
AcDbDictionaryWithDefault
  3
AutoCAD 2000
 90
        0
280
     0
281
     0
  0
CLASS
  1
ACDBPLACEHOLDER
  2
AcDbPlaceHolder
  3
AutoCAD 2000
 90
        0
280
     0
281
     0
  0
CLASS
  1
VBA_PROJECT
  2
AcDbVbaProject
  3
acadvba
 90
        0
280
     0
281
     0
  0
CLASS
  1
WIPEOUT
  2
AcDbWipeout
  3
WipeOut|AutoCAD Express Tool|expresstools@autodesk.com
 90
      127
280
     0
281
     1
  0
CLASS
  1
WIPEOUTVARIABLES
  2
AcDbWipeoutVariables
  3
WipeOut|AutoCAD Express Tool|expresstools@autodesk.com
 90
        0
280
     0
281
     0
  0
CLASS
  1
RTEXT
  2
RText
  3
RText|AutoCAD Express Tool|expresstools@autodesk.com
 90
        0
280
     0
281
     1
  0
CLASS
  1
ARCALIGNEDTEXT
  2
AcDbArcAlignedText
  3
ATEXT|AutoCAD Express Tool|expresstools@autodesk.com
 90
        0
280
     0
281
     1
  0
ENDSEC
  0
SECTION
  2
TABLES
  0
TABLE
  2
VPORT
  5
7
100
AcDbSymbolTable
 70
     1
  0
VPORT
  5
15
100
AcDbSymbolTableRecord
100
AcDbViewportTableRecord
  2
*ACTIVE
 70
     0
 10
0.0
 20
0.0
 11
1.0
 21
1.0
 12
6.591288
 22
4.579184
 13
0.0
 23
0.0
 14
1.0
 24
1.0
 15
0.0
 25
0.0
 16
0.0
 26
0.0
 36
1.0
 17
0.0
 27
0.0
 37
0.0
 40
9.158369
 41
0.688564
 42
50.0
 43
0.0
 44
0.0
 50
0.0
 51
0.0
 71
     0
 72
   100
 73
     1
 74
     1
 75
     0
 76
     0
 77
     0
 78
     0
281
     0
 65
     0
110
0.0
120
0.0
130
0.0
111
1.0
121
0.0
131
0.0
112
0.0
122
1.0
132
0.0
345
0
346
0
 79
     0
146
0.0
  0
ENDTAB
  0
TABLE
  2
LTYPE
  5
4
100
AcDbSymbolTable
 70
     3
  0
LTYPE
  5
11
100
AcDbSymbolTableRecord
100
AcDbLinetypeTableRecord
  2
ByBlock
 70
    64
  3

 72
    65
 73
     0
 40
0.0
  0
LTYPE
  5
12
100
AcDbSymbolTableRecord
100
AcDbLinetypeTableRecord
  2
ByLayer
 70
    64
  3

 72
    65
 73
     0
 40
0.0
  0
LTYPE
  5
13
100
AcDbSymbolTableRecord
100
AcDbLinetypeTableRecord
  2
Continuous
 70
    64
  3
Solid line
 72
    65
 73
     0
 40
0.0
  0
ENDTAB
  0
TABLE
  2
LAYER
  5
2
100
AcDbSymbolTable
 70
     1
  0
LAYER
  5
14
100
AcDbSymbolTableRecord
100
AcDbLayerTableRecord
  2
0
 70
     0
 62
     7
  6
Continuous
290
     1
370
    -3
390
1D
  0
ENDTAB
  0
TABLE
  2
STYLE
  5
3
100
AcDbSymbolTable
 70
     1
  0
STYLE
  5
17
100
AcDbSymbolTableRecord
100
AcDbTextStyleTableRecord
  2
Standard
 70
     0
 40
0.0
 41
1.0
 50
0.0
 71
     0
 42
0.0
  3
txt
  4

  0
ENDTAB
  0
TABLE
  2
VIEW
  5
5
100
AcDbSymbolTable
 70
     0
  0
ENDTAB
  0
TABLE
  2
UCS
  5
6
100
AcDbSymbolTable
 70
     0
  0
ENDTAB
  0
TABLE
  2
APPID
  5
8
100
AcDbSymbolTable
 70
     1
  0
APPID
  5
16
100
AcDbSymbolTableRecord
100
AcDbRegAppTableRecord
  2
ACAD
 70
     0
  0
ENDTAB
  0
TABLE
  2
DIMSTYLE
  5
9
100
AcDbSymbolTable
 70
     1
100
AcDbDimStyleTable
 71
     0
  0
DIMSTYLE
105
18
100
AcDbSymbolTableRecord
100
AcDbDimStyleTableRecord
  2
Standard
 70
     0
  3

  4

 40
1.0
 41
0.18
 42
0.0625
 43
0.38
 44
0.18
 45
0.0
 46
0.0
 47
0.0
 48
0.0
 71
     0
 72
     0
 73
     1
 74
     1
 75
     0
 76
     0
 77
     0
 78
     0
 79
     0
140
0.18
141
0.09
142
0.0
143
25.4
144
1.0
145
0.0
146
1.0
147
0.09
148
0.0
170
     0
171
     2
172
     0
173
     0
174
     0
175
     0
176
     0
177
     0
178
     0
179
     0
271
     4
272
     4
273
     2
274
     2
275
     0
276
     0
277
     2
278
    46
279
     0
280
     0
281
     0
282
     0
283
     1
284
     0
285
     0
286
     0
288
     0
289
     3
340
17
341
0
342
0
343
0
344
0
371
    -2
372
    -2
  0
ENDTAB
  0
TABLE
  2
BLOCK_RECORD
  5
1
100
AcDbSymbolTable
 70
     0
  0
BLOCK_RECORD
  5
A
100
AcDbSymbolTableRecord
100
AcDbBlockTableRecord
  2
*MODEL_SPACE
340
20
  0
BLOCK_RECORD
  5
B
100
AcDbSymbolTableRecord
100
AcDbBlockTableRecord
  2
*PAPER_SPACE
340
21
  0
ENDTAB
  0
ENDSEC
  0
SECTION
  2
BLOCKS
  0
BLOCK
  5
D
100
AcDbEntity
  8
0
390
0
100
AcDbBlockBegin
  2
*MODEL_SPACE
 70
     0
 10
0.0
 20
0.0
 30
0.0
  3
*MODEL_SPACE
  1

  0
ENDBLK
  5
E
100
AcDbEntity
  8
0
390
0
100
AcDbBlockEnd
  0
BLOCK
  5
F
100
AcDbEntity
 67
     1
  8
0
390
0
100
AcDbBlockBegin
  2
*PAPER_SPACE
 70
     0
 10
0.0
 20
0.0
 30
0.0
  3
*PAPER_SPACE
  1

  0
ENDBLK
  5
10
100
AcDbEntity
 67
     1
  8
0
390
0
100
AcDbBlockEnd
  0
ENDSEC
  0
SECTION
  2
ENTITIES
  0
VIEWPORT
  5
676
100
AcDbEntity
 67
     1
  8
0
370
     0
390
0
 62
     0
 48
0.0
100
AcDbViewport
 10
0.0
 20
0.0
 30
0.0
 40
1000.0
 41
1000.0
 68
     1
 69
     1
 12
0.0
 22
0.0
 13
0.0
 23
0.0
 14
1.0
 24
1.0
 15
1.0
 25
1.0
 16
0.0
 26
0.0
 36
1.0
 17
0.0
 27
0.0
 37
0.0
 42
50.0
 43
0.0
 44
0.0
 45
1000.0
 50
0.0
 51
0.0
 72
   100
 90
        0
340
0
  1

281
     0
 71
     0
 74
     1
110
0.0
120
0.0
130
0.0
111
1.0
121
0.0
131
0.0
112
0.0
122
1.0
132
0.0
345
0
346
0
 79
     0
146
0.0
  0
POLYLINE
  5
24
100
AcDbEntity
  8
0
370
    13
390
0
 62
     7
100
AcDb2dPolyline
 66
     1
 10
0.0
 20
0.0
 30
0.0
 71
     8
  0
VERTEX
  5
25
100
AcDbEntity
  8
0
370
     0
390
0
100
AcDbVertex
100
AcDb2dVertex
 10
168.871582
 20
86.50322
 30
0.0
  0
VERTEX
  5
26
100
AcDbEntity
  8
0
370
     0
390
0
100
AcDbVertex
100
AcDb2dVertex
 10
168.410919
 20
87.067734
 30
0.0
  0
VERTEX
  5
27
100
AcDbEntity
  8
0
370
     0
390
0
100
AcDbVertex
100
AcDb2dVertex
 10
167.719971
 20
87.309677
 30
0.0
  0
VERTEX
  5
28
100
AcDbEntity
  8
0
370
     0
390
0
100
AcDbVertex
100
AcDb2dVertex
 10
167.028992
 20
87.309677
 30
0.0
  0
VERTEX
  5
29
100
AcDbEntity
  8
0
370
     0
390
0
100
AcDbVertex
100
AcDb2dVertex
 10
166.338013
 20
87.067734
 30
0.0
  0
VERTEX
  5
2A
100
AcDbEntity
  8
0
370
     0
390
0
100
AcDbVertex
100
AcDb2dVertex
 10
165.87738
 20
86.422577
 30
0.0
  0
VERTEX
  5
2B
100
AcDbEntity
  8
0
370
     0
390
0
100
AcDbVertex
100
AcDb2dVertex
 10
165.87738
 20
85.858063
 30
0.0
  0
VERTEX
  5
2C
100
AcDbEntity
  8
0
370
     0
390
0
100
AcDbVertex
100
AcDb2dVertex
 10
166.280457
 20
85.293549
 30
0.0
  0
SEQEND
  5
2D
100
AcDbEntity
  8
0
370
     0
390
0
  0
LINE
  5
2E
100
AcDbEntity
  8
0
370
    13
390
0
 62
     7
 48
0.013568
100
AcDbLine
 10
167.374481
 20
84.89032
 30
0.0
 11
167.8927
 21
84.729027
 31
0.0
210
0.0
220
0.0
230
1.0
  0
POLYLINE
  5
2F
100
AcDbEntity
  8
0
370
    13
390
0
 62
     7
100
AcDb2dPolyline
 66
     1
 10
0.0
 20
0.0
 30
0.0
 71
     5
  0
VERTEX
  5
30
100
AcDbEntity
  8
0
370
     0
390
0
100
AcDbVertex
100
AcDb2dVertex
 10
168.410919
 20
82.470963
 30
0.0
  0
VERTEX
  5
31
100
AcDbEntity
  8
0
370
     0
390
0
100
AcDbVertex
100
AcDb2dVertex
 10
167.719971
 20
82.309677
 30
0.0
  0
VERTEX
  5
32
100
AcDbEntity
  8
0
370
     0
390
0
100
AcDbVertex
100
AcDb2dVertex
 10
167.028992
 20
82.309677
 30
0.0
  0
VERTEX
  5
33
100
AcDbEntity
  8
0
370
     0
390
0
100
AcDbVertex
100
AcDb2dVertex
 10
166.338013
 20
82.632256
 30
0.0
  0
VERTEX
  5
34
100
AcDbEntity
  8
0
370
     0
390
0
100
AcDbVertex
100
AcDb2dVertex
 10
165.87738
 20
83.19677
 30
0.0
  0
SEQEND
  5
35
100
AcDbEntity
  8
0
370
     0
390
0
  0
LINE
  5
36
100
AcDbEntity
  8
0
370
    13
390
0
 62
     7
 48
0.011692
100
AcDbLine
 10
166.913818
 20
84.970963
 30
0.0
 11
167.374481
 21
84.89032
 31
0.0
210
0.0
220
0.0
230
1.0
  0
LINE
  5
37
100
AcDbEntity
  8
0
370
    13
390
0
 62
     7
 48
0.01777
100
AcDbLine
 10
166.280457
 20
85.293549
 30
0.0
 11
166.913818
 21
84.970963
 31
0.0
210
0.0
220
0.0
230
1.0
  0
LINE
  5
38
100
AcDbEntity
  8
0
370
    13
390
0
 62
     7
 48
0.019819
100
AcDbLine
 10
168.871582
 20
83.116127
 30
0.0
 11
168.410919
 21
82.470963
 31
0.0
210
0.0
220
0.0
230
1.0
  0
LINE
  5
39
100
AcDbEntity
  8
0
370
    13
390
0
 62
     7
 48
0.018145
100
AcDbLine
 10
168.871582
 20
83.841934
 30
0.0
 11
168.871582
 21
83.116127
 31
0.0
210
0.0
220
0.0
230
1.0
  0
POLYLINE
  5
3A
100
AcDbEntity
  8
0
370
    13
390
0
 62
     7
100
AcDb2dPolyline
 66
     1
 10
0.0
 20
0.0
 30
0.0
 71
     3
  0
VERTEX
  5
3B
100
AcDbEntity
  8
0
370
     0
390
0
100
AcDbVertex
100
AcDb2dVertex
 10
167.8927
 20
84.729027
 30
0.0
  0
VERTEX
  5
3C
100
AcDbEntity
  8
0
370
     0
390
0
100
AcDbVertex
100
AcDb2dVertex
 10
168.410919
 20
84.406448
 30
0.0
  0
VERTEX
  5
3D
100
AcDbEntity
  8
0
370
     0
390
0
100
AcDbVertex
100
AcDb2dVertex
 10
168.871582
 20
83.841934
 30
0.0
  0
SEQEND
  5
3E
100
AcDbEntity
  8
0
370
     0
390
0
  0
LINE
  5
3F
100
AcDbEntity
  8
0
370
    13
390
0
 62
     7
 48
0.048943
100
AcDbLine
 10
171.789948
 20
87.309677
 30
0.0
 11
169.832214
 21
87.309677
 31
0.0
210
0.0
220
0.0
230
1.0
  0
LINE
  5
40
100
AcDbEntity
  8
0
370
    13
390
0
 62
     7
 48
0.051823
100
AcDbLine
 10
169.832214
 20
84.89032
 30
0.0
 11
171.905121
 21
84.89032
 31
0.0
210
0.0
220
0.0
230
1.0
  0
LINE
  5
41
100
AcDbEntity
  8
0
370
    13
390
0
 62
     7
 48
0.125
100
AcDbLine
 10
169.832214
 20
87.309677
 30
0.0
 11
169.832214
 21
82.309677
 31
0.0
210
0.0
220
0.0
230
1.0
  0
POLYLINE
  5
42
100
AcDbEntity
  8
0
370
    13
390
0
 62
     7
100
AcDb2dPolyline
 66
     1
 10
0.0
 20
0.0
 30
0.0
 71
     6
  0
VERTEX
  5
43
100
AcDbEntity
  8
0
370
     0
390
0
100
AcDbVertex
100
AcDb2dVertex
 10
171.789948
 20
87.309677
 30
0.0
  0
VERTEX
  5
44
100
AcDbEntity
  8
0
370
     0
390
0
100
AcDbVertex
100
AcDb2dVertex
 10
172.193024
 20
87.067734
 30
0.0
  0
VERTEX
  5
45
100
AcDbEntity
  8
0
370
     0
390
0
100
AcDbVertex
100
AcDb2dVertex
 10
172.5961
 20
86.50322
 30
0.0
  0
VERTEX
  5
46
100
AcDbEntity
  8
0
370
     0
390
0
100
AcDbVertex
100
AcDb2dVertex
 10
172.5961
 20
85.69677
 30
0.0
  0
VERTEX
  5
47
100
AcDbEntity
  8
0
370
     0
390
0
100
AcDbVertex
100
AcDb2dVertex
 10
172.308197
 20
85.212898
 30
0.0
  0
VERTEX
  5
48
100
AcDbEntity
  8
0
370
     0
390
0
100
AcDbVertex
100
AcDb2dVertex
 10
171.905121
 20
84.89032
 30
0.0
  0
SEQEND
  5
49
100
AcDbEntity
  8
0
370
     0
390
0
  0
LINE
  5
4A
100
AcDbEntity
  8
0
370
    13
390
0
 62
     7
 48
0.070648
100
AcDbLine
 10
171.444489
 20
84.89032
 30
0.0
 11
172.5961
 21
82.309677
 31
0.0
210
0.0
220
0.0
230
1.0
  0
POLYLINE
  5
4B
100
AcDbEntity
  8
0
370
    13
390
0
 62
     7
100
AcDb2dPolyline
 66
     1
 10
0.0
 20
0.0
 30
0.0
 71
    14
  0
VERTEX
  5
4C
100
AcDbEntity
  8
0
370
     0
390
0
100
AcDbVertex
100
AcDb2dVertex
 10
176.666077
 20
82.309677
 30
0.0
  0
VERTEX
  5
4D
100
AcDbEntity
  8
0
370
     0
390
0
100
AcDbVertex
100
AcDb2dVertex
 10
173.902222
 20
82.309677
 30
0.0
  0
VERTEX
  5
4E
100
AcDbEntity
  8
0
370
     0
390
0
100
AcDbVertex
100
AcDb2dVertex
 10
175.859955
 20
84.567734
 30
0.0
  0
VERTEX
  5
4F
100
AcDbEntity
  8
0
370
     0
390
0
100
AcDbVertex
100
AcDb2dVertex
 10
176.263031
 20
85.212898
 30
0.0
  0
VERTEX
  5
50
100
AcDbEntity
  8
0
370
     0
390
0
100
AcDbVertex
100
AcDb2dVertex
 10
176.43576
 20
85.69677
 30
0.0
  0
VERTEX
  5
51
100
AcDbEntity
  8
0
370
     0
390
0
100
AcDbVertex
100
AcDb2dVertex
 10
176.43576
 20
86.180641
 30
0.0
  0
VERTEX
  5
52
100
AcDbEntity
  8
0
370
     0
390
0
100
AcDbVertex
100
AcDb2dVertex
 10
176.263031
 20
86.745155
 30
0.0
  0
VERTEX
  5
53
100
AcDbEntity
  8
0
370
     0
390
0
100
AcDbVertex
100
AcDb2dVertex
 10
176.090271
 20
87.067734
 30
0.0
  0
VERTEX
  5
54
100
AcDbEntity
  8
0
370
     0
390
0
100
AcDbVertex
100
AcDb2dVertex
 10
175.687225
 20
87.309677
 30
0.0
  0
VERTEX
  5
55
100
AcDbEntity
  8
0
370
     0
390
0
100
AcDbVertex
100
AcDb2dVertex
 10
174.996246
 20
87.309677
 30
0.0
  0
VERTEX
  5
56
100
AcDbEntity
  8
0
370
     0
390
0
100
AcDbVertex
100
AcDb2dVertex
 10
174.59317
 20
87.067734
 30
0.0
  0
VERTEX
  5
57
100
AcDbEntity
  8
0
370
     0
390
0
100
AcDbVertex
100
AcDb2dVertex
 10
174.420441
 20
86.825806
 30
0.0
  0
VERTEX
  5
58
100
AcDbEntity
  8
0
370
     0
390
0
100
AcDbVertex
100
AcDb2dVertex
 10
174.190125
 20
86.341934
 30
0.0
  0
VERTEX
  5
59
100
AcDbEntity
  8
0
370
     0
390
0
100
AcDbVertex
100
AcDb2dVertex
 10
174.190125
 20
86.099998
 30
0.0
  0
SEQEND
  5
5A
100
AcDbEntity
  8
0
370
     0
390
0
  0
POLYLINE
  5
5B
100
AcDbEntity
  8
0
370
    13
390
0
 62
     7
100
AcDb2dPolyline
 66
     1
 10
0.0
 20
0.0
 30
0.0
 71
     3
  0
VERTEX
  5
5C
100
AcDbEntity
  8
0
370
     0
390
0
100
AcDbVertex
100
AcDb2dVertex
 10
177.857056
 20
87.309677
 30
0.0
  0
VERTEX
  5
5D
100
AcDbEntity
  8
0
370
     0
390
0
100
AcDbVertex
100
AcDb2dVertex
 10
180.620941
 20
87.309677
 30
0.0
  0
VERTEX
  5
5E
100
AcDbEntity
  8
0
370
     0
390
0
100
AcDbVertex
100
AcDb2dVertex
 10
178.548035
 20
82.309677
 30
0.0
  0
SEQEND
  5
5F
100
AcDbEntity
  8
0
370
     0
390
0
  0
POLYLINE
  5
60
100
AcDbEntity
  8
0
370
    13
390
0
 62
     7
100
AcDb2dPolyline
 66
     1
 10
0.0
 20
0.0
 30
0.0
 71
     3
  0
VERTEX
  5
61
100
AcDbEntity
  8
0
370
     0
390
0
100
AcDbVertex
100
AcDb2dVertex
 10
181.63916
 20
82.309677
 30
0.0
  0
VERTEX
  5
62
100
AcDbEntity
  8
0
370
     0
390
0
100
AcDbVertex
100
AcDb2dVertex
 10
183.193817
 20
87.309677
 30
0.0
  0
VERTEX
  5
63
100
AcDbEntity
  8
0
370
     0
390
0
100
AcDbVertex
100
AcDb2dVertex
 10
184.748505
 20
82.309677
 30
0.0
  0
SEQEND
  5
64
100
AcDbEntity
  8
0
370
     0
390
0
  0
LINE
  5
65
100
AcDbEntity
  8
0
370
    13
390
0
 62
     7
 48
0.051823
100
AcDbLine
 10
182.157379
 20
84.00322
 30
0.0
 11
184.230286
 21
84.00322
 31
0.0
210
0.0
220
0.0
230
1.0
  0
LINE
  5
66
100
AcDbEntity
  8
0
370
    13
390
0
 62
     7
 48
0.066218
100
AcDbLine
 10
185.939484
 20
84.325806
 30
0.0
 11
188.588196
 21
84.325806
 31
0.0
210
0.0
220
0.0
230
1.0
  0
POLYLINE
  5
67
100
AcDbEntity
  8
0
370
    13
390
0
 62
     7
100
AcDb2dPolyline
 66
     1
 10
0.0
 20
0.0
 30
0.0
 70
     1
 71
    16
  0
VERTEX
  5
68
100
AcDbEntity
  8
0
370
     0
390
0
100
AcDbVertex
100
AcDb2dVertex
 10
190.873169
 20
87.309677
 30
0.0
  0
VERTEX
  5
69
100
AcDbEntity
  8
0
370
     0
390
0
100
AcDbVertex
100
AcDb2dVertex
 10
190.239807
 20
87.067741
 30
0.0
  0
VERTEX
  5
6A
100
AcDbEntity
  8
0
370
     0
390
0
100
AcDbVertex
100
AcDb2dVertex
 10
189.836731
 20
86.261292
 30
0.0
  0
VERTEX
  5
6B
100
AcDbEntity
  8
0
370
     0
390
0
100
AcDbVertex
100
AcDb2dVertex
 10
189.664001
 20
85.454834
 30
0.0
  0
VERTEX
  5
6C
100
AcDbEntity
  8
0
370
     0
390
0
100
AcDbVertex
100
AcDb2dVertex
 10
189.664001
 20
84.406448
 30
0.0
  0
VERTEX
  5
6D
100
AcDbEntity
  8
0
370
     0
390
0
100
AcDbVertex
100
AcDb2dVertex
 10
189.836731
 20
83.358063
 30
0.0
  0
VERTEX
  5
6E
100
AcDbEntity
  8
0
370
     0
390
0
100
AcDbVertex
100
AcDb2dVertex
 10
190.239807
 20
82.551613
 30
0.0
  0
VERTEX
  5
6F
100
AcDbEntity
  8
0
370
     0
390
0
100
AcDbVertex
100
AcDb2dVertex
 10
190.873169
 20
82.309677
 30
0.0
  0
VERTEX
  5
70
100
AcDbEntity
  8
0
370
     0
390
0
100
AcDbVertex
100
AcDb2dVertex
 10
191.333832
 20
82.309677
 30
0.0
  0
VERTEX
  5
71
100
AcDbEntity
  8
0
370
     0
390
0
100
AcDbVertex
100
AcDb2dVertex
 10
191.967224
 20
82.551613
 30
0.0
  0
VERTEX
  5
72
100
AcDbEntity
  8
0
370
     0
390
0
100
AcDbVertex
100
AcDb2dVertex
 10
192.37027
 20
83.358063
 30
0.0
  0
VERTEX
  5
73
100
AcDbEntity
  8
0
370
     0
390
0
100
AcDbVertex
100
AcDb2dVertex
 10
192.54303
 20
84.325806
 30
0.0
  0
VERTEX
  5
74
100
AcDbEntity
  8
0
370
     0
390
0
100
AcDbVertex
100
AcDb2dVertex
 10
192.54303
 20
85.454834
 30
0.0
  0
VERTEX
  5
75
100
AcDbEntity
  8
0
370
     0
390
0
100
AcDbVertex
100
AcDb2dVertex
 10
192.37027
 20
86.261292
 30
0.0
  0
VERTEX
  5
76
100
AcDbEntity
  8
0
370
     0
390
0
100
AcDbVertex
100
AcDb2dVertex
 10
191.967224
 20
87.067741
 30
0.0
  0
VERTEX
  5
77
100
AcDbEntity
  8
0
370
     0
390
0
100
AcDbVertex
100
AcDb2dVertex
 10
191.333832
 20
87.309677
 30
0.0
  0
SEQEND
  5
78
100
AcDbEntity
  8
0
370
     0
390
0
  0
POLYLINE
  5
79
100
AcDbEntity
  8
0
370
    13
390
0
 62
     7
100
AcDb2dPolyline
 66
     1
 10
0.0
 20
0.0
 30
0.0
 71
     3
  0
VERTEX
  5
7A
100
AcDbEntity
  8
0
370
     0
390
0
100
AcDbVertex
100
AcDb2dVertex
 10
194.540131
 20
86.664513
 30
0.0
  0
VERTEX
  5
7B
100
AcDbEntity
  8
0
370
     0
390
0
100
AcDbVertex
100
AcDb2dVertex
 10
195.173492
 20
87.309677
 30
0.0
  0
VERTEX
  5
7C
100
AcDbEntity
  8
0
370
     0
390
0
100
AcDbVertex
100
AcDb2dVertex
 10
195.173492
 20
82.309677
 30
0.0
  0
SEQEND
  5
7D
100
AcDbEntity
  8
0
370
     0
390
0
  0
LINE
  5
7E
100
AcDbEntity
  8
0
370
    13
390
0
 62
     7
 48
0.010544
100
AcDbLine
 10
194.194641
 20
86.422577
 30
0.0
 11
194.540131
 21
86.664513
 31
0.0
210
0.0
220
0.0
230
1.0
  0
POLYLINE
  5
7F
100
AcDbEntity
  8
0
370
    13
390
0
 62
     7
100
AcDb2dPolyline
 66
     1
 10
0.0
 20
0.0
 30
0.0
 71
     3
  0
VERTEX
  5
80
100
AcDbEntity
  8
0
370
     0
390
0
100
AcDbVertex
100
AcDb2dVertex
 10
197.631256
 20
87.309677
 30
0.0
  0
VERTEX
  5
81
100
AcDbEntity
  8
0
370
     0
390
0
100
AcDbVertex
100
AcDb2dVertex
 10
200.395111
 20
87.309677
 30
0.0
  0
VERTEX
  5
82
100
AcDbEntity
  8
0
370
     0
390
0
100
AcDbVertex
100
AcDb2dVertex
 10
198.322205
 20
82.309677
 30
0.0
  0
SEQEND
  5
83
100
AcDbEntity
  8
0
370
     0
390
0
  0
LINE
  5
84
100
AcDbEntity
  8
0
370
    35
390
0
 62
     7
 48
0.3275
100
AcDbLine
 10
387.147034
 20
184.350006
 30
0.0
 11
387.147034
 21
197.450012
 31
0.0
210
0.0
220
0.0
230
1.0
  0
LINE
  5
85
100
AcDbEntity
  8
0
370
    35
390
0
 62
     7
 48
0.057967
100
AcDbLine
 10
387.147034
 20
197.450012
 30
0.0
 11
384.828339
 21
197.450012
 31
0.0
210
0.0
220
0.0
230
1.0
  0
ARC
  5
86
100
AcDbEntity
  8
0
370
    35
390
0
 62
     7
100
AcDbCircle
 10
378.147034
 20
201.850006
 30
0.0
 40
8.0
210
0.0
220
0.0
230
1.0
100
AcDbArc
 50
213.367013
 51
326.632979
  0
LINE
  5
87
100
AcDbEntity
  8
0
370
    35
390
0
 62
     7
100
AcDbLine
 10
371.465729
 20
197.450012
 30
0.0
 11
312.797028
 21
197.450012
 31
0.0
210
0.0
220
0.0
230
1.0
  0
LINE
  5
88
100
AcDbEntity
  8
0
370
    35
390
0
 62
     7
 48
0.097501
100
AcDbLine
 10
312.797028
 20
193.549988
 30
0.0
 11
312.797028
 21
197.450012
 31
0.0
210
0.0
220
0.0
230
1.0
  0
ARC
  5
89
100
AcDbEntity
  8
0
370
    35
390
0
 62
     7
100
AcDbCircle
 10
312.297028
 20
193.549988
 30
0.0
 40
0.5
210
0.0
220
0.0
230
1.0
100
AcDbArc
 50
180.000009
 51
360.0
  0
LINE
  5
8A
100
AcDbEntity
  8
0
370
    35
390
0
 62
     7
 48
0.097501
100
AcDbLine
 10
311.797028
 20
197.450012
 30
0.0
 11
311.797028
 21
193.549988
 31
0.0
210
0.0
220
0.0
230
1.0
  0
LINE
  5
8B
100
AcDbEntity
  8
0
370
    35
390
0
 62
     7
 48
0.0575
100
AcDbLine
 10
311.797028
 20
197.450012
 30
0.0
 11
309.49704
 21
197.450012
 31
0.0
210
0.0
220
0.0
230
1.0
  0
LINE
  5
8C
100
AcDbEntity
  8
0
370
    35
390
0
 62
     7
 48
0.097501
100
AcDbLine
 10
309.49704
 20
193.549988
 30
0.0
 11
309.49704
 21
197.450012
 31
0.0
210
0.0
220
0.0
230
1.0
  0
ARC
  5
8D
100
AcDbEntity
  8
0
370
    35
390
0
 62
     7
100
AcDbCircle
 10
308.99704
 20
193.549988
 30
0.0
 40
0.5
210
0.0
220
0.0
230
1.0
100
AcDbArc
 50
180.000009
 51
360.0
  0
LINE
  5
8E
100
AcDbEntity
  8
0
370
    35
390
0
 62
     7
 48
0.097501
100
AcDbLine
 10
308.49704
 20
197.450012
 30
0.0
 11
308.49704
 21
193.549988
 31
0.0
210
0.0
220
0.0
230
1.0
  0
LINE
  5
8F
100
AcDbEntity
  8
0
370
    35
390
0
 62
     7
100
AcDbLine
 10
308.49704
 20
197.450012
 30
0.0
 11
162.797058
 21
197.450012
 31
0.0
210
0.0
220
0.0
230
1.0
  0
LINE
  5
90
100
AcDbEntity
  8
0
370
    35
390
0
 62
     7
 48
0.097501
100
AcDbLine
 10
162.797058
 20
193.549988
 30
0.0
 11
162.797058
 21
197.450012
 31
0.0
210
0.0
220
0.0
230
1.0
  0
ARC
  5
91
100
AcDbEntity
  8
0
370
    35
390
0
 62
     7
100
AcDbCircle
 10
162.297058
 20
193.549988
 30
0.0
 40
0.5
210
0.0
220
0.0
230
1.0
100
AcDbArc
 50
180.000009
 51
360.0
  0
LINE
  5
92
100
AcDbEntity
  8
0
370
    35
390
0
 62
     7
 48
0.097501
100
AcDbLine
 10
161.797058
 20
197.450012
 30
0.0
 11
161.797058
 21
193.549988
 31
0.0
210
0.0
220
0.0
230
1.0
  0
LINE
  5
93
100
AcDbEntity
  8
0
370
    35
390
0
 62
     7
 48
0.0575
100
AcDbLine
 10
161.797058
 20
197.450012
 30
0.0
 11
159.49704
 21
197.450012
 31
0.0
210
0.0
220
0.0
230
1.0
  0
LINE
  5
94
100
AcDbEntity
  8
0
370
    35
390
0
 62
     7
 48
0.097501
100
AcDbLine
 10
159.49704
 20
193.549988
 30
0.0
 11
159.49704
 21
197.450012
 31
0.0
210
0.0
220
0.0
230
1.0
  0
ARC
  5
95
100
AcDbEntity
  8
0
370
    35
390
0
 62
     7
100
AcDbCircle
 10
158.99704
 20
193.549988
 30
0.0
 40
0.5
210
0.0
220
0.0
230
1.0
100
AcDbArc
 50
180.000009
 51
360.0
  0
LINE
  5
96
100
AcDbEntity
  8
0
370
    35
390
0
 62
     7
 48
0.097501
100
AcDbLine
 10
158.49704
 20
197.450012
 30
0.0
 11
158.49704
 21
193.549988
 31
0.0
210
0.0
220
0.0
230
1.0
  0
LINE
  5
97
100
AcDbEntity
  8
0
370
    35
390
0
 62
     7
100
AcDbLine
 10
158.49704
 20
197.450012
 30
0.0
 11
99.828369
 21
197.450012
 31
0.0
210
0.0
220
0.0
230
1.0
  0
ARC
  5
98
100
AcDbEntity
  8
0
370
    35
390
0
 62
     7
100
AcDbCircle
 10
93.147057
 20
201.850006
 30
0.0
 40
8.0
210
0.0
220
0.0
230
1.0
100
AcDbArc
 50
213.367013
 51
326.632979
  0
LINE
  5
99
100
AcDbEntity
  8
0
370
    35
390
0
 62
     7
 48
0.057967
100
AcDbLine
 10
86.465736
 20
197.450012
 30
0.0
 11
84.147057
 21
197.450012
 31
0.0
210
0.0
220
0.0
230
1.0
  0
LINE
  5
9A
100
AcDbEntity
  8
0
370
    35
390
0
 62
     7
 48
0.3275
100
AcDbLine
 10
84.147057
 20
184.350006
 30
0.0
 11
84.147057
 21
197.450012
 31
0.0
210
0.0
220
0.0
230
1.0
  0
LINE
  5
9B
100
AcDbEntity
  8
0
370
    35
390
0
 62
     7
 48
0.02
100
AcDbLine
 10
387.147034
 20
183.549988
 30
0.0
 11
387.147034
 21
184.350006
 31
0.0
210
0.0
220
0.0
230
1.0
  0
LINE
  5
9C
100
AcDbEntity
  8
0
370
    35
390
0
 62
     7
 48
0.02
100
AcDbLine
 10
84.147057
 20
184.350006
 30
0.0
 11
84.147057
 21
183.549988
 31
0.0
210
0.0
220
0.0
230
1.0
  0
LINE
  5
9D
100
AcDbEntity
  8
0
370
    35
390
0
 62
     7
100
AcDbLine
 10
84.147057
 20
183.549988
 30
0.0
 11
387.147034
 21
183.549988
 31
0.0
210
0.0
220
0.0
230
1.0
  0
LINE
  5
9E
100
AcDbEntity
  8
0
370
    35
390
0
 62
     7
 48
0.003232
100
AcDbLine
 10
387.147034
 20
197.579285
 30
0.0
 11
387.147034
 21
197.450012
 31
0.0
210
0.0
220
0.0
230
1.0
  0
LINE
  5
9F
100
AcDbEntity
  8
0
370
    35
390
0
 62
     7
 48
0.003535
100
AcDbLine
 10
387.147034
 20
197.579285
 30
0.0
 11
387.147034
 21
197.720703
 31
0.0
210
0.0
220
0.0
230
1.0
  0
LINE
  5
A0
100
AcDbEntity
  8
0
370
    35
390
0
 62
     7
 48
0.003233
100
AcDbLine
 10
387.147034
 20
197.850006
 30
0.0
 11
387.147034
 21
197.720703
 31
0.0
210
0.0
220
0.0
230
1.0
  0
LINE
  5
A1
100
AcDbEntity
  8
0
370
    35
390
0
 62
     7
 48
0.0175
100
AcDbLine
 10
387.147034
 20
197.850006
 30
0.0
 11
387.147034
 21
198.549988
 31
0.0
210
0.0
220
0.0
230
1.0
  0
LINE
  5
A2
100
AcDbEntity
  8
0
370
    35
390
0
 62
     7
 48
0.003233
100
AcDbLine
 10
387.147034
 20
198.679291
 30
0.0
 11
387.147034
 21
198.549988
 31
0.0
210
0.0
220
0.0
230
1.0
  0
LINE
  5
A3
100
AcDbEntity
  8
0
370
    35
390
0
 62
     7
 48
0.003535
100
AcDbLine
 10
387.147034
 20
198.679291
 30
0.0
 11
387.147034
 21
198.820709
 31
0.0
210
0.0
220
0.0
230
1.0
  0
LINE
  5
A4
100
AcDbEntity
  8
0
370
    35
390
0
 62
     7
 48
0.003233
100
AcDbLine
 10
387.147034
 20
198.950012
 30
0.0
 11
387.147034
 21
198.820709
 31
0.0
210
0.0
220
0.0
230
1.0
  0
LINE
  5
A5
100
AcDbEntity
  8
0
370
    35
390
0
 62
     7
 48
0.0175
100
AcDbLine
 10
387.147034
 20
198.950012
 30
0.0
 11
387.147034
 21
199.649994
 31
0.0
210
0.0
220
0.0
230
1.0
  0
LINE
  5
A6
100
AcDbEntity
  8
0
370
    35
390
0
 62
     7
 48
0.003233
100
AcDbLine
 10
387.147034
 20
199.779297
 30
0.0
 11
387.147034
 21
199.649994
 31
0.0
210
0.0
220
0.0
230
1.0
  0
LINE
  5
A7
100
AcDbEntity
  8
0
370
    35
390
0
 62
     7
 48
0.003535
100
AcDbLine
 10
387.147034
 20
199.779297
 30
0.0
 11
387.147034
 21
199.920715
 31
0.0
210
0.0
220
0.0
230
1.0
  0
LINE
  5
A8
100
AcDbEntity
  8
0
370
    35
390
0
 62
     7
 48
0.003232
100
AcDbLine
 10
387.147034
 20
200.049988
 30
0.0
 11
387.147034
 21
199.920715
 31
0.0
210
0.0
220
0.0
230
1.0
  0
LINE
  5
A9
100
AcDbEntity
  8
0
370
    35
390
0
 62
     7
 48
0.0175
100
AcDbLine
 10
387.147034
 20
200.049988
 30
0.0
 11
387.147034
 21
200.75
 31
0.0
210
0.0
220
0.0
230
1.0
  0
LINE
  5
AA
100
AcDbEntity
  8
0
370
    35
390
0
 62
     7
 48
0.003232
100
AcDbLine
 10
387.147034
 20
200.879272
 30
0.0
 11
387.147034
 21
200.75
 31
0.0
210
0.0
220
0.0
230
1.0
  0
LINE
  5
AB
100
AcDbEntity
  8
0
370
    35
390
0
 62
     7
 48
0.003536
100
AcDbLine
 10
387.147034
 20
200.879272
 30
0.0
 11
387.147034
 21
201.020721
 31
0.0
210
0.0
220
0.0
230
1.0
  0
LINE
  5
AC
100
AcDbEntity
  8
0
370
    35
390
0
 62
     7
 48
0.003232
100
AcDbLine
 10
387.147034
 20
201.149994
 30
0.0
 11
387.147034
 21
201.020721
 31
0.0
210
0.0
220
0.0
230
1.0
  0
LINE
  5
AD
100
AcDbEntity
  8
0
370
    35
390
0
 62
     7
 48
0.0175
100
AcDbLine
 10
387.147034
 20
201.149994
 30
0.0
 11
387.147034
 21
201.850006
 31
0.0
210
0.0
220
0.0
230
1.0
  0
LINE
  5
AE
100
AcDbEntity
  8
0
370
    35
390
0
 62
     7
 48
0.003232
100
AcDbLine
 10
387.147034
 20
201.979279
 30
0.0
 11
387.147034
 21
201.850006
 31
0.0
210
0.0
220
0.0
230
1.0
  0
LINE
  5
AF
100
AcDbEntity
  8
0
370
    35
390
0
 62
     7
 48
0.003535
100
AcDbLine
 10
387.147034
 20
201.979279
 30
0.0
 11
387.147034
 21
202.120697
 31
0.0
210
0.0
220
0.0
230
1.0
  0
LINE
  5
B0
100
AcDbEntity
  8
0
370
    35
390
0
 62
     7
 48
0.003233
100
AcDbLine
 10
387.147034
 20
202.25
 30
0.0
 11
387.147034
 21
202.120697
 31
0.0
210
0.0
220
0.0
230
1.0
  0
LINE
  5
B1
100
AcDbEntity
  8
0
370
    35
390
0
 62
     7
 48
0.0175
100
AcDbLine
 10
387.147034
 20
202.25
 30
0.0
 11
387.147034
 21
202.950012
 31
0.0
210
0.0
220
0.0
230
1.0
  0
LINE
  5
B2
100
AcDbEntity
  8
0
370
    35
390
0
 62
     7
 48
0.003232
100
AcDbLine
 10
387.147034
 20
203.079285
 30
0.0
 11
387.147034
 21
202.950012
 31
0.0
210
0.0
220
0.0
230
1.0
  0
LINE
  5
B3
100
AcDbEntity
  8
0
370
    35
390
0
 62
     7
 48
0.003535
100
AcDbLine
 10
387.147034
 20
203.079285
 30
0.0
 11
387.147034
 21
203.220703
 31
0.0
210
0.0
220
0.0
230
1.0
  0
LINE
  5
B4
100
AcDbEntity
  8
0
370
    35
390
0
 62
     7
 48
0.003233
100
AcDbLine
 10
387.147034
 20
203.350006
 30
0.0
 11
387.147034
 21
203.220703
 31
0.0
210
0.0
220
0.0
230
1.0
  0
LINE
  5
B5
100
AcDbEntity
  8
0
370
    35
390
0
 62
     7
 48
0.0175
100
AcDbLine
 10
387.147034
 20
203.350006
 30
0.0
 11
387.147034
 21
204.049988
 31
0.0
210
0.0
220
0.0
230
1.0
  0
LINE
  5
B6
100
AcDbEntity
  8
0
370
    35
390
0
 62
     7
 48
0.003233
100
AcDbLine
 10
387.147034
 20
204.179291
 30
0.0
 11
387.147034
 21
204.049988
 31
0.0
210
0.0
220
0.0
230
1.0
  0
LINE
  5
B7
100
AcDbEntity
  8
0
370
    35
390
0
 62
     7
 48
0.003535
100
AcDbLine
 10
387.147034
 20
204.179291
 30
0.0
 11
387.147034
 21
204.320709
 31
0.0
210
0.0
220
0.0
230
1.0
  0
LINE
  5
B8
100
AcDbEntity
  8
0
370
    35
390
0
 62
     7
 48
0.003233
100
AcDbLine
 10
387.147034
 20
204.450012
 30
0.0
 11
387.147034
 21
204.320709
 31
0.0
210
0.0
220
0.0
230
1.0
  0
LINE
  5
B9
100
AcDbEntity
  8
0
370
    35
390
0
 62
     7
 48
0.0175
100
AcDbLine
 10
387.147034
 20
204.450012
 30
0.0
 11
387.147034
 21
205.149994
 31
0.0
210
0.0
220
0.0
230
1.0
  0
LINE
  5
BA
100
AcDbEntity
  8
0
370
    35
390
0
 62
     7
 48
0.003233
100
AcDbLine
 10
387.147034
 20
205.279297
 30
0.0
 11
387.147034
 21
205.149994
 31
0.0
210
0.0
220
0.0
230
1.0
  0
LINE
  5
BB
100
AcDbEntity
  8
0
370
    35
390
0
 62
     7
 48
0.003535
100
AcDbLine
 10
387.147034
 20
205.279297
 30
0.0
 11
387.147034
 21
205.420715
 31
0.0
210
0.0
220
0.0
230
1.0
  0
LINE
  5
BC
100
AcDbEntity
  8
0
370
    35
390
0
 62
     7
 48
0.003232
100
AcDbLine
 10
387.147034
 20
205.549988
 30
0.0
 11
387.147034
 21
205.420715
 31
0.0
210
0.0
220
0.0
230
1.0
  0
LINE
  5
BD
100
AcDbEntity
  8
0
370
    35
390
0
 62
     7
 48
0.0175
100
AcDbLine
 10
387.147034
 20
205.549988
 30
0.0
 11
387.147034
 21
206.25
 31
0.0
210
0.0
220
0.0
230
1.0
  0
LINE
  5
BE
100
AcDbEntity
  8
0
370
    35
390
0
 62
     7
 48
0.003232
100
AcDbLine
 10
387.147034
 20
206.379272
 30
0.0
 11
387.147034
 21
206.25
 31
0.0
210
0.0
220
0.0
230
1.0
  0
LINE
  5
BF
100
AcDbEntity
  8
0
370
    35
390
0
 62
     7
 48
0.003536
100
AcDbLine
 10
387.147034
 20
206.379272
 30
0.0
 11
387.147034
 21
206.520721
 31
0.0
210
0.0
220
0.0
230
1.0
  0
LINE
  5
C0
100
AcDbEntity
  8
0
370
    35
390
0
 62
     7
 48
0.003232
100
AcDbLine
 10
387.147034
 20
206.649994
 30
0.0
 11
387.147034
 21
206.520721
 31
0.0
210
0.0
220
0.0
230
1.0
  0
LINE
  5
C1
100
AcDbEntity
  8
0
370
    35
390
0
 62
     7
 48
0.120607
100
AcDbLine
 10
387.147034
 20
206.649994
 30
0.0
 11
387.147034
 21
211.474274
 31
0.0
210
0.0
220
0.0
230
1.0
  0
LINE
  5
C2
100
AcDbEntity
  8
0
370
    35
390
0
 62
     7
 48
0.012196
100
AcDbLine
 10
387.147034
 20
211.962128
 30
0.0
 11
387.147034
 21
211.474274
 31
0.0
210
0.0
220
0.0
230
1.0
  0
LINE
  5
C3
100
AcDbEntity
  8
0
370
    35
390
0
 62
     7
 48
0.002197
100
AcDbLine
 10
387.147034
 20
211.962128
 30
0.0
 11
387.147034
 21
212.049988
 31
0.0
210
0.0
220
0.0
230
1.0
  0
LINE
  5
C4
100
AcDbEntity
  8
0
370
    35
390
0
 62
     7
 48
0.003846
100
AcDbLine
 10
384.828339
 20
197.450012
 30
0.0
 11
384.911713
 21
197.579285
 31
0.0
210
0.0
220
0.0
230
1.0
  0
ARC
  5
C5
100
AcDbEntity
  8
0
370
    35
390
0
 62
     7
100
AcDbCircle
 10
378.147034
 20
201.850006
 30
0.0
 40
8.0
210
0.0
220
0.0
230
1.0
100
AcDbArc
 50
354.980203
 51
360.0
  0
LINE
  5
C6
100
AcDbEntity
  8
0
370
    35
390
0
 62
     7
 48
0.003247
100
AcDbLine
 10
386.103943
 20
201.020721
 30
0.0
 11
386.116364
 21
201.149994
 31
0.0
210
0.0
220
0.0
230
1.0
  0
LINE
  5
C7
100
AcDbEntity
  8
0
370
    35
390
0
 62
     7
 48
0.003559
100
AcDbLine
 10
386.087921
 20
200.879272
 30
0.0
 11
386.103943
 21
201.020721
 31
0.0
210
0.0
220
0.0
230
1.0
  0
LINE
  5
C8
100
AcDbEntity
  8
0
370
    35
390
0
 62
     7
 48
0.003259
100
AcDbLine
 10
386.071045
 20
200.75
 30
0.0
 11
386.087921
 21
200.879272
 31
0.0
210
0.0
220
0.0
230
1.0
  0
ARC
  5
C9
100
AcDbEntity
  8
0
370
    35
390
0
 62
     7
100
AcDbCircle
 10
378.147034
 20
201.850006
 30
0.0
 40
8.0
210
0.0
220
0.0
230
1.0
100
AcDbArc
 50
346.997132
 51
352.096798
  0
LINE
  5
CA
100
AcDbEntity
  8
0
370
    35
390
0
 62
     7
 48
0.003323
100
AcDbLine
 10
385.910919
 20
199.920715
 30
0.0
 11
385.941895
 21
200.049988
 31
0.0
210
0.0
220
0.0
230
1.0
  0
LINE
  5
CB
100
AcDbEntity
  8
0
370
    35
390
0
 62
     7
 48
0.003652
100
AcDbLine
 10
385.87439
 20
199.779297
 30
0.0
 11
385.910919
 21
199.920715
 31
0.0
210
0.0
220
0.0
230
1.0
  0
LINE
  5
CC
100
AcDbEntity
  8
0
370
    35
390
0
 62
     7
 48
0.003354
100
AcDbLine
 10
385.838593
 20
199.649994
 30
0.0
 11
385.87439
 21
199.779297
 31
0.0
210
0.0
220
0.0
230
1.0
  0
ARC
  5
CD
100
AcDbEntity
  8
0
370
    35
390
0
 62
     7
100
AcDbCircle
 10
378.147034
 20
201.850006
 30
0.0
 40
8.0
210
0.0
220
0.0
230
1.0
100
AcDbArc
 50
338.746183
 51
344.037995
  0
LINE
  5
CE
100
AcDbEntity
  8
0
370
    35
390
0
 62
     7
 48
0.00348
100
AcDbLine
 10
385.551331
 20
198.820709
 30
0.0
 11
385.602905
 21
198.950012
 31
0.0
210
0.0
220
0.0
230
1.0
  0
LINE
  5
CF
100
AcDbEntity
  8
0
370
    35
390
0
 62
     7
 48
0.003835
100
AcDbLine
 10
385.491882
 20
198.679291
 30
0.0
 11
385.551331
 21
198.820709
 31
0.0
210
0.0
220
0.0
230
1.0
  0
LINE
  5
D0
100
AcDbEntity
  8
0
370
    35
390
0
 62
     7
 48
0.003535
100
AcDbLine
 10
385.434692
 20
198.549988
 30
0.0
 11
385.491882
 21
198.679291
 31
0.0
210
0.0
220
0.0
230
1.0
  0
ARC
  5
D1
100
AcDbEntity
  8
0
370
    35
390
0
 62
     7
100
AcDbCircle
 10
378.147034
 20
201.850006
 30
0.0
 40
8.0
210
0.0
220
0.0
230
1.0
100
AcDbArc
 50
329.999989
 51
335.63801
  0
LINE
  5
D2
100
AcDbEntity
  8
0
370
    35
390
0
 62
     7
 48
0.003753
100
AcDbLine
 10
384.998962
 20
197.720703
 30
0.0
 11
385.075226
 21
197.850006
 31
0.0
210
0.0
220
0.0
230
1.0
  0
LINE
  5
D3
100
AcDbEntity
  8
0
370
    35
390
0
 62
     7
 48
0.004154
100
AcDbLine
 10
384.911713
 20
197.579285
 30
0.0
 11
384.998962
 21
197.720703
 31
0.0
210
0.0
220
0.0
230
1.0
  0
LINE
  5
D4
100
AcDbEntity
  8
0
370
    35
390
0
 62
     7
 48
0.003846
100
AcDbLine
 10
371.465729
 20
197.450012
 30
0.0
 11
371.382355
 21
197.579285
 31
0.0
210
0.0
220
0.0
230
1.0
  0
LINE
  5
D5
100
AcDbEntity
  8
0
370
    35
390
0
 62
     7
 48
0.004154
100
AcDbLine
 10
371.382355
 20
197.579285
 30
0.0
 11
371.295105
 21
197.720703
 31
0.0
210
0.0
220
0.0
230
1.0
  0
LINE
  5
D6
100
AcDbEntity
  8
0
370
    35
390
0
 62
     7
 48
0.003753
100
AcDbLine
 10
371.295105
 20
197.720703
 30
0.0
 11
371.218842
 21
197.850006
 31
0.0
210
0.0
220
0.0
230
1.0
  0
ARC
  5
D7
100
AcDbEntity
  8
0
370
    35
390
0
 62
     7
100
AcDbCircle
 10
378.147034
 20
201.850006
 30
0.0
 40
8.0
210
0.0
220
0.0
230
1.0
100
AcDbArc
 50
204.361982
 51
210.000003
  0
LINE
  5
D8
100
AcDbEntity
  8
0
370
    35
390
0
 62
     7
 48
0.003535
100
AcDbLine
 10
370.859375
 20
198.549988
 30
0.0
 11
370.802185
 21
198.679291
 31
0.0
210
0.0
220
0.0
230
1.0
  0
LINE
  5
D9
100
AcDbEntity
  8
0
370
    35
390
0
 62
     7
 48
0.003835
100
AcDbLine
 10
370.802185
 20
198.679291
 30
0.0
 11
370.742737
 21
198.820709
 31
0.0
210
0.0
220
0.0
230
1.0
  0
LINE
  5
DA
100
AcDbEntity
  8
0
370
    35
390
0
 62
     7
 48
0.00348
100
AcDbLine
 10
370.742737
 20
198.820709
 30
0.0
 11
370.691162
 21
198.950012
 31
0.0
210
0.0
220
0.0
230
1.0
  0
ARC
  5
DB
100
AcDbEntity
  8
0
370
    35
390
0
 62
     7
100
AcDbCircle
 10
378.147034
 20
201.850006
 30
0.0
 40
8.0
210
0.0
220
0.0
230
1.0
100
AcDbArc
 50
195.96201
 51
201.253809
  0
LINE
  5
DC
100
AcDbEntity
  8
0
370
    35
390
0
 62
     7
 48
0.003354
100
AcDbLine
 10
370.455475
 20
199.649994
 30
0.0
 11
370.419678
 21
199.779297
 31
0.0
210
0.0
220
0.0
230
1.0
  0
LINE
  5
DD
100
AcDbEntity
  8
0
370
    35
390
0
 62
     7
 48
0.003652
100
AcDbLine
 10
370.419678
 20
199.779297
 30
0.0
 11
370.383148
 21
199.920715
 31
0.0
210
0.0
220
0.0
230
1.0
  0
LINE
  5
DE
100
AcDbEntity
  8
0
370
    35
390
0
 62
     7
 48
0.003323
100
AcDbLine
 10
370.383148
 20
199.920715
 30
0.0
 11
370.352173
 21
200.049988
 31
0.0
210
0.0
220
0.0
230
1.0
  0
ARC
  5
DF
100
AcDbEntity
  8
0
370
    35
390
0
 62
     7
100
AcDbCircle
 10
378.147034
 20
201.850006
 30
0.0
 40
8.0
210
0.0
220
0.0
230
1.0
100
AcDbArc
 50
187.903207
 51
193.002872
  0
LINE
  5
E0
100
AcDbEntity
  8
0
370
    35
390
0
 62
     7
 48
0.003259
100
AcDbLine
 10
370.223022
 20
200.75
 30
0.0
 11
370.206146
 21
200.879272
 31
0.0
210
0.0
220
0.0
230
1.0
  0
LINE
  5
E1
100
AcDbEntity
  8
0
370
    35
390
0
 62
     7
 48
0.003559
100
AcDbLine
 10
370.206146
 20
200.879272
 30
0.0
 11
370.190125
 21
201.020721
 31
0.0
210
0.0
220
0.0
230
1.0
  0
LINE
  5
E2
100
AcDbEntity
  8
0
370
    35
390
0
 62
     7
 48
0.003247
100
AcDbLine
 10
370.190125
 20
201.020721
 30
0.0
 11
370.177704
 21
201.149994
 31
0.0
210
0.0
220
0.0
230
1.0
  0
ARC
  5
E3
100
AcDbEntity
  8
0
370
    35
390
0
 62
     7
100
AcDbCircle
 10
378.147034
 20
201.850006
 30
0.0
 40
8.0
210
0.0
220
0.0
230
1.0
100
AcDbArc
 50
180.000009
 51
185.019802
  0
LINE
  5
E4
100
AcDbEntity
  8
0
370
    35
390
0
 62
     7
 48
0.003232
100
AcDbLine
 10
312.797028
 20
197.579285
 30
0.0
 11
312.797028
 21
197.450012
 31
0.0
210
0.0
220
0.0
230
1.0
  0
LINE
  5
E5
100
AcDbEntity
  8
0
370
    35
390
0
 62
     7
 48
0.003233
100
AcDbLine
 10
312.797028
 20
197.720703
 30
0.0
 11
312.797028
 21
197.850006
 31
0.0
210
0.0
220
0.0
230
1.0
  0
LINE
  5
E6
100
AcDbEntity
  8
0
370
    35
390
0
 62
     7
 48
0.003535
100
AcDbLine
 10
312.797028
 20
197.720703
 30
0.0
 11
312.797028
 21
197.579285
 31
0.0
210
0.0
220
0.0
230
1.0
  0
LINE
  5
E7
100
AcDbEntity
  8
0
370
    35
390
0
 62
     7
 48
0.01
100
AcDbLine
 10
312.797028
 20
204.450012
 30
0.0
 11
312.797028
 21
204.850006
 31
0.0
210
0.0
220
0.0
230
1.0
  0
LINE
  5
E8
100
AcDbEntity
  8
0
370
    35
390
0
 62
     7
 48
0.003233
100
AcDbLine
 10
312.797028
 20
204.320709
 30
0.0
 11
312.797028
 21
204.450012
 31
0.0
210
0.0
220
0.0
230
1.0
  0
LINE
  5
E9
100
AcDbEntity
  8
0
370
    35
390
0
 62
     7
 48
0.003535
100
AcDbLine
 10
312.797028
 20
204.320709
 30
0.0
 11
312.797028
 21
204.179291
 31
0.0
210
0.0
220
0.0
230
1.0
  0
LINE
  5
EA
100
AcDbEntity
  8
0
370
    35
390
0
 62
     7
 48
0.003233
100
AcDbLine
 10
312.797028
 20
204.179291
 30
0.0
 11
312.797028
 21
204.049988
 31
0.0
210
0.0
220
0.0
230
1.0
  0
LINE
  5
EB
100
AcDbEntity
  8
0
370
    35
390
0
 62
     7
 48
0.0175
100
AcDbLine
 10
312.797028
 20
203.350006
 30
0.0
 11
312.797028
 21
204.049988
 31
0.0
210
0.0
220
0.0
230
1.0
  0
LINE
  5
EC
100
AcDbEntity
  8
0
370
    35
390
0
 62
     7
 48
0.003233
100
AcDbLine
 10
312.797028
 20
203.220703
 30
0.0
 11
312.797028
 21
203.350006
 31
0.0
210
0.0
220
0.0
230
1.0
  0
LINE
  5
ED
100
AcDbEntity
  8
0
370
    35
390
0
 62
     7
 48
0.003535
100
AcDbLine
 10
312.797028
 20
203.220703
 30
0.0
 11
312.797028
 21
203.079285
 31
0.0
210
0.0
220
0.0
230
1.0
  0
LINE
  5
EE
100
AcDbEntity
  8
0
370
    35
390
0
 62
     7
 48
0.003232
100
AcDbLine
 10
312.797028
 20
203.079285
 30
0.0
 11
312.797028
 21
202.950012
 31
0.0
210
0.0
220
0.0
230
1.0
  0
LINE
  5
EF
100
AcDbEntity
  8
0
370
    35
390
0
 62
     7
 48
0.0175
100
AcDbLine
 10
312.797028
 20
202.25
 30
0.0
 11
312.797028
 21
202.950012
 31
0.0
210
0.0
220
0.0
230
1.0
  0
LINE
  5
F0
100
AcDbEntity
  8
0
370
    35
390
0
 62
     7
 48
0.003233
100
AcDbLine
 10
312.797028
 20
202.120697
 30
0.0
 11
312.797028
 21
202.25
 31
0.0
210
0.0
220
0.0
230
1.0
  0
LINE
  5
F1
100
AcDbEntity
  8
0
370
    35
390
0
 62
     7
 48
0.003535
100
AcDbLine
 10
312.797028
 20
202.120697
 30
0.0
 11
312.797028
 21
201.979279
 31
0.0
210
0.0
220
0.0
230
1.0
  0
LINE
  5
F2
100
AcDbEntity
  8
0
370
    35
390
0
 62
     7
 48
0.003232
100
AcDbLine
 10
312.797028
 20
201.979279
 30
0.0
 11
312.797028
 21
201.850006
 31
0.0
210
0.0
220
0.0
230
1.0
  0
LINE
  5
F3
100
AcDbEntity
  8
0
370
    35
390
0
 62
     7
 48
0.0175
100
AcDbLine
 10
312.797028
 20
201.149994
 30
0.0
 11
312.797028
 21
201.850006
 31
0.0
210
0.0
220
0.0
230
1.0
  0
LINE
  5
F4
100
AcDbEntity
  8
0
370
    35
390
0
 62
     7
 48
0.003232
100
AcDbLine
 10
312.797028
 20
201.020721
 30
0.0
 11
312.797028
 21
201.149994
 31
0.0
210
0.0
220
0.0
230
1.0
  0
LINE
  5
F5
100
AcDbEntity
  8
0
370
    35
390
0
 62
     7
 48
0.003536
100
AcDbLine
 10
312.797028
 20
201.020721
 30
0.0
 11
312.797028
 21
200.879272
 31
0.0
210
0.0
220
0.0
230
1.0
  0
LINE
  5
F6
100
AcDbEntity
  8
0
370
    35
390
0
 62
     7
 48
0.003232
100
AcDbLine
 10
312.797028
 20
200.879272
 30
0.0
 11
312.797028
 21
200.75
 31
0.0
210
0.0
220
0.0
230
1.0
  0
LINE
  5
F7
100
AcDbEntity
  8
0
370
    35
390
0
 62
     7
 48
0.0175
100
AcDbLine
 10
312.797028
 20
200.049988
 30
0.0
 11
312.797028
 21
200.75
 31
0.0
210
0.0
220
0.0
230
1.0
  0
LINE
  5
F8
100
AcDbEntity
  8
0
370
    35
390
0
 62
     7
 48
0.003232
100
AcDbLine
 10
312.797028
 20
199.920715
 30
0.0
 11
312.797028
 21
200.049988
 31
0.0
210
0.0
220
0.0
230
1.0
  0
LINE
  5
F9
100
AcDbEntity
  8
0
370
    35
390
0
 62
     7
 48
0.003535
100
AcDbLine
 10
312.797028
 20
199.920715
 30
0.0
 11
312.797028
 21
199.779297
 31
0.0
210
0.0
220
0.0
230
1.0
  0
LINE
  5
FA
100
AcDbEntity
  8
0
370
    35
390
0
 62
     7
 48
0.003233
100
AcDbLine
 10
312.797028
 20
199.779297
 30
0.0
 11
312.797028
 21
199.649994
 31
0.0
210
0.0
220
0.0
230
1.0
  0
LINE
  5
FB
100
AcDbEntity
  8
0
370
    35
390
0
 62
     7
 48
0.0175
100
AcDbLine
 10
312.797028
 20
198.950012
 30
0.0
 11
312.797028
 21
199.649994
 31
0.0
210
0.0
220
0.0
230
1.0
  0
LINE
  5
FC
100
AcDbEntity
  8
0
370
    35
390
0
 62
     7
 48
0.003233
100
AcDbLine
 10
312.797028
 20
198.820709
 30
0.0
 11
312.797028
 21
198.950012
 31
0.0
210
0.0
220
0.0
230
1.0
  0
LINE
  5
FD
100
AcDbEntity
  8
0
370
    35
390
0
 62
     7
 48
0.003535
100
AcDbLine
 10
312.797028
 20
198.820709
 30
0.0
 11
312.797028
 21
198.679291
 31
0.0
210
0.0
220
0.0
230
1.0
  0
LINE
  5
FE
100
AcDbEntity
  8
0
370
    35
390
0
 62
     7
 48
0.003233
100
AcDbLine
 10
312.797028
 20
198.679291
 30
0.0
 11
312.797028
 21
198.549988
 31
0.0
210
0.0
220
0.0
230
1.0
  0
LINE
  5
FF
100
AcDbEntity
  8
0
370
    35
390
0
 62
     7
 48
0.0175
100
AcDbLine
 10
312.797028
 20
197.850006
 30
0.0
 11
312.797028
 21
198.549988
 31
0.0
210
0.0
220
0.0
230
1.0
  0
LINE
  5
100
100
AcDbEntity
  8
0
370
    35
390
0
 62
     7
 48
0.0175
100
AcDbLine
 10
311.797028
 20
205.149994
 30
0.0
 11
311.797028
 21
204.450012
 31
0.0
210
0.0
220
0.0
230
1.0
  0
LINE
  5
101
100
AcDbEntity
  8
0
370
    35
390
0
 62
     7
 48
0.003233
100
AcDbLine
 10
311.797028
 20
205.279297
 30
0.0
 11
311.797028
 21
205.149994
 31
0.0
210
0.0
220
0.0
230
1.0
  0
LINE
  5
102
100
AcDbEntity
  8
0
370
    35
390
0
 62
     7
 48
0.001768
100
AcDbLine
 10
311.797028
 20
205.279297
 30
0.0
 11
311.797028
 21
205.350006
 31
0.0
210
0.0
220
0.0
230
1.0
  0
LINE
  5
103
100
AcDbEntity
  8
0
370
    35
390
0
 62
     7
 48
0.003232
100
AcDbLine
 10
311.797028
 20
197.579285
 30
0.0
 11
311.797028
 21
197.450012
 31
0.0
210
0.0
220
0.0
230
1.0
  0
LINE
  5
104
100
AcDbEntity
  8
0
370
    35
390
0
 62
     7
 48
0.003535
100
AcDbLine
 10
311.797028
 20
197.579285
 30
0.0
 11
311.797028
 21
197.720703
 31
0.0
210
0.0
220
0.0
230
1.0
  0
LINE
  5
105
100
AcDbEntity
  8
0
370
    35
390
0
 62
     7
 48
0.003233
100
AcDbLine
 10
311.797028
 20
197.720703
 30
0.0
 11
311.797028
 21
197.850006
 31
0.0
210
0.0
220
0.0
230
1.0
  0
LINE
  5
106
100
AcDbEntity
  8
0
370
    35
390
0
 62
     7
 48
0.0175
100
AcDbLine
 10
311.797028
 20
198.549988
 30
0.0
 11
311.797028
 21
197.850006
 31
0.0
210
0.0
220
0.0
230
1.0
  0
LINE
  5
107
100
AcDbEntity
  8
0
370
    35
390
0
 62
     7
 48
0.003233
100
AcDbLine
 10
311.797028
 20
198.679291
 30
0.0
 11
311.797028
 21
198.549988
 31
0.0
210
0.0
220
0.0
230
1.0
  0
LINE
  5
108
100
AcDbEntity
  8
0
370
    35
390
0
 62
     7
 48
0.003535
100
AcDbLine
 10
311.797028
 20
198.679291
 30
0.0
 11
311.797028
 21
198.820709
 31
0.0
210
0.0
220
0.0
230
1.0
  0
LINE
  5
109
100
AcDbEntity
  8
0
370
    35
390
0
 62
     7
 48
0.003233
100
AcDbLine
 10
311.797028
 20
198.820709
 30
0.0
 11
311.797028
 21
198.950012
 31
0.0
210
0.0
220
0.0
230
1.0
  0
LINE
  5
10A
100
AcDbEntity
  8
0
370
    35
390
0
 62
     7
 48
0.0175
100
AcDbLine
 10
311.797028
 20
199.649994
 30
0.0
 11
311.797028
 21
198.950012
 31
0.0
210
0.0
220
0.0
230
1.0
  0
LINE
  5
10B
100
AcDbEntity
  8
0
370
    35
390
0
 62
     7
 48
0.003233
100
AcDbLine
 10
311.797028
 20
199.779297
 30
0.0
 11
311.797028
 21
199.649994
 31
0.0
210
0.0
220
0.0
230
1.0
  0
LINE
  5
10C
100
AcDbEntity
  8
0
370
    35
390
0
 62
     7
 48
0.003535
100
AcDbLine
 10
311.797028
 20
199.779297
 30
0.0
 11
311.797028
 21
199.920715
 31
0.0
210
0.0
220
0.0
230
1.0
  0
LINE
  5
10D
100
AcDbEntity
  8
0
370
    35
390
0
 62
     7
 48
0.003232
100
AcDbLine
 10
311.797028
 20
199.920715
 30
0.0
 11
311.797028
 21
200.049988
 31
0.0
210
0.0
220
0.0
230
1.0
  0
LINE
  5
10E
100
AcDbEntity
  8
0
370
    35
390
0
 62
     7
 48
0.0175
100
AcDbLine
 10
311.797028
 20
200.75
 30
0.0
 11
311.797028
 21
200.049988
 31
0.0
210
0.0
220
0.0
230
1.0
  0
LINE
  5
10F
100
AcDbEntity
  8
0
370
    35
390
0
 62
     7
 48
0.003232
100
AcDbLine
 10
311.797028
 20
200.879272
 30
0.0
 11
311.797028
 21
200.75
 31
0.0
210
0.0
220
0.0
230
1.0
  0
LINE
  5
110
100
AcDbEntity
  8
0
370
    35
390
0
 62
     7
 48
0.003536
100
AcDbLine
 10
311.797028
 20
200.879272
 30
0.0
 11
311.797028
 21
201.020721
 31
0.0
210
0.0
220
0.0
230
1.0
  0
LINE
  5
111
100
AcDbEntity
  8
0
370
    35
390
0
 62
     7
 48
0.003232
100
AcDbLine
 10
311.797028
 20
201.020721
 30
0.0
 11
311.797028
 21
201.149994
 31
0.0
210
0.0
220
0.0
230
1.0
  0
LINE
  5
112
100
AcDbEntity
  8
0
370
    35
390
0
 62
     7
 48
0.0175
100
AcDbLine
 10
311.797028
 20
201.850006
 30
0.0
 11
311.797028
 21
201.149994
 31
0.0
210
0.0
220
0.0
230
1.0
  0
LINE
  5
113
100
AcDbEntity
  8
0
370
    35
390
0
 62
     7
 48
0.003232
100
AcDbLine
 10
311.797028
 20
201.979279
 30
0.0
 11
311.797028
 21
201.850006
 31
0.0
210
0.0
220
0.0
230
1.0
  0
LINE
  5
114
100
AcDbEntity
  8
0
370
    35
390
0
 62
     7
 48
0.003535
100
AcDbLine
 10
311.797028
 20
201.979279
 30
0.0
 11
311.797028
 21
202.120697
 31
0.0
210
0.0
220
0.0
230
1.0
  0
LINE
  5
115
100
AcDbEntity
  8
0
370
    35
390
0
 62
     7
 48
0.003233
100
AcDbLine
 10
311.797028
 20
202.120697
 30
0.0
 11
311.797028
 21
202.25
 31
0.0
210
0.0
220
0.0
230
1.0
  0
LINE
  5
116
100
AcDbEntity
  8
0
370
    35
390
0
 62
     7
 48
0.0175
100
AcDbLine
 10
311.797028
 20
202.950012
 30
0.0
 11
311.797028
 21
202.25
 31
0.0
210
0.0
220
0.0
230
1.0
  0
LINE
  5
117
100
AcDbEntity
  8
0
370
    35
390
0
 62
     7
 48
0.003232
100
AcDbLine
 10
311.797028
 20
203.079285
 30
0.0
 11
311.797028
 21
202.950012
 31
0.0
210
0.0
220
0.0
230
1.0
  0
LINE
  5
118
100
AcDbEntity
  8
0
370
    35
390
0
 62
     7
 48
0.003535
100
AcDbLine
 10
311.797028
 20
203.079285
 30
0.0
 11
311.797028
 21
203.220703
 31
0.0
210
0.0
220
0.0
230
1.0
  0
LINE
  5
119
100
AcDbEntity
  8
0
370
    35
390
0
 62
     7
 48
0.003233
100
AcDbLine
 10
311.797028
 20
203.220703
 30
0.0
 11
311.797028
 21
203.350006
 31
0.0
210
0.0
220
0.0
230
1.0
  0
LINE
  5
11A
100
AcDbEntity
  8
0
370
    35
390
0
 62
     7
 48
0.0175
100
AcDbLine
 10
311.797028
 20
204.049988
 30
0.0
 11
311.797028
 21
203.350006
 31
0.0
210
0.0
220
0.0
230
1.0
  0
LINE
  5
11B
100
AcDbEntity
  8
0
370
    35
390
0
 62
     7
 48
0.003233
100
AcDbLine
 10
311.797028
 20
204.179291
 30
0.0
 11
311.797028
 21
204.049988
 31
0.0
210
0.0
220
0.0
230
1.0
  0
LINE
  5
11C
100
AcDbEntity
  8
0
370
    35
390
0
 62
     7
 48
0.003535
100
AcDbLine
 10
311.797028
 20
204.179291
 30
0.0
 11
311.797028
 21
204.320709
 31
0.0
210
0.0
220
0.0
230
1.0
  0
LINE
  5
11D
100
AcDbEntity
  8
0
370
    35
390
0
 62
     7
 48
0.003233
100
AcDbLine
 10
311.797028
 20
204.320709
 30
0.0
 11
311.797028
 21
204.450012
 31
0.0
210
0.0
220
0.0
230
1.0
  0
LINE
  5
11E
100
AcDbEntity
  8
0
370
    35
390
0
 62
     7
 48
0.003232
100
AcDbLine
 10
309.49704
 20
197.579285
 30
0.0
 11
309.49704
 21
197.450012
 31
0.0
210
0.0
220
0.0
230
1.0
  0
LINE
  5
11F
100
AcDbEntity
  8
0
370
    35
390
0
 62
     7
 48
0.003233
100
AcDbLine
 10
309.49704
 20
197.720703
 30
0.0
 11
309.49704
 21
197.850006
 31
0.0
210
0.0
220
0.0
230
1.0
  0
LINE
  5
120
100
AcDbEntity
  8
0
370
    35
390
0
 62
     7
 48
0.003535
100
AcDbLine
 10
309.49704
 20
197.720703
 30
0.0
 11
309.49704
 21
197.579285
 31
0.0
210
0.0
220
0.0
230
1.0
  0
LINE
  5
121
100
AcDbEntity
  8
0
370
    35
390
0
 62
     7
 48
0.001768
100
AcDbLine
 10
309.49704
 20
205.350006
 30
0.0
 11
309.49704
 21
205.279297
 31
0.0
210
0.0
220
0.0
230
1.0
  0
LINE
  5
122
100
AcDbEntity
  8
0
370
    35
390
0
 62
     7
 48
0.003233
100
AcDbLine
 10
309.49704
 20
205.279297
 30
0.0
 11
309.49704
 21
205.149994
 31
0.0
210
0.0
220
0.0
230
1.0
  0
LINE
  5
123
100
AcDbEntity
  8
0
370
    35
390
0
 62
     7
 48
0.0175
100
AcDbLine
 10
309.49704
 20
204.450012
 30
0.0
 11
309.49704
 21
205.149994
 31
0.0
210
0.0
220
0.0
230
1.0
  0
LINE
  5
124
100
AcDbEntity
  8
0
370
    35
390
0
 62
     7
 48
0.003233
100
AcDbLine
 10
309.49704
 20
204.320709
 30
0.0
 11
309.49704
 21
204.450012
 31
0.0
210
0.0
220
0.0
230
1.0
  0
LINE
  5
125
100
AcDbEntity
  8
0
370
    35
390
0
 62
     7
 48
0.003535
100
AcDbLine
 10
309.49704
 20
204.320709
 30
0.0
 11
309.49704
 21
204.179291
 31
0.0
210
0.0
220
0.0
230
1.0
  0
LINE
  5
126
100
AcDbEntity
  8
0
370
    35
390
0
 62
     7
 48
0.003233
100
AcDbLine
 10
309.49704
 20
204.179291
 30
0.0
 11
309.49704
 21
204.049988
 31
0.0
210
0.0
220
0.0
230
1.0
  0
LINE
  5
127
100
AcDbEntity
  8
0
370
    35
390
0
 62
     7
 48
0.0175
100
AcDbLine
 10
309.49704
 20
203.350006
 30
0.0
 11
309.49704
 21
204.049988
 31
0.0
210
0.0
220
0.0
230
1.0
  0
LINE
  5
128
100
AcDbEntity
  8
0
370
    35
390
0
 62
     7
 48
0.003233
100
AcDbLine
 10
309.49704
 20
203.220703
 30
0.0
 11
309.49704
 21
203.350006
 31
0.0
210
0.0
220
0.0
230
1.0
  0
LINE
  5
129
100
AcDbEntity
  8
0
370
    35
390
0
 62
     7
 48
0.003535
100
AcDbLine
 10
309.49704
 20
203.220703
 30
0.0
 11
309.49704
 21
203.079285
 31
0.0
210
0.0
220
0.0
230
1.0
  0
LINE
  5
12A
100
AcDbEntity
  8
0
370
    35
390
0
 62
     7
 48
0.003232
100
AcDbLine
 10
309.49704
 20
203.079285
 30
0.0
 11
309.49704
 21
202.950012
 31
0.0
210
0.0
220
0.0
230
1.0
  0
LINE
  5
12B
100
AcDbEntity
  8
0
370
    35
390
0
 62
     7
 48
0.0175
100
AcDbLine
 10
309.49704
 20
202.25
 30
0.0
 11
309.49704
 21
202.950012
 31
0.0
210
0.0
220
0.0
230
1.0
  0
LINE
  5
12C
100
AcDbEntity
  8
0
370
    35
390
0
 62
     7
 48
0.003233
100
AcDbLine
 10
309.49704
 20
202.120697
 30
0.0
 11
309.49704
 21
202.25
 31
0.0
210
0.0
220
0.0
230
1.0
  0
LINE
  5
12D
100
AcDbEntity
  8
0
370
    35
390
0
 62
     7
 48
0.003535
100
AcDbLine
 10
309.49704
 20
202.120697
 30
0.0
 11
309.49704
 21
201.979279
 31
0.0
210
0.0
220
0.0
230
1.0
  0
LINE
  5
12E
100
AcDbEntity
  8
0
370
    35
390
0
 62
     7
 48
0.003232
100
AcDbLine
 10
309.49704
 20
201.979279
 30
0.0
 11
309.49704
 21
201.850006
 31
0.0
210
0.0
220
0.0
230
1.0
  0
LINE
  5
12F
100
AcDbEntity
  8
0
370
    35
390
0
 62
     7
 48
0.0175
100
AcDbLine
 10
309.49704
 20
201.149994
 30
0.0
 11
309.49704
 21
201.850006
 31
0.0
210
0.0
220
0.0
230
1.0
  0
LINE
  5
130
100
AcDbEntity
  8
0
370
    35
390
0
 62
     7
 48
0.003232
100
AcDbLine
 10
309.49704
 20
201.020721
 30
0.0
 11
309.49704
 21
201.149994
 31
0.0
210
0.0
220
0.0
230
1.0
  0
LINE
  5
131
100
AcDbEntity
  8
0
370
    35
390
0
 62
     7
 48
0.003536
100
AcDbLine
 10
309.49704
 20
201.020721
 30
0.0
 11
309.49704
 21
200.879272
 31
0.0
210
0.0
220
0.0
230
1.0
  0
LINE
  5
132
100
AcDbEntity
  8
0
370
    35
390
0
 62
     7
 48
0.003232
100
AcDbLine
 10
309.49704
 20
200.879272
 30
0.0
 11
309.49704
 21
200.75
 31
0.0
210
0.0
220
0.0
230
1.0
  0
LINE
  5
133
100
AcDbEntity
  8
0
370
    35
390
0
 62
     7
 48
0.0175
100
AcDbLine
 10
309.49704
 20
200.049988
 30
0.0
 11
309.49704
 21
200.75
 31
0.0
210
0.0
220
0.0
230
1.0
  0
LINE
  5
134
100
AcDbEntity
  8
0
370
    35
390
0
 62
     7
 48
0.003232
100
AcDbLine
 10
309.49704
 20
199.920715
 30
0.0
 11
309.49704
 21
200.049988
 31
0.0
210
0.0
220
0.0
230
1.0
  0
LINE
  5
135
100
AcDbEntity
  8
0
370
    35
390
0
 62
     7
 48
0.003535
100
AcDbLine
 10
309.49704
 20
199.920715
 30
0.0
 11
309.49704
 21
199.779297
 31
0.0
210
0.0
220
0.0
230
1.0
  0
LINE
  5
136
100
AcDbEntity
  8
0
370
    35
390
0
 62
     7
 48
0.003233
100
AcDbLine
 10
309.49704
 20
199.779297
 30
0.0
 11
309.49704
 21
199.649994
 31
0.0
210
0.0
220
0.0
230
1.0
  0
LINE
  5
137
100
AcDbEntity
  8
0
370
    35
390
0
 62
     7
 48
0.0175
100
AcDbLine
 10
309.49704
 20
198.950012
 30
0.0
 11
309.49704
 21
199.649994
 31
0.0
210
0.0
220
0.0
230
1.0
  0
LINE
  5
138
100
AcDbEntity
  8
0
370
    35
390
0
 62
     7
 48
0.003233
100
AcDbLine
 10
309.49704
 20
198.820709
 30
0.0
 11
309.49704
 21
198.950012
 31
0.0
210
0.0
220
0.0
230
1.0
  0
LINE
  5
139
100
AcDbEntity
  8
0
370
    35
390
0
 62
     7
 48
0.003535
100
AcDbLine
 10
309.49704
 20
198.820709
 30
0.0
 11
309.49704
 21
198.679291
 31
0.0
210
0.0
220
0.0
230
1.0
  0
LINE
  5
13A
100
AcDbEntity
  8
0
370
    35
390
0
 62
     7
 48
0.003233
100
AcDbLine
 10
309.49704
 20
198.679291
 30
0.0
 11
309.49704
 21
198.549988
 31
0.0
210
0.0
220
0.0
230
1.0
  0
LINE
  5
13B
100
AcDbEntity
  8
0
370
    35
390
0
 62
     7
 48
0.0175
100
AcDbLine
 10
309.49704
 20
197.850006
 30
0.0
 11
309.49704
 21
198.549988
 31
0.0
210
0.0
220
0.0
230
1.0
  0
LINE
  5
13C
100
AcDbEntity
  8
0
370
    35
390
0
 62
     7
 48
0.003233
100
AcDbLine
 10
308.49704
 20
204.179291
 30
0.0
 11
308.49704
 21
204.049988
 31
0.0
210
0.0
220
0.0
230
1.0
  0
LINE
  5
13D
100
AcDbEntity
  8
0
370
    35
390
0
 62
     7
 48
0.003535
100
AcDbLine
 10
308.49704
 20
204.179291
 30
0.0
 11
308.49704
 21
204.320709
 31
0.0
210
0.0
220
0.0
230
1.0
  0
LINE
  5
13E
100
AcDbEntity
  8
0
370
    35
390
0
 62
     7
 48
0.003233
100
AcDbLine
 10
308.49704
 20
204.320709
 30
0.0
 11
308.49704
 21
204.450012
 31
0.0
210
0.0
220
0.0
230
1.0
  0
LINE
  5
13F
100
AcDbEntity
  8
0
370
    35
390
0
 62
     7
 48
0.01
100
AcDbLine
 10
308.49704
 20
204.850006
 30
0.0
 11
308.49704
 21
204.450012
 31
0.0
210
0.0
220
0.0
230
1.0
  0
LINE
  5
140
100
AcDbEntity
  8
0
370
    35
390
0
 62
     7
 48
0.003232
100
AcDbLine
 10
308.49704
 20
197.579285
 30
0.0
 11
308.49704
 21
197.450012
 31
0.0
210
0.0
220
0.0
230
1.0
  0
LINE
  5
141
100
AcDbEntity
  8
0
370
    35
390
0
 62
     7
 48
0.003535
100
AcDbLine
 10
308.49704
 20
197.579285
 30
0.0
 11
308.49704
 21
197.720703
 31
0.0
210
0.0
220
0.0
230
1.0
  0
LINE
  5
142
100
AcDbEntity
  8
0
370
    35
390
0
 62
     7
 48
0.003233
100
AcDbLine
 10
308.49704
 20
197.720703
 30
0.0
 11
308.49704
 21
197.850006
 31
0.0
210
0.0
220
0.0
230
1.0
  0
LINE
  5
143
100
AcDbEntity
  8
0
370
    35
390
0
 62
     7
 48
0.0175
100
AcDbLine
 10
308.49704
 20
198.549988
 30
0.0
 11
308.49704
 21
197.850006
 31
0.0
210
0.0
220
0.0
230
1.0
  0
LINE
  5
144
100
AcDbEntity
  8
0
370
    35
390
0
 62
     7
 48
0.003233
100
AcDbLine
 10
308.49704
 20
198.679291
 30
0.0
 11
308.49704
 21
198.549988
 31
0.0
210
0.0
220
0.0
230
1.0
  0
LINE
  5
145
100
AcDbEntity
  8
0
370
    35
390
0
 62
     7
 48
0.003535
100
AcDbLine
 10
308.49704
 20
198.679291
 30
0.0
 11
308.49704
 21
198.820709
 31
0.0
210
0.0
220
0.0
230
1.0
  0
LINE
  5
146
100
AcDbEntity
  8
0
370
    35
390
0
 62
     7
 48
0.003233
100
AcDbLine
 10
308.49704
 20
198.820709
 30
0.0
 11
308.49704
 21
198.950012
 31
0.0
210
0.0
220
0.0
230
1.0
  0
LINE
  5
147
100
AcDbEntity
  8
0
370
    35
390
0
 62
     7
 48
0.0175
100
AcDbLine
 10
308.49704
 20
199.649994
 30
0.0
 11
308.49704
 21
198.950012
 31
0.0
210
0.0
220
0.0
230
1.0
  0
LINE
  5
148
100
AcDbEntity
  8
0
370
    35
390
0
 62
     7
 48
0.003233
100
AcDbLine
 10
308.49704
 20
199.779297
 30
0.0
 11
308.49704
 21
199.649994
 31
0.0
210
0.0
220
0.0
230
1.0
  0
LINE
  5
149
100
AcDbEntity
  8
0
370
    35
390
0
 62
     7
 48
0.003535
100
AcDbLine
 10
308.49704
 20
199.779297
 30
0.0
 11
308.49704
 21
199.920715
 31
0.0
210
0.0
220
0.0
230
1.0
  0
LINE
  5
14A
100
AcDbEntity
  8
0
370
    35
390
0
 62
     7
 48
0.003232
100
AcDbLine
 10
308.49704
 20
199.920715
 30
0.0
 11
308.49704
 21
200.049988
 31
0.0
210
0.0
220
0.0
230
1.0
  0
LINE
  5
14B
100
AcDbEntity
  8
0
370
    35
390
0
 62
     7
 48
0.0175
100
AcDbLine
 10
308.49704
 20
200.75
 30
0.0
 11
308.49704
 21
200.049988
 31
0.0
210
0.0
220
0.0
230
1.0
  0
LINE
  5
14C
100
AcDbEntity
  8
0
370
    35
390
0
 62
     7
 48
0.003232
100
AcDbLine
 10
308.49704
 20
200.879272
 30
0.0
 11
308.49704
 21
200.75
 31
0.0
210
0.0
220
0.0
230
1.0
  0
LINE
  5
14D
100
AcDbEntity
  8
0
370
    35
390
0
 62
     7
 48
0.003536
100
AcDbLine
 10
308.49704
 20
200.879272
 30
0.0
 11
308.49704
 21
201.020721
 31
0.0
210
0.0
220
0.0
230
1.0
  0
LINE
  5
14E
100
AcDbEntity
  8
0
370
    35
390
0
 62
     7
 48
0.003232
100
AcDbLine
 10
308.49704
 20
201.020721
 30
0.0
 11
308.49704
 21
201.149994
 31
0.0
210
0.0
220
0.0
230
1.0
  0
LINE
  5
14F
100
AcDbEntity
  8
0
370
    35
390
0
 62
     7
 48
0.0175
100
AcDbLine
 10
308.49704
 20
201.850006
 30
0.0
 11
308.49704
 21
201.149994
 31
0.0
210
0.0
220
0.0
230
1.0
  0
LINE
  5
150
100
AcDbEntity
  8
0
370
    35
390
0
 62
     7
 48
0.003232
100
AcDbLine
 10
308.49704
 20
201.979279
 30
0.0
 11
308.49704
 21
201.850006
 31
0.0
210
0.0
220
0.0
230
1.0
  0
LINE
  5
151
100
AcDbEntity
  8
0
370
    35
390
0
 62
     7
 48
0.003535
100
AcDbLine
 10
308.49704
 20
201.979279
 30
0.0
 11
308.49704
 21
202.120697
 31
0.0
210
0.0
220
0.0
230
1.0
  0
LINE
  5
152
100
AcDbEntity
  8
0
370
    35
390
0
 62
     7
 48
0.003233
100
AcDbLine
 10
308.49704
 20
202.120697
 30
0.0
 11
308.49704
 21
202.25
 31
0.0
210
0.0
220
0.0
230
1.0
  0
LINE
  5
153
100
AcDbEntity
  8
0
370
    35
390
0
 62
     7
 48
0.0175
100
AcDbLine
 10
308.49704
 20
202.950012
 30
0.0
 11
308.49704
 21
202.25
 31
0.0
210
0.0
220
0.0
230
1.0
  0
LINE
  5
154
100
AcDbEntity
  8
0
370
    35
390
0
 62
     7
 48
0.003232
100
AcDbLine
 10
308.49704
 20
203.079285
 30
0.0
 11
308.49704
 21
202.950012
 31
0.0
210
0.0
220
0.0
230
1.0
  0
LINE
  5
155
100
AcDbEntity
  8
0
370
    35
390
0
 62
     7
 48
0.003535
100
AcDbLine
 10
308.49704
 20
203.079285
 30
0.0
 11
308.49704
 21
203.220703
 31
0.0
210
0.0
220
0.0
230
1.0
  0
LINE
  5
156
100
AcDbEntity
  8
0
370
    35
390
0
 62
     7
 48
0.003233
100
AcDbLine
 10
308.49704
 20
203.220703
 30
0.0
 11
308.49704
 21
203.350006
 31
0.0
210
0.0
220
0.0
230
1.0
  0
LINE
  5
157
100
AcDbEntity
  8
0
370
    35
390
0
 62
     7
 48
0.0175
100
AcDbLine
 10
308.49704
 20
204.049988
 30
0.0
 11
308.49704
 21
203.350006
 31
0.0
210
0.0
220
0.0
230
1.0
  0
LINE
  5
158
100
AcDbEntity
  8
0
370
    35
390
0
 62
     7
 48
0.003232
100
AcDbLine
 10
162.797058
 20
197.579285
 30
0.0
 11
162.797058
 21
197.450012
 31
0.0
210
0.0
220
0.0
230
1.0
  0
LINE
  5
159
100
AcDbEntity
  8
0
370
    35
390
0
 62
     7
 48
0.003233
100
AcDbLine
 10
162.797058
 20
197.720703
 30
0.0
 11
162.797058
 21
197.850006
 31
0.0
210
0.0
220
0.0
230
1.0
  0
LINE
  5
15A
100
AcDbEntity
  8
0
370
    35
390
0
 62
     7
 48
0.003535
100
AcDbLine
 10
162.797058
 20
197.720703
 30
0.0
 11
162.797058
 21
197.579285
 31
0.0
210
0.0
220
0.0
230
1.0
  0
LINE
  5
15B
100
AcDbEntity
  8
0
370
    35
390
0
 62
     7
 48
0.01
100
AcDbLine
 10
162.797058
 20
204.450012
 30
0.0
 11
162.797058
 21
204.850006
 31
0.0
210
0.0
220
0.0
230
1.0
  0
LINE
  5
15C
100
AcDbEntity
  8
0
370
    35
390
0
 62
     7
 48
0.003233
100
AcDbLine
 10
162.797058
 20
204.320709
 30
0.0
 11
162.797058
 21
204.450012
 31
0.0
210
0.0
220
0.0
230
1.0
  0
LINE
  5
15D
100
AcDbEntity
  8
0
370
    35
390
0
 62
     7
 48
0.003535
100
AcDbLine
 10
162.797058
 20
204.320709
 30
0.0
 11
162.797058
 21
204.179291
 31
0.0
210
0.0
220
0.0
230
1.0
  0
LINE
  5
15E
100
AcDbEntity
  8
0
370
    35
390
0
 62
     7
 48
0.003233
100
AcDbLine
 10
162.797058
 20
204.179291
 30
0.0
 11
162.797058
 21
204.049988
 31
0.0
210
0.0
220
0.0
230
1.0
  0
LINE
  5
15F
100
AcDbEntity
  8
0
370
    35
390
0
 62
     7
 48
0.0175
100
AcDbLine
 10
162.797058
 20
203.350006
 30
0.0
 11
162.797058
 21
204.049988
 31
0.0
210
0.0
220
0.0
230
1.0
  0
LINE
  5
160
100
AcDbEntity
  8
0
370
    35
390
0
 62
     7
 48
0.003233
100
AcDbLine
 10
162.797058
 20
203.220703
 30
0.0
 11
162.797058
 21
203.350006
 31
0.0
210
0.0
220
0.0
230
1.0
  0
LINE
  5
161
100
AcDbEntity
  8
0
370
    35
390
0
 62
     7
 48
0.003535
100
AcDbLine
 10
162.797058
 20
203.220703
 30
0.0
 11
162.797058
 21
203.079285
 31
0.0
210
0.0
220
0.0
230
1.0
  0
LINE
  5
162
100
AcDbEntity
  8
0
370
    35
390
0
 62
     7
 48
0.003232
100
AcDbLine
 10
162.797058
 20
203.079285
 30
0.0
 11
162.797058
 21
202.950012
 31
0.0
210
0.0
220
0.0
230
1.0
  0
LINE
  5
163
100
AcDbEntity
  8
0
370
    35
390
0
 62
     7
 48
0.0175
100
AcDbLine
 10
162.797058
 20
202.25
 30
0.0
 11
162.797058
 21
202.950012
 31
0.0
210
0.0
220
0.0
230
1.0
  0
LINE
  5
164
100
AcDbEntity
  8
0
370
    35
390
0
 62
     7
 48
0.003233
100
AcDbLine
 10
162.797058
 20
202.120697
 30
0.0
 11
162.797058
 21
202.25
 31
0.0
210
0.0
220
0.0
230
1.0
  0
LINE
  5
165
100
AcDbEntity
  8
0
370
    35
390
0
 62
     7
 48
0.003535
100
AcDbLine
 10
162.797058
 20
202.120697
 30
0.0
 11
162.797058
 21
201.979279
 31
0.0
210
0.0
220
0.0
230
1.0
  0
LINE
  5
166
100
AcDbEntity
  8
0
370
    35
390
0
 62
     7
 48
0.003232
100
AcDbLine
 10
162.797058
 20
201.979279
 30
0.0
 11
162.797058
 21
201.850006
 31
0.0
210
0.0
220
0.0
230
1.0
  0
LINE
  5
167
100
AcDbEntity
  8
0
370
    35
390
0
 62
     7
 48
0.0175
100
AcDbLine
 10
162.797058
 20
201.149994
 30
0.0
 11
162.797058
 21
201.850006
 31
0.0
210
0.0
220
0.0
230
1.0
  0
LINE
  5
168
100
AcDbEntity
  8
0
370
    35
390
0
 62
     7
 48
0.003232
100
AcDbLine
 10
162.797058
 20
201.020721
 30
0.0
 11
162.797058
 21
201.149994
 31
0.0
210
0.0
220
0.0
230
1.0
  0
LINE
  5
169
100
AcDbEntity
  8
0
370
    35
390
0
 62
     7
 48
0.003536
100
AcDbLine
 10
162.797058
 20
201.020721
 30
0.0
 11
162.797058
 21
200.879272
 31
0.0
210
0.0
220
0.0
230
1.0
  0
LINE
  5
16A
100
AcDbEntity
  8
0
370
    35
390
0
 62
     7
 48
0.003232
100
AcDbLine
 10
162.797058
 20
200.879272
 30
0.0
 11
162.797058
 21
200.75
 31
0.0
210
0.0
220
0.0
230
1.0
  0
LINE
  5
16B
100
AcDbEntity
  8
0
370
    35
390
0
 62
     7
 48
0.0175
100
AcDbLine
 10
162.797058
 20
200.049988
 30
0.0
 11
162.797058
 21
200.75
 31
0.0
210
0.0
220
0.0
230
1.0
  0
LINE
  5
16C
100
AcDbEntity
  8
0
370
    35
390
0
 62
     7
 48
0.003232
100
AcDbLine
 10
162.797058
 20
199.920715
 30
0.0
 11
162.797058
 21
200.049988
 31
0.0
210
0.0
220
0.0
230
1.0
  0
LINE
  5
16D
100
AcDbEntity
  8
0
370
    35
390
0
 62
     7
 48
0.003535
100
AcDbLine
 10
162.797058
 20
199.920715
 30
0.0
 11
162.797058
 21
199.779297
 31
0.0
210
0.0
220
0.0
230
1.0
  0
LINE
  5
16E
100
AcDbEntity
  8
0
370
    35
390
0
 62
     7
 48
0.003233
100
AcDbLine
 10
162.797058
 20
199.779297
 30
0.0
 11
162.797058
 21
199.649994
 31
0.0
210
0.0
220
0.0
230
1.0
  0
LINE
  5
16F
100
AcDbEntity
  8
0
370
    35
390
0
 62
     7
 48
0.0175
100
AcDbLine
 10
162.797058
 20
198.950012
 30
0.0
 11
162.797058
 21
199.649994
 31
0.0
210
0.0
220
0.0
230
1.0
  0
LINE
  5
170
100
AcDbEntity
  8
0
370
    35
390
0
 62
     7
 48
0.003233
100
AcDbLine
 10
162.797058
 20
198.820709
 30
0.0
 11
162.797058
 21
198.950012
 31
0.0
210
0.0
220
0.0
230
1.0
  0
LINE
  5
171
100
AcDbEntity
  8
0
370
    35
390
0
 62
     7
 48
0.003535
100
AcDbLine
 10
162.797058
 20
198.820709
 30
0.0
 11
162.797058
 21
198.679291
 31
0.0
210
0.0
220
0.0
230
1.0
  0
LINE
  5
172
100
AcDbEntity
  8
0
370
    35
390
0
 62
     7
 48
0.003233
100
AcDbLine
 10
162.797058
 20
198.679291
 30
0.0
 11
162.797058
 21
198.549988
 31
0.0
210
0.0
220
0.0
230
1.0
  0
LINE
  5
173
100
AcDbEntity
  8
0
370
    35
390
0
 62
     7
 48
0.0175
100
AcDbLine
 10
162.797058
 20
197.850006
 30
0.0
 11
162.797058
 21
198.549988
 31
0.0
210
0.0
220
0.0
230
1.0
  0
LINE
  5
174
100
AcDbEntity
  8
0
370
    35
390
0
 62
     7
 48
0.0175
100
AcDbLine
 10
161.797058
 20
205.149994
 30
0.0
 11
161.797058
 21
204.450012
 31
0.0
210
0.0
220
0.0
230
1.0
  0
LINE
  5
175
100
AcDbEntity
  8
0
370
    35
390
0
 62
     7
 48
0.003233
100
AcDbLine
 10
161.797058
 20
205.279297
 30
0.0
 11
161.797058
 21
205.149994
 31
0.0
210
0.0
220
0.0
230
1.0
  0
LINE
  5
176
100
AcDbEntity
  8
0
370
    35
390
0
 62
     7
 48
0.001768
100
AcDbLine
 10
161.797058
 20
205.279297
 30
0.0
 11
161.797058
 21
205.350006
 31
0.0
210
0.0
220
0.0
230
1.0
  0
LINE
  5
177
100
AcDbEntity
  8
0
370
    35
390
0
 62
     7
 48
0.003232
100
AcDbLine
 10
161.797058
 20
197.579285
 30
0.0
 11
161.797058
 21
197.450012
 31
0.0
210
0.0
220
0.0
230
1.0
  0
LINE
  5
178
100
AcDbEntity
  8
0
370
    35
390
0
 62
     7
 48
0.003535
100
AcDbLine
 10
161.797058
 20
197.579285
 30
0.0
 11
161.797058
 21
197.720703
 31
0.0
210
0.0
220
0.0
230
1.0
  0
LINE
  5
179
100
AcDbEntity
  8
0
370
    35
390
0
 62
     7
 48
0.003233
100
AcDbLine
 10
161.797058
 20
197.720703
 30
0.0
 11
161.797058
 21
197.850006
 31
0.0
210
0.0
220
0.0
230
1.0
  0
LINE
  5
17A
100
AcDbEntity
  8
0
370
    35
390
0
 62
     7
 48
0.0175
100
AcDbLine
 10
161.797058
 20
198.549988
 30
0.0
 11
161.797058
 21
197.850006
 31
0.0
210
0.0
220
0.0
230
1.0
  0
LINE
  5
17B
100
AcDbEntity
  8
0
370
    35
390
0
 62
     7
 48
0.003233
100
AcDbLine
 10
161.797058
 20
198.679291
 30
0.0
 11
161.797058
 21
198.549988
 31
0.0
210
0.0
220
0.0
230
1.0
  0
LINE
  5
17C
100
AcDbEntity
  8
0
370
    35
390
0
 62
     7
 48
0.003535
100
AcDbLine
 10
161.797058
 20
198.679291
 30
0.0
 11
161.797058
 21
198.820709
 31
0.0
210
0.0
220
0.0
230
1.0
  0
LINE
  5
17D
100
AcDbEntity
  8
0
370
    35
390
0
 62
     7
 48
0.003233
100
AcDbLine
 10
161.797058
 20
198.820709
 30
0.0
 11
161.797058
 21
198.950012
 31
0.0
210
0.0
220
0.0
230
1.0
  0
LINE
  5
17E
100
AcDbEntity
  8
0
370
    35
390
0
 62
     7
 48
0.0175
100
AcDbLine
 10
161.797058
 20
199.649994
 30
0.0
 11
161.797058
 21
198.950012
 31
0.0
210
0.0
220
0.0
230
1.0
  0
LINE
  5
17F
100
AcDbEntity
  8
0
370
    35
390
0
 62
     7
 48
0.003233
100
AcDbLine
 10
161.797058
 20
199.779297
 30
0.0
 11
161.797058
 21
199.649994
 31
0.0
210
0.0
220
0.0
230
1.0
  0
LINE
  5
180
100
AcDbEntity
  8
0
370
    35
390
0
 62
     7
 48
0.003535
100
AcDbLine
 10
161.797058
 20
199.779297
 30
0.0
 11
161.797058
 21
199.920715
 31
0.0
210
0.0
220
0.0
230
1.0
  0
LINE
  5
181
100
AcDbEntity
  8
0
370
    35
390
0
 62
     7
 48
0.003232
100
AcDbLine
 10
161.797058
 20
199.920715
 30
0.0
 11
161.797058
 21
200.049988
 31
0.0
210
0.0
220
0.0
230
1.0
  0
LINE
  5
182
100
AcDbEntity
  8
0
370
    35
390
0
 62
     7
 48
0.0175
100
AcDbLine
 10
161.797058
 20
200.75
 30
0.0
 11
161.797058
 21
200.049988
 31
0.0
210
0.0
220
0.0
230
1.0
  0
LINE
  5
183
100
AcDbEntity
  8
0
370
    35
390
0
 62
     7
 48
0.003232
100
AcDbLine
 10
161.797058
 20
200.879272
 30
0.0
 11
161.797058
 21
200.75
 31
0.0
210
0.0
220
0.0
230
1.0
  0
LINE
  5
184
100
AcDbEntity
  8
0
370
    35
390
0
 62
     7
 48
0.003536
100
AcDbLine
 10
161.797058
 20
200.879272
 30
0.0
 11
161.797058
 21
201.020721
 31
0.0
210
0.0
220
0.0
230
1.0
  0
LINE
  5
185
100
AcDbEntity
  8
0
370
    35
390
0
 62
     7
 48
0.003232
100
AcDbLine
 10
161.797058
 20
201.020721
 30
0.0
 11
161.797058
 21
201.149994
 31
0.0
210
0.0
220
0.0
230
1.0
  0
LINE
  5
186
100
AcDbEntity
  8
0
370
    35
390
0
 62
     7
 48
0.0175
100
AcDbLine
 10
161.797058
 20
201.850006
 30
0.0
 11
161.797058
 21
201.149994
 31
0.0
210
0.0
220
0.0
230
1.0
  0
LINE
  5
187
100
AcDbEntity
  8
0
370
    35
390
0
 62
     7
 48
0.003232
100
AcDbLine
 10
161.797058
 20
201.979279
 30
0.0
 11
161.797058
 21
201.850006
 31
0.0
210
0.0
220
0.0
230
1.0
  0
LINE
  5
188
100
AcDbEntity
  8
0
370
    35
390
0
 62
     7
 48
0.003535
100
AcDbLine
 10
161.797058
 20
201.979279
 30
0.0
 11
161.797058
 21
202.120697
 31
0.0
210
0.0
220
0.0
230
1.0
  0
LINE
  5
189
100
AcDbEntity
  8
0
370
    35
390
0
 62
     7
 48
0.003233
100
AcDbLine
 10
161.797058
 20
202.120697
 30
0.0
 11
161.797058
 21
202.25
 31
0.0
210
0.0
220
0.0
230
1.0
  0
LINE
  5
18A
100
AcDbEntity
  8
0
370
    35
390
0
 62
     7
 48
0.0175
100
AcDbLine
 10
161.797058
 20
202.950012
 30
0.0
 11
161.797058
 21
202.25
 31
0.0
210
0.0
220
0.0
230
1.0
  0
LINE
  5
18B
100
AcDbEntity
  8
0
370
    35
390
0
 62
     7
 48
0.003232
100
AcDbLine
 10
161.797058
 20
203.079285
 30
0.0
 11
161.797058
 21
202.950012
 31
0.0
210
0.0
220
0.0
230
1.0
  0
LINE
  5
18C
100
AcDbEntity
  8
0
370
    35
390
0
 62
     7
 48
0.003535
100
AcDbLine
 10
161.797058
 20
203.079285
 30
0.0
 11
161.797058
 21
203.220703
 31
0.0
210
0.0
220
0.0
230
1.0
  0
LINE
  5
18D
100
AcDbEntity
  8
0
370
    35
390
0
 62
     7
 48
0.003233
100
AcDbLine
 10
161.797058
 20
203.220703
 30
0.0
 11
161.797058
 21
203.350006
 31
0.0
210
0.0
220
0.0
230
1.0
  0
LINE
  5
18E
100
AcDbEntity
  8
0
370
    35
390
0
 62
     7
 48
0.0175
100
AcDbLine
 10
161.797058
 20
204.049988
 30
0.0
 11
161.797058
 21
203.350006
 31
0.0
210
0.0
220
0.0
230
1.0
  0
LINE
  5
18F
100
AcDbEntity
  8
0
370
    35
390
0
 62
     7
 48
0.003233
100
AcDbLine
 10
161.797058
 20
204.179291
 30
0.0
 11
161.797058
 21
204.049988
 31
0.0
210
0.0
220
0.0
230
1.0
  0
LINE
  5
190
100
AcDbEntity
  8
0
370
    35
390
0
 62
     7
 48
0.003535
100
AcDbLine
 10
161.797058
 20
204.179291
 30
0.0
 11
161.797058
 21
204.320709
 31
0.0
210
0.0
220
0.0
230
1.0
  0
LINE
  5
191
100
AcDbEntity
  8
0
370
    35
390
0
 62
     7
 48
0.003233
100
AcDbLine
 10
161.797058
 20
204.320709
 30
0.0
 11
161.797058
 21
204.450012
 31
0.0
210
0.0
220
0.0
230
1.0
  0
LINE
  5
192
100
AcDbEntity
  8
0
370
    35
390
0
 62
     7
 48
0.003232
100
AcDbLine
 10
159.49704
 20
197.579285
 30
0.0
 11
159.49704
 21
197.450012
 31
0.0
210
0.0
220
0.0
230
1.0
  0
LINE
  5
193
100
AcDbEntity
  8
0
370
    35
390
0
 62
     7
 48
0.003233
100
AcDbLine
 10
159.49704
 20
197.720703
 30
0.0
 11
159.49704
 21
197.850006
 31
0.0
210
0.0
220
0.0
230
1.0
  0
LINE
  5
194
100
AcDbEntity
  8
0
370
    35
390
0
 62
     7
 48
0.003535
100
AcDbLine
 10
159.49704
 20
197.720703
 30
0.0
 11
159.49704
 21
197.579285
 31
0.0
210
0.0
220
0.0
230
1.0
  0
LINE
  5
195
100
AcDbEntity
  8
0
370
    35
390
0
 62
     7
 48
0.001768
100
AcDbLine
 10
159.49704
 20
205.350006
 30
0.0
 11
159.49704
 21
205.279297
 31
0.0
210
0.0
220
0.0
230
1.0
  0
LINE
  5
196
100
AcDbEntity
  8
0
370
    35
390
0
 62
     7
 48
0.003233
100
AcDbLine
 10
159.49704
 20
205.279297
 30
0.0
 11
159.49704
 21
205.149994
 31
0.0
210
0.0
220
0.0
230
1.0
  0
LINE
  5
197
100
AcDbEntity
  8
0
370
    35
390
0
 62
     7
 48
0.0175
100
AcDbLine
 10
159.49704
 20
204.450012
 30
0.0
 11
159.49704
 21
205.149994
 31
0.0
210
0.0
220
0.0
230
1.0
  0
LINE
  5
198
100
AcDbEntity
  8
0
370
    35
390
0
 62
     7
 48
0.003233
100
AcDbLine
 10
159.49704
 20
204.320709
 30
0.0
 11
159.49704
 21
204.450012
 31
0.0
210
0.0
220
0.0
230
1.0
  0
LINE
  5
199
100
AcDbEntity
  8
0
370
    35
390
0
 62
     7
 48
0.003535
100
AcDbLine
 10
159.49704
 20
204.320709
 30
0.0
 11
159.49704
 21
204.179291
 31
0.0
210
0.0
220
0.0
230
1.0
  0
LINE
  5
19A
100
AcDbEntity
  8
0
370
    35
390
0
 62
     7
 48
0.003233
100
AcDbLine
 10
159.49704
 20
204.179291
 30
0.0
 11
159.49704
 21
204.049988
 31
0.0
210
0.0
220
0.0
230
1.0
  0
LINE
  5
19B
100
AcDbEntity
  8
0
370
    35
390
0
 62
     7
 48
0.0175
100
AcDbLine
 10
159.49704
 20
203.350006
 30
0.0
 11
159.49704
 21
204.049988
 31
0.0
210
0.0
220
0.0
230
1.0
  0
LINE
  5
19C
100
AcDbEntity
  8
0
370
    35
390
0
 62
     7
 48
0.003233
100
AcDbLine
 10
159.49704
 20
203.220703
 30
0.0
 11
159.49704
 21
203.350006
 31
0.0
210
0.0
220
0.0
230
1.0
  0
LINE
  5
19D
100
AcDbEntity
  8
0
370
    35
390
0
 62
     7
 48
0.003535
100
AcDbLine
 10
159.49704
 20
203.220703
 30
0.0
 11
159.49704
 21
203.079285
 31
0.0
210
0.0
220
0.0
230
1.0
  0
LINE
  5
19E
100
AcDbEntity
  8
0
370
    35
390
0
 62
     7
 48
0.003232
100
AcDbLine
 10
159.49704
 20
203.079285
 30
0.0
 11
159.49704
 21
202.950012
 31
0.0
210
0.0
220
0.0
230
1.0
  0
LINE
  5
19F
100
AcDbEntity
  8
0
370
    35
390
0
 62
     7
 48
0.0175
100
AcDbLine
 10
159.49704
 20
202.25
 30
0.0
 11
159.49704
 21
202.950012
 31
0.0
210
0.0
220
0.0
230
1.0
  0
LINE
  5
1A0
100
AcDbEntity
  8
0
370
    35
390
0
 62
     7
 48
0.003233
100
AcDbLine
 10
159.49704
 20
202.120697
 30
0.0
 11
159.49704
 21
202.25
 31
0.0
210
0.0
220
0.0
230
1.0
  0
LINE
  5
1A1
100
AcDbEntity
  8
0
370
    35
390
0
 62
     7
 48
0.003535
100
AcDbLine
 10
159.49704
 20
202.120697
 30
0.0
 11
159.49704
 21
201.979279
 31
0.0
210
0.0
220
0.0
230
1.0
  0
LINE
  5
1A2
100
AcDbEntity
  8
0
370
    35
390
0
 62
     7
 48
0.003232
100
AcDbLine
 10
159.49704
 20
201.979279
 30
0.0
 11
159.49704
 21
201.850006
 31
0.0
210
0.0
220
0.0
230
1.0
  0
LINE
  5
1A3
100
AcDbEntity
  8
0
370
    35
390
0
 62
     7
 48
0.0175
100
AcDbLine
 10
159.49704
 20
201.149994
 30
0.0
 11
159.49704
 21
201.850006
 31
0.0
210
0.0
220
0.0
230
1.0
  0
LINE
  5
1A4
100
AcDbEntity
  8
0
370
    35
390
0
 62
     7
 48
0.003232
100
AcDbLine
 10
159.49704
 20
201.020721
 30
0.0
 11
159.49704
 21
201.149994
 31
0.0
210
0.0
220
0.0
230
1.0
  0
LINE
  5
1A5
100
AcDbEntity
  8
0
370
    35
390
0
 62
     7
 48
0.003536
100
AcDbLine
 10
159.49704
 20
201.020721
 30
0.0
 11
159.49704
 21
200.879272
 31
0.0
210
0.0
220
0.0
230
1.0
  0
LINE
  5
1A6
100
AcDbEntity
  8
0
370
    35
390
0
 62
     7
 48
0.003232
100
AcDbLine
 10
159.49704
 20
200.879272
 30
0.0
 11
159.49704
 21
200.75
 31
0.0
210
0.0
220
0.0
230
1.0
  0
LINE
  5
1A7
100
AcDbEntity
  8
0
370
    35
390
0
 62
     7
 48
0.0175
100
AcDbLine
 10
159.49704
 20
200.049988
 30
0.0
 11
159.49704
 21
200.75
 31
0.0
210
0.0
220
0.0
230
1.0
  0
LINE
  5
1A8
100
AcDbEntity
  8
0
370
    35
390
0
 62
     7
 48
0.003232
100
AcDbLine
 10
159.49704
 20
199.920715
 30
0.0
 11
159.49704
 21
200.049988
 31
0.0
210
0.0
220
0.0
230
1.0
  0
LINE
  5
1A9
100
AcDbEntity
  8
0
370
    35
390
0
 62
     7
 48
0.003535
100
AcDbLine
 10
159.49704
 20
199.920715
 30
0.0
 11
159.49704
 21
199.779297
 31
0.0
210
0.0
220
0.0
230
1.0
  0
LINE
  5
1AA
100
AcDbEntity
  8
0
370
    35
390
0
 62
     7
 48
0.003233
100
AcDbLine
 10
159.49704
 20
199.779297
 30
0.0
 11
159.49704
 21
199.649994
 31
0.0
210
0.0
220
0.0
230
1.0
  0
LINE
  5
1AB
100
AcDbEntity
  8
0
370
    35
390
0
 62
     7
 48
0.0175
100
AcDbLine
 10
159.49704
 20
198.950012
 30
0.0
 11
159.49704
 21
199.649994
 31
0.0
210
0.0
220
0.0
230
1.0
  0
LINE
  5
1AC
100
AcDbEntity
  8
0
370
    35
390
0
 62
     7
 48
0.003233
100
AcDbLine
 10
159.49704
 20
198.820709
 30
0.0
 11
159.49704
 21
198.950012
 31
0.0
210
0.0
220
0.0
230
1.0
  0
LINE
  5
1AD
100
AcDbEntity
  8
0
370
    35
390
0
 62
     7
 48
0.003535
100
AcDbLine
 10
159.49704
 20
198.820709
 30
0.0
 11
159.49704
 21
198.679291
 31
0.0
210
0.0
220
0.0
230
1.0
  0
LINE
  5
1AE
100
AcDbEntity
  8
0
370
    35
390
0
 62
     7
 48
0.003233
100
AcDbLine
 10
159.49704
 20
198.679291
 30
0.0
 11
159.49704
 21
198.549988
 31
0.0
210
0.0
220
0.0
230
1.0
  0
LINE
  5
1AF
100
AcDbEntity
  8
0
370
    35
390
0
 62
     7
 48
0.0175
100
AcDbLine
 10
159.49704
 20
197.850006
 30
0.0
 11
159.49704
 21
198.549988
 31
0.0
210
0.0
220
0.0
230
1.0
  0
LINE
  5
1B0
100
AcDbEntity
  8
0
370
    35
390
0
 62
     7
 48
0.003233
100
AcDbLine
 10
158.49704
 20
204.179291
 30
0.0
 11
158.49704
 21
204.049988
 31
0.0
210
0.0
220
0.0
230
1.0
  0
LINE
  5
1B1
100
AcDbEntity
  8
0
370
    35
390
0
 62
     7
 48
0.003535
100
AcDbLine
 10
158.49704
 20
204.179291
 30
0.0
 11
158.49704
 21
204.320709
 31
0.0
210
0.0
220
0.0
230
1.0
  0
LINE
  5
1B2
100
AcDbEntity
  8
0
370
    35
390
0
 62
     7
 48
0.003233
100
AcDbLine
 10
158.49704
 20
204.320709
 30
0.0
 11
158.49704
 21
204.450012
 31
0.0
210
0.0
220
0.0
230
1.0
  0
LINE
  5
1B3
100
AcDbEntity
  8
0
370
    35
390
0
 62
     7
 48
0.01
100
AcDbLine
 10
158.49704
 20
204.850006
 30
0.0
 11
158.49704
 21
204.450012
 31
0.0
210
0.0
220
0.0
230
1.0
  0
LINE
  5
1B4
100
AcDbEntity
  8
0
370
    35
390
0
 62
     7
 48
0.003232
100
AcDbLine
 10
158.49704
 20
197.579285
 30
0.0
 11
158.49704
 21
197.450012
 31
0.0
210
0.0
220
0.0
230
1.0
  0
LINE
  5
1B5
100
AcDbEntity
  8
0
370
    35
390
0
 62
     7
 48
0.003535
100
AcDbLine
 10
158.49704
 20
197.579285
 30
0.0
 11
158.49704
 21
197.720703
 31
0.0
210
0.0
220
0.0
230
1.0
  0
LINE
  5
1B6
100
AcDbEntity
  8
0
370
    35
390
0
 62
     7
 48
0.003233
100
AcDbLine
 10
158.49704
 20
197.720703
 30
0.0
 11
158.49704
 21
197.850006
 31
0.0
210
0.0
220
0.0
230
1.0
  0
LINE
  5
1B7
100
AcDbEntity
  8
0
370
    35
390
0
 62
     7
 48
0.0175
100
AcDbLine
 10
158.49704
 20
198.549988
 30
0.0
 11
158.49704
 21
197.850006
 31
0.0
210
0.0
220
0.0
230
1.0
  0
LINE
  5
1B8
100
AcDbEntity
  8
0
370
    35
390
0
 62
     7
 48
0.003233
100
AcDbLine
 10
158.49704
 20
198.679291
 30
0.0
 11
158.49704
 21
198.549988
 31
0.0
210
0.0
220
0.0
230
1.0
  0
LINE
  5
1B9
100
AcDbEntity
  8
0
370
    35
390
0
 62
     7
 48
0.003535
100
AcDbLine
 10
158.49704
 20
198.679291
 30
0.0
 11
158.49704
 21
198.820709
 31
0.0
210
0.0
220
0.0
230
1.0
  0
LINE
  5
1BA
100
AcDbEntity
  8
0
370
    35
390
0
 62
     7
 48
0.003233
100
AcDbLine
 10
158.49704
 20
198.820709
 30
0.0
 11
158.49704
 21
198.950012
 31
0.0
210
0.0
220
0.0
230
1.0
  0
LINE
  5
1BB
100
AcDbEntity
  8
0
370
    35
390
0
 62
     7
 48
0.0175
100
AcDbLine
 10
158.49704
 20
199.649994
 30
0.0
 11
158.49704
 21
198.950012
 31
0.0
210
0.0
220
0.0
230
1.0
  0
LINE
  5
1BC
100
AcDbEntity
  8
0
370
    35
390
0
 62
     7
 48
0.003233
100
AcDbLine
 10
158.49704
 20
199.779297
 30
0.0
 11
158.49704
 21
199.649994
 31
0.0
210
0.0
220
0.0
230
1.0
  0
LINE
  5
1BD
100
AcDbEntity
  8
0
370
    35
390
0
 62
     7
 48
0.003535
100
AcDbLine
 10
158.49704
 20
199.779297
 30
0.0
 11
158.49704
 21
199.920715
 31
0.0
210
0.0
220
0.0
230
1.0
  0
LINE
  5
1BE
100
AcDbEntity
  8
0
370
    35
390
0
 62
     7
 48
0.003232
100
AcDbLine
 10
158.49704
 20
199.920715
 30
0.0
 11
158.49704
 21
200.049988
 31
0.0
210
0.0
220
0.0
230
1.0
  0
LINE
  5
1BF
100
AcDbEntity
  8
0
370
    35
390
0
 62
     7
 48
0.0175
100
AcDbLine
 10
158.49704
 20
200.75
 30
0.0
 11
158.49704
 21
200.049988
 31
0.0
210
0.0
220
0.0
230
1.0
  0
LINE
  5
1C0
100
AcDbEntity
  8
0
370
    35
390
0
 62
     7
 48
0.003232
100
AcDbLine
 10
158.49704
 20
200.879272
 30
0.0
 11
158.49704
 21
200.75
 31
0.0
210
0.0
220
0.0
230
1.0
  0
LINE
  5
1C1
100
AcDbEntity
  8
0
370
    35
390
0
 62
     7
 48
0.003536
100
AcDbLine
 10
158.49704
 20
200.879272
 30
0.0
 11
158.49704
 21
201.020721
 31
0.0
210
0.0
220
0.0
230
1.0
  0
LINE
  5
1C2
100
AcDbEntity
  8
0
370
    35
390
0
 62
     7
 48
0.003232
100
AcDbLine
 10
158.49704
 20
201.020721
 30
0.0
 11
158.49704
 21
201.149994
 31
0.0
210
0.0
220
0.0
230
1.0
  0
LINE
  5
1C3
100
AcDbEntity
  8
0
370
    35
390
0
 62
     7
 48
0.0175
100
AcDbLine
 10
158.49704
 20
201.850006
 30
0.0
 11
158.49704
 21
201.149994
 31
0.0
210
0.0
220
0.0
230
1.0
  0
LINE
  5
1C4
100
AcDbEntity
  8
0
370
    35
390
0
 62
     7
 48
0.003232
100
AcDbLine
 10
158.49704
 20
201.979279
 30
0.0
 11
158.49704
 21
201.850006
 31
0.0
210
0.0
220
0.0
230
1.0
  0
LINE
  5
1C5
100
AcDbEntity
  8
0
370
    35
390
0
 62
     7
 48
0.003535
100
AcDbLine
 10
158.49704
 20
201.979279
 30
0.0
 11
158.49704
 21
202.120697
 31
0.0
210
0.0
220
0.0
230
1.0
  0
LINE
  5
1C6
100
AcDbEntity
  8
0
370
    35
390
0
 62
     7
 48
0.003233
100
AcDbLine
 10
158.49704
 20
202.120697
 30
0.0
 11
158.49704
 21
202.25
 31
0.0
210
0.0
220
0.0
230
1.0
  0
LINE
  5
1C7
100
AcDbEntity
  8
0
370
    35
390
0
 62
     7
 48
0.0175
100
AcDbLine
 10
158.49704
 20
202.950012
 30
0.0
 11
158.49704
 21
202.25
 31
0.0
210
0.0
220
0.0
230
1.0
  0
LINE
  5
1C8
100
AcDbEntity
  8
0
370
    35
390
0
 62
     7
 48
0.003232
100
AcDbLine
 10
158.49704
 20
203.079285
 30
0.0
 11
158.49704
 21
202.950012
 31
0.0
210
0.0
220
0.0
230
1.0
  0
LINE
  5
1C9
100
AcDbEntity
  8
0
370
    35
390
0
 62
     7
 48
0.003535
100
AcDbLine
 10
158.49704
 20
203.079285
 30
0.0
 11
158.49704
 21
203.220703
 31
0.0
210
0.0
220
0.0
230
1.0
  0
LINE
  5
1CA
100
AcDbEntity
  8
0
370
    35
390
0
 62
     7
 48
0.003233
100
AcDbLine
 10
158.49704
 20
203.220703
 30
0.0
 11
158.49704
 21
203.350006
 31
0.0
210
0.0
220
0.0
230
1.0
  0
LINE
  5
1CB
100
AcDbEntity
  8
0
370
    35
390
0
 62
     7
 48
0.0175
100
AcDbLine
 10
158.49704
 20
204.049988
 30
0.0
 11
158.49704
 21
203.350006
 31
0.0
210
0.0
220
0.0
230
1.0
  0
LINE
  5
1CC
100
AcDbEntity
  8
0
370
    35
390
0
 62
     7
 48
0.003846
100
AcDbLine
 10
99.828369
 20
197.450012
 30
0.0
 11
99.911743
 21
197.579285
 31
0.0
210
0.0
220
0.0
230
1.0
  0
ARC
  5
1CD
100
AcDbEntity
  8
0
370
    35
390
0
 62
     7
100
AcDbCircle
 10
93.147057
 20
201.850006
 30
0.0
 40
8.0
210
0.0
220
0.0
230
1.0
100
AcDbArc
 50
354.980203
 51
360.0
  0
LINE
  5
1CE
100
AcDbEntity
  8
0
370
    35
390
0
 62
     7
 48
0.003247
100
AcDbLine
 10
101.103958
 20
201.020721
 30
0.0
 11
101.116371
 21
201.149994
 31
0.0
210
0.0
220
0.0
230
1.0
  0
LINE
  5
1CF
100
AcDbEntity
  8
0
370
    35
390
0
 62
     7
 48
0.003559
100
AcDbLine
 10
101.087944
 20
200.879272
 30
0.0
 11
101.103958
 21
201.020721
 31
0.0
210
0.0
220
0.0
230
1.0
  0
LINE
  5
1D0
100
AcDbEntity
  8
0
370
    35
390
0
 62
     7
 48
0.003259
100
AcDbLine
 10
101.071068
 20
200.75
 30
0.0
 11
101.087944
 21
200.879272
 31
0.0
210
0.0
220
0.0
230
1.0
  0
ARC
  5
1D1
100
AcDbEntity
  8
0
370
    35
390
0
 62
     7
100
AcDbCircle
 10
93.147057
 20
201.850006
 30
0.0
 40
8.0
210
0.0
220
0.0
230
1.0
100
AcDbArc
 50
346.997132
 51
352.096798
  0
LINE
  5
1D2
100
AcDbEntity
  8
0
370
    35
390
0
 62
     7
 48
0.003323
100
AcDbLine
 10
100.910934
 20
199.920715
 30
0.0
 11
100.941925
 21
200.049988
 31
0.0
210
0.0
220
0.0
230
1.0
  0
LINE
  5
1D3
100
AcDbEntity
  8
0
370
    35
390
0
 62
     7
 48
0.003651
100
AcDbLine
 10
100.87442
 20
199.779297
 30
0.0
 11
100.910934
 21
199.920715
 31
0.0
210
0.0
220
0.0
230
1.0
  0
LINE
  5
1D4
100
AcDbEntity
  8
0
370
    35
390
0
 62
     7
 48
0.003354
100
AcDbLine
 10
100.838608
 20
199.649994
 30
0.0
 11
100.87442
 21
199.779297
 31
0.0
210
0.0
220
0.0
230
1.0
  0
ARC
  5
1D5
100
AcDbEntity
  8
0
370
    35
390
0
 62
     7
100
AcDbCircle
 10
93.147057
 20
201.850006
 30
0.0
 40
8.0
210
0.0
220
0.0
230
1.0
100
AcDbArc
 50
338.746183
 51
344.037995
  0
LINE
  5
1D6
100
AcDbEntity
  8
0
370
    35
390
0
 62
     7
 48
0.00348
100
AcDbLine
 10
100.551338
 20
198.820709
 30
0.0
 11
100.602928
 21
198.950012
 31
0.0
210
0.0
220
0.0
230
1.0
  0
LINE
  5
1D7
100
AcDbEntity
  8
0
370
    35
390
0
 62
     7
 48
0.003835
100
AcDbLine
 10
100.49189
 20
198.679291
 30
0.0
 11
100.551338
 21
198.820709
 31
0.0
210
0.0
220
0.0
230
1.0
  0
LINE
  5
1D8
100
AcDbEntity
  8
0
370
    35
390
0
 62
     7
 48
0.003534
100
AcDbLine
 10
100.434715
 20
198.549988
 30
0.0
 11
100.49189
 21
198.679291
 31
0.0
210
0.0
220
0.0
230
1.0
  0
ARC
  5
1D9
100
AcDbEntity
  8
0
370
    35
390
0
 62
     7
100
AcDbCircle
 10
93.147057
 20
201.850006
 30
0.0
 40
8.0
210
0.0
220
0.0
230
1.0
100
AcDbArc
 50
329.999989
 51
335.63801
  0
LINE
  5
1DA
100
AcDbEntity
  8
0
370
    35
390
0
 62
     7
 48
0.003753
100
AcDbLine
 10
99.998985
 20
197.720703
 30
0.0
 11
100.075256
 21
197.850006
 31
0.0
210
0.0
220
0.0
230
1.0
  0
LINE
  5
1DB
100
AcDbEntity
  8
0
370
    35
390
0
 62
     7
 48
0.004154
100
AcDbLine
 10
99.911743
 20
197.579285
 30
0.0
 11
99.998985
 21
197.720703
 31
0.0
210
0.0
220
0.0
230
1.0
  0
LINE
  5
1DC
100
AcDbEntity
  8
0
370
    35
390
0
 62
     7
 48
0.003846
100
AcDbLine
 10
86.465736
 20
197.450012
 30
0.0
 11
86.38237
 21
197.579285
 31
0.0
210
0.0
220
0.0
230
1.0
  0
LINE
  5
1DD
100
AcDbEntity
  8
0
370
    35
390
0
 62
     7
 48
0.004154
100
AcDbLine
 10
86.38237
 20
197.579285
 30
0.0
 11
86.295128
 21
197.720703
 31
0.0
210
0.0
220
0.0
230
1.0
  0
LINE
  5
1DE
100
AcDbEntity
  8
0
370
    35
390
0
 62
     7
 48
0.003753
100
AcDbLine
 10
86.295128
 20
197.720703
 30
0.0
 11
86.218857
 21
197.850006
 31
0.0
210
0.0
220
0.0
230
1.0
  0
ARC
  5
1DF
100
AcDbEntity
  8
0
370
    35
390
0
 62
     7
100
AcDbCircle
 10
93.147057
 20
201.850006
 30
0.0
 40
8.0
210
0.0
220
0.0
230
1.0
100
AcDbArc
 50
204.361982
 51
210.000003
  0
LINE
  5
1E0
100
AcDbEntity
  8
0
370
    35
390
0
 62
     7
 48
0.003534
100
AcDbLine
 10
85.859398
 20
198.549988
 30
0.0
 11
85.802223
 21
198.679291
 31
0.0
210
0.0
220
0.0
230
1.0
  0
LINE
  5
1E1
100
AcDbEntity
  8
0
370
    35
390
0
 62
     7
 48
0.003835
100
AcDbLine
 10
85.802223
 20
198.679291
 30
0.0
 11
85.742775
 21
198.820709
 31
0.0
210
0.0
220
0.0
230
1.0
  0
LINE
  5
1E2
100
AcDbEntity
  8
0
370
    35
390
0
 62
     7
 48
0.00348
100
AcDbLine
 10
85.742775
 20
198.820709
 30
0.0
 11
85.691185
 21
198.950012
 31
0.0
210
0.0
220
0.0
230
1.0
  0
ARC
  5
1E3
100
AcDbEntity
  8
0
370
    35
390
0
 62
     7
100
AcDbCircle
 10
93.147057
 20
201.850006
 30
0.0
 40
8.0
210
0.0
220
0.0
230
1.0
100
AcDbArc
 50
195.96201
 51
201.253809
  0
LINE
  5
1E4
100
AcDbEntity
  8
0
370
    35
390
0
 62
     7
 48
0.003354
100
AcDbLine
 10
85.455505
 20
199.649994
 30
0.0
 11
85.419693
 21
199.779297
 31
0.0
210
0.0
220
0.0
230
1.0
  0
LINE
  5
1E5
100
AcDbEntity
  8
0
370
    35
390
0
 62
     7
 48
0.003651
100
AcDbLine
 10
85.419693
 20
199.779297
 30
0.0
 11
85.383179
 21
199.920715
 31
0.0
210
0.0
220
0.0
230
1.0
  0
LINE
  5
1E6
100
AcDbEntity
  8
0
370
    35
390
0
 62
     7
 48
0.003323
100
AcDbLine
 10
85.383179
 20
199.920715
 30
0.0
 11
85.352188
 21
200.049988
 31
0.0
210
0.0
220
0.0
230
1.0
  0
ARC
  5
1E7
100
AcDbEntity
  8
0
370
    35
390
0
 62
     7
100
AcDbCircle
 10
93.147057
 20
201.850006
 30
0.0
 40
8.0
210
0.0
220
0.0
230
1.0
100
AcDbArc
 50
187.903207
 51
193.002872
  0
LINE
  5
1E8
100
AcDbEntity
  8
0
370
    35
390
0
 62
     7
 48
0.003259
100
AcDbLine
 10
85.223045
 20
200.75
 30
0.0
 11
85.206169
 21
200.879272
 31
0.0
210
0.0
220
0.0
230
1.0
  0
LINE
  5
1E9
100
AcDbEntity
  8
0
370
    35
390
0
 62
     7
 48
0.003559
100
AcDbLine
 10
85.206169
 20
200.879272
 30
0.0
 11
85.190155
 21
201.020721
 31
0.0
210
0.0
220
0.0
230
1.0
  0
LINE
  5
1EA
100
AcDbEntity
  8
0
370
    35
390
0
 62
     7
 48
0.003247
100
AcDbLine
 10
85.190155
 20
201.020721
 30
0.0
 11
85.177742
 21
201.149994
 31
0.0
210
0.0
220
0.0
230
1.0
  0
ARC
  5
1EB
100
AcDbEntity
  8
0
370
    35
390
0
 62
     7
100
AcDbCircle
 10
93.147057
 20
201.850006
 30
0.0
 40
8.0
210
0.0
220
0.0
230
1.0
100
AcDbArc
 50
180.000009
 51
185.019802
  0
LINE
  5
1EC
100
AcDbEntity
  8
0
370
    35
390
0
 62
     7
 48
0.003232
100
AcDbLine
 10
84.147057
 20
197.579285
 30
0.0
 11
84.147057
 21
197.450012
 31
0.0
210
0.0
220
0.0
230
1.0
  0
LINE
  5
1ED
100
AcDbEntity
  8
0
370
    35
390
0
 62
     7
 48
0.003535
100
AcDbLine
 10
84.147057
 20
197.720703
 30
0.0
 11
84.147057
 21
197.579285
 31
0.0
210
0.0
220
0.0
230
1.0
  0
LINE
  5
1EE
100
AcDbEntity
  8
0
370
    35
390
0
 62
     7
 48
0.003233
100
AcDbLine
 10
84.147057
 20
197.850006
 30
0.0
 11
84.147057
 21
197.720703
 31
0.0
210
0.0
220
0.0
230
1.0
  0
LINE
  5
1EF
100
AcDbEntity
  8
0
370
    35
390
0
 62
     7
 48
0.0175
100
AcDbLine
 10
84.147057
 20
197.850006
 30
0.0
 11
84.147057
 21
198.549988
 31
0.0
210
0.0
220
0.0
230
1.0
  0
LINE
  5
1F0
100
AcDbEntity
  8
0
370
    35
390
0
 62
     7
 48
0.003233
100
AcDbLine
 10
84.147057
 20
198.679291
 30
0.0
 11
84.147057
 21
198.549988
 31
0.0
210
0.0
220
0.0
230
1.0
  0
LINE
  5
1F1
100
AcDbEntity
  8
0
370
    35
390
0
 62
     7
 48
0.003535
100
AcDbLine
 10
84.147057
 20
198.820709
 30
0.0
 11
84.147057
 21
198.679291
 31
0.0
210
0.0
220
0.0
230
1.0
  0
LINE
  5
1F2
100
AcDbEntity
  8
0
370
    35
390
0
 62
     7
 48
0.003233
100
AcDbLine
 10
84.147057
 20
198.950012
 30
0.0
 11
84.147057
 21
198.820709
 31
0.0
210
0.0
220
0.0
230
1.0
  0
LINE
  5
1F3
100
AcDbEntity
  8
0
370
    35
390
0
 62
     7
 48
0.0175
100
AcDbLine
 10
84.147057
 20
198.950012
 30
0.0
 11
84.147057
 21
199.649994
 31
0.0
210
0.0
220
0.0
230
1.0
  0
LINE
  5
1F4
100
AcDbEntity
  8
0
370
    35
390
0
 62
     7
 48
0.003233
100
AcDbLine
 10
84.147057
 20
199.779297
 30
0.0
 11
84.147057
 21
199.649994
 31
0.0
210
0.0
220
0.0
230
1.0
  0
LINE
  5
1F5
100
AcDbEntity
  8
0
370
    35
390
0
 62
     7
 48
0.003535
100
AcDbLine
 10
84.147057
 20
199.920715
 30
0.0
 11
84.147057
 21
199.779297
 31
0.0
210
0.0
220
0.0
230
1.0
  0
LINE
  5
1F6
100
AcDbEntity
  8
0
370
    35
390
0
 62
     7
 48
0.003232
100
AcDbLine
 10
84.147057
 20
200.049988
 30
0.0
 11
84.147057
 21
199.920715
 31
0.0
210
0.0
220
0.0
230
1.0
  0
LINE
  5
1F7
100
AcDbEntity
  8
0
370
    35
390
0
 62
     7
 48
0.0175
100
AcDbLine
 10
84.147057
 20
200.049988
 30
0.0
 11
84.147057
 21
200.75
 31
0.0
210
0.0
220
0.0
230
1.0
  0
LINE
  5
1F8
100
AcDbEntity
  8
0
370
    35
390
0
 62
     7
 48
0.003232
100
AcDbLine
 10
84.147057
 20
200.879272
 30
0.0
 11
84.147057
 21
200.75
 31
0.0
210
0.0
220
0.0
230
1.0
  0
LINE
  5
1F9
100
AcDbEntity
  8
0
370
    35
390
0
 62
     7
 48
0.003536
100
AcDbLine
 10
84.147057
 20
201.020721
 30
0.0
 11
84.147057
 21
200.879272
 31
0.0
210
0.0
220
0.0
230
1.0
  0
LINE
  5
1FA
100
AcDbEntity
  8
0
370
    35
390
0
 62
     7
 48
0.003232
100
AcDbLine
 10
84.147057
 20
201.149994
 30
0.0
 11
84.147057
 21
201.020721
 31
0.0
210
0.0
220
0.0
230
1.0
  0
LINE
  5
1FB
100
AcDbEntity
  8
0
370
    35
390
0
 62
     7
 48
0.0175
100
AcDbLine
 10
84.147057
 20
201.149994
 30
0.0
 11
84.147057
 21
201.850006
 31
0.0
210
0.0
220
0.0
230
1.0
  0
LINE
  5
1FC
100
AcDbEntity
  8
0
370
    35
390
0
 62
     7
 48
0.003232
100
AcDbLine
 10
84.147057
 20
201.979279
 30
0.0
 11
84.147057
 21
201.850006
 31
0.0
210
0.0
220
0.0
230
1.0
  0
LINE
  5
1FD
100
AcDbEntity
  8
0
370
    35
390
0
 62
     7
 48
0.003535
100
AcDbLine
 10
84.147057
 20
202.120697
 30
0.0
 11
84.147057
 21
201.979279
 31
0.0
210
0.0
220
0.0
230
1.0
  0
LINE
  5
1FE
100
AcDbEntity
  8
0
370
    35
390
0
 62
     7
 48
0.003233
100
AcDbLine
 10
84.147057
 20
202.25
 30
0.0
 11
84.147057
 21
202.120697
 31
0.0
210
0.0
220
0.0
230
1.0
  0
LINE
  5
1FF
100
AcDbEntity
  8
0
370
    35
390
0
 62
     7
 48
0.0175
100
AcDbLine
 10
84.147057
 20
202.25
 30
0.0
 11
84.147057
 21
202.950012
 31
0.0
210
0.0
220
0.0
230
1.0
  0
LINE
  5
200
100
AcDbEntity
  8
0
370
    35
390
0
 62
     7
 48
0.003232
100
AcDbLine
 10
84.147057
 20
203.079285
 30
0.0
 11
84.147057
 21
202.950012
 31
0.0
210
0.0
220
0.0
230
1.0
  0
LINE
  5
201
100
AcDbEntity
  8
0
370
    35
390
0
 62
     7
 48
0.003535
100
AcDbLine
 10
84.147057
 20
203.220703
 30
0.0
 11
84.147057
 21
203.079285
 31
0.0
210
0.0
220
0.0
230
1.0
  0
LINE
  5
202
100
AcDbEntity
  8
0
370
    35
390
0
 62
     7
 48
0.003233
100
AcDbLine
 10
84.147057
 20
203.350006
 30
0.0
 11
84.147057
 21
203.220703
 31
0.0
210
0.0
220
0.0
230
1.0
  0
LINE
  5
203
100
AcDbEntity
  8
0
370
    35
390
0
 62
     7
 48
0.0175
100
AcDbLine
 10
84.147057
 20
203.350006
 30
0.0
 11
84.147057
 21
204.049988
 31
0.0
210
0.0
220
0.0
230
1.0
  0
LINE
  5
204
100
AcDbEntity
  8
0
370
    35
390
0
 62
     7
 48
0.003233
100
AcDbLine
 10
84.147057
 20
204.179291
 30
0.0
 11
84.147057
 21
204.049988
 31
0.0
210
0.0
220
0.0
230
1.0
  0
LINE
  5
205
100
AcDbEntity
  8
0
370
    35
390
0
 62
     7
 48
0.003535
100
AcDbLine
 10
84.147057
 20
204.320709
 30
0.0
 11
84.147057
 21
204.179291
 31
0.0
210
0.0
220
0.0
230
1.0
  0
LINE
  5
206
100
AcDbEntity
  8
0
370
    35
390
0
 62
     7
 48
0.003233
100
AcDbLine
 10
84.147057
 20
204.450012
 30
0.0
 11
84.147057
 21
204.320709
 31
0.0
210
0.0
220
0.0
230
1.0
  0
LINE
  5
207
100
AcDbEntity
  8
0
370
    35
390
0
 62
     7
 48
0.0175
100
AcDbLine
 10
84.147057
 20
204.450012
 30
0.0
 11
84.147057
 21
205.149994
 31
0.0
210
0.0
220
0.0
230
1.0
  0
LINE
  5
208
100
AcDbEntity
  8
0
370
    35
390
0
 62
     7
 48
0.003233
100
AcDbLine
 10
84.147057
 20
205.279297
 30
0.0
 11
84.147057
 21
205.149994
 31
0.0
210
0.0
220
0.0
230
1.0
  0
LINE
  5
209
100
AcDbEntity
  8
0
370
    35
390
0
 62
     7
 48
0.003535
100
AcDbLine
 10
84.147057
 20
205.420715
 30
0.0
 11
84.147057
 21
205.279297
 31
0.0
210
0.0
220
0.0
230
1.0
  0
LINE
  5
20A
100
AcDbEntity
  8
0
370
    35
390
0
 62
     7
 48
0.003232
100
AcDbLine
 10
84.147057
 20
205.549988
 30
0.0
 11
84.147057
 21
205.420715
 31
0.0
210
0.0
220
0.0
230
1.0
  0
LINE
  5
20B
100
AcDbEntity
  8
0
370
    35
390
0
 62
     7
 48
0.0175
100
AcDbLine
 10
84.147057
 20
205.549988
 30
0.0
 11
84.147057
 21
206.25
 31
0.0
210
0.0
220
0.0
230
1.0
  0
LINE
  5
20C
100
AcDbEntity
  8
0
370
    35
390
0
 62
     7
 48
0.003232
100
AcDbLine
 10
84.147057
 20
206.379272
 30
0.0
 11
84.147057
 21
206.25
 31
0.0
210
0.0
220
0.0
230
1.0
  0
LINE
  5
20D
100
AcDbEntity
  8
0
370
    35
390
0
 62
     7
 48
0.003536
100
AcDbLine
 10
84.147057
 20
206.520721
 30
0.0
 11
84.147057
 21
206.379272
 31
0.0
210
0.0
220
0.0
230
1.0
  0
LINE
  5
20E
100
AcDbEntity
  8
0
370
    35
390
0
 62
     7
 48
0.003232
100
AcDbLine
 10
84.147057
 20
206.649994
 30
0.0
 11
84.147057
 21
206.520721
 31
0.0
210
0.0
220
0.0
230
1.0
  0
LINE
  5
20F
100
AcDbEntity
  8
0
370
    35
390
0
 62
     7
 48
0.120607
100
AcDbLine
 10
84.147057
 20
206.649994
 30
0.0
 11
84.147057
 21
211.474274
 31
0.0
210
0.0
220
0.0
230
1.0
  0
LINE
  5
210
100
AcDbEntity
  8
0
370
    35
390
0
 62
     7
 48
0.012196
100
AcDbLine
 10
84.147057
 20
211.962128
 30
0.0
 11
84.147057
 21
211.474274
 31
0.0
210
0.0
220
0.0
230
1.0
  0
LINE
  5
211
100
AcDbEntity
  8
0
370
    35
390
0
 62
     7
 48
0.002197
100
AcDbLine
 10
84.147057
 20
212.049988
 30
0.0
 11
84.147057
 21
211.962128
 31
0.0
210
0.0
220
0.0
230
1.0
  0
ARC
  5
212
100
AcDbEntity
  8
0
370
    35
390
0
 62
     7
100
AcDbCircle
 10
311.647034
 20
189.049988
 30
0.0
 40
0.5
210
0.0
220
0.0
230
1.0
100
AcDbArc
 50
0.0
 51
90.000003
  0
LINE
  5
213
100
AcDbEntity
  8
0
370
    35
390
0
 62
     7
 48
0.175
100
AcDbLine
 10
311.647034
 20
189.549988
 30
0.0
 11
304.647034
 21
189.549988
 31
0.0
210
0.0
220
0.0
230
1.0
  0
ARC
  5
214
100
AcDbEntity
  8
0
370
    35
390
0
 62
     7
100
AcDbCircle
 10
304.647034
 20
189.049988
 30
0.0
 40
0.5
210
0.0
220
0.0
230
1.0
100
AcDbArc
 50
90.000003
 51
180.000009
  0
LINE
  5
215
100
AcDbEntity
  8
0
370
    35
390
0
 62
     7
 48
0.1
100
AcDbLine
 10
304.147034
 20
189.049988
 30
0.0
 11
304.147034
 21
185.049988
 31
0.0
210
0.0
220
0.0
230
1.0
  0
ARC
  5
216
100
AcDbEntity
  8
0
370
    35
390
0
 62
     7
100
AcDbCircle
 10
304.647034
 20
185.049988
 30
0.0
 40
0.5
210
0.0
220
0.0
230
1.0
100
AcDbArc
 50
180.000009
 51
269.999997
  0
LINE
  5
217
100
AcDbEntity
  8
0
370
    35
390
0
 62
     7
 48
0.175
100
AcDbLine
 10
304.647034
 20
184.549988
 30
0.0
 11
311.647034
 21
184.549988
 31
0.0
210
0.0
220
0.0
230
1.0
  0
ARC
  5
218
100
AcDbEntity
  8
0
370
    35
390
0
 62
     7
100
AcDbCircle
 10
311.647034
 20
185.049988
 30
0.0
 40
0.5
210
0.0
220
0.0
230
1.0
100
AcDbArc
 50
269.999997
 51
360.0
  0
LINE
  5
219
100
AcDbEntity
  8
0
370
    35
390
0
 62
     7
 48
0.1
100
AcDbLine
 10
312.147034
 20
185.049988
 30
0.0
 11
312.147034
 21
189.049988
 31
0.0
210
0.0
220
0.0
230
1.0
  0
ARC
  5
21A
100
AcDbEntity
  8
0
370
    35
390
0
 62
     7
100
AcDbCircle
 10
141.647064
 20
189.049988
 30
0.0
 40
0.5
210
0.0
220
0.0
230
1.0
100
AcDbArc
 50
0.0
 51
90.000003
  0
LINE
  5
21B
100
AcDbEntity
  8
0
370
    35
390
0
 62
     7
 48
0.175
100
AcDbLine
 10
141.647064
 20
189.549988
 30
0.0
 11
134.647064
 21
189.549988
 31
0.0
210
0.0
220
0.0
230
1.0
  0
ARC
  5
21C
100
AcDbEntity
  8
0
370
    35
390
0
 62
     7
100
AcDbCircle
 10
134.647064
 20
189.049988
 30
0.0
 40
0.5
210
0.0
220
0.0
230
1.0
100
AcDbArc
 50
90.000003
 51
180.000009
  0
LINE
  5
21D
100
AcDbEntity
  8
0
370
    35
390
0
 62
     7
 48
0.1
100
AcDbLine
 10
134.147064
 20
189.049988
 30
0.0
 11
134.147064
 21
185.049988
 31
0.0
210
0.0
220
0.0
230
1.0
  0
ARC
  5
21E
100
AcDbEntity
  8
0
370
    35
390
0
 62
     7
100
AcDbCircle
 10
134.647064
 20
185.049988
 30
0.0
 40
0.5
210
0.0
220
0.0
230
1.0
100
AcDbArc
 50
180.000009
 51
269.999997
  0
LINE
  5
21F
100
AcDbEntity
  8
0
370
    35
390
0
 62
     7
 48
0.175
100
AcDbLine
 10
134.647064
 20
184.549988
 30
0.0
 11
141.647064
 21
184.549988
 31
0.0
210
0.0
220
0.0
230
1.0
  0
ARC
  5
220
100
AcDbEntity
  8
0
370
    35
390
0
 62
     7
100
AcDbCircle
 10
141.647064
 20
185.049988
 30
0.0
 40
0.5
210
0.0
220
0.0
230
1.0
100
AcDbArc
 50
269.999997
 51
360.0
  0
LINE
  5
221
100
AcDbEntity
  8
0
370
    35
390
0
 62
     7
 48
0.1
100
AcDbLine
 10
142.147064
 20
185.049988
 30
0.0
 11
142.147064
 21
189.049988
 31
0.0
210
0.0
220
0.0
230
1.0
  0
LINE
  5
222
100
AcDbEntity
  8
0
370
    35
390
0
 62
     7
 48
0.0125
100
AcDbLine
 10
387.647034
 20
189.850006
 30
0.0
 11
387.147034
 21
189.850006
 31
0.0
210
0.0
220
0.0
230
1.0
  0
LINE
  5
223
100
AcDbEntity
  8
0
370
    35
390
0
 62
     7
 48
0.0125
100
AcDbLine
 10
387.147034
 20
192.149994
 30
0.0
 11
387.647034
 21
192.149994
 31
0.0
210
0.0
220
0.0
230
1.0
  0
LINE
  5
224
100
AcDbEntity
  8
0
370
    35
390
0
 62
     7
 48
0.0125
100
AcDbLine
 10
83.647057
 20
192.149994
 30
0.0
 11
84.147057
 21
192.149994
 31
0.0
210
0.0
220
0.0
230
1.0
  0
LINE
  5
225
100
AcDbEntity
  8
0
370
    35
390
0
 62
     7
 48
0.002197
100
AcDbLine
 10
314.647034
 20
211.962128
 30
0.0
 11
314.647034
 21
212.049988
 31
0.0
210
0.0
220
0.0
230
1.0
  0
LINE
  5
226
100
AcDbEntity
  8
0
370
    35
390
0
 62
     7
 48
0.012196
100
AcDbLine
 10
314.647034
 20
211.962128
 30
0.0
 11
314.647034
 21
211.474274
 31
0.0
210
0.0
220
0.0
230
1.0
  0
LINE
  5
227
100
AcDbEntity
  8
0
370
    35
390
0
 62
     7
100
AcDbLine
 10
387.147034
 20
211.474274
 30
0.0
 11
314.647034
 21
211.474274
 31
0.0
210
0.0
220
0.0
230
1.0
  0
ARC
  5
228
100
AcDbEntity
  8
0
370
    35
390
0
 62
     7
100
AcDbCircle
 10
378.147034
 20
201.850006
 30
0.0
 40
8.0
210
0.0
220
0.0
230
1.0
100
AcDbArc
 50
36.869897
 51
143.130097
  0
LINE
  5
229
100
AcDbEntity
  8
0
370
    35
390
0
 62
     7
 48
0.065
100
AcDbLine
 10
387.147034
 20
206.649994
 30
0.0
 11
384.547028
 21
206.649994
 31
0.0
210
0.0
220
0.0
230
1.0
  0
LINE
  5
22A
100
AcDbEntity
  8
0
370
    35
390
0
 62
     7
 48
0.120607
100
AcDbLine
 10
314.647034
 20
206.649994
 30
0.0
 11
314.647034
 21
211.474274
 31
0.0
210
0.0
220
0.0
230
1.0
  0
LINE
  5
22B
100
AcDbEntity
  8
0
370
    35
390
0
 62
     7
100
AcDbLine
 10
371.74704
 20
206.649994
 30
0.0
 11
314.647034
 21
206.649994
 31
0.0
210
0.0
220
0.0
230
1.0
  0
LINE
  5
22C
100
AcDbEntity
  8
0
370
    35
390
0
 62
     7
 48
0.00401
100
AcDbLine
 10
384.547028
 20
206.649994
 30
0.0
 11
384.641998
 21
206.520721
 31
0.0
210
0.0
220
0.0
230
1.0
  0
LINE
  5
22D
100
AcDbEntity
  8
0
370
    35
390
0
 62
     7
 48
0.004322
100
AcDbLine
 10
384.641998
 20
206.520721
 30
0.0
 11
384.741394
 21
206.379272
 31
0.0
210
0.0
220
0.0
230
1.0
  0
LINE
  5
22E
100
AcDbEntity
  8
0
370
    35
390
0
 62
     7
 48
0.003895
100
AcDbLine
 10
384.741394
 20
206.379272
 30
0.0
 11
384.828339
 21
206.25
 31
0.0
210
0.0
220
0.0
230
1.0
  0
LINE
  5
22F
100
AcDbEntity
  8
0
370
    35
390
0
 62
     7
 48
0.057967
100
AcDbLine
 10
387.147034
 20
206.25
 30
0.0
 11
384.828339
 21
206.25
 31
0.0
210
0.0
220
0.0
230
1.0
  0
ARC
  5
230
100
AcDbEntity
  8
0
370
    35
390
0
 62
     7
100
AcDbCircle
 10
378.147034
 20
201.850006
 30
0.0
 40
8.0
210
0.0
220
0.0
230
1.0
100
AcDbArc
 50
27.548547
 51
33.367014
  0
LINE
  5
231
100
AcDbEntity
  8
0
370
    35
390
0
 62
     7
 48
0.047676
100
AcDbLine
 10
387.147034
 20
205.549988
 30
0.0
 11
385.23999
 21
205.549988
 31
0.0
210
0.0
220
0.0
230
1.0
  0
LINE
  5
232
100
AcDbEntity
  8
0
370
    35
390
0
 62
     7
 48
0.003628
100
AcDbLine
 10
385.23999
 20
205.549988
 30
0.0
 11
385.305939
 21
205.420715
 31
0.0
210
0.0
220
0.0
230
1.0
  0
LINE
  5
233
100
AcDbEntity
  8
0
370
    35
390
0
 62
     7
 48
0.003932
100
AcDbLine
 10
385.305939
 20
205.420715
 30
0.0
 11
385.374756
 21
205.279297
 31
0.0
210
0.0
220
0.0
230
1.0
  0
LINE
  5
234
100
AcDbEntity
  8
0
370
    35
390
0
 62
     7
 48
0.003563
100
AcDbLine
 10
385.374756
 20
205.279297
 30
0.0
 11
385.434692
 21
205.149994
 31
0.0
210
0.0
220
0.0
230
1.0
  0
LINE
  5
235
100
AcDbEntity
  8
0
370
    35
390
0
 62
     7
 48
0.042809
100
AcDbLine
 10
387.147034
 20
205.149994
 30
0.0
 11
385.434692
 21
205.149994
 31
0.0
210
0.0
220
0.0
230
1.0
  0
ARC
  5
236
100
AcDbEntity
  8
0
370
    35
390
0
 62
     7
100
AcDbCircle
 10
378.147034
 20
201.850006
 30
0.0
 40
8.0
210
0.0
220
0.0
230
1.0
100
AcDbArc
 50
18.965574
 51
24.361978
  0
LINE
  5
237
100
AcDbEntity
  8
0
370
    35
390
0
 62
     7
 48
0.035857
100
AcDbLine
 10
387.147034
 20
204.450012
 30
0.0
 11
385.712738
 21
204.450012
 31
0.0
210
0.0
220
0.0
230
1.0
  0
LINE
  5
238
100
AcDbEntity
  8
0
370
    35
390
0
 62
     7
 48
0.003408
100
AcDbLine
 10
385.712738
 20
204.450012
 30
0.0
 11
385.755951
 21
204.320709
 31
0.0
210
0.0
220
0.0
230
1.0
  0
LINE
  5
239
100
AcDbEntity
  8
0
370
    35
390
0
 62
     7
 48
0.003706
100
AcDbLine
 10
385.755951
 20
204.320709
 30
0.0
 11
385.800415
 21
204.179291
 31
0.0
210
0.0
220
0.0
230
1.0
  0
LINE
  5
23A
100
AcDbEntity
  8
0
370
    35
390
0
 62
     7
 48
0.003371
100
AcDbLine
 10
385.800415
 20
204.179291
 30
0.0
 11
385.838593
 21
204.049988
 31
0.0
210
0.0
220
0.0
230
1.0
  0
LINE
  5
23B
100
AcDbEntity
  8
0
370
    35
390
0
 62
     7
 48
0.032711
100
AcDbLine
 10
387.147034
 20
204.049988
 30
0.0
 11
385.838593
 21
204.049988
 31
0.0
210
0.0
220
0.0
230
1.0
  0
ARC
  5
23C
100
AcDbEntity
  8
0
370
    35
390
0
 62
     7
100
AcDbCircle
 10
378.147034
 20
201.850006
 30
0.0
 40
8.0
210
0.0
220
0.0
230
1.0
100
AcDbArc
 50
10.806924
 51
15.962017
  0
LINE
  5
23D
100
AcDbEntity
  8
0
370
    35
390
0
 62
     7
 48
0.028547
100
AcDbLine
 10
387.147034
 20
203.350006
 30
0.0
 11
386.005157
 21
203.350006
 31
0.0
210
0.0
220
0.0
230
1.0
  0
LINE
  5
23E
100
AcDbEntity
  8
0
370
    35
390
0
 62
     7
 48
0.003286
100
AcDbLine
 10
386.005157
 20
203.350006
 30
0.0
 11
386.028717
 21
203.220703
 31
0.0
210
0.0
220
0.0
230
1.0
  0
LINE
  5
23F
100
AcDbEntity
  8
0
370
    35
390
0
 62
     7
 48
0.003583
100
AcDbLine
 10
386.028717
 20
203.220703
 30
0.0
 11
386.052032
 21
203.079285
 31
0.0
210
0.0
220
0.0
230
1.0
  0
LINE
  5
240
100
AcDbEntity
  8
0
370
    35
390
0
 62
     7
 48
0.003267
100
AcDbLine
 10
386.052032
 20
203.079285
 30
0.0
 11
386.071045
 21
202.950012
 31
0.0
210
0.0
220
0.0
230
1.0
  0
LINE
  5
241
100
AcDbEntity
  8
0
370
    35
390
0
 62
     7
 48
0.0269
100
AcDbLine
 10
387.147034
 20
202.950012
 30
0.0
 11
386.071045
 21
202.950012
 31
0.0
210
0.0
220
0.0
230
1.0
  0
ARC
  5
242
100
AcDbEntity
  8
0
370
    35
390
0
 62
     7
100
AcDbCircle
 10
378.147034
 20
201.850006
 30
0.0
 40
8.0
210
0.0
220
0.0
230
1.0
100
AcDbArc
 50
2.865984
 51
7.903208
  0
LINE
  5
243
100
AcDbEntity
  8
0
370
    35
390
0
 62
     7
 48
0.02525
100
AcDbLine
 10
387.147034
 20
202.25
 30
0.0
 11
386.137024
 21
202.25
 31
0.0
210
0.0
220
0.0
230
1.0
  0
LINE
  5
244
100
AcDbEntity
  8
0
370
    35
390
0
 62
     7
 48
0.003235
100
AcDbLine
 10
386.137024
 20
202.25
 30
0.0
 11
386.142456
 21
202.120697
 31
0.0
210
0.0
220
0.0
230
1.0
  0
LINE
  5
245
100
AcDbEntity
  8
0
370
    35
390
0
 62
     7
 48
0.003537
100
AcDbLine
 10
386.142456
 20
202.120697
 30
0.0
 11
386.145996
 21
201.979279
 31
0.0
210
0.0
220
0.0
230
1.0
  0
LINE
  5
246
100
AcDbEntity
  8
0
370
    35
390
0
 62
     7
 48
0.003232
100
AcDbLine
 10
386.145996
 20
201.979279
 30
0.0
 11
386.147034
 21
201.850006
 31
0.0
210
0.0
220
0.0
230
1.0
  0
LINE
  5
247
100
AcDbEntity
  8
0
370
    35
390
0
 62
     7
 48
0.025
100
AcDbLine
 10
387.147034
 20
201.850006
 30
0.0
 11
386.147034
 21
201.850006
 31
0.0
210
0.0
220
0.0
230
1.0
  0
LINE
  5
248
100
AcDbEntity
  8
0
370
    35
390
0
 62
     7
 48
0.025767
100
AcDbLine
 10
387.147034
 20
201.149994
 30
0.0
 11
386.116364
 21
201.149994
 31
0.0
210
0.0
220
0.0
230
1.0
  0
LINE
  5
249
100
AcDbEntity
  8
0
370
    35
390
0
 62
     7
 48
0.0269
100
AcDbLine
 10
387.147034
 20
200.75
 30
0.0
 11
386.071045
 21
200.75
 31
0.0
210
0.0
220
0.0
230
1.0
  0
LINE
  5
24A
100
AcDbEntity
  8
0
370
    35
390
0
 62
     7
 48
0.030128
100
AcDbLine
 10
387.147034
 20
200.049988
 30
0.0
 11
385.941895
 21
200.049988
 31
0.0
210
0.0
220
0.0
230
1.0
  0
LINE
  5
24B
100
AcDbEntity
  8
0
370
    35
390
0
 62
     7
 48
0.032711
100
AcDbLine
 10
387.147034
 20
199.649994
 30
0.0
 11
385.838593
 21
199.649994
 31
0.0
210
0.0
220
0.0
230
1.0
  0
LINE
  5
24C
100
AcDbEntity
  8
0
370
    35
390
0
 62
     7
 48
0.038603
100
AcDbLine
 10
387.147034
 20
198.950012
 30
0.0
 11
385.602905
 21
198.950012
 31
0.0
210
0.0
220
0.0
230
1.0
  0
LINE
  5
24D
100
AcDbEntity
  8
0
370
    35
390
0
 62
     7
 48
0.042809
100
AcDbLine
 10
387.147034
 20
198.549988
 30
0.0
 11
385.434692
 21
198.549988
 31
0.0
210
0.0
220
0.0
230
1.0
  0
LINE
  5
24E
100
AcDbEntity
  8
0
370
    35
390
0
 62
     7
 48
0.051795
100
AcDbLine
 10
387.147034
 20
197.850006
 30
0.0
 11
385.075226
 21
197.850006
 31
0.0
210
0.0
220
0.0
230
1.0
  0
LINE
  5
24F
100
AcDbEntity
  8
0
370
    35
390
0
 62
     7
100
AcDbLine
 10
371.218842
 20
197.850006
 30
0.0
 11
312.797028
 21
197.850006
 31
0.0
210
0.0
220
0.0
230
1.0
  0
LINE
  5
250
100
AcDbEntity
  8
0
370
    35
390
0
 62
     7
100
AcDbLine
 10
370.859375
 20
198.549988
 30
0.0
 11
312.797028
 21
198.549988
 31
0.0
210
0.0
220
0.0
230
1.0
  0
LINE
  5
251
100
AcDbEntity
  8
0
370
    35
390
0
 62
     7
100
AcDbLine
 10
370.691162
 20
198.950012
 30
0.0
 11
312.797028
 21
198.950012
 31
0.0
210
0.0
220
0.0
230
1.0
  0
LINE
  5
252
100
AcDbEntity
  8
0
370
    35
390
0
 62
     7
100
AcDbLine
 10
370.455475
 20
199.649994
 30
0.0
 11
312.797028
 21
199.649994
 31
0.0
210
0.0
220
0.0
230
1.0
  0
LINE
  5
253
100
AcDbEntity
  8
0
370
    35
390
0
 62
     7
100
AcDbLine
 10
370.352173
 20
200.049988
 30
0.0
 11
312.797028
 21
200.049988
 31
0.0
210
0.0
220
0.0
230
1.0
  0
LINE
  5
254
100
AcDbEntity
  8
0
370
    35
390
0
 62
     7
100
AcDbLine
 10
370.223022
 20
200.75
 30
0.0
 11
312.797028
 21
200.75
 31
0.0
210
0.0
220
0.0
230
1.0
  0
LINE
  5
255
100
AcDbEntity
  8
0
370
    35
390
0
 62
     7
100
AcDbLine
 10
370.177704
 20
201.149994
 30
0.0
 11
312.797028
 21
201.149994
 31
0.0
210
0.0
220
0.0
230
1.0
  0
LINE
  5
256
100
AcDbEntity
  8
0
370
    35
390
0
 62
     7
100
AcDbLine
 10
370.147034
 20
201.850006
 30
0.0
 11
312.797028
 21
201.850006
 31
0.0
210
0.0
220
0.0
230
1.0
  0
LINE
  5
257
100
AcDbEntity
  8
0
370
    35
390
0
 62
     7
 48
0.003232
100
AcDbLine
 10
370.148071
 20
201.979279
 30
0.0
 11
370.147034
 21
201.850006
 31
0.0
210
0.0
220
0.0
230
1.0
  0
LINE
  5
258
100
AcDbEntity
  8
0
370
    35
390
0
 62
     7
 48
0.003537
100
AcDbLine
 10
370.151611
 20
202.120697
 30
0.0
 11
370.148071
 21
201.979279
 31
0.0
210
0.0
220
0.0
230
1.0
  0
LINE
  5
259
100
AcDbEntity
  8
0
370
    35
390
0
 62
     7
 48
0.003235
100
AcDbLine
 10
370.157043
 20
202.25
 30
0.0
 11
370.151611
 21
202.120697
 31
0.0
210
0.0
220
0.0
230
1.0
  0
ARC
  5
25A
100
AcDbEntity
  8
0
370
    35
390
0
 62
     7
100
AcDbCircle
 10
378.147034
 20
201.850006
 30
0.0
 40
8.0
210
0.0
220
0.0
230
1.0
100
AcDbArc
 50
172.096793
 51
177.134017
  0
LINE
  5
25B
100
AcDbEntity
  8
0
370
    35
390
0
 62
     7
 48
0.003267
100
AcDbLine
 10
370.242035
 20
203.079285
 30
0.0
 11
370.223022
 21
202.950012
 31
0.0
210
0.0
220
0.0
230
1.0
  0
LINE
  5
25C
100
AcDbEntity
  8
0
370
    35
390
0
 62
     7
 48
0.003583
100
AcDbLine
 10
370.26535
 20
203.220703
 30
0.0
 11
370.242035
 21
203.079285
 31
0.0
210
0.0
220
0.0
230
1.0
  0
LINE
  5
25D
100
AcDbEntity
  8
0
370
    35
390
0
 62
     7
 48
0.003286
100
AcDbLine
 10
370.28891
 20
203.350006
 30
0.0
 11
370.26535
 21
203.220703
 31
0.0
210
0.0
220
0.0
230
1.0
  0
ARC
  5
25E
100
AcDbEntity
  8
0
370
    35
390
0
 62
     7
100
AcDbCircle
 10
378.147034
 20
201.850006
 30
0.0
 40
8.0
210
0.0
220
0.0
230
1.0
100
AcDbArc
 50
164.03799
 51
169.193075
  0
LINE
  5
25F
100
AcDbEntity
  8
0
370
    35
390
0
 62
     7
 48
0.003371
100
AcDbLine
 10
370.493652
 20
204.179291
 30
0.0
 11
370.455475
 21
204.049988
 31
0.0
210
0.0
220
0.0
230
1.0
  0
LINE
  5
260
100
AcDbEntity
  8
0
370
    35
390
0
 62
     7
 48
0.003706
100
AcDbLine
 10
370.538116
 20
204.320709
 30
0.0
 11
370.493652
 21
204.179291
 31
0.0
210
0.0
220
0.0
230
1.0
  0
LINE
  5
261
100
AcDbEntity
  8
0
370
    35
390
0
 62
     7
 48
0.003408
100
AcDbLine
 10
370.581329
 20
204.450012
 30
0.0
 11
370.538116
 21
204.320709
 31
0.0
210
0.0
220
0.0
230
1.0
  0
ARC
  5
262
100
AcDbEntity
  8
0
370
    35
390
0
 62
     7
100
AcDbCircle
 10
378.147034
 20
201.850006
 30
0.0
 40
8.0
210
0.0
220
0.0
230
1.0
100
AcDbArc
 50
155.638018
 51
161.034427
  0
LINE
  5
263
100
AcDbEntity
  8
0
370
    35
390
0
 62
     7
 48
0.003563
100
AcDbLine
 10
370.919312
 20
205.279297
 30
0.0
 11
370.859375
 21
205.149994
 31
0.0
210
0.0
220
0.0
230
1.0
  0
LINE
  5
264
100
AcDbEntity
  8
0
370
    35
390
0
 62
     7
 48
0.003932
100
AcDbLine
 10
370.988129
 20
205.420715
 30
0.0
 11
370.919312
 21
205.279297
 31
0.0
210
0.0
220
0.0
230
1.0
  0
LINE
  5
265
100
AcDbEntity
  8
0
370
    35
390
0
 62
     7
 48
0.003628
100
AcDbLine
 10
371.054077
 20
205.549988
 30
0.0
 11
370.988129
 21
205.420715
 31
0.0
210
0.0
220
0.0
230
1.0
  0
ARC
  5
266
100
AcDbEntity
  8
0
370
    35
390
0
 62
     7
100
AcDbCircle
 10
378.147034
 20
201.850006
 30
0.0
 40
8.0
210
0.0
220
0.0
230
1.0
100
AcDbArc
 50
146.632987
 51
152.451448
  0
LINE
  5
267
100
AcDbEntity
  8
0
370
    35
390
0
 62
     7
 48
0.003895
100
AcDbLine
 10
371.552673
 20
206.379272
 30
0.0
 11
371.465729
 21
206.25
 31
0.0
210
0.0
220
0.0
230
1.0
  0
LINE
  5
268
100
AcDbEntity
  8
0
370
    35
390
0
 62
     7
 48
0.004322
100
AcDbLine
 10
371.652069
 20
206.520721
 30
0.0
 11
371.552673
 21
206.379272
 31
0.0
210
0.0
220
0.0
230
1.0
  0
LINE
  5
269
100
AcDbEntity
  8
0
370
    35
390
0
 62
     7
 48
0.00401
100
AcDbLine
 10
371.74704
 20
206.649994
 30
0.0
 11
371.652069
 21
206.520721
 31
0.0
210
0.0
220
0.0
230
1.0
  0
CIRCLE
  5
26A
100
AcDbEntity
  8
0
370
    35
390
0
 62
     7
100
AcDbCircle
 10
378.147034
 20
201.850006
 30
0.0
 40
7.5
210
0.0
220
0.0
230
1.0
  0
LINE
  5
26B
100
AcDbEntity
  8
0
370
    35
390
0
 62
     7
 48
0.00875
100
AcDbLine
 10
313.147034
 20
204.850006
 30
0.0
 11
312.797028
 21
204.850006
 31
0.0
210
0.0
220
0.0
230
1.0
  0
LINE
  5
26C
100
AcDbEntity
  8
0
370
    35
390
0
 62
     7
100
AcDbLine
 10
370.859375
 20
205.149994
 30
0.0
 11
314.047028
 21
205.149994
 31
0.0
210
0.0
220
0.0
230
1.0
  0
ARC
  5
26D
100
AcDbEntity
  8
0
370
    35
390
0
 62
     7
100
AcDbCircle
 10
313.147034
 20
206.350006
 30
0.0
 40
1.5
210
0.0
220
0.0
230
1.0
100
AcDbArc
 50
269.999997
 51
314.454478
  0
LINE
  5
26E
100
AcDbEntity
  8
0
370
    35
390
0
 62
     7
100
AcDbLine
 10
370.581329
 20
204.450012
 30
0.0
 11
312.797028
 21
204.450012
 31
0.0
210
0.0
220
0.0
230
1.0
  0
LINE
  5
26F
100
AcDbEntity
  8
0
370
    35
390
0
 62
     7
100
AcDbLine
 10
370.455475
 20
204.049988
 30
0.0
 11
312.797028
 21
204.049988
 31
0.0
210
0.0
220
0.0
230
1.0
  0
LINE
  5
270
100
AcDbEntity
  8
0
370
    35
390
0
 62
     7
100
AcDbLine
 10
370.28891
 20
203.350006
 30
0.0
 11
312.797028
 21
203.350006
 31
0.0
210
0.0
220
0.0
230
1.0
  0
LINE
  5
271
100
AcDbEntity
  8
0
370
    35
390
0
 62
     7
100
AcDbLine
 10
370.223022
 20
202.950012
 30
0.0
 11
312.797028
 21
202.950012
 31
0.0
210
0.0
220
0.0
230
1.0
  0
LINE
  5
272
100
AcDbEntity
  8
0
370
    35
390
0
 62
     7
100
AcDbLine
 10
370.157043
 20
202.25
 30
0.0
 11
312.797028
 21
202.25
 31
0.0
210
0.0
220
0.0
230
1.0
  0
LINE
  5
273
100
AcDbEntity
  8
0
370
    35
390
0
 62
     7
 48
0.0575
100
AcDbLine
 10
311.797028
 20
205.149994
 30
0.0
 11
309.49704
 21
205.149994
 31
0.0
210
0.0
220
0.0
230
1.0
  0
LINE
  5
274
100
AcDbEntity
  8
0
370
    35
390
0
 62
     7
 48
0.0575
100
AcDbLine
 10
311.797028
 20
204.450012
 30
0.0
 11
309.49704
 21
204.450012
 31
0.0
210
0.0
220
0.0
230
1.0
  0
ARC
  5
275
100
AcDbEntity
  8
0
370
    35
390
0
 62
     7
100
AcDbCircle
 10
308.99704
 20
205.350006
 30
0.0
 40
0.5
210
0.0
220
0.0
230
1.0
100
AcDbArc
 50
0.0
 51
8.130103
  0
ARC
  5
276
100
AcDbEntity
  8
0
370
    35
390
0
 62
     7
100
AcDbCircle
 10
312.297028
 20
205.350006
 30
0.0
 40
0.5
210
0.0
220
0.0
230
1.0
100
AcDbArc
 50
171.869894
 51
180.000009
  0
ARC
  5
277
100
AcDbEntity
  8
0
370
    35
390
0
 62
     7
100
AcDbCircle
 10
312.297028
 20
205.350006
 30
0.0
 40
0.5
210
0.0
220
0.0
230
1.0
100
AcDbArc
 50
90.000003
 51
171.869894
  0
LINE
  5
278
100
AcDbEntity
  8
0
370
    35
390
0
 62
     7
 48
0.0575
100
AcDbLine
 10
311.797028
 20
197.850006
 30
0.0
 11
309.49704
 21
197.850006
 31
0.0
210
0.0
220
0.0
230
1.0
  0
LINE
  5
279
100
AcDbEntity
  8
0
370
    35
390
0
 62
     7
 48
0.0575
100
AcDbLine
 10
311.797028
 20
198.549988
 30
0.0
 11
309.49704
 21
198.549988
 31
0.0
210
0.0
220
0.0
230
1.0
  0
LINE
  5
27A
100
AcDbEntity
  8
0
370
    35
390
0
 62
     7
 48
0.0575
100
AcDbLine
 10
311.797028
 20
198.950012
 30
0.0
 11
309.49704
 21
198.950012
 31
0.0
210
0.0
220
0.0
230
1.0
  0
LINE
  5
27B
100
AcDbEntity
  8
0
370
    35
390
0
 62
     7
 48
0.0575
100
AcDbLine
 10
311.797028
 20
199.649994
 30
0.0
 11
309.49704
 21
199.649994
 31
0.0
210
0.0
220
0.0
230
1.0
  0
LINE
  5
27C
100
AcDbEntity
  8
0
370
    35
390
0
 62
     7
 48
0.0575
100
AcDbLine
 10
311.797028
 20
200.049988
 30
0.0
 11
309.49704
 21
200.049988
 31
0.0
210
0.0
220
0.0
230
1.0
  0
LINE
  5
27D
100
AcDbEntity
  8
0
370
    35
390
0
 62
     7
 48
0.0575
100
AcDbLine
 10
311.797028
 20
200.75
 30
0.0
 11
309.49704
 21
200.75
 31
0.0
210
0.0
220
0.0
230
1.0
  0
LINE
  5
27E
100
AcDbEntity
  8
0
370
    35
390
0
 62
     7
 48
0.0575
100
AcDbLine
 10
311.797028
 20
201.149994
 30
0.0
 11
309.49704
 21
201.149994
 31
0.0
210
0.0
220
0.0
230
1.0
  0
LINE
  5
27F
100
AcDbEntity
  8
0
370
    35
390
0
 62
     7
 48
0.0575
100
AcDbLine
 10
311.797028
 20
201.850006
 30
0.0
 11
309.49704
 21
201.850006
 31
0.0
210
0.0
220
0.0
230
1.0
  0
LINE
  5
280
100
AcDbEntity
  8
0
370
    35
390
0
 62
     7
 48
0.0575
100
AcDbLine
 10
311.797028
 20
202.25
 30
0.0
 11
309.49704
 21
202.25
 31
0.0
210
0.0
220
0.0
230
1.0
  0
LINE
  5
281
100
AcDbEntity
  8
0
370
    35
390
0
 62
     7
 48
0.0575
100
AcDbLine
 10
311.797028
 20
202.950012
 30
0.0
 11
309.49704
 21
202.950012
 31
0.0
210
0.0
220
0.0
230
1.0
  0
LINE
  5
282
100
AcDbEntity
  8
0
370
    35
390
0
 62
     7
 48
0.0575
100
AcDbLine
 10
311.797028
 20
203.350006
 30
0.0
 11
309.49704
 21
203.350006
 31
0.0
210
0.0
220
0.0
230
1.0
  0
LINE
  5
283
100
AcDbEntity
  8
0
370
    35
390
0
 62
     7
 48
0.0575
100
AcDbLine
 10
311.797028
 20
204.049988
 30
0.0
 11
309.49704
 21
204.049988
 31
0.0
210
0.0
220
0.0
230
1.0
  0
ARC
  5
284
100
AcDbEntity
  8
0
370
    35
390
0
 62
     7
100
AcDbCircle
 10
308.99704
 20
205.350006
 30
0.0
 40
0.5
210
0.0
220
0.0
230
1.0
100
AcDbArc
 50
8.130103
 51
90.000003
  0
LINE
  5
285
100
AcDbEntity
  8
0
370
    35
390
0
 62
     7
100
AcDbLine
 10
308.49704
 20
204.049988
 30
0.0
 11
162.797058
 21
204.049988
 31
0.0
210
0.0
220
0.0
230
1.0
  0
LINE
  5
286
100
AcDbEntity
  8
0
370
    35
390
0
 62
     7
100
AcDbLine
 10
308.49704
 20
204.450012
 30
0.0
 11
162.797058
 21
204.450012
 31
0.0
210
0.0
220
0.0
230
1.0
  0
LINE
  5
287
100
AcDbEntity
  8
0
370
    35
390
0
 62
     7
 48
0.00875
100
AcDbLine
 10
308.49704
 20
204.850006
 30
0.0
 11
308.147034
 21
204.850006
 31
0.0
210
0.0
220
0.0
230
1.0
  0
ARC
  5
288
100
AcDbEntity
  8
0
370
    35
390
0
 62
     7
100
AcDbCircle
 10
308.147034
 20
206.350006
 30
0.0
 40
1.5
210
0.0
220
0.0
230
1.0
100
AcDbArc
 50
212.230947
 51
269.999997
  0
LINE
  5
289
100
AcDbEntity
  8
0
370
    35
390
0
 62
     7
100
AcDbLine
 10
307.24704
 20
205.149994
 30
0.0
 11
164.047058
 21
205.149994
 31
0.0
210
0.0
220
0.0
230
1.0
  0
ARC
  5
28A
100
AcDbEntity
  8
0
370
    35
390
0
 62
     7
100
AcDbCircle
 10
163.147064
 20
206.350006
 30
0.0
 40
1.5
210
0.0
220
0.0
230
1.0
100
AcDbArc
 50
269.999997
 51
314.454478
  0
LINE
  5
28B
100
AcDbEntity
  8
0
370
    35
390
0
 62
     7
 48
0.00875
100
AcDbLine
 10
163.147064
 20
204.850006
 30
0.0
 11
162.797058
 21
204.850006
 31
0.0
210
0.0
220
0.0
230
1.0
  0
LINE
  5
28C
100
AcDbEntity
  8
0
370
    35
390
0
 62
     7
100
AcDbLine
 10
308.49704
 20
197.850006
 30
0.0
 11
162.797058
 21
197.850006
 31
0.0
210
0.0
220
0.0
230
1.0
  0
LINE
  5
28D
100
AcDbEntity
  8
0
370
    35
390
0
 62
     7
100
AcDbLine
 10
308.49704
 20
198.549988
 30
0.0
 11
162.797058
 21
198.549988
 31
0.0
210
0.0
220
0.0
230
1.0
  0
LINE
  5
28E
100
AcDbEntity
  8
0
370
    35
390
0
 62
     7
100
AcDbLine
 10
308.49704
 20
198.950012
 30
0.0
 11
162.797058
 21
198.950012
 31
0.0
210
0.0
220
0.0
230
1.0
  0
LINE
  5
28F
100
AcDbEntity
  8
0
370
    35
390
0
 62
     7
100
AcDbLine
 10
308.49704
 20
199.649994
 30
0.0
 11
162.797058
 21
199.649994
 31
0.0
210
0.0
220
0.0
230
1.0
  0
LINE
  5
290
100
AcDbEntity
  8
0
370
    35
390
0
 62
     7
100
AcDbLine
 10
308.49704
 20
200.049988
 30
0.0
 11
162.797058
 21
200.049988
 31
0.0
210
0.0
220
0.0
230
1.0
  0
LINE
  5
291
100
AcDbEntity
  8
0
370
    35
390
0
 62
     7
100
AcDbLine
 10
308.49704
 20
200.75
 30
0.0
 11
162.797058
 21
200.75
 31
0.0
210
0.0
220
0.0
230
1.0
  0
LINE
  5
292
100
AcDbEntity
  8
0
370
    35
390
0
 62
     7
100
AcDbLine
 10
308.49704
 20
201.149994
 30
0.0
 11
162.797058
 21
201.149994
 31
0.0
210
0.0
220
0.0
230
1.0
  0
LINE
  5
293
100
AcDbEntity
  8
0
370
    35
390
0
 62
     7
100
AcDbLine
 10
308.49704
 20
201.850006
 30
0.0
 11
162.797058
 21
201.850006
 31
0.0
210
0.0
220
0.0
230
1.0
  0
LINE
  5
294
100
AcDbEntity
  8
0
370
    35
390
0
 62
     7
100
AcDbLine
 10
308.49704
 20
202.25
 30
0.0
 11
162.797058
 21
202.25
 31
0.0
210
0.0
220
0.0
230
1.0
  0
LINE
  5
295
100
AcDbEntity
  8
0
370
    35
390
0
 62
     7
100
AcDbLine
 10
308.49704
 20
202.950012
 30
0.0
 11
162.797058
 21
202.950012
 31
0.0
210
0.0
220
0.0
230
1.0
  0
LINE
  5
296
100
AcDbEntity
  8
0
370
    35
390
0
 62
     7
100
AcDbLine
 10
308.49704
 20
203.350006
 30
0.0
 11
162.797058
 21
203.350006
 31
0.0
210
0.0
220
0.0
230
1.0
  0
LINE
  5
297
100
AcDbEntity
  8
0
370
    35
390
0
 62
     7
 48
0.0575
100
AcDbLine
 10
161.797058
 20
204.450012
 30
0.0
 11
159.49704
 21
204.450012
 31
0.0
210
0.0
220
0.0
230
1.0
  0
LINE
  5
298
100
AcDbEntity
  8
0
370
    35
390
0
 62
     7
 48
0.0575
100
AcDbLine
 10
161.797058
 20
205.149994
 30
0.0
 11
159.49704
 21
205.149994
 31
0.0
210
0.0
220
0.0
230
1.0
  0
ARC
  5
299
100
AcDbEntity
  8
0
370
    35
390
0
 62
     7
100
AcDbCircle
 10
162.297058
 20
205.350006
 30
0.0
 40
0.5
210
0.0
220
0.0
230
1.0
100
AcDbArc
 50
171.869894
 51
180.000009
  0
ARC
  5
29A
100
AcDbEntity
  8
0
370
    35
390
0
 62
     7
100
AcDbCircle
 10
158.99704
 20
205.350006
 30
0.0
 40
0.5
210
0.0
220
0.0
230
1.0
100
AcDbArc
 50
0.0
 51
8.130103
  0
ARC
  5
29B
100
AcDbEntity
  8
0
370
    35
390
0
 62
     7
100
AcDbCircle
 10
162.297058
 20
205.350006
 30
0.0
 40
0.5
210
0.0
220
0.0
230
1.0
100
AcDbArc
 50
90.000003
 51
171.869894
  0
LINE
  5
29C
100
AcDbEntity
  8
0
370
    35
390
0
 62
     7
 48
0.0575
100
AcDbLine
 10
161.797058
 20
197.850006
 30
0.0
 11
159.49704
 21
197.850006
 31
0.0
210
0.0
220
0.0
230
1.0
  0
LINE
  5
29D
100
AcDbEntity
  8
0
370
    35
390
0
 62
     7
 48
0.0575
100
AcDbLine
 10
161.797058
 20
198.549988
 30
0.0
 11
159.49704
 21
198.549988
 31
0.0
210
0.0
220
0.0
230
1.0
  0
LINE
  5
29E
100
AcDbEntity
  8
0
370
    35
390
0
 62
     7
 48
0.0575
100
AcDbLine
 10
161.797058
 20
198.950012
 30
0.0
 11
159.49704
 21
198.950012
 31
0.0
210
0.0
220
0.0
230
1.0
  0
LINE
  5
29F
100
AcDbEntity
  8
0
370
    35
390
0
 62
     7
 48
0.0575
100
AcDbLine
 10
161.797058
 20
199.649994
 30
0.0
 11
159.49704
 21
199.649994
 31
0.0
210
0.0
220
0.0
230
1.0
  0
LINE
  5
2A0
100
AcDbEntity
  8
0
370
    35
390
0
 62
     7
 48
0.0575
100
AcDbLine
 10
161.797058
 20
200.049988
 30
0.0
 11
159.49704
 21
200.049988
 31
0.0
210
0.0
220
0.0
230
1.0
  0
LINE
  5
2A1
100
AcDbEntity
  8
0
370
    35
390
0
 62
     7
 48
0.0575
100
AcDbLine
 10
161.797058
 20
200.75
 30
0.0
 11
159.49704
 21
200.75
 31
0.0
210
0.0
220
0.0
230
1.0
  0
LINE
  5
2A2
100
AcDbEntity
  8
0
370
    35
390
0
 62
     7
 48
0.0575
100
AcDbLine
 10
161.797058
 20
201.149994
 30
0.0
 11
159.49704
 21
201.149994
 31
0.0
210
0.0
220
0.0
230
1.0
  0
LINE
  5
2A3
100
AcDbEntity
  8
0
370
    35
390
0
 62
     7
 48
0.0575
100
AcDbLine
 10
161.797058
 20
201.850006
 30
0.0
 11
159.49704
 21
201.850006
 31
0.0
210
0.0
220
0.0
230
1.0
  0
LINE
  5
2A4
100
AcDbEntity
  8
0
370
    35
390
0
 62
     7
 48
0.0575
100
AcDbLine
 10
161.797058
 20
202.25
 30
0.0
 11
159.49704
 21
202.25
 31
0.0
210
0.0
220
0.0
230
1.0
  0
LINE
  5
2A5
100
AcDbEntity
  8
0
370
    35
390
0
 62
     7
 48
0.0575
100
AcDbLine
 10
161.797058
 20
202.950012
 30
0.0
 11
159.49704
 21
202.950012
 31
0.0
210
0.0
220
0.0
230
1.0
  0
LINE
  5
2A6
100
AcDbEntity
  8
0
370
    35
390
0
 62
     7
 48
0.0575
100
AcDbLine
 10
161.797058
 20
203.350006
 30
0.0
 11
159.49704
 21
203.350006
 31
0.0
210
0.0
220
0.0
230
1.0
  0
LINE
  5
2A7
100
AcDbEntity
  8
0
370
    35
390
0
 62
     7
 48
0.0575
100
AcDbLine
 10
161.797058
 20
204.049988
 30
0.0
 11
159.49704
 21
204.049988
 31
0.0
210
0.0
220
0.0
230
1.0
  0
ARC
  5
2A8
100
AcDbEntity
  8
0
370
    35
390
0
 62
     7
100
AcDbCircle
 10
158.99704
 20
205.350006
 30
0.0
 40
0.5
210
0.0
220
0.0
230
1.0
100
AcDbArc
 50
8.130103
 51
90.000003
  0
LINE
  5
2A9
100
AcDbEntity
  8
0
370
    35
390
0
 62
     7
 48
0.00337
100
AcDbLine
 10
100.800446
 20
204.179291
 30
0.0
 11
100.838608
 21
204.049988
 31
0.0
210
0.0
220
0.0
230
1.0
  0
LINE
  5
2AA
100
AcDbEntity
  8
0
370
    35
390
0
 62
     7
100
AcDbLine
 10
158.49704
 20
204.049988
 30
0.0
 11
100.838608
 21
204.049988
 31
0.0
210
0.0
220
0.0
230
1.0
  0
LINE
  5
2AB
100
AcDbEntity
  8
0
370
    35
390
0
 62
     7
 48
0.003706
100
AcDbLine
 10
100.755974
 20
204.320709
 30
0.0
 11
100.800446
 21
204.179291
 31
0.0
210
0.0
220
0.0
230
1.0
  0
LINE
  5
2AC
100
AcDbEntity
  8
0
370
    35
390
0
 62
     7
 48
0.003408
100
AcDbLine
 10
100.712769
 20
204.450012
 30
0.0
 11
100.755974
 21
204.320709
 31
0.0
210
0.0
220
0.0
230
1.0
  0
LINE
  5
2AD
100
AcDbEntity
  8
0
370
    35
390
0
 62
     7
100
AcDbLine
 10
158.49704
 20
204.450012
 30
0.0
 11
100.712769
 21
204.450012
 31
0.0
210
0.0
220
0.0
230
1.0
  0
ARC
  5
2AE
100
AcDbEntity
  8
0
370
    35
390
0
 62
     7
100
AcDbCircle
 10
93.147057
 20
201.850006
 30
0.0
 40
8.0
210
0.0
220
0.0
230
1.0
100
AcDbArc
 50
18.965574
 51
24.361978
  0
LINE
  5
2AF
100
AcDbEntity
  8
0
370
    35
390
0
 62
     7
 48
0.008749
100
AcDbLine
 10
158.49704
 20
204.850006
 30
0.0
 11
158.147064
 21
204.850006
 31
0.0
210
0.0
220
0.0
230
1.0
  0
ARC
  5
2B0
100
AcDbEntity
  8
0
370
    35
390
0
 62
     7
100
AcDbCircle
 10
158.147064
 20
206.350006
 30
0.0
 40
1.5
210
0.0
220
0.0
230
1.0
100
AcDbArc
 50
212.230947
 51
269.999997
  0
LINE
  5
2B1
100
AcDbEntity
  8
0
370
    35
390
0
 62
     7
100
AcDbLine
 10
157.24704
 20
205.149994
 30
0.0
 11
100.434715
 21
205.149994
 31
0.0
210
0.0
220
0.0
230
1.0
  0
LINE
  5
2B2
100
AcDbEntity
  8
0
370
    35
390
0
 62
     7
100
AcDbLine
 10
158.49704
 20
197.850006
 30
0.0
 11
100.075256
 21
197.850006
 31
0.0
210
0.0
220
0.0
230
1.0
  0
LINE
  5
2B3
100
AcDbEntity
  8
0
370
    35
390
0
 62
     7
100
AcDbLine
 10
158.49704
 20
198.549988
 30
0.0
 11
100.434715
 21
198.549988
 31
0.0
210
0.0
220
0.0
230
1.0
  0
LINE
  5
2B4
100
AcDbEntity
  8
0
370
    35
390
0
 62
     7
100
AcDbLine
 10
158.49704
 20
198.950012
 30
0.0
 11
100.602928
 21
198.950012
 31
0.0
210
0.0
220
0.0
230
1.0
  0
LINE
  5
2B5
100
AcDbEntity
  8
0
370
    35
390
0
 62
     7
100
AcDbLine
 10
158.49704
 20
199.649994
 30
0.0
 11
100.838608
 21
199.649994
 31
0.0
210
0.0
220
0.0
230
1.0
  0
LINE
  5
2B6
100
AcDbEntity
  8
0
370
    35
390
0
 62
     7
100
AcDbLine
 10
158.49704
 20
200.049988
 30
0.0
 11
100.941925
 21
200.049988
 31
0.0
210
0.0
220
0.0
230
1.0
  0
LINE
  5
2B7
100
AcDbEntity
  8
0
370
    35
390
0
 62
     7
100
AcDbLine
 10
158.49704
 20
200.75
 30
0.0
 11
101.071068
 21
200.75
 31
0.0
210
0.0
220
0.0
230
1.0
  0
LINE
  5
2B8
100
AcDbEntity
  8
0
370
    35
390
0
 62
     7
100
AcDbLine
 10
158.49704
 20
201.149994
 30
0.0
 11
101.116371
 21
201.149994
 31
0.0
210
0.0
220
0.0
230
1.0
  0
LINE
  5
2B9
100
AcDbEntity
  8
0
370
    35
390
0
 62
     7
100
AcDbLine
 10
158.49704
 20
201.850006
 30
0.0
 11
101.147057
 21
201.850006
 31
0.0
210
0.0
220
0.0
230
1.0
  0
LINE
  5
2BA
100
AcDbEntity
  8
0
370
    35
390
0
 62
     7
 48
0.003232
100
AcDbLine
 10
101.146011
 20
201.979279
 30
0.0
 11
101.147057
 21
201.850006
 31
0.0
210
0.0
220
0.0
230
1.0
  0
LINE
  5
2BB
100
AcDbEntity
  8
0
370
    35
390
0
 62
     7
 48
0.003537
100
AcDbLine
 10
101.142471
 20
202.120697
 30
0.0
 11
101.146011
 21
201.979279
 31
0.0
210
0.0
220
0.0
230
1.0
  0
LINE
  5
2BC
100
AcDbEntity
  8
0
370
    35
390
0
 62
     7
 48
0.003235
100
AcDbLine
 10
101.137047
 20
202.25
 30
0.0
 11
101.142471
 21
202.120697
 31
0.0
210
0.0
220
0.0
230
1.0
  0
LINE
  5
2BD
100
AcDbEntity
  8
0
370
    35
390
0
 62
     7
100
AcDbLine
 10
158.49704
 20
202.25
 30
0.0
 11
101.137047
 21
202.25
 31
0.0
210
0.0
220
0.0
230
1.0
  0
ARC
  5
2BE
100
AcDbEntity
  8
0
370
    35
390
0
 62
     7
100
AcDbCircle
 10
93.147057
 20
201.850006
 30
0.0
 40
8.0
210
0.0
220
0.0
230
1.0
100
AcDbArc
 50
2.865984
 51
7.903208
  0
LINE
  5
2BF
100
AcDbEntity
  8
0
370
    35
390
0
 62
     7
100
AcDbLine
 10
158.49704
 20
202.950012
 30
0.0
 11
101.071068
 21
202.950012
 31
0.0
210
0.0
220
0.0
230
1.0
  0
LINE
  5
2C0
100
AcDbEntity
  8
0
370
    35
390
0
 62
     7
 48
0.003267
100
AcDbLine
 10
101.052048
 20
203.079285
 30
0.0
 11
101.071068
 21
202.950012
 31
0.0
210
0.0
220
0.0
230
1.0
  0
LINE
  5
2C1
100
AcDbEntity
  8
0
370
    35
390
0
 62
     7
 48
0.003583
100
AcDbLine
 10
101.028755
 20
203.220703
 30
0.0
 11
101.052048
 21
203.079285
 31
0.0
210
0.0
220
0.0
230
1.0
  0
LINE
  5
2C2
100
AcDbEntity
  8
0
370
    35
390
0
 62
     7
 48
0.003286
100
AcDbLine
 10
101.005173
 20
203.350006
 30
0.0
 11
101.028755
 21
203.220703
 31
0.0
210
0.0
220
0.0
230
1.0
  0
LINE
  5
2C3
100
AcDbEntity
  8
0
370
    35
390
0
 62
     7
100
AcDbLine
 10
158.49704
 20
203.350006
 30
0.0
 11
101.005173
 21
203.350006
 31
0.0
210
0.0
220
0.0
230
1.0
  0
ARC
  5
2C4
100
AcDbEntity
  8
0
370
    35
390
0
 62
     7
100
AcDbCircle
 10
93.147057
 20
201.850006
 30
0.0
 40
8.0
210
0.0
220
0.0
230
1.0
100
AcDbArc
 50
10.806924
 51
15.962017
  0
LINE
  5
2C5
100
AcDbEntity
  8
0
370
    35
390
0
 62
     7
 48
0.051795
100
AcDbLine
 10
86.218857
 20
197.850006
 30
0.0
 11
84.147057
 21
197.850006
 31
0.0
210
0.0
220
0.0
230
1.0
  0
LINE
  5
2C6
100
AcDbEntity
  8
0
370
    35
390
0
 62
     7
 48
0.042809
100
AcDbLine
 10
85.859398
 20
198.549988
 30
0.0
 11
84.147057
 21
198.549988
 31
0.0
210
0.0
220
0.0
230
1.0
  0
LINE
  5
2C7
100
AcDbEntity
  8
0
370
    35
390
0
 62
     7
 48
0.038603
100
AcDbLine
 10
85.691185
 20
198.950012
 30
0.0
 11
84.147057
 21
198.950012
 31
0.0
210
0.0
220
0.0
230
1.0
  0
LINE
  5
2C8
100
AcDbEntity
  8
0
370
    35
390
0
 62
     7
 48
0.032711
100
AcDbLine
 10
85.455505
 20
199.649994
 30
0.0
 11
84.147057
 21
199.649994
 31
0.0
210
0.0
220
0.0
230
1.0
  0
LINE
  5
2C9
100
AcDbEntity
  8
0
370
    35
390
0
 62
     7
 48
0.030128
100
AcDbLine
 10
85.352188
 20
200.049988
 30
0.0
 11
84.147057
 21
200.049988
 31
0.0
210
0.0
220
0.0
230
1.0
  0
LINE
  5
2CA
100
AcDbEntity
  8
0
370
    35
390
0
 62
     7
 48
0.0269
100
AcDbLine
 10
85.223045
 20
200.75
 30
0.0
 11
84.147057
 21
200.75
 31
0.0
210
0.0
220
0.0
230
1.0
  0
LINE
  5
2CB
100
AcDbEntity
  8
0
370
    35
390
0
 62
     7
 48
0.025767
100
AcDbLine
 10
85.177742
 20
201.149994
 30
0.0
 11
84.147057
 21
201.149994
 31
0.0
210
0.0
220
0.0
230
1.0
  0
LINE
  5
2CC
100
AcDbEntity
  8
0
370
    35
390
0
 62
     7
 48
0.025
100
AcDbLine
 10
85.147057
 20
201.850006
 30
0.0
 11
84.147057
 21
201.850006
 31
0.0
210
0.0
220
0.0
230
1.0
  0
LINE
  5
2CD
100
AcDbEntity
  8
0
370
    35
390
0
 62
     7
 48
0.003232
100
AcDbLine
 10
85.148102
 20
201.979279
 30
0.0
 11
85.147057
 21
201.850006
 31
0.0
210
0.0
220
0.0
230
1.0
  0
LINE
  5
2CE
100
AcDbEntity
  8
0
370
    35
390
0
 62
     7
 48
0.003537
100
AcDbLine
 10
85.151642
 20
202.120697
 30
0.0
 11
85.148102
 21
201.979279
 31
0.0
210
0.0
220
0.0
230
1.0
  0
LINE
  5
2CF
100
AcDbEntity
  8
0
370
    35
390
0
 62
     7
 48
0.003235
100
AcDbLine
 10
85.157066
 20
202.25
 30
0.0
 11
85.151642
 21
202.120697
 31
0.0
210
0.0
220
0.0
230
1.0
  0
ARC
  5
2D0
100
AcDbEntity
  8
0
370
    35
390
0
 62
     7
100
AcDbCircle
 10
93.147057
 20
201.850006
 30
0.0
 40
8.0
210
0.0
220
0.0
230
1.0
100
AcDbArc
 50
172.096793
 51
177.134017
  0
LINE
  5
2D1
100
AcDbEntity
  8
0
370
    35
390
0
 62
     7
 48
0.003267
100
AcDbLine
 10
85.242065
 20
203.079285
 30
0.0
 11
85.223045
 21
202.950012
 31
0.0
210
0.0
220
0.0
230
1.0
  0
LINE
  5
2D2
100
AcDbEntity
  8
0
370
    35
390
0
 62
     7
 48
0.003583
100
AcDbLine
 10
85.265358
 20
203.220703
 30
0.0
 11
85.242065
 21
203.079285
 31
0.0
210
0.0
220
0.0
230
1.0
  0
LINE
  5
2D3
100
AcDbEntity
  8
0
370
    35
390
0
 62
     7
 48
0.003286
100
AcDbLine
 10
85.28894
 20
203.350006
 30
0.0
 11
85.265358
 21
203.220703
 31
0.0
210
0.0
220
0.0
230
1.0
  0
ARC
  5
2D4
100
AcDbEntity
  8
0
370
    35
390
0
 62
     7
100
AcDbCircle
 10
93.147057
 20
201.850006
 30
0.0
 40
8.0
210
0.0
220
0.0
230
1.0
100
AcDbArc
 50
164.03799
 51
169.193075
  0
LINE
  5
2D5
100
AcDbEntity
  8
0
370
    35
390
0
 62
     7
 48
0.00337
100
AcDbLine
 10
85.493668
 20
204.179291
 30
0.0
 11
85.455505
 21
204.049988
 31
0.0
210
0.0
220
0.0
230
1.0
  0
LINE
  5
2D6
100
AcDbEntity
  8
0
370
    35
390
0
 62
     7
 48
0.003706
100
AcDbLine
 10
85.538139
 20
204.320709
 30
0.0
 11
85.493668
 21
204.179291
 31
0.0
210
0.0
220
0.0
230
1.0
  0
LINE
  5
2D7
100
AcDbEntity
  8
0
370
    35
390
0
 62
     7
 48
0.003408
100
AcDbLine
 10
85.581345
 20
204.450012
 30
0.0
 11
85.538139
 21
204.320709
 31
0.0
210
0.0
220
0.0
230
1.0
  0
ARC
  5
2D8
100
AcDbEntity
  8
0
370
    35
390
0
 62
     7
100
AcDbCircle
 10
93.147057
 20
201.850006
 30
0.0
 40
8.0
210
0.0
220
0.0
230
1.0
100
AcDbArc
 50
155.638018
 51
161.034427
  0
LINE
  5
2D9
100
AcDbEntity
  8
0
370
    35
390
0
 62
     7
 48
0.003563
100
AcDbLine
 10
85.919334
 20
205.279297
 30
0.0
 11
85.859398
 21
205.149994
 31
0.0
210
0.0
220
0.0
230
1.0
  0
LINE
  5
2DA
100
AcDbEntity
  8
0
370
    35
390
0
 62
     7
 48
0.003932
100
AcDbLine
 10
85.988144
 20
205.420715
 30
0.0
 11
85.919334
 21
205.279297
 31
0.0
210
0.0
220
0.0
230
1.0
  0
LINE
  5
2DB
100
AcDbEntity
  8
0
370
    35
390
0
 62
     7
 48
0.003628
100
AcDbLine
 10
86.0541
 20
205.549988
 30
0.0
 11
85.988144
 21
205.420715
 31
0.0
210
0.0
220
0.0
230
1.0
  0
ARC
  5
2DC
100
AcDbEntity
  8
0
370
    35
390
0
 62
     7
100
AcDbCircle
 10
93.147057
 20
201.850006
 30
0.0
 40
8.0
210
0.0
220
0.0
230
1.0
100
AcDbArc
 50
146.632987
 51
152.451448
  0
LINE
  5
2DD
100
AcDbEntity
  8
0
370
    35
390
0
 62
     7
 48
0.003895
100
AcDbLine
 10
86.552696
 20
206.379272
 30
0.0
 11
86.465736
 21
206.25
 31
0.0
210
0.0
220
0.0
230
1.0
  0
LINE
  5
2DE
100
AcDbEntity
  8
0
370
    35
390
0
 62
     7
 48
0.004322
100
AcDbLine
 10
86.6521
 20
206.520721
 30
0.0
 11
86.552696
 21
206.379272
 31
0.0
210
0.0
220
0.0
230
1.0
  0
LINE
  5
2DF
100
AcDbEntity
  8
0
370
    35
390
0
 62
     7
 48
0.00401
100
AcDbLine
 10
86.747055
 20
206.649994
 30
0.0
 11
86.6521
 21
206.520721
 31
0.0
210
0.0
220
0.0
230
1.0
  0
ARC
  5
2E0
100
AcDbEntity
  8
0
370
    35
390
0
 62
     7
100
AcDbCircle
 10
93.147057
 20
201.850006
 30
0.0
 40
8.0
210
0.0
220
0.0
230
1.0
100
AcDbArc
 50
36.869897
 51
143.130097
  0
LINE
  5
2E1
100
AcDbEntity
  8
0
370
    35
390
0
 62
     7
 48
0.00401
100
AcDbLine
 10
99.547058
 20
206.649994
 30
0.0
 11
99.642014
 21
206.520721
 31
0.0
210
0.0
220
0.0
230
1.0
  0
LINE
  5
2E2
100
AcDbEntity
  8
0
370
    35
390
0
 62
     7
 48
0.004322
100
AcDbLine
 10
99.642014
 20
206.520721
 30
0.0
 11
99.741409
 21
206.379272
 31
0.0
210
0.0
220
0.0
230
1.0
  0
LINE
  5
2E3
100
AcDbEntity
  8
0
370
    35
390
0
 62
     7
 48
0.003895
100
AcDbLine
 10
99.741409
 20
206.379272
 30
0.0
 11
99.828369
 21
206.25
 31
0.0
210
0.0
220
0.0
230
1.0
  0
ARC
  5
2E4
100
AcDbEntity
  8
0
370
    35
390
0
 62
     7
100
AcDbCircle
 10
93.147057
 20
201.850006
 30
0.0
 40
8.0
210
0.0
220
0.0
230
1.0
100
AcDbArc
 50
27.548547
 51
33.367014
  0
LINE
  5
2E5
100
AcDbEntity
  8
0
370
    35
390
0
 62
     7
 48
0.003628
100
AcDbLine
 10
100.240013
 20
205.549988
 30
0.0
 11
100.305969
 21
205.420715
 31
0.0
210
0.0
220
0.0
230
1.0
  0
LINE
  5
2E6
100
AcDbEntity
  8
0
370
    35
390
0
 62
     7
 48
0.003932
100
AcDbLine
 10
100.305969
 20
205.420715
 30
0.0
 11
100.374779
 21
205.279297
 31
0.0
210
0.0
220
0.0
230
1.0
  0
LINE
  5
2E7
100
AcDbEntity
  8
0
370
    35
390
0
 62
     7
 48
0.003563
100
AcDbLine
 10
100.374779
 20
205.279297
 30
0.0
 11
100.434715
 21
205.149994
 31
0.0
210
0.0
220
0.0
230
1.0
  0
CIRCLE
  5
2E8
100
AcDbEntity
  8
0
370
    35
390
0
 62
     7
100
AcDbCircle
 10
93.147057
 20
201.850006
 30
0.0
 40
7.5
210
0.0
220
0.0
230
1.0
  0
LINE
  5
2E9
100
AcDbEntity
  8
0
370
    35
390
0
 62
     7
 48
0.0125
100
AcDbLine
 10
83.647057
 20
189.850006
 30
0.0
 11
84.147057
 21
189.850006
 31
0.0
210
0.0
220
0.0
230
1.0
  0
LINE
  5
2EA
100
AcDbEntity
  8
0
370
    35
390
0
 62
     7
 48
0.02525
100
AcDbLine
 10
85.157066
 20
202.25
 30
0.0
 11
84.147057
 21
202.25
 31
0.0
210
0.0
220
0.0
230
1.0
  0
LINE
  5
2EB
100
AcDbEntity
  8
0
370
    35
390
0
 62
     7
 48
0.0269
100
AcDbLine
 10
85.223045
 20
202.950012
 30
0.0
 11
84.147057
 21
202.950012
 31
0.0
210
0.0
220
0.0
230
1.0
  0
LINE
  5
2EC
100
AcDbEntity
  8
0
370
    35
390
0
 62
     7
 48
0.028547
100
AcDbLine
 10
85.28894
 20
203.350006
 30
0.0
 11
84.147057
 21
203.350006
 31
0.0
210
0.0
220
0.0
230
1.0
  0
LINE
  5
2ED
100
AcDbEntity
  8
0
370
    35
390
0
 62
     7
 48
0.032711
100
AcDbLine
 10
85.455505
 20
204.049988
 30
0.0
 11
84.147057
 21
204.049988
 31
0.0
210
0.0
220
0.0
230
1.0
  0
LINE
  5
2EE
100
AcDbEntity
  8
0
370
    35
390
0
 62
     7
 48
0.035857
100
AcDbLine
 10
85.581345
 20
204.450012
 30
0.0
 11
84.147057
 21
204.450012
 31
0.0
210
0.0
220
0.0
230
1.0
  0
LINE
  5
2EF
100
AcDbEntity
  8
0
370
    35
390
0
 62
     7
 48
0.042809
100
AcDbLine
 10
85.859398
 20
205.149994
 30
0.0
 11
84.147057
 21
205.149994
 31
0.0
210
0.0
220
0.0
230
1.0
  0
LINE
  5
2F0
100
AcDbEntity
  8
0
370
    35
390
0
 62
     7
 48
0.047676
100
AcDbLine
 10
86.0541
 20
205.549988
 30
0.0
 11
84.147057
 21
205.549988
 31
0.0
210
0.0
220
0.0
230
1.0
  0
LINE
  5
2F1
100
AcDbEntity
  8
0
370
    35
390
0
 62
     7
 48
0.057967
100
AcDbLine
 10
86.465736
 20
206.25
 30
0.0
 11
84.147057
 21
206.25
 31
0.0
210
0.0
220
0.0
230
1.0
  0
LINE
  5
2F2
100
AcDbEntity
  8
0
370
    35
390
0
 62
     7
 48
0.065
100
AcDbLine
 10
86.747055
 20
206.649994
 30
0.0
 11
84.147057
 21
206.649994
 31
0.0
210
0.0
220
0.0
230
1.0
  0
LINE
  5
2F3
100
AcDbEntity
  8
0
370
    35
390
0
 62
     7
100
AcDbLine
 10
156.647064
 20
206.649994
 30
0.0
 11
99.547058
 21
206.649994
 31
0.0
210
0.0
220
0.0
230
1.0
  0
LINE
  5
2F4
100
AcDbEntity
  8
0
370
    35
390
0
 62
     7
 48
0.120607
100
AcDbLine
 10
156.647064
 20
206.649994
 30
0.0
 11
156.647064
 21
211.474274
 31
0.0
210
0.0
220
0.0
230
1.0
  0
LINE
  5
2F5
100
AcDbEntity
  8
0
370
    35
390
0
 62
     7
100
AcDbLine
 10
156.647064
 20
211.474274
 30
0.0
 11
84.147057
 21
211.474274
 31
0.0
210
0.0
220
0.0
230
1.0
  0
LINE
  5
2F6
100
AcDbEntity
  8
0
370
    35
390
0
 62
     7
 48
0.012196
100
AcDbLine
 10
156.647064
 20
211.962128
 30
0.0
 11
156.647064
 21
211.474274
 31
0.0
210
0.0
220
0.0
230
1.0
  0
LINE
  5
2F7
100
AcDbEntity
  8
0
370
    35
390
0
 62
     7
 48
0.002197
100
AcDbLine
 10
156.647064
 20
212.049988
 30
0.0
 11
156.647064
 21
211.962128
 31
0.0
210
0.0
220
0.0
230
1.0
  0
LINE
  5
2F8
100
AcDbEntity
  8
0
370
    35
390
0
 62
     7
 48
0.0125
100
AcDbLine
 10
387.647034
 20
184.149994
 30
0.0
 11
387.647034
 21
183.649994
 31
0.0
210
0.0
220
0.0
230
1.0
  0
LINE
  5
2F9
100
AcDbEntity
  8
0
370
    35
390
0
 62
     7
100
AcDbLine
 10
387.647034
 20
211.242889
 30
0.0
 11
387.647034
 21
184.149994
 31
0.0
210
0.0
220
0.0
230
1.0
  0
LINE
  5
2FA
100
AcDbEntity
  8
0
370
    35
390
0
 62
     7
 48
0.008839
100
AcDbLine
 10
387.647034
 20
211.596436
 30
0.0
 11
387.647034
 21
211.242889
 31
0.0
210
0.0
220
0.0
230
1.0
  0
LINE
  5
2FB
100
AcDbEntity
  8
0
370
    35
390
0
 62
     7
 48
0.017117
100
AcDbLine
 10
387.647034
 20
212.281128
 30
0.0
 11
387.647034
 21
211.596436
 31
0.0
210
0.0
220
0.0
230
1.0
  0
LINE
  5
2FC
100
AcDbEntity
  8
0
370
    35
390
0
 62
     7
 48
0.003232
100
AcDbLine
 10
314.647034
 20
206.520721
 30
0.0
 11
314.647034
 21
206.649994
 31
0.0
210
0.0
220
0.0
230
1.0
  0
LINE
  5
2FD
100
AcDbEntity
  8
0
370
    35
390
0
 62
     7
 48
0.003536
100
AcDbLine
 10
314.647034
 20
206.379272
 30
0.0
 11
314.647034
 21
206.520721
 31
0.0
210
0.0
220
0.0
230
1.0
  0
LINE
  5
2FE
100
AcDbEntity
  8
0
370
    35
390
0
 62
     7
 48
0.000732
100
AcDbLine
 10
314.647034
 20
206.379272
 30
0.0
 11
314.647034
 21
206.350006
 31
0.0
210
0.0
220
0.0
230
1.0
  0
ARC
  5
2FF
100
AcDbEntity
  8
0
370
    35
390
0
 62
     7
100
AcDbCircle
 10
313.147034
 20
206.350006
 30
0.0
 40
1.5
210
0.0
220
0.0
230
1.0
100
AcDbArc
 50
314.454478
 51
356.177454
  0
LINE
  5
300
100
AcDbEntity
  8
0
370
    35
390
0
 62
     7
 48
0.002502
100
AcDbLine
 10
314.643707
 20
206.25
 30
0.0
 11
314.647034
 21
206.350006
 31
0.0
210
0.0
220
0.0
230
1.0
  0
LINE
  5
301
100
AcDbEntity
  8
0
370
    35
390
0
 62
     7
 48
0.02125
100
AcDbLine
 10
312.297028
 20
205.850006
 30
0.0
 11
313.147034
 21
205.850006
 31
0.0
210
0.0
220
0.0
230
1.0
  0
ARC
  5
302
100
AcDbEntity
  8
0
370
    35
390
0
 62
     7
100
AcDbCircle
 10
313.147034
 20
206.350006
 30
0.0
 40
0.5
210
0.0
220
0.0
230
1.0
100
AcDbArc
 50
269.999997
 51
360.0
  0
LINE
  5
303
100
AcDbEntity
  8
0
370
    35
390
0
 62
     7
 48
0.120607
100
AcDbLine
 10
313.647034
 20
206.649994
 30
0.0
 11
313.647034
 21
211.474274
 31
0.0
210
0.0
220
0.0
230
1.0
  0
LINE
  5
304
100
AcDbEntity
  8
0
370
    35
390
0
 62
     7
 48
0.012196
100
AcDbLine
 10
313.647034
 20
211.962128
 30
0.0
 11
313.647034
 21
211.474274
 31
0.0
210
0.0
220
0.0
230
1.0
  0
LINE
  5
305
100
AcDbEntity
  8
0
370
    35
390
0
 62
     7
 48
0.002197
100
AcDbLine
 10
313.647034
 20
212.049988
 30
0.0
 11
313.647034
 21
211.962128
 31
0.0
210
0.0
220
0.0
230
1.0
  0
LINE
  5
306
100
AcDbEntity
  8
0
370
    35
390
0
 62
     7
 48
0.000732
100
AcDbLine
 10
313.647034
 20
206.379272
 30
0.0
 11
313.647034
 21
206.350006
 31
0.0
210
0.0
220
0.0
230
1.0
  0
LINE
  5
307
100
AcDbEntity
  8
0
370
    35
390
0
 62
     7
 48
0.003536
100
AcDbLine
 10
313.647034
 20
206.520721
 30
0.0
 11
313.647034
 21
206.379272
 31
0.0
210
0.0
220
0.0
230
1.0
  0
LINE
  5
308
100
AcDbEntity
  8
0
370
    35
390
0
 62
     7
 48
0.003232
100
AcDbLine
 10
313.647034
 20
206.520721
 30
0.0
 11
313.647034
 21
206.649994
 31
0.0
210
0.0
220
0.0
230
1.0
  0
LINE
  5
309
100
AcDbEntity
  8
0
370
    35
390
0
 62
     7
 48
0.002197
100
AcDbLine
 10
307.647034
 20
211.962128
 30
0.0
 11
307.647034
 21
212.049988
 31
0.0
210
0.0
220
0.0
230
1.0
  0
LINE
  5
30A
100
AcDbEntity
  8
0
370
    35
390
0
 62
     7
 48
0.012196
100
AcDbLine
 10
307.647034
 20
211.962128
 30
0.0
 11
307.647034
 21
211.474274
 31
0.0
210
0.0
220
0.0
230
1.0
  0
LINE
  5
30B
100
AcDbEntity
  8
0
370
    35
390
0
 62
     7
 48
0.120607
100
AcDbLine
 10
307.647034
 20
206.649994
 30
0.0
 11
307.647034
 21
211.474274
 31
0.0
210
0.0
220
0.0
230
1.0
  0
LINE
  5
30C
100
AcDbEntity
  8
0
370
    35
390
0
 62
     7
 48
0.003232
100
AcDbLine
 10
307.647034
 20
206.520721
 30
0.0
 11
307.647034
 21
206.649994
 31
0.0
210
0.0
220
0.0
230
1.0
  0
LINE
  5
30D
100
AcDbEntity
  8
0
370
    35
390
0
 62
     7
 48
0.003536
100
AcDbLine
 10
307.647034
 20
206.379272
 30
0.0
 11
307.647034
 21
206.520721
 31
0.0
210
0.0
220
0.0
230
1.0
  0
LINE
  5
30E
100
AcDbEntity
  8
0
370
    35
390
0
 62
     7
 48
0.000732
100
AcDbLine
 10
307.647034
 20
206.379272
 30
0.0
 11
307.647034
 21
206.350006
 31
0.0
210
0.0
220
0.0
230
1.0
  0
ARC
  5
30F
100
AcDbEntity
  8
0
370
    35
390
0
 62
     7
100
AcDbCircle
 10
308.147034
 20
206.350006
 30
0.0
 40
0.5
210
0.0
220
0.0
230
1.0
100
AcDbArc
 50
180.000009
 51
269.999997
  0
LINE
  5
310
100
AcDbEntity
  8
0
370
    35
390
0
 62
     7
 48
0.02125
100
AcDbLine
 10
308.147034
 20
205.850006
 30
0.0
 11
308.99704
 21
205.850006
 31
0.0
210
0.0
220
0.0
230
1.0
  0
ARC
  5
311
100
AcDbEntity
  8
0
370
    35
390
0
 62
     7
100
AcDbCircle
 10
308.147034
 20
206.350006
 30
0.0
 40
1.5
210
0.0
220
0.0
230
1.0
100
AcDbArc
 50
183.822551
 51
212.230947
  0
LINE
  5
312
100
AcDbEntity
  8
0
370
    35
390
0
 62
     7
 48
0.002502
100
AcDbLine
 10
306.650391
 20
206.25
 30
0.0
 11
306.647034
 21
206.350006
 31
0.0
210
0.0
220
0.0
230
1.0
  0
LINE
  5
313
100
AcDbEntity
  8
0
370
    35
390
0
 62
     7
 48
0.120607
100
AcDbLine
 10
306.647034
 20
206.649994
 30
0.0
 11
306.647034
 21
211.474274
 31
0.0
210
0.0
220
0.0
230
1.0
  0
LINE
  5
314
100
AcDbEntity
  8
0
370
    35
390
0
 62
     7
 48
0.012196
100
AcDbLine
 10
306.647034
 20
211.962128
 30
0.0
 11
306.647034
 21
211.474274
 31
0.0
210
0.0
220
0.0
230
1.0
  0
LINE
  5
315
100
AcDbEntity
  8
0
370
    35
390
0
 62
     7
 48
0.002197
100
AcDbLine
 10
306.647034
 20
212.049988
 30
0.0
 11
306.647034
 21
211.962128
 31
0.0
210
0.0
220
0.0
230
1.0
  0
LINE
  5
316
100
AcDbEntity
  8
0
370
    35
390
0
 62
     7
 48
0.000732
100
AcDbLine
 10
306.647034
 20
206.379272
 30
0.0
 11
306.647034
 21
206.350006
 31
0.0
210
0.0
220
0.0
230
1.0
  0
LINE
  5
317
100
AcDbEntity
  8
0
370
    35
390
0
 62
     7
 48
0.003536
100
AcDbLine
 10
306.647034
 20
206.520721
 30
0.0
 11
306.647034
 21
206.379272
 31
0.0
210
0.0
220
0.0
230
1.0
  0
LINE
  5
318
100
AcDbEntity
  8
0
370
    35
390
0
 62
     7
 48
0.003232
100
AcDbLine
 10
306.647034
 20
206.520721
 30
0.0
 11
306.647034
 21
206.649994
 31
0.0
210
0.0
220
0.0
230
1.0
  0
LINE
  5
319
100
AcDbEntity
  8
0
370
    35
390
0
 62
     7
 48
0.002197
100
AcDbLine
 10
164.647064
 20
211.962128
 30
0.0
 11
164.647064
 21
212.049988
 31
0.0
210
0.0
220
0.0
230
1.0
  0
LINE
  5
31A
100
AcDbEntity
  8
0
370
    35
390
0
 62
     7
 48
0.012196
100
AcDbLine
 10
164.647064
 20
211.962128
 30
0.0
 11
164.647064
 21
211.474274
 31
0.0
210
0.0
220
0.0
230
1.0
  0
LINE
  5
31B
100
AcDbEntity
  8
0
370
    35
390
0
 62
     7
 48
0.120607
100
AcDbLine
 10
164.647064
 20
206.649994
 30
0.0
 11
164.647064
 21
211.474274
 31
0.0
210
0.0
220
0.0
230
1.0
  0
LINE
  5
31C
100
AcDbEntity
  8
0
370
    35
390
0
 62
     7
 48
0.003232
100
AcDbLine
 10
164.647064
 20
206.520721
 30
0.0
 11
164.647064
 21
206.649994
 31
0.0
210
0.0
220
0.0
230
1.0
  0
LINE
  5
31D
100
AcDbEntity
  8
0
370
    35
390
0
 62
     7
 48
0.003536
100
AcDbLine
 10
164.647064
 20
206.379272
 30
0.0
 11
164.647064
 21
206.520721
 31
0.0
210
0.0
220
0.0
230
1.0
  0
LINE
  5
31E
100
AcDbEntity
  8
0
370
    35
390
0
 62
     7
 48
0.000732
100
AcDbLine
 10
164.647064
 20
206.379272
 30
0.0
 11
164.647064
 21
206.350006
 31
0.0
210
0.0
220
0.0
230
1.0
  0
ARC
  5
31F
100
AcDbEntity
  8
0
370
    35
390
0
 62
     7
100
AcDbCircle
 10
163.147064
 20
206.350006
 30
0.0
 40
1.5
210
0.0
220
0.0
230
1.0
100
AcDbArc
 50
314.454478
 51
356.177454
  0
LINE
  5
320
100
AcDbEntity
  8
0
370
    35
390
0
 62
     7
 48
0.002502
100
AcDbLine
 10
164.643707
 20
206.25
 30
0.0
 11
164.647064
 21
206.350006
 31
0.0
210
0.0
220
0.0
230
1.0
  0
LINE
  5
321
100
AcDbEntity
  8
0
370
    35
390
0
 62
     7
 48
0.02125
100
AcDbLine
 10
162.297058
 20
205.850006
 30
0.0
 11
163.147064
 21
205.850006
 31
0.0
210
0.0
220
0.0
230
1.0
  0
ARC
  5
322
100
AcDbEntity
  8
0
370
    35
390
0
 62
     7
100
AcDbCircle
 10
163.147064
 20
206.350006
 30
0.0
 40
0.5
210
0.0
220
0.0
230
1.0
100
AcDbArc
 50
269.999997
 51
360.0
  0
LINE
  5
323
100
AcDbEntity
  8
0
370
    35
390
0
 62
     7
 48
0.120607
100
AcDbLine
 10
163.647064
 20
206.649994
 30
0.0
 11
163.647064
 21
211.474274
 31
0.0
210
0.0
220
0.0
230
1.0
  0
LINE
  5
324
100
AcDbEntity
  8
0
370
    35
390
0
 62
     7
 48
0.012196
100
AcDbLine
 10
163.647064
 20
211.962128
 30
0.0
 11
163.647064
 21
211.474274
 31
0.0
210
0.0
220
0.0
230
1.0
  0
LINE
  5
325
100
AcDbEntity
  8
0
370
    35
390
0
 62
     7
 48
0.002197
100
AcDbLine
 10
163.647064
 20
212.049988
 30
0.0
 11
163.647064
 21
211.962128
 31
0.0
210
0.0
220
0.0
230
1.0
  0
LINE
  5
326
100
AcDbEntity
  8
0
370
    35
390
0
 62
     7
 48
0.000732
100
AcDbLine
 10
163.647064
 20
206.379272
 30
0.0
 11
163.647064
 21
206.350006
 31
0.0
210
0.0
220
0.0
230
1.0
  0
LINE
  5
327
100
AcDbEntity
  8
0
370
    35
390
0
 62
     7
 48
0.003536
100
AcDbLine
 10
163.647064
 20
206.520721
 30
0.0
 11
163.647064
 21
206.379272
 31
0.0
210
0.0
220
0.0
230
1.0
  0
LINE
  5
328
100
AcDbEntity
  8
0
370
    35
390
0
 62
     7
 48
0.003232
100
AcDbLine
 10
163.647064
 20
206.520721
 30
0.0
 11
163.647064
 21
206.649994
 31
0.0
210
0.0
220
0.0
230
1.0
  0
LINE
  5
329
100
AcDbEntity
  8
0
370
    35
390
0
 62
     7
 48
0.002197
100
AcDbLine
 10
157.647064
 20
211.962128
 30
0.0
 11
157.647064
 21
212.049988
 31
0.0
210
0.0
220
0.0
230
1.0
  0
LINE
  5
32A
100
AcDbEntity
  8
0
370
    35
390
0
 62
     7
 48
0.012196
100
AcDbLine
 10
157.647064
 20
211.962128
 30
0.0
 11
157.647064
 21
211.474274
 31
0.0
210
0.0
220
0.0
230
1.0
  0
LINE
  5
32B
100
AcDbEntity
  8
0
370
    35
390
0
 62
     7
 48
0.120607
100
AcDbLine
 10
157.647064
 20
206.649994
 30
0.0
 11
157.647064
 21
211.474274
 31
0.0
210
0.0
220
0.0
230
1.0
  0
LINE
  5
32C
100
AcDbEntity
  8
0
370
    35
390
0
 62
     7
 48
0.003232
100
AcDbLine
 10
157.647064
 20
206.520721
 30
0.0
 11
157.647064
 21
206.649994
 31
0.0
210
0.0
220
0.0
230
1.0
  0
LINE
  5
32D
100
AcDbEntity
  8
0
370
    35
390
0
 62
     7
 48
0.003536
100
AcDbLine
 10
157.647064
 20
206.379272
 30
0.0
 11
157.647064
 21
206.520721
 31
0.0
210
0.0
220
0.0
230
1.0
  0
LINE
  5
32E
100
AcDbEntity
  8
0
370
    35
390
0
 62
     7
 48
0.000732
100
AcDbLine
 10
157.647064
 20
206.379272
 30
0.0
 11
157.647064
 21
206.350006
 31
0.0
210
0.0
220
0.0
230
1.0
  0
ARC
  5
32F
100
AcDbEntity
  8
0
370
    35
390
0
 62
     7
100
AcDbCircle
 10
158.147064
 20
206.350006
 30
0.0
 40
0.5
210
0.0
220
0.0
230
1.0
100
AcDbArc
 50
180.000009
 51
269.999997
  0
LINE
  5
330
100
AcDbEntity
  8
0
370
    35
390
0
 62
     7
 48
0.021249
100
AcDbLine
 10
158.147064
 20
205.850006
 30
0.0
 11
158.99704
 21
205.850006
 31
0.0
210
0.0
220
0.0
230
1.0
  0
ARC
  5
331
100
AcDbEntity
  8
0
370
    35
390
0
 62
     7
100
AcDbCircle
 10
158.147064
 20
206.350006
 30
0.0
 40
1.5
210
0.0
220
0.0
230
1.0
100
AcDbArc
 50
183.822551
 51
212.230947
  0
LINE
  5
332
100
AcDbEntity
  8
0
370
    35
390
0
 62
     7
 48
0.002502
100
AcDbLine
 10
156.650391
 20
206.25
 30
0.0
 11
156.647064
 21
206.350006
 31
0.0
210
0.0
220
0.0
230
1.0
  0
LINE
  5
333
100
AcDbEntity
  8
0
370
    35
390
0
 62
     7
 48
0.000732
100
AcDbLine
 10
156.647064
 20
206.379272
 30
0.0
 11
156.647064
 21
206.350006
 31
0.0
210
0.0
220
0.0
230
1.0
  0
LINE
  5
334
100
AcDbEntity
  8
0
370
    35
390
0
 62
     7
 48
0.003536
100
AcDbLine
 10
156.647064
 20
206.520721
 30
0.0
 11
156.647064
 21
206.379272
 31
0.0
210
0.0
220
0.0
230
1.0
  0
LINE
  5
335
100
AcDbEntity
  8
0
370
    35
390
0
 62
     7
 48
0.003232
100
AcDbLine
 10
156.647064
 20
206.520721
 30
0.0
 11
156.647064
 21
206.649994
 31
0.0
210
0.0
220
0.0
230
1.0
  0
LINE
  5
336
100
AcDbEntity
  8
0
370
    35
390
0
 62
     7
 48
0.017117
100
AcDbLine
 10
83.647057
 20
211.596436
 30
0.0
 11
83.647057
 21
212.281128
 31
0.0
210
0.0
220
0.0
230
1.0
  0
LINE
  5
337
100
AcDbEntity
  8
0
370
    35
390
0
 62
     7
 48
0.008839
100
AcDbLine
 10
83.647057
 20
211.242889
 30
0.0
 11
83.647057
 21
211.596436
 31
0.0
210
0.0
220
0.0
230
1.0
  0
LINE
  5
338
100
AcDbEntity
  8
0
370
    35
390
0
 62
     7
100
AcDbLine
 10
83.647057
 20
184.149994
 30
0.0
 11
83.647057
 21
211.242889
 31
0.0
210
0.0
220
0.0
230
1.0
  0
LINE
  5
339
100
AcDbEntity
  8
0
370
    35
390
0
 62
     7
 48
0.0125
100
AcDbLine
 10
83.647057
 20
183.649994
 30
0.0
 11
83.647057
 21
184.149994
 31
0.0
210
0.0
220
0.0
230
1.0
  0
LINE
  5
33A
100
AcDbEntity
  8
0
370
    35
390
0
 62
     7
 48
0.064222
100
AcDbLine
 10
387.647034
 20
214.850006
 30
0.0
 11
387.647034
 21
212.281128
 31
0.0
210
0.0
220
0.0
230
1.0
  0
LINE
  5
33B
100
AcDbEntity
  8
0
370
    35
390
0
 62
     7
100
AcDbLine
 10
83.647057
 20
214.850006
 30
0.0
 11
387.647034
 21
214.850006
 31
0.0
210
0.0
220
0.0
230
1.0
  0
LINE
  5
33C
100
AcDbEntity
  8
0
370
    35
390
0
 62
     7
 48
0.064222
100
AcDbLine
 10
83.647057
 20
214.850006
 30
0.0
 11
83.647057
 21
212.281128
 31
0.0
210
0.0
220
0.0
230
1.0
  0
LINE
  5
33D
100
AcDbEntity
  8
0
370
    35
390
0
 62
     7
 48
0.0125
100
AcDbLine
 10
387.647034
 20
185.350006
 30
0.0
 11
387.147034
 21
185.350006
 31
0.0
210
0.0
220
0.0
230
1.0
  0
LINE
  5
33E
100
AcDbEntity
  8
0
370
    35
390
0
 62
     7
100
AcDbLine
 10
371.054077
 20
205.549988
 30
0.0
 11
314.415894
 21
205.549988
 31
0.0
210
0.0
220
0.0
230
1.0
  0
LINE
  5
33F
100
AcDbEntity
  8
0
370
    35
390
0
 62
     7
100
AcDbLine
 10
371.465729
 20
206.25
 30
0.0
 11
314.643707
 21
206.25
 31
0.0
210
0.0
220
0.0
230
1.0
  0
LINE
  5
340
100
AcDbEntity
  8
0
370
    35
390
0
 62
     7
 48
0.059587
100
AcDbLine
 10
311.838776
 20
205.549988
 30
0.0
 11
309.455292
 21
205.549988
 31
0.0
210
0.0
220
0.0
230
1.0
  0
LINE
  5
341
100
AcDbEntity
  8
0
370
    35
390
0
 62
     7
 48
0.052386
100
AcDbLine
 10
313.636932
 20
206.25
 30
0.0
 11
311.541473
 21
206.25
 31
0.0
210
0.0
220
0.0
230
1.0
  0
ARC
  5
342
100
AcDbEntity
  8
0
370
    35
390
0
 62
     7
100
AcDbCircle
 10
310.647034
 20
208.149994
 30
0.0
 40
2.1
210
0.0
220
0.0
230
1.0
100
AcDbArc
 50
237.479124
 51
295.208757
  0
LINE
  5
343
100
AcDbEntity
  8
0
370
    35
390
0
 62
     7
 48
0.052387
100
AcDbLine
 10
309.752625
 20
206.25
 30
0.0
 11
307.657135
 21
206.25
 31
0.0
210
0.0
220
0.0
230
1.0
  0
LINE
  5
344
100
AcDbEntity
  8
0
370
    35
390
0
 62
     7
 48
0.059587
100
AcDbLine
 10
161.838806
 20
205.549988
 30
0.0
 11
159.455322
 21
205.549988
 31
0.0
210
0.0
220
0.0
230
1.0
  0
LINE
  5
345
100
AcDbEntity
  8
0
370
    35
390
0
 62
     7
 48
0.052387
100
AcDbLine
 10
163.636963
 20
206.25
 30
0.0
 11
161.541473
 21
206.25
 31
0.0
210
0.0
220
0.0
230
1.0
  0
ARC
  5
346
100
AcDbEntity
  8
0
370
    35
390
0
 62
     7
100
AcDbCircle
 10
160.647064
 20
208.149994
 30
0.0
 40
2.1
210
0.0
220
0.0
230
1.0
100
AcDbArc
 50
237.479124
 51
295.208757
  0
LINE
  5
347
100
AcDbEntity
  8
0
370
    35
390
0
 62
     7
 48
0.052386
100
AcDbLine
 10
159.752625
 20
206.25
 30
0.0
 11
157.657166
 21
206.25
 31
0.0
210
0.0
220
0.0
230
1.0
  0
LINE
  5
348
100
AcDbEntity
  8
0
370
    35
390
0
 62
     7
100
AcDbLine
 10
156.650391
 20
206.25
 30
0.0
 11
99.828369
 21
206.25
 31
0.0
210
0.0
220
0.0
230
1.0
  0
LINE
  5
349
100
AcDbEntity
  8
0
370
    35
390
0
 62
     7
100
AcDbLine
 10
156.878204
 20
205.549988
 30
0.0
 11
100.240013
 21
205.549988
 31
0.0
210
0.0
220
0.0
230
1.0
  0
LINE
  5
34A
100
AcDbEntity
  8
0
370
    35
390
0
 62
     7
 48
0.0125
100
AcDbLine
 10
83.647057
 20
185.350006
 30
0.0
 11
84.147057
 21
185.350006
 31
0.0
210
0.0
220
0.0
230
1.0
  0
LINE
  5
34B
100
AcDbEntity
  8
0
370
    35
390
0
 62
     7
 48
0.093341
100
AcDbLine
 10
308.334534
 20
185.180359
 30
0.0
 11
309.634521
 21
188.680359
 31
0.0
210
0.0
220
0.0
230
1.0
  0
ARC
  5
34C
100
AcDbEntity
  8
0
370
    35
390
0
 62
     7
100
AcDbCircle
 10
308.147034
 20
185.25
 30
0.0
 40
0.2
210
0.0
220
0.0
230
1.0
100
AcDbArc
 50
200.37643
 51
339.623562
  0
LINE
  5
34D
100
AcDbEntity
  8
0
370
    35
390
0
 62
     7
 48
0.093341
100
AcDbLine
 10
306.659546
 20
188.680359
 30
0.0
 11
307.959564
 21
185.180359
 31
0.0
210
0.0
220
0.0
230
1.0
  0
ARC
  5
34E
100
AcDbEntity
  8
0
370
    35
390
0
 62
     7
100
AcDbCircle
 10
306.847046
 20
188.75
 30
0.0
 40
0.2
210
0.0
220
0.0
230
1.0
100
AcDbArc
 50
90.000003
 51
200.37643
  0
LINE
  5
34F
100
AcDbEntity
  8
0
370
    35
390
0
 62
     7
 48
0.065
100
AcDbLine
 10
309.447052
 20
188.949997
 30
0.0
 11
306.847046
 21
188.949997
 31
0.0
210
0.0
220
0.0
230
1.0
  0
ARC
  5
350
100
AcDbEntity
  8
0
370
    35
390
0
 62
     7
100
AcDbCircle
 10
309.447052
 20
188.75
 30
0.0
 40
0.2
210
0.0
220
0.0
230
1.0
100
AcDbArc
 50
339.623562
 51
90.000003
  0
LINE
  5
351
100
AcDbEntity
  8
0
370
    35
390
0
 62
     7
 48
0.093341
100
AcDbLine
 10
138.334534
 20
185.180359
 30
0.0
 11
139.634552
 21
188.680359
 31
0.0
210
0.0
220
0.0
230
1.0
  0
ARC
  5
352
100
AcDbEntity
  8
0
370
    35
390
0
 62
     7
100
AcDbCircle
 10
138.147064
 20
185.25
 30
0.0
 40
0.2
210
0.0
220
0.0
230
1.0
100
AcDbArc
 50
200.37643
 51
339.623562
  0
LINE
  5
353
100
AcDbEntity
  8
0
370
    35
390
0
 62
     7
 48
0.093341
100
AcDbLine
 10
136.659576
 20
188.680359
 30
0.0
 11
137.959564
 21
185.180359
 31
0.0
210
0.0
220
0.0
230
1.0
  0
ARC
  5
354
100
AcDbEntity
  8
0
370
    35
390
0
 62
     7
100
AcDbCircle
 10
136.847046
 20
188.75
 30
0.0
 40
0.2
210
0.0
220
0.0
230
1.0
100
AcDbArc
 50
90.000003
 51
200.37643
  0
LINE
  5
355
100
AcDbEntity
  8
0
370
    35
390
0
 62
     7
 48
0.065
100
AcDbLine
 10
139.447052
 20
188.949997
 30
0.0
 11
136.847046
 21
188.949997
 31
0.0
210
0.0
220
0.0
230
1.0
  0
ARC
  5
356
100
AcDbEntity
  8
0
370
    35
390
0
 62
     7
100
AcDbCircle
 10
139.447052
 20
188.75
 30
0.0
 40
0.2
210
0.0
220
0.0
230
1.0
100
AcDbArc
 50
339.623562
 51
90.000003
  0
LINE
  5
357
100
AcDbEntity
  8
0
370
    35
390
0
 62
     7
 48
0.025
100
AcDbLine
 10
388.647034
 20
183.649994
 30
0.0
 11
387.647034
 21
183.649994
 31
0.0
210
0.0
220
0.0
230
1.0
  0
LINE
  5
358
100
AcDbEntity
  8
0
370
    35
390
0
 62
     7
 48
0.0125
100
AcDbLine
 10
387.147034
 20
183.850006
 30
0.0
 11
387.647034
 21
183.850006
 31
0.0
210
0.0
220
0.0
230
1.0
  0
LINE
  5
359
100
AcDbEntity
  8
0
370
    35
390
0
 62
     7
 48
0.003151
100
AcDbLine
 10
311.541473
 20
206.25
 30
0.0
 11
311.653839
 21
206.307068
 31
0.0
210
0.0
220
0.0
230
1.0
  0
ARC
  5
35A
100
AcDbEntity
  8
0
370
    35
390
0
 62
     7
100
AcDbCircle
 10
310.647034
 20
208.149994
 30
0.0
 40
2.1
210
0.0
220
0.0
230
1.0
100
AcDbArc
 50
298.647887
 51
314.415304
  0
LINE
  5
35B
100
AcDbEntity
  8
0
370
    35
390
0
 62
     7
 48
0.038258
100
AcDbLine
 10
309.177338
 20
206.649994
 30
0.0
 11
307.647034
 21
206.649994
 31
0.0
210
0.0
220
0.0
230
1.0
  0
ARC
  5
35C
100
AcDbEntity
  8
0
370
    35
390
0
 62
     7
100
AcDbCircle
 10
310.647034
 20
208.149994
 30
0.0
 40
2.1
210
0.0
220
0.0
230
1.0
100
AcDbArc
 50
314.415304
 51
237.479124
  0
LINE
  5
35D
100
AcDbEntity
  8
0
370
    35
390
0
 62
     7
 48
0.038258
100
AcDbLine
 10
313.647034
 20
206.649994
 30
0.0
 11
312.11673
 21
206.649994
 31
0.0
210
0.0
220
0.0
230
1.0
  0
LINE
  5
35E
100
AcDbEntity
  8
0
370
    35
390
0
 62
     7
 48
0.15
100
AcDbLine
 10
313.647034
 20
211.474274
 30
0.0
 11
307.647034
 21
211.474274
 31
0.0
210
0.0
220
0.0
230
1.0
  0
LINE
  5
35F
100
AcDbEntity
  8
0
370
    35
390
0
 62
     7
100
AcDbLine
 10
306.878174
 20
205.549988
 30
0.0
 11
164.415924
 21
205.549988
 31
0.0
210
0.0
220
0.0
230
1.0
  0
LINE
  5
360
100
AcDbEntity
  8
0
370
    35
390
0
 62
     7
100
AcDbLine
 10
306.650391
 20
206.25
 30
0.0
 11
164.643707
 21
206.25
 31
0.0
210
0.0
220
0.0
230
1.0
  0
LINE
  5
361
100
AcDbEntity
  8
0
370
    35
390
0
 62
     7
100
AcDbLine
 10
306.647034
 20
206.649994
 30
0.0
 11
164.647064
 21
206.649994
 31
0.0
210
0.0
220
0.0
230
1.0
  0
LINE
  5
362
100
AcDbEntity
  8
0
370
    35
390
0
 62
     7
100
AcDbLine
 10
306.647034
 20
211.474274
 30
0.0
 11
164.647064
 21
211.474274
 31
0.0
210
0.0
220
0.0
230
1.0
  0
LINE
  5
363
100
AcDbEntity
  8
0
370
    35
390
0
 62
     7
 48
0.003151
100
AcDbLine
 10
161.541473
 20
206.25
 30
0.0
 11
161.653839
 21
206.307068
 31
0.0
210
0.0
220
0.0
230
1.0
  0
ARC
  5
364
100
AcDbEntity
  8
0
370
    35
390
0
 62
     7
100
AcDbCircle
 10
160.647064
 20
208.149994
 30
0.0
 40
2.1
210
0.0
220
0.0
230
1.0
100
AcDbArc
 50
298.647887
 51
314.415304
  0
ARC
  5
365
100
AcDbEntity
  8
0
370
    35
390
0
 62
     7
100
AcDbCircle
 10
160.647064
 20
208.149994
 30
0.0
 40
2.1
210
0.0
220
0.0
230
1.0
100
AcDbArc
 50
314.415304
 51
237.479124
  0
LINE
  5
366
100
AcDbEntity
  8
0
370
    35
390
0
 62
     7
 48
0.038258
100
AcDbLine
 10
163.647064
 20
206.649994
 30
0.0
 11
162.11676
 21
206.649994
 31
0.0
210
0.0
220
0.0
230
1.0
  0
LINE
  5
367
100
AcDbEntity
  8
0
370
    35
390
0
 62
     7
 48
0.15
100
AcDbLine
 10
163.647064
 20
211.474274
 30
0.0
 11
157.647064
 21
211.474274
 31
0.0
210
0.0
220
0.0
230
1.0
  0
LINE
  5
368
100
AcDbEntity
  8
0
370
    35
390
0
 62
     7
 48
0.038258
100
AcDbLine
 10
159.177368
 20
206.649994
 30
0.0
 11
157.647064
 21
206.649994
 31
0.0
210
0.0
220
0.0
230
1.0
  0
LINE
  5
369
100
AcDbEntity
  8
0
370
    35
390
0
 62
     7
 48
0.025
100
AcDbLine
 10
82.647057
 20
183.649994
 30
0.0
 11
83.647057
 21
183.649994
 31
0.0
210
0.0
220
0.0
230
1.0
  0
LINE
  5
36A
100
AcDbEntity
  8
0
370
    35
390
0
 62
     7
 48
0.0125
100
AcDbLine
 10
83.647057
 20
183.850006
 30
0.0
 11
84.147057
 21
183.850006
 31
0.0
210
0.0
220
0.0
230
1.0
  0
CIRCLE
  5
36B
100
AcDbEntity
  8
0
370
    35
390
0
 62
     7
100
AcDbCircle
 10
378.147034
 20
201.850006
 30
0.0
 40
4.5
210
0.0
220
0.0
230
1.0
  0
CIRCLE
  5
36C
100
AcDbEntity
  8
0
370
    35
390
0
 62
     7
100
AcDbCircle
 10
93.147057
 20
201.850006
 30
0.0
 40
4.5
210
0.0
220
0.0
230
1.0
  0
ARC
  5
36D
100
AcDbEntity
  8
0
370
    35
390
0
 62
     7
100
AcDbCircle
 10
388.647034
 20
184.649994
 30
0.0
 40
1.0
210
0.0
220
0.0
230
1.0
100
AcDbArc
 50
269.999997
 51
360.0
  0
LINE
  5
36E
100
AcDbEntity
  8
0
370
    35
390
0
 62
     7
100
AcDbLine
 10
389.647034
 20
211.035797
 30
0.0
 11
389.647034
 21
184.649994
 31
0.0
210
0.0
220
0.0
230
1.0
  0
LINE
  5
36F
100
AcDbEntity
  8
0
370
    35
390
0
 62
     7
 48
0.01739
100
AcDbLine
 10
389.647034
 20
211.731415
 30
0.0
 11
389.647034
 21
211.035797
 31
0.0
210
0.0
220
0.0
230
1.0
  0
LINE
  5
370
100
AcDbEntity
  8
0
370
    35
390
0
 62
     7
 48
0.01739
100
AcDbLine
 10
81.647057
 20
211.035797
 30
0.0
 11
81.647057
 21
211.731415
 31
0.0
210
0.0
220
0.0
230
1.0
  0
LINE
  5
371
100
AcDbEntity
  8
0
370
    35
390
0
 62
     7
100
AcDbLine
 10
81.647057
 20
184.649994
 30
0.0
 11
81.647057
 21
211.035797
 31
0.0
210
0.0
220
0.0
230
1.0
  0
ARC
  5
372
100
AcDbEntity
  8
0
370
    35
390
0
 62
     7
100
AcDbCircle
 10
82.647057
 20
184.649994
 30
0.0
 40
1.0
210
0.0
220
0.0
230
1.0
100
AcDbArc
 50
180.000009
 51
269.999997
  0
LINE
  5
373
100
AcDbEntity
  8
0
370
    35
390
0
 62
     7
 48
0.025
100
AcDbLine
 10
388.647034
 20
214.649994
 30
0.0
 11
387.647034
 21
214.649994
 31
0.0
210
0.0
220
0.0
230
1.0
  0
LINE
  5
374
100
AcDbEntity
  8
0
370
    35
390
0
 62
     7
 48
0.025
100
AcDbLine
 10
82.647057
 20
214.649994
 30
0.0
 11
83.647057
 21
214.649994
 31
0.0
210
0.0
220
0.0
230
1.0
  0
LINE
  5
375
100
AcDbEntity
  8
0
370
    35
390
0
 62
     7
 48
0.014363
100
AcDbLine
 10
389.647034
 20
212.305939
 30
0.0
 11
389.647034
 21
211.731415
 31
0.0
210
0.0
220
0.0
230
1.0
  0
LINE
  5
376
100
AcDbEntity
  8
0
370
    35
390
0
 62
     7
 48
0.033601
100
AcDbLine
 10
389.647034
 20
213.649994
 30
0.0
 11
389.647034
 21
212.305939
 31
0.0
210
0.0
220
0.0
230
1.0
  0
LINE
  5
377
100
AcDbEntity
  8
0
370
    35
390
0
 62
     7
 48
0.014363
100
AcDbLine
 10
81.647057
 20
211.731415
 30
0.0
 11
81.647057
 21
212.305939
 31
0.0
210
0.0
220
0.0
230
1.0
  0
LINE
  5
378
100
AcDbEntity
  8
0
370
    35
390
0
 62
     7
 48
0.033601
100
AcDbLine
 10
81.647057
 20
212.305939
 30
0.0
 11
81.647057
 21
213.649994
 31
0.0
210
0.0
220
0.0
230
1.0
  0
ARC
  5
379
100
AcDbEntity
  8
0
370
    35
390
0
 62
     7
100
AcDbCircle
 10
378.147034
 20
202.549988
 30
0.0
 40
12.8
210
0.0
220
0.0
230
1.0
100
AcDbArc
 50
73.932611
 51
106.067387
  0
ARC
  5
37A
100
AcDbEntity
  8
0
370
    35
390
0
 62
     7
100
AcDbCircle
 10
93.147057
 20
202.549988
 30
0.0
 40
12.8
210
0.0
220
0.0
230
1.0
100
AcDbArc
 50
73.932611
 51
106.067387
  0
ARC
  5
37B
100
AcDbEntity
  8
0
370
    35
390
0
 62
     7
100
AcDbCircle
 10
388.647034
 20
213.649994
 30
0.0
 40
1.0
210
0.0
220
0.0
230
1.0
100
AcDbArc
 50
0.0
 51
90.000003
  0
ARC
  5
37C
100
AcDbEntity
  8
0
370
    35
390
0
 62
     7
100
AcDbCircle
 10
82.647057
 20
213.649994
 30
0.0
 40
1.0
210
0.0
220
0.0
230
1.0
100
AcDbArc
 50
90.000003
 51
180.000009
  0
CIRCLE
  5
37D
100
AcDbEntity
  8
0
370
    35
390
0
 62
     7
100
AcDbCircle
 10
310.647034
 20
208.149994
 30
0.0
 40
2.0
210
0.0
220
0.0
230
1.0
  0
CIRCLE
  5
37E
100
AcDbEntity
  8
0
370
    35
390
0
 62
     7
100
AcDbCircle
 10
160.647064
 20
208.149994
 30
0.0
 40
2.0
210
0.0
220
0.0
230
1.0
  0
LINE
  5
37F
100
AcDbEntity
  8
0
370
    35
390
0
 62
     7
 48
0.0125
100
AcDbLine
 10
310.847046
 20
208.850006
 30
0.0
 11
310.847046
 21
209.350006
 31
0.0
210
0.0
220
0.0
230
1.0
  0
LINE
  5
380
100
AcDbEntity
  8
0
370
    35
390
0
 62
     7
 48
0.01
100
AcDbLine
 10
310.847046
 20
209.350006
 30
0.0
 11
310.447052
 21
209.350006
 31
0.0
210
0.0
220
0.0
230
1.0
  0
LINE
  5
381
100
AcDbEntity
  8
0
370
    35
390
0
 62
     7
 48
0.0125
100
AcDbLine
 10
310.447052
 20
209.350006
 30
0.0
 11
310.447052
 21
208.850006
 31
0.0
210
0.0
220
0.0
230
1.0
  0
ARC
  5
382
100
AcDbEntity
  8
0
370
    35
390
0
 62
     7
100
AcDbCircle
 10
309.947052
 20
208.850006
 30
0.0
 40
0.5
210
0.0
220
0.0
230
1.0
100
AcDbArc
 50
269.999997
 51
360.0
  0
LINE
  5
383
100
AcDbEntity
  8
0
370
    35
390
0
 62
     7
 48
0.0125
100
AcDbLine
 10
309.947052
 20
208.350006
 30
0.0
 11
309.447052
 21
208.350006
 31
0.0
210
0.0
220
0.0
230
1.0
  0
LINE
  5
384
100
AcDbEntity
  8
0
370
    35
390
0
 62
     7
 48
0.01
100
AcDbLine
 10
309.447052
 20
208.350006
 30
0.0
 11
309.447052
 21
207.950012
 31
0.0
210
0.0
220
0.0
230
1.0
  0
LINE
  5
385
100
AcDbEntity
  8
0
370
    35
390
0
 62
     7
 48
0.0125
100
AcDbLine
 10
309.447052
 20
207.950012
 30
0.0
 11
309.947052
 21
207.950012
 31
0.0
210
0.0
220
0.0
230
1.0
  0
ARC
  5
386
100
AcDbEntity
  8
0
370
    35
390
0
 62
     7
100
AcDbCircle
 10
309.947052
 20
207.450012
 30
0.0
 40
0.5
210
0.0
220
0.0
230
1.0
100
AcDbArc
 50
0.0
 51
90.000003
  0
LINE
  5
387
100
AcDbEntity
  8
0
370
    35
390
0
 62
     7
 48
0.0125
100
AcDbLine
 10
310.447052
 20
207.450012
 30
0.0
 11
310.447052
 21
206.950012
 31
0.0
210
0.0
220
0.0
230
1.0
  0
LINE
  5
388
100
AcDbEntity
  8
0
370
    35
390
0
 62
     7
 48
0.01
100
AcDbLine
 10
310.447052
 20
206.950012
 30
0.0
 11
310.847046
 21
206.950012
 31
0.0
210
0.0
220
0.0
230
1.0
  0
LINE
  5
389
100
AcDbEntity
  8
0
370
    35
390
0
 62
     7
 48
0.0125
100
AcDbLine
 10
310.847046
 20
206.950012
 30
0.0
 11
310.847046
 21
207.450012
 31
0.0
210
0.0
220
0.0
230
1.0
  0
ARC
  5
38A
100
AcDbEntity
  8
0
370
    35
390
0
 62
     7
100
AcDbCircle
 10
311.347046
 20
207.450012
 30
0.0
 40
0.5
210
0.0
220
0.0
230
1.0
100
AcDbArc
 50
90.000003
 51
180.000009
  0
LINE
  5
38B
100
AcDbEntity
  8
0
370
    35
390
0
 62
     7
 48
0.0125
100
AcDbLine
 10
311.347046
 20
207.950012
 30
0.0
 11
311.847046
 21
207.950012
 31
0.0
210
0.0
220
0.0
230
1.0
  0
LINE
  5
38C
100
AcDbEntity
  8
0
370
    35
390
0
 62
     7
 48
0.01
100
AcDbLine
 10
311.847046
 20
207.950012
 30
0.0
 11
311.847046
 21
208.350006
 31
0.0
210
0.0
220
0.0
230
1.0
  0
LINE
  5
38D
100
AcDbEntity
  8
0
370
    35
390
0
 62
     7
 48
0.0125
100
AcDbLine
 10
311.847046
 20
208.350006
 30
0.0
 11
311.347046
 21
208.350006
 31
0.0
210
0.0
220
0.0
230
1.0
  0
ARC
  5
38E
100
AcDbEntity
  8
0
370
    35
390
0
 62
     7
100
AcDbCircle
 10
311.347046
 20
208.850006
 30
0.0
 40
0.5
210
0.0
220
0.0
230
1.0
100
AcDbArc
 50
180.000009
 51
269.999997
  0
LINE
  5
38F
100
AcDbEntity
  8
0
370
    35
390
0
 62
     7
 48
0.0125
100
AcDbLine
 10
160.847046
 20
208.850006
 30
0.0
 11
160.847046
 21
209.350006
 31
0.0
210
0.0
220
0.0
230
1.0
  0
LINE
  5
390
100
AcDbEntity
  8
0
370
    35
390
0
 62
     7
 48
0.01
100
AcDbLine
 10
160.847046
 20
209.350006
 30
0.0
 11
160.447052
 21
209.350006
 31
0.0
210
0.0
220
0.0
230
1.0
  0
LINE
  5
391
100
AcDbEntity
  8
0
370
    35
390
0
 62
     7
 48
0.0125
100
AcDbLine
 10
160.447052
 20
209.350006
 30
0.0
 11
160.447052
 21
208.850006
 31
0.0
210
0.0
220
0.0
230
1.0
  0
ARC
  5
392
100
AcDbEntity
  8
0
370
    35
390
0
 62
     7
100
AcDbCircle
 10
159.947052
 20
208.850006
 30
0.0
 40
0.5
210
0.0
220
0.0
230
1.0
100
AcDbArc
 50
269.999997
 51
360.0
  0
LINE
  5
393
100
AcDbEntity
  8
0
370
    35
390
0
 62
     7
 48
0.0125
100
AcDbLine
 10
159.947052
 20
208.350006
 30
0.0
 11
159.447052
 21
208.350006
 31
0.0
210
0.0
220
0.0
230
1.0
  0
LINE
  5
394
100
AcDbEntity
  8
0
370
    35
390
0
 62
     7
 48
0.01
100
AcDbLine
 10
159.447052
 20
208.350006
 30
0.0
 11
159.447052
 21
207.950012
 31
0.0
210
0.0
220
0.0
230
1.0
  0
LINE
  5
395
100
AcDbEntity
  8
0
370
    35
390
0
 62
     7
 48
0.0125
100
AcDbLine
 10
159.447052
 20
207.950012
 30
0.0
 11
159.947052
 21
207.950012
 31
0.0
210
0.0
220
0.0
230
1.0
  0
ARC
  5
396
100
AcDbEntity
  8
0
370
    35
390
0
 62
     7
100
AcDbCircle
 10
159.947052
 20
207.450012
 30
0.0
 40
0.5
210
0.0
220
0.0
230
1.0
100
AcDbArc
 50
0.0
 51
90.000003
  0
LINE
  5
397
100
AcDbEntity
  8
0
370
    35
390
0
 62
     7
 48
0.0125
100
AcDbLine
 10
160.447052
 20
207.450012
 30
0.0
 11
160.447052
 21
206.950012
 31
0.0
210
0.0
220
0.0
230
1.0
  0
LINE
  5
398
100
AcDbEntity
  8
0
370
    35
390
0
 62
     7
 48
0.01
100
AcDbLine
 10
160.447052
 20
206.950012
 30
0.0
 11
160.847046
 21
206.950012
 31
0.0
210
0.0
220
0.0
230
1.0
  0
LINE
  5
399
100
AcDbEntity
  8
0
370
    35
390
0
 62
     7
 48
0.0125
100
AcDbLine
 10
160.847046
 20
206.950012
 30
0.0
 11
160.847046
 21
207.450012
 31
0.0
210
0.0
220
0.0
230
1.0
  0
ARC
  5
39A
100
AcDbEntity
  8
0
370
    35
390
0
 62
     7
100
AcDbCircle
 10
161.347046
 20
207.450012
 30
0.0
 40
0.5
210
0.0
220
0.0
230
1.0
100
AcDbArc
 50
90.000003
 51
180.000009
  0
LINE
  5
39B
100
AcDbEntity
  8
0
370
    35
390
0
 62
     7
 48
0.0125
100
AcDbLine
 10
161.347046
 20
207.950012
 30
0.0
 11
161.847046
 21
207.950012
 31
0.0
210
0.0
220
0.0
230
1.0
  0
LINE
  5
39C
100
AcDbEntity
  8
0
370
    35
390
0
 62
     7
 48
0.01
100
AcDbLine
 10
161.847046
 20
207.950012
 30
0.0
 11
161.847046
 21
208.350006
 31
0.0
210
0.0
220
0.0
230
1.0
  0
LINE
  5
39D
100
AcDbEntity
  8
0
370
    35
390
0
 62
     7
 48
0.0125
100
AcDbLine
 10
161.847046
 20
208.350006
 30
0.0
 11
161.347046
 21
208.350006
 31
0.0
210
0.0
220
0.0
230
1.0
  0
ARC
  5
39E
100
AcDbEntity
  8
0
370
    35
390
0
 62
     7
100
AcDbCircle
 10
161.347046
 20
208.850006
 30
0.0
 40
0.5
210
0.0
220
0.0
230
1.0
100
AcDbArc
 50
180.000009
 51
269.999997
  0
LINE
  5
39F
100
AcDbEntity
  8
0
370
    35
390
0
 62
     7
 48
0.0725
100
AcDbLine
 10
389.647034
 20
188.299988
 30
0.0
 11
389.647034
 21
191.199997
 31
0.0
210
0.0
220
0.0
230
1.0
  0
LINE
  5
3A0
100
AcDbEntity
  8
0
370
    35
390
0
 62
     7
 48
0.0725
100
AcDbLine
 10
389.647034
 20
192.5
 30
0.0
 11
389.647034
 21
195.399994
 31
0.0
210
0.0
220
0.0
230
1.0
  0
LINE
  5
3A1
100
AcDbEntity
  8
0
370
    35
390
0
 62
     7
100
AcDbLine
 10
314.647034
 20
212.049988
 30
0.0
 11
387.147034
 21
212.049988
 31
0.0
210
0.0
220
0.0
230
1.0
  0
LINE
  5
3A2
100
AcDbEntity
  8
0
370
    35
390
0
 62
     7
100
AcDbLine
 10
84.147057
 20
212.049988
 30
0.0
 11
156.647064
 21
212.049988
 31
0.0
210
0.0
220
0.0
230
1.0
  0
LINE
  5
3A3
100
AcDbEntity
  8
0
370
    35
390
0
 62
     7
 48
0.15
100
AcDbLine
 10
307.647034
 20
212.049988
 30
0.0
 11
313.647034
 21
212.049988
 31
0.0
210
0.0
220
0.0
230
1.0
  0
LINE
  5
3A4
100
AcDbEntity
  8
0
370
    35
390
0
 62
     7
100
AcDbLine
 10
164.647064
 20
212.049988
 30
0.0
 11
306.647034
 21
212.049988
 31
0.0
210
0.0
220
0.0
230
1.0
  0
LINE
  5
3A5
100
AcDbEntity
  8
0
370
    35
390
0
 62
     7
 48
0.15
100
AcDbLine
 10
157.647064
 20
212.049988
 30
0.0
 11
163.647064
 21
212.049988
 31
0.0
210
0.0
220
0.0
230
1.0
  0
LINE
  5
3A6
100
AcDbEntity
  8
0
370
    35
390
0
 62
     7
 48
0.007253
100
AcDbLine
 10
217.047058
 20
181.349884
 30
0.0
 11
217.047058
 21
181.639984
 31
0.0
210
0.0
220
0.0
230
1.0
  0
LINE
  5
3A7
100
AcDbEntity
  8
0
370
    35
390
0
 62
     7
 48
0.007129
100
AcDbLine
 10
217.047058
 20
181.639984
 30
0.0
 11
216.847046
 21
181.843231
 31
0.0
210
0.0
220
0.0
230
1.0
  0
LINE
  5
3A8
100
AcDbEntity
  8
0
370
    35
390
0
 62
     7
 48
0.00835
100
AcDbLine
 10
216.847046
 20
181.509216
 30
0.0
 11
216.847046
 21
181.843231
 31
0.0
210
0.0
220
0.0
230
1.0
  0
LINE
  5
3A9
100
AcDbEntity
  8
0
370
    35
390
0
 62
     7
 48
0.025
100
AcDbLine
 10
216.847046
 20
181.843231
 30
0.0
 11
215.847046
 21
181.843231
 31
0.0
210
0.0
220
0.0
230
1.0
  0
LINE
  5
3AA
100
AcDbEntity
  8
0
370
    35
390
0
 62
     7
 48
0.001419
100
AcDbLine
 10
215.847046
 20
181.843231
 30
0.0
 11
215.847046
 21
181.899994
 31
0.0
210
0.0
220
0.0
230
1.0
  0
LINE
  5
3AB
100
AcDbEntity
  8
0
370
    35
390
0
 62
     7
 48
0.014999
100
AcDbLine
 10
215.24707
 20
181.899994
 30
0.0
 11
215.847046
 21
181.899994
 31
0.0
210
0.0
220
0.0
230
1.0
  0
LINE
  5
3AC
100
AcDbEntity
  8
0
370
    35
390
0
 62
     7
 48
0.008752
100
AcDbLine
 10
215.24707
 20
181.549927
 30
0.0
 11
215.24707
 21
181.899994
 31
0.0
210
0.0
220
0.0
230
1.0
  0
LINE
  5
3AD
100
AcDbEntity
  8
0
370
    35
390
0
 62
     7
 48
0.025
100
AcDbLine
 10
216.847046
 20
181.843231
 30
0.0
 11
215.847046
 21
181.843231
 31
0.0
210
0.0
220
0.0
230
1.0
  0
LINE
  5
3AE
100
AcDbEntity
  8
0
370
    35
390
0
 62
     7
 48
0.007129
100
AcDbLine
 10
217.047058
 20
181.639984
 30
0.0
 11
216.847046
 21
181.843231
 31
0.0
210
0.0
220
0.0
230
1.0
  0
LINE
  5
3AF
100
AcDbEntity
  8
0
370
    35
390
0
 62
     7
 48
0.0025
100
AcDbLine
 10
214.947052
 20
181.549988
 30
0.0
 11
214.947052
 21
181.649994
 31
0.0
210
0.0
220
0.0
230
1.0
  0
LINE
  5
3B0
100
AcDbEntity
  8
0
370
    35
390
0
 62
     7
 48
0.05
100
AcDbLine
 10
216.647064
 20
181.549988
 30
0.0
 11
214.647064
 21
181.549988
 31
0.0
210
0.0
220
0.0
230
1.0
  0
ARC
  5
3B1
100
AcDbEntity
  8
0
370
    35
390
0
 62
     7
100
AcDbCircle
 10
214.647064
 20
182.049988
 30
0.0
 40
0.5
210
0.0
220
0.0
230
1.0
100
AcDbArc
 50
180.000009
 51
269.999997
  0
LINE
  5
3B2
100
AcDbEntity
  8
0
370
    35
390
0
 62
     7
 48
0.0125
100
AcDbLine
 10
216.647064
 20
181.049988
 30
0.0
 11
217.00061
 21
181.403549
 31
0.0
210
0.0
220
0.0
230
1.0
  0
ARC
  5
3B3
100
AcDbEntity
  8
0
370
    35
390
0
 62
     7
100
AcDbCircle
 10
216.647064
 20
181.049988
 30
0.0
 40
0.5
210
0.0
220
0.0
230
1.0
100
AcDbArc
 50
0.0
 51
89.999559
  0
LINE
  5
3B4
100
AcDbEntity
  8
0
370
    35
390
0
 62
     7
100
AcDbLine
 10
217.147064
 20
157.949997
 30
0.0
 11
217.147064
 21
181.049988
 31
0.0
210
0.0
220
0.0
230
1.0
  0
ARC
  5
3B5
100
AcDbEntity
  8
0
370
    35
390
0
 62
     7
100
AcDbCircle
 10
213.647064
 20
182.049988
 30
0.0
 40
0.5
210
0.0
220
0.0
230
1.0
100
AcDbArc
 50
0.0
 51
90.000003
  0
LINE
  5
3B6
100
AcDbEntity
  8
0
370
    35
390
0
 62
     7
100
AcDbLine
 10
209.647064
 20
160.75
 30
0.0
 11
91.647057
 21
160.75
 31
0.0
210
0.0
220
0.0
230
1.0
  0
LINE
  5
3B7
100
AcDbEntity
  8
0
370
    35
390
0
 62
     7
 48
0.105001
100
AcDbLine
 10
139.796906
 20
175.607986
 30
0.0
 11
138.334534
 21
179.545227
 31
0.0
210
0.0
220
0.0
230
1.0
  0
ARC
  5
3B8
100
AcDbEntity
  8
0
370
    35
390
0
 62
     7
100
AcDbCircle
 10
139.609436
 20
175.538345
 30
0.0
 40
0.2
210
0.0
220
0.0
230
1.0
100
AcDbArc
 50
269.999997
 51
20.376
  0
LINE
  5
3B9
100
AcDbEntity
  8
0
370
    35
390
0
 62
     7
 48
0.073119
100
AcDbLine
 10
136.684692
 20
175.338348
 30
0.0
 11
139.609436
 21
175.338348
 31
0.0
210
0.0
220
0.0
230
1.0
  0
ARC
  5
3BA
100
AcDbEntity
  8
0
370
    35
390
0
 62
     7
100
AcDbCircle
 10
136.684692
 20
175.538345
 30
0.0
 40
0.2
210
0.0
220
0.0
230
1.0
100
AcDbArc
 50
159.624007
 51
269.999997
  0
LINE
  5
3BB
100
AcDbEntity
  8
0
370
    35
390
0
 62
     7
 48
0.105001
100
AcDbLine
 10
137.959564
 20
179.545227
 30
0.0
 11
136.497192
 21
175.607986
 31
0.0
210
0.0
220
0.0
230
1.0
  0
ARC
  5
3BC
100
AcDbEntity
  8
0
370
    35
390
0
 62
     7
100
AcDbCircle
 10
138.147064
 20
179.475586
 30
0.0
 40
0.2
210
0.0
220
0.0
230
1.0
100
AcDbArc
 50
20.376
 51
159.624007
  0
LINE
  5
3BD
100
AcDbEntity
  8
0
370
    35
390
0
 62
     7
 48
0.008839
100
AcDbLine
 10
216.647064
 20
157.949997
 30
0.0
 11
216.897064
 21
157.699997
 31
0.0
210
0.0
220
0.0
230
1.0
  0
LINE
  5
3BE
100
AcDbEntity
  8
0
370
    35
390
0
 62
     7
 48
0.008839
100
AcDbLine
 10
216.897064
 20
157.699997
 30
0.0
 11
217.147064
 21
157.949997
 31
0.0
210
0.0
220
0.0
230
1.0
  0
LINE
  5
3BF
100
AcDbEntity
  8
0
370
    35
390
0
 62
     7
 48
0.008839
100
AcDbLine
 10
216.647064
 20
157.449997
 30
0.0
 11
216.897064
 21
157.699997
 31
0.0
210
0.0
220
0.0
230
1.0
  0
LINE
  5
3C0
100
AcDbEntity
  8
0
370
    35
390
0
 62
     7
 48
0.025
100
AcDbLine
 10
194.647064
 20
182.549988
 30
0.0
 11
195.647064
 21
182.549988
 31
0.0
210
0.0
220
0.0
230
1.0
  0
LINE
  5
3C1
100
AcDbEntity
  8
0
370
    35
390
0
 62
     7
 48
0.025
100
AcDbLine
 10
196.647064
 20
182.549988
 30
0.0
 11
195.647064
 21
182.549988
 31
0.0
210
0.0
220
0.0
230
1.0
  0
LINE
  5
3C2
100
AcDbEntity
  8
0
370
    35
390
0
 62
     7
 48
0.425
100
AcDbLine
 10
213.647064
 20
182.549988
 30
0.0
 11
196.647064
 21
182.549988
 31
0.0
210
0.0
220
0.0
230
1.0
  0
LINE
  5
3C3
100
AcDbEntity
  8
0
370
    35
390
0
 62
     7
 48
0.008839
100
AcDbLine
 10
84.647057
 20
157.949997
 30
0.0
 11
84.397057
 21
157.699997
 31
0.0
210
0.0
220
0.0
230
1.0
  0
LINE
  5
3C4
100
AcDbEntity
  8
0
370
    35
390
0
 62
     7
 48
0.0125
100
AcDbLine
 10
84.647057
 20
181.049988
 30
0.0
 11
84.293503
 21
181.403549
 31
0.0
210
0.0
220
0.0
230
1.0
  0
ARC
  5
3C5
100
AcDbEntity
  8
0
370
    35
390
0
 62
     7
100
AcDbCircle
 10
84.647057
 20
181.049988
 30
0.0
 40
0.5
210
0.0
220
0.0
230
1.0
100
AcDbArc
 50
90.000003
 51
179.999554
  0
LINE
  5
3C6
100
AcDbEntity
  8
0
370
    35
390
0
 62
     7
100
AcDbLine
 10
84.147057
 20
181.049988
 30
0.0
 11
84.147057
 21
157.949997
 31
0.0
210
0.0
220
0.0
230
1.0
  0
LINE
  5
3C7
100
AcDbEntity
  8
0
370
    35
390
0
 62
     7
 48
0.008839
100
AcDbLine
 10
84.147057
 20
157.949997
 30
0.0
 11
84.397057
 21
157.699997
 31
0.0
210
0.0
220
0.0
230
1.0
  0
LINE
  5
3C8
100
AcDbEntity
  8
0
370
    35
390
0
 62
     7
 48
0.175
100
AcDbLine
 10
91.647057
 20
157.449997
 30
0.0
 11
84.647057
 21
157.449997
 31
0.0
210
0.0
220
0.0
230
1.0
  0
LINE
  5
3C9
100
AcDbEntity
  8
0
370
    35
390
0
 62
     7
 48
0.008839
100
AcDbLine
 10
84.397057
 20
157.699997
 30
0.0
 11
84.647057
 21
157.449997
 31
0.0
210
0.0
220
0.0
230
1.0
  0
LINE
  5
3CA
100
AcDbEntity
  8
0
370
    35
390
0
 62
     7
 48
0.07
100
AcDbLine
 10
92.147057
 20
157.949997
 30
0.0
 11
92.147057
 21
160.75
 31
0.0
210
0.0
220
0.0
230
1.0
  0
LINE
  5
3CB
100
AcDbEntity
  8
0
370
    35
390
0
 62
     7
 48
0.07
100
AcDbLine
 10
209.147064
 20
157.949997
 30
0.0
 11
209.147064
 21
160.75
 31
0.0
210
0.0
220
0.0
230
1.0
  0
LINE
  5
3CC
100
AcDbEntity
  8
0
370
    35
390
0
 62
     7
 48
0.175
100
AcDbLine
 10
216.647064
 20
157.449997
 30
0.0
 11
209.647064
 21
157.449997
 31
0.0
210
0.0
220
0.0
230
1.0
  0
LINE
  5
3CD
100
AcDbEntity
  8
0
370
    35
390
0
 62
     7
 48
0.35
100
AcDbLine
 10
195.647064
 20
181.549988
 30
0.0
 11
181.647064
 21
181.549988
 31
0.0
210
0.0
220
0.0
230
1.0
  0
LINE
  5
3CE
100
AcDbEntity
  8
0
370
    35
390
0
 62
     7
 48
0.03
100
AcDbLine
 10
181.347046
 20
180.049988
 30
0.0
 11
181.347046
 21
181.25
 31
0.0
210
0.0
220
0.0
230
1.0
  0
ARC
  5
3CF
100
AcDbEntity
  8
0
370
    35
390
0
 62
     7
100
AcDbCircle
 10
179.147064
 20
180.049988
 30
0.0
 40
2.2
210
0.0
220
0.0
230
1.0
100
AcDbArc
 50
180.000009
 51
360.0
  0
LINE
  5
3D0
100
AcDbEntity
  8
0
370
    35
390
0
 62
     7
 48
0.03
100
AcDbLine
 10
176.947052
 20
181.25
 30
0.0
 11
176.947052
 21
180.049988
 31
0.0
210
0.0
220
0.0
230
1.0
  0
LINE
  5
3D1
100
AcDbEntity
  8
0
370
    35
390
0
 62
     7
100
AcDbLine
 10
176.647064
 20
181.549988
 30
0.0
 11
102.647057
 21
181.549988
 31
0.0
210
0.0
220
0.0
230
1.0
  0
LINE
  5
3D2
100
AcDbEntity
  8
0
370
    35
390
0
 62
     7
 48
0.03
100
AcDbLine
 10
102.347054
 20
180.049988
 30
0.0
 11
102.347054
 21
181.25
 31
0.0
210
0.0
220
0.0
230
1.0
  0
ARC
  5
3D3
100
AcDbEntity
  8
0
370
    35
390
0
 62
     7
100
AcDbCircle
 10
100.147057
 20
180.049988
 30
0.0
 40
2.2
210
0.0
220
0.0
230
1.0
100
AcDbArc
 50
180.000009
 51
360.0
  0
ARC
  5
3D4
100
AcDbEntity
  8
0
370
    35
390
0
 62
     7
100
AcDbCircle
 10
103.813118
 20
179.549988
 30
0.0
 40
1.0
210
0.0
220
0.0
230
1.0
100
AcDbArc
 50
90.000003
 51
172.233561
  0
LINE
  5
3D5
100
AcDbEntity
  8
0
370
    35
390
0
 62
     7
 48
0.333348
100
AcDbLine
 10
103.813118
 20
180.549988
 30
0.0
 11
117.147057
 21
180.549988
 31
0.0
210
0.0
220
0.0
230
1.0
  0
ARC
  5
3D6
100
AcDbEntity
  8
0
370
    35
390
0
 62
     7
100
AcDbCircle
 10
117.147057
 20
177.549988
 30
0.0
 40
3.0
210
0.0
220
0.0
230
1.0
100
AcDbArc
 50
0.0
 51
90.000003
  0
LINE
  5
3D7
100
AcDbEntity
  8
0
370
    35
390
0
 62
     7
 48
0.32
100
AcDbLine
 10
120.147057
 20
164.75
 30
0.0
 11
120.147057
 21
177.549988
 31
0.0
210
0.0
220
0.0
230
1.0
  0
ARC
  5
3D8
100
AcDbEntity
  8
0
370
    35
390
0
 62
     7
100
AcDbCircle
 10
117.147057
 20
164.75
 30
0.0
 40
3.0
210
0.0
220
0.0
230
1.0
100
AcDbArc
 50
269.999997
 51
360.0
  0
LINE
  5
3D9
100
AcDbEntity
  8
0
370
    35
390
0
 62
     7
 48
0.35
100
AcDbLine
 10
117.147057
 20
161.75
 30
0.0
 11
103.147057
 21
161.75
 31
0.0
210
0.0
220
0.0
230
1.0
  0
ARC
  5
3DA
100
AcDbEntity
  8
0
370
    35
390
0
 62
     7
100
AcDbCircle
 10
103.147057
 20
164.75
 30
0.0
 40
3.0
210
0.0
220
0.0
230
1.0
100
AcDbArc
 50
180.000009
 51
269.999997
  0
LINE
  5
3DB
100
AcDbEntity
  8
0
370
    35
390
0
 62
     7
 48
0.293443
100
AcDbLine
 10
100.147057
 20
176.487701
 30
0.0
 11
100.147057
 21
164.75
 31
0.0
210
0.0
220
0.0
230
1.0
  0
ARC
  5
3DC
100
AcDbEntity
  8
0
370
    35
390
0
 62
     7
100
AcDbCircle
 10
101.147057
 20
176.487701
 30
0.0
 40
1.0
210
0.0
220
0.0
230
1.0
100
AcDbArc
 50
105.680348
 51
180.000009
  0
LINE
  5
3DD
100
AcDbEntity
  8
0
370
    35
390
0
 62
     7
 48
0.03
100
AcDbLine
 10
97.94706
 20
181.25
 30
0.0
 11
97.94706
 21
180.049988
 31
0.0
210
0.0
220
0.0
230
1.0
  0
LINE
  5
3DE
100
AcDbEntity
  8
0
370
    35
390
0
 62
     7
 48
0.0125
100
AcDbLine
 10
97.647057
 20
181.549988
 30
0.0
 11
97.147057
 21
181.549988
 31
0.0
210
0.0
220
0.0
230
1.0
  0
LINE
  5
3DF
100
AcDbEntity
  8
0
370
    35
390
0
 62
     7
 48
0.2125
100
AcDbLine
 10
96.147057
 20
182.549988
 30
0.0
 11
87.647057
 21
182.549988
 31
0.0
210
0.0
220
0.0
230
1.0
  0
LINE
  5
3E0
100
AcDbEntity
  8
0
370
    35
390
0
 62
     7
 48
0.05
100
AcDbLine
 10
86.647057
 20
181.549988
 30
0.0
 11
84.647057
 21
181.549988
 31
0.0
210
0.0
220
0.0
230
1.0
  0
LINE
  5
3E1
100
AcDbEntity
  8
0
370
    35
390
0
 62
     7
 48
0.35
100
AcDbLine
 10
159.147064
 20
180.549988
 30
0.0
 11
173.147064
 21
180.549988
 31
0.0
210
0.0
220
0.0
230
1.0
  0
ARC
  5
3E2
100
AcDbEntity
  8
0
370
    35
390
0
 62
     7
100
AcDbCircle
 10
173.147064
 20
177.549988
 30
0.0
 40
3.0
210
0.0
220
0.0
230
1.0
100
AcDbArc
 50
0.0
 51
90.000003
  0
LINE
  5
3E3
100
AcDbEntity
  8
0
370
    35
390
0
 62
     7
 48
0.32
100
AcDbLine
 10
176.147064
 20
164.75
 30
0.0
 11
176.147064
 21
177.549988
 31
0.0
210
0.0
220
0.0
230
1.0
  0
ARC
  5
3E4
100
AcDbEntity
  8
0
370
    35
390
0
 62
     7
100
AcDbCircle
 10
173.147064
 20
164.75
 30
0.0
 40
3.0
210
0.0
220
0.0
230
1.0
100
AcDbArc
 50
269.999997
 51
360.0
  0
LINE
  5
3E5
100
AcDbEntity
  8
0
370
    35
390
0
 62
     7
 48
0.35
100
AcDbLine
 10
173.147064
 20
161.75
 30
0.0
 11
159.147064
 21
161.75
 31
0.0
210
0.0
220
0.0
230
1.0
  0
ARC
  5
3E6
100
AcDbEntity
  8
0
370
    35
390
0
 62
     7
100
AcDbCircle
 10
159.147064
 20
164.75
 30
0.0
 40
3.0
210
0.0
220
0.0
230
1.0
100
AcDbArc
 50
180.000009
 51
269.999997
  0
LINE
  5
3E7
100
AcDbEntity
  8
0
370
    35
390
0
 62
     7
 48
0.32
100
AcDbLine
 10
156.147064
 20
177.549988
 30
0.0
 11
156.147064
 21
164.75
 31
0.0
210
0.0
220
0.0
230
1.0
  0
ARC
  5
3E8
100
AcDbEntity
  8
0
370
    35
390
0
 62
     7
100
AcDbCircle
 10
159.147064
 20
177.549988
 30
0.0
 40
3.0
210
0.0
220
0.0
230
1.0
100
AcDbArc
 50
90.000003
 51
180.000009
  0
LINE
  5
3E9
100
AcDbEntity
  8
0
370
    35
390
0
 62
     7
 48
0.025
100
AcDbLine
 10
97.147057
 20
182.549988
 30
0.0
 11
96.147057
 21
182.549988
 31
0.0
210
0.0
220
0.0
230
1.0
  0
LINE
  5
3EA
100
AcDbEntity
  8
0
370
    35
390
0
 62
     7
 48
0.025
100
AcDbLine
 10
98.147057
 20
182.549988
 30
0.0
 11
97.147057
 21
182.549988
 31
0.0
210
0.0
220
0.0
230
1.0
  0
LINE
  5
3EB
100
AcDbEntity
  8
0
370
    35
390
0
 62
     7
 48
0.01
100
AcDbLine
 10
93.397057
 20
160.350006
 30
0.0
 11
93.397057
 21
160.75
 31
0.0
210
0.0
220
0.0
230
1.0
  0
LINE
  5
3EC
100
AcDbEntity
  8
0
370
    35
390
0
 62
     7
 48
0.01
100
AcDbLine
 10
207.897064
 20
160.350006
 30
0.0
 11
207.897064
 21
160.75
 31
0.0
210
0.0
220
0.0
230
1.0
  0
LINE
  5
3ED
100
AcDbEntity
  8
0
370
    35
390
0
 62
     7
 48
0.005
100
AcDbLine
 10
107.870262
 20
160.600006
 30
0.0
 11
107.670258
 21
160.600006
 31
0.0
210
0.0
220
0.0
230
1.0
  0
LINE
  5
3EE
100
AcDbEntity
  8
0
370
    35
390
0
 62
     7
 48
0.07616
100
AcDbLine
 10
104.623848
 20
160.600006
 30
0.0
 11
107.670258
 21
160.600006
 31
0.0
210
0.0
220
0.0
230
1.0
  0
LINE
  5
3EF
100
AcDbEntity
  8
0
370
    35
390
0
 62
     7
 48
0.005
100
AcDbLine
 10
104.623848
 20
160.600006
 30
0.0
 11
104.423851
 21
160.600006
 31
0.0
210
0.0
220
0.0
230
1.0
  0
LINE
  5
3F0
100
AcDbEntity
  8
0
370
    35
390
0
 62
     7
 48
0.005
100
AcDbLine
 10
193.62384
 20
160.600006
 30
0.0
 11
193.423859
 21
160.600006
 31
0.0
210
0.0
220
0.0
230
1.0
  0
LINE
  5
3F1
100
AcDbEntity
  8
0
370
    35
390
0
 62
     7
 48
0.005
100
AcDbLine
 10
196.87027
 20
160.600006
 30
0.0
 11
196.670258
 21
160.600006
 31
0.0
210
0.0
220
0.0
230
1.0
  0
LINE
  5
3F2
100
AcDbEntity
  8
0
370
    35
390
0
 62
     7
 48
0.07616
100
AcDbLine
 10
193.62384
 20
160.600006
 30
0.0
 11
196.670258
 21
160.600006
 31
0.0
210
0.0
220
0.0
230
1.0
  0
ARC
  5
3F3
100
AcDbEntity
  8
0
370
    35
390
0
 62
     7
100
AcDbCircle
 10
196.647064
 20
182.049988
 30
0.0
 40
0.5
210
0.0
220
0.0
230
1.0
100
AcDbArc
 50
90.000003
 51
180.000009
  0
ARC
  5
3F4
100
AcDbEntity
  8
0
370
    35
390
0
 62
     7
100
AcDbCircle
 10
91.647057
 20
157.949997
 30
0.0
 40
0.5
210
0.0
220
0.0
230
1.0
100
AcDbArc
 50
269.999997
 51
360.0
  0
ARC
  5
3F5
100
AcDbEntity
  8
0
370
    35
390
0
 62
     7
100
AcDbCircle
 10
209.647064
 20
157.949997
 30
0.0
 40
0.5
210
0.0
220
0.0
230
1.0
100
AcDbArc
 50
180.000009
 51
269.999997
  0
ARC
  5
3F6
100
AcDbEntity
  8
0
370
    35
390
0
 62
     7
100
AcDbCircle
 10
195.647064
 20
182.049988
 30
0.0
 40
0.5
210
0.0
220
0.0
230
1.0
100
AcDbArc
 50
269.999997
 51
360.0
  0
LINE
  5
3F7
100
AcDbEntity
  8
0
370
    35
390
0
 62
     7
 48
0.01
100
AcDbLine
 10
98.047058
 20
181.549988
 30
0.0
 11
97.647057
 21
181.549988
 31
0.0
210
0.0
220
0.0
230
1.0
  0
LINE
  5
3F8
100
AcDbEntity
  8
0
370
    35
390
0
 62
     7
 48
0.0025
100
AcDbLine
 10
98.047058
 20
181.549988
 30
0.0
 11
98.147057
 21
181.549988
 31
0.0
210
0.0
220
0.0
230
1.0
  0
ARC
  5
3F9
100
AcDbEntity
  8
0
370
    35
390
0
 62
     7
100
AcDbCircle
 10
181.647064
 20
181.25
 30
0.0
 40
0.3
210
0.0
220
0.0
230
1.0
100
AcDbArc
 50
90.000003
 51
180.000009
  0
ARC
  5
3FA
100
AcDbEntity
  8
0
370
    35
390
0
 62
     7
100
AcDbCircle
 10
176.647064
 20
181.25
 30
0.0
 40
0.3
210
0.0
220
0.0
230
1.0
100
AcDbArc
 50
0.0
 51
90.000003
  0
ARC
  5
3FB
100
AcDbEntity
  8
0
370
    35
390
0
 62
     7
100
AcDbCircle
 10
102.647057
 20
181.25
 30
0.0
 40
0.3
210
0.0
220
0.0
230
1.0
100
AcDbArc
 50
90.000003
 51
180.000009
  0
ARC
  5
3FC
100
AcDbEntity
  8
0
370
    35
390
0
 62
     7
100
AcDbCircle
 10
100.147057
 20
180.049988
 30
0.0
 40
2.7
210
0.0
220
0.0
230
1.0
100
AcDbArc
 50
285.680336
 51
352.233566
  0
CIRCLE
  5
3FD
100
AcDbEntity
  8
0
370
    35
390
0
 62
     7
100
AcDbCircle
 10
110.147057
 20
173.149994
 30
0.0
 40
4.5
210
0.0
220
0.0
230
1.0
  0
ARC
  5
3FE
100
AcDbEntity
  8
0
370
    35
390
0
 62
     7
100
AcDbCircle
 10
97.647057
 20
181.25
 30
0.0
 40
0.3
210
0.0
220
0.0
230
1.0
100
AcDbArc
 50
0.0
 51
90.000003
  0
ARC
  5
3FF
100
AcDbEntity
  8
0
370
    35
390
0
 62
     7
100
AcDbCircle
 10
97.147057
 20
182.049988
 30
0.0
 40
0.5
210
0.0
220
0.0
230
1.0
100
AcDbArc
 50
180.000009
 51
269.999997
  0
ARC
  5
400
100
AcDbEntity
  8
0
370
    35
390
0
 62
     7
100
AcDbCircle
 10
96.147057
 20
182.049988
 30
0.0
 40
0.5
210
0.0
220
0.0
230
1.0
100
AcDbArc
 50
0.0
 51
90.000003
  0
ARC
  5
401
100
AcDbEntity
  8
0
370
    35
390
0
 62
     7
100
AcDbCircle
 10
87.647057
 20
182.049988
 30
0.0
 40
0.5
210
0.0
220
0.0
230
1.0
100
AcDbArc
 50
90.000003
 51
180.000009
  0
ARC
  5
402
100
AcDbEntity
  8
0
370
    35
390
0
 62
     7
100
AcDbCircle
 10
86.647057
 20
182.049988
 30
0.0
 40
0.5
210
0.0
220
0.0
230
1.0
100
AcDbArc
 50
269.999997
 51
360.0
  0
CIRCLE
  5
403
100
AcDbEntity
  8
0
370
    35
390
0
 62
     7
100
AcDbCircle
 10
166.147064
 20
173.149994
 30
0.0
 40
4.5
210
0.0
220
0.0
230
1.0
  0
LINE
  5
404
100
AcDbEntity
  8
0
370
    35
390
0
 62
     7
 48
0.0025
100
AcDbLine
 10
86.347054
 20
181.549988
 30
0.0
 11
86.347054
 21
181.649994
 31
0.0
210
0.0
220
0.0
230
1.0
  0
LINE
  5
405
100
AcDbEntity
  8
0
370
    35
390
0
 62
     7
 48
0.025
100
AcDbLine
 10
208.097046
 20
160.350006
 30
0.0
 11
209.097046
 21
160.350006
 31
0.0
210
0.0
220
0.0
230
1.0
  0
LINE
  5
406
100
AcDbEntity
  8
0
370
    35
390
0
 62
     7
 48
0.28567
100
AcDbLine
 10
208.097046
 20
160.350006
 30
0.0
 11
196.670258
 21
160.350006
 31
0.0
210
0.0
220
0.0
230
1.0
  0
LINE
  5
407
100
AcDbEntity
  8
0
370
    35
390
0
 62
     7
100
AcDbLine
 10
193.62384
 20
160.350006
 30
0.0
 11
107.670258
 21
160.350006
 31
0.0
210
0.0
220
0.0
230
1.0
  0
LINE
  5
408
100
AcDbEntity
  8
0
370
    35
390
0
 62
     7
 48
0.28567
100
AcDbLine
 10
104.623848
 20
160.350006
 30
0.0
 11
93.19706
 21
160.350006
 31
0.0
210
0.0
220
0.0
230
1.0
  0
LINE
  5
409
100
AcDbEntity
  8
0
370
    35
390
0
 62
     7
 48
0.025
100
AcDbLine
 10
92.19706
 20
160.350006
 30
0.0
 11
93.19706
 21
160.350006
 31
0.0
210
0.0
220
0.0
230
1.0
  0
LINE
  5
40A
100
AcDbEntity
  8
0
370
    35
390
0
 62
     7
100
AcDbLine
 10
208.097046
 20
157.850006
 30
0.0
 11
93.19706
 21
157.850006
 31
0.0
210
0.0
220
0.0
230
1.0
  0
LINE
  5
40B
100
AcDbEntity
  8
0
370
    35
390
0
 62
     7
 48
0.05
100
AcDbLine
 10
98.147057
 20
180.049988
 30
0.0
 11
98.147057
 21
182.049988
 31
0.0
210
0.0
220
0.0
230
1.0
  0
LINE
  5
40C
100
AcDbEntity
  8
0
370
    35
390
0
 62
     7
 48
0.0125
100
AcDbLine
 10
98.147057
 20
182.549988
 30
0.0
 11
98.147057
 21
182.049988
 31
0.0
210
0.0
220
0.0
230
1.0
  0
LINE
  5
40D
100
AcDbEntity
  8
0
370
    35
390
0
 62
     7
 48
0.025
100
AcDbLine
 10
98.147057
 20
183.549988
 30
0.0
 11
98.147057
 21
182.549988
 31
0.0
210
0.0
220
0.0
230
1.0
  0
LINE
  5
40E
100
AcDbEntity
  8
0
370
    35
390
0
 62
     7
 48
0.0125
100
AcDbLine
 10
194.647064
 20
181.549988
 30
0.0
 11
194.647064
 21
182.049988
 31
0.0
210
0.0
220
0.0
230
1.0
  0
LINE
  5
40F
100
AcDbEntity
  8
0
370
    35
390
0
 62
     7
 48
0.0125
100
AcDbLine
 10
194.647064
 20
182.549988
 30
0.0
 11
194.647064
 21
182.049988
 31
0.0
210
0.0
220
0.0
230
1.0
  0
LINE
  5
410
100
AcDbEntity
  8
0
370
    35
390
0
 62
     7
 48
0.025
100
AcDbLine
 10
194.647064
 20
183.549988
 30
0.0
 11
194.647064
 21
182.549988
 31
0.0
210
0.0
220
0.0
230
1.0
  0
ARC
  5
411
100
AcDbEntity
  8
0
370
    35
390
0
 62
     7
100
AcDbCircle
 10
100.147057
 20
180.049988
 30
0.0
 40
2.0
210
0.0
220
0.0
230
1.0
100
AcDbArc
 50
180.000009
 51
360.0
  0
LINE
  5
412
100
AcDbEntity
  8
0
370
    35
390
0
 62
     7
 48
0.0375
100
AcDbLine
 10
102.147057
 20
180.049988
 30
0.0
 11
102.147057
 21
181.549988
 31
0.0
210
0.0
220
0.0
230
1.0
  0
LINE
  5
413
100
AcDbEntity
  8
0
370
    35
390
0
 62
     7
 48
0.0125
100
AcDbLine
 10
102.647057
 20
181.549988
 30
0.0
 11
102.147057
 21
181.549988
 31
0.0
210
0.0
220
0.0
230
1.0
  0
LINE
  5
414
100
AcDbEntity
  8
0
370
    35
390
0
 62
     7
 48
0.0125
100
AcDbLine
 10
177.147064
 20
181.549988
 30
0.0
 11
176.647064
 21
181.549988
 31
0.0
210
0.0
220
0.0
230
1.0
  0
LINE
  5
415
100
AcDbEntity
  8
0
370
    35
390
0
 62
     7
 48
0.0375
100
AcDbLine
 10
177.147064
 20
180.049988
 30
0.0
 11
177.147064
 21
181.549988
 31
0.0
210
0.0
220
0.0
230
1.0
  0
ARC
  5
416
100
AcDbEntity
  8
0
370
    35
390
0
 62
     7
100
AcDbCircle
 10
179.147064
 20
180.049988
 30
0.0
 40
2.0
210
0.0
220
0.0
230
1.0
100
AcDbArc
 50
180.000009
 51
360.0
  0
LINE
  5
417
100
AcDbEntity
  8
0
370
    35
390
0
 62
     7
 48
0.0375
100
AcDbLine
 10
181.147064
 20
180.049988
 30
0.0
 11
181.147064
 21
181.549988
 31
0.0
210
0.0
220
0.0
230
1.0
  0
LINE
  5
418
100
AcDbEntity
  8
0
370
    35
390
0
 62
     7
 48
0.0125
100
AcDbLine
 10
181.647064
 20
181.549988
 30
0.0
 11
181.147064
 21
181.549988
 31
0.0
210
0.0
220
0.0
230
1.0
  0
LINE
  5
419
100
AcDbEntity
  8
0
370
    35
390
0
 62
     7
 48
0.0625
100
AcDbLine
 10
92.19706
 20
157.850006
 30
0.0
 11
92.19706
 21
160.350006
 31
0.0
210
0.0
220
0.0
230
1.0
  0
LINE
  5
41A
100
AcDbEntity
  8
0
370
    35
390
0
 62
     7
 48
0.0625
100
AcDbLine
 10
209.097046
 20
157.850006
 30
0.0
 11
209.097046
 21
160.350006
 31
0.0
210
0.0
220
0.0
230
1.0
  0
LINE
  5
41B
100
AcDbEntity
  8
0
370
    35
390
0
 62
     7
 48
0.025
100
AcDbLine
 10
208.097046
 20
157.850006
 30
0.0
 11
209.097046
 21
157.850006
 31
0.0
210
0.0
220
0.0
230
1.0
  0
LINE
  5
41C
100
AcDbEntity
  8
0
370
    35
390
0
 62
     7
 48
0.025
100
AcDbLine
 10
92.19706
 20
157.850006
 30
0.0
 11
93.19706
 21
157.850006
 31
0.0
210
0.0
220
0.0
230
1.0
  0
LINE
  5
41D
100
AcDbEntity
  8
0
370
    35
390
0
 62
     7
100
AcDbLine
 10
194.647064
 20
182.549988
 30
0.0
 11
98.147057
 21
182.549988
 31
0.0
210
0.0
220
0.0
230
1.0
  0
CIRCLE
  5
41E
100
AcDbEntity
  8
0
370
    35
390
0
 62
     7
100
AcDbCircle
 10
110.147057
 20
173.149994
 30
0.0
 40
4.0
210
0.0
220
0.0
230
1.0
  0
CIRCLE
  5
41F
100
AcDbEntity
  8
0
370
    35
390
0
 62
     7
100
AcDbCircle
 10
166.147064
 20
173.149994
 30
0.0
 40
4.0
210
0.0
220
0.0
230
1.0
  0
LINE
  5
420
100
AcDbEntity
  8
0
370
    35
390
0
 62
     7
 48
0.008752
100
AcDbLine
 10
86.047058
 20
181.899994
 30
0.0
 11
86.047058
 21
181.549927
 31
0.0
210
0.0
220
0.0
230
1.0
  0
CIRCLE
  5
421
100
AcDbEntity
  8
0
370
    35
390
0
 62
     7
100
AcDbCircle
 10
179.147064
 20
180.049988
 30
0.0
 40
1.475
210
0.0
220
0.0
230
1.0
  0
CIRCLE
  5
422
100
AcDbEntity
  8
0
370
    35
390
0
 62
     7
100
AcDbCircle
 10
100.147057
 20
180.049988
 30
0.0
 40
1.475
210
0.0
220
0.0
230
1.0
  0
LINE
  5
423
100
AcDbEntity
  8
0
370
    35
390
0
 62
     7
 48
0.001419
100
AcDbLine
 10
85.44706
 20
181.899994
 30
0.0
 11
85.44706
 21
181.843231
 31
0.0
210
0.0
220
0.0
230
1.0
  0
LINE
  5
424
100
AcDbEntity
  8
0
370
    35
390
0
 62
     7
 48
0.025
100
AcDbLine
 10
84.44706
 20
181.843231
 30
0.0
 11
85.44706
 21
181.843231
 31
0.0
210
0.0
220
0.0
230
1.0
  0
LINE
  5
425
100
AcDbEntity
  8
0
370
    35
390
0
 62
     7
 48
0.00835
100
AcDbLine
 10
84.44706
 20
181.843231
 30
0.0
 11
84.44706
 21
181.509216
 31
0.0
210
0.0
220
0.0
230
1.0
  0
LINE
  5
426
100
AcDbEntity
  8
0
370
    35
390
0
 62
     7
 48
0.015
100
AcDbLine
 10
86.047058
 20
181.899994
 30
0.0
 11
85.44706
 21
181.899994
 31
0.0
210
0.0
220
0.0
230
1.0
  0
LINE
  5
427
100
AcDbEntity
  8
0
370
    35
390
0
 62
     7
 48
0.025
100
AcDbLine
 10
84.44706
 20
181.843231
 30
0.0
 11
85.44706
 21
181.843231
 31
0.0
210
0.0
220
0.0
230
1.0
  0
CIRCLE
  5
428
100
AcDbEntity
  8
0
370
    35
390
0
 62
     7
100
AcDbCircle
 10
110.147057
 20
173.149994
 30
0.0
 40
2.55
210
0.0
220
0.0
230
1.0
  0
CIRCLE
  5
429
100
AcDbEntity
  8
0
370
    35
390
0
 62
     7
100
AcDbCircle
 10
166.147064
 20
173.149994
 30
0.0
 40
2.55
210
0.0
220
0.0
230
1.0
  0
LINE
  5
42A
100
AcDbEntity
  8
0
370
    35
390
0
 62
     7
 48
0.007129
100
AcDbLine
 10
84.247055
 20
181.639984
 30
0.0
 11
84.44706
 21
181.843231
 31
0.0
210
0.0
220
0.0
230
1.0
  0
LINE
  5
42B
100
AcDbEntity
  8
0
370
    35
390
0
 62
     7
 48
0.007253
100
AcDbLine
 10
84.247055
 20
181.639984
 30
0.0
 11
84.247055
 21
181.349884
 31
0.0
210
0.0
220
0.0
230
1.0
  0
LINE
  5
42C
100
AcDbEntity
  8
0
370
    35
390
0
 62
     7
 48
0.01
100
AcDbLine
 10
178.947052
 20
181.149994
 30
0.0
 11
179.347046
 21
181.149994
 31
0.0
210
0.0
220
0.0
230
1.0
  0
LINE
  5
42D
100
AcDbEntity
  8
0
370
    35
390
0
 62
     7
 48
0.01625
100
AcDbLine
 10
178.947052
 20
181.149994
 30
0.0
 11
178.947052
 21
180.5
 31
0.0
210
0.0
220
0.0
230
1.0
  0
ARC
  5
42E
100
AcDbEntity
  8
0
370
    35
390
0
 62
     7
100
AcDbCircle
 10
178.697052
 20
180.5
 30
0.0
 40
0.25
210
0.0
220
0.0
230
1.0
100
AcDbArc
 50
269.999997
 51
360.0
  0
LINE
  5
42F
100
AcDbEntity
  8
0
370
    35
390
0
 62
     7
 48
0.01625
100
AcDbLine
 10
178.697052
 20
180.25
 30
0.0
 11
178.047058
 21
180.25
 31
0.0
210
0.0
220
0.0
230
1.0
  0
LINE
  5
430
100
AcDbEntity
  8
0
370
    35
390
0
 62
     7
 48
0.01
100
AcDbLine
 10
178.047058
 20
180.25
 30
0.0
 11
178.047058
 21
179.850006
 31
0.0
210
0.0
220
0.0
230
1.0
  0
LINE
  5
431
100
AcDbEntity
  8
0
370
    35
390
0
 62
     7
 48
0.01625
100
AcDbLine
 10
178.697052
 20
179.850006
 30
0.0
 11
178.047058
 21
179.850006
 31
0.0
210
0.0
220
0.0
230
1.0
  0
ARC
  5
432
100
AcDbEntity
  8
0
370
    35
390
0
 62
     7
100
AcDbCircle
 10
178.697052
 20
179.600006
 30
0.0
 40
0.25
210
0.0
220
0.0
230
1.0
100
AcDbArc
 50
0.0
 51
90.000003
  0
LINE
  5
433
100
AcDbEntity
  8
0
370
    35
390
0
 62
     7
 48
0.01625
100
AcDbLine
 10
178.947052
 20
178.949997
 30
0.0
 11
178.947052
 21
179.600006
 31
0.0
210
0.0
220
0.0
230
1.0
  0
LINE
  5
434
100
AcDbEntity
  8
0
370
    35
390
0
 62
     7
 48
0.01
100
AcDbLine
 10
178.947052
 20
178.949997
 30
0.0
 11
179.347046
 21
178.949997
 31
0.0
210
0.0
220
0.0
230
1.0
  0
LINE
  5
435
100
AcDbEntity
  8
0
370
    35
390
0
 62
     7
 48
0.01625
100
AcDbLine
 10
179.347046
 20
178.949997
 30
0.0
 11
179.347046
 21
179.600006
 31
0.0
210
0.0
220
0.0
230
1.0
  0
ARC
  5
436
100
AcDbEntity
  8
0
370
    35
390
0
 62
     7
100
AcDbCircle
 10
179.597046
 20
179.600006
 30
0.0
 40
0.25
210
0.0
220
0.0
230
1.0
100
AcDbArc
 50
90.000003
 51
180.000009
  0
LINE
  5
437
100
AcDbEntity
  8
0
370
    35
390
0
 62
     7
 48
0.01625
100
AcDbLine
 10
179.597046
 20
179.850006
 30
0.0
 11
180.24704
 21
179.850006
 31
0.0
210
0.0
220
0.0
230
1.0
  0
LINE
  5
438
100
AcDbEntity
  8
0
370
    35
390
0
 62
     7
 48
0.01
100
AcDbLine
 10
180.24704
 20
180.25
 30
0.0
 11
180.24704
 21
179.850006
 31
0.0
210
0.0
220
0.0
230
1.0
  0
LINE
  5
439
100
AcDbEntity
  8
0
370
    35
390
0
 62
     7
 48
0.01625
100
AcDbLine
 10
179.597046
 20
180.25
 30
0.0
 11
180.24704
 21
180.25
 31
0.0
210
0.0
220
0.0
230
1.0
  0
ARC
  5
43A
100
AcDbEntity
  8
0
370
    35
390
0
 62
     7
100
AcDbCircle
 10
179.597046
 20
180.5
 30
0.0
 40
0.25
210
0.0
220
0.0
230
1.0
100
AcDbArc
 50
180.000009
 51
269.999997
  0
LINE
  5
43B
100
AcDbEntity
  8
0
370
    35
390
0
 62
     7
 48
0.01625
100
AcDbLine
 10
179.347046
 20
181.149994
 30
0.0
 11
179.347046
 21
180.5
 31
0.0
210
0.0
220
0.0
230
1.0
  0
LINE
  5
43C
100
AcDbEntity
  8
0
370
    35
390
0
 62
     7
 48
0.01
100
AcDbLine
 10
99.947052
 20
181.149994
 30
0.0
 11
100.347054
 21
181.149994
 31
0.0
210
0.0
220
0.0
230
1.0
  0
LINE
  5
43D
100
AcDbEntity
  8
0
370
    35
390
0
 62
     7
 48
0.01625
100
AcDbLine
 10
99.947052
 20
181.149994
 30
0.0
 11
99.947052
 21
180.5
 31
0.0
210
0.0
220
0.0
230
1.0
  0
ARC
  5
43E
100
AcDbEntity
  8
0
370
    35
390
0
 62
     7
100
AcDbCircle
 10
99.697052
 20
180.5
 30
0.0
 40
0.25
210
0.0
220
0.0
230
1.0
100
AcDbArc
 50
269.999997
 51
360.0
  0
LINE
  5
43F
100
AcDbEntity
  8
0
370
    35
390
0
 62
     7
 48
0.01625
100
AcDbLine
 10
99.697052
 20
180.25
 30
0.0
 11
99.047058
 21
180.25
 31
0.0
210
0.0
220
0.0
230
1.0
  0
LINE
  5
440
100
AcDbEntity
  8
0
370
    35
390
0
 62
     7
 48
0.01
100
AcDbLine
 10
99.047058
 20
180.25
 30
0.0
 11
99.047058
 21
179.850006
 31
0.0
210
0.0
220
0.0
230
1.0
  0
LINE
  5
441
100
AcDbEntity
  8
0
370
    35
390
0
 62
     7
 48
0.01625
100
AcDbLine
 10
99.697052
 20
179.850006
 30
0.0
 11
99.047058
 21
179.850006
 31
0.0
210
0.0
220
0.0
230
1.0
  0
ARC
  5
442
100
AcDbEntity
  8
0
370
    35
390
0
 62
     7
100
AcDbCircle
 10
99.697052
 20
179.600006
 30
0.0
 40
0.25
210
0.0
220
0.0
230
1.0
100
AcDbArc
 50
0.0
 51
90.000003
  0
LINE
  5
443
100
AcDbEntity
  8
0
370
    35
390
0
 62
     7
 48
0.01625
100
AcDbLine
 10
99.947052
 20
178.949997
 30
0.0
 11
99.947052
 21
179.600006
 31
0.0
210
0.0
220
0.0
230
1.0
  0
LINE
  5
444
100
AcDbEntity
  8
0
370
    35
390
0
 62
     7
 48
0.01
100
AcDbLine
 10
99.947052
 20
178.949997
 30
0.0
 11
100.347054
 21
178.949997
 31
0.0
210
0.0
220
0.0
230
1.0
  0
LINE
  5
445
100
AcDbEntity
  8
0
370
    35
390
0
 62
     7
 48
0.01625
100
AcDbLine
 10
100.347054
 20
178.949997
 30
0.0
 11
100.347054
 21
179.600006
 31
0.0
210
0.0
220
0.0
230
1.0
  0
ARC
  5
446
100
AcDbEntity
  8
0
370
    35
390
0
 62
     7
100
AcDbCircle
 10
100.597054
 20
179.600006
 30
0.0
 40
0.25
210
0.0
220
0.0
230
1.0
100
AcDbArc
 50
90.000003
 51
180.000009
  0
LINE
  5
447
100
AcDbEntity
  8
0
370
    35
390
0
 62
     7
 48
0.01625
100
AcDbLine
 10
100.597054
 20
179.850006
 30
0.0
 11
101.247055
 21
179.850006
 31
0.0
210
0.0
220
0.0
230
1.0
  0
LINE
  5
448
100
AcDbEntity
  8
0
370
    35
390
0
 62
     7
 48
0.01
100
AcDbLine
 10
101.247055
 20
180.25
 30
0.0
 11
101.247055
 21
179.850006
 31
0.0
210
0.0
220
0.0
230
1.0
  0
LINE
  5
449
100
AcDbEntity
  8
0
370
    35
390
0
 62
     7
 48
0.01625
100
AcDbLine
 10
100.597054
 20
180.25
 30
0.0
 11
101.247055
 21
180.25
 31
0.0
210
0.0
220
0.0
230
1.0
  0
ARC
  5
44A
100
AcDbEntity
  8
0
370
    35
390
0
 62
     7
100
AcDbCircle
 10
100.597054
 20
180.5
 30
0.0
 40
0.25
210
0.0
220
0.0
230
1.0
100
AcDbArc
 50
180.000009
 51
269.999997
  0
LINE
  5
44B
100
AcDbEntity
  8
0
370
    35
390
0
 62
     7
 48
0.01625
100
AcDbLine
 10
100.347054
 20
181.149994
 30
0.0
 11
100.347054
 21
180.5
 31
0.0
210
0.0
220
0.0
230
1.0
  0
LINE
  5
44C
100
AcDbEntity
  8
0
370
    35
390
0
 62
     7
 48
0.085
100
AcDbLine
 10
328.547028
 20
81.650002
 30
0.0
 11
325.147034
 21
81.650002
 31
0.0
210
0.0
220
0.0
230
1.0
  0
LINE
  5
44D
100
AcDbEntity
  8
0
370
    35
390
0
 62
     7
 48
0.085
100
AcDbLine
 10
325.147034
 20
81.650002
 30
0.0
 11
321.74704
 21
81.650002
 31
0.0
210
0.0
220
0.0
230
1.0
  0
LINE
  5
44E
100
AcDbEntity
  8
0
370
    35
390
0
 62
     7
 48
0.003751
100
AcDbLine
 10
245.74707
 20
170.199997
 30
0.0
 11
245.74707
 21
170.049973
 31
0.0
210
0.0
220
0.0
230
1.0
  0
LINE
  5
44F
100
AcDbEntity
  8
0
370
    35
390
0
 62
     7
 48
0.003751
100
AcDbLine
 10
247.947052
 20
170.199997
 30
0.0
 11
247.947052
 21
170.049973
 31
0.0
210
0.0
220
0.0
230
1.0
  0
LINE
  5
450
100
AcDbEntity
  8
0
370
    35
390
0
 62
     7
 48
0.003751
100
AcDbLine
 10
250.147064
 20
170.199997
 30
0.0
 11
250.147064
 21
170.049973
 31
0.0
210
0.0
220
0.0
230
1.0
  0
LINE
  5
451
100
AcDbEntity
  8
0
370
    35
390
0
 62
     7
 48
0.07839
100
AcDbLine
 10
245.74707
 20
165.649994
 30
0.0
 11
245.74707
 21
162.514389
 31
0.0
210
0.0
220
0.0
230
1.0
  0
LINE
  5
452
100
AcDbEntity
  8
0
370
    35
390
0
 62
     7
 48
0.014422
100
AcDbLine
 10
245.74707
 20
162.514389
 30
0.0
 11
245.74707
 21
161.9375
 31
0.0
210
0.0
220
0.0
230
1.0
  0
LINE
  5
453
100
AcDbEntity
  8
0
370
    35
390
0
 62
     7
 48
0.014231
100
AcDbLine
 10
246.74707
 20
162.0
 30
0.0
 11
246.74707
 21
162.569244
 31
0.0
210
0.0
220
0.0
230
1.0
  0
LINE
  5
454
100
AcDbEntity
  8
0
370
    35
390
0
 62
     7
 48
0.077019
100
AcDbLine
 10
246.74707
 20
162.569244
 30
0.0
 11
246.74707
 21
165.649994
 31
0.0
210
0.0
220
0.0
230
1.0
  0
LINE
  5
455
100
AcDbEntity
  8
0
370
    35
390
0
 62
     7
 48
0.075373
100
AcDbLine
 10
247.947052
 20
165.649994
 30
0.0
 11
247.947052
 21
162.635056
 31
0.0
210
0.0
220
0.0
230
1.0
  0
LINE
  5
456
100
AcDbEntity
  8
0
370
    35
390
0
 62
     7
 48
0.014001
100
AcDbLine
 10
247.947052
 20
162.635056
 30
0.0
 11
247.947052
 21
162.074997
 31
0.0
210
0.0
220
0.0
230
1.0
  0
LINE
  5
457
100
AcDbEntity
  8
0
370
    35
390
0
 62
     7
 48
0.01381
100
AcDbLine
 10
248.947052
 20
162.137497
 30
0.0
 11
248.947052
 21
162.689911
 31
0.0
210
0.0
220
0.0
230
1.0
  0
LINE
  5
458
100
AcDbEntity
  8
0
370
    35
390
0
 62
     7
 48
0.074002
100
AcDbLine
 10
248.947052
 20
162.689911
 30
0.0
 11
248.947052
 21
165.649994
 31
0.0
210
0.0
220
0.0
230
1.0
  0
LINE
  5
459
100
AcDbEntity
  8
0
370
    35
390
0
 62
     7
 48
0.072357
100
AcDbLine
 10
250.147064
 20
165.649994
 30
0.0
 11
250.147064
 21
162.755722
 31
0.0
210
0.0
220
0.0
230
1.0
  0
LINE
  5
45A
100
AcDbEntity
  8
0
370
    35
390
0
 62
     7
 48
0.013581
100
AcDbLine
 10
250.147064
 20
162.755722
 30
0.0
 11
250.147064
 21
162.212494
 31
0.0
210
0.0
220
0.0
230
1.0
  0
LINE
  5
45B
100
AcDbEntity
  8
0
370
    35
390
0
 62
     7
 48
0.01339
100
AcDbLine
 10
251.147064
 20
162.274994
 30
0.0
 11
251.147064
 21
162.810577
 31
0.0
210
0.0
220
0.0
230
1.0
  0
LINE
  5
45C
100
AcDbEntity
  8
0
370
    35
390
0
 62
     7
 48
0.070985
100
AcDbLine
 10
251.147064
 20
162.810577
 30
0.0
 11
251.147064
 21
165.649994
 31
0.0
210
0.0
220
0.0
230
1.0
  0
LINE
  5
45D
100
AcDbEntity
  8
0
370
    35
390
0
 62
     7
 48
0.013007
100
AcDbLine
 10
253.147064
 20
162.920273
 30
0.0
 11
253.147064
 21
162.399994
 31
0.0
210
0.0
220
0.0
230
1.0
  0
LINE
  5
45E
100
AcDbEntity
  8
0
370
    35
390
0
 62
     7
 48
0.199493
100
AcDbLine
 10
253.147064
 20
170.899994
 30
0.0
 11
253.147064
 21
162.920273
 31
0.0
210
0.0
220
0.0
230
1.0
  0
LINE
  5
45F
100
AcDbEntity
  8
0
370
    35
390
0
 62
     7
 48
0.084375
100
AcDbLine
 10
251.147064
 20
167.649994
 30
0.0
 11
251.147064
 21
171.024994
 31
0.0
210
0.0
220
0.0
230
1.0
  0
LINE
  5
460
100
AcDbEntity
  8
0
370
    35
390
0
 62
     7
 48
0.085938
100
AcDbLine
 10
250.147064
 20
171.087494
 30
0.0
 11
250.147064
 21
167.649994
 31
0.0
210
0.0
220
0.0
230
1.0
  0
LINE
  5
461
100
AcDbEntity
  8
0
370
    35
390
0
 62
     7
 48
0.087813
100
AcDbLine
 10
248.947052
 20
167.649994
 30
0.0
 11
248.947052
 21
171.162506
 31
0.0
210
0.0
220
0.0
230
1.0
  0
LINE
  5
462
100
AcDbEntity
  8
0
370
    35
390
0
 62
     7
 48
0.089375
100
AcDbLine
 10
247.947052
 20
171.225006
 30
0.0
 11
247.947052
 21
167.649994
 31
0.0
210
0.0
220
0.0
230
1.0
  0
LINE
  5
463
100
AcDbEntity
  8
0
370
    35
390
0
 62
     7
 48
0.09125
100
AcDbLine
 10
246.74707
 20
167.649994
 30
0.0
 11
246.74707
 21
171.299988
 31
0.0
210
0.0
220
0.0
230
1.0
  0
LINE
  5
464
100
AcDbEntity
  8
0
370
    35
390
0
 62
     7
 48
0.092812
100
AcDbLine
 10
245.74707
 20
171.362488
 30
0.0
 11
245.74707
 21
167.649994
 31
0.0
210
0.0
220
0.0
230
1.0
  0
LINE
  5
465
100
AcDbEntity
  8
0
370
    35
390
0
 62
     7
 48
0.025
100
AcDbLine
 10
246.74707
 20
165.649994
 30
0.0
 11
245.74707
 21
165.649994
 31
0.0
210
0.0
220
0.0
230
1.0
  0
LINE
  5
466
100
AcDbEntity
  8
0
370
    35
390
0
 62
     7
 48
0.025
100
AcDbLine
 10
246.74707
 20
167.649994
 30
0.0
 11
245.74707
 21
167.649994
 31
0.0
210
0.0
220
0.0
230
1.0
  0
LINE
  5
467
100
AcDbEntity
  8
0
370
    35
390
0
 62
     7
 48
0.025
100
AcDbLine
 10
248.947052
 20
167.649994
 30
0.0
 11
247.947052
 21
167.649994
 31
0.0
210
0.0
220
0.0
230
1.0
  0
LINE
  5
468
100
AcDbEntity
  8
0
370
    35
390
0
 62
     7
 48
0.025
100
AcDbLine
 10
251.147064
 20
167.649994
 30
0.0
 11
250.147064
 21
167.649994
 31
0.0
210
0.0
220
0.0
230
1.0
  0
LINE
  5
469
100
AcDbEntity
  8
0
370
    35
390
0
 62
     7
 48
0.025
100
AcDbLine
 10
251.147064
 20
165.649994
 30
0.0
 11
250.147064
 21
165.649994
 31
0.0
210
0.0
220
0.0
230
1.0
  0
LINE
  5
46A
100
AcDbEntity
  8
0
370
    35
390
0
 62
     7
 48
0.025
100
AcDbLine
 10
248.947052
 20
165.649994
 30
0.0
 11
247.947052
 21
165.649994
 31
0.0
210
0.0
220
0.0
230
1.0
  0
LINE
  5
46B
100
AcDbEntity
  8
0
370
    35
390
0
 62
     7
 48
0.234698
100
AcDbLine
 10
241.147064
 20
171.649994
 30
0.0
 11
241.147064
 21
162.262085
 31
0.0
210
0.0
220
0.0
230
1.0
  0
LINE
  5
46C
100
AcDbEntity
  8
0
370
    35
390
0
 62
     7
 48
0.015302
100
AcDbLine
 10
241.147064
 20
162.262085
 30
0.0
 11
241.147064
 21
161.649994
 31
0.0
210
0.0
220
0.0
230
1.0
  0
LINE
  5
46D
100
AcDbEntity
  8
0
370
    35
390
0
 62
     7
 48
0.24878
100
AcDbLine
 10
240.147064
 20
171.949997
 30
0.0
 11
240.147064
 21
161.99881
 31
0.0
210
0.0
220
0.0
230
1.0
  0
LINE
  5
46E
100
AcDbEntity
  8
0
370
    35
390
0
 62
     7
 48
0.01622
100
AcDbLine
 10
240.147064
 20
161.99881
 30
0.0
 11
240.147064
 21
161.350006
 31
0.0
210
0.0
220
0.0
230
1.0
  0
LINE
  5
46F
100
AcDbEntity
  8
0
370
    35
390
0
 62
     7
 48
0.218215
100
AcDbLine
 10
235.147064
 20
169.478607
 30
0.0
 11
235.147064
 21
160.75
 31
0.0
210
0.0
220
0.0
230
1.0
  0
LINE
  5
470
100
AcDbEntity
  8
0
370
    35
390
0
 62
     7
 48
0.076785
100
AcDbLine
 10
235.147064
 20
172.549988
 30
0.0
 11
235.147064
 21
169.478607
 31
0.0
210
0.0
220
0.0
230
1.0
  0
LINE
  5
471
100
AcDbEntity
  8
0
370
    35
390
0
 62
     7
 48
0.027486
100
AcDbLine
 10
234.915894
 20
169.67038
 30
0.0
 11
234.915894
 21
168.570923
 31
0.0
210
0.0
220
0.0
230
1.0
  0
ARC
  5
472
100
AcDbEntity
  8
0
370
    35
390
0
 62
     7
100
AcDbCircle
 10
224.589569
 20
166.649994
 30
0.0
 40
10.504192
210
0.0
220
0.0
230
1.0
100
AcDbArc
 50
349.462094
 51
10.537886
  0
LINE
  5
473
100
AcDbEntity
  8
0
370
    35
390
0
 62
     7
 48
0.057869
100
AcDbLine
 10
234.915894
 20
164.729065
 30
0.0
 11
234.915894
 21
162.414307
 31
0.0
210
0.0
220
0.0
230
1.0
  0
ARC
  5
474
100
AcDbEntity
  8
0
370
    35
390
0
 62
     7
100
AcDbCircle
 10
232.401459
 20
161.453842
 30
0.0
 40
2.691781
210
0.0
220
0.0
230
1.0
100
AcDbArc
 50
339.093949
 51
20.906017
  0
LINE
  5
475
100
AcDbEntity
  8
0
370
    35
390
0
 62
     7
 48
0.003584
100
AcDbLine
 10
234.915894
 20
160.493378
 30
0.0
 11
234.915894
 21
160.350006
 31
0.0
210
0.0
220
0.0
230
1.0
  0
LINE
  5
476
100
AcDbEntity
  8
0
370
    35
390
0
 62
     7
 48
0.003585
100
AcDbLine
 10
234.915894
 20
172.949997
 30
0.0
 11
234.915894
 21
172.80661
 31
0.0
210
0.0
220
0.0
230
1.0
  0
ARC
  5
477
100
AcDbEntity
  8
0
370
    35
390
0
 62
     7
100
AcDbCircle
 10
232.401459
 20
171.846161
 30
0.0
 40
2.691781
210
0.0
220
0.0
230
1.0
100
AcDbArc
 50
339.093949
 51
20.906017
  0
LINE
  5
478
100
AcDbEntity
  8
0
370
    35
390
0
 62
     7
 48
0.030383
100
AcDbLine
 10
234.915894
 20
169.67038
 30
0.0
 11
234.915894
 21
170.885681
 31
0.0
210
0.0
220
0.0
230
1.0
  0
LINE
  5
479
100
AcDbEntity
  8
0
370
    35
390
0
 62
     7
 48
0.169221
100
AcDbLine
 10
234.915894
 20
170.885681
 30
0.0
 11
228.147064
 21
170.885681
 31
0.0
210
0.0
220
0.0
230
1.0
  0
LINE
  5
47A
100
AcDbEntity
  8
0
370
    35
390
0
 62
     7
 48
0.057869
100
AcDbLine
 10
228.147064
 20
170.885681
 30
0.0
 11
228.147064
 21
168.570923
 31
0.0
210
0.0
220
0.0
230
1.0
  0
LINE
  5
47B
100
AcDbEntity
  8
0
370
    35
390
0
 62
     7
 48
0.169221
100
AcDbLine
 10
234.915894
 20
168.570923
 30
0.0
 11
228.147064
 21
168.570923
 31
0.0
210
0.0
220
0.0
230
1.0
  0
LINE
  5
47C
100
AcDbEntity
  8
0
370
    35
390
0
 62
     7
 48
0.169221
100
AcDbLine
 10
228.147064
 20
164.729065
 30
0.0
 11
234.915894
 21
164.729065
 31
0.0
210
0.0
220
0.0
230
1.0
  0
LINE
  5
47D
100
AcDbEntity
  8
0
370
    35
390
0
 62
     7
 48
0.057869
100
AcDbLine
 10
228.147064
 20
164.729065
 30
0.0
 11
228.147064
 21
162.414307
 31
0.0
210
0.0
220
0.0
230
1.0
  0
LINE
  5
47E
100
AcDbEntity
  8
0
370
    35
390
0
 62
     7
 48
0.169221
100
AcDbLine
 10
234.915894
 20
162.414307
 30
0.0
 11
228.147064
 21
162.414307
 31
0.0
210
0.0
220
0.0
230
1.0
  0
LINE
  5
47F
100
AcDbEntity
  8
0
370
    35
390
0
 62
     7
 48
0.169221
100
AcDbLine
 10
228.147064
 20
160.493378
 30
0.0
 11
234.915894
 21
160.493378
 31
0.0
210
0.0
220
0.0
230
1.0
  0
LINE
  5
480
100
AcDbEntity
  8
0
370
    35
390
0
 62
     7
 48
0.003584
100
AcDbLine
 10
228.147064
 20
160.493378
 30
0.0
 11
228.147064
 21
160.350006
 31
0.0
210
0.0
220
0.0
230
1.0
  0
LINE
  5
481
100
AcDbEntity
  8
0
370
    35
390
0
 62
     7
 48
0.003585
100
AcDbLine
 10
228.147064
 20
172.949997
 30
0.0
 11
228.147064
 21
172.80661
 31
0.0
210
0.0
220
0.0
230
1.0
  0
LINE
  5
482
100
AcDbEntity
  8
0
370
    35
390
0
 62
     7
 48
0.169221
100
AcDbLine
 10
234.915894
 20
172.80661
 30
0.0
 11
228.147064
 21
172.80661
 31
0.0
210
0.0
220
0.0
230
1.0
  0
LINE
  5
483
100
AcDbEntity
  8
0
370
    35
390
0
 62
     7
 48
0.064212
100
AcDbLine
 10
227.647064
 20
171.252411
 30
0.0
 11
227.647064
 21
168.683929
 31
0.0
210
0.0
220
0.0
230
1.0
  0
LINE
  5
484
100
AcDbEntity
  8
0
370
    35
390
0
 62
     7
 48
0.016061
100
AcDbLine
 10
228.147064
 20
168.280548
 30
0.0
 11
227.647064
 21
168.683929
 31
0.0
210
0.0
220
0.0
230
1.0
  0
LINE
  5
485
100
AcDbEntity
  8
0
370
    35
390
0
 62
     7
 48
0.007259
100
AcDbLine
 10
228.147064
 20
168.280548
 30
0.0
 11
228.147064
 21
168.570923
 31
0.0
210
0.0
220
0.0
230
1.0
  0
LINE
  5
486
100
AcDbEntity
  8
0
370
    35
390
0
 62
     7
 48
0.005477
100
AcDbLine
 10
228.147064
 20
170.885681
 30
0.0
 11
228.147064
 21
171.104767
 31
0.0
210
0.0
220
0.0
230
1.0
  0
LINE
  5
487
100
AcDbEntity
  8
0
370
    35
390
0
 62
     7
 48
0.013034
100
AcDbLine
 10
228.147064
 20
171.104767
 30
0.0
 11
227.647064
 21
171.252411
 31
0.0
210
0.0
220
0.0
230
1.0
  0
LINE
  5
488
100
AcDbEntity
  8
0
370
    35
390
0
 62
     7
 48
0.081528
100
AcDbLine
 10
228.147064
 20
165.01944
 30
0.0
 11
228.147064
 21
168.280548
 31
0.0
210
0.0
220
0.0
230
1.0
  0
LINE
  5
489
100
AcDbEntity
  8
0
370
    35
390
0
 62
     7
 48
0.007259
100
AcDbLine
 10
228.147064
 20
164.729065
 30
0.0
 11
228.147064
 21
165.01944
 31
0.0
210
0.0
220
0.0
230
1.0
  0
LINE
  5
48A
100
AcDbEntity
  8
0
370
    35
390
0
 62
     7
 48
0.016061
100
AcDbLine
 10
228.147064
 20
165.01944
 30
0.0
 11
227.647064
 21
164.616074
 31
0.0
210
0.0
220
0.0
230
1.0
  0
LINE
  5
48B
100
AcDbEntity
  8
0
370
    35
390
0
 62
     7
 48
0.064212
100
AcDbLine
 10
227.647064
 20
164.616074
 30
0.0
 11
227.647064
 21
162.047577
 31
0.0
210
0.0
220
0.0
230
1.0
  0
LINE
  5
48C
100
AcDbEntity
  8
0
370
    35
390
0
 62
     7
 48
0.013034
100
AcDbLine
 10
228.147064
 20
162.195221
 30
0.0
 11
227.647064
 21
162.047577
 31
0.0
210
0.0
220
0.0
230
1.0
  0
LINE
  5
48D
100
AcDbEntity
  8
0
370
    35
390
0
 62
     7
 48
0.005477
100
AcDbLine
 10
228.147064
 20
162.195221
 30
0.0
 11
228.147064
 21
162.414307
 31
0.0
210
0.0
220
0.0
230
1.0
  0
LINE
  5
48E
100
AcDbEntity
  8
0
370
    35
390
0
 62
     7
 48
0.040764
100
AcDbLine
 10
228.147064
 20
160.564667
 30
0.0
 11
228.147064
 21
162.195221
 31
0.0
210
0.0
220
0.0
230
1.0
  0
LINE
  5
48F
100
AcDbEntity
  8
0
370
    35
390
0
 62
     7
 48
0.001782
100
AcDbLine
 10
228.147064
 20
160.493378
 30
0.0
 11
228.147064
 21
160.564667
 31
0.0
210
0.0
220
0.0
230
1.0
  0
ARC
  5
490
100
AcDbEntity
  8
0
370
    35
390
0
 62
     7
100
AcDbCircle
 10
179.836304
 20
203.9039
 30
0.0
 40
64.901611
210
0.0
220
0.0
230
1.0
100
AcDbArc
 50
317.448096
 51
318.104941
  0
LINE
  5
491
100
AcDbEntity
  8
0
370
    35
390
0
 62
     7
 48
0.004092
100
AcDbLine
 10
227.647064
 20
160.013672
 30
0.0
 11
227.647064
 21
159.850006
 31
0.0
210
0.0
220
0.0
230
1.0
  0
LINE
  5
492
100
AcDbEntity
  8
0
370
    35
390
0
 62
     7
 48
0.001782
100
AcDbLine
 10
228.147064
 20
172.735321
 30
0.0
 11
228.147064
 21
172.80661
 31
0.0
210
0.0
220
0.0
230
1.0
  0
LINE
  5
493
100
AcDbEntity
  8
0
370
    35
390
0
 62
     7
 48
0.004092
100
AcDbLine
 10
227.647064
 20
173.449997
 30
0.0
 11
227.647064
 21
173.286331
 31
0.0
210
0.0
220
0.0
230
1.0
  0
ARC
  5
494
100
AcDbEntity
  8
0
370
    35
390
0
 62
     7
100
AcDbCircle
 10
179.836304
 20
129.396088
 30
0.0
 40
64.901611
210
0.0
220
0.0
230
1.0
100
AcDbArc
 50
41.895052
 51
42.551911
  0
LINE
  5
495
100
AcDbEntity
  8
0
370
    35
390
0
 62
     7
 48
0.040764
100
AcDbLine
 10
228.147064
 20
171.104767
 30
0.0
 11
228.147064
 21
172.735321
 31
0.0
210
0.0
220
0.0
230
1.0
  0
LINE
  5
496
100
AcDbEntity
  8
0
370
    35
390
0
 62
     7
 48
0.064212
100
AcDbLine
 10
218.647064
 20
171.252411
 30
0.0
 11
218.647064
 21
168.683929
 31
0.0
210
0.0
220
0.0
230
1.0
  0
LINE
  5
497
100
AcDbEntity
  8
0
370
    35
390
0
 62
     7
 48
0.225
100
AcDbLine
 10
227.647064
 20
168.683929
 30
0.0
 11
218.647064
 21
168.683929
 31
0.0
210
0.0
220
0.0
230
1.0
  0
LINE
  5
498
100
AcDbEntity
  8
0
370
    35
390
0
 62
     7
 48
0.225
100
AcDbLine
 10
227.647064
 20
171.252411
 30
0.0
 11
218.647064
 21
171.252411
 31
0.0
210
0.0
220
0.0
230
1.0
  0
LINE
  5
499
100
AcDbEntity
  8
0
370
    35
390
0
 62
     7
 48
0.016061
100
AcDbLine
 10
218.147064
 20
168.280548
 30
0.0
 11
218.647064
 21
168.683929
 31
0.0
210
0.0
220
0.0
230
1.0
  0
LINE
  5
49A
100
AcDbEntity
  8
0
370
    35
390
0
 62
     7
 48
0.25
100
AcDbLine
 10
228.147064
 20
168.280548
 30
0.0
 11
218.147064
 21
168.280548
 31
0.0
210
0.0
220
0.0
230
1.0
  0
LINE
  5
49B
100
AcDbEntity
  8
0
370
    35
390
0
 62
     7
 48
0.013034
100
AcDbLine
 10
218.147064
 20
171.104767
 30
0.0
 11
218.647064
 21
171.252411
 31
0.0
210
0.0
220
0.0
230
1.0
  0
LINE
  5
49C
100
AcDbEntity
  8
0
370
    35
390
0
 62
     7
 48
0.25
100
AcDbLine
 10
228.147064
 20
172.735321
 30
0.0
 11
218.147064
 21
172.735321
 31
0.0
210
0.0
220
0.0
230
1.0
  0
LINE
  5
49D
100
AcDbEntity
  8
0
370
    35
390
0
 62
     7
 48
0.005367
100
AcDbLine
 10
218.147064
 20
172.949997
 30
0.0
 11
218.147064
 21
172.735321
 31
0.0
210
0.0
220
0.0
230
1.0
  0
LINE
  5
49E
100
AcDbEntity
  8
0
370
    35
390
0
 62
     7
 48
0.005367
100
AcDbLine
 10
218.147064
 20
160.564667
 30
0.0
 11
218.147064
 21
160.350006
 31
0.0
210
0.0
220
0.0
230
1.0
  0
LINE
  5
49F
100
AcDbEntity
  8
0
370
    35
390
0
 62
     7
 48
0.25
100
AcDbLine
 10
228.147064
 20
160.564667
 30
0.0
 11
218.147064
 21
160.564667
 31
0.0
210
0.0
220
0.0
230
1.0
  0
LINE
  5
4A0
100
AcDbEntity
  8
0
370
    35
390
0
 62
     7
 48
0.070605
100
AcDbLine
 10
218.147064
 20
165.01944
 30
0.0
 11
218.147064
 21
162.195221
 31
0.0
210
0.0
220
0.0
230
1.0
  0
LINE
  5
4A1
100
AcDbEntity
  8
0
370
    35
390
0
 62
     7
 48
0.25
100
AcDbLine
 10
228.147064
 20
165.01944
 30
0.0
 11
218.147064
 21
165.01944
 31
0.0
210
0.0
220
0.0
230
1.0
  0
LINE
  5
4A2
100
AcDbEntity
  8
0
370
    35
390
0
 62
     7
 48
0.070605
100
AcDbLine
 10
218.147064
 20
171.104767
 30
0.0
 11
218.147064
 21
168.280548
 31
0.0
210
0.0
220
0.0
230
1.0
  0
LINE
  5
4A3
100
AcDbEntity
  8
0
370
    35
390
0
 62
     7
 48
0.016061
100
AcDbLine
 10
218.147064
 20
165.01944
 30
0.0
 11
218.647064
 21
164.616074
 31
0.0
210
0.0
220
0.0
230
1.0
  0
LINE
  5
4A4
100
AcDbEntity
  8
0
370
    35
390
0
 62
     7
 48
0.225
100
AcDbLine
 10
227.647064
 20
164.616074
 30
0.0
 11
218.647064
 21
164.616074
 31
0.0
210
0.0
220
0.0
230
1.0
  0
LINE
  5
4A5
100
AcDbEntity
  8
0
370
    35
390
0
 62
     7
 48
0.064212
100
AcDbLine
 10
218.647064
 20
164.616074
 30
0.0
 11
218.647064
 21
162.047577
 31
0.0
210
0.0
220
0.0
230
1.0
  0
LINE
  5
4A6
100
AcDbEntity
  8
0
370
    35
390
0
 62
     7
 48
0.225
100
AcDbLine
 10
227.647064
 20
162.047577
 30
0.0
 11
218.647064
 21
162.047577
 31
0.0
210
0.0
220
0.0
230
1.0
  0
LINE
  5
4A7
100
AcDbEntity
  8
0
370
    35
390
0
 62
     7
 48
0.013034
100
AcDbLine
 10
218.147064
 20
162.195221
 30
0.0
 11
218.647064
 21
162.047577
 31
0.0
210
0.0
220
0.0
230
1.0
  0
ARC
  5
4A8
100
AcDbEntity
  8
0
370
    35
390
0
 62
     7
100
AcDbCircle
 10
266.457794
 20
203.9039
 30
0.0
 40
64.901611
210
0.0
220
0.0
230
1.0
100
AcDbArc
 50
221.89505
 51
222.55191
  0
LINE
  5
4A9
100
AcDbEntity
  8
0
370
    35
390
0
 62
     7
 48
0.225
100
AcDbLine
 10
227.647064
 20
160.013672
 30
0.0
 11
218.647064
 21
160.013672
 31
0.0
210
0.0
220
0.0
230
1.0
  0
LINE
  5
4AA
100
AcDbEntity
  8
0
370
    35
390
0
 62
     7
 48
0.004092
100
AcDbLine
 10
218.647064
 20
160.013672
 30
0.0
 11
218.647064
 21
159.850006
 31
0.0
210
0.0
220
0.0
230
1.0
  0
LINE
  5
4AB
100
AcDbEntity
  8
0
370
    35
390
0
 62
     7
 48
0.004092
100
AcDbLine
 10
218.647064
 20
173.449997
 30
0.0
 11
218.647064
 21
173.286331
 31
0.0
210
0.0
220
0.0
230
1.0
  0
LINE
  5
4AC
100
AcDbEntity
  8
0
370
    35
390
0
 62
     7
 48
0.225
100
AcDbLine
 10
227.647064
 20
173.286331
 30
0.0
 11
218.647064
 21
173.286331
 31
0.0
210
0.0
220
0.0
230
1.0
  0
ARC
  5
4AD
100
AcDbEntity
  8
0
370
    35
390
0
 62
     7
100
AcDbCircle
 10
266.457794
 20
129.396088
 30
0.0
 40
64.901611
210
0.0
220
0.0
230
1.0
100
AcDbArc
 50
137.44809
 51
138.10495
  0
LINE
  5
4AE
100
AcDbEntity
  8
0
370
    35
390
0
 62
     7
 48
0.0075
100
AcDbLine
 10
214.947052
 20
181.649994
 30
0.0
 11
215.24707
 21
181.649994
 31
0.0
210
0.0
220
0.0
230
1.0
  0
LINE
  5
4AF
100
AcDbEntity
  8
0
370
    35
390
0
 62
     7
 48
0.00433
100
AcDbLine
 10
107.783661
 20
160.75
 30
0.0
 11
107.870262
 21
160.600006
 31
0.0
210
0.0
220
0.0
230
1.0
  0
LINE
  5
4B0
100
AcDbEntity
  8
0
370
    35
390
0
 62
     7
 48
0.00433
100
AcDbLine
 10
104.510452
 20
160.75
 30
0.0
 11
104.423851
 21
160.600006
 31
0.0
210
0.0
220
0.0
230
1.0
  0
LINE
  5
4B1
100
AcDbEntity
  8
0
370
    35
390
0
 62
     7
 48
0.00433
100
AcDbLine
 10
193.510437
 20
160.75
 30
0.0
 11
193.423859
 21
160.600006
 31
0.0
210
0.0
220
0.0
230
1.0
  0
LINE
  5
4B2
100
AcDbEntity
  8
0
370
    35
390
0
 62
     7
 48
0.00433
100
AcDbLine
 10
196.783661
 20
160.75
 30
0.0
 11
196.87027
 21
160.600006
 31
0.0
210
0.0
220
0.0
230
1.0
  0
LINE
  5
4B3
100
AcDbEntity
  8
0
370
    35
390
0
 62
     7
 48
0.000905
100
AcDbLine
 10
196.595825
 20
181.075623
 30
0.0
 11
196.621429
 21
181.101227
 31
0.0
210
0.0
220
0.0
230
1.0
  0
POLYLINE
  5
4B4
100
AcDbEntity
  8
0
370
    35
390
0
 62
     7
100
AcDb2dPolyline
 66
     1
 10
0.0
 20
0.0
 30
0.0
 71
    23
  0
VERTEX
  5
4B5
100
AcDbEntity
  8
0
370
     0
390
0
100
AcDbVertex
100
AcDb2dVertex
 10
181.833893
 20
181.082916
 30
0.0
  0
VERTEX
  5
4B6
100
AcDbEntity
  8
0
370
     0
390
0
100
AcDbVertex
100
AcDb2dVertex
 10
181.837097
 20
181.073135
 30
0.0
  0
VERTEX
  5
4B7
100
AcDbEntity
  8
0
370
     0
390
0
100
AcDbVertex
100
AcDb2dVertex
 10
181.844208
 20
181.056992
 30
0.0
  0
VERTEX
  5
4B8
100
AcDbEntity
  8
0
370
     0
390
0
100
AcDbVertex
100
AcDb2dVertex
 10
181.847473
 20
181.050507
 30
0.0
  0
VERTEX
  5
4B9
100
AcDbEntity
  8
0
370
     0
390
0
100
AcDbVertex
100
AcDb2dVertex
 10
181.848145
 20
181.049042
 30
0.0
  0
VERTEX
  5
4BA
100
AcDbEntity
  8
0
370
     0
390
0
100
AcDbVertex
100
AcDb2dVertex
 10
181.830994
 20
181.070541
 30
0.0
  0
VERTEX
  5
4BB
100
AcDbEntity
  8
0
370
     0
390
0
100
AcDbVertex
100
AcDb2dVertex
 10
181.827484
 20
181.075699
 30
0.0
  0
VERTEX
  5
4BC
100
AcDbEntity
  8
0
370
     0
390
0
100
AcDbVertex
100
AcDb2dVertex
 10
181.829285
 20
181.074432
 30
0.0
  0
VERTEX
  5
4BD
100
AcDbEntity
  8
0
370
     0
390
0
100
AcDbVertex
100
AcDb2dVertex
 10
181.838043
 20
181.064178
 30
0.0
  0
VERTEX
  5
4BE
100
AcDbEntity
  8
0
370
     0
390
0
100
AcDbVertex
100
AcDb2dVertex
 10
181.846619
 20
181.052368
 30
0.0
  0
VERTEX
  5
4BF
100
AcDbEntity
  8
0
370
     0
390
0
100
AcDbVertex
100
AcDb2dVertex
 10
181.847382
 20
181.050735
 30
0.0
  0
VERTEX
  5
4C0
100
AcDbEntity
  8
0
370
     0
390
0
100
AcDbVertex
100
AcDb2dVertex
 10
181.84729
 20
181.04953
 30
0.0
  0
VERTEX
  5
4C1
100
AcDbEntity
  8
0
370
     0
390
0
100
AcDbVertex
100
AcDb2dVertex
 10
181.844696
 20
181.050446
 30
0.0
  0
VERTEX
  5
4C2
100
AcDbEntity
  8
0
370
     0
390
0
100
AcDbVertex
100
AcDb2dVertex
 10
181.832855
 20
181.059006
 30
0.0
  0
VERTEX
  5
4C3
100
AcDbEntity
  8
0
370
     0
390
0
100
AcDbVertex
100
AcDb2dVertex
 10
181.822601
 20
181.067749
 30
0.0
  0
VERTEX
  5
4C4
100
AcDbEntity
  8
0
370
     0
390
0
100
AcDbVertex
100
AcDb2dVertex
 10
181.820984
 20
181.069366
 30
0.0
  0
VERTEX
  5
4C5
100
AcDbEntity
  8
0
370
     0
390
0
100
AcDbVertex
100
AcDb2dVertex
 10
181.826508
 20
181.06604
 30
0.0
  0
VERTEX
  5
4C6
100
AcDbEntity
  8
0
370
     0
390
0
100
AcDbVertex
100
AcDb2dVertex
 10
181.847534
 20
181.049728
 30
0.0
  0
VERTEX
  5
4C7
100
AcDbEntity
  8
0
370
     0
390
0
100
AcDbVertex
100
AcDb2dVertex
 10
181.848236
 20
181.04892
 30
0.0
  0
VERTEX
  5
4C8
100
AcDbEntity
  8
0
370
     0
390
0
100
AcDbVertex
100
AcDb2dVertex
 10
181.846527
 20
181.049561
 30
0.0
  0
VERTEX
  5
4C9
100
AcDbEntity
  8
0
370
     0
390
0
100
AcDbVertex
100
AcDb2dVertex
 10
181.840057
 20
181.052841
 30
0.0
  0
VERTEX
  5
4CA
100
AcDbEntity
  8
0
370
     0
390
0
100
AcDbVertex
100
AcDb2dVertex
 10
181.823914
 20
181.059967
 30
0.0
  0
VERTEX
  5
4CB
100
AcDbEntity
  8
0
370
     0
390
0
100
AcDbVertex
100
AcDb2dVertex
 10
181.814148
 20
181.063171
 30
0.0
  0
SEQEND
  5
4CC
100
AcDbEntity
  8
0
370
     0
390
0
  0
POLYLINE
  5
4CD
100
AcDbEntity
  8
0
370
    35
390
0
 62
     7
100
AcDb2dPolyline
 66
     1
 10
0.0
 20
0.0
 30
0.0
 71
    23
  0
VERTEX
  5
4CE
100
AcDbEntity
  8
0
370
     0
390
0
100
AcDbVertex
100
AcDb2dVertex
 10
102.833885
 20
181.082916
 30
0.0
  0
VERTEX
  5
4CF
100
AcDbEntity
  8
0
370
     0
390
0
100
AcDbVertex
100
AcDb2dVertex
 10
102.83709
 20
181.073135
 30
0.0
  0
VERTEX
  5
4D0
100
AcDbEntity
  8
0
370
     0
390
0
100
AcDbVertex
100
AcDb2dVertex
 10
102.844208
 20
181.056992
 30
0.0
  0
VERTEX
  5
4D1
100
AcDbEntity
  8
0
370
     0
390
0
100
AcDbVertex
100
AcDb2dVertex
 10
102.847488
 20
181.050507
 30
0.0
  0
VERTEX
  5
4D2
100
AcDbEntity
  8
0
370
     0
390
0
100
AcDbVertex
100
AcDb2dVertex
 10
102.848129
 20
181.049042
 30
0.0
  0
VERTEX
  5
4D3
100
AcDbEntity
  8
0
370
     0
390
0
100
AcDbVertex
100
AcDb2dVertex
 10
102.831001
 20
181.070541
 30
0.0
  0
VERTEX
  5
4D4
100
AcDbEntity
  8
0
370
     0
390
0
100
AcDbVertex
100
AcDb2dVertex
 10
102.827477
 20
181.075699
 30
0.0
  0
VERTEX
  5
4D5
100
AcDbEntity
  8
0
370
     0
390
0
100
AcDbVertex
100
AcDb2dVertex
 10
102.8293
 20
181.074432
 30
0.0
  0
VERTEX
  5
4D6
100
AcDbEntity
  8
0
370
     0
390
0
100
AcDbVertex
100
AcDb2dVertex
 10
102.838043
 20
181.064178
 30
0.0
  0
VERTEX
  5
4D7
100
AcDbEntity
  8
0
370
     0
390
0
100
AcDbVertex
100
AcDb2dVertex
 10
102.846611
 20
181.052368
 30
0.0
  0
VERTEX
  5
4D8
100
AcDbEntity
  8
0
370
     0
390
0
100
AcDbVertex
100
AcDb2dVertex
 10
102.847389
 20
181.050735
 30
0.0
  0
VERTEX
  5
4D9
100
AcDbEntity
  8
0
370
     0
390
0
100
AcDbVertex
100
AcDb2dVertex
 10
102.847305
 20
181.04953
 30
0.0
  0
VERTEX
  5
4DA
100
AcDbEntity
  8
0
370
     0
390
0
100
AcDbVertex
100
AcDb2dVertex
 10
102.844696
 20
181.050446
 30
0.0
  0
VERTEX
  5
4DB
100
AcDbEntity
  8
0
370
     0
390
0
100
AcDbVertex
100
AcDb2dVertex
 10
102.83287
 20
181.059006
 30
0.0
  0
VERTEX
  5
4DC
100
AcDbEntity
  8
0
370
     0
390
0
100
AcDbVertex
100
AcDb2dVertex
 10
102.822617
 20
181.067749
 30
0.0
  0
VERTEX
  5
4DD
100
AcDbEntity
  8
0
370
     0
390
0
100
AcDbVertex
100
AcDb2dVertex
 10
102.820992
 20
181.069366
 30
0.0
  0
VERTEX
  5
4DE
100
AcDbEntity
  8
0
370
     0
390
0
100
AcDbVertex
100
AcDb2dVertex
 10
102.826508
 20
181.06604
 30
0.0
  0
VERTEX
  5
4DF
100
AcDbEntity
  8
0
370
     0
390
0
100
AcDbVertex
100
AcDb2dVertex
 10
102.847542
 20
181.049728
 30
0.0
  0
VERTEX
  5
4E0
100
AcDbEntity
  8
0
370
     0
390
0
100
AcDbVertex
100
AcDb2dVertex
 10
102.848228
 20
181.04892
 30
0.0
  0
VERTEX
  5
4E1
100
AcDbEntity
  8
0
370
     0
390
0
100
AcDbVertex
100
AcDb2dVertex
 10
102.846535
 20
181.049561
 30
0.0
  0
VERTEX
  5
4E2
100
AcDbEntity
  8
0
370
     0
390
0
100
AcDbVertex
100
AcDb2dVertex
 10
102.840057
 20
181.052841
 30
0.0
  0
VERTEX
  5
4E3
100
AcDbEntity
  8
0
370
     0
390
0
100
AcDbVertex
100
AcDb2dVertex
 10
102.823914
 20
181.059967
 30
0.0
  0
VERTEX
  5
4E4
100
AcDbEntity
  8
0
370
     0
390
0
100
AcDbVertex
100
AcDb2dVertex
 10
102.81414
 20
181.063171
 30
0.0
  0
SEQEND
  5
4E5
100
AcDbEntity
  8
0
370
     0
390
0
  0
LINE
  5
4E6
100
AcDbEntity
  8
0
370
    35
390
0
 62
     7
 48
0.000906
100
AcDbLine
 10
87.595818
 20
181.075623
 30
0.0
 11
87.621437
 21
181.101227
 31
0.0
210
0.0
220
0.0
230
1.0
  0
LINE
  5
4E7
100
AcDbEntity
  8
0
370
    35
390
0
 62
     7
 48
0.00625
100
AcDbLine
 10
107.870262
 20
160.350006
 30
0.0
 11
107.870262
 21
160.600006
 31
0.0
210
0.0
220
0.0
230
1.0
  0
LINE
  5
4E8
100
AcDbEntity
  8
0
370
    35
390
0
 62
     7
 48
0.00625
100
AcDbLine
 10
104.423851
 20
160.350006
 30
0.0
 11
104.423851
 21
160.600006
 31
0.0
210
0.0
220
0.0
230
1.0
  0
LINE
  5
4E9
100
AcDbEntity
  8
0
370
    35
390
0
 62
     7
 48
0.00625
100
AcDbLine
 10
193.423859
 20
160.600006
 30
0.0
 11
193.423859
 21
160.350006
 31
0.0
210
0.0
220
0.0
230
1.0
  0
LINE
  5
4EA
100
AcDbEntity
  8
0
370
    35
390
0
 62
     7
 48
0.00625
100
AcDbLine
 10
196.87027
 20
160.600006
 30
0.0
 11
196.87027
 21
160.350006
 31
0.0
210
0.0
220
0.0
230
1.0
  0
LINE
  5
4EB
100
AcDbEntity
  8
0
370
    35
390
0
 62
     7
 48
0.0075
100
AcDbLine
 10
86.047058
 20
181.649994
 30
0.0
 11
86.347054
 21
181.649994
 31
0.0
210
0.0
220
0.0
230
1.0
  0
ARC
  5
4EC
100
AcDbEntity
  8
0
370
    35
390
0
 62
     7
100
AcDbCircle
 10
250.147064
 20
91.649994
 30
0.0
 40
78.400002
210
0.0
220
0.0
230
1.0
100
AcDbArc
 50
0.000002
 51
87.807034
  0
ARC
  5
4ED
100
AcDbEntity
  8
0
370
    35
390
0
 62
     7
100
AcDbCircle
 10
250.147003
 20
91.653831
 30
0.0
 40
78.396164
210
0.0
220
0.0
230
1.0
100
AcDbArc
 50
89.269111
 51
89.999968
  0
ARC
  5
4EE
100
AcDbEntity
  8
0
370
    35
390
0
 62
     7
100
AcDbCircle
 10
250.147064
 20
91.649994
 30
0.0
 40
71.599998
210
0.0
220
0.0
230
1.0
100
AcDbArc
 50
0.000002
 51
87.598651
  0
ARC
  5
4EF
100
AcDbEntity
  8
0
370
    35
390
0
 62
     7
100
AcDbCircle
 10
250.147003
 20
91.652199
 30
0.0
 40
71.597794
210
0.0
220
0.0
230
1.0
100
AcDbArc
 50
89.199702
 51
89.999962
  0
LINE
  5
4F0
100
AcDbEntity
  8
0
370
    35
390
0
 62
     7
 48
0.025
100
AcDbLine
 10
248.947052
 20
170.049988
 30
0.0
 11
247.947052
 21
170.049988
 31
0.0
210
0.0
220
0.0
230
1.0
  0
LINE
  5
4F1
100
AcDbEntity
  8
0
370
    35
390
0
 62
     7
 48
0.025
100
AcDbLine
 10
246.74704
 20
170.049988
 30
0.0
 11
245.74704
 21
170.049988
 31
0.0
210
0.0
220
0.0
230
1.0
  0
LINE
  5
4F2
100
AcDbEntity
  8
0
370
    35
390
0
 62
     7
 48
0.25
100
AcDbLine
 10
328.547028
 20
81.650002
 30
0.0
 11
328.547028
 21
91.650002
 31
0.0
210
0.0
220
0.0
230
1.0
  0
LINE
  5
4F3
100
AcDbEntity
  8
0
370
    35
390
0
 62
     7
 48
0.025
100
AcDbLine
 10
248.947052
 20
163.25
 30
0.0
 11
247.947052
 21
163.25
 31
0.0
210
0.0
220
0.0
230
1.0
  0
LINE
  5
4F4
100
AcDbEntity
  8
0
370
    35
390
0
 62
     7
 48
0.025
100
AcDbLine
 10
246.74704
 20
163.25
 30
0.0
 11
245.74704
 21
163.25
 31
0.0
210
0.0
220
0.0
230
1.0
  0
LINE
  5
4F5
100
AcDbEntity
  8
0
370
    35
390
0
 62
     7
 48
0.25
100
AcDbLine
 10
321.74704
 20
81.650002
 30
0.0
 11
321.74704
 21
91.650002
 31
0.0
210
0.0
220
0.0
230
1.0
  0
LINE
  5
4F6
100
AcDbEntity
  8
0
370
    35
390
0
 62
     7
 48
0.050098
100
AcDbLine
 10
253.147064
 20
170.899994
 30
0.0
 11
251.147064
 21
171.024994
 31
0.0
210
0.0
220
0.0
230
1.0
  0
LINE
  5
4F7
100
AcDbEntity
  8
0
370
    35
390
0
 62
     7
 48
0.030059
100
AcDbLine
 10
250.147064
 20
171.087494
 30
0.0
 11
248.947052
 21
171.162506
 31
0.0
210
0.0
220
0.0
230
1.0
  0
LINE
  5
4F8
100
AcDbEntity
  8
0
370
    35
390
0
 62
     7
 48
0.030058
100
AcDbLine
 10
247.947052
 20
171.225006
 30
0.0
 11
246.74707
 21
171.299988
 31
0.0
210
0.0
220
0.0
230
1.0
  0
LINE
  5
4F9
100
AcDbEntity
  8
0
370
    35
390
0
 62
     7
 48
0.115225
100
AcDbLine
 10
245.74707
 20
171.362488
 30
0.0
 11
241.147064
 21
171.649994
 31
0.0
210
0.0
220
0.0
230
1.0
  0
LINE
  5
4FA
100
AcDbEntity
  8
0
370
    35
390
0
 62
     7
 48
0.050098
100
AcDbLine
 10
253.147064
 20
162.399994
 30
0.0
 11
251.147064
 21
162.274994
 31
0.0
210
0.0
220
0.0
230
1.0
  0
LINE
  5
4FB
100
AcDbEntity
  8
0
370
    35
390
0
 62
     7
 48
0.030059
100
AcDbLine
 10
250.147064
 20
162.212494
 30
0.0
 11
248.947052
 21
162.137497
 31
0.0
210
0.0
220
0.0
230
1.0
  0
LINE
  5
4FC
100
AcDbEntity
  8
0
370
    35
390
0
 62
     7
 48
0.030058
100
AcDbLine
 10
247.947052
 20
162.074997
 30
0.0
 11
246.74707
 21
162.0
 31
0.0
210
0.0
220
0.0
230
1.0
  0
LINE
  5
4FD
100
AcDbEntity
  8
0
370
    35
390
0
 62
     7
 48
0.115225
100
AcDbLine
 10
245.74707
 20
161.9375
 30
0.0
 11
241.147064
 21
161.649994
 31
0.0
210
0.0
220
0.0
230
1.0
  0
LINE
  5
4FE
100
AcDbEntity
  8
0
370
    35
390
0
 62
     7
 48
0.026101
100
AcDbLine
 10
241.147064
 20
171.649994
 30
0.0
 11
240.147064
 21
171.949997
 31
0.0
210
0.0
220
0.0
230
1.0
  0
LINE
  5
4FF
100
AcDbEntity
  8
0
370
    35
390
0
 62
     7
 48
0.026101
100
AcDbLine
 10
241.147064
 20
161.649994
 30
0.0
 11
240.147064
 21
161.350006
 31
0.0
210
0.0
220
0.0
230
1.0
  0
LINE
  5
500
100
AcDbEntity
  8
0
370
    35
390
0
 62
     7
 48
0.125
100
AcDbLine
 10
240.147064
 20
161.649994
 30
0.0
 11
235.147064
 21
161.649994
 31
0.0
210
0.0
220
0.0
230
1.0
  0
LINE
  5
501
100
AcDbEntity
  8
0
370
    35
390
0
 62
     7
 48
0.125
100
AcDbLine
 10
240.147064
 20
171.649994
 30
0.0
 11
235.147064
 21
171.649994
 31
0.0
210
0.0
220
0.0
230
1.0
  0
ARC
  5
502
100
AcDbEntity
  8
0
370
    35
390
0
 62
     7
100
AcDbCircle
 10
229.840454
 20
163.549988
 30
0.0
 40
6.000002
210
0.0
220
0.0
230
1.0
100
AcDbArc
 50
327.769058
 51
332.181852
  0
ARC
  5
503
100
AcDbEntity
  8
0
370
    35
390
0
 62
     7
100
AcDbCircle
 10
229.840454
 20
169.75
 30
0.0
 40
6.000002
210
0.0
220
0.0
230
1.0
100
AcDbArc
 50
27.81814
 51
32.230949
  0
LINE
  5
504
100
AcDbEntity
  8
0
370
    35
390
0
 62
     7
 48
0.169221
100
AcDbLine
 10
234.915894
 20
160.350006
 30
0.0
 11
228.147064
 21
160.350006
 31
0.0
210
0.0
220
0.0
230
1.0
  0
LINE
  5
505
100
AcDbEntity
  8
0
370
    35
390
0
 62
     7
 48
0.169221
100
AcDbLine
 10
234.915894
 20
172.949997
 30
0.0
 11
228.147064
 21
172.949997
 31
0.0
210
0.0
220
0.0
230
1.0
  0
LINE
  5
506
100
AcDbEntity
  8
0
370
    35
390
0
 62
     7
 48
0.017678
100
AcDbLine
 10
228.147064
 20
160.350006
 30
0.0
 11
227.647064
 21
159.850006
 31
0.0
210
0.0
220
0.0
230
1.0
  0
LINE
  5
507
100
AcDbEntity
  8
0
370
    35
390
0
 62
     7
 48
0.017678
100
AcDbLine
 10
228.147064
 20
172.949997
 30
0.0
 11
227.647064
 21
173.449997
 31
0.0
210
0.0
220
0.0
230
1.0
  0
LINE
  5
508
100
AcDbEntity
  8
0
370
    35
390
0
 62
     7
 48
0.025
100
AcDbLine
 10
218.147064
 20
160.350006
 30
0.0
 11
217.147064
 21
160.350006
 31
0.0
210
0.0
220
0.0
230
1.0
  0
LINE
  5
509
100
AcDbEntity
  8
0
370
    35
390
0
 62
     7
 48
0.025
100
AcDbLine
 10
218.147064
 20
172.949997
 30
0.0
 11
217.147064
 21
172.949997
 31
0.0
210
0.0
220
0.0
230
1.0
  0
LINE
  5
50A
100
AcDbEntity
  8
0
370
    35
390
0
 62
     7
 48
0.225
100
AcDbLine
 10
227.647064
 20
159.850006
 30
0.0
 11
218.647064
 21
159.850006
 31
0.0
210
0.0
220
0.0
230
1.0
  0
LINE
  5
50B
100
AcDbEntity
  8
0
370
    35
390
0
 62
     7
 48
0.225
100
AcDbLine
 10
227.647064
 20
173.449997
 30
0.0
 11
218.647064
 21
173.449997
 31
0.0
210
0.0
220
0.0
230
1.0
  0
LINE
  5
50C
100
AcDbEntity
  8
0
370
    35
390
0
 62
     7
 48
0.017678
100
AcDbLine
 10
218.147064
 20
172.949997
 30
0.0
 11
218.647064
 21
173.449997
 31
0.0
210
0.0
220
0.0
230
1.0
  0
LINE
  5
50D
100
AcDbEntity
  8
0
370
    35
390
0
 62
     7
 48
0.017678
100
AcDbLine
 10
218.147064
 20
160.350006
 30
0.0
 11
218.647064
 21
159.850006
 31
0.0
210
0.0
220
0.0
230
1.0
  0
LINE
  5
50E
100
AcDbEntity
  8
0
370
    35
390
0
 62
     7
 48
0.3275
100
AcDbLine
 10
47.952957
 20
184.350006
 30
0.0
 11
47.952957
 21
197.450012
 31
0.0
210
0.0
220
0.0
230
1.0
  0
ARC
  5
50F
100
AcDbEntity
  8
0
370
    35
390
0
 62
     7
100
AcDbCircle
 10
47.152958
 20
184.350006
 30
0.0
 40
0.8
210
0.0
220
0.0
230
1.0
100
AcDbArc
 50
269.999997
 51
360.0
  0
LINE
  5
510
100
AcDbEntity
  8
0
370
    35
390
0
 62
     7
 48
0.004571
100
AcDbLine
 10
47.823669
 20
197.579285
 30
0.0
 11
47.952957
 21
197.450012
 31
0.0
210
0.0
220
0.0
230
1.0
  0
ARC
  5
511
100
AcDbEntity
  8
0
370
    35
390
0
 62
     7
100
AcDbCircle
 10
45.952957
 20
184.350006
 30
0.0
 40
0.8
210
0.0
220
0.0
230
1.0
100
AcDbArc
 50
241.044838
 51
269.999997
  0
LINE
  5
512
100
AcDbEntity
  8
0
370
    35
390
0
 62
     7
 48
0.03
100
AcDbLine
 10
47.152958
 20
183.549988
 30
0.0
 11
45.952957
 21
183.549988
 31
0.0
210
0.0
220
0.0
230
1.0
  0
ARC
  5
513
100
AcDbEntity
  8
0
370
    35
390
0
 62
     7
100
AcDbCircle
 10
47.894379
 20
197.649994
 30
0.0
 40
0.1
210
0.0
220
0.0
230
1.0
100
AcDbArc
 50
135.0
 51
225.0
  0
LINE
  5
514
100
AcDbEntity
  8
0
370
    35
390
0
 62
     7
 48
0.004571
100
AcDbLine
 10
47.952957
 20
197.850006
 30
0.0
 11
47.823669
 21
197.720703
 31
0.0
210
0.0
220
0.0
230
1.0
  0
LINE
  5
515
100
AcDbEntity
  8
0
370
    35
390
0
 62
     7
 48
0.0175
100
AcDbLine
 10
47.952957
 20
197.850006
 30
0.0
 11
47.952957
 21
198.549988
 31
0.0
210
0.0
220
0.0
230
1.0
  0
LINE
  5
516
100
AcDbEntity
  8
0
370
    35
390
0
 62
     7
 48
0.004571
100
AcDbLine
 10
47.823669
 20
198.679291
 30
0.0
 11
47.952957
 21
198.549988
 31
0.0
210
0.0
220
0.0
230
1.0
  0
ARC
  5
517
100
AcDbEntity
  8
0
370
    35
390
0
 62
     7
100
AcDbCircle
 10
47.894379
 20
198.75
 30
0.0
 40
0.1
210
0.0
220
0.0
230
1.0
100
AcDbArc
 50
135.0
 51
225.0
  0
LINE
  5
518
100
AcDbEntity
  8
0
370
    35
390
0
 62
     7
 48
0.004571
100
AcDbLine
 10
47.952957
 20
198.950012
 30
0.0
 11
47.823669
 21
198.820709
 31
0.0
210
0.0
220
0.0
230
1.0
  0
LINE
  5
519
100
AcDbEntity
  8
0
370
    35
390
0
 62
     7
 48
0.0175
100
AcDbLine
 10
47.952957
 20
198.950012
 30
0.0
 11
47.952957
 21
199.649994
 31
0.0
210
0.0
220
0.0
230
1.0
  0
LINE
  5
51A
100
AcDbEntity
  8
0
370
    35
390
0
 62
     7
 48
0.004571
100
AcDbLine
 10
47.823669
 20
199.779297
 30
0.0
 11
47.952957
 21
199.649994
 31
0.0
210
0.0
220
0.0
230
1.0
  0
ARC
  5
51B
100
AcDbEntity
  8
0
370
    35
390
0
 62
     7
100
AcDbCircle
 10
47.894379
 20
199.850006
 30
0.0
 40
0.1
210
0.0
220
0.0
230
1.0
100
AcDbArc
 50
135.0
 51
225.0
  0
LINE
  5
51C
100
AcDbEntity
  8
0
370
    35
390
0
 62
     7
 48
0.004571
100
AcDbLine
 10
47.952957
 20
200.049988
 30
0.0
 11
47.823669
 21
199.920715
 31
0.0
210
0.0
220
0.0
230
1.0
  0
LINE
  5
51D
100
AcDbEntity
  8
0
370
    35
390
0
 62
     7
 48
0.0175
100
AcDbLine
 10
47.952957
 20
200.049988
 30
0.0
 11
47.952957
 21
200.75
 31
0.0
210
0.0
220
0.0
230
1.0
  0
LINE
  5
51E
100
AcDbEntity
  8
0
370
    35
390
0
 62
     7
 48
0.004571
100
AcDbLine
 10
47.823669
 20
200.879303
 30
0.0
 11
47.952957
 21
200.75
 31
0.0
210
0.0
220
0.0
230
1.0
  0
ARC
  5
51F
100
AcDbEntity
  8
0
370
    35
390
0
 62
     7
100
AcDbCircle
 10
47.894379
 20
200.950012
 30
0.0
 40
0.1
210
0.0
220
0.0
230
1.0
100
AcDbArc
 50
135.0
 51
225.0
  0
LINE
  5
520
100
AcDbEntity
  8
0
370
    35
390
0
 62
     7
 48
0.004571
100
AcDbLine
 10
47.952957
 20
201.149994
 30
0.0
 11
47.823669
 21
201.020721
 31
0.0
210
0.0
220
0.0
230
1.0
  0
LINE
  5
521
100
AcDbEntity
  8
0
370
    35
390
0
 62
     7
 48
0.0175
100
AcDbLine
 10
47.952957
 20
201.149994
 30
0.0
 11
47.952957
 21
201.850006
 31
0.0
210
0.0
220
0.0
230
1.0
  0
LINE
  5
522
100
AcDbEntity
  8
0
370
    35
390
0
 62
     7
 48
0.004571
100
AcDbLine
 10
47.823669
 20
201.979279
 30
0.0
 11
47.952957
 21
201.850006
 31
0.0
210
0.0
220
0.0
230
1.0
  0
ARC
  5
523
100
AcDbEntity
  8
0
370
    35
390
0
 62
     7
100
AcDbCircle
 10
47.894379
 20
202.049988
 30
0.0
 40
0.1
210
0.0
220
0.0
230
1.0
100
AcDbArc
 50
135.0
 51
225.0
  0
LINE
  5
524
100
AcDbEntity
  8
0
370
    35
390
0
 62
     7
 48
0.004571
100
AcDbLine
 10
47.952957
 20
202.25
 30
0.0
 11
47.823669
 21
202.120697
 31
0.0
210
0.0
220
0.0
230
1.0
  0
LINE
  5
525
100
AcDbEntity
  8
0
370
    35
390
0
 62
     7
 48
0.0175
100
AcDbLine
 10
47.952957
 20
202.25
 30
0.0
 11
47.952957
 21
202.950012
 31
0.0
210
0.0
220
0.0
230
1.0
  0
LINE
  5
526
100
AcDbEntity
  8
0
370
    35
390
0
 62
     7
 48
0.004571
100
AcDbLine
 10
47.823669
 20
203.079285
 30
0.0
 11
47.952957
 21
202.950012
 31
0.0
210
0.0
220
0.0
230
1.0
  0
ARC
  5
527
100
AcDbEntity
  8
0
370
    35
390
0
 62
     7
100
AcDbCircle
 10
47.894379
 20
203.149994
 30
0.0
 40
0.1
210
0.0
220
0.0
230
1.0
100
AcDbArc
 50
135.0
 51
225.0
  0
LINE
  5
528
100
AcDbEntity
  8
0
370
    35
390
0
 62
     7
 48
0.004571
100
AcDbLine
 10
47.952957
 20
203.350006
 30
0.0
 11
47.823669
 21
203.220703
 31
0.0
210
0.0
220
0.0
230
1.0
  0
LINE
  5
529
100
AcDbEntity
  8
0
370
    35
390
0
 62
     7
 48
0.0175
100
AcDbLine
 10
47.952957
 20
203.350006
 30
0.0
 11
47.952957
 21
204.049988
 31
0.0
210
0.0
220
0.0
230
1.0
  0
LINE
  5
52A
100
AcDbEntity
  8
0
370
    35
390
0
 62
     7
 48
0.004571
100
AcDbLine
 10
47.823669
 20
204.179291
 30
0.0
 11
47.952957
 21
204.049988
 31
0.0
210
0.0
220
0.0
230
1.0
  0
ARC
  5
52B
100
AcDbEntity
  8
0
370
    35
390
0
 62
     7
100
AcDbCircle
 10
47.894379
 20
204.25
 30
0.0
 40
0.1
210
0.0
220
0.0
230
1.0
100
AcDbArc
 50
135.0
 51
225.0
  0
LINE
  5
52C
100
AcDbEntity
  8
0
370
    35
390
0
 62
     7
 48
0.004571
100
AcDbLine
 10
47.952957
 20
204.450012
 30
0.0
 11
47.823669
 21
204.320709
 31
0.0
210
0.0
220
0.0
230
1.0
  0
LINE
  5
52D
100
AcDbEntity
  8
0
370
    35
390
0
 62
     7
 48
0.0175
100
AcDbLine
 10
47.952957
 20
204.450012
 30
0.0
 11
47.952957
 21
205.149994
 31
0.0
210
0.0
220
0.0
230
1.0
  0
LINE
  5
52E
100
AcDbEntity
  8
0
370
    35
390
0
 62
     7
 48
0.004571
100
AcDbLine
 10
47.823669
 20
205.279297
 30
0.0
 11
47.952957
 21
205.149994
 31
0.0
210
0.0
220
0.0
230
1.0
  0
ARC
  5
52F
100
AcDbEntity
  8
0
370
    35
390
0
 62
     7
100
AcDbCircle
 10
47.894379
 20
205.350006
 30
0.0
 40
0.1
210
0.0
220
0.0
230
1.0
100
AcDbArc
 50
135.0
 51
225.0
  0
LINE
  5
530
100
AcDbEntity
  8
0
370
    35
390
0
 62
     7
 48
0.004571
100
AcDbLine
 10
47.952957
 20
205.549988
 30
0.0
 11
47.823669
 21
205.420715
 31
0.0
210
0.0
220
0.0
230
1.0
  0
LINE
  5
531
100
AcDbEntity
  8
0
370
    35
390
0
 62
     7
 48
0.0175
100
AcDbLine
 10
47.952957
 20
205.549988
 30
0.0
 11
47.952957
 21
206.25
 31
0.0
210
0.0
220
0.0
230
1.0
  0
LINE
  5
532
100
AcDbEntity
  8
0
370
    35
390
0
 62
     7
 48
0.004571
100
AcDbLine
 10
47.823669
 20
206.379303
 30
0.0
 11
47.952957
 21
206.25
 31
0.0
210
0.0
220
0.0
230
1.0
  0
ARC
  5
533
100
AcDbEntity
  8
0
370
    35
390
0
 62
     7
100
AcDbCircle
 10
47.894379
 20
206.450012
 30
0.0
 40
0.1
210
0.0
220
0.0
230
1.0
100
AcDbArc
 50
135.0
 51
225.0
  0
LINE
  5
534
100
AcDbEntity
  8
0
370
    35
390
0
 62
     7
 48
0.004571
100
AcDbLine
 10
47.952957
 20
206.649994
 30
0.0
 11
47.823669
 21
206.520721
 31
0.0
210
0.0
220
0.0
230
1.0
  0
LINE
  5
535
100
AcDbEntity
  8
0
370
    35
390
0
 62
     7
 48
0.120607
100
AcDbLine
 10
47.952957
 20
206.649994
 30
0.0
 11
47.952957
 21
211.474274
 31
0.0
210
0.0
220
0.0
230
1.0
  0
LINE
  5
536
100
AcDbEntity
  8
0
370
    35
390
0
 62
     7
 48
0.017248
100
AcDbLine
 10
47.465092
 20
211.962128
 30
0.0
 11
47.952957
 21
211.474274
 31
0.0
210
0.0
220
0.0
230
1.0
  0
ARC
  5
537
100
AcDbEntity
  8
0
370
    35
390
0
 62
     7
100
AcDbCircle
 10
47.25296
 20
211.75
 30
0.0
 40
0.3
210
0.0
220
0.0
230
1.0
100
AcDbArc
 50
45.000001
 51
106.874504
  0
LINE
  5
538
100
AcDbEntity
  8
0
370
    35
390
0
 62
     7
 48
0.005
100
AcDbLine
 10
47.952957
 20
189.549988
 30
0.0
 11
48.152962
 21
189.549988
 31
0.0
210
0.0
220
0.0
230
1.0
  0
LINE
  5
539
100
AcDbEntity
  8
0
370
    35
390
0
 62
     7
 48
0.0125
100
AcDbLine
 10
48.152962
 20
189.049988
 30
0.0
 11
48.152962
 21
189.549988
 31
0.0
210
0.0
220
0.0
230
1.0
  0
LINE
  5
53A
100
AcDbEntity
  8
0
370
    35
390
0
 62
     7
 48
0.1
100
AcDbLine
 10
48.152962
 20
189.049988
 30
0.0
 11
48.152962
 21
185.049988
 31
0.0
210
0.0
220
0.0
230
1.0
  0
LINE
  5
53B
100
AcDbEntity
  8
0
370
    35
390
0
 62
     7
 48
0.0125
100
AcDbLine
 10
48.152962
 20
184.549988
 30
0.0
 11
48.152962
 21
185.049988
 31
0.0
210
0.0
220
0.0
230
1.0
  0
LINE
  5
53C
100
AcDbEntity
  8
0
370
    35
390
0
 62
     7
 48
0.005
100
AcDbLine
 10
47.952957
 20
184.549988
 30
0.0
 11
48.152962
 21
184.549988
 31
0.0
210
0.0
220
0.0
230
1.0
  0
ARC
  5
53D
100
AcDbEntity
  8
0
370
    35
390
0
 62
     7
100
AcDbCircle
 10
43.952957
 20
211.850006
 30
0.0
 40
3.0
210
0.0
220
0.0
230
1.0
100
AcDbArc
 50
8.262821
 51
90.000003
  0
LINE
  5
53E
100
AcDbEntity
  8
0
370
    35
390
0
 62
     7
 48
0.003259
100
AcDbLine
 10
48.202957
 20
185.049988
 30
0.0
 11
48.202957
 21
185.180359
 31
0.0
210
0.0
220
0.0
230
1.0
  0
LINE
  5
53F
100
AcDbEntity
  8
0
370
    35
390
0
 62
     7
 48
0.0875
100
AcDbLine
 10
48.202957
 20
188.680359
 30
0.0
 11
48.202957
 21
185.180359
 31
0.0
210
0.0
220
0.0
230
1.0
  0
LINE
  5
540
100
AcDbEntity
  8
0
370
    35
390
0
 62
     7
 48
0.00125
100
AcDbLine
 10
48.152962
 20
188.949997
 30
0.0
 11
48.202957
 21
188.949997
 31
0.0
210
0.0
220
0.0
230
1.0
  0
LINE
  5
541
100
AcDbEntity
  8
0
370
    35
390
0
 62
     7
 48
0.006741
100
AcDbLine
 10
48.202957
 20
188.680359
 30
0.0
 11
48.202957
 21
188.949997
 31
0.0
210
0.0
220
0.0
230
1.0
  0
LINE
  5
542
100
AcDbEntity
  8
0
370
    35
390
0
 62
     7
 48
0.029772
100
AcDbLine
 10
47.606514
 20
211.596436
 30
0.0
 11
46.764435
 21
212.438507
 31
0.0
210
0.0
220
0.0
230
1.0
  0
ARC
  5
543
100
AcDbEntity
  8
0
370
    35
390
0
 62
     7
100
AcDbCircle
 10
47.25296
 20
211.242889
 30
0.0
 40
0.5
210
0.0
220
0.0
230
1.0
100
AcDbArc
 50
0.0
 51
45.000001
  0
LINE
  5
544
100
AcDbEntity
  8
0
370
    35
390
0
 62
     7
100
AcDbLine
 10
47.75296
 20
184.149994
 30
0.0
 11
47.75296
 21
211.242889
 31
0.0
210
0.0
220
0.0
230
1.0
  0
ARC
  5
545
100
AcDbEntity
  8
0
370
    35
390
0
 62
     7
100
AcDbCircle
 10
47.25296
 20
184.149994
 30
0.0
 40
0.5
210
0.0
220
0.0
230
1.0
100
AcDbArc
 50
269.999997
 51
360.0
  0
LINE
  5
546
100
AcDbEntity
  8
0
370
    35
390
0
 62
     7
 48
0.39
100
AcDbLine
 10
31.65296
 20
183.649994
 30
0.0
 11
47.25296
 21
183.649994
 31
0.0
210
0.0
220
0.0
230
1.0
  0
ARC
  5
547
100
AcDbEntity
  8
0
370
    35
390
0
 62
     7
100
AcDbCircle
 10
31.65296
 20
184.149994
 30
0.0
 40
0.5
210
0.0
220
0.0
230
1.0
100
AcDbArc
 50
180.000009
 51
269.999997
  0
LINE
  5
548
100
AcDbEntity
  8
0
370
    35
390
0
 62
     7
100
AcDbLine
 10
31.15296
 20
211.242889
 30
0.0
 11
31.15296
 21
184.149994
 31
0.0
210
0.0
220
0.0
230
1.0
  0
LINE
  5
549
100
AcDbEntity
  8
0
370
    35
390
0
 62
     7
 48
0.05
100
AcDbLine
 10
30.352959
 20
193.549988
 30
0.0
 11
30.352959
 21
195.549988
 31
0.0
210
0.0
220
0.0
230
1.0
  0
LINE
  5
54A
100
AcDbEntity
  8
0
370
    35
390
0
 62
     7
 48
0.02
100
AcDbLine
 10
30.352959
 20
193.549988
 30
0.0
 11
31.152956
 21
193.549988
 31
0.0
210
0.0
220
0.0
230
1.0
  0
LINE
  5
54B
100
AcDbEntity
  8
0
370
    35
390
0
 62
     7
 48
0.225
100
AcDbLine
 10
43.952957
 20
214.850006
 30
0.0
 11
34.952957
 21
214.850006
 31
0.0
210
0.0
220
0.0
230
1.0
  0
ARC
  5
54C
100
AcDbEntity
  8
0
370
    35
390
0
 62
     7
100
AcDbCircle
 10
34.952957
 20
211.850006
 30
0.0
 40
3.0
210
0.0
220
0.0
230
1.0
100
AcDbArc
 50
90.000003
 51
171.737184
  0
ARC
  5
54D
100
AcDbEntity
  8
0
370
    35
390
0
 62
     7
100
AcDbCircle
 10
46.799793
 20
212.473877
 30
0.0
 40
0.05
210
0.0
220
0.0
230
1.0
100
AcDbArc
 50
189.204208
 51
225.0
  0
ARC
  5
54E
100
AcDbEntity
  8
0
370
    35
390
0
 62
     7
100
AcDbCircle
 10
31.65296
 20
211.242889
 30
0.0
 40
0.5
210
0.0
220
0.0
230
1.0
100
AcDbArc
 50
135.0
 51
180.000009
  0
LINE
  5
54F
100
AcDbEntity
  8
0
370
    35
390
0
 62
     7
 48
0.369278
100
AcDbLine
 10
30.352959
 20
210.321106
 30
0.0
 11
30.352959
 21
195.549988
 31
0.0
210
0.0
220
0.0
230
1.0
  0
LINE
  5
550
100
AcDbEntity
  8
0
370
    35
390
0
 62
     7
 48
0.001056
100
AcDbLine
 10
30.352959
 20
210.321106
 30
0.0
 11
30.352959
 21
210.363342
 31
0.0
210
0.0
220
0.0
230
1.0
  0
LINE
  5
551
100
AcDbEntity
  8
0
370
    35
390
0
 62
     7
 48
0.112167
100
AcDbLine
 10
30.352959
 20
210.363342
 30
0.0
 11
30.352959
 21
214.850006
 31
0.0
210
0.0
220
0.0
230
1.0
  0
LINE
  5
552
100
AcDbEntity
  8
0
370
    35
390
0
 62
     7
 48
0.0125
100
AcDbLine
 10
30.552959
 20
193.549988
 30
0.0
 11
30.552959
 21
193.049988
 31
0.0
210
0.0
220
0.0
230
1.0
  0
LINE
  5
553
100
AcDbEntity
  8
0
370
    35
390
0
 62
     7
 48
0.015
100
AcDbLine
 10
31.152958
 20
193.049988
 30
0.0
 11
30.552959
 21
193.049988
 31
0.0
210
0.0
220
0.0
230
1.0
  0
LINE
  5
554
100
AcDbEntity
  8
0
370
    35
390
0
 62
     7
 48
0.2175
100
AcDbLine
 10
30.552959
 20
184.350006
 30
0.0
 11
30.552959
 21
193.049988
 31
0.0
210
0.0
220
0.0
230
1.0
  0
ARC
  5
555
100
AcDbEntity
  8
0
370
    35
390
0
 62
     7
100
AcDbCircle
 10
31.352959
 20
184.350006
 30
0.0
 40
0.8
210
0.0
220
0.0
230
1.0
100
AcDbArc
 50
180.000009
 51
269.999997
  0
LINE
  5
556
100
AcDbEntity
  8
0
370
    35
390
0
 62
     7
 48
0.03
100
AcDbLine
 10
31.352959
 20
183.549988
 30
0.0
 11
32.552959
 21
183.549988
 31
0.0
210
0.0
220
0.0
230
1.0
  0
ARC
  5
557
100
AcDbEntity
  8
0
370
    35
390
0
 62
     7
100
AcDbCircle
 10
32.552959
 20
184.350006
 30
0.0
 40
0.8
210
0.0
220
0.0
230
1.0
100
AcDbArc
 50
269.999997
 51
298.955164
  0
LINE
  5
558
100
AcDbEntity
  8
0
370
    35
390
0
 62
     7
 48
0.029772
100
AcDbLine
 10
32.141479
 20
212.438507
 30
0.0
 11
31.299406
 21
211.596436
 31
0.0
210
0.0
220
0.0
230
1.0
  0
ARC
  5
559
100
AcDbEntity
  8
0
370
    35
390
0
 62
     7
100
AcDbCircle
 10
32.106125
 20
212.473877
 30
0.0
 40
0.05
210
0.0
220
0.0
230
1.0
100
AcDbArc
 50
314.999992
 51
350.795784
  0
ARC
  5
55A
100
AcDbEntity
  8
0
370
    35
390
0
 62
     7
100
AcDbCircle
 10
34.722004
 20
212.049988
 30
0.0
 40
2.6
210
0.0
220
0.0
230
1.0
100
AcDbArc
 50
90.000003
 51
170.795792
  0
LINE
  5
55B
100
AcDbEntity
  8
0
370
    35
390
0
 62
     7
 48
0.236548
100
AcDbLine
 10
44.183914
 20
214.649994
 30
0.0
 11
34.722004
 21
214.649994
 31
0.0
210
0.0
220
0.0
230
1.0
  0
ARC
  5
55C
100
AcDbEntity
  8
0
370
    35
390
0
 62
     7
100
AcDbCircle
 10
44.183914
 20
212.049988
 30
0.0
 40
2.6
210
0.0
220
0.0
230
1.0
100
AcDbArc
 50
9.204209
 51
90.000003
  0
CIRCLE
  5
55D
100
AcDbEntity
  8
0
370
    35
390
0
 62
     7
100
AcDbCircle
 10
39.452957
 20
191.850006
 30
0.0
 40
5.15
210
0.0
220
0.0
230
1.0
  0
POLYLINE
  5
55E
100
AcDbEntity
  8
0
370
    35
390
0
 62
     7
100
AcDb2dPolyline
 66
     1
 10
0.0
 20
0.0
 30
0.0
 71
    12
  0
VERTEX
  5
55F
100
AcDbEntity
  8
0
370
     0
390
0
100
AcDbVertex
100
AcDb2dVertex
 10
30.852959
 20
211.760193
 30
0.0
  0
VERTEX
  5
560
100
AcDbEntity
  8
0
370
     0
390
0
100
AcDbVertex
100
AcDb2dVertex
 10
30.849091
 20
211.662903
 30
0.0
  0
VERTEX
  5
561
100
AcDbEntity
  8
0
370
     0
390
0
100
AcDbVertex
100
AcDb2dVertex
 10
30.837494
 20
211.559448
 30
0.0
  0
VERTEX
  5
562
100
AcDbEntity
  8
0
370
     0
390
0
100
AcDbVertex
100
AcDb2dVertex
 10
30.818142
 20
211.450043
 30
0.0
  0
VERTEX
  5
563
100
AcDbEntity
  8
0
370
     0
390
0
100
AcDbVertex
100
AcDb2dVertex
 10
30.790949
 20
211.334869
 30
0.0
  0
VERTEX
  5
564
100
AcDbEntity
  8
0
370
     0
390
0
100
AcDbVertex
100
AcDb2dVertex
 10
30.755756
 20
211.213989
 30
0.0
  0
VERTEX
  5
565
100
AcDbEntity
  8
0
370
     0
390
0
100
AcDbVertex
100
AcDb2dVertex
 10
30.712303
 20
211.087341
 30
0.0
  0
VERTEX
  5
566
100
AcDbEntity
  8
0
370
     0
390
0
100
AcDbVertex
100
AcDb2dVertex
 10
30.660219
 20
210.954865
 30
0.0
  0
VERTEX
  5
567
100
AcDbEntity
  8
0
370
     0
390
0
100
AcDbVertex
100
AcDb2dVertex
 10
30.598991
 20
210.816437
 30
0.0
  0
VERTEX
  5
568
100
AcDbEntity
  8
0
370
     0
390
0
100
AcDbVertex
100
AcDb2dVertex
 10
30.527962
 20
210.671814
 30
0.0
  0
VERTEX
  5
569
100
AcDbEntity
  8
0
370
     0
390
0
100
AcDbVertex
100
AcDb2dVertex
 10
30.446293
 20
210.520874
 30
0.0
  0
VERTEX
  5
56A
100
AcDbEntity
  8
0
370
     0
390
0
100
AcDbVertex
100
AcDb2dVertex
 10
30.352959
 20
210.363342
 30
0.0
  0
SEQEND
  5
56B
100
AcDbEntity
  8
0
370
     0
390
0
  0
LINE
  5
56C
100
AcDbEntity
  8
0
370
    35
390
0
 62
     7
 48
0.089745
100
AcDbLine
 10
30.852959
 20
211.760193
 30
0.0
 11
30.852959
 21
215.350006
 31
0.0
210
0.0
220
0.0
230
1.0
  0
LINE
  5
56D
100
AcDbEntity
  8
0
370
    35
390
0
 62
     7
 48
0.0775
100
AcDbLine
 10
31.952959
 20
212.25
 30
0.0
 11
31.952959
 21
215.350006
 31
0.0
210
0.0
220
0.0
230
1.0
  0
CIRCLE
  5
56E
100
AcDbEntity
  8
0
370
    35
390
0
 62
     7
100
AcDbCircle
 10
39.452957
 20
191.850006
 30
0.0
 40
4.15
210
0.0
220
0.0
230
1.0
  0
ARC
  5
56F
100
AcDbEntity
  8
0
370
    35
390
0
 62
     7
100
AcDbCircle
 10
39.452957
 20
191.850006
 30
0.0
 40
3.75
210
0.0
220
0.0
230
1.0
100
AcDbArc
 50
350.018317
 51
9.981683
  0
ARC
  5
570
100
AcDbEntity
  8
0
370
    35
390
0
 62
     7
100
AcDbCircle
 10
39.452957
 20
191.850006
 30
0.0
 40
3.75
210
0.0
220
0.0
230
1.0
100
AcDbArc
 50
189.981688
 51
350.018317
  0
ARC
  5
571
100
AcDbEntity
  8
0
370
    35
390
0
 62
     7
100
AcDbCircle
 10
39.452957
 20
191.850006
 30
0.0
 40
3.75
210
0.0
220
0.0
230
1.0
100
AcDbArc
 50
170.018312
 51
189.981688
  0
ARC
  5
572
100
AcDbEntity
  8
0
370
    35
390
0
 62
     7
100
AcDbCircle
 10
39.452957
 20
191.850006
 30
0.0
 40
3.75
210
0.0
220
0.0
230
1.0
100
AcDbArc
 50
9.981683
 51
170.018312
  0
LINE
  5
573
100
AcDbEntity
  8
0
370
    35
390
0
 62
     7
 48
0.005081
100
AcDbLine
 10
42.942944
 20
191.199997
 30
0.0
 11
43.146194
 21
191.199997
 31
0.0
210
0.0
220
0.0
230
1.0
  0
LINE
  5
574
100
AcDbEntity
  8
0
370
    35
390
0
 62
     7
 48
0.005081
100
AcDbLine
 10
35.962975
 20
191.199997
 30
0.0
 11
35.759724
 21
191.199997
 31
0.0
210
0.0
220
0.0
230
1.0
  0
LINE
  5
575
100
AcDbEntity
  8
0
370
    35
390
0
 62
     7
 48
0.174499
100
AcDbLine
 10
42.942944
 20
191.199997
 30
0.0
 11
35.962975
 21
191.199997
 31
0.0
210
0.0
220
0.0
230
1.0
  0
ARC
  5
576
100
AcDbEntity
  8
0
370
    35
390
0
 62
     7
100
AcDbCircle
 10
39.452957
 20
191.850006
 30
0.0
 40
3.55
210
0.0
220
0.0
230
1.0
100
AcDbArc
 50
190.550301
 51
349.44969
  0
LINE
  5
577
100
AcDbEntity
  8
0
370
    35
390
0
 62
     7
 48
0.005081
100
AcDbLine
 10
35.962975
 20
192.5
 30
0.0
 11
35.759724
 21
192.5
 31
0.0
210
0.0
220
0.0
230
1.0
  0
LINE
  5
578
100
AcDbEntity
  8
0
370
    35
390
0
 62
     7
 48
0.005081
100
AcDbLine
 10
42.942944
 20
192.5
 30
0.0
 11
43.146194
 21
192.5
 31
0.0
210
0.0
220
0.0
230
1.0
  0
LINE
  5
579
100
AcDbEntity
  8
0
370
    35
390
0
 62
     7
 48
0.174499
100
AcDbLine
 10
35.962975
 20
192.5
 30
0.0
 11
42.942944
 21
192.5
 31
0.0
210
0.0
220
0.0
230
1.0
  0
ARC
  5
57A
100
AcDbEntity
  8
0
370
    35
390
0
 62
     7
100
AcDbCircle
 10
39.452957
 20
191.850006
 30
0.0
 40
3.55
210
0.0
220
0.0
230
1.0
100
AcDbArc
 50
10.550303
 51
169.449699
  0
LINE
  5
57B
100
AcDbEntity
  8
0
370
    35
390
0
 62
     7
 48
0.00125
100
AcDbLine
 10
48.152962
 20
185.049988
 30
0.0
 11
48.202957
 21
185.049988
 31
0.0
210
0.0
220
0.0
230
1.0
  0
LINE
  5
57C
100
AcDbEntity
  8
0
370
    35
390
0
 62
     7
 48
0.00125
100
AcDbLine
 10
48.152962
 20
185.049988
 30
0.0
 11
48.202957
 21
185.049988
 31
0.0
210
0.0
220
0.0
230
1.0
  0
LINE
  5
57D
100
AcDbEntity
  8
0
370
    35
390
0
 62
     7
 48
0.017678
100
AcDbLine
 10
30.352959
 20
214.850006
 30
0.0
 11
30.852959
 21
215.350006
 31
0.0
210
0.0
220
0.0
230
1.0
  0
LINE
  5
57E
100
AcDbEntity
  8
0
370
    35
390
0
 62
     7
 48
0.0275
100
AcDbLine
 10
30.852959
 20
215.350006
 30
0.0
 11
31.952959
 21
215.350006
 31
0.0
210
0.0
220
0.0
230
1.0
  0
LINE
  5
57F
100
AcDbEntity
  8
0
370
    35
390
0
 62
     7
100
AcDbLine
 10
30.552959
 20
157.949997
 30
0.0
 11
30.552959
 21
181.049988
 31
0.0
210
0.0
220
0.0
230
1.0
  0
LINE
  5
580
100
AcDbEntity
  8
0
370
    35
390
0
 62
     7
 48
0.025
100
AcDbLine
 10
30.552959
 20
181.049988
 30
0.0
 11
30.552959
 21
182.049988
 31
0.0
210
0.0
220
0.0
230
1.0
  0
LINE
  5
581
100
AcDbEntity
  8
0
370
    35
390
0
 62
     7
100
AcDbLine
 10
47.75296
 20
181.049988
 30
0.0
 11
47.75296
 21
157.949997
 31
0.0
210
0.0
220
0.0
230
1.0
  0
LINE
  5
582
100
AcDbEntity
  8
0
370
    35
390
0
 62
     7
 48
0.025
100
AcDbLine
 10
47.75296
 20
181.049988
 30
0.0
 11
47.75296
 21
182.049988
 31
0.0
210
0.0
220
0.0
230
1.0
  0
LINE
  5
583
100
AcDbEntity
  8
0
370
    35
390
0
 62
     7
 48
0.0125
100
AcDbLine
 10
31.052959
 20
181.049988
 30
0.0
 11
30.699406
 21
181.403549
 31
0.0
210
0.0
220
0.0
230
1.0
  0
ARC
  5
584
100
AcDbEntity
  8
0
370
    35
390
0
 62
     7
100
AcDbCircle
 10
31.052959
 20
181.049988
 30
0.0
 40
0.5
210
0.0
220
0.0
230
1.0
100
AcDbArc
 50
90.000003
 51
180.000009
  0
ARC
  5
585
100
AcDbEntity
  8
0
370
    35
390
0
 62
     7
100
AcDbCircle
 10
31.052959
 20
157.949997
 30
0.0
 40
0.5
210
0.0
220
0.0
230
1.0
100
AcDbArc
 50
180.000009
 51
270.000353
  0
ARC
  5
586
100
AcDbEntity
  8
0
370
    35
390
0
 62
     7
100
AcDbCircle
 10
31.052961
 20
157.449982
 30
0.0
 40
0.500008
210
0.0
220
0.0
230
1.0
100
AcDbArc
 50
90.000289
 51
149.999055
  0
ARC
  5
587
100
AcDbEntity
  8
0
370
    35
390
0
 62
     7
100
AcDbCircle
 10
31.052959
 20
182.049988
 30
0.0
 40
0.5
210
0.0
220
0.0
230
1.0
100
AcDbArc
 50
90.000003
 51
180.000009
  0
LINE
  5
588
100
AcDbEntity
  8
0
370
    35
390
0
 62
     7
 48
0.024069
100
AcDbLine
 10
30.352959
 20
176.487701
 30
0.0
 11
30.352959
 21
177.45047
 31
0.0
210
0.0
220
0.0
230
1.0
  0
LINE
  5
589
100
AcDbEntity
  8
0
370
    35
390
0
 62
     7
 48
0.293443
100
AcDbLine
 10
30.352959
 20
176.487701
 30
0.0
 11
30.352959
 21
164.75
 31
0.0
210
0.0
220
0.0
230
1.0
  0
LINE
  5
58A
100
AcDbEntity
  8
0
370
    35
390
0
 62
     7
 48
0.075
100
AcDbLine
 10
30.352959
 20
161.75
 30
0.0
 11
30.352959
 21
164.75
 31
0.0
210
0.0
220
0.0
230
1.0
  0
LINE
  5
58B
100
AcDbEntity
  8
0
370
    35
390
0
 62
     7
 48
0.005
100
AcDbLine
 10
30.352959
 20
161.75
 30
0.0
 11
30.552959
 21
161.75
 31
0.0
210
0.0
220
0.0
230
1.0
  0
LINE
  5
58C
100
AcDbEntity
  8
0
370
    35
390
0
 62
     7
 48
0.005
100
AcDbLine
 10
30.352959
 20
180.549988
 30
0.0
 11
30.552959
 21
180.549988
 31
0.0
210
0.0
220
0.0
230
1.0
  0
LINE
  5
58D
100
AcDbEntity
  8
0
370
    35
390
0
 62
     7
 48
0.021621
100
AcDbLine
 10
30.352959
 20
179.685135
 30
0.0
 11
30.352959
 21
180.549988
 31
0.0
210
0.0
220
0.0
230
1.0
  0
LINE
  5
58E
100
AcDbEntity
  8
0
370
    35
390
0
 62
     7
 48
0.004568
100
AcDbLine
 10
35.203274
 20
160.75
 30
0.0
 11
35.386002
 21
160.75
 31
0.0
210
0.0
220
0.0
230
1.0
  0
LINE
  5
58F
100
AcDbEntity
  8
0
370
    35
390
0
 62
     7
 48
0.004568
100
AcDbLine
 10
42.919907
 20
160.75
 30
0.0
 11
43.102642
 21
160.75
 31
0.0
210
0.0
220
0.0
230
1.0
  0
ARC
  5
590
100
AcDbEntity
  8
0
370
    35
390
0
 62
     7
100
AcDbCircle
 10
47.25296
 20
157.949997
 30
0.0
 40
0.5
210
0.0
220
0.0
230
1.0
100
AcDbArc
 50
269.999997
 51
359.999901
  0
ARC
  5
591
100
AcDbEntity
  8
0
370
    35
390
0
 62
     7
100
AcDbCircle
 10
47.25296
 20
181.049988
 30
0.0
 40
0.5
210
0.0
220
0.0
230
1.0
100
AcDbArc
 50
0.0
 51
90.000003
  0
LINE
  5
592
100
AcDbEntity
  8
0
370
    35
390
0
 62
     7
 48
0.0125
100
AcDbLine
 10
47.25296
 20
181.049988
 30
0.0
 11
47.606514
 21
181.403549
 31
0.0
210
0.0
220
0.0
230
1.0
  0
ARC
  5
593
100
AcDbEntity
  8
0
370
    35
390
0
 62
     7
100
AcDbCircle
 10
47.25296
 20
157.450012
 30
0.0
 40
0.499997
210
0.0
220
0.0
230
1.0
100
AcDbArc
 50
29.999605
 51
90.000201
  0
LINE
  5
594
100
AcDbEntity
  8
0
370
    35
390
0
 62
     7
 48
0.055867
100
AcDbLine
 10
47.75296
 20
179.685135
 30
0.0
 11
47.75296
 21
177.45047
 31
0.0
210
0.0
220
0.0
230
1.0
  0
LINE
  5
595
100
AcDbEntity
  8
0
370
    35
390
0
 62
     7
 48
0.021621
100
AcDbLine
 10
47.952957
 20
179.685135
 30
0.0
 11
47.952957
 21
180.549988
 31
0.0
210
0.0
220
0.0
230
1.0
  0
LINE
  5
596
100
AcDbEntity
  8
0
370
    35
390
0
 62
     7
 48
0.005
100
AcDbLine
 10
47.75296
 20
180.549988
 30
0.0
 11
47.952957
 21
180.549988
 31
0.0
210
0.0
220
0.0
230
1.0
  0
LINE
  5
597
100
AcDbEntity
  8
0
370
    35
390
0
 62
     7
 48
0.005
100
AcDbLine
 10
47.75296
 20
161.75
 30
0.0
 11
47.952957
 21
161.75
 31
0.0
210
0.0
220
0.0
230
1.0
  0
LINE
  5
598
100
AcDbEntity
  8
0
370
    35
390
0
 62
     7
 48
0.075
100
AcDbLine
 10
47.952957
 20
161.75
 30
0.0
 11
47.952957
 21
164.75
 31
0.0
210
0.0
220
0.0
230
1.0
  0
LINE
  5
599
100
AcDbEntity
  8
0
370
    35
390
0
 62
     7
 48
0.293443
100
AcDbLine
 10
47.952957
 20
176.487701
 30
0.0
 11
47.952957
 21
164.75
 31
0.0
210
0.0
220
0.0
230
1.0
  0
LINE
  5
59A
100
AcDbEntity
  8
0
370
    35
390
0
 62
     7
 48
0.024069
100
AcDbLine
 10
47.952957
 20
176.487701
 30
0.0
 11
47.952957
 21
177.45047
 31
0.0
210
0.0
220
0.0
230
1.0
  0
ARC
  5
59B
100
AcDbEntity
  8
0
370
    35
390
0
 62
     7
100
AcDbCircle
 10
47.25296
 20
182.049988
 30
0.0
 40
0.5
210
0.0
220
0.0
230
1.0
100
AcDbArc
 50
0.0
 51
90.000003
  0
LINE
  5
59C
100
AcDbEntity
  8
0
370
    35
390
0
 62
     7
 48
0.1875
100
AcDbLine
 10
31.052959
 20
157.949997
 30
0.0
 11
38.552959
 21
157.949997
 31
0.0
210
0.0
220
0.0
230
1.0
  0
LINE
  5
59D
100
AcDbEntity
  8
0
370
    35
390
0
 62
     7
 48
0.0175
100
AcDbLine
 10
38.552959
 20
158.649994
 30
0.0
 11
38.552959
 21
157.949997
 31
0.0
210
0.0
220
0.0
230
1.0
  0
LINE
  5
59E
100
AcDbEntity
  8
0
370
    35
390
0
 62
     7
 48
0.03
100
AcDbLine
 10
38.552959
 20
158.649994
 30
0.0
 11
39.75296
 21
158.649994
 31
0.0
210
0.0
220
0.0
230
1.0
  0
LINE
  5
59F
100
AcDbEntity
  8
0
370
    35
390
0
 62
     7
 48
0.0175
100
AcDbLine
 10
39.75296
 20
158.649994
 30
0.0
 11
39.75296
 21
157.949997
 31
0.0
210
0.0
220
0.0
230
1.0
  0
LINE
  5
5A0
100
AcDbEntity
  8
0
370
    35
390
0
 62
     7
 48
0.1875
100
AcDbLine
 10
39.75296
 20
157.949997
 30
0.0
 11
47.25296
 21
157.949997
 31
0.0
210
0.0
220
0.0
230
1.0
  0
ARC
  5
5A1
100
AcDbEntity
  8
0
370
    35
390
0
 62
     7
100
AcDbCircle
 10
42.787857
 20
181.049988
 30
0.0
 40
0.5
210
0.0
220
0.0
230
1.0
100
AcDbArc
 50
90.000003
 51
218.583597
  0
ARC
  5
5A2
100
AcDbEntity
  8
0
370
    35
390
0
 62
     7
100
AcDbCircle
 10
39.152958
 20
178.149994
 30
0.0
 40
4.15
210
0.0
220
0.0
230
1.0
100
AcDbArc
 50
0.0
 51
38.583602
  0
LINE
  5
5A3
100
AcDbEntity
  8
0
370
    35
390
0
 62
     7
 48
0.025
100
AcDbLine
 10
43.302959
 20
178.149994
 30
0.0
 11
43.302959
 21
177.149994
 31
0.0
210
0.0
220
0.0
230
1.0
  0
ARC
  5
5A4
100
AcDbEntity
  8
0
370
    35
390
0
 62
     7
100
AcDbCircle
 10
39.152958
 20
177.149994
 30
0.0
 40
4.15
210
0.0
220
0.0
230
1.0
100
AcDbArc
 50
327.912246
 51
360.0
  0
POLYLINE
  5
5A5
100
AcDbEntity
  8
0
370
    35
390
0
 62
     7
100
AcDb2dPolyline
 66
     1
 10
0.0
 20
0.0
 30
0.0
 71
    25
  0
VERTEX
  5
5A6
100
AcDbEntity
  8
0
370
     0
390
0
100
AcDbVertex
100
AcDb2dVertex
 10
43.079803
 20
172.803833
 30
0.0
  0
VERTEX
  5
5A7
100
AcDbEntity
  8
0
370
     0
390
0
100
AcDbVertex
100
AcDb2dVertex
 10
43.005508
 20
172.854675
 30
0.0
  0
VERTEX
  5
5A8
100
AcDbEntity
  8
0
370
     0
390
0
100
AcDbVertex
100
AcDb2dVertex
 10
42.946121
 20
172.900604
 30
0.0
  0
VERTEX
  5
5A9
100
AcDbEntity
  8
0
370
     0
390
0
100
AcDbVertex
100
AcDb2dVertex
 10
42.889362
 20
172.949554
 30
0.0
  0
VERTEX
  5
5AA
100
AcDbEntity
  8
0
370
     0
390
0
100
AcDbVertex
100
AcDb2dVertex
 10
42.81472
 20
173.022675
 30
0.0
  0
VERTEX
  5
5AB
100
AcDbEntity
  8
0
370
     0
390
0
100
AcDbVertex
100
AcDb2dVertex
 10
42.745804
 20
173.100876
 30
0.0
  0
VERTEX
  5
5AC
100
AcDbEntity
  8
0
370
     0
390
0
100
AcDbVertex
100
AcDb2dVertex
 10
42.682945
 20
173.183624
 30
0.0
  0
VERTEX
  5
5AD
100
AcDbEntity
  8
0
370
     0
390
0
100
AcDbVertex
100
AcDb2dVertex
 10
42.626404
 20
173.270386
 30
0.0
  0
VERTEX
  5
5AE
100
AcDbEntity
  8
0
370
     0
390
0
100
AcDbVertex
100
AcDb2dVertex
 10
42.576355
 20
173.360565
 30
0.0
  0
VERTEX
  5
5AF
100
AcDbEntity
  8
0
370
     0
390
0
100
AcDbVertex
100
AcDb2dVertex
 10
42.532932
 20
173.453598
 30
0.0
  0
VERTEX
  5
5B0
100
AcDbEntity
  8
0
370
     0
390
0
100
AcDbVertex
100
AcDb2dVertex
 10
42.496185
 20
173.54895
 30
0.0
  0
VERTEX
  5
5B1
100
AcDbEntity
  8
0
370
     0
390
0
100
AcDbVertex
100
AcDb2dVertex
 10
42.46505
 20
173.650024
 30
0.0
  0
VERTEX
  5
5B2
100
AcDbEntity
  8
0
370
     0
390
0
100
AcDbVertex
100
AcDb2dVertex
 10
42.44109
 20
173.752472
 30
0.0
  0
VERTEX
  5
5B3
100
AcDbEntity
  8
0
370
     0
390
0
100
AcDbVertex
100
AcDb2dVertex
 10
42.424221
 20
173.855804
 30
0.0
  0
VERTEX
  5
5B4
100
AcDbEntity
  8
0
370
     0
390
0
100
AcDbVertex
100
AcDb2dVertex
 10
42.414322
 20
173.959503
 30
0.0
  0
VERTEX
  5
5B5
100
AcDbEntity
  8
0
370
     0
390
0
100
AcDbVertex
100
AcDb2dVertex
 10
42.41124
 20
174.06311
 30
0.0
  0
VERTEX
  5
5B6
100
AcDbEntity
  8
0
370
     0
390
0
100
AcDbVertex
100
AcDb2dVertex
 10
42.414814
 20
174.166229
 30
0.0
  0
VERTEX
  5
5B7
100
AcDbEntity
  8
0
370
     0
390
0
100
AcDbVertex
100
AcDb2dVertex
 10
42.424866
 20
174.268463
 30
0.0
  0
VERTEX
  5
5B8
100
AcDbEntity
  8
0
370
     0
390
0
100
AcDbVertex
100
AcDb2dVertex
 10
42.441616
 20
174.371552
 30
0.0
  0
VERTEX
  5
5B9
100
AcDbEntity
  8
0
370
     0
390
0
100
AcDbVertex
100
AcDb2dVertex
 10
42.464729
 20
174.473022
 30
0.0
  0
VERTEX
  5
5BA
100
AcDbEntity
  8
0
370
     0
390
0
100
AcDbVertex
100
AcDb2dVertex
 10
42.494011
 20
174.572571
 30
0.0
  0
VERTEX
  5
5BB
100
AcDbEntity
  8
0
370
     0
390
0
100
AcDbVertex
100
AcDb2dVertex
 10
42.52927
 20
174.669891
 30
0.0
  0
VERTEX
  5
5BC
100
AcDbEntity
  8
0
370
     0
390
0
100
AcDbVertex
100
AcDb2dVertex
 10
42.570313
 20
174.764648
 30
0.0
  0
VERTEX
  5
5BD
100
AcDbEntity
  8
0
370
     0
390
0
100
AcDbVertex
100
AcDb2dVertex
 10
42.616943
 20
174.856598
 30
0.0
  0
VERTEX
  5
5BE
100
AcDbEntity
  8
0
370
     0
390
0
100
AcDbVertex
100
AcDb2dVertex
 10
42.668987
 20
174.945435
 30
0.0
  0
SEQEND
  5
5BF
100
AcDbEntity
  8
0
370
     0
390
0
  0
ARC
  5
5C0
100
AcDbEntity
  8
0
370
    35
390
0
 62
     7
100
AcDbCircle
 10
39.152958
 20
166.649994
 30
0.0
 40
7.3
210
0.0
220
0.0
230
1.0
100
AcDbArc
 50
122.542528
 51
57.457471
  0
POLYLINE
  5
5C1
100
AcDbEntity
  8
0
370
    35
390
0
 62
     7
100
AcDb2dPolyline
 66
     1
 10
0.0
 20
0.0
 30
0.0
 71
    25
  0
VERTEX
  5
5C2
100
AcDbEntity
  8
0
370
     0
390
0
100
AcDbVertex
100
AcDb2dVertex
 10
35.226105
 20
172.803833
 30
0.0
  0
VERTEX
  5
5C3
100
AcDbEntity
  8
0
370
     0
390
0
100
AcDbVertex
100
AcDb2dVertex
 10
35.305599
 20
172.85849
 30
0.0
  0
VERTEX
  5
5C4
100
AcDbEntity
  8
0
370
     0
390
0
100
AcDbVertex
100
AcDb2dVertex
 10
35.381142
 20
172.918396
 30
0.0
  0
VERTEX
  5
5C5
100
AcDbEntity
  8
0
370
     0
390
0
100
AcDbVertex
100
AcDb2dVertex
 10
35.452343
 20
172.983276
 30
0.0
  0
VERTEX
  5
5C6
100
AcDbEntity
  8
0
370
     0
390
0
100
AcDbVertex
100
AcDb2dVertex
 10
35.518864
 20
173.052704
 30
0.0
  0
VERTEX
  5
5C7
100
AcDbEntity
  8
0
370
     0
390
0
100
AcDbVertex
100
AcDb2dVertex
 10
35.58041
 20
173.126251
 30
0.0
  0
VERTEX
  5
5C8
100
AcDbEntity
  8
0
370
     0
390
0
100
AcDbVertex
100
AcDb2dVertex
 10
35.641979
 20
173.211304
 30
0.0
  0
VERTEX
  5
5C9
100
AcDbEntity
  8
0
370
     0
390
0
100
AcDbVertex
100
AcDb2dVertex
 10
35.697018
 20
173.300247
 30
0.0
  0
VERTEX
  5
5CA
100
AcDbEntity
  8
0
370
     0
390
0
100
AcDbVertex
100
AcDb2dVertex
 10
35.745361
 20
173.392502
 30
0.0
  0
VERTEX
  5
5CB
100
AcDbEntity
  8
0
370
     0
390
0
100
AcDbVertex
100
AcDb2dVertex
 10
35.786907
 20
173.487488
 30
0.0
  0
VERTEX
  5
5CC
100
AcDbEntity
  8
0
370
     0
390
0
100
AcDbVertex
100
AcDb2dVertex
 10
35.821613
 20
173.584656
 30
0.0
  0
VERTEX
  5
5CD
100
AcDbEntity
  8
0
370
     0
390
0
100
AcDbVertex
100
AcDb2dVertex
 10
35.849499
 20
173.683426
 30
0.0
  0
VERTEX
  5
5CE
100
AcDbEntity
  8
0
370
     0
390
0
100
AcDbVertex
100
AcDb2dVertex
 10
35.870617
 20
173.783325
 30
0.0
  0
VERTEX
  5
5CF
100
AcDbEntity
  8
0
370
     0
390
0
100
AcDbVertex
100
AcDb2dVertex
 10
35.885532
 20
173.888184
 30
0.0
  0
VERTEX
  5
5D0
100
AcDbEntity
  8
0
370
     0
390
0
100
AcDbVertex
100
AcDb2dVertex
 10
35.893341
 20
173.993286
 30
0.0
  0
VERTEX
  5
5D1
100
AcDbEntity
  8
0
370
     0
390
0
100
AcDbVertex
100
AcDb2dVertex
 10
35.894203
 20
174.098145
 30
0.0
  0
VERTEX
  5
5D2
100
AcDbEntity
  8
0
370
     0
390
0
100
AcDbVertex
100
AcDb2dVertex
 10
35.888287
 20
174.202393
 30
0.0
  0
VERTEX
  5
5D3
100
AcDbEntity
  8
0
370
     0
390
0
100
AcDbVertex
100
AcDb2dVertex
 10
35.875786
 20
174.305603
 30
0.0
  0
VERTEX
  5
5D4
100
AcDbEntity
  8
0
370
     0
390
0
100
AcDbVertex
100
AcDb2dVertex
 10
35.856888
 20
174.40744
 30
0.0
  0
VERTEX
  5
5D5
100
AcDbEntity
  8
0
370
     0
390
0
100
AcDbVertex
100
AcDb2dVertex
 10
35.831791
 20
174.507553
 30
0.0
  0
VERTEX
  5
5D6
100
AcDbEntity
  8
0
370
     0
390
0
100
AcDbVertex
100
AcDb2dVertex
 10
35.80278
 20
174.599609
 30
0.0
  0
VERTEX
  5
5D7
100
AcDbEntity
  8
0
370
     0
390
0
100
AcDbVertex
100
AcDb2dVertex
 10
35.768639
 20
174.689667
 30
0.0
  0
VERTEX
  5
5D8
100
AcDbEntity
  8
0
370
     0
390
0
100
AcDbVertex
100
AcDb2dVertex
 10
35.729515
 20
174.777466
 30
0.0
  0
VERTEX
  5
5D9
100
AcDbEntity
  8
0
370
     0
390
0
100
AcDbVertex
100
AcDb2dVertex
 10
35.685562
 20
174.862808
 30
0.0
  0
VERTEX
  5
5DA
100
AcDbEntity
  8
0
370
     0
390
0
100
AcDbVertex
100
AcDb2dVertex
 10
35.636932
 20
174.945435
 30
0.0
  0
SEQEND
  5
5DB
100
AcDbEntity
  8
0
370
     0
390
0
  0
ARC
  5
5DC
100
AcDbEntity
  8
0
370
    35
390
0
 62
     7
100
AcDbCircle
 10
39.152958
 20
177.149994
 30
0.0
 40
4.15
210
0.0
220
0.0
230
1.0
100
AcDbArc
 50
180.000009
 51
212.087746
  0
LINE
  5
5DD
100
AcDbEntity
  8
0
370
    35
390
0
 62
     7
 48
0.025
100
AcDbLine
 10
35.00296
 20
178.149994
 30
0.0
 11
35.00296
 21
177.149994
 31
0.0
210
0.0
220
0.0
230
1.0
  0
ARC
  5
5DE
100
AcDbEntity
  8
0
370
    35
390
0
 62
     7
100
AcDbCircle
 10
39.152958
 20
178.149994
 30
0.0
 40
4.15
210
0.0
220
0.0
230
1.0
100
AcDbArc
 50
141.416403
 51
180.000009
  0
ARC
  5
5DF
100
AcDbEntity
  8
0
370
    35
390
0
 62
     7
100
AcDbCircle
 10
35.518059
 20
181.049988
 30
0.0
 40
0.5
210
0.0
220
0.0
230
1.0
100
AcDbArc
 50
321.416408
 51
90.000003
  0
LINE
  5
5E0
100
AcDbEntity
  8
0
370
    35
390
0
 62
     7
 48
0.01
100
AcDbLine
 10
33.302959
 20
173.850006
 30
0.0
 11
32.902958
 21
173.850006
 31
0.0
210
0.0
220
0.0
230
1.0
  0
ARC
  5
5E1
100
AcDbEntity
  8
0
370
    35
390
0
 62
     7
100
AcDbCircle
 10
32.902958
 20
175.199997
 30
0.0
 40
1.35
210
0.0
220
0.0
230
1.0
100
AcDbArc
 50
90.000003
 51
269.99997
  0
LINE
  5
5E2
100
AcDbEntity
  8
0
370
    35
390
0
 62
     7
 48
0.01
100
AcDbLine
 10
32.902958
 20
176.549988
 30
0.0
 11
33.302959
 21
176.549988
 31
0.0
210
0.0
220
0.0
230
1.0
  0
ARC
  5
5E3
100
AcDbEntity
  8
0
370
    35
390
0
 62
     7
100
AcDbCircle
 10
33.302959
 20
175.199997
 30
0.0
 40
1.35
210
0.0
220
0.0
230
1.0
100
AcDbArc
 50
269.999997
 51
89.999989
  0
CIRCLE
  5
5E4
100
AcDbEntity
  8
0
370
    35
390
0
 62
     7
100
AcDbCircle
 10
45.202957
 20
175.199997
 30
0.0
 40
1.35
210
0.0
220
0.0
230
1.0
  0
LINE
  5
5E5
100
AcDbEntity
  8
0
370
    35
390
0
 62
     7
 48
0.111627
100
AcDbLine
 10
31.052959
 20
181.549988
 30
0.0
 11
35.518059
 21
181.549988
 31
0.0
210
0.0
220
0.0
230
1.0
  0
LINE
  5
5E6
100
AcDbEntity
  8
0
370
    35
390
0
 62
     7
 48
0.0075
100
AcDbLine
 10
39.75296
 20
157.949997
 30
0.0
 11
39.75296
 21
157.649994
 31
0.0
210
0.0
220
0.0
230
1.0
  0
LINE
  5
5E7
100
AcDbEntity
  8
0
370
    35
390
0
 62
     7
 48
0.03
100
AcDbLine
 10
38.552959
 20
157.649994
 30
0.0
 11
39.75296
 21
157.649994
 31
0.0
210
0.0
220
0.0
230
1.0
  0
LINE
  5
5E8
100
AcDbEntity
  8
0
370
    35
390
0
 62
     7
 48
0.0075
100
AcDbLine
 10
38.552959
 20
157.949997
 30
0.0
 11
38.552959
 21
157.649994
 31
0.0
210
0.0
220
0.0
230
1.0
  0
LINE
  5
5E9
100
AcDbEntity
  8
0
370
    35
390
0
 62
     7
 48
0.405
100
AcDbLine
 10
31.052959
 20
157.449997
 30
0.0
 11
47.25296
 21
157.449997
 31
0.0
210
0.0
220
0.0
230
1.0
  0
LINE
  5
5EA
100
AcDbEntity
  8
0
370
    35
390
0
 62
     7
 48
0.043179
100
AcDbLine
 10
37.571026
 20
181.549988
 30
0.0
 11
35.84388
 21
181.549988
 31
0.0
210
0.0
220
0.0
230
1.0
  0
LINE
  5
5EB
100
AcDbEntity
  8
0
370
    35
390
0
 62
     7
 48
0.043179
100
AcDbLine
 10
42.462036
 20
181.549988
 30
0.0
 11
40.73489
 21
181.549988
 31
0.0
210
0.0
220
0.0
230
1.0
  0
LINE
  5
5EC
100
AcDbEntity
  8
0
370
    35
390
0
 62
     7
 48
0.008146
100
AcDbLine
 10
42.462036
 20
181.549988
 30
0.0
 11
42.787857
 21
181.549988
 31
0.0
210
0.0
220
0.0
230
1.0
  0
LINE
  5
5ED
100
AcDbEntity
  8
0
370
    35
390
0
 62
     7
 48
0.111628
100
AcDbLine
 10
42.787857
 20
181.549988
 30
0.0
 11
47.25296
 21
181.549988
 31
0.0
210
0.0
220
0.0
230
1.0
  0
LINE
  5
5EE
100
AcDbEntity
  8
0
370
    35
390
0
 62
     7
 48
0.008146
100
AcDbLine
 10
35.518059
 20
181.549988
 30
0.0
 11
35.84388
 21
181.549988
 31
0.0
210
0.0
220
0.0
230
1.0
  0
LINE
  5
5EF
100
AcDbEntity
  8
0
370
    35
390
0
 62
     7
 48
0.405
100
AcDbLine
 10
31.052959
 20
182.549988
 30
0.0
 11
47.25296
 21
182.549988
 31
0.0
210
0.0
220
0.0
230
1.0
  0
LINE
  5
5F0
100
AcDbEntity
  8
0
370
    35
390
0
 62
     7
 48
0.055867
100
AcDbLine
 10
30.352959
 20
177.45047
 30
0.0
 11
30.352959
 21
179.685135
 31
0.0
210
0.0
220
0.0
230
1.0
  0
LINE
  5
5F1
100
AcDbEntity
  8
0
370
    35
390
0
 62
     7
 48
0.055867
100
AcDbLine
 10
47.952957
 20
177.45047
 30
0.0
 11
47.952957
 21
179.685135
 31
0.0
210
0.0
220
0.0
230
1.0
  0
LINE
  5
5F2
100
AcDbEntity
  8
0
370
    35
390
0
 62
     7
 48
0.002673
100
AcDbLine
 10
42.611015
 20
174.855591
 30
0.0
 11
42.668987
 21
174.945435
 31
0.0
210
0.0
220
0.0
230
1.0
  0
POLYLINE
  5
5F3
100
AcDbEntity
  8
0
370
    35
390
0
 62
     7
100
AcDb2dPolyline
 66
     1
 10
0.0
 20
0.0
 30
0.0
 71
    27
  0
VERTEX
  5
5F4
100
AcDbEntity
  8
0
370
     0
390
0
100
AcDbVertex
100
AcDb2dVertex
 10
42.611015
 20
174.855591
 30
0.0
  0
VERTEX
  5
5F5
100
AcDbEntity
  8
0
370
     0
390
0
100
AcDbVertex
100
AcDb2dVertex
 10
42.555294
 20
174.765671
 30
0.0
  0
VERTEX
  5
5F6
100
AcDbEntity
  8
0
370
     0
390
0
100
AcDbVertex
100
AcDb2dVertex
 10
42.505203
 20
174.672363
 30
0.0
  0
VERTEX
  5
5F7
100
AcDbEntity
  8
0
370
     0
390
0
100
AcDbVertex
100
AcDb2dVertex
 10
42.460941
 20
174.575928
 30
0.0
  0
VERTEX
  5
5F8
100
AcDbEntity
  8
0
370
     0
390
0
100
AcDbVertex
100
AcDb2dVertex
 10
42.422729
 20
174.476685
 30
0.0
  0
VERTEX
  5
5F9
100
AcDbEntity
  8
0
370
     0
390
0
100
AcDbVertex
100
AcDb2dVertex
 10
42.390781
 20
174.374969
 30
0.0
  0
VERTEX
  5
5FA
100
AcDbEntity
  8
0
370
     0
390
0
100
AcDbVertex
100
AcDb2dVertex
 10
42.365318
 20
174.271072
 30
0.0
  0
VERTEX
  5
5FB
100
AcDbEntity
  8
0
370
     0
390
0
100
AcDbVertex
100
AcDb2dVertex
 10
42.346554
 20
174.165359
 30
0.0
  0
VERTEX
  5
5FC
100
AcDbEntity
  8
0
370
     0
390
0
100
AcDbVertex
100
AcDb2dVertex
 10
42.334885
 20
174.060333
 30
0.0
  0
VERTEX
  5
5FD
100
AcDbEntity
  8
0
370
     0
390
0
100
AcDbVertex
100
AcDb2dVertex
 10
42.33007
 20
173.954285
 30
0.0
  0
VERTEX
  5
5FE
100
AcDbEntity
  8
0
370
     0
390
0
100
AcDbVertex
100
AcDb2dVertex
 10
42.332321
 20
173.847595
 30
0.0
  0
VERTEX
  5
5FF
100
AcDbEntity
  8
0
370
     0
390
0
100
AcDbVertex
100
AcDb2dVertex
 10
42.341824
 20
173.740784
 30
0.0
  0
VERTEX
  5
600
100
AcDbEntity
  8
0
370
     0
390
0
100
AcDbVertex
100
AcDb2dVertex
 10
42.358746
 20
173.634308
 30
0.0
  0
VERTEX
  5
601
100
AcDbEntity
  8
0
370
     0
390
0
100
AcDbVertex
100
AcDb2dVertex
 10
42.383224
 20
173.528717
 30
0.0
  0
VERTEX
  5
602
100
AcDbEntity
  8
0
370
     0
390
0
100
AcDbVertex
100
AcDb2dVertex
 10
42.415359
 20
173.424622
 30
0.0
  0
VERTEX
  5
603
100
AcDbEntity
  8
0
370
     0
390
0
100
AcDbVertex
100
AcDb2dVertex
 10
42.453377
 20
173.326797
 30
0.0
  0
VERTEX
  5
604
100
AcDbEntity
  8
0
370
     0
390
0
100
AcDbVertex
100
AcDb2dVertex
 10
42.498466
 20
173.231476
 30
0.0
  0
VERTEX
  5
605
100
AcDbEntity
  8
0
370
     0
390
0
100
AcDbVertex
100
AcDb2dVertex
 10
42.550545
 20
173.139221
 30
0.0
  0
VERTEX
  5
606
100
AcDbEntity
  8
0
370
     0
390
0
100
AcDbVertex
100
AcDb2dVertex
 10
42.609467
 20
173.05069
 30
0.0
  0
VERTEX
  5
607
100
AcDbEntity
  8
0
370
     0
390
0
100
AcDbVertex
100
AcDb2dVertex
 10
42.64143
 20
173.008026
 30
0.0
  0
VERTEX
  5
608
100
AcDbEntity
  8
0
370
     0
390
0
100
AcDbVertex
100
AcDb2dVertex
 10
42.675018
 20
172.966492
 30
0.0
  0
VERTEX
  5
609
100
AcDbEntity
  8
0
370
     0
390
0
100
AcDbVertex
100
AcDb2dVertex
 10
42.722252
 20
172.913055
 30
0.0
  0
VERTEX
  5
60A
100
AcDbEntity
  8
0
370
     0
390
0
100
AcDbVertex
100
AcDb2dVertex
 10
42.77219
 20
172.861969
 30
0.0
  0
VERTEX
  5
60B
100
AcDbEntity
  8
0
370
     0
390
0
100
AcDbVertex
100
AcDb2dVertex
 10
42.824703
 20
172.813446
 30
0.0
  0
VERTEX
  5
60C
100
AcDbEntity
  8
0
370
     0
390
0
100
AcDbVertex
100
AcDb2dVertex
 10
42.880066
 20
172.767242
 30
0.0
  0
VERTEX
  5
60D
100
AcDbEntity
  8
0
370
     0
390
0
100
AcDbVertex
100
AcDb2dVertex
 10
42.93779
 20
172.723907
 30
0.0
  0
VERTEX
  5
60E
100
AcDbEntity
  8
0
370
     0
390
0
100
AcDbVertex
100
AcDb2dVertex
 10
42.997601
 20
172.683594
 30
0.0
  0
SEQEND
  5
60F
100
AcDbEntity
  8
0
370
     0
390
0
  0
CIRCLE
  5
610
100
AcDbEntity
  8
0
370
    35
390
0
 62
     7
100
AcDbCircle
 10
39.152958
 20
166.649994
 30
0.0
 40
7.1
210
0.0
220
0.0
230
1.0
  0
ARC
  5
611
100
AcDbEntity
  8
0
370
    35
390
0
 62
     7
100
AcDbCircle
 10
39.152725
 20
166.649597
 30
0.0
 40
7.154873
210
0.0
220
0.0
230
1.0
100
AcDbArc
 50
57.494627
 51
61.351983
  0
ARC
  5
612
100
AcDbEntity
  8
0
370
    35
390
0
 62
     7
100
AcDbCircle
 10
39.152966
 20
166.649994
 30
0.0
 40
7.154425
210
0.0
220
0.0
230
1.0
100
AcDbArc
 50
61.352113
 51
122.505467
  0
POLYLINE
  5
613
100
AcDbEntity
  8
0
370
    35
390
0
 62
     7
100
AcDb2dPolyline
 66
     1
 10
0.0
 20
0.0
 30
0.0
 71
    27
  0
VERTEX
  5
614
100
AcDbEntity
  8
0
370
     0
390
0
100
AcDbVertex
100
AcDb2dVertex
 10
35.694901
 20
174.855591
 30
0.0
  0
VERTEX
  5
615
100
AcDbEntity
  8
0
370
     0
390
0
100
AcDbVertex
100
AcDb2dVertex
 10
35.750622
 20
174.765671
 30
0.0
  0
VERTEX
  5
616
100
AcDbEntity
  8
0
370
     0
390
0
100
AcDbVertex
100
AcDb2dVertex
 10
35.800716
 20
174.672363
 30
0.0
  0
VERTEX
  5
617
100
AcDbEntity
  8
0
370
     0
390
0
100
AcDbVertex
100
AcDb2dVertex
 10
35.844978
 20
174.575928
 30
0.0
  0
VERTEX
  5
618
100
AcDbEntity
  8
0
370
     0
390
0
100
AcDbVertex
100
AcDb2dVertex
 10
35.88319
 20
174.476685
 30
0.0
  0
VERTEX
  5
619
100
AcDbEntity
  8
0
370
     0
390
0
100
AcDbVertex
100
AcDb2dVertex
 10
35.915138
 20
174.374969
 30
0.0
  0
VERTEX
  5
61A
100
AcDbEntity
  8
0
370
     0
390
0
100
AcDbVertex
100
AcDb2dVertex
 10
35.940601
 20
174.271072
 30
0.0
  0
VERTEX
  5
61B
100
AcDbEntity
  8
0
370
     0
390
0
100
AcDbVertex
100
AcDb2dVertex
 10
35.959362
 20
174.165359
 30
0.0
  0
VERTEX
  5
61C
100
AcDbEntity
  8
0
370
     0
390
0
100
AcDbVertex
100
AcDb2dVertex
 10
35.971035
 20
174.060333
 30
0.0
  0
VERTEX
  5
61D
100
AcDbEntity
  8
0
370
     0
390
0
100
AcDbVertex
100
AcDb2dVertex
 10
35.975845
 20
173.954285
 30
0.0
  0
VERTEX
  5
61E
100
AcDbEntity
  8
0
370
     0
390
0
100
AcDbVertex
100
AcDb2dVertex
 10
35.973595
 20
173.847595
 30
0.0
  0
VERTEX
  5
61F
100
AcDbEntity
  8
0
370
     0
390
0
100
AcDbVertex
100
AcDb2dVertex
 10
35.964096
 20
173.740784
 30
0.0
  0
VERTEX
  5
620
100
AcDbEntity
  8
0
370
     0
390
0
100
AcDbVertex
100
AcDb2dVertex
 10
35.947174
 20
173.634308
 30
0.0
  0
VERTEX
  5
621
100
AcDbEntity
  8
0
370
     0
390
0
100
AcDbVertex
100
AcDb2dVertex
 10
35.922695
 20
173.528717
 30
0.0
  0
VERTEX
  5
622
100
AcDbEntity
  8
0
370
     0
390
0
100
AcDbVertex
100
AcDb2dVertex
 10
35.89056
 20
173.424622
 30
0.0
  0
VERTEX
  5
623
100
AcDbEntity
  8
0
370
     0
390
0
100
AcDbVertex
100
AcDb2dVertex
 10
35.852539
 20
173.326797
 30
0.0
  0
VERTEX
  5
624
100
AcDbEntity
  8
0
370
     0
390
0
100
AcDbVertex
100
AcDb2dVertex
 10
35.807453
 20
173.231476
 30
0.0
  0
VERTEX
  5
625
100
AcDbEntity
  8
0
370
     0
390
0
100
AcDbVertex
100
AcDb2dVertex
 10
35.755375
 20
173.139221
 30
0.0
  0
VERTEX
  5
626
100
AcDbEntity
  8
0
370
     0
390
0
100
AcDbVertex
100
AcDb2dVertex
 10
35.696449
 20
173.05069
 30
0.0
  0
VERTEX
  5
627
100
AcDbEntity
  8
0
370
     0
390
0
100
AcDbVertex
100
AcDb2dVertex
 10
35.664486
 20
173.008026
 30
0.0
  0
VERTEX
  5
628
100
AcDbEntity
  8
0
370
     0
390
0
100
AcDbVertex
100
AcDb2dVertex
 10
35.630901
 20
172.966492
 30
0.0
  0
VERTEX
  5
629
100
AcDbEntity
  8
0
370
     0
390
0
100
AcDbVertex
100
AcDb2dVertex
 10
35.583668
 20
172.913055
 30
0.0
  0
VERTEX
  5
62A
100
AcDbEntity
  8
0
370
     0
390
0
100
AcDbVertex
100
AcDb2dVertex
 10
35.53373
 20
172.861969
 30
0.0
  0
VERTEX
  5
62B
100
AcDbEntity
  8
0
370
     0
390
0
100
AcDbVertex
100
AcDb2dVertex
 10
35.481213
 20
172.813446
 30
0.0
  0
VERTEX
  5
62C
100
AcDbEntity
  8
0
370
     0
390
0
100
AcDbVertex
100
AcDb2dVertex
 10
35.425854
 20
172.767242
 30
0.0
  0
VERTEX
  5
62D
100
AcDbEntity
  8
0
370
     0
390
0
100
AcDbVertex
100
AcDb2dVertex
 10
35.368126
 20
172.723907
 30
0.0
  0
VERTEX
  5
62E
100
AcDbEntity
  8
0
370
     0
390
0
100
AcDbVertex
100
AcDb2dVertex
 10
35.308319
 20
172.683594
 30
0.0
  0
SEQEND
  5
62F
100
AcDbEntity
  8
0
370
     0
390
0
  0
LINE
  5
630
100
AcDbEntity
  8
0
370
    35
390
0
 62
     7
 48
0.002673
100
AcDbLine
 10
35.636932
 20
174.945435
 30
0.0
 11
35.694901
 21
174.855591
 31
0.0
210
0.0
220
0.0
230
1.0
  0
LINE
  5
631
100
AcDbEntity
  8
0
370
    35
390
0
 62
     7
 48
0.01
100
AcDbLine
 10
33.302959
 20
173.949997
 30
0.0
 11
32.902958
 21
173.949997
 31
0.0
210
0.0
220
0.0
230
1.0
  0
ARC
  5
632
100
AcDbEntity
  8
0
370
    35
390
0
 62
     7
100
AcDbCircle
 10
32.902958
 20
175.199997
 30
0.0
 40
1.25
210
0.0
220
0.0
230
1.0
100
AcDbArc
 50
90.000003
 51
269.999997
  0
LINE
  5
633
100
AcDbEntity
  8
0
370
    35
390
0
 62
     7
 48
0.01
100
AcDbLine
 10
32.902958
 20
176.449997
 30
0.0
 11
33.302959
 21
176.449997
 31
0.0
210
0.0
220
0.0
230
1.0
  0
ARC
  5
634
100
AcDbEntity
  8
0
370
    35
390
0
 62
     7
100
AcDbCircle
 10
33.302959
 20
175.199997
 30
0.0
 40
1.25
210
0.0
220
0.0
230
1.0
100
AcDbArc
 50
269.999997
 51
90.000003
  0
CIRCLE
  5
635
100
AcDbEntity
  8
0
370
    35
390
0
 62
     7
100
AcDbCircle
 10
45.202957
 20
175.199997
 30
0.0
 40
1.25
210
0.0
220
0.0
230
1.0
  0
ARC
  5
636
100
AcDbEntity
  8
0
370
    35
390
0
 62
     7
100
AcDbCircle
 10
42.462036
 20
181.049988
 30
0.0
 40
0.5
210
0.0
220
0.0
230
1.0
100
AcDbArc
 50
90.000003
 51
221.230582
  0
ARC
  5
637
100
AcDbEntity
  8
0
370
    35
390
0
 62
     7
100
AcDbCircle
 10
35.84388
 20
181.049988
 30
0.0
 40
0.5
210
0.0
220
0.0
230
1.0
100
AcDbArc
 50
318.769437
 51
90.000003
  0
LINE
  5
638
100
AcDbEntity
  8
0
370
    35
390
0
 62
     7
 48
0.024999
100
AcDbLine
 10
35.052959
 20
183.549988
 30
0.0
 11
35.052959
 21
182.550018
 31
0.0
210
0.0
220
0.0
230
1.0
  0
ARC
  5
639
100
AcDbEntity
  8
0
370
    35
390
0
 62
     7
100
AcDbCircle
 10
33.352959
 20
183.049988
 30
0.0
 40
1.5
210
0.0
220
0.0
230
1.0
100
AcDbArc
 50
340.529081
 51
360.0
  0
LINE
  5
63A
100
AcDbEntity
  8
0
370
    35
390
0
 62
     7
 48
0.002501
100
AcDbLine
 10
34.352959
 20
183.549988
 30
0.0
 11
34.352959
 21
183.650009
 31
0.0
210
0.0
220
0.0
230
1.0
  0
ARC
  5
63B
100
AcDbEntity
  8
0
370
    35
390
0
 62
     7
100
AcDbCircle
 10
33.352959
 20
183.549988
 30
0.0
 40
1.0
210
0.0
220
0.0
230
1.0
100
AcDbArc
 50
269.999997
 51
360.0
  0
LINE
  5
63C
100
AcDbEntity
  8
0
370
    35
390
0
 62
     7
 48
0.015001
100
AcDbLine
 10
34.852959
 20
183.650009
 30
0.0
 11
34.852959
 21
183.049988
 31
0.0
210
0.0
220
0.0
230
1.0
  0
LINE
  5
63D
100
AcDbEntity
  8
0
370
    35
390
0
 62
     7
 48
0.005573
100
AcDbLine
 10
35.878819
 20
160.350006
 30
0.0
 11
36.101734
 21
160.350006
 31
0.0
210
0.0
220
0.0
230
1.0
  0
LINE
  5
63E
100
AcDbEntity
  8
0
370
    35
390
0
 62
     7
 48
0.005573
100
AcDbLine
 10
42.204174
 20
160.350006
 30
0.0
 11
42.427101
 21
160.350006
 31
0.0
210
0.0
220
0.0
230
1.0
  0
LINE
  5
63F
100
AcDbEntity
  8
0
370
    35
390
0
 62
     7
 48
0.002501
100
AcDbLine
 10
43.25296
 20
183.649994
 30
0.0
 11
43.25296
 21
183.549957
 31
0.0
210
0.0
220
0.0
230
1.0
  0
LINE
  5
640
100
AcDbEntity
  8
0
370
    35
390
0
 62
     7
 48
0.015001
100
AcDbLine
 10
43.452957
 20
183.650009
 30
0.0
 11
43.452957
 21
183.049988
 31
0.0
210
0.0
220
0.0
230
1.0
  0
ARC
  5
641
100
AcDbEntity
  8
0
370
    35
390
0
 62
     7
100
AcDbCircle
 10
44.952957
 20
183.049988
 30
0.0
 40
1.5
210
0.0
220
0.0
230
1.0
100
AcDbArc
 50
180.000009
 51
199.470938
  0
ARC
  5
642
100
AcDbEntity
  8
0
370
    35
390
0
 62
     7
100
AcDbCircle
 10
44.952957
 20
183.549988
 30
0.0
 40
1.0
210
0.0
220
0.0
230
1.0
100
AcDbArc
 50
180.000009
 51
269.999997
  0
LINE
  5
643
100
AcDbEntity
  8
0
370
    35
390
0
 62
     7
 48
0.002501
100
AcDbLine
 10
43.952957
 20
183.549988
 30
0.0
 11
43.952957
 21
183.650009
 31
0.0
210
0.0
220
0.0
230
1.0
  0
ARC
  5
644
100
AcDbEntity
  8
0
370
    35
390
0
 62
     7
100
AcDbCircle
 10
39.152958
 20
178.149994
 30
0.0
 40
3.9
210
0.0
220
0.0
230
1.0
100
AcDbArc
 50
138.769418
 51
41.230577
  0
LINE
  5
645
100
AcDbEntity
  8
0
370
    35
390
0
 62
     7
 48
0.024999
100
AcDbLine
 10
43.25296
 20
182.550018
 30
0.0
 11
43.25296
 21
183.549988
 31
0.0
210
0.0
220
0.0
230
1.0
  0
LINE
  5
646
100
AcDbEntity
  8
0
370
    35
390
0
 62
     7
 48
0.002502
100
AcDbLine
 10
35.052959
 20
183.549988
 30
0.0
 11
35.052959
 21
183.650085
 31
0.0
210
0.0
220
0.0
230
1.0
  0
ARC
  5
647
100
AcDbEntity
  8
0
370
    35
390
0
 62
     7
100
AcDbCircle
 10
42.75296
 20
183.549988
 30
0.0
 40
0.5
210
0.0
220
0.0
230
1.0
100
AcDbArc
 50
0.0
 51
11.538233
  0
ARC
  5
648
100
AcDbEntity
  8
0
370
    35
390
0
 62
     7
100
AcDbCircle
 10
39.152958
 20
178.149994
 30
0.0
 40
3.75
210
0.0
220
0.0
230
1.0
100
AcDbArc
 50
80.018316
 51
99.981682
  0
ARC
  5
649
100
AcDbEntity
  8
0
370
    35
390
0
 62
     7
100
AcDbCircle
 10
39.152958
 20
178.149994
 30
0.0
 40
3.75
210
0.0
220
0.0
230
1.0
100
AcDbArc
 50
279.981697
 51
80.018316
  0
ARC
  5
64A
100
AcDbEntity
  8
0
370
    35
390
0
 62
     7
100
AcDbCircle
 10
39.152958
 20
178.149994
 30
0.0
 40
3.75
210
0.0
220
0.0
230
1.0
100
AcDbArc
 50
260.018304
 51
279.981697
  0
ARC
  5
64B
100
AcDbEntity
  8
0
370
    35
390
0
 62
     7
100
AcDbCircle
 10
39.152958
 20
178.149994
 30
0.0
 40
3.75
210
0.0
220
0.0
230
1.0
100
AcDbArc
 50
99.981682
 51
260.018304
  0
LINE
  5
64C
100
AcDbEntity
  8
0
370
    35
390
0
 62
     7
 48
0.005081
100
AcDbLine
 10
39.802959
 20
181.639984
 30
0.0
 11
39.802959
 21
181.843231
 31
0.0
210
0.0
220
0.0
230
1.0
  0
LINE
  5
64D
100
AcDbEntity
  8
0
370
    35
390
0
 62
     7
 48
0.005081
100
AcDbLine
 10
39.802959
 20
174.660004
 30
0.0
 11
39.802959
 21
174.456757
 31
0.0
210
0.0
220
0.0
230
1.0
  0
LINE
  5
64E
100
AcDbEntity
  8
0
370
    35
390
0
 62
     7
 48
0.1745
100
AcDbLine
 10
39.802959
 20
181.639984
 30
0.0
 11
39.802959
 21
174.660004
 31
0.0
210
0.0
220
0.0
230
1.0
  0
ARC
  5
64F
100
AcDbEntity
  8
0
370
    35
390
0
 62
     7
100
AcDbCircle
 10
39.152958
 20
178.149994
 30
0.0
 40
3.55
210
0.0
220
0.0
230
1.0
100
AcDbArc
 50
280.55029
 51
79.449696
  0
LINE
  5
650
100
AcDbEntity
  8
0
370
    35
390
0
 62
     7
 48
0.005081
100
AcDbLine
 10
38.50296
 20
174.660004
 30
0.0
 11
38.50296
 21
174.456757
 31
0.0
210
0.0
220
0.0
230
1.0
  0
LINE
  5
651
100
AcDbEntity
  8
0
370
    35
390
0
 62
     7
 48
0.005081
100
AcDbLine
 10
38.50296
 20
181.639984
 30
0.0
 11
38.50296
 21
181.843231
 31
0.0
210
0.0
220
0.0
230
1.0
  0
LINE
  5
652
100
AcDbEntity
  8
0
370
    35
390
0
 62
     7
 48
0.1745
100
AcDbLine
 10
38.50296
 20
174.660004
 30
0.0
 11
38.50296
 21
181.639984
 31
0.0
210
0.0
220
0.0
230
1.0
  0
ARC
  5
653
100
AcDbEntity
  8
0
370
    35
390
0
 62
     7
100
AcDbCircle
 10
39.152958
 20
178.149994
 30
0.0
 40
3.55
210
0.0
220
0.0
230
1.0
100
AcDbArc
 50
100.550302
 51
259.449705
  0
CIRCLE
  5
654
100
AcDbEntity
  8
0
370
    35
390
0
 62
     7
100
AcDbCircle
 10
39.152958
 20
166.649994
 30
0.0
 40
7.0
210
0.0
220
0.0
230
1.0
  0
CIRCLE
  5
655
100
AcDbEntity
  8
0
370
    35
390
0
 62
     7
100
AcDbCircle
 10
39.152958
 20
166.649994
 30
0.0
 40
6.9
210
0.0
220
0.0
230
1.0
  0
LINE
  5
656
100
AcDbEntity
  8
0
370
    35
390
0
 62
     7
 48
0.109696
100
AcDbLine
 10
41.520096
 20
162.75
 30
0.0
 11
43.714027
 21
166.549988
 31
0.0
210
0.0
220
0.0
230
1.0
  0
ARC
  5
657
100
AcDbEntity
  8
0
370
    35
390
0
 62
     7
100
AcDbCircle
 10
41.346889
 20
162.850006
 30
0.0
 40
0.2
210
0.0
220
0.0
230
1.0
100
AcDbArc
 50
269.999997
 51
329.999989
  0
LINE
  5
658
100
AcDbEntity
  8
0
370
    35
390
0
 62
     7
 48
0.109696
100
AcDbLine
 10
36.95903
 20
162.649994
 30
0.0
 11
41.346889
 21
162.649994
 31
0.0
210
0.0
220
0.0
230
1.0
  0
ARC
  5
659
100
AcDbEntity
  8
0
370
    35
390
0
 62
     7
100
AcDbCircle
 10
36.95903
 20
162.850006
 30
0.0
 40
0.2
210
0.0
220
0.0
230
1.0
100
AcDbArc
 50
210.000003
 51
269.999997
  0
LINE
  5
65A
100
AcDbEntity
  8
0
370
    35
390
0
 62
     7
 48
0.109696
100
AcDbLine
 10
34.591892
 20
166.549988
 30
0.0
 11
36.785824
 21
162.75
 31
0.0
210
0.0
220
0.0
230
1.0
  0
ARC
  5
65B
100
AcDbEntity
  8
0
370
    35
390
0
 62
     7
100
AcDbCircle
 10
34.765099
 20
166.649994
 30
0.0
 40
0.2
210
0.0
220
0.0
230
1.0
100
AcDbArc
 50
149.999997
 51
210.000003
  0
LINE
  5
65C
100
AcDbEntity
  8
0
370
    35
390
0
 62
     7
 48
0.109696
100
AcDbLine
 10
36.785824
 20
170.549988
 30
0.0
 11
34.591892
 21
166.75
 31
0.0
210
0.0
220
0.0
230
1.0
  0
ARC
  5
65D
100
AcDbEntity
  8
0
370
    35
390
0
 62
     7
100
AcDbCircle
 10
36.95903
 20
170.449997
 30
0.0
 40
0.2
210
0.0
220
0.0
230
1.0
100
AcDbArc
 50
90.000003
 51
149.999997
  0
LINE
  5
65E
100
AcDbEntity
  8
0
370
    35
390
0
 62
     7
 48
0.109696
100
AcDbLine
 10
41.346889
 20
170.649994
 30
0.0
 11
36.95903
 21
170.649994
 31
0.0
210
0.0
220
0.0
230
1.0
  0
ARC
  5
65F
100
AcDbEntity
  8
0
370
    35
390
0
 62
     7
100
AcDbCircle
 10
41.346889
 20
170.449997
 30
0.0
 40
0.2
210
0.0
220
0.0
230
1.0
100
AcDbArc
 50
30.000001
 51
90.000003
  0
LINE
  5
660
100
AcDbEntity
  8
0
370
    35
390
0
 62
     7
 48
0.109696
100
AcDbLine
 10
43.714027
 20
166.75
 30
0.0
 11
41.520096
 21
170.549988
 31
0.0
210
0.0
220
0.0
230
1.0
  0
ARC
  5
661
100
AcDbEntity
  8
0
370
    35
390
0
 62
     7
100
AcDbCircle
 10
43.540821
 20
166.649994
 30
0.0
 40
0.2
210
0.0
220
0.0
230
1.0
100
AcDbArc
 50
329.999989
 51
30.000001
  0
ARC
  5
662
100
AcDbEntity
  8
0
370
    35
390
0
 62
     7
100
AcDbCircle
 10
39.152958
 20
163.994186
 30
0.0
 40
0.2
210
0.0
220
0.0
230
1.0
100
AcDbArc
 50
240.00001
 51
299.999992
  0
LINE
  5
663
100
AcDbEntity
  8
0
370
    35
390
0
 62
     7
 48
0.066395
100
AcDbLine
 10
36.75296
 20
165.148895
 30
0.0
 11
39.052959
 21
163.820984
 31
0.0
210
0.0
220
0.0
230
1.0
  0
ARC
  5
664
100
AcDbEntity
  8
0
370
    35
390
0
 62
     7
100
AcDbCircle
 10
36.852959
 20
165.322083
 30
0.0
 40
0.2
210
0.0
220
0.0
230
1.0
100
AcDbArc
 50
179.999991
 51
240.00001
  0
LINE
  5
665
100
AcDbEntity
  8
0
370
    35
390
0
 62
     7
 48
0.066396
100
AcDbLine
 10
36.652958
 20
167.977905
 30
0.0
 11
36.652958
 21
165.322083
 31
0.0
210
0.0
220
0.0
230
1.0
  0
ARC
  5
666
100
AcDbEntity
  8
0
370
    35
390
0
 62
     7
100
AcDbCircle
 10
36.852959
 20
167.977905
 30
0.0
 40
0.2
210
0.0
220
0.0
230
1.0
100
AcDbArc
 50
120.000003
 51
179.999991
  0
LINE
  5
667
100
AcDbEntity
  8
0
370
    35
390
0
 62
     7
 48
0.066395
100
AcDbLine
 10
39.052959
 20
169.479004
 30
0.0
 11
36.75296
 21
168.151108
 31
0.0
210
0.0
220
0.0
230
1.0
  0
ARC
  5
668
100
AcDbEntity
  8
0
370
    35
390
0
 62
     7
100
AcDbCircle
 10
39.152958
 20
169.305817
 30
0.0
 40
0.2
210
0.0
220
0.0
230
1.0
100
AcDbArc
 50
60.000002
 51
120.000003
  0
LINE
  5
669
100
AcDbEntity
  8
0
370
    35
390
0
 62
     7
 48
0.066395
100
AcDbLine
 10
41.552959
 20
168.151108
 30
0.0
 11
39.25296
 21
169.479004
 31
0.0
210
0.0
220
0.0
230
1.0
  0
ARC
  5
66A
100
AcDbEntity
  8
0
370
    35
390
0
 62
     7
100
AcDbCircle
 10
41.452957
 20
167.977905
 30
0.0
 40
0.2
210
0.0
220
0.0
230
1.0
100
AcDbArc
 50
0.0
 51
60.000002
  0
LINE
  5
66B
100
AcDbEntity
  8
0
370
    35
390
0
 62
     7
 48
0.066396
100
AcDbLine
 10
41.652958
 20
165.322083
 30
0.0
 11
41.652958
 21
167.977905
 31
0.0
210
0.0
220
0.0
230
1.0
  0
ARC
  5
66C
100
AcDbEntity
  8
0
370
    35
390
0
 62
     7
100
AcDbCircle
 10
41.452957
 20
165.322083
 30
0.0
 40
0.2
210
0.0
220
0.0
230
1.0
100
AcDbArc
 50
299.999992
 51
360.0
  0
LINE
  5
66D
100
AcDbEntity
  8
0
370
    35
390
0
 62
     7
 48
0.066395
100
AcDbLine
 10
39.25296
 20
163.820984
 30
0.0
 11
41.552959
 21
165.148895
 31
0.0
210
0.0
220
0.0
230
1.0
  0
LINE
  5
66E
100
AcDbEntity
  8
0
370
    35
390
0
 62
     7
100
AcDbLine
 10
42.552959
 20
157.449982
 30
0.0
 11
42.552959
 21
91.650002
 31
0.0
210
0.0
220
0.0
230
1.0
  0
LINE
  5
66F
100
AcDbEntity
  8
0
370
    35
390
0
 62
     7
100
AcDbLine
 10
35.75296
 20
157.449982
 30
0.0
 11
35.75296
 21
91.650002
 31
0.0
210
0.0
220
0.0
230
1.0
  0
LINE
  5
670
100
AcDbEntity
  8
0
370
    35
390
0
 62
     7
 48
0.25
100
AcDbLine
 10
42.552959
 20
91.650002
 30
0.0
 11
42.552959
 21
81.650002
 31
0.0
210
0.0
220
0.0
230
1.0
  0
LINE
  5
671
100
AcDbEntity
  8
0
370
    35
390
0
 62
     7
 48
0.25
100
AcDbLine
 10
35.75296
 20
91.650002
 30
0.0
 11
35.75296
 21
81.650002
 31
0.0
210
0.0
220
0.0
230
1.0
  0
LINE
  5
672
100
AcDbEntity
  8
0
370
    35
390
0
 62
     7
 48
0.17
100
AcDbLine
 10
42.552959
 20
81.650002
 30
0.0
 11
35.75296
 21
81.650002
 31
0.0
210
0.0
220
0.0
230
1.0
  0
LINE
  5
673
100
AcDbEntity
  8
0
370
    35
390
0
 62
     7
 48
0.000122
100
AcDbLine
 10
47.752937
 20
181.054871
 30
0.0
 11
47.75296
 21
181.049988
 31
0.0
210
0.0
220
0.0
230
1.0
  0
LINE
  5
674
100
AcDbEntity
  8
0
370
    35
390
0
 62
     7
 48
0.000824
100
AcDbLine
 10
47.751873
 20
181.082916
 30
0.0
 11
47.75296
 21
181.049988
 31
0.0
210
0.0
220
0.0
230
1.0
  0
LINE
  5
675
100
AcDbEntity
  8
0
370
    35
390
0
 62
     7
 48
0.000641
100
AcDbLine
 10
47.752304
 20
181.075623
 30
0.0
 11
47.75296
 21
181.049988
 31
0.0
210
0.0
220
0.0
230
1.0
  0
ENDSEC
  0
SECTION
  2
OBJECTS
  0
DICTIONARY
  5
19
100
AcDbDictionary
280
     0
281
     1
  3
ACAD_GROUP
350
1A
  3
ACAD_MLINESTYLE
350
1B
  3
ACAD_LAYOUT
350
1E
  3
ACAD_PLOTSETTINGS
350
22
  3
ACAD_PLOTSTYLENAME
350
1F
  3
ACAD_WIPEOUT_VARS
350
23
  0
DICTIONARY
  5
1A
102
{ACAD_REACTORS
330
19
102
}
100
AcDbDictionary
280
     0
281
     1
  0
DICTIONARY
  5
1B
102
{ACAD_REACTORS
330
19
102
}
100
AcDbDictionary
280
     0
281
     1
  3
Standard
350
1C
  0
MLINESTYLE
  5
1C
102
{ACAD_REACTORS
330
1B
102
}
100
AcDbMlineStyle
  2
Standard
 70
     0
  3

 62
     0
 51
90.0
 52
90.0
 71
     2
 49
0.5
 62
   256
  6
ByLayer
 49
-0.5
 62
   256
  6
ByLayer
  0
ACDBDICTIONARYWDFLT
  5
1F
102
{ACAD_REACTORS
330
19
102
}
100
AcDbDictionary
281
     1
  3
Normal
350
1D
100
AcDbDictionaryWithDefault
340
1D
  0
ACDBPLACEHOLDER
  5
1D
102
{ACAD_REACTORS
330
1F
102
}
  0
LAYOUT
  5
20
102
{ACAD_REACTORS
330
1E
102
}
100
AcDbPlotSettings
  1

  2

  4

  6

 40
0.0
 41
0.0
 42
0.0
 43
0.0
 44
0.0
 45
0.0
 46
0.0
 47
0.0
 48
0.0
 49
0.0
140
0.0
141
0.0
142
1.0
143
1.0
 70
  1024
 72
     0
 73
     0
 74
     0
  7

 75
     0
147
1.0
148
0.0
149
0.0
100
AcDbLayout
  1
Model
 70
     0
 71
     0
 10
0.0
 20
0.0
 11
0.0
 21
0.0
 12
0.0
 22
0.0
 32
0.0
 14
0.0
 24
0.0
 34
0.0
 15
0.0
 25
0.0
 35
0.0
146
0.0
 13
0.0
 23
0.0
 33
0.0
 16
0.0
 26
0.0
 36
0.0
 17
0.0
 27
0.0
 37
0.0
 76
     0
330
A
331
0
345
0
346
0
  0
LAYOUT
  5
21
102
{ACAD_REACTORS
330
1E
102
}
100
AcDbPlotSettings
  1

  2

  4

  6

 40
0.0
 41
0.0
 42
0.0
 43
0.0
 44
0.0
 45
0.0
 46
0.0
 47
0.0
 48
0.0
 49
0.0
140
0.0
141
0.0
142
1.0
143
1.0
 70
     0
 72
     0
 73
     0
 74
     0
  7

 75
     0
147
1.0
148
0.0
149
0.0
100
AcDbLayout
  1
Layout1
 70
     0
 71
     0
 10
0.0
 20
0.0
 11
0.0
 21
0.0
 12
0.0
 22
0.0
 32
0.0
 14
0.0
 24
0.0
 34
0.0
 15
0.0
 25
0.0
 35
0.0
146
0.0
 13
0.0
 23
0.0
 33
0.0
 16
0.0
 26
0.0
 36
0.0
 17
0.0
 27
0.0
 37
0.0
 76
     0
330
B
331
0
345
0
346
0
  0
DICTIONARY
  5
1E
102
{ACAD_REACTORS
330
19
102
}
100
AcDbDictionary
280
     0
281
     1
  3
Layout1
350
21
  3
Model
350
20
  0
DICTIONARY
  5
22
102
{ACAD_REACTORS
330
19
102
}
100
AcDbDictionary
280
     0
281
     1
  0
WIPEOUTVARIABLES
  5
23
100
AcDbWipeoutVariables
 70
     1
  0
ENDSEC
  0
EOF
