  0
SECTION
  2
HEADER
  9
$ACADVER
  1
AC1014
  9
$ACADMAINTVER
 70
     0
  9
$DWGCODEPAGE
  3
ANSI_932
  9
$INSBASE
 10
0.0
 20
0.0
 30
0.0
  9
$EXTMIN
 10
0.0
 20
0.0
 30
0.0
  9
$EXTMAX
 10
494.512018
 20
334.281921
 30
0.0
  9
$LIMMIN
 10
0.0
 20
0.0
  9
$LIMMAX
 10
494.512018
 20
334.281921
  9
$ORTHOMODE
 70
     0
  9
$REGENMODE
 70
     1
  9
$FILLMODE
 70
     1
  9
$QTEXTMODE
 70
     0
  9
$MIRRTEXT
 70
     1
  9
$DRAGMODE
 70
     2
  9
$LTSCALE
 40
1.0
  9
$OSMODE
 70
     0
  9
$ATTMODE
 70
     1
  9
$TEXTSIZE
 40
0.2
  9
$TRACEWID
 40
0.05
  9
$TEXTSTYLE
  7
Standard
  9
$CLAYER
  8
0
  9
$CELTYPE
  6
Continuous
  9
$CECOLOR
 62
   256
  9
$CELTSCALE
 40
1.0
  9
$DELOBJ
 70
     1
  9
$DISPSILH
 70
     0
  9
$DIMSCALE
 40
1.0
  9
$DIMASZ
 40
0.18
  9
$DIMEXO
 40
0.0625
  9
$DIMDLI
 40
0.38
  9
$DIMRND
 40
0.0
  9
$DIMDLE
 40
0.0
  9
$DIMEXE
 40
0.18
  9
$DIMTP
 40
0.0
  9
$DIMTM
 40
0.0
  9
$DIMTXT
 40
0.18
  9
$DIMCEN
 40
0.09
  9
$DIMTSZ
 40
0.0
  9
$DIMTOL
 70
     0
  9
$DIMLIM
 70
     0
  9
$DIMTIH
 70
     1
  9
$DIMTOH
 70
     1
  9
$DIMSE1
 70
     0
  9
$DIMSE2
 70
     0
  9
$DIMTAD
 70
     0
  9
$DIMZIN
 70
     0
  9
$DIMBLK
  1

  9
$DIMASO
 70
     1
  9
$DIMSHO
 70
     1
  9
$DIMPOST
  1

  9
$DIMAPOST
  1

  9
$DIMALT
 70
     0
  9
$DIMALTD
 70
     2
  9
$DIMALTF
 40
25.4
  9
$DIMLFAC
 40
1.0
  9
$DIMTOFL
 70
     0
  9
$DIMTVP
 40
0.0
  9
$DIMTIX
 70
     0
  9
$DIMSOXD
 70
     0
  9
$DIMSAH
 70
     0
  9
$DIMBLK1
  1

  9
$DIMBLK2
  1

  9
$DIMSTYLE
  2
Standard
  9
$DIMCLRD
 70
     0
  9
$DIMCLRE
 70
     0
  9
$DIMCLRT
 70
     0
  9
$DIMTFAC
 40
1.0
  9
$DIMGAP
 40
0.09
  9
$DIMJUST
 70
     0
  9
$DIMSD1
 70
     0
  9
$DIMSD2
 70
     0
  9
$DIMTOLJ
 70
     1
  9
$DIMTZIN
 70
     0
  9
$DIMALTZ
 70
     0
  9
$DIMALTTZ
 70
     0
  9
$DIMFIT
 70
     3
  9
$DIMUPT
 70
     0
  9
$DIMUNIT
 70
     2
  9
$DIMDEC
 70
     4
  9
$DIMTDEC
 70
     4
  9
$DIMALTU
 70
     2
  9
$DIMALTTD
 70
     2
  9
$DIMTXSTY
  7
Standard
  9
$DIMAUNIT
 70
     0
  9
$LUNITS
 70
     2
  9
$LUPREC
 70
     4
  9
$SKETCHINC
 40
0.1
  9
$FILLETRAD
 40
0.0
  9
$AUNITS
 70
     0
  9
$AUPREC
 70
     0
  9
$MENU
  1
acad
  9
$ELEVATION
 40
0.0
  9
$PELEVATION
 40
0.0
  9
$THICKNESS
 40
0.0
  9
$LIMCHECK
 70
     0
  9
$BLIPMODE
 70
     1
  9
$CHAMFERA
 40
0.0
  9
$CHAMFERB
 40
0.0
  9
$CHAMFERC
 40
0.0
  9
$CHAMFERD
 40
0.0
  9
$SKPOLY
 70
     0
  9
$TDCREATE
 40
0.000000000
  9
$TDUPDATE
 40
0.000000000
  9
$TDINDWG
 40
0.0000000000
  9
$TDUSRTIMER
 40
0.0000000000
  9
$USRTIMER
 70
     1
  9
$ANGBASE
 50
0.0
  9
$ANGDIR
 70
     0
  9
$PDMODE
 70
     0
  9
$PDSIZE
 40
0.0
  9
$PLINEWID
 40
0.0
  9
$COORDS
 70
     0
  9
$SPLFRAME
 70
     0
  9
$SPLINETYPE
 70
     6
  9
$SPLINESEGS
 70
     8
  9
$ATTDIA
 70
     0
  9
$ATTREQ
 70
     1
  9
$HANDLING
 70
     1
  9
$HANDSEED
  5
28A
  9
$SURFTAB1
 70
     6
  9
$SURFTAB2
 70
     6
  9
$SURFTYPE
 70
     6
  9
$SURFU
 70
     6
  9
$SURFV
 70
     6
  9
$UCSNAME
  2

  9
$UCSORG
 10
0.0
 20
0.0
 30
0.0
  9
$UCSXDIR
 10
1.0
 20
0.0
 30
0.0
  9
$UCSYDIR
 10
0.0
 20
1.0
 30
0.0
  9
$PUCSNAME
  2

  9
$PUCSORG
 10
0.0
 20
0.0
 30
0.0
  9
$PUCSXDIR
 10
1.0
 20
0.0
 30
0.0
  9
$PUCSYDIR
 10
0.0
 20
1.0
 30
0.0
  9
$USERI1
 70
     0
  9
$USERI2
 70
     0
  9
$USERI3
 70
     0
  9
$USERI4
 70
     0
  9
$USERI5
 70
     0
  9
$USERR1
 40
0.0
  9
$USERR2
 40
0.0
  9
$USERR3
 40
0.0
  9
$USERR4
 40
0.0
  9
$USERR5
 40
0.0
  9
$WORLDVIEW
 70
     1
  9
$SHADEDGE
 70
     3
  9
$SHADEDIF
 70
    70
  9
$TILEMODE
 70
     1
  9
$MAXACTVP
 70
    16
  9
$PINSBASE
 10
0.0
 20
0.0
 30
0.0
  9
$PLIMCHECK
 70
     0
  9
$PEXTMIN
 10
1.000000E+20
 20
1.000000E+20
 30
1.000000E+20
  9
$PEXTMAX
 10
-1.000000E+20
 20
-1.000000E+20
 30
-1.000000E+20
  9
$PLIMMIN
 10
0.0
 20
0.0
  9
$PLIMMAX
 10
12.0
 20
9.0
  9
$UNITMODE
 70
     0
  9
$VISRETAIN
 70
     0
  9
$PLINEGEN
 70
     1
  9
$PSLTSCALE
 70
     0
  9
$TREEDEPTH
 70
  3020
  9
$PICKSTYLE
 70
     1
  9
$CMLSTYLE
  2
Standard
  9
$CMLJUST
 70
     0
  9
$CMLSCALE
 40
1.0
  9
$PROXYGRAPHICS
 70
     0
  9
$MEASUREMENT
 70
     0
  0
ENDSEC
  0
SECTION
  2
CLASSES
  0
CLASS
  1
LWPOLYLINE
  2
AcDbPolyline
  3
"AutoCAD"
 90
        0
280
     0
281
     1
  0
CLASS
  1
IMAGE
  2
AcDbRasterImage
  3
ISM
 90
      127
280
     0
281
     1
  0
CLASS
  1
OLE2FRAME
  2
AcDbOle2Frame
  3
""
 90
        0
280
     0
281
     1
  0
CLASS
  1
HATCH
  2
AcDbHatch
  3
"ACAD_SEDONA"
 90
        0
280
     0
281
     1
  0
CLASS
  1
DICTIONARYVAR
  2
AcDbDictionaryVar
  3
"AutoCAD"
 90
        0
280
     0
281
     0
  0
CLASS
  1
RASTERVARIABLES
  2
AcDbRasterVariables
  3
ISM
 90
        0
280
     0
281
     0
  0
CLASS
  1
IMAGEDEF
  2
AcDbRasterImageDef
  3
ISM
 90
        0
280
     0
281
     0
  0
CLASS
  1
IMAGEDEF_REACTOR
  2
AcDbRasterImageDefReactor
  3
ISM
 90
        1
280
     0
281
     0
  0
CLASS
  1
IDBUFFER
  2
AcDbIdBuffer
  3
"Acad"
 90
        0
280
     0
281
     0
  0
CLASS
  1
SPATIAL_FILTER
  2
AcDbSpatialFilter
  3
"Acad"
 90
        0
280
     0
281
     0
  0
CLASS
  1
XRECORD
  2
AcDbXrecord
  3
"<Built In>"
 90
        0
280
     0
281
     0
  0
CLASS
  1
SORTENTSTABLE
  2
AcDbSortentsTable
  3
"AutoCAD"
 90
        0
280
     0
281
     0
  0
CLASS
  1
LAYER_INDEX
  2
AcDbLayerIndex
  3
"Acad"
 90
        0
280
     0
281
     0
  0
CLASS
  1
SPATIAL_INDEX
  2
AcDbSpatialIndex
  3
"Acad"
 90
        0
280
     0
281
     0
  0
CLASS
  1
OBJECT_PTR
  2
CAseDLPNTableRecord
  3
"ASE-LPNTableRecord"
 90
        1
280
     0
281
     0
  0
CLASS
  1
LAYOUT
  2
AcDbLayout
  3
"AutoCAD 2000"
 90
        0
280
     0
281
     0
  0
CLASS
  1
PLOTSETTINGS
  2
AcDbPlotSettings
  3
"AutoCAD 2000"
 90
        0
280
     0
281
     0
  0
CLASS
  1
ACDBDICTIONARYWDFLT
  2
AcDbDictionaryWithDefault
  3
"AutoCAD 2000"
 90
        0
280
     0
281
     0
  0
CLASS
  1
ACDBPLACEHOLDER
  2
AcDbPlaceHolder
  3
"AutoCAD 2000"
 90
        0
280
     0
281
     0
  0
CLASS
  1
VBA_PROJECT
  2
AcDbVbaProject
  3
"acadvba"
 90
        0
280
     0
281
     0
  0
CLASS
  1
WIPEOUT
  2
AcDbWipeout
  3
WipeOut|AutoCAD Express Tool|expresstools@autodesk.com
 90
      127
280
     0
281
     1
  0
CLASS
  1
WIPEOUTVARIABLES
  2
AcDbWipeoutVariables
  3
WipeOut|AutoCAD Express Tool|expresstools@autodesk.com
 90
        0
280
     0
281
     0
  0
CLASS
  1
RTEXT
  2
RText
  3
RText|AutoCAD Express Tool|expresstools@autodesk.com
 90
        0
280
     0
281
     1
  0
CLASS
  1
ARCALIGNEDTEXT
  2
AcDbArcAlignedText
  3
ATEXT|AutoCAD Express Tool|expresstools@autodesk.com
 90
        0
280
     0
281
     1
  0
ENDSEC
  0
SECTION
  2
TABLES
  0
TABLE
  2
VPORT
  5
7
100
AcDbSymbolTable
 70
     1
  0
VPORT
  5
15
100
AcDbSymbolTableRecord
100
AcDbViewportTableRecord
  2
*ACTIVE
 70
     0
 10
0.0
 20
0.0
 11
1.0
 21
1.0
 12
247.256009
 22
167.14096
 13
0.0
 23
0.0
 14
10.0
 24
10.0
 15
10.0
 25
10.0
 16
0.0
 26
0.0
 36
1.0
 17
0.0
 27
0.0
 37
0.0
 40
334.281921
 41
1.479326
 42
50.0
 43
0.0
 44
0.0
 50
0.0
 51
0.0
 71
     0
 72
   100
 73
     1
 74
     1
 75
     0
 76
     0
 77
     0
 78
     0
  0
ENDTAB
  0
TABLE
  2
LTYPE
  5
4
100
AcDbSymbolTable
 70
    24
  0
LTYPE
  5
11
100
AcDbSymbolTableRecord
100
AcDbLinetypeTableRecord
  2
ByBlock
 70
    64
  3

 72
    65
 73
     0
 40
0.0
  0
LTYPE
  5
12
100
AcDbSymbolTableRecord
100
AcDbLinetypeTableRecord
  2
ByLayer
 70
    64
  3

 72
    65
 73
     0
 40
0.0
  0
LTYPE
  5
13
100
AcDbSymbolTableRecord
100
AcDbLinetypeTableRecord
  2
Continuous
 70
    64
  3
Solid line
 72
    65
 73
     0
 40
0.0
  0
LTYPE
  5
1D
100
AcDbSymbolTableRecord
100
AcDbLinetypeTableRecord
  2
DOT
 70
    64
  3
Dot . . . . . . . . . . . . . . . . . . . . . .
 72
    65
 73
     2
 40
6.35
 49
0.35
 74
     0
 49
-6.0
 74
     0
  0
LTYPE
  5
1E
100
AcDbSymbolTableRecord
100
AcDbLinetypeTableRecord
  2
DASHED
 70
    64
  3
Dashed __ __ __ __ __ __ __ __ __ __ __ __ __ _
 72
    65
 73
     2
 40
12.7
 49
6.35
 74
     0
 49
-6.35
 74
     0
  0
LTYPE
  5
1F
100
AcDbSymbolTableRecord
100
AcDbLinetypeTableRecord
  2
DASHDOT
 70
    64
  3
Dash dot __ . __ . __ . __ . __ . __ . __ . __
 72
    65
 73
     4
 40
25.4
 49
12.7
 74
     0
 49
-6.0
 74
     0
 49
0.7
 74
     0
 49
-6.0
 74
     0
  0
LTYPE
  5
20
100
AcDbSymbolTableRecord
100
AcDbLinetypeTableRecord
  2
DIVIDE
 70
    64
  3
Divide ____ . . ____ . . ____ . . ____ . . ____
 72
    65
 73
     6
 40
31.75
 49
12.7
 74
     0
 49
-6.0
 74
     0
 49
0.875
 74
     0
 49
-6.0
 74
     0
 49
0.875
 74
     0
 49
-6.0
 74
     0
  0
LTYPE
  5
21
100
AcDbSymbolTableRecord
100
AcDbLinetypeTableRecord
  2
HIDDEN
 70
    64
  3
Hidden __ __ __ __ __ __ __ __ __ __ __ __ __ _
 72
    65
 73
     2
 40
9.525
 49
6.35
 74
     0
 49
-3.175
 74
     0
  0
LTYPE
  5
22
100
AcDbSymbolTableRecord
100
AcDbLinetypeTableRecord
  2
CENTER
 70
    64
  3
Center ____ _ ____ _ ____ _ ____ _ ____ _ ____
 72
    65
 73
     4
 40
50.8
 49
31.75
 74
     0
 49
-6.35
 74
     0
 49
6.35
 74
     0
 49
-6.35
 74
     0
  0
LTYPE
  5
23
100
AcDbSymbolTableRecord
100
AcDbLinetypeTableRecord
  2
PHANTOM
 70
    64
  3
Phantom ______  __  __  ______  __  __  ______
 72
    65
 73
     6
 40
63.5
 49
31.75
 74
     0
 49
-6.35
 74
     0
 49
6.35
 74
     0
 49
-6.35
 74
     0
 49
6.35
 74
     0
 49
-6.35
 74
     0
  0
LTYPE
  5
24
100
AcDbSymbolTableRecord
100
AcDbLinetypeTableRecord
  2
ACAD_ISO02W100
 70
    64
  3
ISO dash __ __ __ __ __ __ __ __ __ __ __ __ __
 72
    65
 73
     2
 40
15.0
 49
12.0
 74
     0
 49
-3.0
 74
     0
  0
LTYPE
  5
25
100
AcDbSymbolTableRecord
100
AcDbLinetypeTableRecord
  2
ACAD_ISO03W100
 70
    64
  3
ISO dash space __ __ __ __ __ __ __ __ __ __ __ __ __ __
 72
    65
 73
     2
 40
30.0
 49
12.0
 74
     0
 49
-18.0
 74
     0
  0
LTYPE
  5
26
100
AcDbSymbolTableRecord
100
AcDbLinetypeTableRecord
  2
ACAD_ISO04W100
 70
    64
  3
ISO long-dash dot ____ . ____ . ____ . ____ . _
 72
    65
 73
     4
 40
30.0
 49
24.0
 74
     0
 49
-3.0
 74
     0
 49
0.0
 74
     0
 49
-3.0
 74
     0
  0
LTYPE
  5
27
100
AcDbSymbolTableRecord
100
AcDbLinetypeTableRecord
  2
ACAD_ISO05W100
 70
    64
  3
ISO long-dash double-dot ____ .. ____ .. ____ .
 72
    65
 73
     6
 40
33.0
 49
24.0
 74
     0
 49
-3.0
 74
     0
 49
0.0
 74
     0
 49
-3.0
 74
     0
 49
0.0
 74
     0
 49
-3.0
 74
     0
  0
LTYPE
  5
28
100
AcDbSymbolTableRecord
100
AcDbLinetypeTableRecord
  2
ACAD_ISO06W100
 70
    64
  3
ISO long-dash triple-dot ____ ... ____ ... ____
 72
    65
 73
     8
 40
36.0
 49
24.0
 74
     0
 49
-3.0
 74
     0
 49
0.0
 74
     0
 49
-3.0
 74
     0
 49
0.0
 74
     0
 49
-3.0
 74
     0
 49
0.0
 74
     0
 49
-3.0
 74
     0
  0
LTYPE
  5
29
100
AcDbSymbolTableRecord
100
AcDbLinetypeTableRecord
  2
ACAD_ISO07W100
 70
    64
  3
ISO dot . . . . . . . . . . . . . . . . . . . .
 72
    65
 73
     2
 40
3.0
 49
0.0
 74
     0
 49
-3.0
 74
     0
  0
LTYPE
  5
2A
100
AcDbSymbolTableRecord
100
AcDbLinetypeTableRecord
  2
ACAD_ISO08W100
 70
    64
  3
ISO long-dash short-dash ____ __ ____ __ ____ _
 72
    65
 73
     4
 40
36.0
 49
24.0
 74
     0
 49
-3.0
 74
     0
 49
6.0
 74
     0
 49
-3.0
 74
     0
  0
LTYPE
  5
2B
100
AcDbSymbolTableRecord
100
AcDbLinetypeTableRecord
  2
ACAD_ISO09W100
 70
    64
  3
ISO long-dash double-short-dash ____ __ __ ____
 72
    65
 73
     6
 40
45.0
 49
24.0
 74
     0
 49
-3.0
 74
     0
 49
6.0
 74
     0
 49
-3.0
 74
     0
 49
6.0
 74
     0
 49
-3.0
 74
     0
  0
LTYPE
  5
2C
100
AcDbSymbolTableRecord
100
AcDbLinetypeTableRecord
  2
ACAD_ISO10W100
 70
    64
  3
ISO dash dot __ . __ . __ . __ . __ . __ . __ .
 72
    65
 73
     4
 40
18.0
 49
12.0
 74
     0
 49
-3.0
 74
     0
 49
0.0
 74
     0
 49
-3.0
 74
     0
  0
LTYPE
  5
2D
100
AcDbSymbolTableRecord
100
AcDbLinetypeTableRecord
  2
ACAD_ISO11W100
 70
    64
  3
ISO double-dash dot __ __ . __ __ . __ __ . __ 
 72
    65
 73
     6
 40
33.0
 49
12.0
 74
     0
 49
-3.0
 74
     0
 49
12.0
 74
     0
 49
-3.0
 74
     0
 49
0.0
 74
     0
 49
-3.0
 74
     0
  0
LTYPE
  5
2E
100
AcDbSymbolTableRecord
100
AcDbLinetypeTableRecord
  2
ACAD_ISO12W100
 70
    64
  3
ISO dash double-dot __ . . __ . . __ . . __ . .
 72
    65
 73
     6
 40
21.0
 49
12.0
 74
     0
 49
-3.0
 74
     0
 49
0.0
 74
     0
 49
-3.0
 74
     0
 49
0.0
 74
     0
 49
-3.0
 74
     0
  0
LTYPE
  5
2F
100
AcDbSymbolTableRecord
100
AcDbLinetypeTableRecord
  2
ACAD_ISO13W100
 70
    64
  3
ISO double-dash double-dot __ __ . . __ __ . . 
 72
    65
 73
     8
 40
36.0
 49
12.0
 74
     0
 49
-3.0
 74
     0
 49
12.0
 74
     0
 49
-3.0
 74
     0
 49
0.0
 74
     0
 49
-3.0
 74
     0
 49
0.0
 74
     0
 49
-3.0
 74
     0
  0
LTYPE
  5
30
100
AcDbSymbolTableRecord
100
AcDbLinetypeTableRecord
  2
ACAD_ISO14W100
 70
    64
  3
ISO dash triple-dot __ . . . __ . . . __ . . . 
 72
    65
 73
     8
 40
24.0
 49
12.0
 74
     0
 49
-3.0
 74
     0
 49
0.0
 74
     0
 49
-3.0
 74
     0
 49
0.0
 74
     0
 49
-3.0
 74
     0
 49
0.0
 74
     0
 49
-3.0
 74
     0
  0
LTYPE
  5
31
100
AcDbSymbolTableRecord
100
AcDbLinetypeTableRecord
  2
ACAD_ISO15W100
 70
    64
  3
ISO double-dash double-dot __ __ . . __ __ . . 
 72
    65
 73
    10
 40
39.0
 49
12.0
 74
     0
 49
-3.0
 74
     0
 49
12.0
 74
     0
 49
-3.0
 74
     0
 49
0.0
 74
     0
 49
-3.0
 74
     0
 49
0.0
 74
     0
 49
-3.0
 74
     0
 49
0.0
 74
     0
 49
-3.0
 74
     0
  0
ENDTAB
  0
TABLE
  2
LAYER
  5
2
100
AcDbSymbolTable
 70
     1
  0
LAYER
  5
14
100
AcDbSymbolTableRecord
100
AcDbLayerTableRecord
  2
0
 70
     0
 62
     7
  6
Continuous
  0
ENDTAB
  0
TABLE
  2
STYLE
  5
3
100
AcDbSymbolTable
 70
     6
  0
STYLE
  5
17
100
AcDbSymbolTableRecord
100
AcDbTextStyleTableRecord
  2
Standard
 70
     0
 40
0.0
 41
1.0
 50
0.0
 71
     0
 42
0.0
  3
txt.shx
  4
bigfont.shx
  0
STYLE
  5
32
100
AcDbSymbolTableRecord
100
AcDbTextStyleTableRecord
  2
STANDARD_T
 70
     4
 40
0.0
 41
1.0
 50
0.0
 71
     0
 42
0.0
  3
txt.shx
  4
bigfont.shx
  0
STYLE
  5
33
100
AcDbSymbolTableRecord
100
AcDbTextStyleTableRecord
  2
FontTableH_0
 70
     0
 40
0.0
 41
1.0
 50
0.0
 71
     0
 42
0.0
  3
MS Gothic.ttf
  4

1001
ACAD
1000
MS Gothic
1071
    32817
  0
STYLE
  5
34
100
AcDbSymbolTableRecord
100
AcDbTextStyleTableRecord
  2
FontTableV_0
 70
     0
 40
0.0
 41
1.0
 50
0.0
 71
     0
 42
0.0
  3
@MS Gothic.ttf
  4

1001
ACAD
1000
@MS Gothic
1071
    32817
  0
STYLE
  5
35
100
AcDbSymbolTableRecord
100
AcDbTextStyleTableRecord
  2
FontTableH_1
 70
     0
 40
0.0
 41
1.0
 50
0.0
 71
     0
 42
0.0
  3
Arial.ttf
  4

1001
ACAD
1000
Arial
1071
    32817
  0
STYLE
  5
36
100
AcDbSymbolTableRecord
100
AcDbTextStyleTableRecord
  2
FontTableV_1
 70
     0
 40
0.0
 41
1.0
 50
0.0
 71
     0
 42
0.0
  3
@Arial.ttf
  4

1001
ACAD
1000
@Arial
1071
    32817
  0
ENDTAB
  0
TABLE
  2
VIEW
  5
5
100
AcDbSymbolTable
 70
     0
  0
ENDTAB
  0
TABLE
  2
UCS
  5
6
100
AcDbSymbolTable
 70
     0
  0
ENDTAB
  0
TABLE
  2
APPID
  5
8
100
AcDbSymbolTable
 70
     1
  0
APPID
  5
16
100
AcDbSymbolTableRecord
100
AcDbRegAppTableRecord
  2
ACAD
 70
     0
  0
ENDTAB
  0
TABLE
  2
DIMSTYLE
  5
9
100
AcDbSymbolTable
 70
     1
  0
DIMSTYLE
105
18
100
AcDbSymbolTableRecord
100
AcDbDimStyleTableRecord
  2
Standard
 70
     0
  3

  4

  5

  6

  7

 40
1.0
 41
0.18
 42
0.0625
 43
0.38
 44
0.18
 45
0.0
 46
0.0
 47
0.0
 48
0.0
 71
     0
 72
     0
 73
     1
 74
     1
 75
     0
 76
     0
 77
     0
 78
     0
140
0.18
141
0.09
142
0.0
143
25.4
144
1.0
145
0.0
146
1.0
147
0.09
170
     0
171
     2
172
     0
173
     0
174
     0
175
     0
176
     0
177
     0
178
     0
270
     2
271
     4
272
     4
273
     2
274
     2
275
     0
280
     0
281
     0
282
     0
283
     1
284
     0
285
     0
286
     0
287
     0
288
     0
340
17
  0
ENDTAB
  0
TABLE
  2
BLOCK_RECORD
  5
1
100
AcDbSymbolTable
 70
     0
  0
BLOCK_RECORD
  5
A
100
AcDbSymbolTableRecord
100
AcDbBlockTableRecord
  2
*MODEL_SPACE
  0
BLOCK_RECORD
  5
B
100
AcDbSymbolTableRecord
100
AcDbBlockTableRecord
  2
*PAPER_SPACE
  0
ENDTAB
  0
ENDSEC
  0
SECTION
  2
BLOCKS
  0
BLOCK
  5
D
100
AcDbEntity
  8
0
100
AcDbBlockBegin
  2
*MODEL_SPACE
 70
     0
 10
0.0
 20
0.0
 30
0.0
  3
*MODEL_SPACE
  1

  0
ENDBLK
  5
E
100
AcDbEntity
  8
0
100
AcDbBlockEnd
  0
BLOCK
  5
F
100
AcDbEntity
 67
     1
  8
0
100
AcDbBlockBegin
  2
*PAPER_SPACE
 70
     0
 10
0.0
 20
0.0
 30
0.0
  3
*PAPER_SPACE
  1

  0
ENDBLK
  5
10
100
AcDbEntity
 67
     1
  8
0
100
AcDbBlockEnd
  0
ENDSEC
  0
SECTION
  2
ENTITIES
  0
LINE
  5
37
100
AcDbEntity
  8
0
  6
Continuous
 62
     7
100
AcDbLine
 10
218.946453
 20
200.134257
 30
0.0
 11
220.162158
 21
193.239647
 31
0.0
  0
LINE
  5
38
100
AcDbEntity
  8
0
  6
Continuous
 62
     7
100
AcDbLine
 10
226.619373
 20
201.4872
 30
0.0
 11
227.661262
 21
195.578353
 31
0.0
  0
LINE
  5
39
100
AcDbEntity
  8
0
  6
Continuous
 62
     7
100
AcDbLine
 10
222.106417
 20
200.691444
 30
0.0
 11
223.148306
 21
194.782597
 31
0.0
  0
LINE
  5
3A
100
AcDbEntity
  8
0
  6
Continuous
 62
     7
100
AcDbLine
 10
221.226792
 20
200.536342
 30
0.0
 11
222.268681
 21
194.627496
 31
0.0
  0
LINE
  5
3B
100
AcDbEntity
  8
0
  6
Continuous
 62
     7
100
AcDbLine
 10
229.432041
 20
204.014002
 30
0.0
 11
229.779338
 21
202.044387
 31
0.0
  0
LINE
  5
3C
100
AcDbEntity
  8
0
  6
Continuous
 62
     7
100
AcDbLine
 10
229.779338
 20
202.044387
 30
0.0
 11
230.995044
 21
195.149777
 31
0.0
  0
LINE
  5
3D
100
AcDbEntity
  8
0
  6
Continuous
 62
     7
100
AcDbLine
 10
227.498999
 20
201.642301
 30
0.0
 11
228.540888
 21
195.733455
 31
0.0
  0
LINE
  5
3E
100
AcDbEntity
  8
0
  6
Continuous
 62
     7
100
AcDbLine
 10
221.759121
 20
202.661059
 30
0.0
 11
222.054323
 21
200.986886
 31
0.0
  0
LINE
  5
3F
100
AcDbEntity
  8
0
  6
Continuous
 62
     7
100
AcDbLine
 10
220.879495
 20
202.505958
 30
0.0
 11
221.174697
 21
200.831784
 31
0.0
  0
LINE
  5
40
100
AcDbEntity
  8
0
  6
Continuous
 62
     7
100
AcDbLine
 10
218.599156
 20
202.103872
 30
0.0
 11
218.946453
 21
200.134257
 31
0.0
  0
LINE
  5
41
100
AcDbEntity
  8
0
  6
Continuous
 62
     7
100
AcDbLine
 10
218.599156
 20
202.103872
 30
0.0
 11
229.432041
 21
204.014002
 31
0.0
  0
LINE
  5
42
100
AcDbEntity
  8
0
  6
Continuous
 62
     7
100
AcDbLine
 10
224.160046
 20
185.539304
 30
0.0
 11
196.180896
 21
157.560153
 31
0.0
  0
LINE
  5
43
100
AcDbEntity
  8
0
  6
Continuous
 62
     7
100
AcDbLine
 10
227.151702
 20
203.611917
 30
0.0
 11
227.446904
 21
201.937744
 31
0.0
  0
LINE
  5
44
100
AcDbEntity
  8
0
  6
Continuous
 62
     7
100
AcDbLine
 10
218.946453
 20
200.134257
 30
0.0
 11
229.779338
 21
202.044387
 31
0.0
  0
LINE
  5
45
100
AcDbEntity
  8
0
  6
Continuous
 62
     7
100
AcDbLine
 10
229.848617
 20
214.749435
 30
0.0
 11
230.563159
 21
214.875428
 31
0.0
  0
LINE
  5
46
100
AcDbEntity
  8
0
  6
Continuous
 62
     7
100
AcDbLine
 10
230.968739
 20
215.454656
 30
0.0
 11
229.579553
 21
223.333118
 31
0.0
  0
LINE
  5
47
100
AcDbEntity
  8
0
  6
Continuous
 62
     7
100
AcDbLine
 10
223.148306
 20
194.782597
 30
0.0
 11
222.268681
 21
194.627496
 31
0.0
  0
LINE
  5
48
100
AcDbEntity
  8
0
  6
DASHDOT
 62
     7
100
AcDbLine
 10
226.115353
 20
218.66058
 30
0.0
 11
232.547023
 21
219.794657
 31
0.0
  0
LINE
  5
49
100
AcDbEntity
  8
0
  6
DASHDOT
 62
     7
100
AcDbLine
 10
175.715835
 20
158.906142
 30
0.0
 11
182.575841
 21
197.811167
 31
0.0
  0
LINE
  5
4A
100
AcDbEntity
  8
0
  6
DASHDOT
 62
     7
100
AcDbLine
 10
132.47306
 20
220.663225
 30
0.0
 11
138.948014
 21
219.521516
 31
0.0
  0
LINE
  5
4B
100
AcDbEntity
  8
0
  6
DASHDOT
 62
     7
100
AcDbLine
 10
194.230143
 20
263.906
 30
0.0
 11
193.088434
 21
257.431047
 31
0.0
  0
LINE
  5
4C
100
AcDbEntity
  8
0
  6
DASHDOT
 62
     7
100
AcDbLine
 10
237.472919
 20
202.148917
 30
0.0
 11
230.997965
 21
203.290626
 31
0.0
  0
LINE
  5
4D
100
AcDbEntity
  8
0
  6
Continuous
 62
     7
100
AcDbLine
 10
226.272077
 20
203.456815
 30
0.0
 11
226.567279
 21
201.782642
 31
0.0
  0
LINE
  5
4E
100
AcDbEntity
  8
0
  6
DASHDOT
 62
     7
100
AcDbLine
 10
244.364309
 20
211.406071
 30
0.0
 11
125.342626
 21
211.406071
 31
0.0
  0
LINE
  5
4F
100
AcDbEntity
  8
0
  6
DASHDOT
 62
     7
100
AcDbLine
 10
184.972989
 20
270.95848
 30
0.0
 11
184.972989
 21
151.936797
 31
0.0
  0
LINE
  5
50
100
AcDbEntity
  8
0
  6
Continuous
 62
     7
100
AcDbLine
 10
173.765083
 20
265.251989
 30
0.0
 11
131.127072
 21
222.613977
 31
0.0
  0
LINE
  5
51
100
AcDbEntity
  8
0
  6
Continuous
 62
     7
100
AcDbLine
 10
238.818907
 20
200.198165
 30
0.0
 11
229.16671
 21
190.545968
 31
0.0
  0
LINE
  5
52
100
AcDbEntity
  8
0
  6
Continuous
 62
     7
100
AcDbLine
 10
173.765083
 20
157.560153
 30
0.0
 11
131.127072
 21
200.198165
 31
0.0
  0
LINE
  5
53
100
AcDbEntity
  8
0
  6
Continuous
 62
     7
100
AcDbLine
 10
238.818907
 20
222.613977
 30
0.0
 11
196.180896
 21
265.251989
 31
0.0
  0
LINE
  5
54
100
AcDbEntity
  8
0
  6
DASHDOT
 62
     7
100
AcDbLine
 10
202.764642
 20
200.071538
 30
0.0
 11
197.567705
 21
203.382352
 31
0.0
  0
LINE
  5
55
100
AcDbEntity
  8
0
  6
DASHDOT
 62
     7
100
AcDbLine
 10
196.296817
 20
229.180921
 30
0.0
 11
192.922216
 21
223.883857
 31
0.0
  0
LINE
  5
56
100
AcDbEntity
  8
0
  6
DASHDOT
 62
     7
100
AcDbLine
 10
172.902554
 20
219.095786
 30
0.0
 11
167.670994
 21
222.428658
 31
0.0
  0
LINE
  5
57
100
AcDbEntity
  8
0
  6
DASHDOT
 62
     7
100
AcDbLine
 10
177.23084
 20
199.253331
 30
0.0
 11
173.95937
 21
194.118151
 31
0.0
  0
LINE
  5
58
100
AcDbEntity
  8
0
  6
DASHED
 62
     7
100
AcDbLine
 10
237.972989
 20
84.406119
 30
0.0
 11
237.972989
 21
78.906119
 31
0.0
  0
LINE
  5
59
100
AcDbEntity
  8
0
  6
Continuous
 62
     7
100
AcDbLine
 10
142.972989
 20
71.406119
 30
0.0
 11
226.972989
 21
71.406119
 31
0.0
  0
LINE
  5
5A
100
AcDbEntity
  8
0
  6
Continuous
 62
     7
100
AcDbLine
 10
165.072989
 20
113.206119
 30
0.0
 11
163.045783
 21
113.206119
 31
0.0
  0
LINE
  5
5B
100
AcDbEntity
  8
0
  6
Continuous
 62
     7
100
AcDbLine
 10
220.831116
 20
108.890433
 30
0.0
 11
218.539828
 21
104.921806
 31
0.0
  0
LINE
  5
5C
100
AcDbEntity
  8
0
  6
Continuous
 62
     7
100
AcDbLine
 10
226.306887
 20
99.406119
 30
0.0
 11
221.724311
 21
99.406119
 31
0.0
  0
LINE
  5
5D
100
AcDbEntity
  8
0
  6
DASHED
 62
     7
100
AcDbLine
 10
169.972989
 20
104.406119
 30
0.0
 11
199.972989
 21
104.406119
 31
0.0
  0
LINE
  5
5E
100
AcDbEntity
  8
0
  6
Continuous
 62
     7
100
AcDbLine
 10
129.972989
 20
84.406119
 30
0.0
 11
129.972989
 21
74.406119
 31
0.0
  0
LINE
  5
5F
100
AcDbEntity
  8
0
  6
DASHED
 62
     7
100
AcDbLine
 10
237.472989
 20
84.406119
 30
0.0
 11
237.472989
 21
78.906119
 31
0.0
  0
LINE
  5
60
100
AcDbEntity
  8
0
  6
DASHED
 62
     7
100
AcDbLine
 10
137.972989
 20
84.406119
 30
0.0
 11
137.972989
 21
78.906119
 31
0.0
  0
LINE
  5
61
100
AcDbEntity
  8
0
  6
DASHDOT
 62
     7
100
AcDbLine
 10
134.972989
 20
88.019358
 30
0.0
 11
134.972989
 21
71.195024
 31
0.0
  0
LINE
  5
62
100
AcDbEntity
  8
0
  6
Continuous
 62
     7
100
AcDbLine
 10
239.972989
 20
84.406119
 30
0.0
 11
239.972989
 21
74.406119
 31
0.0
  0
LINE
  5
63
100
AcDbEntity
  8
0
  6
DASHED
 62
     7
100
AcDbLine
 10
131.972989
 20
84.406119
 30
0.0
 11
131.972989
 21
78.906119
 31
0.0
  0
LINE
  5
64
100
AcDbEntity
  8
0
  6
DASHED
 62
     7
100
AcDbLine
 10
238.172989
 20
78.906119
 30
0.0
 11
238.172989
 21
74.406119
 31
0.0
  0
LINE
  5
65
100
AcDbEntity
  8
0
  6
Continuous
 62
     7
100
AcDbLine
 10
165.072989
 20
113.206119
 30
0.0
 11
165.272989
 21
113.406119
 31
0.0
  0
LINE
  5
66
100
AcDbEntity
  8
0
  6
Continuous
 62
     7
100
AcDbLine
 10
204.672989
 20
113.406119
 30
0.0
 11
204.872989
 21
113.206119
 31
0.0
  0
LINE
  5
67
100
AcDbEntity
  8
0
  6
Continuous
 62
     7
100
AcDbLine
 10
162.910989
 20
113.167976
 30
0.0
 11
161.011248
 21
111.999248
 31
0.0
  0
LINE
  5
68
100
AcDbEntity
  8
0
  6
Continuous
 62
     7
100
AcDbLine
 10
161.224203
 20
111.406119
 30
0.0
 11
160.450485
 21
111.40747
 31
0.0
  0
LINE
  5
69
100
AcDbEntity
  8
0
  6
Continuous
 62
     7
100
AcDbLine
 10
226.972989
 20
71.406119
 30
0.0
 11
227.472989
 21
71.906119
 31
0.0
  0
LINE
  5
6A
100
AcDbEntity
  8
0
  6
Continuous
 62
     7
100
AcDbLine
 10
142.472989
 20
71.906119
 30
0.0
 11
142.972989
 21
71.406119
 31
0.0
  0
LINE
  5
6B
100
AcDbEntity
  8
0
  6
DASHDOT
 62
     7
100
AcDbLine
 10
234.051323
 20
104.406119
 30
0.0
 11
225.108944
 21
104.406119
 31
0.0
  0
LINE
  5
6C
100
AcDbEntity
  8
0
  6
Continuous
 62
     7
100
AcDbLine
 10
210.972989
 20
111.406119
 30
0.0
 11
158.972989
 21
111.406119
 31
0.0
  0
LINE
  5
6D
100
AcDbEntity
  8
0
  6
Continuous
 62
     7
100
AcDbLine
 10
165.272989
 20
113.406119
 30
0.0
 11
204.672989
 21
113.406119
 31
0.0
  0
LINE
  5
6E
100
AcDbEntity
  8
0
  6
DASHED
 62
     7
100
AcDbLine
 10
199.972989
 20
113.406119
 30
0.0
 11
199.972989
 21
104.406119
 31
0.0
  0
LINE
  5
6F
100
AcDbEntity
  8
0
  6
DASHED
 62
     7
100
AcDbLine
 10
169.972989
 20
113.406119
 30
0.0
 11
169.972989
 21
104.406119
 31
0.0
  0
LINE
  5
70
100
AcDbEntity
  8
0
  6
DASHDOT
 62
     7
100
AcDbLine
 10
234.972989
 20
88.019358
 30
0.0
 11
234.972989
 21
71.195024
 31
0.0
  0
LINE
  5
71
100
AcDbEntity
  8
0
  6
DASHED
 62
     7
100
AcDbLine
 10
194.972989
 20
104.406119
 30
0.0
 11
194.972989
 21
71.406119
 31
0.0
  0
LINE
  5
72
100
AcDbEntity
  8
0
  6
DASHED
 62
     7
100
AcDbLine
 10
174.972989
 20
104.406119
 30
0.0
 11
174.972989
 21
71.406119
 31
0.0
  0
LINE
  5
73
100
AcDbEntity
  8
0
  6
DASHDOT
 62
     7
100
AcDbLine
 10
184.972989
 20
115.988956
 30
0.0
 11
184.972989
 21
68.568547
 31
0.0
  0
LINE
  5
74
100
AcDbEntity
  8
0
  6
Continuous
 62
     7
100
AcDbLine
 10
227.472989
 20
74.406119
 30
0.0
 11
227.472989
 21
71.906119
 31
0.0
  0
LINE
  5
75
100
AcDbEntity
  8
0
  6
Continuous
 62
     7
100
AcDbLine
 10
142.472989
 20
74.406119
 30
0.0
 11
142.472989
 21
71.906119
 31
0.0
  0
LINE
  5
76
100
AcDbEntity
  8
0
  6
Continuous
 62
     7
100
AcDbLine
 10
129.972989
 20
74.406119
 30
0.0
 11
239.972989
 21
74.406119
 31
0.0
  0
LINE
  5
77
100
AcDbEntity
  8
0
  6
Continuous
 62
     7
100
AcDbLine
 10
140.972989
 20
111.106119
 30
0.0
 11
228.972989
 21
111.106119
 31
0.0
  0
LINE
  5
78
100
AcDbEntity
  8
0
  6
Continuous
 62
     7
100
AcDbLine
 10
139.972989
 20
110.106119
 30
0.0
 11
139.972989
 21
84.406119
 31
0.0
  0
LINE
  5
79
100
AcDbEntity
  8
0
  6
Continuous
 62
     7
100
AcDbLine
 10
229.972989
 20
110.106119
 30
0.0
 11
229.972989
 21
107.208008
 31
0.0
  0
LINE
  5
7A
100
AcDbEntity
  8
0
  6
Continuous
 62
     7
100
AcDbLine
 10
139.972989
 20
110.106119
 30
0.0
 11
140.972989
 21
111.106119
 31
0.0
  0
LINE
  5
7B
100
AcDbEntity
  8
0
  6
Continuous
 62
     7
100
AcDbLine
 10
204.872989
 20
113.206119
 30
0.0
 11
206.900195
 21
113.206119
 31
0.0
  0
LINE
  5
7C
100
AcDbEntity
  8
0
  6
Continuous
 62
     7
100
AcDbLine
 10
226.567279
 20
201.782642
 30
0.0
 11
227.446904
 21
201.937744
 31
0.0
  0
LINE
  5
7D
100
AcDbEntity
  8
0
  6
Continuous
 62
     7
100
AcDbLine
 10
249.764352
 20
195.921731
 30
0.0
 11
229.519664
 21
192.352046
 31
0.0
  0
LINE
  5
7E
100
AcDbEntity
  8
0
  6
Continuous
 62
     7
100
AcDbLine
 10
218.539828
 20
103.890433
 30
0.0
 11
220.831116
 21
99.921806
 31
0.0
  0
LINE
  5
7F
100
AcDbEntity
  8
0
  6
Continuous
 62
     7
100
AcDbLine
 10
226.306887
 20
109.406119
 30
0.0
 11
221.724311
 21
109.406119
 31
0.0
  0
LINE
  5
80
100
AcDbEntity
  8
0
  6
Continuous
 62
     7
100
AcDbLine
 10
218.539828
 20
103.890433
 30
0.0
 11
220.359867
 21
103.890433
 31
0.0
  0
LINE
  5
81
100
AcDbEntity
  8
0
  6
Continuous
 62
     7
100
AcDbLine
 10
216.529225
 20
200.609966
 30
0.0
 11
214.503041
 21
177.45057
 31
0.0
  0
LINE
  5
82
100
AcDbEntity
  8
0
  6
Continuous
 62
     7
100
AcDbLine
 10
230.380677
 20
194.027006
 30
0.0
 11
230.995044
 21
195.149777
 31
0.0
  0
LINE
  5
83
100
AcDbEntity
  8
0
  6
Continuous
 62
     7
100
AcDbLine
 10
216.629541
 20
111.106119
 30
0.0
 11
216.629541
 21
103.406119
 31
0.0
  0
LINE
  5
84
100
AcDbEntity
  8
0
  6
Continuous
 62
     7
100
AcDbLine
 10
220.972989
 20
96.906119
 30
0.0
 11
229.972989
 21
96.906119
 31
0.0
  0
LINE
  5
85
100
AcDbEntity
  8
0
  6
DASHED
 62
     7
100
AcDbLine
 10
138.172989
 20
78.906119
 30
0.0
 11
138.172989
 21
74.406119
 31
0.0
  0
LINE
  5
86
100
AcDbEntity
  8
0
  6
DASHED
 62
     7
100
AcDbLine
 10
131.772989
 20
78.906119
 30
0.0
 11
131.772989
 21
74.406119
 31
0.0
  0
LINE
  5
87
100
AcDbEntity
  8
0
  6
DASHED
 62
     7
100
AcDbLine
 10
137.472989
 20
84.406119
 30
0.0
 11
137.472989
 21
78.906119
 31
0.0
  0
LINE
  5
88
100
AcDbEntity
  8
0
  6
DASHED
 62
     7
100
AcDbLine
 10
132.472989
 20
84.406119
 30
0.0
 11
132.472989
 21
78.906119
 31
0.0
  0
LINE
  5
89
100
AcDbEntity
  8
0
  6
DASHED
 62
     7
100
AcDbLine
 10
231.972989
 20
84.406119
 30
0.0
 11
231.972989
 21
78.906119
 31
0.0
  0
LINE
  5
8A
100
AcDbEntity
  8
0
  6
Continuous
 62
     7
100
AcDbLine
 10
239.972989
 20
78.906119
 30
0.0
 11
129.972989
 21
78.906119
 31
0.0
  0
LINE
  5
8B
100
AcDbEntity
  8
0
  6
DASHED
 62
     7
100
AcDbLine
 10
231.772989
 20
78.906119
 30
0.0
 11
231.772989
 21
74.406119
 31
0.0
  0
LINE
  5
8C
100
AcDbEntity
  8
0
  6
DASHED
 62
     7
100
AcDbLine
 10
232.472989
 20
84.406119
 30
0.0
 11
232.472989
 21
78.906119
 31
0.0
  0
LINE
  5
8D
100
AcDbEntity
  8
0
  6
Continuous
 62
     7
100
AcDbLine
 10
229.359566
 20
204.001223
 30
0.0
 11
217.648476
 21
201.936242
 31
0.0
  0
LINE
  5
8E
100
AcDbEntity
  8
0
  6
Continuous
 62
     7
100
AcDbLine
 10
218.946453
 20
200.134257
 30
0.0
 11
229.779338
 21
202.044387
 31
0.0
  0
LINE
  5
8F
100
AcDbEntity
  8
0
  6
Continuous
 62
     7
100
AcDbLine
 10
207.03499
 20
113.167976
 30
0.0
 11
208.934731
 21
111.999248
 31
0.0
  0
LINE
  5
90
100
AcDbEntity
  8
0
  6
Continuous
 62
     7
100
AcDbLine
 10
209.693247
 20
111.579981
 30
0.0
 11
209.708508
 21
111.689961
 31
0.0
  0
LINE
  5
91
100
AcDbEntity
  8
0
  6
Continuous
 62
     7
100
AcDbLine
 10
208.934731
 20
111.999248
 30
0.0
 11
209.537895
 21
111.915552
 31
0.0
  0
LINE
  5
92
100
AcDbEntity
  8
0
  6
DASHDOT
 62
     7
100
AcDbLine
 10
223.552081
 20
205.68768
 30
0.0
 11
229.327595
 21
172.933107
 31
0.0
  0
LINE
  5
93
100
AcDbEntity
  8
0
  6
Continuous
 62
     7
100
AcDbLine
 10
229.44511
 20
193.86204
 30
0.0
 11
229.41014
 21
192.332734
 31
0.0
  0
LINE
  5
94
100
AcDbEntity
  8
0
  6
Continuous
 62
     7
100
AcDbLine
 10
222.614966
 20
191.134562
 30
0.0
 11
222.059052
 21
192.559679
 31
0.0
  0
LINE
  5
95
100
AcDbEntity
  8
0
  6
Continuous
 62
     7
100
AcDbLine
 10
129.972989
 20
84.406119
 30
0.0
 11
239.972989
 21
84.406119
 31
0.0
  0
LINE
  5
96
100
AcDbEntity
  8
0
  6
Continuous
 62
     7
100
AcDbLine
 10
160.252732
 20
111.579981
 30
0.0
 11
160.237471
 21
111.689961
 31
0.0
  0
LINE
  5
97
100
AcDbEntity
  8
0
  6
Continuous
 62
     7
100
AcDbLine
 10
161.011248
 20
111.999248
 30
0.0
 11
160.408084
 21
111.915552
 31
0.0
  0
LINE
  5
98
100
AcDbEntity
  8
0
  6
Continuous
 62
     7
100
AcDbLine
 10
158.972989
 20
111.406119
 30
0.0
 11
158.972989
 21
111.106119
 31
0.0
  0
LINE
  5
99
100
AcDbEntity
  8
0
  6
Continuous
 62
     7
100
AcDbLine
 10
210.972989
 20
111.406119
 30
0.0
 11
210.972989
 21
111.106119
 31
0.0
  0
LINE
  5
9A
100
AcDbEntity
  8
0
  6
Continuous
 62
     7
100
AcDbLine
 10
226.012553
 20
107.306119
 30
0.0
 11
229.225045
 21
107.306119
 31
0.0
  0
LINE
  5
9B
100
AcDbEntity
  8
0
  6
Continuous
 62
     7
100
AcDbLine
 10
220.359867
 20
103.890433
 30
0.0
 11
222.651155
 21
99.921806
 31
0.0
  0
LINE
  5
9C
100
AcDbEntity
  8
0
  6
Continuous
 62
     7
100
AcDbLine
 10
222.054323
 20
200.986886
 30
0.0
 11
221.174697
 21
200.831784
 31
0.0
  0
LINE
  5
9D
100
AcDbEntity
  8
0
  6
Continuous
 62
     7
100
AcDbLine
 10
220.831116
 20
99.921806
 30
0.0
 11
222.651155
 21
99.921806
 31
0.0
  0
LINE
  5
9E
100
AcDbEntity
  8
0
  6
Continuous
 62
     7
100
AcDbLine
 10
218.539828
 20
104.921806
 30
0.0
 11
220.359867
 21
104.921806
 31
0.0
  0
LINE
  5
9F
100
AcDbEntity
  8
0
  6
Continuous
 62
     7
100
AcDbLine
 10
228.126926
 20
99.406119
 30
0.0
 11
223.54435
 21
99.406119
 31
0.0
  0
LINE
  5
A0
100
AcDbEntity
  8
0
  6
Continuous
 62
     7
100
AcDbLine
 10
221.123484
 20
192.394713
 30
0.0
 11
220.162158
 21
193.239647
 31
0.0
  0
LINE
  5
A1
100
AcDbEntity
  8
0
  6
Continuous
 62
     7
100
AcDbLine
 10
227.661262
 20
195.578353
 30
0.0
 11
228.540888
 21
195.733455
 31
0.0
  0
LINE
  5
A2
100
AcDbEntity
  8
0
  6
Continuous
 62
     7
100
AcDbLine
 10
221.123484
 20
192.394713
 30
0.0
 11
230.380677
 21
194.027006
 31
0.0
  0
LINE
  5
A3
100
AcDbEntity
  8
0
  6
Continuous
 62
     7
100
AcDbLine
 10
228.285783
 20
223.612705
 30
0.0
 11
229.000325
 21
223.738698
 31
0.0
  0
LINE
  5
A4
100
AcDbEntity
  8
0
  6
Continuous
 62
     7
100
AcDbLine
 10
228.972989
 20
111.106119
 30
0.0
 11
229.972989
 21
110.106119
 31
0.0
  0
LINE
  5
A5
100
AcDbEntity
  8
0
  6
Continuous
 62
     7
100
AcDbLine
 10
105.505606
 20
97.148076
 30
0.0
 11
115.783356
 21
97.148076
 31
0.0
  0
LINE
  5
A6
100
AcDbEntity
  8
0
  6
Continuous
 62
     7
100
AcDbLine
 10
228.770015
 20
192.219863
 30
0.0
 11
232.085057
 21
173.419322
 31
0.0
  0
LINE
  5
A7
100
AcDbEntity
  8
0
  6
Continuous
 62
     7
100
AcDbLine
 10
223.255091
 20
191.247433
 30
0.0
 11
226.570134
 21
172.446893
 31
0.0
  0
LINE
  5
A8
100
AcDbEntity
  8
0
  6
DASHDOT
 62
     7
100
AcDbLine
 10
229.225044
 20
108.266696
 30
0.0
 11
229.225044
 21
100.749914
 31
0.0
  0
LINE
  5
A9
100
AcDbEntity
  8
0
  6
Continuous
 62
     7
100
AcDbLine
 10
214.472989
 20
111.106119
 30
0.0
 11
214.472989
 21
103.406119
 31
0.0
  0
LINE
  5
AA
100
AcDbEntity
  8
0
  6
Continuous
 62
     7
100
AcDbLine
 10
226.012553
 20
101.506119
 30
0.0
 11
229.225045
 21
101.506119
 31
0.0
  0
LINE
  5
AB
100
AcDbEntity
  8
0
  6
Continuous
 62
     7
100
AcDbLine
 10
229.020121
 20
108.890433
 30
0.0
 11
229.9949
 21
107.202067
 31
0.0
  0
LINE
  5
AC
100
AcDbEntity
  8
0
  6
Continuous
 62
     7
100
AcDbLine
 10
229.9949
 20
101.610172
 30
0.0
 11
229.020121
 21
99.921806
 31
0.0
  0
LINE
  5
AD
100
AcDbEntity
  8
0
  6
Continuous
 62
     7
100
AcDbLine
 10
228.126926
 20
109.406119
 30
0.0
 11
223.54435
 21
109.406119
 31
0.0
  0
LINE
  5
AE
100
AcDbEntity
  8
0
  6
Continuous
 62
     7
100
AcDbLine
 10
222.651155
 20
108.890433
 30
0.0
 11
220.359867
 21
104.921806
 31
0.0
  0
LINE
  5
AF
100
AcDbEntity
  8
0
  6
Continuous
 62
     7
100
AcDbLine
 10
220.831116
 20
108.890433
 30
0.0
 11
222.651155
 21
108.890433
 31
0.0
  0
LINE
  5
B0
100
AcDbEntity
  8
0
  6
Continuous
 62
     7
100
AcDbLine
 10
229.972989
 20
101.604231
 30
0.0
 11
229.972989
 21
84.406119
 31
0.0
  0
LINE
  5
B1
100
AcDbEntity
  8
0
  6
Continuous
 62
     7
100
AcDbLine
 10
260.237103
 20
159.206071
 30
0.0
 11
249.023748
 21
159.206071
 31
0.0
  0
LINE
  5
B2
100
AcDbEntity
  8
0
  6
Continuous
 62
     7
100
AcDbLine
 10
260.237103
 20
153.606071
 30
0.0
 11
249.023749
 21
153.606071
 31
0.0
  0
LINE
  5
B3
100
AcDbEntity
  8
0
  6
DASHDOT
 62
     7
100
AcDbLine
 10
353.08892
 20
156.406071
 30
0.0
 11
249.023751
 21
156.406071
 31
0.0
  0
LINE
  5
B4
100
AcDbEntity
  8
0
  6
Continuous
 62
     7
100
AcDbLine
 10
247.481362
 20
195.519178
 30
0.0
 11
249.046659
 21
186.64194
 31
0.0
  0
LINE
  5
B5
100
AcDbEntity
  8
0
  6
Continuous
 62
     7
100
AcDbLine
 10
229.41014
 20
192.332734
 30
0.0
 11
222.614966
 21
191.134562
 31
0.0
  0
LINE
  5
B6
100
AcDbEntity
  8
0
  6
Continuous
 62
     7
100
AcDbLine
 10
262.237518
 20
159.206071
 30
0.0
 11
307.019685
 21
159.206071
 31
0.0
  0
LINE
  5
B7
100
AcDbEntity
  8
0
  6
Continuous
 62
     7
100
AcDbLine
 10
262.237103
 20
153.606071
 30
0.0
 11
307.019685
 21
153.606071
 31
0.0
  0
LINE
  5
B8
100
AcDbEntity
  8
0
  6
Continuous
 62
     7
100
AcDbLine
 10
374.026268
 20
158.711671
 30
0.0
 11
374.722464
 21
158.309723
 31
0.0
  0
LINE
  5
B9
100
AcDbEntity
  8
0
  6
Continuous
 62
     7
100
AcDbLine
 10
374.526268
 20
159.577696
 30
0.0
 11
375.222464
 21
159.175748
 31
0.0
  0
LINE
  5
BA
100
AcDbEntity
  8
0
  6
Continuous
 62
     7
100
AcDbLine
 10
382.816906
 20
159.175748
 30
0.0
 11
383.513101
 21
159.577696
 31
0.0
  0
LINE
  5
BB
100
AcDbEntity
  8
0
  6
Continuous
 62
     7
100
AcDbLine
 10
383.316906
 20
158.309723
 30
0.0
 11
384.013101
 21
158.711671
 31
0.0
  0
LINE
  5
BC
100
AcDbEntity
  8
0
  6
Continuous
 62
     7
100
AcDbLine
 10
379.769685
 20
150.957447
 30
0.0
 11
379.769685
 21
151.766297
 31
0.0
  0
LINE
  5
BD
100
AcDbEntity
  8
0
  6
Continuous
 62
     7
100
AcDbLine
 10
378.269685
 20
150.957447
 30
0.0
 11
378.269685
 21
151.766297
 31
0.0
  0
LINE
  5
BE
100
AcDbEntity
  8
0
  6
DASHDOT
 62
     2
100
AcDbLine
 10
379.019685
 20
145.178517
 30
0.0
 11
379.019685
 21
168.150578
 31
0.0
  0
LINE
  5
BF
100
AcDbEntity
  8
0
  6
DASHDOT
 62
     2
100
AcDbLine
 10
367.719138
 20
156.406071
 30
0.0
 11
390.190597
 21
156.406071
 31
0.0
  0
LINE
  5
C0
100
AcDbEntity
  8
0
  6
Continuous
 62
     7
100
AcDbLine
 10
387.519685
 20
153.448031
 30
0.0
 11
387.519685
 21
159.364111
 31
0.0
  0
LINE
  5
C1
100
AcDbEntity
  8
0
  6
Continuous
 62
     7
100
AcDbLine
 10
370.519685
 20
153.448031
 30
0.0
 11
370.519685
 21
159.364111
 31
0.0
  0
LINE
  5
C2
100
AcDbEntity
  8
0
  6
Continuous
 62
     7
100
AcDbLine
 10
318.019685
 20
153.948031
 30
0.0
 11
307.019685
 21
158.564111
 31
0.0
  0
LINE
  5
C3
100
AcDbEntity
  8
0
  6
Continuous
 62
     7
100
AcDbLine
 10
339.019685
 20
154.248031
 30
0.0
 11
350.019685
 21
158.864111
 31
0.0
  0
LINE
  5
C4
100
AcDbEntity
  8
0
  6
Continuous
 62
     7
100
AcDbLine
 10
329.719685
 20
154.281071
 30
0.0
 11
338.219685
 21
158.531071
 31
0.0
  0
LINE
  5
C5
100
AcDbEntity
  8
0
  6
Continuous
 62
     7
100
AcDbLine
 10
339.019685
 20
158.564111
 30
0.0
 11
350.019685
 21
153.948031
 31
0.0
  0
LINE
  5
C6
100
AcDbEntity
  8
0
  6
Continuous
 62
     7
100
AcDbLine
 10
338.219685
 20
154.281071
 30
0.0
 11
329.719685
 21
158.531071
 31
0.0
  0
LINE
  5
C7
100
AcDbEntity
  8
0
  6
Continuous
 62
     7
100
AcDbLine
 10
330.219685
 20
147.406071
 30
0.0
 11
330.219685
 21
153.781071
 31
0.0
  0
LINE
  5
C8
100
AcDbEntity
  8
0
  6
Continuous
 62
     7
100
AcDbLine
 10
337.719685
 20
147.406071
 30
0.0
 11
337.719685
 21
153.781071
 31
0.0
  0
LINE
  5
C9
100
AcDbEntity
  8
0
  6
Continuous
 62
     7
100
AcDbLine
 10
330.219685
 20
159.031071
 30
0.0
 11
330.219685
 21
165.406071
 31
0.0
  0
LINE
  5
CA
100
AcDbEntity
  8
0
  6
Continuous
 62
     7
100
AcDbLine
 10
337.719685
 20
159.031071
 30
0.0
 11
337.719685
 21
165.406071
 31
0.0
  0
LINE
  5
CB
100
AcDbEntity
  8
0
  6
Continuous
 62
     7
100
AcDbLine
 10
339.819685
 20
162.770032
 30
0.0
 11
349.519685
 21
162.770032
 31
0.0
  0
LINE
  5
CC
100
AcDbEntity
  8
0
  6
Continuous
 62
     7
100
AcDbLine
 10
339.819685
 20
164.2003
 30
0.0
 11
349.519685
 21
164.2003
 31
0.0
  0
LINE
  5
CD
100
AcDbEntity
  8
0
  6
Continuous
 62
     7
100
AcDbLine
 10
339.819685
 20
165.099403
 30
0.0
 11
349.519685
 21
165.099403
 31
0.0
  0
LINE
  5
CE
100
AcDbEntity
  8
0
  6
Continuous
 62
     7
100
AcDbLine
 10
318.019685
 20
164.406071
 30
0.0
 11
329.719685
 21
164.406071
 31
0.0
  0
LINE
  5
CF
100
AcDbEntity
  8
0
  6
Continuous
 62
     7
100
AcDbLine
 10
318.019685
 20
148.906071
 30
0.0
 11
318.519685
 21
148.906071
 31
0.0
  0
LINE
  5
D0
100
AcDbEntity
  8
0
  6
Continuous
 62
     7
100
AcDbLine
 10
318.019685
 20
163.906071
 30
0.0
 11
318.519685
 21
163.906071
 31
0.0
  0
LINE
  5
D1
100
AcDbEntity
  8
0
  6
Continuous
 62
     7
100
AcDbLine
 10
351.019685
 20
161.406071
 30
0.0
 11
350.519685
 21
161.906071
 31
0.0
  0
LINE
  5
D2
100
AcDbEntity
  8
0
  6
Continuous
 62
     7
100
AcDbLine
 10
350.519685
 20
150.906071
 30
0.0
 11
350.519685
 21
161.906071
 31
0.0
  0
LINE
  5
D3
100
AcDbEntity
  8
0
  6
Continuous
 62
     7
100
AcDbLine
 10
351.019685
 20
151.406071
 30
0.0
 11
350.519685
 21
150.906071
 31
0.0
  0
LINE
  5
D4
100
AcDbEntity
  8
0
  6
Continuous
 62
     7
100
AcDbLine
 10
338.219685
 20
164.906071
 30
0.0
 11
337.719685
 21
165.406071
 31
0.0
  0
LINE
  5
D5
100
AcDbEntity
  8
0
  6
Continuous
 62
     7
100
AcDbLine
 10
338.219685
 20
158.531071
 30
0.0
 11
337.719685
 21
159.031071
 31
0.0
  0
LINE
  5
D6
100
AcDbEntity
  8
0
  6
Continuous
 62
     7
100
AcDbLine
 10
338.219685
 20
147.906071
 30
0.0
 11
337.719685
 21
147.406071
 31
0.0
  0
LINE
  5
D7
100
AcDbEntity
  8
0
  6
Continuous
 62
     7
100
AcDbLine
 10
337.719685
 20
153.781071
 30
0.0
 11
338.219685
 21
154.281071
 31
0.0
  0
LINE
  5
D8
100
AcDbEntity
  8
0
  6
Continuous
 62
     7
100
AcDbLine
 10
329.719685
 20
164.906071
 30
0.0
 11
330.219685
 21
165.406071
 31
0.0
  0
LINE
  5
D9
100
AcDbEntity
  8
0
  6
Continuous
 62
     7
100
AcDbLine
 10
329.719685
 20
158.531071
 30
0.0
 11
330.219685
 21
159.031071
 31
0.0
  0
LINE
  5
DA
100
AcDbEntity
  8
0
  6
Continuous
 62
     7
100
AcDbLine
 10
329.719685
 20
147.906071
 30
0.0
 11
330.219685
 21
147.406071
 31
0.0
  0
LINE
  5
DB
100
AcDbEntity
  8
0
  6
Continuous
 62
     7
100
AcDbLine
 10
329.719685
 20
154.281071
 30
0.0
 11
330.219685
 21
153.781071
 31
0.0
  0
LINE
  5
DC
100
AcDbEntity
  8
0
  6
Continuous
 62
     7
100
AcDbLine
 10
350.019685
 20
161.906071
 30
0.0
 11
350.519685
 21
161.906071
 31
0.0
  0
LINE
  5
DD
100
AcDbEntity
  8
0
  6
Continuous
 62
     7
100
AcDbLine
 10
338.219685
 20
149.906071
 30
0.0
 11
339.019685
 21
149.906071
 31
0.0
  0
LINE
  5
DE
100
AcDbEntity
  8
0
  6
Continuous
 62
     7
100
AcDbLine
 10
338.219685
 20
162.906071
 30
0.0
 11
339.019685
 21
162.906071
 31
0.0
  0
LINE
  5
DF
100
AcDbEntity
  8
0
  6
Continuous
 62
     7
100
AcDbLine
 10
329.719685
 20
147.906071
 30
0.0
 11
329.719685
 21
164.906071
 31
0.0
  0
LINE
  5
E0
100
AcDbEntity
  8
0
  6
Continuous
 62
     7
100
AcDbLine
 10
330.219685
 20
147.406071
 30
0.0
 11
337.719685
 21
147.406071
 31
0.0
  0
LINE
  5
E1
100
AcDbEntity
  8
0
  6
Continuous
 62
     7
100
AcDbLine
 10
330.219685
 20
165.406071
 30
0.0
 11
337.719685
 21
165.406071
 31
0.0
  0
LINE
  5
E2
100
AcDbEntity
  8
0
  6
Continuous
 62
     7
100
AcDbLine
 10
330.219685
 20
153.781071
 30
0.0
 11
337.719685
 21
153.781071
 31
0.0
  0
LINE
  5
E3
100
AcDbEntity
  8
0
  6
Continuous
 62
     7
100
AcDbLine
 10
330.219685
 20
159.031071
 30
0.0
 11
337.719685
 21
159.031071
 31
0.0
  0
LINE
  5
E4
100
AcDbEntity
  8
0
  6
Continuous
 62
     7
100
AcDbLine
 10
350.019685
 20
150.906071
 30
0.0
 11
350.519685
 21
150.906071
 31
0.0
  0
LINE
  5
E5
100
AcDbEntity
  8
0
  6
Continuous
 62
     7
100
AcDbLine
 10
338.219685
 20
147.906071
 30
0.0
 11
338.219685
 21
164.906071
 31
0.0
  0
LINE
  5
E6
100
AcDbEntity
  8
0
  6
Continuous
 62
     7
100
AcDbLine
 10
318.519685
 20
163.906071
 30
0.0
 11
319.38571
 21
164.406071
 31
0.0
  0
LINE
  5
E7
100
AcDbEntity
  8
0
  6
Continuous
 62
     7
100
AcDbLine
 10
338.219685
 20
149.406071
 30
0.0
 11
339.019685
 21
149.406071
 31
0.0
  0
LINE
  5
E8
100
AcDbEntity
  8
0
  6
Continuous
 62
     7
100
AcDbLine
 10
338.219685
 20
163.406071
 30
0.0
 11
339.019685
 21
163.406071
 31
0.0
  0
LINE
  5
E9
100
AcDbEntity
  8
0
  6
Continuous
 62
     7
100
AcDbLine
 10
318.519685
 20
148.906071
 30
0.0
 11
319.38571
 21
148.406071
 31
0.0
  0
LINE
  5
EA
100
AcDbEntity
  8
0
  6
Continuous
 62
     7
100
AcDbLine
 10
318.519685
 20
148.406071
 30
0.0
 11
318.519685
 21
164.406071
 31
0.0
  0
LINE
  5
EB
100
AcDbEntity
  8
0
  6
Continuous
 62
     7
100
AcDbLine
 10
339.819685
 20
147.406071
 30
0.0
 11
339.019685
 21
148.206071
 31
0.0
  0
LINE
  5
EC
100
AcDbEntity
  8
0
  6
Continuous
 62
     7
100
AcDbLine
 10
307.019685
 20
148.656071
 30
0.0
 11
307.019685
 21
164.156071
 31
0.0
  0
LINE
  5
ED
100
AcDbEntity
  8
0
  6
Continuous
 62
     7
100
AcDbLine
 10
307.019685
 20
148.206071
 30
0.0
 11
307.019685
 21
164.606071
 31
0.0
  0
LINE
  5
EE
100
AcDbEntity
  8
0
  6
Continuous
 62
     7
100
AcDbLine
 10
351.019685
 20
151.406071
 30
0.0
 11
351.019685
 21
161.406071
 31
0.0
  0
LINE
  5
EF
100
AcDbEntity
  8
0
  6
Continuous
 62
     7
100
AcDbLine
 10
318.019685
 20
147.906071
 30
0.0
 11
318.019685
 21
164.906071
 31
0.0
  0
LINE
  5
F0
100
AcDbEntity
  8
0
  6
Continuous
 62
     7
100
AcDbLine
 10
309.819685
 20
147.406071
 30
0.0
 11
317.519685
 21
147.406071
 31
0.0
  0
LINE
  5
F1
100
AcDbEntity
  8
0
  6
Continuous
 62
     7
100
AcDbLine
 10
309.819685
 20
165.406071
 30
0.0
 11
317.519685
 21
165.406071
 31
0.0
  0
LINE
  5
F2
100
AcDbEntity
  8
0
  6
Continuous
 62
     7
100
AcDbLine
 10
309.819685
 20
147.406071
 30
0.0
 11
307.019685
 21
148.206071
 31
0.0
  0
LINE
  5
F3
100
AcDbEntity
  8
0
  6
Continuous
 62
     7
100
AcDbLine
 10
317.519685
 20
147.406071
 30
0.0
 11
317.519685
 21
153.448031
 31
0.0
  0
LINE
  5
F4
100
AcDbEntity
  8
0
  6
Continuous
 62
     7
100
AcDbLine
 10
309.819685
 20
147.406071
 30
0.0
 11
309.819685
 21
153.448031
 31
0.0
  0
LINE
  5
F5
100
AcDbEntity
  8
0
  6
Continuous
 62
     7
100
AcDbLine
 10
307.019685
 20
164.606071
 30
0.0
 11
309.819685
 21
165.406071
 31
0.0
  0
LINE
  5
F6
100
AcDbEntity
  8
0
  6
Continuous
 62
     7
100
AcDbLine
 10
339.819685
 20
147.406071
 30
0.0
 11
349.519685
 21
147.406071
 31
0.0
  0
LINE
  5
F7
100
AcDbEntity
  8
0
  6
Continuous
 62
     7
100
AcDbLine
 10
317.519685
 20
147.406071
 30
0.0
 11
318.019685
 21
147.906071
 31
0.0
  0
LINE
  5
F8
100
AcDbEntity
  8
0
  6
Continuous
 62
     7
100
AcDbLine
 10
318.019685
 20
164.906071
 30
0.0
 11
317.519685
 21
165.406071
 31
0.0
  0
LINE
  5
F9
100
AcDbEntity
  8
0
  6
Continuous
 62
     7
100
AcDbLine
 10
309.819685
 20
153.448031
 30
0.0
 11
317.519685
 21
153.448031
 31
0.0
  0
LINE
  5
FA
100
AcDbEntity
  8
0
  6
Continuous
 62
     7
100
AcDbLine
 10
309.819685
 20
159.364111
 30
0.0
 11
317.519685
 21
159.364111
 31
0.0
  0
LINE
  5
FB
100
AcDbEntity
  8
0
  6
Continuous
 62
     7
100
AcDbLine
 10
318.019685
 20
148.406071
 30
0.0
 11
329.719685
 21
148.406071
 31
0.0
  0
LINE
  5
FC
100
AcDbEntity
  8
0
  6
Continuous
 62
     7
100
AcDbLine
 10
307.019685
 20
154.248031
 30
0.0
 11
309.819685
 21
153.448031
 31
0.0
  0
LINE
  5
FD
100
AcDbEntity
  8
0
  6
Continuous
 62
     7
100
AcDbLine
 10
317.519685
 20
159.364111
 30
0.0
 11
318.019685
 21
158.864111
 31
0.0
  0
LINE
  5
FE
100
AcDbEntity
  8
0
  6
Continuous
 62
     7
100
AcDbLine
 10
317.519685
 20
153.448031
 30
0.0
 11
318.019685
 21
153.948031
 31
0.0
  0
LINE
  5
FF
100
AcDbEntity
  8
0
  6
Continuous
 62
     7
100
AcDbLine
 10
307.019685
 20
158.564111
 30
0.0
 11
309.819685
 21
159.364111
 31
0.0
  0
LINE
  5
100
100
AcDbEntity
  8
0
  6
Continuous
 62
     7
100
AcDbLine
 10
350.019685
 20
147.906071
 30
0.0
 11
350.019685
 21
164.906071
 31
0.0
  0
LINE
  5
101
100
AcDbEntity
  8
0
  6
Continuous
 62
     7
100
AcDbLine
 10
339.019685
 20
148.206071
 30
0.0
 11
339.019685
 21
164.606071
 31
0.0
  0
LINE
  5
102
100
AcDbEntity
  8
0
  6
Continuous
 62
     7
100
AcDbLine
 10
317.519685
 20
159.364111
 30
0.0
 11
317.519685
 21
165.406071
 31
0.0
  0
LINE
  5
103
100
AcDbEntity
  8
0
  6
Continuous
 62
     7
100
AcDbLine
 10
309.819685
 20
159.364111
 30
0.0
 11
309.819685
 21
165.406071
 31
0.0
  0
LINE
  5
104
100
AcDbEntity
  8
0
  6
Continuous
 62
     7
100
AcDbLine
 10
309.819685
 20
147.712739
 30
0.0
 11
317.519685
 21
147.712739
 31
0.0
  0
LINE
  5
105
100
AcDbEntity
  8
0
  6
Continuous
 62
     7
100
AcDbLine
 10
339.019685
 20
164.606071
 30
0.0
 11
339.819685
 21
165.406071
 31
0.0
  0
LINE
  5
106
100
AcDbEntity
  8
0
  6
Continuous
 62
     7
100
AcDbLine
 10
309.819685
 20
151.906071
 30
0.0
 11
317.519685
 21
151.906071
 31
0.0
  0
LINE
  5
107
100
AcDbEntity
  8
0
  6
Continuous
 62
     7
100
AcDbLine
 10
309.819685
 20
148.611842
 30
0.0
 11
317.519685
 21
148.611842
 31
0.0
  0
LINE
  5
108
100
AcDbEntity
  8
0
  6
Continuous
 62
     7
100
AcDbLine
 10
339.819685
 20
147.406071
 30
0.0
 11
339.819685
 21
153.448031
 31
0.0
  0
LINE
  5
109
100
AcDbEntity
  8
0
  6
Continuous
 62
     7
100
AcDbLine
 10
309.819685
 20
150.04211
 30
0.0
 11
317.519685
 21
150.04211
 31
0.0
  0
LINE
  5
10A
100
AcDbEntity
  8
0
  6
Continuous
 62
     7
100
AcDbLine
 10
349.519685
 20
147.406071
 30
0.0
 11
349.519685
 21
153.448031
 31
0.0
  0
LINE
  5
10B
100
AcDbEntity
  8
0
  6
Continuous
 62
     7
100
AcDbLine
 10
309.819685
 20
160.906071
 30
0.0
 11
317.519685
 21
160.906071
 31
0.0
  0
LINE
  5
10C
100
AcDbEntity
  8
0
  6
Continuous
 62
     7
100
AcDbLine
 10
349.519685
 20
147.406071
 30
0.0
 11
350.019685
 21
147.906071
 31
0.0
  0
LINE
  5
10D
100
AcDbEntity
  8
0
  6
Continuous
 62
     7
100
AcDbLine
 10
309.819685
 20
162.770032
 30
0.0
 11
317.519685
 21
162.770032
 31
0.0
  0
LINE
  5
10E
100
AcDbEntity
  8
0
  6
Continuous
 62
     7
100
AcDbLine
 10
309.819685
 20
164.2003
 30
0.0
 11
317.519685
 21
164.2003
 31
0.0
  0
LINE
  5
10F
100
AcDbEntity
  8
0
  6
Continuous
 62
     7
100
AcDbLine
 10
339.819685
 20
165.406071
 30
0.0
 11
349.519685
 21
165.406071
 31
0.0
  0
LINE
  5
110
100
AcDbEntity
  8
0
  6
Continuous
 62
     7
100
AcDbLine
 10
309.819685
 20
165.099403
 30
0.0
 11
317.519685
 21
165.099403
 31
0.0
  0
LINE
  5
111
100
AcDbEntity
  8
0
  6
Continuous
 62
     7
100
AcDbLine
 10
350.019685
 20
164.906071
 30
0.0
 11
349.519685
 21
165.406071
 31
0.0
  0
LINE
  5
112
100
AcDbEntity
  8
0
  6
Continuous
 62
     7
100
AcDbLine
 10
339.819685
 20
153.448031
 30
0.0
 11
349.519685
 21
153.448031
 31
0.0
  0
LINE
  5
113
100
AcDbEntity
  8
0
  6
Continuous
 62
     7
100
AcDbLine
 10
339.819685
 20
150.04211
 30
0.0
 11
349.519685
 21
150.04211
 31
0.0
  0
LINE
  5
114
100
AcDbEntity
  8
0
  6
Continuous
 62
     7
100
AcDbLine
 10
339.819685
 20
160.906071
 30
0.0
 11
349.519685
 21
160.906071
 31
0.0
  0
LINE
  5
115
100
AcDbEntity
  8
0
  6
Continuous
 62
     7
100
AcDbLine
 10
339.819685
 20
147.712739
 30
0.0
 11
349.519685
 21
147.712739
 31
0.0
  0
LINE
  5
116
100
AcDbEntity
  8
0
  6
Continuous
 62
     7
100
AcDbLine
 10
339.819685
 20
148.611842
 30
0.0
 11
349.519685
 21
148.611842
 31
0.0
  0
LINE
  5
117
100
AcDbEntity
  8
0
  6
Continuous
 62
     7
100
AcDbLine
 10
307.019685
 20
154.248031
 30
0.0
 11
318.019685
 21
158.864111
 31
0.0
  0
LINE
  5
118
100
AcDbEntity
  8
0
  6
Continuous
 62
     7
100
AcDbLine
 10
339.019685
 20
158.564111
 30
0.0
 11
339.819685
 21
159.364111
 31
0.0
  0
LINE
  5
119
100
AcDbEntity
  8
0
  6
Continuous
 62
     7
100
AcDbLine
 10
339.819685
 20
159.364111
 30
0.0
 11
349.519685
 21
159.364111
 31
0.0
  0
LINE
  5
11A
100
AcDbEntity
  8
0
  6
Continuous
 62
     7
100
AcDbLine
 10
339.019685
 20
154.248031
 30
0.0
 11
339.819685
 21
153.448031
 31
0.0
  0
LINE
  5
11B
100
AcDbEntity
  8
0
  6
Continuous
 62
     7
100
AcDbLine
 10
349.519685
 20
159.364111
 30
0.0
 11
350.019685
 21
158.864111
 31
0.0
  0
LINE
  5
11C
100
AcDbEntity
  8
0
  6
Continuous
 62
     7
100
AcDbLine
 10
349.519685
 20
153.448031
 30
0.0
 11
350.019685
 21
153.948031
 31
0.0
  0
LINE
  5
11D
100
AcDbEntity
  8
0
  6
Continuous
 62
     7
100
AcDbLine
 10
349.519685
 20
159.364111
 30
0.0
 11
349.519685
 21
165.406071
 31
0.0
  0
LINE
  5
11E
100
AcDbEntity
  8
0
  6
Continuous
 62
     7
100
AcDbLine
 10
339.819685
 20
151.906071
 30
0.0
 11
349.519685
 21
151.906071
 31
0.0
  0
LINE
  5
11F
100
AcDbEntity
  8
0
  6
Continuous
 62
     7
100
AcDbLine
 10
339.819685
 20
159.364111
 30
0.0
 11
339.819685
 21
165.406071
 31
0.0
  0
LINE
  5
120
100
AcDbEntity
  8
0
  6
Continuous
 62
     7
100
AcDbLine
 10
256.506216
 20
77.406119
 30
0.0
 11
256.506216
 21
101.406119
 31
0.0
  0
LINE
  5
121
100
AcDbEntity
  8
0
  6
Continuous
 62
     7
100
AcDbLine
 10
256.506216
 20
74.406119
 30
0.0
 11
255.944216
 21
77.534119
 31
0.0
  0
LINE
  5
122
100
AcDbEntity
  8
0
  6
Continuous
 62
     7
100
AcDbLine
 10
256.506216
 20
74.406119
 30
0.0
 11
257.068216
 21
77.534119
 31
0.0
  0
LINE
  5
123
100
AcDbEntity
  8
0
  6
Continuous
 62
     7
100
AcDbLine
 10
256.506216
 20
74.406119
 30
0.0
 11
256.506216
 21
77.406119
 31
0.0
  0
LINE
  5
124
100
AcDbEntity
  8
0
  6
Continuous
 62
     7
100
AcDbLine
 10
256.506216
 20
104.406119
 30
0.0
 11
257.068216
 21
101.278119
 31
0.0
  0
LINE
  5
125
100
AcDbEntity
  8
0
  6
Continuous
 62
     7
100
AcDbLine
 10
256.506216
 20
104.406119
 30
0.0
 11
255.944216
 21
101.278119
 31
0.0
  0
LINE
  5
126
100
AcDbEntity
  8
0
  6
Continuous
 62
     7
100
AcDbLine
 10
256.506216
 20
104.406119
 30
0.0
 11
256.506216
 21
101.406119
 31
0.0
  0
LINE
  5
127
100
AcDbEntity
  8
0
  6
Continuous
 62
     7
100
AcDbLine
 10
234.051323
 20
104.406119
 30
0.0
 11
257.506216
 21
104.406119
 31
0.0
  0
LINE
  5
128
100
AcDbEntity
  8
0
  6
Continuous
 62
     7
100
AcDbLine
 10
256.506216
 20
71.406119
 30
0.0
 11
256.506216
 21
54.521918
 31
0.0
  0
LINE
  5
129
100
AcDbEntity
  8
0
  6
Continuous
 62
     7
100
AcDbLine
 10
256.506216
 20
71.406119
 30
0.0
 11
256.506216
 21
74.406119
 31
0.0
  0
LINE
  5
12A
100
AcDbEntity
  8
0
  6
Continuous
 62
     7
100
AcDbLine
 10
256.506216
 20
71.406119
 30
0.0
 11
257.068216
 21
68.278119
 31
0.0
  0
LINE
  5
12B
100
AcDbEntity
  8
0
  6
Continuous
 62
     7
100
AcDbLine
 10
256.506216
 20
71.406119
 30
0.0
 11
255.944216
 21
68.278119
 31
0.0
  0
LINE
  5
12C
100
AcDbEntity
  8
0
  6
Continuous
 62
     7
100
AcDbLine
 10
256.506216
 20
71.406119
 30
0.0
 11
256.506216
 21
68.406119
 31
0.0
  0
LINE
  5
12D
100
AcDbEntity
  8
0
  6
Continuous
 62
     7
100
AcDbLine
 10
256.506216
 20
68.406119
 30
0.0
 11
256.506216
 21
65.05612
 31
0.0
  0
LINE
  5
12E
100
AcDbEntity
  8
0
  6
Continuous
 62
     7
100
AcDbLine
 10
256.506216
 20
74.406119
 30
0.0
 11
255.944216
 21
77.534119
 31
0.0
  0
LINE
  5
12F
100
AcDbEntity
  8
0
  6
Continuous
 62
     7
100
AcDbLine
 10
256.506216
 20
74.406119
 30
0.0
 11
257.068216
 21
77.534119
 31
0.0
  0
LINE
  5
130
100
AcDbEntity
  8
0
  6
Continuous
 62
     7
100
AcDbLine
 10
256.506216
 20
74.406119
 30
0.0
 11
256.506216
 21
77.406119
 31
0.0
  0
LINE
  5
131
100
AcDbEntity
  8
0
  6
Continuous
 62
     7
100
AcDbLine
 10
256.506216
 20
77.406119
 30
0.0
 11
256.506216
 21
80.756119
 31
0.0
  0
LINE
  5
132
100
AcDbEntity
  8
0
  6
Continuous
 62
     7
100
AcDbLine
 10
226.972989
 20
71.406119
 30
0.0
 11
257.506216
 21
71.406119
 31
0.0
  0
LINE
  5
133
100
AcDbEntity
  8
0
  6
Continuous
 62
     7
100
AcDbLine
 10
239.972989
 20
74.406119
 30
0.0
 11
257.506216
 21
74.406119
 31
0.0
  0
LINE
  5
134
100
AcDbEntity
  8
0
  6
Continuous
 62
     7
100
AcDbLine
 10
226.972989
 20
71.406119
 30
0.0
 11
264.583954
 21
71.406119
 31
0.0
  0
LINE
  5
135
100
AcDbEntity
  8
0
  6
Continuous
 62
     7
100
AcDbLine
 10
270.378582
 20
74.406119
 30
0.0
 11
270.378582
 21
110.406119
 31
0.0
  0
LINE
  5
136
100
AcDbEntity
  8
0
  6
Continuous
 62
     7
100
AcDbLine
 10
270.378582
 20
71.406119
 30
0.0
 11
269.816582
 21
74.534119
 31
0.0
  0
LINE
  5
137
100
AcDbEntity
  8
0
  6
Continuous
 62
     7
100
AcDbLine
 10
270.378582
 20
71.406119
 30
0.0
 11
270.940582
 21
74.534119
 31
0.0
  0
LINE
  5
138
100
AcDbEntity
  8
0
  6
Continuous
 62
     7
100
AcDbLine
 10
270.378582
 20
71.406119
 30
0.0
 11
270.378582
 21
74.406119
 31
0.0
  0
LINE
  5
139
100
AcDbEntity
  8
0
  6
Continuous
 62
     7
100
AcDbLine
 10
270.378582
 20
113.406119
 30
0.0
 11
270.940582
 21
110.278119
 31
0.0
  0
LINE
  5
13A
100
AcDbEntity
  8
0
  6
Continuous
 62
     7
100
AcDbLine
 10
270.378582
 20
113.406119
 30
0.0
 11
269.816582
 21
110.278119
 31
0.0
  0
LINE
  5
13B
100
AcDbEntity
  8
0
  6
Continuous
 62
     7
100
AcDbLine
 10
270.378582
 20
113.406119
 30
0.0
 11
270.378582
 21
110.406119
 31
0.0
  0
LINE
  5
13C
100
AcDbEntity
  8
0
  6
Continuous
 62
     7
100
AcDbLine
 10
226.972989
 20
71.406119
 30
0.0
 11
271.378582
 21
71.406119
 31
0.0
  0
LINE
  5
13D
100
AcDbEntity
  8
0
  6
Continuous
 62
     7
100
AcDbLine
 10
204.672989
 20
113.406119
 30
0.0
 11
271.378582
 21
113.406119
 31
0.0
  0
LINE
  5
13E
100
AcDbEntity
  8
0
  6
Continuous
 62
     7
100
AcDbLine
 10
168.090778
 20
216.014859
 30
0.0
 11
147.64705
 21
221.59593
 31
0.0
  0
LINE
  5
13F
100
AcDbEntity
  8
0
  6
Continuous
 62
     7
100
AcDbLine
 10
198.961108
 20
207.587361
 30
0.0
 11
170.984871
 21
215.224781
 31
0.0
  0
LINE
  5
140
100
AcDbEntity
  8
0
  6
Continuous
 62
     7
100
AcDbLine
 10
201.855201
 20
206.797283
 30
0.0
 11
198.689618
 21
207.078911
 31
0.0
  0
LINE
  5
141
100
AcDbEntity
  8
0
  6
Continuous
 62
     7
100
AcDbLine
 10
201.855201
 20
206.797283
 30
0.0
 11
198.985634
 21
208.163231
 31
0.0
  0
LINE
  5
142
100
AcDbEntity
  8
0
  6
Continuous
 62
     7
100
AcDbLine
 10
201.855201
 20
206.797283
 30
0.0
 11
198.961108
 21
207.587361
 31
0.0
  0
LINE
  5
143
100
AcDbEntity
  8
0
  6
Continuous
 62
     7
100
AcDbLine
 10
168.090778
 20
216.014859
 30
0.0
 11
171.25636
 21
215.733231
 31
0.0
  0
LINE
  5
144
100
AcDbEntity
  8
0
  6
Continuous
 62
     7
100
AcDbLine
 10
168.090778
 20
216.014859
 30
0.0
 11
170.960344
 21
214.648911
 31
0.0
  0
LINE
  5
145
100
AcDbEntity
  8
0
  6
Continuous
 62
     7
100
AcDbLine
 10
168.090778
 20
216.014859
 30
0.0
 11
170.984871
 21
215.224781
 31
0.0
  0
LINE
  5
146
100
AcDbEntity
  8
0
  6
Continuous
 62
     7
100
AcDbLine
 10
171.186513
 20
166.473532
 30
0.0
 11
198.759466
 21
256.33861
 31
0.0
  0
LINE
  5
147
100
AcDbEntity
  8
0
  6
Continuous
 62
     7
100
AcDbLine
 10
170.306525
 20
163.605497
 30
0.0
 11
170.686781
 21
166.760752
 31
0.0
  0
LINE
  5
148
100
AcDbEntity
  8
0
  6
Continuous
 62
     7
100
AcDbLine
 10
170.306525
 20
163.605497
 30
0.0
 11
171.761338
 21
166.43105
 31
0.0
  0
LINE
  5
149
100
AcDbEntity
  8
0
  6
Continuous
 62
     7
100
AcDbLine
 10
170.306525
 20
163.605497
 30
0.0
 11
171.186513
 21
166.473532
 31
0.0
  0
LINE
  5
14A
100
AcDbEntity
  8
0
  6
Continuous
 62
     7
100
AcDbLine
 10
199.639453
 20
259.206645
 30
0.0
 11
199.259198
 21
256.05139
 31
0.0
  0
LINE
  5
14B
100
AcDbEntity
  8
0
  6
Continuous
 62
     7
100
AcDbLine
 10
199.639453
 20
259.206645
 30
0.0
 11
198.184641
 21
256.381092
 31
0.0
  0
LINE
  5
14C
100
AcDbEntity
  8
0
  6
Continuous
 62
     7
100
AcDbLine
 10
199.639453
 20
259.206645
 30
0.0
 11
198.759466
 21
256.33861
 31
0.0
  0
LINE
  5
14D
100
AcDbEntity
  8
0
  6
Continuous
 62
     7
100
AcDbLine
 10
200.923103
 20
161.912699
 30
0.0
 11
169.022875
 21
260.899443
 31
0.0
  0
LINE
  5
14E
100
AcDbEntity
  8
0
  6
Continuous
 62
     7
100
AcDbLine
 10
201.843302
 20
159.057312
 30
0.0
 11
200.348932
 21
161.862145
 31
0.0
  0
LINE
  5
14F
100
AcDbEntity
  8
0
  6
Continuous
 62
     7
100
AcDbLine
 10
201.843302
 20
159.057312
 30
0.0
 11
201.418751
 21
162.206913
 31
0.0
  0
LINE
  5
150
100
AcDbEntity
  8
0
  6
Continuous
 62
     7
100
AcDbLine
 10
201.843302
 20
159.057312
 30
0.0
 11
200.923103
 21
161.912699
 31
0.0
  0
LINE
  5
151
100
AcDbEntity
  8
0
  6
Continuous
 62
     7
100
AcDbLine
 10
168.102676
 20
263.75483
 30
0.0
 11
169.597046
 21
260.949997
 31
0.0
  0
LINE
  5
152
100
AcDbEntity
  8
0
  6
Continuous
 62
     7
100
AcDbLine
 10
168.102676
 20
263.75483
 30
0.0
 11
168.527228
 21
260.605229
 31
0.0
  0
LINE
  5
153
100
AcDbEntity
  8
0
  6
Continuous
 62
     7
100
AcDbLine
 10
168.102676
 20
263.75483
 30
0.0
 11
169.022875
 21
260.899443
 31
0.0
  0
LINE
  5
154
100
AcDbEntity
  8
0
  6
Continuous
 62
     7
100
AcDbLine
 10
236.23496
 20
214.12773
 30
0.0
 11
242.845041
 21
228.537995
 31
0.0
  0
LINE
  5
155
100
AcDbEntity
  8
0
  6
Continuous
 62
     7
100
AcDbLine
 10
242.845041
 20
228.537995
 30
0.0
 11
273.545563
 21
228.537995
 31
0.0
  0
LINE
  5
156
100
AcDbEntity
  8
0
  6
Continuous
 62
     7
100
AcDbLine
 10
236.23496
 20
214.12773
 30
0.0
 11
237.02831
 21
217.205201
 31
0.0
  0
LINE
  5
157
100
AcDbEntity
  8
0
  6
Continuous
 62
     7
100
AcDbLine
 10
236.23496
 20
214.12773
 30
0.0
 11
238.049955
 21
216.736566
 31
0.0
  0
LINE
  5
158
100
AcDbEntity
  8
0
  6
Continuous
 62
     7
100
AcDbLine
 10
224.472989
 20
55.200127
 30
0.0
 11
145.472989
 21
55.200127
 31
0.0
  0
LINE
  5
159
100
AcDbEntity
  8
0
  6
Continuous
 62
     7
100
AcDbLine
 10
227.472989
 20
55.200127
 30
0.0
 11
224.344989
 21
54.638127
 31
0.0
  0
LINE
  5
15A
100
AcDbEntity
  8
0
  6
Continuous
 62
     7
100
AcDbLine
 10
227.472989
 20
55.200127
 30
0.0
 11
224.344989
 21
55.762127
 31
0.0
  0
LINE
  5
15B
100
AcDbEntity
  8
0
  6
Continuous
 62
     7
100
AcDbLine
 10
227.472989
 20
55.200127
 30
0.0
 11
224.472989
 21
55.200127
 31
0.0
  0
LINE
  5
15C
100
AcDbEntity
  8
0
  6
Continuous
 62
     7
100
AcDbLine
 10
142.472989
 20
55.200127
 30
0.0
 11
145.600989
 21
55.762127
 31
0.0
  0
LINE
  5
15D
100
AcDbEntity
  8
0
  6
Continuous
 62
     7
100
AcDbLine
 10
142.472989
 20
55.200127
 30
0.0
 11
145.600989
 21
54.638127
 31
0.0
  0
LINE
  5
15E
100
AcDbEntity
  8
0
  6
Continuous
 62
     7
100
AcDbLine
 10
142.472989
 20
55.200127
 30
0.0
 11
145.472989
 21
55.200127
 31
0.0
  0
LINE
  5
15F
100
AcDbEntity
  8
0
  6
Continuous
 62
     7
100
AcDbLine
 10
227.472989
 20
71.906119
 30
0.0
 11
227.472989
 21
54.200127
 31
0.0
  0
LINE
  5
160
100
AcDbEntity
  8
0
  6
Continuous
 62
     7
100
AcDbLine
 10
142.472989
 20
71.906119
 30
0.0
 11
142.472989
 21
54.200127
 31
0.0
  0
LINE
  5
161
100
AcDbEntity
  8
0
  6
Continuous
 62
     7
100
AcDbLine
 10
134.634922
 20
85.096341
 30
0.0
 11
130.264133
 21
97.14912
 31
0.0
  0
LINE
  5
162
100
AcDbEntity
  8
0
  6
Continuous
 62
     7
100
AcDbLine
 10
130.264133
 20
97.14912
 30
0.0
 11
115.490748
 21
97.14912
 31
0.0
  0
LINE
  5
163
100
AcDbEntity
  8
0
  6
Continuous
 62
     7
100
AcDbLine
 10
134.634922
 20
85.096341
 30
0.0
 11
133.040211
 21
87.845363
 31
0.0
  0
LINE
  5
164
100
AcDbEntity
  8
0
  6
Continuous
 62
     7
100
AcDbLine
 10
134.634922
 20
85.096341
 30
0.0
 11
134.096877
 21
88.22855
 31
0.0
  0
LINE
  5
165
100
AcDbEntity
  8
0
  6
Continuous
 62
     7
100
AcDbLine
 10
162.844753
 20
74.406119
 30
0.0
 11
162.844753
 21
101.406119
 31
0.0
  0
LINE
  5
166
100
AcDbEntity
  8
0
  6
Continuous
 62
     7
100
AcDbLine
 10
162.844753
 20
71.406119
 30
0.0
 11
162.282753
 21
74.534119
 31
0.0
  0
LINE
  5
167
100
AcDbEntity
  8
0
  6
Continuous
 62
     7
100
AcDbLine
 10
162.844753
 20
71.406119
 30
0.0
 11
163.406753
 21
74.534119
 31
0.0
  0
LINE
  5
168
100
AcDbEntity
  8
0
  6
Continuous
 62
     7
100
AcDbLine
 10
162.844753
 20
71.406119
 30
0.0
 11
162.844753
 21
74.406119
 31
0.0
  0
LINE
  5
169
100
AcDbEntity
  8
0
  6
Continuous
 62
     7
100
AcDbLine
 10
162.844753
 20
104.406119
 30
0.0
 11
163.406753
 21
101.278119
 31
0.0
  0
LINE
  5
16A
100
AcDbEntity
  8
0
  6
Continuous
 62
     7
100
AcDbLine
 10
162.844753
 20
104.406119
 30
0.0
 11
162.282753
 21
101.278119
 31
0.0
  0
LINE
  5
16B
100
AcDbEntity
  8
0
  6
Continuous
 62
     7
100
AcDbLine
 10
162.844753
 20
104.406119
 30
0.0
 11
162.844753
 21
101.406119
 31
0.0
  0
LINE
  5
16C
100
AcDbEntity
  8
0
  6
Continuous
 62
     7
100
AcDbLine
 10
169.972989
 20
104.406119
 30
0.0
 11
161.844753
 21
104.406119
 31
0.0
  0
LINE
  5
16D
100
AcDbEntity
  8
0
  6
Continuous
 62
     7
100
AcDbLine
 10
172.972989
 20
122.298705
 30
0.0
 11
196.972989
 21
122.298705
 31
0.0
  0
LINE
  5
16E
100
AcDbEntity
  8
0
  6
Continuous
 62
     7
100
AcDbLine
 10
169.972989
 20
122.298705
 30
0.0
 11
173.100989
 21
122.860705
 31
0.0
  0
LINE
  5
16F
100
AcDbEntity
  8
0
  6
Continuous
 62
     7
100
AcDbLine
 10
169.972989
 20
122.298705
 30
0.0
 11
173.100989
 21
121.736705
 31
0.0
  0
LINE
  5
170
100
AcDbEntity
  8
0
  6
Continuous
 62
     7
100
AcDbLine
 10
169.972989
 20
122.298705
 30
0.0
 11
172.972989
 21
122.298705
 31
0.0
  0
LINE
  5
171
100
AcDbEntity
  8
0
  6
Continuous
 62
     7
100
AcDbLine
 10
199.972989
 20
122.298705
 30
0.0
 11
196.844989
 21
121.736705
 31
0.0
  0
LINE
  5
172
100
AcDbEntity
  8
0
  6
Continuous
 62
     7
100
AcDbLine
 10
199.972989
 20
122.298705
 30
0.0
 11
196.844989
 21
122.860705
 31
0.0
  0
LINE
  5
173
100
AcDbEntity
  8
0
  6
Continuous
 62
     7
100
AcDbLine
 10
199.972989
 20
122.298705
 30
0.0
 11
196.972989
 21
122.298705
 31
0.0
  0
LINE
  5
174
100
AcDbEntity
  8
0
  6
Continuous
 62
     7
100
AcDbLine
 10
169.972989
 20
113.406119
 30
0.0
 11
169.972989
 21
123.298705
 31
0.0
  0
LINE
  5
175
100
AcDbEntity
  8
0
  6
Continuous
 62
     7
100
AcDbLine
 10
199.972989
 20
113.406119
 30
0.0
 11
199.972989
 21
123.298705
 31
0.0
  0
LINE
  5
176
100
AcDbEntity
  8
0
  6
Continuous
 62
     7
100
AcDbLine
 10
230.711333
 20
220.346941
 30
0.0
 11
239.516521
 21
242.312571
 31
0.0
  0
LINE
  5
177
100
AcDbEntity
  8
0
  6
Continuous
 62
     7
100
AcDbLine
 10
239.516521
 20
242.312571
 30
0.0
 11
268.231421
 21
242.312571
 31
0.0
  0
LINE
  5
178
100
AcDbEntity
  8
0
  6
Continuous
 62
     7
100
AcDbLine
 10
230.711333
 20
220.346941
 30
0.0
 11
231.353552
 21
223.459461
 31
0.0
  0
LINE
  5
179
100
AcDbEntity
  8
0
  6
Continuous
 62
     7
100
AcDbLine
 10
230.711333
 20
220.346941
 30
0.0
 11
232.396849
 21
223.041243
 31
0.0
  0
LINE
  5
17A
100
AcDbEntity
  8
0
  6
Continuous
 62
     7
100
AcDbLine
 10
177.972989
 20
62.011429
 30
0.0
 11
191.972989
 21
62.011429
 31
0.0
  0
LINE
  5
17B
100
AcDbEntity
  8
0
  6
Continuous
 62
     7
100
AcDbLine
 10
174.972989
 20
62.011429
 30
0.0
 11
178.100989
 21
62.573429
 31
0.0
  0
LINE
  5
17C
100
AcDbEntity
  8
0
  6
Continuous
 62
     7
100
AcDbLine
 10
174.972989
 20
62.011429
 30
0.0
 11
178.100989
 21
61.449429
 31
0.0
  0
LINE
  5
17D
100
AcDbEntity
  8
0
  6
Continuous
 62
     7
100
AcDbLine
 10
174.972989
 20
62.011429
 30
0.0
 11
177.972989
 21
62.011429
 31
0.0
  0
LINE
  5
17E
100
AcDbEntity
  8
0
  6
Continuous
 62
     7
100
AcDbLine
 10
194.972989
 20
62.011429
 30
0.0
 11
191.844989
 21
61.449429
 31
0.0
  0
LINE
  5
17F
100
AcDbEntity
  8
0
  6
Continuous
 62
     7
100
AcDbLine
 10
194.972989
 20
62.011429
 30
0.0
 11
191.844989
 21
62.573429
 31
0.0
  0
LINE
  5
180
100
AcDbEntity
  8
0
  6
Continuous
 62
     7
100
AcDbLine
 10
194.972989
 20
62.011429
 30
0.0
 11
191.972989
 21
62.011429
 31
0.0
  0
LINE
  5
181
100
AcDbEntity
  8
0
  6
Continuous
 62
     7
100
AcDbLine
 10
174.972989
 20
71.406119
 30
0.0
 11
174.972989
 21
61.011429
 31
0.0
  0
LINE
  5
182
100
AcDbEntity
  8
0
  6
Continuous
 62
     7
100
AcDbLine
 10
194.972989
 20
71.406119
 30
0.0
 11
194.972989
 21
61.011429
 31
0.0
  0
LINE
  5
183
100
AcDbEntity
  8
0
  6
Continuous
 62
     7
100
AcDbLine
 10
247.481362
 20
195.519178
 30
0.0
 11
248.481585
 21
189.840596
 31
0.0
  0
LINE
  5
184
100
AcDbEntity
  8
0
  6
Continuous
 62
     7
100
AcDbLine
 10
247.481362
 20
195.519178
 30
0.0
 11
248.577453
 21
192.536091
 31
0.0
  0
LINE
  5
185
100
AcDbEntity
  8
0
  6
Continuous
 62
     7
100
AcDbLine
 10
247.481362
 20
195.519178
 30
0.0
 11
247.470494
 21
192.341111
 31
0.0
  0
LINE
  5
186
100
AcDbEntity
  8
0
  6
Continuous
 62
     7
100
AcDbLine
 10
176.948841
 20
280.241403
 30
0.0
 11
116.137658
 21
219.43022
 31
0.0
  0
LINE
  5
187
100
AcDbEntity
  8
0
  6
Continuous
 62
     7
100
AcDbLine
 10
179.070161
 20
282.362723
 30
0.0
 11
177.255725
 21
279.753499
 31
0.0
  0
LINE
  5
188
100
AcDbEntity
  8
0
  6
Continuous
 62
     7
100
AcDbLine
 10
179.070161
 20
282.362723
 30
0.0
 11
176.460937
 21
280.548287
 31
0.0
  0
LINE
  5
189
100
AcDbEntity
  8
0
  6
Continuous
 62
     7
100
AcDbLine
 10
179.070161
 20
282.362723
 30
0.0
 11
176.948841
 21
280.241403
 31
0.0
  0
LINE
  5
18A
100
AcDbEntity
  8
0
  6
Continuous
 62
     7
100
AcDbLine
 10
114.016337
 20
217.308899
 30
0.0
 11
115.830773
 21
219.918123
 31
0.0
  0
LINE
  5
18B
100
AcDbEntity
  8
0
  6
Continuous
 62
     7
100
AcDbLine
 10
114.016337
 20
217.308899
 30
0.0
 11
116.625561
 21
219.123335
 31
0.0
  0
LINE
  5
18C
100
AcDbEntity
  8
0
  6
Continuous
 62
     7
100
AcDbLine
 10
114.016337
 20
217.308899
 30
0.0
 11
116.137658
 21
219.43022
 31
0.0
  0
LINE
  5
18D
100
AcDbEntity
  8
0
  6
Continuous
 62
     7
100
AcDbLine
 10
196.180896
 20
265.251989
 30
0.0
 11
178.363054
 21
283.06983
 31
0.0
  0
LINE
  5
18E
100
AcDbEntity
  8
0
  6
Continuous
 62
     7
100
AcDbLine
 10
131.127072
 20
200.198165
 30
0.0
 11
113.30923
 21
218.016006
 31
0.0
  0
LINE
  5
18F
100
AcDbEntity
  8
0
  6
Continuous
 62
     7
100
AcDbLine
 10
280.578526
 20
153.606071
 30
0.0
 11
280.578526
 21
135.609646
 31
0.0
  0
LINE
  5
190
100
AcDbEntity
  8
0
  6
Continuous
 62
     7
100
AcDbLine
 10
280.578526
 20
153.606071
 30
0.0
 11
280.578526
 21
159.206071
 31
0.0
  0
LINE
  5
191
100
AcDbEntity
  8
0
  6
Continuous
 62
     7
100
AcDbLine
 10
280.578526
 20
153.606071
 30
0.0
 11
281.140526
 21
150.478071
 31
0.0
  0
LINE
  5
192
100
AcDbEntity
  8
0
  6
Continuous
 62
     7
100
AcDbLine
 10
280.578526
 20
153.606071
 30
0.0
 11
280.016526
 21
150.478071
 31
0.0
  0
LINE
  5
193
100
AcDbEntity
  8
0
  6
Continuous
 62
     7
100
AcDbLine
 10
280.578526
 20
153.606071
 30
0.0
 11
280.578526
 21
150.606071
 31
0.0
  0
LINE
  5
194
100
AcDbEntity
  8
0
  6
Continuous
 62
     7
100
AcDbLine
 10
280.578526
 20
150.606071
 30
0.0
 11
280.578526
 21
147.256071
 31
0.0
  0
LINE
  5
195
100
AcDbEntity
  8
0
  6
Continuous
 62
     7
100
AcDbLine
 10
280.578526
 20
159.206071
 30
0.0
 11
280.016526
 21
162.334071
 31
0.0
  0
LINE
  5
196
100
AcDbEntity
  8
0
  6
Continuous
 62
     7
100
AcDbLine
 10
280.578526
 20
159.206071
 30
0.0
 11
281.140526
 21
162.334071
 31
0.0
  0
LINE
  5
197
100
AcDbEntity
  8
0
  6
Continuous
 62
     7
100
AcDbLine
 10
280.578526
 20
159.206071
 30
0.0
 11
280.578526
 21
162.206071
 31
0.0
  0
LINE
  5
198
100
AcDbEntity
  8
0
  6
Continuous
 62
     7
100
AcDbLine
 10
280.578526
 20
162.206071
 30
0.0
 11
280.578526
 21
165.556071
 31
0.0
  0
LINE
  5
199
100
AcDbEntity
  8
0
  6
Continuous
 62
     7
100
AcDbLine
 10
248.48478
 20
77.406119
 30
0.0
 11
248.48478
 21
81.406119
 31
0.0
  0
LINE
  5
19A
100
AcDbEntity
  8
0
  6
Continuous
 62
     7
100
AcDbLine
 10
248.48478
 20
74.406119
 30
0.0
 11
247.92278
 21
77.534119
 31
0.0
  0
LINE
  5
19B
100
AcDbEntity
  8
0
  6
Continuous
 62
     7
100
AcDbLine
 10
248.48478
 20
74.406119
 30
0.0
 11
249.04678
 21
77.534119
 31
0.0
  0
LINE
  5
19C
100
AcDbEntity
  8
0
  6
Continuous
 62
     7
100
AcDbLine
 10
248.48478
 20
74.406119
 30
0.0
 11
248.48478
 21
77.406119
 31
0.0
  0
LINE
  5
19D
100
AcDbEntity
  8
0
  6
Continuous
 62
     7
100
AcDbLine
 10
248.48478
 20
84.406119
 30
0.0
 11
249.04678
 21
81.278119
 31
0.0
  0
LINE
  5
19E
100
AcDbEntity
  8
0
  6
Continuous
 62
     7
100
AcDbLine
 10
248.48478
 20
84.406119
 30
0.0
 11
247.92278
 21
81.278119
 31
0.0
  0
LINE
  5
19F
100
AcDbEntity
  8
0
  6
Continuous
 62
     7
100
AcDbLine
 10
248.48478
 20
84.406119
 30
0.0
 11
248.48478
 21
81.406119
 31
0.0
  0
LINE
  5
1A0
100
AcDbEntity
  8
0
  6
Continuous
 62
     7
100
AcDbLine
 10
239.972989
 20
74.406119
 30
0.0
 11
249.48478
 21
74.406119
 31
0.0
  0
LINE
  5
1A1
100
AcDbEntity
  8
0
  6
Continuous
 62
     7
100
AcDbLine
 10
239.972989
 20
84.406119
 30
0.0
 11
249.48478
 21
84.406119
 31
0.0
  0
LINE
  5
1A2
100
AcDbEntity
  8
0
  6
Continuous
 62
     7
100
AcDbLine
 10
307.019685
 20
178.378422
 30
0.0
 11
307.957211
 21
178.378422
 31
0.0
  0
LINE
  5
1A3
100
AcDbEntity
  8
0
  6
Continuous
 62
     7
100
AcDbLine
 10
258.894736
 20
178.378422
 30
0.0
 11
304.019685
 21
178.378422
 31
0.0
  0
LINE
  5
1A4
100
AcDbEntity
  8
0
  6
Continuous
 62
     7
100
AcDbLine
 10
307.019685
 20
178.378422
 30
0.0
 11
303.891685
 21
177.816422
 31
0.0
  0
LINE
  5
1A5
100
AcDbEntity
  8
0
  6
Continuous
 62
     7
100
AcDbLine
 10
307.019685
 20
178.378422
 30
0.0
 11
303.891685
 21
178.940422
 31
0.0
  0
LINE
  5
1A6
100
AcDbEntity
  8
0
  6
Continuous
 62
     7
100
AcDbLine
 10
307.019685
 20
178.378422
 30
0.0
 11
304.019685
 21
178.378422
 31
0.0
  0
LINE
  5
1A7
100
AcDbEntity
  8
0
  6
Continuous
 62
     7
100
AcDbLine
 10
258.894736
 20
178.378422
 30
0.0
 11
258.894736
 21
176.378422
 31
0.0
  0
LINE
  5
1A8
100
AcDbEntity
  8
0
  6
Continuous
 62
     7
100
AcDbLine
 10
307.019685
 20
159.206071
 30
0.0
 11
307.019685
 21
179.378422
 31
0.0
  0
LINE
  5
1A9
100
AcDbEntity
  8
0
  6
Continuous
 62
     7
100
AcDbLine
 10
200.375573
 20
222.701875
 30
0.0
 11
232.167151
 21
260.175929
 31
0.0
  0
LINE
  5
1AA
100
AcDbEntity
  8
0
  6
Continuous
 62
     7
100
AcDbLine
 10
232.167151
 20
260.175929
 30
0.0
 11
266.882051
 21
260.175929
 31
0.0
  0
LINE
  5
1AB
100
AcDbEntity
  8
0
  6
Continuous
 62
     7
100
AcDbLine
 10
200.375573
 20
222.701875
 30
0.0
 11
201.970593
 21
225.450718
 31
0.0
  0
LINE
  5
1AC
100
AcDbEntity
  8
0
  6
Continuous
 62
     7
100
AcDbLine
 10
200.375573
 20
222.701875
 30
0.0
 11
202.827705
 21
224.723577
 31
0.0
  0
LINE
  5
1AD
100
AcDbEntity
  8
0
  6
Continuous
 62
     7
100
AcDbLine
 10
195.35
 20
227.305949
 30
0.0
 11
230.93315
 21
268.961389
 31
0.0
  0
LINE
  5
1AE
100
AcDbEntity
  8
0
  6
Continuous
 62
     7
100
AcDbLine
 10
230.93315
 20
268.961389
 30
0.0
 11
253.64805
 21
268.961389
 31
0.0
  0
LINE
  5
1AF
100
AcDbEntity
  8
0
  6
Continuous
 62
     7
100
AcDbLine
 10
195.35
 20
227.305949
 30
0.0
 11
196.954356
 21
230.049354
 31
0.0
  0
LINE
  5
1B0
100
AcDbEntity
  8
0
  6
Continuous
 62
     7
100
AcDbLine
 10
195.35
 20
227.305949
 30
0.0
 11
197.808991
 21
229.319302
 31
0.0
  0
LINE
  5
1B1
100
AcDbEntity
  8
0
  6
Continuous
 62
     7
100
AcDbLine
 10
179.2088
 20
182.161486
 30
0.0
 11
158.669294
 21
162.841074
 31
0.0
  0
LINE
  5
1B2
100
AcDbEntity
  8
0
  6
Continuous
 62
     7
100
AcDbLine
 10
158.669294
 20
162.841074
 30
0.0
 11
134.401196
 21
162.841074
 31
0.0
  0
LINE
  5
1B3
100
AcDbEntity
  8
0
  6
Continuous
 62
     7
100
AcDbLine
 10
179.2088
 20
182.161486
 30
0.0
 11
177.315447
 21
179.608949
 31
0.0
  0
LINE
  5
1B4
100
AcDbEntity
  8
0
  6
Continuous
 62
     7
100
AcDbLine
 10
179.2088
 20
182.161486
 30
0.0
 11
176.545327
 21
180.427663
 31
0.0
  0
LINE
  5
1B5
100
AcDbEntity
  8
0
  6
Continuous
 62
     7
100
AcDbLine
 10
181.337979
 20
193.369075
 30
0.0
 11
158.669294
 21
162.841074
 31
0.0
  0
LINE
  5
1B6
100
AcDbEntity
  8
0
  6
Continuous
 62
     7
100
AcDbLine
 10
181.337979
 20
193.369075
 30
0.0
 11
179.924376
 21
190.522682
 31
0.0
  0
LINE
  5
1B7
100
AcDbEntity
  8
0
  6
Continuous
 62
     7
100
AcDbLine
 10
181.337979
 20
193.369075
 30
0.0
 11
179.021961
 21
191.192774
 31
0.0
  0
LINE
  5
1B8
100
AcDbEntity
  8
0
  6
Continuous
 62
     7
100
AcDbLine
 10
172.836796
 20
142.578297
 30
0.0
 11
176.013912
 21
142.656795
 31
0.0
  0
LINE
  5
1B9
100
AcDbEntity
  8
0
  6
Continuous
 62
     7
100
AcDbLine
 10
172.836796
 20
142.578297
 30
0.0
 11
175.842533
 21
141.545937
 31
0.0
  0
LINE
  5
1BA
100
AcDbEntity
  8
0
  6
Continuous
 62
     7
100
AcDbLine
 10
172.836796
 20
142.578297
 30
0.0
 11
175.801719
 21
142.120882
 31
0.0
  0
LINE
  5
1BB
100
AcDbEntity
  8
0
  6
Continuous
 62
     7
100
AcDbLine
 10
184.972989
 20
141.516518
 30
0.0
 11
181.833648
 21
141.021782
 31
0.0
  0
LINE
  5
1BC
100
AcDbEntity
  8
0
  6
Continuous
 62
     7
100
AcDbLine
 10
184.972989
 20
141.516518
 30
0.0
 11
181.857772
 21
142.145523
 31
0.0
  0
LINE
  5
1BD
100
AcDbEntity
  8
0
  6
Continuous
 62
     7
100
AcDbLine
 10
184.972989
 20
141.516518
 30
0.0
 11
181.97368
 21
141.580905
 31
0.0
  0
LINE
  5
1BE
100
AcDbEntity
  8
0
  6
Continuous
 62
     7
100
AcDbLine
 10
175.715835
 20
158.906142
 30
0.0
 11
172.663148
 21
141.59349
 31
0.0
  0
LINE
  5
1BF
100
AcDbEntity
  8
0
  6
Continuous
 62
     7
100
AcDbLine
 10
184.972989
 20
151.936797
 30
0.0
 11
184.972989
 21
140.516518
 31
0.0
  0
LINE
  5
1C0
100
AcDbEntity
  8
0
  6
Continuous
 62
     7
100
AcDbLine
 10
361.321907
 20
150.406071
 30
0.0
 11
361.321907
 21
162.406071
 31
0.0
  0
LINE
  5
1C1
100
AcDbEntity
  8
0
  6
Continuous
 62
     7
100
AcDbLine
 10
361.321907
 20
147.406071
 30
0.0
 11
360.759907
 21
150.534071
 31
0.0
  0
LINE
  5
1C2
100
AcDbEntity
  8
0
  6
Continuous
 62
     7
100
AcDbLine
 10
361.321907
 20
147.406071
 30
0.0
 11
361.883907
 21
150.534071
 31
0.0
  0
LINE
  5
1C3
100
AcDbEntity
  8
0
  6
Continuous
 62
     7
100
AcDbLine
 10
361.321907
 20
147.406071
 30
0.0
 11
361.321907
 21
150.406071
 31
0.0
  0
LINE
  5
1C4
100
AcDbEntity
  8
0
  6
Continuous
 62
     7
100
AcDbLine
 10
361.321907
 20
165.406071
 30
0.0
 11
361.883907
 21
162.278071
 31
0.0
  0
LINE
  5
1C5
100
AcDbEntity
  8
0
  6
Continuous
 62
     7
100
AcDbLine
 10
361.321907
 20
165.406071
 30
0.0
 11
360.759907
 21
162.278071
 31
0.0
  0
LINE
  5
1C6
100
AcDbEntity
  8
0
  6
Continuous
 62
     7
100
AcDbLine
 10
361.321907
 20
165.406071
 30
0.0
 11
361.321907
 21
162.406071
 31
0.0
  0
LINE
  5
1C7
100
AcDbEntity
  8
0
  6
Continuous
 62
     7
100
AcDbLine
 10
349.519685
 20
147.406071
 30
0.0
 11
362.321907
 21
147.406071
 31
0.0
  0
LINE
  5
1C8
100
AcDbEntity
  8
0
  6
Continuous
 62
     7
100
AcDbLine
 10
349.519685
 20
165.406071
 30
0.0
 11
362.321907
 21
165.406071
 31
0.0
  0
LINE
  5
1C9
100
AcDbEntity
  8
0
  6
Continuous
 62
     7
100
AcDbLine
 10
310.019685
 20
178.378422
 30
0.0
 11
348.019685
 21
178.378422
 31
0.0
  0
LINE
  5
1CA
100
AcDbEntity
  8
0
  6
Continuous
 62
     7
100
AcDbLine
 10
307.019685
 20
178.378422
 30
0.0
 11
310.147685
 21
178.940422
 31
0.0
  0
LINE
  5
1CB
100
AcDbEntity
  8
0
  6
Continuous
 62
     7
100
AcDbLine
 10
307.019685
 20
178.378422
 30
0.0
 11
310.147685
 21
177.816422
 31
0.0
  0
LINE
  5
1CC
100
AcDbEntity
  8
0
  6
Continuous
 62
     7
100
AcDbLine
 10
307.019685
 20
178.378422
 30
0.0
 11
310.019685
 21
178.378422
 31
0.0
  0
LINE
  5
1CD
100
AcDbEntity
  8
0
  6
Continuous
 62
     7
100
AcDbLine
 10
351.019685
 20
178.378422
 30
0.0
 11
347.891685
 21
177.816422
 31
0.0
  0
LINE
  5
1CE
100
AcDbEntity
  8
0
  6
Continuous
 62
     7
100
AcDbLine
 10
351.019685
 20
178.378422
 30
0.0
 11
347.891685
 21
178.940422
 31
0.0
  0
LINE
  5
1CF
100
AcDbEntity
  8
0
  6
Continuous
 62
     7
100
AcDbLine
 10
351.019685
 20
178.378422
 30
0.0
 11
348.019685
 21
178.378422
 31
0.0
  0
LINE
  5
1D0
100
AcDbEntity
  8
0
  6
Continuous
 62
     7
100
AcDbLine
 10
307.019685
 20
164.606071
 30
0.0
 11
307.019685
 21
179.378422
 31
0.0
  0
LINE
  5
1D1
100
AcDbEntity
  8
0
  6
Continuous
 62
     7
100
AcDbLine
 10
351.019685
 20
162.906071
 30
0.0
 11
351.019685
 21
179.378422
 31
0.0
  0
LINE
  5
1D2
100
AcDbEntity
  8
0
  6
Continuous
 62
     7
100
AcDbLine
 10
373.519685
 20
178.378422
 30
0.0
 11
384.519685
 21
178.378422
 31
0.0
  0
LINE
  5
1D3
100
AcDbEntity
  8
0
  6
Continuous
 62
     7
100
AcDbLine
 10
370.519685
 20
178.378422
 30
0.0
 11
373.647685
 21
178.940422
 31
0.0
  0
LINE
  5
1D4
100
AcDbEntity
  8
0
  6
Continuous
 62
     7
100
AcDbLine
 10
370.519685
 20
178.378422
 30
0.0
 11
373.647685
 21
177.816422
 31
0.0
  0
LINE
  5
1D5
100
AcDbEntity
  8
0
  6
Continuous
 62
     7
100
AcDbLine
 10
370.519685
 20
178.378422
 30
0.0
 11
373.519685
 21
178.378422
 31
0.0
  0
LINE
  5
1D6
100
AcDbEntity
  8
0
  6
Continuous
 62
     7
100
AcDbLine
 10
387.519685
 20
178.378422
 30
0.0
 11
384.391685
 21
177.816422
 31
0.0
  0
LINE
  5
1D7
100
AcDbEntity
  8
0
  6
Continuous
 62
     7
100
AcDbLine
 10
387.519685
 20
178.378422
 30
0.0
 11
384.391685
 21
178.940422
 31
0.0
  0
LINE
  5
1D8
100
AcDbEntity
  8
0
  6
Continuous
 62
     7
100
AcDbLine
 10
387.519685
 20
178.378422
 30
0.0
 11
384.519685
 21
178.378422
 31
0.0
  0
LINE
  5
1D9
100
AcDbEntity
  8
0
  6
Continuous
 62
     7
100
AcDbLine
 10
370.519685
 20
159.364111
 30
0.0
 11
370.519685
 21
179.378422
 31
0.0
  0
LINE
  5
1DA
100
AcDbEntity
  8
0
  6
Continuous
 62
     7
100
AcDbLine
 10
387.519685
 20
159.364111
 30
0.0
 11
387.519685
 21
179.378422
 31
0.0
  0
LINE
  5
1DB
100
AcDbEntity
  8
0
  6
Continuous
 62
     4
100
AcDbLine
 10
212.972989
 20
111.406119
 30
0.0
 11
263.918119
 21
111.406119
 31
0.0
  0
LINE
  5
1DC
100
AcDbEntity
  8
0
  6
Continuous
 62
     4
100
AcDbLine
 10
262.918119
 20
111.406119
 30
0.0
 11
262.918119
 21
71.406119
 31
0.0
  0
LINE
  5
1DD
100
AcDbEntity
  8
0
  6
Continuous
 62
     4
100
AcDbLine
 10
262.918119
 20
111.406119
 30
0.0
 11
263.439063
 21
108.451696
 31
0.0
  0
LINE
  5
1DE
100
AcDbEntity
  8
0
  6
Continuous
 62
     4
100
AcDbLine
 10
262.918119
 20
111.406119
 30
0.0
 11
262.397174
 21
108.451696
 31
0.0
  0
LINE
  5
1DF
100
AcDbEntity
  8
0
  6
Continuous
 62
     4
100
AcDbLine
 10
262.918119
 20
71.406119
 30
0.0
 11
262.397174
 21
74.360542
 31
0.0
  0
LINE
  5
1E0
100
AcDbEntity
  8
0
  6
Continuous
 62
     4
100
AcDbLine
 10
262.918119
 20
71.406119
 30
0.0
 11
263.439063
 21
74.360542
 31
0.0
  0
CIRCLE
  5
1E1
100
AcDbEntity
  8
0
  6
Continuous
 62
     7
100
AcDbCircle
 10
184.972989
 20
211.406071
 30
0.0
 40
26.0
  0
CIRCLE
  5
1E2
100
AcDbEntity
  8
0
  6
Continuous
 62
     7
100
AcDbCircle
 10
184.972989
 20
211.406071
 30
0.0
 40
24.727888
  0
CIRCLE
  5
1E3
100
AcDbEntity
  8
0
  6
Continuous
 62
     7
100
AcDbCircle
 10
181.934146
 20
194.171935
 30
0.0
 40
1.0
  0
CIRCLE
  5
1E4
100
AcDbEntity
  8
0
  6
Continuous
 62
     7
100
AcDbCircle
 10
175.570246
 20
196.646721
 30
0.0
 40
1.2
  0
CIRCLE
  5
1E5
100
AcDbEntity
  8
0
  6
Continuous
 62
     7
100
AcDbCircle
 10
194.375732
 20
226.165421
 30
0.0
 40
1.2
  0
CIRCLE
  5
1E6
100
AcDbEntity
  8
0
  6
Continuous
 62
     7
100
AcDbCircle
 10
199.73234
 20
202.003328
 30
0.0
 40
1.2
  0
CIRCLE
  5
1E7
100
AcDbEntity
  8
0
  6
Continuous
 62
     7
100
AcDbCircle
 10
170.213639
 20
220.808814
 30
0.0
 40
1.2
  0
CIRCLE
  5
1E8
100
AcDbEntity
  8
0
  6
Continuous
 62
     7
100
AcDbCircle
 10
170.213639
 20
220.808814
 30
0.0
 40
1.5
  0
CIRCLE
  5
1E9
100
AcDbEntity
  8
0
  6
Continuous
 62
     7
100
AcDbCircle
 10
194.375732
 20
226.165421
 30
0.0
 40
1.5
  0
CIRCLE
  5
1EA
100
AcDbEntity
  8
0
  6
Continuous
 62
     7
100
AcDbCircle
 10
175.570246
 20
196.646721
 30
0.0
 40
1.5
  0
CIRCLE
  5
1EB
100
AcDbEntity
  8
0
  6
Continuous
 62
     7
100
AcDbCircle
 10
199.73234
 20
202.003328
 30
0.0
 40
1.5
  0
CIRCLE
  5
1EC
100
AcDbEntity
  8
0
  6
Continuous
 62
     7
100
AcDbCircle
 10
134.972989
 20
211.406071
 30
0.0
 40
3.0
  0
CIRCLE
  5
1ED
100
AcDbEntity
  8
0
  6
Continuous
 62
     7
100
AcDbCircle
 10
134.972989
 20
211.406071
 30
0.0
 40
2.5
  0
CIRCLE
  5
1EE
100
AcDbEntity
  8
0
  6
Continuous
 62
     7
100
AcDbCircle
 10
184.972989
 20
261.406071
 30
0.0
 40
3.0
  0
CIRCLE
  5
1EF
100
AcDbEntity
  8
0
  6
Continuous
 62
     7
100
AcDbCircle
 10
174.935402
 20
225.741232
 30
0.0
 40
1.65
  0
CIRCLE
  5
1F0
100
AcDbEntity
  8
0
  6
Continuous
 62
     7
100
AcDbCircle
 10
199.30815
 20
221.443659
 30
0.0
 40
1.65
  0
CIRCLE
  5
1F1
100
AcDbEntity
  8
0
  6
Continuous
 62
     7
100
AcDbCircle
 10
170.637829
 20
201.368483
 30
0.0
 40
1.65
  0
CIRCLE
  5
1F2
100
AcDbEntity
  8
0
  6
Continuous
 62
     7
100
AcDbCircle
 10
195.010577
 20
197.07091
 30
0.0
 40
1.65
  0
CIRCLE
  5
1F3
100
AcDbEntity
  8
0
  6
Continuous
 62
     7
100
AcDbCircle
 10
184.972989
 20
211.406071
 30
0.0
 40
15.0
  0
CIRCLE
  5
1F4
100
AcDbEntity
  8
0
  6
DASHDOT
 62
     7
100
AcDbCircle
 10
184.972989
 20
211.406071
 30
0.0
 40
17.5
  0
CIRCLE
  5
1F5
100
AcDbEntity
  8
0
  6
Continuous
 62
     7
100
AcDbCircle
 10
184.972989
 20
211.406071
 30
0.0
 40
20.0
  0
CIRCLE
  5
1F6
100
AcDbEntity
  8
0
  6
Continuous
 62
     7
100
AcDbCircle
 10
184.972989
 20
211.406071
 30
0.0
 40
10.0
  0
CIRCLE
  5
1F7
100
AcDbEntity
  8
0
  6
Continuous
 62
     7
100
AcDbCircle
 10
234.213377
 20
202.723662
 30
0.0
 40
1.5
  0
CIRCLE
  5
1F8
100
AcDbEntity
  8
0
  6
Continuous
 62
     7
100
AcDbCircle
 10
234.213377
 20
202.723662
 30
0.0
 40
1.1
  0
CIRCLE
  5
1F9
100
AcDbEntity
  8
0
  6
Continuous
 62
     7
100
AcDbCircle
 10
193.655398
 20
260.646459
 30
0.0
 40
1.5
  0
CIRCLE
  5
1FA
100
AcDbEntity
  8
0
  6
Continuous
 62
     7
100
AcDbCircle
 10
193.655398
 20
260.646459
 30
0.0
 40
1.1
  0
CIRCLE
  5
1FB
100
AcDbEntity
  8
0
  6
Continuous
 62
     7
100
AcDbCircle
 10
135.732602
 20
220.08848
 30
0.0
 40
1.5
  0
CIRCLE
  5
1FC
100
AcDbEntity
  8
0
  6
Continuous
 62
     7
100
AcDbCircle
 10
184.972989
 20
161.406071
 30
0.0
 40
3.0
  0
CIRCLE
  5
1FD
100
AcDbEntity
  8
0
  6
Continuous
 62
     7
100
AcDbCircle
 10
135.732602
 20
220.08848
 30
0.0
 40
1.1
  0
CIRCLE
  5
1FE
100
AcDbEntity
  8
0
  6
Continuous
 62
     7
100
AcDbCircle
 10
184.972989
 20
161.406071
 30
0.0
 40
2.5
  0
CIRCLE
  5
1FF
100
AcDbEntity
  8
0
  6
Continuous
 62
     7
100
AcDbCircle
 10
176.29058
 20
162.165683
 30
0.0
 40
1.5
  0
CIRCLE
  5
200
100
AcDbEntity
  8
0
  6
Continuous
 62
     7
100
AcDbCircle
 10
176.29058
 20
162.165683
 30
0.0
 40
1.1
  0
CIRCLE
  5
201
100
AcDbEntity
  8
0
  6
Continuous
 62
     7
100
AcDbCircle
 10
184.972989
 20
261.406071
 30
0.0
 40
2.5
  0
CIRCLE
  5
202
100
AcDbEntity
  8
0
  6
Continuous
 62
     7
100
AcDbCircle
 10
234.972989
 20
211.406071
 30
0.0
 40
3.0
  0
CIRCLE
  5
203
100
AcDbEntity
  8
0
  6
Continuous
 62
     7
100
AcDbCircle
 10
234.972989
 20
211.406071
 30
0.0
 40
2.5
  0
CIRCLE
  5
204
100
AcDbEntity
  8
0
  6
Continuous
 62
     7
100
AcDbCircle
 10
179.937192
 20
182.846646
 30
0.0
 40
1.0
  0
CIRCLE
  5
205
100
AcDbEntity
  8
0
  6
Continuous
 62
     7
100
AcDbCircle
 10
229.225044
 20
104.406119
 30
0.0
 40
2.9
  0
CIRCLE
  5
206
100
AcDbEntity
  8
0
  6
Continuous
 62
     7
100
AcDbCircle
 10
376.769685
 20
158.656071
 30
0.0
 40
0.35
  0
CIRCLE
  5
207
100
AcDbEntity
  8
0
  6
Continuous
 62
     7
100
AcDbCircle
 10
379.019685
 20
158.656071
 30
0.0
 40
0.35
  0
CIRCLE
  5
208
100
AcDbEntity
  8
0
  6
Continuous
 62
     7
100
AcDbCircle
 10
381.269685
 20
158.656071
 30
0.0
 40
0.35
  0
CIRCLE
  5
209
100
AcDbEntity
  8
0
  6
Continuous
 62
     7
100
AcDbCircle
 10
381.269685
 20
154.656071
 30
0.0
 40
0.35
  0
CIRCLE
  5
20A
100
AcDbEntity
  8
0
  6
Continuous
 62
     7
100
AcDbCircle
 10
379.019685
 20
154.656071
 30
0.0
 40
0.35
  0
CIRCLE
  5
20B
100
AcDbEntity
  8
0
  6
Continuous
 62
     7
100
AcDbCircle
 10
382.394685
 20
156.656071
 30
0.0
 40
0.35
  0
CIRCLE
  5
20C
100
AcDbEntity
  8
0
  6
Continuous
 62
     7
100
AcDbCircle
 10
380.144685
 20
156.656071
 30
0.0
 40
0.35
  0
CIRCLE
  5
20D
100
AcDbEntity
  8
0
  6
Continuous
 62
     7
100
AcDbCircle
 10
377.894685
 20
156.656071
 30
0.0
 40
0.35
  0
CIRCLE
  5
20E
100
AcDbEntity
  8
0
  6
Continuous
 62
     7
100
AcDbCircle
 10
375.644685
 20
156.656071
 30
0.0
 40
0.35
  0
CIRCLE
  5
20F
100
AcDbEntity
  8
0
  6
Continuous
 62
     7
100
AcDbCircle
 10
379.019685
 20
156.406071
 30
0.0
 40
4.7
  0
CIRCLE
  5
210
100
AcDbEntity
  8
0
  6
Continuous
 62
     7
100
AcDbCircle
 10
379.019685
 20
156.406071
 30
0.0
 40
5.5
  0
CIRCLE
  5
211
100
AcDbEntity
  8
0
  6
Continuous
 62
     7
100
AcDbCircle
 10
379.019685
 20
156.406071
 30
0.0
 40
8.0
  0
CIRCLE
  5
212
100
AcDbEntity
  8
0
  6
Continuous
 62
     7
100
AcDbCircle
 10
379.019685
 20
156.406071
 30
0.0
 40
7.5
  0
CIRCLE
  5
213
100
AcDbEntity
  8
0
  6
Continuous
 62
     7
100
AcDbCircle
 10
379.019685
 20
156.406071
 30
0.0
 40
7.2
  0
CIRCLE
  5
214
100
AcDbEntity
  8
0
  6
Continuous
 62
     7
100
AcDbCircle
 10
379.019685
 20
156.406071
 30
0.0
 40
8.5
  0
CIRCLE
  5
215
100
AcDbEntity
  8
0
  6
Continuous
 62
     7
100
AcDbCircle
 10
376.769685
 20
154.656071
 30
0.0
 40
0.35
  0
ARC
  5
216
100
AcDbEntity
  8
0
  6
Continuous
 62
     7
100
AcDbCircle
 10
184.972989
 20
211.406071
 30
0.0
 40
45.0
100
AcDbArc
 50
350.811864
 51
329.464198
  0
ARC
  5
217
100
AcDbEntity
  8
0
  6
DASHDOT
 62
     7
100
AcDbCircle
 10
184.972989
 20
211.406071
 30
0.0
 40
50.0
100
AcDbArc
 50
165.618839
 51
186.63085
  0
ARC
  5
218
100
AcDbEntity
  8
0
  6
DASHDOT
 62
     7
100
AcDbCircle
 10
184.972989
 20
211.406071
 30
0.0
 40
50.0
100
AcDbArc
 50
250.535117
 51
276.63085
  0
ARC
  5
219
100
AcDbEntity
  8
0
  6
Continuous
 62
     7
100
AcDbCircle
 10
184.972989
 20
211.406071
 30
0.0
 40
55.0
100
AcDbArc
 50
168.241903
 51
191.758097
  0
ARC
  5
21A
100
AcDbEntity
  8
0
  6
Continuous
 62
     7
100
AcDbCircle
 10
184.972989
 20
211.406071
 30
0.0
 40
55.0
100
AcDbArc
 50
101.758097
 51
109.764549
  0
ARC
  5
21B
100
AcDbEntity
  8
0
  6
Continuous
 62
     7
100
AcDbCircle
 10
184.972989
 20
211.406071
 30
0.0
 40
55.0
100
AcDbArc
 50
348.241903
 51
11.758097
  0
ARC
  5
21C
100
AcDbEntity
  8
0
  6
Continuous
 62
     7
100
AcDbCircle
 10
184.972989
 20
211.406071
 30
0.0
 40
55.0
100
AcDbArc
 50
281.758097
 51
289.274098
  0
ARC
  5
21D
100
AcDbEntity
  8
0
  6
DASHDOT
 62
     7
100
AcDbCircle
 10
184.972989
 20
211.406071
 30
0.0
 40
50.0
100
AcDbArc
 50
71.115635
 51
96.63085
  0
ARC
  5
21E
100
AcDbEntity
  8
0
  6
Continuous
 62
     7
100
AcDbCircle
 10
163.045783
 20
113.006119
 30
0.0
 40
0.2
100
AcDbArc
 50
90.0
 51
130.0
  0
ARC
  5
21F
100
AcDbEntity
  8
0
  6
Continuous
 62
     7
100
AcDbCircle
 10
223.129541
 20
103.406119
 30
0.0
 40
6.5
100
AcDbArc
 50
180.0
 51
270.0
  0
ARC
  5
220
100
AcDbEntity
  8
0
  6
Continuous
 62
     7
100
AcDbCircle
 10
224.015599
 20
104.406119
 30
0.0
 40
5.5
100
AcDbArc
 50
114.619977
 51
125.380023
  0
ARC
  5
221
100
AcDbEntity
  8
0
  6
Continuous
 62
     7
100
AcDbCircle
 10
224.015599
 20
104.406119
 30
0.0
 40
5.5
100
AcDbArc
 50
174.619977
 51
185.380023
  0
ARC
  5
222
100
AcDbEntity
  8
0
  6
Continuous
 62
     7
100
AcDbCircle
 10
224.015599
 20
104.406119
 30
0.0
 40
5.5
100
AcDbArc
 50
234.619977
 51
245.380023
  0
ARC
  5
223
100
AcDbEntity
  8
0
  6
Continuous
 62
     7
100
AcDbCircle
 10
218.023517
 20
200.479232
 30
0.0
 40
1.5
100
AcDbArc
 50
100.0
 51
175.0
  0
ARC
  5
224
100
AcDbEntity
  8
0
  6
DASHDOT
 62
     7
100
AcDbCircle
 10
184.972989
 20
211.406071
 30
0.0
 40
50.0
100
AcDbArc
 50
345.618839
 51
6.63085
  0
ARC
  5
225
100
AcDbEntity
  8
0
  6
Continuous
 62
     7
100
AcDbCircle
 10
206.900195
 20
113.006119
 30
0.0
 40
0.2
100
AcDbArc
 50
50.0
 51
90.0
  0
ARC
  5
226
100
AcDbEntity
  8
0
  6
Continuous
 62
     7
100
AcDbCircle
 10
209.495145
 20
111.60747
 30
0.0
 40
0.2
100
AcDbArc
 50
270.1
 51
352.1
  0
ARC
  5
227
100
AcDbEntity
  8
0
  6
Continuous
 62
     7
100
AcDbCircle
 10
209.510406
 20
111.71745
 30
0.0
 40
0.2
100
AcDbArc
 50
352.1
 51
82.1
  0
ARC
  5
228
100
AcDbEntity
  8
0
  6
Continuous
 62
     7
100
AcDbCircle
 10
160.450834
 20
111.60747
 30
0.0
 40
0.2
100
AcDbArc
 50
187.9
 51
269.9
  0
ARC
  5
229
100
AcDbEntity
  8
0
  6
Continuous
 62
     7
100
AcDbCircle
 10
160.435573
 20
111.71745
 30
0.0
 40
0.2
100
AcDbArc
 50
97.9
 51
187.9
  0
ARC
  5
22A
100
AcDbEntity
  8
0
  6
Continuous
 62
     7
100
AcDbCircle
 10
184.972989
 20
211.406071
 30
0.0
 40
44.0
100
AcDbArc
 50
350.06773
 51
312.378507
  0
ARC
  5
22B
100
AcDbEntity
  8
0
  6
Continuous
 62
     7
100
AcDbCircle
 10
184.972989
 20
211.406071
 30
0.0
 40
55.0
100
AcDbArc
 50
78.241903
 51
101.758097
  0
ARC
  5
22C
100
AcDbEntity
  8
0
  6
Continuous
 62
     7
100
AcDbCircle
 10
184.972989
 20
211.406071
 30
0.0
 40
55.0
100
AcDbArc
 50
258.241903
 51
281.758097
  0
ARC
  5
22D
100
AcDbEntity
  8
0
  6
DASHDOT
 62
     7
100
AcDbCircle
 10
184.972989
 20
211.406071
 30
0.0
 40
29.0
100
AcDbArc
 50
254.266853
 51
266.453955
  0
ARC
  5
22E
100
AcDbEntity
  8
0
  6
Continuous
 62
     7
100
AcDbCircle
 10
220.972989
 20
103.406119
 30
0.0
 40
6.5
100
AcDbArc
 50
180.0
 51
270.0
  0
ARC
  5
22F
100
AcDbEntity
  8
0
  6
Continuous
 62
     7
100
AcDbCircle
 10
226.012553
 20
104.406119
 30
0.0
 40
2.9
100
AcDbArc
 50
89.999993
 51
270.000007
  0
ARC
  5
230
100
AcDbEntity
  8
0
  6
Continuous
 62
     7
100
AcDbCircle
 10
226.012553
 20
104.406119
 30
0.0
 40
3.45
100
AcDbArc
 50
57.201386
 51
302.798614
  0
ARC
  5
231
100
AcDbEntity
  8
0
  6
Continuous
 62
     7
100
AcDbCircle
 10
226.012553
 20
104.406119
 30
0.0
 40
3.75
100
AcDbArc
 50
50.65417
 51
309.34583
  0
ARC
  5
232
100
AcDbEntity
  8
0
  6
Continuous
 62
     7
100
AcDbCircle
 10
225.835638
 20
104.406119
 30
0.0
 40
5.5
100
AcDbArc
 50
54.619977
 51
65.380023
  0
ARC
  5
233
100
AcDbEntity
  8
0
  6
Continuous
 62
     7
100
AcDbCircle
 10
225.835638
 20
104.406119
 30
0.0
 40
5.5
100
AcDbArc
 50
114.619977
 51
125.380023
  0
ARC
  5
234
100
AcDbEntity
  8
0
  6
Continuous
 62
     7
100
AcDbCircle
 10
225.835638
 20
104.406119
 30
0.0
 40
5.5
100
AcDbArc
 50
174.619977
 51
185.380023
  0
ARC
  5
235
100
AcDbEntity
  8
0
  6
Continuous
 62
     7
100
AcDbCircle
 10
225.835638
 20
104.406119
 30
0.0
 40
5.5
100
AcDbArc
 50
234.619977
 51
245.380023
  0
ARC
  5
236
100
AcDbEntity
  8
0
  6
Continuous
 62
     7
100
AcDbCircle
 10
225.835638
 20
104.406119
 30
0.0
 40
5.5
100
AcDbArc
 50
294.619977
 51
305.380023
  0
ARC
  5
237
100
AcDbEntity
  8
0
  6
Continuous
 62
     7
100
AcDbCircle
 10
225.835638
 20
104.406119
 30
0.0
 40
4.2
100
AcDbArc
 50
43.667815
 51
316.332185
  0
ARC
  5
238
100
AcDbEntity
  8
0
  6
DASHDOT
 62
     7
100
AcDbCircle
 10
249.023751
 20
176.406071
 30
0.0
 40
20.0
100
AcDbArc
 50
190.0
 51
270.0
  0
ARC
  5
239
100
AcDbEntity
  8
0
  6
Continuous
 62
     7
100
AcDbCircle
 10
249.023751
 20
176.406071
 30
0.0
 40
17.2
100
AcDbArc
 50
190.0
 51
270.000007
  0
ARC
  5
23A
100
AcDbEntity
  8
0
  6
Continuous
 62
     7
100
AcDbCircle
 10
249.023751
 20
176.406071
 30
0.0
 40
22.8
100
AcDbArc
 50
190.0
 51
270.000004
  0
ARC
  5
23B
100
AcDbEntity
  8
0
  6
Continuous
 62
     7
100
AcDbCircle
 10
258.894736
 20
188.378422
 30
0.0
 40
10.0
100
AcDbArc
 50
190.0
 51
270.0
  0
ARC
  5
23C
100
AcDbEntity
  8
0
  6
Continuous
 62
     7
100
AcDbCircle
 10
379.019685
 20
156.406071
 30
0.0
 40
5.0
100
AcDbArc
 50
35.73917
 51
144.26083
  0
ARC
  5
23D
100
AcDbEntity
  8
0
  6
Continuous
 62
     7
100
AcDbCircle
 10
379.019685
 20
156.406071
 30
0.0
 40
5.0
100
AcDbArc
 50
155.73917
 51
261.373073
  0
ARC
  5
23E
100
AcDbEntity
  8
0
  6
Continuous
 62
     7
100
AcDbCircle
 10
379.019685
 20
156.406071
 30
0.0
 40
9.0
100
AcDbArc
 50
19.188136
 51
160.811864
  0
ARC
  5
23F
100
AcDbEntity
  8
0
  6
Continuous
 62
     7
100
AcDbCircle
 10
379.019685
 20
156.406071
 30
0.0
 40
5.0
100
AcDbArc
 50
278.626927
 51
24.26083
  0
ARC
  5
240
100
AcDbEntity
  8
0
  6
Continuous
 62
     7
100
AcDbCircle
 10
379.019685
 20
156.406071
 30
0.0
 40
9.0
100
AcDbArc
 50
199.188136
 51
340.811864
  0
ARC
  5
241
100
AcDbEntity
  8
0
  6
Continuous
 62
     7
100
AcDbCircle
 10
229.087149
 20
223.246294
 30
0.0
 40
0.5
100
AcDbArc
 50
10.0
 51
100.0
  0
ARC
  5
242
100
AcDbEntity
  8
0
  6
Continuous
 62
     7
100
AcDbCircle
 10
230.476335
 20
215.367832
 30
0.0
 40
0.5
100
AcDbArc
 50
280.0
 51
10.0
  0
ARC
  5
243
100
AcDbEntity
  8
0
  6
Continuous
 62
     7
100
AcDbCircle
 10
222.712367
 20
210.158722
 30
0.0
 40
9.220578
100
AcDbArc
 50
285.121436
 51
294.713241
  0
ARC
  5
244
100
AcDbEntity
  8
0
  6
Continuous
 62
     7
100
AcDbCircle
 10
222.856261
 20
209.633901
 30
0.0
 40
8.676392
100
AcDbArc
 50
274.902666
 51
285.1082
  0
ARC
  5
245
100
AcDbEntity
  8
0
  6
Continuous
 62
     7
100
AcDbCircle
 10
222.811959
 20
210.175987
 30
0.0
 40
9.220281
100
AcDbArc
 50
265.286657
 51
274.889071
  0
ARC
  5
246
100
AcDbEntity
  8
0
  6
Continuous
 62
     7
100
AcDbCircle
 10
219.516412
 20
202.982493
 30
0.0
 40
2.715779
100
AcDbArc
 50
290.662031
 51
307.633704
  0
ARC
  5
247
100
AcDbEntity
  8
0
  6
Continuous
 62
     7
100
AcDbCircle
 10
219.707858
 20
202.48341
 30
0.0
 40
2.181247
100
AcDbArc
 50
269.429726
 51
290.582502
  0
ARC
  5
248
100
AcDbEntity
  8
0
  6
Continuous
 62
     7
100
AcDbCircle
 10
219.71702
 20
203.01774
 30
0.0
 40
2.715645
100
AcDbArc
 50
252.366076
 51
269.348642
  0
ARC
  5
249
100
AcDbEntity
  8
0
  6
Continuous
 62
     7
100
AcDbCircle
 10
228.2323
 20
197.051796
 30
0.0
 40
2.746283
100
AcDbArc
 50
318.649768
 51
340.510443
  0
ARC
  5
24A
100
AcDbEntity
  8
0
  6
Continuous
 62
     7
100
AcDbCircle
 10
229.725297
 20
195.683969
 30
0.0
 40
0.722975
100
AcDbArc
 50
238.201701
 51
321.85665
  0
ARC
  5
24B
100
AcDbEntity
  8
0
  6
Continuous
 62
     7
100
AcDbCircle
 10
230.659013
 20
197.478512
 30
0.0
 40
2.74439
100
AcDbArc
 50
219.484051
 51
241.37725
  0
ARC
  5
24C
100
AcDbEntity
  8
0
  6
Continuous
 62
     7
100
AcDbCircle
 10
224.280796
 20
198.303099
 30
0.0
 40
4.341865
100
AcDbArc
 50
298.772232
 51
321.130263
  0
ARC
  5
24D
100
AcDbEntity
  8
0
  6
Continuous
 62
     7
100
AcDbCircle
 10
225.122817
 20
196.779591
 30
0.0
 40
2.601165
100
AcDbArc
 50
261.332522
 51
298.667452
  0
ARC
  5
24E
100
AcDbEntity
  8
0
  6
Continuous
 62
     7
100
AcDbCircle
 10
225.392973
 20
198.499168
 30
0.0
 40
4.341823
100
AcDbArc
 50
238.869627
 51
261.22786
  0
ARC
  5
24F
100
AcDbEntity
  8
0
  6
Continuous
 62
     7
100
AcDbCircle
 10
219.679753
 20
195.543752
 30
0.0
 40
2.746283
100
AcDbArc
 50
318.649768
 51
340.510443
  0
ARC
  5
250
100
AcDbEntity
  8
0
  6
Continuous
 62
     7
100
AcDbCircle
 10
221.17275
 20
194.175924
 30
0.0
 40
0.722975
100
AcDbArc
 50
238.201701
 51
321.85665
  0
ARC
  5
251
100
AcDbEntity
  8
0
  6
Continuous
 62
     7
100
AcDbCircle
 10
222.106466
 20
195.970467
 30
0.0
 40
2.74439
100
AcDbArc
 50
219.484051
 51
241.37725
  0
ARC
  5
252
100
AcDbEntity
  8
0
  6
Continuous
 62
     7
100
AcDbCircle
 10
228.068959
 20
204.490537
 30
0.0
 40
2.715779
100
AcDbArc
 50
290.662031
 51
307.633704
  0
ARC
  5
253
100
AcDbEntity
  8
0
  6
Continuous
 62
     7
100
AcDbCircle
 10
228.260404
 20
203.991454
 30
0.0
 40
2.181247
100
AcDbArc
 50
269.429726
 51
290.582502
  0
ARC
  5
254
100
AcDbEntity
  8
0
  6
Continuous
 62
     7
100
AcDbCircle
 10
228.269566
 20
204.525785
 30
0.0
 40
2.715645
100
AcDbArc
 50
252.366076
 51
269.348642
  0
ARC
  5
255
100
AcDbEntity
  8
0
  6
Continuous
 62
     7
100
AcDbCircle
 10
258.20057
 20
157.42797
 30
0.0
 40
2.703537
100
AcDbArc
 50
19.234776
 51
41.124284
  0
ARC
  5
256
100
AcDbEntity
  8
0
  6
Continuous
 62
     7
100
AcDbCircle
 10
259.407239
 20
157.835155
 30
0.0
 40
1.430145
100
AcDbArc
 50
338.345406
 51
19.758398
  0
ARC
  5
257
100
AcDbEntity
  8
0
  6
Continuous
 62
     7
100
AcDbCircle
 10
256.319344
 20
159.165517
 30
0.0
 40
4.792011
100
AcDbArc
 50
324.84132
 51
337.185465
  0
ARC
  5
258
100
AcDbEntity
  8
0
  6
Continuous
 62
     7
100
AcDbCircle
 10
264.150491
 20
153.649273
 30
0.0
 40
4.786913
100
AcDbArc
 50
144.837104
 51
157.205731
  0
ARC
  5
259
100
AcDbEntity
  8
0
  6
Continuous
 62
     7
100
AcDbCircle
 10
261.066888
 20
154.976942
 30
0.0
 40
1.430065
100
AcDbArc
 50
158.380561
 51
199.770601
  0
ARC
  5
25A
100
AcDbEntity
  8
0
  6
Continuous
 62
     7
100
AcDbCircle
 10
262.273805
 20
155.384289
 30
0.0
 40
2.703741
100
AcDbArc
 50
199.242725
 51
221.123798
  0
ARC
  5
25B
100
AcDbEntity
  8
0
  6
Continuous
 62
     7
100
AcDbCircle
 10
264.273636
 20
155.384172
 30
0.0
 40
2.703537
100
AcDbArc
 50
199.234776
 51
221.124284
  0
ARC
  5
25C
100
AcDbEntity
  8
0
  6
Continuous
 62
     7
100
AcDbCircle
 10
263.066967
 20
154.976987
 30
0.0
 40
1.430145
100
AcDbArc
 50
158.345406
 51
199.758398
  0
ARC
  5
25D
100
AcDbEntity
  8
0
  6
Continuous
 62
     7
100
AcDbCircle
 10
266.154862
 20
153.646625
 30
0.0
 40
4.792011
100
AcDbArc
 50
144.84132
 51
157.185465
  0
ARC
  5
25E
100
AcDbEntity
  8
0
  6
Continuous
 62
     7
100
AcDbCircle
 10
258.323715
 20
159.162869
 30
0.0
 40
4.786913
100
AcDbArc
 50
324.837104
 51
337.205731
  0
ARC
  5
25F
100
AcDbEntity
  8
0
  6
Continuous
 62
     7
100
AcDbCircle
 10
261.407318
 20
157.8352
 30
0.0
 40
1.430065
100
AcDbArc
 50
338.380561
 51
19.770601
  0
ARC
  5
260
100
AcDbEntity
  8
0
  6
Continuous
 62
     7
100
AcDbCircle
 10
260.200401
 20
157.427852
 30
0.0
 40
2.703741
100
AcDbArc
 50
19.242725
 51
41.123798
  0
ARC
  5
261
100
AcDbEntity
  8
0
  6
Continuous
 62
     7
100
AcDbCircle
 10
258.244668
 20
154.657634
 30
0.0
 40
2.650817
100
AcDbArc
 50
18.873362
 51
41.268185
  0
ARC
  5
262
100
AcDbEntity
  8
0
  6
Continuous
 62
     7
100
AcDbCircle
 10
259.255139
 20
155.006071
 30
0.0
 40
1.581964
100
AcDbArc
 50
341.229477
 51
18.770524
  0
ARC
  5
263
100
AcDbEntity
  8
0
  6
Continuous
 62
     7
100
AcDbCircle
 10
258.244692
 20
155.354494
 30
0.0
 40
2.650789
100
AcDbArc
 50
318.731699
 51
341.126755
  0
ARC
  5
264
100
AcDbEntity
  8
0
  6
Continuous
 62
     7
100
AcDbCircle
 10
264.229751
 20
158.154652
 30
0.0
 40
2.651072
100
AcDbArc
 50
198.882702
 51
221.267489
  0
ARC
  5
265
100
AcDbEntity
  8
0
  6
Continuous
 62
     7
100
AcDbCircle
 10
263.219097
 20
157.806056
 30
0.0
 40
1.581994
100
AcDbArc
 50
161.235927
 51
198.782888
  0
ARC
  5
266
100
AcDbEntity
  8
0
  6
Continuous
 62
     7
100
AcDbCircle
 10
264.229312
 20
157.457775
 30
0.0
 40
2.650554
100
AcDbArc
 50
138.730887
 51
161.131891
  0
ARC
  5
267
100
AcDbEntity
  8
0
  6
Continuous
 62
     7
100
AcDbCircle
 10
184.972989
 20
211.406071
 30
0.0
 40
69.889553
100
AcDbArc
 50
262.459603
 51
267.540397
  0
TEXT
  5
268
100
AcDbEntity
  8
0
 62
     7
100
AcDbText
 10
292.044087
 20
182.294515
 30
0.0
 40
1.65
  1
＋１００
 41
0.7695
  7
FontTableH_0
 72
     5
 11
297.662457
 21
182.294515
 31
0.0
100
AcDbText
  0
TEXT
  5
269
100
AcDbEntity
  8
0
 62
     7
100
AcDbText
 10
292.044087
 20
179.929515
 30
0.0
 40
1.65
  1
　０
 41
0.7695
  7
FontTableH_0
 72
     5
 11
294.896563
 21
179.929515
 31
0.0
100
AcDbText
  0
TEXT
  5
26A
100
AcDbEntity
  8
0
 62
     7
100
AcDbText
 10
255.756216
 20
86.834569
 30
0.0
 40
3.0
  1
30.00
 50
90.0
 41
0.7695
  7
FontTableH_0
 72
     5
 11
255.756216
 21
101.75112
 31
0.0
100
AcDbText
  0
TEXT
  5
26B
100
AcDbEntity
  8
0
 62
     7
100
AcDbText
 10
269.628582
 20
89.834569
 30
0.0
 40
3.0
  1
42.00
 50
90.0
 41
0.7695
  7
FontTableH_0
 72
     5
 11
269.628582
 21
104.083215
 31
0.0
100
AcDbText
  0
TEXT
  5
26C
100
AcDbEntity
  8
0
 62
     7
100
AcDbText
 10
149.061046
 20
221.989606
 30
0.0
 40
3.0
  1
φ 35.00
 50
-15.3
 41
0.7695
  7
FontTableH_0
 72
     5
 11
169.202445
 21
216.479543
 31
0.0
100
AcDbText
  0
TEXT
  5
26D
100
AcDbEntity
  8
0
 62
     7
100
AcDbText
 10
192.805706
 20
239.505246
 30
0.0
 40
3.0
  1
φ 100.00
 50
72.9
 41
0.7695
  7
FontTableH_0
 72
     5
 11
200.336191
 21
263.983473
 31
0.0
100
AcDbText
  0
TEXT
  5
26E
100
AcDbEntity
  8
0
 62
     7
100
AcDbText
 10
173.284024
 20
250.110274
 30
0.0
 40
3.0
  1
φ 110.00
 50
-72.1
 41
0.7695
  7
FontTableH_0
 72
     5
 11
181.386562
 21
225.024332
 31
0.0
100
AcDbText
  0
TEXT
  5
26F
100
AcDbEntity
  8
0
 62
     7
100
AcDbText
 10
162.094753
 20
86.583517
 30
0.0
 40
3.0
  1
33.00
 50
90.0
 41
0.7695
  7
FontTableH_0
 72
     5
 11
162.094753
 21
100.832163
 31
0.0
100
AcDbText
  0
TEXT
  5
270
100
AcDbEntity
  8
0
 62
     7
100
AcDbText
 10
142.792963
 20
247.252252
 30
0.0
 40
3.3
  1
92.00
 50
45.0
 41
0.7695
  7
FontTableH_0
 72
     5
 11
153.875808
 21
258.335097
 31
0.0
100
AcDbText
  0
TEXT
  5
271
100
AcDbEntity
  8
0
 62
     7
100
AcDbText
 10
247.65978
 20
76.577414
 30
0.0
 40
3.3
  1
10.00
 50
90.0
 41
0.7695
  7
FontTableH_0
 72
     5
 11
247.65978
 21
94.683021
 31
0.0
100
AcDbText
  0
TEXT
  5
272
100
AcDbEntity
  8
0
 62
     7
100
AcDbText
 10
251.025051
 20
263.075929
 30
0.0
 40
1.5
  1
±０．１
 41
0.7695
  7
FontTableH_0
 72
     5
 11
256.13266
 21
263.075929
 31
0.0
100
AcDbText
  0
TEXT
  5
273
100
AcDbEntity
  8
0
 62
     7
100
AcDbText
 10
174.891024
 20
142.884474
 30
0.0
 40
3.0
  1
10°0'0"
 50
-5.0
 41
0.7695
  7
FontTableH_0
 72
     5
 11
196.521475
 21
140.992055
 31
0.0
100
AcDbText
  0
TEXT
  5
274
100
AcDbEntity
  8
0
 62
     7
100
AcDbText
 10
360.571907
 20
152.334521
 30
0.0
 40
3.0
  1
18.00
 50
90.0
 41
0.7695
  7
FontTableH_0
 72
     5
 11
360.571907
 21
167.984673
 31
0.0
100
AcDbText
  0
TEXT
  5
275
100
AcDbEntity
  8
0
 62
     7
100
AcDbText
 10
326.448135
 20
179.128422
 30
0.0
 40
3.0
  1
44.00
 41
0.7695
  7
FontTableH_0
 72
     5
 11
340.69678
 21
179.128422
 31
0.0
100
AcDbText
  0
TEXT
  5
276
100
AcDbEntity
  8
0
 62
     7
100
AcDbText
 10
376.448135
 20
179.128422
 30
0.0
 40
3.0
  1
17.00
 41
0.7695
  7
FontTableH_0
 72
     5
 11
392.098287
 21
179.128422
 31
0.0
100
AcDbText
  0
TEXT
  5
277
100
AcDbEntity
  8
0
 62
     7
100
AcDbText
 10
262.629424
 20
179.82605
 30
0.0
 40
4.0
  1
Cable length 1000
 41
0.820588
  7
FontTableH_1
 72
     5
 11
290.529424
 21
179.82605
 31
0.0
100
AcDbText
  0
TEXT
  5
278
100
AcDbEntity
  8
0
 62
     7
100
AcDbText
 10
241.130856
 20
243.062571
 30
0.0
 40
4.0
  1
Air injection hole (M5)
 41
0.821739
  7
FontTableH_1
 72
     5
 11
278.930856
 21
243.062571
 31
0.0
100
AcDbText
  0
TEXT
  5
279
100
AcDbEntity
  8
0
 62
     7
100
AcDbText
 10
136.114996
 20
163.591074
 30
0.0
 40
4.0
  1
Reference Mark
 41
0.819643
  7
FontTableH_1
 72
     5
 11
159.064996
 21
163.591074
 31
0.0
100
AcDbText
  0
TEXT
  5
27A
100
AcDbEntity
  8
0
 62
     7
100
AcDbText
 10
104.424784
 20
88.166806
 30
0.0
 40
4.0
  1
 from bottom)
 41
0.819231
  7
FontTableH_1
 72
     5
 11
125.724784
 21
88.166806
 31
0.0
100
AcDbText
  0
TEXT
  5
27B
100
AcDbEntity
  8
0
 62
     7
100
AcDbText
 10
102.413732
 20
92.257727
 30
0.0
 40
4.0
  1
(When installing
 41
0.820313
  7
FontTableH_1
 72
     5
 11
128.663732
 21
92.257727
 31
0.0
100
AcDbText
  0
TEXT
  5
27C
100
AcDbEntity
  8
0
 62
     7
100
AcDbText
 10
243.530894
 20
229.287995
 30
0.0
 40
4.0
  1
4 x mounting hole for M4
 41
0.821875
  7
FontTableH_1
 72
     5
 11
282.980894
 21
229.287995
 31
0.0
100
AcDbText
  0
TEXT
  5
27D
100
AcDbEntity
  8
0
 62
     7
100
AcDbText
 10
244.2493
 20
223.573588
 30
0.0
 40
4.0
  1
When installing from top
 41
0.821875
  7
FontTableH_1
 72
     5
 11
283.6993
 21
223.573588
 31
0.0
100
AcDbText
  0
TEXT
  5
27E
100
AcDbEntity
  8
0
 62
     7
100
AcDbText
 10
117.204548
 20
97.89912
 30
0.0
 40
4.0
  1
4xM6
 41
1.1125
  7
FontTableH_1
 72
     5
 11
126.104548
 21
97.89912
 31
0.0
100
AcDbText
  0
TEXT
  5
27F
100
AcDbEntity
  8
0
 62
     7
100
AcDbText
 10
235.116485
 20
260.925929
 30
0.0
 40
4.0
  1
4xφ3.3
 41
0.7695
  7
FontTableH_0
 72
     5
 11
250.116485
 21
260.925929
 31
0.0
100
AcDbText
  0
TEXT
  5
280
100
AcDbEntity
  8
0
 62
     7
100
AcDbText
 10
256.926308
 20
260.925929
 30
0.0
 40
3.0
  1
depth:7
 41
0.7695
  7
FontTableH_0
 72
     5
 11
270.926308
 21
260.925929
 31
0.0
100
AcDbText
  0
TEXT
  5
281
100
AcDbEntity
  8
0
 62
     7
100
AcDbText
 10
231.79105
 20
269.711389
 30
0.0
 40
4.0
  1
4xM3, depth:5
 41
1.0
  7
FontTableH_1
 72
     5
 11
257.79105
 21
269.711389
 31
0.0
100
AcDbText
  0
TEXT
  5
282
100
AcDbEntity
  8
0
 62
     7
100
AcDbText
 10
310.444495
 20
57.162232
 30
0.0
 40
5.0
  1
Unit:mm
 41
1.068571
  7
FontTableH_1
 72
     5
 11
329.144495
 21
57.162232
 31
0.0
100
AcDbText
  0
TEXT
  5
283
100
AcDbEntity
  8
0
 62
     7
100
AcDbText
 10
176.401439
 20
55.950127
 30
0.0
 40
3.0
  1
φ85f7
 41
0.7695
  7
FontTableH_0
 72
     5
 11
193.499814
 21
55.950127
 31
0.0
100
AcDbText
  0
TEXT
  5
284
100
AcDbEntity
  8
0
 62
     7
100
AcDbText
 10
279.753526
 20
134.749749
 30
0.0
 40
3.3
  1
φ5.6
 50
90.0
 41
0.7695
  7
FontTableH_0
 72
     5
 11
279.753526
 21
150.660811
 31
0.0
100
AcDbText
  0
TEXT
  5
285
100
AcDbEntity
  8
0
 62
     7
100
AcDbText
 10
255.631216
 20
51.212091
 30
0.0
 40
3.5
  1
3±0.05
 50
90.0
 41
0.7695
  7
FontTableH_0
 72
     5
 11
255.631216
 21
68.712091
 31
0.0
100
AcDbText
  0
TEXT
  5
286
100
AcDbEntity
  8
0
 62
     7
100
AcDbText
 10
176.290546
 20
123.048705
 30
0.0
 40
3.0
  1
φ30H6
 41
0.7695
  7
FontTableH_0
 72
     5
 11
194.190407
 21
123.048705
 31
0.0
100
AcDbText
  0
TEXT
  5
287
100
AcDbEntity
  8
0
 62
     7
100
AcDbText
 10
175.752628
 20
62.761429
 30
0.0
 40
3.0
  1
φ20H6
 41
0.7695
  7
FontTableH_0
 72
     5
 11
193.652489
 21
62.761429
 31
0.0
100
AcDbText
  0
TEXT
  5
288
100
AcDbEntity
  8
0
 62
     7
100
AcDbText
 10
262.918119
 20
89.831119
 30
0.0
 40
4.0
  1
40
 50
90.0
 41
0.75
  7
FontTableH_1
 72
     5
 11
262.918119
 21
92.981119
 31
0.0
100
AcDbText
  0
ENDSEC
  0
SECTION
  2
OBJECTS
  0
DICTIONARY
  5
19
100
AcDbDictionary
  3
ACAD_GROUP
350
1A
  3
ACAD_MLINESTYLE
350
1B
  3
DWGPROPS
350
289
  0
DICTIONARY
  5
1A
102
{ACAD_REACTORS
330
19
102
}
100
AcDbDictionary
  0
DICTIONARY
  5
1B
102
{ACAD_REACTORS
330
19
102
}
100
AcDbDictionary
  3
STANDARD
350
1C
  0
MLINESTYLE
  5
1C
102
{ACAD_REACTORS
330
1B
102
}
100
AcDbMlineStyle
  2
Standard
 70
     0
  3

 62
     0
 51
90.0
 52
90.0
 71
     2
 49
0.5
 62
   256
  6
ByLayer
 49
-0.5
 62
   256
  6
ByLayer
  0
XRECORD
  5
289
100
AcDbXrecord
  1
DWGPROPS COOKIE
  2

  3

  4

  6

  7

  0
ENDSEC
  0
EOF
