  0
SECTION
  2
HEADER
  9
$ACADVER
  1
AC1015
  9
$ACADMAINTVER
 70
     6
  9
$DWGCODEPAGE
  3
ANSI_1252
  9
$INSBASE
 10
0.0
 20
0.0
 30
0.0
  9
$EXTMIN
 10
0.0
 20
0.0
 30
0.0
  9
$EXTMAX
 10
1274.122925
 20
446.790009
 30
2.0
  9
$LIMMIN
 10
0.0
 20
0.0
  9
$LIMMAX
 10
420.0
 20
297.0
  9
$ORTHOMODE
 70
     0
  9
$REGENMODE
 70
     1
  9
$FILLMODE
 70
     1
  9
$QTEXTMODE
 70
     0
  9
$MIRRTEXT
 70
     1
  9
$LTSCALE
 40
1.0
  9
$ATTMODE
 70
     1
  9
$TEXTSIZE
 40
2.5
  9
$TRACEWID
 40
1.0
  9
$TEXTSTYLE
  7
Standard
  9
$CLAYER
  8
0
  9
$CELTYPE
  6
ByLayer
  9
$CECOLOR
 62
   256
  9
$CELTSCALE
 40
1.0
  9
$DISPSILH
 70
     0
  9
$DIMSCALE
 40
1.0
  9
$DIMASZ
 40
2.5
  9
$DIMEXO
 40
0.625
  9
$DIMDLI
 40
3.75
  9
$DIMRND
 40
0.0
  9
$DIMDLE
 40
0.0
  9
$DIMEXE
 40
1.25
  9
$DIMTP
 40
0.0
  9
$DIMTM
 40
0.0
  9
$DIMTXT
 40
2.5
  9
$DIMCEN
 40
2.5
  9
$DIMTSZ
 40
0.0
  9
$DIMTOL
 70
     0
  9
$DIMLIM
 70
     0
  9
$DIMTIH
 70
     0
  9
$DIMTOH
 70
     0
  9
$DIMSE1
 70
     0
  9
$DIMSE2
 70
     0
  9
$DIMTAD
 70
     1
  9
$DIMZIN
 70
     8
  9
$DIMBLK
  1

  9
$DIMASO
 70
     1
  9
$DIMSHO
 70
     1
  9
$DIMPOST
  1

  9
$DIMAPOST
  1

  9
$DIMALT
 70
     0
  9
$DIMALTD
 70
     3
  9
$DIMALTF
 40
0.03937
  9
$DIMLFAC
 40
1.0
  9
$DIMTOFL
 70
     1
  9
$DIMTVP
 40
0.0
  9
$DIMTIX
 70
     0
  9
$DIMSOXD
 70
     0
  9
$DIMSAH
 70
     0
  9
$DIMBLK1
  1

  9
$DIMBLK2
  1

  9
$DIMSTYLE
  2
Standard
  9
$DIMCLRD
 70
     0
  9
$DIMCLRE
 70
     0
  9
$DIMCLRT
 70
     0
  9
$DIMTFAC
 40
1.0
  9
$DIMGAP
 40
0.625
  9
$DIMJUST
 70
     0
  9
$DIMSD1
 70
     0
  9
$DIMSD2
 70
     0
  9
$DIMTOLJ
 70
     0
  9
$DIMTZIN
 70
     8
  9
$DIMALTZ
 70
     0
  9
$DIMALTTZ
 70
     0
  9
$DIMUPT
 70
     0
  9
$DIMDEC
 70
     2
  9
$DIMTDEC
 70
     2
  9
$DIMALTU
 70
     2
  9
$DIMALTTD
 70
     3
  9
$DIMTXSTY
  7
Standard
  9
$DIMAUNIT
 70
     0
  9
$DIMADEC
 70
     0
  9
$DIMALTRND
 40
0.0
  9
$DIMAZIN
 70
     0
  9
$DIMDSEP
 70
    44
  9
$DIMATFIT
 70
     0
  9
$DIMFRAC
 70
     0
  9
$DIMLDRBLK
  1

  9
$DIMLUNIT
 70
     2
  9
$DIMLWD
 70
    -2
  9
$DIMLWE
 70
    -2
  9
$DIMTMOVE
 70
     0
  9
$LUNITS
 70
     2
  9
$LUPREC
 70
     4
  9
$SKETCHINC
 40
1.0
  9
$FILLETRAD
 40
2.5
  9
$AUNITS
 70
     0
  9
$AUPREC
 70
     0
  9
$MENU
  1
.
  9
$ELEVATION
 40
0.0
  9
$PELEVATION
 40
0.0
  9
$THICKNESS
 40
0.0
  9
$LIMCHECK
 70
     0
  9
$CHAMFERA
 40
2.5
  9
$CHAMFERB
 40
2.5
  9
$CHAMFERC
 40
0.0
  9
$CHAMFERD
 40
0.0
  9
$SKPOLY
 70
     0
  9
$TDCREATE
 40
2447893.375
  9
$TDUCREATE
 40
0.0
  9
$TDUPDATE
 40
2458796.4189489
  9
$TDUUPDATE
 40
2458796.0439489
  9
$TDINDWG
 40
0.0
  9
$TDUSRTIMER
 40
0.0
  9
$USRTIMER
 70
     1
  9
$ANGBASE
 50
0.0
  9
$ANGDIR
 70
     0
  9
$PDMODE
 70
     0
  9
$PDSIZE
 40
0.0
  9
$PLINEWID
 40
0.0
  9
$SPLFRAME
 70
     0
  9
$SPLINETYPE
 70
     6
  9
$SPLINESEGS
 70
     8
  9
$HANDSEED
  5
246
  9
$SURFTAB1
 70
     6
  9
$SURFTAB2
 70
     6
  9
$SURFTYPE
 70
     6
  9
$SURFU
 70
     6
  9
$SURFV
 70
     6
  9
$UCSBASE
  2

  9
$UCSNAME
  2

  9
$UCSORG
 10
0.0
 20
0.0
 30
0.0
  9
$UCSXDIR
 10
1.0
 20
0.0
 30
0.0
  9
$UCSYDIR
 10
0.0
 20
1.0
 30
0.0
  9
$UCSORTHOREF
  2

  9
$UCSORTHOVIEW
 70
     1
  9
$UCSORGTOP
 10
0.0
 20
0.0
 30
0.0
  9
$UCSORGBOTTOM
 10
0.0
 20
0.0
 30
0.0
  9
$UCSORGLEFT
 10
0.0
 20
0.0
 30
0.0
  9
$UCSORGRIGHT
 10
0.0
 20
0.0
 30
0.0
  9
$UCSORGFRONT
 10
0.0
 20
0.0
 30
0.0
  9
$UCSORGBACK
 10
0.0
 20
0.0
 30
0.0
  9
$PUCSBASE
  2

  9
$PUCSNAME
  2

  9
$PUCSORG
 10
0.0
 20
0.0
 30
0.0
  9
$PUCSXDIR
 10
1.0
 20
0.0
 30
0.0
  9
$PUCSYDIR
 10
0.0
 20
1.0
 30
0.0
  9
$PUCSORTHOREF
  2

  9
$PUCSORTHOVIEW
 70
     0
  9
$PUCSORGTOP
 10
0.0
 20
0.0
 30
0.0
  9
$PUCSORGBOTTOM
 10
0.0
 20
0.0
 30
0.0
  9
$PUCSORGLEFT
 10
0.0
 20
0.0
 30
0.0
  9
$PUCSORGRIGHT
 10
0.0
 20
0.0
 30
0.0
  9
$PUCSORGFRONT
 10
0.0
 20
0.0
 30
0.0
  9
$PUCSORGBACK
 10
0.0
 20
0.0
 30
0.0
  9
$USERI1
 70
     0
  9
$USERI2
 70
     0
  9
$USERI3
 70
     0
  9
$USERI4
 70
     0
  9
$USERI5
 70
     0
  9
$USERR1
 40
0.0
  9
$USERR2
 40
0.0
  9
$USERR3
 40
0.0
  9
$USERR4
 40
0.0
  9
$USERR5
 40
0.0
  9
$WORLDVIEW
 70
     1
  9
$SHADEDGE
 70
     3
  9
$SHADEDIF
 70
    70
  9
$TILEMODE
 70
     1
  9
$MAXACTVP
 70
    64
  9
$PINSBASE
 10
0.0
 20
0.0
 30
0.0
  9
$PLIMCHECK
 70
     0
  9
$PEXTMIN
 10
0.0
 20
0.0
 30
0.0
  9
$PEXTMAX
 10
1274.122925
 20
446.790009
 30
2.0
  9
$PLIMMIN
 10
0.0
 20
0.0
  9
$PLIMMAX
 10
420.0
 20
297.0
  9
$UNITMODE
 70
     0
  9
$VISRETAIN
 70
     0
  9
$PLINEGEN
 70
     0
  9
$PSLTSCALE
 70
     1
  9
$TREEDEPTH
 70
  3020
  9
$CMLSTYLE
  2
Standard
  9
$CMLJUST
 70
     0
  9
$CMLSCALE
 40
20.0
  9
$PROXYGRAPHICS
 70
     1
  9
$MEASUREMENT
 70
     1
  9
$CELWEIGHT
370
    -1
  9
$ENDCAPS
280
     0
  9
$JOINSTYLE
280
     0
  9
$LWDISPLAY
290
     0
  9
$INSUNITS
 70
     0
  9
$HYPERLINKBASE
  1

  9
$STYLESHEET
  1

  9
$XEDIT
290
     1
  9
$CEPSNTYPE
380
     0
  9
$PSTYLEMODE
290
     0
  9
$FINGERPRINTGUID
  2
{D1F784BB-7DC9-4371-B7AC-7CDEBD5B84FD}
  9
$VERSIONGUID
  2
{FAEB1C32-E019-11D5-929B-00C0DF256EC4}
  9
$EXTNAMES
290
     1
  9
$PSVPSCALE
 40
0.0
  9
$OLESTARTUP
290
     0
  0
ENDSEC
  0
SECTION
  2
CLASSES
  0
CLASS
  1
ACDBDICTIONARYWDFLT
  2
AcDbDictionaryWithDefault
  3
ObjectDBX Classes
 90
        0
280
     0
281
     0
  0
CLASS
  1
VISUALSTYLE
  2
AcDbVisualStyle
  3
ObjectDBX Classes
 90
     4095
280
     0
281
     0
  0
CLASS
  1
MATERIAL
  2
AcDbMaterial
  3
ObjectDBX Classes
 90
     1153
280
     0
281
     0
  0
CLASS
  1
SCALE
  2
AcDbScale
  3
ObjectDBX Classes
 90
     1153
280
     0
281
     0
  0
CLASS
  1
SUN
  2
AcDbSun
  3
SCENEOE
 90
     1153
280
     0
281
     0
  0
CLASS
  1
ACDBPLACEHOLDER
  2
AcDbPlaceHolder
  3
ObjectDBX Classes
 90
        0
280
     0
281
     0
  0
CLASS
  1
LAYOUT
  2
AcDbLayout
  3
ObjectDBX Classes
 90
        0
280
     0
281
     0
  0
ENDSEC
  0
SECTION
  2
TABLES
  0
TABLE
  2
VPORT
  5
8
330
0
100
AcDbSymbolTable
 70
     1
  0
VPORT
  5
29
330
8
100
AcDbSymbolTableRecord
100
AcDbViewportTableRecord
  2
*Active
 70
     0
 10
0.0
 20
0.0
 11
1.0
 21
1.0
 12
10.429907
 22
4.5
 13
0.0
 23
0.0
 14
0.5
 24
0.5
 15
0.5
 25
0.5
 16
0.0
 26
0.0
 36
1.0
 17
0.0
 27
0.0
 37
0.0
 40
9.0
 41
1.972973
 42
50.0
 43
0.0
 44
0.0
 50
0.0
 51
0.0
 71
     0
 72
   100
 73
     1
 74
     3
 75
     0
 76
     0
 77
     0
 78
     0
281
     0
 65
     1
110
0.0
120
0.0
130
0.0
111
1.0
121
0.0
131
0.0
112
0.0
122
1.0
132
0.0
 79
     0
146
0.0
  0
ENDTAB
  0
TABLE
  2
LTYPE
  5
5
330
0
100
AcDbSymbolTable
 70
     2
  0
LTYPE
  5
14
330
5
100
AcDbSymbolTableRecord
100
AcDbLinetypeTableRecord
  2
ByBlock
 70
     0
  3

 72
    65
 73
     0
 40
0.0
  0
LTYPE
  5
15
330
5
100
AcDbSymbolTableRecord
100
AcDbLinetypeTableRecord
  2
ByLayer
 70
     0
  3

 72
    65
 73
     0
 40
0.0
  0
LTYPE
  5
16
330
5
100
AcDbSymbolTableRecord
100
AcDbLinetypeTableRecord
  2
Continuous
 70
     0
  3
Solid line
 72
    65
 73
     0
 40
0.0
  0
LTYPE
  5
6A
330
5
100
AcDbSymbolTableRecord
100
AcDbLinetypeTableRecord
  2
DASHDOT
 70
     0
  3
 __ . __ . __ . __ . __ . __ . __ . 
 72
    65
 73
     4
 40
18.5
 49
12.0
 74
     0
 49
-3.0
 74
     0
 49
0.5
 74
     0
 49
-3.0
 74
     0
  0
ENDTAB
  0
TABLE
  2
LAYER
  5
2
330
0
100
AcDbSymbolTable
 70
     1
  0
LAYER
  5
10
330
2
100
AcDbSymbolTableRecord
100
AcDbLayerTableRecord
  2
0
 70
     0
 62
     7
  6
Continuous
370
    -3
390
F
  0
ENDTAB
  0
TABLE
  2
STYLE
  5
3
330
0
100
AcDbSymbolTable
 70
     1
  0
STYLE
  5
11
330
3
100
AcDbSymbolTableRecord
100
AcDbTextStyleTableRecord
  2
Standard
 70
     0
 40
0.0
 41
1.0
 50
0.0
 71
     0
 42
2.5
  3
txt
  4

  0
ENDTAB
  0
TABLE
  2
VIEW
  5
6
330
0
100
AcDbSymbolTable
 70
     0
  0
ENDTAB
  0
TABLE
  2
UCS
  5
7
330
0
100
AcDbSymbolTable
 70
     0
  0
ENDTAB
  0
TABLE
  2
APPID
  5
9
330
0
100
AcDbSymbolTable
 70
     1
  0
APPID
  5
12
330
9
100
AcDbSymbolTableRecord
100
AcDbRegAppTableRecord
  2
ACAD
 70
     0
  0
ENDTAB
  0
TABLE
  2
DIMSTYLE
  5
A
330
0
100
AcDbSymbolTable
 70
     1
100
AcDbDimStyleTable
  0
DIMSTYLE
105
27
330
A
100
AcDbSymbolTableRecord
100
AcDbDimStyleTableRecord
  2
Standard
 70
     0
178
     0
340
11
  0
ENDTAB
  0
TABLE
  2
BLOCK_RECORD
  5
1
330
0
100
AcDbSymbolTable
 70
     1
  0
BLOCK_RECORD
  5
1F
330
1
100
AcDbSymbolTableRecord
100
AcDbBlockTableRecord
  2
*Model_Space
340
22
  0
BLOCK_RECORD
  5
1B
330
1
100
AcDbSymbolTableRecord
100
AcDbBlockTableRecord
  2
*Paper_Space
340
1E
  0
BLOCK_RECORD
  5
23
330
1
100
AcDbSymbolTableRecord
100
AcDbBlockTableRecord
  2
*Paper_Space0
340
26
  0
ENDTAB
  0
ENDSEC
  0
SECTION
  2
BLOCKS
  0
BLOCK
  5
20
330
1F
100
AcDbEntity
  8
0
100
AcDbBlockBegin
  2
*Model_Space
 70
     0
 10
0.0
 20
0.0
 30
0.0
  3
*Model_Space
  1
*Model_Space
  0
ENDBLK
  5
21
330
1F
100
AcDbEntity
  8
0
100
AcDbBlockEnd
  0
BLOCK
  5
1C
330
1B
100
AcDbEntity
 67
     1
  8
0
100
AcDbBlockBegin
  2
*Paper_Space
 70
     0
 10
0.0
 20
0.0
 30
0.0
  3
*Paper_Space
  1
*Paper_Space
  0
ENDBLK
  5
1D
330
1B
100
AcDbEntity
 67
     1
  8
0
100
AcDbBlockEnd
  0
BLOCK
  5
24
330
23
100
AcDbEntity
  8
0
100
AcDbBlockBegin
  2
*Paper_Space0
 70
     0
 10
0.0
 20
0.0
 30
0.0
  3
*Paper_Space0
  1
*Paper_Space0
  0
ENDBLK
  5
25
330
23
100
AcDbEntity
  8
0
100
AcDbBlockEnd
  0
ENDSEC
  0
SECTION
  2
ENTITIES
  0
LINE
  5
6B
330
1F
100
AcDbEntity
  8
0
  6
DASHDOT
 62
     7
 48
0.452002
370
    13
100
AcDbLine
 10
1182.040039
 20
426.75
 30
0.0
 11
1163.959961
 21
426.75
 31
0.0
  0
LINE
  5
6C
330
1F
100
AcDbEntity
  8
0
  6
DASHDOT
 62
     7
 48
0.452
370
    13
100
AcDbLine
 10
1173.0
 20
435.790009
 30
0.0
 11
1173.0
 21
417.709991
 31
0.0
  0
LINE
  5
6D
330
1F
100
AcDbEntity
  8
0
  6
DASHDOT
 62
     7
 48
0.452
370
    13
100
AcDbLine
 10
25.040001
 20
426.75
 30
0.0
 11
6.96
 21
426.75
 31
0.0
  0
LINE
  5
6E
330
1F
100
AcDbEntity
  8
0
  6
DASHDOT
 62
     7
 48
0.452
370
    13
100
AcDbLine
 10
16.0
 20
435.790009
 30
0.0
 11
16.0
 21
417.709991
 31
0.0
  0
LINE
  5
6F
330
1F
100
AcDbEntity
  8
0
  6
DASHDOT
 62
     7
 48
0.247
370
    13
100
AcDbLine
 10
35.940002
 20
426.75
 30
0.0
 11
26.059999
 21
426.75
 31
0.0
  0
LINE
  5
70
330
1F
100
AcDbEntity
  8
0
  6
DASHDOT
 62
     7
 48
0.247
370
    13
100
AcDbLine
 10
31.0
 20
431.690002
 30
0.0
 11
31.0
 21
421.809998
 31
0.0
  0
LINE
  5
71
330
1F
100
AcDbEntity
  8
0
  6
DASHDOT
 62
     7
 48
0.246997
370
    13
100
AcDbLine
 10
1162.939941
 20
426.75
 30
0.0
 11
1153.060059
 21
426.75
 31
0.0
  0
LINE
  5
72
330
1F
100
AcDbEntity
  8
0
  6
DASHDOT
 62
     7
 48
0.247
370
    13
100
AcDbLine
 10
1158.0
 20
431.690002
 30
0.0
 11
1158.0
 21
421.809998
 31
0.0
  0
LINE
  5
73
330
1F
100
AcDbEntity
  8
0
  6
DASHDOT
 62
     7
 48
0.227
370
    13
100
AcDbLine
 10
35.540001
 20
431.450012
 30
0.0
 11
26.459999
 21
431.450012
 31
0.0
  0
LINE
  5
74
330
1F
100
AcDbEntity
  8
0
  6
DASHDOT
 62
     7
 48
0.227
370
    13
100
AcDbLine
 10
31.0
 20
435.98999
 30
0.0
 11
31.0
 21
426.910004
 31
0.0
  0
LINE
  5
75
330
1F
100
AcDbEntity
  8
0
  6
DASHDOT
 62
     7
 48
0.227
370
    13
100
AcDbLine
 10
35.540001
 20
422.049988
 30
0.0
 11
26.459999
 21
422.049988
 31
0.0
  0
LINE
  5
76
330
1F
100
AcDbEntity
  8
0
  6
DASHDOT
 62
     7
 48
0.227
370
    13
100
AcDbLine
 10
31.0
 20
426.589996
 30
0.0
 11
31.0
 21
417.51001
 31
0.0
  0
LINE
  5
77
330
1F
100
AcDbEntity
  8
0
  6
DASHDOT
 62
     7
 48
0.227002
370
    13
100
AcDbLine
 10
1162.540039
 20
431.450012
 30
0.0
 11
1153.459961
 21
431.450012
 31
0.0
  0
LINE
  5
78
330
1F
100
AcDbEntity
  8
0
  6
DASHDOT
 62
     7
 48
0.227
370
    13
100
AcDbLine
 10
1158.0
 20
435.98999
 30
0.0
 11
1158.0
 21
426.910004
 31
0.0
  0
LINE
  5
79
330
1F
100
AcDbEntity
  8
0
  6
DASHDOT
 62
     7
 48
0.227002
370
    13
100
AcDbLine
 10
1162.540039
 20
422.049988
 30
0.0
 11
1153.459961
 21
422.049988
 31
0.0
  0
LINE
  5
7A
330
1F
100
AcDbEntity
  8
0
  6
DASHDOT
 62
     7
 48
0.227
370
    13
100
AcDbLine
 10
1158.0
 20
426.589996
 30
0.0
 11
1158.0
 21
417.51001
 31
0.0
  0
LINE
  5
7B
330
1F
100
AcDbEntity
  8
0
  6
DASHDOT
 62
     7
 48
0.251999
370
    13
100
AcDbLine
 10
600.539978
 20
441.75
 30
0.0
 11
590.460022
 21
441.75
 31
0.0
  0
LINE
  5
7C
330
1F
100
AcDbEntity
  8
0
  6
DASHDOT
 62
     7
 48
0.252
370
    13
100
AcDbLine
 10
595.5
 20
446.790009
 30
0.0
 11
595.5
 21
436.709991
 31
0.0
  0
LINE
  5
7D
330
1F
100
AcDbEntity
  8
0
  6
DASHDOT
 62
     7
 48
0.251999
370
    13
100
AcDbLine
 10
598.539978
 20
441.75
 30
0.0
 11
588.460022
 21
441.75
 31
0.0
  0
LINE
  5
7E
330
1F
100
AcDbEntity
  8
0
  6
DASHDOT
 62
     7
 48
0.252
370
    13
100
AcDbLine
 10
593.5
 20
446.790009
 30
0.0
 11
593.5
 21
436.709991
 31
0.0
  0
LINE
  5
7F
330
1F
100
AcDbEntity
  8
0
  6
DASHDOT
 62
     7
 48
0.352
370
    13
100
AcDbLine
 10
101.540001
 20
399.75
 30
0.0
 11
87.459999
 21
399.75
 31
0.0
  0
LINE
  5
80
330
1F
100
AcDbEntity
  8
0
  6
DASHDOT
 62
     7
 48
0.352
370
    13
100
AcDbLine
 10
94.5
 20
406.790009
 30
0.0
 11
94.5
 21
392.709991
 31
0.0
  0
LINE
  5
81
330
1F
100
AcDbEntity
  8
0
  6
DASHDOT
 62
     7
 48
0.352
370
    13
100
AcDbLine
 10
151.539993
 20
399.75
 30
0.0
 11
137.459991
 21
399.75
 31
0.0
  0
LINE
  5
82
330
1F
100
AcDbEntity
  8
0
  6
DASHDOT
 62
     7
 48
0.352
370
    13
100
AcDbLine
 10
144.5
 20
406.790009
 30
0.0
 11
144.5
 21
392.709991
 31
0.0
  0
LINE
  5
83
330
1F
100
AcDbEntity
  8
0
  6
DASHDOT
 62
     7
 48
0.327
370
    13
100
AcDbLine
 10
1026.040039
 20
426.75
 30
0.0
 11
1012.960022
 21
426.75
 31
0.0
  0
LINE
  5
84
330
1F
100
AcDbEntity
  8
0
  6
DASHDOT
 62
     7
 48
0.327
370
    13
100
AcDbLine
 10
1019.5
 20
433.290009
 30
0.0
 11
1019.5
 21
420.209991
 31
0.0
  0
LINE
  5
85
330
1F
100
AcDbEntity
  8
0
  6
DASHDOT
 62
     7
 48
0.327
370
    13
100
AcDbLine
 10
176.039993
 20
426.75
 30
0.0
 11
162.960007
 21
426.75
 31
0.0
  0
LINE
  5
86
330
1F
100
AcDbEntity
  8
0
  6
DASHDOT
 62
     7
 48
0.327
370
    13
100
AcDbLine
 10
169.5
 20
433.290009
 30
0.0
 11
169.5
 21
420.209991
 31
0.0
  0
LINE
  5
87
330
1F
100
AcDbEntity
  8
0
  6
DASHDOT
 62
     7
 48
0.326999
370
    13
100
AcDbLine
 10
601.039978
 20
426.75
 30
0.0
 11
587.960022
 21
426.75
 31
0.0
  0
LINE
  5
88
330
1F
100
AcDbEntity
  8
0
  6
DASHDOT
 62
     7
 48
0.327
370
    13
100
AcDbLine
 10
594.5
 20
433.290009
 30
0.0
 11
594.5
 21
420.209991
 31
0.0
  0
LINE
  5
89
330
1F
100
AcDbEntity
  8
0
  6
DASHDOT
 62
     7
 48
0.2395
370
    13
100
AcDbLine
 10
20.290001
 20
426.75
 30
0.0
 11
10.71
 21
426.75
 31
0.0
  0
LINE
  5
8A
330
1F
100
AcDbEntity
  8
0
  6
DASHDOT
 62
     7
 48
0.2395
370
    13
100
AcDbLine
 10
15.5
 20
431.540009
 30
0.0
 11
15.5
 21
421.959991
 31
0.0
  0
LINE
  5
8B
330
1F
100
AcDbEntity
  8
0
  6
DASHDOT
 62
     7
 48
0.2395
370
    13
100
AcDbLine
 10
21.290001
 20
426.75
 30
0.0
 11
11.71
 21
426.75
 31
0.0
  0
LINE
  5
8C
330
1F
100
AcDbEntity
  8
0
  6
DASHDOT
 62
     7
 48
0.2395
370
    13
100
AcDbLine
 10
16.5
 20
431.540009
 30
0.0
 11
16.5
 21
421.959991
 31
0.0
  0
LINE
  5
8D
330
1F
100
AcDbEntity
  8
0
  6
DASHDOT
 62
     7
 48
0.239502
370
    13
100
AcDbLine
 10
1177.790039
 20
427.25
 30
0.0
 11
1168.209961
 21
427.25
 31
0.0
  0
LINE
  5
8E
330
1F
100
AcDbEntity
  8
0
  6
DASHDOT
 62
     7
 48
0.2395
370
    13
100
AcDbLine
 10
1173.0
 20
432.040009
 30
0.0
 11
1173.0
 21
422.459991
 31
0.0
  0
LINE
  5
8F
330
1F
100
AcDbEntity
  8
0
  6
DASHDOT
 62
     7
 48
0.239502
370
    13
100
AcDbLine
 10
1177.790039
 20
426.25
 30
0.0
 11
1168.209961
 21
426.25
 31
0.0
  0
LINE
  5
90
330
1F
100
AcDbEntity
  8
0
  6
DASHDOT
 62
     7
 48
0.2395
370
    13
100
AcDbLine
 10
1173.0
 20
431.040009
 30
0.0
 11
1173.0
 21
421.459991
 31
0.0
  0
LINE
  5
91
330
1F
100
AcDbEntity
  8
0
  6
DASHDOT
 62
     7
 48
0.177325
370
    13
100
AcDbLine
 10
135.546509
 20
402.25
 30
0.0
 11
128.453491
 21
402.25
 31
0.0
  0
LINE
  5
92
330
1F
100
AcDbEntity
  8
0
  6
DASHDOT
 62
     7
 48
0.177325
370
    13
100
AcDbLine
 10
132.0
 20
405.796509
 30
0.0
 11
132.0
 21
398.703491
 31
0.0
  0
LINE
  5
93
330
1F
100
AcDbEntity
  8
0
  6
DASHDOT
 62
     7
 48
0.177325
370
    13
100
AcDbLine
 10
110.546501
 20
402.25
 30
0.0
 11
103.453499
 21
402.25
 31
0.0
  0
LINE
  5
94
330
1F
100
AcDbEntity
  8
0
  6
DASHDOT
 62
     7
 48
0.177325
370
    13
100
AcDbLine
 10
107.0
 20
405.796509
 30
0.0
 11
107.0
 21
398.703491
 31
0.0
  0
LINE
  5
95
330
1F
100
AcDbEntity
  8
0
 62
     7
370
    35
100
AcDbLine
 10
15.999998
 20
436.25
 30
0.0
 11
1173.0
 21
436.25
 31
0.0
  0
LINE
  5
96
330
1F
100
AcDbEntity
  8
0
 62
     7
370
    35
100
AcDbLine
 10
9.5
 20
436.25
 30
0.0
 11
16.0
 21
436.25
 31
0.0
  0
LINE
  5
97
330
1F
100
AcDbEntity
  8
0
 62
     7
370
    35
100
AcDbLine
 10
1179.5
 20
436.25
 30
0.0
 11
1173.0
 21
436.25
 31
0.0
  0
CIRCLE
  5
98
330
1F
100
AcDbEntity
  8
0
 62
     7
370
    35
100
AcDbCircle
 10
16.0
 20
426.75
 30
0.0
 40
3.5
  0
CIRCLE
  5
99
330
1F
100
AcDbEntity
  8
0
 62
     7
370
    35
100
AcDbCircle
 10
1173.0
 20
426.75
 30
0.0
 40
3.5
  0
CIRCLE
  5
9A
330
1F
100
AcDbEntity
  8
0
 62
     7
370
    35
100
AcDbCircle
 10
31.0
 20
426.75
 30
0.0
 40
2.4
  0
CIRCLE
  5
9B
330
1F
100
AcDbEntity
  8
0
 62
     7
370
    35
100
AcDbCircle
 10
1158.0
 20
426.75
 30
0.0
 40
2.4
  0
LINE
  5
9C
330
1F
100
AcDbEntity
  8
0
 62
     7
370
    35
100
AcDbLine
 10
1173.0
 20
413.350006
 30
0.0
 11
16.0
 21
413.350006
 31
0.0
  0
CIRCLE
  5
9D
330
1F
100
AcDbEntity
  8
0
 62
     7
370
    35
100
AcDbCircle
 10
31.0
 20
431.450012
 30
0.0
 40
2.0
  0
CIRCLE
  5
9E
330
1F
100
AcDbEntity
  8
0
 62
     7
370
    35
100
AcDbCircle
 10
31.0
 20
422.049988
 30
0.0
 40
2.0
  0
CIRCLE
  5
9F
330
1F
100
AcDbEntity
  8
0
 62
     7
370
    35
100
AcDbCircle
 10
1158.0
 20
431.450012
 30
0.0
 40
2.0
  0
CIRCLE
  5
A0
330
1F
100
AcDbEntity
  8
0
 62
     7
370
    35
100
AcDbCircle
 10
1158.0
 20
422.049988
 30
0.0
 40
2.0
  0
CIRCLE
  5
A1
330
1F
100
AcDbEntity
  8
0
 62
     7
370
    35
100
AcDbCircle
 10
16.0
 20
426.75
 30
0.0
 40
3.199999999999998
  0
LINE
  5
A2
330
1F
100
AcDbEntity
  8
0
 62
     7
370
    35
100
AcDbLine
 10
16.5
 20
424.5
 30
0.0
 11
15.5
 21
424.5
 31
0.0
  0
ARC
  5
A3
330
1F
100
AcDbEntity
  8
0
 62
     7
370
    35
100
AcDbCircle
 10
16.5
 20
426.75
 30
0.0
 40
2.249999999999999
100
AcDbArc
 50
269.999997
 51
90.000003
  0
LINE
  5
A4
330
1F
100
AcDbEntity
  8
0
 62
     7
370
    35
100
AcDbLine
 10
15.5
 20
429.0
 30
0.0
 11
16.5
 21
429.0
 31
0.0
  0
ARC
  5
A5
330
1F
100
AcDbEntity
  8
0
 62
     7
370
    35
100
AcDbCircle
 10
15.5
 20
426.75
 30
0.0
 40
2.249999999999999
100
AcDbArc
 50
90.000003
 51
269.999997
  0
CIRCLE
  5
A6
330
1F
100
AcDbEntity
  8
0
 62
     7
370
    35
100
AcDbCircle
 10
16.0
 20
426.75
 30
0.0
 40
3.399999999999996
  0
CIRCLE
  5
A7
330
1F
100
AcDbEntity
  8
0
 62
     7
370
    35
100
AcDbCircle
 10
1173.0
 20
426.75
 30
0.0
 40
3.199999999999998
  0
LINE
  5
A8
330
1F
100
AcDbEntity
  8
0
 62
     7
370
    35
100
AcDbLine
 10
1170.75
 20
426.25
 30
0.0
 11
1170.75
 21
427.25
 31
0.0
  0
ARC
  5
A9
330
1F
100
AcDbEntity
  8
0
 62
     7
370
    35
100
AcDbCircle
 10
1173.0
 20
426.25
 30
0.0
 40
2.249999999999999
100
AcDbArc
 50
180.000005
 51
360.0
  0
LINE
  5
AA
330
1F
100
AcDbEntity
  8
0
 62
     7
370
    35
100
AcDbLine
 10
1175.25
 20
427.25
 30
0.0
 11
1175.25
 21
426.25
 31
0.0
  0
ARC
  5
AB
330
1F
100
AcDbEntity
  8
0
 62
     7
370
    35
100
AcDbCircle
 10
1173.0
 20
427.25
 30
0.0
 40
2.249999999999999
100
AcDbArc
 50
0.0
 51
180.000005
  0
CIRCLE
  5
AC
330
1F
100
AcDbEntity
  8
0
 62
     7
370
    35
100
AcDbCircle
 10
1173.0
 20
426.75
 30
0.0
 40
3.399999999999996
  0
ARC
  5
AD
330
1F
100
AcDbEntity
  8
0
 62
     7
370
    35
100
AcDbCircle
 10
589.5
 20
441.75
 30
0.0
 40
5.0
100
AcDbArc
 50
90.000003
 51
180.000005
  0
LINE
  5
AE
330
1F
100
AcDbEntity
  8
0
 62
     7
370
    35
100
AcDbLine
 10
584.5
 20
441.75
 30
0.0
 11
584.5
 21
436.25
 31
0.0
  0
LINE
  5
AF
330
1F
100
AcDbEntity
  8
0
 62
     7
370
    35
100
AcDbLine
 10
604.5
 20
436.25
 30
0.0
 11
604.5
 21
441.75
 31
0.0
  0
ARC
  5
B0
330
1F
100
AcDbEntity
  8
0
 62
     7
370
    35
100
AcDbCircle
 10
599.5
 20
441.75
 30
0.0
 40
5.0
100
AcDbArc
 50
0.0
 51
90.000003
  0
LINE
  5
B1
330
1F
100
AcDbEntity
  8
0
 62
     7
370
    35
100
AcDbLine
 10
589.5
 20
446.75
 30
0.0
 11
599.5
 21
446.75
 31
0.0
  0
ARC
  5
B2
330
1F
100
AcDbEntity
  8
0
 62
     7
370
    35
100
AcDbCircle
 10
595.5
 20
441.75
 30
0.0
 40
2.5
100
AcDbArc
 50
269.999997
 51
90.000003
  0
LINE
  5
B3
330
1F
100
AcDbEntity
  8
0
 62
     7
370
    35
100
AcDbLine
 10
595.5
 20
444.25
 30
0.0
 11
593.5
 21
444.25
 31
0.0
  0
ARC
  5
B4
330
1F
100
AcDbEntity
  8
0
 62
     7
370
    35
100
AcDbCircle
 10
593.5
 20
441.75
 30
0.0
 40
2.5
100
AcDbArc
 50
90.000003
 51
269.999997
  0
LINE
  5
B5
330
1F
100
AcDbEntity
  8
0
 62
     7
370
    35
100
AcDbLine
 10
593.5
 20
439.25
 30
0.0
 11
595.5
 21
439.25
 31
0.0
  0
LINE
  5
B6
330
1F
100
AcDbEntity
  8
0
 62
     7
370
    35
100
AcDbLine
 10
106.44075
 20
413.25
 30
0.0
 11
100.409637
 21
411.75
 31
0.0
  0
LINE
  5
B7
330
1F
100
AcDbEntity
  8
0
 62
     7
370
    35
100
AcDbLine
 10
106.441002
 20
411.75
 30
0.0
 11
106.44075
 21
413.25
 31
0.0
  0
LINE
  5
B8
330
1F
100
AcDbEntity
  8
0
 62
     7
370
    35
100
AcDbLine
 10
106.44075
 20
413.25
 30
0.0
 11
106.44075
 21
413.350006
 31
0.0
  0
LINE
  5
B9
330
1F
100
AcDbEntity
  8
0
 62
     7
370
    35
100
AcDbLine
 10
132.55899
 20
413.25
 30
0.0
 11
106.441002
 21
413.25
 31
0.0
  0
LINE
  5
BA
330
1F
100
AcDbEntity
  8
0
 62
     7
370
    35
100
AcDbLine
 10
132.55925
 20
413.25
 30
0.0
 11
132.55925
 21
413.350006
 31
0.0
  0
LINE
  5
BB
330
1F
100
AcDbEntity
  8
0
 62
     7
370
    35
100
AcDbLine
 10
138.590317
 20
411.75
 30
0.0
 11
132.55925
 21
413.25
 31
0.0
  0
LINE
  5
BC
330
1F
100
AcDbEntity
  8
0
 62
     7
370
    35
100
AcDbLine
 10
149.5
 20
409.25
 30
0.0
 11
149.5
 21
411.75
 31
0.0
  0
LINE
  5
BD
330
1F
100
AcDbEntity
  8
0
 62
     7
370
    35
100
AcDbLine
 10
149.5
 20
409.25
 30
0.0
 11
149.5
 21
404.25
 31
0.0
  0
LINE
  5
BE
330
1F
100
AcDbEntity
  8
0
 62
     7
370
    35
100
AcDbLine
 10
149.5
 20
395.25
 30
0.0
 11
149.5
 21
404.25
 31
0.0
  0
LINE
  5
BF
330
1F
100
AcDbEntity
  8
0
 62
     7
370
    35
100
AcDbLine
 10
149.5
 20
395.25
 30
0.0
 11
149.5
 21
394.25
 31
0.0
  0
LINE
  5
C0
330
1F
100
AcDbEntity
  8
0
 62
     7
370
    35
100
AcDbLine
 10
149.5
 20
404.25
 30
0.0
 11
144.5
 21
404.25
 31
0.0
  0
ARC
  5
C1
330
1F
100
AcDbEntity
  8
0
 62
     7
370
    35
100
AcDbCircle
 10
144.5
 20
399.75
 30
0.0
 40
4.500000000000001
100
AcDbArc
 50
90.000003
 51
269.999997
  0
LINE
  5
C2
330
1F
100
AcDbEntity
  8
0
 62
     7
370
    35
100
AcDbLine
 10
144.5
 20
395.25
 30
0.0
 11
149.5
 21
395.25
 31
0.0
  0
LINE
  5
C3
330
1F
100
AcDbEntity
  8
0
 62
     7
370
    35
100
AcDbLine
 10
127.0
 20
394.25
 30
0.0
 11
149.5
 21
394.25
 31
0.0
  0
LINE
  5
C4
330
1F
100
AcDbEntity
  8
0
 62
     7
370
    35
100
AcDbLine
 10
127.0
 20
394.25
 30
0.0
 11
127.0
 21
405.75
 31
0.0
  0
ARC
  5
C5
330
1F
100
AcDbEntity
  8
0
 62
     7
370
    35
100
AcDbCircle
 10
130.5
 20
405.75
 30
0.0
 40
3.5
100
AcDbArc
 50
90.000003
 51
180.000005
  0
LINE
  5
C6
330
1F
100
AcDbEntity
  8
0
 62
     7
370
    35
100
AcDbLine
 10
130.5
 20
409.25
 30
0.0
 11
149.5
 21
409.25
 31
0.0
  0
CIRCLE
  5
C7
330
1F
100
AcDbEntity
  8
0
 62
     7
370
    35
100
AcDbCircle
 10
132.0
 20
402.25
 30
0.0
 40
1.006499999999999
  0
LINE
  5
C8
330
1F
100
AcDbEntity
  8
0
 62
     7
370
    35
100
AcDbLine
 10
89.5
 20
409.25
 30
0.0
 11
108.5
 21
409.25
 31
0.0
  0
ARC
  5
C9
330
1F
100
AcDbEntity
  8
0
 62
     7
370
    35
100
AcDbCircle
 10
108.5
 20
405.75
 30
0.0
 40
3.5
100
AcDbArc
 50
0.0
 51
90.000003
  0
LINE
  5
CA
330
1F
100
AcDbEntity
  8
0
 62
     7
370
    35
100
AcDbLine
 10
112.0
 20
405.75
 30
0.0
 11
112.0
 21
394.25
 31
0.0
  0
LINE
  5
CB
330
1F
100
AcDbEntity
  8
0
 62
     7
370
    35
100
AcDbLine
 10
89.5
 20
394.25
 30
0.0
 11
112.0
 21
394.25
 31
0.0
  0
LINE
  5
CC
330
1F
100
AcDbEntity
  8
0
 62
     7
370
    35
100
AcDbLine
 10
89.5
 20
394.25
 30
0.0
 11
89.5
 21
395.25
 31
0.0
  0
LINE
  5
CD
330
1F
100
AcDbEntity
  8
0
 62
     7
370
    35
100
AcDbLine
 10
94.5
 20
395.25
 30
0.0
 11
89.5
 21
395.25
 31
0.0
  0
ARC
  5
CE
330
1F
100
AcDbEntity
  8
0
 62
     7
370
    35
100
AcDbCircle
 10
94.5
 20
399.75
 30
0.0
 40
4.500000000000001
100
AcDbArc
 50
269.999997
 51
90.000003
  0
LINE
  5
CF
330
1F
100
AcDbEntity
  8
0
 62
     7
370
    35
100
AcDbLine
 10
89.5
 20
404.25
 30
0.0
 11
94.5
 21
404.25
 31
0.0
  0
LINE
  5
D0
330
1F
100
AcDbEntity
  8
0
 62
     7
370
    35
100
AcDbLine
 10
89.5
 20
404.25
 30
0.0
 11
89.5
 21
409.25
 31
0.0
  0
CIRCLE
  5
D1
330
1F
100
AcDbEntity
  8
0
 62
     7
370
    35
100
AcDbCircle
 10
107.0
 20
402.25
 30
0.0
 40
1.006500000000003
  0
LINE
  5
D2
330
1F
100
AcDbEntity
  8
0
 62
     7
370
    35
100
AcDbLine
 10
89.5
 20
395.25
 30
0.0
 11
89.5
 21
404.25
 31
0.0
  0
CIRCLE
  5
D3
330
1F
100
AcDbEntity
  8
0
 62
     7
370
    35
100
AcDbCircle
 10
94.5
 20
399.75
 30
0.0
 40
2.5
  0
LINE
  5
D4
330
1F
100
AcDbEntity
  8
0
 62
     7
370
    35
100
AcDbLine
 10
124.5
 20
404.75
 30
0.0
 11
119.5
 21
409.75
 31
0.0
  0
LINE
  5
D5
330
1F
100
AcDbEntity
  8
0
 62
     7
370
    35
100
AcDbLine
 10
114.5
 20
404.75
 30
0.0
 11
119.5
 21
409.75
 31
0.0
  0
LINE
  5
D6
330
1F
100
AcDbEntity
  8
0
 62
     7
370
    35
100
AcDbLine
 10
114.5
 20
404.75
 30
0.0
 11
117.5
 21
404.75
 31
0.0
  0
LINE
  5
D7
330
1F
100
AcDbEntity
  8
0
 62
     7
370
    35
100
AcDbLine
 10
117.5
 20
396.75
 30
0.0
 11
117.5
 21
404.75
 31
0.0
  0
LINE
  5
D8
330
1F
100
AcDbEntity
  8
0
 62
     7
370
    35
100
AcDbLine
 10
117.5
 20
396.75
 30
0.0
 11
121.5
 21
396.75
 31
0.0
  0
LINE
  5
D9
330
1F
100
AcDbEntity
  8
0
 62
     7
370
    35
100
AcDbLine
 10
121.5
 20
404.75
 30
0.0
 11
121.5
 21
396.75
 31
0.0
  0
LINE
  5
DA
330
1F
100
AcDbEntity
  8
0
 62
     7
370
    35
100
AcDbLine
 10
121.5
 20
404.75
 30
0.0
 11
124.5
 21
404.75
 31
0.0
  0
CIRCLE
  5
DB
330
1F
100
AcDbEntity
  8
0
 62
     7
370
    35
100
AcDbCircle
 10
144.5
 20
399.75
 30
0.0
 40
2.5
  0
LINE
  5
DC
330
1F
100
AcDbEntity
  8
0
 62
     7
370
    35
100
AcDbLine
 10
112.0
 20
394.75
 30
0.0
 11
127.0
 21
394.75
 31
0.0
  0
LINE
  5
DD
330
1F
100
AcDbEntity
  8
0
 62
     7
370
    35
100
AcDbLine
 10
89.5
 20
411.75
 30
0.0
 11
89.5
 21
409.25
 31
0.0
  0
LINE
  5
DE
330
1F
100
AcDbEntity
  8
0
 62
     7
370
    35
100
AcDbLine
 10
149.5
 20
411.75
 30
0.0
 11
89.5
 21
411.75
 31
0.0
  0
LINE
  5
DF
330
1F
100
AcDbEntity
  8
0
 62
     7
370
    35
100
AcDbLine
 10
132.55899
 20
413.25
 30
0.0
 11
132.55899
 21
411.75
 31
0.0
  0
LINE
  5
E0
330
1F
100
AcDbEntity
  8
0
 62
     7
370
    35
100
AcDbLine
 10
50.5
 20
407.75
 30
0.0
 11
50.5
 21
410.5
 31
0.0
  0
LINE
  5
E1
330
1F
100
AcDbEntity
  8
0
 62
     7
370
    35
100
AcDbLine
 10
50.5
 20
405.0
 30
0.0
 11
50.5
 21
407.75
 31
0.0
  0
LINE
  5
E2
330
1F
100
AcDbEntity
  8
0
 62
     7
370
    35
100
AcDbLine
 10
43.5
 20
419.149994
 30
0.0
 11
73.5
 21
419.149994
 31
0.0
  0
ARC
  5
E3
330
1F
100
AcDbEntity
  8
0
 62
     7
370
    35
100
AcDbCircle
 10
73.5
 20
420.149994
 30
0.0
 40
1.0
100
AcDbArc
 50
269.999997
 51
360.0
  0
LINE
  5
E4
330
1F
100
AcDbEntity
  8
0
 62
     7
370
    35
100
AcDbLine
 10
74.5
 20
420.149994
 30
0.0
 11
74.5
 21
431.649994
 31
0.0
  0
ARC
  5
E5
330
1F
100
AcDbEntity
  8
0
 62
     7
370
    35
100
AcDbCircle
 10
73.5
 20
431.649994
 30
0.0
 40
1.0
100
AcDbArc
 50
0.0
 51
90.000003
  0
LINE
  5
E6
330
1F
100
AcDbEntity
  8
0
 62
     7
370
    35
100
AcDbLine
 10
73.5
 20
432.649994
 30
0.0
 11
43.5
 21
432.649994
 31
0.0
  0
ARC
  5
E7
330
1F
100
AcDbEntity
  8
0
 62
     7
370
    35
100
AcDbCircle
 10
43.5
 20
431.649994
 30
0.0
 40
1.0
100
AcDbArc
 50
90.000003
 51
180.000005
  0
LINE
  5
E8
330
1F
100
AcDbEntity
  8
0
 62
     7
370
    35
100
AcDbLine
 10
42.5
 20
431.649994
 30
0.0
 11
42.5
 21
420.149994
 31
0.0
  0
ARC
  5
E9
330
1F
100
AcDbEntity
  8
0
 62
     7
370
    35
100
AcDbCircle
 10
43.5
 20
420.149994
 30
0.0
 40
1.0
100
AcDbArc
 50
180.000005
 51
269.999997
  0
LINE
  5
EA
330
1F
100
AcDbEntity
  8
0
 62
     7
370
    35
100
AcDbLine
 10
65.5
 20
420.149994
 30
0.0
 11
73.5
 21
420.149994
 31
0.0
  0
LINE
  5
EB
330
1F
100
AcDbEntity
  8
0
 62
     7
370
    35
100
AcDbLine
 10
73.5
 20
420.149994
 30
0.0
 11
73.5
 21
428.149994
 31
0.0
  0
LINE
  5
EC
330
1F
100
AcDbEntity
  8
0
 62
     7
370
    35
100
AcDbLine
 10
73.5
 20
428.149994
 30
0.0
 11
65.5
 21
428.149994
 31
0.0
  0
LINE
  5
ED
330
1F
100
AcDbEntity
  8
0
 62
     7
370
    35
100
AcDbLine
 10
65.5
 20
428.149994
 30
0.0
 11
65.5
 21
420.149994
 31
0.0
  0
LINE
  5
EE
330
1F
100
AcDbEntity
  8
0
 62
     7
370
    35
100
AcDbLine
 10
66.5
 20
424.149994
 30
0.0
 11
69.5
 21
421.149994
 31
0.0
  0
LINE
  5
EF
330
1F
100
AcDbEntity
  8
0
 62
     7
370
    35
100
AcDbLine
 10
68.5
 20
424.149994
 30
0.0
 11
66.5
 21
424.149994
 31
0.0
  0
LINE
  5
F0
330
1F
100
AcDbEntity
  8
0
 62
     7
370
    35
100
AcDbLine
 10
68.5
 20
427.149994
 30
0.0
 11
68.5
 21
424.149994
 31
0.0
  0
LINE
  5
F1
330
1F
100
AcDbEntity
  8
0
 62
     7
370
    35
100
AcDbLine
 10
70.5
 20
427.149994
 30
0.0
 11
68.5
 21
427.149994
 31
0.0
  0
LINE
  5
F2
330
1F
100
AcDbEntity
  8
0
 62
     7
370
    35
100
AcDbLine
 10
70.5
 20
424.149994
 30
0.0
 11
70.5
 21
427.149994
 31
0.0
  0
LINE
  5
F3
330
1F
100
AcDbEntity
  8
0
 62
     7
370
    35
100
AcDbLine
 10
72.5
 20
424.149994
 30
0.0
 11
70.5
 21
424.149994
 31
0.0
  0
LINE
  5
F4
330
1F
100
AcDbEntity
  8
0
 62
     7
370
    35
100
AcDbLine
 10
69.5
 20
421.149994
 30
0.0
 11
72.5
 21
424.149994
 31
0.0
  0
LINE
  5
F5
330
1F
100
AcDbEntity
  8
0
 62
     7
370
    35
100
AcDbLine
 10
43.5
 20
420.149994
 30
0.0
 11
64.5
 21
420.149994
 31
0.0
  0
LINE
  5
F6
330
1F
100
AcDbEntity
  8
0
 62
     7
370
    35
100
AcDbLine
 10
64.5
 20
420.149994
 30
0.0
 11
64.5
 21
423.149994
 31
0.0
  0
LINE
  5
F7
330
1F
100
AcDbEntity
  8
0
 62
     7
370
    35
100
AcDbLine
 10
64.5
 20
423.149994
 30
0.0
 11
43.5
 21
423.149994
 31
0.0
  0
LINE
  5
F8
330
1F
100
AcDbEntity
  8
0
 62
     7
370
    35
100
AcDbLine
 10
43.5
 20
423.149994
 30
0.0
 11
43.5
 21
420.149994
 31
0.0
  0
ARC
  5
F9
330
1F
100
AcDbEntity
  8
0
 62
     7
370
    35
100
AcDbCircle
 10
1115.5
 20
420.149994
 30
0.0
 40
1.0
100
AcDbArc
 50
180.000005
 51
269.999997
  0
LINE
  5
FA
330
1F
100
AcDbEntity
  8
0
 62
     7
370
    35
100
AcDbLine
 10
1145.5
 20
419.149994
 30
0.0
 11
1115.5
 21
419.149994
 31
0.0
  0
ARC
  5
FB
330
1F
100
AcDbEntity
  8
0
 62
     7
370
    35
100
AcDbCircle
 10
1145.5
 20
420.149994
 30
0.0
 40
1.0
100
AcDbArc
 50
269.999997
 51
360.0
  0
LINE
  5
FC
330
1F
100
AcDbEntity
  8
0
 62
     7
370
    35
100
AcDbLine
 10
1146.5
 20
420.149994
 30
0.0
 11
1146.5
 21
431.649994
 31
0.0
  0
ARC
  5
FD
330
1F
100
AcDbEntity
  8
0
 62
     7
370
    35
100
AcDbCircle
 10
1145.5
 20
431.649994
 30
0.0
 40
1.0
100
AcDbArc
 50
0.0
 51
90.000003
  0
LINE
  5
FE
330
1F
100
AcDbEntity
  8
0
 62
     7
370
    35
100
AcDbLine
 10
1114.5
 20
431.649994
 30
0.0
 11
1114.5
 21
420.149994
 31
0.0
  0
LINE
  5
FF
330
1F
100
AcDbEntity
  8
0
 62
     7
370
    35
100
AcDbLine
 10
1115.5
 20
432.649994
 30
0.0
 11
1145.5
 21
432.649994
 31
0.0
  0
ARC
  5
100
330
1F
100
AcDbEntity
  8
0
 62
     7
370
    35
100
AcDbCircle
 10
1115.5
 20
431.649994
 30
0.0
 40
0.9999999999999996
100
AcDbArc
 50
90.000003
 51
180.000005
  0
LINE
  5
101
330
1F
100
AcDbEntity
  8
0
 62
     7
370
    35
100
AcDbLine
 10
1115.5
 20
420.149994
 30
0.0
 11
1123.5
 21
420.149994
 31
0.0
  0
LINE
  5
102
330
1F
100
AcDbEntity
  8
0
 62
     7
370
    35
100
AcDbLine
 10
1123.5
 20
420.149994
 30
0.0
 11
1123.5
 21
428.149994
 31
0.0
  0
LINE
  5
103
330
1F
100
AcDbEntity
  8
0
 62
     7
370
    35
100
AcDbLine
 10
1123.5
 20
428.149994
 30
0.0
 11
1115.5
 21
428.149994
 31
0.0
  0
LINE
  5
104
330
1F
100
AcDbEntity
  8
0
 62
     7
370
    35
100
AcDbLine
 10
1115.5
 20
428.149994
 30
0.0
 11
1115.5
 21
420.149994
 31
0.0
  0
LINE
  5
105
330
1F
100
AcDbEntity
  8
0
 62
     7
370
    35
100
AcDbLine
 10
1116.5
 20
424.149994
 30
0.0
 11
1119.5
 21
421.149994
 31
0.0
  0
LINE
  5
106
330
1F
100
AcDbEntity
  8
0
 62
     7
370
    35
100
AcDbLine
 10
1118.5
 20
424.149994
 30
0.0
 11
1116.5
 21
424.149994
 31
0.0
  0
LINE
  5
107
330
1F
100
AcDbEntity
  8
0
 62
     7
370
    35
100
AcDbLine
 10
1118.5
 20
427.149994
 30
0.0
 11
1118.5
 21
424.149994
 31
0.0
  0
LINE
  5
108
330
1F
100
AcDbEntity
  8
0
 62
     7
370
    35
100
AcDbLine
 10
1120.5
 20
427.149994
 30
0.0
 11
1118.5
 21
427.149994
 31
0.0
  0
LINE
  5
109
330
1F
100
AcDbEntity
  8
0
 62
     7
370
    35
100
AcDbLine
 10
1120.5
 20
424.149994
 30
0.0
 11
1120.5
 21
427.149994
 31
0.0
  0
LINE
  5
10A
330
1F
100
AcDbEntity
  8
0
 62
     7
370
    35
100
AcDbLine
 10
1122.5
 20
424.149994
 30
0.0
 11
1120.5
 21
424.149994
 31
0.0
  0
LINE
  5
10B
330
1F
100
AcDbEntity
  8
0
 62
     7
370
    35
100
AcDbLine
 10
1119.5
 20
421.149994
 30
0.0
 11
1122.5
 21
424.149994
 31
0.0
  0
LINE
  5
10C
330
1F
100
AcDbEntity
  8
0
 62
     7
370
    35
100
AcDbLine
 10
1134.800049
 20
423.75
 30
0.0
 11
1145.5
 21
423.75
 31
0.0
  0
LINE
  5
10D
330
1F
100
AcDbEntity
  8
0
 62
     7
370
    35
100
AcDbLine
 10
1145.5
 20
423.75
 30
0.0
 11
1145.5
 21
426.549988
 31
0.0
  0
LINE
  5
10E
330
1F
100
AcDbEntity
  8
0
 62
     7
370
    35
100
AcDbLine
 10
1145.5
 20
426.549988
 30
0.0
 11
1134.800049
 21
426.549988
 31
0.0
  0
LINE
  5
10F
330
1F
100
AcDbEntity
  8
0
 62
     7
370
    35
100
AcDbLine
 10
1134.800049
 20
426.549988
 30
0.0
 11
1134.800049
 21
423.75
 31
0.0
  0
CIRCLE
  5
110
330
1F
100
AcDbEntity
  8
0
 62
     7
370
    35
100
AcDbCircle
 10
1019.5
 20
426.75
 30
0.0
 40
4.0
  0
LINE
  5
111
330
1F
100
AcDbEntity
  8
0
 62
     7
370
    35
100
AcDbLine
 10
1023.5
 20
436.450012
 30
0.0
 11
1021.327271
 21
436.450012
 31
0.0
  0
LINE
  5
112
330
1F
100
AcDbEntity
  8
0
 62
     7
370
    35
100
AcDbLine
 10
1021.327271
 20
436.450012
 30
0.0
 11
1015.5
 21
436.450012
 31
0.0
  0
CIRCLE
  5
113
330
1F
100
AcDbEntity
  8
0
 62
     7
370
    35
100
AcDbCircle
 10
169.5
 20
426.75
 30
0.0
 40
4.0
  0
LINE
  5
114
330
1F
100
AcDbEntity
  8
0
 62
     7
370
    35
100
AcDbLine
 10
173.5
 20
436.450012
 30
0.0
 11
171.327286
 21
436.450012
 31
0.0
  0
LINE
  5
115
330
1F
100
AcDbEntity
  8
0
 62
     7
370
    35
100
AcDbLine
 10
171.327286
 20
436.450012
 30
0.0
 11
165.5
 21
436.450012
 31
0.0
  0
ARC
  5
116
330
1F
100
AcDbEntity
  8
0
 62
     7
370
    35
100
AcDbCircle
 10
590.5
 20
423.649994
 30
0.0
 40
0.5
100
AcDbArc
 50
90.000003
 51
180.000005
  0
LINE
  5
117
330
1F
100
AcDbEntity
  8
0
 62
     7
370
    35
100
AcDbLine
 10
590.0
 20
423.649994
 30
0.0
 11
590.0
 21
419.649994
 31
0.0
  0
ARC
  5
118
330
1F
100
AcDbEntity
  8
0
 62
     7
370
    35
100
AcDbCircle
 10
590.5
 20
419.649994
 30
0.0
 40
0.5
100
AcDbArc
 50
180.000005
 51
269.999997
  0
LINE
  5
119
330
1F
100
AcDbEntity
  8
0
 62
     7
370
    35
100
AcDbLine
 10
598.5
 20
419.149994
 30
0.0
 11
590.5
 21
419.149994
 31
0.0
  0
ARC
  5
11A
330
1F
100
AcDbEntity
  8
0
 62
     7
370
    35
100
AcDbCircle
 10
598.5
 20
419.649994
 30
0.0
 40
0.5
100
AcDbArc
 50
269.999997
 51
360.0
  0
LINE
  5
11B
330
1F
100
AcDbEntity
  8
0
 62
     7
370
    35
100
AcDbLine
 10
599.0
 20
419.649994
 30
0.0
 11
599.0
 21
423.649994
 31
0.0
  0
ARC
  5
11C
330
1F
100
AcDbEntity
  8
0
 62
     7
370
    35
100
AcDbCircle
 10
598.5
 20
423.649994
 30
0.0
 40
0.5
100
AcDbArc
 50
0.0
 51
90.000003
  0
LINE
  5
11D
330
1F
100
AcDbEntity
  8
0
 62
     7
370
    35
100
AcDbLine
 10
590.5
 20
424.149994
 30
0.0
 11
593.5
 21
424.149994
 31
0.0
  0
LINE
  5
11E
330
1F
100
AcDbEntity
  8
0
 62
     7
370
    35
100
AcDbLine
 10
595.5
 20
424.149994
 30
0.0
 11
598.5
 21
424.149994
 31
0.0
  0
LINE
  5
11F
330
1F
100
AcDbEntity
  8
0
 62
     7
370
    35
100
AcDbLine
 10
595.5
 20
424.149994
 30
0.0
 11
595.5
 21
422.149994
 31
0.0
  0
LINE
  5
120
330
1F
100
AcDbEntity
  8
0
 62
     7
370
    35
100
AcDbLine
 10
595.5
 20
422.149994
 30
0.0
 11
597.0
 21
422.149994
 31
0.0
  0
LINE
  5
121
330
1F
100
AcDbEntity
  8
0
 62
     7
370
    35
100
AcDbLine
 10
597.0
 20
422.149994
 30
0.0
 11
594.5
 21
419.649994
 31
0.0
  0
LINE
  5
122
330
1F
100
AcDbEntity
  8
0
 62
     7
370
    35
100
AcDbLine
 10
594.5
 20
419.649994
 30
0.0
 11
592.0
 21
422.149994
 31
0.0
  0
LINE
  5
123
330
1F
100
AcDbEntity
  8
0
 62
     7
370
    35
100
AcDbLine
 10
592.0
 20
422.149994
 30
0.0
 11
593.5
 21
422.149994
 31
0.0
  0
LINE
  5
124
330
1F
100
AcDbEntity
  8
0
 62
     7
370
    35
100
AcDbLine
 10
593.5
 20
422.149994
 30
0.0
 11
593.5
 21
424.149994
 31
0.0
  0
LINE
  5
125
330
1F
100
AcDbEntity
  8
0
 62
     7
370
    35
100
AcDbLine
 10
593.5
 20
424.149994
 30
0.0
 11
595.5
 21
424.149994
 31
0.0
  0
ARC
  5
126
330
1F
100
AcDbEntity
  8
0
 62
     7
370
    35
100
AcDbCircle
 10
594.5
 20
426.75
 30
0.0
 40
4.0
100
AcDbArc
 50
319.458398
 51
220.541607
  0
LINE
  5
127
330
1F
100
AcDbEntity
  8
0
 62
     7
370
    35
100
AcDbLine
 10
598.5
 20
436.450012
 30
0.0
 11
596.327271
 21
436.450012
 31
0.0
  0
LINE
  5
128
330
1F
100
AcDbEntity
  8
0
 62
     7
370
    35
100
AcDbLine
 10
596.327271
 20
436.450012
 30
0.0
 11
590.5
 21
436.450012
 31
0.0
  0
LINE
  5
129
330
1F
100
AcDbEntity
  8
0
 62
     7
370
    35
100
AcDbLine
 10
16.0
 20
434.095947
 30
0.0
 11
16.0
 21
436.25
 31
0.0
  0
LINE
  5
12A
330
1F
100
AcDbEntity
  8
0
 62
     7
370
    35
100
AcDbLine
 10
9.5
 20
434.095947
 30
0.0
 11
9.5
 21
436.25
 31
0.0
  0
LINE
  5
12B
330
1F
100
AcDbEntity
  8
0
 62
     7
370
    35
100
AcDbLine
 10
9.5
 20
434.095947
 30
0.0
 11
9.5
 21
414.549988
 31
0.0
  0
LINE
  5
12C
330
1F
100
AcDbEntity
  8
0
 62
     7
370
    35
100
AcDbLine
 10
16.0
 20
420.25
 30
0.0
 11
16.0
 21
414.549988
 31
0.0
  0
ARC
  5
12D
330
1F
100
AcDbEntity
  8
0
 62
     7
370
    35
100
AcDbCircle
 10
16.0
 20
426.75
 30
0.0
 40
6.5
100
AcDbArc
 50
269.999997
 51
90.000003
  0
LINE
  5
12E
330
1F
100
AcDbEntity
  8
0
 62
     7
370
    35
100
AcDbLine
 10
16.0
 20
434.095947
 30
0.0
 11
16.0
 21
433.25
 31
0.0
  0
CIRCLE
  5
12F
330
1F
100
AcDbEntity
  8
0
 62
     7
370
    35
100
AcDbCircle
 10
16.0
 20
426.75
 30
0.0
 40
5.0
  0
LINE
  5
130
330
1F
100
AcDbEntity
  8
0
 62
     7
370
    35
100
AcDbLine
 10
9.5
 20
412.25
 30
0.0
 11
9.5
 21
414.549988
 31
0.0
  0
LINE
  5
131
330
1F
100
AcDbEntity
  8
0
 62
     7
370
    35
100
AcDbLine
 10
16.0
 20
412.25
 30
0.0
 11
9.5
 21
412.25
 31
0.0
  0
LINE
  5
132
330
1F
100
AcDbEntity
  8
0
 62
     7
370
    35
100
AcDbLine
 10
16.0
 20
412.25
 30
0.0
 11
16.0
 21
414.549988
 31
0.0
  0
LINE
  5
133
330
1F
100
AcDbEntity
  8
0
 62
     7
370
    35
100
AcDbLine
 10
9.5
 20
412.25
 30
0.0
 11
9.5
 21
411.549988
 31
0.0
  0
LINE
  5
134
330
1F
100
AcDbEntity
  8
0
 62
     7
370
    35
100
AcDbLine
 10
16.0
 20
411.549988
 30
0.0
 11
9.5
 21
411.549988
 31
0.0
  0
LINE
  5
135
330
1F
100
AcDbEntity
  8
0
 62
     7
370
    35
100
AcDbLine
 10
16.0
 20
412.25
 30
0.0
 11
16.0
 21
411.549988
 31
0.0
  0
LINE
  5
136
330
1F
100
AcDbEntity
  8
0
 62
     7
370
    35
100
AcDbLine
 10
1179.5
 20
434.095947
 30
0.0
 11
1179.5
 21
436.25
 31
0.0
  0
LINE
  5
137
330
1F
100
AcDbEntity
  8
0
 62
     7
370
    35
100
AcDbLine
 10
1173.0
 20
434.095947
 30
0.0
 11
1173.0
 21
436.25
 31
0.0
  0
LINE
  5
138
330
1F
100
AcDbEntity
  8
0
 62
     7
370
    35
100
AcDbLine
 10
1173.0
 20
434.095947
 30
0.0
 11
1173.0
 21
433.25
 31
0.0
  0
ARC
  5
139
330
1F
100
AcDbEntity
  8
0
 62
     7
370
    35
100
AcDbCircle
 10
1173.0
 20
426.75
 30
0.0
 40
6.5
100
AcDbArc
 50
90.000003
 51
269.999997
  0
LINE
  5
13A
330
1F
100
AcDbEntity
  8
0
 62
     7
370
    35
100
AcDbLine
 10
1173.0
 20
420.25
 30
0.0
 11
1173.0
 21
414.549988
 31
0.0
  0
LINE
  5
13B
330
1F
100
AcDbEntity
  8
0
 62
     7
370
    35
100
AcDbLine
 10
1179.5
 20
434.095947
 30
0.0
 11
1179.5
 21
414.549988
 31
0.0
  0
CIRCLE
  5
13C
330
1F
100
AcDbEntity
  8
0
 62
     7
370
    35
100
AcDbCircle
 10
1173.0
 20
426.75
 30
0.0
 40
5.0
  0
LINE
  5
13D
330
1F
100
AcDbEntity
  8
0
 62
     7
370
    35
100
AcDbLine
 10
1173.0
 20
412.25
 30
0.0
 11
1173.0
 21
414.549988
 31
0.0
  0
LINE
  5
13E
330
1F
100
AcDbEntity
  8
0
 62
     7
370
    35
100
AcDbLine
 10
1173.0
 20
412.25
 30
0.0
 11
1179.5
 21
412.25
 31
0.0
  0
LINE
  5
13F
330
1F
100
AcDbEntity
  8
0
 62
     7
370
    35
100
AcDbLine
 10
1179.5
 20
412.25
 30
0.0
 11
1179.5
 21
414.549988
 31
0.0
  0
LINE
  5
140
330
1F
100
AcDbEntity
  8
0
 62
     7
370
    35
100
AcDbLine
 10
1173.0
 20
412.25
 30
0.0
 11
1173.0
 21
411.549988
 31
0.0
  0
LINE
  5
141
330
1F
100
AcDbEntity
  8
0
 62
     7
370
    35
100
AcDbLine
 10
1173.0
 20
411.549988
 30
0.0
 11
1179.5
 21
411.549988
 31
0.0
  0
LINE
  5
142
330
1F
100
AcDbEntity
  8
0
 62
     7
370
    35
100
AcDbLine
 10
1179.5
 20
412.25
 30
0.0
 11
1179.5
 21
411.549988
 31
0.0
  0
LINE
  5
143
330
1F
100
AcDbEntity
  8
0
 62
     7
370
    35
100
AcDbLine
 10
1173.0
 20
419.149994
 30
0.0
 11
16.0
 21
419.149994
 31
0.0
  0
LINE
  5
144
330
1F
100
AcDbEntity
  8
0
 62
     7
370
    35
100
AcDbLine
 10
139.0
 20
411.75
 30
0.0
 11
139.0
 21
413.350006
 31
0.0
  0
LINE
  5
145
330
1F
100
AcDbEntity
  8
0
 62
     7
370
    35
100
AcDbLine
 10
100.0
 20
411.75
 30
0.0
 11
100.0
 21
413.350006
 31
0.0
  0
LINE
  5
146
330
1F
100
AcDbEntity
  8
0
 62
     7
370
    35
100
AcDbLine
 10
50.5
 20
410.5
 30
0.0
 11
89.499992
 21
410.5
 31
0.0
  0
LINE
  5
147
330
1F
100
AcDbEntity
  8
0
 62
     7
370
    35
100
AcDbLine
 10
50.5
 20
405.0
 30
0.0
 11
89.499992
 21
405.0
 31
0.0
  0
LINE
  5
148
330
1F
100
AcDbEntity
  8
0
 62
     7
370
    35
100
AcDbLine
 10
1023.5
 20
436.25
 30
0.0
 11
1023.5
 21
436.450012
 31
0.0
  0
LINE
  5
149
330
1F
100
AcDbEntity
  8
0
 62
     7
370
    35
100
AcDbLine
 10
1015.5
 20
436.25
 30
0.0
 11
1015.5
 21
436.450012
 31
0.0
  0
LINE
  5
14A
330
1F
100
AcDbEntity
  8
0
 62
     7
370
    35
100
AcDbLine
 10
173.5
 20
436.25
 30
0.0
 11
173.5
 21
436.450012
 31
0.0
  0
LINE
  5
14B
330
1F
100
AcDbEntity
  8
0
 62
     7
370
    35
100
AcDbLine
 10
165.5
 20
436.25
 30
0.0
 11
165.5
 21
436.450012
 31
0.0
  0
LINE
  5
14C
330
1F
100
AcDbEntity
  8
0
 62
     7
370
    35
100
AcDbLine
 10
598.5
 20
436.25
 30
0.0
 11
598.5
 21
436.450012
 31
0.0
  0
LINE
  5
14D
330
1F
100
AcDbEntity
  8
0
 62
     7
370
    35
100
AcDbLine
 10
590.5
 20
436.25
 30
0.0
 11
590.5
 21
436.450012
 31
0.0
  0
LINE
  5
14E
330
1F
100
AcDbEntity
  8
0
  6
DASHDOT
 62
     7
 48
0.276999
370
    13
100
AcDbLine
 10
1265.062988
 20
407.75
 30
0.0
 11
1253.983032
 21
407.75
 31
0.0
  0
LINE
  5
14F
330
1F
100
AcDbEntity
  8
0
  6
DASHDOT
 62
     7
 48
0.277
370
    13
100
AcDbLine
 10
1259.522949
 20
413.290009
 30
0.0
 11
1259.522949
 21
402.209991
 31
0.0
  0
LINE
  5
150
330
1F
100
AcDbEntity
  8
0
  6
DASHDOT
 62
     7
 48
0.264499
370
    13
100
AcDbLine
 10
1265.012939
 20
407.75
 30
0.0
 11
1254.432983
 21
407.75
 31
0.0
  0
LINE
  5
151
330
1F
100
AcDbEntity
  8
0
  6
DASHDOT
 62
     7
 48
0.2645
370
    13
100
AcDbLine
 10
1259.723022
 20
413.040009
 30
0.0
 11
1259.723022
 21
402.459991
 31
0.0
  0
LINE
  5
152
330
1F
100
AcDbEntity
  8
0
 62
     7
370
    35
100
AcDbLine
 10
1272.723022
 20
436.25
 30
0.0
 11
1253.922974
 21
436.25
 31
0.0
  0
LINE
  5
153
330
1F
100
AcDbEntity
  8
0
 62
     7
370
    35
100
AcDbLine
 10
1273.973022
 20
431.649994
 30
0.0
 11
1273.973022
 21
429.099182
 31
0.0
  0
LINE
  5
154
330
1F
100
AcDbEntity
  8
0
 62
     7
370
    35
100
AcDbLine
 10
1273.973022
 20
429.099182
 30
0.0
 11
1273.973022
 21
421.850006
 31
0.0
  0
LINE
  5
155
330
1F
100
AcDbEntity
  8
0
 62
     7
370
    35
100
AcDbLine
 10
1274.122925
 20
428.90271
 30
0.0
 11
1274.122925
 21
422.259796
 31
0.0
  0
LINE
  5
156
330
1F
100
AcDbEntity
  8
0
 62
     7
370
    35
100
AcDbLine
 10
1274.122925
 20
431.240204
 30
0.0
 11
1274.122925
 21
428.90271
 31
0.0
  0
LINE
  5
157
330
1F
100
AcDbEntity
  8
0
 62
     7
370
    35
100
AcDbLine
 10
1274.122925
 20
419.75
 30
0.0
 11
1273.522583
 21
419.75
 31
0.0
  0
LINE
  5
158
330
1F
100
AcDbEntity
  8
0
 62
     7
370
    35
100
AcDbLine
 10
1274.122925
 20
422.75
 30
0.0
 11
1274.122925
 21
419.75
 31
0.0
  0
LINE
  5
159
330
1F
100
AcDbEntity
  8
0
 62
     7
370
    35
100
AcDbLine
 10
1274.122925
 20
431.239807
 30
0.0
 11
1274.122925
 21
441.75
 31
0.0
  0
LINE
  5
15A
330
1F
100
AcDbEntity
  8
0
 62
     7
370
    35
100
AcDbLine
 10
1272.522949
 20
436.249603
 30
0.0
 11
1272.522949
 21
441.75
 31
0.0
  0
LINE
  5
15B
330
1F
100
AcDbEntity
  8
0
 62
     7
370
    35
100
AcDbLine
 10
1274.122925
 20
446.75
 30
0.0
 11
1274.122925
 21
441.75
 31
0.0
  0
LINE
  5
15C
330
1F
100
AcDbEntity
  8
0
 62
     7
370
    35
100
AcDbLine
 10
1274.122925
 20
446.75
 30
0.0
 11
1272.522949
 21
446.75
 31
0.0
  0
LINE
  5
15D
330
1F
100
AcDbEntity
  8
0
 62
     7
370
    35
100
AcDbLine
 10
1272.522949
 20
446.75
 30
0.0
 11
1272.522949
 21
441.75
 31
0.0
  0
LINE
  5
15E
330
1F
100
AcDbEntity
  8
0
 62
     7
370
    35
100
AcDbLine
 10
1265.022949
 20
411.75
 30
0.0
 11
1265.022949
 21
411.79129
 31
0.0
  0
LINE
  5
15F
330
1F
100
AcDbEntity
  8
0
 62
     7
370
    35
100
AcDbLine
 10
1265.022949
 20
410.75
 30
0.0
 11
1265.022949
 21
411.75
 31
0.0
  0
LINE
  5
160
330
1F
100
AcDbEntity
  8
0
 62
     7
370
    35
100
AcDbLine
 10
1265.022949
 20
410.75
 30
0.0
 11
1264.922974
 21
410.75
 31
0.0
  0
LINE
  5
161
330
1F
100
AcDbEntity
  8
0
 62
     7
370
    35
100
AcDbLine
 10
1259.522949
 20
410.75
 30
0.0
 11
1261.223022
 21
410.75
 31
0.0
  0
LINE
  5
162
330
1F
100
AcDbEntity
  8
0
 62
     7
370
    35
100
AcDbLine
 10
1264.922974
 20
410.75
 30
0.0
 11
1264.922974
 21
404.75
 31
0.0
  0
LINE
  5
163
330
1F
100
AcDbEntity
  8
0
 62
     7
370
    35
100
AcDbLine
 10
1253.922974
 20
411.75
 30
0.0
 11
1261.783691
 21
411.75
 31
0.0
  0
LINE
  5
164
330
1F
100
AcDbEntity
  8
0
 62
     7
370
    35
100
AcDbLine
 10
1264.860718
 20
411.75
 30
0.0
 11
1265.022949
 21
411.75
 31
0.0
  0
LINE
  5
165
330
1F
100
AcDbEntity
  8
0
 62
     7
370
    35
100
AcDbLine
 10
1253.922974
 20
409.25
 30
0.0
 11
1253.922974
 21
411.75
 31
0.0
  0
LINE
  5
166
330
1F
100
AcDbEntity
  8
0
 62
     7
370
    35
100
AcDbLine
 10
1253.122925
 20
409.25
 30
0.0
 11
1253.922974
 21
409.25
 31
0.0
  0
LINE
  5
167
330
1F
100
AcDbEntity
  8
0
 62
     7
370
    35
100
AcDbLine
 10
1253.122925
 20
409.25
 30
0.0
 11
1253.122925
 21
404.25
 31
0.0
  0
LINE
  5
168
330
1F
100
AcDbEntity
  8
0
 62
     7
370
    35
100
AcDbLine
 10
1253.122925
 20
404.25
 30
0.0
 11
1258.223022
 21
404.25
 31
0.0
  0
LINE
  5
169
330
1F
100
AcDbEntity
  8
0
 62
     7
370
    35
100
AcDbLine
 10
1258.223022
 20
395.25
 30
0.0
 11
1258.223022
 21
404.25
 31
0.0
  0
LINE
  5
16A
330
1F
100
AcDbEntity
  8
0
 62
     7
370
    35
100
AcDbLine
 10
1253.122925
 20
395.25
 30
0.0
 11
1258.223022
 21
395.25
 31
0.0
  0
LINE
  5
16B
330
1F
100
AcDbEntity
  8
0
 62
     7
370
    35
100
AcDbLine
 10
1253.122925
 20
395.25
 30
0.0
 11
1253.122925
 21
394.25
 31
0.0
  0
LINE
  5
16C
330
1F
100
AcDbEntity
  8
0
 62
     7
370
    35
100
AcDbLine
 10
1253.122925
 20
394.25
 30
0.0
 11
1265.122925
 21
394.25
 31
0.0
  0
LINE
  5
16D
330
1F
100
AcDbEntity
  8
0
 62
     7
370
    35
100
AcDbLine
 10
1265.122925
 20
404.75
 30
0.0
 11
1265.122925
 21
394.25
 31
0.0
  0
LINE
  5
16E
330
1F
100
AcDbEntity
  8
0
 62
     7
370
    35
100
AcDbLine
 10
1265.122925
 20
404.75
 30
0.0
 11
1264.922974
 21
404.75
 31
0.0
  0
LINE
  5
16F
330
1F
100
AcDbEntity
  8
0
 62
     7
370
    35
100
AcDbLine
 10
1261.223022
 20
410.75
 30
0.0
 11
1261.223022
 21
410.348083
 31
0.0
  0
ARC
  5
170
330
1F
100
AcDbEntity
  8
0
 62
     7
370
    35
100
AcDbCircle
 10
1259.723022
 20
407.75
 30
0.0
 40
3.0
100
AcDbArc
 50
299.999998
 51
60.000002
  0
LINE
  5
171
330
1F
100
AcDbEntity
  8
0
 62
     7
370
    35
100
AcDbLine
 10
1261.223022
 20
404.75
 30
0.0
 11
1261.223022
 21
405.151917
 31
0.0
  0
LINE
  5
172
330
1F
100
AcDbEntity
  8
0
 62
     7
370
    35
100
AcDbLine
 10
1261.223022
 20
404.75
 30
0.0
 11
1259.522949
 21
404.75
 31
0.0
  0
ARC
  5
173
330
1F
100
AcDbEntity
  8
0
 62
     7
370
    35
100
AcDbCircle
 10
1259.522949
 20
407.75
 30
0.0
 40
3.0
100
AcDbArc
 50
90.000003
 51
269.999997
  0
LINE
  5
174
330
1F
100
AcDbEntity
  8
0
 62
     7
370
    35
100
AcDbLine
 10
1253.122925
 20
395.25
 30
0.0
 11
1253.122925
 21
404.25
 31
0.0
  0
LINE
  5
175
330
1F
100
AcDbEntity
  8
0
 62
     7
370
    35
100
AcDbLine
 10
1261.958984
 20
405.75
 30
0.0
 11
1260.849609
 21
405.75
 31
0.0
  0
LINE
  5
176
330
1F
100
AcDbEntity
  8
0
 62
     7
370
    35
100
AcDbLine
 10
1253.422974
 20
409.249969
 30
0.0
 11
1253.422974
 21
409.75
 31
0.0
  0
LINE
  5
177
330
1F
100
AcDbEntity
  8
0
 62
     7
370
    35
100
AcDbLine
 10
1253.922974
 20
409.75
 30
0.0
 11
1253.422974
 21
409.75
 31
0.0
  0
LINE
  5
178
330
1F
100
AcDbEntity
  8
0
 62
     7
370
    35
100
AcDbLine
 10
1262.522949
 20
408.75
 30
0.0
 11
1261.704712
 21
408.75
 31
0.0
  0
LINE
  5
179
330
1F
100
AcDbEntity
  8
0
 62
     7
370
    35
100
AcDbLine
 10
1260.619385
 20
412.046387
 30
0.0
 11
1260.322998
 21
411.75
 31
0.0
  0
LINE
  5
17A
330
1F
100
AcDbEntity
  8
0
 62
     7
370
    35
100
AcDbLine
 10
1265.223022
 20
409.75
 30
0.0
 11
1265.223022
 21
411.842194
 31
0.0
  0
LINE
  5
17B
330
1F
100
AcDbEntity
  8
0
 62
     7
370
    35
100
AcDbLine
 10
1265.223022
 20
409.75
 30
0.0
 11
1264.922974
 21
406.75
 31
0.0
  0
LINE
  5
17C
330
1F
100
AcDbEntity
  8
0
 62
     7
370
    35
100
AcDbLine
 10
1262.522949
 20
406.672974
 30
0.0
 11
1262.522949
 21
408.826996
 31
0.0
  0
LINE
  5
17D
330
1F
100
AcDbEntity
  8
0
 62
     7
370
    35
100
AcDbLine
 10
1260.970459
 20
405.835632
 30
0.0
 11
1262.002441
 21
405.799622
 31
0.0
  0
ARC
  5
17E
330
1F
100
AcDbEntity
  8
0
 62
     7
370
    35
100
AcDbCircle
 10
1260.822998
 20
405.383575
 30
0.0
 40
0.3
100
AcDbArc
 50
118.782208
 51
180.000005
  0
LINE
  5
17F
330
1F
100
AcDbEntity
  8
0
 62
     7
370
    35
100
AcDbLine
 10
1260.522949
 20
405.383575
 30
0.0
 11
1260.522949
 21
405.049988
 31
0.0
  0
ARC
  5
180
330
1F
100
AcDbEntity
  8
0
 62
     7
370
    35
100
AcDbCircle
 10
1260.223022
 20
405.049988
 30
0.0
 40
0.2999999999999998
100
AcDbArc
 50
269.999997
 51
360.0
  0
ARC
  5
181
330
1F
100
AcDbEntity
  8
0
 62
     7
370
    35
100
AcDbCircle
 10
1260.223022
 20
410.450012
 30
0.0
 40
0.3
100
AcDbArc
 50
0.0
 51
90.000003
  0
LINE
  5
182
330
1F
100
AcDbEntity
  8
0
 62
     7
370
    35
100
AcDbLine
 10
1260.522949
 20
410.450012
 30
0.0
 11
1260.522949
 21
410.116425
 31
0.0
  0
ARC
  5
183
330
1F
100
AcDbEntity
  8
0
 62
     7
370
    35
100
AcDbCircle
 10
1260.822998
 20
410.116425
 30
0.0
 40
0.2999999999999999
100
AcDbArc
 50
179.999995
 51
241.217792
  0
ARC
  5
184
330
1F
100
AcDbEntity
  8
0
 62
     7
370
    35
100
AcDbCircle
 10
1259.522949
 20
407.75
 30
0.0
 40
2.4
100
AcDbArc
 50
298.782203
 51
61.217797
  0
ARC
  5
185
330
1F
100
AcDbEntity
  8
0
 62
     7
370
    35
100
AcDbCircle
 10
1259.723022
 20
407.75
 30
0.0
 40
2.75
100
AcDbArc
 50
313.341567
 51
315.166024
  0
LINE
  5
186
330
1F
100
AcDbEntity
  8
0
 62
     7
370
    35
100
AcDbLine
 10
1267.322998
 20
436.450012
 30
0.0
 11
1259.764771
 21
436.450012
 31
0.0
  0
LINE
  5
187
330
1F
100
AcDbEntity
  8
0
 62
     7
370
    35
100
AcDbLine
 10
1259.764771
 20
436.450012
 30
0.0
 11
1259.322998
 21
436.450012
 31
0.0
  0
ARC
  5
188
330
1F
100
AcDbEntity
  8
0
 62
     7
370
    35
100
AcDbCircle
 10
1256.422974
 20
434.095947
 30
0.0
 40
3.3
100
AcDbArc
 50
139.250946
 51
180.000005
  0
LINE
  5
189
330
1F
100
AcDbEntity
  8
0
 62
     7
370
    35
100
AcDbLine
 10
1253.122925
 20
434.095947
 30
0.0
 11
1253.122925
 21
414.549988
 31
0.0
  0
ARC
  5
18A
330
1F
100
AcDbEntity
  8
0
 62
     7
370
    35
100
AcDbCircle
 10
1270.223022
 20
434.095947
 30
0.0
 40
3.3
100
AcDbArc
 50
360.0
 51
40.749055
  0
ARC
  5
18B
330
1F
100
AcDbEntity
  8
0
 62
     7
370
    35
100
AcDbCircle
 10
1255.422974
 20
414.549988
 30
0.0
 40
2.3
100
AcDbArc
 50
180.000005
 51
269.999997
  0
LINE
  5
18C
330
1F
100
AcDbEntity
  8
0
 62
     7
370
    35
100
AcDbLine
 10
1255.422974
 20
412.25
 30
0.0
 11
1259.822998
 21
412.25
 31
0.0
  0
LINE
  5
18D
330
1F
100
AcDbEntity
  8
0
 62
     7
370
    35
100
AcDbLine
 10
1259.822998
 20
412.25
 30
0.0
 11
1262.572998
 21
411.549988
 31
0.0
  0
LINE
  5
18E
330
1F
100
AcDbEntity
  8
0
 62
     7
370
    35
100
AcDbLine
 10
1262.572998
 20
411.549988
 30
0.0
 11
1264.072998
 21
411.549988
 31
0.0
  0
LINE
  5
18F
330
1F
100
AcDbEntity
  8
0
 62
     7
370
    35
100
AcDbLine
 10
1264.072998
 20
411.549988
 30
0.0
 11
1266.822998
 21
412.25
 31
0.0
  0
LINE
  5
190
330
1F
100
AcDbEntity
  8
0
 62
     7
370
    35
100
AcDbLine
 10
1266.822998
 20
412.25
 30
0.0
 11
1271.223022
 21
412.25
 31
0.0
  0
ARC
  5
191
330
1F
100
AcDbEntity
  8
0
 62
     7
370
    35
100
AcDbCircle
 10
1271.223022
 20
414.549988
 30
0.0
 40
2.300000000000001
100
AcDbArc
 50
269.999997
 51
360.0
  0
LINE
  5
192
330
1F
100
AcDbEntity
  8
0
 62
     7
370
    35
100
AcDbLine
 10
1273.522949
 20
414.549988
 30
0.0
 11
1273.522949
 21
434.095947
 31
0.0
  0
LINE
  5
193
330
1F
100
AcDbEntity
  8
0
 62
     7
370
    35
100
AcDbLine
 10
1272.212524
 20
435.25
 30
0.0
 11
1254.433472
 21
435.25
 31
0.0
  0
ARC
  5
194
330
1F
100
AcDbEntity
  8
0
 62
     7
370
    35
100
AcDbCircle
 10
1256.422974
 20
434.095947
 30
0.0
 40
2.300000000059505
100
AcDbArc
 50
149.882969
 51
180.000005
  0
LINE
  5
195
330
1F
100
AcDbEntity
  8
0
 62
     7
370
    35
100
AcDbLine
 10
1254.122925
 20
434.095947
 30
0.0
 11
1254.122925
 21
414.549988
 31
0.0
  0
ARC
  5
196
330
1F
100
AcDbEntity
  8
0
 62
     7
370
    35
100
AcDbCircle
 10
1255.422974
 20
414.549988
 30
0.0
 40
1.300000000363393
100
AcDbArc
 50
180.000005
 51
269.999997
  0
LINE
  5
197
330
1F
100
AcDbEntity
  8
0
 62
     7
370
    35
100
AcDbLine
 10
1255.422974
 20
413.25
 30
0.0
 11
1259.948242
 21
413.25
 31
0.0
  0
LINE
  5
198
330
1F
100
AcDbEntity
  8
0
 62
     7
370
    35
100
AcDbLine
 10
1259.948242
 20
413.25
 30
0.0
 11
1262.698242
 21
412.549988
 31
0.0
  0
LINE
  5
199
330
1F
100
AcDbEntity
  8
0
 62
     7
370
    35
100
AcDbLine
 10
1262.698242
 20
412.549988
 30
0.0
 11
1263.947754
 21
412.549988
 31
0.0
  0
LINE
  5
19A
330
1F
100
AcDbEntity
  8
0
 62
     7
370
    35
100
AcDbLine
 10
1263.947754
 20
412.549988
 30
0.0
 11
1266.697754
 21
413.25
 31
0.0
  0
LINE
  5
19B
330
1F
100
AcDbEntity
  8
0
 62
     7
370
    35
100
AcDbLine
 10
1266.697754
 20
413.25
 30
0.0
 11
1271.223022
 21
413.25
 31
0.0
  0
ARC
  5
19C
330
1F
100
AcDbEntity
  8
0
 62
     7
370
    35
100
AcDbCircle
 10
1271.223022
 20
414.549988
 30
0.0
 40
1.300000000158153
100
AcDbArc
 50
269.999997
 51
0.0
  0
LINE
  5
19D
330
1F
100
AcDbEntity
  8
0
 62
     7
370
    35
100
AcDbLine
 10
1272.522949
 20
414.549988
 30
0.0
 11
1272.522949
 21
434.095947
 31
0.0
  0
ARC
  5
19E
330
1F
100
AcDbEntity
  8
0
 62
     7
370
    35
100
AcDbCircle
 10
1270.223022
 20
434.095947
 30
0.0
 40
2.299999999404121
100
AcDbArc
 50
0.0
 51
30.117026
  0
ARC
  5
19F
330
1F
100
AcDbEntity
  8
0
 62
     7
370
    35
100
AcDbCircle
 10
1255.372925
 20
424.149994
 30
0.0
 40
0.4000000000000004
100
AcDbArc
 50
180.000005
 51
269.999997
  0
LINE
  5
1A0
330
1F
100
AcDbEntity
  8
0
 62
     7
370
    35
100
AcDbLine
 10
1254.973022
 20
424.149994
 30
0.0
 11
1254.973022
 21
429.350006
 31
0.0
  0
ARC
  5
1A1
330
1F
100
AcDbEntity
  8
0
 62
     7
370
    35
100
AcDbCircle
 10
1255.372925
 20
429.350006
 30
0.0
 40
0.3999999999999999
100
AcDbArc
 50
90.000003
 51
180.000005
  0
LINE
  5
1A2
330
1F
100
AcDbEntity
  8
0
 62
     7
370
    35
100
AcDbLine
 10
1255.372925
 20
429.75
 30
0.0
 11
1271.272949
 21
429.75
 31
0.0
  0
ARC
  5
1A3
330
1F
100
AcDbEntity
  8
0
 62
     7
370
    35
100
AcDbCircle
 10
1271.272949
 20
429.350006
 30
0.0
 40
0.4000000000000004
100
AcDbArc
 50
0.0
 51
90.000003
  0
LINE
  5
1A4
330
1F
100
AcDbEntity
  8
0
 62
     7
370
    35
100
AcDbLine
 10
1271.672974
 20
429.350006
 30
0.0
 11
1271.672974
 21
424.149994
 31
0.0
  0
LINE
  5
1A5
330
1F
100
AcDbEntity
  8
0
 62
     7
370
    35
100
AcDbLine
 10
1271.272949
 20
423.75
 30
0.0
 11
1255.372925
 21
423.75
 31
0.0
  0
ARC
  5
1A6
330
1F
100
AcDbEntity
  8
0
 62
     7
370
    35
100
AcDbCircle
 10
1271.272949
 20
424.149994
 30
0.0
 40
0.3999999999999999
100
AcDbArc
 50
269.999997
 51
360.0
  0
LINE
  5
1A7
330
1F
100
AcDbEntity
  8
0
 62
     7
370
    35
100
AcDbLine
 10
1273.973022
 20
431.649994
 30
0.0
 11
1273.522949
 21
431.649994
 31
0.0
  0
LINE
  5
1A8
330
1F
100
AcDbEntity
  8
0
 62
     7
370
    35
100
AcDbLine
 10
1273.973022
 20
421.850006
 30
0.0
 11
1273.522949
 21
421.850006
 31
0.0
  0
LINE
  5
1A9
330
1F
100
AcDbEntity
  8
0
 62
     7
370
    35
100
AcDbLine
 10
1274.122925
 20
422.259796
 30
0.0
 11
1273.973022
 21
422.0
 31
0.0
  0
LINE
  5
1AA
330
1F
100
AcDbEntity
  8
0
 62
     7
370
    35
100
AcDbLine
 10
1274.122925
 20
431.240204
 30
0.0
 11
1273.973022
 21
431.5
 31
0.0
  0
LINE
  5
1AB
330
1F
100
AcDbEntity
  8
0
 62
     7
370
    35
100
AcDbLine
 10
1267.322998
 20
436.25
 30
0.0
 11
1267.322998
 21
436.450012
 31
0.0
  0
LINE
  5
1AC
330
1F
100
AcDbEntity
  8
0
 62
     7
370
    35
100
AcDbLine
 10
1259.322998
 20
436.25
 30
0.0
 11
1259.322998
 21
436.450012
 31
0.0
  0
LINE
  5
1AD
330
1F
100
AcDbEntity
  8
0
 62
     7
370
    35
100
AcDbLine
 10
1267.322998
 20
436.25
 30
0.0
 11
1267.322998
 21
436.450012
 31
0.0
  0
LINE
  5
1AE
330
1F
100
AcDbEntity
  8
0
 62
     7
370
    35
100
AcDbLine
 10
1267.322998
 20
436.25
 30
0.0
 11
1267.322998
 21
436.450012
 31
0.0
  0
LINE
  5
1AF
330
1F
100
AcDbEntity
  8
0
  6
DASHDOT
 62
     7
 48
0.20805
370
    13
100
AcDbLine
 10
141.660995
 20
261.759857
 30
0.0
 11
133.338989
 21
261.759857
 31
0.0
  0
LINE
  5
1B0
330
1F
100
AcDbEntity
  8
0
  6
DASHDOT
 62
     7
 48
0.20805
370
    13
100
AcDbLine
 10
137.5
 20
265.920868
 30
0.0
 11
137.5
 21
257.598877
 31
0.0
  0
LINE
  5
1B1
330
1F
100
AcDbEntity
  8
0
  6
DASHDOT
 62
     7
 48
0.20805
370
    13
100
AcDbLine
 10
105.661003
 20
261.759857
 30
0.0
 11
97.338997
 21
261.759857
 31
0.0
  0
LINE
  5
1B2
330
1F
100
AcDbEntity
  8
0
  6
DASHDOT
 62
     7
 48
0.20805
370
    13
100
AcDbLine
 10
101.5
 20
265.920868
 30
0.0
 11
101.5
 21
257.598877
 31
0.0
  0
LINE
  5
1B3
330
1F
100
AcDbEntity
  8
0
 62
     7
370
    35
100
AcDbLine
 10
1173.0
 20
267.059875
 30
0.0
 11
149.499985
 21
267.059875
 31
0.0
  0
LINE
  5
1B4
330
1F
100
AcDbEntity
  8
0
 62
     7
370
    35
100
AcDbLine
 10
126.999985
 20
267.059875
 30
0.0
 11
124.499992
 21
267.059875
 31
0.0
  0
LINE
  5
1B5
330
1F
100
AcDbEntity
  8
0
 62
     7
370
    35
100
AcDbLine
 10
114.499992
 20
267.059875
 30
0.0
 11
111.999985
 21
267.059875
 31
0.0
  0
LINE
  5
1B6
330
1F
100
AcDbEntity
  8
0
 62
     7
370
    35
100
AcDbLine
 10
89.499985
 20
267.059875
 30
0.0
 11
16.0
 21
267.059875
 31
0.0
  0
LINE
  5
1B7
330
1F
100
AcDbEntity
  8
0
 62
     7
370
    35
100
AcDbLine
 10
1173.0
 20
261.359863
 30
0.0
 11
149.499985
 21
261.359863
 31
0.0
  0
LINE
  5
1B8
330
1F
100
AcDbEntity
  8
0
 62
     7
370
    35
100
AcDbLine
 10
50.5
 20
261.359863
 30
0.0
 11
15.999998
 21
261.359863
 31
0.0
  0
LINE
  5
1B9
330
1F
100
AcDbEntity
  8
0
 62
     7
370
    35
100
AcDbLine
 10
149.499985
 20
257.459869
 30
0.0
 11
1173.0
 21
257.459869
 31
0.0
  0
LINE
  5
1BA
330
1F
100
AcDbEntity
  8
0
 62
     7
370
    35
100
AcDbLine
 10
15.999997
 20
257.459869
 30
0.0
 11
89.499985
 21
257.459869
 31
0.0
  0
LINE
  5
1BB
330
1F
100
AcDbEntity
  8
0
 62
     7
370
    35
100
AcDbLine
 10
1173.0
 20
247.859863
 30
0.0
 11
16.0
 21
247.859863
 31
0.0
  0
LINE
  5
1BC
330
1F
100
AcDbEntity
  8
0
 62
     7
370
    35
100
AcDbLine
 10
1173.0
 20
253.559875
 30
0.0
 11
15.999998
 21
253.559875
 31
0.0
  0
LINE
  5
1BD
330
1F
100
AcDbEntity
  8
0
 62
     7
370
    35
100
AcDbLine
 10
33.0
 20
267.259857
 30
0.0
 11
33.0
 21
267.059845
 31
0.0
  0
ARC
  5
1BE
330
1F
100
AcDbEntity
  8
0
 62
     7
370
    35
100
AcDbCircle
 10
32.700001
 20
267.259857
 30
0.0
 40
0.3
100
AcDbArc
 50
0.0
 51
90.000003
  0
ARC
  5
1BF
330
1F
100
AcDbEntity
  8
0
 62
     7
370
    35
100
AcDbCircle
 10
29.299999
 20
267.259857
 30
0.0
 40
0.3
100
AcDbArc
 50
90.000003
 51
180.000005
  0
LINE
  5
1C0
330
1F
100
AcDbEntity
  8
0
 62
     7
370
    35
100
AcDbLine
 10
33.0
 20
267.259857
 30
0.0
 11
33.0
 21
267.059875
 31
0.0
  0
LINE
  5
1C1
330
1F
100
AcDbEntity
  8
0
 62
     7
370
    35
100
AcDbLine
 10
29.0
 20
267.259857
 30
0.0
 11
29.0
 21
267.059875
 31
0.0
  0
LINE
  5
1C2
330
1F
100
AcDbEntity
  8
0
 62
     7
370
    35
100
AcDbLine
 10
29.299999
 20
267.559875
 30
0.0
 11
32.700001
 21
267.559875
 31
0.0
  0
ARC
  5
1C3
330
1F
100
AcDbEntity
  8
0
 62
     7
370
    35
100
AcDbCircle
 10
32.700001
 20
267.259857
 30
0.0
 40
0.3
100
AcDbArc
 50
0.0
 51
90.000003
  0
ARC
  5
1C4
330
1F
100
AcDbEntity
  8
0
 62
     7
370
    35
100
AcDbCircle
 10
29.299999
 20
267.259857
 30
0.0
 40
0.3
100
AcDbArc
 50
90.000003
 51
180.000005
  0
LINE
  5
1C5
330
1F
100
AcDbEntity
  8
0
 62
     7
370
    35
100
AcDbLine
 10
33.0
 20
247.659866
 30
0.0
 11
33.0
 21
247.859863
 31
0.0
  0
LINE
  5
1C6
330
1F
100
AcDbEntity
  8
0
 62
     7
370
    35
100
AcDbLine
 10
33.0
 20
247.659866
 30
0.0
 11
33.0
 21
247.859863
 31
0.0
  0
LINE
  5
1C7
330
1F
100
AcDbEntity
  8
0
 62
     7
370
    35
100
AcDbLine
 10
29.0
 20
247.659866
 30
0.0
 11
29.0
 21
247.859863
 31
0.0
  0
LINE
  5
1C8
330
1F
100
AcDbEntity
  8
0
 62
     7
370
    35
100
AcDbLine
 10
32.700001
 20
247.359863
 30
0.0
 11
29.299999
 21
247.359863
 31
0.0
  0
ARC
  5
1C9
330
1F
100
AcDbEntity
  8
0
 62
     7
370
    35
100
AcDbCircle
 10
32.700001
 20
247.659866
 30
0.0
 40
0.3
100
AcDbArc
 50
269.999997
 51
360.0
  0
ARC
  5
1CA
330
1F
100
AcDbEntity
  8
0
 62
     7
370
    35
100
AcDbCircle
 10
29.299999
 20
247.659866
 30
0.0
 40
0.3
100
AcDbArc
 50
180.000005
 51
269.999997
  0
LINE
  5
1CB
330
1F
100
AcDbEntity
  8
0
 62
     7
370
    35
100
AcDbLine
 10
1160.0
 20
267.259857
 30
0.0
 11
1160.0
 21
267.059845
 31
0.0
  0
ARC
  5
1CC
330
1F
100
AcDbEntity
  8
0
 62
     7
370
    35
100
AcDbCircle
 10
1159.699951
 20
267.259857
 30
0.0
 40
0.3
100
AcDbArc
 50
0.0
 51
90.000003
  0
ARC
  5
1CD
330
1F
100
AcDbEntity
  8
0
 62
     7
370
    35
100
AcDbCircle
 10
1156.300049
 20
267.259857
 30
0.0
 40
0.3
100
AcDbArc
 50
90.000003
 51
180.000005
  0
LINE
  5
1CE
330
1F
100
AcDbEntity
  8
0
 62
     7
370
    35
100
AcDbLine
 10
1160.0
 20
267.259857
 30
0.0
 11
1160.0
 21
267.059875
 31
0.0
  0
LINE
  5
1CF
330
1F
100
AcDbEntity
  8
0
 62
     7
370
    35
100
AcDbLine
 10
1156.0
 20
267.259857
 30
0.0
 11
1156.0
 21
267.059875
 31
0.0
  0
LINE
  5
1D0
330
1F
100
AcDbEntity
  8
0
 62
     7
370
    35
100
AcDbLine
 10
1156.300049
 20
267.559875
 30
0.0
 11
1159.699951
 21
267.559875
 31
0.0
  0
ARC
  5
1D1
330
1F
100
AcDbEntity
  8
0
 62
     7
370
    35
100
AcDbCircle
 10
1159.699951
 20
267.259857
 30
0.0
 40
0.3
100
AcDbArc
 50
0.0
 51
90.000003
  0
ARC
  5
1D2
330
1F
100
AcDbEntity
  8
0
 62
     7
370
    35
100
AcDbCircle
 10
1156.300049
 20
267.259857
 30
0.0
 40
0.3
100
AcDbArc
 50
90.000003
 51
180.000005
  0
LINE
  5
1D3
330
1F
100
AcDbEntity
  8
0
 62
     7
370
    35
100
AcDbLine
 10
1160.0
 20
247.659866
 30
0.0
 11
1160.0
 21
247.859863
 31
0.0
  0
LINE
  5
1D4
330
1F
100
AcDbEntity
  8
0
 62
     7
370
    35
100
AcDbLine
 10
1160.0
 20
247.659866
 30
0.0
 11
1160.0
 21
247.859863
 31
0.0
  0
LINE
  5
1D5
330
1F
100
AcDbEntity
  8
0
 62
     7
370
    35
100
AcDbLine
 10
1156.0
 20
247.659866
 30
0.0
 11
1156.0
 21
247.859863
 31
0.0
  0
LINE
  5
1D6
330
1F
100
AcDbEntity
  8
0
 62
     7
370
    35
100
AcDbLine
 10
1159.699951
 20
247.359863
 30
0.0
 11
1156.300049
 21
247.359863
 31
0.0
  0
ARC
  5
1D7
330
1F
100
AcDbEntity
  8
0
 62
     7
370
    35
100
AcDbCircle
 10
1159.699951
 20
247.659866
 30
0.0
 40
0.3
100
AcDbArc
 50
269.999997
 51
360.0
  0
ARC
  5
1D8
330
1F
100
AcDbEntity
  8
0
 62
     7
370
    35
100
AcDbCircle
 10
1156.300049
 20
247.659866
 30
0.0
 40
0.3
100
AcDbArc
 50
180.000005
 51
269.999997
  0
LINE
  5
1D9
330
1F
100
AcDbEntity
  8
0
 62
     7
370
    35
100
AcDbLine
 10
18.349186
 20
246.909866
 30
0.0
 11
11.1
 21
246.909866
 31
0.0
  0
LINE
  5
1DA
330
1F
100
AcDbEntity
  8
0
 62
     7
370
    35
100
AcDbLine
 10
20.9
 20
246.909866
 30
0.0
 11
18.349186
 21
246.909866
 31
0.0
  0
LINE
  5
1DB
330
1F
100
AcDbEntity
  8
0
 62
     7
370
    35
100
AcDbLine
 10
20.490192
 20
246.759872
 30
0.0
 11
18.152714
 21
246.759872
 31
0.0
  0
LINE
  5
1DC
330
1F
100
AcDbEntity
  8
0
 62
     7
370
    35
100
AcDbLine
 10
18.152714
 20
246.759872
 30
0.0
 11
11.509808
 21
246.759872
 31
0.0
  0
LINE
  5
1DD
330
1F
100
AcDbEntity
  8
0
 62
     7
370
    35
100
AcDbLine
 10
1168.699829
 20
246.909866
 30
0.0
 11
1168.099976
 21
246.909866
 31
0.0
  0
LINE
  5
1DE
330
1F
100
AcDbEntity
  8
0
 62
     7
370
    35
100
AcDbLine
 10
1177.900024
 20
246.909866
 30
0.0
 11
1168.699829
 21
246.909866
 31
0.0
  0
LINE
  5
1DF
330
1F
100
AcDbEntity
  8
0
 62
     7
370
    35
100
AcDbLine
 10
1177.490234
 20
246.759872
 30
0.0
 11
1169.059448
 21
246.759872
 31
0.0
  0
LINE
  5
1E0
330
1F
100
AcDbEntity
  8
0
 62
     7
370
    35
100
AcDbLine
 10
1169.059448
 20
246.759872
 30
0.0
 11
1168.509766
 21
246.759872
 31
0.0
  0
LINE
  5
1E1
330
1F
100
AcDbEntity
  8
0
 62
     7
370
    35
100
AcDbLine
 10
584.5
 20
246.759872
 30
0.0
 11
584.5
 21
247.859863
 31
0.0
  0
LINE
  5
1E2
330
1F
100
AcDbEntity
  8
0
 62
     7
370
    35
100
AcDbLine
 10
587.5
 20
246.759872
 30
0.0
 11
584.5
 21
246.759872
 31
0.0
  0
LINE
  5
1E3
330
1F
100
AcDbEntity
  8
0
 62
     7
370
    35
100
AcDbLine
 10
601.5
 20
246.759872
 30
0.0
 11
587.5
 21
246.759872
 31
0.0
  0
LINE
  5
1E4
330
1F
100
AcDbEntity
  8
0
 62
     7
370
    35
100
AcDbLine
 10
604.5
 20
246.759872
 30
0.0
 11
601.5
 21
246.759872
 31
0.0
  0
LINE
  5
1E5
330
1F
100
AcDbEntity
  8
0
 62
     7
370
    35
100
AcDbLine
 10
604.5
 20
246.759872
 30
0.0
 11
604.5
 21
247.859863
 31
0.0
  0
LINE
  5
1E6
330
1F
100
AcDbEntity
  8
0
 62
     7
370
    35
100
AcDbLine
 10
125.5
 20
255.859863
 30
0.0
 11
139.999985
 21
255.859863
 31
0.0
  0
LINE
  5
1E7
330
1F
100
AcDbEntity
  8
0
 62
     7
370
    35
100
AcDbLine
 10
125.5
 20
255.859863
 30
0.0
 11
125.5
 21
255.959869
 31
0.0
  0
LINE
  5
1E8
330
1F
100
AcDbEntity
  8
0
 62
     7
370
    35
100
AcDbLine
 10
149.5
 20
267.759857
 30
0.0
 11
149.5
 21
255.759872
 31
0.0
  0
LINE
  5
1E9
330
1F
100
AcDbEntity
  8
0
 62
     7
370
    35
100
AcDbLine
 10
127.0
 20
267.759857
 30
0.0
 11
149.5
 21
267.759857
 31
0.0
  0
LINE
  5
1EA
330
1F
100
AcDbEntity
  8
0
 62
     7
370
    35
100
AcDbLine
 10
127.0
 20
258.359863
 30
0.0
 11
140.0
 21
258.359863
 31
0.0
  0
LINE
  5
1EB
330
1F
100
AcDbEntity
  8
0
 62
     7
370
    35
100
AcDbLine
 10
140.0
 20
255.759872
 30
0.0
 11
140.0
 21
258.359863
 31
0.0
  0
LINE
  5
1EC
330
1F
100
AcDbEntity
  8
0
 62
     7
370
    35
100
AcDbLine
 10
140.0
 20
255.759872
 30
0.0
 11
149.5
 21
255.759872
 31
0.0
  0
LINE
  5
1ED
330
1F
100
AcDbEntity
  8
0
 62
     7
370
    35
100
AcDbLine
 10
127.0
 20
267.759857
 30
0.0
 11
127.0
 21
266.959869
 31
0.0
  0
LINE
  5
1EE
330
1F
100
AcDbEntity
  8
0
 62
     7
370
    35
100
AcDbLine
 10
127.0
 20
266.959869
 30
0.0
 11
127.0
 21
258.359863
 31
0.0
  0
CIRCLE
  5
1EF
330
1F
100
AcDbEntity
  8
0
 62
     7
370
    35
100
AcDbCircle
 10
137.5
 20
261.759857
 30
0.0
 40
1.621
  0
LINE
  5
1F0
330
1F
100
AcDbEntity
  8
0
 62
     7
370
    35
100
AcDbLine
 10
112.0
 20
267.759857
 30
0.0
 11
112.0
 21
266.959869
 31
0.0
  0
LINE
  5
1F1
330
1F
100
AcDbEntity
  8
0
 62
     7
370
    35
100
AcDbLine
 10
112.0
 20
266.959869
 30
0.0
 11
112.0
 21
258.359863
 31
0.0
  0
LINE
  5
1F2
330
1F
100
AcDbEntity
  8
0
 62
     7
370
    35
100
AcDbLine
 10
89.5
 20
267.759857
 30
0.0
 11
112.0
 21
267.759857
 31
0.0
  0
LINE
  5
1F3
330
1F
100
AcDbEntity
  8
0
 62
     7
370
    35
100
AcDbLine
 10
99.0
 20
255.759872
 30
0.0
 11
99.0
 21
258.359863
 31
0.0
  0
LINE
  5
1F4
330
1F
100
AcDbEntity
  8
0
 62
     7
370
    35
100
AcDbLine
 10
99.0
 20
258.359863
 30
0.0
 11
112.0
 21
258.359863
 31
0.0
  0
LINE
  5
1F5
330
1F
100
AcDbEntity
  8
0
 62
     7
370
    35
100
AcDbLine
 10
89.5
 20
267.759857
 30
0.0
 11
89.5
 21
255.759872
 31
0.0
  0
LINE
  5
1F6
330
1F
100
AcDbEntity
  8
0
 62
     7
370
    35
100
AcDbLine
 10
89.5
 20
255.759872
 30
0.0
 11
99.0
 21
255.759872
 31
0.0
  0
CIRCLE
  5
1F7
330
1F
100
AcDbEntity
  8
0
 62
     7
370
    35
100
AcDbCircle
 10
101.5
 20
261.759857
 30
0.0
 40
1.621000000000002
  0
LINE
  5
1F8
330
1F
100
AcDbEntity
  8
0
 62
     7
370
    35
100
AcDbLine
 10
114.5
 20
267.459869
 30
0.0
 11
117.5
 21
267.459869
 31
0.0
  0
LINE
  5
1F9
330
1F
100
AcDbEntity
  8
0
 62
     7
370
    35
100
AcDbLine
 10
117.5
 20
267.459869
 30
0.0
 11
121.5
 21
267.459869
 31
0.0
  0
LINE
  5
1FA
330
1F
100
AcDbEntity
  8
0
 62
     7
370
    35
100
AcDbLine
 10
121.5
 20
267.459869
 30
0.0
 11
124.5
 21
267.459869
 31
0.0
  0
LINE
  5
1FB
330
1F
100
AcDbEntity
  8
0
 62
     7
370
    35
100
AcDbLine
 10
124.5
 20
266.959869
 30
0.0
 11
124.5
 21
267.459869
 31
0.0
  0
LINE
  5
1FC
330
1F
100
AcDbEntity
  8
0
 62
     7
370
    35
100
AcDbLine
 10
114.5
 20
266.959869
 30
0.0
 11
114.5
 21
267.459869
 31
0.0
  0
LINE
  5
1FD
330
1F
100
AcDbEntity
  8
0
 62
     7
370
    35
100
AcDbLine
 10
117.5
 20
266.959869
 30
0.0
 11
117.5
 21
267.459869
 31
0.0
  0
LINE
  5
1FE
330
1F
100
AcDbEntity
  8
0
 62
     7
370
    35
100
AcDbLine
 10
121.5
 20
266.959869
 30
0.0
 11
121.5
 21
267.459869
 31
0.0
  0
LINE
  5
1FF
330
1F
100
AcDbEntity
  8
0
 62
     7
370
    35
100
AcDbLine
 10
139.899994
 20
256.859863
 30
0.0
 11
140.0
 21
256.859863
 31
0.0
  0
LINE
  5
200
330
1F
100
AcDbEntity
  8
0
 62
     7
370
    35
100
AcDbLine
 10
112.0
 20
266.959869
 30
0.0
 11
127.0
 21
266.959869
 31
0.0
  0
LINE
  5
201
330
1F
100
AcDbEntity
  8
0
 62
     7
370
    35
100
AcDbLine
 10
99.0
 20
256.859863
 30
0.0
 11
99.099998
 21
256.859863
 31
0.0
  0
LINE
  5
202
330
1F
100
AcDbEntity
  8
0
 62
     7
370
    35
100
AcDbLine
 10
99.099998
 20
255.959869
 30
0.0
 11
99.099998
 21
256.859863
 31
0.0
  0
LINE
  5
203
330
1F
100
AcDbEntity
  8
0
 62
     7
370
    35
100
AcDbLine
 10
99.099998
 20
255.959869
 30
0.0
 11
139.899994
 21
255.959869
 31
0.0
  0
LINE
  5
204
330
1F
100
AcDbEntity
  8
0
 62
     7
370
    35
100
AcDbLine
 10
139.899994
 20
255.959869
 30
0.0
 11
139.899994
 21
256.859863
 31
0.0
  0
LINE
  5
205
330
1F
100
AcDbEntity
  8
0
 62
     7
370
    35
100
AcDbLine
 10
98.999992
 20
255.859863
 30
0.0
 11
113.5
 21
255.859863
 31
0.0
  0
LINE
  5
206
330
1F
100
AcDbEntity
  8
0
 62
     7
370
    35
100
AcDbLine
 10
113.5
 20
255.859863
 30
0.0
 11
113.5
 21
255.959869
 31
0.0
  0
LINE
  5
207
330
1F
100
AcDbEntity
  8
0
 62
     7
370
    35
100
AcDbLine
 10
139.899994
 20
255.959869
 30
0.0
 11
140.0
 21
255.959869
 31
0.0
  0
LINE
  5
208
330
1F
100
AcDbEntity
  8
0
 62
     7
370
    35
100
AcDbLine
 10
115.5
 20
255.659866
 30
0.0
 11
123.5
 21
255.659866
 31
0.0
  0
LINE
  5
209
330
1F
100
AcDbEntity
  8
0
 62
     7
370
    35
100
AcDbLine
 10
99.099998
 20
255.959869
 30
0.0
 11
99.0
 21
255.959869
 31
0.0
  0
LINE
  5
20A
330
1F
100
AcDbEntity
  8
0
 62
     7
370
    35
100
AcDbLine
 10
123.5
 20
255.659866
 30
0.0
 11
125.5
 21
255.959869
 31
0.0
  0
LINE
  5
20B
330
1F
100
AcDbEntity
  8
0
 62
     7
370
    35
100
AcDbLine
 10
115.5
 20
255.659866
 30
0.0
 11
113.5
 21
255.959869
 31
0.0
  0
LINE
  5
20C
330
1F
100
AcDbEntity
  8
0
 62
     7
370
    35
100
AcDbLine
 10
89.499992
 20
258.409882
 30
0.0
 11
50.5
 21
258.409882
 31
0.0
  0
LINE
  5
20D
330
1F
100
AcDbEntity
  8
0
 62
     7
370
    35
100
AcDbLine
 10
89.499992
 20
263.909882
 30
0.0
 11
50.5
 21
263.909882
 31
0.0
  0
LINE
  5
20E
330
1F
100
AcDbEntity
  8
0
 62
     7
370
    35
100
AcDbLine
 10
50.5
 20
258.409882
 30
0.0
 11
50.5
 21
263.909882
 31
0.0
  0
LINE
  5
20F
330
1F
100
AcDbEntity
  8
0
 62
     7
370
    35
100
AcDbLine
 10
16.0
 20
267.759857
 30
0.0
 11
9.5
 21
267.759857
 31
0.0
  0
LINE
  5
210
330
1F
100
AcDbEntity
  8
0
 62
     7
370
    35
100
AcDbLine
 10
16.0
 20
267.759857
 30
0.0
 11
22.5
 21
267.759857
 31
0.0
  0
LINE
  5
211
330
1F
100
AcDbEntity
  8
0
 62
     7
370
    35
100
AcDbLine
 10
9.5
 20
265.459869
 30
0.0
 11
9.5
 21
267.759857
 31
0.0
  0
LINE
  5
212
330
1F
100
AcDbEntity
  8
0
 62
     7
370
    35
100
AcDbLine
 10
16.0
 20
265.459869
 30
0.0
 11
16.0
 21
267.759857
 31
0.0
  0
LINE
  5
213
330
1F
100
AcDbEntity
  8
0
 62
     7
370
    35
100
AcDbLine
 10
9.5
 20
265.459869
 30
0.0
 11
9.5
 21
261.059875
 31
0.0
  0
LINE
  5
214
330
1F
100
AcDbEntity
  8
0
 62
     7
370
    35
100
AcDbLine
 10
16.0
 20
261.059875
 30
0.0
 11
9.5
 21
261.059875
 31
0.0
  0
LINE
  5
215
330
1F
100
AcDbEntity
  8
0
 62
     7
370
    35
100
AcDbLine
 10
16.0
 20
265.459869
 30
0.0
 11
16.0
 21
261.059875
 31
0.0
  0
LINE
  5
216
330
1F
100
AcDbEntity
  8
0
 62
     7
370
    35
100
AcDbLine
 10
9.5
 20
261.059875
 30
0.0
 11
9.5
 21
258.309875
 31
0.0
  0
LINE
  5
217
330
1F
100
AcDbEntity
  8
0
 62
     7
370
    35
100
AcDbLine
 10
16.0
 20
258.309875
 30
0.0
 11
9.5
 21
258.309875
 31
0.0
  0
LINE
  5
218
330
1F
100
AcDbEntity
  8
0
 62
     7
370
    35
100
AcDbLine
 10
16.0
 20
261.059875
 30
0.0
 11
16.0
 21
258.309875
 31
0.0
  0
LINE
  5
219
330
1F
100
AcDbEntity
  8
0
 62
     7
370
    35
100
AcDbLine
 10
9.5
 20
258.309875
 30
0.0
 11
9.5
 21
256.809875
 31
0.0
  0
LINE
  5
21A
330
1F
100
AcDbEntity
  8
0
 62
     7
370
    35
100
AcDbLine
 10
16.0
 20
256.809875
 30
0.0
 11
9.5
 21
256.809875
 31
0.0
  0
LINE
  5
21B
330
1F
100
AcDbEntity
  8
0
 62
     7
370
    35
100
AcDbLine
 10
16.0
 20
258.309875
 30
0.0
 11
16.0
 21
256.809875
 31
0.0
  0
LINE
  5
21C
330
1F
100
AcDbEntity
  8
0
 62
     7
370
    35
100
AcDbLine
 10
9.5
 20
256.809875
 30
0.0
 11
9.5
 21
254.059875
 31
0.0
  0
LINE
  5
21D
330
1F
100
AcDbEntity
  8
0
 62
     7
370
    35
100
AcDbLine
 10
16.0
 20
254.059875
 30
0.0
 11
9.5
 21
254.059875
 31
0.0
  0
LINE
  5
21E
330
1F
100
AcDbEntity
  8
0
 62
     7
370
    35
100
AcDbLine
 10
16.0
 20
256.809875
 30
0.0
 11
16.0
 21
254.059875
 31
0.0
  0
LINE
  5
21F
330
1F
100
AcDbEntity
  8
0
 62
     7
370
    35
100
AcDbLine
 10
16.0
 20
254.059875
 30
0.0
 11
16.0
 21
249.659866
 31
0.0
  0
LINE
  5
220
330
1F
100
AcDbEntity
  8
0
 62
     7
370
    35
100
AcDbLine
 10
9.5
 20
254.059875
 30
0.0
 11
9.5
 21
249.659866
 31
0.0
  0
LINE
  5
221
330
1F
100
AcDbEntity
  8
0
 62
     7
370
    35
100
AcDbLine
 10
9.5
 20
247.359863
 30
0.0
 11
9.5
 21
249.659866
 31
0.0
  0
LINE
  5
222
330
1F
100
AcDbEntity
  8
0
 62
     7
370
    35
100
AcDbLine
 10
16.0
 20
247.359863
 30
0.0
 11
9.5
 21
247.359863
 31
0.0
  0
LINE
  5
223
330
1F
100
AcDbEntity
  8
0
 62
     7
370
    35
100
AcDbLine
 10
16.0
 20
247.359863
 30
0.0
 11
16.0
 21
249.659866
 31
0.0
  0
LINE
  5
224
330
1F
100
AcDbEntity
  8
0
 62
     7
370
    35
100
AcDbLine
 10
1173.0
 20
267.759857
 30
0.0
 11
1166.5
 21
267.759857
 31
0.0
  0
LINE
  5
225
330
1F
100
AcDbEntity
  8
0
 62
     7
370
    35
100
AcDbLine
 10
1173.0
 20
267.759857
 30
0.0
 11
1179.5
 21
267.759857
 31
0.0
  0
LINE
  5
226
330
1F
100
AcDbEntity
  8
0
 62
     7
370
    35
100
AcDbLine
 10
1173.0
 20
265.459869
 30
0.0
 11
1173.0
 21
267.759857
 31
0.0
  0
LINE
  5
227
330
1F
100
AcDbEntity
  8
0
 62
     7
370
    35
100
AcDbLine
 10
1179.5
 20
265.459869
 30
0.0
 11
1179.5
 21
267.759857
 31
0.0
  0
LINE
  5
228
330
1F
100
AcDbEntity
  8
0
 62
     7
370
    35
100
AcDbLine
 10
1173.0
 20
265.459869
 30
0.0
 11
1173.0
 21
261.059875
 31
0.0
  0
LINE
  5
229
330
1F
100
AcDbEntity
  8
0
 62
     7
370
    35
100
AcDbLine
 10
1173.0
 20
261.059875
 30
0.0
 11
1179.5
 21
261.059875
 31
0.0
  0
LINE
  5
22A
330
1F
100
AcDbEntity
  8
0
 62
     7
370
    35
100
AcDbLine
 10
1179.5
 20
265.459869
 30
0.0
 11
1179.5
 21
261.059875
 31
0.0
  0
LINE
  5
22B
330
1F
100
AcDbEntity
  8
0
 62
     7
370
    35
100
AcDbLine
 10
1173.0
 20
261.059875
 30
0.0
 11
1173.0
 21
258.309875
 31
0.0
  0
LINE
  5
22C
330
1F
100
AcDbEntity
  8
0
 62
     7
370
    35
100
AcDbLine
 10
1173.0
 20
258.309875
 30
0.0
 11
1179.5
 21
258.309875
 31
0.0
  0
LINE
  5
22D
330
1F
100
AcDbEntity
  8
0
 62
     7
370
    35
100
AcDbLine
 10
1179.5
 20
261.059875
 30
0.0
 11
1179.5
 21
258.309875
 31
0.0
  0
LINE
  5
22E
330
1F
100
AcDbEntity
  8
0
 62
     7
370
    35
100
AcDbLine
 10
1173.0
 20
258.309875
 30
0.0
 11
1173.0
 21
256.809875
 31
0.0
  0
LINE
  5
22F
330
1F
100
AcDbEntity
  8
0
 62
     7
370
    35
100
AcDbLine
 10
1173.0
 20
256.809875
 30
0.0
 11
1179.5
 21
256.809875
 31
0.0
  0
LINE
  5
230
330
1F
100
AcDbEntity
  8
0
 62
     7
370
    35
100
AcDbLine
 10
1179.5
 20
258.309875
 30
0.0
 11
1179.5
 21
256.809875
 31
0.0
  0
LINE
  5
231
330
1F
100
AcDbEntity
  8
0
 62
     7
370
    35
100
AcDbLine
 10
1173.0
 20
256.809875
 30
0.0
 11
1173.0
 21
254.059875
 31
0.0
  0
LINE
  5
232
330
1F
100
AcDbEntity
  8
0
 62
     7
370
    35
100
AcDbLine
 10
1173.0
 20
254.059875
 30
0.0
 11
1179.5
 21
254.059875
 31
0.0
  0
LINE
  5
233
330
1F
100
AcDbEntity
  8
0
 62
     7
370
    35
100
AcDbLine
 10
1179.5
 20
256.809875
 30
0.0
 11
1179.5
 21
254.059875
 31
0.0
  0
LINE
  5
234
330
1F
100
AcDbEntity
  8
0
 62
     7
370
    35
100
AcDbLine
 10
1179.5
 20
254.059875
 30
0.0
 11
1179.5
 21
249.659866
 31
0.0
  0
LINE
  5
235
330
1F
100
AcDbEntity
  8
0
 62
     7
370
    35
100
AcDbLine
 10
1173.0
 20
254.059875
 30
0.0
 11
1173.0
 21
249.659866
 31
0.0
  0
LINE
  5
236
330
1F
100
AcDbEntity
  8
0
 62
     7
370
    35
100
AcDbLine
 10
1173.0
 20
247.359863
 30
0.0
 11
1173.0
 21
249.659866
 31
0.0
  0
LINE
  5
237
330
1F
100
AcDbEntity
  8
0
 62
     7
370
    35
100
AcDbLine
 10
1173.0
 20
247.359863
 30
0.0
 11
1179.5
 21
247.359863
 31
0.0
  0
LINE
  5
238
330
1F
100
AcDbEntity
  8
0
 62
     7
370
    35
100
AcDbLine
 10
1179.5
 20
247.359863
 30
0.0
 11
1179.5
 21
249.659866
 31
0.0
  0
LINE
  5
239
330
1F
100
AcDbEntity
  8
0
 62
     7
370
    35
100
AcDbLine
 10
15.999998
 20
259.291534
 30
0.0
 11
50.5
 21
259.291534
 31
0.0
  0
LINE
  5
23A
330
1F
100
AcDbEntity
  8
0
 62
     7
370
    35
100
AcDbLine
 10
149.5
 20
259.291534
 30
0.0
 11
1173.0
 21
259.291534
 31
0.0
  0
LINE
  5
23B
330
1F
100
AcDbEntity
  8
0
 62
     7
370
    35
100
AcDbLine
 10
1173.0
 20
255.628204
 30
0.0
 11
15.999998
 21
255.628204
 31
0.0
  0
LINE
  5
23C
330
1F
100
AcDbEntity
  8
0
 62
     7
370
    35
100
AcDbLine
 10
11.1
 20
246.909866
 30
0.0
 11
11.1
 21
247.359863
 31
0.0
  0
LINE
  5
23D
330
1F
100
AcDbEntity
  8
0
 62
     7
370
    35
100
AcDbLine
 10
20.9
 20
246.909866
 30
0.0
 11
20.9
 21
247.859863
 31
0.0
  0
LINE
  5
23E
330
1F
100
AcDbEntity
  8
0
 62
     7
370
    35
100
AcDbLine
 10
20.490192
 20
246.759872
 30
0.0
 11
20.75
 21
246.909866
 31
0.0
  0
LINE
  5
23F
330
1F
100
AcDbEntity
  8
0
 62
     7
370
    35
100
AcDbLine
 10
11.509808
 20
246.759872
 30
0.0
 11
11.25
 21
246.909866
 31
0.0
  0
LINE
  5
240
330
1F
100
AcDbEntity
  8
0
 62
     7
370
    35
100
AcDbLine
 10
1168.099976
 20
246.909866
 30
0.0
 11
1168.099976
 21
247.859863
 31
0.0
  0
LINE
  5
241
330
1F
100
AcDbEntity
  8
0
 62
     7
370
    35
100
AcDbLine
 10
1177.900024
 20
246.909866
 30
0.0
 11
1177.900024
 21
247.359863
 31
0.0
  0
LINE
  5
242
330
1F
100
AcDbEntity
  8
0
 62
     7
370
    35
100
AcDbLine
 10
1177.490234
 20
246.759872
 30
0.0
 11
1177.75
 21
246.909866
 31
0.0
  0
LINE
  5
243
330
1F
100
AcDbEntity
  8
0
 62
     7
370
    35
100
AcDbLine
 10
1168.509766
 20
246.759872
 30
0.0
 11
1168.25
 21
246.909866
 31
0.0
  0
LINE
  5
244
330
1F
100
AcDbEntity
  8
0
 62
     7
370
    35
100
AcDbLine
 10
22.5
 20
267.759857
 30
0.0
 11
22.5
 21
267.059875
 31
0.0
  0
LINE
  5
245
330
1F
100
AcDbEntity
  8
0
 62
     7
370
    35
100
AcDbLine
 10
1166.5
 20
267.059875
 30
0.0
 11
1166.5
 21
267.759857
 31
0.0
  0
ENDSEC
  0
SECTION
  2
OBJECTS
  0
DICTIONARY
  5
C
330
0
100
AcDbDictionary
281
     1
  3
ACAD_GROUP
350
D
  3
ACAD_LAYOUT
350
1A
  3
ACAD_MLINESTYLE
350
17
  3
ACAD_PLOTSETTINGS
350
19
  3
ACAD_PLOTSTYLENAME
350
E
  3
ACAD_SCALELIST
350
47
  0
DICTIONARY
  5
D
102
{ACAD_REACTORS
330
C
102
}
330
C
100
AcDbDictionary
281
     1
  0
DICTIONARY
  5
1A
102
{ACAD_REACTORS
330
C
102
}
330
C
100
AcDbDictionary
281
     1
  3
Layout1
350
1E
  3
Layout2
350
26
  3
Model
350
22
  0
DICTIONARY
  5
17
102
{ACAD_REACTORS
330
C
102
}
330
C
100
AcDbDictionary
281
     1
  3
Standard
350
18
  0
DICTIONARY
  5
19
102
{ACAD_REACTORS
330
C
102
}
330
C
100
AcDbDictionary
281
     1
  0
ACDBDICTIONARYWDFLT
  5
E
102
{ACAD_REACTORS
330
C
102
}
330
C
100
AcDbDictionary
281
     1
  3
Normal
350
F
100
AcDbDictionaryWithDefault
340
F
  0
DICTIONARY
  5
47
102
{ACAD_REACTORS
330
C
102
}
330
C
100
AcDbDictionary
281
     1
  3
A0
350
48
  3
A1
350
49
  3
A2
350
4A
  3
A3
350
4B
  3
A4
350
4C
  3
A5
350
4D
  3
A6
350
4E
  3
A7
350
4F
  3
A8
350
50
  3
A9
350
51
  3
B0
350
52
  3
B1
350
53
  3
B2
350
54
  3
B3
350
55
  3
B4
350
56
  3
B5
350
57
  3
B6
350
58
  3
B7
350
59
  3
B8
350
5A
  3
B9
350
5B
  3
C0
350
5C
  3
C1
350
5D
  3
C2
350
5E
  3
C3
350
5F
  3
C4
350
60
  3
C5
350
61
  3
C6
350
62
  3
C7
350
63
  3
C8
350
64
  3
C9
350
65
  3
D0
350
66
  3
D1
350
67
  3
D2
350
68
  0
LAYOUT
  5
1E
102
{ACAD_REACTORS
330
1A
102
}
330
1A
100
AcDbPlotSettings
  1

  2
none_device
  4

  6

 40
0.0
 41
0.0
 42
0.0
 43
0.0
 44
0.0
 45
0.0
 46
0.0
 47
0.0
 48
0.0
 49
0.0
140
0.0
141
0.0
142
1.0
143
1.0
 70
  4784
 72
     0
 73
     0
 74
     5
  7

 75
    16
147
1.0
148
0.0
149
0.0
100
AcDbLayout
  1
Layout1
 70
     1
 71
     1
 10
0.0
 20
0.0
 11
420.0
 21
297.0
 12
0.0
 22
0.0
 32
0.0
 14
0.0
 24
0.0
 34
0.0
 15
1274.122925
 25
446.790009
 35
2.0
146
0.0
 13
0.0
 23
0.0
 33
0.0
 16
1.0
 26
0.0
 36
0.0
 17
0.0
 27
1.0
 37
0.0
 76
     0
330
1B
  0
LAYOUT
  5
26
102
{ACAD_REACTORS
330
1A
102
}
330
1A
100
AcDbPlotSettings
  1

  2
none_device
  4

  6

 40
0.0
 41
0.0
 42
0.0
 43
0.0
 44
0.0
 45
0.0
 46
0.0
 47
0.0
 48
0.0
 49
0.0
140
0.0
141
0.0
142
1.0
143
1.0
 70
  4784
 72
     0
 73
     0
 74
     5
  7

 75
    16
147
1.0
148
0.0
149
0.0
100
AcDbLayout
  1
Layout2
 70
     1
 71
     2
 10
0.0
 20
0.0
 11
0.0
 21
0.0
 12
0.0
 22
0.0
 32
0.0
 14
0.0
 24
0.0
 34
0.0
 15
0.0
 25
0.0
 35
0.0
146
0.0
 13
0.0
 23
0.0
 33
0.0
 16
1.0
 26
0.0
 36
0.0
 17
0.0
 27
1.0
 37
0.0
 76
     0
330
23
  0
LAYOUT
  5
22
102
{ACAD_REACTORS
330
1A
102
}
330
1A
100
AcDbPlotSettings
  1

  2
none_device
  4
Letter_(8.50_x_11.00_Inches)
  6

 40
6.35
 41
6.35
 42
6.350005
 43
6.350005
 44
215.9
 45
279.4
 46
0.0
 47
0.0
 48
0.0
 49
0.0
140
0.0
141
0.0
142
1.0
143
1.0
 70
  5808
 72
     0
 73
     0
 74
     0
  7

 75
     0
147
1.0
148
0.0
149
0.0
100
AcDbLayout
  1
Model
 70
     1
 71
     0
 10
0.0
 20
0.0
 11
420.0
 21
297.0
 12
0.0
 22
0.0
 32
0.0
 14
0.0
 24
0.0
 34
0.0
 15
1274.122925
 25
446.790009
 35
2.0
146
0.0
 13
0.0
 23
0.0
 33
0.0
 16
1.0
 26
0.0
 36
0.0
 17
0.0
 27
1.0
 37
0.0
 76
     0
330
1F
331
29
  0
MLINESTYLE
  5
18
102
{ACAD_REACTORS
330
17
102
}
330
17
100
AcDbMlineStyle
  2
Standard
 70
     0
  3

 62
   256
 51
90.0
 52
90.0
 71
     2
 49
0.5
 62
   256
  6
BYLAYER
 49
-0.5
 62
   256
  6
BYLAYER
  0
ACDBPLACEHOLDER
  5
F
102
{ACAD_REACTORS
330
E
102
}
330
E
  0
SCALE
  5
48
102
{ACAD_REACTORS
330
47
102
}
330
47
100
AcDbScale
 70
     0
300
1:1
140
1.0
141
1.0
290
     1
  0
SCALE
  5
49
102
{ACAD_REACTORS
330
47
102
}
330
47
100
AcDbScale
 70
     0
300
1:2
140
1.0
141
2.0
290
     0
  0
SCALE
  5
4A
102
{ACAD_REACTORS
330
47
102
}
330
47
100
AcDbScale
 70
     0
300
1:4
140
1.0
141
4.0
290
     0
  0
SCALE
  5
4B
102
{ACAD_REACTORS
330
47
102
}
330
47
100
AcDbScale
 70
     0
300
1:5
140
1.0
141
5.0
290
     0
  0
SCALE
  5
4C
102
{ACAD_REACTORS
330
47
102
}
330
47
100
AcDbScale
 70
     0
300
1:8
140
1.0
141
8.0
290
     0
  0
SCALE
  5
4D
102
{ACAD_REACTORS
330
47
102
}
330
47
100
AcDbScale
 70
     0
300
1:10
140
1.0
141
10.0
290
     0
  0
SCALE
  5
4E
102
{ACAD_REACTORS
330
47
102
}
330
47
100
AcDbScale
 70
     0
300
1:16
140
1.0
141
16.0
290
     0
  0
SCALE
  5
4F
102
{ACAD_REACTORS
330
47
102
}
330
47
100
AcDbScale
 70
     0
300
1:20
140
1.0
141
20.0
290
     0
  0
SCALE
  5
50
102
{ACAD_REACTORS
330
47
102
}
330
47
100
AcDbScale
 70
     0
300
1:30
140
1.0
141
30.0
290
     0
  0
SCALE
  5
51
102
{ACAD_REACTORS
330
47
102
}
330
47
100
AcDbScale
 70
     0
300
1:40
140
1.0
141
40.0
290
     0
  0
SCALE
  5
52
102
{ACAD_REACTORS
330
47
102
}
330
47
100
AcDbScale
 70
     0
300
1:50
140
1.0
141
50.0
290
     0
  0
SCALE
  5
53
102
{ACAD_REACTORS
330
47
102
}
330
47
100
AcDbScale
 70
     0
300
1:100
140
1.0
141
100.0
290
     0
  0
SCALE
  5
54
102
{ACAD_REACTORS
330
47
102
}
330
47
100
AcDbScale
 70
     0
300
2:1
140
2.0
141
1.0
290
     0
  0
SCALE
  5
55
102
{ACAD_REACTORS
330
47
102
}
330
47
100
AcDbScale
 70
     0
300
4:1
140
4.0
141
1.0
290
     0
  0
SCALE
  5
56
102
{ACAD_REACTORS
330
47
102
}
330
47
100
AcDbScale
 70
     0
300
8:1
140
8.0
141
1.0
290
     0
  0
SCALE
  5
57
102
{ACAD_REACTORS
330
47
102
}
330
47
100
AcDbScale
 70
     0
300
10:1
140
10.0
141
1.0
290
     0
  0
SCALE
  5
58
102
{ACAD_REACTORS
330
47
102
}
330
47
100
AcDbScale
 70
     0
300
100:1
140
100.0
141
1.0
290
     0
  0
SCALE
  5
59
102
{ACAD_REACTORS
330
47
102
}
330
47
100
AcDbScale
 70
     0
300
1/128" = 1'-0"
140
0.007812
141
12.0
290
     0
  0
SCALE
  5
5A
102
{ACAD_REACTORS
330
47
102
}
330
47
100
AcDbScale
 70
     0
300
1/64" = 1'-0"
140
0.015625
141
12.0
290
     0
  0
SCALE
  5
5B
102
{ACAD_REACTORS
330
47
102
}
330
47
100
AcDbScale
 70
     0
300
1/32" = 1'-0"
140
0.03125
141
12.0
290
     0
  0
SCALE
  5
5C
102
{ACAD_REACTORS
330
47
102
}
330
47
100
AcDbScale
 70
     0
300
1/16" = 1'-0"
140
0.0625
141
12.0
290
     0
  0
SCALE
  5
5D
102
{ACAD_REACTORS
330
47
102
}
330
47
100
AcDbScale
 70
     0
300
3/32" = 1'-0"
140
0.09375
141
12.0
290
     0
  0
SCALE
  5
5E
102
{ACAD_REACTORS
330
47
102
}
330
47
100
AcDbScale
 70
     0
300
1/8" = 1'-0"
140
0.125
141
12.0
290
     0
  0
SCALE
  5
5F
102
{ACAD_REACTORS
330
47
102
}
330
47
100
AcDbScale
 70
     0
300
3/16" = 1'-0"
140
0.1875
141
12.0
290
     0
  0
SCALE
  5
60
102
{ACAD_REACTORS
330
47
102
}
330
47
100
AcDbScale
 70
     0
300
1/4" = 1'-0"
140
0.25
141
12.0
290
     0
  0
SCALE
  5
61
102
{ACAD_REACTORS
330
47
102
}
330
47
100
AcDbScale
 70
     0
300
3/8" = 1'-0"
140
0.375
141
12.0
290
     0
  0
SCALE
  5
62
102
{ACAD_REACTORS
330
47
102
}
330
47
100
AcDbScale
 70
     0
300
1/2" = 1'-0"
140
0.5
141
12.0
290
     0
  0
SCALE
  5
63
102
{ACAD_REACTORS
330
47
102
}
330
47
100
AcDbScale
 70
     0
300
3/4" = 1'-0"
140
0.75
141
12.0
290
     0
  0
SCALE
  5
64
102
{ACAD_REACTORS
330
47
102
}
330
47
100
AcDbScale
 70
     0
300
1" = 1'-0"
140
1.0
141
12.0
290
     0
  0
SCALE
  5
65
102
{ACAD_REACTORS
330
47
102
}
330
47
100
AcDbScale
 70
     0
300
1-1/2" = 1'-0"
140
1.5
141
12.0
290
     0
  0
SCALE
  5
66
102
{ACAD_REACTORS
330
47
102
}
330
47
100
AcDbScale
 70
     0
300
3" = 1'-0"
140
3.0
141
12.0
290
     0
  0
SCALE
  5
67
102
{ACAD_REACTORS
330
47
102
}
330
47
100
AcDbScale
 70
     0
300
6" = 1'-0"
140
6.0
141
12.0
290
     0
  0
SCALE
  5
68
102
{ACAD_REACTORS
330
47
102
}
330
47
100
AcDbScale
 70
     0
300
1'-0" = 1'-0"
140
12.0
141
12.0
290
     0
  0
ENDSEC
  0
EOF
