  0
SECTION
  2
HEADER
  9
$ACADVER
  1
AC1015
  9
$ACADMAINTVER
 70
     6
  9
$DWGCODEPAGE
  3
ANSI_1252
  9
$INSBASE
 10
0.0
 20
0.0
 30
0.0
  9
$EXTMIN
 10
0.0
 20
0.0
 30
0.0
  9
$EXTMAX
 10
199.949524
 20
137.209595
 30
2.0
  9
$LIMMIN
 10
0.0
 20
0.0
  9
$LIMMAX
 10
420.0
 20
297.0
  9
$ORTHOMODE
 70
     0
  9
$REGENMODE
 70
     1
  9
$FILLMODE
 70
     1
  9
$QTEXTMODE
 70
     0
  9
$MIRRTEXT
 70
     1
  9
$LTSCALE
 40
1.0
  9
$ATTMODE
 70
     1
  9
$TEXTSIZE
 40
2.5
  9
$TRACEWID
 40
1.0
  9
$TEXTSTYLE
  7
Standard
  9
$CLAYER
  8
0
  9
$CELTYPE
  6
ByLayer
  9
$CECOLOR
 62
   256
  9
$CELTSCALE
 40
1.0
  9
$DISPSILH
 70
     0
  9
$DIMSCALE
 40
1.0
  9
$DIMASZ
 40
2.5
  9
$DIMEXO
 40
0.625
  9
$DIMDLI
 40
3.75
  9
$DIMRND
 40
0.0
  9
$DIMDLE
 40
0.0
  9
$DIMEXE
 40
1.25
  9
$DIMTP
 40
0.0
  9
$DIMTM
 40
0.0
  9
$DIMTXT
 40
2.5
  9
$DIMCEN
 40
2.5
  9
$DIMTSZ
 40
0.0
  9
$DIMTOL
 70
     0
  9
$DIMLIM
 70
     0
  9
$DIMTIH
 70
     0
  9
$DIMTOH
 70
     0
  9
$DIMSE1
 70
     0
  9
$DIMSE2
 70
     0
  9
$DIMTAD
 70
     1
  9
$DIMZIN
 70
     8
  9
$DIMBLK
  1

  9
$DIMASO
 70
     1
  9
$DIMSHO
 70
     1
  9
$DIMPOST
  1

  9
$DIMAPOST
  1

  9
$DIMALT
 70
     0
  9
$DIMALTD
 70
     3
  9
$DIMALTF
 40
0.03937
  9
$DIMLFAC
 40
1.0
  9
$DIMTOFL
 70
     1
  9
$DIMTVP
 40
0.0
  9
$DIMTIX
 70
     0
  9
$DIMSOXD
 70
     0
  9
$DIMSAH
 70
     0
  9
$DIMBLK1
  1

  9
$DIMBLK2
  1

  9
$DIMSTYLE
  2

  9
$DIMCLRD
 70
     0
  9
$DIMCLRE
 70
     0
  9
$DIMCLRT
 70
     0
  9
$DIMTFAC
 40
1.0
  9
$DIMGAP
 40
0.625
  9
$DIMJUST
 70
     0
  9
$DIMSD1
 70
     0
  9
$DIMSD2
 70
     0
  9
$DIMTOLJ
 70
     0
  9
$DIMTZIN
 70
     8
  9
$DIMALTZ
 70
     0
  9
$DIMALTTZ
 70
     0
  9
$DIMUPT
 70
     0
  9
$DIMDEC
 70
     2
  9
$DIMTDEC
 70
     2
  9
$DIMALTU
 70
     2
  9
$DIMALTTD
 70
     3
  9
$DIMTXSTY
  7
Standard
  9
$DIMAUNIT
 70
     0
  9
$DIMADEC
 70
     0
  9
$DIMALTRND
 40
0.0
  9
$DIMAZIN
 70
     0
  9
$DIMDSEP
 70
    44
  9
$DIMATFIT
 70
     0
  9
$DIMFRAC
 70
     0
  9
$DIMLDRBLK
  1

  9
$DIMLUNIT
 70
     2
  9
$DIMLWD
 70
    -2
  9
$DIMLWE
 70
    -2
  9
$DIMTMOVE
 70
     0
  9
$LUNITS
 70
     2
  9
$LUPREC
 70
     4
  9
$SKETCHINC
 40
1.0
  9
$FILLETRAD
 40
2.5
  9
$AUNITS
 70
     0
  9
$AUPREC
 70
     0
  9
$MENU
  1
.
  9
$ELEVATION
 40
0.0
  9
$PELEVATION
 40
0.0
  9
$THICKNESS
 40
0.0
  9
$LIMCHECK
 70
     0
  9
$CHAMFERA
 40
2.5
  9
$CHAMFERB
 40
2.5
  9
$CHAMFERC
 40
0.0
  9
$CHAMFERD
 40
0.0
  9
$SKPOLY
 70
     0
  9
$TDCREATE
 40
0.000000000
  9
$TDUCREATE
 40
0.000000000
  9
$TDUPDATE
 40
0.000000000
  9
$TDUUPDATE
 40
0.000000000
  9
$TDINDWG
 40
0.0000000000
  9
$TDUSRTIMER
 40
0.0000000000
  9
$USRTIMER
 70
     1
  9
$ANGBASE
 50
0.0
  9
$ANGDIR
 70
     0
  9
$PDMODE
 70
     0
  9
$PDSIZE
 40
0.0
  9
$PLINEWID
 40
0.0
  9
$SPLFRAME
 70
     0
  9
$SPLINETYPE
 70
     6
  9
$SPLINESEGS
 70
     8
  9
$HANDSEED
  5
281
  9
$SURFTAB1
 70
     6
  9
$SURFTAB2
 70
     6
  9
$SURFTYPE
 70
     6
  9
$SURFU
 70
     6
  9
$SURFV
 70
     6
  9
$UCSBASE
  2

  9
$UCSNAME
  2

  9
$UCSORG
 10
0.0
 20
0.0
 30
0.0
  9
$UCSXDIR
 10
1.0
 20
0.0
 30
0.0
  9
$UCSYDIR
 10
0.0
 20
1.0
 30
0.0
  9
$UCSORTHOREF
  2

  9
$UCSORTHOVIEW
 70
     1
  9
$UCSORGTOP
 10
0.0
 20
0.0
 30
0.0
  9
$UCSORGBOTTOM
 10
0.0
 20
0.0
 30
0.0
  9
$UCSORGLEFT
 10
0.0
 20
0.0
 30
0.0
  9
$UCSORGRIGHT
 10
0.0
 20
0.0
 30
0.0
  9
$UCSORGFRONT
 10
0.0
 20
0.0
 30
0.0
  9
$UCSORGBACK
 10
0.0
 20
0.0
 30
0.0
  9
$PUCSBASE
  2

  9
$PUCSNAME
  2

  9
$PUCSORG
 10
0.0
 20
0.0
 30
0.0
  9
$PUCSXDIR
 10
1.0
 20
0.0
 30
0.0
  9
$PUCSYDIR
 10
0.0
 20
1.0
 30
0.0
  9
$PUCSORTHOREF
  2

  9
$PUCSORTHOVIEW
 70
     0
  9
$PUCSORGTOP
 10
0.0
 20
0.0
 30
0.0
  9
$PUCSORGBOTTOM
 10
0.0
 20
0.0
 30
0.0
  9
$PUCSORGLEFT
 10
0.0
 20
0.0
 30
0.0
  9
$PUCSORGRIGHT
 10
0.0
 20
0.0
 30
0.0
  9
$PUCSORGFRONT
 10
0.0
 20
0.0
 30
0.0
  9
$PUCSORGBACK
 10
0.0
 20
0.0
 30
0.0
  9
$USERI1
 70
     0
  9
$USERI2
 70
     0
  9
$USERI3
 70
     0
  9
$USERI4
 70
     0
  9
$USERI5
 70
     0
  9
$USERR1
 40
0.0
  9
$USERR2
 40
0.0
  9
$USERR3
 40
0.0
  9
$USERR4
 40
0.0
  9
$USERR5
 40
0.0
  9
$WORLDVIEW
 70
     1
  9
$SHADEDGE
 70
     3
  9
$SHADEDIF
 70
    70
  9
$TILEMODE
 70
     1
  9
$MAXACTVP
 70
    48
  9
$PINSBASE
 10
0.0
 20
0.0
 30
0.0
  9
$PLIMCHECK
 70
     0
  9
$PEXTMIN
 10
0.0
 20
0.0
 30
0.0
  9
$PEXTMAX
 10
199.949524
 20
137.209595
 30
2.0
  9
$PLIMMIN
 10
0.0
 20
0.0
  9
$PLIMMAX
 10
420.0
 20
297.0
  9
$UNITMODE
 70
     0
  9
$VISRETAIN
 70
     0
  9
$PLINEGEN
 70
     0
  9
$PSLTSCALE
 70
     1
  9
$TREEDEPTH
 70
  3020
  9
$CMLSTYLE
  2
Standard
  9
$CMLJUST
 70
     0
  9
$CMLSCALE
 40
20.0
  9
$PROXYGRAPHICS
 70
     1
  9
$MEASUREMENT
 70
     1
  9
$CELWEIGHT
370
    -1
  9
$ENDCAPS
280
     0
  9
$JOINSTYLE
280
     0
  9
$LWDISPLAY
290
     0
  9
$INSUNITS
 70
     0
  9
$HYPERLINKBASE
  1

  9
$STYLESHEET
  1

  9
$XEDIT
290
     1
  9
$CEPSNTYPE
380
     0
  9
$PSTYLEMODE
290
     0
  9
$FINGERPRINTGUID
  2

  9
$VERSIONGUID
  2

  9
$EXTNAMES
290
     0
  9
$PSVPSCALE
 40
0.0
  0
ENDSEC
  0
SECTION
  2
CLASSES
  0
CLASS
  1
LWPOLYLINE
  2
AcDbPolyline
  3
AutoCAD 2000
 90
        0
280
     0
281
     1
  0
CLASS
  1
IMAGE
  2
AcDbRasterImage
  3
ISM
 90
      127
280
     0
281
     1
  0
CLASS
  1
OLE2FRAME
  2
AcDbOle2Frame
  3
AutoCAD 2000
 90
        0
280
     0
281
     1
  0
CLASS
  1
HATCH
  2
AcDbHatch
  3
AutoCAD 2000
 90
        0
280
     0
281
     1
  0
CLASS
  1
DICTIONARYVAR
  2
AcDbDictionaryVar
  3
AutoCAD 2000
 90
        0
280
     0
281
     0
  0
CLASS
  1
RASTERVARIABLES
  2
AcDbRasterVariables
  3
ISM
 90
        0
280
     0
281
     0
  0
CLASS
  1
IMAGEDEF
  2
AcDbRasterImageDef
  3
ISM
 90
        0
280
     0
281
     0
  0
CLASS
  1
IMAGEDEF_REACTOR
  2
AcDbRasterImageDefReactor
  3
ISM
 90
        1
280
     0
281
     0
  0
CLASS
  1
IDBUFFER
  2
AcDbIdBuffer
  3
AutoCAD 2000
 90
        0
280
     0
281
     0
  0
CLASS
  1
SPATIAL_FILTER
  2
AcDbSpatialFilter
  3
AutoCAD 2000
 90
        0
280
     0
281
     0
  0
CLASS
  1
XRECORD
  2
AcDbXrecord
  3
AutoCAD 2000
 90
        0
280
     0
281
     0
  0
CLASS
  1
SORTENTSTABLE
  2
AcDbSortentsTable
  3
AutoCAD 2000
 90
        0
280
     0
281
     0
  0
CLASS
  1
LAYER_INDEX
  2
AcDbLayerIndex
  3
AutoCAD 2000
 90
        0
280
     0
281
     0
  0
CLASS
  1
SPATIAL_INDEX
  2
AcDbSpatialIndex
  3
AutoCAD 2000
 90
        0
280
     0
281
     0
  0
CLASS
  1
OBJECT_PTR
  2
CAseDLPNTableRecord
  3
"ASE-LPNTableRecord"
 90
        1
280
     0
281
     0
  0
CLASS
  1
LAYOUT
  2
AcDbLayout
  3
AutoCAD 2000
 90
        0
280
     0
281
     0
  0
CLASS
  1
PLOTSETTINGS
  2
AcDbPlotSettings
  3
AutoCAD 2000
 90
        0
280
     0
281
     0
  0
CLASS
  1
ACDBDICTIONARYWDFLT
  2
AcDbDictionaryWithDefault
  3
AutoCAD 2000
 90
        0
280
     0
281
     0
  0
CLASS
  1
ACDBPLACEHOLDER
  2
AcDbPlaceHolder
  3
AutoCAD 2000
 90
        0
280
     0
281
     0
  0
CLASS
  1
VBA_PROJECT
  2
AcDbVbaProject
  3
acadvba
 90
        0
280
     0
281
     0
  0
CLASS
  1
WIPEOUT
  2
AcDbWipeout
  3
WipeOut|AutoCAD Express Tool|expresstools@autodesk.com
 90
      127
280
     0
281
     1
  0
CLASS
  1
WIPEOUTVARIABLES
  2
AcDbWipeoutVariables
  3
WipeOut|AutoCAD Express Tool|expresstools@autodesk.com
 90
        0
280
     0
281
     0
  0
CLASS
  1
RTEXT
  2
RText
  3
RText|AutoCAD Express Tool|expresstools@autodesk.com
 90
        0
280
     0
281
     1
  0
CLASS
  1
ARCALIGNEDTEXT
  2
AcDbArcAlignedText
  3
ATEXT|AutoCAD Express Tool|expresstools@autodesk.com
 90
        0
280
     0
281
     1
  0
ENDSEC
  0
SECTION
  2
TABLES
  0
TABLE
  2
VPORT
  5
7
100
AcDbSymbolTable
 70
     1
  0
VPORT
  5
15
100
AcDbSymbolTableRecord
100
AcDbViewportTableRecord
  2
*ACTIVE
 70
     0
 10
0.0
 20
0.0
 11
1.0
 21
1.0
 12
6.591288
 22
4.579184
 13
0.0
 23
0.0
 14
1.0
 24
1.0
 15
0.0
 25
0.0
 16
0.0
 26
0.0
 36
1.0
 17
0.0
 27
0.0
 37
0.0
 40
9.158369
 41
0.688564
 42
50.0
 43
0.0
 44
0.0
 50
0.0
 51
0.0
 71
     0
 72
   100
 73
     1
 74
     1
 75
     0
 76
     0
 77
     0
 78
     0
281
     0
 65
     0
110
0.0
120
0.0
130
0.0
111
1.0
121
0.0
131
0.0
112
0.0
122
1.0
132
0.0
345
0
346
0
 79
     0
146
0.0
  0
ENDTAB
  0
TABLE
  2
LTYPE
  5
4
100
AcDbSymbolTable
 70
     4
  0
LTYPE
  5
11
100
AcDbSymbolTableRecord
100
AcDbLinetypeTableRecord
  2
ByBlock
 70
    64
  3

 72
    65
 73
     0
 40
0.0
  0
LTYPE
  5
12
100
AcDbSymbolTableRecord
100
AcDbLinetypeTableRecord
  2
ByLayer
 70
    64
  3

 72
    65
 73
     0
 40
0.0
  0
LTYPE
  5
13
100
AcDbSymbolTableRecord
100
AcDbLinetypeTableRecord
  2
Continuous
 70
    64
  3
Solid line
 72
    65
 73
     0
 40
0.0
  0
LTYPE
  5
24
100
AcDbSymbolTableRecord
100
AcDbLinetypeTableRecord
  2
DASHED
 70
     0
  3
__ __ __ __ __ __ __ __ __ __ __ __ __ __ __ __
 72
    65
 73
     2
 40
15.0
 49
12.0
 74
     0
 49
-3.0
 74
     0
  0
ENDTAB
  0
TABLE
  2
LAYER
  5
2
100
AcDbSymbolTable
 70
     1
  0
LAYER
  5
14
100
AcDbSymbolTableRecord
100
AcDbLayerTableRecord
  2
0
 70
     0
 62
     7
  6
Continuous
290
     1
370
    -3
390
1D
  0
ENDTAB
  0
TABLE
  2
STYLE
  5
3
100
AcDbSymbolTable
 70
     1
  0
STYLE
  5
17
100
AcDbSymbolTableRecord
100
AcDbTextStyleTableRecord
  2
Standard
 70
     0
 40
0.0
 41
1.0
 50
0.0
 71
     0
 42
0.0
  3
txt
  4

  0
ENDTAB
  0
TABLE
  2
VIEW
  5
5
100
AcDbSymbolTable
 70
     0
  0
ENDTAB
  0
TABLE
  2
UCS
  5
6
100
AcDbSymbolTable
 70
     0
  0
ENDTAB
  0
TABLE
  2
APPID
  5
8
100
AcDbSymbolTable
 70
     1
  0
APPID
  5
16
100
AcDbSymbolTableRecord
100
AcDbRegAppTableRecord
  2
ACAD
 70
     0
  0
ENDTAB
  0
TABLE
  2
DIMSTYLE
  5
9
100
AcDbSymbolTable
 70
     1
100
AcDbDimStyleTable
 71
     0
  0
DIMSTYLE
105
18
100
AcDbSymbolTableRecord
100
AcDbDimStyleTableRecord
  2
Standard
 70
     0
  3

  4

 40
1.0
 41
0.18
 42
0.0625
 43
0.38
 44
0.18
 45
0.0
 46
0.0
 47
0.0
 48
0.0
 71
     0
 72
     0
 73
     1
 74
     1
 75
     0
 76
     0
 77
     0
 78
     0
 79
     0
140
0.18
141
0.09
142
0.0
143
25.4
144
1.0
145
0.0
146
1.0
147
0.09
148
0.0
170
     0
171
     2
172
     0
173
     0
174
     0
175
     0
176
     0
177
     0
178
     0
179
     0
271
     4
272
     4
273
     2
274
     2
275
     0
276
     0
277
     2
278
    46
279
     0
280
     0
281
     0
282
     0
283
     1
284
     0
285
     0
286
     0
288
     0
289
     3
340
17
341
0
342
0
343
0
344
0
371
    -2
372
    -2
  0
ENDTAB
  0
TABLE
  2
BLOCK_RECORD
  5
1
100
AcDbSymbolTable
 70
     0
  0
BLOCK_RECORD
  5
A
100
AcDbSymbolTableRecord
100
AcDbBlockTableRecord
  2
*MODEL_SPACE
340
20
  0
BLOCK_RECORD
  5
B
100
AcDbSymbolTableRecord
100
AcDbBlockTableRecord
  2
*PAPER_SPACE
340
21
  0
ENDTAB
  0
ENDSEC
  0
SECTION
  2
BLOCKS
  0
BLOCK
  5
D
100
AcDbEntity
  8
0
390
0
100
AcDbBlockBegin
  2
*MODEL_SPACE
 70
     0
 10
0.0
 20
0.0
 30
0.0
  3
*MODEL_SPACE
  1

  0
ENDBLK
  5
E
100
AcDbEntity
  8
0
390
0
100
AcDbBlockEnd
  0
BLOCK
  5
F
100
AcDbEntity
 67
     1
  8
0
390
0
100
AcDbBlockBegin
  2
*PAPER_SPACE
 70
     0
 10
0.0
 20
0.0
 30
0.0
  3
*PAPER_SPACE
  1

  0
ENDBLK
  5
10
100
AcDbEntity
 67
     1
  8
0
390
0
100
AcDbBlockEnd
  0
ENDSEC
  0
SECTION
  2
ENTITIES
  0
VIEWPORT
  5
280
100
AcDbEntity
 67
     1
  8
0
370
     0
390
0
 62
     0
 48
0.0
100
AcDbViewport
 10
0.0
 20
0.0
 30
0.0
 40
1000.0
 41
1000.0
 68
     1
 69
     1
 12
0.0
 22
0.0
 13
0.0
 23
0.0
 14
1.0
 24
1.0
 15
1.0
 25
1.0
 16
0.0
 26
0.0
 36
1.0
 17
0.0
 27
0.0
 37
0.0
 42
50.0
 43
0.0
 44
0.0
 45
1000.0
 50
0.0
 51
0.0
 72
   100
 90
        0
340
0
  1

281
     0
 71
     0
 74
     1
110
0.0
120
0.0
130
0.0
111
1.0
121
0.0
131
0.0
112
0.0
122
1.0
132
0.0
345
0
346
0
 79
     0
146
0.0
  0
LINE
  5
25
100
AcDbEntity
  8
0
370
    35
390
0
 62
     7
 48
0.150001
100
AcDbLine
 10
64.379753
 20
75.709625
 30
0.0
 11
58.379723
 21
75.709625
 31
0.0
210
0.0
220
0.0
230
1.0
  0
LINE
  5
26
100
AcDbEntity
  8
0
370
    35
390
0
 62
     7
 48
0.249998
100
AcDbLine
 10
57.379723
 20
66.709755
 30
0.0
 11
47.379814
 21
66.709755
 31
0.0
210
0.0
220
0.0
230
1.0
  0
LINE
  5
27
100
AcDbEntity
  8
0
370
    35
390
0
 62
     7
 48
0.249998
100
AcDbLine
 10
57.379723
 20
74.709625
 30
0.0
 11
47.379814
 21
74.709625
 31
0.0
210
0.0
220
0.0
230
1.0
  0
LINE
  5
28
100
AcDbEntity
  8
0
370
    35
390
0
 62
     7
 48
0.020972
100
AcDbLine
 10
44.955589
 20
66.959656
 30
0.0
 11
44.580437
 21
67.709961
 31
0.0
210
0.0
220
0.0
230
1.0
  0
LINE
  5
29
100
AcDbEntity
  8
0
370
    35
390
0
 62
     7
 48
0.020959
100
AcDbLine
 10
44.954964
 20
74.459404
 30
0.0
 11
44.580032
 21
73.709534
 31
0.0
210
0.0
220
0.0
230
1.0
  0
LINE
  5
2A
100
AcDbEntity
  8
0
370
    35
390
0
 62
     7
 48
0.060625
100
AcDbLine
 10
47.379814
 20
74.459625
 30
0.0
 11
44.954826
 21
74.459625
 31
0.0
210
0.0
220
0.0
230
1.0
  0
LINE
  5
2B
100
AcDbEntity
  8
0
370
    35
390
0
 62
     7
 48
0.060612
100
AcDbLine
 10
47.379814
 20
66.959755
 30
0.0
 11
44.955315
 21
66.959755
 31
0.0
210
0.0
220
0.0
230
1.0
  0
LINE
  5
2C
100
AcDbEntity
  8
0
370
    35
390
0
 62
     7
 48
0.199997
100
AcDbLine
 10
47.379692
 20
66.709755
 30
0.0
 11
47.379692
 21
74.709625
 31
0.0
210
0.0
220
0.0
230
1.0
  0
LINE
  5
2D
100
AcDbEntity
  8
0
370
    35
390
0
 62
     7
 48
0.224997
100
AcDbLine
 10
57.379723
 20
65.709755
 30
0.0
 11
57.379723
 21
74.709625
 31
0.0
210
0.0
220
0.0
230
1.0
  0
LINE
  5
2E
100
AcDbEntity
  8
0
370
    35
390
0
 62
     7
 48
0.081702
100
AcDbLine
 10
15.37973
 20
72.343903
 30
0.0
 11
15.37973
 21
69.075836
 31
0.0
210
0.0
220
0.0
230
1.0
  0
LINE
  5
2F
100
AcDbEntity
  8
0
370
    35
390
0
 62
     7
 48
0.043311
100
AcDbLine
 10
15.378754
 20
69.075256
 30
0.0
 11
16.879074
 21
68.209038
 31
0.0
210
0.0
220
0.0
230
1.0
  0
LINE
  5
30
100
AcDbEntity
  8
0
370
    35
390
0
 62
     7
 48
0.080029
100
AcDbLine
 10
16.87973
 20
68.210114
 30
0.0
 11
20.080902
 21
68.210114
 31
0.0
210
0.0
220
0.0
230
1.0
  0
LINE
  5
31
100
AcDbEntity
  8
0
370
    35
390
0
 62
     7
 48
0.125
100
AcDbLine
 10
16.87973
 20
73.209625
 30
0.0
 11
16.87973
 21
68.209625
 31
0.0
210
0.0
220
0.0
230
1.0
  0
LINE
  5
32
100
AcDbEntity
  8
0
370
    35
390
0
 62
     7
 48
0.026855
100
AcDbLine
 10
19.321159
 20
68.21048
 30
0.0
 11
20.080734
 21
68.970078
 31
0.0
210
0.0
220
0.0
230
1.0
  0
LINE
  5
33
100
AcDbEntity
  8
0
370
    35
390
0
 62
     7
 48
0.061865
100
AcDbLine
 10
18.330208
 20
68.209183
 30
0.0
 11
20.080017
 21
69.959
 31
0.0
210
0.0
220
0.0
230
1.0
  0
LINE
  5
34
100
AcDbEntity
  8
0
370
    35
390
0
 62
     7
 48
0.096875
100
AcDbLine
 10
17.340492
 20
68.210564
 30
0.0
 11
20.080528
 21
70.9506
 31
0.0
210
0.0
220
0.0
230
1.0
  0
LINE
  5
35
100
AcDbEntity
  8
0
370
    35
390
0
 62
     7
 48
0.113135
100
AcDbLine
 10
16.881371
 20
68.738228
 30
0.0
 11
20.081299
 21
71.938171
 31
0.0
210
0.0
220
0.0
230
1.0
  0
LINE
  5
36
100
AcDbEntity
  8
0
370
    35
390
0
 62
     7
 48
0.113135
100
AcDbLine
 10
16.879753
 20
69.731628
 30
0.0
 11
20.079689
 21
72.931564
 31
0.0
210
0.0
220
0.0
230
1.0
  0
LINE
  5
37
100
AcDbEntity
  8
0
370
    35
390
0
 62
     7
 48
0.088037
100
AcDbLine
 10
16.880775
 20
70.719276
 30
0.0
 11
19.370834
 21
73.209343
 31
0.0
210
0.0
220
0.0
230
1.0
  0
LINE
  5
38
100
AcDbEntity
  8
0
370
    35
390
0
 62
     7
 48
0.053076
100
AcDbLine
 10
16.881119
 20
71.707779
 30
0.0
 11
18.382339
 21
73.209
 31
0.0
210
0.0
220
0.0
230
1.0
  0
LINE
  5
39
100
AcDbEntity
  8
0
370
    35
390
0
 62
     7
 48
0.018018
100
AcDbLine
 10
16.880775
 20
72.69973
 30
0.0
 11
17.390388
 21
73.209343
 31
0.0
210
0.0
220
0.0
230
1.0
  0
LINE
  5
3A
100
AcDbEntity
  8
0
370
    35
390
0
 62
     7
 48
0.02688
100
AcDbLine
 10
19.319908
 20
73.210899
 30
0.0
 11
20.080193
 21
72.450615
 31
0.0
210
0.0
220
0.0
230
1.0
  0
LINE
  5
3B
100
AcDbEntity
  8
0
370
    35
390
0
 62
     7
 48
0.080029
100
AcDbLine
 10
16.87973
 20
73.210114
 30
0.0
 11
20.080902
 21
73.210114
 31
0.0
210
0.0
220
0.0
230
1.0
  0
LINE
  5
3C
100
AcDbEntity
  8
0
370
    35
390
0
 62
     7
 48
0.061865
100
AcDbLine
 10
18.330032
 20
73.208481
 30
0.0
 11
20.079842
 21
71.458664
 31
0.0
210
0.0
220
0.0
230
1.0
  0
LINE
  5
3D
100
AcDbEntity
  8
0
370
    35
390
0
 62
     7
 48
0.096899
100
AcDbLine
 10
17.340149
 20
73.210197
 30
0.0
 11
20.080872
 21
70.46946
 31
0.0
210
0.0
220
0.0
230
1.0
  0
LINE
  5
3E
100
AcDbEntity
  8
0
370
    35
390
0
 62
     7
 48
0.113135
100
AcDbLine
 10
16.879738
 20
72.678665
 30
0.0
 11
20.079674
 21
69.478729
 31
0.0
210
0.0
220
0.0
230
1.0
  0
LINE
  5
3F
100
AcDbEntity
  8
0
370
    35
390
0
 62
     7
 48
0.113135
100
AcDbLine
 10
16.879219
 20
71.688271
 30
0.0
 11
20.079155
 21
68.488335
 31
0.0
210
0.0
220
0.0
230
1.0
  0
LINE
  5
40
100
AcDbEntity
  8
0
370
    35
390
0
 62
     7
 48
0.088031
100
AcDbLine
 10
16.879395
 20
70.698906
 30
0.0
 11
19.369286
 21
68.209015
 31
0.0
210
0.0
220
0.0
230
1.0
  0
LINE
  5
41
100
AcDbEntity
  8
0
370
    35
390
0
 62
     7
 48
0.053027
100
AcDbLine
 10
16.879723
 20
69.707687
 30
0.0
 11
18.37957
 21
68.207855
 31
0.0
210
0.0
220
0.0
230
1.0
  0
LINE
  5
42
100
AcDbEntity
  8
0
370
    35
390
0
 62
     7
 48
0.018018
100
AcDbLine
 10
16.881294
 20
68.719666
 30
0.0
 11
17.390907
 21
68.210045
 31
0.0
210
0.0
220
0.0
230
1.0
  0
LINE
  5
43
100
AcDbEntity
  8
0
370
    35
390
0
 62
     7
 48
0.125
100
AcDbLine
 10
20.080902
 20
73.209625
 30
0.0
 11
20.080902
 21
68.209625
 31
0.0
210
0.0
220
0.0
230
1.0
  0
LINE
  5
44
100
AcDbEntity
  8
0
370
    35
390
0
 62
     7
 48
0.010644
100
AcDbLine
 10
20.379753
 20
68.510468
 30
0.0
 11
20.078682
 21
68.209396
 31
0.0
210
0.0
220
0.0
230
1.0
  0
LINE
  5
45
100
AcDbEntity
  8
0
370
    35
390
0
 62
     7
 48
0.010596
100
AcDbLine
 10
20.079498
 20
73.209167
 30
0.0
 11
20.379189
 21
72.909477
 31
0.0
210
0.0
220
0.0
230
1.0
  0
LINE
  5
46
100
AcDbEntity
  8
0
370
    35
390
0
 62
     7
 48
0.043311
100
AcDbLine
 10
15.380363
 20
72.344543
 30
0.0
 11
16.880684
 21
73.210762
 31
0.0
210
0.0
220
0.0
230
1.0
  0
LINE
  5
47
100
AcDbEntity
  8
0
370
    35
390
0
 62
     7
100
AcDbLine
 10
109.079704
 20
75.509674
 30
0.0
 11
65.179802
 21
75.509674
 31
0.0
210
0.0
220
0.0
230
1.0
  0
LINE
  5
48
100
AcDbEntity
  8
0
370
    35
390
0
 62
     7
 48
0.020001
100
AcDbLine
 10
65.179802
 20
75.609528
 30
0.0
 11
64.379753
 21
75.609528
 31
0.0
210
0.0
220
0.0
230
1.0
  0
LINE
  5
49
100
AcDbEntity
  8
0
370
    35
390
0
 62
     7
100
AcDbLine
 10
108.379753
 20
63.909706
 30
0.0
 11
65.179802
 21
63.909706
 31
0.0
210
0.0
220
0.0
230
1.0
  0
LINE
  5
4A
100
AcDbEntity
  8
0
370
    35
390
0
 62
     7
 48
0.125001
100
AcDbLine
 10
64.379753
 20
63.709648
 30
0.0
 11
59.379723
 21
63.709648
 31
0.0
210
0.0
220
0.0
230
1.0
  0
LINE
  5
4B
100
AcDbEntity
  8
0
370
    35
390
0
 62
     7
 48
0.020001
100
AcDbLine
 10
65.179802
 20
63.809853
 30
0.0
 11
64.379753
 21
63.809746
 31
0.0
210
0.0
220
0.0
230
1.0
  0
LINE
  5
4C
100
AcDbEntity
  8
0
370
    35
390
0
 62
     7
 48
0.086116
100
AcDbLine
 10
70.329758
 20
136.309662
 30
0.0
 11
73.774406
 21
136.309662
 31
0.0
210
0.0
220
0.0
230
1.0
  0
LINE
  5
4D
100
AcDbEntity
  8
0
370
    35
390
0
 62
     7
 48
0.039643
100
AcDbLine
 10
64.379753
 20
136.209747
 30
0.0
 11
62.794029
 21
136.209747
 31
0.0
210
0.0
220
0.0
230
1.0
  0
LINE
  5
4E
100
AcDbEntity
  8
0
370
    35
390
0
 62
     7
 48
0.249998
100
AcDbLine
 10
57.379723
 20
113.70974
 30
0.0
 11
47.379814
 21
113.70974
 31
0.0
210
0.0
220
0.0
230
1.0
  0
LINE
  5
4F
100
AcDbEntity
  8
0
370
    35
390
0
 62
     7
 48
0.249998
100
AcDbLine
 10
57.379723
 20
121.70974
 30
0.0
 11
47.379814
 21
121.70974
 31
0.0
210
0.0
220
0.0
230
1.0
  0
LINE
  5
50
100
AcDbEntity
  8
0
370
    35
390
0
 62
     7
 48
0.020966
100
AcDbLine
 10
44.955185
 20
113.959923
 30
0.0
 11
44.580147
 21
114.710014
 31
0.0
210
0.0
220
0.0
230
1.0
  0
LINE
  5
51
100
AcDbEntity
  8
0
370
    35
390
0
 62
     7
 48
0.020959
100
AcDbLine
 10
44.954765
 20
121.459282
 30
0.0
 11
44.579826
 21
120.709419
 31
0.0
210
0.0
220
0.0
230
1.0
  0
LINE
  5
52
100
AcDbEntity
  8
0
370
    35
390
0
 62
     7
100
AcDbLine
 10
57.379723
 20
108.623627
 30
0.0
 11
57.379723
 21
130.795563
 31
0.0
210
0.0
220
0.0
230
1.0
  0
LINE
  5
53
100
AcDbEntity
  8
0
370
    35
390
0
 62
     7
 48
0.2
100
AcDbLine
 10
47.379692
 20
113.70974
 30
0.0
 11
47.379692
 21
121.70974
 31
0.0
210
0.0
220
0.0
230
1.0
  0
LINE
  5
54
100
AcDbEntity
  8
0
370
    35
390
0
 62
     7
 48
0.060625
100
AcDbLine
 10
47.379814
 20
121.45974
 30
0.0
 11
44.954826
 21
121.45974
 31
0.0
210
0.0
220
0.0
230
1.0
  0
LINE
  5
55
100
AcDbEntity
  8
0
370
    35
390
0
 62
     7
 48
0.060612
100
AcDbLine
 10
47.379814
 20
113.95974
 30
0.0
 11
44.955315
 21
113.95974
 31
0.0
210
0.0
220
0.0
230
1.0
  0
LINE
  5
56
100
AcDbEntity
  8
0
370
    35
390
0
 62
     7
 48
0.15
100
AcDbLine
 10
44.579826
 20
114.70974
 30
0.0
 11
44.579826
 21
120.70974
 31
0.0
210
0.0
220
0.0
230
1.0
  0
LINE
  5
57
100
AcDbEntity
  8
0
370
    35
390
0
 62
     7
 48
0.1875
100
AcDbLine
 10
44.955315
 20
113.95974
 30
0.0
 11
44.955315
 21
121.45974
 31
0.0
210
0.0
220
0.0
230
1.0
  0
LINE
  5
58
100
AcDbEntity
  8
0
370
    35
390
0
 62
     7
 48
0.081702
100
AcDbLine
 10
15.37973
 20
119.344017
 30
0.0
 11
15.37973
 21
116.075951
 31
0.0
210
0.0
220
0.0
230
1.0
  0
LINE
  5
59
100
AcDbEntity
  8
0
370
    35
390
0
 62
     7
 48
0.04331
100
AcDbLine
 10
15.378899
 20
116.074684
 30
0.0
 11
16.879211
 21
115.208466
 31
0.0
210
0.0
220
0.0
230
1.0
  0
LINE
  5
5A
100
AcDbEntity
  8
0
370
    35
390
0
 62
     7
 48
0.080029
100
AcDbLine
 10
16.87973
 20
115.210228
 30
0.0
 11
20.080902
 21
115.210228
 31
0.0
210
0.0
220
0.0
230
1.0
  0
LINE
  5
5B
100
AcDbEntity
  8
0
370
    35
390
0
 62
     7
 48
0.125
100
AcDbLine
 10
16.87973
 20
120.20974
 30
0.0
 11
16.87973
 21
115.20974
 31
0.0
210
0.0
220
0.0
230
1.0
  0
LINE
  5
5C
100
AcDbEntity
  8
0
370
    35
390
0
 62
     7
 48
0.026855
100
AcDbLine
 10
19.320198
 20
115.210609
 30
0.0
 11
20.079773
 21
115.970207
 31
0.0
210
0.0
220
0.0
230
1.0
  0
LINE
  5
5D
100
AcDbEntity
  8
0
370
    35
390
0
 62
     7
 48
0.061865
100
AcDbLine
 10
18.330109
 20
115.209297
 30
0.0
 11
20.079918
 21
116.959114
 31
0.0
210
0.0
220
0.0
230
1.0
  0
LINE
  5
5E
100
AcDbEntity
  8
0
370
    35
390
0
 62
     7
 48
0.096869
100
AcDbLine
 10
17.340714
 20
115.210251
 30
0.0
 11
20.080582
 21
117.950111
 31
0.0
210
0.0
220
0.0
230
1.0
  0
LINE
  5
5F
100
AcDbEntity
  8
0
370
    35
390
0
 62
     7
 48
0.113135
100
AcDbLine
 10
16.881416
 20
115.73819
 30
0.0
 11
20.081352
 21
118.938133
 31
0.0
210
0.0
220
0.0
230
1.0
  0
LINE
  5
60
100
AcDbEntity
  8
0
370
    35
390
0
 62
     7
 48
0.113135
100
AcDbLine
 10
16.880493
 20
116.730812
 30
0.0
 11
20.080429
 21
119.930748
 31
0.0
210
0.0
220
0.0
230
1.0
  0
LINE
  5
61
100
AcDbEntity
  8
0
370
    35
390
0
 62
     7
 48
0.088037
100
AcDbLine
 10
16.880676
 20
117.719048
 30
0.0
 11
19.370743
 21
120.209106
 31
0.0
210
0.0
220
0.0
230
1.0
  0
LINE
  5
62
100
AcDbEntity
  8
0
370
    35
390
0
 62
     7
 48
0.053076
100
AcDbLine
 10
16.88102
 20
118.707542
 30
0.0
 11
18.38224
 21
120.208763
 31
0.0
210
0.0
220
0.0
230
1.0
  0
LINE
  5
63
100
AcDbEntity
  8
0
370
    35
390
0
 62
     7
 48
0.018018
100
AcDbLine
 10
16.880844
 20
119.699669
 30
0.0
 11
17.390457
 21
120.209282
 31
0.0
210
0.0
220
0.0
230
1.0
  0
LINE
  5
64
100
AcDbEntity
  8
0
370
    35
390
0
 62
     7
 48
0.02688
100
AcDbLine
 10
19.319809
 20
120.210663
 30
0.0
 11
20.080093
 21
119.450386
 31
0.0
210
0.0
220
0.0
230
1.0
  0
LINE
  5
65
100
AcDbEntity
  8
0
370
    35
390
0
 62
     7
 48
0.080029
100
AcDbLine
 10
16.87973
 20
120.210228
 30
0.0
 11
20.080902
 21
120.210228
 31
0.0
210
0.0
220
0.0
230
1.0
  0
LINE
  5
66
100
AcDbEntity
  8
0
370
    35
390
0
 62
     7
 48
0.061865
100
AcDbLine
 10
18.329933
 20
120.208244
 30
0.0
 11
20.079742
 21
118.458435
 31
0.0
210
0.0
220
0.0
230
1.0
  0
LINE
  5
67
100
AcDbEntity
  8
0
370
    35
390
0
 62
     7
 48
0.096893
100
AcDbLine
 10
17.340141
 20
120.209953
 30
0.0
 11
20.080688
 21
117.469383
 31
0.0
210
0.0
220
0.0
230
1.0
  0
LINE
  5
68
100
AcDbEntity
  8
0
370
    35
390
0
 62
     7
 48
0.113135
100
AcDbLine
 10
16.879639
 20
119.678429
 30
0.0
 11
20.079575
 21
116.4785
 31
0.0
210
0.0
220
0.0
230
1.0
  0
LINE
  5
69
100
AcDbEntity
  8
0
370
    35
390
0
 62
     7
 48
0.113135
100
AcDbLine
 10
16.879295
 20
118.68821
 30
0.0
 11
20.079231
 21
115.488274
 31
0.0
210
0.0
220
0.0
230
1.0
  0
LINE
  5
6A
100
AcDbEntity
  8
0
370
    35
390
0
 62
     7
 48
0.088037
100
AcDbLine
 10
16.87912
 20
117.698845
 30
0.0
 11
19.369186
 21
115.208778
 31
0.0
210
0.0
220
0.0
230
1.0
  0
LINE
  5
6B
100
AcDbEntity
  8
0
370
    35
390
0
 62
     7
 48
0.053027
100
AcDbLine
 10
16.880066
 20
116.70739
 30
0.0
 11
18.379913
 21
115.207558
 31
0.0
210
0.0
220
0.0
230
1.0
  0
LINE
  5
6C
100
AcDbEntity
  8
0
370
    35
390
0
 62
     7
 48
0.018018
100
AcDbLine
 10
16.881279
 20
115.719513
 30
0.0
 11
17.390892
 21
115.2099
 31
0.0
210
0.0
220
0.0
230
1.0
  0
LINE
  5
6D
100
AcDbEntity
  8
0
370
    35
390
0
 62
     7
 48
0.125
100
AcDbLine
 10
20.080902
 20
120.20974
 30
0.0
 11
20.080902
 21
115.20974
 31
0.0
210
0.0
220
0.0
230
1.0
  0
LINE
  5
6E
100
AcDbEntity
  8
0
370
    35
390
0
 62
     7
 48
0.010645
100
AcDbLine
 10
20.380386
 20
115.510162
 30
0.0
 11
20.079308
 21
115.209091
 31
0.0
210
0.0
220
0.0
230
1.0
  0
LINE
  5
6F
100
AcDbEntity
  8
0
370
    35
390
0
 62
     7
 48
0.010596
100
AcDbLine
 10
20.079575
 20
120.209114
 30
0.0
 11
20.379265
 21
119.909416
 31
0.0
210
0.0
220
0.0
230
1.0
  0
LINE
  5
70
100
AcDbEntity
  8
0
370
    35
390
0
 62
     7
 48
0.043311
100
AcDbLine
 10
15.380424
 20
119.344307
 30
0.0
 11
16.880745
 21
120.210526
 31
0.0
210
0.0
220
0.0
230
1.0
  0
LINE
  5
71
100
AcDbEntity
  8
0
370
    35
390
0
 62
     7
100
AcDbLine
 10
64.379753
 20
103.20974
 30
0.0
 11
64.379753
 21
136.209747
 31
0.0
210
0.0
220
0.0
230
1.0
  0
LINE
  5
72
100
AcDbEntity
  8
0
370
    35
390
0
 62
     7
 48
0.039645
100
AcDbLine
 10
64.379753
 20
103.20974
 30
0.0
 11
62.793938
 21
103.20974
 31
0.0
210
0.0
220
0.0
230
1.0
  0
LINE
  5
73
100
AcDbEntity
  8
0
370
    35
390
0
 62
     7
 48
0.204999
100
AcDbLine
 10
130.079681
 20
113.609764
 30
0.0
 11
130.079681
 21
121.809715
 31
0.0
210
0.0
220
0.0
230
1.0
  0
LINE
  5
74
100
AcDbEntity
  8
0
370
    35
390
0
 62
     7
 48
0.229999
100
AcDbLine
 10
129.579681
 20
113.109764
 30
0.0
 11
129.579681
 21
122.309715
 31
0.0
210
0.0
220
0.0
230
1.0
  0
LINE
  5
75
100
AcDbEntity
  8
0
370
    35
390
0
 62
     7
 48
0.487499
100
AcDbLine
 10
129.579681
 20
121.409691
 30
0.0
 11
110.079704
 21
121.409691
 31
0.0
210
0.0
220
0.0
230
1.0
  0
LINE
  5
76
100
AcDbEntity
  8
0
370
    35
390
0
 62
     7
 48
0.487499
100
AcDbLine
 10
129.579681
 20
120.609642
 30
0.0
 11
110.079704
 21
120.609642
 31
0.0
210
0.0
220
0.0
230
1.0
  0
LINE
  5
77
100
AcDbEntity
  8
0
370
    35
390
0
 62
     7
 48
0.487499
100
AcDbLine
 10
129.579681
 20
119.809837
 30
0.0
 11
110.079704
 21
119.809837
 31
0.0
210
0.0
220
0.0
230
1.0
  0
LINE
  5
78
100
AcDbEntity
  8
0
370
    35
390
0
 62
     7
 48
0.487499
100
AcDbLine
 10
129.579681
 20
119.009789
 30
0.0
 11
110.079704
 21
119.009789
 31
0.0
210
0.0
220
0.0
230
1.0
  0
LINE
  5
79
100
AcDbEntity
  8
0
370
    35
390
0
 62
     7
 48
0.487499
100
AcDbLine
 10
129.579681
 20
118.20974
 30
0.0
 11
110.079704
 21
118.20974
 31
0.0
210
0.0
220
0.0
230
1.0
  0
LINE
  5
7A
100
AcDbEntity
  8
0
370
    35
390
0
 62
     7
 48
0.487499
100
AcDbLine
 10
129.579681
 20
117.409691
 30
0.0
 11
110.079704
 21
117.409691
 31
0.0
210
0.0
220
0.0
230
1.0
  0
LINE
  5
7B
100
AcDbEntity
  8
0
370
    35
390
0
 62
     7
 48
0.487499
100
AcDbLine
 10
129.579681
 20
116.609642
 30
0.0
 11
110.079704
 21
116.609642
 31
0.0
210
0.0
220
0.0
230
1.0
  0
LINE
  5
7C
100
AcDbEntity
  8
0
370
    35
390
0
 62
     7
 48
0.487499
100
AcDbLine
 10
129.579681
 20
115.809837
 30
0.0
 11
110.079704
 21
115.809837
 31
0.0
210
0.0
220
0.0
230
1.0
  0
LINE
  5
7D
100
AcDbEntity
  8
0
370
    35
390
0
 62
     7
 48
0.487499
100
AcDbLine
 10
129.579681
 20
115.009789
 30
0.0
 11
110.079704
 21
115.009789
 31
0.0
210
0.0
220
0.0
230
1.0
  0
LINE
  5
7E
100
AcDbEntity
  8
0
370
    35
390
0
 62
     7
 48
0.487499
100
AcDbLine
 10
129.579681
 20
114.20974
 30
0.0
 11
110.079704
 21
114.20974
 31
0.0
210
0.0
220
0.0
230
1.0
  0
LINE
  5
7F
100
AcDbEntity
  8
0
370
    35
390
0
 62
     7
100
AcDbLine
 10
108.379753
 20
136.009613
 30
0.0
 11
64.379753
 21
136.009796
 31
0.0
210
0.0
220
0.0
230
1.0
  0
LINE
  5
80
100
AcDbEntity
  8
0
370
    35
390
0
 62
     7
100
AcDbLine
 10
108.379753
 20
103.409592
 30
0.0
 11
64.379753
 21
103.409691
 31
0.0
210
0.0
220
0.0
230
1.0
  0
LINE
  5
81
100
AcDbEntity
  8
0
370
    35
390
0
 62
     7
 48
0.086116
100
AcDbLine
 10
73.774406
 20
103.109543
 30
0.0
 11
70.329758
 21
103.109543
 31
0.0
210
0.0
220
0.0
230
1.0
  0
LINE
  5
82
100
AcDbEntity
  8
0
370
    35
390
0
 62
     7
 48
0.0125
100
AcDbLine
 10
110.879753
 20
132.209656
 30
0.0
 11
110.879753
 21
132.709656
 31
0.0
210
0.0
220
0.0
230
1.0
  0
LINE
  5
83
100
AcDbEntity
  8
0
370
    35
390
0
 62
     7
 48
0.025
100
AcDbLine
 10
112.379753
 20
123.20974
 30
0.0
 11
111.379753
 21
123.20974
 31
0.0
210
0.0
220
0.0
230
1.0
  0
LINE
  5
84
100
AcDbEntity
  8
0
370
    35
390
0
 62
     7
 48
0.025
100
AcDbLine
 10
112.379753
 20
133.209656
 30
0.0
 11
111.379753
 21
133.209656
 31
0.0
210
0.0
220
0.0
230
1.0
  0
LINE
  5
85
100
AcDbEntity
  8
0
370
    35
390
0
 62
     7
 48
0.156067
100
AcDbLine
 10
62.087471
 20
135.917053
 30
0.0
 11
57.673302
 21
131.502747
 31
0.0
210
0.0
220
0.0
230
1.0
  0
LINE
  5
86
100
AcDbEntity
  8
0
370
    35
390
0
 62
     7
 48
0.15607
100
AcDbLine
 10
62.086853
 20
103.502609
 30
0.0
 11
57.67234
 21
107.916763
 31
0.0
210
0.0
220
0.0
230
1.0
  0
LINE
  5
87
100
AcDbEntity
  8
0
370
    35
390
0
 62
     7
 48
0.224997
100
AcDbLine
 10
112.879753
 20
123.70977
 30
0.0
 11
112.879753
 21
132.709656
 31
0.0
210
0.0
220
0.0
230
1.0
  0
LINE
  5
88
100
AcDbEntity
  8
0
370
    35
390
0
 62
     7
 48
0.224997
100
AcDbLine
 10
110.879753
 20
123.70977
 30
0.0
 11
110.879753
 21
132.709656
 31
0.0
210
0.0
220
0.0
230
1.0
  0
LINE
  5
89
100
AcDbEntity
  8
0
370
    35
390
0
 62
     7
 48
0.025
100
AcDbLine
 10
113.879753
 20
124.20977
 30
0.0
 11
112.879753
 21
124.20977
 31
0.0
210
0.0
220
0.0
230
1.0
  0
LINE
  5
8A
100
AcDbEntity
  8
0
370
    35
390
0
 62
     7
 48
0.025
100
AcDbLine
 10
113.879753
 20
132.209656
 30
0.0
 11
112.879753
 21
132.209656
 31
0.0
210
0.0
220
0.0
230
1.0
  0
LINE
  5
8B
100
AcDbEntity
  8
0
370
    35
390
0
 62
     7
 48
0.199997
100
AcDbLine
 10
121.379692
 20
124.20977
 30
0.0
 11
121.379692
 21
132.209656
 31
0.0
210
0.0
220
0.0
230
1.0
  0
LINE
  5
8C
100
AcDbEntity
  8
0
370
    35
390
0
 62
     7
 48
0.249998
100
AcDbLine
 10
113.879753
 20
123.20974
 30
0.0
 11
113.879753
 21
133.209656
 31
0.0
210
0.0
220
0.0
230
1.0
  0
LINE
  5
8D
100
AcDbEntity
  8
0
370
    35
390
0
 62
     7
 48
0.1625
100
AcDbLine
 10
120.379753
 20
123.20974
 30
0.0
 11
113.879753
 21
123.20974
 31
0.0
210
0.0
220
0.0
230
1.0
  0
LINE
  5
8E
100
AcDbEntity
  8
0
370
    35
390
0
 62
     7
 48
0.1625
100
AcDbLine
 10
120.379753
 20
133.209656
 30
0.0
 11
113.879753
 21
133.209656
 31
0.0
210
0.0
220
0.0
230
1.0
  0
LINE
  5
8F
100
AcDbEntity
  8
0
370
    35
390
0
 62
     7
 48
0.045068
100
AcDbLine
 10
122.880379
 20
125.959999
 30
0.0
 11
121.380409
 21
124.96003
 31
0.0
210
0.0
220
0.0
230
1.0
  0
LINE
  5
90
100
AcDbEntity
  8
0
370
    35
390
0
 62
     7
 48
0.045068
100
AcDbLine
 10
122.880165
 20
130.460052
 30
0.0
 11
121.380196
 21
131.460022
 31
0.0
210
0.0
220
0.0
230
1.0
  0
LINE
  5
91
100
AcDbEntity
  8
0
370
    35
390
0
 62
     7
 48
0.112522
100
AcDbLine
 10
122.879692
 20
125.95977
 30
0.0
 11
122.879692
 21
130.460663
 31
0.0
210
0.0
220
0.0
230
1.0
  0
LINE
  5
92
100
AcDbEntity
  8
0
370
    35
390
0
 62
     7
100
AcDbLine
 10
65.179802
 20
103.409889
 30
0.0
 11
65.179802
 21
136.009796
 31
0.0
210
0.0
220
0.0
230
1.0
  0
LINE
  5
93
100
AcDbEntity
  8
0
370
    35
390
0
 62
     7
 48
0.075
100
AcDbLine
 10
70.879753
 20
103.409592
 30
0.0
 11
73.879753
 21
103.409592
 31
0.0
210
0.0
220
0.0
230
1.0
  0
LINE
  5
94
100
AcDbEntity
  8
0
370
    35
390
0
 62
     7
 48
0.08875
100
AcDbLine
 10
74.429756
 20
103.109543
 30
0.0
 11
70.879753
 21
103.109543
 31
0.0
210
0.0
220
0.0
230
1.0
  0
LINE
  5
95
100
AcDbEntity
  8
0
370
    35
390
0
  6
DASHED
 62
     7
 48
0.007501
100
AcDbLine
 10
73.179802
 20
103.109543
 30
0.0
 11
73.179802
 21
103.409592
 31
0.0
210
0.0
220
0.0
230
1.0
  0
LINE
  5
96
100
AcDbEntity
  8
0
370
    35
390
0
  6
DASHED
 62
     7
 48
0.007501
100
AcDbLine
 10
71.579826
 20
103.109543
 30
0.0
 11
71.579826
 21
103.409592
 31
0.0
210
0.0
220
0.0
230
1.0
  0
LINE
  5
97
100
AcDbEntity
  8
0
370
    35
390
0
 62
     7
 48
0.08875
100
AcDbLine
 10
70.879753
 20
136.309662
 30
0.0
 11
74.429756
 21
136.309662
 31
0.0
210
0.0
220
0.0
230
1.0
  0
LINE
  5
98
100
AcDbEntity
  8
0
370
    35
390
0
 62
     7
 48
0.075
100
AcDbLine
 10
73.879753
 20
136.009613
 30
0.0
 11
70.879753
 21
136.009613
 31
0.0
210
0.0
220
0.0
230
1.0
  0
LINE
  5
99
100
AcDbEntity
  8
0
370
    35
390
0
  6
DASHED
 62
     7
 48
0.007501
100
AcDbLine
 10
73.179802
 20
136.009613
 30
0.0
 11
73.179802
 21
136.309662
 31
0.0
210
0.0
220
0.0
230
1.0
  0
LINE
  5
9A
100
AcDbEntity
  8
0
370
    35
390
0
  6
DASHED
 62
     7
 48
0.007501
100
AcDbLine
 10
71.579826
 20
136.009613
 30
0.0
 11
71.579826
 21
136.309662
 31
0.0
210
0.0
220
0.0
230
1.0
  0
LINE
  5
9B
100
AcDbEntity
  8
0
370
    35
390
0
 62
     7
 48
0.487499
100
AcDbLine
 10
129.579681
 20
75.309723
 30
0.0
 11
110.079704
 21
75.309723
 31
0.0
210
0.0
220
0.0
230
1.0
  0
LINE
  5
9C
100
AcDbEntity
  8
0
370
    35
390
0
 62
     7
 48
0.487499
100
AcDbLine
 10
129.579681
 20
66.109657
 30
0.0
 11
110.079704
 21
66.109657
 31
0.0
210
0.0
220
0.0
230
1.0
  0
LINE
  5
9D
100
AcDbEntity
  8
0
370
    35
390
0
 62
     7
 48
0.017682
100
AcDbLine
 10
129.580841
 20
66.110115
 30
0.0
 11
130.080933
 21
66.61026
 31
0.0
210
0.0
220
0.0
230
1.0
  0
LINE
  5
9E
100
AcDbEntity
  8
0
370
    35
390
0
 62
     7
 48
0.017676
100
AcDbLine
 10
130.07901
 20
74.809364
 30
0.0
 11
129.579071
 21
75.309319
 31
0.0
210
0.0
220
0.0
230
1.0
  0
LINE
  5
9F
100
AcDbEntity
  8
0
370
    35
390
0
 62
     7
 48
0.242502
100
AcDbLine
 10
110.079704
 20
65.609657
 30
0.0
 11
110.079704
 21
75.309723
 31
0.0
210
0.0
220
0.0
230
1.0
  0
LINE
  5
A0
100
AcDbEntity
  8
0
370
    35
390
0
 62
     7
100
AcDbLine
 10
110.079704
 20
105.109543
 30
0.0
 11
110.079704
 21
131.809723
 31
0.0
210
0.0
220
0.0
230
1.0
  0
LINE
  5
A1
100
AcDbEntity
  8
0
370
    35
390
0
 62
     7
 48
0.064999
100
AcDbLine
 10
110.079704
 20
131.709869
 30
0.0
 11
110.079704
 21
134.309845
 31
0.0
210
0.0
220
0.0
230
1.0
  0
LINE
  5
A2
100
AcDbEntity
  8
0
370
    35
390
0
 62
     7
 48
0.487499
100
AcDbLine
 10
129.579681
 20
113.109764
 30
0.0
 11
110.079704
 21
113.109764
 31
0.0
210
0.0
220
0.0
230
1.0
  0
LINE
  5
A3
100
AcDbEntity
  8
0
370
    35
390
0
 62
     7
 48
0.487499
100
AcDbLine
 10
129.579681
 20
122.309715
 30
0.0
 11
110.079704
 21
122.309715
 31
0.0
210
0.0
220
0.0
230
1.0
  0
LINE
  5
A4
100
AcDbEntity
  8
0
370
    35
390
0
 62
     7
 48
0.017676
100
AcDbLine
 10
130.079529
 20
113.609459
 30
0.0
 11
129.57959
 21
113.109497
 31
0.0
210
0.0
220
0.0
230
1.0
  0
LINE
  5
A5
100
AcDbEntity
  8
0
370
    35
390
0
 62
     7
 48
0.017682
100
AcDbLine
 10
130.079437
 20
121.809517
 30
0.0
 11
129.579315
 21
122.309624
 31
0.0
210
0.0
220
0.0
230
1.0
  0
LINE
  5
A6
100
AcDbEntity
  8
0
370
    35
390
0
 62
     7
 48
0.294992
100
AcDbLine
 10
65.179802
 20
75.609528
 30
0.0
 11
65.179802
 21
63.809853
 31
0.0
210
0.0
220
0.0
230
1.0
  0
LINE
  5
A7
100
AcDbEntity
  8
0
370
    35
390
0
 62
     7
 48
0.299999
100
AcDbLine
 10
64.379753
 20
75.709625
 30
0.0
 11
64.379753
 21
63.709648
 31
0.0
210
0.0
220
0.0
230
1.0
  0
LINE
  5
A8
100
AcDbEntity
  8
0
370
    35
390
0
 62
     7
 48
0.187497
100
AcDbLine
 10
44.954826
 20
74.459625
 30
0.0
 11
44.954826
 21
66.959755
 31
0.0
210
0.0
220
0.0
230
1.0
  0
LINE
  5
A9
100
AcDbEntity
  8
0
370
    35
390
0
 62
     7
 48
0.487499
100
AcDbLine
 10
129.579681
 20
74.409576
 30
0.0
 11
110.079704
 21
74.409576
 31
0.0
210
0.0
220
0.0
230
1.0
  0
LINE
  5
AA
100
AcDbEntity
  8
0
370
    35
390
0
 62
     7
 48
0.487499
100
AcDbLine
 10
129.579681
 20
73.609528
 30
0.0
 11
110.079704
 21
73.609528
 31
0.0
210
0.0
220
0.0
230
1.0
  0
LINE
  5
AB
100
AcDbEntity
  8
0
370
    35
390
0
 62
     7
 48
0.487499
100
AcDbLine
 10
129.579681
 20
72.809723
 30
0.0
 11
110.079704
 21
72.809723
 31
0.0
210
0.0
220
0.0
230
1.0
  0
LINE
  5
AC
100
AcDbEntity
  8
0
370
    35
390
0
 62
     7
 48
0.487499
100
AcDbLine
 10
129.579681
 20
68.009674
 30
0.0
 11
110.079704
 21
68.009674
 31
0.0
210
0.0
220
0.0
230
1.0
  0
LINE
  5
AD
100
AcDbEntity
  8
0
370
    35
390
0
 62
     7
 48
0.487499
100
AcDbLine
 10
129.579681
 20
67.209633
 30
0.0
 11
110.079704
 21
67.209633
 31
0.0
210
0.0
220
0.0
230
1.0
  0
LINE
  5
AE
100
AcDbEntity
  8
0
370
    35
390
0
 62
     7
 48
0.25
100
AcDbLine
 10
19.420158
 20
33.209869
 30
0.0
 11
19.420158
 21
43.209873
 31
0.0
210
0.0
220
0.0
230
1.0
  0
LINE
  5
AF
100
AcDbEntity
  8
0
370
    35
390
0
 62
     7
 48
0.487498
100
AcDbLine
 10
30.420158
 20
31.709869
 30
0.0
 11
49.920067
 21
31.709869
 31
0.0
210
0.0
220
0.0
230
1.0
  0
LINE
  5
B0
100
AcDbEntity
  8
0
370
    35
390
0
 62
     7
 48
0.487498
100
AcDbLine
 10
30.420158
 20
44.709873
 30
0.0
 11
49.920067
 21
44.709873
 31
0.0
210
0.0
220
0.0
230
1.0
  0
LINE
  5
B1
100
AcDbEntity
  8
0
370
    35
390
0
 62
     7
 48
0.294995
100
AcDbLine
 10
25.62011
 20
32.309967
 30
0.0
 11
25.62011
 21
44.109776
 31
0.0
210
0.0
220
0.0
230
1.0
  0
LINE
  5
B2
100
AcDbEntity
  8
0
370
    35
390
0
 62
     7
 48
0.325
100
AcDbLine
 10
30.420158
 20
31.709869
 30
0.0
 11
30.420158
 21
44.709873
 31
0.0
210
0.0
220
0.0
230
1.0
  0
LINE
  5
B3
100
AcDbEntity
  8
0
370
    35
390
0
 62
     7
 48
0.154999
100
AcDbLine
 10
19.420158
 20
33.209869
 30
0.0
 11
25.62011
 21
33.209869
 31
0.0
210
0.0
220
0.0
230
1.0
  0
LINE
  5
B4
100
AcDbEntity
  8
0
370
    35
390
0
 62
     7
 48
0.154999
100
AcDbLine
 10
19.420158
 20
43.209873
 30
0.0
 11
25.62011
 21
43.209873
 31
0.0
210
0.0
220
0.0
230
1.0
  0
LINE
  5
B5
100
AcDbEntity
  8
0
370
    35
390
0
 62
     7
 48
0.120001
100
AcDbLine
 10
25.62011
 20
32.309967
 30
0.0
 11
30.420158
 21
32.309967
 31
0.0
210
0.0
220
0.0
230
1.0
  0
LINE
  5
B6
100
AcDbEntity
  8
0
370
    35
390
0
 62
     7
 48
0.120001
100
AcDbLine
 10
25.62011
 20
44.109776
 30
0.0
 11
30.420158
 21
44.109776
 31
0.0
210
0.0
220
0.0
230
1.0
  0
LINE
  5
B7
100
AcDbEntity
  8
0
370
    35
390
0
 62
     7
 48
0.175
100
AcDbLine
 10
68.920097
 20
34.709869
 30
0.0
 11
68.920097
 21
41.709869
 31
0.0
210
0.0
220
0.0
230
1.0
  0
LINE
  5
B8
100
AcDbEntity
  8
0
370
    35
390
0
 62
     7
 48
0.128552
100
AcDbLine
 10
49.920212
 20
32.509789
 30
0.0
 11
54.920319
 21
33.709808
 31
0.0
210
0.0
220
0.0
230
1.0
  0
LINE
  5
B9
100
AcDbEntity
  8
0
370
    35
390
0
 62
     7
 48
0.128546
100
AcDbLine
 10
54.920357
 20
42.709667
 30
0.0
 11
49.920494
 21
43.909634
 31
0.0
210
0.0
220
0.0
230
1.0
  0
LINE
  5
BA
100
AcDbEntity
  8
0
370
    35
390
0
 62
     7
 48
0.350227
100
AcDbLine
 10
54.920418
 20
34.209808
 30
0.0
 11
68.920586
 21
34.709808
 31
0.0
210
0.0
220
0.0
230
1.0
  0
LINE
  5
BB
100
AcDbEntity
  8
0
370
    35
390
0
 62
     7
 48
0.155005
100
AcDbLine
 10
53.220116
 20
35.109772
 30
0.0
 11
53.220116
 21
41.309967
 31
0.0
210
0.0
220
0.0
230
1.0
  0
LINE
  5
BC
100
AcDbEntity
  8
0
370
    35
390
0
 62
     7
 48
0.155005
100
AcDbLine
 10
51.620018
 20
35.109772
 30
0.0
 11
51.620018
 21
41.309967
 31
0.0
210
0.0
220
0.0
230
1.0
  0
LINE
  5
BD
100
AcDbEntity
  8
0
370
    35
390
0
 62
     7
 48
0.040002
100
AcDbLine
 10
51.620018
 20
35.109772
 30
0.0
 11
53.220116
 21
35.109772
 31
0.0
210
0.0
220
0.0
230
1.0
  0
LINE
  5
BE
100
AcDbEntity
  8
0
370
    35
390
0
 62
     7
 48
0.040002
100
AcDbLine
 10
51.620018
 20
41.309967
 30
0.0
 11
53.220116
 21
41.309967
 31
0.0
210
0.0
220
0.0
230
1.0
  0
LINE
  5
BF
100
AcDbEntity
  8
0
370
    35
390
0
 62
     7
 48
0.042499
100
AcDbLine
 10
49.920067
 20
37.009918
 30
0.0
 11
51.620018
 21
37.009918
 31
0.0
210
0.0
220
0.0
230
1.0
  0
LINE
  5
C0
100
AcDbEntity
  8
0
370
    35
390
0
 62
     7
 48
0.042499
100
AcDbLine
 10
49.920067
 20
39.409821
 30
0.0
 11
51.620018
 21
39.409821
 31
0.0
210
0.0
220
0.0
230
1.0
  0
LINE
  5
C1
100
AcDbEntity
  8
0
370
    35
390
0
 62
     7
 48
0.175
100
AcDbLine
 10
46.819969
 20
34.709869
 30
0.0
 11
46.819969
 21
41.709869
 31
0.0
210
0.0
220
0.0
230
1.0
  0
LINE
  5
C2
100
AcDbEntity
  8
0
370
    35
390
0
 62
     7
 48
0.175
100
AcDbLine
 10
46.319969
 20
34.709869
 30
0.0
 11
46.319969
 21
41.709869
 31
0.0
210
0.0
220
0.0
230
1.0
  0
LINE
  5
C3
100
AcDbEntity
  8
0
370
    35
390
0
 62
     7
 48
0.175
100
AcDbLine
 10
44.62011
 20
34.709869
 30
0.0
 11
44.62011
 21
41.709869
 31
0.0
210
0.0
220
0.0
230
1.0
  0
LINE
  5
C4
100
AcDbEntity
  8
0
370
    35
390
0
 62
     7
 48
0.175
100
AcDbLine
 10
44.12011
 20
34.709869
 30
0.0
 11
44.12011
 21
41.709869
 31
0.0
210
0.0
220
0.0
230
1.0
  0
LINE
  5
C5
100
AcDbEntity
  8
0
370
    35
390
0
 62
     7
 48
0.175
100
AcDbLine
 10
42.420158
 20
34.709869
 30
0.0
 11
42.420158
 21
41.709869
 31
0.0
210
0.0
220
0.0
230
1.0
  0
LINE
  5
C6
100
AcDbEntity
  8
0
370
    35
390
0
 62
     7
 48
0.175
100
AcDbLine
 10
41.920158
 20
34.709869
 30
0.0
 11
41.920158
 21
41.709869
 31
0.0
210
0.0
220
0.0
230
1.0
  0
LINE
  5
C7
100
AcDbEntity
  8
0
370
    35
390
0
 62
     7
 48
0.175
100
AcDbLine
 10
40.220207
 20
34.709869
 30
0.0
 11
40.220207
 21
41.709869
 31
0.0
210
0.0
220
0.0
230
1.0
  0
LINE
  5
C8
100
AcDbEntity
  8
0
370
    35
390
0
 62
     7
 48
0.175
100
AcDbLine
 10
33.220207
 20
34.709869
 30
0.0
 11
33.220207
 21
41.709869
 31
0.0
210
0.0
220
0.0
230
1.0
  0
LINE
  5
C9
100
AcDbEntity
  8
0
370
    35
390
0
 62
     7
 48
0.175
100
AcDbLine
 10
33.220207
 20
34.709869
 30
0.0
 11
40.220207
 21
34.709869
 31
0.0
210
0.0
220
0.0
230
1.0
  0
LINE
  5
CA
100
AcDbEntity
  8
0
370
    35
390
0
 62
     7
 48
0.175
100
AcDbLine
 10
33.220207
 20
41.709869
 30
0.0
 11
40.220207
 21
41.709869
 31
0.0
210
0.0
220
0.0
230
1.0
  0
LINE
  5
CB
100
AcDbEntity
  8
0
370
    35
390
0
 62
     7
 48
0.0125
100
AcDbLine
 10
41.920158
 20
34.709869
 30
0.0
 11
42.420158
 21
34.709869
 31
0.0
210
0.0
220
0.0
230
1.0
  0
LINE
  5
CC
100
AcDbEntity
  8
0
370
    35
390
0
 62
     7
 48
0.0125
100
AcDbLine
 10
44.12011
 20
34.709869
 30
0.0
 11
44.62011
 21
34.709869
 31
0.0
210
0.0
220
0.0
230
1.0
  0
LINE
  5
CD
100
AcDbEntity
  8
0
370
    35
390
0
 62
     7
 48
0.011877
100
AcDbLine
 10
46.319969
 20
34.709869
 30
0.0
 11
46.795067
 21
34.709869
 31
0.0
210
0.0
220
0.0
230
1.0
  0
LINE
  5
CE
100
AcDbEntity
  8
0
370
    35
390
0
 62
     7
 48
0.0125
100
AcDbLine
 10
41.920158
 20
41.709869
 30
0.0
 11
42.420158
 21
41.709869
 31
0.0
210
0.0
220
0.0
230
1.0
  0
LINE
  5
CF
100
AcDbEntity
  8
0
370
    35
390
0
 62
     7
 48
0.0125
100
AcDbLine
 10
44.12011
 20
41.709869
 30
0.0
 11
44.62011
 21
41.709869
 31
0.0
210
0.0
220
0.0
230
1.0
  0
LINE
  5
D0
100
AcDbEntity
  8
0
370
    35
390
0
 62
     7
 48
0.0125
100
AcDbLine
 10
46.319969
 20
41.709869
 30
0.0
 11
46.819969
 21
41.709869
 31
0.0
210
0.0
220
0.0
230
1.0
  0
LINE
  5
D1
100
AcDbEntity
  8
0
370
    35
390
0
 62
     7
 48
0.05
100
AcDbLine
 10
39.220207
 20
37.209869
 30
0.0
 11
39.220207
 21
39.209869
 31
0.0
210
0.0
220
0.0
230
1.0
  0
LINE
  5
D2
100
AcDbEntity
  8
0
370
    35
390
0
 62
     7
 48
0.070709
100
AcDbLine
 10
36.220238
 20
36.210114
 30
0.0
 11
34.220284
 21
38.210075
 31
0.0
210
0.0
220
0.0
230
1.0
  0
LINE
  5
D3
100
AcDbEntity
  8
0
370
    35
390
0
 62
     7
 48
0.070709
100
AcDbLine
 10
36.220238
 20
40.21003
 30
0.0
 11
34.220284
 21
38.210075
 31
0.0
210
0.0
220
0.0
230
1.0
  0
LINE
  5
D4
100
AcDbEntity
  8
0
370
    35
390
0
 62
     7
 48
0.025
100
AcDbLine
 10
36.220207
 20
36.209869
 30
0.0
 11
36.220207
 21
37.209869
 31
0.0
210
0.0
220
0.0
230
1.0
  0
LINE
  5
D5
100
AcDbEntity
  8
0
370
    35
390
0
 62
     7
 48
0.075
100
AcDbLine
 10
36.220207
 20
39.209869
 30
0.0
 11
39.220207
 21
39.209869
 31
0.0
210
0.0
220
0.0
230
1.0
  0
LINE
  5
D6
100
AcDbEntity
  8
0
370
    35
390
0
 62
     7
 48
0.075
100
AcDbLine
 10
36.220207
 20
37.209869
 30
0.0
 11
39.220207
 21
37.209869
 31
0.0
210
0.0
220
0.0
230
1.0
  0
LINE
  5
D7
100
AcDbEntity
  8
0
370
    35
390
0
 62
     7
 48
0.025
100
AcDbLine
 10
36.220207
 20
39.209869
 30
0.0
 11
36.220207
 21
40.209869
 31
0.0
210
0.0
220
0.0
230
1.0
  0
LINE
  5
D8
100
AcDbEntity
  8
0
370
    35
390
0
 62
     7
 48
0.325
100
AcDbLine
 10
49.920067
 20
31.709869
 30
0.0
 11
49.920067
 21
44.709873
 31
0.0
210
0.0
220
0.0
230
1.0
  0
LINE
  5
D9
100
AcDbEntity
  8
0
370
    35
390
0
 62
     7
 48
0.071985
100
AcDbLine
 10
66.420387
 20
41.045052
 30
0.0
 11
66.920395
 21
38.209404
 31
0.0
210
0.0
220
0.0
230
1.0
  0
LINE
  5
DA
100
AcDbEntity
  8
0
370
    35
390
0
 62
     7
 48
0.017938
100
AcDbLine
 10
65.280472
 20
41.839645
 30
0.0
 11
65.405067
 21
41.133018
 31
0.0
210
0.0
220
0.0
230
1.0
  0
LINE
  5
DB
100
AcDbEntity
  8
0
370
    35
390
0
 62
     7
 48
0.071985
100
AcDbLine
 10
64.420464
 20
41.045433
 30
0.0
 11
64.920464
 21
38.209778
 31
0.0
210
0.0
220
0.0
230
1.0
  0
LINE
  5
DC
100
AcDbEntity
  8
0
370
    35
390
0
 62
     7
 48
0.027182
100
AcDbLine
 10
63.231606
 20
42.116135
 30
0.0
 11
63.420418
 21
41.045357
 31
0.0
210
0.0
220
0.0
230
1.0
  0
LINE
  5
DD
100
AcDbEntity
  8
0
370
    35
390
0
 62
     7
 48
0.02171
100
AcDbLine
 10
63.420486
 20
35.373878
 30
0.0
 11
63.571281
 21
34.518661
 31
0.0
210
0.0
220
0.0
230
1.0
  0
LINE
  5
DE
100
AcDbEntity
  8
0
370
    35
390
0
 62
     7
 48
0.030845
100
AcDbLine
 10
61.206322
 20
42.260818
 30
0.0
 11
61.42057
 21
41.045753
 31
0.0
210
0.0
220
0.0
230
1.0
  0
LINE
  5
DF
100
AcDbEntity
  8
0
370
    35
390
0
 62
     7
 48
0.023517
100
AcDbLine
 10
61.420464
 20
35.374237
 30
0.0
 11
61.583809
 21
34.447861
 31
0.0
210
0.0
220
0.0
230
1.0
  0
LINE
  5
E0
100
AcDbEntity
  8
0
370
    35
390
0
 62
     7
 48
0.034528
100
AcDbLine
 10
59.180611
 20
42.405483
 30
0.0
 11
59.420441
 21
41.045349
 31
0.0
210
0.0
220
0.0
230
1.0
  0
LINE
  5
E1
100
AcDbEntity
  8
0
370
    35
390
0
 62
     7
 48
0.025317
100
AcDbLine
 10
59.42038
 20
35.374092
 30
0.0
 11
59.59623
 21
34.376785
 31
0.0
210
0.0
220
0.0
230
1.0
  0
LINE
  5
E2
100
AcDbEntity
  8
0
370
    35
390
0
 62
     7
 48
0.038211
100
AcDbLine
 10
57.154984
 20
42.550167
 30
0.0
 11
57.420395
 21
41.04496
 31
0.0
210
0.0
220
0.0
230
1.0
  0
LINE
  5
E3
100
AcDbEntity
  8
0
370
    35
390
0
 62
     7
 48
0.027127
100
AcDbLine
 10
57.420471
 20
35.374352
 30
0.0
 11
57.608894
 21
34.305756
 31
0.0
210
0.0
220
0.0
230
1.0
  0
LINE
  5
E4
100
AcDbEntity
  8
0
370
    35
390
0
 62
     7
 48
0.02735
100
AcDbLine
 10
55.21701
 20
42.199173
 30
0.0
 11
55.406982
 21
41.121796
 31
0.0
210
0.0
220
0.0
230
1.0
  0
LINE
  5
E5
100
AcDbEntity
  8
0
370
    35
390
0
 62
     7
 48
0.073596
100
AcDbLine
 10
57.415955
 20
41.021355
 30
0.0
 11
56.904762
 21
38.122238
 31
0.0
210
0.0
220
0.0
230
1.0
  0
LINE
  5
E6
100
AcDbEntity
  8
0
370
    35
390
0
 62
     7
 48
0.035462
100
AcDbLine
 10
58.66655
 20
42.442249
 30
0.0
 11
58.420235
 21
41.045326
 31
0.0
210
0.0
220
0.0
230
1.0
  0
LINE
  5
E7
100
AcDbEntity
  8
0
370
    35
390
0
 62
     7
 48
0.034085
100
AcDbLine
 10
60.641541
 20
42.301178
 30
0.0
 11
60.404793
 21
40.958488
 31
0.0
210
0.0
220
0.0
230
1.0
  0
LINE
  5
E8
100
AcDbEntity
  8
0
370
    35
390
0
 62
     7
 48
0.028299
100
AcDbLine
 10
62.616776
 20
42.160095
 30
0.0
 11
62.420212
 21
41.045319
 31
0.0
210
0.0
220
0.0
230
1.0
  0
LINE
  5
E9
100
AcDbEntity
  8
0
370
    35
390
0
 62
     7
 48
0.020813
100
AcDbLine
 10
64.564789
 20
41.865311
 30
0.0
 11
64.420219
 21
41.045433
 31
0.0
210
0.0
220
0.0
230
1.0
  0
LINE
  5
EA
100
AcDbEntity
  8
0
370
    35
390
0
 62
     7
 48
0.021075
100
AcDbLine
 10
64.420265
 20
35.374062
 30
0.0
 11
64.273872
 21
34.543854
 31
0.0
210
0.0
220
0.0
230
1.0
  0
LINE
  5
EB
100
AcDbEntity
  8
0
370
    35
390
0
 62
     7
 48
0.019342
100
AcDbLine
 10
66.552368
 20
41.794235
 30
0.0
 11
66.418022
 21
41.03231
 31
0.0
210
0.0
220
0.0
230
1.0
  0
LINE
  5
EC
100
AcDbEntity
  8
0
370
    35
390
0
 62
     7
 48
0.073926
100
AcDbLine
 10
55.406776
 20
41.121773
 30
0.0
 11
54.893288
 21
38.209671
 31
0.0
210
0.0
220
0.0
230
1.0
  0
LINE
  5
ED
100
AcDbEntity
  8
0
370
    35
390
0
 62
     7
 48
0.071985
100
AcDbLine
 10
68.420433
 20
41.045441
 30
0.0
 11
68.920433
 21
38.209785
 31
0.0
210
0.0
220
0.0
230
1.0
  0
LINE
  5
EE
100
AcDbEntity
  8
0
370
    35
390
0
 62
     7
 48
0.017523
100
AcDbLine
 10
68.539993
 20
41.723404
 30
0.0
 11
68.418282
 21
41.033119
 31
0.0
210
0.0
220
0.0
230
1.0
  0
LINE
  5
EF
100
AcDbEntity
  8
0
370
    35
390
0
 62
     7
 48
0.029392
100
AcDbLine
 10
55.423775
 20
35.392906
 30
0.0
 11
55.62793
 21
34.235107
 31
0.0
210
0.0
220
0.0
230
1.0
  0
LINE
  5
F0
100
AcDbEntity
  8
0
370
    35
390
0
 62
     7
 48
0.070273
100
AcDbLine
 10
67.932304
 20
38.142151
 30
0.0
 11
68.420418
 21
35.373947
 31
0.0
210
0.0
220
0.0
230
1.0
  0
LINE
  5
F1
100
AcDbEntity
  8
0
370
    35
390
0
 62
     7
 48
0.018103
100
AcDbLine
 10
67.420372
 20
35.373871
 30
0.0
 11
67.54612
 21
34.660751
 31
0.0
210
0.0
220
0.0
230
1.0
  0
LINE
  5
F2
100
AcDbEntity
  8
0
370
    35
390
0
 62
     7
 48
0.019263
100
AcDbLine
 10
66.420433
 20
35.374397
 30
0.0
 11
66.286636
 21
34.615593
 31
0.0
210
0.0
220
0.0
230
1.0
  0
LINE
  5
F3
100
AcDbEntity
  8
0
370
    35
390
0
 62
     7
 48
0.022913
100
AcDbLine
 10
62.420341
 20
35.374428
 30
0.0
 11
62.261192
 21
34.471848
 31
0.0
210
0.0
220
0.0
230
1.0
  0
LINE
  5
F4
100
AcDbEntity
  8
0
370
    35
390
0
 62
     7
 48
0.024725
100
AcDbLine
 10
60.420166
 20
35.374092
 30
0.0
 11
60.248428
 21
34.400101
 31
0.0
210
0.0
220
0.0
230
1.0
  0
LINE
  5
F5
100
AcDbEntity
  8
0
370
    35
390
0
 62
     7
 48
0.026538
100
AcDbLine
 10
58.419998
 20
35.373756
 30
0.0
 11
58.235664
 21
34.328362
 31
0.0
210
0.0
220
0.0
230
1.0
  0
LINE
  5
F6
100
AcDbEntity
  8
0
370
    35
390
0
 62
     7
 48
0.028381
100
AcDbLine
 10
56.420235
 20
35.374344
 30
0.0
 11
56.223099
 21
34.256332
 31
0.0
210
0.0
220
0.0
230
1.0
  0
LINE
  5
F7
100
AcDbEntity
  8
0
370
    35
390
0
 62
     7
 48
0.015491
100
AcDbLine
 10
67.324196
 20
41.76667
 30
0.0
 11
67.431793
 21
41.156456
 31
0.0
210
0.0
220
0.0
230
1.0
  0
LINE
  5
F8
100
AcDbEntity
  8
0
370
    35
390
0
 62
     7
 48
0.073798
100
AcDbLine
 10
65.402107
 20
41.116737
 30
0.0
 11
64.889519
 21
38.209679
 31
0.0
210
0.0
220
0.0
230
1.0
  0
LINE
  5
F9
100
AcDbEntity
  8
0
370
    35
390
0
 62
     7
 48
0.071985
100
AcDbLine
 10
58.420395
 20
41.045273
 30
0.0
 11
58.920395
 21
38.209625
 31
0.0
210
0.0
220
0.0
230
1.0
  0
LINE
  5
FA
100
AcDbEntity
  8
0
370
    35
390
0
 62
     7
 48
0.071985
100
AcDbLine
 10
62.420509
 20
41.045059
 30
0.0
 11
62.920509
 21
38.209412
 31
0.0
210
0.0
220
0.0
230
1.0
  0
LINE
  5
FB
100
AcDbEntity
  8
0
370
    35
390
0
 62
     7
 48
0.071985
100
AcDbLine
 10
60.404968
 20
40.957657
 30
0.0
 11
60.904976
 21
38.122002
 31
0.0
210
0.0
220
0.0
230
1.0
  0
LINE
  5
FC
100
AcDbEntity
  8
0
370
    35
390
0
 62
     7
 48
0.071985
100
AcDbLine
 10
56.404999
 20
40.957642
 30
0.0
 11
56.904999
 21
38.121994
 31
0.0
210
0.0
220
0.0
230
1.0
  0
LINE
  5
FD
100
AcDbEntity
  8
0
370
    35
390
0
 62
     7
 48
0.071997
100
AcDbLine
 10
61.42025
 20
41.045876
 30
0.0
 11
60.920166
 21
38.20974
 31
0.0
210
0.0
220
0.0
230
1.0
  0
LINE
  5
FE
100
AcDbEntity
  8
0
370
    35
390
0
 62
     7
 48
0.071991
100
AcDbLine
 10
59.420082
 20
41.04554
 30
0.0
 11
58.920036
 21
38.209648
 31
0.0
210
0.0
220
0.0
230
1.0
  0
LINE
  5
FF
100
AcDbEntity
  8
0
370
    35
390
0
 62
     7
 48
0.072131
100
AcDbLine
 10
67.406059
 20
41.138474
 30
0.0
 11
66.905037
 21
38.29705
 31
0.0
210
0.0
220
0.0
230
1.0
  0
LINE
  5
100
100
AcDbEntity
  8
0
370
    35
390
0
 62
     7
 48
0.065521
100
AcDbLine
 10
63.404701
 20
41.132774
 30
0.0
 11
62.949593
 21
38.551743
 31
0.0
210
0.0
220
0.0
230
1.0
  0
LINE
  5
101
100
AcDbEntity
  8
0
370
    35
390
0
 62
     7
 48
0.041268
100
AcDbLine
 10
56.691559
 20
42.583324
 30
0.0
 11
56.404915
 21
40.957672
 31
0.0
210
0.0
220
0.0
230
1.0
  0
LINE
  5
102
100
AcDbEntity
  8
0
370
    35
390
0
 62
     7
 48
0.071985
100
AcDbLine
 10
55.920464
 20
38.209686
 30
0.0
 11
56.420464
 21
35.374039
 31
0.0
210
0.0
220
0.0
230
1.0
  0
LINE
  5
103
100
AcDbEntity
  8
0
370
    35
390
0
 62
     7
 48
0.071973
100
AcDbLine
 10
57.920197
 20
38.209435
 30
0.0
 11
57.420273
 21
35.374268
 31
0.0
210
0.0
220
0.0
230
1.0
  0
LINE
  5
104
100
AcDbEntity
  8
0
370
    35
390
0
 62
     7
 48
0.071982
100
AcDbLine
 10
57.920395
 20
38.209312
 30
0.0
 11
58.42038
 21
35.373779
 31
0.0
210
0.0
220
0.0
230
1.0
  0
LINE
  5
105
100
AcDbEntity
  8
0
370
    35
390
0
 62
     7
 48
0.071991
100
AcDbLine
 10
59.920128
 20
38.209816
 30
0.0
 11
59.420082
 21
35.373924
 31
0.0
210
0.0
220
0.0
230
1.0
  0
LINE
  5
106
100
AcDbEntity
  8
0
370
    35
390
0
 62
     7
 48
0.071982
100
AcDbLine
 10
59.920441
 20
38.209694
 30
0.0
 11
60.420425
 21
35.374168
 31
0.0
210
0.0
220
0.0
230
1.0
  0
LINE
  5
107
100
AcDbEntity
  8
0
370
    35
390
0
 62
     7
 48
0.071982
100
AcDbLine
 10
61.920578
 20
38.210098
 30
0.0
 11
62.420555
 21
35.374573
 31
0.0
210
0.0
220
0.0
230
1.0
  0
LINE
  5
108
100
AcDbEntity
  8
0
370
    35
390
0
 62
     7
 48
0.071991
100
AcDbLine
 10
63.920219
 20
38.209785
 30
0.0
 11
63.420174
 21
35.373894
 31
0.0
210
0.0
220
0.0
230
1.0
  0
LINE
  5
109
100
AcDbEntity
  8
0
370
    35
390
0
 62
     7
 48
0.071982
100
AcDbLine
 10
63.920418
 20
38.209709
 30
0.0
 11
64.420403
 21
35.374176
 31
0.0
210
0.0
220
0.0
230
1.0
  0
LINE
  5
10A
100
AcDbEntity
  8
0
370
    35
390
0
 62
     7
 48
0.071503
100
AcDbLine
 10
55.920387
 20
38.209785
 30
0.0
 11
55.423737
 21
35.393127
 31
0.0
210
0.0
220
0.0
230
1.0
  0
LINE
  5
10B
100
AcDbEntity
  8
0
370
    35
390
0
 62
     7
 48
0.071982
100
AcDbLine
 10
65.920509
 20
38.209854
 30
0.0
 11
66.420486
 21
35.374321
 31
0.0
210
0.0
220
0.0
230
1.0
  0
LINE
  5
10C
100
AcDbEntity
  8
0
370
    35
390
0
 62
     7
100
AcDbLine
 10
68.920097
 20
35.959869
 30
0.0
 11
115.763695
 21
35.959869
 31
0.0
210
0.0
220
0.0
230
1.0
  0
LINE
  5
10D
100
AcDbEntity
  8
0
370
    35
390
0
 62
     7
100
AcDbLine
 10
68.920097
 20
40.459869
 30
0.0
 11
114.263695
 21
40.459869
 31
0.0
210
0.0
220
0.0
230
1.0
  0
LINE
  5
10E
100
AcDbEntity
  8
0
370
    35
390
0
 62
     7
 48
0.025
100
AcDbLine
 10
20.420158
 20
37.709869
 30
0.0
 11
20.420158
 21
38.709869
 31
0.0
210
0.0
220
0.0
230
1.0
  0
LINE
  5
10F
100
AcDbEntity
  8
0
370
    35
390
0
 62
     7
 48
0.084998
100
AcDbLine
 10
20.420158
 20
37.709869
 30
0.0
 11
23.820061
 21
37.709869
 31
0.0
210
0.0
220
0.0
230
1.0
  0
LINE
  5
110
100
AcDbEntity
  8
0
370
    35
390
0
 62
     7
 48
0.025
100
AcDbLine
 10
23.820061
 20
37.709869
 30
0.0
 11
23.820061
 21
38.709869
 31
0.0
210
0.0
220
0.0
230
1.0
  0
LINE
  5
111
100
AcDbEntity
  8
0
370
    35
390
0
 62
     7
 48
0.350892
100
AcDbLine
 10
68.920097
 20
41.709846
 30
0.0
 11
54.920074
 21
42.709846
 31
0.0
210
0.0
220
0.0
230
1.0
  0
LINE
  5
112
100
AcDbEntity
  8
0
370
    35
390
0
 62
     7
 48
0.070992
100
AcDbLine
 10
61.445847
 20
35.410057
 30
0.0
 11
61.919968
 21
38.209885
 31
0.0
210
0.0
220
0.0
230
1.0
  0
LINE
  5
113
100
AcDbEntity
  8
0
370
    35
390
0
 62
     7
 48
0.016132
100
AcDbLine
 10
65.255035
 20
34.797859
 30
0.0
 11
65.050987
 21
35.410011
 31
0.0
210
0.0
220
0.0
230
1.0
  0
LINE
  5
114
100
AcDbEntity
  8
0
370
    35
390
0
 62
     7
 48
0.061456
100
AcDbLine
 10
65.051102
 20
35.410065
 30
0.0
 11
65.6633
 21
37.790855
 31
0.0
210
0.0
220
0.0
230
1.0
  0
LINE
  5
115
100
AcDbEntity
  8
0
370
    35
390
0
 62
     7
 48
0.021511
100
AcDbLine
 10
67.976173
 20
34.729813
 30
0.0
 11
68.248268
 21
35.546082
 31
0.0
210
0.0
220
0.0
230
1.0
  0
LINE
  5
116
100
AcDbEntity
  8
0
370
    35
390
0
 62
     7
 48
0.071052
100
AcDbLine
 10
67.431938
 20
35.410065
 30
0.0
 11
67.920105
 21
38.2099
 31
0.0
210
0.0
220
0.0
230
1.0
  0
LINE
  5
117
100
AcDbEntity
  8
0
370
    35
390
0
 62
     7
 48
0.084998
100
AcDbLine
 10
20.420158
 20
38.709869
 30
0.0
 11
23.820061
 21
38.709869
 31
0.0
210
0.0
220
0.0
230
1.0
  0
LINE
  5
118
100
AcDbEntity
  8
0
370
    35
390
0
 62
     7
100
AcDbLine
 10
152.69931
 20
130.460663
 30
0.0
 11
122.879494
 21
130.460663
 31
0.0
210
0.0
220
0.0
230
1.0
  0
LINE
  5
119
100
AcDbEntity
  8
0
370
    35
390
0
 62
     7
100
AcDbLine
 10
152.69931
 20
125.96035
 30
0.0
 11
122.879494
 21
125.96035
 31
0.0
210
0.0
220
0.0
230
1.0
  0
LINE
  5
11A
100
AcDbEntity
  8
0
370
    35
390
0
 62
     7
100
AcDbLine
 10
115.763695
 20
40.459869
 30
0.0
 11
152.699524
 21
40.459869
 31
0.0
210
0.0
220
0.0
230
1.0
  0
LINE
  5
11B
100
AcDbEntity
  8
0
370
    35
390
0
 62
     7
100
AcDbLine
 10
117.263695
 20
35.959869
 30
0.0
 11
152.699524
 21
35.959869
 31
0.0
210
0.0
220
0.0
230
1.0
  0
LINE
  5
11C
100
AcDbEntity
  8
0
370
    35
390
0
 62
     7
 48
0.025
100
AcDbLine
 10
112.379753
 20
64.809654
 30
0.0
 11
111.379753
 21
64.809654
 31
0.0
210
0.0
220
0.0
230
1.0
  0
LINE
  5
11D
100
AcDbEntity
  8
0
370
    35
390
0
 62
     7
 48
0.019999
100
AcDbLine
 10
112.879753
 20
65.309685
 30
0.0
 11
112.879753
 21
66.109657
 31
0.0
210
0.0
220
0.0
230
1.0
  0
LINE
  5
11E
100
AcDbEntity
  8
0
370
    35
390
0
 62
     7
 48
0.019999
100
AcDbLine
 10
110.879753
 20
65.309685
 30
0.0
 11
110.879753
 21
66.109657
 31
0.0
210
0.0
220
0.0
230
1.0
  0
LINE
  5
11F
100
AcDbEntity
  8
0
370
    35
390
0
 62
     7
 48
0.025
100
AcDbLine
 10
113.879753
 20
65.809685
 30
0.0
 11
112.879753
 21
65.809685
 31
0.0
210
0.0
220
0.0
230
1.0
  0
LINE
  5
120
100
AcDbEntity
  8
0
370
    35
390
0
 62
     7
 48
0.007499
100
AcDbLine
 10
121.379692
 20
65.809685
 30
0.0
 11
121.379692
 21
66.109657
 31
0.0
210
0.0
220
0.0
230
1.0
  0
LINE
  5
121
100
AcDbEntity
  8
0
370
    35
390
0
 62
     7
 48
0.0325
100
AcDbLine
 10
113.879753
 20
64.809654
 30
0.0
 11
113.879753
 21
66.109657
 31
0.0
210
0.0
220
0.0
230
1.0
  0
LINE
  5
122
100
AcDbEntity
  8
0
370
    35
390
0
 62
     7
 48
0.1625
100
AcDbLine
 10
120.379753
 20
64.809654
 30
0.0
 11
113.879753
 21
64.809654
 31
0.0
210
0.0
220
0.0
230
1.0
  0
LINE
  5
123
100
AcDbEntity
  8
0
370
    35
390
0
 62
     7
 48
0.205018
100
AcDbLine
 10
130.079681
 20
66.609016
 30
0.0
 11
130.079681
 21
74.809723
 31
0.0
210
0.0
220
0.0
230
1.0
  0
LINE
  5
124
100
AcDbEntity
  8
0
370
    35
390
0
 62
     7
 48
0.229999
100
AcDbLine
 10
129.579681
 20
66.109657
 30
0.0
 11
129.579681
 21
75.309601
 31
0.0
210
0.0
220
0.0
230
1.0
  0
LINE
  5
125
100
AcDbEntity
  8
0
370
    35
390
0
 62
     7
 48
0.487499
100
AcDbLine
 10
129.579681
 20
72.00972
 30
0.0
 11
110.079704
 21
72.00972
 31
0.0
210
0.0
220
0.0
230
1.0
  0
LINE
  5
126
100
AcDbEntity
  8
0
370
    35
390
0
 62
     7
 48
0.487499
100
AcDbLine
 10
129.579681
 20
71.209717
 30
0.0
 11
110.079704
 21
71.209717
 31
0.0
210
0.0
220
0.0
230
1.0
  0
LINE
  5
127
100
AcDbEntity
  8
0
370
    35
390
0
 62
     7
 48
0.487499
100
AcDbLine
 10
129.579681
 20
70.409714
 30
0.0
 11
110.079704
 21
70.409714
 31
0.0
210
0.0
220
0.0
230
1.0
  0
LINE
  5
128
100
AcDbEntity
  8
0
370
    35
390
0
 62
     7
 48
0.487499
100
AcDbLine
 10
129.579681
 20
69.609711
 30
0.0
 11
110.079704
 21
69.609711
 31
0.0
210
0.0
220
0.0
230
1.0
  0
LINE
  5
129
100
AcDbEntity
  8
0
370
    35
390
0
 62
     7
 48
0.487499
100
AcDbLine
 10
129.579681
 20
68.809708
 30
0.0
 11
110.079704
 21
68.809708
 31
0.0
210
0.0
220
0.0
230
1.0
  0
LINE
  5
12A
100
AcDbEntity
  8
0
370
    35
390
0
 62
     7
 48
0.487499
100
AcDbLine
 10
129.579681
 20
66.40963
 30
0.0
 11
110.079704
 21
66.40963
 31
0.0
210
0.0
220
0.0
230
1.0
  0
LINE
  5
12B
100
AcDbEntity
  8
0
370
    35
390
0
 62
     7
 48
0.02
100
AcDbLine
 10
72.779747
 20
69.509628
 30
0.0
 11
71.979759
 21
69.509628
 31
0.0
210
0.0
220
0.0
230
1.0
  0
LINE
  5
12C
100
AcDbEntity
  8
0
370
    35
390
0
 62
     7
 48
0.02
100
AcDbLine
 10
72.779747
 20
71.909622
 30
0.0
 11
71.979759
 21
71.909622
 31
0.0
210
0.0
220
0.0
230
1.0
  0
LINE
  5
12D
100
AcDbEntity
  8
0
370
    35
390
0
 62
     7
 48
0.02
100
AcDbLine
 10
73.57975
 20
70.309631
 30
0.0
 11
73.57975
 21
71.109619
 31
0.0
210
0.0
220
0.0
230
1.0
  0
LINE
  5
12E
100
AcDbEntity
  8
0
370
    35
390
0
 62
     7
 48
0.02
100
AcDbLine
 10
71.179756
 20
70.309631
 30
0.0
 11
71.179756
 21
71.109619
 31
0.0
210
0.0
220
0.0
230
1.0
  0
LINE
  5
12F
100
AcDbEntity
  8
0
370
    35
390
0
 62
     7
 48
0.0125
100
AcDbLine
 10
71.979759
 20
69.509628
 30
0.0
 11
71.979759
 21
70.009628
 31
0.0
210
0.0
220
0.0
230
1.0
  0
LINE
  5
130
100
AcDbEntity
  8
0
370
    35
390
0
 62
     7
 48
0.0125
100
AcDbLine
 10
72.779747
 20
69.509628
 30
0.0
 11
72.779747
 21
70.009628
 31
0.0
210
0.0
220
0.0
230
1.0
  0
LINE
  5
131
100
AcDbEntity
  8
0
370
    35
390
0
 62
     7
 48
0.0125
100
AcDbLine
 10
73.57975
 20
71.109619
 30
0.0
 11
73.07975
 21
71.109619
 31
0.0
210
0.0
220
0.0
230
1.0
  0
LINE
  5
132
100
AcDbEntity
  8
0
370
    35
390
0
 62
     7
 48
0.0125
100
AcDbLine
 10
73.57975
 20
70.309631
 30
0.0
 11
73.07975
 21
70.309631
 31
0.0
210
0.0
220
0.0
230
1.0
  0
LINE
  5
133
100
AcDbEntity
  8
0
370
    35
390
0
 62
     7
 48
0.0125
100
AcDbLine
 10
71.679756
 20
70.309631
 30
0.0
 11
71.179756
 21
70.309631
 31
0.0
210
0.0
220
0.0
230
1.0
  0
LINE
  5
134
100
AcDbEntity
  8
0
370
    35
390
0
 62
     7
 48
0.0125
100
AcDbLine
 10
71.979759
 20
71.409622
 30
0.0
 11
71.979759
 21
71.909622
 31
0.0
210
0.0
220
0.0
230
1.0
  0
LINE
  5
135
100
AcDbEntity
  8
0
370
    35
390
0
 62
     7
 48
0.0125
100
AcDbLine
 10
71.679756
 20
71.109619
 30
0.0
 11
71.179756
 21
71.109619
 31
0.0
210
0.0
220
0.0
230
1.0
  0
LINE
  5
136
100
AcDbEntity
  8
0
370
    35
390
0
 62
     7
 48
0.0125
100
AcDbLine
 10
72.779747
 20
71.409622
 30
0.0
 11
72.779747
 21
71.909622
 31
0.0
210
0.0
220
0.0
230
1.0
  0
LINE
  5
137
100
AcDbEntity
  8
0
370
    35
390
0
 62
     7
 48
0.225003
100
AcDbLine
 10
54.920067
 20
33.709747
 30
0.0
 11
54.920067
 21
42.709873
 31
0.0
210
0.0
220
0.0
230
1.0
  0
LINE
  5
138
100
AcDbEntity
  8
0
370
    35
390
0
 62
     7
 48
0.007501
100
AcDbLine
 10
70.379753
 20
136.009613
 30
0.0
 11
70.379753
 21
136.309662
 31
0.0
210
0.0
220
0.0
230
1.0
  0
LINE
  5
139
100
AcDbEntity
  8
0
370
    35
390
0
 62
     7
 48
0.007501
100
AcDbLine
 10
74.379753
 20
136.009613
 30
0.0
 11
74.379753
 21
136.309662
 31
0.0
210
0.0
220
0.0
230
1.0
  0
LINE
  5
13A
100
AcDbEntity
  8
0
370
    35
390
0
 62
     7
 48
0.007501
100
AcDbLine
 10
70.379753
 20
103.109543
 30
0.0
 11
70.379753
 21
103.409592
 31
0.0
210
0.0
220
0.0
230
1.0
  0
LINE
  5
13B
100
AcDbEntity
  8
0
370
    35
390
0
 62
     7
 48
0.007501
100
AcDbLine
 10
74.379753
 20
103.109543
 30
0.0
 11
74.379753
 21
103.409592
 31
0.0
210
0.0
220
0.0
230
1.0
  0
LINE
  5
13C
100
AcDbEntity
  8
0
370
    35
390
0
 62
     7
 48
0.018749
100
AcDbLine
 10
70.329758
 20
103.109543
 30
0.0
 11
70.329758
 21
102.359596
 31
0.0
210
0.0
220
0.0
230
1.0
  0
LINE
  5
13D
100
AcDbEntity
  8
0
370
    35
390
0
 62
     7
 48
0.018749
100
AcDbLine
 10
74.429756
 20
103.109543
 30
0.0
 11
74.429756
 21
102.359596
 31
0.0
210
0.0
220
0.0
230
1.0
  0
LINE
  5
13E
100
AcDbEntity
  8
0
370
    35
390
0
 62
     7
 48
0.018748
100
AcDbLine
 10
70.329758
 20
136.309662
 30
0.0
 11
70.329758
 21
137.059601
 31
0.0
210
0.0
220
0.0
230
1.0
  0
LINE
  5
13F
100
AcDbEntity
  8
0
370
    35
390
0
 62
     7
 48
0.018748
100
AcDbLine
 10
74.429756
 20
136.309662
 30
0.0
 11
74.429756
 21
137.059601
 31
0.0
210
0.0
220
0.0
230
1.0
  0
LINE
  5
140
100
AcDbEntity
  8
0
370
    35
390
0
 62
     7
 48
0.125
100
AcDbLine
 10
20.37973
 20
120.20974
 30
0.0
 11
20.37973
 21
115.20974
 31
0.0
210
0.0
220
0.0
230
1.0
  0
LINE
  5
141
100
AcDbEntity
  8
0
370
    35
390
0
 62
     7
 48
0.096893
100
AcDbLine
 10
43.079628
 20
121.585442
 30
0.0
 11
43.079628
 21
117.70974
 31
0.0
210
0.0
220
0.0
230
1.0
  0
LINE
  5
142
100
AcDbEntity
  8
0
370
    35
390
0
 62
     7
 48
0.183457
100
AcDbLine
 10
41.279625
 20
121.378929
 30
0.0
 11
41.279625
 21
114.040649
 31
0.0
210
0.0
220
0.0
230
1.0
  0
LINE
  5
143
100
AcDbEntity
  8
0
370
    35
390
0
 62
     7
 48
0.183457
100
AcDbLine
 10
39.479622
 20
121.378929
 30
0.0
 11
39.479622
 21
114.040649
 31
0.0
210
0.0
220
0.0
230
1.0
  0
LINE
  5
144
100
AcDbEntity
  8
0
370
    35
390
0
 62
     7
 48
0.183457
100
AcDbLine
 10
37.679619
 20
121.378929
 30
0.0
 11
37.679619
 21
114.040649
 31
0.0
210
0.0
220
0.0
230
1.0
  0
LINE
  5
145
100
AcDbEntity
  8
0
370
    35
390
0
 62
     7
 48
0.183457
100
AcDbLine
 10
35.879616
 20
121.378929
 30
0.0
 11
35.879616
 21
114.040649
 31
0.0
210
0.0
220
0.0
230
1.0
  0
LINE
  5
146
100
AcDbEntity
  8
0
370
    35
390
0
 62
     7
 48
0.183457
100
AcDbLine
 10
34.079613
 20
121.378929
 30
0.0
 11
34.079613
 21
114.040649
 31
0.0
210
0.0
220
0.0
230
1.0
  0
LINE
  5
147
100
AcDbEntity
  8
0
370
    35
390
0
 62
     7
 48
0.183457
100
AcDbLine
 10
32.27961
 20
121.378929
 30
0.0
 11
32.27961
 21
114.040649
 31
0.0
210
0.0
220
0.0
230
1.0
  0
LINE
  5
148
100
AcDbEntity
  8
0
370
    35
390
0
 62
     7
 48
0.183457
100
AcDbLine
 10
30.479607
 20
121.378929
 30
0.0
 11
30.479607
 21
114.040649
 31
0.0
210
0.0
220
0.0
230
1.0
  0
LINE
  5
149
100
AcDbEntity
  8
0
370
    35
390
0
 62
     7
 48
0.183457
100
AcDbLine
 10
28.679604
 20
121.378929
 30
0.0
 11
28.679604
 21
114.040649
 31
0.0
210
0.0
220
0.0
230
1.0
  0
LINE
  5
14A
100
AcDbEntity
  8
0
370
    35
390
0
 62
     7
 48
0.183457
100
AcDbLine
 10
26.879601
 20
121.378929
 30
0.0
 11
26.879601
 21
114.040649
 31
0.0
210
0.0
220
0.0
230
1.0
  0
LINE
  5
14B
100
AcDbEntity
  8
0
370
    35
390
0
 62
     7
 48
0.183457
100
AcDbLine
 10
25.079597
 20
121.378929
 30
0.0
 11
25.079597
 21
114.040649
 31
0.0
210
0.0
220
0.0
230
1.0
  0
LINE
  5
14C
100
AcDbEntity
  8
0
370
    35
390
0
 62
     7
 48
0.183457
100
AcDbLine
 10
23.279602
 20
121.378929
 30
0.0
 11
23.279602
 21
114.040649
 31
0.0
210
0.0
220
0.0
230
1.0
  0
LINE
  5
14D
100
AcDbEntity
  8
0
370
    35
390
0
 62
     7
 48
0.129714
100
AcDbLine
 10
42.179634
 20
120.303978
 30
0.0
 11
42.179634
 21
115.115402
 31
0.0
210
0.0
220
0.0
230
1.0
  0
LINE
  5
14E
100
AcDbEntity
  8
0
370
    35
390
0
 62
     7
 48
0.129714
100
AcDbLine
 10
40.379631
 20
120.303978
 30
0.0
 11
40.379631
 21
115.115402
 31
0.0
210
0.0
220
0.0
230
1.0
  0
LINE
  5
14F
100
AcDbEntity
  8
0
370
    35
390
0
 62
     7
 48
0.129714
100
AcDbLine
 10
38.579628
 20
120.303978
 30
0.0
 11
38.579628
 21
115.115402
 31
0.0
210
0.0
220
0.0
230
1.0
  0
LINE
  5
150
100
AcDbEntity
  8
0
370
    35
390
0
 62
     7
 48
0.129702
100
AcDbLine
 10
36.779625
 20
120.303734
 30
0.0
 11
36.779625
 21
115.115646
 31
0.0
210
0.0
220
0.0
230
1.0
  0
LINE
  5
151
100
AcDbEntity
  8
0
370
    35
390
0
 62
     7
 48
0.129714
100
AcDbLine
 10
34.979622
 20
120.303978
 30
0.0
 11
34.979622
 21
115.115402
 31
0.0
210
0.0
220
0.0
230
1.0
  0
LINE
  5
152
100
AcDbEntity
  8
0
370
    35
390
0
 62
     7
 48
0.129714
100
AcDbLine
 10
33.179619
 20
120.303978
 30
0.0
 11
33.179619
 21
115.115402
 31
0.0
210
0.0
220
0.0
230
1.0
  0
LINE
  5
153
100
AcDbEntity
  8
0
370
    35
390
0
 62
     7
 48
0.129714
100
AcDbLine
 10
31.379616
 20
120.303978
 30
0.0
 11
31.379616
 21
115.115402
 31
0.0
210
0.0
220
0.0
230
1.0
  0
LINE
  5
154
100
AcDbEntity
  8
0
370
    35
390
0
 62
     7
 48
0.129714
100
AcDbLine
 10
29.579613
 20
120.303978
 30
0.0
 11
29.579613
 21
115.115402
 31
0.0
210
0.0
220
0.0
230
1.0
  0
LINE
  5
155
100
AcDbEntity
  8
0
370
    35
390
0
 62
     7
 48
0.129714
100
AcDbLine
 10
27.77961
 20
120.303978
 30
0.0
 11
27.77961
 21
115.115402
 31
0.0
210
0.0
220
0.0
230
1.0
  0
LINE
  5
156
100
AcDbEntity
  8
0
370
    35
390
0
 62
     7
 48
0.129714
100
AcDbLine
 10
25.979607
 20
120.303978
 30
0.0
 11
25.979607
 21
115.115402
 31
0.0
210
0.0
220
0.0
230
1.0
  0
LINE
  5
157
100
AcDbEntity
  8
0
370
    35
390
0
 62
     7
 48
0.129714
100
AcDbLine
 10
24.179604
 20
120.303978
 30
0.0
 11
24.179604
 21
115.115402
 31
0.0
210
0.0
220
0.0
230
1.0
  0
LINE
  5
158
100
AcDbEntity
  8
0
370
    35
390
0
 62
     7
 48
0.125
100
AcDbLine
 10
21.3797
 20
120.20974
 30
0.0
 11
21.3797
 21
115.20974
 31
0.0
210
0.0
220
0.0
230
1.0
  0
LINE
  5
159
100
AcDbEntity
  8
0
370
    35
390
0
 62
     7
 48
0.031877
100
AcDbLine
 10
42.921783
 20
121.445793
 30
0.0
 11
42.26545
 21
120.352623
 31
0.0
210
0.0
220
0.0
230
1.0
  0
LINE
  5
15A
100
AcDbEntity
  8
0
370
    35
390
0
 62
     7
 48
0.024976
100
AcDbLine
 10
42.093872
 20
120.352547
 30
0.0
 11
41.57962
 21
121.209045
 31
0.0
210
0.0
220
0.0
230
1.0
  0
LINE
  5
15B
100
AcDbEntity
  8
0
370
    35
390
0
 62
     7
 48
0.024969
100
AcDbLine
 10
40.979576
 20
121.208946
 30
0.0
 11
40.465462
 21
120.352654
 31
0.0
210
0.0
220
0.0
230
1.0
  0
LINE
  5
15C
100
AcDbEntity
  8
0
370
    35
390
0
 62
     7
 48
0.024975
100
AcDbLine
 10
40.293938
 20
120.352539
 30
0.0
 11
39.779694
 21
121.209038
 31
0.0
210
0.0
220
0.0
230
1.0
  0
LINE
  5
15D
100
AcDbEntity
  8
0
370
    35
390
0
 62
     7
 48
0.024969
100
AcDbLine
 10
39.179581
 20
121.208977
 30
0.0
 11
38.665459
 21
120.352684
 31
0.0
210
0.0
220
0.0
230
1.0
  0
LINE
  5
15E
100
AcDbEntity
  8
0
370
    35
390
0
 62
     7
 48
0.024976
100
AcDbLine
 10
38.494011
 20
120.352539
 30
0.0
 11
37.979759
 21
121.209038
 31
0.0
210
0.0
220
0.0
230
1.0
  0
LINE
  5
15F
100
AcDbEntity
  8
0
370
    35
390
0
 62
     7
 48
0.024982
100
AcDbLine
 10
37.379601
 20
121.209
 30
0.0
 11
36.865227
 21
120.352287
 31
0.0
210
0.0
220
0.0
230
1.0
  0
LINE
  5
160
100
AcDbEntity
  8
0
370
    35
390
0
 62
     7
 48
0.024975
100
AcDbLine
 10
36.693893
 20
120.352425
 30
0.0
 11
36.179649
 21
121.208923
 31
0.0
210
0.0
220
0.0
230
1.0
  0
LINE
  5
161
100
AcDbEntity
  8
0
370
    35
390
0
 62
     7
 48
0.024976
100
AcDbLine
 10
35.579605
 20
121.20903
 30
0.0
 11
35.065361
 21
120.352524
 31
0.0
210
0.0
220
0.0
230
1.0
  0
LINE
  5
162
100
AcDbEntity
  8
0
370
    35
390
0
 62
     7
 48
0.024969
100
AcDbLine
 10
34.893837
 20
120.352623
 30
0.0
 11
34.379715
 21
121.208916
 31
0.0
210
0.0
220
0.0
230
1.0
  0
LINE
  5
163
100
AcDbEntity
  8
0
370
    35
390
0
 62
     7
 48
0.024976
100
AcDbLine
 10
33.77961
 20
121.209053
 30
0.0
 11
33.265366
 21
120.352547
 31
0.0
210
0.0
220
0.0
230
1.0
  0
LINE
  5
164
100
AcDbEntity
  8
0
370
    35
390
0
 62
     7
 48
0.024969
100
AcDbLine
 10
33.093857
 20
120.352592
 30
0.0
 11
32.579735
 21
121.208885
 31
0.0
210
0.0
220
0.0
230
1.0
  0
LINE
  5
165
100
AcDbEntity
  8
0
370
    35
390
0
 62
     7
 48
0.024976
100
AcDbLine
 10
31.97963
 20
121.209076
 30
0.0
 11
31.465385
 21
120.35257
 31
0.0
210
0.0
220
0.0
230
1.0
  0
LINE
  5
166
100
AcDbEntity
  8
0
370
    35
390
0
 62
     7
 48
0.024976
100
AcDbLine
 10
31.293892
 20
120.35257
 30
0.0
 11
30.77964
 21
121.209068
 31
0.0
210
0.0
220
0.0
230
1.0
  0
LINE
  5
167
100
AcDbEntity
  8
0
370
    35
390
0
 62
     7
 48
0.02497
100
AcDbLine
 10
30.17952
 20
121.208893
 30
0.0
 11
29.665405
 21
120.352592
 31
0.0
210
0.0
220
0.0
230
1.0
  0
LINE
  5
168
100
AcDbEntity
  8
0
370
    35
390
0
 62
     7
 48
0.024976
100
AcDbLine
 10
29.493889
 20
120.352524
 30
0.0
 11
28.979645
 21
121.20903
 31
0.0
210
0.0
220
0.0
230
1.0
  0
LINE
  5
169
100
AcDbEntity
  8
0
370
    35
390
0
 62
     7
 48
0.024969
100
AcDbLine
 10
28.379524
 20
121.208916
 30
0.0
 11
27.86541
 21
120.352623
 31
0.0
210
0.0
220
0.0
230
1.0
  0
LINE
  5
16A
100
AcDbEntity
  8
0
370
    35
390
0
 62
     7
 48
0.024975
100
AcDbLine
 10
27.693909
 20
120.352493
 30
0.0
 11
27.179665
 21
121.208992
 31
0.0
210
0.0
220
0.0
230
1.0
  0
LINE
  5
16B
100
AcDbEntity
  8
0
370
    35
390
0
 62
     7
 48
0.024969
100
AcDbLine
 10
26.579544
 20
121.208939
 30
0.0
 11
26.06543
 21
120.352646
 31
0.0
210
0.0
220
0.0
230
1.0
  0
LINE
  5
16C
100
AcDbEntity
  8
0
370
    35
390
0
 62
     7
 48
0.024969
100
AcDbLine
 10
25.893806
 20
120.352669
 30
0.0
 11
25.379684
 21
121.208961
 31
0.0
210
0.0
220
0.0
230
1.0
  0
LINE
  5
16D
100
AcDbEntity
  8
0
370
    35
390
0
 62
     7
 48
0.024969
100
AcDbLine
 10
24.779556
 20
121.208969
 30
0.0
 11
24.265434
 21
120.352676
 31
0.0
210
0.0
220
0.0
230
1.0
  0
LINE
  5
16E
100
AcDbEntity
  8
0
370
    35
390
0
 62
     7
 48
0.024976
100
AcDbLine
 10
24.09388
 20
120.352501
 30
0.0
 11
23.579628
 21
121.209007
 31
0.0
210
0.0
220
0.0
230
1.0
  0
LINE
  5
16F
100
AcDbEntity
  8
0
370
    35
390
0
 62
     7
 48
0.047157
100
AcDbLine
 10
22.979576
 20
121.208992
 30
0.0
 11
21.379723
 21
120.20974
 31
0.0
210
0.0
220
0.0
230
1.0
  0
LINE
  5
170
100
AcDbEntity
  8
0
370
    35
390
0
 62
     7
 48
0.024999
100
AcDbLine
 10
21.3797
 20
120.20974
 30
0.0
 11
20.37973
 21
120.20974
 31
0.0
210
0.0
220
0.0
230
1.0
  0
LINE
  5
171
100
AcDbEntity
  8
0
370
    35
390
0
 62
     7
 48
0.096892
100
AcDbLine
 10
43.079628
 20
113.834045
 30
0.0
 11
43.079628
 21
117.70974
 31
0.0
210
0.0
220
0.0
230
1.0
  0
LINE
  5
172
100
AcDbEntity
  8
0
370
    35
390
0
 62
     7
 48
0.031875
100
AcDbLine
 10
42.921783
 20
113.973679
 30
0.0
 11
42.265495
 21
115.06678
 31
0.0
210
0.0
220
0.0
230
1.0
  0
LINE
  5
173
100
AcDbEntity
  8
0
370
    35
390
0
 62
     7
 48
0.024976
100
AcDbLine
 10
42.093925
 20
115.067009
 30
0.0
 11
41.579681
 21
114.210503
 31
0.0
210
0.0
220
0.0
230
1.0
  0
LINE
  5
174
100
AcDbEntity
  8
0
370
    35
390
0
 62
     7
 48
0.02497
100
AcDbLine
 10
40.979622
 20
114.210457
 30
0.0
 11
40.465508
 21
115.066757
 31
0.0
210
0.0
220
0.0
230
1.0
  0
LINE
  5
175
100
AcDbEntity
  8
0
370
    35
390
0
 62
     7
 48
0.024975
100
AcDbLine
 10
40.293999
 20
115.067009
 30
0.0
 11
39.779755
 21
114.21051
 31
0.0
210
0.0
220
0.0
230
1.0
  0
LINE
  5
176
100
AcDbEntity
  8
0
370
    35
390
0
 62
     7
 48
0.02497
100
AcDbLine
 10
39.179626
 20
114.210426
 30
0.0
 11
38.665504
 21
115.066727
 31
0.0
210
0.0
220
0.0
230
1.0
  0
LINE
  5
177
100
AcDbEntity
  8
0
370
    35
390
0
 62
     7
 48
0.024976
100
AcDbLine
 10
38.494072
 20
115.067009
 30
0.0
 11
37.97982
 21
114.21051
 31
0.0
210
0.0
220
0.0
230
1.0
  0
LINE
  5
178
100
AcDbEntity
  8
0
370
    35
390
0
 62
     7
 48
0.024982
100
AcDbLine
 10
37.379646
 20
114.210411
 30
0.0
 11
36.865273
 21
115.067123
 31
0.0
210
0.0
220
0.0
230
1.0
  0
LINE
  5
179
100
AcDbEntity
  8
0
370
    35
390
0
 62
     7
 48
0.024976
100
AcDbLine
 10
36.693947
 20
115.067131
 30
0.0
 11
36.179703
 21
114.210625
 31
0.0
210
0.0
220
0.0
230
1.0
  0
LINE
  5
17A
100
AcDbEntity
  8
0
370
    35
390
0
 62
     7
 48
0.024976
100
AcDbLine
 10
35.579643
 20
114.210381
 30
0.0
 11
35.065407
 21
115.066887
 31
0.0
210
0.0
220
0.0
230
1.0
  0
LINE
  5
17B
100
AcDbEntity
  8
0
370
    35
390
0
 62
     7
 48
0.024969
100
AcDbLine
 10
34.893898
 20
115.066925
 30
0.0
 11
34.379776
 21
114.210632
 31
0.0
210
0.0
220
0.0
230
1.0
  0
LINE
  5
17C
100
AcDbEntity
  8
0
370
    35
390
0
 62
     7
 48
0.024976
100
AcDbLine
 10
33.779655
 20
114.21035
 30
0.0
 11
33.265411
 21
115.066856
 31
0.0
210
0.0
220
0.0
230
1.0
  0
LINE
  5
17D
100
AcDbEntity
  8
0
370
    35
390
0
 62
     7
 48
0.024969
100
AcDbLine
 10
33.09391
 20
115.066956
 30
0.0
 11
32.579796
 21
114.210663
 31
0.0
210
0.0
220
0.0
230
1.0
  0
LINE
  5
17E
100
AcDbEntity
  8
0
370
    35
390
0
 62
     7
 48
0.024976
100
AcDbLine
 10
31.979668
 20
114.210327
 30
0.0
 11
31.465431
 21
115.066833
 31
0.0
210
0.0
220
0.0
230
1.0
  0
LINE
  5
17F
100
AcDbEntity
  8
0
370
    35
390
0
 62
     7
 48
0.024976
100
AcDbLine
 10
31.293945
 20
115.066986
 30
0.0
 11
30.779701
 21
114.21048
 31
0.0
210
0.0
220
0.0
230
1.0
  0
LINE
  5
180
100
AcDbEntity
  8
0
370
    35
390
0
 62
     7
 48
0.024969
100
AcDbLine
 10
30.179565
 20
114.210518
 30
0.0
 11
29.665443
 21
115.066811
 31
0.0
210
0.0
220
0.0
230
1.0
  0
LINE
  5
181
100
AcDbEntity
  8
0
370
    35
390
0
 62
     7
 48
0.024975
100
AcDbLine
 10
29.49395
 20
115.067024
 30
0.0
 11
28.979706
 21
114.210526
 31
0.0
210
0.0
220
0.0
230
1.0
  0
LINE
  5
182
100
AcDbEntity
  8
0
370
    35
390
0
 62
     7
 48
0.024969
100
AcDbLine
 10
28.37957
 20
114.210487
 30
0.0
 11
27.865456
 21
115.06678
 31
0.0
210
0.0
220
0.0
230
1.0
  0
LINE
  5
183
100
AcDbEntity
  8
0
370
    35
390
0
 62
     7
 48
0.024976
100
AcDbLine
 10
27.69397
 20
115.067062
 30
0.0
 11
27.179726
 21
114.210556
 31
0.0
210
0.0
220
0.0
230
1.0
  0
LINE
  5
184
100
AcDbEntity
  8
0
370
    35
390
0
 62
     7
 48
0.02497
100
AcDbLine
 10
26.57959
 20
114.210464
 30
0.0
 11
26.065475
 21
115.066765
 31
0.0
210
0.0
220
0.0
230
1.0
  0
LINE
  5
185
100
AcDbEntity
  8
0
370
    35
390
0
 62
     7
 48
0.02497
100
AcDbLine
 10
25.893867
 20
115.066887
 30
0.0
 11
25.379738
 21
114.210594
 31
0.0
210
0.0
220
0.0
230
1.0
  0
LINE
  5
186
100
AcDbEntity
  8
0
370
    35
390
0
 62
     7
 48
0.02497
100
AcDbLine
 10
24.779549
 20
114.210487
 30
0.0
 11
24.265434
 21
115.066788
 31
0.0
210
0.0
220
0.0
230
1.0
  0
LINE
  5
187
100
AcDbEntity
  8
0
370
    35
390
0
 62
     7
 48
0.024976
100
AcDbLine
 10
24.093849
 20
115.066917
 30
0.0
 11
23.579605
 21
114.210411
 31
0.0
210
0.0
220
0.0
230
1.0
  0
LINE
  5
188
100
AcDbEntity
  8
0
370
    35
390
0
 62
     7
 48
0.047157
100
AcDbLine
 10
22.979568
 20
114.210464
 30
0.0
 11
21.379715
 21
115.209717
 31
0.0
210
0.0
220
0.0
230
1.0
  0
LINE
  5
189
100
AcDbEntity
  8
0
370
    35
390
0
 62
     7
 48
0.024999
100
AcDbLine
 10
21.3797
 20
115.20974
 30
0.0
 11
20.37973
 21
115.20974
 31
0.0
210
0.0
220
0.0
230
1.0
  0
LINE
  5
18A
100
AcDbEntity
  8
0
370
    35
390
0
 62
     7
 48
0.167455
100
AcDbLine
 10
44.579628
 20
121.058861
 30
0.0
 11
44.579628
 21
114.36068
 31
0.0
210
0.0
220
0.0
230
1.0
  0
LINE
  5
18B
100
AcDbEntity
  8
0
370
    35
390
0
 62
     7
 48
0.033202
100
AcDbLine
 10
43.361008
 20
121.586784
 30
0.0
 11
44.579628
 21
121.0588
 31
0.0
210
0.0
220
0.0
230
1.0
  0
LINE
  5
18C
100
AcDbEntity
  8
0
370
    35
390
0
 62
     7
 48
0.033202
100
AcDbLine
 10
43.361008
 20
113.832687
 30
0.0
 11
44.579628
 21
114.36068
 31
0.0
210
0.0
220
0.0
230
1.0
  0
LINE
  5
18D
100
AcDbEntity
  8
0
370
    35
390
0
 62
     7
 48
0.125
100
AcDbLine
 10
20.37973
 20
73.209625
 30
0.0
 11
20.37973
 21
68.209625
 31
0.0
210
0.0
220
0.0
230
1.0
  0
LINE
  5
18E
100
AcDbEntity
  8
0
370
    35
390
0
 62
     7
 48
0.096892
100
AcDbLine
 10
43.079628
 20
74.58532
 30
0.0
 11
43.079628
 21
70.709625
 31
0.0
210
0.0
220
0.0
230
1.0
  0
LINE
  5
18F
100
AcDbEntity
  8
0
370
    35
390
0
 62
     7
 48
0.183457
100
AcDbLine
 10
41.279625
 20
74.378815
 30
0.0
 11
41.279625
 21
67.040535
 31
0.0
210
0.0
220
0.0
230
1.0
  0
LINE
  5
190
100
AcDbEntity
  8
0
370
    35
390
0
 62
     7
 48
0.183457
100
AcDbLine
 10
39.479622
 20
74.378815
 30
0.0
 11
39.479622
 21
67.040535
 31
0.0
210
0.0
220
0.0
230
1.0
  0
LINE
  5
191
100
AcDbEntity
  8
0
370
    35
390
0
 62
     7
 48
0.183457
100
AcDbLine
 10
37.679619
 20
74.378815
 30
0.0
 11
37.679619
 21
67.040535
 31
0.0
210
0.0
220
0.0
230
1.0
  0
LINE
  5
192
100
AcDbEntity
  8
0
370
    35
390
0
 62
     7
 48
0.183457
100
AcDbLine
 10
35.879616
 20
74.378815
 30
0.0
 11
35.879616
 21
67.040535
 31
0.0
210
0.0
220
0.0
230
1.0
  0
LINE
  5
193
100
AcDbEntity
  8
0
370
    35
390
0
 62
     7
 48
0.183457
100
AcDbLine
 10
34.079613
 20
74.378815
 30
0.0
 11
34.079613
 21
67.040535
 31
0.0
210
0.0
220
0.0
230
1.0
  0
LINE
  5
194
100
AcDbEntity
  8
0
370
    35
390
0
 62
     7
 48
0.183457
100
AcDbLine
 10
32.27961
 20
74.378815
 30
0.0
 11
32.27961
 21
67.040535
 31
0.0
210
0.0
220
0.0
230
1.0
  0
LINE
  5
195
100
AcDbEntity
  8
0
370
    35
390
0
 62
     7
 48
0.183457
100
AcDbLine
 10
30.479607
 20
74.378815
 30
0.0
 11
30.479607
 21
67.040535
 31
0.0
210
0.0
220
0.0
230
1.0
  0
LINE
  5
196
100
AcDbEntity
  8
0
370
    35
390
0
 62
     7
 48
0.183457
100
AcDbLine
 10
28.679604
 20
74.378815
 30
0.0
 11
28.679604
 21
67.040535
 31
0.0
210
0.0
220
0.0
230
1.0
  0
LINE
  5
197
100
AcDbEntity
  8
0
370
    35
390
0
 62
     7
 48
0.183457
100
AcDbLine
 10
26.879601
 20
74.378815
 30
0.0
 11
26.879601
 21
67.040535
 31
0.0
210
0.0
220
0.0
230
1.0
  0
LINE
  5
198
100
AcDbEntity
  8
0
370
    35
390
0
 62
     7
 48
0.183457
100
AcDbLine
 10
25.079597
 20
74.378815
 30
0.0
 11
25.079597
 21
67.040535
 31
0.0
210
0.0
220
0.0
230
1.0
  0
LINE
  5
199
100
AcDbEntity
  8
0
370
    35
390
0
 62
     7
 48
0.183457
100
AcDbLine
 10
23.279602
 20
74.378815
 30
0.0
 11
23.279602
 21
67.040535
 31
0.0
210
0.0
220
0.0
230
1.0
  0
LINE
  5
19A
100
AcDbEntity
  8
0
370
    35
390
0
 62
     7
 48
0.129714
100
AcDbLine
 10
42.179634
 20
73.303864
 30
0.0
 11
42.179634
 21
68.115288
 31
0.0
210
0.0
220
0.0
230
1.0
  0
LINE
  5
19B
100
AcDbEntity
  8
0
370
    35
390
0
 62
     7
 48
0.129714
100
AcDbLine
 10
40.379631
 20
73.303864
 30
0.0
 11
40.379631
 21
68.115288
 31
0.0
210
0.0
220
0.0
230
1.0
  0
LINE
  5
19C
100
AcDbEntity
  8
0
370
    35
390
0
 62
     7
 48
0.129714
100
AcDbLine
 10
38.579628
 20
73.303864
 30
0.0
 11
38.579628
 21
68.115288
 31
0.0
210
0.0
220
0.0
230
1.0
  0
LINE
  5
19D
100
AcDbEntity
  8
0
370
    35
390
0
 62
     7
 48
0.129702
100
AcDbLine
 10
36.779625
 20
73.303619
 30
0.0
 11
36.779625
 21
68.115532
 31
0.0
210
0.0
220
0.0
230
1.0
  0
LINE
  5
19E
100
AcDbEntity
  8
0
370
    35
390
0
 62
     7
 48
0.129714
100
AcDbLine
 10
34.979622
 20
73.303864
 30
0.0
 11
34.979622
 21
68.115288
 31
0.0
210
0.0
220
0.0
230
1.0
  0
LINE
  5
19F
100
AcDbEntity
  8
0
370
    35
390
0
 62
     7
 48
0.129714
100
AcDbLine
 10
33.179619
 20
73.303864
 30
0.0
 11
33.179619
 21
68.115288
 31
0.0
210
0.0
220
0.0
230
1.0
  0
LINE
  5
1A0
100
AcDbEntity
  8
0
370
    35
390
0
 62
     7
 48
0.129714
100
AcDbLine
 10
31.379616
 20
73.303864
 30
0.0
 11
31.379616
 21
68.115288
 31
0.0
210
0.0
220
0.0
230
1.0
  0
LINE
  5
1A1
100
AcDbEntity
  8
0
370
    35
390
0
 62
     7
 48
0.129714
100
AcDbLine
 10
29.579613
 20
73.303864
 30
0.0
 11
29.579613
 21
68.115288
 31
0.0
210
0.0
220
0.0
230
1.0
  0
LINE
  5
1A2
100
AcDbEntity
  8
0
370
    35
390
0
 62
     7
 48
0.129714
100
AcDbLine
 10
27.77961
 20
73.303864
 30
0.0
 11
27.77961
 21
68.115288
 31
0.0
210
0.0
220
0.0
230
1.0
  0
LINE
  5
1A3
100
AcDbEntity
  8
0
370
    35
390
0
 62
     7
 48
0.129714
100
AcDbLine
 10
25.979607
 20
73.303864
 30
0.0
 11
25.979607
 21
68.115288
 31
0.0
210
0.0
220
0.0
230
1.0
  0
LINE
  5
1A4
100
AcDbEntity
  8
0
370
    35
390
0
 62
     7
 48
0.129714
100
AcDbLine
 10
24.179604
 20
73.303864
 30
0.0
 11
24.179604
 21
68.115288
 31
0.0
210
0.0
220
0.0
230
1.0
  0
LINE
  5
1A5
100
AcDbEntity
  8
0
370
    35
390
0
 62
     7
 48
0.125
100
AcDbLine
 10
21.3797
 20
73.209625
 30
0.0
 11
21.3797
 21
68.209625
 31
0.0
210
0.0
220
0.0
230
1.0
  0
LINE
  5
1A6
100
AcDbEntity
  8
0
370
    35
390
0
 62
     7
 48
0.031877
100
AcDbLine
 10
42.921783
 20
74.445686
 30
0.0
 11
42.26545
 21
73.352509
 31
0.0
210
0.0
220
0.0
230
1.0
  0
LINE
  5
1A7
100
AcDbEntity
  8
0
370
    35
390
0
 62
     7
 48
0.024976
100
AcDbLine
 10
42.093872
 20
73.352425
 30
0.0
 11
41.57962
 21
74.208931
 31
0.0
210
0.0
220
0.0
230
1.0
  0
LINE
  5
1A8
100
AcDbEntity
  8
0
370
    35
390
0
 62
     7
 48
0.024969
100
AcDbLine
 10
40.979576
 20
74.208832
 30
0.0
 11
40.465462
 21
73.352539
 31
0.0
210
0.0
220
0.0
230
1.0
  0
LINE
  5
1A9
100
AcDbEntity
  8
0
370
    35
390
0
 62
     7
 48
0.024976
100
AcDbLine
 10
40.293938
 20
73.352425
 30
0.0
 11
39.779694
 21
74.208931
 31
0.0
210
0.0
220
0.0
230
1.0
  0
LINE
  5
1AA
100
AcDbEntity
  8
0
370
    35
390
0
 62
     7
 48
0.024969
100
AcDbLine
 10
39.179581
 20
74.208862
 30
0.0
 11
38.665459
 21
73.35257
 31
0.0
210
0.0
220
0.0
230
1.0
  0
LINE
  5
1AB
100
AcDbEntity
  8
0
370
    35
390
0
 62
     7
 48
0.024976
100
AcDbLine
 10
38.494011
 20
73.352425
 30
0.0
 11
37.979759
 21
74.208923
 31
0.0
210
0.0
220
0.0
230
1.0
  0
LINE
  5
1AC
100
AcDbEntity
  8
0
370
    35
390
0
 62
     7
 48
0.024982
100
AcDbLine
 10
37.379601
 20
74.208885
 30
0.0
 11
36.865227
 21
73.352165
 31
0.0
210
0.0
220
0.0
230
1.0
  0
LINE
  5
1AD
100
AcDbEntity
  8
0
370
    35
390
0
 62
     7
 48
0.024976
100
AcDbLine
 10
36.693893
 20
73.352303
 30
0.0
 11
36.179649
 21
74.208809
 31
0.0
210
0.0
220
0.0
230
1.0
  0
LINE
  5
1AE
100
AcDbEntity
  8
0
370
    35
390
0
 62
     7
 48
0.024976
100
AcDbLine
 10
35.579605
 20
74.208916
 30
0.0
 11
35.065361
 21
73.352409
 31
0.0
210
0.0
220
0.0
230
1.0
  0
LINE
  5
1AF
100
AcDbEntity
  8
0
370
    35
390
0
 62
     7
 48
0.024969
100
AcDbLine
 10
34.893837
 20
73.352516
 30
0.0
 11
34.379715
 21
74.208809
 31
0.0
210
0.0
220
0.0
230
1.0
  0
LINE
  5
1B0
100
AcDbEntity
  8
0
370
    35
390
0
 62
     7
 48
0.024976
100
AcDbLine
 10
33.77961
 20
74.208946
 30
0.0
 11
33.265366
 21
73.35244
 31
0.0
210
0.0
220
0.0
230
1.0
  0
LINE
  5
1B1
100
AcDbEntity
  8
0
370
    35
390
0
 62
     7
 48
0.024969
100
AcDbLine
 10
33.093857
 20
73.352478
 30
0.0
 11
32.579735
 21
74.208771
 31
0.0
210
0.0
220
0.0
230
1.0
  0
LINE
  5
1B2
100
AcDbEntity
  8
0
370
    35
390
0
 62
     7
 48
0.024976
100
AcDbLine
 10
31.97963
 20
74.208961
 30
0.0
 11
31.465385
 21
73.352455
 31
0.0
210
0.0
220
0.0
230
1.0
  0
LINE
  5
1B3
100
AcDbEntity
  8
0
370
    35
390
0
 62
     7
 48
0.024976
100
AcDbLine
 10
31.293892
 20
73.352455
 30
0.0
 11
30.77964
 21
74.208954
 31
0.0
210
0.0
220
0.0
230
1.0
  0
LINE
  5
1B4
100
AcDbEntity
  8
0
370
    35
390
0
 62
     7
 48
0.02497
100
AcDbLine
 10
30.17952
 20
74.208778
 30
0.0
 11
29.665405
 21
73.352478
 31
0.0
210
0.0
220
0.0
230
1.0
  0
LINE
  5
1B5
100
AcDbEntity
  8
0
370
    35
390
0
 62
     7
 48
0.024976
100
AcDbLine
 10
29.493889
 20
73.352409
 30
0.0
 11
28.979645
 21
74.208916
 31
0.0
210
0.0
220
0.0
230
1.0
  0
LINE
  5
1B6
100
AcDbEntity
  8
0
370
    35
390
0
 62
     7
 48
0.02497
100
AcDbLine
 10
28.379524
 20
74.208809
 30
0.0
 11
27.86541
 21
73.352509
 31
0.0
210
0.0
220
0.0
230
1.0
  0
LINE
  5
1B7
100
AcDbEntity
  8
0
370
    35
390
0
 62
     7
 48
0.024975
100
AcDbLine
 10
27.693909
 20
73.352379
 30
0.0
 11
27.179665
 21
74.208878
 31
0.0
210
0.0
220
0.0
230
1.0
  0
LINE
  5
1B8
100
AcDbEntity
  8
0
370
    35
390
0
 62
     7
 48
0.024969
100
AcDbLine
 10
26.579544
 20
74.208824
 30
0.0
 11
26.06543
 21
73.352531
 31
0.0
210
0.0
220
0.0
230
1.0
  0
LINE
  5
1B9
100
AcDbEntity
  8
0
370
    35
390
0
 62
     7
 48
0.024969
100
AcDbLine
 10
25.893806
 20
73.352554
 30
0.0
 11
25.379684
 21
74.208847
 31
0.0
210
0.0
220
0.0
230
1.0
  0
LINE
  5
1BA
100
AcDbEntity
  8
0
370
    35
390
0
 62
     7
 48
0.024969
100
AcDbLine
 10
24.779556
 20
74.208855
 30
0.0
 11
24.265434
 21
73.352562
 31
0.0
210
0.0
220
0.0
230
1.0
  0
LINE
  5
1BB
100
AcDbEntity
  8
0
370
    35
390
0
 62
     7
 48
0.024976
100
AcDbLine
 10
24.09388
 20
73.352386
 30
0.0
 11
23.579628
 21
74.208893
 31
0.0
210
0.0
220
0.0
230
1.0
  0
LINE
  5
1BC
100
AcDbEntity
  8
0
370
    35
390
0
 62
     7
 48
0.047157
100
AcDbLine
 10
22.979576
 20
74.208885
 30
0.0
 11
21.379723
 21
73.209625
 31
0.0
210
0.0
220
0.0
230
1.0
  0
LINE
  5
1BD
100
AcDbEntity
  8
0
370
    35
390
0
 62
     7
 48
0.024999
100
AcDbLine
 10
21.3797
 20
73.209625
 30
0.0
 11
20.37973
 21
73.209625
 31
0.0
210
0.0
220
0.0
230
1.0
  0
LINE
  5
1BE
100
AcDbEntity
  8
0
370
    35
390
0
 62
     7
 48
0.096892
100
AcDbLine
 10
43.079628
 20
66.833931
 30
0.0
 11
43.079628
 21
70.709625
 31
0.0
210
0.0
220
0.0
230
1.0
  0
LINE
  5
1BF
100
AcDbEntity
  8
0
370
    35
390
0
 62
     7
 48
0.031875
100
AcDbLine
 10
42.921783
 20
66.973564
 30
0.0
 11
42.265495
 21
68.066666
 31
0.0
210
0.0
220
0.0
230
1.0
  0
LINE
  5
1C0
100
AcDbEntity
  8
0
370
    35
390
0
 62
     7
 48
0.024975
100
AcDbLine
 10
42.093925
 20
68.066895
 30
0.0
 11
41.579681
 21
67.210396
 31
0.0
210
0.0
220
0.0
230
1.0
  0
LINE
  5
1C1
100
AcDbEntity
  8
0
370
    35
390
0
 62
     7
 48
0.024969
100
AcDbLine
 10
40.979622
 20
67.21035
 30
0.0
 11
40.465508
 21
68.066643
 31
0.0
210
0.0
220
0.0
230
1.0
  0
LINE
  5
1C2
100
AcDbEntity
  8
0
370
    35
390
0
 62
     7
 48
0.024975
100
AcDbLine
 10
40.293999
 20
68.066895
 30
0.0
 11
39.779755
 21
67.210396
 31
0.0
210
0.0
220
0.0
230
1.0
  0
LINE
  5
1C3
100
AcDbEntity
  8
0
370
    35
390
0
 62
     7
 48
0.024969
100
AcDbLine
 10
39.179626
 20
67.21032
 30
0.0
 11
38.665504
 21
68.066612
 31
0.0
210
0.0
220
0.0
230
1.0
  0
LINE
  5
1C4
100
AcDbEntity
  8
0
370
    35
390
0
 62
     7
 48
0.024976
100
AcDbLine
 10
38.494072
 20
68.066902
 30
0.0
 11
37.97982
 21
67.210396
 31
0.0
210
0.0
220
0.0
230
1.0
  0
LINE
  5
1C5
100
AcDbEntity
  8
0
370
    35
390
0
 62
     7
 48
0.024982
100
AcDbLine
 10
37.379646
 20
67.210297
 30
0.0
 11
36.865273
 21
68.067009
 31
0.0
210
0.0
220
0.0
230
1.0
  0
LINE
  5
1C6
100
AcDbEntity
  8
0
370
    35
390
0
 62
     7
 48
0.024975
100
AcDbLine
 10
36.693947
 20
68.067017
 30
0.0
 11
36.179703
 21
67.210518
 31
0.0
210
0.0
220
0.0
230
1.0
  0
LINE
  5
1C7
100
AcDbEntity
  8
0
370
    35
390
0
 62
     7
 48
0.024976
100
AcDbLine
 10
35.579643
 20
67.210266
 30
0.0
 11
35.065407
 21
68.066772
 31
0.0
210
0.0
220
0.0
230
1.0
  0
LINE
  5
1C8
100
AcDbEntity
  8
0
370
    35
390
0
 62
     7
 48
0.024969
100
AcDbLine
 10
34.893898
 20
68.066811
 30
0.0
 11
34.379776
 21
67.210518
 31
0.0
210
0.0
220
0.0
230
1.0
  0
LINE
  5
1C9
100
AcDbEntity
  8
0
370
    35
390
0
 62
     7
 48
0.024975
100
AcDbLine
 10
33.779655
 20
67.210243
 30
0.0
 11
33.265411
 21
68.066742
 31
0.0
210
0.0
220
0.0
230
1.0
  0
LINE
  5
1CA
100
AcDbEntity
  8
0
370
    35
390
0
 62
     7
 48
0.024969
100
AcDbLine
 10
33.09391
 20
68.066841
 30
0.0
 11
32.579796
 21
67.210548
 31
0.0
210
0.0
220
0.0
230
1.0
  0
LINE
  5
1CB
100
AcDbEntity
  8
0
370
    35
390
0
 62
     7
 48
0.024976
100
AcDbLine
 10
31.979668
 20
67.210213
 30
0.0
 11
31.465431
 21
68.066719
 31
0.0
210
0.0
220
0.0
230
1.0
  0
LINE
  5
1CC
100
AcDbEntity
  8
0
370
    35
390
0
 62
     7
 48
0.024976
100
AcDbLine
 10
31.293945
 20
68.066872
 30
0.0
 11
30.779701
 21
67.210365
 31
0.0
210
0.0
220
0.0
230
1.0
  0
LINE
  5
1CD
100
AcDbEntity
  8
0
370
    35
390
0
 62
     7
 48
0.024969
100
AcDbLine
 10
30.179565
 20
67.210403
 30
0.0
 11
29.665443
 21
68.066696
 31
0.0
210
0.0
220
0.0
230
1.0
  0
LINE
  5
1CE
100
AcDbEntity
  8
0
370
    35
390
0
 62
     7
 48
0.024975
100
AcDbLine
 10
29.49395
 20
68.06691
 30
0.0
 11
28.979706
 21
67.210411
 31
0.0
210
0.0
220
0.0
230
1.0
  0
LINE
  5
1CF
100
AcDbEntity
  8
0
370
    35
390
0
 62
     7
 48
0.024969
100
AcDbLine
 10
28.37957
 20
67.210373
 30
0.0
 11
27.865456
 21
68.066666
 31
0.0
210
0.0
220
0.0
230
1.0
  0
LINE
  5
1D0
100
AcDbEntity
  8
0
370
    35
390
0
 62
     7
 48
0.024976
100
AcDbLine
 10
27.69397
 20
68.066948
 30
0.0
 11
27.179726
 21
67.210442
 31
0.0
210
0.0
220
0.0
230
1.0
  0
LINE
  5
1D1
100
AcDbEntity
  8
0
370
    35
390
0
 62
     7
 48
0.02497
100
AcDbLine
 10
26.57959
 20
67.21035
 30
0.0
 11
26.065475
 21
68.06665
 31
0.0
210
0.0
220
0.0
230
1.0
  0
LINE
  5
1D2
100
AcDbEntity
  8
0
370
    35
390
0
 62
     7
 48
0.02497
100
AcDbLine
 10
25.893867
 20
68.066772
 30
0.0
 11
25.379738
 21
67.21048
 31
0.0
210
0.0
220
0.0
230
1.0
  0
LINE
  5
1D3
100
AcDbEntity
  8
0
370
    35
390
0
 62
     7
 48
0.024969
100
AcDbLine
 10
24.779549
 20
67.210381
 30
0.0
 11
24.265434
 21
68.066673
 31
0.0
210
0.0
220
0.0
230
1.0
  0
LINE
  5
1D4
100
AcDbEntity
  8
0
370
    35
390
0
 62
     7
 48
0.024976
100
AcDbLine
 10
24.093849
 20
68.066803
 30
0.0
 11
23.579605
 21
67.210297
 31
0.0
210
0.0
220
0.0
230
1.0
  0
LINE
  5
1D5
100
AcDbEntity
  8
0
370
    35
390
0
 62
     7
 48
0.047157
100
AcDbLine
 10
22.979568
 20
67.21035
 30
0.0
 11
21.379715
 21
68.209602
 31
0.0
210
0.0
220
0.0
230
1.0
  0
LINE
  5
1D6
100
AcDbEntity
  8
0
370
    35
390
0
 62
     7
 48
0.024999
100
AcDbLine
 10
21.3797
 20
68.209625
 30
0.0
 11
20.37973
 21
68.209625
 31
0.0
210
0.0
220
0.0
230
1.0
  0
LINE
  5
1D7
100
AcDbEntity
  8
0
370
    35
390
0
 62
     7
 48
0.167454
100
AcDbLine
 10
44.579628
 20
74.058746
 30
0.0
 11
44.579628
 21
67.360573
 31
0.0
210
0.0
220
0.0
230
1.0
  0
LINE
  5
1D8
100
AcDbEntity
  8
0
370
    35
390
0
 62
     7
 48
0.033202
100
AcDbLine
 10
43.361008
 20
74.586678
 30
0.0
 11
44.579628
 21
74.058685
 31
0.0
210
0.0
220
0.0
230
1.0
  0
LINE
  5
1D9
100
AcDbEntity
  8
0
370
    35
390
0
 62
     7
 48
0.033202
100
AcDbLine
 10
43.361008
 20
66.832573
 30
0.0
 11
44.579628
 21
67.360565
 31
0.0
210
0.0
220
0.0
230
1.0
  0
LINE
  5
1DA
100
AcDbEntity
  8
0
370
    35
390
0
 62
     7
 48
0.155
100
AcDbLine
 10
75.579704
 20
72.809677
 30
0.0
 11
75.579704
 21
66.609673
 31
0.0
210
0.0
220
0.0
230
1.0
  0
LINE
  5
1DB
100
AcDbEntity
  8
0
370
    35
390
0
 62
     7
 48
0.155
100
AcDbLine
 10
107.579704
 20
72.809677
 30
0.0
 11
107.579704
 21
66.609673
 31
0.0
210
0.0
220
0.0
230
1.0
  0
LINE
  5
1DC
100
AcDbEntity
  8
0
370
    35
390
0
 62
     7
100
AcDbLine
 10
76.579704
 20
73.809677
 30
0.0
 11
106.579704
 21
73.809677
 31
0.0
210
0.0
220
0.0
230
1.0
  0
LINE
  5
1DD
100
AcDbEntity
  8
0
370
    35
390
0
 62
     7
100
AcDbLine
 10
76.579704
 20
65.609673
 30
0.0
 11
106.579704
 21
65.609673
 31
0.0
210
0.0
220
0.0
230
1.0
  0
ARC
  5
1DE
100
AcDbEntity
  8
0
370
    35
390
0
 62
     7
100
AcDbCircle
 10
58.379723
 20
74.709625
 30
0.0
 40
1.0
210
0.0
220
0.0
230
1.0
100
AcDbArc
 50
90.000003
 51
180.000009
  0
ARC
  5
1DF
100
AcDbEntity
  8
0
370
    35
390
0
 62
     7
100
AcDbCircle
 10
15.87973
 20
70.709625
 30
0.0
 40
1.5
210
0.0
220
0.0
230
1.0
100
AcDbArc
 50
109.471253
 51
250.528802
  0
ARC
  5
1E0
100
AcDbEntity
  8
0
370
    35
390
0
 62
     7
100
AcDbCircle
 10
59.379723
 20
65.709648
 30
0.0
 40
2.0
210
0.0
220
0.0
230
1.0
100
AcDbArc
 50
179.999896
 51
269.999997
  0
ARC
  5
1E1
100
AcDbEntity
  8
0
370
    35
390
0
 62
     7
100
AcDbCircle
 10
15.87973
 20
117.70974
 30
0.0
 40
1.5
210
0.0
220
0.0
230
1.0
100
AcDbArc
 50
109.471226
 51
250.528767
  0
ARC
  5
1E2
100
AcDbEntity
  8
0
370
    35
390
0
 62
     7
100
AcDbCircle
 10
42.239006
 20
120.404076
 30
0.0
 40
0.1
210
0.0
220
0.0
230
1.0
100
AcDbArc
 50
210.932651
 51
329.065947
  0
ARC
  5
1E3
100
AcDbEntity
  8
0
370
    35
390
0
 62
     7
100
AcDbCircle
 10
42.17968
 20
115.015404
 30
0.0
 40
0.1
210
0.0
220
0.0
230
1.0
100
AcDbArc
 50
30.934521
 51
149.067349
  0
ARC
  5
1E4
100
AcDbEntity
  8
0
370
    35
390
0
 62
     7
100
AcDbCircle
 10
40.379631
 20
115.015404
 30
0.0
 40
0.1
210
0.0
220
0.0
230
1.0
100
AcDbArc
 50
30.968347
 51
149.03399
  0
ARC
  5
1E5
100
AcDbEntity
  8
0
370
    35
390
0
 62
     7
100
AcDbCircle
 10
38.579582
 20
115.015404
 30
0.0
 40
0.1
210
0.0
220
0.0
230
1.0
100
AcDbArc
 50
31.00171
 51
149.000631
  0
ARC
  5
1E6
100
AcDbEntity
  8
0
370
    35
390
0
 62
     7
100
AcDbCircle
 10
36.779533
 20
115.015648
 30
0.0
 40
0.1
210
0.0
220
0.0
230
1.0
100
AcDbArc
 50
31.038538
 51
148.963339
  0
ARC
  5
1E7
100
AcDbEntity
  8
0
370
    35
390
0
 62
     7
100
AcDbCircle
 10
34.979485
 20
115.015404
 30
0.0
 40
0.1
210
0.0
220
0.0
230
1.0
100
AcDbArc
 50
30.951668
 51
149.050669
  0
ARC
  5
1E8
100
AcDbEntity
  8
0
370
    35
390
0
 62
     7
100
AcDbCircle
 10
33.179436
 20
115.015404
 30
0.0
 40
0.1
210
0.0
220
0.0
230
1.0
100
AcDbArc
 50
30.955134
 51
149.045328
  0
ARC
  5
1E9
100
AcDbEntity
  8
0
370
    35
390
0
 62
     7
100
AcDbCircle
 10
31.379631
 20
115.015404
 30
0.0
 40
0.1
210
0.0
220
0.0
230
1.0
100
AcDbArc
 50
30.959072
 51
149.04093
  0
ARC
  5
1EA
100
AcDbEntity
  8
0
370
    35
390
0
 62
     7
100
AcDbCircle
 10
29.579582
 20
115.015404
 30
0.0
 40
0.1
210
0.0
220
0.0
230
1.0
100
AcDbArc
 50
30.947263
 51
149.050205
  0
ARC
  5
1EB
100
AcDbEntity
  8
0
370
    35
390
0
 62
     7
100
AcDbCircle
 10
27.779533
 20
115.015404
 30
0.0
 40
0.1
210
0.0
220
0.0
230
1.0
100
AcDbArc
 50
30.950261
 51
149.043744
  0
ARC
  5
1EC
100
AcDbEntity
  8
0
370
    35
390
0
 62
     7
100
AcDbCircle
 10
25.979485
 20
115.015404
 30
0.0
 40
0.1
210
0.0
220
0.0
230
1.0
100
AcDbArc
 50
30.949325
 51
149.049262
  0
ARC
  5
1ED
100
AcDbEntity
  8
0
370
    35
390
0
 62
     7
100
AcDbCircle
 10
24.179436
 20
115.015404
 30
0.0
 40
0.1
210
0.0
220
0.0
230
1.0
100
AcDbArc
 50
30.942393
 51
149.057609
  0
ARC
  5
1EE
100
AcDbEntity
  8
0
370
    35
390
0
 62
     7
100
AcDbCircle
 10
110.379753
 20
132.209656
 30
0.0
 40
0.5
210
0.0
220
0.0
230
1.0
100
AcDbArc
 50
0.0
 51
126.876897
  0
ARC
  5
1EF
100
AcDbEntity
  8
0
370
    35
390
0
 62
     7
100
AcDbCircle
 10
58.379723
 20
108.623627
 30
0.0
 40
1.0
210
0.0
220
0.0
230
1.0
100
AcDbArc
 50
180.002454
 51
225.00209
  0
ARC
  5
1F0
100
AcDbEntity
  8
0
370
    35
390
0
 62
     7
100
AcDbCircle
 10
62.794029
 20
135.209747
 30
0.0
 40
1.0
210
0.0
220
0.0
230
1.0
100
AcDbArc
 50
90.00044
 51
135.001161
  0
ARC
  5
1F1
100
AcDbEntity
  8
0
370
    35
390
0
 62
     7
100
AcDbCircle
 10
58.379723
 20
130.795563
 30
0.0
 40
1.0
210
0.0
220
0.0
230
1.0
100
AcDbArc
 50
134.997528
 51
179.995197
  0
ARC
  5
1F2
100
AcDbEntity
  8
0
370
    35
390
0
 62
     7
100
AcDbCircle
 10
112.379753
 20
123.70977
 30
0.0
 40
0.5
210
0.0
220
0.0
230
1.0
100
AcDbArc
 50
269.999997
 51
360.0
  0
ARC
  5
1F3
100
AcDbEntity
  8
0
370
    35
390
0
 62
     7
100
AcDbCircle
 10
111.379753
 20
123.70977
 30
0.0
 40
0.5
210
0.0
220
0.0
230
1.0
100
AcDbArc
 50
180.000009
 51
269.999997
  0
ARC
  5
1F4
100
AcDbEntity
  8
0
370
    35
390
0
 62
     7
100
AcDbCircle
 10
112.379753
 20
132.709656
 30
0.0
 40
0.5
210
0.0
220
0.0
230
1.0
100
AcDbArc
 50
0.0
 51
90.000003
  0
ARC
  5
1F5
100
AcDbEntity
  8
0
370
    35
390
0
 62
     7
100
AcDbCircle
 10
111.379753
 20
132.709656
 30
0.0
 40
0.5
210
0.0
220
0.0
230
1.0
100
AcDbArc
 50
90.000003
 51
180.000009
  0
ARC
  5
1F6
100
AcDbEntity
  8
0
370
    35
390
0
 62
     7
100
AcDbCircle
 10
120.379753
 20
124.20977
 30
0.0
 40
1.0
210
0.0
220
0.0
230
1.0
100
AcDbArc
 50
269.999997
 51
360.0
  0
ARC
  5
1F7
100
AcDbEntity
  8
0
370
    35
390
0
 62
     7
100
AcDbCircle
 10
120.379753
 20
132.209656
 30
0.0
 40
1.0
210
0.0
220
0.0
230
1.0
100
AcDbArc
 50
0.0
 51
90.000003
  0
ARC
  5
1F8
100
AcDbEntity
  8
0
370
    35
390
0
 62
     7
100
AcDbCircle
 10
110.379753
 20
124.20977
 30
0.0
 40
0.5
210
0.0
220
0.0
230
1.0
100
AcDbArc
 50
233.123103
 51
360.0
  0
CIRCLE
  5
1F9
100
AcDbEntity
  8
0
370
    35
390
0
 62
     7
100
AcDbCircle
 10
61.379723
 20
110.209755
 30
0.0
 40
2.1
210
0.0
220
0.0
230
1.0
  0
CIRCLE
  5
1FA
100
AcDbEntity
  8
0
370
    35
390
0
 62
     7
100
AcDbCircle
 10
61.379723
 20
125.209724
 30
0.0
 40
2.1
210
0.0
220
0.0
230
1.0
  0
ARC
  5
1FB
100
AcDbEntity
  8
0
370
    35
390
0
 62
     7
100
AcDbCircle
 10
109.079704
 20
74.509674
 30
0.0
 40
1.0
210
0.0
220
0.0
230
1.0
100
AcDbArc
 50
0.0
 51
90.000003
  0
ARC
  5
1FC
100
AcDbEntity
  8
0
370
    35
390
0
 62
     7
100
AcDbCircle
 10
108.379753
 20
65.609657
 30
0.0
 40
1.7
210
0.0
220
0.0
230
1.0
100
AcDbArc
 50
269.99997
 51
360.0
  0
ARC
  5
1FD
100
AcDbEntity
  8
0
370
    35
390
0
 62
     7
100
AcDbCircle
 10
108.379753
 20
105.109543
 30
0.0
 40
1.7
210
0.0
220
0.0
230
1.0
100
AcDbArc
 50
269.99997
 51
0.00002
  0
ARC
  5
1FE
100
AcDbEntity
  8
0
370
    35
390
0
 62
     7
100
AcDbCircle
 10
108.379753
 20
134.309662
 30
0.0
 40
1.7
210
0.0
220
0.0
230
1.0
100
AcDbArc
 50
0.000064
 51
90.00003
  0
ARC
  5
1FF
100
AcDbEntity
  8
0
370
    35
390
0
 62
     7
100
AcDbCircle
 10
23.476067
 20
43.209873
 30
0.0
 40
0.7
210
0.0
220
0.0
230
1.0
100
AcDbArc
 50
359.999682
 51
180.000009
  0
ARC
  5
200
100
AcDbEntity
  8
0
370
    35
390
0
 62
     7
100
AcDbCircle
 10
23.476067
 20
33.209869
 30
0.0
 40
0.7
210
0.0
220
0.0
230
1.0
100
AcDbArc
 50
180.000009
 51
360.0
  0
ARC
  5
201
100
AcDbEntity
  8
0
370
    35
390
0
 62
     7
100
AcDbCircle
 10
112.379753
 20
65.309685
 30
0.0
 40
0.5
210
0.0
220
0.0
230
1.0
100
AcDbArc
 50
269.999997
 51
360.0
  0
ARC
  5
202
100
AcDbEntity
  8
0
370
    35
390
0
 62
     7
100
AcDbCircle
 10
111.379753
 20
65.309685
 30
0.0
 40
0.5
210
0.0
220
0.0
230
1.0
100
AcDbArc
 50
180.000009
 51
269.999997
  0
ARC
  5
203
100
AcDbEntity
  8
0
370
    35
390
0
 62
     7
100
AcDbCircle
 10
120.379753
 20
65.809685
 30
0.0
 40
1.0
210
0.0
220
0.0
230
1.0
100
AcDbArc
 50
269.999997
 51
360.0
  0
ARC
  5
204
100
AcDbEntity
  8
0
370
    35
390
0
 62
     7
100
AcDbCircle
 10
110.379753
 20
65.809685
 30
0.0
 40
0.5
210
0.0
220
0.0
230
1.0
100
AcDbArc
 50
233.123376
 51
360.0
  0
ARC
  5
205
100
AcDbEntity
  8
0
370
    35
390
0
 62
     7
100
AcDbCircle
 10
110.379753
 20
73.809555
 30
0.0
 40
0.5
210
0.0
220
0.0
230
1.0
100
AcDbArc
 50
90.000003
 51
126.876897
  0
ARC
  5
206
100
AcDbEntity
  8
0
370
    35
390
0
 62
     7
100
AcDbCircle
 10
73.07975
 20
71.409622
 30
0.0
 40
0.3
210
0.0
220
0.0
230
1.0
100
AcDbArc
 50
180.000009
 51
269.999997
  0
ARC
  5
207
100
AcDbEntity
  8
0
370
    35
390
0
 62
     7
100
AcDbCircle
 10
73.07975
 20
70.009628
 30
0.0
 40
0.3
210
0.0
220
0.0
230
1.0
100
AcDbArc
 50
90.000003
 51
180.000733
  0
ARC
  5
208
100
AcDbEntity
  8
0
370
    35
390
0
 62
     7
100
AcDbCircle
 10
71.679756
 20
70.009628
 30
0.0
 40
0.3
210
0.0
220
0.0
230
1.0
100
AcDbArc
 50
0.0
 51
90.000003
  0
ARC
  5
209
100
AcDbEntity
  8
0
370
    35
390
0
 62
     7
100
AcDbCircle
 10
71.679756
 20
71.409622
 30
0.0
 40
0.3
210
0.0
220
0.0
230
1.0
100
AcDbArc
 50
269.999997
 51
360.0
  0
CIRCLE
  5
20A
100
AcDbEntity
  8
0
370
    35
390
0
 62
     7
100
AcDbCircle
 10
72.379753
 20
70.709625
 30
0.0
 40
2.05
210
0.0
220
0.0
230
1.0
  0
ARC
  5
20B
100
AcDbEntity
  8
0
370
    35
390
0
 62
     7
100
AcDbCircle
 10
152.699524
 20
83.209869
 30
0.0
 40
42.75
210
0.0
220
0.0
230
1.0
100
AcDbArc
 50
269.999997
 51
90.000003
  0
ARC
  5
20C
100
AcDbEntity
  8
0
370
    35
390
0
 62
     7
100
AcDbCircle
 10
152.699524
 20
83.209869
 30
0.0
 40
47.25
210
0.0
220
0.0
230
1.0
100
AcDbArc
 50
269.999997
 51
90.000003
  0
ARC
  5
20D
100
AcDbEntity
  8
0
370
    35
390
0
 62
     7
100
AcDbCircle
 10
41.279625
 20
121.028831
 30
0.0
 40
0.35
210
0.0
220
0.0
230
1.0
100
AcDbArc
 50
30.992164
 51
149.008828
  0
ARC
  5
20E
100
AcDbEntity
  8
0
370
    35
390
0
 62
     7
100
AcDbCircle
 10
39.479652
 20
121.028831
 30
0.0
 40
0.35
210
0.0
220
0.0
230
1.0
100
AcDbArc
 50
30.982766
 51
149.018171
  0
ARC
  5
20F
100
AcDbEntity
  8
0
370
    35
390
0
 62
     7
100
AcDbCircle
 10
37.679695
 20
121.028831
 30
0.0
 40
0.35
210
0.0
220
0.0
230
1.0
100
AcDbArc
 50
30.974949
 51
149.025179
  0
ARC
  5
210
100
AcDbEntity
  8
0
370
    35
390
0
 62
     7
100
AcDbCircle
 10
35.879585
 20
121.028831
 30
0.0
 40
0.35
210
0.0
220
0.0
230
1.0
100
AcDbArc
 50
30.997062
 51
149.00406
  0
ARC
  5
211
100
AcDbEntity
  8
0
370
    35
390
0
 62
     7
100
AcDbCircle
 10
34.079613
 20
121.028831
 30
0.0
 40
0.35
210
0.0
220
0.0
230
1.0
100
AcDbArc
 50
30.987533
 51
149.013732
  0
ARC
  5
212
100
AcDbEntity
  8
0
370
    35
390
0
 62
     7
100
AcDbCircle
 10
32.279625
 20
121.028831
 30
0.0
 40
0.35
210
0.0
220
0.0
230
1.0
100
AcDbArc
 50
30.987533
 51
149.011751
  0
ARC
  5
213
100
AcDbEntity
  8
0
370
    35
390
0
 62
     7
100
AcDbCircle
 10
30.479637
 20
121.028831
 30
0.0
 40
0.35
210
0.0
220
0.0
230
1.0
100
AcDbArc
 50
30.98627
 51
149.012871
  0
ARC
  5
214
100
AcDbEntity
  8
0
370
    35
390
0
 62
     7
100
AcDbCircle
 10
28.679619
 20
121.028831
 30
0.0
 40
0.35
210
0.0
220
0.0
230
1.0
100
AcDbArc
 50
30.986943
 51
149.011819
  0
ARC
  5
215
100
AcDbEntity
  8
0
370
    35
390
0
 62
     7
100
AcDbCircle
 10
26.879616
 20
121.028831
 30
0.0
 40
0.35
210
0.0
220
0.0
230
1.0
100
AcDbArc
 50
30.988199
 51
149.011423
  0
ARC
  5
216
100
AcDbEntity
  8
0
370
    35
390
0
 62
     7
100
AcDbCircle
 10
25.079613
 20
121.028831
 30
0.0
 40
0.35
210
0.0
220
0.0
230
1.0
100
AcDbArc
 50
30.9878
 51
149.01156
  0
ARC
  5
217
100
AcDbEntity
  8
0
370
    35
390
0
 62
     7
100
AcDbCircle
 10
23.27961
 20
121.028831
 30
0.0
 40
0.35
210
0.0
220
0.0
230
1.0
100
AcDbArc
 50
30.991092
 51
149.009552
  0
ARC
  5
218
100
AcDbEntity
  8
0
370
    35
390
0
 62
     7
100
AcDbCircle
 10
42.179634
 20
120.404076
 30
0.0
 40
0.1
210
0.0
220
0.0
230
1.0
100
AcDbArc
 50
210.932651
 51
329.065947
  0
ARC
  5
219
100
AcDbEntity
  8
0
370
    35
390
0
 62
     7
100
AcDbCircle
 10
40.379662
 20
120.404076
 30
0.0
 40
0.1
210
0.0
220
0.0
230
1.0
100
AcDbArc
 50
210.96601
 51
329.032124
  0
ARC
  5
21A
100
AcDbEntity
  8
0
370
    35
390
0
 62
     7
100
AcDbCircle
 10
38.579689
 20
120.404076
 30
0.0
 40
0.1
210
0.0
220
0.0
230
1.0
100
AcDbArc
 50
210.999369
 51
328.998301
  0
ARC
  5
21B
100
AcDbEntity
  8
0
370
    35
390
0
 62
     7
100
AcDbCircle
 10
36.779594
 20
120.403831
 30
0.0
 40
0.1
210
0.0
220
0.0
230
1.0
100
AcDbArc
 50
211.035541
 51
328.961472
  0
ARC
  5
21C
100
AcDbEntity
  8
0
370
    35
390
0
 62
     7
100
AcDbCircle
 10
34.979622
 20
120.404076
 30
0.0
 40
0.1
210
0.0
220
0.0
230
1.0
100
AcDbArc
 50
210.949331
 51
329.047205
  0
ARC
  5
21D
100
AcDbEntity
  8
0
370
    35
390
0
 62
     7
100
AcDbCircle
 10
33.179619
 20
120.404076
 30
0.0
 40
0.1
210
0.0
220
0.0
230
1.0
100
AcDbArc
 50
210.954207
 51
329.045344
  0
ARC
  5
21E
100
AcDbEntity
  8
0
370
    35
390
0
 62
     7
100
AcDbCircle
 10
31.379631
 20
120.404076
 30
0.0
 40
0.1
210
0.0
220
0.0
230
1.0
100
AcDbArc
 50
210.958606
 51
329.041386
  0
ARC
  5
21F
100
AcDbEntity
  8
0
370
    35
390
0
 62
     7
100
AcDbCircle
 10
29.579628
 20
120.404076
 30
0.0
 40
0.1
210
0.0
220
0.0
230
1.0
100
AcDbArc
 50
210.949795
 51
329.052068
  0
ARC
  5
220
100
AcDbEntity
  8
0
370
    35
390
0
 62
     7
100
AcDbCircle
 10
27.779625
 20
120.404076
 30
0.0
 40
0.1
210
0.0
220
0.0
230
1.0
100
AcDbArc
 50
210.956256
 51
329.049746
  0
ARC
  5
221
100
AcDbEntity
  8
0
370
    35
390
0
 62
     7
100
AcDbCircle
 10
25.979622
 20
120.404076
 30
0.0
 40
0.1
210
0.0
220
0.0
230
1.0
100
AcDbArc
 50
210.952978
 51
329.053379
  0
ARC
  5
222
100
AcDbEntity
  8
0
370
    35
390
0
 62
     7
100
AcDbCircle
 10
24.179604
 20
120.404076
 30
0.0
 40
0.1
210
0.0
220
0.0
230
1.0
100
AcDbArc
 50
210.942391
 51
329.057614
  0
ARC
  5
223
100
AcDbEntity
  8
0
370
    35
390
0
 62
     7
100
AcDbCircle
 10
41.279625
 20
114.390648
 30
0.0
 40
0.35
210
0.0
220
0.0
230
1.0
100
AcDbArc
 50
210.99217
 51
329.007836
  0
ARC
  5
224
100
AcDbEntity
  8
0
370
    35
390
0
 62
     7
100
AcDbCircle
 10
39.479652
 20
114.390648
 30
0.0
 40
0.35
210
0.0
220
0.0
230
1.0
100
AcDbArc
 50
210.981829
 51
329.017371
  0
ARC
  5
225
100
AcDbEntity
  8
0
370
    35
390
0
 62
     7
100
AcDbCircle
 10
37.679695
 20
114.390648
 30
0.0
 40
0.35
210
0.0
220
0.0
230
1.0
100
AcDbArc
 50
210.974753
 51
329.02513
  0
ARC
  5
226
100
AcDbEntity
  8
0
370
    35
390
0
 62
     7
100
AcDbCircle
 10
35.879585
 20
114.390648
 30
0.0
 40
0.35
210
0.0
220
0.0
230
1.0
100
AcDbArc
 50
210.995872
 51
329.003082
  0
ARC
  5
227
100
AcDbEntity
  8
0
370
    35
390
0
 62
     7
100
AcDbCircle
 10
34.079613
 20
114.390648
 30
0.0
 40
0.35
210
0.0
220
0.0
230
1.0
100
AcDbArc
 50
210.986214
 51
329.012535
  0
ARC
  5
228
100
AcDbEntity
  8
0
370
    35
390
0
 62
     7
100
AcDbCircle
 10
32.279625
 20
114.390648
 30
0.0
 40
0.35
210
0.0
220
0.0
230
1.0
100
AcDbArc
 50
210.988194
 51
329.012535
  0
ARC
  5
229
100
AcDbEntity
  8
0
370
    35
390
0
 62
     7
100
AcDbCircle
 10
30.479637
 20
114.390648
 30
0.0
 40
0.35
210
0.0
220
0.0
230
1.0
100
AcDbArc
 50
210.980326
 51
329.013874
  0
ARC
  5
22A
100
AcDbEntity
  8
0
370
    35
390
0
 62
     7
100
AcDbCircle
 10
28.679619
 20
114.390648
 30
0.0
 40
0.35
210
0.0
220
0.0
230
1.0
100
AcDbArc
 50
210.988181
 51
329.013054
  0
ARC
  5
22B
100
AcDbEntity
  8
0
370
    35
390
0
 62
     7
100
AcDbCircle
 10
26.879616
 20
114.390648
 30
0.0
 40
0.35
210
0.0
220
0.0
230
1.0
100
AcDbArc
 50
210.988509
 51
329.011797
  0
ARC
  5
22C
100
AcDbEntity
  8
0
370
    35
390
0
 62
     7
100
AcDbCircle
 10
25.079613
 20
114.390648
 30
0.0
 40
0.35
210
0.0
220
0.0
230
1.0
100
AcDbArc
 50
210.988386
 51
329.012207
  0
ARC
  5
22D
100
AcDbEntity
  8
0
370
    35
390
0
 62
     7
100
AcDbCircle
 10
23.27961
 20
114.390648
 30
0.0
 40
0.35
210
0.0
220
0.0
230
1.0
100
AcDbArc
 50
210.99038
 51
329.008983
  0
ARC
  5
22E
100
AcDbEntity
  8
0
370
    35
390
0
 62
     7
100
AcDbCircle
 10
42.179634
 20
115.015404
 30
0.0
 40
0.1
210
0.0
220
0.0
230
1.0
100
AcDbArc
 50
30.934521
 51
149.067349
  0
ARC
  5
22F
100
AcDbEntity
  8
0
370
    35
390
0
 62
     7
100
AcDbCircle
 10
40.379662
 20
115.015404
 30
0.0
 40
0.1
210
0.0
220
0.0
230
1.0
100
AcDbArc
 50
30.968347
 51
149.03399
  0
ARC
  5
230
100
AcDbEntity
  8
0
370
    35
390
0
 62
     7
100
AcDbCircle
 10
38.579689
 20
115.015404
 30
0.0
 40
0.1
210
0.0
220
0.0
230
1.0
100
AcDbArc
 50
31.00171
 51
149.000631
  0
ARC
  5
231
100
AcDbEntity
  8
0
370
    35
390
0
 62
     7
100
AcDbCircle
 10
36.779594
 20
115.015648
 30
0.0
 40
0.1
210
0.0
220
0.0
230
1.0
100
AcDbArc
 50
31.038538
 51
148.964459
  0
ARC
  5
232
100
AcDbEntity
  8
0
370
    35
390
0
 62
     7
100
AcDbCircle
 10
34.979622
 20
115.015404
 30
0.0
 40
0.1
210
0.0
220
0.0
230
1.0
100
AcDbArc
 50
30.952792
 51
149.050669
  0
ARC
  5
233
100
AcDbEntity
  8
0
370
    35
390
0
 62
     7
100
AcDbCircle
 10
33.179619
 20
115.015404
 30
0.0
 40
0.1
210
0.0
220
0.0
230
1.0
100
AcDbArc
 50
30.955134
 51
149.045806
  0
ARC
  5
234
100
AcDbEntity
  8
0
370
    35
390
0
 62
     7
100
AcDbCircle
 10
31.379631
 20
115.015404
 30
0.0
 40
0.1
210
0.0
220
0.0
230
1.0
100
AcDbArc
 50
30.959072
 51
149.04093
  0
ARC
  5
235
100
AcDbEntity
  8
0
370
    35
390
0
 62
     7
100
AcDbCircle
 10
29.579628
 20
115.015404
 30
0.0
 40
0.1
210
0.0
220
0.0
230
1.0
100
AcDbArc
 50
30.94839
 51
149.050205
  0
ARC
  5
236
100
AcDbEntity
  8
0
370
    35
390
0
 62
     7
100
AcDbCircle
 10
27.779625
 20
115.015404
 30
0.0
 40
0.1
210
0.0
220
0.0
230
1.0
100
AcDbArc
 50
30.950261
 51
149.043744
  0
ARC
  5
237
100
AcDbEntity
  8
0
370
    35
390
0
 62
     7
100
AcDbCircle
 10
25.979622
 20
115.015404
 30
0.0
 40
0.1
210
0.0
220
0.0
230
1.0
100
AcDbArc
 50
30.947078
 51
149.047022
  0
ARC
  5
238
100
AcDbEntity
  8
0
370
    35
390
0
 62
     7
100
AcDbCircle
 10
24.179604
 20
115.015404
 30
0.0
 40
0.1
210
0.0
220
0.0
230
1.0
100
AcDbArc
 50
30.942393
 51
149.057609
  0
ARC
  5
239
100
AcDbEntity
  8
0
370
    35
390
0
 62
     7
100
AcDbCircle
 10
43.221855
 20
121.265633
 30
0.0
 40
0.35
210
0.0
220
0.0
230
1.0
100
AcDbArc
 50
66.575199
 51
149.020015
  0
ARC
  5
23A
100
AcDbEntity
  8
0
370
    35
390
0
 62
     7
100
AcDbCircle
 10
43.221855
 20
114.153839
 30
0.0
 40
0.35
210
0.0
220
0.0
230
1.0
100
AcDbArc
 50
210.980572
 51
293.424842
  0
ARC
  5
23B
100
AcDbEntity
  8
0
370
    35
390
0
 62
     7
100
AcDbCircle
 10
41.279625
 20
74.028717
 30
0.0
 40
0.35
210
0.0
220
0.0
230
1.0
100
AcDbArc
 50
30.992031
 51
149.00936
  0
ARC
  5
23C
100
AcDbEntity
  8
0
370
    35
390
0
 62
     7
100
AcDbCircle
 10
39.479652
 20
74.028717
 30
0.0
 40
0.35
210
0.0
220
0.0
230
1.0
100
AcDbArc
 50
30.9825
 51
149.018567
  0
ARC
  5
23D
100
AcDbEntity
  8
0
370
    35
390
0
 62
     7
100
AcDbCircle
 10
37.679695
 20
74.028717
 30
0.0
 40
0.35
210
0.0
220
0.0
230
1.0
100
AcDbArc
 50
30.974679
 51
149.025316
  0
ARC
  5
23E
100
AcDbEntity
  8
0
370
    35
390
0
 62
     7
100
AcDbCircle
 10
35.879585
 20
74.028717
 30
0.0
 40
0.35
210
0.0
220
0.0
230
1.0
100
AcDbArc
 50
30.996529
 51
149.004333
  0
ARC
  5
23F
100
AcDbEntity
  8
0
370
    35
390
0
 62
     7
100
AcDbCircle
 10
34.079613
 20
74.028717
 30
0.0
 40
0.35
210
0.0
220
0.0
230
1.0
100
AcDbArc
 50
30.986997
 51
149.013855
  0
ARC
  5
240
100
AcDbEntity
  8
0
370
    35
390
0
 62
     7
100
AcDbCircle
 10
32.279625
 20
74.028717
 30
0.0
 40
0.35
210
0.0
220
0.0
230
1.0
100
AcDbArc
 50
30.986997
 51
149.012147
  0
ARC
  5
241
100
AcDbEntity
  8
0
370
    35
390
0
 62
     7
100
AcDbCircle
 10
30.479637
 20
74.028717
 30
0.0
 40
0.35
210
0.0
220
0.0
230
1.0
100
AcDbArc
 50
30.98614
 51
149.013008
  0
ARC
  5
242
100
AcDbEntity
  8
0
370
    35
390
0
 62
     7
100
AcDbCircle
 10
28.679619
 20
74.028717
 30
0.0
 40
0.35
210
0.0
220
0.0
230
1.0
100
AcDbArc
 50
30.986676
 51
149.011819
  0
ARC
  5
243
100
AcDbEntity
  8
0
370
    35
390
0
 62
     7
100
AcDbCircle
 10
26.879616
 20
74.028717
 30
0.0
 40
0.35
210
0.0
220
0.0
230
1.0
100
AcDbArc
 50
30.98807
 51
149.011819
  0
ARC
  5
244
100
AcDbEntity
  8
0
370
    35
390
0
 62
     7
100
AcDbCircle
 10
25.079613
 20
74.028717
 30
0.0
 40
0.35
210
0.0
220
0.0
230
1.0
100
AcDbArc
 50
30.987533
 51
149.011819
  0
ARC
  5
245
100
AcDbEntity
  8
0
370
    35
390
0
 62
     7
100
AcDbCircle
 10
23.27961
 20
74.028717
 30
0.0
 40
0.35
210
0.0
220
0.0
230
1.0
100
AcDbArc
 50
30.990959
 51
149.009688
  0
ARC
  5
246
100
AcDbEntity
  8
0
370
    35
390
0
 62
     7
100
AcDbCircle
 10
42.179634
 20
73.403961
 30
0.0
 40
0.1
210
0.0
220
0.0
230
1.0
100
AcDbArc
 50
210.934523
 51
329.065482
  0
ARC
  5
247
100
AcDbEntity
  8
0
370
    35
390
0
 62
     7
100
AcDbCircle
 10
40.379662
 20
73.403961
 30
0.0
 40
0.1
210
0.0
220
0.0
230
1.0
100
AcDbArc
 50
210.96601
 51
329.030239
  0
ARC
  5
248
100
AcDbEntity
  8
0
370
    35
390
0
 62
     7
100
AcDbCircle
 10
38.579689
 20
73.403961
 30
0.0
 40
0.1
210
0.0
220
0.0
230
1.0
100
AcDbArc
 50
210.999369
 51
328.99688
  0
ARC
  5
249
100
AcDbEntity
  8
0
370
    35
390
0
 62
     7
100
AcDbCircle
 10
36.779594
 20
73.403717
 30
0.0
 40
0.1
210
0.0
220
0.0
230
1.0
100
AcDbArc
 50
211.036484
 51
328.960516
  0
ARC
  5
24A
100
AcDbEntity
  8
0
370
    35
390
0
 62
     7
100
AcDbCircle
 10
34.979622
 20
73.403961
 30
0.0
 40
0.1
210
0.0
220
0.0
230
1.0
100
AcDbArc
 50
210.95026
 51
329.04674
  0
ARC
  5
24B
100
AcDbEntity
  8
0
370
    35
390
0
 62
     7
100
AcDbCircle
 10
33.179619
 20
73.403961
 30
0.0
 40
0.1
210
0.0
220
0.0
230
1.0
100
AcDbArc
 50
210.955136
 51
329.044855
  0
ARC
  5
24C
100
AcDbEntity
  8
0
370
    35
390
0
 62
     7
100
AcDbCircle
 10
31.379631
 20
73.403961
 30
0.0
 40
0.1
210
0.0
220
0.0
230
1.0
100
AcDbArc
 50
210.960013
 51
329.039992
  0
ARC
  5
24D
100
AcDbEntity
  8
0
370
    35
390
0
 62
     7
100
AcDbCircle
 10
29.579628
 20
73.403961
 30
0.0
 40
0.1
210
0.0
220
0.0
230
1.0
100
AcDbArc
 50
210.95026
 51
329.051607
  0
ARC
  5
24E
100
AcDbEntity
  8
0
370
    35
390
0
 62
     7
100
AcDbCircle
 10
27.779625
 20
73.403961
 30
0.0
 40
0.1
210
0.0
220
0.0
230
1.0
100
AcDbArc
 50
210.956256
 51
329.047861
  0
ARC
  5
24F
100
AcDbEntity
  8
0
370
    35
390
0
 62
     7
100
AcDbCircle
 10
25.979622
 20
73.403961
 30
0.0
 40
0.1
210
0.0
220
0.0
230
1.0
100
AcDbArc
 50
210.954385
 51
329.051986
  0
ARC
  5
250
100
AcDbEntity
  8
0
370
    35
390
0
 62
     7
100
AcDbCircle
 10
24.179604
 20
73.403961
 30
0.0
 40
0.1
210
0.0
220
0.0
230
1.0
100
AcDbArc
 50
210.944263
 51
329.055729
  0
ARC
  5
251
100
AcDbEntity
  8
0
370
    35
390
0
 62
     7
100
AcDbCircle
 10
41.279625
 20
67.390541
 30
0.0
 40
0.35
210
0.0
220
0.0
230
1.0
100
AcDbArc
 50
210.992566
 51
329.007426
  0
ARC
  5
252
100
AcDbEntity
  8
0
370
    35
390
0
 62
     7
100
AcDbCircle
 10
39.479652
 20
67.390541
 30
0.0
 40
0.35
210
0.0
220
0.0
230
1.0
100
AcDbArc
 50
210.981965
 51
329.016961
  0
ARC
  5
253
100
AcDbEntity
  8
0
370
    35
390
0
 62
     7
100
AcDbCircle
 10
37.679695
 20
67.390541
 30
0.0
 40
0.35
210
0.0
220
0.0
230
1.0
100
AcDbArc
 50
210.975217
 51
329.024775
  0
ARC
  5
254
100
AcDbEntity
  8
0
370
    35
390
0
 62
     7
100
AcDbCircle
 10
35.879585
 20
67.390541
 30
0.0
 40
0.35
210
0.0
220
0.0
230
1.0
100
AcDbArc
 50
210.996213
 51
329.002945
  0
ARC
  5
255
100
AcDbEntity
  8
0
370
    35
390
0
 62
     7
100
AcDbCircle
 10
34.079613
 20
67.390541
 30
0.0
 40
0.35
210
0.0
220
0.0
230
1.0
100
AcDbArc
 50
210.986678
 51
329.01248
  0
ARC
  5
256
100
AcDbEntity
  8
0
370
    35
390
0
 62
     7
100
AcDbCircle
 10
32.279625
 20
67.390541
 30
0.0
 40
0.35
210
0.0
220
0.0
230
1.0
100
AcDbArc
 50
210.988386
 51
329.01248
  0
ARC
  5
257
100
AcDbEntity
  8
0
370
    35
390
0
 62
     7
100
AcDbCircle
 10
30.479637
 20
67.390541
 30
0.0
 40
0.35
210
0.0
220
0.0
230
1.0
100
AcDbArc
 50
210.980791
 51
329.013327
  0
ARC
  5
258
100
AcDbEntity
  8
0
370
    35
390
0
 62
     7
100
AcDbCircle
 10
28.679619
 20
67.390541
 30
0.0
 40
0.35
210
0.0
220
0.0
230
1.0
100
AcDbArc
 50
210.988714
 51
329.012781
  0
ARC
  5
259
100
AcDbEntity
  8
0
370
    35
390
0
 62
     7
100
AcDbCircle
 10
26.879616
 20
67.390541
 30
0.0
 40
0.35
210
0.0
220
0.0
230
1.0
100
AcDbArc
 50
210.988714
 51
329.011387
  0
ARC
  5
25A
100
AcDbEntity
  8
0
370
    35
390
0
 62
     7
100
AcDbCircle
 10
25.079613
 20
67.390541
 30
0.0
 40
0.35
210
0.0
220
0.0
230
1.0
100
AcDbArc
 50
210.988714
 51
329.01193
  0
ARC
  5
25B
100
AcDbEntity
  8
0
370
    35
390
0
 62
     7
100
AcDbCircle
 10
23.27961
 20
67.390541
 30
0.0
 40
0.35
210
0.0
220
0.0
230
1.0
100
AcDbArc
 50
210.990858
 51
329.008519
  0
ARC
  5
25C
100
AcDbEntity
  8
0
370
    35
390
0
 62
     7
100
AcDbCircle
 10
42.179634
 20
68.015289
 30
0.0
 40
0.1
210
0.0
220
0.0
230
1.0
100
AcDbArc
 50
30.932646
 51
149.067349
  0
ARC
  5
25D
100
AcDbEntity
  8
0
370
    35
390
0
 62
     7
100
AcDbCircle
 10
40.379662
 20
68.015289
 30
0.0
 40
0.1
210
0.0
220
0.0
230
1.0
100
AcDbArc
 50
30.96788
 51
149.03399
  0
ARC
  5
25E
100
AcDbEntity
  8
0
370
    35
390
0
 62
     7
100
AcDbCircle
 10
38.579689
 20
68.015289
 30
0.0
 40
0.1
210
0.0
220
0.0
230
1.0
100
AcDbArc
 50
31.001242
 51
149.002503
  0
ARC
  5
25F
100
AcDbEntity
  8
0
370
    35
390
0
 62
     7
100
AcDbCircle
 10
36.779594
 20
68.015533
 30
0.0
 40
0.1
210
0.0
220
0.0
230
1.0
100
AcDbArc
 50
31.037599
 51
148.965401
  0
ARC
  5
260
100
AcDbEntity
  8
0
370
    35
390
0
 62
     7
100
AcDbCircle
 10
34.979622
 20
68.015289
 30
0.0
 40
0.1
210
0.0
220
0.0
230
1.0
100
AcDbArc
 50
30.951388
 51
149.051612
  0
ARC
  5
261
100
AcDbEntity
  8
0
370
    35
390
0
 62
     7
100
AcDbCircle
 10
33.179619
 20
68.015289
 30
0.0
 40
0.1
210
0.0
220
0.0
230
1.0
100
AcDbArc
 50
30.95326
 51
149.046735
  0
ARC
  5
262
100
AcDbEntity
  8
0
370
    35
390
0
 62
     7
100
AcDbCircle
 10
31.379631
 20
68.015289
 30
0.0
 40
0.1
210
0.0
220
0.0
230
1.0
100
AcDbArc
 50
30.958133
 51
149.041872
  0
ARC
  5
263
100
AcDbEntity
  8
0
370
    35
390
0
 62
     7
100
AcDbCircle
 10
29.579628
 20
68.015289
 30
0.0
 40
0.1
210
0.0
220
0.0
230
1.0
100
AcDbArc
 50
30.946515
 51
149.051612
  0
ARC
  5
264
100
AcDbEntity
  8
0
370
    35
390
0
 62
     7
100
AcDbCircle
 10
27.779625
 20
68.015289
 30
0.0
 40
0.1
210
0.0
220
0.0
230
1.0
100
AcDbArc
 50
30.950261
 51
149.045615
  0
ARC
  5
265
100
AcDbEntity
  8
0
370
    35
390
0
 62
     7
100
AcDbCircle
 10
25.979622
 20
68.015289
 30
0.0
 40
0.1
210
0.0
220
0.0
230
1.0
100
AcDbArc
 50
30.946139
 51
149.047486
  0
ARC
  5
266
100
AcDbEntity
  8
0
370
    35
390
0
 62
     7
100
AcDbCircle
 10
24.179604
 20
68.015289
 30
0.0
 40
0.1
210
0.0
220
0.0
230
1.0
100
AcDbArc
 50
30.942393
 51
149.057609
  0
ARC
  5
267
100
AcDbEntity
  8
0
370
    35
390
0
 62
     7
100
AcDbCircle
 10
43.221855
 20
74.265526
 30
0.0
 40
0.35
210
0.0
220
0.0
230
1.0
100
AcDbArc
 50
66.575015
 51
149.020289
  0
ARC
  5
268
100
AcDbEntity
  8
0
370
    35
390
0
 62
     7
100
AcDbCircle
 10
43.221855
 20
67.153732
 30
0.0
 40
0.35
210
0.0
220
0.0
230
1.0
100
AcDbArc
 50
210.981105
 51
293.424732
  0
ARC
  5
269
100
AcDbEntity
  8
0
370
    35
390
0
 62
     7
100
AcDbCircle
 10
76.579704
 20
72.809677
 30
0.0
 40
1.0
210
0.0
220
0.0
230
1.0
100
AcDbArc
 50
90.000003
 51
180.000009
  0
ARC
  5
26A
100
AcDbEntity
  8
0
370
    35
390
0
 62
     7
100
AcDbCircle
 10
76.579704
 20
66.609673
 30
0.0
 40
1.0
210
0.0
220
0.0
230
1.0
100
AcDbArc
 50
180.000009
 51
269.999997
  0
ARC
  5
26B
100
AcDbEntity
  8
0
370
    35
390
0
 62
     7
100
AcDbCircle
 10
106.579704
 20
72.809677
 30
0.0
 40
1.0
210
0.0
220
0.0
230
1.0
100
AcDbArc
 50
0.0
 51
90.000003
  0
ARC
  5
26C
100
AcDbEntity
  8
0
370
    35
390
0
 62
     7
100
AcDbCircle
 10
106.579704
 20
66.609673
 30
0.0
 40
1.0
210
0.0
220
0.0
230
1.0
100
AcDbArc
 50
269.999997
 51
360.0
  0
ARC
  5
26D
100
AcDbEntity
  8
0
370
    35
390
0
 62
     7
100
AcDbCircle
 10
62.793938
 20
104.20974
 30
0.0
 40
1.0
210
0.0
220
0.0
230
1.0
100
AcDbArc
 50
225.002281
 51
269.999997
  0
ARC
  5
26E
100
AcDbEntity
  8
0
370
    35
390
0
 62
     7
100
AcDbCircle
 10
114.739052
 20
36.982819
 30
0.0
 40
3.624884
210
0.0
220
0.0
230
1.0
100
AcDbArc
 50
55.938457
 51
73.580419
  0
ARC
  5
26F
100
AcDbEntity
  8
0
370
    35
390
0
 62
     7
100
AcDbCircle
 10
116.452415
 20
39.262829
 30
0.0
 40
0.789369
210
0.0
220
0.0
230
1.0
100
AcDbArc
 50
345.652187
 51
66.332133
  0
ARC
  5
270
100
AcDbEntity
  8
0
370
    35
390
0
 62
     7
100
AcDbCircle
 10
114.441566
 20
40.627342
 30
0.0
 40
3.184005
210
0.0
220
0.0
230
1.0
100
AcDbArc
 50
310.601459
 51
330.66025
  0
ARC
  5
271
100
AcDbEntity
  8
0
370
    35
390
0
 62
     7
100
AcDbCircle
 10
118.582451
 20
35.795612
 30
0.0
 40
3.179369
210
0.0
220
0.0
230
1.0
100
AcDbArc
 50
130.592971
 51
150.697892
  0
ARC
  5
272
100
AcDbEntity
  8
0
370
    35
390
0
 62
     7
100
AcDbCircle
 10
116.575706
 20
37.157364
 30
0.0
 40
0.790083
210
0.0
220
0.0
230
1.0
100
AcDbArc
 50
165.765153
 51
246.301024
  0
ARC
  5
273
100
AcDbEntity
  8
0
370
    35
390
0
 62
     7
100
AcDbCircle
 10
118.288338
 20
39.43692
 30
0.0
 40
3.624881
210
0.0
220
0.0
230
1.0
100
AcDbArc
 50
235.939272
 51
253.580469
  0
ARC
  5
274
100
AcDbEntity
  8
0
370
    35
390
0
 62
     7
100
AcDbCircle
 10
113.239052
 20
36.982819
 30
0.0
 40
3.624884
210
0.0
220
0.0
230
1.0
100
AcDbArc
 50
55.938457
 51
73.580419
  0
ARC
  5
275
100
AcDbEntity
  8
0
370
    35
390
0
 62
     7
100
AcDbCircle
 10
114.952415
 20
39.262829
 30
0.0
 40
0.789369
210
0.0
220
0.0
230
1.0
100
AcDbArc
 50
345.652187
 51
66.332133
  0
ARC
  5
276
100
AcDbEntity
  8
0
370
    35
390
0
 62
     7
100
AcDbCircle
 10
112.941566
 20
40.627342
 30
0.0
 40
3.184005
210
0.0
220
0.0
230
1.0
100
AcDbArc
 50
310.601459
 51
330.66025
  0
ARC
  5
277
100
AcDbEntity
  8
0
370
    35
390
0
 62
     7
100
AcDbCircle
 10
117.082451
 20
35.795612
 30
0.0
 40
3.179369
210
0.0
220
0.0
230
1.0
100
AcDbArc
 50
130.592971
 51
150.697892
  0
ARC
  5
278
100
AcDbEntity
  8
0
370
    35
390
0
 62
     7
100
AcDbCircle
 10
115.075706
 20
37.157364
 30
0.0
 40
0.790083
210
0.0
220
0.0
230
1.0
100
AcDbArc
 50
165.765153
 51
246.301024
  0
ARC
  5
279
100
AcDbEntity
  8
0
370
    35
390
0
 62
     7
100
AcDbCircle
 10
116.788338
 20
39.43692
 30
0.0
 40
3.624881
210
0.0
220
0.0
230
1.0
100
AcDbArc
 50
235.939272
 51
253.580469
  0
ARC
  5
27A
100
AcDbEntity
  8
0
370
    35
390
0
 62
     7
100
AcDbCircle
 10
72.393814
 20
116.451515
 30
0.0
 40
14.242279
210
0.0
220
0.0
230
1.0
100
AcDbArc
 50
261.667085
 51
267.183009
  0
ARC
  5
27B
100
AcDbEntity
  8
0
370
    35
390
0
 62
     7
100
AcDbCircle
 10
72.379753
 20
116.177895
 30
0.0
 40
13.968299
210
0.0
220
0.0
230
1.0
100
AcDbArc
 50
267.18544
 51
272.813899
  0
ARC
  5
27C
100
AcDbEntity
  8
0
370
    35
390
0
 62
     7
100
AcDbCircle
 10
72.3657
 20
116.451515
 30
0.0
 40
14.242276
210
0.0
220
0.0
230
1.0
100
AcDbArc
 50
272.81633
 51
278.33291
  0
ARC
  5
27D
100
AcDbEntity
  8
0
370
    35
390
0
 62
     7
100
AcDbCircle
 10
72.3657
 20
122.967674
 30
0.0
 40
14.242279
210
0.0
220
0.0
230
1.0
100
AcDbArc
 50
81.667076
 51
87.183021
  0
ARC
  5
27E
100
AcDbEntity
  8
0
370
    35
390
0
 62
     7
100
AcDbCircle
 10
72.379753
 20
123.241295
 30
0.0
 40
13.968299
210
0.0
220
0.0
230
1.0
100
AcDbArc
 50
87.185459
 51
92.81389
  0
ARC
  5
27F
100
AcDbEntity
  8
0
370
    35
390
0
 62
     7
100
AcDbCircle
 10
72.393814
 20
122.967674
 30
0.0
 40
14.242276
210
0.0
220
0.0
230
1.0
100
AcDbArc
 50
92.816342
 51
98.332922
  0
ENDSEC
  0
SECTION
  2
OBJECTS
  0
DICTIONARY
  5
19
100
AcDbDictionary
280
     0
281
     1
  3
ACAD_GROUP
350
1A
  3
ACAD_MLINESTYLE
350
1B
  3
ACAD_LAYOUT
350
1E
  3
ACAD_PLOTSETTINGS
350
22
  3
ACAD_PLOTSTYLENAME
350
1F
  3
ACAD_WIPEOUT_VARS
350
23
  0
DICTIONARY
  5
1A
102
{ACAD_REACTORS
330
19
102
}
100
AcDbDictionary
280
     0
281
     1
  0
DICTIONARY
  5
1B
102
{ACAD_REACTORS
330
19
102
}
100
AcDbDictionary
280
     0
281
     1
  3
Standard
350
1C
  0
MLINESTYLE
  5
1C
102
{ACAD_REACTORS
330
1B
102
}
100
AcDbMlineStyle
  2
Standard
 70
     0
  3

 62
     0
 51
90.0
 52
90.0
 71
     2
 49
0.5
 62
   256
  6
ByLayer
 49
-0.5
 62
   256
  6
ByLayer
  0
ACDBDICTIONARYWDFLT
  5
1F
102
{ACAD_REACTORS
330
19
102
}
100
AcDbDictionary
281
     1
  3
Normal
350
1D
100
AcDbDictionaryWithDefault
340
1D
  0
ACDBPLACEHOLDER
  5
1D
102
{ACAD_REACTORS
330
1F
102
}
  0
LAYOUT
  5
20
102
{ACAD_REACTORS
330
1E
102
}
100
AcDbPlotSettings
  1

  2

  4

  6

 40
0.0
 41
0.0
 42
0.0
 43
0.0
 44
0.0
 45
0.0
 46
0.0
 47
0.0
 48
0.0
 49
0.0
140
0.0
141
0.0
142
1.0
143
1.0
 70
  1024
 72
     0
 73
     0
 74
     0
  7

 75
     0
147
1.0
148
0.0
149
0.0
100
AcDbLayout
  1
Model
 70
     0
 71
     0
 10
0.0
 20
0.0
 11
0.0
 21
0.0
 12
0.0
 22
0.0
 32
0.0
 14
0.0
 24
0.0
 34
0.0
 15
0.0
 25
0.0
 35
0.0
146
0.0
 13
0.0
 23
0.0
 33
0.0
 16
0.0
 26
0.0
 36
0.0
 17
0.0
 27
0.0
 37
0.0
 76
     0
330
A
331
0
345
0
346
0
  0
LAYOUT
  5
21
102
{ACAD_REACTORS
330
1E
102
}
100
AcDbPlotSettings
  1

  2

  4

  6

 40
0.0
 41
0.0
 42
0.0
 43
0.0
 44
0.0
 45
0.0
 46
0.0
 47
0.0
 48
0.0
 49
0.0
140
0.0
141
0.0
142
1.0
143
1.0
 70
     0
 72
     0
 73
     0
 74
     0
  7

 75
     0
147
1.0
148
0.0
149
0.0
100
AcDbLayout
  1
Layout1
 70
     0
 71
     0
 10
0.0
 20
0.0
 11
0.0
 21
0.0
 12
0.0
 22
0.0
 32
0.0
 14
0.0
 24
0.0
 34
0.0
 15
0.0
 25
0.0
 35
0.0
146
0.0
 13
0.0
 23
0.0
 33
0.0
 16
0.0
 26
0.0
 36
0.0
 17
0.0
 27
0.0
 37
0.0
 76
     0
330
B
331
0
345
0
346
0
  0
DICTIONARY
  5
1E
102
{ACAD_REACTORS
330
19
102
}
100
AcDbDictionary
280
     0
281
     1
  3
Layout1
350
21
  3
Model
350
20
  0
DICTIONARY
  5
22
102
{ACAD_REACTORS
330
19
102
}
100
AcDbDictionary
280
     0
281
     1
  0
WIPEOUTVARIABLES
  5
23
100
AcDbWipeoutVariables
 70
     1
  0
ENDSEC
  0
EOF
