  0
SECTION
  2
HEADER
  9
$ACADVER
  1
AC1015
  9
$ACADMAINTVER
 70
     6
  9
$DWGCODEPAGE
  3
ANSI_1252
  9
$INSBASE
 10
0.0
 20
0.0
 30
0.0
  9
$EXTMIN
 10
0.0
 20
0.0
 30
0.0
  9
$EXTMAX
 10
319.534363
 20
160.328445
 30
2.0
  9
$LIMMIN
 10
0.0
 20
0.0
  9
$LIMMAX
 10
420.0
 20
297.0
  9
$ORTHOMODE
 70
     0
  9
$REGENMODE
 70
     1
  9
$FILLMODE
 70
     1
  9
$QTEXTMODE
 70
     0
  9
$MIRRTEXT
 70
     1
  9
$LTSCALE
 40
1.0
  9
$ATTMODE
 70
     1
  9
$TEXTSIZE
 40
2.5
  9
$TRACEWID
 40
1.0
  9
$TEXTSTYLE
  7
Standard
  9
$CLAYER
  8
0
  9
$CELTYPE
  6
ByLayer
  9
$CECOLOR
 62
   256
  9
$CELTSCALE
 40
1.0
  9
$DISPSILH
 70
     0
  9
$DIMSCALE
 40
1.0
  9
$DIMASZ
 40
2.5
  9
$DIMEXO
 40
0.625
  9
$DIMDLI
 40
3.75
  9
$DIMRND
 40
0.0
  9
$DIMDLE
 40
0.0
  9
$DIMEXE
 40
1.25
  9
$DIMTP
 40
0.0
  9
$DIMTM
 40
0.0
  9
$DIMTXT
 40
2.5
  9
$DIMCEN
 40
2.5
  9
$DIMTSZ
 40
0.0
  9
$DIMTOL
 70
     0
  9
$DIMLIM
 70
     0
  9
$DIMTIH
 70
     0
  9
$DIMTOH
 70
     0
  9
$DIMSE1
 70
     0
  9
$DIMSE2
 70
     0
  9
$DIMTAD
 70
     1
  9
$DIMZIN
 70
     8
  9
$DIMBLK
  1

  9
$DIMASO
 70
     1
  9
$DIMSHO
 70
     1
  9
$DIMPOST
  1

  9
$DIMAPOST
  1

  9
$DIMALT
 70
     0
  9
$DIMALTD
 70
     3
  9
$DIMALTF
 40
0.03937
  9
$DIMLFAC
 40
1.0
  9
$DIMTOFL
 70
     1
  9
$DIMTVP
 40
0.0
  9
$DIMTIX
 70
     0
  9
$DIMSOXD
 70
     0
  9
$DIMSAH
 70
     0
  9
$DIMBLK1
  1

  9
$DIMBLK2
  1

  9
$DIMSTYLE
  2

  9
$DIMCLRD
 70
     0
  9
$DIMCLRE
 70
     0
  9
$DIMCLRT
 70
     0
  9
$DIMTFAC
 40
1.0
  9
$DIMGAP
 40
0.625
  9
$DIMJUST
 70
     0
  9
$DIMSD1
 70
     0
  9
$DIMSD2
 70
     0
  9
$DIMTOLJ
 70
     0
  9
$DIMTZIN
 70
     8
  9
$DIMALTZ
 70
     0
  9
$DIMALTTZ
 70
     0
  9
$DIMUPT
 70
     0
  9
$DIMDEC
 70
     2
  9
$DIMTDEC
 70
     2
  9
$DIMALTU
 70
     2
  9
$DIMALTTD
 70
     3
  9
$DIMTXSTY
  7
Standard
  9
$DIMAUNIT
 70
     0
  9
$DIMADEC
 70
     0
  9
$DIMALTRND
 40
0.0
  9
$DIMAZIN
 70
     0
  9
$DIMDSEP
 70
    44
  9
$DIMATFIT
 70
     0
  9
$DIMFRAC
 70
     0
  9
$DIMLDRBLK
  1

  9
$DIMLUNIT
 70
     2
  9
$DIMLWD
 70
    -2
  9
$DIMLWE
 70
    -2
  9
$DIMTMOVE
 70
     0
  9
$LUNITS
 70
     2
  9
$LUPREC
 70
     4
  9
$SKETCHINC
 40
1.0
  9
$FILLETRAD
 40
2.5
  9
$AUNITS
 70
     0
  9
$AUPREC
 70
     0
  9
$MENU
  1
.
  9
$ELEVATION
 40
0.0
  9
$PELEVATION
 40
0.0
  9
$THICKNESS
 40
0.0
  9
$LIMCHECK
 70
     0
  9
$CHAMFERA
 40
2.5
  9
$CHAMFERB
 40
2.5
  9
$CHAMFERC
 40
0.0
  9
$CHAMFERD
 40
0.0
  9
$SKPOLY
 70
     0
  9
$TDCREATE
 40
0.000000000
  9
$TDUCREATE
 40
0.000000000
  9
$TDUPDATE
 40
0.000000000
  9
$TDUUPDATE
 40
0.000000000
  9
$TDINDWG
 40
0.0000000000
  9
$TDUSRTIMER
 40
0.0000000000
  9
$USRTIMER
 70
     1
  9
$ANGBASE
 50
0.0
  9
$ANGDIR
 70
     0
  9
$PDMODE
 70
     0
  9
$PDSIZE
 40
0.0
  9
$PLINEWID
 40
0.0
  9
$SPLFRAME
 70
     0
  9
$SPLINETYPE
 70
     6
  9
$SPLINESEGS
 70
     8
  9
$HANDSEED
  5
1AE
  9
$SURFTAB1
 70
     6
  9
$SURFTAB2
 70
     6
  9
$SURFTYPE
 70
     6
  9
$SURFU
 70
     6
  9
$SURFV
 70
     6
  9
$UCSBASE
  2

  9
$UCSNAME
  2

  9
$UCSORG
 10
0.0
 20
0.0
 30
0.0
  9
$UCSXDIR
 10
1.0
 20
0.0
 30
0.0
  9
$UCSYDIR
 10
0.0
 20
1.0
 30
0.0
  9
$UCSORTHOREF
  2

  9
$UCSORTHOVIEW
 70
     1
  9
$UCSORGTOP
 10
0.0
 20
0.0
 30
0.0
  9
$UCSORGBOTTOM
 10
0.0
 20
0.0
 30
0.0
  9
$UCSORGLEFT
 10
0.0
 20
0.0
 30
0.0
  9
$UCSORGRIGHT
 10
0.0
 20
0.0
 30
0.0
  9
$UCSORGFRONT
 10
0.0
 20
0.0
 30
0.0
  9
$UCSORGBACK
 10
0.0
 20
0.0
 30
0.0
  9
$PUCSBASE
  2

  9
$PUCSNAME
  2

  9
$PUCSORG
 10
0.0
 20
0.0
 30
0.0
  9
$PUCSXDIR
 10
1.0
 20
0.0
 30
0.0
  9
$PUCSYDIR
 10
0.0
 20
1.0
 30
0.0
  9
$PUCSORTHOREF
  2

  9
$PUCSORTHOVIEW
 70
     0
  9
$PUCSORGTOP
 10
0.0
 20
0.0
 30
0.0
  9
$PUCSORGBOTTOM
 10
0.0
 20
0.0
 30
0.0
  9
$PUCSORGLEFT
 10
0.0
 20
0.0
 30
0.0
  9
$PUCSORGRIGHT
 10
0.0
 20
0.0
 30
0.0
  9
$PUCSORGFRONT
 10
0.0
 20
0.0
 30
0.0
  9
$PUCSORGBACK
 10
0.0
 20
0.0
 30
0.0
  9
$USERI1
 70
     0
  9
$USERI2
 70
     0
  9
$USERI3
 70
     0
  9
$USERI4
 70
     0
  9
$USERI5
 70
     0
  9
$USERR1
 40
0.0
  9
$USERR2
 40
0.0
  9
$USERR3
 40
0.0
  9
$USERR4
 40
0.0
  9
$USERR5
 40
0.0
  9
$WORLDVIEW
 70
     1
  9
$SHADEDGE
 70
     3
  9
$SHADEDIF
 70
    70
  9
$TILEMODE
 70
     1
  9
$MAXACTVP
 70
    48
  9
$PINSBASE
 10
0.0
 20
0.0
 30
0.0
  9
$PLIMCHECK
 70
     0
  9
$PEXTMIN
 10
0.0
 20
0.0
 30
0.0
  9
$PEXTMAX
 10
319.534363
 20
160.328445
 30
2.0
  9
$PLIMMIN
 10
0.0
 20
0.0
  9
$PLIMMAX
 10
420.0
 20
297.0
  9
$UNITMODE
 70
     0
  9
$VISRETAIN
 70
     0
  9
$PLINEGEN
 70
     0
  9
$PSLTSCALE
 70
     1
  9
$TREEDEPTH
 70
  3020
  9
$CMLSTYLE
  2
Standard
  9
$CMLJUST
 70
     0
  9
$CMLSCALE
 40
20.0
  9
$PROXYGRAPHICS
 70
     1
  9
$MEASUREMENT
 70
     1
  9
$CELWEIGHT
370
    -1
  9
$ENDCAPS
280
     0
  9
$JOINSTYLE
280
     0
  9
$LWDISPLAY
290
     0
  9
$INSUNITS
 70
     0
  9
$HYPERLINKBASE
  1

  9
$STYLESHEET
  1

  9
$XEDIT
290
     1
  9
$CEPSNTYPE
380
     0
  9
$PSTYLEMODE
290
     0
  9
$FINGERPRINTGUID
  2

  9
$VERSIONGUID
  2

  9
$EXTNAMES
290
     0
  9
$PSVPSCALE
 40
0.0
  0
ENDSEC
  0
SECTION
  2
CLASSES
  0
CLASS
  1
LWPOLYLINE
  2
AcDbPolyline
  3
AutoCAD 2000
 90
        0
280
     0
281
     1
  0
CLASS
  1
IMAGE
  2
AcDbRasterImage
  3
ISM
 90
      127
280
     0
281
     1
  0
CLASS
  1
OLE2FRAME
  2
AcDbOle2Frame
  3
AutoCAD 2000
 90
        0
280
     0
281
     1
  0
CLASS
  1
HATCH
  2
AcDbHatch
  3
AutoCAD 2000
 90
        0
280
     0
281
     1
  0
CLASS
  1
DICTIONARYVAR
  2
AcDbDictionaryVar
  3
AutoCAD 2000
 90
        0
280
     0
281
     0
  0
CLASS
  1
RASTERVARIABLES
  2
AcDbRasterVariables
  3
ISM
 90
        0
280
     0
281
     0
  0
CLASS
  1
IMAGEDEF
  2
AcDbRasterImageDef
  3
ISM
 90
        0
280
     0
281
     0
  0
CLASS
  1
IMAGEDEF_REACTOR
  2
AcDbRasterImageDefReactor
  3
ISM
 90
        1
280
     0
281
     0
  0
CLASS
  1
IDBUFFER
  2
AcDbIdBuffer
  3
AutoCAD 2000
 90
        0
280
     0
281
     0
  0
CLASS
  1
SPATIAL_FILTER
  2
AcDbSpatialFilter
  3
AutoCAD 2000
 90
        0
280
     0
281
     0
  0
CLASS
  1
XRECORD
  2
AcDbXrecord
  3
AutoCAD 2000
 90
        0
280
     0
281
     0
  0
CLASS
  1
SORTENTSTABLE
  2
AcDbSortentsTable
  3
AutoCAD 2000
 90
        0
280
     0
281
     0
  0
CLASS
  1
LAYER_INDEX
  2
AcDbLayerIndex
  3
AutoCAD 2000
 90
        0
280
     0
281
     0
  0
CLASS
  1
SPATIAL_INDEX
  2
AcDbSpatialIndex
  3
AutoCAD 2000
 90
        0
280
     0
281
     0
  0
CLASS
  1
OBJECT_PTR
  2
CAseDLPNTableRecord
  3
"ASE-LPNTableRecord"
 90
        1
280
     0
281
     0
  0
CLASS
  1
LAYOUT
  2
AcDbLayout
  3
AutoCAD 2000
 90
        0
280
     0
281
     0
  0
CLASS
  1
PLOTSETTINGS
  2
AcDbPlotSettings
  3
AutoCAD 2000
 90
        0
280
     0
281
     0
  0
CLASS
  1
ACDBDICTIONARYWDFLT
  2
AcDbDictionaryWithDefault
  3
AutoCAD 2000
 90
        0
280
     0
281
     0
  0
CLASS
  1
ACDBPLACEHOLDER
  2
AcDbPlaceHolder
  3
AutoCAD 2000
 90
        0
280
     0
281
     0
  0
CLASS
  1
VBA_PROJECT
  2
AcDbVbaProject
  3
acadvba
 90
        0
280
     0
281
     0
  0
CLASS
  1
WIPEOUT
  2
AcDbWipeout
  3
WipeOut|AutoCAD Express Tool|expresstools@autodesk.com
 90
      127
280
     0
281
     1
  0
CLASS
  1
WIPEOUTVARIABLES
  2
AcDbWipeoutVariables
  3
WipeOut|AutoCAD Express Tool|expresstools@autodesk.com
 90
        0
280
     0
281
     0
  0
CLASS
  1
RTEXT
  2
RText
  3
RText|AutoCAD Express Tool|expresstools@autodesk.com
 90
        0
280
     0
281
     1
  0
CLASS
  1
ARCALIGNEDTEXT
  2
AcDbArcAlignedText
  3
ATEXT|AutoCAD Express Tool|expresstools@autodesk.com
 90
        0
280
     0
281
     1
  0
ENDSEC
  0
SECTION
  2
TABLES
  0
TABLE
  2
VPORT
  5
7
100
AcDbSymbolTable
 70
     1
  0
VPORT
  5
15
100
AcDbSymbolTableRecord
100
AcDbViewportTableRecord
  2
*ACTIVE
 70
     0
 10
0.0
 20
0.0
 11
1.0
 21
1.0
 12
6.591288
 22
4.579184
 13
0.0
 23
0.0
 14
1.0
 24
1.0
 15
0.0
 25
0.0
 16
0.0
 26
0.0
 36
1.0
 17
0.0
 27
0.0
 37
0.0
 40
9.158369
 41
0.688564
 42
50.0
 43
0.0
 44
0.0
 50
0.0
 51
0.0
 71
     0
 72
   100
 73
     1
 74
     1
 75
     0
 76
     0
 77
     0
 78
     0
281
     0
 65
     0
110
0.0
120
0.0
130
0.0
111
1.0
121
0.0
131
0.0
112
0.0
122
1.0
132
0.0
345
0
346
0
 79
     0
146
0.0
  0
ENDTAB
  0
TABLE
  2
LTYPE
  5
4
100
AcDbSymbolTable
 70
     4
  0
LTYPE
  5
11
100
AcDbSymbolTableRecord
100
AcDbLinetypeTableRecord
  2
ByBlock
 70
    64
  3

 72
    65
 73
     0
 40
0.0
  0
LTYPE
  5
12
100
AcDbSymbolTableRecord
100
AcDbLinetypeTableRecord
  2
ByLayer
 70
    64
  3

 72
    65
 73
     0
 40
0.0
  0
LTYPE
  5
13
100
AcDbSymbolTableRecord
100
AcDbLinetypeTableRecord
  2
Continuous
 70
    64
  3
Solid line
 72
    65
 73
     0
 40
0.0
  0
LTYPE
  5
24
100
AcDbSymbolTableRecord
100
AcDbLinetypeTableRecord
  2
DASHED
 70
     0
  3
__ __ __ __ __ __ __ __ __ __ __ __ __ __ __ __
 72
    65
 73
     2
 40
15.0
 49
12.0
 74
     0
 49
-3.0
 74
     0
  0
ENDTAB
  0
TABLE
  2
LAYER
  5
2
100
AcDbSymbolTable
 70
     1
  0
LAYER
  5
14
100
AcDbSymbolTableRecord
100
AcDbLayerTableRecord
  2
0
 70
     0
 62
     7
  6
Continuous
290
     1
370
    -3
390
1D
  0
ENDTAB
  0
TABLE
  2
STYLE
  5
3
100
AcDbSymbolTable
 70
     1
  0
STYLE
  5
17
100
AcDbSymbolTableRecord
100
AcDbTextStyleTableRecord
  2
Standard
 70
     0
 40
0.0
 41
1.0
 50
0.0
 71
     0
 42
0.0
  3
txt
  4

  0
ENDTAB
  0
TABLE
  2
VIEW
  5
5
100
AcDbSymbolTable
 70
     0
  0
ENDTAB
  0
TABLE
  2
UCS
  5
6
100
AcDbSymbolTable
 70
     0
  0
ENDTAB
  0
TABLE
  2
APPID
  5
8
100
AcDbSymbolTable
 70
     1
  0
APPID
  5
16
100
AcDbSymbolTableRecord
100
AcDbRegAppTableRecord
  2
ACAD
 70
     0
  0
ENDTAB
  0
TABLE
  2
DIMSTYLE
  5
9
100
AcDbSymbolTable
 70
     1
100
AcDbDimStyleTable
 71
     0
  0
DIMSTYLE
105
18
100
AcDbSymbolTableRecord
100
AcDbDimStyleTableRecord
  2
Standard
 70
     0
  3

  4

 40
1.0
 41
0.18
 42
0.0625
 43
0.38
 44
0.18
 45
0.0
 46
0.0
 47
0.0
 48
0.0
 71
     0
 72
     0
 73
     1
 74
     1
 75
     0
 76
     0
 77
     0
 78
     0
 79
     0
140
0.18
141
0.09
142
0.0
143
25.4
144
1.0
145
0.0
146
1.0
147
0.09
148
0.0
170
     0
171
     2
172
     0
173
     0
174
     0
175
     0
176
     0
177
     0
178
     0
179
     0
271
     4
272
     4
273
     2
274
     2
275
     0
276
     0
277
     2
278
    46
279
     0
280
     0
281
     0
282
     0
283
     1
284
     0
285
     0
286
     0
288
     0
289
     3
340
17
341
0
342
0
343
0
344
0
371
    -2
372
    -2
  0
ENDTAB
  0
TABLE
  2
BLOCK_RECORD
  5
1
100
AcDbSymbolTable
 70
     0
  0
BLOCK_RECORD
  5
A
100
AcDbSymbolTableRecord
100
AcDbBlockTableRecord
  2
*MODEL_SPACE
340
20
  0
BLOCK_RECORD
  5
B
100
AcDbSymbolTableRecord
100
AcDbBlockTableRecord
  2
*PAPER_SPACE
340
21
  0
ENDTAB
  0
ENDSEC
  0
SECTION
  2
BLOCKS
  0
BLOCK
  5
D
100
AcDbEntity
  8
0
390
0
100
AcDbBlockBegin
  2
*MODEL_SPACE
 70
     0
 10
0.0
 20
0.0
 30
0.0
  3
*MODEL_SPACE
  1

  0
ENDBLK
  5
E
100
AcDbEntity
  8
0
390
0
100
AcDbBlockEnd
  0
BLOCK
  5
F
100
AcDbEntity
 67
     1
  8
0
390
0
100
AcDbBlockBegin
  2
*PAPER_SPACE
 70
     0
 10
0.0
 20
0.0
 30
0.0
  3
*PAPER_SPACE
  1

  0
ENDBLK
  5
10
100
AcDbEntity
 67
     1
  8
0
390
0
100
AcDbBlockEnd
  0
ENDSEC
  0
SECTION
  2
ENTITIES
  0
VIEWPORT
  5
1AD
100
AcDbEntity
 67
     1
  8
0
370
     0
390
0
 62
     0
 48
0.0
100
AcDbViewport
 10
0.0
 20
0.0
 30
0.0
 40
1000.0
 41
1000.0
 68
     1
 69
     1
 12
0.0
 22
0.0
 13
0.0
 23
0.0
 14
1.0
 24
1.0
 15
1.0
 25
1.0
 16
0.0
 26
0.0
 36
1.0
 17
0.0
 27
0.0
 37
0.0
 42
50.0
 43
0.0
 44
0.0
 45
1000.0
 50
0.0
 51
0.0
 72
   100
 90
        0
340
0
  1

281
     0
 71
     0
 74
     1
110
0.0
120
0.0
130
0.0
111
1.0
121
0.0
131
0.0
112
0.0
122
1.0
132
0.0
345
0
346
0
 79
     0
146
0.0
  0
POINT
  5
25
100
AcDbEntity
  8
0
370
     5
390
0
 62
     7
100
AcDbPoint
 10
257.164551
 20
87.828476
 30
0.0
210
0.0
220
0.0
230
1.0
  0
LINE
  5
26
100
AcDbEntity
  8
0
370
    35
390
0
 62
     7
 48
0.020966
100
AcDbLine
 10
91.039986
 20
137.078568
 30
0.0
 11
90.66494
 21
137.828659
 31
0.0
210
0.0
220
0.0
230
1.0
  0
LINE
  5
27
100
AcDbEntity
  8
0
370
    35
390
0
 62
     7
100
AcDbLine
 10
197.16333
 20
158.928436
 30
0.0
 11
111.164429
 21
158.928436
 31
0.0
210
0.0
220
0.0
230
1.0
  0
LINE
  5
28
100
AcDbEntity
  8
0
370
    35
390
0
 62
     7
 48
0.02096
100
AcDbLine
 10
91.039299
 20
144.578125
 30
0.0
 11
90.664368
 21
143.828247
 31
0.0
210
0.0
220
0.0
230
1.0
  0
LINE
  5
29
100
AcDbEntity
  8
0
370
    35
390
0
 62
     7
 48
0.1875
100
AcDbLine
 10
91.040016
 20
84.078476
 30
0.0
 11
91.040016
 21
91.578476
 31
0.0
210
0.0
220
0.0
230
1.0
  0
LINE
  5
2A
100
AcDbEntity
  8
0
370
    35
390
0
 62
     7
100
AcDbLine
 10
197.317413
 20
126.728439
 30
0.0
 11
111.164429
 21
126.728439
 31
0.0
210
0.0
220
0.0
230
1.0
  0
LINE
  5
2B
100
AcDbEntity
  8
0
370
    35
390
0
 62
     7
 48
0.029999
100
AcDbLine
 10
90.664406
 20
143.82843
 30
0.0
 11
89.464455
 21
143.82843
 31
0.0
210
0.0
220
0.0
230
1.0
  0
LINE
  5
2C
100
AcDbEntity
  8
0
370
    35
390
0
 62
     7
 48
0.158752
100
AcDbLine
 10
89.464455
 20
84.653427
 30
0.0
 11
89.464455
 21
91.003525
 31
0.0
210
0.0
220
0.0
230
1.0
  0
LINE
  5
2D
100
AcDbEntity
  8
0
370
    35
390
0
 62
     7
 48
0.156068
100
AcDbLine
 10
108.171539
 20
159.035507
 30
0.0
 11
103.757339
 21
154.62117
 31
0.0
210
0.0
220
0.0
230
1.0
  0
LINE
  5
2E
100
AcDbEntity
  8
0
370
    35
390
0
 62
     7
 48
0.3
100
AcDbLine
 10
110.464432
 20
80.828476
 30
0.0
 11
110.464432
 21
92.828476
 31
0.0
210
0.0
220
0.0
230
1.0
  0
LINE
  5
2F
100
AcDbEntity
  8
0
370
    35
390
0
 62
     7
 48
0.25
100
AcDbLine
 10
103.464432
 20
81.828476
 30
0.0
 11
103.464432
 21
91.828476
 31
0.0
210
0.0
220
0.0
230
1.0
  0
LINE
  5
30
100
AcDbEntity
  8
0
370
    35
390
0
 62
     7
 48
0.15
100
AcDbLine
 10
90.664406
 20
84.828476
 30
0.0
 11
90.664406
 21
90.828476
 31
0.0
210
0.0
220
0.0
230
1.0
  0
LINE
  5
31
100
AcDbEntity
  8
0
370
    35
390
0
 62
     7
 48
0.2
100
AcDbLine
 10
93.464455
 20
83.828476
 30
0.0
 11
93.464455
 21
91.828476
 31
0.0
210
0.0
220
0.0
230
1.0
  0
LINE
  5
32
100
AcDbEntity
  8
0
370
    35
390
0
 62
     7
 48
0.025
100
AcDbLine
 10
89.464455
 20
137.653381
 30
0.0
 11
88.464455
 21
137.653381
 31
0.0
210
0.0
220
0.0
230
1.0
  0
LINE
  5
33
100
AcDbEntity
  8
0
370
    35
390
0
 62
     7
 48
0.158752
100
AcDbLine
 10
88.464455
 20
84.653427
 30
0.0
 11
88.464455
 21
91.003525
 31
0.0
210
0.0
220
0.0
230
1.0
  0
LINE
  5
34
100
AcDbEntity
  8
0
370
    35
390
0
 62
     7
 48
0.025
100
AcDbLine
 10
89.464455
 20
144.003479
 30
0.0
 11
88.464455
 21
144.003479
 31
0.0
210
0.0
220
0.0
230
1.0
  0
LINE
  5
35
100
AcDbEntity
  8
0
370
    35
390
0
 62
     7
 48
0.039647
100
AcDbLine
 10
110.464447
 20
126.32843
 30
0.0
 11
108.878586
 21
126.32843
 31
0.0
210
0.0
220
0.0
230
1.0
  0
LINE
  5
36
100
AcDbEntity
  8
0
370
    35
390
0
 62
     7
 48
0.156064
100
AcDbLine
 10
108.171524
 20
126.621223
 30
0.0
 11
103.757347
 21
131.035339
 31
0.0
210
0.0
220
0.0
230
1.0
  0
LINE
  5
37
100
AcDbEntity
  8
0
370
    35
390
0
 62
     7
 48
0.060614
100
AcDbLine
 10
93.464455
 20
137.07843
 30
0.0
 11
91.039894
 21
137.07843
 31
0.0
210
0.0
220
0.0
230
1.0
  0
LINE
  5
38
100
AcDbEntity
  8
0
370
    35
390
0
 62
     7
100
AcDbLine
 10
88.464455
 20
138.82843
 30
0.0
 11
62.564453
 21
138.82843
 31
0.0
210
0.0
220
0.0
230
1.0
  0
LINE
  5
39
100
AcDbEntity
  8
0
370
    35
390
0
 62
     7
100
AcDbLine
 10
88.464455
 20
142.82843
 30
0.0
 11
62.564453
 21
142.82843
 31
0.0
210
0.0
220
0.0
230
1.0
  0
LINE
  5
3A
100
AcDbEntity
  8
0
370
    35
390
0
 62
     7
 48
0.012501
100
AcDbLine
 10
198.964478
 20
154.82843
 30
0.0
 11
198.464432
 21
154.82843
 31
0.0
210
0.0
220
0.0
230
1.0
  0
LINE
  5
3B
100
AcDbEntity
  8
0
370
    35
390
0
 62
     7
 48
0.039644
100
AcDbLine
 10
110.464447
 20
159.32843
 30
0.0
 11
108.878677
 21
159.32843
 31
0.0
210
0.0
220
0.0
230
1.0
  0
LINE
  5
3C
100
AcDbEntity
  8
0
370
    35
390
0
 62
     7
 48
0.029999
100
AcDbLine
 10
90.664406
 20
137.82843
 30
0.0
 11
89.464455
 21
137.82843
 31
0.0
210
0.0
220
0.0
230
1.0
  0
LINE
  5
3D
100
AcDbEntity
  8
0
370
    35
390
0
 62
     7
 48
0.250002
100
AcDbLine
 10
103.464554
 20
136.82843
 30
0.0
 11
93.464455
 21
136.82843
 31
0.0
210
0.0
220
0.0
230
1.0
  0
LINE
  5
3E
100
AcDbEntity
  8
0
370
    35
390
0
 62
     7
 48
0.250002
100
AcDbLine
 10
103.464554
 20
144.82843
 30
0.0
 11
93.464455
 21
144.82843
 31
0.0
210
0.0
220
0.0
230
1.0
  0
LINE
  5
3F
100
AcDbEntity
  8
0
370
    35
390
0
 62
     7
 48
0.012501
100
AcDbLine
 10
198.964478
 20
147.82843
 30
0.0
 11
198.464432
 21
147.82843
 31
0.0
210
0.0
220
0.0
230
1.0
  0
LINE
  5
40
100
AcDbEntity
  8
0
370
    35
390
0
 62
     7
 48
0.165002
100
AcDbLine
 10
199.164429
 20
148.028381
 30
0.0
 11
199.164429
 21
154.628479
 31
0.0
210
0.0
220
0.0
230
1.0
  0
LINE
  5
41
100
AcDbEntity
  8
0
370
    35
390
0
 62
     7
 48
0.007071
100
AcDbLine
 10
198.964447
 20
147.828445
 30
0.0
 11
199.164444
 21
148.028442
 31
0.0
210
0.0
220
0.0
230
1.0
  0
LINE
  5
42
100
AcDbEntity
  8
0
370
    35
390
0
 62
     7
 48
0.242499
100
AcDbLine
 10
198.464432
 20
82.928467
 30
0.0
 11
198.464432
 21
92.628418
 31
0.0
210
0.0
220
0.0
230
1.0
  0
LINE
  5
43
100
AcDbEntity
  8
0
370
    35
390
0
 62
     7
 48
0.043311
100
AcDbLine
 10
56.963852
 20
142.462936
 30
0.0
 11
58.464172
 21
143.329163
 31
0.0
210
0.0
220
0.0
230
1.0
  0
LINE
  5
44
100
AcDbEntity
  8
0
370
    35
390
0
 62
     7
 48
0.081702
100
AcDbLine
 10
56.964455
 20
139.194153
 30
0.0
 11
56.964455
 21
142.462219
 31
0.0
210
0.0
220
0.0
230
1.0
  0
LINE
  5
45
100
AcDbEntity
  8
0
370
    35
390
0
 62
     7
 48
0.02688
100
AcDbLine
 10
60.904968
 20
138.327118
 30
0.0
 11
61.665245
 21
139.087402
 31
0.0
210
0.0
220
0.0
230
1.0
  0
LINE
  5
46
100
AcDbEntity
  8
0
370
    35
390
0
 62
     7
 48
0.080029
100
AcDbLine
 10
58.464455
 20
138.327942
 30
0.0
 11
61.665627
 21
138.327942
 31
0.0
210
0.0
220
0.0
230
1.0
  0
LINE
  5
47
100
AcDbEntity
  8
0
370
    35
390
0
 62
     7
 48
0.061865
100
AcDbLine
 10
59.915085
 20
138.329544
 30
0.0
 11
61.664902
 21
140.079346
 31
0.0
210
0.0
220
0.0
230
1.0
  0
LINE
  5
48
100
AcDbEntity
  8
0
370
    35
390
0
 62
     7
 48
0.096899
100
AcDbLine
 10
58.92498
 20
138.328308
 30
0.0
 11
61.665703
 21
141.069046
 31
0.0
210
0.0
220
0.0
230
1.0
  0
LINE
  5
49
100
AcDbEntity
  8
0
370
    35
390
0
 62
     7
 48
0.113135
100
AcDbLine
 10
58.46479
 20
138.85936
 30
0.0
 11
61.664726
 21
142.059296
 31
0.0
210
0.0
220
0.0
230
1.0
  0
LINE
  5
4A
100
AcDbEntity
  8
0
370
    35
390
0
 62
     7
 48
0.113135
100
AcDbLine
 10
58.464272
 20
139.849747
 30
0.0
 11
61.664207
 21
143.049683
 31
0.0
210
0.0
220
0.0
230
1.0
  0
LINE
  5
4B
100
AcDbEntity
  8
0
370
    35
390
0
 62
     7
 48
0.088031
100
AcDbLine
 10
58.464447
 20
140.839111
 30
0.0
 11
60.954338
 21
143.32901
 31
0.0
210
0.0
220
0.0
230
1.0
  0
LINE
  5
4C
100
AcDbEntity
  8
0
370
    35
390
0
 62
     7
 48
0.053027
100
AcDbLine
 10
58.464661
 20
141.830078
 30
0.0
 11
59.964508
 21
143.32991
 31
0.0
210
0.0
220
0.0
230
1.0
  0
LINE
  5
4D
100
AcDbEntity
  8
0
370
    35
390
0
 62
     7
 48
0.018018
100
AcDbLine
 10
58.466347
 20
142.818359
 30
0.0
 11
58.97596
 21
143.327972
 31
0.0
210
0.0
220
0.0
230
1.0
  0
LINE
  5
4E
100
AcDbEntity
  8
0
370
    35
390
0
 62
     7
 48
0.125
100
AcDbLine
 10
61.665627
 20
138.32843
 30
0.0
 11
61.665627
 21
143.32843
 31
0.0
210
0.0
220
0.0
230
1.0
  0
LINE
  5
4F
100
AcDbEntity
  8
0
370
    35
390
0
 62
     7
 48
0.010644
100
AcDbLine
 10
61.964706
 20
143.028366
 30
0.0
 11
61.663635
 21
143.329437
 31
0.0
210
0.0
220
0.0
230
1.0
  0
LINE
  5
50
100
AcDbEntity
  8
0
370
    35
390
0
 62
     7
 48
0.010596
100
AcDbLine
 10
61.664551
 20
138.328857
 30
0.0
 11
61.964249
 21
138.62854
 31
0.0
210
0.0
220
0.0
230
1.0
  0
LINE
  5
51
100
AcDbEntity
  8
0
370
    35
390
0
 62
     7
 48
0.125
100
AcDbLine
 10
62.564453
 20
138.32843
 30
0.0
 11
62.564453
 21
143.32843
 31
0.0
210
0.0
220
0.0
230
1.0
  0
LINE
  5
52
100
AcDbEntity
  8
0
370
    35
390
0
 62
     7
 48
0.015
100
AcDbLine
 10
62.564453
 20
138.32843
 30
0.0
 11
61.964455
 21
138.32843
 31
0.0
210
0.0
220
0.0
230
1.0
  0
LINE
  5
53
100
AcDbEntity
  8
0
370
    35
390
0
 62
     7
 48
0.015
100
AcDbLine
 10
62.564453
 20
143.32843
 30
0.0
 11
61.964455
 21
143.32843
 31
0.0
210
0.0
220
0.0
230
1.0
  0
LINE
  5
54
100
AcDbEntity
  8
0
370
    35
390
0
 62
     7
 48
0.018085
100
AcDbLine
 10
62.564453
 20
140.597504
 30
0.0
 11
61.964455
 21
141.001648
 31
0.0
210
0.0
220
0.0
230
1.0
  0
LINE
  5
55
100
AcDbEntity
  8
0
370
    35
390
0
 62
     7
 48
0.018085
100
AcDbLine
 10
62.564453
 20
140.82843
 30
0.0
 11
61.964455
 21
141.232574
 31
0.0
210
0.0
220
0.0
230
1.0
  0
LINE
  5
56
100
AcDbEntity
  8
0
370
    35
390
0
 62
     7
 48
0.060626
100
AcDbLine
 10
93.464455
 20
144.57843
 30
0.0
 11
91.039406
 21
144.57843
 31
0.0
210
0.0
220
0.0
230
1.0
  0
LINE
  5
57
100
AcDbEntity
  8
0
370
    35
390
0
 62
     7
 48
0.007501
100
AcDbLine
 10
248.864502
 20
137.32843
 30
0.0
 11
248.564453
 21
137.32843
 31
0.0
210
0.0
220
0.0
230
1.0
  0
LINE
  5
58
100
AcDbEntity
  8
0
370
    35
390
0
 62
     7
 48
0.050042
100
AcDbLine
 10
261.064453
 20
83.028389
 30
0.0
 11
261.064453
 21
85.030075
 31
0.0
210
0.0
220
0.0
230
1.0
  0
LINE
  5
59
100
AcDbEntity
  8
0
370
    35
390
0
 62
     7
 48
0.007501
100
AcDbLine
 10
248.864502
 20
144.32843
 30
0.0
 11
248.564453
 21
144.32843
 31
0.0
210
0.0
220
0.0
230
1.0
  0
LINE
  5
5A
100
AcDbEntity
  8
0
370
    35
390
0
 62
     7
 48
0.013397
100
AcDbLine
 10
253.864502
 20
136.028381
 30
0.0
 11
253.864502
 21
135.492493
 31
0.0
210
0.0
220
0.0
230
1.0
  0
LINE
  5
5B
100
AcDbEntity
  8
0
370
    35
390
0
 62
     7
 48
0.013397
100
AcDbLine
 10
260.464355
 20
136.028381
 30
0.0
 11
260.464355
 21
135.492493
 31
0.0
210
0.0
220
0.0
230
1.0
  0
LINE
  5
5C
100
AcDbEntity
  8
0
370
    35
390
0
 62
     7
 48
0.055001
100
AcDbLine
 10
269.264496
 20
139.82843
 30
0.0
 11
267.064453
 21
139.82843
 31
0.0
210
0.0
220
0.0
230
1.0
  0
LINE
  5
5D
100
AcDbEntity
  8
0
370
    35
390
0
 62
     7
 48
0.075
100
AcDbLine
 10
264.064453
 20
144.82843
 30
0.0
 11
261.064453
 21
144.82843
 31
0.0
210
0.0
220
0.0
230
1.0
  0
LINE
  5
5E
100
AcDbEntity
  8
0
370
    35
390
0
 62
     7
 48
0.075
100
AcDbLine
 10
264.064453
 20
136.82843
 30
0.0
 11
261.064453
 21
136.82843
 31
0.0
210
0.0
220
0.0
230
1.0
  0
LINE
  5
5F
100
AcDbEntity
  8
0
370
    35
390
0
 62
     7
 48
0.125
100
AcDbLine
 10
269.264496
 20
85.328438
 30
0.0
 11
269.264496
 21
90.328438
 31
0.0
210
0.0
220
0.0
230
1.0
  0
LINE
  5
60
100
AcDbEntity
  8
0
370
    35
390
0
 62
     7
 48
0.125
100
AcDbLine
 10
273.464447
 20
85.328438
 30
0.0
 11
273.464447
 21
90.328438
 31
0.0
210
0.0
220
0.0
230
1.0
  0
LINE
  5
61
100
AcDbEntity
  8
0
370
    35
390
0
 62
     7
 48
0.055001
100
AcDbLine
 10
269.264496
 20
141.82843
 30
0.0
 11
267.064453
 21
141.82843
 31
0.0
210
0.0
220
0.0
230
1.0
  0
LINE
  5
62
100
AcDbEntity
  8
0
370
    35
390
0
 62
     7
 48
0.240003
100
AcDbLine
 10
252.364349
 20
126.328438
 30
0.0
 11
261.964478
 21
126.328438
 31
0.0
210
0.0
220
0.0
230
1.0
  0
LINE
  5
63
100
AcDbEntity
  8
0
370
    35
390
0
 62
     7
 48
0.043303
100
AcDbLine
 10
261.964478
 20
134.626221
 30
0.0
 11
260.464417
 21
135.49231
 31
0.0
210
0.0
220
0.0
230
1.0
  0
LINE
  5
64
100
AcDbEntity
  8
0
370
    35
390
0
 62
     7
 48
0.043306
100
AcDbLine
 10
252.364349
 20
134.626236
 30
0.0
 11
253.864502
 21
135.492355
 31
0.0
210
0.0
220
0.0
230
1.0
  0
LINE
  5
65
100
AcDbEntity
  8
0
370
    35
390
0
 62
     7
 48
0.2
100
AcDbLine
 10
264.064453
 20
144.82843
 30
0.0
 11
264.064453
 21
136.82843
 31
0.0
210
0.0
220
0.0
230
1.0
  0
LINE
  5
66
100
AcDbEntity
  8
0
370
    35
390
0
 62
     7
 48
0.024953
100
AcDbLine
 10
264.064362
 20
143.32843
 30
0.0
 11
265.0625
 21
143.32843
 31
0.0
210
0.0
220
0.0
230
1.0
  0
LINE
  5
67
100
AcDbEntity
  8
0
370
    35
390
0
 62
     7
 48
0.025
100
AcDbLine
 10
264.064453
 20
138.32843
 30
0.0
 11
265.064453
 21
138.32843
 31
0.0
210
0.0
220
0.0
230
1.0
  0
LINE
  5
68
100
AcDbEntity
  8
0
370
    35
390
0
 62
     7
 48
0.200085
100
AcDbLine
 10
267.064453
 20
144.82843
 30
0.0
 11
267.064453
 21
136.825012
 31
0.0
210
0.0
220
0.0
230
1.0
  0
LINE
  5
69
100
AcDbEntity
  8
0
370
    35
390
0
 62
     7
 48
0.164996
100
AcDbLine
 10
260.464355
 20
135.492493
 30
0.0
 11
253.864502
 21
135.492493
 31
0.0
210
0.0
220
0.0
230
1.0
  0
LINE
  5
6A
100
AcDbEntity
  8
0
370
    35
390
0
 62
     7
 48
0.23
100
AcDbLine
 10
261.764526
 20
123.328438
 30
0.0
 11
252.564545
 21
123.328438
 31
0.0
210
0.0
220
0.0
230
1.0
  0
LINE
  5
6B
100
AcDbEntity
  8
0
370
    35
390
0
 62
     7
 48
0.0375
100
AcDbLine
 10
254.664551
 20
124.828438
 30
0.0
 11
254.664551
 21
126.328438
 31
0.0
210
0.0
220
0.0
230
1.0
  0
LINE
  5
6C
100
AcDbEntity
  8
0
370
    35
390
0
 62
     7
 48
0.23
100
AcDbLine
 10
261.764526
 20
124.828438
 30
0.0
 11
252.564545
 21
124.828438
 31
0.0
210
0.0
220
0.0
230
1.0
  0
LINE
  5
6D
100
AcDbEntity
  8
0
370
    35
390
0
 62
     7
 48
0.0375
100
AcDbLine
 10
259.664551
 20
126.328438
 30
0.0
 11
259.664551
 21
124.828438
 31
0.0
210
0.0
220
0.0
230
1.0
  0
LINE
  5
6E
100
AcDbEntity
  8
0
370
    35
390
0
 62
     7
 48
0.200085
100
AcDbLine
 10
265.064453
 20
83.82502
 30
0.0
 11
265.064453
 21
91.828438
 31
0.0
210
0.0
220
0.0
230
1.0
  0
LINE
  5
6F
100
AcDbEntity
  8
0
370
    35
390
0
 62
     7
 48
0.015002
100
AcDbLine
 10
261.064453
 20
136.028381
 30
0.0
 11
260.464355
 21
136.028381
 31
0.0
210
0.0
220
0.0
230
1.0
  0
LINE
  5
70
100
AcDbEntity
  8
0
370
    35
390
0
 62
     7
 48
0.239999
100
AcDbLine
 10
248.564453
 20
83.028473
 30
0.0
 11
248.564453
 21
92.628418
 31
0.0
210
0.0
220
0.0
230
1.0
  0
LINE
  5
71
100
AcDbEntity
  8
0
370
    35
390
0
 62
     7
 48
0.104999
100
AcDbLine
 10
269.264496
 20
143.32843
 30
0.0
 11
273.464447
 21
143.32843
 31
0.0
210
0.0
220
0.0
230
1.0
  0
LINE
  5
72
100
AcDbEntity
  8
0
370
    35
390
0
 62
     7
 48
0.104999
100
AcDbLine
 10
269.264496
 20
138.32843
 30
0.0
 11
273.464447
 21
138.32843
 31
0.0
210
0.0
220
0.0
230
1.0
  0
LINE
  5
73
100
AcDbEntity
  8
0
370
    35
390
0
 62
     7
 48
0.240002
100
AcDbLine
 10
248.864502
 20
83.028389
 30
0.0
 11
248.864502
 21
92.628487
 31
0.0
210
0.0
220
0.0
230
1.0
  0
LINE
  5
74
100
AcDbEntity
  8
0
370
    35
390
0
 62
     7
 48
0.239999
100
AcDbLine
 10
247.064423
 20
83.028473
 30
0.0
 11
247.064423
 21
92.628418
 31
0.0
210
0.0
220
0.0
230
1.0
  0
LINE
  5
75
100
AcDbEntity
  8
0
370
    35
390
0
 62
     7
 48
0.239999
100
AcDbLine
 10
204.964432
 20
83.028473
 30
0.0
 11
204.964432
 21
92.628418
 31
0.0
210
0.0
220
0.0
230
1.0
  0
LINE
  5
76
100
AcDbEntity
  8
0
370
    35
390
0
 62
     7
 48
0.043311
100
AcDbLine
 10
56.965294
 20
139.194077
 30
0.0
 11
58.465614
 21
138.327866
 31
0.0
210
0.0
220
0.0
230
1.0
  0
LINE
  5
77
100
AcDbEntity
  8
0
370
    35
390
0
 62
     7
 48
0.125
100
AcDbLine
 10
61.964455
 20
138.32843
 30
0.0
 11
61.964455
 21
143.32843
 31
0.0
210
0.0
220
0.0
230
1.0
  0
LINE
  5
78
100
AcDbEntity
  8
0
370
    35
390
0
 62
     7
 48
0.018018
100
AcDbLine
 10
58.465828
 20
138.838287
 30
0.0
 11
58.975441
 21
138.328674
 31
0.0
210
0.0
220
0.0
230
1.0
  0
LINE
  5
79
100
AcDbEntity
  8
0
370
    35
390
0
 62
     7
 48
0.053076
100
AcDbLine
 10
58.466171
 20
139.830246
 30
0.0
 11
59.967392
 21
138.329025
 31
0.0
210
0.0
220
0.0
230
1.0
  0
LINE
  5
7A
100
AcDbEntity
  8
0
370
    35
390
0
 62
     7
 48
0.088037
100
AcDbLine
 10
58.465828
 20
140.818741
 30
0.0
 11
60.955894
 21
138.328674
 31
0.0
210
0.0
220
0.0
230
1.0
  0
LINE
  5
7B
100
AcDbEntity
  8
0
370
    35
390
0
 62
     7
 48
0.113135
100
AcDbLine
 10
58.46489
 20
141.806778
 30
0.0
 11
61.664825
 21
138.606857
 31
0.0
210
0.0
220
0.0
230
1.0
  0
LINE
  5
7C
100
AcDbEntity
  8
0
370
    35
390
0
 62
     7
 48
0.113135
100
AcDbLine
 10
58.466362
 20
142.80011
 30
0.0
 11
61.66629
 21
139.600174
 31
0.0
210
0.0
220
0.0
230
1.0
  0
LINE
  5
7D
100
AcDbEntity
  8
0
370
    35
390
0
 62
     7
 48
0.096875
100
AcDbLine
 10
58.924965
 20
143.327835
 30
0.0
 11
61.665001
 21
140.587799
 31
0.0
210
0.0
220
0.0
230
1.0
  0
LINE
  5
7E
100
AcDbEntity
  8
0
370
    35
390
0
 62
     7
 48
0.061865
100
AcDbLine
 10
59.91526
 20
143.328827
 30
0.0
 11
61.66507
 21
141.579025
 31
0.0
210
0.0
220
0.0
230
1.0
  0
LINE
  5
7F
100
AcDbEntity
  8
0
370
    35
390
0
 62
     7
 48
0.026856
100
AcDbLine
 10
60.905075
 20
143.327316
 30
0.0
 11
61.664658
 21
142.567719
 31
0.0
210
0.0
220
0.0
230
1.0
  0
LINE
  5
80
100
AcDbEntity
  8
0
370
    35
390
0
 62
     7
 48
0.125
100
AcDbLine
 10
58.464455
 20
138.32843
 30
0.0
 11
58.464455
 21
143.32843
 31
0.0
210
0.0
220
0.0
230
1.0
  0
LINE
  5
81
100
AcDbEntity
  8
0
370
    35
390
0
 62
     7
 48
0.080029
100
AcDbLine
 10
58.464455
 20
143.327942
 30
0.0
 11
61.665627
 21
143.327942
 31
0.0
210
0.0
220
0.0
230
1.0
  0
LINE
  5
82
100
AcDbEntity
  8
0
370
    35
390
0
 62
     7
 48
0.007071
100
AcDbLine
 10
199.164413
 20
154.628418
 30
0.0
 11
198.964432
 21
154.82843
 31
0.0
210
0.0
220
0.0
230
1.0
  0
LINE
  5
83
100
AcDbEntity
  8
0
370
    35
390
0
 62
     7
 48
0.175
100
AcDbLine
 10
198.964478
 20
147.82843
 30
0.0
 11
198.964478
 21
154.82843
 31
0.0
210
0.0
220
0.0
230
1.0
  0
LINE
  5
84
100
AcDbEntity
  8
0
370
    35
390
0
 62
     7
 48
0.01875
100
AcDbLine
 10
116.414459
 20
126.227943
 30
0.0
 11
116.414459
 21
125.477943
 31
0.0
210
0.0
220
0.0
230
1.0
  0
LINE
  5
85
100
AcDbEntity
  8
0
370
    35
390
0
 62
     7
 48
0.01875
100
AcDbLine
 10
116.414459
 20
159.428436
 30
0.0
 11
116.414459
 21
160.178436
 31
0.0
210
0.0
220
0.0
230
1.0
  0
LINE
  5
86
100
AcDbEntity
  8
0
370
    35
390
0
 62
     7
 48
0.01875
100
AcDbLine
 10
120.514465
 20
126.227943
 30
0.0
 11
120.514465
 21
125.477943
 31
0.0
210
0.0
220
0.0
230
1.0
  0
LINE
  5
87
100
AcDbEntity
  8
0
370
    35
390
0
 62
     7
 48
0.01875
100
AcDbLine
 10
120.514465
 20
159.428436
 30
0.0
 11
120.514465
 21
160.178436
 31
0.0
210
0.0
220
0.0
230
1.0
  0
LINE
  5
88
100
AcDbEntity
  8
0
370
    35
390
0
 62
     7
 48
0.08875
100
AcDbLine
 10
120.514465
 20
126.227951
 30
0.0
 11
116.964462
 21
126.227951
 31
0.0
210
0.0
220
0.0
230
1.0
  0
LINE
  5
89
100
AcDbEntity
  8
0
370
    35
390
0
  6
DASHED
 62
     7
 48
0.007501
100
AcDbLine
 10
119.264511
 20
126.227951
 30
0.0
 11
119.264511
 21
126.528
 31
0.0
210
0.0
220
0.0
230
1.0
  0
LINE
  5
8A
100
AcDbEntity
  8
0
370
    35
390
0
  6
DASHED
 62
     7
 48
0.007501
100
AcDbLine
 10
117.664536
 20
126.227951
 30
0.0
 11
117.664536
 21
126.528
 31
0.0
210
0.0
220
0.0
230
1.0
  0
LINE
  5
8B
100
AcDbEntity
  8
0
370
    35
390
0
 62
     7
 48
0.08875
100
AcDbLine
 10
116.964462
 20
159.428452
 30
0.0
 11
120.514465
 21
159.428452
 31
0.0
210
0.0
220
0.0
230
1.0
  0
LINE
  5
8C
100
AcDbEntity
  8
0
370
    35
390
0
  6
DASHED
 62
     7
 48
0.007501
100
AcDbLine
 10
119.264511
 20
159.128403
 30
0.0
 11
119.264511
 21
159.428452
 31
0.0
210
0.0
220
0.0
230
1.0
  0
LINE
  5
8D
100
AcDbEntity
  8
0
370
    35
390
0
  6
DASHED
 62
     7
 48
0.007501
100
AcDbLine
 10
117.664536
 20
159.128403
 30
0.0
 11
117.664536
 21
159.428452
 31
0.0
210
0.0
220
0.0
230
1.0
  0
LINE
  5
8E
100
AcDbEntity
  8
0
370
    35
390
0
 62
     7
 48
0.007501
100
AcDbLine
 10
116.464462
 20
159.128403
 30
0.0
 11
116.464462
 21
159.428452
 31
0.0
210
0.0
220
0.0
230
1.0
  0
LINE
  5
8F
100
AcDbEntity
  8
0
370
    35
390
0
 62
     7
 48
0.007501
100
AcDbLine
 10
120.464462
 20
159.128403
 30
0.0
 11
120.464462
 21
159.428452
 31
0.0
210
0.0
220
0.0
230
1.0
  0
LINE
  5
90
100
AcDbEntity
  8
0
370
    35
390
0
 62
     7
 48
0.007501
100
AcDbLine
 10
116.464462
 20
126.227951
 30
0.0
 11
116.464462
 21
126.528
 31
0.0
210
0.0
220
0.0
230
1.0
  0
LINE
  5
91
100
AcDbEntity
  8
0
370
    35
390
0
 62
     7
 48
0.007501
100
AcDbLine
 10
120.464462
 20
126.227951
 30
0.0
 11
120.464462
 21
126.528
 31
0.0
210
0.0
220
0.0
230
1.0
  0
LINE
  5
92
100
AcDbEntity
  8
0
370
    35
390
0
 62
     7
 48
0.017321
100
AcDbLine
 10
62.564453
 20
87.886208
 30
0.0
 11
61.964455
 21
88.23262
 31
0.0
210
0.0
220
0.0
230
1.0
  0
LINE
  5
93
100
AcDbEntity
  8
0
370
    35
390
0
 62
     7
 48
0.017321
100
AcDbLine
 10
62.564453
 20
87.655266
 30
0.0
 11
61.964455
 21
88.001678
 31
0.0
210
0.0
220
0.0
230
1.0
  0
LINE
  5
94
100
AcDbEntity
  8
0
370
    35
390
0
 62
     7
 48
0.015
100
AcDbLine
 10
62.564453
 20
90.328476
 30
0.0
 11
61.964455
 21
90.328476
 31
0.0
210
0.0
220
0.0
230
1.0
  0
LINE
  5
95
100
AcDbEntity
  8
0
370
    35
390
0
 62
     7
 48
0.015
100
AcDbLine
 10
62.564453
 20
85.328476
 30
0.0
 11
61.964455
 21
85.328476
 31
0.0
210
0.0
220
0.0
230
1.0
  0
LINE
  5
96
100
AcDbEntity
  8
0
370
    35
390
0
 62
     7
 48
0.0125
100
AcDbLine
 10
118.864456
 20
88.528473
 30
0.0
 11
118.864456
 21
89.028473
 31
0.0
210
0.0
220
0.0
230
1.0
  0
LINE
  5
97
100
AcDbEntity
  8
0
370
    35
390
0
 62
     7
 48
0.0125
100
AcDbLine
 10
117.764465
 20
88.22847
 30
0.0
 11
117.264465
 21
88.22847
 31
0.0
210
0.0
220
0.0
230
1.0
  0
LINE
  5
98
100
AcDbEntity
  8
0
370
    35
390
0
 62
     7
 48
0.0125
100
AcDbLine
 10
118.064468
 20
88.528473
 30
0.0
 11
118.064468
 21
89.028473
 31
0.0
210
0.0
220
0.0
230
1.0
  0
LINE
  5
99
100
AcDbEntity
  8
0
370
    35
390
0
 62
     7
 48
0.0125
100
AcDbLine
 10
117.764465
 20
87.428482
 30
0.0
 11
117.264465
 21
87.428482
 31
0.0
210
0.0
220
0.0
230
1.0
  0
LINE
  5
9A
100
AcDbEntity
  8
0
370
    35
390
0
 62
     7
 48
0.0125
100
AcDbLine
 10
119.664459
 20
87.428482
 30
0.0
 11
119.164459
 21
87.428482
 31
0.0
210
0.0
220
0.0
230
1.0
  0
LINE
  5
9B
100
AcDbEntity
  8
0
370
    35
390
0
 62
     7
 48
0.0125
100
AcDbLine
 10
119.664459
 20
88.22847
 30
0.0
 11
119.164459
 21
88.22847
 31
0.0
210
0.0
220
0.0
230
1.0
  0
LINE
  5
9C
100
AcDbEntity
  8
0
370
    35
390
0
 62
     7
 48
0.0125
100
AcDbLine
 10
118.864456
 20
86.628479
 30
0.0
 11
118.864456
 21
87.128479
 31
0.0
210
0.0
220
0.0
230
1.0
  0
LINE
  5
9D
100
AcDbEntity
  8
0
370
    35
390
0
 62
     7
 48
0.0125
100
AcDbLine
 10
118.064468
 20
86.628479
 30
0.0
 11
118.064468
 21
87.128479
 31
0.0
210
0.0
220
0.0
230
1.0
  0
LINE
  5
9E
100
AcDbEntity
  8
0
370
    35
390
0
 62
     7
 48
0.02
100
AcDbLine
 10
117.264465
 20
87.428482
 30
0.0
 11
117.264465
 21
88.22847
 31
0.0
210
0.0
220
0.0
230
1.0
  0
LINE
  5
9F
100
AcDbEntity
  8
0
370
    35
390
0
 62
     7
 48
0.02
100
AcDbLine
 10
119.664459
 20
87.428482
 30
0.0
 11
119.664459
 21
88.22847
 31
0.0
210
0.0
220
0.0
230
1.0
  0
LINE
  5
A0
100
AcDbEntity
  8
0
370
    35
390
0
 62
     7
 48
0.02
100
AcDbLine
 10
118.864456
 20
89.028473
 30
0.0
 11
118.064468
 21
89.028473
 31
0.0
210
0.0
220
0.0
230
1.0
  0
LINE
  5
A1
100
AcDbEntity
  8
0
370
    35
390
0
 62
     7
 48
0.02
100
AcDbLine
 10
118.864456
 20
86.628479
 30
0.0
 11
118.064468
 21
86.628479
 31
0.0
210
0.0
220
0.0
230
1.0
  0
LINE
  5
A2
100
AcDbEntity
  8
0
370
    35
390
0
 62
     7
 48
0.029999
100
AcDbLine
 10
90.664406
 20
84.828476
 30
0.0
 11
89.464455
 21
84.828476
 31
0.0
210
0.0
220
0.0
230
1.0
  0
LINE
  5
A3
100
AcDbEntity
  8
0
370
    35
390
0
 62
     7
 48
0.125
100
AcDbLine
 10
61.964455
 20
85.328476
 30
0.0
 11
61.964455
 21
90.328476
 31
0.0
210
0.0
220
0.0
230
1.0
  0
LINE
  5
A4
100
AcDbEntity
  8
0
370
    35
390
0
 62
     7
 48
0.025
100
AcDbLine
 10
89.464455
 20
91.003525
 30
0.0
 11
88.464455
 21
91.003525
 31
0.0
210
0.0
220
0.0
230
1.0
  0
LINE
  5
A5
100
AcDbEntity
  8
0
370
    35
390
0
 62
     7
 48
0.020965
100
AcDbLine
 10
91.039978
 20
84.078613
 30
0.0
 11
90.66494
 21
84.828697
 31
0.0
210
0.0
220
0.0
230
1.0
  0
LINE
  5
A6
100
AcDbEntity
  8
0
370
    35
390
0
 62
     7
 48
0.000006
100
AcDbLine
 10
205.164429
 20
91.328476
 30
0.0
 11
205.164429
 21
91.32872
 31
0.0
210
0.0
220
0.0
230
1.0
  0
LINE
  5
A7
100
AcDbEntity
  8
0
370
    35
390
0
 62
     7
 48
0.250002
100
AcDbLine
 10
103.464554
 20
91.828476
 30
0.0
 11
93.464455
 21
91.828476
 31
0.0
210
0.0
220
0.0
230
1.0
  0
LINE
  5
A8
100
AcDbEntity
  8
0
370
    35
390
0
 62
     7
 48
0.060626
100
AcDbLine
 10
93.464455
 20
91.578476
 30
0.0
 11
91.039406
 21
91.578476
 31
0.0
210
0.0
220
0.0
230
1.0
  0
LINE
  5
A9
100
AcDbEntity
  8
0
370
    35
390
0
 62
     7
 48
0.029999
100
AcDbLine
 10
90.664406
 20
90.828476
 30
0.0
 11
89.464455
 21
90.828476
 31
0.0
210
0.0
220
0.0
230
1.0
  0
LINE
  5
AA
100
AcDbEntity
  8
0
370
    35
390
0
 62
     7
 48
0.020959
100
AcDbLine
 10
91.039299
 20
91.578163
 30
0.0
 11
90.664368
 21
90.828293
 31
0.0
210
0.0
220
0.0
230
1.0
  0
LINE
  5
AB
100
AcDbEntity
  8
0
370
    35
390
0
 62
     7
 48
0.025
100
AcDbLine
 10
89.464455
 20
84.653427
 30
0.0
 11
88.464455
 21
84.653427
 31
0.0
210
0.0
220
0.0
230
1.0
  0
LINE
  5
AC
100
AcDbEntity
  8
0
370
    35
390
0
 62
     7
 48
0.060614
100
AcDbLine
 10
93.464455
 20
84.078476
 30
0.0
 11
91.039894
 21
84.078476
 31
0.0
210
0.0
220
0.0
230
1.0
  0
LINE
  5
AD
100
AcDbEntity
  8
0
370
    35
390
0
 62
     7
 48
0.15
100
AcDbLine
 10
110.464432
 20
92.828476
 30
0.0
 11
104.464432
 21
92.828476
 31
0.0
210
0.0
220
0.0
230
1.0
  0
LINE
  5
AE
100
AcDbEntity
  8
0
370
    35
390
0
 62
     7
 48
0.15
100
AcDbLine
 10
110.464432
 20
80.828476
 30
0.0
 11
104.464432
 21
80.828476
 31
0.0
210
0.0
220
0.0
230
1.0
  0
LINE
  5
AF
100
AcDbEntity
  8
0
370
    35
390
0
 62
     7
100
AcDbLine
 10
88.464424
 20
85.828476
 30
0.0
 11
62.564453
 21
85.828476
 31
0.0
210
0.0
220
0.0
230
1.0
  0
LINE
  5
B0
100
AcDbEntity
  8
0
370
    35
390
0
 62
     7
100
AcDbLine
 10
88.464424
 20
89.828476
 30
0.0
 11
62.564453
 21
89.828476
 31
0.0
210
0.0
220
0.0
230
1.0
  0
LINE
  5
B1
100
AcDbEntity
  8
0
370
    35
390
0
 62
     7
 48
0.250002
100
AcDbLine
 10
103.464554
 20
83.828476
 30
0.0
 11
93.464455
 21
83.828476
 31
0.0
210
0.0
220
0.0
230
1.0
  0
LINE
  5
B2
100
AcDbEntity
  8
0
370
    35
390
0
 62
     7
 48
0.043311
100
AcDbLine
 10
56.965294
 20
86.194107
 30
0.0
 11
58.465614
 21
85.327896
 31
0.0
210
0.0
220
0.0
230
1.0
  0
LINE
  5
B3
100
AcDbEntity
  8
0
370
    35
390
0
 62
     7
 48
0.053027
100
AcDbLine
 10
58.464661
 20
88.830109
 30
0.0
 11
59.964508
 21
90.329941
 31
0.0
210
0.0
220
0.0
230
1.0
  0
LINE
  5
B4
100
AcDbEntity
  8
0
370
    35
390
0
 62
     7
 48
0.010596
100
AcDbLine
 10
61.664551
 20
85.328888
 30
0.0
 11
61.964249
 21
85.628571
 31
0.0
210
0.0
220
0.0
230
1.0
  0
LINE
  5
B5
100
AcDbEntity
  8
0
370
    35
390
0
 62
     7
 48
0.010644
100
AcDbLine
 10
61.964706
 20
90.028397
 30
0.0
 11
61.663635
 21
90.329468
 31
0.0
210
0.0
220
0.0
230
1.0
  0
LINE
  5
B6
100
AcDbEntity
  8
0
370
    35
390
0
 62
     7
 48
0.125
100
AcDbLine
 10
61.665627
 20
85.328476
 30
0.0
 11
61.665627
 21
90.328476
 31
0.0
210
0.0
220
0.0
230
1.0
  0
LINE
  5
B7
100
AcDbEntity
  8
0
370
    35
390
0
 62
     7
 48
0.018018
100
AcDbLine
 10
58.466347
 20
89.81839
 30
0.0
 11
58.97596
 21
90.328003
 31
0.0
210
0.0
220
0.0
230
1.0
  0
LINE
  5
B8
100
AcDbEntity
  8
0
370
    35
390
0
 62
     7
 48
0.088031
100
AcDbLine
 10
58.464447
 20
87.839149
 30
0.0
 11
60.954338
 21
90.329041
 31
0.0
210
0.0
220
0.0
230
1.0
  0
LINE
  5
B9
100
AcDbEntity
  8
0
370
    35
390
0
 62
     7
 48
0.080029
100
AcDbLine
 10
58.464455
 20
85.327988
 30
0.0
 11
61.665627
 21
85.327988
 31
0.0
210
0.0
220
0.0
230
1.0
  0
LINE
  5
BA
100
AcDbEntity
  8
0
370
    35
390
0
 62
     7
 48
0.113135
100
AcDbLine
 10
58.464272
 20
86.849785
 30
0.0
 11
61.664207
 21
90.049721
 31
0.0
210
0.0
220
0.0
230
1.0
  0
LINE
  5
BB
100
AcDbEntity
  8
0
370
    35
390
0
 62
     7
 48
0.113135
100
AcDbLine
 10
58.46479
 20
85.85939
 30
0.0
 11
61.664726
 21
89.059319
 31
0.0
210
0.0
220
0.0
230
1.0
  0
LINE
  5
BC
100
AcDbEntity
  8
0
370
    35
390
0
 62
     7
 48
0.096899
100
AcDbLine
 10
58.92498
 20
85.328346
 30
0.0
 11
61.665703
 21
88.069084
 31
0.0
210
0.0
220
0.0
230
1.0
  0
LINE
  5
BD
100
AcDbEntity
  8
0
370
    35
390
0
 62
     7
 48
0.061865
100
AcDbLine
 10
59.915085
 20
85.329575
 30
0.0
 11
61.664902
 21
87.079391
 31
0.0
210
0.0
220
0.0
230
1.0
  0
LINE
  5
BE
100
AcDbEntity
  8
0
370
    35
390
0
 62
     7
 48
0.02688
100
AcDbLine
 10
60.904968
 20
85.327164
 30
0.0
 11
61.665245
 21
86.087433
 31
0.0
210
0.0
220
0.0
230
1.0
  0
LINE
  5
BF
100
AcDbEntity
  8
0
370
    35
390
0
 62
     7
 48
0.026856
100
AcDbLine
 10
60.905075
 20
90.327347
 30
0.0
 11
61.664658
 21
89.567749
 31
0.0
210
0.0
220
0.0
230
1.0
  0
LINE
  5
C0
100
AcDbEntity
  8
0
370
    35
390
0
 62
     7
 48
0.081702
100
AcDbLine
 10
56.964455
 20
86.194199
 30
0.0
 11
56.964455
 21
89.462265
 31
0.0
210
0.0
220
0.0
230
1.0
  0
LINE
  5
C1
100
AcDbEntity
  8
0
370
    35
390
0
 62
     7
 48
0.043311
100
AcDbLine
 10
56.963852
 20
89.462975
 30
0.0
 11
58.464172
 21
90.329193
 31
0.0
210
0.0
220
0.0
230
1.0
  0
LINE
  5
C2
100
AcDbEntity
  8
0
370
    35
390
0
 62
     7
 48
0.080029
100
AcDbLine
 10
58.464455
 20
90.327988
 30
0.0
 11
61.665627
 21
90.327988
 31
0.0
210
0.0
220
0.0
230
1.0
  0
LINE
  5
C3
100
AcDbEntity
  8
0
370
    35
390
0
 62
     7
 48
0.125
100
AcDbLine
 10
58.464455
 20
85.328476
 30
0.0
 11
58.464455
 21
90.328476
 31
0.0
210
0.0
220
0.0
230
1.0
  0
LINE
  5
C4
100
AcDbEntity
  8
0
370
    35
390
0
 62
     7
 48
0.061865
100
AcDbLine
 10
59.91526
 20
90.328873
 30
0.0
 11
61.66507
 21
88.579056
 31
0.0
210
0.0
220
0.0
230
1.0
  0
LINE
  5
C5
100
AcDbEntity
  8
0
370
    35
390
0
 62
     7
 48
0.096875
100
AcDbLine
 10
58.924965
 20
90.327873
 30
0.0
 11
61.665001
 21
87.587837
 31
0.0
210
0.0
220
0.0
230
1.0
  0
LINE
  5
C6
100
AcDbEntity
  8
0
370
    35
390
0
 62
     7
 48
0.113135
100
AcDbLine
 10
58.466362
 20
89.80014
 30
0.0
 11
61.66629
 21
86.600204
 31
0.0
210
0.0
220
0.0
230
1.0
  0
LINE
  5
C7
100
AcDbEntity
  8
0
370
    35
390
0
 62
     7
 48
0.113135
100
AcDbLine
 10
58.46489
 20
88.806816
 30
0.0
 11
61.664825
 21
85.606888
 31
0.0
210
0.0
220
0.0
230
1.0
  0
LINE
  5
C8
100
AcDbEntity
  8
0
370
    35
390
0
 62
     7
 48
0.088037
100
AcDbLine
 10
58.465828
 20
87.818779
 30
0.0
 11
60.955894
 21
85.328712
 31
0.0
210
0.0
220
0.0
230
1.0
  0
LINE
  5
C9
100
AcDbEntity
  8
0
370
    35
390
0
 62
     7
 48
0.053076
100
AcDbLine
 10
58.466171
 20
86.830276
 30
0.0
 11
59.967392
 21
85.329056
 31
0.0
210
0.0
220
0.0
230
1.0
  0
LINE
  5
CA
100
AcDbEntity
  8
0
370
    35
390
0
 62
     7
 48
0.018018
100
AcDbLine
 10
58.465828
 20
85.838326
 30
0.0
 11
58.975441
 21
85.328712
 31
0.0
210
0.0
220
0.0
230
1.0
  0
LINE
  5
CB
100
AcDbEntity
  8
0
370
    35
390
0
 62
     7
 48
0.25
100
AcDbLine
 10
107.604782
 20
36.328438
 30
0.0
 11
107.604782
 21
46.328438
 31
0.0
210
0.0
220
0.0
230
1.0
  0
LINE
  5
CC
100
AcDbEntity
  8
0
370
    35
390
0
 62
     7
 48
0.487498
100
AcDbLine
 10
118.604782
 20
34.828438
 30
0.0
 11
138.104691
 21
34.828438
 31
0.0
210
0.0
220
0.0
230
1.0
  0
LINE
  5
CD
100
AcDbEntity
  8
0
370
    35
390
0
 62
     7
 48
0.487498
100
AcDbLine
 10
118.604782
 20
47.828438
 30
0.0
 11
138.104691
 21
47.828438
 31
0.0
210
0.0
220
0.0
230
1.0
  0
LINE
  5
CE
100
AcDbEntity
  8
0
370
    35
390
0
 62
     7
 48
0.294995
100
AcDbLine
 10
113.804733
 20
35.428535
 30
0.0
 11
113.804733
 21
47.22834
 31
0.0
210
0.0
220
0.0
230
1.0
  0
LINE
  5
CF
100
AcDbEntity
  8
0
370
    35
390
0
 62
     7
 48
0.325
100
AcDbLine
 10
118.604782
 20
34.828438
 30
0.0
 11
118.604782
 21
47.828438
 31
0.0
210
0.0
220
0.0
230
1.0
  0
LINE
  5
D0
100
AcDbEntity
  8
0
370
    35
390
0
 62
     7
 48
0.154999
100
AcDbLine
 10
107.604782
 20
36.328438
 30
0.0
 11
113.804733
 21
36.328438
 31
0.0
210
0.0
220
0.0
230
1.0
  0
LINE
  5
D1
100
AcDbEntity
  8
0
370
    35
390
0
 62
     7
 48
0.154999
100
AcDbLine
 10
107.604782
 20
46.328438
 30
0.0
 11
113.804733
 21
46.328438
 31
0.0
210
0.0
220
0.0
230
1.0
  0
LINE
  5
D2
100
AcDbEntity
  8
0
370
    35
390
0
 62
     7
 48
0.120001
100
AcDbLine
 10
113.804733
 20
35.428535
 30
0.0
 11
118.604782
 21
35.428535
 31
0.0
210
0.0
220
0.0
230
1.0
  0
LINE
  5
D3
100
AcDbEntity
  8
0
370
    35
390
0
 62
     7
 48
0.120001
100
AcDbLine
 10
113.804733
 20
47.22834
 30
0.0
 11
118.604782
 21
47.22834
 31
0.0
210
0.0
220
0.0
230
1.0
  0
LINE
  5
D4
100
AcDbEntity
  8
0
370
    35
390
0
 62
     7
 48
0.175
100
AcDbLine
 10
157.104721
 20
37.828438
 30
0.0
 11
157.104721
 21
44.828438
 31
0.0
210
0.0
220
0.0
230
1.0
  0
LINE
  5
D5
100
AcDbEntity
  8
0
370
    35
390
0
 62
     7
 48
0.128552
100
AcDbLine
 10
138.104828
 20
35.628357
 30
0.0
 11
143.104935
 21
36.828377
 31
0.0
210
0.0
220
0.0
230
1.0
  0
LINE
  5
D6
100
AcDbEntity
  8
0
370
    35
390
0
 62
     7
 48
0.128546
100
AcDbLine
 10
143.10498
 20
45.828239
 30
0.0
 11
138.105118
 21
47.028206
 31
0.0
210
0.0
220
0.0
230
1.0
  0
LINE
  5
D7
100
AcDbEntity
  8
0
370
    35
390
0
 62
     7
 48
0.350227
100
AcDbLine
 10
143.105042
 20
37.328377
 30
0.0
 11
157.105209
 21
37.828384
 31
0.0
210
0.0
220
0.0
230
1.0
  0
LINE
  5
D8
100
AcDbEntity
  8
0
370
    35
390
0
 62
     7
 48
0.155005
100
AcDbLine
 10
141.404739
 20
38.22834
 30
0.0
 11
141.404739
 21
44.428535
 31
0.0
210
0.0
220
0.0
230
1.0
  0
LINE
  5
D9
100
AcDbEntity
  8
0
370
    35
390
0
 62
     7
 48
0.155005
100
AcDbLine
 10
139.804642
 20
38.22834
 30
0.0
 11
139.804642
 21
44.428535
 31
0.0
210
0.0
220
0.0
230
1.0
  0
LINE
  5
DA
100
AcDbEntity
  8
0
370
    35
390
0
 62
     7
 48
0.040002
100
AcDbLine
 10
139.804642
 20
38.22834
 30
0.0
 11
141.404739
 21
38.22834
 31
0.0
210
0.0
220
0.0
230
1.0
  0
LINE
  5
DB
100
AcDbEntity
  8
0
370
    35
390
0
 62
     7
 48
0.040002
100
AcDbLine
 10
139.804642
 20
44.428535
 30
0.0
 11
141.404739
 21
44.428535
 31
0.0
210
0.0
220
0.0
230
1.0
  0
LINE
  5
DC
100
AcDbEntity
  8
0
370
    35
390
0
 62
     7
 48
0.042499
100
AcDbLine
 10
138.104691
 20
40.128487
 30
0.0
 11
139.804642
 21
40.128487
 31
0.0
210
0.0
220
0.0
230
1.0
  0
LINE
  5
DD
100
AcDbEntity
  8
0
370
    35
390
0
 62
     7
 48
0.042499
100
AcDbLine
 10
138.104691
 20
42.528389
 30
0.0
 11
139.804642
 21
42.528389
 31
0.0
210
0.0
220
0.0
230
1.0
  0
LINE
  5
DE
100
AcDbEntity
  8
0
370
    35
390
0
 62
     7
 48
0.175
100
AcDbLine
 10
135.004593
 20
37.828438
 30
0.0
 11
135.004593
 21
44.828438
 31
0.0
210
0.0
220
0.0
230
1.0
  0
LINE
  5
DF
100
AcDbEntity
  8
0
370
    35
390
0
 62
     7
 48
0.175
100
AcDbLine
 10
134.504593
 20
37.828438
 30
0.0
 11
134.504593
 21
44.828438
 31
0.0
210
0.0
220
0.0
230
1.0
  0
LINE
  5
E0
100
AcDbEntity
  8
0
370
    35
390
0
 62
     7
 48
0.175
100
AcDbLine
 10
132.804733
 20
37.828438
 30
0.0
 11
132.804733
 21
44.828438
 31
0.0
210
0.0
220
0.0
230
1.0
  0
LINE
  5
E1
100
AcDbEntity
  8
0
370
    35
390
0
 62
     7
 48
0.175
100
AcDbLine
 10
132.304733
 20
37.828438
 30
0.0
 11
132.304733
 21
44.828438
 31
0.0
210
0.0
220
0.0
230
1.0
  0
LINE
  5
E2
100
AcDbEntity
  8
0
370
    35
390
0
 62
     7
 48
0.175
100
AcDbLine
 10
130.604782
 20
37.828438
 30
0.0
 11
130.604782
 21
44.828438
 31
0.0
210
0.0
220
0.0
230
1.0
  0
LINE
  5
E3
100
AcDbEntity
  8
0
370
    35
390
0
 62
     7
 48
0.175
100
AcDbLine
 10
130.104782
 20
37.828438
 30
0.0
 11
130.104782
 21
44.828438
 31
0.0
210
0.0
220
0.0
230
1.0
  0
LINE
  5
E4
100
AcDbEntity
  8
0
370
    35
390
0
 62
     7
 48
0.175
100
AcDbLine
 10
128.404831
 20
37.828438
 30
0.0
 11
128.404831
 21
44.828438
 31
0.0
210
0.0
220
0.0
230
1.0
  0
LINE
  5
E5
100
AcDbEntity
  8
0
370
    35
390
0
 62
     7
 48
0.175
100
AcDbLine
 10
121.404831
 20
37.828438
 30
0.0
 11
121.404831
 21
44.828438
 31
0.0
210
0.0
220
0.0
230
1.0
  0
LINE
  5
E6
100
AcDbEntity
  8
0
370
    35
390
0
 62
     7
 48
0.175
100
AcDbLine
 10
121.404831
 20
37.828438
 30
0.0
 11
128.404831
 21
37.828438
 31
0.0
210
0.0
220
0.0
230
1.0
  0
LINE
  5
E7
100
AcDbEntity
  8
0
370
    35
390
0
 62
     7
 48
0.175
100
AcDbLine
 10
121.404831
 20
44.828438
 30
0.0
 11
128.404831
 21
44.828438
 31
0.0
210
0.0
220
0.0
230
1.0
  0
LINE
  5
E8
100
AcDbEntity
  8
0
370
    35
390
0
 62
     7
 48
0.0125
100
AcDbLine
 10
130.104782
 20
37.828438
 30
0.0
 11
130.604782
 21
37.828438
 31
0.0
210
0.0
220
0.0
230
1.0
  0
LINE
  5
E9
100
AcDbEntity
  8
0
370
    35
390
0
 62
     7
 48
0.0125
100
AcDbLine
 10
132.304733
 20
37.828438
 30
0.0
 11
132.804733
 21
37.828438
 31
0.0
210
0.0
220
0.0
230
1.0
  0
LINE
  5
EA
100
AcDbEntity
  8
0
370
    35
390
0
 62
     7
 48
0.011877
100
AcDbLine
 10
134.504593
 20
37.828438
 30
0.0
 11
134.979691
 21
37.828438
 31
0.0
210
0.0
220
0.0
230
1.0
  0
LINE
  5
EB
100
AcDbEntity
  8
0
370
    35
390
0
 62
     7
 48
0.0125
100
AcDbLine
 10
130.104782
 20
44.828438
 30
0.0
 11
130.604782
 21
44.828438
 31
0.0
210
0.0
220
0.0
230
1.0
  0
LINE
  5
EC
100
AcDbEntity
  8
0
370
    35
390
0
 62
     7
 48
0.0125
100
AcDbLine
 10
132.304733
 20
44.828438
 30
0.0
 11
132.804733
 21
44.828438
 31
0.0
210
0.0
220
0.0
230
1.0
  0
LINE
  5
ED
100
AcDbEntity
  8
0
370
    35
390
0
 62
     7
 48
0.0125
100
AcDbLine
 10
134.504593
 20
44.828438
 30
0.0
 11
135.004593
 21
44.828438
 31
0.0
210
0.0
220
0.0
230
1.0
  0
LINE
  5
EE
100
AcDbEntity
  8
0
370
    35
390
0
 62
     7
 48
0.05
100
AcDbLine
 10
127.404831
 20
40.328438
 30
0.0
 11
127.404831
 21
42.328438
 31
0.0
210
0.0
220
0.0
230
1.0
  0
LINE
  5
EF
100
AcDbEntity
  8
0
370
    35
390
0
 62
     7
 48
0.070709
100
AcDbLine
 10
124.404869
 20
39.328682
 30
0.0
 11
122.404907
 21
41.328644
 31
0.0
210
0.0
220
0.0
230
1.0
  0
LINE
  5
F0
100
AcDbEntity
  8
0
370
    35
390
0
 62
     7
 48
0.070709
100
AcDbLine
 10
124.404869
 20
43.328598
 30
0.0
 11
122.404907
 21
41.328644
 31
0.0
210
0.0
220
0.0
230
1.0
  0
LINE
  5
F1
100
AcDbEntity
  8
0
370
    35
390
0
 62
     7
 48
0.025
100
AcDbLine
 10
124.404831
 20
39.328438
 30
0.0
 11
124.404831
 21
40.328438
 31
0.0
210
0.0
220
0.0
230
1.0
  0
LINE
  5
F2
100
AcDbEntity
  8
0
370
    35
390
0
 62
     7
 48
0.075
100
AcDbLine
 10
124.404831
 20
42.328438
 30
0.0
 11
127.404831
 21
42.328438
 31
0.0
210
0.0
220
0.0
230
1.0
  0
LINE
  5
F3
100
AcDbEntity
  8
0
370
    35
390
0
 62
     7
 48
0.075
100
AcDbLine
 10
124.404831
 20
40.328438
 30
0.0
 11
127.404831
 21
40.328438
 31
0.0
210
0.0
220
0.0
230
1.0
  0
LINE
  5
F4
100
AcDbEntity
  8
0
370
    35
390
0
 62
     7
 48
0.025
100
AcDbLine
 10
124.404831
 20
42.328438
 30
0.0
 11
124.404831
 21
43.328438
 31
0.0
210
0.0
220
0.0
230
1.0
  0
LINE
  5
F5
100
AcDbEntity
  8
0
370
    35
390
0
 62
     7
 48
0.325
100
AcDbLine
 10
138.104691
 20
34.828438
 30
0.0
 11
138.104691
 21
47.828438
 31
0.0
210
0.0
220
0.0
230
1.0
  0
LINE
  5
F6
100
AcDbEntity
  8
0
370
    35
390
0
 62
     7
 48
0.071985
100
AcDbLine
 10
154.605011
 20
44.16362
 30
0.0
 11
155.105011
 21
41.327972
 31
0.0
210
0.0
220
0.0
230
1.0
  0
LINE
  5
F7
100
AcDbEntity
  8
0
370
    35
390
0
 62
     7
 48
0.017938
100
AcDbLine
 10
153.465103
 20
44.958214
 30
0.0
 11
153.589691
 21
44.251587
 31
0.0
210
0.0
220
0.0
230
1.0
  0
LINE
  5
F8
100
AcDbEntity
  8
0
370
    35
390
0
 62
     7
 48
0.071985
100
AcDbLine
 10
152.605087
 20
44.164001
 30
0.0
 11
153.105087
 21
41.328346
 31
0.0
210
0.0
220
0.0
230
1.0
  0
LINE
  5
F9
100
AcDbEntity
  8
0
370
    35
390
0
 62
     7
 48
0.027182
100
AcDbLine
 10
151.416229
 20
45.234703
 30
0.0
 11
151.605042
 21
44.163925
 31
0.0
210
0.0
220
0.0
230
1.0
  0
LINE
  5
FA
100
AcDbEntity
  8
0
370
    35
390
0
 62
     7
 48
0.02171
100
AcDbLine
 10
151.605118
 20
38.492447
 30
0.0
 11
151.755905
 21
37.63723
 31
0.0
210
0.0
220
0.0
230
1.0
  0
LINE
  5
FB
100
AcDbEntity
  8
0
370
    35
390
0
 62
     7
 48
0.030845
100
AcDbLine
 10
149.390945
 20
45.379387
 30
0.0
 11
149.605194
 21
44.164322
 31
0.0
210
0.0
220
0.0
230
1.0
  0
LINE
  5
FC
100
AcDbEntity
  8
0
370
    35
390
0
 62
     7
 48
0.023517
100
AcDbLine
 10
149.605087
 20
38.492813
 30
0.0
 11
149.768433
 21
37.566429
 31
0.0
210
0.0
220
0.0
230
1.0
  0
LINE
  5
FD
100
AcDbEntity
  8
0
370
    35
390
0
 62
     7
 48
0.034528
100
AcDbLine
 10
147.365234
 20
45.524055
 30
0.0
 11
147.605072
 21
44.163918
 31
0.0
210
0.0
220
0.0
230
1.0
  0
LINE
  5
FE
100
AcDbEntity
  8
0
370
    35
390
0
 62
     7
 48
0.025317
100
AcDbLine
 10
147.605011
 20
38.492661
 30
0.0
 11
147.780853
 21
37.495354
 31
0.0
210
0.0
220
0.0
230
1.0
  0
LINE
  5
FF
100
AcDbEntity
  8
0
370
    35
390
0
 62
     7
 48
0.038211
100
AcDbLine
 10
145.339615
 20
45.668739
 30
0.0
 11
145.605026
 21
44.163528
 31
0.0
210
0.0
220
0.0
230
1.0
  0
LINE
  5
100
100
AcDbEntity
  8
0
370
    35
390
0
 62
     7
 48
0.027127
100
AcDbLine
 10
145.605087
 20
38.49292
 30
0.0
 11
145.793518
 21
37.424324
 31
0.0
210
0.0
220
0.0
230
1.0
  0
LINE
  5
101
100
AcDbEntity
  8
0
370
    35
390
0
 62
     7
 48
0.02735
100
AcDbLine
 10
143.401642
 20
45.317741
 30
0.0
 11
143.591614
 21
44.240364
 31
0.0
210
0.0
220
0.0
230
1.0
  0
LINE
  5
102
100
AcDbEntity
  8
0
370
    35
390
0
 62
     7
 48
0.073596
100
AcDbLine
 10
145.600586
 20
44.139931
 30
0.0
 11
145.089386
 21
41.240807
 31
0.0
210
0.0
220
0.0
230
1.0
  0
LINE
  5
103
100
AcDbEntity
  8
0
370
    35
390
0
 62
     7
 48
0.035462
100
AcDbLine
 10
146.851181
 20
45.560822
 30
0.0
 11
146.604858
 21
44.163895
 31
0.0
210
0.0
220
0.0
230
1.0
  0
LINE
  5
104
100
AcDbEntity
  8
0
370
    35
390
0
 62
     7
 48
0.034085
100
AcDbLine
 10
148.826172
 20
45.419746
 30
0.0
 11
148.589417
 21
44.077057
 31
0.0
210
0.0
220
0.0
230
1.0
  0
LINE
  5
105
100
AcDbEntity
  8
0
370
    35
390
0
 62
     7
 48
0.028299
100
AcDbLine
 10
150.801407
 20
45.278664
 30
0.0
 11
150.604843
 21
44.163887
 31
0.0
210
0.0
220
0.0
230
1.0
  0
LINE
  5
106
100
AcDbEntity
  8
0
370
    35
390
0
 62
     7
 48
0.020813
100
AcDbLine
 10
152.74942
 20
44.983879
 30
0.0
 11
152.604843
 21
44.164001
 31
0.0
210
0.0
220
0.0
230
1.0
  0
LINE
  5
107
100
AcDbEntity
  8
0
370
    35
390
0
 62
     7
 48
0.021075
100
AcDbLine
 10
152.604889
 20
38.49263
 30
0.0
 11
152.458496
 21
37.662422
 31
0.0
210
0.0
220
0.0
230
1.0
  0
LINE
  5
108
100
AcDbEntity
  8
0
370
    35
390
0
 62
     7
 48
0.019342
100
AcDbLine
 10
154.737
 20
44.912804
 30
0.0
 11
154.602646
 21
44.150879
 31
0.0
210
0.0
220
0.0
230
1.0
  0
LINE
  5
109
100
AcDbEntity
  8
0
370
    35
390
0
 62
     7
 48
0.073926
100
AcDbLine
 10
143.5914
 20
44.240341
 30
0.0
 11
143.077911
 21
41.328239
 31
0.0
210
0.0
220
0.0
230
1.0
  0
LINE
  5
10A
100
AcDbEntity
  8
0
370
    35
390
0
 62
     7
 48
0.071985
100
AcDbLine
 10
156.605057
 20
44.164009
 30
0.0
 11
157.105057
 21
41.328354
 31
0.0
210
0.0
220
0.0
230
1.0
  0
LINE
  5
10B
100
AcDbEntity
  8
0
370
    35
390
0
 62
     7
 48
0.017523
100
AcDbLine
 10
156.724609
 20
44.841972
 30
0.0
 11
156.602905
 21
44.151695
 31
0.0
210
0.0
220
0.0
230
1.0
  0
LINE
  5
10C
100
AcDbEntity
  8
0
370
    35
390
0
 62
     7
 48
0.029392
100
AcDbLine
 10
143.608398
 20
38.511475
 30
0.0
 11
143.812561
 21
37.353676
 31
0.0
210
0.0
220
0.0
230
1.0
  0
LINE
  5
10D
100
AcDbEntity
  8
0
370
    35
390
0
 62
     7
 48
0.070273
100
AcDbLine
 10
156.116928
 20
41.260719
 30
0.0
 11
156.605042
 21
38.492516
 31
0.0
210
0.0
220
0.0
230
1.0
  0
LINE
  5
10E
100
AcDbEntity
  8
0
370
    35
390
0
 62
     7
 48
0.018103
100
AcDbLine
 10
155.604996
 20
38.492439
 30
0.0
 11
155.730743
 21
37.77932
 31
0.0
210
0.0
220
0.0
230
1.0
  0
LINE
  5
10F
100
AcDbEntity
  8
0
370
    35
390
0
 62
     7
 48
0.019263
100
AcDbLine
 10
154.605057
 20
38.492966
 30
0.0
 11
154.471268
 21
37.734169
 31
0.0
210
0.0
220
0.0
230
1.0
  0
LINE
  5
110
100
AcDbEntity
  8
0
370
    35
390
0
 62
     7
 48
0.022913
100
AcDbLine
 10
150.604965
 20
38.492996
 30
0.0
 11
150.445816
 21
37.590416
 31
0.0
210
0.0
220
0.0
230
1.0
  0
LINE
  5
111
100
AcDbEntity
  8
0
370
    35
390
0
 62
     7
 48
0.024725
100
AcDbLine
 10
148.604797
 20
38.492661
 30
0.0
 11
148.433044
 21
37.518677
 31
0.0
210
0.0
220
0.0
230
1.0
  0
LINE
  5
112
100
AcDbEntity
  8
0
370
    35
390
0
 62
     7
 48
0.026538
100
AcDbLine
 10
146.604614
 20
38.492325
 30
0.0
 11
146.420288
 21
37.44693
 31
0.0
210
0.0
220
0.0
230
1.0
  0
LINE
  5
113
100
AcDbEntity
  8
0
370
    35
390
0
 62
     7
 48
0.028381
100
AcDbLine
 10
144.604858
 20
38.492912
 30
0.0
 11
144.407715
 21
37.374901
 31
0.0
210
0.0
220
0.0
230
1.0
  0
LINE
  5
114
100
AcDbEntity
  8
0
370
    35
390
0
 62
     7
 48
0.015491
100
AcDbLine
 10
155.50882
 20
44.885239
 30
0.0
 11
155.616425
 21
44.275024
 31
0.0
210
0.0
220
0.0
230
1.0
  0
LINE
  5
115
100
AcDbEntity
  8
0
370
    35
390
0
 62
     7
 48
0.073798
100
AcDbLine
 10
153.586731
 20
44.235306
 30
0.0
 11
153.074142
 21
41.328247
 31
0.0
210
0.0
220
0.0
230
1.0
  0
LINE
  5
116
100
AcDbEntity
  8
0
370
    35
390
0
 62
     7
 48
0.071985
100
AcDbLine
 10
146.605026
 20
44.163841
 30
0.0
 11
147.105026
 21
41.328194
 31
0.0
210
0.0
220
0.0
230
1.0
  0
LINE
  5
117
100
AcDbEntity
  8
0
370
    35
390
0
 62
     7
 48
0.071985
100
AcDbLine
 10
150.605133
 20
44.163628
 30
0.0
 11
151.105133
 21
41.32798
 31
0.0
210
0.0
220
0.0
230
1.0
  0
LINE
  5
118
100
AcDbEntity
  8
0
370
    35
390
0
 62
     7
 48
0.071985
100
AcDbLine
 10
148.5896
 20
44.076225
 30
0.0
 11
149.0896
 21
41.24057
 31
0.0
210
0.0
220
0.0
230
1.0
  0
LINE
  5
119
100
AcDbEntity
  8
0
370
    35
390
0
 62
     7
 48
0.071985
100
AcDbLine
 10
144.589615
 20
44.07621
 30
0.0
 11
145.089615
 21
41.240562
 31
0.0
210
0.0
220
0.0
230
1.0
  0
LINE
  5
11A
100
AcDbEntity
  8
0
370
    35
390
0
 62
     7
 48
0.071997
100
AcDbLine
 10
149.604874
 20
44.164444
 30
0.0
 11
149.104797
 21
41.328316
 31
0.0
210
0.0
220
0.0
230
1.0
  0
LINE
  5
11B
100
AcDbEntity
  8
0
370
    35
390
0
 62
     7
 48
0.071991
100
AcDbLine
 10
147.604706
 20
44.164108
 30
0.0
 11
147.10466
 21
41.328217
 31
0.0
210
0.0
220
0.0
230
1.0
  0
LINE
  5
11C
100
AcDbEntity
  8
0
370
    35
390
0
 62
     7
 48
0.072131
100
AcDbLine
 10
155.590683
 20
44.257042
 30
0.0
 11
155.089661
 21
41.415619
 31
0.0
210
0.0
220
0.0
230
1.0
  0
LINE
  5
11D
100
AcDbEntity
  8
0
370
    35
390
0
 62
     7
 48
0.065521
100
AcDbLine
 10
151.589325
 20
44.251343
 30
0.0
 11
151.134216
 21
41.670311
 31
0.0
210
0.0
220
0.0
230
1.0
  0
LINE
  5
11E
100
AcDbEntity
  8
0
370
    35
390
0
 62
     7
 48
0.041268
100
AcDbLine
 10
144.87619
 20
45.701889
 30
0.0
 11
144.589539
 21
44.076241
 31
0.0
210
0.0
220
0.0
230
1.0
  0
LINE
  5
11F
100
AcDbEntity
  8
0
370
    35
390
0
 62
     7
 48
0.071985
100
AcDbLine
 10
144.105087
 20
41.328255
 30
0.0
 11
144.605087
 21
38.492607
 31
0.0
210
0.0
220
0.0
230
1.0
  0
LINE
  5
120
100
AcDbEntity
  8
0
370
    35
390
0
 62
     7
 48
0.071973
100
AcDbLine
 10
146.104813
 20
41.328011
 30
0.0
 11
145.604904
 21
38.492836
 31
0.0
210
0.0
220
0.0
230
1.0
  0
LINE
  5
121
100
AcDbEntity
  8
0
370
    35
390
0
 62
     7
 48
0.071982
100
AcDbLine
 10
146.105026
 20
41.327881
 30
0.0
 11
146.604996
 21
38.492348
 31
0.0
210
0.0
220
0.0
230
1.0
  0
LINE
  5
122
100
AcDbEntity
  8
0
370
    35
390
0
 62
     7
 48
0.071991
100
AcDbLine
 10
148.104752
 20
41.328384
 30
0.0
 11
147.604706
 21
38.492493
 31
0.0
210
0.0
220
0.0
230
1.0
  0
LINE
  5
123
100
AcDbEntity
  8
0
370
    35
390
0
 62
     7
 48
0.071982
100
AcDbLine
 10
148.105072
 20
41.32827
 30
0.0
 11
148.605042
 21
38.492737
 31
0.0
210
0.0
220
0.0
230
1.0
  0
LINE
  5
124
100
AcDbEntity
  8
0
370
    35
390
0
 62
     7
 48
0.071982
100
AcDbLine
 10
150.105194
 20
41.328667
 30
0.0
 11
150.605179
 21
38.493141
 31
0.0
210
0.0
220
0.0
230
1.0
  0
LINE
  5
125
100
AcDbEntity
  8
0
370
    35
390
0
 62
     7
 48
0.071991
100
AcDbLine
 10
152.104843
 20
41.328354
 30
0.0
 11
151.604797
 21
38.492462
 31
0.0
210
0.0
220
0.0
230
1.0
  0
LINE
  5
126
100
AcDbEntity
  8
0
370
    35
390
0
 62
     7
 48
0.071982
100
AcDbLine
 10
152.105042
 20
41.328278
 30
0.0
 11
152.605026
 21
38.492744
 31
0.0
210
0.0
220
0.0
230
1.0
  0
LINE
  5
127
100
AcDbEntity
  8
0
370
    35
390
0
 62
     7
 48
0.071503
100
AcDbLine
 10
144.105011
 20
41.328354
 30
0.0
 11
143.608368
 21
38.511696
 31
0.0
210
0.0
220
0.0
230
1.0
  0
LINE
  5
128
100
AcDbEntity
  8
0
370
    35
390
0
 62
     7
 48
0.071982
100
AcDbLine
 10
154.105133
 20
41.328423
 30
0.0
 11
154.605103
 21
38.492889
 31
0.0
210
0.0
220
0.0
230
1.0
  0
LINE
  5
129
100
AcDbEntity
  8
0
370
    35
390
0
 62
     7
100
AcDbLine
 10
157.104721
 20
39.078438
 30
0.0
 11
195.924164
 21
39.078438
 31
0.0
210
0.0
220
0.0
230
1.0
  0
LINE
  5
12A
100
AcDbEntity
  8
0
370
    35
390
0
 62
     7
100
AcDbLine
 10
157.104721
 20
43.578438
 30
0.0
 11
195.924164
 21
43.578438
 31
0.0
210
0.0
220
0.0
230
1.0
  0
LINE
  5
12B
100
AcDbEntity
  8
0
370
    35
390
0
 62
     7
 48
0.025
100
AcDbLine
 10
108.604782
 20
40.828438
 30
0.0
 11
108.604782
 21
41.828438
 31
0.0
210
0.0
220
0.0
230
1.0
  0
LINE
  5
12C
100
AcDbEntity
  8
0
370
    35
390
0
 62
     7
 48
0.084998
100
AcDbLine
 10
108.604782
 20
40.828438
 30
0.0
 11
112.004684
 21
40.828438
 31
0.0
210
0.0
220
0.0
230
1.0
  0
LINE
  5
12D
100
AcDbEntity
  8
0
370
    35
390
0
 62
     7
 48
0.025
100
AcDbLine
 10
112.004684
 20
40.828438
 30
0.0
 11
112.004684
 21
41.828438
 31
0.0
210
0.0
220
0.0
230
1.0
  0
LINE
  5
12E
100
AcDbEntity
  8
0
370
    35
390
0
 62
     7
 48
0.350892
100
AcDbLine
 10
157.104721
 20
44.828415
 30
0.0
 11
143.104706
 21
45.828415
 31
0.0
210
0.0
220
0.0
230
1.0
  0
LINE
  5
12F
100
AcDbEntity
  8
0
370
    35
390
0
 62
     7
 48
0.070992
100
AcDbLine
 10
149.630463
 20
38.528625
 30
0.0
 11
150.104584
 21
41.328461
 31
0.0
210
0.0
220
0.0
230
1.0
  0
LINE
  5
130
100
AcDbEntity
  8
0
370
    35
390
0
 62
     7
 48
0.016132
100
AcDbLine
 10
153.439667
 20
37.916428
 30
0.0
 11
153.235611
 21
38.52858
 31
0.0
210
0.0
220
0.0
230
1.0
  0
LINE
  5
131
100
AcDbEntity
  8
0
370
    35
390
0
 62
     7
 48
0.061456
100
AcDbLine
 10
153.235733
 20
38.528633
 30
0.0
 11
153.847931
 21
40.909424
 31
0.0
210
0.0
220
0.0
230
1.0
  0
LINE
  5
132
100
AcDbEntity
  8
0
370
    35
390
0
 62
     7
 48
0.021511
100
AcDbLine
 10
156.160797
 20
37.848381
 30
0.0
 11
156.432892
 21
38.66465
 31
0.0
210
0.0
220
0.0
230
1.0
  0
LINE
  5
133
100
AcDbEntity
  8
0
370
    35
390
0
 62
     7
 48
0.071052
100
AcDbLine
 10
155.616562
 20
38.528633
 30
0.0
 11
156.104736
 21
41.328468
 31
0.0
210
0.0
220
0.0
230
1.0
  0
LINE
  5
134
100
AcDbEntity
  8
0
370
    35
390
0
 62
     7
 48
0.084998
100
AcDbLine
 10
108.604782
 20
41.828438
 30
0.0
 11
112.004684
 21
41.828438
 31
0.0
210
0.0
220
0.0
230
1.0
  0
LINE
  5
135
100
AcDbEntity
  8
0
370
    35
390
0
 62
     7
100
AcDbLine
 10
197.641113
 20
43.578438
 30
0.0
 11
262.284332
 21
43.578438
 31
0.0
210
0.0
220
0.0
230
1.0
  0
LINE
  5
136
100
AcDbEntity
  8
0
370
    35
390
0
 62
     7
100
AcDbLine
 10
197.641113
 20
39.078438
 30
0.0
 11
262.284332
 21
39.078438
 31
0.0
210
0.0
220
0.0
230
1.0
  0
LINE
  5
137
100
AcDbEntity
  8
0
370
    35
390
0
 62
     7
 48
0.225003
100
AcDbLine
 10
143.104691
 20
36.828316
 30
0.0
 11
143.104691
 21
45.828438
 31
0.0
210
0.0
220
0.0
230
1.0
  0
LINE
  5
138
100
AcDbEntity
  8
0
370
    35
390
0
 62
     7
100
AcDbLine
 10
262.284241
 20
153.578445
 30
0.0
 11
199.164429
 21
153.578445
 31
0.0
210
0.0
220
0.0
230
1.0
  0
LINE
  5
139
100
AcDbEntity
  8
0
370
    35
390
0
 62
     7
100
AcDbLine
 10
262.284241
 20
149.078445
 30
0.0
 11
199.164429
 21
149.078445
 31
0.0
210
0.0
220
0.0
230
1.0
  0
LINE
  5
13A
100
AcDbEntity
  8
0
370
    35
390
0
 62
     7
 48
0.007501
100
AcDbLine
 10
248.864471
 20
84.328438
 30
0.0
 11
248.564423
 21
84.328438
 31
0.0
210
0.0
220
0.0
230
1.0
  0
LINE
  5
13B
100
AcDbEntity
  8
0
370
    35
390
0
 62
     7
 48
0.007501
100
AcDbLine
 10
248.864471
 20
91.328438
 30
0.0
 11
248.564423
 21
91.328438
 31
0.0
210
0.0
220
0.0
230
1.0
  0
LINE
  5
13C
100
AcDbEntity
  8
0
370
    35
390
0
 62
     7
 48
0.055001
100
AcDbLine
 10
269.264465
 20
86.828438
 30
0.0
 11
267.064423
 21
86.828438
 31
0.0
210
0.0
220
0.0
230
1.0
  0
LINE
  5
13D
100
AcDbEntity
  8
0
370
    35
390
0
 62
     7
 48
0.075
100
AcDbLine
 10
264.064423
 20
91.828438
 30
0.0
 11
261.064423
 21
91.828438
 31
0.0
210
0.0
220
0.0
230
1.0
  0
LINE
  5
13E
100
AcDbEntity
  8
0
370
    35
390
0
 62
     7
 48
0.075
100
AcDbLine
 10
264.064423
 20
83.828438
 30
0.0
 11
261.064423
 21
83.828438
 31
0.0
210
0.0
220
0.0
230
1.0
  0
LINE
  5
13F
100
AcDbEntity
  8
0
370
    35
390
0
 62
     7
 48
0.055001
100
AcDbLine
 10
269.264465
 20
88.828438
 30
0.0
 11
267.064423
 21
88.828438
 31
0.0
210
0.0
220
0.0
230
1.0
  0
LINE
  5
140
100
AcDbEntity
  8
0
370
    35
390
0
 62
     7
 48
0.024953
100
AcDbLine
 10
264.064331
 20
90.328438
 30
0.0
 11
265.062469
 21
90.328438
 31
0.0
210
0.0
220
0.0
230
1.0
  0
LINE
  5
141
100
AcDbEntity
  8
0
370
    35
390
0
 62
     7
 48
0.025
100
AcDbLine
 10
264.064423
 20
85.328438
 30
0.0
 11
265.064423
 21
85.328438
 31
0.0
210
0.0
220
0.0
230
1.0
  0
LINE
  5
142
100
AcDbEntity
  8
0
370
    35
390
0
 62
     7
 48
0.104999
100
AcDbLine
 10
269.264465
 20
90.328438
 30
0.0
 11
273.464417
 21
90.328438
 31
0.0
210
0.0
220
0.0
230
1.0
  0
LINE
  5
143
100
AcDbEntity
  8
0
370
    35
390
0
 62
     7
 48
0.104999
100
AcDbLine
 10
269.264465
 20
85.328438
 30
0.0
 11
273.464417
 21
85.328438
 31
0.0
210
0.0
220
0.0
230
1.0
  0
LINE
  5
144
100
AcDbEntity
  8
0
370
    35
390
0
 62
     7
 48
0.0375
100
AcDbLine
 10
261.764526
 20
124.828438
 30
0.0
 11
261.764526
 21
123.328438
 31
0.0
210
0.0
220
0.0
230
1.0
  0
LINE
  5
145
100
AcDbEntity
  8
0
370
    35
390
0
 62
     7
 48
0.0375
100
AcDbLine
 10
252.564545
 20
123.328438
 30
0.0
 11
252.564545
 21
124.828438
 31
0.0
210
0.0
220
0.0
230
1.0
  0
LINE
  5
146
100
AcDbEntity
  8
0
370
    35
390
0
 62
     7
 48
0.240003
100
AcDbLine
 10
252.364349
 20
134.628433
 30
0.0
 11
261.964478
 21
134.628433
 31
0.0
210
0.0
220
0.0
230
1.0
  0
LINE
  5
147
100
AcDbEntity
  8
0
370
    35
390
0
 62
     7
 48
0.3
100
AcDbLine
 10
111.164429
 20
80.828476
 30
0.0
 11
111.164429
 21
92.828476
 31
0.0
210
0.0
220
0.0
230
1.0
  0
LINE
  5
148
100
AcDbEntity
  8
0
370
    35
390
0
 62
     7
 48
0.0175
100
AcDbLine
 10
111.164429
 20
159.128433
 30
0.0
 11
110.464432
 21
159.128433
 31
0.0
210
0.0
220
0.0
230
1.0
  0
LINE
  5
149
100
AcDbEntity
  8
0
370
    35
390
0
 62
     7
 48
0.0175
100
AcDbLine
 10
111.164429
 20
126.528435
 30
0.0
 11
110.464432
 21
126.528435
 31
0.0
210
0.0
220
0.0
230
1.0
  0
LINE
  5
14A
100
AcDbEntity
  8
0
370
    35
390
0
 62
     7
 48
0.0175
100
AcDbLine
 10
111.164429
 20
92.828476
 30
0.0
 11
110.464432
 21
92.828476
 31
0.0
210
0.0
220
0.0
230
1.0
  0
LINE
  5
14B
100
AcDbEntity
  8
0
370
    35
390
0
 62
     7
 48
0.0175
100
AcDbLine
 10
111.164429
 20
80.828476
 30
0.0
 11
110.464432
 21
80.828476
 31
0.0
210
0.0
220
0.0
230
1.0
  0
LINE
  5
14C
100
AcDbEntity
  8
0
370
    35
390
0
 62
     7
 48
0.155
100
AcDbLine
 10
121.664413
 20
89.92852
 30
0.0
 11
121.664413
 21
83.728516
 31
0.0
210
0.0
220
0.0
230
1.0
  0
LINE
  5
14D
100
AcDbEntity
  8
0
370
    35
390
0
 62
     7
 48
0.155
100
AcDbLine
 10
153.664413
 20
89.92852
 30
0.0
 11
153.664413
 21
83.728516
 31
0.0
210
0.0
220
0.0
230
1.0
  0
LINE
  5
14E
100
AcDbEntity
  8
0
370
    35
390
0
 62
     7
100
AcDbLine
 10
122.664413
 20
90.92852
 30
0.0
 11
152.664413
 21
90.92852
 31
0.0
210
0.0
220
0.0
230
1.0
  0
LINE
  5
14F
100
AcDbEntity
  8
0
370
    35
390
0
 62
     7
100
AcDbLine
 10
122.664413
 20
82.728516
 30
0.0
 11
152.664413
 21
82.728516
 31
0.0
210
0.0
220
0.0
230
1.0
  0
LINE
  5
150
100
AcDbEntity
  8
0
370
    35
390
0
 62
     7
 48
0.125
100
AcDbLine
 10
62.564453
 20
85.328476
 30
0.0
 11
62.564453
 21
90.328476
 31
0.0
210
0.0
220
0.0
230
1.0
  0
LINE
  5
151
100
AcDbEntity
  8
0
370
    35
390
0
 62
     7
 48
0.158752
100
AcDbLine
 10
88.464455
 20
137.653381
 30
0.0
 11
88.464455
 21
144.003479
 31
0.0
210
0.0
220
0.0
230
1.0
  0
LINE
  5
152
100
AcDbEntity
  8
0
370
    35
390
0
 62
     7
 48
0.158752
100
AcDbLine
 10
89.464455
 20
137.653381
 30
0.0
 11
89.464455
 21
144.003479
 31
0.0
210
0.0
220
0.0
230
1.0
  0
LINE
  5
153
100
AcDbEntity
  8
0
370
    35
390
0
 62
     7
 48
0.15
100
AcDbLine
 10
90.664406
 20
137.82843
 30
0.0
 11
90.664406
 21
143.82843
 31
0.0
210
0.0
220
0.0
230
1.0
  0
LINE
  5
154
100
AcDbEntity
  8
0
370
    35
390
0
 62
     7
 48
0.1875
100
AcDbLine
 10
91.040016
 20
137.07843
 30
0.0
 11
91.040016
 21
144.57843
 31
0.0
210
0.0
220
0.0
230
1.0
  0
LINE
  5
155
100
AcDbEntity
  8
0
370
    35
390
0
 62
     7
 48
0.2
100
AcDbLine
 10
93.464455
 20
136.82843
 30
0.0
 11
93.464455
 21
144.82843
 31
0.0
210
0.0
220
0.0
230
1.0
  0
LINE
  5
156
100
AcDbEntity
  8
0
370
    35
390
0
 62
     7
100
AcDbLine
 10
103.464432
 20
131.742493
 30
0.0
 11
103.464432
 21
153.914124
 31
0.0
210
0.0
220
0.0
230
1.0
  0
LINE
  5
157
100
AcDbEntity
  8
0
370
    35
390
0
 62
     7
100
AcDbLine
 10
110.464432
 20
126.32843
 30
0.0
 11
110.464432
 21
159.32843
 31
0.0
210
0.0
220
0.0
230
1.0
  0
LINE
  5
158
100
AcDbEntity
  8
0
370
    35
390
0
 62
     7
100
AcDbLine
 10
111.164429
 20
126.528435
 30
0.0
 11
111.164429
 21
159.128433
 31
0.0
210
0.0
220
0.0
230
1.0
  0
LINE
  5
159
100
AcDbEntity
  8
0
370
    35
390
0
 62
     7
100
AcDbLine
 10
198.464432
 20
127.87545
 30
0.0
 11
198.464432
 21
157.62735
 31
0.0
210
0.0
220
0.0
230
1.0
  0
LINE
  5
15A
100
AcDbEntity
  8
0
370
    35
390
0
 62
     7
 48
0.239999
100
AcDbLine
 10
204.964432
 20
136.028473
 30
0.0
 11
204.964432
 21
145.628418
 31
0.0
210
0.0
220
0.0
230
1.0
  0
LINE
  5
15B
100
AcDbEntity
  8
0
370
    35
390
0
 62
     7
 48
0.239999
100
AcDbLine
 10
247.064423
 20
136.028473
 30
0.0
 11
247.064423
 21
145.628418
 31
0.0
210
0.0
220
0.0
230
1.0
  0
LINE
  5
15C
100
AcDbEntity
  8
0
370
    35
390
0
 62
     7
 48
0.239999
100
AcDbLine
 10
248.564453
 20
136.028473
 30
0.0
 11
248.564453
 21
145.628418
 31
0.0
210
0.0
220
0.0
230
1.0
  0
LINE
  5
15D
100
AcDbEntity
  8
0
370
    35
390
0
 62
     7
 48
0.240002
100
AcDbLine
 10
248.864502
 20
136.028381
 30
0.0
 11
248.864502
 21
145.628479
 31
0.0
210
0.0
220
0.0
230
1.0
  0
LINE
  5
15E
100
AcDbEntity
  8
0
370
    35
390
0
 62
     7
 48
0.240002
100
AcDbLine
 10
261.064453
 20
136.028381
 30
0.0
 11
261.064453
 21
145.628479
 31
0.0
210
0.0
220
0.0
230
1.0
  0
LINE
  5
15F
100
AcDbEntity
  8
0
370
    35
390
0
 62
     7
 48
0.05004
100
AcDbLine
 10
261.064453
 20
90.626869
 30
0.0
 11
261.064453
 21
92.628487
 31
0.0
210
0.0
220
0.0
230
1.0
  0
LINE
  5
160
100
AcDbEntity
  8
0
370
    35
390
0
 62
     7
 48
0.2
100
AcDbLine
 10
264.064453
 20
91.828438
 30
0.0
 11
264.064453
 21
83.828438
 31
0.0
210
0.0
220
0.0
230
1.0
  0
LINE
  5
161
100
AcDbEntity
  8
0
370
    35
390
0
 62
     7
 48
0.200085
100
AcDbLine
 10
265.064453
 20
136.825012
 30
0.0
 11
265.064453
 21
144.82843
 31
0.0
210
0.0
220
0.0
230
1.0
  0
LINE
  5
162
100
AcDbEntity
  8
0
370
    35
390
0
 62
     7
 48
0.200085
100
AcDbLine
 10
267.064453
 20
91.828438
 30
0.0
 11
267.064453
 21
83.82502
 31
0.0
210
0.0
220
0.0
230
1.0
  0
LINE
  5
163
100
AcDbEntity
  8
0
370
    35
390
0
 62
     7
 48
0.125
100
AcDbLine
 10
269.264496
 20
138.32843
 30
0.0
 11
269.264496
 21
143.32843
 31
0.0
210
0.0
220
0.0
230
1.0
  0
LINE
  5
164
100
AcDbEntity
  8
0
370
    35
390
0
 62
     7
 48
0.125
100
AcDbLine
 10
273.464447
 20
138.32843
 30
0.0
 11
273.464447
 21
143.32843
 31
0.0
210
0.0
220
0.0
230
1.0
  0
LINE
  5
165
100
AcDbEntity
  8
0
370
    35
390
0
 62
     7
100
AcDbLine
 10
197.464432
 20
92.428474
 30
0.0
 11
111.164429
 21
92.428474
 31
0.0
210
0.0
220
0.0
230
1.0
  0
LINE
  5
166
100
AcDbEntity
  8
0
370
    35
390
0
 62
     7
100
AcDbLine
 10
196.764435
 20
81.22847
 30
0.0
 11
111.164429
 21
81.22847
 31
0.0
210
0.0
220
0.0
230
1.0
  0
LINE
  5
167
100
AcDbEntity
  8
0
370
    35
390
0
 62
     7
100
AcDbLine
 10
248.564453
 20
92.628471
 30
0.0
 11
198.464432
 21
92.628471
 31
0.0
210
0.0
220
0.0
230
1.0
  0
LINE
  5
168
100
AcDbEntity
  8
0
370
    35
390
0
 62
     7
100
AcDbLine
 10
248.564453
 20
83.028473
 30
0.0
 11
198.464432
 21
83.028473
 31
0.0
210
0.0
220
0.0
230
1.0
  0
LINE
  5
169
100
AcDbEntity
  8
0
370
    35
390
0
 62
     7
 48
0.304999
100
AcDbLine
 10
261.064453
 20
83.028473
 30
0.0
 11
248.864502
 21
83.028473
 31
0.0
210
0.0
220
0.0
230
1.0
  0
LINE
  5
16A
100
AcDbEntity
  8
0
370
    35
390
0
 62
     7
 48
0.304999
100
AcDbLine
 10
261.064453
 20
92.628471
 30
0.0
 11
248.864502
 21
92.628471
 31
0.0
210
0.0
220
0.0
230
1.0
  0
LINE
  5
16B
100
AcDbEntity
  8
0
370
    35
390
0
 62
     7
 48
0.05
100
AcDbLine
 10
267.064453
 20
83.828476
 30
0.0
 11
265.064453
 21
83.828476
 31
0.0
210
0.0
220
0.0
230
1.0
  0
LINE
  5
16C
100
AcDbEntity
  8
0
370
    35
390
0
 62
     7
 48
0.05
100
AcDbLine
 10
267.064453
 20
91.828476
 30
0.0
 11
265.064453
 21
91.828476
 31
0.0
210
0.0
220
0.0
230
1.0
  0
LINE
  5
16D
100
AcDbEntity
  8
0
370
    35
390
0
 62
     7
100
AcDbLine
 10
248.564453
 20
136.028442
 30
0.0
 11
198.464432
 21
136.028442
 31
0.0
210
0.0
220
0.0
230
1.0
  0
LINE
  5
16E
100
AcDbEntity
  8
0
370
    35
390
0
 62
     7
100
AcDbLine
 10
248.564453
 20
145.628433
 30
0.0
 11
198.464432
 21
145.628433
 31
0.0
210
0.0
220
0.0
230
1.0
  0
LINE
  5
16F
100
AcDbEntity
  8
0
370
    35
390
0
 62
     7
 48
0.304999
100
AcDbLine
 10
261.064453
 20
145.628433
 30
0.0
 11
248.864502
 21
145.628433
 31
0.0
210
0.0
220
0.0
230
1.0
  0
LINE
  5
170
100
AcDbEntity
  8
0
370
    35
390
0
 62
     7
 48
0.015002
100
AcDbLine
 10
261.064453
 20
136.028442
 30
0.0
 11
260.464355
 21
136.028442
 31
0.0
210
0.0
220
0.0
230
1.0
  0
LINE
  5
171
100
AcDbEntity
  8
0
370
    35
390
0
 62
     7
 48
0.05
100
AcDbLine
 10
267.064453
 20
136.82843
 30
0.0
 11
265.064453
 21
136.82843
 31
0.0
210
0.0
220
0.0
230
1.0
  0
LINE
  5
172
100
AcDbEntity
  8
0
370
    35
390
0
 62
     7
 48
0.05
100
AcDbLine
 10
267.064453
 20
144.82843
 30
0.0
 11
265.064453
 21
144.82843
 31
0.0
210
0.0
220
0.0
230
1.0
  0
LINE
  5
173
100
AcDbEntity
  8
0
370
    35
390
0
 62
     7
 48
0.125
100
AcDbLine
 10
253.864502
 20
136.028442
 30
0.0
 11
248.864502
 21
136.028442
 31
0.0
210
0.0
220
0.0
230
1.0
  0
LINE
  5
174
100
AcDbEntity
  8
0
370
    35
390
0
 62
     7
 48
0.2075
100
AcDbLine
 10
261.964539
 20
134.628433
 30
0.0
 11
261.964539
 21
126.328438
 31
0.0
210
0.0
220
0.0
230
1.0
  0
LINE
  5
175
100
AcDbEntity
  8
0
370
    35
390
0
 62
     7
 48
0.2075
100
AcDbLine
 10
252.364532
 20
134.628433
 30
0.0
 11
252.364532
 21
126.328438
 31
0.0
210
0.0
220
0.0
230
1.0
  0
ARC
  5
176
100
AcDbEntity
  8
0
370
    35
390
0
 62
     7
100
AcDbCircle
 10
197.317413
 20
127.87545
 30
0.0
 40
1.147011
210
0.0
220
0.0
230
1.0
100
AcDbArc
 50
269.999997
 51
360.0
  0
ARC
  5
177
100
AcDbEntity
  8
0
370
    35
390
0
 62
     7
100
AcDbCircle
 10
197.16333
 20
157.62735
 30
0.0
 40
1.301094
210
0.0
220
0.0
230
1.0
100
AcDbArc
 50
0.0
 51
90.000003
  0
CIRCLE
  5
178
100
AcDbEntity
  8
0
370
    35
390
0
 62
     7
100
AcDbCircle
 10
107.464554
 20
148.32843
 30
0.0
 40
2.1
210
0.0
220
0.0
230
1.0
  0
ARC
  5
179
100
AcDbEntity
  8
0
370
    35
390
0
 62
     7
100
AcDbCircle
 10
104.464432
 20
131.742493
 30
0.0
 40
1.0
210
0.0
220
0.0
230
1.0
100
AcDbArc
 50
179.998284
 51
224.99918
  0
ARC
  5
17A
100
AcDbEntity
  8
0
370
    35
390
0
 62
     7
100
AcDbCircle
 10
108.878677
 20
158.32843
 30
0.0
 40
1.0
210
0.0
220
0.0
230
1.0
100
AcDbArc
 50
90.000385
 51
135.001175
  0
ARC
  5
17B
100
AcDbEntity
  8
0
370
    35
390
0
 62
     7
100
AcDbCircle
 10
108.878586
 20
127.32843
 30
0.0
 40
1.0
210
0.0
220
0.0
230
1.0
100
AcDbArc
 50
225.000054
 51
269.999588
  0
CIRCLE
  5
17C
100
AcDbEntity
  8
0
370
    35
390
0
 62
     7
100
AcDbCircle
 10
107.464554
 20
133.32843
 30
0.0
 40
2.1
210
0.0
220
0.0
230
1.0
  0
ARC
  5
17D
100
AcDbEntity
  8
0
370
    35
390
0
 62
     7
100
AcDbCircle
 10
104.464432
 20
153.914124
 30
0.0
 40
1.0
210
0.0
220
0.0
230
1.0
100
AcDbArc
 50
134.997473
 51
179.995169
  0
ARC
  5
17E
100
AcDbEntity
  8
0
370
    35
390
0
 62
     7
100
AcDbCircle
 10
57.464455
 20
140.82843
 30
0.0
 40
1.5
210
0.0
220
0.0
230
1.0
100
AcDbArc
 50
109.471267
 51
250.528713
  0
ARC
  5
17F
100
AcDbEntity
  8
0
370
    35
390
0
 62
     7
100
AcDbCircle
 10
257.164551
 20
132.542786
 30
0.0
 40
4.800007
210
0.0
220
0.0
230
1.0
100
AcDbArc
 50
46.567834
 51
133.432158
  0
CIRCLE
  5
180
100
AcDbEntity
  8
0
370
    35
390
0
 62
     7
100
AcDbCircle
 10
118.464462
 20
87.828476
 30
0.0
 40
2.05
210
0.0
220
0.0
230
1.0
  0
ARC
  5
181
100
AcDbEntity
  8
0
370
    35
390
0
 62
     7
100
AcDbCircle
 10
117.764465
 20
88.528473
 30
0.0
 40
0.3
210
0.0
220
0.0
230
1.0
100
AcDbArc
 50
270.000025
 51
0.00001
  0
ARC
  5
182
100
AcDbEntity
  8
0
370
    35
390
0
 62
     7
100
AcDbCircle
 10
117.764465
 20
87.128479
 30
0.0
 40
0.3
210
0.0
220
0.0
230
1.0
100
AcDbArc
 50
0.00001
 51
89.999982
  0
ARC
  5
183
100
AcDbEntity
  8
0
370
    35
390
0
 62
     7
100
AcDbCircle
 10
119.164459
 20
87.128479
 30
0.0
 40
0.3
210
0.0
220
0.0
230
1.0
100
AcDbArc
 50
89.999982
 51
180.000022
  0
ARC
  5
184
100
AcDbEntity
  8
0
370
    35
390
0
 62
     7
100
AcDbCircle
 10
119.164459
 20
88.528473
 30
0.0
 40
0.3
210
0.0
220
0.0
230
1.0
100
AcDbArc
 50
179.999978
 51
270.000025
  0
ARC
  5
185
100
AcDbEntity
  8
0
370
    35
390
0
 62
     7
100
AcDbCircle
 10
57.464455
 20
87.828476
 30
0.0
 40
1.5
210
0.0
220
0.0
230
1.0
100
AcDbArc
 50
109.471267
 51
250.528713
  0
ARC
  5
186
100
AcDbEntity
  8
0
370
    35
390
0
 62
     7
100
AcDbCircle
 10
111.66069
 20
46.328438
 30
0.0
 40
0.7
210
0.0
220
0.0
230
1.0
100
AcDbArc
 50
359.999955
 51
179.999964
  0
ARC
  5
187
100
AcDbEntity
  8
0
370
    35
390
0
 62
     7
100
AcDbCircle
 10
111.66069
 20
36.328438
 30
0.0
 40
0.7
210
0.0
220
0.0
230
1.0
100
AcDbArc
 50
180.000036
 51
359.999955
  0
ARC
  5
188
100
AcDbEntity
  8
0
370
    35
390
0
 62
     7
100
AcDbCircle
 10
262.284332
 20
96.328438
 30
0.0
 40
57.25
210
0.0
220
0.0
230
1.0
100
AcDbArc
 50
269.999997
 51
90.000003
  0
ARC
  5
189
100
AcDbEntity
  8
0
370
    35
390
0
 62
     7
100
AcDbCircle
 10
262.284332
 20
96.328438
 30
0.0
 40
52.75
210
0.0
220
0.0
230
1.0
100
AcDbArc
 50
269.999997
 51
90.000003
  0
CIRCLE
  5
18A
100
AcDbEntity
  8
0
370
    35
390
0
 62
     7
100
AcDbCircle
 10
257.16452
 20
87.828476
 30
0.0
 40
2.15
210
0.0
220
0.0
230
1.0
  0
CIRCLE
  5
18B
100
AcDbEntity
  8
0
370
    35
390
0
 62
     7
100
AcDbCircle
 10
257.16452
 20
87.828476
 30
0.0
 40
4.6
210
0.0
220
0.0
230
1.0
  0
ARC
  5
18C
100
AcDbEntity
  8
0
370
    35
390
0
 62
     7
100
AcDbCircle
 10
122.664413
 20
89.92852
 30
0.0
 40
1.0
210
0.0
220
0.0
230
1.0
100
AcDbArc
 50
89.999982
 51
180.000022
  0
ARC
  5
18D
100
AcDbEntity
  8
0
370
    35
390
0
 62
     7
100
AcDbCircle
 10
122.664413
 20
83.728516
 30
0.0
 40
1.0
210
0.0
220
0.0
230
1.0
100
AcDbArc
 50
180.000036
 51
270.000025
  0
ARC
  5
18E
100
AcDbEntity
  8
0
370
    35
390
0
 62
     7
100
AcDbCircle
 10
152.664413
 20
89.92852
 30
0.0
 40
1.0
210
0.0
220
0.0
230
1.0
100
AcDbArc
 50
0.0
 51
89.999982
  0
ARC
  5
18F
100
AcDbEntity
  8
0
370
    35
390
0
 62
     7
100
AcDbCircle
 10
152.664413
 20
83.728516
 30
0.0
 40
1.0
210
0.0
220
0.0
230
1.0
100
AcDbArc
 50
270.000025
 51
360.0
  0
ARC
  5
190
100
AcDbEntity
  8
0
370
    35
390
0
 62
     7
100
AcDbCircle
 10
104.464432
 20
91.828476
 30
0.0
 40
1.0
210
0.0
220
0.0
230
1.0
100
AcDbArc
 50
90.000003
 51
180.000009
  0
ARC
  5
191
100
AcDbEntity
  8
0
370
    35
390
0
 62
     7
100
AcDbCircle
 10
104.464432
 20
81.828476
 30
0.0
 40
1.0
210
0.0
220
0.0
230
1.0
100
AcDbArc
 50
180.000009
 51
269.999997
  0
ARC
  5
192
100
AcDbEntity
  8
0
370
    35
390
0
 62
     7
100
AcDbCircle
 10
197.464432
 20
91.428474
 30
0.0
 40
1.0
210
0.0
220
0.0
230
1.0
100
AcDbArc
 50
0.0
 51
90.000003
  0
ARC
  5
193
100
AcDbEntity
  8
0
370
    35
390
0
 62
     7
100
AcDbCircle
 10
196.764435
 20
82.928467
 30
0.0
 40
1.7
210
0.0
220
0.0
230
1.0
100
AcDbArc
 50
269.999997
 51
360.0
  0
CIRCLE
  5
194
100
AcDbEntity
  8
0
370
    35
390
0
 62
     7
100
AcDbCircle
 10
257.164551
 20
87.828476
 30
0.0
 40
4.8
210
0.0
220
0.0
230
1.0
  0
ARC
  5
195
100
AcDbEntity
  8
0
370
    35
390
0
 62
     7
100
AcDbCircle
 10
118.450409
 20
146.086517
 30
0.0
 40
14.242279
210
0.0
220
0.0
230
1.0
100
AcDbArc
 50
81.667076
 51
87.183021
  0
ARC
  5
196
100
AcDbEntity
  8
0
370
    35
390
0
 62
     7
100
AcDbCircle
 10
118.464462
 20
146.360138
 30
0.0
 40
13.968299
210
0.0
220
0.0
230
1.0
100
AcDbArc
 50
87.185459
 51
92.81389
  0
ARC
  5
197
100
AcDbEntity
  8
0
370
    35
390
0
 62
     7
100
AcDbCircle
 10
118.478516
 20
146.086533
 30
0.0
 40
14.242276
210
0.0
220
0.0
230
1.0
100
AcDbArc
 50
92.816342
 51
98.332922
  0
ARC
  5
198
100
AcDbEntity
  8
0
370
    35
390
0
 62
     7
100
AcDbCircle
 10
118.478516
 20
139.569855
 30
0.0
 40
14.242279
210
0.0
220
0.0
230
1.0
100
AcDbArc
 50
261.667085
 51
267.183009
  0
ARC
  5
199
100
AcDbEntity
  8
0
370
    35
390
0
 62
     7
100
AcDbCircle
 10
118.464462
 20
139.296234
 30
0.0
 40
13.968299
210
0.0
220
0.0
230
1.0
100
AcDbArc
 50
267.18544
 51
272.813899
  0
ARC
  5
19A
100
AcDbEntity
  8
0
370
    35
390
0
 62
     7
100
AcDbCircle
 10
118.450409
 20
139.569855
 30
0.0
 40
14.242276
210
0.0
220
0.0
230
1.0
100
AcDbArc
 50
272.81633
 51
278.33291
  0
ARC
  5
19B
100
AcDbEntity
  8
0
370
    35
390
0
 62
     7
100
AcDbCircle
 10
199.207443
 20
42.151222
 30
0.0
 40
2.119038
210
0.0
220
0.0
230
1.0
100
AcDbArc
 50
137.660455
 51
160.325823
  0
ARC
  5
19C
100
AcDbEntity
  8
0
370
    35
390
0
 62
     7
100
AcDbCircle
 10
198.367538
 20
42.453438
 30
0.0
 40
1.226421
210
0.0
220
0.0
230
1.0
100
AcDbArc
 50
160.410257
 51
199.589483
  0
ARC
  5
19D
100
AcDbEntity
  8
0
370
    35
390
0
 62
     7
100
AcDbCircle
 10
199.207413
 20
42.755646
 30
0.0
 40
2.119003
210
0.0
220
0.0
230
1.0
100
AcDbArc
 50
199.673822
 51
222.339723
  0
ARC
  5
19E
100
AcDbEntity
  8
0
370
    35
390
0
 62
     7
100
AcDbCircle
 10
196.038681
 20
42.127396
 30
0.0
 40
2.161796
210
0.0
220
0.0
230
1.0
100
AcDbArc
 50
20.015813
 51
42.161528
  0
ARC
  5
19F
100
AcDbEntity
  8
0
370
    35
390
0
 62
     7
100
AcDbCircle
 10
197.029343
 20
42.475235
 30
0.0
 40
1.111975
210
0.0
220
0.0
230
1.0
100
AcDbArc
 50
337.556034
 51
20.647151
  0
ARC
  5
1A0
100
AcDbEntity
  8
0
370
    35
390
0
 62
     7
100
AcDbCircle
 10
194.580261
 20
43.572189
 30
0.0
 40
3.795167
210
0.0
220
0.0
230
1.0
100
AcDbArc
 50
323.757005
 51
336.365616
  0
ARC
  5
1A1
100
AcDbEntity
  8
0
370
    35
390
0
 62
     7
100
AcDbCircle
 10
200.698059
 20
39.087173
 30
0.0
 40
3.790534
210
0.0
220
0.0
230
1.0
100
AcDbArc
 50
143.752082
 51
156.389311
  0
ARC
  5
1A2
100
AcDbEntity
  8
0
370
    35
390
0
 62
     7
100
AcDbCircle
 10
198.252838
 20
40.181602
 30
0.0
 40
1.111917
210
0.0
220
0.0
230
1.0
100
AcDbArc
 50
157.597941
 51
200.66241
  0
ARC
  5
1A3
100
AcDbEntity
  8
0
370
    35
390
0
 62
     7
100
AcDbCircle
 10
199.243729
 20
40.52961
 30
0.0
 40
2.162007
210
0.0
220
0.0
230
1.0
100
AcDbArc
 50
200.025713
 51
222.160895
  0
ARC
  5
1A4
100
AcDbEntity
  8
0
370
    35
390
0
 62
     7
100
AcDbCircle
 10
194.357849
 20
40.505661
 30
0.0
 40
2.119038
210
0.0
220
0.0
230
1.0
100
AcDbArc
 50
317.66046
 51
340.325814
  0
ARC
  5
1A5
100
AcDbEntity
  8
0
370
    35
390
0
 62
     7
100
AcDbCircle
 10
195.197754
 20
40.203438
 30
0.0
 40
1.226421
210
0.0
220
0.0
230
1.0
100
AcDbArc
 50
340.410263
 51
19.589479
  0
ARC
  5
1A6
100
AcDbEntity
  8
0
370
    35
390
0
 62
     7
100
AcDbCircle
 10
194.35788
 20
39.901237
 30
0.0
 40
2.119003
210
0.0
220
0.0
230
1.0
100
AcDbArc
 50
19.67382
 51
42.339721
  0
ARC
  5
1A7
100
AcDbEntity
  8
0
370
    35
390
0
 62
     7
100
AcDbCircle
 10
197.526611
 20
40.529488
 30
0.0
 40
2.161796
210
0.0
220
0.0
230
1.0
100
AcDbArc
 50
200.015823
 51
222.161537
  0
ARC
  5
1A8
100
AcDbEntity
  8
0
370
    35
390
0
 62
     7
100
AcDbCircle
 10
196.53595
 20
40.181648
 30
0.0
 40
1.111975
210
0.0
220
0.0
230
1.0
100
AcDbArc
 50
157.556044
 51
200.647151
  0
ARC
  5
1A9
100
AcDbEntity
  8
0
370
    35
390
0
 62
     7
100
AcDbCircle
 10
198.985031
 20
39.084694
 30
0.0
 40
3.795167
210
0.0
220
0.0
230
1.0
100
AcDbArc
 50
143.757
 51
156.365597
  0
ARC
  5
1AA
100
AcDbEntity
  8
0
370
    35
390
0
 62
     7
100
AcDbCircle
 10
192.867233
 20
43.56971
 30
0.0
 40
3.790534
210
0.0
220
0.0
230
1.0
100
AcDbArc
 50
323.752087
 51
336.389303
  0
ARC
  5
1AB
100
AcDbEntity
  8
0
370
    35
390
0
 62
     7
100
AcDbCircle
 10
195.312454
 20
42.475281
 30
0.0
 40
1.111917
210
0.0
220
0.0
230
1.0
100
AcDbArc
 50
337.597946
 51
20.662401
  0
ARC
  5
1AC
100
AcDbEntity
  8
0
370
    35
390
0
 62
     7
100
AcDbCircle
 10
194.321564
 20
42.127266
 30
0.0
 40
2.162007
210
0.0
220
0.0
230
1.0
100
AcDbArc
 50
20.025712
 51
42.160886
  0
ENDSEC
  0
SECTION
  2
OBJECTS
  0
DICTIONARY
  5
19
100
AcDbDictionary
280
     0
281
     1
  3
ACAD_GROUP
350
1A
  3
ACAD_MLINESTYLE
350
1B
  3
ACAD_LAYOUT
350
1E
  3
ACAD_PLOTSETTINGS
350
22
  3
ACAD_PLOTSTYLENAME
350
1F
  3
ACAD_WIPEOUT_VARS
350
23
  0
DICTIONARY
  5
1A
102
{ACAD_REACTORS
330
19
102
}
100
AcDbDictionary
280
     0
281
     1
  0
DICTIONARY
  5
1B
102
{ACAD_REACTORS
330
19
102
}
100
AcDbDictionary
280
     0
281
     1
  3
Standard
350
1C
  0
MLINESTYLE
  5
1C
102
{ACAD_REACTORS
330
1B
102
}
100
AcDbMlineStyle
  2
Standard
 70
     0
  3

 62
     0
 51
90.0
 52
90.0
 71
     2
 49
0.5
 62
   256
  6
ByLayer
 49
-0.5
 62
   256
  6
ByLayer
  0
ACDBDICTIONARYWDFLT
  5
1F
102
{ACAD_REACTORS
330
19
102
}
100
AcDbDictionary
281
     1
  3
Normal
350
1D
100
AcDbDictionaryWithDefault
340
1D
  0
ACDBPLACEHOLDER
  5
1D
102
{ACAD_REACTORS
330
1F
102
}
  0
LAYOUT
  5
20
102
{ACAD_REACTORS
330
1E
102
}
100
AcDbPlotSettings
  1

  2

  4

  6

 40
0.0
 41
0.0
 42
0.0
 43
0.0
 44
0.0
 45
0.0
 46
0.0
 47
0.0
 48
0.0
 49
0.0
140
0.0
141
0.0
142
1.0
143
1.0
 70
  1024
 72
     0
 73
     0
 74
     0
  7

 75
     0
147
1.0
148
0.0
149
0.0
100
AcDbLayout
  1
Model
 70
     0
 71
     0
 10
0.0
 20
0.0
 11
0.0
 21
0.0
 12
0.0
 22
0.0
 32
0.0
 14
0.0
 24
0.0
 34
0.0
 15
0.0
 25
0.0
 35
0.0
146
0.0
 13
0.0
 23
0.0
 33
0.0
 16
0.0
 26
0.0
 36
0.0
 17
0.0
 27
0.0
 37
0.0
 76
     0
330
A
331
0
345
0
346
0
  0
LAYOUT
  5
21
102
{ACAD_REACTORS
330
1E
102
}
100
AcDbPlotSettings
  1

  2

  4

  6

 40
0.0
 41
0.0
 42
0.0
 43
0.0
 44
0.0
 45
0.0
 46
0.0
 47
0.0
 48
0.0
 49
0.0
140
0.0
141
0.0
142
1.0
143
1.0
 70
     0
 72
     0
 73
     0
 74
     0
  7

 75
     0
147
1.0
148
0.0
149
0.0
100
AcDbLayout
  1
Layout1
 70
     0
 71
     0
 10
0.0
 20
0.0
 11
0.0
 21
0.0
 12
0.0
 22
0.0
 32
0.0
 14
0.0
 24
0.0
 34
0.0
 15
0.0
 25
0.0
 35
0.0
146
0.0
 13
0.0
 23
0.0
 33
0.0
 16
0.0
 26
0.0
 36
0.0
 17
0.0
 27
0.0
 37
0.0
 76
     0
330
B
331
0
345
0
346
0
  0
DICTIONARY
  5
1E
102
{ACAD_REACTORS
330
19
102
}
100
AcDbDictionary
280
     0
281
     1
  3
Layout1
350
21
  3
Model
350
20
  0
DICTIONARY
  5
22
102
{ACAD_REACTORS
330
19
102
}
100
AcDbDictionary
280
     0
281
     1
  0
WIPEOUTVARIABLES
  5
23
100
AcDbWipeoutVariables
 70
     1
  0
ENDSEC
  0
EOF
