  0
SECTION
  2
HEADER
  9
$ACADVER
  1
AC1015
  9
$ACADMAINTVER
 70
     6
  9
$DWGCODEPAGE
  3
ANSI_1252
  9
$INSBASE
 10
0.0
 20
0.0
 30
0.0
  9
$EXTMIN
 10
0.0
 20
0.0
 30
0.0
  9
$EXTMAX
 10
207.25
 20
90.743149
 30
2.0
  9
$LIMMIN
 10
0.0
 20
0.0
  9
$LIMMAX
 10
420.0
 20
297.0
  9
$ORTHOMODE
 70
     0
  9
$REGENMODE
 70
     1
  9
$FILLMODE
 70
     1
  9
$QTEXTMODE
 70
     0
  9
$MIRRTEXT
 70
     1
  9
$LTSCALE
 40
1.0
  9
$ATTMODE
 70
     1
  9
$TEXTSIZE
 40
2.5
  9
$TRACEWID
 40
1.0
  9
$TEXTSTYLE
  7
Standard
  9
$CLAYER
  8
0
  9
$CELTYPE
  6
ByLayer
  9
$CECOLOR
 62
   256
  9
$CELTSCALE
 40
1.0
  9
$DISPSILH
 70
     0
  9
$DIMSCALE
 40
1.0
  9
$DIMASZ
 40
2.5
  9
$DIMEXO
 40
0.625
  9
$DIMDLI
 40
3.75
  9
$DIMRND
 40
0.0
  9
$DIMDLE
 40
0.0
  9
$DIMEXE
 40
1.25
  9
$DIMTP
 40
0.0
  9
$DIMTM
 40
0.0
  9
$DIMTXT
 40
2.5
  9
$DIMCEN
 40
2.5
  9
$DIMTSZ
 40
0.0
  9
$DIMTOL
 70
     0
  9
$DIMLIM
 70
     0
  9
$DIMTIH
 70
     0
  9
$DIMTOH
 70
     0
  9
$DIMSE1
 70
     0
  9
$DIMSE2
 70
     0
  9
$DIMTAD
 70
     1
  9
$DIMZIN
 70
     8
  9
$DIMBLK
  1

  9
$DIMASO
 70
     1
  9
$DIMSHO
 70
     1
  9
$DIMPOST
  1

  9
$DIMAPOST
  1

  9
$DIMALT
 70
     0
  9
$DIMALTD
 70
     3
  9
$DIMALTF
 40
0.03937
  9
$DIMLFAC
 40
1.0
  9
$DIMTOFL
 70
     1
  9
$DIMTVP
 40
0.0
  9
$DIMTIX
 70
     0
  9
$DIMSOXD
 70
     0
  9
$DIMSAH
 70
     0
  9
$DIMBLK1
  1

  9
$DIMBLK2
  1

  9
$DIMSTYLE
  2

  9
$DIMCLRD
 70
     0
  9
$DIMCLRE
 70
     0
  9
$DIMCLRT
 70
     0
  9
$DIMTFAC
 40
1.0
  9
$DIMGAP
 40
0.625
  9
$DIMJUST
 70
     0
  9
$DIMSD1
 70
     0
  9
$DIMSD2
 70
     0
  9
$DIMTOLJ
 70
     0
  9
$DIMTZIN
 70
     8
  9
$DIMALTZ
 70
     0
  9
$DIMALTTZ
 70
     0
  9
$DIMUPT
 70
     0
  9
$DIMDEC
 70
     2
  9
$DIMTDEC
 70
     2
  9
$DIMALTU
 70
     2
  9
$DIMALTTD
 70
     3
  9
$DIMTXSTY
  7
Standard
  9
$DIMAUNIT
 70
     0
  9
$DIMADEC
 70
     0
  9
$DIMALTRND
 40
0.0
  9
$DIMAZIN
 70
     0
  9
$DIMDSEP
 70
    44
  9
$DIMATFIT
 70
     0
  9
$DIMFRAC
 70
     0
  9
$DIMLDRBLK
  1

  9
$DIMLUNIT
 70
     2
  9
$DIMLWD
 70
    -2
  9
$DIMLWE
 70
    -2
  9
$DIMTMOVE
 70
     0
  9
$LUNITS
 70
     2
  9
$LUPREC
 70
     4
  9
$SKETCHINC
 40
1.0
  9
$FILLETRAD
 40
2.5
  9
$AUNITS
 70
     0
  9
$AUPREC
 70
     0
  9
$MENU
  1
.
  9
$ELEVATION
 40
0.0
  9
$PELEVATION
 40
0.0
  9
$THICKNESS
 40
0.0
  9
$LIMCHECK
 70
     0
  9
$CHAMFERA
 40
2.5
  9
$CHAMFERB
 40
2.5
  9
$CHAMFERC
 40
0.0
  9
$CHAMFERD
 40
0.0
  9
$SKPOLY
 70
     0
  9
$TDCREATE
 40
0.000000000
  9
$TDUCREATE
 40
0.000000000
  9
$TDUPDATE
 40
0.000000000
  9
$TDUUPDATE
 40
0.000000000
  9
$TDINDWG
 40
0.0000000000
  9
$TDUSRTIMER
 40
0.0000000000
  9
$USRTIMER
 70
     1
  9
$ANGBASE
 50
0.0
  9
$ANGDIR
 70
     0
  9
$PDMODE
 70
     0
  9
$PDSIZE
 40
0.0
  9
$PLINEWID
 40
0.0
  9
$SPLFRAME
 70
     0
  9
$SPLINETYPE
 70
     6
  9
$SPLINESEGS
 70
     8
  9
$HANDSEED
  5
577
  9
$SURFTAB1
 70
     6
  9
$SURFTAB2
 70
     6
  9
$SURFTYPE
 70
     6
  9
$SURFU
 70
     6
  9
$SURFV
 70
     6
  9
$UCSBASE
  2

  9
$UCSNAME
  2

  9
$UCSORG
 10
0.0
 20
0.0
 30
0.0
  9
$UCSXDIR
 10
1.0
 20
0.0
 30
0.0
  9
$UCSYDIR
 10
0.0
 20
1.0
 30
0.0
  9
$UCSORTHOREF
  2

  9
$UCSORTHOVIEW
 70
     1
  9
$UCSORGTOP
 10
0.0
 20
0.0
 30
0.0
  9
$UCSORGBOTTOM
 10
0.0
 20
0.0
 30
0.0
  9
$UCSORGLEFT
 10
0.0
 20
0.0
 30
0.0
  9
$UCSORGRIGHT
 10
0.0
 20
0.0
 30
0.0
  9
$UCSORGFRONT
 10
0.0
 20
0.0
 30
0.0
  9
$UCSORGBACK
 10
0.0
 20
0.0
 30
0.0
  9
$PUCSBASE
  2

  9
$PUCSNAME
  2

  9
$PUCSORG
 10
0.0
 20
0.0
 30
0.0
  9
$PUCSXDIR
 10
1.0
 20
0.0
 30
0.0
  9
$PUCSYDIR
 10
0.0
 20
1.0
 30
0.0
  9
$PUCSORTHOREF
  2

  9
$PUCSORTHOVIEW
 70
     0
  9
$PUCSORGTOP
 10
0.0
 20
0.0
 30
0.0
  9
$PUCSORGBOTTOM
 10
0.0
 20
0.0
 30
0.0
  9
$PUCSORGLEFT
 10
0.0
 20
0.0
 30
0.0
  9
$PUCSORGRIGHT
 10
0.0
 20
0.0
 30
0.0
  9
$PUCSORGFRONT
 10
0.0
 20
0.0
 30
0.0
  9
$PUCSORGBACK
 10
0.0
 20
0.0
 30
0.0
  9
$USERI1
 70
     0
  9
$USERI2
 70
     0
  9
$USERI3
 70
     0
  9
$USERI4
 70
     0
  9
$USERI5
 70
     0
  9
$USERR1
 40
0.0
  9
$USERR2
 40
0.0
  9
$USERR3
 40
0.0
  9
$USERR4
 40
0.0
  9
$USERR5
 40
0.0
  9
$WORLDVIEW
 70
     1
  9
$SHADEDGE
 70
     3
  9
$SHADEDIF
 70
    70
  9
$TILEMODE
 70
     1
  9
$MAXACTVP
 70
    48
  9
$PINSBASE
 10
0.0
 20
0.0
 30
0.0
  9
$PLIMCHECK
 70
     0
  9
$PEXTMIN
 10
0.0
 20
0.0
 30
0.0
  9
$PEXTMAX
 10
207.25
 20
90.743149
 30
2.0
  9
$PLIMMIN
 10
0.0
 20
0.0
  9
$PLIMMAX
 10
420.0
 20
297.0
  9
$UNITMODE
 70
     0
  9
$VISRETAIN
 70
     0
  9
$PLINEGEN
 70
     0
  9
$PSLTSCALE
 70
     1
  9
$TREEDEPTH
 70
  3020
  9
$CMLSTYLE
  2
Standard
  9
$CMLJUST
 70
     0
  9
$CMLSCALE
 40
20.0
  9
$PROXYGRAPHICS
 70
     1
  9
$MEASUREMENT
 70
     1
  9
$CELWEIGHT
370
    -1
  9
$ENDCAPS
280
     0
  9
$JOINSTYLE
280
     0
  9
$LWDISPLAY
290
     0
  9
$INSUNITS
 70
     0
  9
$HYPERLINKBASE
  1

  9
$STYLESHEET
  1

  9
$XEDIT
290
     1
  9
$CEPSNTYPE
380
     0
  9
$PSTYLEMODE
290
     0
  9
$FINGERPRINTGUID
  2

  9
$VERSIONGUID
  2

  9
$EXTNAMES
290
     0
  9
$PSVPSCALE
 40
0.0
  0
ENDSEC
  0
SECTION
  2
CLASSES
  0
CLASS
  1
LWPOLYLINE
  2
AcDbPolyline
  3
AutoCAD 2000
 90
        0
280
     0
281
     1
  0
CLASS
  1
IMAGE
  2
AcDbRasterImage
  3
ISM
 90
      127
280
     0
281
     1
  0
CLASS
  1
OLE2FRAME
  2
AcDbOle2Frame
  3
AutoCAD 2000
 90
        0
280
     0
281
     1
  0
CLASS
  1
HATCH
  2
AcDbHatch
  3
AutoCAD 2000
 90
        0
280
     0
281
     1
  0
CLASS
  1
DICTIONARYVAR
  2
AcDbDictionaryVar
  3
AutoCAD 2000
 90
        0
280
     0
281
     0
  0
CLASS
  1
RASTERVARIABLES
  2
AcDbRasterVariables
  3
ISM
 90
        0
280
     0
281
     0
  0
CLASS
  1
IMAGEDEF
  2
AcDbRasterImageDef
  3
ISM
 90
        0
280
     0
281
     0
  0
CLASS
  1
IMAGEDEF_REACTOR
  2
AcDbRasterImageDefReactor
  3
ISM
 90
        1
280
     0
281
     0
  0
CLASS
  1
IDBUFFER
  2
AcDbIdBuffer
  3
AutoCAD 2000
 90
        0
280
     0
281
     0
  0
CLASS
  1
SPATIAL_FILTER
  2
AcDbSpatialFilter
  3
AutoCAD 2000
 90
        0
280
     0
281
     0
  0
CLASS
  1
XRECORD
  2
AcDbXrecord
  3
AutoCAD 2000
 90
        0
280
     0
281
     0
  0
CLASS
  1
SORTENTSTABLE
  2
AcDbSortentsTable
  3
AutoCAD 2000
 90
        0
280
     0
281
     0
  0
CLASS
  1
LAYER_INDEX
  2
AcDbLayerIndex
  3
AutoCAD 2000
 90
        0
280
     0
281
     0
  0
CLASS
  1
SPATIAL_INDEX
  2
AcDbSpatialIndex
  3
AutoCAD 2000
 90
        0
280
     0
281
     0
  0
CLASS
  1
OBJECT_PTR
  2
CAseDLPNTableRecord
  3
"ASE-LPNTableRecord"
 90
        1
280
     0
281
     0
  0
CLASS
  1
LAYOUT
  2
AcDbLayout
  3
AutoCAD 2000
 90
        0
280
     0
281
     0
  0
CLASS
  1
PLOTSETTINGS
  2
AcDbPlotSettings
  3
AutoCAD 2000
 90
        0
280
     0
281
     0
  0
CLASS
  1
ACDBDICTIONARYWDFLT
  2
AcDbDictionaryWithDefault
  3
AutoCAD 2000
 90
        0
280
     0
281
     0
  0
CLASS
  1
ACDBPLACEHOLDER
  2
AcDbPlaceHolder
  3
AutoCAD 2000
 90
        0
280
     0
281
     0
  0
CLASS
  1
VBA_PROJECT
  2
AcDbVbaProject
  3
acadvba
 90
        0
280
     0
281
     0
  0
CLASS
  1
WIPEOUT
  2
AcDbWipeout
  3
WipeOut|AutoCAD Express Tool|expresstools@autodesk.com
 90
      127
280
     0
281
     1
  0
CLASS
  1
WIPEOUTVARIABLES
  2
AcDbWipeoutVariables
  3
WipeOut|AutoCAD Express Tool|expresstools@autodesk.com
 90
        0
280
     0
281
     0
  0
CLASS
  1
RTEXT
  2
RText
  3
RText|AutoCAD Express Tool|expresstools@autodesk.com
 90
        0
280
     0
281
     1
  0
CLASS
  1
ARCALIGNEDTEXT
  2
AcDbArcAlignedText
  3
ATEXT|AutoCAD Express Tool|expresstools@autodesk.com
 90
        0
280
     0
281
     1
  0
ENDSEC
  0
SECTION
  2
TABLES
  0
TABLE
  2
VPORT
  5
7
100
AcDbSymbolTable
 70
     1
  0
VPORT
  5
15
100
AcDbSymbolTableRecord
100
AcDbViewportTableRecord
  2
*ACTIVE
 70
     0
 10
0.0
 20
0.0
 11
1.0
 21
1.0
 12
6.591288
 22
4.579184
 13
0.0
 23
0.0
 14
1.0
 24
1.0
 15
0.0
 25
0.0
 16
0.0
 26
0.0
 36
1.0
 17
0.0
 27
0.0
 37
0.0
 40
9.158369
 41
0.688564
 42
50.0
 43
0.0
 44
0.0
 50
0.0
 51
0.0
 71
     0
 72
   100
 73
     1
 74
     1
 75
     0
 76
     0
 77
     0
 78
     0
281
     0
 65
     0
110
0.0
120
0.0
130
0.0
111
1.0
121
0.0
131
0.0
112
0.0
122
1.0
132
0.0
345
0
346
0
 79
     0
146
0.0
  0
ENDTAB
  0
TABLE
  2
LTYPE
  5
4
100
AcDbSymbolTable
 70
     3
  0
LTYPE
  5
11
100
AcDbSymbolTableRecord
100
AcDbLinetypeTableRecord
  2
ByBlock
 70
    64
  3

 72
    65
 73
     0
 40
0.0
  0
LTYPE
  5
12
100
AcDbSymbolTableRecord
100
AcDbLinetypeTableRecord
  2
ByLayer
 70
    64
  3

 72
    65
 73
     0
 40
0.0
  0
LTYPE
  5
13
100
AcDbSymbolTableRecord
100
AcDbLinetypeTableRecord
  2
Continuous
 70
    64
  3
Solid line
 72
    65
 73
     0
 40
0.0
  0
ENDTAB
  0
TABLE
  2
LAYER
  5
2
100
AcDbSymbolTable
 70
     1
  0
LAYER
  5
14
100
AcDbSymbolTableRecord
100
AcDbLayerTableRecord
  2
0
 70
     0
 62
     7
  6
Continuous
290
     1
370
    -3
390
1D
  0
ENDTAB
  0
TABLE
  2
STYLE
  5
3
100
AcDbSymbolTable
 70
     1
  0
STYLE
  5
17
100
AcDbSymbolTableRecord
100
AcDbTextStyleTableRecord
  2
Standard
 70
     0
 40
0.0
 41
1.0
 50
0.0
 71
     0
 42
0.0
  3
txt
  4

  0
ENDTAB
  0
TABLE
  2
VIEW
  5
5
100
AcDbSymbolTable
 70
     0
  0
ENDTAB
  0
TABLE
  2
UCS
  5
6
100
AcDbSymbolTable
 70
     0
  0
ENDTAB
  0
TABLE
  2
APPID
  5
8
100
AcDbSymbolTable
 70
     1
  0
APPID
  5
16
100
AcDbSymbolTableRecord
100
AcDbRegAppTableRecord
  2
ACAD
 70
     0
  0
ENDTAB
  0
TABLE
  2
DIMSTYLE
  5
9
100
AcDbSymbolTable
 70
     1
100
AcDbDimStyleTable
 71
     0
  0
DIMSTYLE
105
18
100
AcDbSymbolTableRecord
100
AcDbDimStyleTableRecord
  2
Standard
 70
     0
  3

  4

 40
1.0
 41
0.18
 42
0.0625
 43
0.38
 44
0.18
 45
0.0
 46
0.0
 47
0.0
 48
0.0
 71
     0
 72
     0
 73
     1
 74
     1
 75
     0
 76
     0
 77
     0
 78
     0
 79
     0
140
0.18
141
0.09
142
0.0
143
25.4
144
1.0
145
0.0
146
1.0
147
0.09
148
0.0
170
     0
171
     2
172
     0
173
     0
174
     0
175
     0
176
     0
177
     0
178
     0
179
     0
271
     4
272
     4
273
     2
274
     2
275
     0
276
     0
277
     2
278
    46
279
     0
280
     0
281
     0
282
     0
283
     1
284
     0
285
     0
286
     0
288
     0
289
     3
340
17
341
0
342
0
343
0
344
0
371
    -2
372
    -2
  0
ENDTAB
  0
TABLE
  2
BLOCK_RECORD
  5
1
100
AcDbSymbolTable
 70
     0
  0
BLOCK_RECORD
  5
A
100
AcDbSymbolTableRecord
100
AcDbBlockTableRecord
  2
*MODEL_SPACE
340
20
  0
BLOCK_RECORD
  5
B
100
AcDbSymbolTableRecord
100
AcDbBlockTableRecord
  2
*PAPER_SPACE
340
21
  0
ENDTAB
  0
ENDSEC
  0
SECTION
  2
BLOCKS
  0
BLOCK
  5
D
100
AcDbEntity
  8
0
390
0
100
AcDbBlockBegin
  2
*MODEL_SPACE
 70
     0
 10
0.0
 20
0.0
 30
0.0
  3
*MODEL_SPACE
  1

  0
ENDBLK
  5
E
100
AcDbEntity
  8
0
390
0
100
AcDbBlockEnd
  0
BLOCK
  5
F
100
AcDbEntity
 67
     1
  8
0
390
0
100
AcDbBlockBegin
  2
*PAPER_SPACE
 70
     0
 10
0.0
 20
0.0
 30
0.0
  3
*PAPER_SPACE
  1

  0
ENDBLK
  5
10
100
AcDbEntity
 67
     1
  8
0
390
0
100
AcDbBlockEnd
  0
ENDSEC
  0
SECTION
  2
ENTITIES
  0
VIEWPORT
  5
576
100
AcDbEntity
 67
     1
  8
0
370
     0
390
0
 62
     0
 48
0.0
100
AcDbViewport
 10
0.0
 20
0.0
 30
0.0
 40
1000.0
 41
1000.0
 68
     1
 69
     1
 12
0.0
 22
0.0
 13
0.0
 23
0.0
 14
1.0
 24
1.0
 15
1.0
 25
1.0
 16
0.0
 26
0.0
 36
1.0
 17
0.0
 27
0.0
 37
0.0
 42
50.0
 43
0.0
 44
0.0
 45
1000.0
 50
0.0
 51
0.0
 72
   100
 90
        0
340
0
  1

281
     0
 71
     0
 74
     1
110
0.0
120
0.0
130
0.0
111
1.0
121
0.0
131
0.0
112
0.0
122
1.0
132
0.0
345
0
346
0
 79
     0
146
0.0
  0
LINE
  5
24
100
AcDbEntity
  8
0
370
    35
390
0
 62
     7
 48
0.29
100
AcDbLine
 10
185.649994
 20
68.643143
 30
0.0
 11
197.25
 21
68.643143
 31
0.0
210
0.0
220
0.0
230
1.0
  0
ARC
  5
25
100
AcDbEntity
  8
0
370
    35
390
0
 62
     7
100
AcDbCircle
 10
185.950012
 20
84.243149
 30
0.0
 40
0.3
210
0.0
220
0.0
230
1.0
100
AcDbArc
 50
180.000009
 51
269.999997
  0
LINE
  5
26
100
AcDbEntity
  8
0
370
    35
390
0
 62
     7
 48
0.00558
100
AcDbLine
 10
206.673187
 20
83.943146
 30
0.0
 11
206.449982
 21
83.943146
 31
0.0
210
0.0
220
0.0
230
1.0
  0
LINE
  5
27
100
AcDbEntity
  8
0
370
    35
390
0
 62
     7
 48
0.16975
100
AcDbLine
 10
206.960022
 20
90.733139
 30
0.0
 11
206.959991
 21
83.943146
 31
0.0
210
0.0
220
0.0
230
1.0
  0
LINE
  5
28
100
AcDbEntity
  8
0
370
    35
390
0
 62
     7
 48
0.001362
100
AcDbLine
 10
202.700012
 20
88.368256
 30
0.0
 11
202.700989
 21
88.422714
 31
0.0
210
0.0
220
0.0
230
1.0
  0
LINE
  5
29
100
AcDbEntity
  8
0
370
    35
390
0
 62
     7
 48
0.001353
100
AcDbLine
 10
202.700989
 20
88.422714
 30
0.0
 11
202.703949
 21
88.476746
 31
0.0
210
0.0
220
0.0
230
1.0
  0
LINE
  5
2A
100
AcDbEntity
  8
0
370
    35
390
0
 62
     7
 48
0.001791
100
AcDbLine
 10
202.703949
 20
88.476746
 30
0.0
 11
202.711212
 21
88.548035
 31
0.0
210
0.0
220
0.0
230
1.0
  0
LINE
  5
2B
100
AcDbEntity
  8
0
370
    35
390
0
 62
     7
 48
0.001778
100
AcDbLine
 10
202.711212
 20
88.548035
 30
0.0
 11
202.722412
 21
88.618286
 31
0.0
210
0.0
220
0.0
230
1.0
  0
LINE
  5
2C
100
AcDbEntity
  8
0
370
    35
390
0
 62
     7
 48
0.001768
100
AcDbLine
 10
202.722412
 20
88.618286
 30
0.0
 11
202.737793
 21
88.687332
 31
0.0
210
0.0
220
0.0
230
1.0
  0
LINE
  5
2D
100
AcDbEntity
  8
0
370
    35
390
0
 62
     7
 48
0.001981
100
AcDbLine
 10
202.737793
 20
88.687332
 30
0.0
 11
202.760376
 21
88.763275
 31
0.0
210
0.0
220
0.0
230
1.0
  0
LINE
  5
2E
100
AcDbEntity
  8
0
370
    35
390
0
 62
     7
 48
0.001977
100
AcDbLine
 10
202.760376
 20
88.763275
 30
0.0
 11
202.788849
 21
88.837067
 31
0.0
210
0.0
220
0.0
230
1.0
  0
LINE
  5
2F
100
AcDbEntity
  8
0
370
    35
390
0
 62
     7
 48
0.001981
100
AcDbLine
 10
202.788849
 20
88.837067
 30
0.0
 11
202.823517
 21
88.90831
 31
0.0
210
0.0
220
0.0
230
1.0
  0
LINE
  5
30
100
AcDbEntity
  8
0
370
    35
390
0
 62
     7
 48
0.001993
100
AcDbLine
 10
202.823517
 20
88.90831
 30
0.0
 11
202.864563
 21
88.976639
 31
0.0
210
0.0
220
0.0
230
1.0
  0
LINE
  5
31
100
AcDbEntity
  8
0
370
    35
390
0
 62
     7
 48
0.002055
100
AcDbLine
 10
202.864563
 20
88.976639
 30
0.0
 11
202.913239
 21
89.042862
 31
0.0
210
0.0
220
0.0
230
1.0
  0
LINE
  5
32
100
AcDbEntity
  8
0
370
    35
390
0
 62
     7
 48
0.001039
100
AcDbLine
 10
202.913239
 20
89.042862
 30
0.0
 11
202.940155
 21
89.074539
 31
0.0
210
0.0
220
0.0
230
1.0
  0
LINE
  5
33
100
AcDbEntity
  8
0
370
    35
390
0
 62
     7
 48
0.001049
100
AcDbLine
 10
202.940155
 20
89.074539
 30
0.0
 11
202.968811
 21
89.105164
 31
0.0
210
0.0
220
0.0
230
1.0
  0
LINE
  5
34
100
AcDbEntity
  8
0
370
    35
390
0
 62
     7
 48
0.001059
100
AcDbLine
 10
202.968811
 20
89.105164
 30
0.0
 11
202.999207
 21
89.134674
 31
0.0
210
0.0
220
0.0
230
1.0
  0
LINE
  5
35
100
AcDbEntity
  8
0
370
    35
390
0
 62
     7
 48
0.00107
100
AcDbLine
 10
202.999207
 20
89.134674
 30
0.0
 11
203.031281
 21
89.16304
 31
0.0
210
0.0
220
0.0
230
1.0
  0
LINE
  5
36
100
AcDbEntity
  8
0
370
    35
390
0
 62
     7
 48
0.001084
100
AcDbLine
 10
203.031281
 20
89.16304
 30
0.0
 11
203.065063
 21
89.190201
 31
0.0
210
0.0
220
0.0
230
1.0
  0
LINE
  5
37
100
AcDbEntity
  8
0
370
    35
390
0
 62
     7
 48
0.001097
100
AcDbLine
 10
203.065063
 20
89.190201
 30
0.0
 11
203.100464
 21
89.21611
 31
0.0
210
0.0
220
0.0
230
1.0
  0
LINE
  5
38
100
AcDbEntity
  8
0
370
    35
390
0
 62
     7
 48
0.002238
100
AcDbLine
 10
203.100464
 20
89.21611
 30
0.0
 11
203.176117
 21
89.263977
 31
0.0
210
0.0
220
0.0
230
1.0
  0
LINE
  5
39
100
AcDbEntity
  8
0
370
    35
390
0
 62
     7
 48
0.002299
100
AcDbLine
 10
203.176117
 20
89.263977
 30
0.0
 11
203.257782
 21
89.306274
 31
0.0
210
0.0
220
0.0
230
1.0
  0
LINE
  5
3A
100
AcDbEntity
  8
0
370
    35
390
0
 62
     7
 48
0.002361
100
AcDbLine
 10
203.257782
 20
89.306274
 30
0.0
 11
203.34491
 21
89.342728
 31
0.0
210
0.0
220
0.0
230
1.0
  0
LINE
  5
3B
100
AcDbEntity
  8
0
370
    35
390
0
 62
     7
 48
0.002418
100
AcDbLine
 10
203.34491
 20
89.342728
 30
0.0
 11
203.436768
 21
89.373032
 31
0.0
210
0.0
220
0.0
230
1.0
  0
LINE
  5
3C
100
AcDbEntity
  8
0
370
    35
390
0
 62
     7
 48
0.002324
100
AcDbLine
 10
203.436768
 20
89.373032
 30
0.0
 11
203.526886
 21
89.395782
 31
0.0
210
0.0
220
0.0
230
1.0
  0
LINE
  5
3D
100
AcDbEntity
  8
0
370
    35
390
0
 62
     7
 48
0.002359
100
AcDbLine
 10
203.526886
 20
89.395782
 30
0.0
 11
203.61969
 21
89.412811
 31
0.0
210
0.0
220
0.0
230
1.0
  0
LINE
  5
3E
100
AcDbEntity
  8
0
370
    35
390
0
 62
     7
 48
0.002385
100
AcDbLine
 10
203.61969
 20
89.412811
 30
0.0
 11
203.714447
 21
89.424011
 31
0.0
210
0.0
220
0.0
230
1.0
  0
LINE
  5
3F
100
AcDbEntity
  8
0
370
    35
390
0
 62
     7
 48
0.002401
100
AcDbLine
 10
203.714447
 20
89.424011
 30
0.0
 11
203.810333
 21
89.429367
 31
0.0
210
0.0
220
0.0
230
1.0
  0
LINE
  5
40
100
AcDbEntity
  8
0
370
    35
390
0
 62
     7
 48
0.002406
100
AcDbLine
 10
203.810333
 20
89.429367
 30
0.0
 11
203.906555
 21
89.428833
 31
0.0
210
0.0
220
0.0
230
1.0
  0
LINE
  5
41
100
AcDbEntity
  8
0
370
    35
390
0
 62
     7
 48
0.002399
100
AcDbLine
 10
203.906555
 20
89.428833
 30
0.0
 11
204.002319
 21
89.422424
 31
0.0
210
0.0
220
0.0
230
1.0
  0
LINE
  5
42
100
AcDbEntity
  8
0
370
    35
390
0
 62
     7
 48
0.002382
100
AcDbLine
 10
204.002319
 20
89.422424
 30
0.0
 11
204.096802
 21
89.410156
 31
0.0
210
0.0
220
0.0
230
1.0
  0
LINE
  5
43
100
AcDbEntity
  8
0
370
    35
390
0
 62
     7
 48
0.002353
100
AcDbLine
 10
204.096802
 20
89.410156
 30
0.0
 11
204.189178
 21
89.392105
 31
0.0
210
0.0
220
0.0
230
1.0
  0
LINE
  5
44
100
AcDbEntity
  8
0
370
    35
390
0
 62
     7
 48
0.002317
100
AcDbLine
 10
204.189178
 20
89.392105
 30
0.0
 11
204.278748
 21
89.368347
 31
0.0
210
0.0
220
0.0
230
1.0
  0
LINE
  5
45
100
AcDbEntity
  8
0
370
    35
390
0
 62
     7
 48
0.002484
100
AcDbLine
 10
204.278748
 20
89.368347
 30
0.0
 11
204.372681
 21
89.335938
 31
0.0
210
0.0
220
0.0
230
1.0
  0
LINE
  5
46
100
AcDbEntity
  8
0
370
    35
390
0
 62
     7
 48
0.001219
100
AcDbLine
 10
204.372681
 20
89.335938
 30
0.0
 11
204.417755
 21
89.317291
 31
0.0
210
0.0
220
0.0
230
1.0
  0
LINE
  5
47
100
AcDbEntity
  8
0
370
    35
390
0
 62
     7
 48
0.001203
100
AcDbLine
 10
204.417755
 20
89.317291
 30
0.0
 11
204.461426
 21
89.297058
 31
0.0
210
0.0
220
0.0
230
1.0
  0
LINE
  5
48
100
AcDbEntity
  8
0
370
    35
390
0
 62
     7
 48
0.001579
100
AcDbLine
 10
204.461426
 20
89.297058
 30
0.0
 11
204.517334
 21
89.26767
 31
0.0
210
0.0
220
0.0
230
1.0
  0
LINE
  5
49
100
AcDbEntity
  8
0
370
    35
390
0
 62
     7
 48
0.00155
100
AcDbLine
 10
204.517334
 20
89.26767
 30
0.0
 11
204.570404
 21
89.235641
 31
0.0
210
0.0
220
0.0
230
1.0
  0
LINE
  5
4A
100
AcDbEntity
  8
0
370
    35
390
0
 62
     7
 48
0.001521
100
AcDbLine
 10
204.570404
 20
89.235641
 30
0.0
 11
204.620483
 21
89.201065
 31
0.0
210
0.0
220
0.0
230
1.0
  0
LINE
  5
4B
100
AcDbEntity
  8
0
370
    35
390
0
 62
     7
 48
0.001495
100
AcDbLine
 10
204.620483
 20
89.201065
 30
0.0
 11
204.66748
 21
89.164078
 31
0.0
210
0.0
220
0.0
230
1.0
  0
LINE
  5
4C
100
AcDbEntity
  8
0
370
    35
390
0
 62
     7
 48
0.001471
100
AcDbLine
 10
204.66748
 20
89.164078
 30
0.0
 11
204.711304
 21
89.124832
 31
0.0
210
0.0
220
0.0
230
1.0
  0
LINE
  5
4D
100
AcDbEntity
  8
0
370
    35
390
0
 62
     7
 48
0.001449
100
AcDbLine
 10
204.711304
 20
89.124832
 30
0.0
 11
204.751862
 21
89.083435
 31
0.0
210
0.0
220
0.0
230
1.0
  0
LINE
  5
4E
100
AcDbEntity
  8
0
370
    35
390
0
 62
     7
 48
0.001074
100
AcDbLine
 10
204.751862
 20
89.083435
 30
0.0
 11
204.780151
 21
89.051086
 31
0.0
210
0.0
220
0.0
230
1.0
  0
LINE
  5
4F
100
AcDbEntity
  8
0
370
    35
390
0
 62
     7
 48
0.001064
100
AcDbLine
 10
204.780151
 20
89.051086
 30
0.0
 11
204.806549
 21
89.017685
 31
0.0
210
0.0
220
0.0
230
1.0
  0
LINE
  5
50
100
AcDbEntity
  8
0
370
    35
390
0
 62
     7
 48
0.001057
100
AcDbLine
 10
204.806549
 20
89.017685
 30
0.0
 11
204.831146
 21
88.983276
 31
0.0
210
0.0
220
0.0
230
1.0
  0
LINE
  5
51
100
AcDbEntity
  8
0
370
    35
390
0
 62
     7
 48
0.001051
100
AcDbLine
 10
204.831146
 20
88.983276
 30
0.0
 11
204.853912
 21
88.947922
 31
0.0
210
0.0
220
0.0
230
1.0
  0
LINE
  5
52
100
AcDbEntity
  8
0
370
    35
390
0
 62
     7
 48
0.001882
100
AcDbLine
 10
204.853912
 20
88.947922
 30
0.0
 11
204.890381
 21
88.88208
 31
0.0
210
0.0
220
0.0
230
1.0
  0
LINE
  5
53
100
AcDbEntity
  8
0
370
    35
390
0
 62
     7
 48
0.001872
100
AcDbLine
 10
204.890381
 20
88.88208
 30
0.0
 11
204.921112
 21
88.813782
 31
0.0
210
0.0
220
0.0
230
1.0
  0
LINE
  5
54
100
AcDbEntity
  8
0
370
    35
390
0
 62
     7
 48
0.001871
100
AcDbLine
 10
204.921112
 20
88.813782
 30
0.0
 11
204.946381
 21
88.743317
 31
0.0
210
0.0
220
0.0
230
1.0
  0
LINE
  5
55
100
AcDbEntity
  8
0
370
    35
390
0
 62
     7
 48
0.001876
100
AcDbLine
 10
204.946381
 20
88.743317
 30
0.0
 11
204.966431
 21
88.67099
 31
0.0
210
0.0
220
0.0
230
1.0
  0
LINE
  5
56
100
AcDbEntity
  8
0
370
    35
390
0
 62
     7
 48
0.001219
100
AcDbLine
 10
204.966431
 20
88.67099
 30
0.0
 11
204.976746
 21
88.623352
 31
0.0
210
0.0
220
0.0
230
1.0
  0
LINE
  5
57
100
AcDbEntity
  8
0
370
    35
390
0
 62
     7
 48
0.001224
100
AcDbLine
 10
204.976746
 20
88.623352
 30
0.0
 11
204.985046
 21
88.575119
 31
0.0
210
0.0
220
0.0
230
1.0
  0
LINE
  5
58
100
AcDbEntity
  8
0
370
    35
390
0
 62
     7
 48
0.001305
100
AcDbLine
 10
204.985046
 20
88.575119
 30
0.0
 11
204.991791
 21
88.523361
 31
0.0
210
0.0
220
0.0
230
1.0
  0
LINE
  5
59
100
AcDbEntity
  8
0
370
    35
390
0
 62
     7
 48
0.001312
100
AcDbLine
 10
204.991791
 20
88.523361
 30
0.0
 11
204.99649
 21
88.471085
 31
0.0
210
0.0
220
0.0
230
1.0
  0
LINE
  5
5A
100
AcDbEntity
  8
0
370
    35
390
0
 62
     7
 48
0.002572
100
AcDbLine
 10
204.99649
 20
88.471085
 30
0.0
 11
205.0
 21
88.368256
 31
0.0
210
0.0
220
0.0
230
1.0
  0
LINE
  5
5B
100
AcDbEntity
  8
0
370
    35
390
0
 62
     7
 48
0.080628
100
AcDbLine
 10
205.0
 20
88.368256
 30
0.0
 11
205.0
 21
85.143143
 31
0.0
210
0.0
220
0.0
230
1.0
  0
LINE
  5
5C
100
AcDbEntity
  8
0
370
    35
390
0
 62
     7
 48
0.0575
100
AcDbLine
 10
205.0
 20
85.143143
 30
0.0
 11
202.700012
 21
85.143143
 31
0.0
210
0.0
220
0.0
230
1.0
  0
LINE
  5
5D
100
AcDbEntity
  8
0
370
    35
390
0
 62
     7
 48
0.080628
100
AcDbLine
 10
202.700012
 20
88.368256
 30
0.0
 11
202.700012
 21
85.143143
 31
0.0
210
0.0
220
0.0
230
1.0
  0
LINE
  5
5E
100
AcDbEntity
  8
0
370
    35
390
0
 62
     7
 48
0.001362
100
AcDbLine
 10
189.5
 20
88.368256
 30
0.0
 11
189.500977
 21
88.422714
 31
0.0
210
0.0
220
0.0
230
1.0
  0
LINE
  5
5F
100
AcDbEntity
  8
0
370
    35
390
0
 62
     7
 48
0.001353
100
AcDbLine
 10
189.500977
 20
88.422714
 30
0.0
 11
189.503967
 21
88.476746
 31
0.0
210
0.0
220
0.0
230
1.0
  0
LINE
  5
60
100
AcDbEntity
  8
0
370
    35
390
0
 62
     7
 48
0.001791
100
AcDbLine
 10
189.503967
 20
88.476746
 30
0.0
 11
189.5112
 21
88.548035
 31
0.0
210
0.0
220
0.0
230
1.0
  0
LINE
  5
61
100
AcDbEntity
  8
0
370
    35
390
0
 62
     7
 48
0.001778
100
AcDbLine
 10
189.5112
 20
88.548035
 30
0.0
 11
189.5224
 21
88.618286
 31
0.0
210
0.0
220
0.0
230
1.0
  0
LINE
  5
62
100
AcDbEntity
  8
0
370
    35
390
0
 62
     7
 48
0.001768
100
AcDbLine
 10
189.5224
 20
88.618286
 30
0.0
 11
189.537781
 21
88.687332
 31
0.0
210
0.0
220
0.0
230
1.0
  0
LINE
  5
63
100
AcDbEntity
  8
0
370
    35
390
0
 62
     7
 48
0.001981
100
AcDbLine
 10
189.537781
 20
88.687332
 30
0.0
 11
189.560364
 21
88.763275
 31
0.0
210
0.0
220
0.0
230
1.0
  0
LINE
  5
64
100
AcDbEntity
  8
0
370
    35
390
0
 62
     7
 48
0.001978
100
AcDbLine
 10
189.560364
 20
88.763275
 30
0.0
 11
189.588867
 21
88.837067
 31
0.0
210
0.0
220
0.0
230
1.0
  0
LINE
  5
65
100
AcDbEntity
  8
0
370
    35
390
0
 62
     7
 48
0.00198
100
AcDbLine
 10
189.588867
 20
88.837067
 30
0.0
 11
189.623505
 21
88.90831
 31
0.0
210
0.0
220
0.0
230
1.0
  0
LINE
  5
66
100
AcDbEntity
  8
0
370
    35
390
0
 62
     7
 48
0.001993
100
AcDbLine
 10
189.623505
 20
88.90831
 30
0.0
 11
189.664581
 21
88.976639
 31
0.0
210
0.0
220
0.0
230
1.0
  0
LINE
  5
67
100
AcDbEntity
  8
0
370
    35
390
0
 62
     7
 48
0.002054
100
AcDbLine
 10
189.664581
 20
88.976639
 30
0.0
 11
189.713226
 21
89.042862
 31
0.0
210
0.0
220
0.0
230
1.0
  0
LINE
  5
68
100
AcDbEntity
  8
0
370
    35
390
0
 62
     7
 48
0.001039
100
AcDbLine
 10
189.713226
 20
89.042862
 30
0.0
 11
189.740143
 21
89.074539
 31
0.0
210
0.0
220
0.0
230
1.0
  0
LINE
  5
69
100
AcDbEntity
  8
0
370
    35
390
0
 62
     7
 48
0.001049
100
AcDbLine
 10
189.740143
 20
89.074539
 30
0.0
 11
189.768799
 21
89.105164
 31
0.0
210
0.0
220
0.0
230
1.0
  0
LINE
  5
6A
100
AcDbEntity
  8
0
370
    35
390
0
 62
     7
 48
0.001059
100
AcDbLine
 10
189.768799
 20
89.105164
 30
0.0
 11
189.799194
 21
89.134674
 31
0.0
210
0.0
220
0.0
230
1.0
  0
LINE
  5
6B
100
AcDbEntity
  8
0
370
    35
390
0
 62
     7
 48
0.00107
100
AcDbLine
 10
189.799194
 20
89.134674
 30
0.0
 11
189.831268
 21
89.16304
 31
0.0
210
0.0
220
0.0
230
1.0
  0
LINE
  5
6C
100
AcDbEntity
  8
0
370
    35
390
0
 62
     7
 48
0.001084
100
AcDbLine
 10
189.831268
 20
89.16304
 30
0.0
 11
189.865051
 21
89.190201
 31
0.0
210
0.0
220
0.0
230
1.0
  0
LINE
  5
6D
100
AcDbEntity
  8
0
370
    35
390
0
 62
     7
 48
0.001097
100
AcDbLine
 10
189.865051
 20
89.190201
 30
0.0
 11
189.900482
 21
89.21611
 31
0.0
210
0.0
220
0.0
230
1.0
  0
LINE
  5
6E
100
AcDbEntity
  8
0
370
    35
390
0
 62
     7
 48
0.002237
100
AcDbLine
 10
189.900482
 20
89.21611
 30
0.0
 11
189.976105
 21
89.263977
 31
0.0
210
0.0
220
0.0
230
1.0
  0
LINE
  5
6F
100
AcDbEntity
  8
0
370
    35
390
0
 62
     7
 48
0.002299
100
AcDbLine
 10
189.976105
 20
89.263977
 30
0.0
 11
190.05777
 21
89.306274
 31
0.0
210
0.0
220
0.0
230
1.0
  0
LINE
  5
70
100
AcDbEntity
  8
0
370
    35
390
0
 62
     7
 48
0.002361
100
AcDbLine
 10
190.05777
 20
89.306274
 30
0.0
 11
190.144897
 21
89.342728
 31
0.0
210
0.0
220
0.0
230
1.0
  0
LINE
  5
71
100
AcDbEntity
  8
0
370
    35
390
0
 62
     7
 48
0.002418
100
AcDbLine
 10
190.144897
 20
89.342728
 30
0.0
 11
190.236755
 21
89.373032
 31
0.0
210
0.0
220
0.0
230
1.0
  0
LINE
  5
72
100
AcDbEntity
  8
0
370
    35
390
0
 62
     7
 48
0.002324
100
AcDbLine
 10
190.236755
 20
89.373032
 30
0.0
 11
190.326874
 21
89.395782
 31
0.0
210
0.0
220
0.0
230
1.0
  0
LINE
  5
73
100
AcDbEntity
  8
0
370
    35
390
0
 62
     7
 48
0.002359
100
AcDbLine
 10
190.326874
 20
89.395782
 30
0.0
 11
190.419678
 21
89.412811
 31
0.0
210
0.0
220
0.0
230
1.0
  0
LINE
  5
74
100
AcDbEntity
  8
0
370
    35
390
0
 62
     7
 48
0.002385
100
AcDbLine
 10
190.419678
 20
89.412811
 30
0.0
 11
190.514435
 21
89.424011
 31
0.0
210
0.0
220
0.0
230
1.0
  0
LINE
  5
75
100
AcDbEntity
  8
0
370
    35
390
0
 62
     7
 48
0.002401
100
AcDbLine
 10
190.514435
 20
89.424011
 30
0.0
 11
190.610321
 21
89.429367
 31
0.0
210
0.0
220
0.0
230
1.0
  0
LINE
  5
76
100
AcDbEntity
  8
0
370
    35
390
0
 62
     7
 48
0.002406
100
AcDbLine
 10
190.610321
 20
89.429367
 30
0.0
 11
190.706573
 21
89.428833
 31
0.0
210
0.0
220
0.0
230
1.0
  0
LINE
  5
77
100
AcDbEntity
  8
0
370
    35
390
0
 62
     7
 48
0.002399
100
AcDbLine
 10
190.706573
 20
89.428833
 30
0.0
 11
190.802307
 21
89.422424
 31
0.0
210
0.0
220
0.0
230
1.0
  0
LINE
  5
78
100
AcDbEntity
  8
0
370
    35
390
0
 62
     7
 48
0.002382
100
AcDbLine
 10
190.802307
 20
89.422424
 30
0.0
 11
190.89679
 21
89.410156
 31
0.0
210
0.0
220
0.0
230
1.0
  0
LINE
  5
79
100
AcDbEntity
  8
0
370
    35
390
0
 62
     7
 48
0.002353
100
AcDbLine
 10
190.89679
 20
89.410156
 30
0.0
 11
190.989166
 21
89.392105
 31
0.0
210
0.0
220
0.0
230
1.0
  0
LINE
  5
7A
100
AcDbEntity
  8
0
370
    35
390
0
 62
     7
 48
0.002317
100
AcDbLine
 10
190.989166
 20
89.392105
 30
0.0
 11
191.078735
 21
89.368347
 31
0.0
210
0.0
220
0.0
230
1.0
  0
LINE
  5
7B
100
AcDbEntity
  8
0
370
    35
390
0
 62
     7
 48
0.002484
100
AcDbLine
 10
191.078735
 20
89.368347
 30
0.0
 11
191.172668
 21
89.335938
 31
0.0
210
0.0
220
0.0
230
1.0
  0
LINE
  5
7C
100
AcDbEntity
  8
0
370
    35
390
0
 62
     7
 48
0.001219
100
AcDbLine
 10
191.172668
 20
89.335938
 30
0.0
 11
191.217743
 21
89.317291
 31
0.0
210
0.0
220
0.0
230
1.0
  0
LINE
  5
7D
100
AcDbEntity
  8
0
370
    35
390
0
 62
     7
 48
0.001203
100
AcDbLine
 10
191.217743
 20
89.317291
 30
0.0
 11
191.261414
 21
89.297058
 31
0.0
210
0.0
220
0.0
230
1.0
  0
LINE
  5
7E
100
AcDbEntity
  8
0
370
    35
390
0
 62
     7
 48
0.001579
100
AcDbLine
 10
191.261414
 20
89.297058
 30
0.0
 11
191.317322
 21
89.26767
 31
0.0
210
0.0
220
0.0
230
1.0
  0
LINE
  5
7F
100
AcDbEntity
  8
0
370
    35
390
0
 62
     7
 48
0.00155
100
AcDbLine
 10
191.317322
 20
89.26767
 30
0.0
 11
191.370392
 21
89.235641
 31
0.0
210
0.0
220
0.0
230
1.0
  0
LINE
  5
80
100
AcDbEntity
  8
0
370
    35
390
0
 62
     7
 48
0.001522
100
AcDbLine
 10
191.370392
 20
89.235641
 30
0.0
 11
191.420502
 21
89.201065
 31
0.0
210
0.0
220
0.0
230
1.0
  0
LINE
  5
81
100
AcDbEntity
  8
0
370
    35
390
0
 62
     7
 48
0.001495
100
AcDbLine
 10
191.420502
 20
89.201065
 30
0.0
 11
191.467499
 21
89.164078
 31
0.0
210
0.0
220
0.0
230
1.0
  0
LINE
  5
82
100
AcDbEntity
  8
0
370
    35
390
0
 62
     7
 48
0.00147
100
AcDbLine
 10
191.467499
 20
89.164078
 30
0.0
 11
191.511292
 21
89.124832
 31
0.0
210
0.0
220
0.0
230
1.0
  0
LINE
  5
83
100
AcDbEntity
  8
0
370
    35
390
0
 62
     7
 48
0.001449
100
AcDbLine
 10
191.511292
 20
89.124832
 30
0.0
 11
191.55188
 21
89.083435
 31
0.0
210
0.0
220
0.0
230
1.0
  0
LINE
  5
84
100
AcDbEntity
  8
0
370
    35
390
0
 62
     7
 48
0.001074
100
AcDbLine
 10
191.55188
 20
89.083435
 30
0.0
 11
191.580139
 21
89.051086
 31
0.0
210
0.0
220
0.0
230
1.0
  0
LINE
  5
85
100
AcDbEntity
  8
0
370
    35
390
0
 62
     7
 48
0.001065
100
AcDbLine
 10
191.580139
 20
89.051086
 30
0.0
 11
191.606567
 21
89.017685
 31
0.0
210
0.0
220
0.0
230
1.0
  0
LINE
  5
86
100
AcDbEntity
  8
0
370
    35
390
0
 62
     7
 48
0.001057
100
AcDbLine
 10
191.606567
 20
89.017685
 30
0.0
 11
191.631165
 21
88.983276
 31
0.0
210
0.0
220
0.0
230
1.0
  0
LINE
  5
87
100
AcDbEntity
  8
0
370
    35
390
0
 62
     7
 48
0.001051
100
AcDbLine
 10
191.631165
 20
88.983276
 30
0.0
 11
191.653931
 21
88.947922
 31
0.0
210
0.0
220
0.0
230
1.0
  0
LINE
  5
88
100
AcDbEntity
  8
0
370
    35
390
0
 62
     7
 48
0.001881
100
AcDbLine
 10
191.653931
 20
88.947922
 30
0.0
 11
191.690369
 21
88.88208
 31
0.0
210
0.0
220
0.0
230
1.0
  0
LINE
  5
89
100
AcDbEntity
  8
0
370
    35
390
0
 62
     7
 48
0.001873
100
AcDbLine
 10
191.690369
 20
88.88208
 30
0.0
 11
191.72113
 21
88.813782
 31
0.0
210
0.0
220
0.0
230
1.0
  0
LINE
  5
8A
100
AcDbEntity
  8
0
370
    35
390
0
 62
     7
 48
0.001871
100
AcDbLine
 10
191.72113
 20
88.813782
 30
0.0
 11
191.746368
 21
88.743317
 31
0.0
210
0.0
220
0.0
230
1.0
  0
LINE
  5
8B
100
AcDbEntity
  8
0
370
    35
390
0
 62
     7
 48
0.001876
100
AcDbLine
 10
191.746368
 20
88.743317
 30
0.0
 11
191.766418
 21
88.67099
 31
0.0
210
0.0
220
0.0
230
1.0
  0
LINE
  5
8C
100
AcDbEntity
  8
0
370
    35
390
0
 62
     7
 48
0.001219
100
AcDbLine
 10
191.766418
 20
88.67099
 30
0.0
 11
191.776733
 21
88.623352
 31
0.0
210
0.0
220
0.0
230
1.0
  0
LINE
  5
8D
100
AcDbEntity
  8
0
370
    35
390
0
 62
     7
 48
0.001224
100
AcDbLine
 10
191.776733
 20
88.623352
 30
0.0
 11
191.785034
 21
88.575119
 31
0.0
210
0.0
220
0.0
230
1.0
  0
LINE
  5
8E
100
AcDbEntity
  8
0
370
    35
390
0
 62
     7
 48
0.001305
100
AcDbLine
 10
191.785034
 20
88.575119
 30
0.0
 11
191.791779
 21
88.523361
 31
0.0
210
0.0
220
0.0
230
1.0
  0
LINE
  5
8F
100
AcDbEntity
  8
0
370
    35
390
0
 62
     7
 48
0.001312
100
AcDbLine
 10
191.791779
 20
88.523361
 30
0.0
 11
191.796478
 21
88.471085
 31
0.0
210
0.0
220
0.0
230
1.0
  0
LINE
  5
90
100
AcDbEntity
  8
0
370
    35
390
0
 62
     7
 48
0.002572
100
AcDbLine
 10
191.796478
 20
88.471085
 30
0.0
 11
191.800018
 21
88.368256
 31
0.0
210
0.0
220
0.0
230
1.0
  0
LINE
  5
91
100
AcDbEntity
  8
0
370
    35
390
0
 62
     7
 48
0.080628
100
AcDbLine
 10
191.800018
 20
88.368256
 30
0.0
 11
191.800018
 21
85.143143
 31
0.0
210
0.0
220
0.0
230
1.0
  0
LINE
  5
92
100
AcDbEntity
  8
0
370
    35
390
0
 62
     7
 48
0.0575
100
AcDbLine
 10
191.800018
 20
85.143143
 30
0.0
 11
189.5
 21
85.143143
 31
0.0
210
0.0
220
0.0
230
1.0
  0
LINE
  5
93
100
AcDbEntity
  8
0
370
    35
390
0
 62
     7
 48
0.080628
100
AcDbLine
 10
189.5
 20
88.368256
 30
0.0
 11
189.5
 21
85.143143
 31
0.0
210
0.0
220
0.0
230
1.0
  0
LINE
  5
94
100
AcDbEntity
  8
0
370
    35
390
0
 62
     7
 48
0.17
100
AcDbLine
 10
185.649994
 20
90.743149
 30
0.0
 11
185.649994
 21
83.943146
 31
0.0
210
0.0
220
0.0
230
1.0
  0
LINE
  5
95
100
AcDbEntity
  8
0
370
    35
390
0
 62
     7
100
AcDbLine
 10
206.449982
 20
83.943146
 30
0.0
 11
185.649994
 21
83.943146
 31
0.0
210
0.0
220
0.0
230
1.0
  0
LINE
  5
96
100
AcDbEntity
  8
0
370
    35
390
0
 62
     7
 48
0.005
100
AcDbLine
 10
206.75
 20
83.943146
 30
0.0
 11
206.949982
 21
83.943146
 31
0.0
210
0.0
220
0.0
230
1.0
  0
LINE
  5
97
100
AcDbEntity
  8
0
370
    35
390
0
 62
     7
 48
0.00025
100
AcDbLine
 10
206.949982
 20
83.943146
 30
0.0
 11
206.959991
 21
83.943146
 31
0.0
210
0.0
220
0.0
230
1.0
  0
LINE
  5
98
100
AcDbEntity
  8
0
370
    35
390
0
 62
     7
 48
0.00192
100
AcDbLine
 10
206.75
 20
83.943146
 30
0.0
 11
206.673187
 21
83.943146
 31
0.0
210
0.0
220
0.0
230
1.0
  0
LINE
  5
99
100
AcDbEntity
  8
0
370
    35
390
0
 62
     7
 48
0.17
100
AcDbLine
 10
206.949982
 20
77.143143
 30
0.0
 11
206.949982
 21
83.943146
 31
0.0
210
0.0
220
0.0
230
1.0
  0
LINE
  5
9A
100
AcDbEntity
  8
0
370
    35
390
0
 62
     7
 48
0.010607
100
AcDbLine
 10
207.25
 20
77.443146
 30
0.0
 11
206.949982
 21
77.143143
 31
0.0
210
0.0
220
0.0
230
1.0
  0
LINE
  5
9B
100
AcDbEntity
  8
0
370
    35
390
0
 62
     7
 48
0.325
100
AcDbLine
 10
207.25
 20
77.443146
 30
0.0
 11
207.25
 21
90.443146
 31
0.0
210
0.0
220
0.0
230
1.0
  0
LINE
  5
9C
100
AcDbEntity
  8
0
370
    35
390
0
 62
     7
 48
0.010253
100
AcDbLine
 10
207.25
 20
90.443146
 30
0.0
 11
206.960022
 21
90.733139
 31
0.0
210
0.0
220
0.0
230
1.0
  0
LINE
  5
9D
100
AcDbEntity
  8
0
370
    35
390
0
 62
     7
 48
0.01
100
AcDbLine
 10
206.049988
 20
77.143143
 30
0.0
 11
206.449982
 21
77.143143
 31
0.0
210
0.0
220
0.0
230
1.0
  0
LINE
  5
9E
100
AcDbEntity
  8
0
370
    35
390
0
 62
     7
 48
0.17
100
AcDbLine
 10
206.449982
 20
77.143143
 30
0.0
 11
206.449982
 21
83.943146
 31
0.0
210
0.0
220
0.0
230
1.0
  0
LINE
  5
9F
100
AcDbEntity
  8
0
370
    35
390
0
 62
     7
 48
0.075
100
AcDbLine
 10
182.649994
 20
90.743149
 30
0.0
 11
185.649994
 21
90.743149
 31
0.0
210
0.0
220
0.0
230
1.0
  0
LINE
  5
A0
100
AcDbEntity
  8
0
370
    35
390
0
 62
     7
 48
0.34
100
AcDbLine
 10
182.649994
 20
77.143143
 30
0.0
 11
182.649994
 21
90.743149
 31
0.0
210
0.0
220
0.0
230
1.0
  0
LINE
  5
A1
100
AcDbEntity
  8
0
370
    35
390
0
 62
     7
 48
0.0675
100
AcDbLine
 10
182.649994
 20
77.143143
 30
0.0
 11
185.350006
 21
77.143143
 31
0.0
210
0.0
220
0.0
230
1.0
  0
LINE
  5
A2
100
AcDbEntity
  8
0
370
    35
390
0
 62
     7
 48
0.007172
100
AcDbLine
 10
185.350006
 20
77.143143
 30
0.0
 11
185.57196
 21
77.32489
 31
0.0
210
0.0
220
0.0
230
1.0
  0
LINE
  5
A3
100
AcDbEntity
  8
0
370
    35
390
0
 62
     7
 48
0.011402
100
AcDbLine
 10
185.57196
 20
77.32489
 30
0.0
 11
185.926788
 21
77.611435
 31
0.0
210
0.0
220
0.0
230
1.0
  0
LINE
  5
A4
100
AcDbEntity
  8
0
370
    35
390
0
 62
     7
 48
0.007096
100
AcDbLine
 10
185.926788
 20
77.611435
 30
0.0
 11
186.148956
 21
77.788116
 31
0.0
210
0.0
220
0.0
230
1.0
  0
LINE
  5
A5
100
AcDbEntity
  8
0
370
    35
390
0
 62
     7
 48
0.007687
100
AcDbLine
 10
186.148956
 20
77.788116
 30
0.0
 11
186.39093
 21
77.977829
 31
0.0
210
0.0
220
0.0
230
1.0
  0
LINE
  5
A6
100
AcDbEntity
  8
0
370
    35
390
0
 62
     7
 48
0.008247
100
AcDbLine
 10
186.39093
 20
77.977829
 30
0.0
 11
186.652222
 21
78.179184
 31
0.0
210
0.0
220
0.0
230
1.0
  0
LINE
  5
A7
100
AcDbEntity
  8
0
370
    35
390
0
 62
     7
 48
0.006533
100
AcDbLine
 10
186.652222
 20
78.179184
 30
0.0
 11
186.860565
 21
78.336929
 31
0.0
210
0.0
220
0.0
230
1.0
  0
LINE
  5
A8
100
AcDbEntity
  8
0
370
    35
390
0
 62
     7
 48
0.006759
100
AcDbLine
 10
186.860565
 20
78.336929
 30
0.0
 11
187.077515
 21
78.49826
 31
0.0
210
0.0
220
0.0
230
1.0
  0
LINE
  5
A9
100
AcDbEntity
  8
0
370
    35
390
0
 62
     7
 48
0.008101
100
AcDbLine
 10
187.077515
 20
78.49826
 30
0.0
 11
187.339569
 21
78.688858
 31
0.0
210
0.0
220
0.0
230
1.0
  0
LINE
  5
AA
100
AcDbEntity
  8
0
370
    35
390
0
 62
     7
 48
0.008331
100
AcDbLine
 10
187.339569
 20
78.688858
 30
0.0
 11
187.611694
 21
78.881195
 31
0.0
210
0.0
220
0.0
230
1.0
  0
LINE
  5
AB
100
AcDbEntity
  8
0
370
    35
390
0
 62
     7
 48
0.00853
100
AcDbLine
 10
187.611694
 20
78.881195
 30
0.0
 11
187.893402
 21
79.073685
 31
0.0
210
0.0
220
0.0
230
1.0
  0
LINE
  5
AC
100
AcDbEntity
  8
0
370
    35
390
0
 62
     7
 48
0.004333
100
AcDbLine
 10
187.893402
 20
79.073685
 30
0.0
 11
188.037842
 21
79.169449
 31
0.0
210
0.0
220
0.0
230
1.0
  0
LINE
  5
AD
100
AcDbEntity
  8
0
370
    35
390
0
 62
     7
 48
0.004373
100
AcDbLine
 10
188.037842
 20
79.169449
 30
0.0
 11
188.184631
 21
79.264603
 31
0.0
210
0.0
220
0.0
230
1.0
  0
LINE
  5
AE
100
AcDbEntity
  8
0
370
    35
390
0
 62
     7
 48
0.005891
100
AcDbLine
 10
188.184631
 20
79.264603
 30
0.0
 11
188.384094
 21
79.390091
 31
0.0
210
0.0
220
0.0
230
1.0
  0
LINE
  5
AF
100
AcDbEntity
  8
0
370
    35
390
0
 62
     7
 48
0.005953
100
AcDbLine
 10
188.384094
 20
79.390091
 30
0.0
 11
188.587799
 21
79.513412
 31
0.0
210
0.0
220
0.0
230
1.0
  0
LINE
  5
B0
100
AcDbEntity
  8
0
370
    35
390
0
 62
     7
 48
0.006012
100
AcDbLine
 10
188.587799
 20
79.513412
 30
0.0
 11
188.795898
 21
79.633911
 31
0.0
210
0.0
220
0.0
230
1.0
  0
LINE
  5
B1
100
AcDbEntity
  8
0
370
    35
390
0
 62
     7
 48
0.006407
100
AcDbLine
 10
188.795898
 20
79.633911
 30
0.0
 11
189.020569
 21
79.757248
 31
0.0
210
0.0
220
0.0
230
1.0
  0
LINE
  5
B2
100
AcDbEntity
  8
0
370
    35
390
0
 62
     7
 48
0.006462
100
AcDbLine
 10
189.020569
 20
79.757248
 30
0.0
 11
189.250397
 21
79.875534
 31
0.0
210
0.0
220
0.0
230
1.0
  0
LINE
  5
B3
100
AcDbEntity
  8
0
370
    35
390
0
 62
     7
 48
0.003251
100
AcDbLine
 10
189.250397
 20
79.875534
 30
0.0
 11
189.36734
 21
79.932419
 31
0.0
210
0.0
220
0.0
230
1.0
  0
LINE
  5
B4
100
AcDbEntity
  8
0
370
    35
390
0
 62
     7
 48
0.003263
100
AcDbLine
 10
189.36734
 20
79.932419
 30
0.0
 11
189.485657
 21
79.987549
 31
0.0
210
0.0
220
0.0
230
1.0
  0
LINE
  5
B5
100
AcDbEntity
  8
0
370
    35
390
0
 62
     7
 48
0.003273
100
AcDbLine
 10
189.485657
 20
79.987549
 30
0.0
 11
189.605286
 21
80.040756
 31
0.0
210
0.0
220
0.0
230
1.0
  0
LINE
  5
B6
100
AcDbEntity
  8
0
370
    35
390
0
 62
     7
 48
0.003284
100
AcDbLine
 10
189.605286
 20
80.040756
 30
0.0
 11
189.726318
 21
80.091843
 31
0.0
210
0.0
220
0.0
230
1.0
  0
LINE
  5
B7
100
AcDbEntity
  8
0
370
    35
390
0
 62
     7
 48
0.004947
100
AcDbLine
 10
189.726318
 20
80.091843
 30
0.0
 11
189.910553
 21
80.164078
 31
0.0
210
0.0
220
0.0
230
1.0
  0
LINE
  5
B8
100
AcDbEntity
  8
0
370
    35
390
0
 62
     7
 48
0.00497
100
AcDbLine
 10
189.910553
 20
80.164078
 30
0.0
 11
190.097961
 21
80.230377
 31
0.0
210
0.0
220
0.0
230
1.0
  0
LINE
  5
B9
100
AcDbEntity
  8
0
370
    35
390
0
 62
     7
 48
0.002603
100
AcDbLine
 10
190.097961
 20
80.230377
 30
0.0
 11
190.197052
 21
80.26239
 31
0.0
210
0.0
220
0.0
230
1.0
  0
LINE
  5
BA
100
AcDbEntity
  8
0
370
    35
390
0
 62
     7
 48
0.002608
100
AcDbLine
 10
190.197052
 20
80.26239
 30
0.0
 11
190.296936
 21
80.29245
 31
0.0
210
0.0
220
0.0
230
1.0
  0
LINE
  5
BB
100
AcDbEntity
  8
0
370
    35
390
0
 62
     7
 48
0.002391
100
AcDbLine
 10
190.296936
 20
80.29245
 30
0.0
 11
190.389069
 21
80.318161
 31
0.0
210
0.0
220
0.0
230
1.0
  0
LINE
  5
BC
100
AcDbEntity
  8
0
370
    35
390
0
 62
     7
 48
0.002396
100
AcDbLine
 10
190.389069
 20
80.318161
 30
0.0
 11
190.481873
 21
80.342056
 31
0.0
210
0.0
220
0.0
230
1.0
  0
LINE
  5
BD
100
AcDbEntity
  8
0
370
    35
390
0
 62
     7
 48
0.004502
100
AcDbLine
 10
190.481873
 20
80.342056
 30
0.0
 11
190.657532
 21
80.381668
 31
0.0
210
0.0
220
0.0
230
1.0
  0
LINE
  5
BE
100
AcDbEntity
  8
0
370
    35
390
0
 62
     7
 48
0.004512
100
AcDbLine
 10
190.657532
 20
80.381668
 30
0.0
 11
190.835114
 21
80.413925
 31
0.0
210
0.0
220
0.0
230
1.0
  0
LINE
  5
BF
100
AcDbEntity
  8
0
370
    35
390
0
 62
     7
 48
0.002261
100
AcDbLine
 10
190.835114
 20
80.413925
 30
0.0
 11
190.924591
 21
80.42717
 31
0.0
210
0.0
220
0.0
230
1.0
  0
LINE
  5
C0
100
AcDbEntity
  8
0
370
    35
390
0
 62
     7
 48
0.002263
100
AcDbLine
 10
190.924591
 20
80.42717
 30
0.0
 11
191.014404
 21
80.438385
 31
0.0
210
0.0
220
0.0
230
1.0
  0
LINE
  5
C1
100
AcDbEntity
  8
0
370
    35
390
0
 62
     7
 48
0.002261
100
AcDbLine
 10
191.014404
 20
80.438385
 30
0.0
 11
191.10437
 21
80.44754
 31
0.0
210
0.0
220
0.0
230
1.0
  0
LINE
  5
C2
100
AcDbEntity
  8
0
370
    35
390
0
 62
     7
 48
0.002262
100
AcDbLine
 10
191.10437
 20
80.44754
 30
0.0
 11
191.19458
 21
80.454605
 31
0.0
210
0.0
220
0.0
230
1.0
  0
LINE
  5
C3
100
AcDbEntity
  8
0
370
    35
390
0
 62
     7
 48
0.003624
100
AcDbLine
 10
191.19458
 20
80.454605
 30
0.0
 11
191.339386
 21
80.461533
 31
0.0
210
0.0
220
0.0
230
1.0
  0
LINE
  5
C4
100
AcDbEntity
  8
0
370
    35
390
0
 62
     7
 48
0.003625
100
AcDbLine
 10
191.339386
 20
80.461533
 30
0.0
 11
191.484375
 21
80.462967
 31
0.0
210
0.0
220
0.0
230
1.0
  0
LINE
  5
C5
100
AcDbEntity
  8
0
370
    35
390
0
 62
     7
 48
0.003626
100
AcDbLine
 10
191.484375
 20
80.462967
 30
0.0
 11
191.629364
 21
80.458923
 31
0.0
210
0.0
220
0.0
230
1.0
  0
LINE
  5
C6
100
AcDbEntity
  8
0
370
    35
390
0
 62
     7
 48
0.003625
100
AcDbLine
 10
191.629364
 20
80.458923
 30
0.0
 11
191.774048
 21
80.449417
 31
0.0
210
0.0
220
0.0
230
1.0
  0
LINE
  5
C7
100
AcDbEntity
  8
0
370
    35
390
0
 62
     7
 48
0.003622
100
AcDbLine
 10
191.774048
 20
80.449417
 30
0.0
 11
191.918152
 21
80.434555
 31
0.0
210
0.0
220
0.0
230
1.0
  0
LINE
  5
C8
100
AcDbEntity
  8
0
370
    35
390
0
 62
     7
 48
0.003224
100
AcDbLine
 10
191.918152
 20
80.434555
 30
0.0
 11
192.045898
 21
80.416901
 31
0.0
210
0.0
220
0.0
230
1.0
  0
LINE
  5
C9
100
AcDbEntity
  8
0
370
    35
390
0
 62
     7
 48
0.00322
100
AcDbLine
 10
192.045898
 20
80.416901
 30
0.0
 11
192.172882
 21
80.395233
 31
0.0
210
0.0
220
0.0
230
1.0
  0
LINE
  5
CA
100
AcDbEntity
  8
0
370
    35
390
0
 62
     7
 48
0.003217
100
AcDbLine
 10
192.172882
 20
80.395233
 30
0.0
 11
192.299011
 21
80.369736
 31
0.0
210
0.0
220
0.0
230
1.0
  0
LINE
  5
CB
100
AcDbEntity
  8
0
370
    35
390
0
 62
     7
 48
0.002409
100
AcDbLine
 10
192.299011
 20
80.369736
 30
0.0
 11
192.392944
 21
80.348206
 31
0.0
210
0.0
220
0.0
230
1.0
  0
LINE
  5
CC
100
AcDbEntity
  8
0
370
    35
390
0
 62
     7
 48
0.002405
100
AcDbLine
 10
192.392944
 20
80.348206
 30
0.0
 11
192.486237
 21
80.324722
 31
0.0
210
0.0
220
0.0
230
1.0
  0
LINE
  5
CD
100
AcDbEntity
  8
0
370
    35
390
0
 62
     7
 48
0.004799
100
AcDbLine
 10
192.486237
 20
80.324722
 30
0.0
 11
192.670898
 21
80.272278
 31
0.0
210
0.0
220
0.0
230
1.0
  0
LINE
  5
CE
100
AcDbEntity
  8
0
370
    35
390
0
 62
     7
 48
0.00478
100
AcDbLine
 10
192.670898
 20
80.272278
 30
0.0
 11
192.852722
 21
80.21315
 31
0.0
210
0.0
220
0.0
230
1.0
  0
LINE
  5
CF
100
AcDbEntity
  8
0
370
    35
390
0
 62
     7
 48
0.004342
100
AcDbLine
 10
192.852722
 20
80.21315
 30
0.0
 11
193.016022
 21
80.154037
 31
0.0
210
0.0
220
0.0
230
1.0
  0
LINE
  5
D0
100
AcDbEntity
  8
0
370
    35
390
0
 62
     7
 48
0.004327
100
AcDbLine
 10
193.016022
 20
80.154037
 30
0.0
 11
193.177002
 21
80.090408
 31
0.0
210
0.0
220
0.0
230
1.0
  0
LINE
  5
D1
100
AcDbEntity
  8
0
370
    35
390
0
 62
     7
 48
0.004311
100
AcDbLine
 10
193.177002
 20
80.090408
 30
0.0
 11
193.335632
 21
80.022797
 31
0.0
210
0.0
220
0.0
230
1.0
  0
LINE
  5
D2
100
AcDbEntity
  8
0
370
    35
390
0
 62
     7
 48
0.00301
100
AcDbLine
 10
193.335632
 20
80.022797
 30
0.0
 11
193.445374
 21
79.973282
 31
0.0
210
0.0
220
0.0
230
1.0
  0
LINE
  5
D3
100
AcDbEntity
  8
0
370
    35
390
0
 62
     7
 48
0.003
100
AcDbLine
 10
193.445374
 20
79.973282
 30
0.0
 11
193.553955
 21
79.922195
 31
0.0
210
0.0
220
0.0
230
1.0
  0
LINE
  5
D4
100
AcDbEntity
  8
0
370
    35
390
0
 62
     7
 48
0.003407
100
AcDbLine
 10
193.553955
 20
79.922195
 30
0.0
 11
193.676331
 21
79.862183
 31
0.0
210
0.0
220
0.0
230
1.0
  0
LINE
  5
D5
100
AcDbEntity
  8
0
370
    35
390
0
 62
     7
 48
0.003392
100
AcDbLine
 10
193.676331
 20
79.862183
 30
0.0
 11
193.79718
 21
79.800522
 31
0.0
210
0.0
220
0.0
230
1.0
  0
LINE
  5
D6
100
AcDbEntity
  8
0
370
    35
390
0
 62
     7
 48
0.003856
100
AcDbLine
 10
193.79718
 20
79.800522
 30
0.0
 11
193.933441
 21
79.728271
 31
0.0
210
0.0
220
0.0
230
1.0
  0
LINE
  5
D7
100
AcDbEntity
  8
0
370
    35
390
0
 62
     7
 48
0.003837
100
AcDbLine
 10
193.933441
 20
79.728271
 30
0.0
 11
194.067902
 21
79.654251
 31
0.0
210
0.0
220
0.0
230
1.0
  0
LINE
  5
D8
100
AcDbEntity
  8
0
370
    35
390
0
 62
     7
 48
0.003999
100
AcDbLine
 10
194.067902
 20
79.654251
 30
0.0
 11
194.206879
 21
79.575089
 31
0.0
210
0.0
220
0.0
230
1.0
  0
LINE
  5
D9
100
AcDbEntity
  8
0
370
    35
390
0
 62
     7
 48
0.003977
100
AcDbLine
 10
194.206879
 20
79.575089
 30
0.0
 11
194.344025
 21
79.494461
 31
0.0
210
0.0
220
0.0
230
1.0
  0
LINE
  5
DA
100
AcDbEntity
  8
0
370
    35
390
0
 62
     7
 48
0.007698
100
AcDbLine
 10
194.344025
 20
79.494461
 30
0.0
 11
194.606598
 21
79.333588
 31
0.0
210
0.0
220
0.0
230
1.0
  0
LINE
  5
DB
100
AcDbEntity
  8
0
370
    35
390
0
 62
     7
 48
0.007577
100
AcDbLine
 10
194.606598
 20
79.333588
 30
0.0
 11
194.861633
 21
79.16983
 31
0.0
210
0.0
220
0.0
230
1.0
  0
LINE
  5
DC
100
AcDbEntity
  8
0
370
    35
390
0
 62
     7
 48
0.008576
100
AcDbLine
 10
194.861633
 20
79.16983
 30
0.0
 11
195.146667
 21
78.978973
 31
0.0
210
0.0
220
0.0
230
1.0
  0
LINE
  5
DD
100
AcDbEntity
  8
0
370
    35
390
0
 62
     7
 48
0.003141
100
AcDbLine
 10
195.146667
 20
78.978973
 30
0.0
 11
195.252502
 21
78.91127
 31
0.0
210
0.0
220
0.0
230
1.0
  0
LINE
  5
DE
100
AcDbEntity
  8
0
370
    35
390
0
 62
     7
 48
0.003179
100
AcDbLine
 10
195.252502
 20
78.91127
 30
0.0
 11
195.363434
 21
78.849121
 31
0.0
210
0.0
220
0.0
230
1.0
  0
LINE
  5
DF
100
AcDbEntity
  8
0
370
    35
390
0
 62
     7
 48
0.00322
100
AcDbLine
 10
195.363434
 20
78.849121
 30
0.0
 11
195.479156
 21
78.792618
 31
0.0
210
0.0
220
0.0
230
1.0
  0
LINE
  5
E0
100
AcDbEntity
  8
0
370
    35
390
0
 62
     7
 48
0.00326
100
AcDbLine
 10
195.479156
 20
78.792618
 30
0.0
 11
195.599213
 21
78.741745
 31
0.0
210
0.0
220
0.0
230
1.0
  0
LINE
  5
E1
100
AcDbEntity
  8
0
370
    35
390
0
 62
     7
 48
0.003299
100
AcDbLine
 10
195.599213
 20
78.741745
 30
0.0
 11
195.723206
 21
78.696533
 31
0.0
210
0.0
220
0.0
230
1.0
  0
LINE
  5
E2
100
AcDbEntity
  8
0
370
    35
390
0
 62
     7
 48
0.003337
100
AcDbLine
 10
195.723206
 20
78.696533
 30
0.0
 11
195.850677
 21
78.656921
 31
0.0
210
0.0
220
0.0
230
1.0
  0
LINE
  5
E3
100
AcDbEntity
  8
0
370
    35
390
0
 62
     7
 48
0.003373
100
AcDbLine
 10
195.850677
 20
78.656921
 30
0.0
 11
195.981232
 21
78.622879
 31
0.0
210
0.0
220
0.0
230
1.0
  0
LINE
  5
E4
100
AcDbEntity
  8
0
370
    35
390
0
 62
     7
 48
0.001982
100
AcDbLine
 10
195.981232
 20
78.622879
 30
0.0
 11
196.058594
 21
78.605576
 31
0.0
210
0.0
220
0.0
230
1.0
  0
LINE
  5
E5
100
AcDbEntity
  8
0
370
    35
390
0
 62
     7
 48
0.001992
100
AcDbLine
 10
196.058594
 20
78.605576
 30
0.0
 11
196.136749
 21
78.590134
 31
0.0
210
0.0
220
0.0
230
1.0
  0
LINE
  5
E6
100
AcDbEntity
  8
0
370
    35
390
0
 62
     7
 48
0.004009
100
AcDbLine
 10
196.136749
 20
78.590134
 30
0.0
 11
196.295074
 21
78.564758
 31
0.0
210
0.0
220
0.0
230
1.0
  0
LINE
  5
E7
100
AcDbEntity
  8
0
370
    35
390
0
 62
     7
 48
0.004035
100
AcDbLine
 10
196.295074
 20
78.564758
 30
0.0
 11
196.455444
 21
78.546692
 31
0.0
210
0.0
220
0.0
230
1.0
  0
LINE
  5
E8
100
AcDbEntity
  8
0
370
    35
390
0
 62
     7
 48
0.004052
100
AcDbLine
 10
196.455444
 20
78.546692
 30
0.0
 11
196.617157
 21
78.535812
 31
0.0
210
0.0
220
0.0
230
1.0
  0
LINE
  5
E9
100
AcDbEntity
  8
0
370
    35
390
0
 62
     7
 48
0.004145
100
AcDbLine
 10
196.617157
 20
78.535812
 30
0.0
 11
196.782898
 21
78.532089
 31
0.0
210
0.0
220
0.0
230
1.0
  0
LINE
  5
EA
100
AcDbEntity
  8
0
370
    35
390
0
 62
     7
 48
0.124178
100
AcDbLine
 10
196.782898
 20
78.532089
 30
0.0
 11
201.75
 21
78.532089
 31
0.0
210
0.0
220
0.0
230
1.0
  0
LINE
  5
EB
100
AcDbEntity
  8
0
370
    35
390
0
 62
     7
 48
0.010052
100
AcDbLine
 10
206.049988
 20
77.143143
 30
0.0
 11
205.69989
 21
77.340851
 31
0.0
210
0.0
220
0.0
230
1.0
  0
LINE
  5
EC
100
AcDbEntity
  8
0
370
    35
390
0
 62
     7
 48
0.004011
100
AcDbLine
 10
205.69989
 20
77.340851
 30
0.0
 11
205.558838
 21
77.417313
 31
0.0
210
0.0
220
0.0
230
1.0
  0
LINE
  5
ED
100
AcDbEntity
  8
0
370
    35
390
0
 62
     7
 48
0.004589
100
AcDbLine
 10
205.558838
 20
77.417313
 30
0.0
 11
205.396454
 21
77.502945
 31
0.0
210
0.0
220
0.0
230
1.0
  0
LINE
  5
EE
100
AcDbEntity
  8
0
370
    35
390
0
 62
     7
 48
0.005021
100
AcDbLine
 10
205.396454
 20
77.502945
 30
0.0
 11
205.21756
 21
77.594223
 31
0.0
210
0.0
220
0.0
230
1.0
  0
LINE
  5
EF
100
AcDbEntity
  8
0
370
    35
390
0
 62
     7
 48
0.003837
100
AcDbLine
 10
205.21756
 20
77.594223
 30
0.0
 11
205.079926
 21
77.662155
 31
0.0
210
0.0
220
0.0
230
1.0
  0
LINE
  5
F0
100
AcDbEntity
  8
0
370
    35
390
0
 62
     7
 48
0.004006
100
AcDbLine
 10
205.079926
 20
77.662155
 30
0.0
 11
204.935364
 21
77.731323
 31
0.0
210
0.0
220
0.0
230
1.0
  0
LINE
  5
F1
100
AcDbEntity
  8
0
370
    35
390
0
 62
     7
 48
0.00499
100
AcDbLine
 10
204.935364
 20
77.731323
 30
0.0
 11
204.754059
 21
77.814758
 31
0.0
210
0.0
220
0.0
230
1.0
  0
LINE
  5
F2
100
AcDbEntity
  8
0
370
    35
390
0
 62
     7
 48
0.005178
100
AcDbLine
 10
204.754059
 20
77.814758
 30
0.0
 11
204.564362
 21
77.897934
 31
0.0
210
0.0
220
0.0
230
1.0
  0
LINE
  5
F3
100
AcDbEntity
  8
0
370
    35
390
0
 62
     7
 48
0.003546
100
AcDbLine
 10
204.564362
 20
77.897934
 30
0.0
 11
204.433533
 21
77.952744
 31
0.0
210
0.0
220
0.0
230
1.0
  0
LINE
  5
F4
100
AcDbEntity
  8
0
370
    35
390
0
 62
     7
 48
0.003613
100
AcDbLine
 10
204.433533
 20
77.952744
 30
0.0
 11
204.299469
 21
78.006714
 31
0.0
210
0.0
220
0.0
230
1.0
  0
LINE
  5
F5
100
AcDbEntity
  8
0
370
    35
390
0
 62
     7
 48
0.004914
100
AcDbLine
 10
204.299469
 20
78.006714
 30
0.0
 11
204.115845
 21
78.076859
 31
0.0
210
0.0
220
0.0
230
1.0
  0
LINE
  5
F6
100
AcDbEntity
  8
0
370
    35
390
0
 62
     7
 48
0.005012
100
AcDbLine
 10
204.115845
 20
78.076859
 30
0.0
 11
203.927032
 21
78.144302
 31
0.0
210
0.0
220
0.0
230
1.0
  0
LINE
  5
F7
100
AcDbEntity
  8
0
370
    35
390
0
 62
     7
 48
0.005104
100
AcDbLine
 10
203.927032
 20
78.144302
 30
0.0
 11
203.733215
 21
78.20842
 31
0.0
210
0.0
220
0.0
230
1.0
  0
LINE
  5
F8
100
AcDbEntity
  8
0
370
    35
390
0
 62
     7
 48
0.003198
100
AcDbLine
 10
203.733215
 20
78.20842
 30
0.0
 11
203.610962
 21
78.246124
 31
0.0
210
0.0
220
0.0
230
1.0
  0
LINE
  5
F9
100
AcDbEntity
  8
0
370
    35
390
0
 62
     7
 48
0.003229
100
AcDbLine
 10
203.610962
 20
78.246124
 30
0.0
 11
203.486938
 21
78.28215
 31
0.0
210
0.0
220
0.0
230
1.0
  0
LINE
  5
FA
100
AcDbEntity
  8
0
370
    35
390
0
 62
     7
 48
0.00309
100
AcDbLine
 10
203.486938
 20
78.28215
 30
0.0
 11
203.367706
 21
78.314651
 31
0.0
210
0.0
220
0.0
230
1.0
  0
LINE
  5
FB
100
AcDbEntity
  8
0
370
    35
390
0
 62
     7
 48
0.003114
100
AcDbLine
 10
203.367706
 20
78.314651
 30
0.0
 11
203.247009
 21
78.345367
 31
0.0
210
0.0
220
0.0
230
1.0
  0
LINE
  5
FC
100
AcDbEntity
  8
0
370
    35
390
0
 62
     7
 48
0.004837
100
AcDbLine
 10
203.247009
 20
78.345367
 30
0.0
 11
203.058472
 21
78.388855
 31
0.0
210
0.0
220
0.0
230
1.0
  0
LINE
  5
FD
100
AcDbEntity
  8
0
370
    35
390
0
 62
     7
 48
0.00488
100
AcDbLine
 10
203.058472
 20
78.388855
 30
0.0
 11
202.867096
 21
78.427322
 31
0.0
210
0.0
220
0.0
230
1.0
  0
LINE
  5
FE
100
AcDbEntity
  8
0
370
    35
390
0
 62
     7
 48
0.004915
100
AcDbLine
 10
202.867096
 20
78.427322
 30
0.0
 11
202.673279
 21
78.460312
 31
0.0
210
0.0
220
0.0
230
1.0
  0
LINE
  5
FF
100
AcDbEntity
  8
0
370
    35
390
0
 62
     7
 48
0.004944
100
AcDbLine
 10
202.673279
 20
78.460312
 30
0.0
 11
202.477386
 21
78.487427
 31
0.0
210
0.0
220
0.0
230
1.0
  0
LINE
  5
100
100
AcDbEntity
  8
0
370
    35
390
0
 62
     7
 48
0.004542
100
AcDbLine
 10
202.477386
 20
78.487427
 30
0.0
 11
202.296753
 21
78.506821
 31
0.0
210
0.0
220
0.0
230
1.0
  0
LINE
  5
101
100
AcDbEntity
  8
0
370
    35
390
0
 62
     7
 48
0.004552
100
AcDbLine
 10
202.296753
 20
78.506821
 30
0.0
 11
202.115204
 21
78.520813
 31
0.0
210
0.0
220
0.0
230
1.0
  0
LINE
  5
102
100
AcDbEntity
  8
0
370
    35
390
0
 62
     7
 48
0.004563
100
AcDbLine
 10
202.115204
 20
78.520813
 30
0.0
 11
201.932892
 21
78.529266
 31
0.0
210
0.0
220
0.0
230
1.0
  0
LINE
  5
103
100
AcDbEntity
  8
0
370
    35
390
0
 62
     7
 48
0.004573
100
AcDbLine
 10
201.932892
 20
78.529266
 30
0.0
 11
201.75
 21
78.532089
 31
0.0
210
0.0
220
0.0
230
1.0
  0
ARC
  5
104
100
AcDbEntity
  8
0
370
    35
390
0
 62
     7
100
AcDbCircle
 10
206.75
 20
77.443146
 30
0.0
 40
0.3
210
0.0
220
0.0
230
1.0
100
AcDbArc
 50
180.000009
 51
269.999997
  0
LINE
  5
105
100
AcDbEntity
  8
0
370
    35
390
0
 62
     7
 48
0.17
100
AcDbLine
 10
206.75
 20
83.943146
 30
0.0
 11
206.75
 21
77.143143
 31
0.0
210
0.0
220
0.0
230
1.0
  0
LINE
  5
106
100
AcDbEntity
  8
0
370
    35
390
0
 62
     7
 48
0.005
100
AcDbLine
 10
206.75
 20
77.143143
 30
0.0
 11
206.949982
 21
77.143143
 31
0.0
210
0.0
220
0.0
230
1.0
  0
LINE
  5
107
100
AcDbEntity
  8
0
370
    35
390
0
 62
     7
 48
0.003061
100
AcDbLine
 10
189.77243
 20
85.34314
 30
0.0
 11
189.649994
 21
85.34314
 31
0.0
210
0.0
220
0.0
230
1.0
  0
LINE
  5
108
100
AcDbEntity
  8
0
370
    35
390
0
 62
     7
 48
0.046939
100
AcDbLine
 10
191.649994
 20
85.34314
 30
0.0
 11
189.77243
 21
85.34314
 31
0.0
210
0.0
220
0.0
230
1.0
  0
LINE
  5
109
100
AcDbEntity
  8
0
370
    35
390
0
 62
     7
 48
0.003061
100
AcDbLine
 10
202.972443
 20
85.34314
 30
0.0
 11
202.850006
 21
85.34314
 31
0.0
210
0.0
220
0.0
230
1.0
  0
LINE
  5
10A
100
AcDbEntity
  8
0
370
    35
390
0
 62
     7
 48
0.046939
100
AcDbLine
 10
204.850006
 20
85.34314
 30
0.0
 11
202.972443
 21
85.34314
 31
0.0
210
0.0
220
0.0
230
1.0
  0
LINE
  5
10B
100
AcDbEntity
  8
0
370
    35
390
0
 62
     7
 48
0.006154
100
AcDbLine
 10
205.75
 20
76.843155
 30
0.0
 11
205.542572
 21
76.975723
 31
0.0
210
0.0
220
0.0
230
1.0
  0
LINE
  5
10C
100
AcDbEntity
  8
0
370
    35
390
0
 62
     7
 48
0.00662
100
AcDbLine
 10
205.542572
 20
76.975723
 30
0.0
 11
205.317108
 21
77.114594
 31
0.0
210
0.0
220
0.0
230
1.0
  0
LINE
  5
10D
100
AcDbEntity
  8
0
370
    35
390
0
 62
     7
 48
0.003914
100
AcDbLine
 10
205.317108
 20
77.114594
 30
0.0
 11
205.182617
 21
77.194748
 31
0.0
210
0.0
220
0.0
230
1.0
  0
LINE
  5
10E
100
AcDbEntity
  8
0
370
    35
390
0
 62
     7
 48
0.006439
100
AcDbLine
 10
205.182617
 20
77.194748
 30
0.0
 11
204.95932
 21
77.32309
 31
0.0
210
0.0
220
0.0
230
1.0
  0
LINE
  5
10F
100
AcDbEntity
  8
0
370
    35
390
0
 62
     7
 48
0.005179
100
AcDbLine
 10
204.95932
 20
77.32309
 30
0.0
 11
204.77774
 21
77.422806
 31
0.0
210
0.0
220
0.0
230
1.0
  0
LINE
  5
110
100
AcDbEntity
  8
0
370
    35
390
0
 62
     7
 48
0.005415
100
AcDbLine
 10
204.77774
 20
77.422806
 30
0.0
 11
204.585876
 21
77.523346
 31
0.0
210
0.0
220
0.0
230
1.0
  0
LINE
  5
111
100
AcDbEntity
  8
0
370
    35
390
0
 62
     7
 48
0.006594
100
AcDbLine
 10
204.585876
 20
77.523346
 30
0.0
 11
204.349365
 21
77.640106
 31
0.0
210
0.0
220
0.0
230
1.0
  0
LINE
  5
112
100
AcDbEntity
  8
0
370
    35
390
0
 62
     7
 48
0.003383
100
AcDbLine
 10
204.349365
 20
77.640106
 30
0.0
 11
204.226776
 21
77.697449
 31
0.0
210
0.0
220
0.0
230
1.0
  0
LINE
  5
113
100
AcDbEntity
  8
0
370
    35
390
0
 62
     7
 48
0.003433
100
AcDbLine
 10
204.226776
 20
77.697449
 30
0.0
 11
204.101501
 21
77.753708
 31
0.0
210
0.0
220
0.0
230
1.0
  0
LINE
  5
114
100
AcDbEntity
  8
0
370
    35
390
0
 62
     7
 48
0.004647
100
AcDbLine
 10
204.101501
 20
77.753708
 30
0.0
 11
203.930511
 21
77.826569
 31
0.0
210
0.0
220
0.0
230
1.0
  0
LINE
  5
115
100
AcDbEntity
  8
0
370
    35
390
0
 62
     7
 48
0.004715
100
AcDbLine
 10
203.930511
 20
77.826569
 30
0.0
 11
203.75531
 21
77.896362
 31
0.0
210
0.0
220
0.0
230
1.0
  0
LINE
  5
116
100
AcDbEntity
  8
0
370
    35
390
0
 62
     7
 48
0.004775
100
AcDbLine
 10
203.75531
 20
77.896362
 30
0.0
 11
203.57608
 21
77.962433
 31
0.0
210
0.0
220
0.0
230
1.0
  0
LINE
  5
117
100
AcDbEntity
  8
0
370
    35
390
0
 62
     7
 48
0.004828
100
AcDbLine
 10
203.57608
 20
77.962433
 30
0.0
 11
203.393066
 21
78.024124
 31
0.0
210
0.0
220
0.0
230
1.0
  0
LINE
  5
118
100
AcDbEntity
  8
0
370
    35
390
0
 62
     7
 48
0.004875
100
AcDbLine
 10
203.393066
 20
78.024124
 30
0.0
 11
203.206482
 21
78.080826
 31
0.0
210
0.0
220
0.0
230
1.0
  0
LINE
  5
119
100
AcDbEntity
  8
0
370
    35
390
0
 62
     7
 48
0.004917
100
AcDbLine
 10
203.206482
 20
78.080826
 30
0.0
 11
203.016541
 21
78.131943
 31
0.0
210
0.0
220
0.0
230
1.0
  0
LINE
  5
11A
100
AcDbEntity
  8
0
370
    35
390
0
 62
     7
 48
0.004956
100
AcDbLine
 10
203.016541
 20
78.131943
 30
0.0
 11
202.823456
 21
78.17691
 31
0.0
210
0.0
220
0.0
230
1.0
  0
LINE
  5
11B
100
AcDbEntity
  8
0
370
    35
390
0
 62
     7
 48
0.00499
100
AcDbLine
 10
202.823456
 20
78.17691
 30
0.0
 11
202.627563
 21
78.21521
 31
0.0
210
0.0
220
0.0
230
1.0
  0
LINE
  5
11C
100
AcDbEntity
  8
0
370
    35
390
0
 62
     7
 48
0.00502
100
AcDbLine
 10
202.627563
 20
78.21521
 30
0.0
 11
202.429199
 21
78.246338
 31
0.0
210
0.0
220
0.0
230
1.0
  0
LINE
  5
11D
100
AcDbEntity
  8
0
370
    35
390
0
 62
     7
 48
0.00252
100
AcDbLine
 10
202.429199
 20
78.246338
 30
0.0
 11
202.329224
 21
78.259079
 31
0.0
210
0.0
220
0.0
230
1.0
  0
LINE
  5
11E
100
AcDbEntity
  8
0
370
    35
390
0
 62
     7
 48
0.002525
100
AcDbLine
 10
202.329224
 20
78.259079
 30
0.0
 11
202.22879
 21
78.269882
 31
0.0
210
0.0
220
0.0
230
1.0
  0
LINE
  5
11F
100
AcDbEntity
  8
0
370
    35
390
0
 62
     7
 48
0.003375
100
AcDbLine
 10
202.22879
 20
78.269882
 30
0.0
 11
202.094269
 21
78.281189
 31
0.0
210
0.0
220
0.0
230
1.0
  0
LINE
  5
120
100
AcDbEntity
  8
0
370
    35
390
0
 62
     7
 48
0.003381
100
AcDbLine
 10
202.094269
 20
78.281189
 30
0.0
 11
201.959259
 21
78.288849
 31
0.0
210
0.0
220
0.0
230
1.0
  0
LINE
  5
121
100
AcDbEntity
  8
0
370
    35
390
0
 62
     7
 48
0.003384
100
AcDbLine
 10
201.959259
 20
78.288849
 30
0.0
 11
201.823944
 21
78.292801
 31
0.0
210
0.0
220
0.0
230
1.0
  0
LINE
  5
122
100
AcDbEntity
  8
0
370
    35
390
0
 62
     7
 48
0.001849
100
AcDbLine
 10
201.823944
 20
78.292801
 30
0.0
 11
201.75
 21
78.293365
 31
0.0
210
0.0
220
0.0
230
1.0
  0
ARC
  5
123
100
AcDbEntity
  8
0
370
    35
390
0
 62
     7
100
AcDbCircle
 10
206.050232
 20
76.842911
 30
0.0
 40
0.30027
210
0.0
220
0.0
230
1.0
100
AcDbArc
 50
90.046823
 51
179.953177
  0
LINE
  5
124
100
AcDbEntity
  8
0
370
    35
390
0
 62
     7
 48
0.005968
100
AcDbLine
 10
201.75
 20
78.532089
 30
0.0
 11
201.75
 21
78.293365
 31
0.0
210
0.0
220
0.0
230
1.0
  0
LINE
  5
125
100
AcDbEntity
  8
0
370
    35
390
0
 62
     7
 48
0.124178
100
AcDbLine
 10
196.782898
 20
78.293365
 30
0.0
 11
201.75
 21
78.293365
 31
0.0
210
0.0
220
0.0
230
1.0
  0
LINE
  5
126
100
AcDbEntity
  8
0
370
    35
390
0
 62
     7
 48
0.005968
100
AcDbLine
 10
196.782898
 20
78.293365
 30
0.0
 11
196.782898
 21
78.532089
 31
0.0
210
0.0
220
0.0
230
1.0
  0
LINE
  5
127
100
AcDbEntity
  8
0
370
    35
390
0
 62
     7
 48
0.003294
100
AcDbLine
 10
194.964874
 20
78.759964
 30
0.0
 11
195.077698
 21
78.69194
 31
0.0
210
0.0
220
0.0
230
1.0
  0
LINE
  5
128
100
AcDbEntity
  8
0
370
    35
390
0
 62
     7
 48
0.00333
100
AcDbLine
 10
195.077698
 20
78.69194
 30
0.0
 11
195.195343
 21
78.629501
 31
0.0
210
0.0
220
0.0
230
1.0
  0
LINE
  5
129
100
AcDbEntity
  8
0
370
    35
390
0
 62
     7
 48
0.003367
100
AcDbLine
 10
195.195343
 20
78.629501
 30
0.0
 11
195.317413
 21
78.572647
 31
0.0
210
0.0
220
0.0
230
1.0
  0
LINE
  5
12A
100
AcDbEntity
  8
0
370
    35
390
0
 62
     7
 48
0.003404
100
AcDbLine
 10
195.317413
 20
78.572647
 30
0.0
 11
195.443512
 21
78.521332
 31
0.0
210
0.0
220
0.0
230
1.0
  0
LINE
  5
12B
100
AcDbEntity
  8
0
370
    35
390
0
 62
     7
 48
0.003438
100
AcDbLine
 10
195.443512
 20
78.521332
 30
0.0
 11
195.573151
 21
78.475494
 31
0.0
210
0.0
220
0.0
230
1.0
  0
LINE
  5
12C
100
AcDbEntity
  8
0
370
    35
390
0
 62
     7
 48
0.003469
100
AcDbLine
 10
195.573151
 20
78.475494
 30
0.0
 11
195.705902
 21
78.435043
 31
0.0
210
0.0
220
0.0
230
1.0
  0
LINE
  5
12D
100
AcDbEntity
  8
0
370
    35
390
0
 62
     7
 48
0.002095
100
AcDbLine
 10
195.705902
 20
78.435043
 30
0.0
 11
195.786835
 21
78.41333
 31
0.0
210
0.0
220
0.0
230
1.0
  0
LINE
  5
12E
100
AcDbEntity
  8
0
370
    35
390
0
 62
     7
 48
0.002105
100
AcDbLine
 10
195.786835
 20
78.41333
 30
0.0
 11
195.868652
 21
78.393494
 31
0.0
210
0.0
220
0.0
230
1.0
  0
LINE
  5
12F
100
AcDbEntity
  8
0
370
    35
390
0
 62
     7
 48
0.004233
100
AcDbLine
 10
195.868652
 20
78.393494
 30
0.0
 11
196.034485
 21
78.35939
 31
0.0
210
0.0
220
0.0
230
1.0
  0
LINE
  5
130
100
AcDbEntity
  8
0
370
    35
390
0
 62
     7
 48
0.004259
100
AcDbLine
 10
196.034485
 20
78.35939
 30
0.0
 11
196.202698
 21
78.332535
 31
0.0
210
0.0
220
0.0
230
1.0
  0
LINE
  5
131
100
AcDbEntity
  8
0
370
    35
390
0
 62
     7
 48
0.004279
100
AcDbLine
 10
196.202698
 20
78.332535
 30
0.0
 11
196.372711
 21
78.312759
 31
0.0
210
0.0
220
0.0
230
1.0
  0
LINE
  5
132
100
AcDbEntity
  8
0
370
    35
390
0
 62
     7
 48
0.003417
100
AcDbLine
 10
196.372711
 20
78.312759
 30
0.0
 11
196.508972
 21
78.301971
 31
0.0
210
0.0
220
0.0
230
1.0
  0
LINE
  5
133
100
AcDbEntity
  8
0
370
    35
390
0
 62
     7
 48
0.003425
100
AcDbLine
 10
196.508972
 20
78.301971
 30
0.0
 11
196.645813
 21
78.295517
 31
0.0
210
0.0
220
0.0
230
1.0
  0
LINE
  5
134
100
AcDbEntity
  8
0
370
    35
390
0
 62
     7
 48
0.003428
100
AcDbLine
 10
196.645813
 20
78.295517
 30
0.0
 11
196.782898
 21
78.293365
 31
0.0
210
0.0
220
0.0
230
1.0
  0
ARC
  5
135
100
AcDbEntity
  8
0
370
    35
390
0
 62
     7
100
AcDbCircle
 10
195.453094
 20
78.54126
 30
0.0
 40
0.534775
210
0.0
220
0.0
230
1.0
100
AcDbArc
 50
124.99335
 51
155.869397
  0
LINE
  5
136
100
AcDbEntity
  8
0
370
    35
390
0
 62
     7
 48
0.011436
100
AcDbLine
 10
185.649994
 20
76.843155
 30
0.0
 11
185.990601
 21
77.148499
 31
0.0
210
0.0
220
0.0
230
1.0
  0
LINE
  5
137
100
AcDbEntity
  8
0
370
    35
390
0
 62
     7
 48
0.012147
100
AcDbLine
 10
185.990601
 20
77.148499
 30
0.0
 11
186.355408
 21
77.469437
 31
0.0
210
0.0
220
0.0
230
1.0
  0
LINE
  5
138
100
AcDbEntity
  8
0
370
    35
390
0
 62
     7
 48
0.006997
100
AcDbLine
 10
186.355408
 20
77.469437
 30
0.0
 11
186.567108
 21
77.652481
 31
0.0
210
0.0
220
0.0
230
1.0
  0
LINE
  5
139
100
AcDbEntity
  8
0
370
    35
390
0
 62
     7
 48
0.007602
100
AcDbLine
 10
186.567108
 20
77.652481
 30
0.0
 11
186.798645
 21
77.849579
 31
0.0
210
0.0
220
0.0
230
1.0
  0
LINE
  5
13A
100
AcDbEntity
  8
0
370
    35
390
0
 62
     7
 48
0.007964
100
AcDbLine
 10
186.798645
 20
77.849579
 30
0.0
 11
187.043091
 21
78.053879
 31
0.0
210
0.0
220
0.0
230
1.0
  0
LINE
  5
13B
100
AcDbEntity
  8
0
370
    35
390
0
 62
     7
 48
0.011017
100
AcDbLine
 10
187.043091
 20
78.053879
 30
0.0
 11
187.384766
 21
78.332184
 31
0.0
210
0.0
220
0.0
230
1.0
  0
LINE
  5
13C
100
AcDbEntity
  8
0
370
    35
390
0
 62
     7
 48
0.005732
100
AcDbLine
 10
187.384766
 20
78.332184
 30
0.0
 11
187.564362
 21
78.474731
 31
0.0
210
0.0
220
0.0
230
1.0
  0
LINE
  5
13D
100
AcDbEntity
  8
0
370
    35
390
0
 62
     7
 48
0.005819
100
AcDbLine
 10
187.564362
 20
78.474731
 30
0.0
 11
187.748108
 21
78.617615
 31
0.0
210
0.0
220
0.0
230
1.0
  0
LINE
  5
13E
100
AcDbEntity
  8
0
370
    35
390
0
 62
     7
 48
0.005751
100
AcDbLine
 10
187.748108
 20
78.617615
 30
0.0
 11
187.931244
 21
78.756821
 31
0.0
210
0.0
220
0.0
230
1.0
  0
LINE
  5
13F
100
AcDbEntity
  8
0
370
    35
390
0
 62
     7
 48
0.005816
100
AcDbLine
 10
187.931244
 20
78.756821
 30
0.0
 11
188.118195
 21
78.895309
 31
0.0
210
0.0
220
0.0
230
1.0
  0
LINE
  5
140
100
AcDbEntity
  8
0
370
    35
390
0
 62
     7
 48
0.007947
100
AcDbLine
 10
188.118195
 20
78.895309
 30
0.0
 11
188.37674
 21
79.080246
 31
0.0
210
0.0
220
0.0
230
1.0
  0
LINE
  5
141
100
AcDbEntity
  8
0
370
    35
390
0
 62
     7
 48
0.004234
100
AcDbLine
 10
188.37674
 20
79.080246
 30
0.0
 11
188.516113
 21
79.176437
 31
0.0
210
0.0
220
0.0
230
1.0
  0
LINE
  5
142
100
AcDbEntity
  8
0
370
    35
390
0
 62
     7
 48
0.004258
100
AcDbLine
 10
188.516113
 20
79.176437
 30
0.0
 11
188.657532
 21
79.271362
 31
0.0
210
0.0
220
0.0
230
1.0
  0
LINE
  5
143
100
AcDbEntity
  8
0
370
    35
390
0
 62
     7
 48
0.00383
100
AcDbLine
 10
188.657532
 20
79.271362
 30
0.0
 11
188.785858
 21
79.355026
 31
0.0
210
0.0
220
0.0
230
1.0
  0
LINE
  5
144
100
AcDbEntity
  8
0
370
    35
390
0
 62
     7
 48
0.003846
100
AcDbLine
 10
188.785858
 20
79.355026
 30
0.0
 11
188.915894
 21
79.437241
 31
0.0
210
0.0
220
0.0
230
1.0
  0
LINE
  5
145
100
AcDbEntity
  8
0
370
    35
390
0
 62
     7
 48
0.00625
100
AcDbLine
 10
188.915894
 20
79.437241
 30
0.0
 11
189.129822
 21
79.566574
 31
0.0
210
0.0
220
0.0
230
1.0
  0
LINE
  5
146
100
AcDbEntity
  8
0
370
    35
390
0
 62
     7
 48
0.003138
100
AcDbLine
 10
189.129822
 20
79.566574
 30
0.0
 11
189.238556
 21
79.629318
 31
0.0
210
0.0
220
0.0
230
1.0
  0
LINE
  5
147
100
AcDbEntity
  8
0
370
    35
390
0
 62
     7
 48
0.003147
100
AcDbLine
 10
189.238556
 20
79.629318
 30
0.0
 11
189.348511
 21
79.690598
 31
0.0
210
0.0
220
0.0
230
1.0
  0
LINE
  5
148
100
AcDbEntity
  8
0
370
    35
390
0
 62
     7
 48
0.004208
100
AcDbLine
 10
189.348511
 20
79.690598
 30
0.0
 11
189.49707
 21
79.769714
 31
0.0
210
0.0
220
0.0
230
1.0
  0
LINE
  5
149
100
AcDbEntity
  8
0
370
    35
390
0
 62
     7
 48
0.004221
100
AcDbLine
 10
189.49707
 20
79.769714
 30
0.0
 11
189.647919
 21
79.84552
 31
0.0
210
0.0
220
0.0
230
1.0
  0
LINE
  5
14A
100
AcDbEntity
  8
0
370
    35
390
0
 62
     7
 48
0.004233
100
AcDbLine
 10
189.647919
 20
79.84552
 30
0.0
 11
189.801147
 21
79.917526
 31
0.0
210
0.0
220
0.0
230
1.0
  0
LINE
  5
14B
100
AcDbEntity
  8
0
370
    35
390
0
 62
     7
 48
0.004775
100
AcDbLine
 10
189.801147
 20
79.917526
 30
0.0
 11
189.97644
 21
79.993408
 31
0.0
210
0.0
220
0.0
230
1.0
  0
LINE
  5
14C
100
AcDbEntity
  8
0
370
    35
390
0
 62
     7
 48
0.004788
100
AcDbLine
 10
189.97644
 20
79.993408
 30
0.0
 11
190.154816
 21
80.06311
 31
0.0
210
0.0
220
0.0
230
1.0
  0
LINE
  5
14D
100
AcDbEntity
  8
0
370
    35
390
0
 62
     7
 48
0.002462
100
AcDbLine
 10
190.154816
 20
80.06311
 30
0.0
 11
190.247559
 21
80.096237
 31
0.0
210
0.0
220
0.0
230
1.0
  0
LINE
  5
14E
100
AcDbEntity
  8
0
370
    35
390
0
 62
     7
 48
0.002464
100
AcDbLine
 10
190.247559
 20
80.096237
 30
0.0
 11
190.341064
 21
80.127396
 31
0.0
210
0.0
220
0.0
230
1.0
  0
LINE
  5
14F
100
AcDbEntity
  8
0
370
    35
390
0
 62
     7
 48
0.002341
100
AcDbLine
 10
190.341064
 20
80.127396
 30
0.0
 11
190.430511
 21
80.15506
 31
0.0
210
0.0
220
0.0
230
1.0
  0
LINE
  5
150
100
AcDbEntity
  8
0
370
    35
390
0
 62
     7
 48
0.002342
100
AcDbLine
 10
190.430511
 20
80.15506
 30
0.0
 11
190.520599
 21
80.180786
 31
0.0
210
0.0
220
0.0
230
1.0
  0
LINE
  5
151
100
AcDbEntity
  8
0
370
    35
390
0
 62
     7
 48
0.004256
100
AcDbLine
 10
190.520599
 20
80.180786
 30
0.0
 11
190.68573
 21
80.222107
 31
0.0
210
0.0
220
0.0
230
1.0
  0
LINE
  5
152
100
AcDbEntity
  8
0
370
    35
390
0
 62
     7
 48
0.00213
100
AcDbLine
 10
190.68573
 20
80.222107
 30
0.0
 11
190.769012
 21
80.240021
 31
0.0
210
0.0
220
0.0
230
1.0
  0
LINE
  5
153
100
AcDbEntity
  8
0
370
    35
390
0
 62
     7
 48
0.00213
100
AcDbLine
 10
190.769012
 20
80.240021
 30
0.0
 11
190.852692
 21
80.256012
 31
0.0
210
0.0
220
0.0
230
1.0
  0
LINE
  5
154
100
AcDbEntity
  8
0
370
    35
390
0
 62
     7
 48
0.002841
100
AcDbLine
 10
190.852692
 20
80.256012
 30
0.0
 11
190.964874
 21
80.274216
 31
0.0
210
0.0
220
0.0
230
1.0
  0
LINE
  5
155
100
AcDbEntity
  8
0
370
    35
390
0
 62
     7
 48
0.002842
100
AcDbLine
 10
190.964874
 20
80.274216
 30
0.0
 11
191.077637
 21
80.288757
 31
0.0
210
0.0
220
0.0
230
1.0
  0
LINE
  5
156
100
AcDbEntity
  8
0
370
    35
390
0
 62
     7
 48
0.002843
100
AcDbLine
 10
191.077637
 20
80.288757
 30
0.0
 11
191.190826
 21
80.29953
 31
0.0
210
0.0
220
0.0
230
1.0
  0
LINE
  5
157
100
AcDbEntity
  8
0
370
    35
390
0
 62
     7
 48
0.003413
100
AcDbLine
 10
191.190826
 20
80.29953
 30
0.0
 11
191.327118
 21
80.307373
 31
0.0
210
0.0
220
0.0
230
1.0
  0
LINE
  5
158
100
AcDbEntity
  8
0
370
    35
390
0
 62
     7
 48
0.003413
100
AcDbLine
 10
191.327118
 20
80.307373
 30
0.0
 11
191.463623
 21
80.309616
 31
0.0
210
0.0
220
0.0
230
1.0
  0
LINE
  5
159
100
AcDbEntity
  8
0
370
    35
390
0
 62
     7
 48
0.003415
100
AcDbLine
 10
191.463623
 20
80.309616
 30
0.0
 11
191.600189
 21
80.306229
 31
0.0
210
0.0
220
0.0
230
1.0
  0
LINE
  5
15A
100
AcDbEntity
  8
0
370
    35
390
0
 62
     7
 48
0.003415
100
AcDbLine
 10
191.600189
 20
80.306229
 30
0.0
 11
191.736481
 21
80.297241
 31
0.0
210
0.0
220
0.0
230
1.0
  0
LINE
  5
15B
100
AcDbEntity
  8
0
370
    35
390
0
 62
     7
 48
0.003415
100
AcDbLine
 10
191.736481
 20
80.297241
 30
0.0
 11
191.872314
 21
80.282745
 31
0.0
210
0.0
220
0.0
230
1.0
  0
LINE
  5
15C
100
AcDbEntity
  8
0
370
    35
390
0
 62
     7
 48
0.003019
100
AcDbLine
 10
191.872314
 20
80.282745
 30
0.0
 11
191.991821
 21
80.265457
 31
0.0
210
0.0
220
0.0
230
1.0
  0
LINE
  5
15D
100
AcDbEntity
  8
0
370
    35
390
0
 62
     7
 48
0.003016
100
AcDbLine
 10
191.991821
 20
80.265457
 30
0.0
 11
192.110565
 21
80.244095
 31
0.0
210
0.0
220
0.0
230
1.0
  0
LINE
  5
15E
100
AcDbEntity
  8
0
370
    35
390
0
 62
     7
 48
0.003013
100
AcDbLine
 10
192.110565
 20
80.244095
 30
0.0
 11
192.228424
 21
80.218872
 31
0.0
210
0.0
220
0.0
230
1.0
  0
LINE
  5
15F
100
AcDbEntity
  8
0
370
    35
390
0
 62
     7
 48
0.002258
100
AcDbLine
 10
192.228424
 20
80.218872
 30
0.0
 11
192.316162
 21
80.19751
 31
0.0
210
0.0
220
0.0
230
1.0
  0
LINE
  5
160
100
AcDbEntity
  8
0
370
    35
390
0
 62
     7
 48
0.002256
100
AcDbLine
 10
192.316162
 20
80.19751
 30
0.0
 11
192.40332
 21
80.174164
 31
0.0
210
0.0
220
0.0
230
1.0
  0
LINE
  5
161
100
AcDbEntity
  8
0
370
    35
390
0
 62
     7
 48
0.004507
100
AcDbLine
 10
192.40332
 20
80.174164
 30
0.0
 11
192.575867
 21
80.121918
 31
0.0
210
0.0
220
0.0
230
1.0
  0
LINE
  5
162
100
AcDbEntity
  8
0
370
    35
390
0
 62
     7
 48
0.004499
100
AcDbLine
 10
192.575867
 20
80.121918
 30
0.0
 11
192.74588
 21
80.062866
 31
0.0
210
0.0
220
0.0
230
1.0
  0
LINE
  5
163
100
AcDbEntity
  8
0
370
    35
390
0
 62
     7
 48
0.00379
100
AcDbLine
 10
192.74588
 20
80.062866
 30
0.0
 11
192.887329
 21
80.00827
 31
0.0
210
0.0
220
0.0
230
1.0
  0
LINE
  5
164
100
AcDbEntity
  8
0
370
    35
390
0
 62
     7
 48
0.003782
100
AcDbLine
 10
192.887329
 20
80.00827
 30
0.0
 11
193.026825
 21
79.949768
 31
0.0
210
0.0
220
0.0
230
1.0
  0
LINE
  5
165
100
AcDbEntity
  8
0
370
    35
390
0
 62
     7
 48
0.003772
100
AcDbLine
 10
193.026825
 20
79.949768
 30
0.0
 11
193.164368
 21
79.887711
 31
0.0
210
0.0
220
0.0
230
1.0
  0
LINE
  5
166
100
AcDbEntity
  8
0
370
    35
390
0
 62
     7
 48
0.002823
100
AcDbLine
 10
193.164368
 20
79.887711
 30
0.0
 11
193.266266
 21
79.839066
 31
0.0
210
0.0
220
0.0
230
1.0
  0
LINE
  5
167
100
AcDbEntity
  8
0
370
    35
390
0
 62
     7
 48
0.002816
100
AcDbLine
 10
193.266266
 20
79.839066
 30
0.0
 11
193.367035
 21
79.788757
 31
0.0
210
0.0
220
0.0
230
1.0
  0
LINE
  5
168
100
AcDbEntity
  8
0
370
    35
390
0
 62
     7
 48
0.005612
100
AcDbLine
 10
193.367035
 20
79.788757
 30
0.0
 11
193.56543
 21
79.683701
 31
0.0
210
0.0
220
0.0
230
1.0
  0
LINE
  5
169
100
AcDbEntity
  8
0
370
    35
390
0
 62
     7
 48
0.005583
100
AcDbLine
 10
193.56543
 20
79.683701
 30
0.0
 11
193.759674
 21
79.573502
 31
0.0
210
0.0
220
0.0
230
1.0
  0
LINE
  5
16A
100
AcDbEntity
  8
0
370
    35
390
0
 62
     7
 48
0.006169
100
AcDbLine
 10
193.759674
 20
79.573502
 30
0.0
 11
193.970947
 21
79.446014
 31
0.0
210
0.0
220
0.0
230
1.0
  0
LINE
  5
16B
100
AcDbEntity
  8
0
370
    35
390
0
 62
     7
 48
0.00613
100
AcDbLine
 10
193.970947
 20
79.446014
 30
0.0
 11
194.177734
 21
79.314224
 31
0.0
210
0.0
220
0.0
230
1.0
  0
LINE
  5
16C
100
AcDbEntity
  8
0
370
    35
390
0
 62
     7
 48
0.006091
100
AcDbLine
 10
194.177734
 20
79.314224
 30
0.0
 11
194.380371
 21
79.178986
 31
0.0
210
0.0
220
0.0
230
1.0
  0
LINE
  5
16D
100
AcDbEntity
  8
0
370
    35
390
0
 62
     7
 48
0.004233
100
AcDbLine
 10
194.380371
 20
79.178986
 30
0.0
 11
194.519714
 21
79.082779
 31
0.0
210
0.0
220
0.0
230
1.0
  0
LINE
  5
16E
100
AcDbEntity
  8
0
370
    35
390
0
 62
     7
 48
0.00421
100
AcDbLine
 10
194.519714
 20
79.082779
 30
0.0
 11
194.657196
 21
78.985504
 31
0.0
210
0.0
220
0.0
230
1.0
  0
LINE
  5
16F
100
AcDbEntity
  8
0
370
    35
390
0
 62
     7
 48
0.004788
100
AcDbLine
 10
194.657196
 20
78.985504
 30
0.0
 11
194.812286
 21
78.873138
 31
0.0
210
0.0
220
0.0
230
1.0
  0
LINE
  5
170
100
AcDbEntity
  8
0
370
    35
390
0
 62
     7
 48
0.004749
100
AcDbLine
 10
194.812286
 20
78.873138
 30
0.0
 11
194.964874
 21
78.759964
 31
0.0
210
0.0
220
0.0
230
1.0
  0
ARC
  5
171
100
AcDbEntity
  8
0
370
    35
390
0
 62
     7
100
AcDbCircle
 10
185.349762
 20
76.842911
 30
0.0
 40
0.30027
210
0.0
220
0.0
230
1.0
100
AcDbArc
 50
0.046825
 51
89.953175
  0
LINE
  5
172
100
AcDbEntity
  8
0
370
    35
390
0
 62
     7
 48
0.0075
100
AcDbLine
 10
190.799988
 20
85.642731
 30
0.0
 11
190.5
 21
85.642731
 31
0.0
210
0.0
220
0.0
230
1.0
  0
LINE
  5
173
100
AcDbEntity
  8
0
370
    35
390
0
 62
     7
 48
0.001736
100
AcDbLine
 10
190.035706
 20
85.643143
 30
0.0
 11
189.966278
 21
85.643143
 31
0.0
210
0.0
220
0.0
230
1.0
  0
LINE
  5
174
100
AcDbEntity
  8
0
370
    35
390
0
 62
     7
 48
0.000406
100
AcDbLine
 10
189.966278
 20
85.643143
 30
0.0
 11
189.950043
 21
85.642731
 31
0.0
210
0.0
220
0.0
230
1.0
  0
LINE
  5
175
100
AcDbEntity
  8
0
370
    35
390
0
 62
     7
 48
0.000406
100
AcDbLine
 10
191.349976
 20
85.642731
 30
0.0
 11
191.33374
 21
85.643143
 31
0.0
210
0.0
220
0.0
230
1.0
  0
LINE
  5
176
100
AcDbEntity
  8
0
370
    35
390
0
 62
     7
 48
0.013343
100
AcDbLine
 10
191.33374
 20
85.643143
 30
0.0
 11
190.800018
 21
85.643143
 31
0.0
210
0.0
220
0.0
230
1.0
  0
LINE
  5
177
100
AcDbEntity
  8
0
370
    35
390
0
 62
     7
 48
0.0075
100
AcDbLine
 10
190.799988
 20
85.642731
 30
0.0
 11
190.5
 21
85.642731
 31
0.0
210
0.0
220
0.0
230
1.0
  0
LINE
  5
178
100
AcDbEntity
  8
0
370
    35
390
0
 62
     7
 48
0.011607
100
AcDbLine
 10
190.5
 20
85.643143
 30
0.0
 11
190.035706
 21
85.643143
 31
0.0
210
0.0
220
0.0
230
1.0
  0
LINE
  5
179
100
AcDbEntity
  8
0
370
    35
390
0
 62
     7
 48
0.000406
100
AcDbLine
 10
191.33374
 20
85.643143
 30
0.0
 11
191.349976
 21
85.642731
 31
0.0
210
0.0
220
0.0
230
1.0
  0
LINE
  5
17A
100
AcDbEntity
  8
0
370
    35
390
0
 62
     7
 48
0.0075
100
AcDbLine
 10
204.0
 20
85.642731
 30
0.0
 11
203.700012
 21
85.642731
 31
0.0
210
0.0
220
0.0
230
1.0
  0
LINE
  5
17B
100
AcDbEntity
  8
0
370
    35
390
0
 62
     7
 48
0.001736
100
AcDbLine
 10
203.235718
 20
85.643143
 30
0.0
 11
203.16626
 21
85.643143
 31
0.0
210
0.0
220
0.0
230
1.0
  0
LINE
  5
17C
100
AcDbEntity
  8
0
370
    35
390
0
 62
     7
 48
0.000406
100
AcDbLine
 10
203.16626
 20
85.643143
 30
0.0
 11
203.150024
 21
85.642731
 31
0.0
210
0.0
220
0.0
230
1.0
  0
LINE
  5
17D
100
AcDbEntity
  8
0
370
    35
390
0
 62
     7
 48
0.000406
100
AcDbLine
 10
204.549988
 20
85.642731
 30
0.0
 11
204.533752
 21
85.643143
 31
0.0
210
0.0
220
0.0
230
1.0
  0
LINE
  5
17E
100
AcDbEntity
  8
0
370
    35
390
0
 62
     7
 48
0.013344
100
AcDbLine
 10
204.533752
 20
85.643143
 30
0.0
 11
204.0
 21
85.643143
 31
0.0
210
0.0
220
0.0
230
1.0
  0
LINE
  5
17F
100
AcDbEntity
  8
0
370
    35
390
0
 62
     7
 48
0.0075
100
AcDbLine
 10
204.0
 20
85.642731
 30
0.0
 11
203.700012
 21
85.642731
 31
0.0
210
0.0
220
0.0
230
1.0
  0
LINE
  5
180
100
AcDbEntity
  8
0
370
    35
390
0
 62
     7
 48
0.011607
100
AcDbLine
 10
203.700012
 20
85.643143
 30
0.0
 11
203.235718
 21
85.643143
 31
0.0
210
0.0
220
0.0
230
1.0
  0
LINE
  5
181
100
AcDbEntity
  8
0
370
    35
390
0
 62
     7
 48
0.000406
100
AcDbLine
 10
204.533752
 20
85.643143
 30
0.0
 11
204.549988
 21
85.642731
 31
0.0
210
0.0
220
0.0
230
1.0
  0
LINE
  5
182
100
AcDbEntity
  8
0
370
    35
390
0
 62
     7
 48
0.136255
100
AcDbLine
 10
201.75
 20
78.293365
 30
0.0
 11
201.75
 21
72.843155
 31
0.0
210
0.0
220
0.0
230
1.0
  0
LINE
  5
183
100
AcDbEntity
  8
0
370
    35
390
0
 62
     7
 48
0.1
100
AcDbLine
 10
201.75
 20
72.843155
 30
0.0
 11
205.75
 21
72.843155
 31
0.0
210
0.0
220
0.0
230
1.0
  0
LINE
  5
184
100
AcDbEntity
  8
0
370
    35
390
0
 62
     7
 48
0.136255
100
AcDbLine
 10
196.782898
 20
78.293365
 30
0.0
 11
196.782898
 21
72.843155
 31
0.0
210
0.0
220
0.0
230
1.0
  0
LINE
  5
185
100
AcDbEntity
  8
0
370
    35
390
0
 62
     7
 48
0.124178
100
AcDbLine
 10
201.75
 20
72.843155
 30
0.0
 11
196.782898
 21
72.843155
 31
0.0
210
0.0
220
0.0
230
1.0
  0
LINE
  5
186
100
AcDbEntity
  8
0
370
    35
390
0
 62
     7
 48
0.14792
100
AcDbLine
 10
194.964874
 20
78.759964
 30
0.0
 11
194.964874
 21
72.843155
 31
0.0
210
0.0
220
0.0
230
1.0
  0
LINE
  5
187
100
AcDbEntity
  8
0
370
    35
390
0
 62
     7
 48
0.0075
100
AcDbLine
 10
194.964874
 20
72.843155
 30
0.0
 11
194.964874
 21
72.543152
 31
0.0
210
0.0
220
0.0
230
1.0
  0
LINE
  5
188
100
AcDbEntity
  8
0
370
    35
390
0
 62
     7
 48
0.001335
100
AcDbLine
 10
195.950378
 20
72.843155
 30
0.0
 11
195.897003
 21
72.841873
 31
0.0
210
0.0
220
0.0
230
1.0
  0
LINE
  5
189
100
AcDbEntity
  8
0
370
    35
390
0
 62
     7
 48
0.001328
100
AcDbLine
 10
195.897003
 20
72.841873
 30
0.0
 11
195.843994
 21
72.838196
 31
0.0
210
0.0
220
0.0
230
1.0
  0
LINE
  5
18A
100
AcDbEntity
  8
0
370
    35
390
0
 62
     7
 48
0.00137
100
AcDbLine
 10
195.843994
 20
72.838196
 30
0.0
 11
195.78952
 21
72.832077
 31
0.0
210
0.0
220
0.0
230
1.0
  0
LINE
  5
18B
100
AcDbEntity
  8
0
370
    35
390
0
 62
     7
 48
0.001365
100
AcDbLine
 10
195.78952
 20
72.832077
 30
0.0
 11
195.735535
 21
72.823807
 31
0.0
210
0.0
220
0.0
230
1.0
  0
LINE
  5
18C
100
AcDbEntity
  8
0
370
    35
390
0
 62
     7
 48
0.002674
100
AcDbLine
 10
195.735535
 20
72.823807
 30
0.0
 11
195.630829
 21
72.802048
 31
0.0
210
0.0
220
0.0
230
1.0
  0
LINE
  5
18D
100
AcDbEntity
  8
0
370
    35
390
0
 62
     7
 48
0.002655
100
AcDbLine
 10
195.630829
 20
72.802048
 30
0.0
 11
195.52832
 21
72.774246
 31
0.0
210
0.0
220
0.0
230
1.0
  0
LINE
  5
18E
100
AcDbEntity
  8
0
370
    35
390
0
 62
     7
 48
0.002631
100
AcDbLine
 10
195.52832
 20
72.774246
 30
0.0
 11
195.428223
 21
72.74173
 31
0.0
210
0.0
220
0.0
230
1.0
  0
LINE
  5
18F
100
AcDbEntity
  8
0
370
    35
390
0
 62
     7
 48
0.002601
100
AcDbLine
 10
195.428223
 20
72.74173
 30
0.0
 11
195.330627
 21
72.705688
 31
0.0
210
0.0
220
0.0
230
1.0
  0
LINE
  5
190
100
AcDbEntity
  8
0
370
    35
390
0
 62
     7
 48
0.002146
100
AcDbLine
 10
195.330627
 20
72.705688
 30
0.0
 11
195.251007
 21
72.673584
 31
0.0
210
0.0
220
0.0
230
1.0
  0
LINE
  5
191
100
AcDbEntity
  8
0
370
    35
390
0
 62
     7
 48
0.002119
100
AcDbLine
 10
195.251007
 20
72.673584
 30
0.0
 11
195.173096
 21
72.640182
 31
0.0
210
0.0
220
0.0
230
1.0
  0
LINE
  5
192
100
AcDbEntity
  8
0
370
    35
390
0
 62
     7
 48
0.0029
100
AcDbLine
 10
195.173096
 20
72.640182
 30
0.0
 11
195.067474
 21
72.592239
 31
0.0
210
0.0
220
0.0
230
1.0
  0
LINE
  5
193
100
AcDbEntity
  8
0
370
    35
390
0
 62
     7
 48
0.002843
100
AcDbLine
 10
195.067474
 20
72.592239
 30
0.0
 11
194.964874
 21
72.543152
 31
0.0
210
0.0
220
0.0
230
1.0
  0
LINE
  5
194
100
AcDbEntity
  8
0
370
    35
390
0
 62
     7
 48
0.020813
100
AcDbLine
 10
195.950378
 20
72.843155
 30
0.0
 11
196.782898
 21
72.843155
 31
0.0
210
0.0
220
0.0
230
1.0
  0
LINE
  5
195
100
AcDbEntity
  8
0
370
    35
390
0
 62
     7
 48
0.146969
100
AcDbLine
 10
188.51062
 20
68.643143
 30
0.0
 11
194.389374
 21
68.643143
 31
0.0
210
0.0
220
0.0
230
1.0
  0
LINE
  5
196
100
AcDbEntity
  8
0
370
    35
390
0
 62
     7
 48
0.018363
100
AcDbLine
 10
140.049988
 20
89.208633
 30
0.0
 11
140.049988
 21
89.943146
 31
0.0
210
0.0
220
0.0
230
1.0
  0
LINE
  5
197
100
AcDbEntity
  8
0
370
    35
390
0
 62
     7
 48
0.281637
100
AcDbLine
 10
140.049988
 20
77.943146
 30
0.0
 11
140.049988
 21
89.208633
 31
0.0
210
0.0
220
0.0
230
1.0
  0
LINE
  5
198
100
AcDbEntity
  8
0
370
    35
390
0
 62
     7
 48
0.057128
100
AcDbLine
 10
194.964874
 20
72.543152
 30
0.0
 11
197.25
 21
72.543152
 31
0.0
210
0.0
220
0.0
230
1.0
  0
LINE
  5
199
100
AcDbEntity
  8
0
370
    35
390
0
 62
     7
 48
0.017751
100
AcDbLine
 10
196.539978
 20
67.143143
 30
0.0
 11
197.25
 21
67.143143
 31
0.0
210
0.0
220
0.0
230
1.0
  0
LINE
  5
19A
100
AcDbEntity
  8
0
370
    35
390
0
 62
     7
 48
0.071516
100
AcDbLine
 10
185.649994
 20
67.143143
 30
0.0
 11
188.51062
 21
67.143143
 31
0.0
210
0.0
220
0.0
230
1.0
  0
LINE
  5
19B
100
AcDbEntity
  8
0
370
    35
390
0
 62
     7
 48
0.0375
100
AcDbLine
 10
188.51062
 20
68.643143
 30
0.0
 11
188.51062
 21
67.143143
 31
0.0
210
0.0
220
0.0
230
1.0
  0
LINE
  5
19C
100
AcDbEntity
  8
0
370
    35
390
0
 62
     7
 48
0.053765
100
AcDbLine
 10
194.389374
 20
67.143143
 30
0.0
 11
196.539978
 21
67.143143
 31
0.0
210
0.0
220
0.0
230
1.0
  0
LINE
  5
19D
100
AcDbEntity
  8
0
370
    35
390
0
 62
     7
 48
0.0375
100
AcDbLine
 10
194.389374
 20
68.643143
 30
0.0
 11
194.389374
 21
67.143143
 31
0.0
210
0.0
220
0.0
230
1.0
  0
LINE
  5
19E
100
AcDbEntity
  8
0
370
    35
390
0
 62
     7
 48
0.0875
100
AcDbLine
 10
198.25
 20
72.243149
 30
0.0
 11
201.75
 21
72.243149
 31
0.0
210
0.0
220
0.0
230
1.0
  0
LINE
  5
19F
100
AcDbEntity
  8
0
370
    35
390
0
 62
     7
 48
0.0875
100
AcDbLine
 10
201.75
 20
72.243149
 30
0.0
 11
205.25
 21
72.243149
 31
0.0
210
0.0
220
0.0
230
1.0
  0
LINE
  5
1A0
100
AcDbEntity
  8
0
370
    35
390
0
 62
     7
 48
0.015924
100
AcDbLine
 10
196.101196
 20
66.643143
 30
0.0
 11
196.738159
 21
66.643143
 31
0.0
210
0.0
220
0.0
230
1.0
  0
LINE
  5
1A1
100
AcDbEntity
  8
0
370
    35
390
0
 62
     7
 48
0.000773
100
AcDbLine
 10
188.51062
 20
67.143143
 30
0.0
 11
188.512512
 21
67.112289
 31
0.0
210
0.0
220
0.0
230
1.0
  0
LINE
  5
1A2
100
AcDbEntity
  8
0
370
    35
390
0
 62
     7
 48
0.000774
100
AcDbLine
 10
188.512512
 20
67.112289
 30
0.0
 11
188.518066
 21
67.081833
 31
0.0
210
0.0
220
0.0
230
1.0
  0
LINE
  5
1A3
100
AcDbEntity
  8
0
370
    35
390
0
 62
     7
 48
0.000588
100
AcDbLine
 10
188.518066
 20
67.081833
 30
0.0
 11
188.524628
 21
67.05925
 31
0.0
210
0.0
220
0.0
230
1.0
  0
LINE
  5
1A4
100
AcDbEntity
  8
0
370
    35
390
0
 62
     7
 48
0.00059
100
AcDbLine
 10
188.524628
 20
67.05925
 30
0.0
 11
188.533081
 21
67.037201
 31
0.0
210
0.0
220
0.0
230
1.0
  0
LINE
  5
1A5
100
AcDbEntity
  8
0
370
    35
390
0
 62
     7
 48
0.000667
100
AcDbLine
 10
188.533081
 20
67.037201
 30
0.0
 11
188.544678
 21
67.013153
 31
0.0
210
0.0
220
0.0
230
1.0
  0
LINE
  5
1A6
100
AcDbEntity
  8
0
370
    35
390
0
 62
     7
 48
0.000666
100
AcDbLine
 10
188.544678
 20
67.013153
 30
0.0
 11
188.558197
 21
66.990204
 31
0.0
210
0.0
220
0.0
230
1.0
  0
LINE
  5
1A7
100
AcDbEntity
  8
0
370
    35
390
0
 62
     7
 48
0.001218
100
AcDbLine
 10
188.558197
 20
66.990204
 30
0.0
 11
188.587128
 21
66.951004
 31
0.0
210
0.0
220
0.0
230
1.0
  0
LINE
  5
1A8
100
AcDbEntity
  8
0
370
    35
390
0
 62
     7
 48
0.001221
100
AcDbLine
 10
188.587128
 20
66.951004
 30
0.0
 11
188.620514
 21
66.915344
 31
0.0
210
0.0
220
0.0
230
1.0
  0
LINE
  5
1A9
100
AcDbEntity
  8
0
370
    35
390
0
 62
     7
 48
0.001222
100
AcDbLine
 10
188.620514
 20
66.915344
 30
0.0
 11
188.657288
 21
66.883118
 31
0.0
210
0.0
220
0.0
230
1.0
  0
LINE
  5
1AA
100
AcDbEntity
  8
0
370
    35
390
0
 62
     7
 48
0.000899
100
AcDbLine
 10
188.657288
 20
66.883118
 30
0.0
 11
188.686005
 21
66.861481
 31
0.0
210
0.0
220
0.0
230
1.0
  0
LINE
  5
1AB
100
AcDbEntity
  8
0
370
    35
390
0
 62
     7
 48
0.0009
100
AcDbLine
 10
188.686005
 20
66.861481
 30
0.0
 11
188.715912
 21
66.841431
 31
0.0
210
0.0
220
0.0
230
1.0
  0
LINE
  5
1AC
100
AcDbEntity
  8
0
370
    35
390
0
 62
     7
 48
0.001801
100
AcDbLine
 10
188.715912
 20
66.841431
 30
0.0
 11
188.778473
 21
66.80571
 31
0.0
210
0.0
220
0.0
230
1.0
  0
LINE
  5
1AD
100
AcDbEntity
  8
0
370
    35
390
0
 62
     7
 48
0.001801
100
AcDbLine
 10
188.778473
 20
66.80571
 30
0.0
 11
188.843719
 21
66.775162
 31
0.0
210
0.0
220
0.0
230
1.0
  0
LINE
  5
1AE
100
AcDbEntity
  8
0
370
    35
390
0
 62
     7
 48
0.001251
100
AcDbLine
 10
188.843719
 20
66.775162
 30
0.0
 11
188.890198
 21
66.756622
 31
0.0
210
0.0
220
0.0
230
1.0
  0
LINE
  5
1AF
100
AcDbEntity
  8
0
370
    35
390
0
 62
     7
 48
0.001251
100
AcDbLine
 10
188.890198
 20
66.756622
 30
0.0
 11
188.937408
 21
66.740051
 31
0.0
210
0.0
220
0.0
230
1.0
  0
LINE
  5
1B0
100
AcDbEntity
  8
0
370
    35
390
0
 62
     7
 48
0.001447
100
AcDbLine
 10
188.937408
 20
66.740051
 30
0.0
 11
188.992737
 21
66.723083
 31
0.0
210
0.0
220
0.0
230
1.0
  0
LINE
  5
1B1
100
AcDbEntity
  8
0
370
    35
390
0
 62
     7
 48
0.001447
100
AcDbLine
 10
188.992737
 20
66.723083
 30
0.0
 11
189.048676
 21
66.708267
 31
0.0
210
0.0
220
0.0
230
1.0
  0
LINE
  5
1B2
100
AcDbEntity
  8
0
370
    35
390
0
 62
     7
 48
0.002712
100
AcDbLine
 10
189.048676
 20
66.708267
 30
0.0
 11
189.154755
 21
66.685623
 31
0.0
210
0.0
220
0.0
230
1.0
  0
LINE
  5
1B3
100
AcDbEntity
  8
0
370
    35
390
0
 62
     7
 48
0.002706
100
AcDbLine
 10
189.154755
 20
66.685623
 30
0.0
 11
189.261688
 21
66.668747
 31
0.0
210
0.0
220
0.0
230
1.0
  0
LINE
  5
1B4
100
AcDbEntity
  8
0
370
    35
390
0
 62
     7
 48
0.002702
100
AcDbLine
 10
189.261688
 20
66.668747
 30
0.0
 11
189.36908
 21
66.656738
 31
0.0
210
0.0
220
0.0
230
1.0
  0
LINE
  5
1B5
100
AcDbEntity
  8
0
370
    35
390
0
 62
     7
 48
0.002023
100
AcDbLine
 10
189.36908
 20
66.656738
 30
0.0
 11
189.449768
 21
66.650482
 31
0.0
210
0.0
220
0.0
230
1.0
  0
LINE
  5
1B6
100
AcDbEntity
  8
0
370
    35
390
0
 62
     7
 48
0.002022
100
AcDbLine
 10
189.449768
 20
66.650482
 30
0.0
 11
189.530548
 21
66.646271
 31
0.0
210
0.0
220
0.0
230
1.0
  0
LINE
  5
1B7
100
AcDbEntity
  8
0
370
    35
390
0
 62
     7
 48
0.004041
100
AcDbLine
 10
189.530548
 20
66.646271
 30
0.0
 11
189.692169
 21
66.643143
 31
0.0
210
0.0
220
0.0
230
1.0
  0
LINE
  5
1B8
100
AcDbEntity
  8
0
370
    35
390
0
 62
     7
 48
0.087891
100
AcDbLine
 10
193.207825
 20
66.643143
 30
0.0
 11
189.692169
 21
66.643143
 31
0.0
210
0.0
220
0.0
230
1.0
  0
LINE
  5
1B9
100
AcDbEntity
  8
0
370
    35
390
0
 62
     7
 48
0.000773
100
AcDbLine
 10
194.389374
 20
67.143143
 30
0.0
 11
194.387482
 21
67.112289
 31
0.0
210
0.0
220
0.0
230
1.0
  0
LINE
  5
1BA
100
AcDbEntity
  8
0
370
    35
390
0
 62
     7
 48
0.000774
100
AcDbLine
 10
194.387482
 20
67.112289
 30
0.0
 11
194.381927
 21
67.081833
 31
0.0
210
0.0
220
0.0
230
1.0
  0
LINE
  5
1BB
100
AcDbEntity
  8
0
370
    35
390
0
 62
     7
 48
0.000588
100
AcDbLine
 10
194.381927
 20
67.081833
 30
0.0
 11
194.375366
 21
67.05925
 31
0.0
210
0.0
220
0.0
230
1.0
  0
LINE
  5
1BC
100
AcDbEntity
  8
0
370
    35
390
0
 62
     7
 48
0.00059
100
AcDbLine
 10
194.375366
 20
67.05925
 30
0.0
 11
194.366913
 21
67.037201
 31
0.0
210
0.0
220
0.0
230
1.0
  0
LINE
  5
1BD
100
AcDbEntity
  8
0
370
    35
390
0
 62
     7
 48
0.000667
100
AcDbLine
 10
194.366913
 20
67.037201
 30
0.0
 11
194.355316
 21
67.013153
 31
0.0
210
0.0
220
0.0
230
1.0
  0
LINE
  5
1BE
100
AcDbEntity
  8
0
370
    35
390
0
 62
     7
 48
0.000666
100
AcDbLine
 10
194.355316
 20
67.013153
 30
0.0
 11
194.341797
 21
66.990204
 31
0.0
210
0.0
220
0.0
230
1.0
  0
LINE
  5
1BF
100
AcDbEntity
  8
0
370
    35
390
0
 62
     7
 48
0.001218
100
AcDbLine
 10
194.341797
 20
66.990204
 30
0.0
 11
194.312866
 21
66.951004
 31
0.0
210
0.0
220
0.0
230
1.0
  0
LINE
  5
1C0
100
AcDbEntity
  8
0
370
    35
390
0
 62
     7
 48
0.001221
100
AcDbLine
 10
194.312866
 20
66.951004
 30
0.0
 11
194.27948
 21
66.915344
 31
0.0
210
0.0
220
0.0
230
1.0
  0
LINE
  5
1C1
100
AcDbEntity
  8
0
370
    35
390
0
 62
     7
 48
0.001222
100
AcDbLine
 10
194.27948
 20
66.915344
 30
0.0
 11
194.242706
 21
66.883118
 31
0.0
210
0.0
220
0.0
230
1.0
  0
LINE
  5
1C2
100
AcDbEntity
  8
0
370
    35
390
0
 62
     7
 48
0.000899
100
AcDbLine
 10
194.242706
 20
66.883118
 30
0.0
 11
194.213989
 21
66.861481
 31
0.0
210
0.0
220
0.0
230
1.0
  0
LINE
  5
1C3
100
AcDbEntity
  8
0
370
    35
390
0
 62
     7
 48
0.0009
100
AcDbLine
 10
194.213989
 20
66.861481
 30
0.0
 11
194.184082
 21
66.841431
 31
0.0
210
0.0
220
0.0
230
1.0
  0
LINE
  5
1C4
100
AcDbEntity
  8
0
370
    35
390
0
 62
     7
 48
0.001801
100
AcDbLine
 10
194.184082
 20
66.841431
 30
0.0
 11
194.121521
 21
66.80571
 31
0.0
210
0.0
220
0.0
230
1.0
  0
LINE
  5
1C5
100
AcDbEntity
  8
0
370
    35
390
0
 62
     7
 48
0.001801
100
AcDbLine
 10
194.121521
 20
66.80571
 30
0.0
 11
194.056274
 21
66.775162
 31
0.0
210
0.0
220
0.0
230
1.0
  0
LINE
  5
1C6
100
AcDbEntity
  8
0
370
    35
390
0
 62
     7
 48
0.001251
100
AcDbLine
 10
194.056274
 20
66.775162
 30
0.0
 11
194.009796
 21
66.756622
 31
0.0
210
0.0
220
0.0
230
1.0
  0
LINE
  5
1C7
100
AcDbEntity
  8
0
370
    35
390
0
 62
     7
 48
0.001251
100
AcDbLine
 10
194.009796
 20
66.756622
 30
0.0
 11
193.962585
 21
66.740051
 31
0.0
210
0.0
220
0.0
230
1.0
  0
LINE
  5
1C8
100
AcDbEntity
  8
0
370
    35
390
0
 62
     7
 48
0.001447
100
AcDbLine
 10
193.962585
 20
66.740051
 30
0.0
 11
193.907257
 21
66.723083
 31
0.0
210
0.0
220
0.0
230
1.0
  0
LINE
  5
1C9
100
AcDbEntity
  8
0
370
    35
390
0
 62
     7
 48
0.001447
100
AcDbLine
 10
193.907257
 20
66.723083
 30
0.0
 11
193.851318
 21
66.708267
 31
0.0
210
0.0
220
0.0
230
1.0
  0
LINE
  5
1CA
100
AcDbEntity
  8
0
370
    35
390
0
 62
     7
 48
0.002712
100
AcDbLine
 10
193.851318
 20
66.708267
 30
0.0
 11
193.745239
 21
66.685623
 31
0.0
210
0.0
220
0.0
230
1.0
  0
LINE
  5
1CB
100
AcDbEntity
  8
0
370
    35
390
0
 62
     7
 48
0.002706
100
AcDbLine
 10
193.745239
 20
66.685623
 30
0.0
 11
193.638306
 21
66.668747
 31
0.0
210
0.0
220
0.0
230
1.0
  0
LINE
  5
1CC
100
AcDbEntity
  8
0
370
    35
390
0
 62
     7
 48
0.002701
100
AcDbLine
 10
193.638306
 20
66.668747
 30
0.0
 11
193.530945
 21
66.656738
 31
0.0
210
0.0
220
0.0
230
1.0
  0
LINE
  5
1CD
100
AcDbEntity
  8
0
370
    35
390
0
 62
     7
 48
0.002024
100
AcDbLine
 10
193.530945
 20
66.656738
 30
0.0
 11
193.450226
 21
66.650482
 31
0.0
210
0.0
220
0.0
230
1.0
  0
LINE
  5
1CE
100
AcDbEntity
  8
0
370
    35
390
0
 62
     7
 48
0.002022
100
AcDbLine
 10
193.450226
 20
66.650482
 30
0.0
 11
193.369446
 21
66.646271
 31
0.0
210
0.0
220
0.0
230
1.0
  0
LINE
  5
1CF
100
AcDbEntity
  8
0
370
    35
390
0
 62
     7
 48
0.004041
100
AcDbLine
 10
193.369446
 20
66.646271
 30
0.0
 11
193.207825
 21
66.643143
 31
0.0
210
0.0
220
0.0
230
1.0
  0
LINE
  5
1D0
100
AcDbEntity
  8
0
370
    35
390
0
 62
     7
 48
0.088554
100
AcDbLine
 10
186.149994
 20
66.643143
 30
0.0
 11
189.692169
 21
66.643143
 31
0.0
210
0.0
220
0.0
230
1.0
  0
LINE
  5
1D1
100
AcDbEntity
  8
0
370
    35
390
0
 62
     7
 48
0.072334
100
AcDbLine
 10
193.207825
 20
66.643143
 30
0.0
 11
196.101196
 21
66.643143
 31
0.0
210
0.0
220
0.0
230
1.0
  0
LINE
  5
1D2
100
AcDbEntity
  8
0
370
    35
390
0
 62
     7
 48
0.281637
100
AcDbLine
 10
139.549988
 20
77.943146
 30
0.0
 11
139.549988
 21
89.208633
 31
0.0
210
0.0
220
0.0
230
1.0
  0
LINE
  5
1D3
100
AcDbEntity
  8
0
370
    35
390
0
 62
     7
 48
0.018363
100
AcDbLine
 10
139.549988
 20
89.208633
 30
0.0
 11
139.549988
 21
89.943146
 31
0.0
210
0.0
220
0.0
230
1.0
  0
LINE
  5
1D4
100
AcDbEntity
  8
0
370
    35
390
0
 62
     7
 48
0.161942
100
AcDbLine
 10
188.0
 20
66.443146
 30
0.0
 11
194.477661
 21
66.443146
 31
0.0
210
0.0
220
0.0
230
1.0
  0
LINE
  5
1D5
100
AcDbEntity
  8
0
370
    35
390
0
 62
     7
 48
0.010558
100
AcDbLine
 10
194.477661
 20
66.443146
 30
0.0
 11
194.899994
 21
66.443146
 31
0.0
210
0.0
220
0.0
230
1.0
  0
LINE
  5
1D6
100
AcDbEntity
  8
0
370
    35
390
0
 62
     7
 48
0.018363
100
AcDbLine
 10
137.549988
 20
89.208633
 30
0.0
 11
137.549988
 21
89.943146
 31
0.0
210
0.0
220
0.0
230
1.0
  0
LINE
  5
1D7
100
AcDbEntity
  8
0
370
    35
390
0
 62
     7
 48
0.281637
100
AcDbLine
 10
137.549988
 20
77.943146
 30
0.0
 11
137.549988
 21
89.208633
 31
0.0
210
0.0
220
0.0
230
1.0
  0
LINE
  5
1D8
100
AcDbEntity
  8
0
370
    35
390
0
 62
     7
 48
0.139645
100
AcDbLine
 10
194.060791
 20
56.943153
 30
0.0
 11
188.475006
 21
56.943153
 31
0.0
210
0.0
220
0.0
230
1.0
  0
LINE
  5
1D9
100
AcDbEntity
  8
0
370
    35
390
0
 62
     7
 48
0.009105
100
AcDbLine
 10
194.424988
 20
56.943153
 30
0.0
 11
194.060791
 21
56.943153
 31
0.0
210
0.0
220
0.0
230
1.0
  0
LINE
  5
1DA
100
AcDbEntity
  8
0
370
    35
390
0
 62
     7
 48
0.011018
100
AcDbLine
 10
204.909302
 20
72.043152
 30
0.0
 11
205.350006
 21
72.043152
 31
0.0
210
0.0
220
0.0
230
1.0
  0
LINE
  5
1DB
100
AcDbEntity
  8
0
370
    35
390
0
 62
     7
 48
0.168983
100
AcDbLine
 10
198.149994
 20
72.043152
 30
0.0
 11
204.909302
 21
72.043152
 31
0.0
210
0.0
220
0.0
230
1.0
  0
LINE
  5
1DC
100
AcDbEntity
  8
0
370
    35
390
0
 62
     7
 48
0.281637
100
AcDbLine
 10
136.549988
 20
77.943146
 30
0.0
 11
136.549988
 21
89.208633
 31
0.0
210
0.0
220
0.0
230
1.0
  0
LINE
  5
1DD
100
AcDbEntity
  8
0
370
    35
390
0
 62
     7
 48
0.018363
100
AcDbLine
 10
136.549988
 20
89.208633
 30
0.0
 11
136.549988
 21
89.943146
 31
0.0
210
0.0
220
0.0
230
1.0
  0
LINE
  5
1DE
100
AcDbEntity
  8
0
370
    35
390
0
 62
     7
 48
0.060001
100
AcDbLine
 10
189.049988
 20
50.943153
 30
0.0
 11
191.450012
 21
50.943153
 31
0.0
210
0.0
220
0.0
230
1.0
  0
LINE
  5
1DF
100
AcDbEntity
  8
0
370
    35
390
0
 62
     7
 48
0.06
100
AcDbLine
 10
191.450012
 20
50.943153
 30
0.0
 11
193.850006
 21
50.943153
 31
0.0
210
0.0
220
0.0
230
1.0
  0
LINE
  5
1E0
100
AcDbEntity
  8
0
370
    35
390
0
 62
     7
 48
0.018363
100
AcDbLine
 10
110.050003
 20
89.208633
 30
0.0
 11
110.050003
 21
89.943146
 31
0.0
210
0.0
220
0.0
230
1.0
  0
LINE
  5
1E1
100
AcDbEntity
  8
0
370
    35
390
0
 62
     7
 48
0.281637
100
AcDbLine
 10
110.050003
 20
77.943146
 30
0.0
 11
110.050003
 21
89.208633
 31
0.0
210
0.0
220
0.0
230
1.0
  0
LINE
  5
1E2
100
AcDbEntity
  8
0
370
    35
390
0
 62
     7
 48
0.012242
100
AcDbLine
 10
205.260315
 20
68.643143
 30
0.0
 11
205.75
 21
68.643143
 31
0.0
210
0.0
220
0.0
230
1.0
  0
LINE
  5
1E3
100
AcDbEntity
  8
0
370
    35
390
0
 62
     7
 48
0.187758
100
AcDbLine
 10
197.75
 20
68.643143
 30
0.0
 11
205.260315
 21
68.643143
 31
0.0
210
0.0
220
0.0
230
1.0
  0
LINE
  5
1E4
100
AcDbEntity
  8
0
370
    35
390
0
 62
     7
 48
0.018356
100
AcDbLine
 10
109.92984
 20
89.206833
 30
0.0
 11
109.92984
 21
89.941086
 31
0.0
210
0.0
220
0.0
230
1.0
  0
LINE
  5
1E5
100
AcDbEntity
  8
0
370
    35
390
0
 62
     7
 48
0.281541
100
AcDbLine
 10
109.929825
 20
77.945206
 30
0.0
 11
109.92984
 21
89.206833
 31
0.0
210
0.0
220
0.0
230
1.0
  0
LINE
  5
1E6
100
AcDbEntity
  8
0
370
    35
390
0
 62
     7
 48
0.187758
100
AcDbLine
 10
197.75
 20
59.343155
 30
0.0
 11
205.260315
 21
59.343155
 31
0.0
210
0.0
220
0.0
230
1.0
  0
LINE
  5
1E7
100
AcDbEntity
  8
0
370
    35
390
0
 62
     7
 48
0.012242
100
AcDbLine
 10
205.260315
 20
59.343155
 30
0.0
 11
205.75
 21
59.343155
 31
0.0
210
0.0
220
0.0
230
1.0
  0
LINE
  5
1E8
100
AcDbEntity
  8
0
370
    35
390
0
 62
     7
 48
0.002043
100
AcDbLine
 10
107.209656
 20
89.299149
 30
0.0
 11
107.209656
 21
89.380875
 31
0.0
210
0.0
220
0.0
230
1.0
  0
LINE
  5
1E9
100
AcDbEntity
  8
0
370
    35
390
0
 62
     7
 48
0.014599
100
AcDbLine
 10
107.209656
 20
88.715195
 30
0.0
 11
107.209656
 21
89.299149
 31
0.0
210
0.0
220
0.0
230
1.0
  0
LINE
  5
1EA
100
AcDbEntity
  8
0
370
    35
390
0
 62
     7
 48
0.255244
100
AcDbLine
 10
107.209656
 20
78.505432
 30
0.0
 11
107.209656
 21
88.715195
 31
0.0
210
0.0
220
0.0
230
1.0
  0
LINE
  5
1EB
100
AcDbEntity
  8
0
370
    35
390
0
 62
     7
 48
0.00197
100
AcDbLine
 10
107.050003
 20
89.106201
 30
0.0
 11
107.050003
 21
89.184982
 31
0.0
210
0.0
220
0.0
230
1.0
  0
LINE
  5
1EC
100
AcDbEntity
  8
0
370
    35
390
0
 62
     7
 48
0.014073
100
AcDbLine
 10
107.050003
 20
88.543289
 30
0.0
 11
107.050003
 21
89.106201
 31
0.0
210
0.0
220
0.0
230
1.0
  0
LINE
  5
1ED
100
AcDbEntity
  8
0
370
    35
390
0
 62
     7
 48
0.246049
100
AcDbLine
 10
107.050003
 20
78.701309
 30
0.0
 11
107.050003
 21
88.543289
 31
0.0
210
0.0
220
0.0
230
1.0
  0
LINE
  5
1EE
100
AcDbEntity
  8
0
370
    35
390
0
 62
     7
 48
0.187758
100
AcDbLine
 10
106.550003
 20
79.943146
 30
0.0
 11
106.550003
 21
87.453476
 31
0.0
210
0.0
220
0.0
230
1.0
  0
LINE
  5
1EF
100
AcDbEntity
  8
0
370
    35
390
0
 62
     7
 48
0.000634
100
AcDbLine
 10
106.550003
 20
87.917786
 30
0.0
 11
106.550003
 21
87.943146
 31
0.0
210
0.0
220
0.0
230
1.0
  0
LINE
  5
1F0
100
AcDbEntity
  8
0
370
    35
390
0
 62
     7
 48
0.011608
100
AcDbLine
 10
106.550003
 20
87.453476
 30
0.0
 11
106.550003
 21
87.917786
 31
0.0
210
0.0
220
0.0
230
1.0
  0
LINE
  5
1F1
100
AcDbEntity
  8
0
370
    35
390
0
 62
     7
 48
0.187758
100
AcDbLine
 10
64.550003
 20
79.943146
 30
0.0
 11
64.550003
 21
87.453476
 31
0.0
210
0.0
220
0.0
230
1.0
  0
LINE
  5
1F2
100
AcDbEntity
  8
0
370
    35
390
0
 62
     7
 48
0.012242
100
AcDbLine
 10
64.550003
 20
87.453476
 30
0.0
 11
64.550003
 21
87.943146
 31
0.0
210
0.0
220
0.0
230
1.0
  0
LINE
  5
1F3
100
AcDbEntity
  8
0
370
    35
390
0
 62
     7
 48
0.157247
100
AcDbLine
 10
64.050003
 20
80.593155
 30
0.0
 11
64.050003
 21
86.883041
 31
0.0
210
0.0
220
0.0
230
1.0
  0
LINE
  5
1F4
100
AcDbEntity
  8
0
370
    35
390
0
 62
     7
 48
0.010253
100
AcDbLine
 10
64.050003
 20
86.883041
 30
0.0
 11
64.050003
 21
87.293152
 31
0.0
210
0.0
220
0.0
230
1.0
  0
LINE
  5
1F5
100
AcDbEntity
  8
0
370
    35
390
0
 62
     7
 48
0.00987
100
AcDbLine
 10
62.850006
 20
86.773346
 30
0.0
 11
62.850006
 21
87.168152
 31
0.0
210
0.0
220
0.0
230
1.0
  0
LINE
  5
1F6
100
AcDbEntity
  8
0
370
    35
390
0
 62
     7
 48
0.15138
100
AcDbLine
 10
62.850006
 20
80.718155
 30
0.0
 11
62.850006
 21
86.773346
 31
0.0
210
0.0
220
0.0
230
1.0
  0
LINE
  5
1F7
100
AcDbEntity
  8
0
370
    35
390
0
 62
     7
 48
0.012242
100
AcDbLine
 10
205.260315
 20
58.14315
 30
0.0
 11
205.75
 21
58.14315
 31
0.0
210
0.0
220
0.0
230
1.0
  0
LINE
  5
1F8
100
AcDbEntity
  8
0
370
    35
390
0
 62
     7
 48
0.187758
100
AcDbLine
 10
197.75
 20
58.14315
 30
0.0
 11
205.260315
 21
58.14315
 31
0.0
210
0.0
220
0.0
230
1.0
  0
LINE
  5
1F9
100
AcDbEntity
  8
0
370
    35
390
0
 62
     7
 48
0.00987
100
AcDbLine
 10
61.550003
 20
86.773346
 30
0.0
 11
61.550003
 21
87.168152
 31
0.0
210
0.0
220
0.0
230
1.0
  0
LINE
  5
1FA
100
AcDbEntity
  8
0
370
    35
390
0
 62
     7
 48
0.15138
100
AcDbLine
 10
61.550003
 20
80.718155
 30
0.0
 11
61.550003
 21
86.773346
 31
0.0
210
0.0
220
0.0
230
1.0
  0
LINE
  5
1FB
100
AcDbEntity
  8
0
370
    35
390
0
 62
     7
 48
0.187758
100
AcDbLine
 10
197.75
 20
56.843155
 30
0.0
 11
205.260315
 21
56.843155
 31
0.0
210
0.0
220
0.0
230
1.0
  0
LINE
  5
1FC
100
AcDbEntity
  8
0
370
    35
390
0
 62
     7
 48
0.012242
100
AcDbLine
 10
205.260315
 20
56.843155
 30
0.0
 11
205.75
 21
56.843155
 31
0.0
210
0.0
220
0.0
230
1.0
  0
LINE
  5
1FD
100
AcDbEntity
  8
0
370
    35
390
0
 62
     7
 48
0.009258
100
AcDbLine
 10
61.350006
 20
86.597839
 30
0.0
 11
61.350006
 21
86.96814
 31
0.0
210
0.0
220
0.0
230
1.0
  0
LINE
  5
1FE
100
AcDbEntity
  8
0
370
    35
390
0
 62
     7
 48
0.141992
100
AcDbLine
 10
61.350006
 20
80.918152
 30
0.0
 11
61.350006
 21
86.597839
 31
0.0
210
0.0
220
0.0
230
1.0
  0
LINE
  5
1FF
100
AcDbEntity
  8
0
370
    35
390
0
 62
     7
 48
0.178371
100
AcDbLine
 10
197.949982
 20
56.64315
 30
0.0
 11
205.084808
 21
56.64315
 31
0.0
210
0.0
220
0.0
230
1.0
  0
LINE
  5
200
100
AcDbEntity
  8
0
370
    35
390
0
 62
     7
 48
0.011629
100
AcDbLine
 10
205.084808
 20
56.64315
 30
0.0
 11
205.549988
 21
56.64315
 31
0.0
210
0.0
220
0.0
230
1.0
  0
LINE
  5
201
100
AcDbEntity
  8
0
370
    35
390
0
 62
     7
 48
0.006121
100
AcDbLine
 10
199.994843
 20
52.843155
 30
0.0
 11
199.75
 21
52.843155
 31
0.0
210
0.0
220
0.0
230
1.0
  0
LINE
  5
202
100
AcDbEntity
  8
0
370
    35
390
0
 62
     7
 48
0.093879
100
AcDbLine
 10
203.75
 20
52.843155
 30
0.0
 11
199.994843
 21
52.843155
 31
0.0
210
0.0
220
0.0
230
1.0
  0
LINE
  5
203
100
AcDbEntity
  8
0
370
    35
390
0
 62
     7
 48
0.009181
100
AcDbLine
 10
198.75
 20
51.743149
 30
0.0
 11
199.117249
 21
51.743149
 31
0.0
210
0.0
220
0.0
230
1.0
  0
LINE
  5
204
100
AcDbEntity
  8
0
370
    35
390
0
 62
     7
 48
0.140819
100
AcDbLine
 10
199.117249
 20
51.743149
 30
0.0
 11
204.75
 21
51.743149
 31
0.0
210
0.0
220
0.0
230
1.0
  0
LINE
  5
205
100
AcDbEntity
  8
0
370
    35
390
0
 62
     7
 48
0.009181
100
AcDbLine
 10
199.117249
 20
43.343155
 30
0.0
 11
198.75
 21
43.343155
 31
0.0
210
0.0
220
0.0
230
1.0
  0
LINE
  5
206
100
AcDbEntity
  8
0
370
    35
390
0
 62
     7
 48
0.140819
100
AcDbLine
 10
204.75
 20
43.343155
 30
0.0
 11
199.117249
 21
43.343155
 31
0.0
210
0.0
220
0.0
230
1.0
  0
LINE
  5
207
100
AcDbEntity
  8
0
370
    35
390
0
 62
     7
 48
0.007651
100
AcDbLine
 10
199.55603
 20
42.843155
 30
0.0
 11
199.25
 21
42.843155
 31
0.0
210
0.0
220
0.0
230
1.0
  0
LINE
  5
208
100
AcDbEntity
  8
0
370
    35
390
0
 62
     7
 48
0.117349
100
AcDbLine
 10
204.25
 20
42.843155
 30
0.0
 11
199.55603
 21
42.843155
 31
0.0
210
0.0
220
0.0
230
1.0
  0
LINE
  5
209
100
AcDbEntity
  8
0
370
    35
390
0
 62
     7
100
AcDbLine
 10
28.550003
 20
82.047287
 30
0.0
 11
61.350006
 21
82.047287
 31
0.0
210
0.0
220
0.0
230
1.0
  0
LINE
  5
20A
100
AcDbEntity
  8
0
370
    35
390
0
 62
     7
 48
0.002604
100
AcDbLine
 10
28.550003
 20
81.943146
 30
0.0
 11
28.550003
 21
82.047287
 31
0.0
210
0.0
220
0.0
230
1.0
  0
LINE
  5
20B
100
AcDbEntity
  8
0
370
    35
390
0
 62
     7
100
AcDbLine
 10
28.550003
 20
82.443619
 30
0.0
 11
61.350006
 21
82.443619
 31
0.0
210
0.0
220
0.0
230
1.0
  0
LINE
  5
20C
100
AcDbEntity
  8
0
370
    35
390
0
 62
     7
 48
0.000587
100
AcDbLine
 10
28.349998
 20
82.384308
 30
0.0
 11
28.352943
 21
82.407608
 31
0.0
210
0.0
220
0.0
230
1.0
  0
LINE
  5
20D
100
AcDbEntity
  8
0
370
    35
390
0
 62
     7
 48
0.000535
100
AcDbLine
 10
28.352943
 20
82.407608
 30
0.0
 11
28.361877
 21
82.427048
 31
0.0
210
0.0
220
0.0
230
1.0
  0
LINE
  5
20E
100
AcDbEntity
  8
0
370
    35
390
0
 62
     7
 48
0.000535
100
AcDbLine
 10
28.361877
 20
82.427048
 30
0.0
 11
28.376854
 21
82.442337
 31
0.0
210
0.0
220
0.0
230
1.0
  0
LINE
  5
20F
100
AcDbEntity
  8
0
370
    35
390
0
 62
     7
 48
0.000589
100
AcDbLine
 10
28.376854
 20
82.442337
 30
0.0
 11
28.397781
 21
82.453171
 31
0.0
210
0.0
220
0.0
230
1.0
  0
LINE
  5
210
100
AcDbEntity
  8
0
370
    35
390
0
 62
     7
 48
0.000592
100
AcDbLine
 10
28.397781
 20
82.453171
 30
0.0
 11
28.420792
 21
82.458786
 31
0.0
210
0.0
220
0.0
230
1.0
  0
LINE
  5
211
100
AcDbEntity
  8
0
370
    35
390
0
 62
     7
 48
0.000679
100
AcDbLine
 10
28.420792
 20
82.458786
 30
0.0
 11
28.447884
 21
82.460663
 31
0.0
210
0.0
220
0.0
230
1.0
  0
ARC
  5
212
100
AcDbEntity
  8
0
370
    35
390
0
 62
     7
100
AcDbCircle
 10
28.4375
 20
82.089767
 30
0.0
 40
0.371172
210
0.0
220
0.0
230
1.0
100
AcDbArc
 50
72.362624
 51
88.396021
  0
LINE
  5
213
100
AcDbEntity
  8
0
370
    35
390
0
 62
     7
 48
0.001845
100
AcDbLine
 10
28.550003
 20
82.047287
 30
0.0
 11
28.502777
 21
82.104019
 31
0.0
210
0.0
220
0.0
230
1.0
  0
LINE
  5
214
100
AcDbEntity
  8
0
370
    35
390
0
 62
     7
 48
0.001749
100
AcDbLine
 10
28.502777
 20
82.104019
 30
0.0
 11
28.459915
 21
82.159286
 31
0.0
210
0.0
220
0.0
230
1.0
  0
LINE
  5
215
100
AcDbEntity
  8
0
370
    35
390
0
 62
     7
 48
0.001168
100
AcDbLine
 10
28.459915
 20
82.159286
 30
0.0
 11
28.432709
 21
82.19725
 31
0.0
210
0.0
220
0.0
230
1.0
  0
LINE
  5
216
100
AcDbEntity
  8
0
370
    35
390
0
 62
     7
 48
0.001092
100
AcDbLine
 10
28.432709
 20
82.19725
 30
0.0
 11
28.408722
 21
82.233749
 31
0.0
210
0.0
220
0.0
230
1.0
  0
LINE
  5
217
100
AcDbEntity
  8
0
370
    35
390
0
 62
     7
 48
0.001197
100
AcDbLine
 10
28.408722
 20
82.233749
 30
0.0
 11
28.38472
 21
82.275192
 31
0.0
210
0.0
220
0.0
230
1.0
  0
LINE
  5
218
100
AcDbEntity
  8
0
370
    35
390
0
 62
     7
 48
0.001058
100
AcDbLine
 10
28.38472
 20
82.275192
 30
0.0
 11
28.366646
 21
82.313477
 31
0.0
210
0.0
220
0.0
230
1.0
  0
LINE
  5
219
100
AcDbEntity
  8
0
370
    35
390
0
 62
     7
 48
0.000994
100
AcDbLine
 10
28.366646
 20
82.313477
 30
0.0
 11
28.354248
 21
82.351242
 31
0.0
210
0.0
220
0.0
230
1.0
  0
LINE
  5
21A
100
AcDbEntity
  8
0
370
    35
390
0
 62
     7
 48
0.000436
100
AcDbLine
 10
28.354248
 20
82.351242
 30
0.0
 11
28.351067
 21
82.368408
 31
0.0
210
0.0
220
0.0
230
1.0
  0
LINE
  5
21B
100
AcDbEntity
  8
0
370
    35
390
0
 62
     7
 48
0.000398
100
AcDbLine
 10
28.351067
 20
82.368408
 30
0.0
 11
28.349998
 21
82.384308
 31
0.0
210
0.0
220
0.0
230
1.0
  0
LINE
  5
21C
100
AcDbEntity
  8
0
370
    35
390
0
 62
     7
100
AcDbLine
 10
28.550003
 20
85.442688
 30
0.0
 11
61.350006
 21
85.442688
 31
0.0
210
0.0
220
0.0
230
1.0
  0
LINE
  5
21D
100
AcDbEntity
  8
0
370
    35
390
0
 62
     7
 48
0.013282
100
AcDbLine
 10
28.550003
 20
84.911392
 30
0.0
 11
28.550003
 21
85.442688
 31
0.0
210
0.0
220
0.0
230
1.0
  0
LINE
  5
21E
100
AcDbEntity
  8
0
370
    35
390
0
 62
     7
 48
0.045
100
AcDbLine
 10
28.550003
 20
84.911392
 30
0.0
 11
30.350006
 21
84.911392
 31
0.0
210
0.0
220
0.0
230
1.0
  0
LINE
  5
21F
100
AcDbEntity
  8
0
370
    35
390
0
 62
     7
 48
0.048412
100
AcDbLine
 10
30.349998
 20
82.974899
 30
0.0
 11
30.350006
 21
84.911392
 31
0.0
210
0.0
220
0.0
230
1.0
  0
LINE
  5
220
100
AcDbEntity
  8
0
370
    35
390
0
 62
     7
 48
0.045
100
AcDbLine
 10
28.550003
 20
82.974899
 30
0.0
 11
30.349998
 21
82.974899
 31
0.0
210
0.0
220
0.0
230
1.0
  0
LINE
  5
221
100
AcDbEntity
  8
0
370
    35
390
0
 62
     7
 48
0.013282
100
AcDbLine
 10
28.550003
 20
82.443619
 30
0.0
 11
28.550003
 21
82.974899
 31
0.0
210
0.0
220
0.0
230
1.0
  0
LINE
  5
222
100
AcDbEntity
  8
0
370
    35
390
0
 62
     7
100
AcDbLine
 10
28.550003
 20
85.83902
 30
0.0
 11
61.350006
 21
85.83902
 31
0.0
210
0.0
220
0.0
230
1.0
  0
LINE
  5
223
100
AcDbEntity
  8
0
370
    35
390
0
 62
     7
 48
0.000575
100
AcDbLine
 10
28.352097
 20
85.524628
 30
0.0
 11
28.3573
 21
85.547012
 31
0.0
210
0.0
220
0.0
230
1.0
  0
LINE
  5
224
100
AcDbEntity
  8
0
370
    35
390
0
 62
     7
 48
0.000653
100
AcDbLine
 10
28.3573
 20
85.547012
 30
0.0
 11
28.365959
 21
85.571671
 31
0.0
210
0.0
220
0.0
230
1.0
  0
LINE
  5
225
100
AcDbEntity
  8
0
370
    35
390
0
 62
     7
 48
0.000735
100
AcDbLine
 10
28.365959
 20
85.571671
 30
0.0
 11
28.378143
 21
85.598434
 31
0.0
210
0.0
220
0.0
230
1.0
  0
LINE
  5
226
100
AcDbEntity
  8
0
370
    35
390
0
 62
     7
 48
0.000805
100
AcDbLine
 10
28.378143
 20
85.598434
 30
0.0
 11
28.393402
 21
85.626801
 31
0.0
210
0.0
220
0.0
230
1.0
  0
LINE
  5
227
100
AcDbEntity
  8
0
370
    35
390
0
 62
     7
 48
0.001763
100
AcDbLine
 10
28.393402
 20
85.626801
 30
0.0
 11
28.430946
 21
85.686478
 31
0.0
210
0.0
220
0.0
230
1.0
  0
LINE
  5
228
100
AcDbEntity
  8
0
370
    35
390
0
 62
     7
 48
0.002299
100
AcDbLine
 10
28.430946
 20
85.686478
 30
0.0
 11
28.48539
 21
85.760605
 31
0.0
210
0.0
220
0.0
230
1.0
  0
LINE
  5
229
100
AcDbEntity
  8
0
370
    35
390
0
 62
     7
 48
0.00254
100
AcDbLine
 10
28.48539
 20
85.760605
 30
0.0
 11
28.550003
 21
85.83902
 31
0.0
210
0.0
220
0.0
230
1.0
  0
LINE
  5
22A
100
AcDbEntity
  8
0
370
    35
390
0
 62
     7
 48
0.000568
100
AcDbLine
 10
28.350006
 20
85.501999
 30
0.0
 11
28.352097
 21
85.524628
 31
0.0
210
0.0
220
0.0
230
1.0
  0
ARC
  5
22B
100
AcDbEntity
  8
0
370
    35
390
0
 62
     7
100
AcDbCircle
 10
28.437508
 20
85.796524
 30
0.0
 40
0.371172
210
0.0
220
0.0
230
1.0
100
AcDbArc
 50
271.603863
 51
287.637376
  0
LINE
  5
22C
100
AcDbEntity
  8
0
370
    35
390
0
 62
     7
 48
0.000777
100
AcDbLine
 10
28.447891
 20
85.425629
 30
0.0
 11
28.416931
 21
85.428146
 31
0.0
210
0.0
220
0.0
230
1.0
  0
LINE
  5
22D
100
AcDbEntity
  8
0
370
    35
390
0
 62
     7
 48
0.000664
100
AcDbLine
 10
28.416931
 20
85.428146
 30
0.0
 11
28.391441
 21
85.435654
 31
0.0
210
0.0
220
0.0
230
1.0
  0
LINE
  5
22E
100
AcDbEntity
  8
0
370
    35
390
0
 62
     7
 48
0.000577
100
AcDbLine
 10
28.391441
 20
85.435654
 30
0.0
 11
28.371895
 21
85.447937
 31
0.0
210
0.0
220
0.0
230
1.0
  0
LINE
  5
22F
100
AcDbEntity
  8
0
370
    35
390
0
 62
     7
 48
0.000537
100
AcDbLine
 10
28.371895
 20
85.447937
 30
0.0
 11
28.358528
 21
85.464737
 31
0.0
210
0.0
220
0.0
230
1.0
  0
LINE
  5
230
100
AcDbEntity
  8
0
370
    35
390
0
 62
     7
 48
0.00046
100
AcDbLine
 10
28.358528
 20
85.464737
 30
0.0
 11
28.352119
 21
85.481995
 31
0.0
210
0.0
220
0.0
230
1.0
  0
LINE
  5
231
100
AcDbEntity
  8
0
370
    35
390
0
 62
     7
 48
0.000503
100
AcDbLine
 10
28.352119
 20
85.481995
 30
0.0
 11
28.350006
 21
85.501999
 31
0.0
210
0.0
220
0.0
230
1.0
  0
LINE
  5
232
100
AcDbEntity
  8
0
370
    35
390
0
 62
     7
 48
0.002603
100
AcDbLine
 10
28.550003
 20
85.83902
 30
0.0
 11
28.550003
 21
85.943146
 31
0.0
210
0.0
220
0.0
230
1.0
  0
LINE
  5
233
100
AcDbEntity
  8
0
370
    35
390
0
 62
     7
 48
0.000436
100
AcDbLine
 10
28.349998
 20
82.143143
 30
0.0
 11
28.349998
 21
82.160599
 31
0.0
210
0.0
220
0.0
230
1.0
  0
ARC
  5
234
100
AcDbEntity
  8
0
370
    35
390
0
 62
     7
100
AcDbCircle
 10
30.902527
 20
84.148743
 30
0.0
 40
2.628735
210
0.0
220
0.0
230
1.0
100
AcDbArc
 50
193.79889
 51
206.517972
  0
ARC
  5
235
100
AcDbEntity
  8
0
370
    35
390
0
 62
     7
100
AcDbCircle
 10
30.902527
 20
83.737549
 30
0.0
 40
2.628735
210
0.0
220
0.0
230
1.0
100
AcDbArc
 50
153.482028
 51
166.20111
  0
LINE
  5
236
100
AcDbEntity
  8
0
370
    35
390
0
 62
     7
 48
0.000301
100
AcDbLine
 10
28.350006
 20
86.531097
 30
0.0
 11
28.350006
 21
86.543152
 31
0.0
210
0.0
220
0.0
230
1.0
  0
LINE
  5
237
100
AcDbEntity
  8
0
370
    35
390
0
 62
     7
 48
0.129398
100
AcDbLine
 10
28.349998
 20
81.355194
 30
0.0
 11
28.350006
 21
86.531097
 31
0.0
210
0.0
220
0.0
230
1.0
  0
LINE
  5
238
100
AcDbEntity
  8
0
370
    35
390
0
 62
     7
 48
0.000301
100
AcDbLine
 10
27.750008
 20
86.531097
 30
0.0
 11
27.750008
 21
86.543152
 31
0.0
210
0.0
220
0.0
230
1.0
  0
LINE
  5
239
100
AcDbEntity
  8
0
370
    35
390
0
 62
     7
 48
0.129398
100
AcDbLine
 10
27.75
 20
81.355194
 30
0.0
 11
27.750008
 21
86.531097
 31
0.0
210
0.0
220
0.0
230
1.0
  0
LINE
  5
23A
100
AcDbEntity
  8
0
370
    35
390
0
 62
     7
 48
0.015
100
AcDbLine
 10
27.75
 20
81.355194
 30
0.0
 11
28.349998
 21
81.355194
 31
0.0
210
0.0
220
0.0
230
1.0
  0
ARC
  5
23B
100
AcDbEntity
  8
0
370
    35
390
0
 62
     7
100
AcDbCircle
 10
27.494484
 20
81.670227
 30
0.0
 40
0.004757
210
0.0
220
0.0
230
1.0
100
AcDbArc
 50
150.307397
 51
251.061112
  0
ARC
  5
23C
100
AcDbEntity
  8
0
370
    35
390
0
 62
     7
100
AcDbCircle
 10
27.485229
 20
81.703964
 30
0.0
 40
0.03907
210
0.0
220
0.0
230
1.0
100
AcDbArc
 50
281.525969
 51
311.431245
  0
LINE
  5
23D
100
AcDbEntity
  8
0
370
    35
390
0
 62
     7
 48
0.002684
100
AcDbLine
 10
27.599998
 20
81.734879
 30
0.0
 11
27.511246
 21
81.674484
 31
0.0
210
0.0
220
0.0
230
1.0
  0
LINE
  5
23E
100
AcDbEntity
  8
0
370
    35
390
0
 62
     7
 48
0.003433
100
AcDbLine
 10
27.599998
 20
81.734879
 30
0.0
 11
27.511246
 21
81.630081
 31
0.0
210
0.0
220
0.0
230
1.0
  0
LINE
  5
23F
100
AcDbEntity
  8
0
370
    35
390
0
 62
     7
 48
0.000564
100
AcDbLine
 10
27.511246
 20
81.630081
 30
0.0
 11
27.497246
 21
81.612381
 31
0.0
210
0.0
220
0.0
230
1.0
  0
LINE
  5
240
100
AcDbEntity
  8
0
370
    35
390
0
 62
     7
 48
0.000293
100
AcDbLine
 10
27.497246
 20
81.612381
 30
0.0
 11
27.491333
 21
81.60228
 31
0.0
210
0.0
220
0.0
230
1.0
  0
LINE
  5
241
100
AcDbEntity
  8
0
370
    35
390
0
 62
     7
 48
0.000134
100
AcDbLine
 10
27.491333
 20
81.60228
 30
0.0
 11
27.489929
 21
81.597122
 31
0.0
210
0.0
220
0.0
230
1.0
  0
LINE
  5
242
100
AcDbEntity
  8
0
370
    35
390
0
 62
     7
 48
0.000042
100
AcDbLine
 10
27.489929
 20
81.597122
 30
0.0
 11
27.490166
 21
81.595459
 31
0.0
210
0.0
220
0.0
230
1.0
  0
LINE
  5
243
100
AcDbEntity
  8
0
370
    35
390
0
 62
     7
 48
0.000026
100
AcDbLine
 10
27.490166
 20
81.595459
 30
0.0
 11
27.490746
 21
81.59462
 31
0.0
210
0.0
220
0.0
230
1.0
  0
LINE
  5
244
100
AcDbEntity
  8
0
370
    35
390
0
 62
     7
 48
0.000027
100
AcDbLine
 10
27.490746
 20
81.59462
 30
0.0
 11
27.491722
 21
81.594162
 31
0.0
210
0.0
220
0.0
230
1.0
  0
ARC
  5
245
100
AcDbEntity
  8
0
370
    35
390
0
 62
     7
100
AcDbCircle
 10
27.480011
 20
81.635513
 30
0.0
 40
0.043244
210
0.0
220
0.0
230
1.0
100
AcDbArc
 50
285.814242
 51
315.790737
  0
LINE
  5
246
100
AcDbEntity
  8
0
370
    35
390
0
 62
     7
 48
0.002796
100
AcDbLine
 10
27.599998
 20
81.673218
 30
0.0
 11
27.511246
 21
81.605133
 31
0.0
210
0.0
220
0.0
230
1.0
  0
LINE
  5
247
100
AcDbEntity
  8
0
370
    35
390
0
 62
     7
 48
0.003375
100
AcDbLine
 10
27.599998
 20
81.673218
 30
0.0
 11
27.511246
 21
81.571518
 31
0.0
210
0.0
220
0.0
230
1.0
  0
LINE
  5
248
100
AcDbEntity
  8
0
370
    35
390
0
 62
     7
 48
0.000606
100
AcDbLine
 10
27.511246
 20
81.571518
 30
0.0
 11
27.495865
 21
81.552795
 31
0.0
210
0.0
220
0.0
230
1.0
  0
LINE
  5
249
100
AcDbEntity
  8
0
370
    35
390
0
 62
     7
 48
0.000262
100
AcDbLine
 10
27.495865
 20
81.552795
 30
0.0
 11
27.490486
 21
81.543793
 31
0.0
210
0.0
220
0.0
230
1.0
  0
LINE
  5
24A
100
AcDbEntity
  8
0
370
    35
390
0
 62
     7
 48
0.000062
100
AcDbLine
 10
27.490486
 20
81.543793
 30
0.0
 11
27.489929
 21
81.541367
 31
0.0
210
0.0
220
0.0
230
1.0
  0
LINE
  5
24B
100
AcDbEntity
  8
0
370
    35
390
0
 62
     7
 48
0.00002
100
AcDbLine
 10
27.489929
 20
81.541367
 30
0.0
 11
27.490067
 21
81.540573
 31
0.0
210
0.0
220
0.0
230
1.0
  0
LINE
  5
24C
100
AcDbEntity
  8
0
370
    35
390
0
 62
     7
 48
0.000013
100
AcDbLine
 10
27.490067
 20
81.540573
 30
0.0
 11
27.490364
 21
81.540161
 31
0.0
210
0.0
220
0.0
230
1.0
  0
LINE
  5
24D
100
AcDbEntity
  8
0
370
    35
390
0
 62
     7
 48
0.000013
100
AcDbLine
 10
27.490364
 20
81.540161
 30
0.0
 11
27.490822
 21
81.539932
 31
0.0
210
0.0
220
0.0
230
1.0
  0
ARC
  5
24E
100
AcDbEntity
  8
0
370
    35
390
0
 62
     7
100
AcDbCircle
 10
27.470467
 20
81.589752
 30
0.0
 40
0.054124
210
0.0
220
0.0
230
1.0
100
AcDbArc
 50
292.226341
 51
318.412436
  0
LINE
  5
24F
100
AcDbEntity
  8
0
370
    35
390
0
 62
     7
 48
0.002909
100
AcDbLine
 10
27.599998
 20
81.628845
 30
0.0
 11
27.511246
 21
81.553574
 31
0.0
210
0.0
220
0.0
230
1.0
  0
LINE
  5
250
100
AcDbEntity
  8
0
370
    35
390
0
 62
     7
 48
0.003302
100
AcDbLine
 10
27.599998
 20
81.628845
 30
0.0
 11
27.511246
 21
81.531021
 31
0.0
210
0.0
220
0.0
230
1.0
  0
ARC
  5
251
100
AcDbEntity
  8
0
370
    35
390
0
 62
     7
100
AcDbCircle
 10
27.563461
 20
81.46553
 30
0.0
 40
0.083027
210
0.0
220
0.0
230
1.0
100
AcDbArc
 50
128.568394
 51
152.539981
  0
LINE
  5
252
100
AcDbEntity
  8
0
370
    35
390
0
 62
     7
 48
0.000669
100
AcDbLine
 10
27.490234
 20
81.503586
 30
0.0
 11
27.511246
 21
81.520187
 31
0.0
210
0.0
220
0.0
230
1.0
  0
LINE
  5
253
100
AcDbEntity
  8
0
370
    35
390
0
 62
     7
 48
0.003019
100
AcDbLine
 10
27.599998
 20
81.602097
 30
0.0
 11
27.511246
 21
81.520187
 31
0.0
210
0.0
220
0.0
230
1.0
  0
LINE
  5
254
100
AcDbEntity
  8
0
370
    35
390
0
 62
     7
 48
0.003218
100
AcDbLine
 10
27.599998
 20
81.602097
 30
0.0
 11
27.511246
 21
81.508881
 31
0.0
210
0.0
220
0.0
230
1.0
  0
LINE
  5
255
100
AcDbEntity
  8
0
370
    35
390
0
 62
     7
 48
0.000793
100
AcDbLine
 10
27.511246
 20
81.508881
 30
0.0
 11
27.489929
 21
81.485413
 31
0.0
210
0.0
220
0.0
230
1.0
  0
LINE
  5
256
100
AcDbEntity
  8
0
370
    35
390
0
 62
     7
 48
0.000728
100
AcDbLine
 10
27.489929
 20
81.485413
 30
0.0
 11
27.511246
 21
81.505264
 31
0.0
210
0.0
220
0.0
230
1.0
  0
LINE
  5
257
100
AcDbEntity
  8
0
370
    35
390
0
 62
     7
 48
0.003123
100
AcDbLine
 10
27.599998
 20
81.593155
 30
0.0
 11
27.511246
 21
81.505264
 31
0.0
210
0.0
220
0.0
230
1.0
  0
LINE
  5
258
100
AcDbEntity
  8
0
370
    35
390
0
 62
     7
 48
0.003123
100
AcDbLine
 10
27.599998
 20
81.593155
 30
0.0
 11
27.511246
 21
81.505264
 31
0.0
210
0.0
220
0.0
230
1.0
  0
LINE
  5
259
100
AcDbEntity
  8
0
370
    35
390
0
 62
     7
 48
0.000338
100
AcDbLine
 10
27.500046
 20
81.494354
 30
0.0
 11
27.489967
 21
81.485367
 31
0.0
210
0.0
220
0.0
230
1.0
  0
LINE
  5
25A
100
AcDbEntity
  8
0
370
    35
390
0
 62
     7
 48
0.000413
100
AcDbLine
 10
27.521759
 20
81.812164
 30
0.0
 11
27.511246
 21
81.799408
 31
0.0
210
0.0
220
0.0
230
1.0
  0
LINE
  5
25B
100
AcDbEntity
  8
0
370
    35
390
0
 62
     7
 48
0.000778
100
AcDbLine
 10
27.511246
 20
81.799408
 30
0.0
 11
27.493553
 21
81.773804
 31
0.0
210
0.0
220
0.0
230
1.0
  0
LINE
  5
25C
100
AcDbEntity
  8
0
370
    35
390
0
 62
     7
 48
0.000206
100
AcDbLine
 10
27.493553
 20
81.773804
 30
0.0
 11
27.490639
 21
81.766113
 31
0.0
210
0.0
220
0.0
230
1.0
  0
LINE
  5
25D
100
AcDbEntity
  8
0
370
    35
390
0
 62
     7
 48
0.000145
100
AcDbLine
 10
27.490639
 20
81.766113
 30
0.0
 11
27.489937
 21
81.760361
 31
0.0
210
0.0
220
0.0
230
1.0
  0
LINE
  5
25E
100
AcDbEntity
  8
0
370
    35
390
0
 62
     7
 48
0.000094
100
AcDbLine
 10
27.489937
 20
81.760361
 30
0.0
 11
27.490898
 21
81.756714
 31
0.0
210
0.0
220
0.0
230
1.0
  0
LINE
  5
25F
100
AcDbEntity
  8
0
370
    35
390
0
 62
     7
 48
0.000041
100
AcDbLine
 10
27.490898
 20
81.756714
 30
0.0
 11
27.492012
 21
81.755493
 31
0.0
210
0.0
220
0.0
230
1.0
  0
LINE
  5
260
100
AcDbEntity
  8
0
370
    35
390
0
 62
     7
 48
0.000071
100
AcDbLine
 10
27.492012
 20
81.755493
 30
0.0
 11
27.494705
 21
81.754639
 31
0.0
210
0.0
220
0.0
230
1.0
  0
ARC
  5
261
100
AcDbEntity
  8
0
370
    35
390
0
 62
     7
100
AcDbCircle
 10
27.489296
 20
81.791382
 30
0.0
 40
0.037268
210
0.0
220
0.0
230
1.0
100
AcDbArc
 50
278.376623
 51
305.934169
  0
LINE
  5
262
100
AcDbEntity
  8
0
370
    35
390
0
 62
     7
 48
0.002574
100
AcDbLine
 10
27.599998
 20
81.813324
 30
0.0
 11
27.511246
 21
81.761108
 31
0.0
210
0.0
220
0.0
230
1.0
  0
LINE
  5
263
100
AcDbEntity
  8
0
370
    35
390
0
 62
     7
 48
0.003477
100
AcDbLine
 10
27.599998
 20
81.813324
 30
0.0
 11
27.511246
 21
81.706223
 31
0.0
210
0.0
220
0.0
230
1.0
  0
ARC
  5
264
100
AcDbEntity
  8
0
370
    35
390
0
 62
     7
100
AcDbCircle
 10
27.575111
 20
81.640671
 30
0.0
 40
0.091101
210
0.0
220
0.0
230
1.0
100
AcDbArc
 50
134.25245
 51
159.347412
  0
LINE
  5
265
100
AcDbEntity
  8
0
370
    35
390
0
 62
     7
 48
0.000725
100
AcDbLine
 10
27.490105
 20
86.400909
 30
0.0
 11
27.511246
 21
86.381042
 31
0.0
210
0.0
220
0.0
230
1.0
  0
LINE
  5
266
100
AcDbEntity
  8
0
370
    35
390
0
 62
     7
 48
0.003123
100
AcDbLine
 10
27.600006
 20
86.293152
 30
0.0
 11
27.511246
 21
86.381042
 31
0.0
210
0.0
220
0.0
230
1.0
  0
LINE
  5
267
100
AcDbEntity
  8
0
370
    35
390
0
 62
     7
 48
0.003123
100
AcDbLine
 10
27.600006
 20
86.293152
 30
0.0
 11
27.511246
 21
86.381042
 31
0.0
210
0.0
220
0.0
230
1.0
  0
LINE
  5
268
100
AcDbEntity
  8
0
370
    35
390
0
 62
     7
 48
0.000728
100
AcDbLine
 10
27.511246
 20
86.381042
 30
0.0
 11
27.489975
 21
86.400925
 31
0.0
210
0.0
220
0.0
230
1.0
  0
LINE
  5
269
100
AcDbEntity
  8
0
370
    35
390
0
 62
     7
 48
0.000792
100
AcDbLine
 10
27.489975
 20
86.400925
 30
0.0
 11
27.511246
 21
86.377426
 31
0.0
210
0.0
220
0.0
230
1.0
  0
LINE
  5
26A
100
AcDbEntity
  8
0
370
    35
390
0
 62
     7
 48
0.003218
100
AcDbLine
 10
27.600006
 20
86.28421
 30
0.0
 11
27.511246
 21
86.377426
 31
0.0
210
0.0
220
0.0
230
1.0
  0
LINE
  5
26B
100
AcDbEntity
  8
0
370
    35
390
0
 62
     7
 48
0.003019
100
AcDbLine
 10
27.600006
 20
86.28421
 30
0.0
 11
27.511246
 21
86.366104
 31
0.0
210
0.0
220
0.0
230
1.0
  0
LINE
  5
26C
100
AcDbEntity
  8
0
370
    35
390
0
 62
     7
 48
0.000669
100
AcDbLine
 10
27.511246
 20
86.366104
 30
0.0
 11
27.490265
 21
86.38269
 31
0.0
210
0.0
220
0.0
230
1.0
  0
ARC
  5
26D
100
AcDbEntity
  8
0
370
    35
390
0
 62
     7
100
AcDbCircle
 10
27.562576
 20
86.42009
 30
0.0
 40
0.08193
210
0.0
220
0.0
230
1.0
100
AcDbArc
 50
207.350586
 51
231.62404
  0
LINE
  5
26E
100
AcDbEntity
  8
0
370
    35
390
0
 62
     7
 48
0.003302
100
AcDbLine
 10
27.600006
 20
86.257446
 30
0.0
 11
27.511246
 21
86.35527
 31
0.0
210
0.0
220
0.0
230
1.0
  0
LINE
  5
26F
100
AcDbEntity
  8
0
370
    35
390
0
 62
     7
 48
0.00291
100
AcDbLine
 10
27.600006
 20
86.257446
 30
0.0
 11
27.511246
 21
86.332733
 31
0.0
210
0.0
220
0.0
230
1.0
  0
ARC
  5
270
100
AcDbEntity
  8
0
370
    35
390
0
 62
     7
100
AcDbCircle
 10
27.471077
 20
86.297241
 30
0.0
 40
0.053193
210
0.0
220
0.0
230
1.0
100
AcDbArc
 50
41.450707
 51
68.088687
  0
LINE
  5
271
100
AcDbEntity
  8
0
370
    35
390
0
 62
     7
 48
0.000013
100
AcDbLine
 10
27.490814
 20
86.346313
 30
0.0
 11
27.490364
 21
86.346085
 31
0.0
210
0.0
220
0.0
230
1.0
  0
LINE
  5
272
100
AcDbEntity
  8
0
370
    35
390
0
 62
     7
 48
0.000012
100
AcDbLine
 10
27.490364
 20
86.346085
 30
0.0
 11
27.490082
 21
86.345688
 31
0.0
210
0.0
220
0.0
230
1.0
  0
LINE
  5
273
100
AcDbEntity
  8
0
370
    35
390
0
 62
     7
 48
0.000019
100
AcDbLine
 10
27.490082
 20
86.345688
 30
0.0
 11
27.489937
 21
86.34494
 31
0.0
210
0.0
220
0.0
230
1.0
  0
LINE
  5
274
100
AcDbEntity
  8
0
370
    35
390
0
 62
     7
 48
0.000059
100
AcDbLine
 10
27.489937
 20
86.34494
 30
0.0
 11
27.49044
 21
86.342636
 31
0.0
210
0.0
220
0.0
230
1.0
  0
LINE
  5
275
100
AcDbEntity
  8
0
370
    35
390
0
 62
     7
 48
0.000262
100
AcDbLine
 10
27.49044
 20
86.342636
 30
0.0
 11
27.495773
 21
86.333618
 31
0.0
210
0.0
220
0.0
230
1.0
  0
LINE
  5
276
100
AcDbEntity
  8
0
370
    35
390
0
 62
     7
 48
0.00061
100
AcDbLine
 10
27.495773
 20
86.333618
 30
0.0
 11
27.511246
 21
86.314774
 31
0.0
210
0.0
220
0.0
230
1.0
  0
LINE
  5
277
100
AcDbEntity
  8
0
370
    35
390
0
 62
     7
 48
0.003375
100
AcDbLine
 10
27.600006
 20
86.213074
 30
0.0
 11
27.511246
 21
86.314774
 31
0.0
210
0.0
220
0.0
230
1.0
  0
LINE
  5
278
100
AcDbEntity
  8
0
370
    35
390
0
 62
     7
 48
0.002797
100
AcDbLine
 10
27.600006
 20
86.213074
 30
0.0
 11
27.511246
 21
86.281158
 31
0.0
210
0.0
220
0.0
230
1.0
  0
ARC
  5
279
100
AcDbEntity
  8
0
370
    35
390
0
 62
     7
100
AcDbCircle
 10
27.480125
 20
86.250809
 30
0.0
 40
0.04315
210
0.0
220
0.0
230
1.0
100
AcDbArc
 50
44.283306
 51
74.244505
  0
LINE
  5
27A
100
AcDbEntity
  8
0
370
    35
390
0
 62
     7
 48
0.000027
100
AcDbLine
 10
27.491768
 20
86.292084
 30
0.0
 11
27.490791
 21
86.291656
 31
0.0
210
0.0
220
0.0
230
1.0
  0
LINE
  5
27B
100
AcDbEntity
  8
0
370
    35
390
0
 62
     7
 48
0.000025
100
AcDbLine
 10
27.490791
 20
86.291656
 30
0.0
 11
27.490196
 21
86.290848
 31
0.0
210
0.0
220
0.0
230
1.0
  0
LINE
  5
27C
100
AcDbEntity
  8
0
370
    35
390
0
 62
     7
 48
0.000041
100
AcDbLine
 10
27.490196
 20
86.290848
 30
0.0
 11
27.489944
 21
86.289215
 31
0.0
210
0.0
220
0.0
230
1.0
  0
LINE
  5
27D
100
AcDbEntity
  8
0
370
    35
390
0
 62
     7
 48
0.00013
100
AcDbLine
 10
27.489944
 20
86.289215
 30
0.0
 11
27.491249
 21
86.284195
 31
0.0
210
0.0
220
0.0
230
1.0
  0
LINE
  5
27E
100
AcDbEntity
  8
0
370
    35
390
0
 62
     7
 48
0.000294
100
AcDbLine
 10
27.491249
 20
86.284195
 30
0.0
 11
27.497162
 21
86.274033
 31
0.0
210
0.0
220
0.0
230
1.0
  0
LINE
  5
27F
100
AcDbEntity
  8
0
370
    35
390
0
 62
     7
 48
0.000568
100
AcDbLine
 10
27.497162
 20
86.274033
 30
0.0
 11
27.511246
 21
86.256226
 31
0.0
210
0.0
220
0.0
230
1.0
  0
LINE
  5
280
100
AcDbEntity
  8
0
370
    35
390
0
 62
     7
 48
0.003433
100
AcDbLine
 10
27.600006
 20
86.151428
 30
0.0
 11
27.511246
 21
86.256226
 31
0.0
210
0.0
220
0.0
230
1.0
  0
LINE
  5
281
100
AcDbEntity
  8
0
370
    35
390
0
 62
     7
 48
0.002684
100
AcDbLine
 10
27.600006
 20
86.151428
 30
0.0
 11
27.511246
 21
86.211807
 31
0.0
210
0.0
220
0.0
230
1.0
  0
ARC
  5
282
100
AcDbEntity
  8
0
370
    35
390
0
 62
     7
100
AcDbCircle
 10
27.485641
 20
86.182739
 30
0.0
 40
0.038523
210
0.0
220
0.0
230
1.0
100
AcDbArc
 50
48.628874
 51
78.841652
  0
LINE
  5
283
100
AcDbEntity
  8
0
370
    35
390
0
 62
     7
 48
0.000051
100
AcDbLine
 10
27.493065
 20
86.220337
 30
0.0
 11
27.491165
 21
86.219543
 31
0.0
210
0.0
220
0.0
230
1.0
  0
LINE
  5
284
100
AcDbEntity
  8
0
370
    35
390
0
 62
     7
 48
0.000032
100
AcDbLine
 10
27.491165
 20
86.219543
 30
0.0
 11
27.490425
 21
86.218506
 31
0.0
210
0.0
220
0.0
230
1.0
  0
LINE
  5
285
100
AcDbEntity
  8
0
370
    35
390
0
 62
     7
 48
0.000078
100
AcDbLine
 10
27.490425
 20
86.218506
 30
0.0
 11
27.48996
 21
86.215408
 31
0.0
210
0.0
220
0.0
230
1.0
  0
LINE
  5
286
100
AcDbEntity
  8
0
370
    35
390
0
 62
     7
 48
0.000316
100
AcDbLine
 10
27.48996
 20
86.215408
 30
0.0
 11
27.494186
 21
86.203506
 31
0.0
210
0.0
220
0.0
230
1.0
  0
LINE
  5
287
100
AcDbEntity
  8
0
370
    35
390
0
 62
     7
 48
0.000725
100
AcDbLine
 10
27.494186
 20
86.203506
 30
0.0
 11
27.511246
 21
86.180069
 31
0.0
210
0.0
220
0.0
230
1.0
  0
LINE
  5
288
100
AcDbEntity
  8
0
370
    35
390
0
 62
     7
 48
0.003478
100
AcDbLine
 10
27.600006
 20
86.072968
 30
0.0
 11
27.511246
 21
86.180069
 31
0.0
210
0.0
220
0.0
230
1.0
  0
LINE
  5
289
100
AcDbEntity
  8
0
370
    35
390
0
 62
     7
 48
0.002574
100
AcDbLine
 10
27.600006
 20
86.072968
 30
0.0
 11
27.511246
 21
86.125183
 31
0.0
210
0.0
220
0.0
230
1.0
  0
ARC
  5
28A
100
AcDbEntity
  8
0
370
    35
390
0
 62
     7
100
AcDbCircle
 10
27.489563
 20
86.095306
 30
0.0
 40
0.036794
210
0.0
220
0.0
230
1.0
100
AcDbArc
 50
54.038613
 51
81.859858
  0
LINE
  5
28B
100
AcDbEntity
  8
0
370
    35
390
0
 62
     7
 48
0.000071
100
AcDbLine
 10
27.494759
 20
86.131607
 30
0.0
 11
27.492065
 21
86.130753
 31
0.0
210
0.0
220
0.0
230
1.0
  0
LINE
  5
28C
100
AcDbEntity
  8
0
370
    35
390
0
 62
     7
 48
0.000041
100
AcDbLine
 10
27.492065
 20
86.130753
 30
0.0
 11
27.490944
 21
86.129547
 31
0.0
210
0.0
220
0.0
230
1.0
  0
LINE
  5
28D
100
AcDbEntity
  8
0
370
    35
390
0
 62
     7
 48
0.000095
100
AcDbLine
 10
27.490944
 20
86.129547
 30
0.0
 11
27.489975
 21
86.125885
 31
0.0
210
0.0
220
0.0
230
1.0
  0
LINE
  5
28E
100
AcDbEntity
  8
0
370
    35
390
0
 62
     7
 48
0.000146
100
AcDbLine
 10
27.489975
 20
86.125885
 30
0.0
 11
27.490685
 21
86.120087
 31
0.0
210
0.0
220
0.0
230
1.0
  0
LINE
  5
28F
100
AcDbEntity
  8
0
370
    35
390
0
 62
     7
 48
0.000208
100
AcDbLine
 10
27.490685
 20
86.120087
 30
0.0
 11
27.493645
 21
86.11232
 31
0.0
210
0.0
220
0.0
230
1.0
  0
LINE
  5
290
100
AcDbEntity
  8
0
370
    35
390
0
 62
     7
 48
0.000773
100
AcDbLine
 10
27.493645
 20
86.11232
 30
0.0
 11
27.511246
 21
86.086884
 31
0.0
210
0.0
220
0.0
230
1.0
  0
LINE
  5
291
100
AcDbEntity
  8
0
370
    35
390
0
 62
     7
 48
0.003506
100
AcDbLine
 10
27.600006
 20
85.978302
 30
0.0
 11
27.511246
 21
86.086884
 31
0.0
210
0.0
220
0.0
230
1.0
  0
LINE
  5
292
100
AcDbEntity
  8
0
370
    35
390
0
 62
     7
 48
0.002473
100
AcDbLine
 10
27.600006
 20
85.978302
 30
0.0
 11
27.511246
 21
86.021957
 31
0.0
210
0.0
220
0.0
230
1.0
  0
LINE
  5
293
100
AcDbEntity
  8
0
370
    35
390
0
 62
     7
 48
0.000377
100
AcDbLine
 10
27.511246
 20
86.021957
 30
0.0
 11
27.496872
 21
86.02652
 31
0.0
210
0.0
220
0.0
230
1.0
  0
LINE
  5
294
100
AcDbEntity
  8
0
370
    35
390
0
 62
     7
 48
0.000074
100
AcDbLine
 10
27.496872
 20
86.02652
 30
0.0
 11
27.493965
 21
86.026016
 31
0.0
210
0.0
220
0.0
230
1.0
  0
LINE
  5
295
100
AcDbEntity
  8
0
370
    35
390
0
 62
     7
 48
0.00006
100
AcDbLine
 10
27.493965
 20
86.026016
 30
0.0
 11
27.491989
 21
86.024658
 31
0.0
210
0.0
220
0.0
230
1.0
  0
LINE
  5
296
100
AcDbEntity
  8
0
370
    35
390
0
 62
     7
 48
0.000081
100
AcDbLine
 10
27.491989
 20
86.024658
 30
0.0
 11
27.490463
 21
86.02182
 31
0.0
210
0.0
220
0.0
230
1.0
  0
LINE
  5
297
100
AcDbEntity
  8
0
370
    35
390
0
 62
     7
 48
0.000211
100
AcDbLine
 10
27.490463
 20
86.02182
 30
0.0
 11
27.490425
 21
86.013367
 31
0.0
210
0.0
220
0.0
230
1.0
  0
LINE
  5
298
100
AcDbEntity
  8
0
370
    35
390
0
 62
     7
 48
0.000374
100
AcDbLine
 10
27.490425
 20
86.013367
 30
0.0
 11
27.495766
 21
85.999405
 31
0.0
210
0.0
220
0.0
230
1.0
  0
LINE
  5
299
100
AcDbEntity
  8
0
370
    35
390
0
 62
     7
 48
0.000673
100
AcDbLine
 10
27.495766
 20
85.999405
 30
0.0
 11
27.511246
 21
85.977386
 31
0.0
210
0.0
220
0.0
230
1.0
  0
LINE
  5
29A
100
AcDbEntity
  8
0
370
    35
390
0
 62
     7
 48
0.003519
100
AcDbLine
 10
27.600006
 20
85.868149
 30
0.0
 11
27.511246
 21
85.977386
 31
0.0
210
0.0
220
0.0
230
1.0
  0
LINE
  5
29B
100
AcDbEntity
  8
0
370
    35
390
0
 62
     7
 48
0.002383
100
AcDbLine
 10
27.600006
 20
85.868149
 30
0.0
 11
27.511246
 21
85.902908
 31
0.0
210
0.0
220
0.0
230
1.0
  0
LINE
  5
29C
100
AcDbEntity
  8
0
370
    35
390
0
 62
     7
 48
0.000306
100
AcDbLine
 10
27.511246
 20
85.902908
 30
0.0
 11
27.499367
 21
85.905869
 31
0.0
210
0.0
220
0.0
230
1.0
  0
LINE
  5
29D
100
AcDbEntity
  8
0
370
    35
390
0
 62
     7
 48
0.000133
100
AcDbLine
 10
27.499367
 20
85.905869
 30
0.0
 11
27.494156
 21
85.904755
 31
0.0
210
0.0
220
0.0
230
1.0
  0
LINE
  5
29E
100
AcDbEntity
  8
0
370
    35
390
0
 62
     7
 48
0.000107
100
AcDbLine
 10
27.494156
 20
85.904755
 30
0.0
 11
27.49128
 21
85.901581
 31
0.0
210
0.0
220
0.0
230
1.0
  0
LINE
  5
29F
100
AcDbEntity
  8
0
370
    35
390
0
 62
     7
 48
0.000078
100
AcDbLine
 10
27.49128
 20
85.901581
 30
0.0
 11
27.490318
 21
85.898605
 31
0.0
210
0.0
220
0.0
230
1.0
  0
LINE
  5
2A0
100
AcDbEntity
  8
0
370
    35
390
0
 62
     7
 48
0.00019
100
AcDbLine
 10
27.490318
 20
85.898605
 30
0.0
 11
27.49025
 21
85.891022
 31
0.0
210
0.0
220
0.0
230
1.0
  0
LINE
  5
2A1
100
AcDbEntity
  8
0
370
    35
390
0
 62
     7
 48
0.000404
100
AcDbLine
 10
27.49025
 20
85.891022
 30
0.0
 11
27.495316
 21
85.875687
 31
0.0
210
0.0
220
0.0
230
1.0
  0
LINE
  5
2A2
100
AcDbEntity
  8
0
370
    35
390
0
 62
     7
 48
0.000705
100
AcDbLine
 10
27.495316
 20
85.875687
 30
0.0
 11
27.511246
 21
85.852417
 31
0.0
210
0.0
220
0.0
230
1.0
  0
LINE
  5
2A3
100
AcDbEntity
  8
0
370
    35
390
0
 62
     7
 48
0.003516
100
AcDbLine
 10
27.600006
 20
85.743347
 30
0.0
 11
27.511246
 21
85.852417
 31
0.0
210
0.0
220
0.0
230
1.0
  0
LINE
  5
2A4
100
AcDbEntity
  8
0
370
    35
390
0
 62
     7
 48
0.002309
100
AcDbLine
 10
27.600006
 20
85.743347
 30
0.0
 11
27.511246
 21
85.768951
 31
0.0
210
0.0
220
0.0
230
1.0
  0
LINE
  5
2A5
100
AcDbEntity
  8
0
370
    35
390
0
 62
     7
 48
0.00023
100
AcDbLine
 10
27.511246
 20
85.768951
 30
0.0
 11
27.502205
 21
85.770584
 31
0.0
210
0.0
220
0.0
230
1.0
  0
LINE
  5
2A6
100
AcDbEntity
  8
0
370
    35
390
0
 62
     7
 48
0.000141
100
AcDbLine
 10
27.502205
 20
85.770584
 30
0.0
 11
27.49662
 21
85.769867
 31
0.0
210
0.0
220
0.0
230
1.0
  0
LINE
  5
2A7
100
AcDbEntity
  8
0
370
    35
390
0
 62
     7
 48
0.000107
100
AcDbLine
 10
27.49662
 20
85.769867
 30
0.0
 11
27.493073
 21
85.767456
 31
0.0
210
0.0
220
0.0
230
1.0
  0
LINE
  5
2A8
100
AcDbEntity
  8
0
370
    35
390
0
 62
     7
 48
0.000103
100
AcDbLine
 10
27.493073
 20
85.767456
 30
0.0
 11
27.491035
 21
85.763855
 31
0.0
210
0.0
220
0.0
230
1.0
  0
LINE
  5
2A9
100
AcDbEntity
  8
0
370
    35
390
0
 62
     7
 48
0.000248
100
AcDbLine
 10
27.491035
 20
85.763855
 30
0.0
 11
27.490128
 21
85.753967
 31
0.0
210
0.0
220
0.0
230
1.0
  0
LINE
  5
2AA
100
AcDbEntity
  8
0
370
    35
390
0
 62
     7
 48
0.000435
100
AcDbLine
 10
27.490128
 20
85.753967
 30
0.0
 11
27.494926
 21
85.737244
 31
0.0
210
0.0
220
0.0
230
1.0
  0
LINE
  5
2AB
100
AcDbEntity
  8
0
370
    35
390
0
 62
     7
 48
0.000733
100
AcDbLine
 10
27.494926
 20
85.737244
 30
0.0
 11
27.511246
 21
85.712906
 31
0.0
210
0.0
220
0.0
230
1.0
  0
LINE
  5
2AC
100
AcDbEntity
  8
0
370
    35
390
0
 62
     7
 48
0.003496
100
AcDbLine
 10
27.600006
 20
85.604843
 30
0.0
 11
27.511246
 21
85.712906
 31
0.0
210
0.0
220
0.0
230
1.0
  0
LINE
  5
2AD
100
AcDbEntity
  8
0
370
    35
390
0
 62
     7
 48
0.002256
100
AcDbLine
 10
27.600006
 20
85.604843
 30
0.0
 11
27.511246
 21
85.621078
 31
0.0
210
0.0
220
0.0
230
1.0
  0
LINE
  5
2AE
100
AcDbEntity
  8
0
370
    35
390
0
 62
     7
 48
0.000293
100
AcDbLine
 10
27.511246
 20
85.621078
 30
0.0
 11
27.499519
 21
85.621262
 31
0.0
210
0.0
220
0.0
230
1.0
  0
LINE
  5
2AF
100
AcDbEntity
  8
0
370
    35
390
0
 62
     7
 48
0.000183
100
AcDbLine
 10
27.499519
 20
85.621262
 30
0.0
 11
27.493279
 21
85.617432
 31
0.0
210
0.0
220
0.0
230
1.0
  0
LINE
  5
2B0
100
AcDbEntity
  8
0
370
    35
390
0
 62
     7
 48
0.000118
100
AcDbLine
 10
27.493279
 20
85.617432
 30
0.0
 11
27.491081
 21
85.613235
 31
0.0
210
0.0
220
0.0
230
1.0
  0
LINE
  5
2B1
100
AcDbEntity
  8
0
370
    35
390
0
 62
     7
 48
0.000272
100
AcDbLine
 10
27.491081
 20
85.613235
 30
0.0
 11
27.490021
 21
85.602417
 31
0.0
210
0.0
220
0.0
230
1.0
  0
LINE
  5
2B2
100
AcDbEntity
  8
0
370
    35
390
0
 62
     7
 48
0.000338
100
AcDbLine
 10
27.490021
 20
85.602417
 30
0.0
 11
27.492882
 21
85.589203
 31
0.0
210
0.0
220
0.0
230
1.0
  0
LINE
  5
2B3
100
AcDbEntity
  8
0
370
    35
390
0
 62
     7
 48
0.000479
100
AcDbLine
 10
27.492882
 20
85.589203
 30
0.0
 11
27.501823
 21
85.572235
 31
0.0
210
0.0
220
0.0
230
1.0
  0
LINE
  5
2B4
100
AcDbEntity
  8
0
370
    35
390
0
 62
     7
 48
0.000387
100
AcDbLine
 10
27.501823
 20
85.572235
 30
0.0
 11
27.511246
 21
85.559937
 31
0.0
210
0.0
220
0.0
230
1.0
  0
LINE
  5
2B5
100
AcDbEntity
  8
0
370
    35
390
0
 62
     7
 48
0.003461
100
AcDbLine
 10
27.600006
 20
85.45369
 30
0.0
 11
27.511246
 21
85.559937
 31
0.0
210
0.0
220
0.0
230
1.0
  0
LINE
  5
2B6
100
AcDbEntity
  8
0
370
    35
390
0
 62
     7
 48
0.002225
100
AcDbLine
 10
27.600006
 20
85.45369
 30
0.0
 11
27.511246
 21
85.460449
 31
0.0
210
0.0
220
0.0
230
1.0
  0
LINE
  5
2B7
100
AcDbEntity
  8
0
370
    35
390
0
 62
     7
 48
0.000222
100
AcDbLine
 10
27.511246
 20
85.460449
 30
0.0
 11
27.502373
 21
85.460068
 31
0.0
210
0.0
220
0.0
230
1.0
  0
LINE
  5
2B8
100
AcDbEntity
  8
0
370
    35
390
0
 62
     7
 48
0.000158
100
AcDbLine
 10
27.502373
 20
85.460068
 30
0.0
 11
27.496529
 21
85.457657
 31
0.0
210
0.0
220
0.0
230
1.0
  0
LINE
  5
2B9
100
AcDbEntity
  8
0
370
    35
390
0
 62
     7
 48
0.000177
100
AcDbLine
 10
27.496529
 20
85.457657
 30
0.0
 11
27.492065
 21
85.452164
 31
0.0
210
0.0
220
0.0
230
1.0
  0
LINE
  5
2BA
100
AcDbEntity
  8
0
370
    35
390
0
 62
     7
 48
0.000188
100
AcDbLine
 10
27.492065
 20
85.452164
 30
0.0
 11
27.490173
 21
85.44487
 31
0.0
210
0.0
220
0.0
230
1.0
  0
LINE
  5
2BB
100
AcDbEntity
  8
0
370
    35
390
0
 62
     7
 48
0.000212
100
AcDbLine
 10
27.490173
 20
85.44487
 30
0.0
 11
27.490143
 21
85.436371
 31
0.0
210
0.0
220
0.0
230
1.0
  0
LINE
  5
2BC
100
AcDbEntity
  8
0
370
    35
390
0
 62
     7
 48
0.00038
100
AcDbLine
 10
27.490143
 20
85.436371
 30
0.0
 11
27.493752
 21
85.421616
 31
0.0
210
0.0
220
0.0
230
1.0
  0
LINE
  5
2BD
100
AcDbEntity
  8
0
370
    35
390
0
 62
     7
 48
0.000538
100
AcDbLine
 10
27.493752
 20
85.421616
 30
0.0
 11
27.504524
 21
85.402985
 31
0.0
210
0.0
220
0.0
230
1.0
  0
LINE
  5
2BE
100
AcDbEntity
  8
0
370
    35
390
0
 62
     7
 48
0.000268
100
AcDbLine
 10
27.504524
 20
85.402985
 30
0.0
 11
27.511246
 21
85.394653
 31
0.0
210
0.0
220
0.0
230
1.0
  0
LINE
  5
2BF
100
AcDbEntity
  8
0
370
    35
390
0
 62
     7
 48
0.003411
100
AcDbLine
 10
27.600006
 20
85.291046
 30
0.0
 11
27.511246
 21
85.394653
 31
0.0
210
0.0
220
0.0
230
1.0
  0
LINE
  5
2C0
100
AcDbEntity
  8
0
370
    35
390
0
 62
     7
 48
0.00222
100
AcDbLine
 10
27.600006
 20
85.291046
 30
0.0
 11
27.511246
 21
85.288284
 31
0.0
210
0.0
220
0.0
230
1.0
  0
LINE
  5
2C1
100
AcDbEntity
  8
0
370
    35
390
0
 62
     7
 48
0.000651
100
AcDbLine
 10
27.511246
 20
85.218323
 30
0.0
 11
27.496216
 21
85.239578
 31
0.0
210
0.0
220
0.0
230
1.0
  0
LINE
  5
2C2
100
AcDbEntity
  8
0
370
    35
390
0
 62
     7
 48
0.000443
100
AcDbLine
 10
27.496216
 20
85.239578
 30
0.0
 11
27.490639
 21
85.256378
 31
0.0
210
0.0
220
0.0
230
1.0
  0
LINE
  5
2C3
100
AcDbEntity
  8
0
370
    35
390
0
 62
     7
 48
0.000356
100
AcDbLine
 10
27.490639
 20
85.256378
 30
0.0
 11
27.490257
 21
85.27063
 31
0.0
210
0.0
220
0.0
230
1.0
  0
LINE
  5
2C4
100
AcDbEntity
  8
0
370
    35
390
0
 62
     7
 48
0.000158
100
AcDbLine
 10
27.490257
 20
85.27063
 30
0.0
 11
27.491753
 21
85.276764
 31
0.0
210
0.0
220
0.0
230
1.0
  0
LINE
  5
2C5
100
AcDbEntity
  8
0
370
    35
390
0
 62
     7
 48
0.000149
100
AcDbLine
 10
27.491753
 20
85.276764
 30
0.0
 11
27.494728
 21
85.281937
 31
0.0
210
0.0
220
0.0
230
1.0
  0
LINE
  5
2C6
100
AcDbEntity
  8
0
370
    35
390
0
 62
     7
 48
0.000159
100
AcDbLine
 10
27.494728
 20
85.281937
 30
0.0
 11
27.499756
 21
85.285843
 31
0.0
210
0.0
220
0.0
230
1.0
  0
LINE
  5
2C7
100
AcDbEntity
  8
0
370
    35
390
0
 62
     7
 48
0.000294
100
AcDbLine
 10
27.499756
 20
85.285843
 30
0.0
 11
27.511246
 21
85.288284
 31
0.0
210
0.0
220
0.0
230
1.0
  0
LINE
  5
2C8
100
AcDbEntity
  8
0
370
    35
390
0
 62
     7
 48
0.003346
100
AcDbLine
 10
27.600006
 20
85.118149
 30
0.0
 11
27.511246
 21
85.218323
 31
0.0
210
0.0
220
0.0
230
1.0
  0
LINE
  5
2C9
100
AcDbEntity
  8
0
370
    35
390
0
 62
     7
 48
0.00224
100
AcDbLine
 10
27.600006
 20
85.118149
 30
0.0
 11
27.511246
 21
85.105865
 31
0.0
210
0.0
220
0.0
230
1.0
  0
LINE
  5
2CA
100
AcDbEntity
  8
0
370
    35
390
0
 62
     7
 48
0.000609
100
AcDbLine
 10
27.511246
 20
85.032288
 30
0.0
 11
27.496819
 21
85.051895
 31
0.0
210
0.0
220
0.0
230
1.0
  0
LINE
  5
2CB
100
AcDbEntity
  8
0
370
    35
390
0
 62
     7
 48
0.000429
100
AcDbLine
 10
27.496819
 20
85.051895
 30
0.0
 11
27.491035
 21
85.068054
 31
0.0
210
0.0
220
0.0
230
1.0
  0
LINE
  5
2CC
100
AcDbEntity
  8
0
370
    35
390
0
 62
     7
 48
0.000356
100
AcDbLine
 10
27.491035
 20
85.068054
 30
0.0
 11
27.490021
 21
85.082245
 31
0.0
210
0.0
220
0.0
230
1.0
  0
LINE
  5
2CD
100
AcDbEntity
  8
0
370
    35
390
0
 62
     7
 48
0.000312
100
AcDbLine
 10
27.490021
 20
85.082245
 30
0.0
 11
27.492882
 21
85.094406
 31
0.0
210
0.0
220
0.0
230
1.0
  0
LINE
  5
2CE
100
AcDbEntity
  8
0
370
    35
390
0
 62
     7
 48
0.000151
100
AcDbLine
 10
27.492882
 20
85.094406
 30
0.0
 11
27.49633
 21
85.099365
 31
0.0
210
0.0
220
0.0
230
1.0
  0
LINE
  5
2CF
100
AcDbEntity
  8
0
370
    35
390
0
 62
     7
 48
0.000168
100
AcDbLine
 10
27.49633
 20
85.099365
 30
0.0
 11
27.501831
 21
85.103226
 31
0.0
210
0.0
220
0.0
230
1.0
  0
LINE
  5
2D0
100
AcDbEntity
  8
0
370
    35
390
0
 62
     7
 48
0.000244
100
AcDbLine
 10
27.501831
 20
85.103226
 30
0.0
 11
27.511246
 21
85.105865
 31
0.0
210
0.0
220
0.0
230
1.0
  0
LINE
  5
2D1
100
AcDbEntity
  8
0
370
    35
390
0
 62
     7
 48
0.003269
100
AcDbLine
 10
27.600006
 20
84.936295
 30
0.0
 11
27.511246
 21
85.032288
 31
0.0
210
0.0
220
0.0
230
1.0
  0
LINE
  5
2D2
100
AcDbEntity
  8
0
370
    35
390
0
 62
     7
 48
0.002284
100
AcDbLine
 10
27.600006
 20
84.936295
 30
0.0
 11
27.511246
 21
84.914597
 31
0.0
210
0.0
220
0.0
230
1.0
  0
LINE
  5
2D3
100
AcDbEntity
  8
0
370
    35
390
0
 62
     7
 48
0.000596
100
AcDbLine
 10
27.511246
 20
84.837967
 30
0.0
 11
27.496819
 21
84.856949
 31
0.0
210
0.0
220
0.0
230
1.0
  0
LINE
  5
2D4
100
AcDbEntity
  8
0
370
    35
390
0
 62
     7
 48
0.000431
100
AcDbLine
 10
27.496819
 20
84.856949
 30
0.0
 11
27.491035
 21
84.873199
 31
0.0
210
0.0
220
0.0
230
1.0
  0
LINE
  5
2D5
100
AcDbEntity
  8
0
370
    35
390
0
 62
     7
 48
0.000368
100
AcDbLine
 10
27.491035
 20
84.873199
 30
0.0
 11
27.490021
 21
84.887878
 31
0.0
210
0.0
220
0.0
230
1.0
  0
LINE
  5
2D6
100
AcDbEntity
  8
0
370
    35
390
0
 62
     7
 48
0.000332
100
AcDbLine
 10
27.490021
 20
84.887878
 30
0.0
 11
27.492882
 21
84.900833
 31
0.0
210
0.0
220
0.0
230
1.0
  0
LINE
  5
2D7
100
AcDbEntity
  8
0
370
    35
390
0
 62
     7
 48
0.000162
100
AcDbLine
 10
27.492882
 20
84.900833
 30
0.0
 11
27.49633
 21
84.906342
 31
0.0
210
0.0
220
0.0
230
1.0
  0
LINE
  5
2D8
100
AcDbEntity
  8
0
370
    35
390
0
 62
     7
 48
0.000179
100
AcDbLine
 10
27.49633
 20
84.906342
 30
0.0
 11
27.501823
 21
84.910919
 31
0.0
210
0.0
220
0.0
230
1.0
  0
LINE
  5
2D9
100
AcDbEntity
  8
0
370
    35
390
0
 62
     7
 48
0.000253
100
AcDbLine
 10
27.501823
 20
84.910919
 30
0.0
 11
27.511246
 21
84.914597
 31
0.0
210
0.0
220
0.0
230
1.0
  0
LINE
  5
2DA
100
AcDbEntity
  8
0
370
    35
390
0
 62
     7
 48
0.003179
100
AcDbLine
 10
27.600006
 20
84.746887
 30
0.0
 11
27.511246
 21
84.837967
 31
0.0
210
0.0
220
0.0
230
1.0
  0
LINE
  5
2DB
100
AcDbEntity
  8
0
370
    35
390
0
 62
     7
 48
0.00235
100
AcDbLine
 10
27.600006
 20
84.746887
 30
0.0
 11
27.511246
 21
84.715942
 31
0.0
210
0.0
220
0.0
230
1.0
  0
LINE
  5
2DC
100
AcDbEntity
  8
0
370
    35
390
0
 62
     7
 48
0.000581
100
AcDbLine
 10
27.511246
 20
84.636826
 30
0.0
 11
27.496819
 21
84.655045
 31
0.0
210
0.0
220
0.0
230
1.0
  0
LINE
  5
2DD
100
AcDbEntity
  8
0
370
    35
390
0
 62
     7
 48
0.00043
100
AcDbLine
 10
27.496819
 20
84.655045
 30
0.0
 11
27.491043
 21
84.671265
 31
0.0
210
0.0
220
0.0
230
1.0
  0
LINE
  5
2DE
100
AcDbEntity
  8
0
370
    35
390
0
 62
     7
 48
0.000377
100
AcDbLine
 10
27.491043
 20
84.671265
 30
0.0
 11
27.490021
 21
84.686325
 31
0.0
210
0.0
220
0.0
230
1.0
  0
LINE
  5
2DF
100
AcDbEntity
  8
0
370
    35
390
0
 62
     7
 48
0.000348
100
AcDbLine
 10
27.490021
 20
84.686325
 30
0.0
 11
27.492882
 21
84.699966
 31
0.0
210
0.0
220
0.0
230
1.0
  0
LINE
  5
2E0
100
AcDbEntity
  8
0
370
    35
390
0
 62
     7
 48
0.000174
100
AcDbLine
 10
27.492882
 20
84.699966
 30
0.0
 11
27.49633
 21
84.705994
 31
0.0
210
0.0
220
0.0
230
1.0
  0
LINE
  5
2E1
100
AcDbEntity
  8
0
370
    35
390
0
 62
     7
 48
0.00019
100
AcDbLine
 10
27.49633
 20
84.705994
 30
0.0
 11
27.501823
 21
84.711243
 31
0.0
210
0.0
220
0.0
230
1.0
  0
LINE
  5
2E2
100
AcDbEntity
  8
0
370
    35
390
0
 62
     7
 48
0.000263
100
AcDbLine
 10
27.501823
 20
84.711243
 30
0.0
 11
27.511246
 21
84.715942
 31
0.0
210
0.0
220
0.0
230
1.0
  0
LINE
  5
2E3
100
AcDbEntity
  8
0
370
    35
390
0
 62
     7
 48
0.00308
100
AcDbLine
 10
27.600006
 20
84.551376
 30
0.0
 11
27.511246
 21
84.636826
 31
0.0
210
0.0
220
0.0
230
1.0
  0
LINE
  5
2E4
100
AcDbEntity
  8
0
370
    35
390
0
 62
     7
 48
0.002434
100
AcDbLine
 10
27.600006
 20
84.551376
 30
0.0
 11
27.511246
 21
84.511398
 31
0.0
210
0.0
220
0.0
230
1.0
  0
LINE
  5
2E5
100
AcDbEntity
  8
0
370
    35
390
0
 62
     7
 48
0.000314
100
AcDbLine
 10
27.511246
 20
84.43042
 30
0.0
 11
27.502487
 21
84.439438
 31
0.0
210
0.0
220
0.0
230
1.0
  0
LINE
  5
2E6
100
AcDbEntity
  8
0
370
    35
390
0
 62
     7
 48
0.000258
100
AcDbLine
 10
27.502487
 20
84.439438
 30
0.0
 11
27.496681
 21
84.447983
 31
0.0
210
0.0
220
0.0
230
1.0
  0
LINE
  5
2E7
100
AcDbEntity
  8
0
370
    35
390
0
 62
     7
 48
0.000323
100
AcDbLine
 10
27.496681
 20
84.447983
 30
0.0
 11
27.491905
 21
84.459976
 31
0.0
210
0.0
220
0.0
230
1.0
  0
LINE
  5
2E8
100
AcDbEntity
  8
0
370
    35
390
0
 62
     7
 48
0.000293
100
AcDbLine
 10
27.491905
 20
84.459976
 30
0.0
 11
27.490059
 21
84.471542
 31
0.0
210
0.0
220
0.0
230
1.0
  0
LINE
  5
2E9
100
AcDbEntity
  8
0
370
    35
390
0
 62
     7
 48
0.000279
100
AcDbLine
 10
27.490059
 20
84.471542
 30
0.0
 11
27.490326
 21
84.482681
 31
0.0
210
0.0
220
0.0
230
1.0
  0
LINE
  5
2EA
100
AcDbEntity
  8
0
370
    35
390
0
 62
     7
 48
0.000269
100
AcDbLine
 10
27.490326
 20
84.482681
 30
0.0
 11
27.492798
 21
84.493149
 31
0.0
210
0.0
220
0.0
230
1.0
  0
LINE
  5
2EB
100
AcDbEntity
  8
0
370
    35
390
0
 62
     7
 48
0.000186
100
AcDbLine
 10
27.492798
 20
84.493149
 30
0.0
 11
27.496269
 21
84.499741
 31
0.0
210
0.0
220
0.0
230
1.0
  0
LINE
  5
2EC
100
AcDbEntity
  8
0
370
    35
390
0
 62
     7
 48
0.000204
100
AcDbLine
 10
27.496269
 20
84.499741
 30
0.0
 11
27.501823
 21
84.505722
 31
0.0
210
0.0
220
0.0
230
1.0
  0
LINE
  5
2ED
100
AcDbEntity
  8
0
370
    35
390
0
 62
     7
 48
0.000275
100
AcDbLine
 10
27.501823
 20
84.505722
 30
0.0
 11
27.511246
 21
84.511398
 31
0.0
210
0.0
220
0.0
230
1.0
  0
LINE
  5
2EE
100
AcDbEntity
  8
0
370
    35
390
0
 62
     7
 48
0.002974
100
AcDbLine
 10
27.600006
 20
84.351212
 30
0.0
 11
27.511246
 21
84.43042
 31
0.0
210
0.0
220
0.0
230
1.0
  0
LINE
  5
2EF
100
AcDbEntity
  8
0
370
    35
390
0
 62
     7
 48
0.002531
100
AcDbLine
 10
27.600006
 20
84.351212
 30
0.0
 11
27.511246
 21
84.302536
 31
0.0
210
0.0
220
0.0
230
1.0
  0
LINE
  5
2F0
100
AcDbEntity
  8
0
370
    35
390
0
 62
     7
 48
0.000304
100
AcDbLine
 10
27.511246
 20
84.220306
 30
0.0
 11
27.502457
 21
84.228699
 31
0.0
210
0.0
220
0.0
230
1.0
  0
LINE
  5
2F1
100
AcDbEntity
  8
0
370
    35
390
0
 62
     7
 48
0.000251
100
AcDbLine
 10
27.502457
 20
84.228699
 30
0.0
 11
27.496643
 21
84.236893
 31
0.0
210
0.0
220
0.0
230
1.0
  0
LINE
  5
2F2
100
AcDbEntity
  8
0
370
    35
390
0
 62
     7
 48
0.000316
100
AcDbLine
 10
27.496643
 20
84.236893
 30
0.0
 11
27.491898
 21
84.248596
 31
0.0
210
0.0
220
0.0
230
1.0
  0
LINE
  5
2F3
100
AcDbEntity
  8
0
370
    35
390
0
 62
     7
 48
0.000292
100
AcDbLine
 10
27.491898
 20
84.248596
 30
0.0
 11
27.490059
 21
84.260147
 31
0.0
210
0.0
220
0.0
230
1.0
  0
LINE
  5
2F4
100
AcDbEntity
  8
0
370
    35
390
0
 62
     7
 48
0.000282
100
AcDbLine
 10
27.490059
 20
84.260147
 30
0.0
 11
27.490318
 21
84.271439
 31
0.0
210
0.0
220
0.0
230
1.0
  0
LINE
  5
2F5
100
AcDbEntity
  8
0
370
    35
390
0
 62
     7
 48
0.000278
100
AcDbLine
 10
27.490318
 20
84.271439
 30
0.0
 11
27.492775
 21
84.282272
 31
0.0
210
0.0
220
0.0
230
1.0
  0
LINE
  5
2F6
100
AcDbEntity
  8
0
370
    35
390
0
 62
     7
 48
0.000196
100
AcDbLine
 10
27.492775
 20
84.282272
 30
0.0
 11
27.496246
 21
84.289307
 31
0.0
210
0.0
220
0.0
230
1.0
  0
LINE
  5
2F7
100
AcDbEntity
  8
0
370
    35
390
0
 62
     7
 48
0.000216
100
AcDbLine
 10
27.496246
 20
84.289307
 30
0.0
 11
27.501823
 21
84.295914
 31
0.0
210
0.0
220
0.0
230
1.0
  0
LINE
  5
2F8
100
AcDbEntity
  8
0
370
    35
390
0
 62
     7
 48
0.000288
100
AcDbLine
 10
27.501823
 20
84.295914
 30
0.0
 11
27.511246
 21
84.302536
 31
0.0
210
0.0
220
0.0
230
1.0
  0
LINE
  5
2F9
100
AcDbEntity
  8
0
370
    35
390
0
 62
     7
 48
0.002863
100
AcDbLine
 10
27.600006
 20
84.147964
 30
0.0
 11
27.511246
 21
84.220306
 31
0.0
210
0.0
220
0.0
230
1.0
  0
LINE
  5
2FA
100
AcDbEntity
  8
0
370
    35
390
0
 62
     7
 48
0.002637
100
AcDbLine
 10
27.600006
 20
84.147964
 30
0.0
 11
27.511246
 21
84.090942
 31
0.0
210
0.0
220
0.0
230
1.0
  0
ARC
  5
2FB
100
AcDbEntity
  8
0
370
    35
390
0
 62
     7
100
AcDbCircle
 10
27.540756
 20
84.049942
 30
0.0
 40
0.051222
210
0.0
220
0.0
230
1.0
100
AcDbArc
 50
125.741133
 51
234.818574
  0
LINE
  5
2FC
100
AcDbEntity
  8
0
370
    35
390
0
 62
     7
 48
0.002749
100
AcDbLine
 10
27.600006
 20
83.943146
 30
0.0
 11
27.511246
 21
84.008072
 31
0.0
210
0.0
220
0.0
230
1.0
  0
LINE
  5
2FD
100
AcDbEntity
  8
0
370
    35
390
0
 62
     7
 48
0.002749
100
AcDbLine
 10
27.600006
 20
83.943146
 30
0.0
 11
27.511246
 21
83.87822
 31
0.0
210
0.0
220
0.0
230
1.0
  0
ARC
  5
2FE
100
AcDbEntity
  8
0
370
    35
390
0
 62
     7
100
AcDbCircle
 10
27.540764
 20
83.836411
 30
0.0
 40
0.051225
210
0.0
220
0.0
230
1.0
100
AcDbArc
 50
125.218828
 51
234.287568
  0
LINE
  5
2FF
100
AcDbEntity
  8
0
370
    35
390
0
 62
     7
 48
0.002637
100
AcDbLine
 10
27.599998
 20
83.738327
 30
0.0
 11
27.511246
 21
83.795349
 31
0.0
210
0.0
220
0.0
230
1.0
  0
LINE
  5
300
100
AcDbEntity
  8
0
370
    35
390
0
 62
     7
 48
0.002863
100
AcDbLine
 10
27.599998
 20
83.738327
 30
0.0
 11
27.511246
 21
83.665985
 31
0.0
210
0.0
220
0.0
230
1.0
  0
LINE
  5
301
100
AcDbEntity
  8
0
370
    35
390
0
 62
     7
 48
0.000263
100
AcDbLine
 10
27.511246
 20
83.583755
 30
0.0
 11
27.502586
 21
83.589706
 31
0.0
210
0.0
220
0.0
230
1.0
  0
LINE
  5
302
100
AcDbEntity
  8
0
370
    35
390
0
 62
     7
 48
0.000217
100
AcDbLine
 10
27.502586
 20
83.589706
 30
0.0
 11
27.496819
 21
83.596207
 31
0.0
210
0.0
220
0.0
230
1.0
  0
LINE
  5
303
100
AcDbEntity
  8
0
370
    35
390
0
 62
     7
 48
0.000385
100
AcDbLine
 10
27.496819
 20
83.596207
 30
0.0
 11
27.491035
 21
83.610458
 31
0.0
210
0.0
220
0.0
230
1.0
  0
LINE
  5
304
100
AcDbEntity
  8
0
370
    35
390
0
 62
     7
 48
0.00038
100
AcDbLine
 10
27.491035
 20
83.610458
 30
0.0
 11
27.490013
 21
83.625641
 31
0.0
210
0.0
220
0.0
230
1.0
  0
LINE
  5
305
100
AcDbEntity
  8
0
370
    35
390
0
 62
     7
 48
0.000394
100
AcDbLine
 10
27.490013
 20
83.625641
 30
0.0
 11
27.492874
 21
83.641129
 31
0.0
210
0.0
220
0.0
230
1.0
  0
LINE
  5
306
100
AcDbEntity
  8
0
370
    35
390
0
 62
     7
 48
0.000453
100
AcDbLine
 10
27.492874
 20
83.641129
 30
0.0
 11
27.501823
 21
83.656876
 31
0.0
210
0.0
220
0.0
230
1.0
  0
LINE
  5
307
100
AcDbEntity
  8
0
370
    35
390
0
 62
     7
 48
0.000328
100
AcDbLine
 10
27.501823
 20
83.656876
 30
0.0
 11
27.511246
 21
83.665985
 31
0.0
210
0.0
220
0.0
230
1.0
  0
LINE
  5
308
100
AcDbEntity
  8
0
370
    35
390
0
 62
     7
 48
0.002531
100
AcDbLine
 10
27.599998
 20
83.53508
 30
0.0
 11
27.511246
 21
83.583755
 31
0.0
210
0.0
220
0.0
230
1.0
  0
LINE
  5
309
100
AcDbEntity
  8
0
370
    35
390
0
 62
     7
 48
0.002974
100
AcDbLine
 10
27.599998
 20
83.53508
 30
0.0
 11
27.511246
 21
83.455872
 31
0.0
210
0.0
220
0.0
230
1.0
  0
LINE
  5
30A
100
AcDbEntity
  8
0
370
    35
390
0
 62
     7
 48
0.000251
100
AcDbLine
 10
27.511246
 20
83.374893
 30
0.0
 11
27.502586
 21
83.379974
 31
0.0
210
0.0
220
0.0
230
1.0
  0
LINE
  5
30B
100
AcDbEntity
  8
0
370
    35
390
0
 62
     7
 48
0.000206
100
AcDbLine
 10
27.502586
 20
83.379974
 30
0.0
 11
27.496819
 21
83.385864
 31
0.0
210
0.0
220
0.0
230
1.0
  0
LINE
  5
30C
100
AcDbEntity
  8
0
370
    35
390
0
 62
     7
 48
0.000247
100
AcDbLine
 10
27.496819
 20
83.385864
 30
0.0
 11
27.492302
 21
83.394669
 31
0.0
210
0.0
220
0.0
230
1.0
  0
LINE
  5
30D
100
AcDbEntity
  8
0
370
    35
390
0
 62
     7
 48
0.000244
100
AcDbLine
 10
27.492302
 20
83.394669
 30
0.0
 11
27.490273
 21
83.404221
 31
0.0
210
0.0
220
0.0
230
1.0
  0
LINE
  5
30E
100
AcDbEntity
  8
0
370
    35
390
0
 62
     7
 48
0.00025
100
AcDbLine
 10
27.490273
 20
83.404221
 30
0.0
 11
27.490013
 21
83.41423
 31
0.0
210
0.0
220
0.0
230
1.0
  0
LINE
  5
30F
100
AcDbEntity
  8
0
370
    35
390
0
 62
     7
 48
0.000394
100
AcDbLine
 10
27.490013
 20
83.41423
 30
0.0
 11
27.492874
 21
83.429749
 31
0.0
210
0.0
220
0.0
230
1.0
  0
LINE
  5
310
100
AcDbEntity
  8
0
370
    35
390
0
 62
     7
 48
0.000465
100
AcDbLine
 10
27.492874
 20
83.429749
 30
0.0
 11
27.501823
 21
83.446045
 31
0.0
210
0.0
220
0.0
230
1.0
  0
LINE
  5
311
100
AcDbEntity
  8
0
370
    35
390
0
 62
     7
 48
0.00034
100
AcDbLine
 10
27.501823
 20
83.446045
 30
0.0
 11
27.511246
 21
83.455872
 31
0.0
210
0.0
220
0.0
230
1.0
  0
LINE
  5
312
100
AcDbEntity
  8
0
370
    35
390
0
 62
     7
 48
0.002434
100
AcDbLine
 10
27.599998
 20
83.334915
 30
0.0
 11
27.511246
 21
83.374893
 31
0.0
210
0.0
220
0.0
230
1.0
  0
LINE
  5
313
100
AcDbEntity
  8
0
370
    35
390
0
 62
     7
 48
0.00308
100
AcDbLine
 10
27.599998
 20
83.334915
 30
0.0
 11
27.511246
 21
83.249466
 31
0.0
210
0.0
220
0.0
230
1.0
  0
LINE
  5
314
100
AcDbEntity
  8
0
370
    35
390
0
 62
     7
 48
0.000241
100
AcDbLine
 10
27.511246
 20
83.170349
 30
0.0
 11
27.502586
 21
83.174545
 31
0.0
210
0.0
220
0.0
230
1.0
  0
LINE
  5
315
100
AcDbEntity
  8
0
370
    35
390
0
 62
     7
 48
0.000195
100
AcDbLine
 10
27.502586
 20
83.174545
 30
0.0
 11
27.496819
 21
83.179779
 31
0.0
210
0.0
220
0.0
230
1.0
  0
LINE
  5
316
100
AcDbEntity
  8
0
370
    35
390
0
 62
     7
 48
0.000234
100
AcDbLine
 10
27.496819
 20
83.179779
 30
0.0
 11
27.492302
 21
83.187958
 31
0.0
210
0.0
220
0.0
230
1.0
  0
LINE
  5
317
100
AcDbEntity
  8
0
370
    35
390
0
 62
     7
 48
0.000234
100
AcDbLine
 10
27.492302
 20
83.187958
 30
0.0
 11
27.490273
 21
83.197113
 31
0.0
210
0.0
220
0.0
230
1.0
  0
LINE
  5
318
100
AcDbEntity
  8
0
370
    35
390
0
 62
     7
 48
0.000244
100
AcDbLine
 10
27.490273
 20
83.197113
 30
0.0
 11
27.490013
 21
83.206863
 31
0.0
210
0.0
220
0.0
230
1.0
  0
LINE
  5
319
100
AcDbEntity
  8
0
370
    35
390
0
 62
     7
 48
0.000392
100
AcDbLine
 10
27.490013
 20
83.206863
 30
0.0
 11
27.492874
 21
83.222275
 31
0.0
210
0.0
220
0.0
230
1.0
  0
LINE
  5
31A
100
AcDbEntity
  8
0
370
    35
390
0
 62
     7
 48
0.000474
100
AcDbLine
 10
27.492874
 20
83.222275
 30
0.0
 11
27.501816
 21
83.239014
 31
0.0
210
0.0
220
0.0
230
1.0
  0
LINE
  5
31B
100
AcDbEntity
  8
0
370
    35
390
0
 62
     7
 48
0.000352
100
AcDbLine
 10
27.501816
 20
83.239014
 30
0.0
 11
27.511246
 21
83.249466
 31
0.0
210
0.0
220
0.0
230
1.0
  0
LINE
  5
31C
100
AcDbEntity
  8
0
370
    35
390
0
 62
     7
 48
0.00235
100
AcDbLine
 10
27.599998
 20
83.139404
 30
0.0
 11
27.511246
 21
83.170349
 31
0.0
210
0.0
220
0.0
230
1.0
  0
LINE
  5
31D
100
AcDbEntity
  8
0
370
    35
390
0
 62
     7
 48
0.003179
100
AcDbLine
 10
27.599998
 20
83.139404
 30
0.0
 11
27.511246
 21
83.048325
 31
0.0
210
0.0
220
0.0
230
1.0
  0
LINE
  5
31E
100
AcDbEntity
  8
0
370
    35
390
0
 62
     7
 48
0.000325
100
AcDbLine
 10
27.511246
 20
82.971695
 30
0.0
 11
27.499397
 21
82.977081
 31
0.0
210
0.0
220
0.0
230
1.0
  0
LINE
  5
31F
100
AcDbEntity
  8
0
370
    35
390
0
 62
     7
 48
0.000252
100
AcDbLine
 10
27.499397
 20
82.977081
 30
0.0
 11
27.493164
 21
82.984985
 31
0.0
210
0.0
220
0.0
230
1.0
  0
LINE
  5
320
100
AcDbEntity
  8
0
370
    35
390
0
 62
     7
 48
0.000248
100
AcDbLine
 10
27.493164
 20
82.984985
 30
0.0
 11
27.490417
 21
82.994537
 31
0.0
210
0.0
220
0.0
230
1.0
  0
LINE
  5
321
100
AcDbEntity
  8
0
370
    35
390
0
 62
     7
 48
0.000264
100
AcDbLine
 10
27.490417
 20
82.994537
 30
0.0
 11
27.490013
 21
83.005096
 31
0.0
210
0.0
220
0.0
230
1.0
  0
LINE
  5
322
100
AcDbEntity
  8
0
370
    35
390
0
 62
     7
 48
0.000387
100
AcDbLine
 10
27.490013
 20
83.005096
 30
0.0
 11
27.492874
 21
83.020294
 31
0.0
210
0.0
220
0.0
230
1.0
  0
LINE
  5
323
100
AcDbEntity
  8
0
370
    35
390
0
 62
     7
 48
0.000481
100
AcDbLine
 10
27.492874
 20
83.020294
 30
0.0
 11
27.501816
 21
83.037338
 31
0.0
210
0.0
220
0.0
230
1.0
  0
LINE
  5
324
100
AcDbEntity
  8
0
370
    35
390
0
 62
     7
 48
0.000362
100
AcDbLine
 10
27.501816
 20
83.037338
 30
0.0
 11
27.511246
 21
83.048325
 31
0.0
210
0.0
220
0.0
230
1.0
  0
LINE
  5
325
100
AcDbEntity
  8
0
370
    35
390
0
 62
     7
 48
0.002284
100
AcDbLine
 10
27.599998
 20
82.949997
 30
0.0
 11
27.511246
 21
82.971695
 31
0.0
210
0.0
220
0.0
230
1.0
  0
LINE
  5
326
100
AcDbEntity
  8
0
370
    35
390
0
 62
     7
 48
0.003268
100
AcDbLine
 10
27.599998
 20
82.949997
 30
0.0
 11
27.511246
 21
82.854004
 31
0.0
210
0.0
220
0.0
230
1.0
  0
LINE
  5
327
100
AcDbEntity
  8
0
370
    35
390
0
 62
     7
 48
0.000312
100
AcDbLine
 10
27.511246
 20
82.780426
 30
0.0
 11
27.49942
 21
82.784454
 31
0.0
210
0.0
220
0.0
230
1.0
  0
LINE
  5
328
100
AcDbEntity
  8
0
370
    35
390
0
 62
     7
 48
0.000234
100
AcDbLine
 10
27.49942
 20
82.784454
 30
0.0
 11
27.493187
 21
82.791412
 31
0.0
210
0.0
220
0.0
230
1.0
  0
LINE
  5
329
100
AcDbEntity
  8
0
370
    35
390
0
 62
     7
 48
0.000234
100
AcDbLine
 10
27.493187
 20
82.791412
 30
0.0
 11
27.490425
 21
82.800339
 31
0.0
210
0.0
220
0.0
230
1.0
  0
LINE
  5
32A
100
AcDbEntity
  8
0
370
    35
390
0
 62
     7
 48
0.000254
100
AcDbLine
 10
27.490425
 20
82.800339
 30
0.0
 11
27.490013
 21
82.810471
 31
0.0
210
0.0
220
0.0
230
1.0
  0
LINE
  5
32B
100
AcDbEntity
  8
0
370
    35
390
0
 62
     7
 48
0.000378
100
AcDbLine
 10
27.490013
 20
82.810471
 30
0.0
 11
27.492874
 21
82.825333
 31
0.0
210
0.0
220
0.0
230
1.0
  0
LINE
  5
32C
100
AcDbEntity
  8
0
370
    35
390
0
 62
     7
 48
0.000485
100
AcDbLine
 10
27.492874
 20
82.825333
 30
0.0
 11
27.501816
 21
82.84256
 31
0.0
210
0.0
220
0.0
230
1.0
  0
LINE
  5
32D
100
AcDbEntity
  8
0
370
    35
390
0
 62
     7
 48
0.000371
100
AcDbLine
 10
27.501816
 20
82.84256
 30
0.0
 11
27.511246
 21
82.854004
 31
0.0
210
0.0
220
0.0
230
1.0
  0
LINE
  5
32E
100
AcDbEntity
  8
0
370
    35
390
0
 62
     7
 48
0.00224
100
AcDbLine
 10
27.599998
 20
82.768143
 30
0.0
 11
27.511246
 21
82.780426
 31
0.0
210
0.0
220
0.0
230
1.0
  0
LINE
  5
32F
100
AcDbEntity
  8
0
370
    35
390
0
 62
     7
 48
0.003346
100
AcDbLine
 10
27.599998
 20
82.768143
 30
0.0
 11
27.511246
 21
82.667969
 31
0.0
210
0.0
220
0.0
230
1.0
  0
LINE
  5
330
100
AcDbEntity
  8
0
370
    35
390
0
 62
     7
 48
0.000225
100
AcDbLine
 10
27.511246
 20
82.598022
 30
0.0
 11
27.502365
 21
82.599411
 31
0.0
210
0.0
220
0.0
230
1.0
  0
LINE
  5
331
100
AcDbEntity
  8
0
370
    35
390
0
 62
     7
 48
0.000167
100
AcDbLine
 10
27.502365
 20
82.599411
 30
0.0
 11
27.496529
 21
82.602631
 31
0.0
210
0.0
220
0.0
230
1.0
  0
LINE
  5
332
100
AcDbEntity
  8
0
370
    35
390
0
 62
     7
 48
0.000194
100
AcDbLine
 10
27.496529
 20
82.602631
 30
0.0
 11
27.492058
 21
82.608978
 31
0.0
210
0.0
220
0.0
230
1.0
  0
LINE
  5
333
100
AcDbEntity
  8
0
370
    35
390
0
 62
     7
 48
0.000205
100
AcDbLine
 10
27.492058
 20
82.608978
 30
0.0
 11
27.490166
 21
82.616943
 31
0.0
210
0.0
220
0.0
230
1.0
  0
LINE
  5
334
100
AcDbEntity
  8
0
370
    35
390
0
 62
     7
 48
0.000226
100
AcDbLine
 10
27.490166
 20
82.616943
 30
0.0
 11
27.490143
 21
82.625977
 31
0.0
210
0.0
220
0.0
230
1.0
  0
LINE
  5
335
100
AcDbEntity
  8
0
370
    35
390
0
 62
     7
 48
0.000392
100
AcDbLine
 10
27.490143
 20
82.625977
 30
0.0
 11
27.493752
 21
82.641251
 31
0.0
210
0.0
220
0.0
230
1.0
  0
LINE
  5
336
100
AcDbEntity
  8
0
370
    35
390
0
 62
     7
 48
0.000538
100
AcDbLine
 10
27.493752
 20
82.641251
 30
0.0
 11
27.504517
 21
82.659866
 31
0.0
210
0.0
220
0.0
230
1.0
  0
LINE
  5
337
100
AcDbEntity
  8
0
370
    35
390
0
 62
     7
 48
0.000263
100
AcDbLine
 10
27.504517
 20
82.659866
 30
0.0
 11
27.511246
 21
82.667969
 31
0.0
210
0.0
220
0.0
230
1.0
  0
LINE
  5
338
100
AcDbEntity
  8
0
370
    35
390
0
 62
     7
 48
0.00222
100
AcDbLine
 10
27.599998
 20
82.595245
 30
0.0
 11
27.511246
 21
82.598022
 31
0.0
210
0.0
220
0.0
230
1.0
  0
LINE
  5
339
100
AcDbEntity
  8
0
370
    35
390
0
 62
     7
 48
0.00341
100
AcDbLine
 10
27.599998
 20
82.595245
 30
0.0
 11
27.511246
 21
82.491653
 31
0.0
210
0.0
220
0.0
230
1.0
  0
LINE
  5
33A
100
AcDbEntity
  8
0
370
    35
390
0
 62
     7
 48
0.000222
100
AcDbLine
 10
27.511246
 20
82.425842
 30
0.0
 11
27.502365
 21
82.426224
 31
0.0
210
0.0
220
0.0
230
1.0
  0
LINE
  5
33B
100
AcDbEntity
  8
0
370
    35
390
0
 62
     7
 48
0.000158
100
AcDbLine
 10
27.502365
 20
82.426224
 30
0.0
 11
27.496529
 21
82.428635
 31
0.0
210
0.0
220
0.0
230
1.0
  0
LINE
  5
33C
100
AcDbEntity
  8
0
370
    35
390
0
 62
     7
 48
0.000177
100
AcDbLine
 10
27.496529
 20
82.428635
 30
0.0
 11
27.492058
 21
82.434143
 31
0.0
210
0.0
220
0.0
230
1.0
  0
LINE
  5
33D
100
AcDbEntity
  8
0
370
    35
390
0
 62
     7
 48
0.000188
100
AcDbLine
 10
27.492058
 20
82.434143
 30
0.0
 11
27.490166
 21
82.441422
 31
0.0
210
0.0
220
0.0
230
1.0
  0
LINE
  5
33E
100
AcDbEntity
  8
0
370
    35
390
0
 62
     7
 48
0.000212
100
AcDbLine
 10
27.490166
 20
82.441422
 30
0.0
 11
27.490143
 21
82.449921
 31
0.0
210
0.0
220
0.0
230
1.0
  0
LINE
  5
33F
100
AcDbEntity
  8
0
370
    35
390
0
 62
     7
 48
0.00038
100
AcDbLine
 10
27.490143
 20
82.449921
 30
0.0
 11
27.493752
 21
82.464676
 31
0.0
210
0.0
220
0.0
230
1.0
  0
LINE
  5
340
100
AcDbEntity
  8
0
370
    35
390
0
 62
     7
 48
0.000538
100
AcDbLine
 10
27.493752
 20
82.464676
 30
0.0
 11
27.504517
 21
82.483307
 31
0.0
210
0.0
220
0.0
230
1.0
  0
LINE
  5
341
100
AcDbEntity
  8
0
370
    35
390
0
 62
     7
 48
0.000268
100
AcDbLine
 10
27.504517
 20
82.483307
 30
0.0
 11
27.511246
 21
82.491653
 31
0.0
210
0.0
220
0.0
230
1.0
  0
LINE
  5
342
100
AcDbEntity
  8
0
370
    35
390
0
 62
     7
 48
0.002225
100
AcDbLine
 10
27.599998
 20
82.432602
 30
0.0
 11
27.511246
 21
82.425842
 31
0.0
210
0.0
220
0.0
230
1.0
  0
LINE
  5
343
100
AcDbEntity
  8
0
370
    35
390
0
 62
     7
 48
0.003461
100
AcDbLine
 10
27.599998
 20
82.432602
 30
0.0
 11
27.511246
 21
82.32637
 31
0.0
210
0.0
220
0.0
230
1.0
  0
LINE
  5
344
100
AcDbEntity
  8
0
370
    35
390
0
 62
     7
 48
0.000293
100
AcDbLine
 10
27.511246
 20
82.265213
 30
0.0
 11
27.499512
 21
82.26503
 31
0.0
210
0.0
220
0.0
230
1.0
  0
LINE
  5
345
100
AcDbEntity
  8
0
370
    35
390
0
 62
     7
 48
0.000183
100
AcDbLine
 10
27.499512
 20
82.26503
 30
0.0
 11
27.493271
 21
82.268875
 31
0.0
210
0.0
220
0.0
230
1.0
  0
LINE
  5
346
100
AcDbEntity
  8
0
370
    35
390
0
 62
     7
 48
0.000118
100
AcDbLine
 10
27.493271
 20
82.268875
 30
0.0
 11
27.491074
 21
82.273056
 31
0.0
210
0.0
220
0.0
230
1.0
  0
LINE
  5
347
100
AcDbEntity
  8
0
370
    35
390
0
 62
     7
 48
0.000272
100
AcDbLine
 10
27.491074
 20
82.273056
 30
0.0
 11
27.490013
 21
82.283875
 31
0.0
210
0.0
220
0.0
230
1.0
  0
LINE
  5
348
100
AcDbEntity
  8
0
370
    35
390
0
 62
     7
 48
0.000338
100
AcDbLine
 10
27.490013
 20
82.283875
 30
0.0
 11
27.492874
 21
82.297089
 31
0.0
210
0.0
220
0.0
230
1.0
  0
LINE
  5
349
100
AcDbEntity
  8
0
370
    35
390
0
 62
     7
 48
0.000479
100
AcDbLine
 10
27.492874
 20
82.297089
 30
0.0
 11
27.501816
 21
82.314056
 31
0.0
210
0.0
220
0.0
230
1.0
  0
LINE
  5
34A
100
AcDbEntity
  8
0
370
    35
390
0
 62
     7
 48
0.000388
100
AcDbLine
 10
27.501816
 20
82.314056
 30
0.0
 11
27.511246
 21
82.32637
 31
0.0
210
0.0
220
0.0
230
1.0
  0
LINE
  5
34B
100
AcDbEntity
  8
0
370
    35
390
0
 62
     7
 48
0.002256
100
AcDbLine
 10
27.599998
 20
82.281448
 30
0.0
 11
27.511246
 21
82.265213
 31
0.0
210
0.0
220
0.0
230
1.0
  0
LINE
  5
34C
100
AcDbEntity
  8
0
370
    35
390
0
 62
     7
 48
0.003496
100
AcDbLine
 10
27.599998
 20
82.281448
 30
0.0
 11
27.511246
 21
82.173386
 31
0.0
210
0.0
220
0.0
230
1.0
  0
LINE
  5
34D
100
AcDbEntity
  8
0
370
    35
390
0
 62
     7
 48
0.00023
100
AcDbLine
 10
27.511246
 20
82.117355
 30
0.0
 11
27.502205
 21
82.115707
 31
0.0
210
0.0
220
0.0
230
1.0
  0
LINE
  5
34E
100
AcDbEntity
  8
0
370
    35
390
0
 62
     7
 48
0.000141
100
AcDbLine
 10
27.502205
 20
82.115707
 30
0.0
 11
27.49662
 21
82.116425
 31
0.0
210
0.0
220
0.0
230
1.0
  0
LINE
  5
34F
100
AcDbEntity
  8
0
370
    35
390
0
 62
     7
 48
0.000107
100
AcDbLine
 10
27.49662
 20
82.116425
 30
0.0
 11
27.493065
 21
82.118835
 31
0.0
210
0.0
220
0.0
230
1.0
  0
LINE
  5
350
100
AcDbEntity
  8
0
370
    35
390
0
 62
     7
 48
0.000103
100
AcDbLine
 10
27.493065
 20
82.118835
 30
0.0
 11
27.491035
 21
82.122437
 31
0.0
210
0.0
220
0.0
230
1.0
  0
LINE
  5
351
100
AcDbEntity
  8
0
370
    35
390
0
 62
     7
 48
0.000248
100
AcDbLine
 10
27.491035
 20
82.122437
 30
0.0
 11
27.490128
 21
82.132324
 31
0.0
210
0.0
220
0.0
230
1.0
  0
LINE
  5
352
100
AcDbEntity
  8
0
370
    35
390
0
 62
     7
 48
0.000435
100
AcDbLine
 10
27.490128
 20
82.132324
 30
0.0
 11
27.494926
 21
82.149048
 31
0.0
210
0.0
220
0.0
230
1.0
  0
LINE
  5
353
100
AcDbEntity
  8
0
370
    35
390
0
 62
     7
 48
0.000733
100
AcDbLine
 10
27.494926
 20
82.149048
 30
0.0
 11
27.511246
 21
82.173386
 31
0.0
210
0.0
220
0.0
230
1.0
  0
LINE
  5
354
100
AcDbEntity
  8
0
370
    35
390
0
 62
     7
 48
0.002309
100
AcDbLine
 10
27.599998
 20
82.142944
 30
0.0
 11
27.511246
 21
82.117355
 31
0.0
210
0.0
220
0.0
230
1.0
  0
LINE
  5
355
100
AcDbEntity
  8
0
370
    35
390
0
 62
     7
 48
0.003515
100
AcDbLine
 10
27.599998
 20
82.142944
 30
0.0
 11
27.511246
 21
82.033875
 31
0.0
210
0.0
220
0.0
230
1.0
  0
LINE
  5
356
100
AcDbEntity
  8
0
370
    35
390
0
 62
     7
 48
0.000306
100
AcDbLine
 10
27.511246
 20
81.983383
 30
0.0
 11
27.499359
 21
81.980438
 31
0.0
210
0.0
220
0.0
230
1.0
  0
LINE
  5
357
100
AcDbEntity
  8
0
370
    35
390
0
 62
     7
 48
0.000133
100
AcDbLine
 10
27.499359
 20
81.980438
 30
0.0
 11
27.494148
 21
81.981537
 31
0.0
210
0.0
220
0.0
230
1.0
  0
LINE
  5
358
100
AcDbEntity
  8
0
370
    35
390
0
 62
     7
 48
0.000107
100
AcDbLine
 10
27.494148
 20
81.981537
 30
0.0
 11
27.49128
 21
81.984711
 31
0.0
210
0.0
220
0.0
230
1.0
  0
LINE
  5
359
100
AcDbEntity
  8
0
370
    35
390
0
 62
     7
 48
0.000079
100
AcDbLine
 10
27.49128
 20
81.984711
 30
0.0
 11
27.490318
 21
81.987701
 31
0.0
210
0.0
220
0.0
230
1.0
  0
LINE
  5
35A
100
AcDbEntity
  8
0
370
    35
390
0
 62
     7
 48
0.000189
100
AcDbLine
 10
27.490318
 20
81.987701
 30
0.0
 11
27.490242
 21
81.99527
 31
0.0
210
0.0
220
0.0
230
1.0
  0
LINE
  5
35B
100
AcDbEntity
  8
0
370
    35
390
0
 62
     7
 48
0.000404
100
AcDbLine
 10
27.490242
 20
81.99527
 30
0.0
 11
27.495316
 21
82.010605
 31
0.0
210
0.0
220
0.0
230
1.0
  0
LINE
  5
35C
100
AcDbEntity
  8
0
370
    35
390
0
 62
     7
 48
0.000705
100
AcDbLine
 10
27.495316
 20
82.010605
 30
0.0
 11
27.511246
 21
82.033875
 31
0.0
210
0.0
220
0.0
230
1.0
  0
LINE
  5
35D
100
AcDbEntity
  8
0
370
    35
390
0
 62
     7
 48
0.002383
100
AcDbLine
 10
27.599998
 20
82.018143
 30
0.0
 11
27.511246
 21
81.983383
 31
0.0
210
0.0
220
0.0
230
1.0
  0
LINE
  5
35E
100
AcDbEntity
  8
0
370
    35
390
0
 62
     7
 48
0.003519
100
AcDbLine
 10
27.599998
 20
82.018143
 30
0.0
 11
27.511246
 21
81.908905
 31
0.0
210
0.0
220
0.0
230
1.0
  0
LINE
  5
35F
100
AcDbEntity
  8
0
370
    35
390
0
 62
     7
 48
0.000377
100
AcDbLine
 10
27.511246
 20
81.864334
 30
0.0
 11
27.496864
 21
81.859787
 31
0.0
210
0.0
220
0.0
230
1.0
  0
LINE
  5
360
100
AcDbEntity
  8
0
370
    35
390
0
 62
     7
 48
0.000074
100
AcDbLine
 10
27.496864
 20
81.859787
 30
0.0
 11
27.493965
 21
81.860275
 31
0.0
210
0.0
220
0.0
230
1.0
  0
LINE
  5
361
100
AcDbEntity
  8
0
370
    35
390
0
 62
     7
 48
0.00006
100
AcDbLine
 10
27.493965
 20
81.860275
 30
0.0
 11
27.491982
 21
81.861633
 31
0.0
210
0.0
220
0.0
230
1.0
  0
LINE
  5
362
100
AcDbEntity
  8
0
370
    35
390
0
 62
     7
 48
0.000081
100
AcDbLine
 10
27.491982
 20
81.861633
 30
0.0
 11
27.490456
 21
81.864471
 31
0.0
210
0.0
220
0.0
230
1.0
  0
LINE
  5
363
100
AcDbEntity
  8
0
370
    35
390
0
 62
     7
 48
0.000211
100
AcDbLine
 10
27.490456
 20
81.864471
 30
0.0
 11
27.490425
 21
81.872925
 31
0.0
210
0.0
220
0.0
230
1.0
  0
LINE
  5
364
100
AcDbEntity
  8
0
370
    35
390
0
 62
     7
 48
0.000374
100
AcDbLine
 10
27.490425
 20
81.872925
 30
0.0
 11
27.495758
 21
81.886902
 31
0.0
210
0.0
220
0.0
230
1.0
  0
LINE
  5
365
100
AcDbEntity
  8
0
370
    35
390
0
 62
     7
 48
0.000673
100
AcDbLine
 10
27.495758
 20
81.886902
 30
0.0
 11
27.511246
 21
81.908905
 31
0.0
210
0.0
220
0.0
230
1.0
  0
LINE
  5
366
100
AcDbEntity
  8
0
370
    35
390
0
 62
     7
 48
0.002473
100
AcDbLine
 10
27.599998
 20
81.90799
 30
0.0
 11
27.511246
 21
81.864334
 31
0.0
210
0.0
220
0.0
230
1.0
  0
LINE
  5
367
100
AcDbEntity
  8
0
370
    35
390
0
 62
     7
 48
0.003093
100
AcDbLine
 10
27.599998
 20
81.90799
 30
0.0
 11
27.521759
 21
81.812164
 31
0.0
210
0.0
220
0.0
230
1.0
  0
LINE
  5
368
100
AcDbEntity
  8
0
370
    35
390
0
 62
     7
 48
0.004381
100
AcDbLine
 10
23.96875
 20
81.90799
 30
0.0
 11
24.115456
 21
81.812164
 31
0.0
210
0.0
220
0.0
230
1.0
  0
LINE
  5
369
100
AcDbEntity
  8
0
370
    35
390
0
 62
     7
 48
0.000587
100
AcDbLine
 10
24.115456
 20
81.812164
 30
0.0
 11
24.13517
 21
81.799408
 31
0.0
210
0.0
220
0.0
230
1.0
  0
LINE
  5
36A
100
AcDbEntity
  8
0
370
    35
390
0
 62
     7
 48
0.084402
100
AcDbLine
 10
27.511246
 20
81.799408
 30
0.0
 11
24.13517
 21
81.799408
 31
0.0
210
0.0
220
0.0
230
1.0
  0
LINE
  5
36B
100
AcDbEntity
  8
0
370
    35
390
0
 62
     7
 48
0.000742
100
AcDbLine
 10
24.13517
 20
81.761108
 30
0.0
 11
24.164215
 21
81.755035
 31
0.0
210
0.0
220
0.0
230
1.0
  0
LINE
  5
36C
100
AcDbEntity
  8
0
370
    35
390
0
 62
     7
 48
0.000146
100
AcDbLine
 10
24.164215
 20
81.755035
 30
0.0
 11
24.170021
 21
81.755463
 31
0.0
210
0.0
220
0.0
230
1.0
  0
LINE
  5
36D
100
AcDbEntity
  8
0
370
    35
390
0
 62
     7
 48
0.00009
100
AcDbLine
 10
24.170021
 20
81.755463
 30
0.0
 11
24.173431
 21
81.756653
 31
0.0
210
0.0
220
0.0
230
1.0
  0
LINE
  5
36E
100
AcDbEntity
  8
0
370
    35
390
0
 62
     7
 48
0.000086
100
AcDbLine
 10
24.173431
 20
81.756653
 30
0.0
 11
24.175705
 21
81.759216
 31
0.0
210
0.0
220
0.0
230
1.0
  0
LINE
  5
36F
100
AcDbEntity
  8
0
370
    35
390
0
 62
     7
 48
0.0001
100
AcDbLine
 10
24.175705
 20
81.759216
 30
0.0
 11
24.175438
 21
81.763214
 31
0.0
210
0.0
220
0.0
230
1.0
  0
LINE
  5
370
100
AcDbEntity
  8
0
370
    35
390
0
 62
     7
 48
0.000503
100
AcDbLine
 10
24.175438
 20
81.763214
 30
0.0
 11
24.162781
 21
81.77887
 31
0.0
210
0.0
220
0.0
230
1.0
  0
LINE
  5
371
100
AcDbEntity
  8
0
370
    35
390
0
 62
     7
 48
0.00086
100
AcDbLine
 10
24.162781
 20
81.77887
 30
0.0
 11
24.13517
 21
81.799408
 31
0.0
210
0.0
220
0.0
230
1.0
  0
LINE
  5
372
100
AcDbEntity
  8
0
370
    35
390
0
 62
     7
 48
0.00436
100
AcDbLine
 10
23.96875
 20
81.813324
 30
0.0
 11
24.13517
 21
81.761108
 31
0.0
210
0.0
220
0.0
230
1.0
  0
LINE
  5
373
100
AcDbEntity
  8
0
370
    35
390
0
 62
     7
 48
0.004948
100
AcDbLine
 10
23.96875
 20
81.813324
 30
0.0
 11
24.13517
 21
81.706223
 31
0.0
210
0.0
220
0.0
230
1.0
  0
LINE
  5
374
100
AcDbEntity
  8
0
370
    35
390
0
 62
     7
 48
0.084402
100
AcDbLine
 10
27.511246
 20
81.706223
 30
0.0
 11
24.13517
 21
81.706223
 31
0.0
210
0.0
220
0.0
230
1.0
  0
ARC
  5
375
100
AcDbEntity
  8
0
370
    35
390
0
 62
     7
100
AcDbCircle
 10
24.181076
 20
81.782486
 30
0.0
 40
0.117175
210
0.0
220
0.0
230
1.0
100
AcDbArc
 50
246.97237
 51
263.80813
  0
LINE
  5
376
100
AcDbEntity
  8
0
370
    35
390
0
 62
     7
 48
0.000197
100
AcDbLine
 10
24.168457
 20
81.666153
 30
0.0
 11
24.175804
 21
81.669006
 31
0.0
210
0.0
220
0.0
230
1.0
  0
LINE
  5
377
100
AcDbEntity
  8
0
370
    35
390
0
 62
     7
 48
0.00005
100
AcDbLine
 10
24.175804
 20
81.669006
 30
0.0
 11
24.175819
 21
81.67099
 31
0.0
210
0.0
220
0.0
230
1.0
  0
LINE
  5
378
100
AcDbEntity
  8
0
370
    35
390
0
 62
     7
 48
0.000223
100
AcDbLine
 10
24.175819
 20
81.67099
 30
0.0
 11
24.171043
 21
81.678543
 31
0.0
210
0.0
220
0.0
230
1.0
  0
LINE
  5
379
100
AcDbEntity
  8
0
370
    35
390
0
 62
     7
 48
0.000394
100
AcDbLine
 10
24.171043
 20
81.678543
 30
0.0
 11
24.159424
 21
81.689178
 31
0.0
210
0.0
220
0.0
230
1.0
  0
LINE
  5
37A
100
AcDbEntity
  8
0
370
    35
390
0
 62
     7
 48
0.000741
100
AcDbLine
 10
24.159424
 20
81.689178
 30
0.0
 11
24.13517
 21
81.706223
 31
0.0
210
0.0
220
0.0
230
1.0
  0
LINE
  5
37B
100
AcDbEntity
  8
0
370
    35
390
0
 62
     7
 48
0.004426
100
AcDbLine
 10
23.96875
 20
81.734879
 30
0.0
 11
24.13517
 21
81.674484
 31
0.0
210
0.0
220
0.0
230
1.0
  0
LINE
  5
37C
100
AcDbEntity
  8
0
370
    35
390
0
 62
     7
 48
0.004917
100
AcDbLine
 10
23.96875
 20
81.734879
 30
0.0
 11
24.13517
 21
81.630081
 31
0.0
210
0.0
220
0.0
230
1.0
  0
LINE
  5
37D
100
AcDbEntity
  8
0
370
    35
390
0
 62
     7
 48
0.084402
100
AcDbLine
 10
27.511246
 20
81.630081
 30
0.0
 11
24.13517
 21
81.630081
 31
0.0
210
0.0
220
0.0
230
1.0
  0
ARC
  5
37E
100
AcDbEntity
  8
0
370
    35
390
0
 62
     7
100
AcDbCircle
 10
24.190788
 20
81.718552
 30
0.0
 40
0.126055
210
0.0
220
0.0
230
1.0
100
AcDbArc
 50
243.880159
 51
261.119604
  0
LINE
  5
37F
100
AcDbEntity
  8
0
370
    35
390
0
 62
     7
 48
0.000064
100
AcDbLine
 10
24.171364
 20
81.594238
 30
0.0
 11
24.173927
 21
81.594498
 31
0.0
210
0.0
220
0.0
230
1.0
  0
LINE
  5
380
100
AcDbEntity
  8
0
370
    35
390
0
 62
     7
 48
0.000051
100
AcDbLine
 10
24.173927
 20
81.594498
 30
0.0
 11
24.175652
 21
81.595566
 31
0.0
210
0.0
220
0.0
230
1.0
  0
LINE
  5
381
100
AcDbEntity
  8
0
370
    35
390
0
 62
     7
 48
0.000032
100
AcDbLine
 10
24.175652
 20
81.595566
 30
0.0
 11
24.175957
 21
81.596817
 31
0.0
210
0.0
220
0.0
230
1.0
  0
LINE
  5
382
100
AcDbEntity
  8
0
370
    35
390
0
 62
     7
 48
0.000034
100
AcDbLine
 10
24.175957
 20
81.596817
 30
0.0
 11
24.175522
 21
81.598114
 31
0.0
210
0.0
220
0.0
230
1.0
  0
LINE
  5
383
100
AcDbEntity
  8
0
370
    35
390
0
 62
     7
 48
0.000207
100
AcDbLine
 10
24.175522
 20
81.598114
 30
0.0
 11
24.170357
 21
81.604568
 31
0.0
210
0.0
220
0.0
230
1.0
  0
LINE
  5
384
100
AcDbEntity
  8
0
370
    35
390
0
 62
     7
 48
0.000804
100
AcDbLine
 10
24.170357
 20
81.604568
 30
0.0
 11
24.144691
 21
81.623978
 31
0.0
210
0.0
220
0.0
230
1.0
  0
LINE
  5
385
100
AcDbEntity
  8
0
370
    35
390
0
 62
     7
 48
0.000283
100
AcDbLine
 10
24.144691
 20
81.623978
 30
0.0
 11
24.13517
 21
81.630081
 31
0.0
210
0.0
220
0.0
230
1.0
  0
LINE
  5
386
100
AcDbEntity
  8
0
370
    35
390
0
 62
     7
 48
0.004495
100
AcDbLine
 10
23.96875
 20
81.673218
 30
0.0
 11
24.13517
 21
81.605133
 31
0.0
210
0.0
220
0.0
230
1.0
  0
LINE
  5
387
100
AcDbEntity
  8
0
370
    35
390
0
 62
     7
 48
0.004876
100
AcDbLine
 10
23.96875
 20
81.673218
 30
0.0
 11
24.13517
 21
81.571518
 31
0.0
210
0.0
220
0.0
230
1.0
  0
LINE
  5
388
100
AcDbEntity
  8
0
370
    35
390
0
 62
     7
 48
0.084402
100
AcDbLine
 10
27.511246
 20
81.571518
 30
0.0
 11
24.13517
 21
81.571518
 31
0.0
210
0.0
220
0.0
230
1.0
  0
ARC
  5
389
100
AcDbEntity
  8
0
370
    35
390
0
 62
     7
100
AcDbCircle
 10
24.204536
 20
81.680145
 30
0.0
 40
0.143978
210
0.0
220
0.0
230
1.0
100
AcDbArc
 50
241.277502
 51
257.571676
  0
LINE
  5
38A
100
AcDbEntity
  8
0
370
    35
390
0
 62
     7
 48
0.000064
100
AcDbLine
 10
24.173607
 20
81.53981
 30
0.0
 11
24.175964
 21
81.540787
 31
0.0
210
0.0
220
0.0
230
1.0
  0
LINE
  5
38B
100
AcDbEntity
  8
0
370
    35
390
0
 62
     7
 48
0.000158
100
AcDbLine
 10
24.175964
 20
81.540787
 30
0.0
 11
24.172287
 21
81.545944
 31
0.0
210
0.0
220
0.0
230
1.0
  0
LINE
  5
38C
100
AcDbEntity
  8
0
370
    35
390
0
 62
     7
 48
0.001127
100
AcDbLine
 10
24.172287
 20
81.545944
 30
0.0
 11
24.13517
 21
81.571518
 31
0.0
210
0.0
220
0.0
230
1.0
  0
LINE
  5
38D
100
AcDbEntity
  8
0
370
    35
390
0
 62
     7
 48
0.004566
100
AcDbLine
 10
23.96875
 20
81.628845
 30
0.0
 11
24.13517
 21
81.553574
 31
0.0
210
0.0
220
0.0
230
1.0
  0
LINE
  5
38E
100
AcDbEntity
  8
0
370
    35
390
0
 62
     7
 48
0.004826
100
AcDbLine
 10
23.96875
 20
81.628845
 30
0.0
 11
24.13517
 21
81.531021
 31
0.0
210
0.0
220
0.0
230
1.0
  0
LINE
  5
38F
100
AcDbEntity
  8
0
370
    35
390
0
 62
     7
 48
0.084402
100
AcDbLine
 10
27.511246
 20
81.531021
 30
0.0
 11
24.13517
 21
81.531021
 31
0.0
210
0.0
220
0.0
230
1.0
  0
ARC
  5
390
100
AcDbEntity
  8
0
370
    35
390
0
 62
     7
100
AcDbCircle
 10
24.229393
 20
81.680023
 30
0.0
 40
0.185129
210
0.0
220
0.0
230
1.0
100
AcDbArc
 50
239.480288
 51
252.948601
  0
ARC
  5
391
100
AcDbEntity
  8
0
370
    35
390
0
 62
     7
100
AcDbCircle
 10
24.081406
 20
81.402069
 30
0.0
 40
0.138774
210
0.0
220
0.0
230
1.0
100
AcDbArc
 50
47.069685
 51
67.367221
  0
LINE
  5
392
100
AcDbEntity
  8
0
370
    35
390
0
 62
     7
 48
0.004637
100
AcDbLine
 10
23.96875
 20
81.602097
 30
0.0
 11
24.13517
 21
81.520187
 31
0.0
210
0.0
220
0.0
230
1.0
  0
LINE
  5
393
100
AcDbEntity
  8
0
370
    35
390
0
 62
     7
 48
0.004769
100
AcDbLine
 10
23.96875
 20
81.602097
 30
0.0
 11
24.13517
 21
81.508881
 31
0.0
210
0.0
220
0.0
230
1.0
  0
LINE
  5
394
100
AcDbEntity
  8
0
370
    35
390
0
 62
     7
 48
0.00032
100
AcDbLine
 10
27.511246
 20
81.508881
 30
0.0
 11
27.498436
 21
81.508881
 31
0.0
210
0.0
220
0.0
230
1.0
  0
LINE
  5
395
100
AcDbEntity
  8
0
370
    35
390
0
 62
     7
 48
0.000598
100
AcDbLine
 10
24.159103
 20
81.508881
 30
0.0
 11
24.13517
 21
81.508881
 31
0.0
210
0.0
220
0.0
230
1.0
  0
LINE
  5
396
100
AcDbEntity
  8
0
370
    35
390
0
 62
     7
 48
0.001137
100
AcDbLine
 10
24.13517
 20
81.505264
 30
0.0
 11
24.175896
 21
81.485016
 31
0.0
210
0.0
220
0.0
230
1.0
  0
LINE
  5
397
100
AcDbEntity
  8
0
370
    35
390
0
 62
     7
 48
0.00118
100
AcDbLine
 10
24.175896
 20
81.485016
 30
0.0
 11
24.13517
 21
81.508881
 31
0.0
210
0.0
220
0.0
230
1.0
  0
LINE
  5
398
100
AcDbEntity
  8
0
370
    35
390
0
 62
     7
 48
0.004705
100
AcDbLine
 10
23.96875
 20
81.593155
 30
0.0
 11
24.13517
 21
81.505264
 31
0.0
210
0.0
220
0.0
230
1.0
  0
LINE
  5
399
100
AcDbEntity
  8
0
370
    35
390
0
 62
     7
 48
0.004705
100
AcDbLine
 10
23.96875
 20
81.593155
 30
0.0
 11
24.13517
 21
81.505264
 31
0.0
210
0.0
220
0.0
230
1.0
  0
LINE
  5
39A
100
AcDbEntity
  8
0
370
    35
390
0
 62
     7
 48
0.001137
100
AcDbLine
 10
24.13517
 20
86.381042
 30
0.0
 11
24.175873
 21
86.401337
 31
0.0
210
0.0
220
0.0
230
1.0
  0
LINE
  5
39B
100
AcDbEntity
  8
0
370
    35
390
0
 62
     7
 48
0.004705
100
AcDbLine
 10
23.968758
 20
86.293152
 30
0.0
 11
24.13517
 21
86.381042
 31
0.0
210
0.0
220
0.0
230
1.0
  0
LINE
  5
39C
100
AcDbEntity
  8
0
370
    35
390
0
 62
     7
 48
0.004705
100
AcDbLine
 10
23.968758
 20
86.293152
 30
0.0
 11
24.13517
 21
86.381042
 31
0.0
210
0.0
220
0.0
230
1.0
  0
LINE
  5
39D
100
AcDbEntity
  8
0
370
    35
390
0
 62
     7
 48
0.001182
100
AcDbLine
 10
24.13517
 20
86.377426
 30
0.0
 11
24.175995
 21
86.40126
 31
0.0
210
0.0
220
0.0
230
1.0
  0
LINE
  5
39E
100
AcDbEntity
  8
0
370
    35
390
0
 62
     7
 48
0.001137
100
AcDbLine
 10
24.175865
 20
86.401337
 30
0.0
 11
24.13517
 21
86.381042
 31
0.0
210
0.0
220
0.0
230
1.0
  0
LINE
  5
39F
100
AcDbEntity
  8
0
370
    35
390
0
 62
     7
 48
0.00032
100
AcDbLine
 10
27.498436
 20
86.377426
 30
0.0
 11
27.511246
 21
86.377426
 31
0.0
210
0.0
220
0.0
230
1.0
  0
LINE
  5
3A0
100
AcDbEntity
  8
0
370
    35
390
0
 62
     7
 48
0.000606
100
AcDbLine
 10
24.13517
 20
86.377426
 30
0.0
 11
24.159401
 21
86.377426
 31
0.0
210
0.0
220
0.0
230
1.0
  0
LINE
  5
3A1
100
AcDbEntity
  8
0
370
    35
390
0
 62
     7
 48
0.004769
100
AcDbLine
 10
23.968758
 20
86.28421
 30
0.0
 11
24.13517
 21
86.377426
 31
0.0
210
0.0
220
0.0
230
1.0
  0
LINE
  5
3A2
100
AcDbEntity
  8
0
370
    35
390
0
 62
     7
 48
0.004637
100
AcDbLine
 10
23.968758
 20
86.28421
 30
0.0
 11
24.13517
 21
86.366104
 31
0.0
210
0.0
220
0.0
230
1.0
  0
ARC
  5
3A3
100
AcDbEntity
  8
0
370
    35
390
0
 62
     7
100
AcDbCircle
 10
24.070938
 20
86.499527
 30
0.0
 40
0.157104
210
0.0
220
0.0
230
1.0
100
AcDbArc
 50
294.002758
 51
311.820867
  0
ARC
  5
3A4
100
AcDbEntity
  8
0
370
    35
390
0
 62
     7
100
AcDbCircle
 10
24.242821
 20
86.174072
 30
0.0
 40
0.219853
210
0.0
220
0.0
230
1.0
100
AcDbArc
 50
107.934037
 51
119.274323
  0
LINE
  5
3A5
100
AcDbEntity
  8
0
370
    35
390
0
 62
     7
 48
0.084402
100
AcDbLine
 10
24.13517
 20
86.35527
 30
0.0
 11
27.511246
 21
86.35527
 31
0.0
210
0.0
220
0.0
230
1.0
  0
LINE
  5
3A6
100
AcDbEntity
  8
0
370
    35
390
0
 62
     7
 48
0.004826
100
AcDbLine
 10
23.968758
 20
86.257446
 30
0.0
 11
24.13517
 21
86.35527
 31
0.0
210
0.0
220
0.0
230
1.0
  0
LINE
  5
3A7
100
AcDbEntity
  8
0
370
    35
390
0
 62
     7
 48
0.004566
100
AcDbLine
 10
23.968758
 20
86.257446
 30
0.0
 11
24.13517
 21
86.332733
 31
0.0
210
0.0
220
0.0
230
1.0
  0
LINE
  5
3A8
100
AcDbEntity
  8
0
370
    35
390
0
 62
     7
 48
0.001145
100
AcDbLine
 10
24.13517
 20
86.314774
 30
0.0
 11
24.172729
 21
86.340958
 31
0.0
210
0.0
220
0.0
230
1.0
  0
LINE
  5
3A9
100
AcDbEntity
  8
0
370
    35
390
0
 62
     7
 48
0.000086
100
AcDbLine
 10
24.172729
 20
86.340958
 30
0.0
 11
24.175117
 21
86.34346
 31
0.0
210
0.0
220
0.0
230
1.0
  0
LINE
  5
3AA
100
AcDbEntity
  8
0
370
    35
390
0
 62
     7
 48
0.00004
100
AcDbLine
 10
24.175117
 20
86.34346
 30
0.0
 11
24.175949
 21
86.344833
 31
0.0
210
0.0
220
0.0
230
1.0
  0
LINE
  5
3AB
100
AcDbEntity
  8
0
370
    35
390
0
 62
     7
 48
0.000013
100
AcDbLine
 10
24.175949
 20
86.344833
 30
0.0
 11
24.176018
 21
86.345352
 31
0.0
210
0.0
220
0.0
230
1.0
  0
LINE
  5
3AC
100
AcDbEntity
  8
0
370
    35
390
0
 62
     7
 48
0.000006
100
AcDbLine
 10
24.176018
 20
86.345352
 30
0.0
 11
24.175949
 21
86.345581
 31
0.0
210
0.0
220
0.0
230
1.0
  0
LINE
  5
3AD
100
AcDbEntity
  8
0
370
    35
390
0
 62
     7
 48
0.000012
100
AcDbLine
 10
24.175949
 20
86.345581
 30
0.0
 11
24.175667
 21
86.345963
 31
0.0
210
0.0
220
0.0
230
1.0
  0
LINE
  5
3AE
100
AcDbEntity
  8
0
370
    35
390
0
 62
     7
 48
0.000013
100
AcDbLine
 10
24.175667
 20
86.345963
 30
0.0
 11
24.175232
 21
86.346252
 31
0.0
210
0.0
220
0.0
230
1.0
  0
LINE
  5
3AF
100
AcDbEntity
  8
0
370
    35
390
0
 62
     7
 48
0.000038
100
AcDbLine
 10
24.175232
 20
86.346252
 30
0.0
 11
24.173729
 21
86.346481
 31
0.0
210
0.0
220
0.0
230
1.0
  0
ARC
  5
3B0
100
AcDbEntity
  8
0
370
    35
390
0
 62
     7
100
AcDbCircle
 10
24.209183
 20
86.192429
 30
0.0
 40
0.15834
210
0.0
220
0.0
230
1.0
100
AcDbArc
 50
102.95961
 51
117.81243
  0
LINE
  5
3B1
100
AcDbEntity
  8
0
370
    35
390
0
 62
     7
 48
0.084402
100
AcDbLine
 10
24.13517
 20
86.314774
 30
0.0
 11
27.511246
 21
86.314774
 31
0.0
210
0.0
220
0.0
230
1.0
  0
LINE
  5
3B2
100
AcDbEntity
  8
0
370
    35
390
0
 62
     7
 48
0.004876
100
AcDbLine
 10
23.968758
 20
86.213074
 30
0.0
 11
24.13517
 21
86.314774
 31
0.0
210
0.0
220
0.0
230
1.0
  0
LINE
  5
3B3
100
AcDbEntity
  8
0
370
    35
390
0
 62
     7
 48
0.004495
100
AcDbLine
 10
23.968758
 20
86.213074
 30
0.0
 11
24.13517
 21
86.281158
 31
0.0
210
0.0
220
0.0
230
1.0
  0
LINE
  5
3B4
100
AcDbEntity
  8
0
370
    35
390
0
 62
     7
 48
0.000606
100
AcDbLine
 10
24.13517
 20
86.256226
 30
0.0
 11
24.155281
 21
86.269745
 31
0.0
210
0.0
220
0.0
230
1.0
  0
LINE
  5
3B5
100
AcDbEntity
  8
0
370
    35
390
0
 62
     7
 48
0.000489
100
AcDbLine
 10
24.155281
 20
86.269745
 30
0.0
 11
24.170433
 21
86.282135
 31
0.0
210
0.0
220
0.0
230
1.0
  0
LINE
  5
3B6
100
AcDbEntity
  8
0
370
    35
390
0
 62
     7
 48
0.000209
100
AcDbLine
 10
24.170433
 20
86.282135
 30
0.0
 11
24.175713
 21
86.28862
 31
0.0
210
0.0
220
0.0
230
1.0
  0
LINE
  5
3B7
100
AcDbEntity
  8
0
370
    35
390
0
 62
     7
 48
0.000057
100
AcDbLine
 10
24.175713
 20
86.28862
 30
0.0
 11
24.175537
 21
86.290894
 31
0.0
210
0.0
220
0.0
230
1.0
  0
LINE
  5
3B8
100
AcDbEntity
  8
0
370
    35
390
0
 62
     7
 48
0.000101
100
AcDbLine
 10
24.175537
 20
86.290894
 30
0.0
 11
24.171669
 21
86.292053
 31
0.0
210
0.0
220
0.0
230
1.0
  0
ARC
  5
3B9
100
AcDbEntity
  8
0
370
    35
390
0
 62
     7
100
AcDbCircle
 10
24.19239
 20
86.161469
 30
0.0
 40
0.13244
210
0.0
220
0.0
230
1.0
100
AcDbArc
 50
99.015921
 51
115.546911
  0
LINE
  5
3BA
100
AcDbEntity
  8
0
370
    35
390
0
 62
     7
 48
0.084402
100
AcDbLine
 10
24.13517
 20
86.256226
 30
0.0
 11
27.511246
 21
86.256226
 31
0.0
210
0.0
220
0.0
230
1.0
  0
LINE
  5
3BB
100
AcDbEntity
  8
0
370
    35
390
0
 62
     7
 48
0.004917
100
AcDbLine
 10
23.968758
 20
86.151428
 30
0.0
 11
24.13517
 21
86.256226
 31
0.0
210
0.0
220
0.0
230
1.0
  0
LINE
  5
3BC
100
AcDbEntity
  8
0
370
    35
390
0
 62
     7
 48
0.004426
100
AcDbLine
 10
23.968758
 20
86.151428
 30
0.0
 11
24.13517
 21
86.211807
 31
0.0
210
0.0
220
0.0
230
1.0
  0
LINE
  5
3BD
100
AcDbEntity
  8
0
370
    35
390
0
 62
     7
 48
0.000988
100
AcDbLine
 10
24.13517
 20
86.180069
 30
0.0
 11
24.166718
 21
86.203842
 31
0.0
210
0.0
220
0.0
230
1.0
  0
LINE
  5
3BE
100
AcDbEntity
  8
0
370
    35
390
0
 62
     7
 48
0.00027
100
AcDbLine
 10
24.166718
 20
86.203842
 30
0.0
 11
24.174057
 21
86.211777
 31
0.0
210
0.0
220
0.0
230
1.0
  0
LINE
  5
3BF
100
AcDbEntity
  8
0
370
    35
390
0
 62
     7
 48
0.000092
100
AcDbLine
 10
24.174057
 20
86.211777
 30
0.0
 11
24.175743
 21
86.215027
 31
0.0
210
0.0
220
0.0
230
1.0
  0
LINE
  5
3C0
100
AcDbEntity
  8
0
370
    35
390
0
 62
     7
 48
0.000076
100
AcDbLine
 10
24.175743
 20
86.215027
 30
0.0
 11
24.17543
 21
86.218033
 31
0.0
210
0.0
220
0.0
230
1.0
  0
LINE
  5
3C1
100
AcDbEntity
  8
0
370
    35
390
0
 62
     7
 48
0.000074
100
AcDbLine
 10
24.17543
 20
86.218033
 30
0.0
 11
24.172981
 21
86.219666
 31
0.0
210
0.0
220
0.0
230
1.0
  0
LINE
  5
3C2
100
AcDbEntity
  8
0
370
    35
390
0
 62
     7
 48
0.000088
100
AcDbLine
 10
24.172981
 20
86.219666
 30
0.0
 11
24.169487
 21
86.220123
 31
0.0
210
0.0
220
0.0
230
1.0
  0
ARC
  5
3C3
100
AcDbEntity
  8
0
370
    35
390
0
 62
     7
100
AcDbCircle
 10
24.180367
 20
86.105072
 30
0.0
 40
0.115729
210
0.0
220
0.0
230
1.0
100
AcDbArc
 50
95.402129
 51
112.94786
  0
LINE
  5
3C4
100
AcDbEntity
  8
0
370
    35
390
0
 62
     7
 48
0.084402
100
AcDbLine
 10
24.13517
 20
86.180069
 30
0.0
 11
27.511246
 21
86.180069
 31
0.0
210
0.0
220
0.0
230
1.0
  0
LINE
  5
3C5
100
AcDbEntity
  8
0
370
    35
390
0
 62
     7
 48
0.004947
100
AcDbLine
 10
23.968758
 20
86.072968
 30
0.0
 11
24.13517
 21
86.180069
 31
0.0
210
0.0
220
0.0
230
1.0
  0
LINE
  5
3C6
100
AcDbEntity
  8
0
370
    35
390
0
 62
     7
 48
0.00436
100
AcDbLine
 10
23.968758
 20
86.072968
 30
0.0
 11
24.13517
 21
86.125183
 31
0.0
210
0.0
220
0.0
230
1.0
  0
LINE
  5
3C7
100
AcDbEntity
  8
0
370
    35
390
0
 62
     7
 48
0.000855
100
AcDbLine
 10
24.13517
 20
86.086884
 30
0.0
 11
24.162422
 21
86.107513
 31
0.0
210
0.0
220
0.0
230
1.0
  0
LINE
  5
3C8
100
AcDbEntity
  8
0
370
    35
390
0
 62
     7
 48
0.000521
100
AcDbLine
 10
24.162422
 20
86.107513
 30
0.0
 11
24.175613
 21
86.123657
 31
0.0
210
0.0
220
0.0
230
1.0
  0
LINE
  5
3C9
100
AcDbEntity
  8
0
370
    35
390
0
 62
     7
 48
0.000142
100
AcDbLine
 10
24.175613
 20
86.123657
 30
0.0
 11
24.174278
 21
86.129181
 31
0.0
210
0.0
220
0.0
230
1.0
  0
LINE
  5
3CA
100
AcDbEntity
  8
0
370
    35
390
0
 62
     7
 48
0.000246
100
AcDbLine
 10
24.174278
 20
86.129181
 30
0.0
 11
24.164665
 21
86.131256
 31
0.0
210
0.0
220
0.0
230
1.0
  0
LINE
  5
3CB
100
AcDbEntity
  8
0
370
    35
390
0
 62
     7
 48
0.000753
100
AcDbLine
 10
24.164665
 20
86.131256
 30
0.0
 11
24.13517
 21
86.125183
 31
0.0
210
0.0
220
0.0
230
1.0
  0
LINE
  5
3CC
100
AcDbEntity
  8
0
370
    35
390
0
 62
     7
 48
0.084402
100
AcDbLine
 10
24.13517
 20
86.086884
 30
0.0
 11
27.511246
 21
86.086884
 31
0.0
210
0.0
220
0.0
230
1.0
  0
LINE
  5
3CD
100
AcDbEntity
  8
0
370
    35
390
0
 62
     7
 48
0.004968
100
AcDbLine
 10
23.968758
 20
85.978302
 30
0.0
 11
24.13517
 21
86.086884
 31
0.0
210
0.0
220
0.0
230
1.0
  0
LINE
  5
3CE
100
AcDbEntity
  8
0
370
    35
390
0
 62
     7
 48
0.004301
100
AcDbLine
 10
23.968758
 20
85.978302
 30
0.0
 11
24.13517
 21
86.021957
 31
0.0
210
0.0
220
0.0
230
1.0
  0
LINE
  5
3CF
100
AcDbEntity
  8
0
370
    35
390
0
 62
     7
 48
0.000896
100
AcDbLine
 10
24.13517
 20
85.977386
 30
0.0
 11
24.163368
 21
85.999481
 31
0.0
210
0.0
220
0.0
230
1.0
  0
LINE
  5
3D0
100
AcDbEntity
  8
0
370
    35
390
0
 62
     7
 48
0.000414
100
AcDbLine
 10
24.163368
 20
85.999481
 30
0.0
 11
24.174011
 21
86.012161
 31
0.0
210
0.0
220
0.0
230
1.0
  0
LINE
  5
3D1
100
AcDbEntity
  8
0
370
    35
390
0
 62
     7
 48
0.000183
100
AcDbLine
 10
24.174011
 20
86.012161
 30
0.0
 11
24.175911
 21
86.019211
 31
0.0
210
0.0
220
0.0
230
1.0
  0
LINE
  5
3D2
100
AcDbEntity
  8
0
370
    35
390
0
 62
     7
 48
0.000175
100
AcDbLine
 10
24.175911
 20
86.019211
 30
0.0
 11
24.171379
 21
86.024551
 31
0.0
210
0.0
220
0.0
230
1.0
  0
LINE
  5
3D3
100
AcDbEntity
  8
0
370
    35
390
0
 62
     7
 48
0.00025
100
AcDbLine
 10
24.171379
 20
86.024551
 30
0.0
 11
24.161484
 21
86.026123
 31
0.0
210
0.0
220
0.0
230
1.0
  0
LINE
  5
3D4
100
AcDbEntity
  8
0
370
    35
390
0
 62
     7
 48
0.000666
100
AcDbLine
 10
24.161484
 20
86.026123
 30
0.0
 11
24.13517
 21
86.021957
 31
0.0
210
0.0
220
0.0
230
1.0
  0
LINE
  5
3D5
100
AcDbEntity
  8
0
370
    35
390
0
 62
     7
 48
0.084402
100
AcDbLine
 10
24.13517
 20
85.977386
 30
0.0
 11
27.511246
 21
85.977386
 31
0.0
210
0.0
220
0.0
230
1.0
  0
LINE
  5
3D6
100
AcDbEntity
  8
0
370
    35
390
0
 62
     7
 48
0.004977
100
AcDbLine
 10
23.968758
 20
85.868149
 30
0.0
 11
24.13517
 21
85.977386
 31
0.0
210
0.0
220
0.0
230
1.0
  0
LINE
  5
3D7
100
AcDbEntity
  8
0
370
    35
390
0
 62
     7
 48
0.00425
100
AcDbLine
 10
23.968758
 20
85.868149
 30
0.0
 11
24.13517
 21
85.902908
 31
0.0
210
0.0
220
0.0
230
1.0
  0
LINE
  5
3D8
100
AcDbEntity
  8
0
370
    35
390
0
 62
     7
 48
0.000642
100
AcDbLine
 10
24.13517
 20
85.852417
 30
0.0
 11
24.155792
 21
85.867691
 31
0.0
210
0.0
220
0.0
230
1.0
  0
LINE
  5
3D9
100
AcDbEntity
  8
0
370
    35
390
0
 62
     7
 48
0.000545
100
AcDbLine
 10
24.155792
 20
85.867691
 30
0.0
 11
24.17083
 21
85.883469
 31
0.0
210
0.0
220
0.0
230
1.0
  0
LINE
  5
3DA
100
AcDbEntity
  8
0
370
    35
390
0
 62
     7
 48
0.000292
100
AcDbLine
 10
24.17083
 20
85.883469
 30
0.0
 11
24.175896
 21
85.893982
 31
0.0
210
0.0
220
0.0
230
1.0
  0
LINE
  5
3DB
100
AcDbEntity
  8
0
370
    35
390
0
 62
     7
 48
0.000207
100
AcDbLine
 10
24.175896
 20
85.893982
 30
0.0
 11
24.172836
 21
85.901657
 31
0.0
210
0.0
220
0.0
230
1.0
  0
LINE
  5
3DC
100
AcDbEntity
  8
0
370
    35
390
0
 62
     7
 48
0.000411
100
AcDbLine
 10
24.172836
 20
85.901657
 30
0.0
 11
24.156868
 21
85.905502
 31
0.0
210
0.0
220
0.0
230
1.0
  0
LINE
  5
3DD
100
AcDbEntity
  8
0
370
    35
390
0
 62
     7
 48
0.000546
100
AcDbLine
 10
24.156868
 20
85.905502
 30
0.0
 11
24.13517
 21
85.902908
 31
0.0
210
0.0
220
0.0
230
1.0
  0
LINE
  5
3DE
100
AcDbEntity
  8
0
370
    35
390
0
 62
     7
 48
0.084402
100
AcDbLine
 10
24.13517
 20
85.852417
 30
0.0
 11
27.511246
 21
85.852417
 31
0.0
210
0.0
220
0.0
230
1.0
  0
LINE
  5
3DF
100
AcDbEntity
  8
0
370
    35
390
0
 62
     7
 48
0.004974
100
AcDbLine
 10
23.968758
 20
85.743347
 30
0.0
 11
24.13517
 21
85.852417
 31
0.0
210
0.0
220
0.0
230
1.0
  0
LINE
  5
3E0
100
AcDbEntity
  8
0
370
    35
390
0
 62
     7
 48
0.004209
100
AcDbLine
 10
23.968758
 20
85.743347
 30
0.0
 11
24.13517
 21
85.768951
 31
0.0
210
0.0
220
0.0
230
1.0
  0
LINE
  5
3E1
100
AcDbEntity
  8
0
370
    35
390
0
 62
     7
 48
0.000522
100
AcDbLine
 10
24.13517
 20
85.712906
 30
0.0
 11
24.152092
 21
85.725159
 31
0.0
210
0.0
220
0.0
230
1.0
  0
LINE
  5
3E2
100
AcDbEntity
  8
0
370
    35
390
0
 62
     7
 48
0.000472
100
AcDbLine
 10
24.152092
 20
85.725159
 30
0.0
 11
24.165726
 21
85.738235
 31
0.0
210
0.0
220
0.0
230
1.0
  0
LINE
  5
3E3
100
AcDbEntity
  8
0
370
    35
390
0
 62
     7
 48
0.000253
100
AcDbLine
 10
24.165726
 20
85.738235
 30
0.0
 11
24.171959
 21
85.746201
 31
0.0
210
0.0
220
0.0
230
1.0
  0
LINE
  5
3E4
100
AcDbEntity
  8
0
370
    35
390
0
 62
     7
 48
0.000202
100
AcDbLine
 10
24.171959
 20
85.746201
 30
0.0
 11
24.175407
 21
85.75351
 31
0.0
210
0.0
220
0.0
230
1.0
  0
LINE
  5
3E5
100
AcDbEntity
  8
0
370
    35
390
0
 62
     7
 48
0.000152
100
AcDbLine
 10
24.175407
 20
85.75351
 30
0.0
 11
24.175629
 21
85.759583
 31
0.0
210
0.0
220
0.0
230
1.0
  0
LINE
  5
3E6
100
AcDbEntity
  8
0
370
    35
390
0
 62
     7
 48
0.000138
100
AcDbLine
 10
24.175629
 20
85.759583
 30
0.0
 11
24.173012
 21
85.76445
 31
0.0
210
0.0
220
0.0
230
1.0
  0
LINE
  5
3E7
100
AcDbEntity
  8
0
370
    35
390
0
 62
     7
 48
0.00014
100
AcDbLine
 10
24.173012
 20
85.76445
 30
0.0
 11
24.168373
 21
85.767609
 31
0.0
210
0.0
220
0.0
230
1.0
  0
LINE
  5
3E8
100
AcDbEntity
  8
0
370
    35
390
0
 62
     7
 48
0.000369
100
AcDbLine
 10
24.168373
 20
85.767609
 30
0.0
 11
24.153854
 21
85.770309
 31
0.0
210
0.0
220
0.0
230
1.0
  0
LINE
  5
3E9
100
AcDbEntity
  8
0
370
    35
390
0
 62
     7
 48
0.000056
100
AcDbLine
 10
24.153854
 20
85.770309
 30
0.0
 11
24.151604
 21
85.77034
 31
0.0
210
0.0
220
0.0
230
1.0
  0
LINE
  5
3EA
100
AcDbEntity
  8
0
370
    35
390
0
 62
     7
 48
0.000412
100
AcDbLine
 10
24.151604
 20
85.77034
 30
0.0
 11
24.13517
 21
85.768951
 31
0.0
210
0.0
220
0.0
230
1.0
  0
LINE
  5
3EB
100
AcDbEntity
  8
0
370
    35
390
0
 62
     7
 48
0.084402
100
AcDbLine
 10
24.13517
 20
85.712906
 30
0.0
 11
27.511246
 21
85.712906
 31
0.0
210
0.0
220
0.0
230
1.0
  0
LINE
  5
3EC
100
AcDbEntity
  8
0
370
    35
390
0
 62
     7
 48
0.004961
100
AcDbLine
 10
23.968758
 20
85.604843
 30
0.0
 11
24.13517
 21
85.712906
 31
0.0
210
0.0
220
0.0
230
1.0
  0
LINE
  5
3ED
100
AcDbEntity
  8
0
370
    35
390
0
 62
     7
 48
0.00418
100
AcDbLine
 10
23.968758
 20
85.604843
 30
0.0
 11
24.13517
 21
85.621078
 31
0.0
210
0.0
220
0.0
230
1.0
  0
LINE
  5
3EE
100
AcDbEntity
  8
0
370
    35
390
0
 62
     7
 48
0.000546
100
AcDbLine
 10
24.13517
 20
85.559937
 30
0.0
 11
24.152855
 21
85.572754
 31
0.0
210
0.0
220
0.0
230
1.0
  0
LINE
  5
3EF
100
AcDbEntity
  8
0
370
    35
390
0
 62
     7
 48
0.000494
100
AcDbLine
 10
24.152855
 20
85.572754
 30
0.0
 11
24.166824
 21
85.586716
 31
0.0
210
0.0
220
0.0
230
1.0
  0
LINE
  5
3F0
100
AcDbEntity
  8
0
370
    35
390
0
 62
     7
 48
0.000335
100
AcDbLine
 10
24.166824
 20
85.586716
 30
0.0
 11
24.174126
 21
85.597931
 31
0.0
210
0.0
220
0.0
230
1.0
  0
LINE
  5
3F1
100
AcDbEntity
  8
0
370
    35
390
0
 62
     7
 48
0.000252
100
AcDbLine
 10
24.174126
 20
85.597931
 30
0.0
 11
24.175697
 21
85.60788
 31
0.0
210
0.0
220
0.0
230
1.0
  0
LINE
  5
3F2
100
AcDbEntity
  8
0
370
    35
390
0
 62
     7
 48
0.000186
100
AcDbLine
 10
24.175697
 20
85.60788
 30
0.0
 11
24.172188
 21
85.614441
 31
0.0
210
0.0
220
0.0
230
1.0
  0
LINE
  5
3F3
100
AcDbEntity
  8
0
370
    35
390
0
 62
     7
 48
0.000216
100
AcDbLine
 10
24.172188
 20
85.614441
 30
0.0
 11
24.164787
 21
85.618912
 31
0.0
210
0.0
220
0.0
230
1.0
  0
LINE
  5
3F4
100
AcDbEntity
  8
0
370
    35
390
0
 62
     7
 48
0.000224
100
AcDbLine
 10
24.164787
 20
85.618912
 30
0.0
 11
24.15609
 21
85.620987
 31
0.0
210
0.0
220
0.0
230
1.0
  0
LINE
  5
3F5
100
AcDbEntity
  8
0
370
    35
390
0
 62
     7
 48
0.000253
100
AcDbLine
 10
24.15609
 20
85.620987
 30
0.0
 11
24.146004
 21
85.621643
 31
0.0
210
0.0
220
0.0
230
1.0
  0
LINE
  5
3F6
100
AcDbEntity
  8
0
370
    35
390
0
 62
     7
 48
0.000271
100
AcDbLine
 10
24.146004
 20
85.621643
 30
0.0
 11
24.13517
 21
85.621078
 31
0.0
210
0.0
220
0.0
230
1.0
  0
LINE
  5
3F7
100
AcDbEntity
  8
0
370
    35
390
0
 62
     7
 48
0.084402
100
AcDbLine
 10
24.13517
 20
85.559937
 30
0.0
 11
27.511246
 21
85.559937
 31
0.0
210
0.0
220
0.0
230
1.0
  0
LINE
  5
3F8
100
AcDbEntity
  8
0
370
    35
390
0
 62
     7
 48
0.004936
100
AcDbLine
 10
23.968758
 20
85.45369
 30
0.0
 11
24.13517
 21
85.559937
 31
0.0
210
0.0
220
0.0
230
1.0
  0
LINE
  5
3F9
100
AcDbEntity
  8
0
370
    35
390
0
 62
     7
 48
0.004164
100
AcDbLine
 10
23.968758
 20
85.45369
 30
0.0
 11
24.13517
 21
85.460449
 31
0.0
210
0.0
220
0.0
230
1.0
  0
LINE
  5
3FA
100
AcDbEntity
  8
0
370
    35
390
0
 62
     7
 48
0.000405
100
AcDbLine
 10
24.13517
 20
85.394653
 30
0.0
 11
24.148544
 21
85.403809
 31
0.0
210
0.0
220
0.0
230
1.0
  0
LINE
  5
3FB
100
AcDbEntity
  8
0
370
    35
390
0
 62
     7
 48
0.000382
100
AcDbLine
 10
24.148544
 20
85.403809
 30
0.0
 11
24.160034
 21
85.413864
 31
0.0
210
0.0
220
0.0
230
1.0
  0
LINE
  5
3FC
100
AcDbEntity
  8
0
370
    35
390
0
 62
     7
 48
0.000322
100
AcDbLine
 10
24.160034
 20
85.413864
 30
0.0
 11
24.168495
 21
85.423584
 31
0.0
210
0.0
220
0.0
230
1.0
  0
LINE
  5
3FD
100
AcDbEntity
  8
0
370
    35
390
0
 62
     7
 48
0.000284
100
AcDbLine
 10
24.168495
 20
85.423584
 30
0.0
 11
24.174339
 21
85.433334
 31
0.0
210
0.0
220
0.0
230
1.0
  0
LINE
  5
3FE
100
AcDbEntity
  8
0
370
    35
390
0
 62
     7
 48
0.000282
100
AcDbLine
 10
24.174339
 20
85.433334
 30
0.0
 11
24.175507
 21
85.444534
 31
0.0
210
0.0
220
0.0
230
1.0
  0
LINE
  5
3FF
100
AcDbEntity
  8
0
370
    35
390
0
 62
     7
 48
0.000253
100
AcDbLine
 10
24.175507
 20
85.444534
 30
0.0
 11
24.169998
 21
85.453018
 31
0.0
210
0.0
220
0.0
230
1.0
  0
LINE
  5
400
100
AcDbEntity
  8
0
370
    35
390
0
 62
     7
 48
0.000236
100
AcDbLine
 10
24.169998
 20
85.453018
 30
0.0
 11
24.16169
 21
85.457458
 31
0.0
210
0.0
220
0.0
230
1.0
  0
LINE
  5
401
100
AcDbEntity
  8
0
370
    35
390
0
 62
     7
 48
0.000278
100
AcDbLine
 10
24.16169
 20
85.457458
 30
0.0
 11
24.150826
 21
85.4599
 31
0.0
210
0.0
220
0.0
230
1.0
  0
LINE
  5
402
100
AcDbEntity
  8
0
370
    35
390
0
 62
     7
 48
0.000392
100
AcDbLine
 10
24.150826
 20
85.4599
 30
0.0
 11
24.13517
 21
85.460449
 31
0.0
210
0.0
220
0.0
230
1.0
  0
LINE
  5
403
100
AcDbEntity
  8
0
370
    35
390
0
 62
     7
 48
0.084402
100
AcDbLine
 10
24.13517
 20
85.394653
 30
0.0
 11
27.511246
 21
85.394653
 31
0.0
210
0.0
220
0.0
230
1.0
  0
LINE
  5
404
100
AcDbEntity
  8
0
370
    35
390
0
 62
     7
 48
0.004901
100
AcDbLine
 10
23.968758
 20
85.291046
 30
0.0
 11
24.13517
 21
85.394653
 31
0.0
210
0.0
220
0.0
230
1.0
  0
LINE
  5
405
100
AcDbEntity
  8
0
370
    35
390
0
 62
     7
 48
0.090781
100
AcDbLine
 10
27.600006
 20
85.291046
 30
0.0
 11
23.968758
 21
85.291046
 31
0.0
210
0.0
220
0.0
230
1.0
  0
LINE
  5
406
100
AcDbEntity
  8
0
370
    35
390
0
 62
     7
 48
0.004161
100
AcDbLine
 10
23.968758
 20
85.291046
 30
0.0
 11
24.13517
 21
85.288284
 31
0.0
210
0.0
220
0.0
230
1.0
  0
LINE
  5
407
100
AcDbEntity
  8
0
370
    35
390
0
 62
     7
 48
0.084402
100
AcDbLine
 10
27.511246
 20
85.288284
 30
0.0
 11
24.13517
 21
85.288284
 31
0.0
210
0.0
220
0.0
230
1.0
  0
LINE
  5
408
100
AcDbEntity
  8
0
370
    35
390
0
 62
     7
 48
0.000465
100
AcDbLine
 10
24.13517
 20
85.218323
 30
0.0
 11
24.150536
 21
85.228821
 31
0.0
210
0.0
220
0.0
230
1.0
  0
LINE
  5
409
100
AcDbEntity
  8
0
370
    35
390
0
 62
     7
 48
0.000438
100
AcDbLine
 10
24.150536
 20
85.228821
 30
0.0
 11
24.163376
 21
85.240753
 31
0.0
210
0.0
220
0.0
230
1.0
  0
LINE
  5
40A
100
AcDbEntity
  8
0
370
    35
390
0
 62
     7
 48
0.00026
100
AcDbLine
 10
24.163376
 20
85.240753
 30
0.0
 11
24.16983
 21
85.248901
 31
0.0
210
0.0
220
0.0
230
1.0
  0
LINE
  5
40B
100
AcDbEntity
  8
0
370
    35
390
0
 62
     7
 48
0.000233
100
AcDbLine
 10
24.16983
 20
85.248901
 30
0.0
 11
24.174324
 21
85.257065
 31
0.0
210
0.0
220
0.0
230
1.0
  0
LINE
  5
40C
100
AcDbEntity
  8
0
370
    35
390
0
 62
     7
 48
0.000297
100
AcDbLine
 10
24.174324
 20
85.257065
 30
0.0
 11
24.175522
 21
85.26889
 31
0.0
210
0.0
220
0.0
230
1.0
  0
LINE
  5
40D
100
AcDbEntity
  8
0
370
    35
390
0
 62
     7
 48
0.000271
100
AcDbLine
 10
24.175522
 20
85.26889
 30
0.0
 11
24.170044
 21
85.278259
 31
0.0
210
0.0
220
0.0
230
1.0
  0
LINE
  5
40E
100
AcDbEntity
  8
0
370
    35
390
0
 62
     7
 48
0.000245
100
AcDbLine
 10
24.170044
 20
85.278259
 30
0.0
 11
24.161766
 21
85.283478
 31
0.0
210
0.0
220
0.0
230
1.0
  0
LINE
  5
40F
100
AcDbEntity
  8
0
370
    35
390
0
 62
     7
 48
0.000283
100
AcDbLine
 10
24.161766
 20
85.283478
 30
0.0
 11
24.150909
 21
85.286743
 31
0.0
210
0.0
220
0.0
230
1.0
  0
LINE
  5
410
100
AcDbEntity
  8
0
370
    35
390
0
 62
     7
 48
0.000395
100
AcDbLine
 10
24.150909
 20
85.286743
 30
0.0
 11
24.13517
 21
85.288284
 31
0.0
210
0.0
220
0.0
230
1.0
  0
LINE
  5
411
100
AcDbEntity
  8
0
370
    35
390
0
 62
     7
 48
0.084402
100
AcDbLine
 10
24.13517
 20
85.218323
 30
0.0
 11
27.511246
 21
85.218323
 31
0.0
210
0.0
220
0.0
230
1.0
  0
LINE
  5
412
100
AcDbEntity
  8
0
370
    35
390
0
 62
     7
 48
0.004856
100
AcDbLine
 10
23.968758
 20
85.118149
 30
0.0
 11
24.13517
 21
85.218323
 31
0.0
210
0.0
220
0.0
230
1.0
  0
LINE
  5
413
100
AcDbEntity
  8
0
370
    35
390
0
 62
     7
 48
0.090781
100
AcDbLine
 10
27.600006
 20
85.118149
 30
0.0
 11
23.968758
 21
85.118149
 31
0.0
210
0.0
220
0.0
230
1.0
  0
LINE
  5
414
100
AcDbEntity
  8
0
370
    35
390
0
 62
     7
 48
0.004172
100
AcDbLine
 10
23.968758
 20
85.118149
 30
0.0
 11
24.13517
 21
85.105865
 31
0.0
210
0.0
220
0.0
230
1.0
  0
LINE
  5
415
100
AcDbEntity
  8
0
370
    35
390
0
 62
     7
 48
0.084402
100
AcDbLine
 10
27.511246
 20
85.105865
 30
0.0
 11
24.13517
 21
85.105865
 31
0.0
210
0.0
220
0.0
230
1.0
  0
LINE
  5
416
100
AcDbEntity
  8
0
370
    35
390
0
 62
     7
 48
0.000448
100
AcDbLine
 10
24.13517
 20
85.032288
 30
0.0
 11
24.150124
 21
85.04213
 31
0.0
210
0.0
220
0.0
230
1.0
  0
LINE
  5
417
100
AcDbEntity
  8
0
370
    35
390
0
 62
     7
 48
0.000424
100
AcDbLine
 10
24.150124
 20
85.04213
 30
0.0
 11
24.16272
 21
85.053513
 31
0.0
210
0.0
220
0.0
230
1.0
  0
LINE
  5
418
100
AcDbEntity
  8
0
370
    35
390
0
 62
     7
 48
0.000275
100
AcDbLine
 10
24.16272
 20
85.053513
 30
0.0
 11
24.169586
 21
85.062088
 31
0.0
210
0.0
220
0.0
230
1.0
  0
LINE
  5
419
100
AcDbEntity
  8
0
370
    35
390
0
 62
     7
 48
0.000248
100
AcDbLine
 10
24.169586
 20
85.062088
 30
0.0
 11
24.174301
 21
85.070801
 31
0.0
210
0.0
220
0.0
230
1.0
  0
LINE
  5
41A
100
AcDbEntity
  8
0
370
    35
390
0
 62
     7
 48
0.000311
100
AcDbLine
 10
24.174301
 20
85.070801
 30
0.0
 11
24.175529
 21
85.08316
 31
0.0
210
0.0
220
0.0
230
1.0
  0
LINE
  5
41B
100
AcDbEntity
  8
0
370
    35
390
0
 62
     7
 48
0.000144
100
AcDbLine
 10
24.175529
 20
85.08316
 30
0.0
 11
24.173592
 21
85.088577
 31
0.0
210
0.0
220
0.0
230
1.0
  0
LINE
  5
41C
100
AcDbEntity
  8
0
370
    35
390
0
 62
     7
 48
0.000225
100
AcDbLine
 10
24.173592
 20
85.088577
 30
0.0
 11
24.16777
 21
85.095459
 31
0.0
210
0.0
220
0.0
230
1.0
  0
LINE
  5
41D
100
AcDbEntity
  8
0
370
    35
390
0
 62
     7
 48
0.000401
100
AcDbLine
 10
24.16777
 20
85.095459
 30
0.0
 11
24.153419
 21
85.102661
 31
0.0
210
0.0
220
0.0
230
1.0
  0
LINE
  5
41E
100
AcDbEntity
  8
0
370
    35
390
0
 62
     7
 48
0.000463
100
AcDbLine
 10
24.153419
 20
85.102661
 30
0.0
 11
24.13517
 21
85.105865
 31
0.0
210
0.0
220
0.0
230
1.0
  0
LINE
  5
41F
100
AcDbEntity
  8
0
370
    35
390
0
 62
     7
 48
0.084402
100
AcDbLine
 10
24.13517
 20
85.032288
 30
0.0
 11
27.511246
 21
85.032288
 31
0.0
210
0.0
220
0.0
230
1.0
  0
LINE
  5
420
100
AcDbEntity
  8
0
370
    35
390
0
 62
     7
 48
0.004803
100
AcDbLine
 10
23.968758
 20
84.936295
 30
0.0
 11
24.13517
 21
85.032288
 31
0.0
210
0.0
220
0.0
230
1.0
  0
LINE
  5
421
100
AcDbEntity
  8
0
370
    35
390
0
 62
     7
 48
0.090781
100
AcDbLine
 10
27.600006
 20
84.936295
 30
0.0
 11
23.968758
 21
84.936295
 31
0.0
210
0.0
220
0.0
230
1.0
  0
LINE
  5
422
100
AcDbEntity
  8
0
370
    35
390
0
 62
     7
 48
0.004196
100
AcDbLine
 10
23.968758
 20
84.936295
 30
0.0
 11
24.13517
 21
84.914597
 31
0.0
210
0.0
220
0.0
230
1.0
  0
LINE
  5
423
100
AcDbEntity
  8
0
370
    35
390
0
 62
     7
 48
0.084402
100
AcDbLine
 10
27.511246
 20
84.914597
 30
0.0
 11
24.13517
 21
84.914597
 31
0.0
210
0.0
220
0.0
230
1.0
  0
LINE
  5
424
100
AcDbEntity
  8
0
370
    35
390
0
 62
     7
 48
0.000394
100
AcDbLine
 10
24.13517
 20
84.837967
 30
0.0
 11
24.148552
 21
84.846268
 31
0.0
210
0.0
220
0.0
230
1.0
  0
LINE
  5
425
100
AcDbEntity
  8
0
370
    35
390
0
 62
     7
 48
0.000373
100
AcDbLine
 10
24.148552
 20
84.846268
 30
0.0
 11
24.159996
 21
84.85585
 31
0.0
210
0.0
220
0.0
230
1.0
  0
LINE
  5
426
100
AcDbEntity
  8
0
370
    35
390
0
 62
     7
 48
0.000324
100
AcDbLine
 10
24.159996
 20
84.85585
 30
0.0
 11
24.168503
 21
84.865646
 31
0.0
210
0.0
220
0.0
230
1.0
  0
LINE
  5
427
100
AcDbEntity
  8
0
370
    35
390
0
 62
     7
 48
0.000295
100
AcDbLine
 10
24.168503
 20
84.865646
 30
0.0
 11
24.174286
 21
84.875946
 31
0.0
210
0.0
220
0.0
230
1.0
  0
LINE
  5
428
100
AcDbEntity
  8
0
370
    35
390
0
 62
     7
 48
0.000322
100
AcDbLine
 10
24.174286
 20
84.875946
 30
0.0
 11
24.175537
 21
84.888763
 31
0.0
210
0.0
220
0.0
230
1.0
  0
LINE
  5
429
100
AcDbEntity
  8
0
370
    35
390
0
 62
     7
 48
0.000151
100
AcDbLine
 10
24.175537
 20
84.888763
 30
0.0
 11
24.173622
 21
84.894501
 31
0.0
210
0.0
220
0.0
230
1.0
  0
LINE
  5
42A
100
AcDbEntity
  8
0
370
    35
390
0
 62
     7
 48
0.000238
100
AcDbLine
 10
24.173622
 20
84.894501
 30
0.0
 11
24.167816
 21
84.902069
 31
0.0
210
0.0
220
0.0
230
1.0
  0
LINE
  5
42B
100
AcDbEntity
  8
0
370
    35
390
0
 62
     7
 48
0.000268
100
AcDbLine
 10
24.167816
 20
84.902069
 30
0.0
 11
24.158867
 21
84.907959
 31
0.0
210
0.0
220
0.0
230
1.0
  0
LINE
  5
42C
100
AcDbEntity
  8
0
370
    35
390
0
 62
     7
 48
0.000298
100
AcDbLine
 10
24.158867
 20
84.907959
 30
0.0
 11
24.147713
 21
84.912125
 31
0.0
210
0.0
220
0.0
230
1.0
  0
LINE
  5
42D
100
AcDbEntity
  8
0
370
    35
390
0
 62
     7
 48
0.00032
100
AcDbLine
 10
24.147713
 20
84.912125
 30
0.0
 11
24.13517
 21
84.914597
 31
0.0
210
0.0
220
0.0
230
1.0
  0
LINE
  5
42E
100
AcDbEntity
  8
0
370
    35
390
0
 62
     7
 48
0.084402
100
AcDbLine
 10
24.13517
 20
84.837967
 30
0.0
 11
27.511246
 21
84.837967
 31
0.0
210
0.0
220
0.0
230
1.0
  0
LINE
  5
42F
100
AcDbEntity
  8
0
370
    35
390
0
 62
     7
 48
0.004743
100
AcDbLine
 10
23.968758
 20
84.746887
 30
0.0
 11
24.13517
 21
84.837967
 31
0.0
210
0.0
220
0.0
230
1.0
  0
LINE
  5
430
100
AcDbEntity
  8
0
370
    35
390
0
 62
     7
 48
0.090781
100
AcDbLine
 10
27.600006
 20
84.746887
 30
0.0
 11
23.968758
 21
84.746887
 31
0.0
210
0.0
220
0.0
230
1.0
  0
LINE
  5
431
100
AcDbEntity
  8
0
370
    35
390
0
 62
     7
 48
0.004232
100
AcDbLine
 10
23.968758
 20
84.746887
 30
0.0
 11
24.13517
 21
84.715942
 31
0.0
210
0.0
220
0.0
230
1.0
  0
LINE
  5
432
100
AcDbEntity
  8
0
370
    35
390
0
 62
     7
 48
0.084402
100
AcDbLine
 10
27.511246
 20
84.715942
 30
0.0
 11
24.13517
 21
84.715942
 31
0.0
210
0.0
220
0.0
230
1.0
  0
LINE
  5
433
100
AcDbEntity
  8
0
370
    35
390
0
 62
     7
 48
0.000389
100
AcDbLine
 10
24.13517
 20
84.636826
 30
0.0
 11
24.148552
 21
84.64473
 31
0.0
210
0.0
220
0.0
230
1.0
  0
LINE
  5
434
100
AcDbEntity
  8
0
370
    35
390
0
 62
     7
 48
0.000368
100
AcDbLine
 10
24.148552
 20
84.64473
 30
0.0
 11
24.159988
 21
84.654007
 31
0.0
210
0.0
220
0.0
230
1.0
  0
LINE
  5
435
100
AcDbEntity
  8
0
370
    35
390
0
 62
     7
 48
0.000322
100
AcDbLine
 10
24.159988
 20
84.654007
 30
0.0
 11
24.16851
 21
84.663681
 31
0.0
210
0.0
220
0.0
230
1.0
  0
LINE
  5
436
100
AcDbEntity
  8
0
370
    35
390
0
 62
     7
 48
0.000296
100
AcDbLine
 10
24.16851
 20
84.663681
 30
0.0
 11
24.174278
 21
84.674011
 31
0.0
210
0.0
220
0.0
230
1.0
  0
LINE
  5
437
100
AcDbEntity
  8
0
370
    35
390
0
 62
     7
 48
0.00033
100
AcDbLine
 10
24.174278
 20
84.674011
 30
0.0
 11
24.175545
 21
84.687149
 31
0.0
210
0.0
220
0.0
230
1.0
  0
LINE
  5
438
100
AcDbEntity
  8
0
370
    35
390
0
 62
     7
 48
0.000158
100
AcDbLine
 10
24.175545
 20
84.687149
 30
0.0
 11
24.173645
 21
84.693176
 31
0.0
210
0.0
220
0.0
230
1.0
  0
LINE
  5
439
100
AcDbEntity
  8
0
370
    35
390
0
 62
     7
 48
0.000249
100
AcDbLine
 10
24.173645
 20
84.693176
 30
0.0
 11
24.167854
 21
84.701294
 31
0.0
210
0.0
220
0.0
230
1.0
  0
LINE
  5
43A
100
AcDbEntity
  8
0
370
    35
390
0
 62
     7
 48
0.000277
100
AcDbLine
 10
24.167854
 20
84.701294
 30
0.0
 11
24.158928
 21
84.70784
 31
0.0
210
0.0
220
0.0
230
1.0
  0
LINE
  5
43B
100
AcDbEntity
  8
0
370
    35
390
0
 62
     7
 48
0.000305
100
AcDbLine
 10
24.158928
 20
84.70784
 30
0.0
 11
24.147758
 21
84.712738
 31
0.0
210
0.0
220
0.0
230
1.0
  0
LINE
  5
43C
100
AcDbEntity
  8
0
370
    35
390
0
 62
     7
 48
0.000325
100
AcDbLine
 10
24.147758
 20
84.712738
 30
0.0
 11
24.13517
 21
84.715942
 31
0.0
210
0.0
220
0.0
230
1.0
  0
LINE
  5
43D
100
AcDbEntity
  8
0
370
    35
390
0
 62
     7
 48
0.084402
100
AcDbLine
 10
24.13517
 20
84.636826
 30
0.0
 11
27.511246
 21
84.636826
 31
0.0
210
0.0
220
0.0
230
1.0
  0
LINE
  5
43E
100
AcDbEntity
  8
0
370
    35
390
0
 62
     7
 48
0.004677
100
AcDbLine
 10
23.968758
 20
84.551376
 30
0.0
 11
24.13517
 21
84.636826
 31
0.0
210
0.0
220
0.0
230
1.0
  0
LINE
  5
43F
100
AcDbEntity
  8
0
370
    35
390
0
 62
     7
 48
0.090781
100
AcDbLine
 10
27.600006
 20
84.551376
 30
0.0
 11
23.968758
 21
84.551376
 31
0.0
210
0.0
220
0.0
230
1.0
  0
LINE
  5
440
100
AcDbEntity
  8
0
370
    35
390
0
 62
     7
 48
0.004279
100
AcDbLine
 10
23.968758
 20
84.551376
 30
0.0
 11
24.13517
 21
84.511398
 31
0.0
210
0.0
220
0.0
230
1.0
  0
LINE
  5
441
100
AcDbEntity
  8
0
370
    35
390
0
 62
     7
 48
0.084402
100
AcDbLine
 10
27.511246
 20
84.511398
 30
0.0
 11
24.13517
 21
84.511398
 31
0.0
210
0.0
220
0.0
230
1.0
  0
LINE
  5
442
100
AcDbEntity
  8
0
370
    35
390
0
 62
     7
 48
0.000383
100
AcDbLine
 10
24.13517
 20
84.43042
 30
0.0
 11
24.14856
 21
84.437836
 31
0.0
210
0.0
220
0.0
230
1.0
  0
LINE
  5
443
100
AcDbEntity
  8
0
370
    35
390
0
 62
     7
 48
0.000362
100
AcDbLine
 10
24.14856
 20
84.437836
 30
0.0
 11
24.159988
 21
84.446747
 31
0.0
210
0.0
220
0.0
230
1.0
  0
LINE
  5
444
100
AcDbEntity
  8
0
370
    35
390
0
 62
     7
 48
0.000319
100
AcDbLine
 10
24.159988
 20
84.446747
 30
0.0
 11
24.16851
 21
84.456238
 31
0.0
210
0.0
220
0.0
230
1.0
  0
LINE
  5
445
100
AcDbEntity
  8
0
370
    35
390
0
 62
     7
 48
0.000294
100
AcDbLine
 10
24.16851
 20
84.456238
 30
0.0
 11
24.174263
 21
84.466507
 31
0.0
210
0.0
220
0.0
230
1.0
  0
LINE
  5
446
100
AcDbEntity
  8
0
370
    35
390
0
 62
     7
 48
0.000336
100
AcDbLine
 10
24.174263
 20
84.466507
 30
0.0
 11
24.175552
 21
84.479889
 31
0.0
210
0.0
220
0.0
230
1.0
  0
LINE
  5
447
100
AcDbEntity
  8
0
370
    35
390
0
 62
     7
 48
0.000247
100
AcDbLine
 10
24.175552
 20
84.479889
 30
0.0
 11
24.172119
 21
84.489151
 31
0.0
210
0.0
220
0.0
230
1.0
  0
LINE
  5
448
100
AcDbEntity
  8
0
370
    35
390
0
 62
     7
 48
0.000266
100
AcDbLine
 10
24.172119
 20
84.489151
 30
0.0
 11
24.165215
 21
84.497269
 31
0.0
210
0.0
220
0.0
230
1.0
  0
LINE
  5
449
100
AcDbEntity
  8
0
370
    35
390
0
 62
     7
 48
0.0004
100
AcDbLine
 10
24.165215
 20
84.497269
 30
0.0
 11
24.151695
 21
84.505814
 31
0.0
210
0.0
220
0.0
230
1.0
  0
LINE
  5
44A
100
AcDbEntity
  8
0
370
    35
390
0
 62
     7
 48
0.000436
100
AcDbLine
 10
24.151695
 20
84.505814
 30
0.0
 11
24.13517
 21
84.511398
 31
0.0
210
0.0
220
0.0
230
1.0
  0
LINE
  5
44B
100
AcDbEntity
  8
0
370
    35
390
0
 62
     7
 48
0.084402
100
AcDbLine
 10
24.13517
 20
84.43042
 30
0.0
 11
27.511246
 21
84.43042
 31
0.0
210
0.0
220
0.0
230
1.0
  0
LINE
  5
44C
100
AcDbEntity
  8
0
370
    35
390
0
 62
     7
 48
0.004608
100
AcDbLine
 10
23.968758
 20
84.351212
 30
0.0
 11
24.13517
 21
84.43042
 31
0.0
210
0.0
220
0.0
230
1.0
  0
LINE
  5
44D
100
AcDbEntity
  8
0
370
    35
390
0
 62
     7
 48
0.090781
100
AcDbLine
 10
27.600006
 20
84.351212
 30
0.0
 11
23.968758
 21
84.351212
 31
0.0
210
0.0
220
0.0
230
1.0
  0
LINE
  5
44E
100
AcDbEntity
  8
0
370
    35
390
0
 62
     7
 48
0.004335
100
AcDbLine
 10
23.968758
 20
84.351212
 30
0.0
 11
24.13517
 21
84.302536
 31
0.0
210
0.0
220
0.0
230
1.0
  0
LINE
  5
44F
100
AcDbEntity
  8
0
370
    35
390
0
 62
     7
 48
0.084402
100
AcDbLine
 10
27.511246
 20
84.302536
 30
0.0
 11
24.13517
 21
84.302536
 31
0.0
210
0.0
220
0.0
230
1.0
  0
LINE
  5
450
100
AcDbEntity
  8
0
370
    35
390
0
 62
     7
 48
0.000376
100
AcDbLine
 10
24.13517
 20
84.220306
 30
0.0
 11
24.14856
 21
84.227188
 31
0.0
210
0.0
220
0.0
230
1.0
  0
LINE
  5
451
100
AcDbEntity
  8
0
370
    35
390
0
 62
     7
 48
0.000356
100
AcDbLine
 10
24.14856
 20
84.227188
 30
0.0
 11
24.159988
 21
84.235672
 31
0.0
210
0.0
220
0.0
230
1.0
  0
LINE
  5
452
100
AcDbEntity
  8
0
370
    35
390
0
 62
     7
 48
0.000314
100
AcDbLine
 10
24.159988
 20
84.235672
 30
0.0
 11
24.168526
 21
84.244888
 31
0.0
210
0.0
220
0.0
230
1.0
  0
LINE
  5
453
100
AcDbEntity
  8
0
370
    35
390
0
 62
     7
 48
0.000291
100
AcDbLine
 10
24.168526
 20
84.244888
 30
0.0
 11
24.174255
 21
84.255035
 31
0.0
210
0.0
220
0.0
230
1.0
  0
LINE
  5
454
100
AcDbEntity
  8
0
370
    35
390
0
 62
     7
 48
0.000175
100
AcDbLine
 10
24.174255
 20
84.255035
 30
0.0
 11
24.175835
 21
84.261841
 31
0.0
210
0.0
220
0.0
230
1.0
  0
LINE
  5
455
100
AcDbEntity
  8
0
370
    35
390
0
 62
     7
 48
0.000209
100
AcDbLine
 10
24.175835
 20
84.261841
 30
0.0
 11
24.175301
 21
84.270203
 31
0.0
210
0.0
220
0.0
230
1.0
  0
LINE
  5
456
100
AcDbEntity
  8
0
370
    35
390
0
 62
     7
 48
0.000213
100
AcDbLine
 10
24.175301
 20
84.270203
 30
0.0
 11
24.172142
 21
84.278107
 31
0.0
210
0.0
220
0.0
230
1.0
  0
LINE
  5
457
100
AcDbEntity
  8
0
370
    35
390
0
 62
     7
 48
0.000279
100
AcDbLine
 10
24.172142
 20
84.278107
 30
0.0
 11
24.165085
 21
84.286774
 31
0.0
210
0.0
220
0.0
230
1.0
  0
LINE
  5
458
100
AcDbEntity
  8
0
370
    35
390
0
 62
     7
 48
0.000302
100
AcDbLine
 10
24.165085
 20
84.286774
 30
0.0
 11
24.155418
 21
84.294022
 31
0.0
210
0.0
220
0.0
230
1.0
  0
LINE
  5
459
100
AcDbEntity
  8
0
370
    35
390
0
 62
     7
 48
0.000549
100
AcDbLine
 10
24.155418
 20
84.294022
 30
0.0
 11
24.13517
 21
84.302536
 31
0.0
210
0.0
220
0.0
230
1.0
  0
LINE
  5
45A
100
AcDbEntity
  8
0
370
    35
390
0
 62
     7
 48
0.084402
100
AcDbLine
 10
24.13517
 20
84.220306
 30
0.0
 11
27.511246
 21
84.220306
 31
0.0
210
0.0
220
0.0
230
1.0
  0
LINE
  5
45B
100
AcDbEntity
  8
0
370
    35
390
0
 62
     7
 48
0.004536
100
AcDbLine
 10
23.968758
 20
84.147964
 30
0.0
 11
24.13517
 21
84.220306
 31
0.0
210
0.0
220
0.0
230
1.0
  0
LINE
  5
45C
100
AcDbEntity
  8
0
370
    35
390
0
 62
     7
 48
0.090781
100
AcDbLine
 10
27.600006
 20
84.147964
 30
0.0
 11
23.968758
 21
84.147964
 31
0.0
210
0.0
220
0.0
230
1.0
  0
LINE
  5
45D
100
AcDbEntity
  8
0
370
    35
390
0
 62
     7
 48
0.004398
100
AcDbLine
 10
23.968758
 20
84.147964
 30
0.0
 11
24.13517
 21
84.090942
 31
0.0
210
0.0
220
0.0
230
1.0
  0
LINE
  5
45E
100
AcDbEntity
  8
0
370
    35
390
0
 62
     7
 48
0.084402
100
AcDbLine
 10
27.511246
 20
84.090942
 30
0.0
 11
24.13517
 21
84.090942
 31
0.0
210
0.0
220
0.0
230
1.0
  0
LINE
  5
45F
100
AcDbEntity
  8
0
370
    35
390
0
 62
     7
 48
0.00037
100
AcDbLine
 10
24.13517
 20
84.008072
 30
0.0
 11
24.14856
 21
84.014374
 31
0.0
210
0.0
220
0.0
230
1.0
  0
LINE
  5
460
100
AcDbEntity
  8
0
370
    35
390
0
 62
     7
 48
0.000349
100
AcDbLine
 10
24.14856
 20
84.014374
 30
0.0
 11
24.159996
 21
84.022354
 31
0.0
210
0.0
220
0.0
230
1.0
  0
LINE
  5
461
100
AcDbEntity
  8
0
370
    35
390
0
 62
     7
 48
0.000308
100
AcDbLine
 10
24.159996
 20
84.022354
 30
0.0
 11
24.168533
 21
84.03125
 31
0.0
210
0.0
220
0.0
230
1.0
  0
LINE
  5
462
100
AcDbEntity
  8
0
370
    35
390
0
 62
     7
 48
0.000287
100
AcDbLine
 10
24.168533
 20
84.03125
 30
0.0
 11
24.174255
 21
84.041199
 31
0.0
210
0.0
220
0.0
230
1.0
  0
LINE
  5
463
100
AcDbEntity
  8
0
370
    35
390
0
 62
     7
 48
0.000174
100
AcDbLine
 10
24.174255
 20
84.041199
 30
0.0
 11
24.175835
 21
84.047989
 31
0.0
210
0.0
220
0.0
230
1.0
  0
LINE
  5
464
100
AcDbEntity
  8
0
370
    35
390
0
 62
     7
 48
0.000211
100
AcDbLine
 10
24.175835
 20
84.047989
 30
0.0
 11
24.175301
 21
84.056427
 31
0.0
210
0.0
220
0.0
230
1.0
  0
LINE
  5
465
100
AcDbEntity
  8
0
370
    35
390
0
 62
     7
 48
0.000217
100
AcDbLine
 10
24.175301
 20
84.056427
 30
0.0
 11
24.172165
 21
84.064529
 31
0.0
210
0.0
220
0.0
230
1.0
  0
LINE
  5
466
100
AcDbEntity
  8
0
370
    35
390
0
 62
     7
 48
0.000287
100
AcDbLine
 10
24.172165
 20
84.064529
 30
0.0
 11
24.165123
 21
84.073593
 31
0.0
210
0.0
220
0.0
230
1.0
  0
LINE
  5
467
100
AcDbEntity
  8
0
370
    35
390
0
 62
     7
 48
0.000309
100
AcDbLine
 10
24.165123
 20
84.073593
 30
0.0
 11
24.155479
 21
84.081345
 31
0.0
210
0.0
220
0.0
230
1.0
  0
LINE
  5
468
100
AcDbEntity
  8
0
370
    35
390
0
 62
     7
 48
0.000562
100
AcDbLine
 10
24.155479
 20
84.081345
 30
0.0
 11
24.13517
 21
84.090942
 31
0.0
210
0.0
220
0.0
230
1.0
  0
LINE
  5
469
100
AcDbEntity
  8
0
370
    35
390
0
 62
     7
 48
0.084402
100
AcDbLine
 10
24.13517
 20
84.008072
 30
0.0
 11
27.511246
 21
84.008072
 31
0.0
210
0.0
220
0.0
230
1.0
  0
LINE
  5
46A
100
AcDbEntity
  8
0
370
    35
390
0
 62
     7
 48
0.004466
100
AcDbLine
 10
23.96875
 20
83.943146
 30
0.0
 11
24.13517
 21
84.008072
 31
0.0
210
0.0
220
0.0
230
1.0
  0
LINE
  5
46B
100
AcDbEntity
  8
0
370
    35
390
0
 62
     7
 48
0.090781
100
AcDbLine
 10
27.600006
 20
83.943146
 30
0.0
 11
23.96875
 21
83.943146
 31
0.0
210
0.0
220
0.0
230
1.0
  0
LINE
  5
46C
100
AcDbEntity
  8
0
370
    35
390
0
 62
     7
 48
0.004466
100
AcDbLine
 10
23.96875
 20
83.943146
 30
0.0
 11
24.13517
 21
83.87822
 31
0.0
210
0.0
220
0.0
230
1.0
  0
LINE
  5
46D
100
AcDbEntity
  8
0
370
    35
390
0
 62
     7
 48
0.084402
100
AcDbLine
 10
27.511246
 20
83.87822
 30
0.0
 11
24.13517
 21
83.87822
 31
0.0
210
0.0
220
0.0
230
1.0
  0
LINE
  5
46E
100
AcDbEntity
  8
0
370
    35
390
0
 62
     7
 48
0.000363
100
AcDbLine
 10
24.13517
 20
83.795349
 30
0.0
 11
24.14856
 21
83.80101
 31
0.0
210
0.0
220
0.0
230
1.0
  0
LINE
  5
46F
100
AcDbEntity
  8
0
370
    35
390
0
 62
     7
 48
0.000341
100
AcDbLine
 10
24.14856
 20
83.80101
 30
0.0
 11
24.160004
 21
83.808456
 31
0.0
210
0.0
220
0.0
230
1.0
  0
LINE
  5
470
100
AcDbEntity
  8
0
370
    35
390
0
 62
     7
 48
0.000301
100
AcDbLine
 10
24.160004
 20
83.808456
 30
0.0
 11
24.168541
 21
83.816956
 31
0.0
210
0.0
220
0.0
230
1.0
  0
LINE
  5
471
100
AcDbEntity
  8
0
370
    35
390
0
 62
     7
 48
0.000281
100
AcDbLine
 10
24.168541
 20
83.816956
 30
0.0
 11
24.174255
 21
83.82663
 31
0.0
210
0.0
220
0.0
230
1.0
  0
LINE
  5
472
100
AcDbEntity
  8
0
370
    35
390
0
 62
     7
 48
0.000172
100
AcDbLine
 10
24.174255
 20
83.82663
 30
0.0
 11
24.175827
 21
83.833344
 31
0.0
210
0.0
220
0.0
230
1.0
  0
LINE
  5
473
100
AcDbEntity
  8
0
370
    35
390
0
 62
     7
 48
0.000212
100
AcDbLine
 10
24.175827
 20
83.833344
 30
0.0
 11
24.175301
 21
83.841797
 31
0.0
210
0.0
220
0.0
230
1.0
  0
LINE
  5
474
100
AcDbEntity
  8
0
370
    35
390
0
 62
     7
 48
0.00022
100
AcDbLine
 10
24.175301
 20
83.841797
 30
0.0
 11
24.17218
 21
83.850021
 31
0.0
210
0.0
220
0.0
230
1.0
  0
LINE
  5
475
100
AcDbEntity
  8
0
370
    35
390
0
 62
     7
 48
0.000293
100
AcDbLine
 10
24.17218
 20
83.850021
 30
0.0
 11
24.165154
 21
83.859421
 31
0.0
210
0.0
220
0.0
230
1.0
  0
LINE
  5
476
100
AcDbEntity
  8
0
370
    35
390
0
 62
     7
 48
0.000316
100
AcDbLine
 10
24.165154
 20
83.859421
 30
0.0
 11
24.155533
 21
83.86763
 31
0.0
210
0.0
220
0.0
230
1.0
  0
LINE
  5
477
100
AcDbEntity
  8
0
370
    35
390
0
 62
     7
 48
0.000574
100
AcDbLine
 10
24.155533
 20
83.86763
 30
0.0
 11
24.13517
 21
83.87822
 31
0.0
210
0.0
220
0.0
230
1.0
  0
LINE
  5
478
100
AcDbEntity
  8
0
370
    35
390
0
 62
     7
 48
0.084402
100
AcDbLine
 10
24.13517
 20
83.795349
 30
0.0
 11
27.511246
 21
83.795349
 31
0.0
210
0.0
220
0.0
230
1.0
  0
LINE
  5
479
100
AcDbEntity
  8
0
370
    35
390
0
 62
     7
 48
0.004398
100
AcDbLine
 10
23.96875
 20
83.738327
 30
0.0
 11
24.13517
 21
83.795349
 31
0.0
210
0.0
220
0.0
230
1.0
  0
LINE
  5
47A
100
AcDbEntity
  8
0
370
    35
390
0
 62
     7
 48
0.090781
100
AcDbLine
 10
27.599998
 20
83.738327
 30
0.0
 11
23.96875
 21
83.738327
 31
0.0
210
0.0
220
0.0
230
1.0
  0
LINE
  5
47B
100
AcDbEntity
  8
0
370
    35
390
0
 62
     7
 48
0.004537
100
AcDbLine
 10
23.96875
 20
83.738327
 30
0.0
 11
24.13517
 21
83.665985
 31
0.0
210
0.0
220
0.0
230
1.0
  0
LINE
  5
47C
100
AcDbEntity
  8
0
370
    35
390
0
 62
     7
 48
0.084402
100
AcDbLine
 10
27.511246
 20
83.665985
 30
0.0
 11
24.13517
 21
83.665985
 31
0.0
210
0.0
220
0.0
230
1.0
  0
LINE
  5
47D
100
AcDbEntity
  8
0
370
    35
390
0
 62
     7
 48
0.000357
100
AcDbLine
 10
24.13517
 20
83.583755
 30
0.0
 11
24.14856
 21
83.58873
 31
0.0
210
0.0
220
0.0
230
1.0
  0
LINE
  5
47E
100
AcDbEntity
  8
0
370
    35
390
0
 62
     7
 48
0.000334
100
AcDbLine
 10
24.14856
 20
83.58873
 30
0.0
 11
24.160027
 21
83.595581
 31
0.0
210
0.0
220
0.0
230
1.0
  0
LINE
  5
47F
100
AcDbEntity
  8
0
370
    35
390
0
 62
     7
 48
0.000293
100
AcDbLine
 10
24.160027
 20
83.595581
 30
0.0
 11
24.168556
 21
83.603607
 31
0.0
210
0.0
220
0.0
230
1.0
  0
LINE
  5
480
100
AcDbEntity
  8
0
370
    35
390
0
 62
     7
 48
0.000274
100
AcDbLine
 10
24.168556
 20
83.603607
 30
0.0
 11
24.174255
 21
83.612961
 31
0.0
210
0.0
220
0.0
230
1.0
  0
LINE
  5
481
100
AcDbEntity
  8
0
370
    35
390
0
 62
     7
 48
0.000293
100
AcDbLine
 10
24.174255
 20
83.612961
 30
0.0
 11
24.175812
 21
83.624588
 31
0.0
210
0.0
220
0.0
230
1.0
  0
LINE
  5
482
100
AcDbEntity
  8
0
370
    35
390
0
 62
     7
 48
0.000262
100
AcDbLine
 10
24.175812
 20
83.624588
 30
0.0
 11
24.172951
 21
83.634674
 31
0.0
210
0.0
220
0.0
230
1.0
  0
LINE
  5
483
100
AcDbEntity
  8
0
370
    35
390
0
 62
     7
 48
0.000258
100
AcDbLine
 10
24.172951
 20
83.634674
 30
0.0
 11
24.167458
 21
83.643433
 31
0.0
210
0.0
220
0.0
230
1.0
  0
LINE
  5
484
100
AcDbEntity
  8
0
370
    35
390
0
 62
     7
 48
0.000283
100
AcDbLine
 10
24.167458
 20
83.643433
 30
0.0
 11
24.159477
 21
83.651443
 31
0.0
210
0.0
220
0.0
230
1.0
  0
LINE
  5
485
100
AcDbEntity
  8
0
370
    35
390
0
 62
     7
 48
0.000608
100
AcDbLine
 10
24.159477
 20
83.651443
 30
0.0
 11
24.13887
 21
83.664322
 31
0.0
210
0.0
220
0.0
230
1.0
  0
LINE
  5
486
100
AcDbEntity
  8
0
370
    35
390
0
 62
     7
 48
0.000101
100
AcDbLine
 10
24.13887
 20
83.664322
 30
0.0
 11
24.13517
 21
83.665985
 31
0.0
210
0.0
220
0.0
230
1.0
  0
LINE
  5
487
100
AcDbEntity
  8
0
370
    35
390
0
 62
     7
 48
0.084402
100
AcDbLine
 10
24.13517
 20
83.583755
 30
0.0
 11
27.511246
 21
83.583755
 31
0.0
210
0.0
220
0.0
230
1.0
  0
LINE
  5
488
100
AcDbEntity
  8
0
370
    35
390
0
 62
     7
 48
0.004335
100
AcDbLine
 10
23.96875
 20
83.53508
 30
0.0
 11
24.13517
 21
83.583755
 31
0.0
210
0.0
220
0.0
230
1.0
  0
LINE
  5
489
100
AcDbEntity
  8
0
370
    35
390
0
 62
     7
 48
0.090781
100
AcDbLine
 10
27.599998
 20
83.53508
 30
0.0
 11
23.96875
 21
83.53508
 31
0.0
210
0.0
220
0.0
230
1.0
  0
LINE
  5
48A
100
AcDbEntity
  8
0
370
    35
390
0
 62
     7
 48
0.004608
100
AcDbLine
 10
23.96875
 20
83.53508
 30
0.0
 11
24.13517
 21
83.455872
 31
0.0
210
0.0
220
0.0
230
1.0
  0
LINE
  5
48B
100
AcDbEntity
  8
0
370
    35
390
0
 62
     7
 48
0.084402
100
AcDbLine
 10
27.511246
 20
83.455872
 30
0.0
 11
24.13517
 21
83.455872
 31
0.0
210
0.0
220
0.0
230
1.0
  0
LINE
  5
48C
100
AcDbEntity
  8
0
370
    35
390
0
 62
     7
 48
0.000351
100
AcDbLine
 10
24.13517
 20
83.374893
 30
0.0
 11
24.148567
 21
83.37915
 31
0.0
210
0.0
220
0.0
230
1.0
  0
LINE
  5
48D
100
AcDbEntity
  8
0
370
    35
390
0
 62
     7
 48
0.000326
100
AcDbLine
 10
24.148567
 20
83.37915
 30
0.0
 11
24.160042
 21
83.385345
 31
0.0
210
0.0
220
0.0
230
1.0
  0
LINE
  5
48E
100
AcDbEntity
  8
0
370
    35
390
0
 62
     7
 48
0.000284
100
AcDbLine
 10
24.160042
 20
83.385345
 30
0.0
 11
24.168564
 21
83.392853
 31
0.0
210
0.0
220
0.0
230
1.0
  0
LINE
  5
48F
100
AcDbEntity
  8
0
370
    35
390
0
 62
     7
 48
0.000265
100
AcDbLine
 10
24.168564
 20
83.392853
 30
0.0
 11
24.174263
 21
83.401794
 31
0.0
210
0.0
220
0.0
230
1.0
  0
LINE
  5
490
100
AcDbEntity
  8
0
370
    35
390
0
 62
     7
 48
0.000369
100
AcDbLine
 10
24.174263
 20
83.401794
 30
0.0
 11
24.175293
 21
83.416534
 31
0.0
210
0.0
220
0.0
230
1.0
  0
LINE
  5
491
100
AcDbEntity
  8
0
370
    35
390
0
 62
     7
 48
0.000221
100
AcDbLine
 10
24.175293
 20
83.416534
 30
0.0
 11
24.172195
 21
83.424805
 31
0.0
210
0.0
220
0.0
230
1.0
  0
LINE
  5
492
100
AcDbEntity
  8
0
370
    35
390
0
 62
     7
 48
0.000302
100
AcDbLine
 10
24.172195
 20
83.424805
 30
0.0
 11
24.165184
 21
83.434631
 31
0.0
210
0.0
220
0.0
230
1.0
  0
LINE
  5
493
100
AcDbEntity
  8
0
370
    35
390
0
 62
     7
 48
0.000326
100
AcDbLine
 10
24.165184
 20
83.434631
 30
0.0
 11
24.155632
 21
83.443527
 31
0.0
210
0.0
220
0.0
230
1.0
  0
LINE
  5
494
100
AcDbEntity
  8
0
370
    35
390
0
 62
     7
 48
0.000597
100
AcDbLine
 10
24.155632
 20
83.443527
 30
0.0
 11
24.13517
 21
83.455872
 31
0.0
210
0.0
220
0.0
230
1.0
  0
LINE
  5
495
100
AcDbEntity
  8
0
370
    35
390
0
 62
     7
 48
0.084402
100
AcDbLine
 10
24.13517
 20
83.374893
 30
0.0
 11
27.511246
 21
83.374893
 31
0.0
210
0.0
220
0.0
230
1.0
  0
LINE
  5
496
100
AcDbEntity
  8
0
370
    35
390
0
 62
     7
 48
0.004279
100
AcDbLine
 10
23.96875
 20
83.334915
 30
0.0
 11
24.13517
 21
83.374893
 31
0.0
210
0.0
220
0.0
230
1.0
  0
LINE
  5
497
100
AcDbEntity
  8
0
370
    35
390
0
 62
     7
 48
0.090781
100
AcDbLine
 10
27.599998
 20
83.334915
 30
0.0
 11
23.96875
 21
83.334915
 31
0.0
210
0.0
220
0.0
230
1.0
  0
LINE
  5
498
100
AcDbEntity
  8
0
370
    35
390
0
 62
     7
 48
0.004677
100
AcDbLine
 10
23.96875
 20
83.334915
 30
0.0
 11
24.13517
 21
83.249466
 31
0.0
210
0.0
220
0.0
230
1.0
  0
LINE
  5
499
100
AcDbEntity
  8
0
370
    35
390
0
 62
     7
 48
0.084402
100
AcDbLine
 10
27.511246
 20
83.249466
 30
0.0
 11
24.13517
 21
83.249466
 31
0.0
210
0.0
220
0.0
230
1.0
  0
LINE
  5
49A
100
AcDbEntity
  8
0
370
    35
390
0
 62
     7
 48
0.000346
100
AcDbLine
 10
24.13517
 20
83.170349
 30
0.0
 11
24.148567
 21
83.173874
 31
0.0
210
0.0
220
0.0
230
1.0
  0
LINE
  5
49B
100
AcDbEntity
  8
0
370
    35
390
0
 62
     7
 48
0.000319
100
AcDbLine
 10
24.148567
 20
83.173874
 30
0.0
 11
24.160072
 21
83.179367
 31
0.0
210
0.0
220
0.0
230
1.0
  0
LINE
  5
49C
100
AcDbEntity
  8
0
370
    35
390
0
 62
     7
 48
0.000274
100
AcDbLine
 10
24.160072
 20
83.179367
 30
0.0
 11
24.168579
 21
83.186295
 31
0.0
210
0.0
220
0.0
230
1.0
  0
LINE
  5
49D
100
AcDbEntity
  8
0
370
    35
390
0
 62
     7
 48
0.000256
100
AcDbLine
 10
24.168579
 20
83.186295
 30
0.0
 11
24.174278
 21
83.194778
 31
0.0
210
0.0
220
0.0
230
1.0
  0
LINE
  5
49E
100
AcDbEntity
  8
0
370
    35
390
0
 62
     7
 48
0.000359
100
AcDbLine
 10
24.174278
 20
83.194778
 30
0.0
 11
24.175285
 21
83.209122
 31
0.0
210
0.0
220
0.0
230
1.0
  0
LINE
  5
49F
100
AcDbEntity
  8
0
370
    35
390
0
 62
     7
 48
0.000219
100
AcDbLine
 10
24.175285
 20
83.209122
 30
0.0
 11
24.172195
 21
83.217331
 31
0.0
210
0.0
220
0.0
230
1.0
  0
LINE
  5
4A0
100
AcDbEntity
  8
0
370
    35
390
0
 62
     7
 48
0.000304
100
AcDbLine
 10
24.172195
 20
83.217331
 30
0.0
 11
24.165184
 21
83.227264
 31
0.0
210
0.0
220
0.0
230
1.0
  0
LINE
  5
4A1
100
AcDbEntity
  8
0
370
    35
390
0
 62
     7
 48
0.00033
100
AcDbLine
 10
24.165184
 20
83.227264
 30
0.0
 11
24.155655
 21
83.236389
 31
0.0
210
0.0
220
0.0
230
1.0
  0
LINE
  5
4A2
100
AcDbEntity
  8
0
370
    35
390
0
 62
     7
 48
0.000608
100
AcDbLine
 10
24.155655
 20
83.236389
 30
0.0
 11
24.13517
 21
83.249466
 31
0.0
210
0.0
220
0.0
230
1.0
  0
LINE
  5
4A3
100
AcDbEntity
  8
0
370
    35
390
0
 62
     7
 48
0.084402
100
AcDbLine
 10
24.13517
 20
83.170349
 30
0.0
 11
27.511246
 21
83.170349
 31
0.0
210
0.0
220
0.0
230
1.0
  0
LINE
  5
4A4
100
AcDbEntity
  8
0
370
    35
390
0
 62
     7
 48
0.004232
100
AcDbLine
 10
23.96875
 20
83.139404
 30
0.0
 11
24.13517
 21
83.170349
 31
0.0
210
0.0
220
0.0
230
1.0
  0
LINE
  5
4A5
100
AcDbEntity
  8
0
370
    35
390
0
 62
     7
 48
0.090781
100
AcDbLine
 10
27.599998
 20
83.139404
 30
0.0
 11
23.96875
 21
83.139404
 31
0.0
210
0.0
220
0.0
230
1.0
  0
LINE
  5
4A6
100
AcDbEntity
  8
0
370
    35
390
0
 62
     7
 48
0.004743
100
AcDbLine
 10
23.96875
 20
83.139404
 30
0.0
 11
24.13517
 21
83.048325
 31
0.0
210
0.0
220
0.0
230
1.0
  0
LINE
  5
4A7
100
AcDbEntity
  8
0
370
    35
390
0
 62
     7
 48
0.084402
100
AcDbLine
 10
27.511246
 20
83.048325
 30
0.0
 11
24.13517
 21
83.048325
 31
0.0
210
0.0
220
0.0
230
1.0
  0
LINE
  5
4A8
100
AcDbEntity
  8
0
370
    35
390
0
 62
     7
 48
0.000342
100
AcDbLine
 10
24.13517
 20
82.971695
 30
0.0
 11
24.148567
 21
82.974442
 31
0.0
210
0.0
220
0.0
230
1.0
  0
LINE
  5
4A9
100
AcDbEntity
  8
0
370
    35
390
0
 62
     7
 48
0.000312
100
AcDbLine
 10
24.148567
 20
82.974442
 30
0.0
 11
24.160095
 21
82.979187
 31
0.0
210
0.0
220
0.0
230
1.0
  0
LINE
  5
4AA
100
AcDbEntity
  8
0
370
    35
390
0
 62
     7
 48
0.000265
100
AcDbLine
 10
24.160095
 20
82.979187
 30
0.0
 11
24.168594
 21
82.985489
 31
0.0
210
0.0
220
0.0
230
1.0
  0
LINE
  5
4AB
100
AcDbEntity
  8
0
370
    35
390
0
 62
     7
 48
0.000245
100
AcDbLine
 10
24.168594
 20
82.985489
 30
0.0
 11
24.174294
 21
82.993454
 31
0.0
210
0.0
220
0.0
230
1.0
  0
LINE
  5
4AC
100
AcDbEntity
  8
0
370
    35
390
0
 62
     7
 48
0.000153
100
AcDbLine
 10
24.174294
 20
82.993454
 30
0.0
 11
24.175842
 21
82.999374
 31
0.0
210
0.0
220
0.0
230
1.0
  0
LINE
  5
4AD
100
AcDbEntity
  8
0
370
    35
390
0
 62
     7
 48
0.000199
100
AcDbLine
 10
24.175842
 20
82.999374
 30
0.0
 11
24.175278
 21
83.007309
 31
0.0
210
0.0
220
0.0
230
1.0
  0
LINE
  5
4AE
100
AcDbEntity
  8
0
370
    35
390
0
 62
     7
 48
0.000414
100
AcDbLine
 10
24.175278
 20
83.007309
 30
0.0
 11
24.167824
 21
83.022079
 31
0.0
210
0.0
220
0.0
230
1.0
  0
LINE
  5
4AF
100
AcDbEntity
  8
0
370
    35
390
0
 62
     7
 48
0.000437
100
AcDbLine
 10
24.167824
 20
83.022079
 30
0.0
 11
24.155678
 21
83.034637
 31
0.0
210
0.0
220
0.0
230
1.0
  0
LINE
  5
4B0
100
AcDbEntity
  8
0
370
    35
390
0
 62
     7
 48
0.000616
100
AcDbLine
 10
24.155678
 20
83.034637
 30
0.0
 11
24.13517
 21
83.048325
 31
0.0
210
0.0
220
0.0
230
1.0
  0
LINE
  5
4B1
100
AcDbEntity
  8
0
370
    35
390
0
 62
     7
 48
0.084402
100
AcDbLine
 10
24.13517
 20
82.971695
 30
0.0
 11
27.511246
 21
82.971695
 31
0.0
210
0.0
220
0.0
230
1.0
  0
LINE
  5
4B2
100
AcDbEntity
  8
0
370
    35
390
0
 62
     7
 48
0.004196
100
AcDbLine
 10
23.96875
 20
82.949997
 30
0.0
 11
24.13517
 21
82.971695
 31
0.0
210
0.0
220
0.0
230
1.0
  0
LINE
  5
4B3
100
AcDbEntity
  8
0
370
    35
390
0
 62
     7
 48
0.090781
100
AcDbLine
 10
27.599998
 20
82.949997
 30
0.0
 11
23.96875
 21
82.949997
 31
0.0
210
0.0
220
0.0
230
1.0
  0
LINE
  5
4B4
100
AcDbEntity
  8
0
370
    35
390
0
 62
     7
 48
0.004803
100
AcDbLine
 10
23.96875
 20
82.949997
 30
0.0
 11
24.13517
 21
82.854004
 31
0.0
210
0.0
220
0.0
230
1.0
  0
LINE
  5
4B5
100
AcDbEntity
  8
0
370
    35
390
0
 62
     7
 48
0.084402
100
AcDbLine
 10
27.511246
 20
82.854004
 30
0.0
 11
24.13517
 21
82.854004
 31
0.0
210
0.0
220
0.0
230
1.0
  0
LINE
  5
4B6
100
AcDbEntity
  8
0
370
    35
390
0
 62
     7
 48
0.000338
100
AcDbLine
 10
24.13517
 20
82.780426
 30
0.0
 11
24.148567
 21
82.782379
 31
0.0
210
0.0
220
0.0
230
1.0
  0
LINE
  5
4B7
100
AcDbEntity
  8
0
370
    35
390
0
 62
     7
 48
0.000306
100
AcDbLine
 10
24.148567
 20
82.782379
 30
0.0
 11
24.160126
 21
82.786346
 31
0.0
210
0.0
220
0.0
230
1.0
  0
LINE
  5
4B8
100
AcDbEntity
  8
0
370
    35
390
0
 62
     7
 48
0.000254
100
AcDbLine
 10
24.160126
 20
82.786346
 30
0.0
 11
24.16861
 21
82.791962
 31
0.0
210
0.0
220
0.0
230
1.0
  0
LINE
  5
4B9
100
AcDbEntity
  8
0
370
    35
390
0
 62
     7
 48
0.000233
100
AcDbLine
 10
24.16861
 20
82.791962
 30
0.0
 11
24.174309
 21
82.799347
 31
0.0
210
0.0
220
0.0
230
1.0
  0
LINE
  5
4BA
100
AcDbEntity
  8
0
370
    35
390
0
 62
     7
 48
0.000257
100
AcDbLine
 10
24.174309
 20
82.799347
 30
0.0
 11
24.175819
 21
82.809509
 31
0.0
210
0.0
220
0.0
230
1.0
  0
LINE
  5
4BB
100
AcDbEntity
  8
0
370
    35
390
0
 62
     7
 48
0.00029
100
AcDbLine
 10
24.175819
 20
82.809509
 30
0.0
 11
24.172173
 21
82.820511
 31
0.0
210
0.0
220
0.0
230
1.0
  0
LINE
  5
4BC
100
AcDbEntity
  8
0
370
    35
390
0
 62
     7
 48
0.000199
100
AcDbLine
 10
24.172173
 20
82.820511
 30
0.0
 11
24.167801
 21
82.827164
 31
0.0
210
0.0
220
0.0
230
1.0
  0
LINE
  5
4BD
100
AcDbEntity
  8
0
370
    35
390
0
 62
     7
 48
0.000438
100
AcDbLine
 10
24.167801
 20
82.827164
 30
0.0
 11
24.155678
 21
82.839813
 31
0.0
210
0.0
220
0.0
230
1.0
  0
LINE
  5
4BE
100
AcDbEntity
  8
0
370
    35
390
0
 62
     7
 48
0.000623
100
AcDbLine
 10
24.155678
 20
82.839813
 30
0.0
 11
24.13517
 21
82.854004
 31
0.0
210
0.0
220
0.0
230
1.0
  0
LINE
  5
4BF
100
AcDbEntity
  8
0
370
    35
390
0
 62
     7
 48
0.084402
100
AcDbLine
 10
24.13517
 20
82.780426
 30
0.0
 11
27.511246
 21
82.780426
 31
0.0
210
0.0
220
0.0
230
1.0
  0
LINE
  5
4C0
100
AcDbEntity
  8
0
370
    35
390
0
 62
     7
 48
0.004172
100
AcDbLine
 10
23.96875
 20
82.768143
 30
0.0
 11
24.13517
 21
82.780426
 31
0.0
210
0.0
220
0.0
230
1.0
  0
LINE
  5
4C1
100
AcDbEntity
  8
0
370
    35
390
0
 62
     7
 48
0.090781
100
AcDbLine
 10
27.599998
 20
82.768143
 30
0.0
 11
23.96875
 21
82.768143
 31
0.0
210
0.0
220
0.0
230
1.0
  0
LINE
  5
4C2
100
AcDbEntity
  8
0
370
    35
390
0
 62
     7
 48
0.004856
100
AcDbLine
 10
23.96875
 20
82.768143
 30
0.0
 11
24.13517
 21
82.667969
 31
0.0
210
0.0
220
0.0
230
1.0
  0
LINE
  5
4C3
100
AcDbEntity
  8
0
370
    35
390
0
 62
     7
 48
0.084402
100
AcDbLine
 10
27.511246
 20
82.667969
 30
0.0
 11
24.13517
 21
82.667969
 31
0.0
210
0.0
220
0.0
230
1.0
  0
LINE
  5
4C4
100
AcDbEntity
  8
0
370
    35
390
0
 62
     7
 48
0.000336
100
AcDbLine
 10
24.13517
 20
82.598022
 30
0.0
 11
24.148567
 21
82.599152
 31
0.0
210
0.0
220
0.0
230
1.0
  0
LINE
  5
4C5
100
AcDbEntity
  8
0
370
    35
390
0
 62
     7
 48
0.0003
100
AcDbLine
 10
24.148567
 20
82.599152
 30
0.0
 11
24.160156
 21
82.60231
 31
0.0
210
0.0
220
0.0
230
1.0
  0
LINE
  5
4C6
100
AcDbEntity
  8
0
370
    35
390
0
 62
     7
 48
0.000392
100
AcDbLine
 10
24.160156
 20
82.60231
 30
0.0
 11
24.172874
 21
82.611511
 31
0.0
210
0.0
220
0.0
230
1.0
  0
LINE
  5
4C7
100
AcDbEntity
  8
0
370
    35
390
0
 62
     7
 48
0.000272
100
AcDbLine
 10
24.172874
 20
82.611511
 30
0.0
 11
24.175964
 21
82.621933
 31
0.0
210
0.0
220
0.0
230
1.0
  0
LINE
  5
4C8
100
AcDbEntity
  8
0
370
    35
390
0
 62
     7
 48
0.000232
100
AcDbLine
 10
24.175964
 20
82.621933
 30
0.0
 11
24.173714
 21
82.63092
 31
0.0
210
0.0
220
0.0
230
1.0
  0
LINE
  5
4C9
100
AcDbEntity
  8
0
370
    35
390
0
 62
     7
 48
0.000598
100
AcDbLine
 10
24.173714
 20
82.63092
 30
0.0
 11
24.159355
 21
82.65007
 31
0.0
210
0.0
220
0.0
230
1.0
  0
LINE
  5
4CA
100
AcDbEntity
  8
0
370
    35
390
0
 62
     7
 48
0.000368
100
AcDbLine
 10
24.159355
 20
82.65007
 30
0.0
 11
24.148018
 21
82.659485
 31
0.0
210
0.0
220
0.0
230
1.0
  0
LINE
  5
4CB
100
AcDbEntity
  8
0
370
    35
390
0
 62
     7
 48
0.000385
100
AcDbLine
 10
24.148018
 20
82.659485
 30
0.0
 11
24.13517
 21
82.667969
 31
0.0
210
0.0
220
0.0
230
1.0
  0
LINE
  5
4CC
100
AcDbEntity
  8
0
370
    35
390
0
 62
     7
 48
0.084402
100
AcDbLine
 10
24.13517
 20
82.598022
 30
0.0
 11
27.511246
 21
82.598022
 31
0.0
210
0.0
220
0.0
230
1.0
  0
LINE
  5
4CD
100
AcDbEntity
  8
0
370
    35
390
0
 62
     7
 48
0.004161
100
AcDbLine
 10
23.96875
 20
82.595245
 30
0.0
 11
24.13517
 21
82.598022
 31
0.0
210
0.0
220
0.0
230
1.0
  0
LINE
  5
4CE
100
AcDbEntity
  8
0
370
    35
390
0
 62
     7
 48
0.090781
100
AcDbLine
 10
27.599998
 20
82.595245
 30
0.0
 11
23.96875
 21
82.595245
 31
0.0
210
0.0
220
0.0
230
1.0
  0
LINE
  5
4CF
100
AcDbEntity
  8
0
370
    35
390
0
 62
     7
 48
0.004901
100
AcDbLine
 10
23.96875
 20
82.595245
 30
0.0
 11
24.13517
 21
82.491653
 31
0.0
210
0.0
220
0.0
230
1.0
  0
LINE
  5
4D0
100
AcDbEntity
  8
0
370
    35
390
0
 62
     7
 48
0.084402
100
AcDbLine
 10
27.511246
 20
82.491653
 30
0.0
 11
24.13517
 21
82.491653
 31
0.0
210
0.0
220
0.0
230
1.0
  0
LINE
  5
4D1
100
AcDbEntity
  8
0
370
    35
390
0
 62
     7
 48
0.000335
100
AcDbLine
 10
24.13517
 20
82.425842
 30
0.0
 11
24.14856
 21
82.426147
 31
0.0
210
0.0
220
0.0
230
1.0
  0
LINE
  5
4D2
100
AcDbEntity
  8
0
370
    35
390
0
 62
     7
 48
0.000296
100
AcDbLine
 10
24.14856
 20
82.426147
 30
0.0
 11
24.160187
 21
82.428467
 31
0.0
210
0.0
220
0.0
230
1.0
  0
LINE
  5
4D3
100
AcDbEntity
  8
0
370
    35
390
0
 62
     7
 48
0.000239
100
AcDbLine
 10
24.160187
 20
82.428467
 30
0.0
 11
24.168777
 21
82.432663
 31
0.0
210
0.0
220
0.0
230
1.0
  0
LINE
  5
4D4
100
AcDbEntity
  8
0
370
    35
390
0
 62
     7
 48
0.000224
100
AcDbLine
 10
24.168777
 20
82.432663
 30
0.0
 11
24.174713
 21
82.439362
 31
0.0
210
0.0
220
0.0
230
1.0
  0
LINE
  5
4D5
100
AcDbEntity
  8
0
370
    35
390
0
 62
     7
 48
0.000261
100
AcDbLine
 10
24.174713
 20
82.439362
 30
0.0
 11
24.175362
 21
82.449799
 31
0.0
210
0.0
220
0.0
230
1.0
  0
LINE
  5
4D6
100
AcDbEntity
  8
0
370
    35
390
0
 62
     7
 48
0.000242
100
AcDbLine
 10
24.175362
 20
82.449799
 30
0.0
 11
24.171623
 21
82.45871
 31
0.0
210
0.0
220
0.0
230
1.0
  0
LINE
  5
4D7
100
AcDbEntity
  8
0
370
    35
390
0
 62
     7
 48
0.000303
100
AcDbLine
 10
24.171623
 20
82.45871
 30
0.0
 11
24.164299
 21
82.468353
 31
0.0
210
0.0
220
0.0
230
1.0
  0
LINE
  5
4D8
100
AcDbEntity
  8
0
370
    35
390
0
 62
     7
 48
0.000337
100
AcDbLine
 10
24.164299
 20
82.468353
 30
0.0
 11
24.154594
 21
82.477722
 31
0.0
210
0.0
220
0.0
230
1.0
  0
LINE
  5
4D9
100
AcDbEntity
  8
0
370
    35
390
0
 62
     7
 48
0.000598
100
AcDbLine
 10
24.154594
 20
82.477722
 30
0.0
 11
24.13517
 21
82.491653
 31
0.0
210
0.0
220
0.0
230
1.0
  0
LINE
  5
4DA
100
AcDbEntity
  8
0
370
    35
390
0
 62
     7
 48
0.004164
100
AcDbLine
 10
23.96875
 20
82.432602
 30
0.0
 11
24.13517
 21
82.425842
 31
0.0
210
0.0
220
0.0
230
1.0
  0
LINE
  5
4DB
100
AcDbEntity
  8
0
370
    35
390
0
 62
     7
 48
0.004936
100
AcDbLine
 10
23.96875
 20
82.432602
 30
0.0
 11
24.13517
 21
82.32637
 31
0.0
210
0.0
220
0.0
230
1.0
  0
LINE
  5
4DC
100
AcDbEntity
  8
0
370
    35
390
0
 62
     7
 48
0.084402
100
AcDbLine
 10
27.511246
 20
82.32637
 30
0.0
 11
24.13517
 21
82.32637
 31
0.0
210
0.0
220
0.0
230
1.0
  0
LINE
  5
4DD
100
AcDbEntity
  8
0
370
    35
390
0
 62
     7
 48
0.00027
100
AcDbLine
 10
24.13517
 20
82.265213
 30
0.0
 11
24.14595
 21
82.264648
 31
0.0
210
0.0
220
0.0
230
1.0
  0
LINE
  5
4DE
100
AcDbEntity
  8
0
370
    35
390
0
 62
     7
 48
0.000271
100
AcDbLine
 10
24.14595
 20
82.264648
 30
0.0
 11
24.156761
 21
82.265442
 31
0.0
210
0.0
220
0.0
230
1.0
  0
LINE
  5
4DF
100
AcDbEntity
  8
0
370
    35
390
0
 62
     7
 48
0.000234
100
AcDbLine
 10
24.156761
 20
82.265442
 30
0.0
 11
24.165771
 21
82.26799
 31
0.0
210
0.0
220
0.0
230
1.0
  0
LINE
  5
4E0
100
AcDbEntity
  8
0
370
    35
390
0
 62
     7
 48
0.000298
100
AcDbLine
 10
24.165771
 20
82.26799
 30
0.0
 11
24.174858
 21
82.275711
 31
0.0
210
0.0
220
0.0
230
1.0
  0
LINE
  5
4E1
100
AcDbEntity
  8
0
370
    35
390
0
 62
     7
 48
0.000223
100
AcDbLine
 10
24.174858
 20
82.275711
 30
0.0
 11
24.175468
 21
82.284592
 31
0.0
210
0.0
220
0.0
230
1.0
  0
LINE
  5
4E2
100
AcDbEntity
  8
0
370
    35
390
0
 62
     7
 48
0.000378
100
AcDbLine
 10
24.175468
 20
82.284592
 30
0.0
 11
24.168495
 21
82.298019
 31
0.0
210
0.0
220
0.0
230
1.0
  0
LINE
  5
4E3
100
AcDbEntity
  8
0
370
    35
390
0
 62
     7
 48
0.000388
100
AcDbLine
 10
24.168495
 20
82.298019
 30
0.0
 11
24.15789
 21
82.309372
 31
0.0
210
0.0
220
0.0
230
1.0
  0
LINE
  5
4E4
100
AcDbEntity
  8
0
370
    35
390
0
 62
     7
 48
0.000709
100
AcDbLine
 10
24.15789
 20
82.309372
 30
0.0
 11
24.13517
 21
82.32637
 31
0.0
210
0.0
220
0.0
230
1.0
  0
LINE
  5
4E5
100
AcDbEntity
  8
0
370
    35
390
0
 62
     7
 48
0.00418
100
AcDbLine
 10
23.96875
 20
82.281448
 30
0.0
 11
24.13517
 21
82.265213
 31
0.0
210
0.0
220
0.0
230
1.0
  0
LINE
  5
4E6
100
AcDbEntity
  8
0
370
    35
390
0
 62
     7
 48
0.004961
100
AcDbLine
 10
23.96875
 20
82.281448
 30
0.0
 11
24.13517
 21
82.173386
 31
0.0
210
0.0
220
0.0
230
1.0
  0
LINE
  5
4E7
100
AcDbEntity
  8
0
370
    35
390
0
 62
     7
 48
0.084402
100
AcDbLine
 10
27.511246
 20
82.173386
 30
0.0
 11
24.13517
 21
82.173386
 31
0.0
210
0.0
220
0.0
230
1.0
  0
LINE
  5
4E8
100
AcDbEntity
  8
0
370
    35
390
0
 62
     7
 48
0.000411
100
AcDbLine
 10
24.13517
 20
82.117355
 30
0.0
 11
24.151535
 21
82.115952
 31
0.0
210
0.0
220
0.0
230
1.0
  0
LINE
  5
4E9
100
AcDbEntity
  8
0
370
    35
390
0
 62
     7
 48
0.000234
100
AcDbLine
 10
24.151535
 20
82.115952
 30
0.0
 11
24.160866
 21
82.116684
 31
0.0
210
0.0
220
0.0
230
1.0
  0
LINE
  5
4EA
100
AcDbEntity
  8
0
370
    35
390
0
 62
     7
 48
0.0002
100
AcDbLine
 10
24.160866
 20
82.116684
 30
0.0
 11
24.16851
 21
82.119003
 31
0.0
210
0.0
220
0.0
230
1.0
  0
LINE
  5
4EB
100
AcDbEntity
  8
0
370
    35
390
0
 62
     7
 48
0.000205
100
AcDbLine
 10
24.16851
 20
82.119003
 30
0.0
 11
24.174782
 21
82.124298
 31
0.0
210
0.0
220
0.0
230
1.0
  0
LINE
  5
4EC
100
AcDbEntity
  8
0
370
    35
390
0
 62
     7
 48
0.000191
100
AcDbLine
 10
24.174782
 20
82.124298
 30
0.0
 11
24.175606
 21
82.131912
 31
0.0
210
0.0
220
0.0
230
1.0
  0
LINE
  5
4ED
100
AcDbEntity
  8
0
370
    35
390
0
 62
     7
 48
0.000516
100
AcDbLine
 10
24.175606
 20
82.131912
 30
0.0
 11
24.164932
 21
82.149597
 31
0.0
210
0.0
220
0.0
230
1.0
  0
LINE
  5
4EE
100
AcDbEntity
  8
0
370
    35
390
0
 62
     7
 48
0.0004
100
AcDbLine
 10
24.164932
 20
82.149597
 30
0.0
 11
24.153168
 21
82.160446
 31
0.0
210
0.0
220
0.0
230
1.0
  0
LINE
  5
4EF
100
AcDbEntity
  8
0
370
    35
390
0
 62
     7
 48
0.000554
100
AcDbLine
 10
24.153168
 20
82.160446
 30
0.0
 11
24.13517
 21
82.173386
 31
0.0
210
0.0
220
0.0
230
1.0
  0
LINE
  5
4F0
100
AcDbEntity
  8
0
370
    35
390
0
 62
     7
 48
0.004209
100
AcDbLine
 10
23.96875
 20
82.142944
 30
0.0
 11
24.13517
 21
82.117355
 31
0.0
210
0.0
220
0.0
230
1.0
  0
LINE
  5
4F1
100
AcDbEntity
  8
0
370
    35
390
0
 62
     7
 48
0.004974
100
AcDbLine
 10
23.96875
 20
82.142944
 30
0.0
 11
24.13517
 21
82.033875
 31
0.0
210
0.0
220
0.0
230
1.0
  0
LINE
  5
4F2
100
AcDbEntity
  8
0
370
    35
390
0
 62
     7
 48
0.084402
100
AcDbLine
 10
27.511246
 20
82.033875
 30
0.0
 11
24.13517
 21
82.033875
 31
0.0
210
0.0
220
0.0
230
1.0
  0
LINE
  5
4F3
100
AcDbEntity
  8
0
370
    35
390
0
 62
     7
 48
0.000539
100
AcDbLine
 10
24.13517
 20
81.983383
 30
0.0
 11
24.15657
 21
81.980789
 31
0.0
210
0.0
220
0.0
230
1.0
  0
LINE
  5
4F4
100
AcDbEntity
  8
0
370
    35
390
0
 62
     7
 48
0.0002
100
AcDbLine
 10
24.15657
 20
81.980789
 30
0.0
 11
24.164536
 21
81.981445
 31
0.0
210
0.0
220
0.0
230
1.0
  0
LINE
  5
4F5
100
AcDbEntity
  8
0
370
    35
390
0
 62
     7
 48
0.000167
100
AcDbLine
 10
24.164536
 20
81.981445
 30
0.0
 11
24.170876
 21
81.983536
 31
0.0
210
0.0
220
0.0
230
1.0
  0
LINE
  5
4F6
100
AcDbEntity
  8
0
370
    35
390
0
 62
     7
 48
0.000214
100
AcDbLine
 10
24.170876
 20
81.983536
 30
0.0
 11
24.175957
 21
81.990433
 31
0.0
210
0.0
220
0.0
230
1.0
  0
LINE
  5
4F7
100
AcDbEntity
  8
0
370
    35
390
0
 62
     7
 48
0.00025
100
AcDbLine
 10
24.175957
 20
81.990433
 30
0.0
 11
24.172981
 21
82.0
 31
0.0
210
0.0
220
0.0
230
1.0
  0
LINE
  5
4F8
100
AcDbEntity
  8
0
370
    35
390
0
 62
     7
 48
0.000308
100
AcDbLine
 10
24.172981
 20
82.0
 30
0.0
 11
24.165512
 21
82.009781
 31
0.0
210
0.0
220
0.0
230
1.0
  0
LINE
  5
4F9
100
AcDbEntity
  8
0
370
    35
390
0
 62
     7
 48
0.000369
100
AcDbLine
 10
24.165512
 20
82.009781
 30
0.0
 11
24.154625
 21
82.019775
 31
0.0
210
0.0
220
0.0
230
1.0
  0
LINE
  5
4FA
100
AcDbEntity
  8
0
370
    35
390
0
 62
     7
 48
0.000601
100
AcDbLine
 10
24.154625
 20
82.019775
 30
0.0
 11
24.13517
 21
82.033875
 31
0.0
210
0.0
220
0.0
230
1.0
  0
LINE
  5
4FB
100
AcDbEntity
  8
0
370
    35
390
0
 62
     7
 48
0.00425
100
AcDbLine
 10
23.96875
 20
82.018143
 30
0.0
 11
24.13517
 21
81.983383
 31
0.0
210
0.0
220
0.0
230
1.0
  0
LINE
  5
4FC
100
AcDbEntity
  8
0
370
    35
390
0
 62
     7
 48
0.004977
100
AcDbLine
 10
23.96875
 20
82.018143
 30
0.0
 11
24.13517
 21
81.908905
 31
0.0
210
0.0
220
0.0
230
1.0
  0
LINE
  5
4FD
100
AcDbEntity
  8
0
370
    35
390
0
 62
     7
 48
0.084402
100
AcDbLine
 10
27.511246
 20
81.908905
 30
0.0
 11
24.13517
 21
81.908905
 31
0.0
210
0.0
220
0.0
230
1.0
  0
LINE
  5
4FE
100
AcDbEntity
  8
0
370
    35
390
0
 62
     7
 48
0.000655
100
AcDbLine
 10
24.13517
 20
81.864334
 30
0.0
 11
24.161049
 21
81.860168
 31
0.0
210
0.0
220
0.0
230
1.0
  0
LINE
  5
4FF
100
AcDbEntity
  8
0
370
    35
390
0
 62
     7
 48
0.000345
100
AcDbLine
 10
24.161049
 20
81.860168
 30
0.0
 11
24.174355
 21
81.863861
 31
0.0
210
0.0
220
0.0
230
1.0
  0
LINE
  5
500
100
AcDbEntity
  8
0
370
    35
390
0
 62
     7
 48
0.000179
100
AcDbLine
 10
24.174355
 20
81.863861
 30
0.0
 11
24.175438
 21
81.870926
 31
0.0
210
0.0
220
0.0
230
1.0
  0
LINE
  5
501
100
AcDbEntity
  8
0
370
    35
390
0
 62
     7
 48
0.000424
100
AcDbLine
 10
24.175438
 20
81.870926
 30
0.0
 11
24.165825
 21
81.884888
 31
0.0
210
0.0
220
0.0
230
1.0
  0
LINE
  5
502
100
AcDbEntity
  8
0
370
    35
390
0
 62
     7
 48
0.000709
100
AcDbLine
 10
24.165825
 20
81.884888
 30
0.0
 11
24.143951
 21
81.902954
 31
0.0
210
0.0
220
0.0
230
1.0
  0
LINE
  5
503
100
AcDbEntity
  8
0
370
    35
390
0
 62
     7
 48
0.000265
100
AcDbLine
 10
24.143951
 20
81.902954
 30
0.0
 11
24.13517
 21
81.908905
 31
0.0
210
0.0
220
0.0
230
1.0
  0
LINE
  5
504
100
AcDbEntity
  8
0
370
    35
390
0
 62
     7
 48
0.004301
100
AcDbLine
 10
23.96875
 20
81.90799
 30
0.0
 11
24.13517
 21
81.864334
 31
0.0
210
0.0
220
0.0
230
1.0
  0
LINE
  5
505
100
AcDbEntity
  8
0
370
    35
390
0
 62
     7
 48
0.079797
100
AcDbLine
 10
22.75
 20
82.451263
 30
0.0
 11
22.750008
 21
85.643143
 31
0.0
210
0.0
220
0.0
230
1.0
  0
LINE
  5
506
100
AcDbEntity
  8
0
370
    35
390
0
 62
     7
 48
0.005203
100
AcDbLine
 10
22.75
 20
82.243149
 30
0.0
 11
22.75
 21
82.451263
 31
0.0
210
0.0
220
0.0
230
1.0
  0
LINE
  5
507
100
AcDbEntity
  8
0
370
    35
390
0
 62
     7
100
AcDbLine
 10
206.960022
 20
90.733139
 30
0.0
 11
185.649994
 21
90.733139
 31
0.0
210
0.0
220
0.0
230
1.0
  0
LINE
  5
508
100
AcDbEntity
  8
0
370
    35
390
0
 62
     7
 48
0.005
100
AcDbLine
 10
189.649994
 20
85.143143
 30
0.0
 11
189.649994
 21
85.34314
 31
0.0
210
0.0
220
0.0
230
1.0
  0
LINE
  5
509
100
AcDbEntity
  8
0
370
    35
390
0
 62
     7
 48
0.005
100
AcDbLine
 10
191.649994
 20
85.143143
 30
0.0
 11
191.649994
 21
85.34314
 31
0.0
210
0.0
220
0.0
230
1.0
  0
LINE
  5
50A
100
AcDbEntity
  8
0
370
    35
390
0
 62
     7
 48
0.005
100
AcDbLine
 10
202.850006
 20
85.143143
 30
0.0
 11
202.850006
 21
85.34314
 31
0.0
210
0.0
220
0.0
230
1.0
  0
LINE
  5
50B
100
AcDbEntity
  8
0
370
    35
390
0
 62
     7
 48
0.005
100
AcDbLine
 10
204.850006
 20
85.143143
 30
0.0
 11
204.850006
 21
85.34314
 31
0.0
210
0.0
220
0.0
230
1.0
  0
ARC
  5
50C
100
AcDbEntity
  8
0
370
    35
390
0
 62
     7
100
AcDbCircle
 10
189.950012
 20
85.34314
 30
0.0
 40
0.3
210
0.0
220
0.0
230
1.0
100
AcDbArc
 50
90.013485
 51
180.000009
  0
ARC
  5
50D
100
AcDbEntity
  8
0
370
    35
390
0
 62
     7
100
AcDbCircle
 10
191.350006
 20
85.34314
 30
0.0
 40
0.3
210
0.0
220
0.0
230
1.0
100
AcDbArc
 50
0.0
 51
89.994354
  0
ARC
  5
50E
100
AcDbEntity
  8
0
370
    35
390
0
 62
     7
100
AcDbCircle
 10
203.150024
 20
85.34314
 30
0.0
 40
0.3
210
0.0
220
0.0
230
1.0
100
AcDbArc
 50
90.013485
 51
180.000009
  0
ARC
  5
50F
100
AcDbEntity
  8
0
370
    35
390
0
 62
     7
100
AcDbCircle
 10
204.550018
 20
85.34314
 30
0.0
 40
0.3
210
0.0
220
0.0
230
1.0
100
AcDbArc
 50
0.0
 51
89.994354
  0
LINE
  5
510
100
AcDbEntity
  8
0
370
    35
390
0
 62
     7
 48
0.1
100
AcDbLine
 10
205.75
 20
76.843155
 30
0.0
 11
205.75
 21
72.843155
 31
0.0
210
0.0
220
0.0
230
1.0
  0
LINE
  5
511
100
AcDbEntity
  8
0
370
    35
390
0
 62
     7
 48
0.205
100
AcDbLine
 10
185.649994
 20
76.843155
 30
0.0
 11
185.649994
 21
68.643143
 31
0.0
210
0.0
220
0.0
230
1.0
  0
LINE
  5
512
100
AcDbEntity
  8
0
370
    35
390
0
 62
     7
100
AcDbLine
 10
140.049988
 20
89.943146
 30
0.0
 11
182.649994
 21
89.943146
 31
0.0
210
0.0
220
0.0
230
1.0
  0
LINE
  5
513
100
AcDbEntity
  8
0
370
    35
390
0
 62
     7
100
AcDbLine
 10
140.049988
 20
77.943146
 30
0.0
 11
182.649994
 21
77.943146
 31
0.0
210
0.0
220
0.0
230
1.0
  0
ARC
  5
514
100
AcDbEntity
  8
0
370
    35
390
0
 62
     7
100
AcDbCircle
 10
197.549988
 20
72.543152
 30
0.0
 40
0.3
210
0.0
220
0.0
230
1.0
100
AcDbArc
 50
90.000003
 51
180.000009
  0
LINE
  5
515
100
AcDbEntity
  8
0
370
    35
390
0
 62
     7
 48
0.0975
100
AcDbLine
 10
197.25
 20
72.543152
 30
0.0
 11
197.25
 21
68.643143
 31
0.0
210
0.0
220
0.0
230
1.0
  0
LINE
  5
516
100
AcDbEntity
  8
0
370
    35
390
0
 62
     7
 48
0.0375
100
AcDbLine
 10
197.25
 20
68.643143
 30
0.0
 11
197.25
 21
67.143143
 31
0.0
210
0.0
220
0.0
230
1.0
  0
LINE
  5
517
100
AcDbEntity
  8
0
370
    35
390
0
 62
     7
 48
0.0375
100
AcDbLine
 10
185.649994
 20
68.643143
 30
0.0
 11
185.649994
 21
67.143143
 31
0.0
210
0.0
220
0.0
230
1.0
  0
LINE
  5
518
100
AcDbEntity
  8
0
370
    35
390
0
 62
     7
 48
0.015
100
AcDbLine
 10
198.25
 20
72.843155
 30
0.0
 11
198.25
 21
72.243149
 31
0.0
210
0.0
220
0.0
230
1.0
  0
LINE
  5
519
100
AcDbEntity
  8
0
370
    35
390
0
 62
     7
 48
0.015
100
AcDbLine
 10
205.25
 20
72.843155
 30
0.0
 11
205.25
 21
72.243149
 31
0.0
210
0.0
220
0.0
230
1.0
  0
ARC
  5
51A
100
AcDbEntity
  8
0
370
    35
390
0
 62
     7
100
AcDbCircle
 10
196.749817
 20
67.143265
 30
0.0
 40
0.500187
210
0.0
220
0.0
230
1.0
100
AcDbArc
 50
268.664504
 51
359.987005
  0
ARC
  5
51B
100
AcDbEntity
  8
0
370
    35
390
0
 62
     7
100
AcDbCircle
 10
186.149994
 20
67.143143
 30
0.0
 40
0.5
210
0.0
220
0.0
230
1.0
100
AcDbArc
 50
179.999991
 51
269.999997
  0
LINE
  5
51C
100
AcDbEntity
  8
0
370
    35
390
0
 62
     7
 48
0.0125
100
AcDbLine
 10
139.549988
 20
89.743149
 30
0.0
 11
140.049988
 21
89.743149
 31
0.0
210
0.0
220
0.0
230
1.0
  0
LINE
  5
51D
100
AcDbEntity
  8
0
370
    35
390
0
 62
     7
 48
0.0125
100
AcDbLine
 10
139.549988
 20
78.143143
 30
0.0
 11
140.049988
 21
78.143143
 31
0.0
210
0.0
220
0.0
230
1.0
  0
LINE
  5
51E
100
AcDbEntity
  8
0
370
    35
390
0
 62
     7
 48
0.005
100
AcDbLine
 10
188.0
 20
66.643143
 30
0.0
 11
188.0
 21
66.443146
 31
0.0
210
0.0
220
0.0
230
1.0
  0
LINE
  5
51F
100
AcDbEntity
  8
0
370
    35
390
0
 62
     7
 48
0.005
100
AcDbLine
 10
194.899994
 20
66.643143
 30
0.0
 11
194.899994
 21
66.443146
 31
0.0
210
0.0
220
0.0
230
1.0
  0
LINE
  5
520
100
AcDbEntity
  8
0
370
    35
390
0
 62
     7
 48
0.05
100
AcDbLine
 10
137.549988
 20
89.943146
 30
0.0
 11
139.549988
 21
89.943146
 31
0.0
210
0.0
220
0.0
230
1.0
  0
LINE
  5
521
100
AcDbEntity
  8
0
370
    35
390
0
 62
     7
 48
0.05
100
AcDbLine
 10
137.549988
 20
77.943146
 30
0.0
 11
139.549988
 21
77.943146
 31
0.0
210
0.0
220
0.0
230
1.0
  0
LINE
  5
522
100
AcDbEntity
  8
0
370
    35
390
0
 62
     7
 48
0.2375
100
AcDbLine
 10
188.475006
 20
56.943153
 30
0.0
 11
188.475006
 21
66.443146
 31
0.0
210
0.0
220
0.0
230
1.0
  0
LINE
  5
523
100
AcDbEntity
  8
0
370
    35
390
0
 62
     7
 48
0.2375
100
AcDbLine
 10
194.424988
 20
56.943153
 30
0.0
 11
194.424988
 21
66.443146
 31
0.0
210
0.0
220
0.0
230
1.0
  0
LINE
  5
524
100
AcDbEntity
  8
0
370
    35
390
0
 62
     7
 48
0.025
100
AcDbLine
 10
136.549988
 20
89.743149
 30
0.0
 11
137.549988
 21
89.743149
 31
0.0
210
0.0
220
0.0
230
1.0
  0
LINE
  5
525
100
AcDbEntity
  8
0
370
    35
390
0
 62
     7
 48
0.025
100
AcDbLine
 10
136.549988
 20
78.143143
 30
0.0
 11
137.549988
 21
78.143143
 31
0.0
210
0.0
220
0.0
230
1.0
  0
LINE
  5
526
100
AcDbEntity
  8
0
370
    35
390
0
 62
     7
 48
0.027951
100
AcDbLine
 10
204.25
 20
72.243149
 30
0.0
 11
205.350006
 21
72.043152
 31
0.0
210
0.0
220
0.0
230
1.0
  0
LINE
  5
527
100
AcDbEntity
  8
0
370
    35
390
0
 62
     7
 48
0.027951
100
AcDbLine
 10
199.25
 20
72.243149
 30
0.0
 11
198.149994
 21
72.043152
 31
0.0
210
0.0
220
0.0
230
1.0
  0
LINE
  5
528
100
AcDbEntity
  8
0
370
    35
390
0
 62
     7
 48
0.085
100
AcDbLine
 10
205.350006
 20
72.043152
 30
0.0
 11
205.350006
 21
68.643143
 31
0.0
210
0.0
220
0.0
230
1.0
  0
LINE
  5
529
100
AcDbEntity
  8
0
370
    35
390
0
 62
     7
 48
0.085
100
AcDbLine
 10
198.149994
 20
72.043152
 30
0.0
 11
198.149994
 21
68.643143
 31
0.0
210
0.0
220
0.0
230
1.0
  0
LINE
  5
52A
100
AcDbEntity
  8
0
370
    35
390
0
 62
     7
 48
0.15
100
AcDbLine
 10
189.049988
 20
56.943153
 30
0.0
 11
189.049988
 21
50.943153
 31
0.0
210
0.0
220
0.0
230
1.0
  0
LINE
  5
52B
100
AcDbEntity
  8
0
370
    35
390
0
 62
     7
 48
0.15
100
AcDbLine
 10
193.850006
 20
56.943153
 30
0.0
 11
193.850006
 21
50.943153
 31
0.0
210
0.0
220
0.0
230
1.0
  0
LINE
  5
52C
100
AcDbEntity
  8
0
370
    35
390
0
 62
     7
100
AcDbLine
 10
110.050003
 20
89.943146
 30
0.0
 11
136.549988
 21
89.943146
 31
0.0
210
0.0
220
0.0
230
1.0
  0
LINE
  5
52D
100
AcDbEntity
  8
0
370
    35
390
0
 62
     7
100
AcDbLine
 10
110.050003
 20
77.943146
 30
0.0
 11
136.549988
 21
77.943146
 31
0.0
210
0.0
220
0.0
230
1.0
  0
LINE
  5
52E
100
AcDbEntity
  8
0
370
    35
390
0
 62
     7
 48
0.2125
100
AcDbLine
 10
197.75
 20
68.643143
 30
0.0
 11
197.75
 21
60.14315
 31
0.0
210
0.0
220
0.0
230
1.0
  0
LINE
  5
52F
100
AcDbEntity
  8
0
370
    35
390
0
 62
     7
 48
0.2125
100
AcDbLine
 10
205.75
 20
68.643143
 30
0.0
 11
205.75
 21
60.14315
 31
0.0
210
0.0
220
0.0
230
1.0
  0
ARC
  5
530
100
AcDbEntity
  8
0
370
    35
390
0
 62
     7
100
AcDbCircle
 10
109.950012
 20
89.84314
 30
0.0
 40
0.1
210
0.0
220
0.0
230
1.0
100
AcDbArc
 50
0.000002
 51
90.000003
  0
LINE
  5
531
100
AcDbEntity
  8
0
370
    35
390
0
 62
     7
 48
0.000507
100
AcDbLine
 10
109.92984
 20
89.941086
 30
0.0
 11
109.950012
 21
89.943146
 31
0.0
210
0.0
220
0.0
230
1.0
  0
ARC
  5
532
100
AcDbEntity
  8
0
370
    35
390
0
 62
     7
100
AcDbCircle
 10
109.949997
 20
78.043152
 30
0.0
 40
0.1
210
0.0
220
0.0
230
1.0
100
AcDbArc
 50
269.999997
 51
0.00001
  0
LINE
  5
533
100
AcDbEntity
  8
0
370
    35
390
0
 62
     7
 48
0.000507
100
AcDbLine
 10
109.929825
 20
77.945206
 30
0.0
 11
109.949997
 21
77.943146
 31
0.0
210
0.0
220
0.0
230
1.0
  0
LINE
  5
534
100
AcDbEntity
  8
0
370
    35
390
0
 62
     7
 48
0.02
100
AcDbLine
 10
197.75
 20
60.14315
 30
0.0
 11
197.75
 21
59.343155
 31
0.0
210
0.0
220
0.0
230
1.0
  0
LINE
  5
535
100
AcDbEntity
  8
0
370
    35
390
0
 62
     7
 48
0.02
100
AcDbLine
 10
205.75
 20
60.14315
 30
0.0
 11
205.75
 21
59.343155
 31
0.0
210
0.0
220
0.0
230
1.0
  0
LINE
  5
536
100
AcDbEntity
  8
0
370
    35
390
0
 62
     7
 48
0.069432
100
AcDbLine
 10
107.209656
 20
89.380875
 30
0.0
 11
109.92984
 21
89.941086
 31
0.0
210
0.0
220
0.0
230
1.0
  0
LINE
  5
537
100
AcDbEntity
  8
0
370
    35
390
0
 62
     7
 48
0.069432
100
AcDbLine
 10
107.209656
 20
78.505432
 30
0.0
 11
109.929825
 21
77.945206
 31
0.0
210
0.0
220
0.0
230
1.0
  0
ARC
  5
538
100
AcDbEntity
  8
0
370
    35
390
0
 62
     7
100
AcDbCircle
 10
107.25
 20
89.184982
 30
0.0
 40
0.2
210
0.0
220
0.0
230
1.0
100
AcDbArc
 50
101.637395
 51
180.000009
  0
ARC
  5
539
100
AcDbEntity
  8
0
370
    35
390
0
 62
     7
100
AcDbCircle
 10
107.25
 20
78.701309
 30
0.0
 40
0.2
210
0.0
220
0.0
230
1.0
100
AcDbArc
 50
179.999991
 51
258.362619
  0
ARC
  5
53A
100
AcDbEntity
  8
0
370
    35
390
0
 62
     7
100
AcDbCircle
 10
106.550003
 20
79.443146
 30
0.0
 40
0.5
210
0.0
220
0.0
230
1.0
100
AcDbArc
 50
0.0
 51
90.000003
  0
ARC
  5
53B
100
AcDbEntity
  8
0
370
    35
390
0
 62
     7
100
AcDbCircle
 10
106.550003
 20
88.443146
 30
0.0
 40
0.5
210
0.0
220
0.0
230
1.0
100
AcDbArc
 50
269.999997
 51
360.0
  0
LINE
  5
53C
100
AcDbEntity
  8
0
370
    35
390
0
 62
     7
100
AcDbLine
 10
64.550003
 20
79.943146
 30
0.0
 11
106.550003
 21
79.943146
 31
0.0
210
0.0
220
0.0
230
1.0
  0
LINE
  5
53D
100
AcDbEntity
  8
0
370
    35
390
0
 62
     7
100
AcDbLine
 10
64.550003
 20
87.943146
 30
0.0
 11
106.550003
 21
87.943146
 31
0.0
210
0.0
220
0.0
230
1.0
  0
LINE
  5
53E
100
AcDbEntity
  8
0
370
    35
390
0
 62
     7
 48
0.020502
100
AcDbLine
 10
64.050003
 20
80.593155
 30
0.0
 11
64.550003
 21
79.943146
 31
0.0
210
0.0
220
0.0
230
1.0
  0
LINE
  5
53F
100
AcDbEntity
  8
0
370
    35
390
0
 62
     7
 48
0.020501
100
AcDbLine
 10
64.050003
 20
87.293152
 30
0.0
 11
64.550003
 21
87.943146
 31
0.0
210
0.0
220
0.0
230
1.0
  0
LINE
  5
540
100
AcDbEntity
  8
0
370
    35
390
0
 62
     7
 48
0.03
100
AcDbLine
 10
62.850006
 20
86.943146
 30
0.0
 11
64.050003
 21
86.943146
 31
0.0
210
0.0
220
0.0
230
1.0
  0
LINE
  5
541
100
AcDbEntity
  8
0
370
    35
390
0
 62
     7
 48
0.03
100
AcDbLine
 10
62.850006
 20
80.943146
 30
0.0
 11
64.050003
 21
80.943146
 31
0.0
210
0.0
220
0.0
230
1.0
  0
LINE
  5
542
100
AcDbEntity
  8
0
370
    35
390
0
 62
     7
 48
0.03
100
AcDbLine
 10
204.25
 20
58.14315
 30
0.0
 11
204.25
 21
59.343147
 31
0.0
210
0.0
220
0.0
230
1.0
  0
LINE
  5
543
100
AcDbEntity
  8
0
370
    35
390
0
 62
     7
 48
0.03
100
AcDbLine
 10
199.25
 20
58.14315
 30
0.0
 11
199.25
 21
59.343147
 31
0.0
210
0.0
220
0.0
230
1.0
  0
LINE
  5
544
100
AcDbEntity
  8
0
370
    35
390
0
 62
     7
 48
0.0325
100
AcDbLine
 10
61.550003
 20
87.168152
 30
0.0
 11
62.850006
 21
87.168152
 31
0.0
210
0.0
220
0.0
230
1.0
  0
LINE
  5
545
100
AcDbEntity
  8
0
370
    35
390
0
 62
     7
 48
0.0325
100
AcDbLine
 10
61.550003
 20
80.718155
 30
0.0
 11
62.850006
 21
80.718155
 31
0.0
210
0.0
220
0.0
230
1.0
  0
LINE
  5
546
100
AcDbEntity
  8
0
370
    35
390
0
 62
     7
 48
0.0325
100
AcDbLine
 10
197.75
 20
58.14315
 30
0.0
 11
197.75
 21
56.843155
 31
0.0
210
0.0
220
0.0
230
1.0
  0
LINE
  5
547
100
AcDbEntity
  8
0
370
    35
390
0
 62
     7
 48
0.0325
100
AcDbLine
 10
205.75
 20
58.14315
 30
0.0
 11
205.75
 21
56.843155
 31
0.0
210
0.0
220
0.0
230
1.0
  0
LINE
  5
548
100
AcDbEntity
  8
0
370
    35
390
0
 62
     7
 48
0.007071
100
AcDbLine
 10
61.350006
 20
86.96814
 30
0.0
 11
61.550003
 21
87.168152
 31
0.0
210
0.0
220
0.0
230
1.0
  0
LINE
  5
549
100
AcDbEntity
  8
0
370
    35
390
0
 62
     7
 48
0.007071
100
AcDbLine
 10
61.350006
 20
80.918152
 30
0.0
 11
61.550003
 21
80.718155
 31
0.0
210
0.0
220
0.0
230
1.0
  0
ARC
  5
54A
100
AcDbEntity
  8
0
370
    35
390
0
 62
     7
100
AcDbCircle
 10
197.949982
 20
56.843155
 30
0.0
 40
0.2
210
0.0
220
0.0
230
1.0
100
AcDbArc
 50
179.999991
 51
269.999997
  0
ARC
  5
54B
100
AcDbEntity
  8
0
370
    35
390
0
 62
     7
100
AcDbCircle
 10
205.549988
 20
56.843155
 30
0.0
 40
0.2
210
0.0
220
0.0
230
1.0
100
AcDbArc
 50
269.999997
 51
0.00001
  0
LINE
  5
54C
100
AcDbEntity
  8
0
370
    35
390
0
 62
     7
 48
0.095
100
AcDbLine
 10
199.75
 20
52.843155
 30
0.0
 11
199.75
 21
56.64315
 31
0.0
210
0.0
220
0.0
230
1.0
  0
LINE
  5
54D
100
AcDbEntity
  8
0
370
    35
390
0
 62
     7
 48
0.095
100
AcDbLine
 10
203.75
 20
52.843155
 30
0.0
 11
203.75
 21
56.64315
 31
0.0
210
0.0
220
0.0
230
1.0
  0
LINE
  5
54E
100
AcDbEntity
  8
0
370
    35
390
0
 62
     7
 48
0.037165
100
AcDbLine
 10
199.75
 20
52.843155
 30
0.0
 11
198.75
 21
51.743149
 31
0.0
210
0.0
220
0.0
230
1.0
  0
LINE
  5
54F
100
AcDbEntity
  8
0
370
    35
390
0
 62
     7
 48
0.037165
100
AcDbLine
 10
203.75
 20
52.843155
 30
0.0
 11
204.75
 21
51.743149
 31
0.0
210
0.0
220
0.0
230
1.0
  0
LINE
  5
550
100
AcDbEntity
  8
0
370
    35
390
0
 62
     7
 48
0.21
100
AcDbLine
 10
198.75
 20
43.343155
 30
0.0
 11
198.75
 21
51.743149
 31
0.0
210
0.0
220
0.0
230
1.0
  0
LINE
  5
551
100
AcDbEntity
  8
0
370
    35
390
0
 62
     7
 48
0.21
100
AcDbLine
 10
204.75
 20
43.343155
 30
0.0
 11
204.75
 21
51.743149
 31
0.0
210
0.0
220
0.0
230
1.0
  0
LINE
  5
552
100
AcDbEntity
  8
0
370
    35
390
0
 62
     7
 48
0.017678
100
AcDbLine
 10
199.25
 20
42.843155
 30
0.0
 11
198.75
 21
43.343155
 31
0.0
210
0.0
220
0.0
230
1.0
  0
LINE
  5
553
100
AcDbEntity
  8
0
370
    35
390
0
 62
     7
 48
0.017678
100
AcDbLine
 10
204.25
 20
42.843155
 30
0.0
 11
204.75
 21
43.343155
 31
0.0
210
0.0
220
0.0
230
1.0
  0
LINE
  5
554
100
AcDbEntity
  8
0
370
    35
390
0
 62
     7
100
AcDbLine
 10
28.550003
 20
81.943146
 30
0.0
 11
61.350006
 21
81.943146
 31
0.0
210
0.0
220
0.0
230
1.0
  0
LINE
  5
555
100
AcDbEntity
  8
0
370
    35
390
0
 62
     7
 48
0.007071
100
AcDbLine
 10
28.349998
 20
82.143143
 30
0.0
 11
28.550003
 21
81.943146
 31
0.0
210
0.0
220
0.0
230
1.0
  0
LINE
  5
556
100
AcDbEntity
  8
0
370
    35
390
0
 62
     7
 48
0.007071
100
AcDbLine
 10
28.350006
 20
85.743149
 30
0.0
 11
28.550003
 21
85.943146
 31
0.0
210
0.0
220
0.0
230
1.0
  0
LINE
  5
557
100
AcDbEntity
  8
0
370
    35
390
0
 62
     7
 48
0.015
100
AcDbLine
 10
27.750008
 20
86.543152
 30
0.0
 11
28.350006
 21
86.543152
 31
0.0
210
0.0
220
0.0
230
1.0
  0
LINE
  5
558
100
AcDbEntity
  8
0
370
    35
390
0
 62
     7
 48
0.00531
100
AcDbLine
 10
27.75
 20
81.743149
 30
0.0
 11
27.599815
 21
81.592972
 31
0.0
210
0.0
220
0.0
230
1.0
  0
LINE
  5
559
100
AcDbEntity
  8
0
370
    35
390
0
 62
     7
 48
0.005307
100
AcDbLine
 10
27.750008
 20
86.143143
 30
0.0
 11
27.599915
 21
86.293243
 31
0.0
210
0.0
220
0.0
230
1.0
  0
LINE
  5
55A
100
AcDbEntity
  8
0
370
    35
390
0
 62
     7
 48
0.083262
100
AcDbLine
 10
24.164215
 20
81.755035
 30
0.0
 11
27.494705
 21
81.755035
 31
0.0
210
0.0
220
0.0
230
1.0
  0
LINE
  5
55B
100
AcDbEntity
  8
0
370
    35
390
0
 62
     7
 48
0.083113
100
AcDbLine
 10
24.168457
 20
81.666153
 30
0.0
 11
27.492996
 21
81.666153
 31
0.0
210
0.0
220
0.0
230
1.0
  0
LINE
  5
55C
100
AcDbEntity
  8
0
370
    35
390
0
 62
     7
 48
0.083008
100
AcDbLine
 10
24.171364
 20
81.594238
 30
0.0
 11
27.491699
 21
81.594238
 31
0.0
210
0.0
220
0.0
230
1.0
  0
LINE
  5
55D
100
AcDbEntity
  8
0
370
    35
390
0
 62
     7
 48
0.08293
100
AcDbLine
 10
24.173607
 20
81.53981
 30
0.0
 11
27.490822
 21
81.539932
 31
0.0
210
0.0
220
0.0
230
1.0
  0
LINE
  5
55E
100
AcDbEntity
  8
0
370
    35
390
0
 62
     7
 48
0.082875
100
AcDbLine
 10
24.175186
 20
81.503296
 30
0.0
 11
27.490181
 21
81.503296
 31
0.0
210
0.0
220
0.0
230
1.0
  0
LINE
  5
55F
100
AcDbEntity
  8
0
370
    35
390
0
 62
     7
 48
0.082852
100
AcDbLine
 10
24.175858
 20
81.48497
 30
0.0
 11
27.489937
 21
81.48497
 31
0.0
210
0.0
220
0.0
230
1.0
  0
LINE
  5
560
100
AcDbEntity
  8
0
370
    35
390
0
 62
     7
 48
0.082851
100
AcDbLine
 10
24.175865
 20
81.48497
 30
0.0
 11
27.489906
 21
81.48497
 31
0.0
210
0.0
220
0.0
230
1.0
  0
LINE
  5
561
100
AcDbEntity
  8
0
370
    35
390
0
 62
     7
 48
0.082851
100
AcDbLine
 10
24.175873
 20
86.401337
 30
0.0
 11
27.489906
 21
86.401337
 31
0.0
210
0.0
220
0.0
230
1.0
  0
LINE
  5
562
100
AcDbEntity
  8
0
370
    35
390
0
 62
     7
 48
0.082851
100
AcDbLine
 10
24.175865
 20
86.401337
 30
0.0
 11
27.489906
 21
86.401337
 31
0.0
210
0.0
220
0.0
230
1.0
  0
LINE
  5
563
100
AcDbEntity
  8
0
370
    35
390
0
 62
     7
 48
0.082875
100
AcDbLine
 10
24.175201
 20
86.382996
 30
0.0
 11
27.490204
 21
86.382996
 31
0.0
210
0.0
220
0.0
230
1.0
  0
LINE
  5
564
100
AcDbEntity
  8
0
370
    35
390
0
 62
     7
 48
0.082927
100
AcDbLine
 10
24.173729
 20
86.346481
 30
0.0
 11
27.490814
 21
86.346313
 31
0.0
210
0.0
220
0.0
230
1.0
  0
LINE
  5
565
100
AcDbEntity
  8
0
370
    35
390
0
 62
     7
 48
0.083002
100
AcDbLine
 10
24.171669
 20
86.292053
 30
0.0
 11
27.49173
 21
86.292053
 31
0.0
210
0.0
220
0.0
230
1.0
  0
LINE
  5
566
100
AcDbEntity
  8
0
370
    35
390
0
 62
     7
 48
0.083088
100
AcDbLine
 10
24.169487
 20
86.220123
 30
0.0
 11
27.493027
 21
86.220139
 31
0.0
210
0.0
220
0.0
230
1.0
  0
LINE
  5
567
100
AcDbEntity
  8
0
370
    35
390
0
 62
     7
 48
0.083252
100
AcDbLine
 10
24.164665
 20
86.131256
 30
0.0
 11
27.494736
 21
86.131271
 31
0.0
210
0.0
220
0.0
230
1.0
  0
LINE
  5
568
100
AcDbEntity
  8
0
370
    35
390
0
 62
     7
 48
0.083385
100
AcDbLine
 10
24.161484
 20
86.026123
 30
0.0
 11
27.496864
 21
86.026123
 31
0.0
210
0.0
220
0.0
230
1.0
  0
LINE
  5
569
100
AcDbEntity
  8
0
370
    35
390
0
 62
     7
 48
0.083563
100
AcDbLine
 10
24.156868
 20
85.905502
 30
0.0
 11
27.49939
 21
85.905502
 31
0.0
210
0.0
220
0.0
230
1.0
  0
LINE
  5
56A
100
AcDbEntity
  8
0
370
    35
390
0
 62
     7
 48
0.083766
100
AcDbLine
 10
24.151604
 20
85.77034
 30
0.0
 11
27.502251
 21
85.77034
 31
0.0
210
0.0
220
0.0
230
1.0
  0
LINE
  5
56B
100
AcDbEntity
  8
0
370
    35
390
0
 62
     7
 48
0.083985
100
AcDbLine
 10
24.146004
 20
85.621643
 30
0.0
 11
27.505386
 21
85.621643
 31
0.0
210
0.0
220
0.0
230
1.0
  0
LINE
  5
56C
100
AcDbEntity
  8
0
370
    35
390
0
 62
     7
 48
0.084223
100
AcDbLine
 10
24.139824
 20
85.460556
 30
0.0
 11
27.508751
 21
85.460556
 31
0.0
210
0.0
220
0.0
230
1.0
  0
LINE
  5
56D
100
AcDbEntity
  8
0
370
    35
390
0
 62
     7
 48
0.084223
100
AcDbLine
 10
24.139816
 20
82.425751
 30
0.0
 11
27.508743
 21
82.425751
 31
0.0
210
0.0
220
0.0
230
1.0
  0
LINE
  5
56E
100
AcDbEntity
  8
0
370
    35
390
0
 62
     7
 48
0.083986
100
AcDbLine
 10
24.14595
 20
82.264648
 30
0.0
 11
27.505386
 21
82.264648
 31
0.0
210
0.0
220
0.0
230
1.0
  0
LINE
  5
56F
100
AcDbEntity
  8
0
370
    35
390
0
 62
     7
 48
0.083768
100
AcDbLine
 10
24.151535
 20
82.115952
 30
0.0
 11
27.502243
 21
82.115952
 31
0.0
210
0.0
220
0.0
230
1.0
  0
LINE
  5
570
100
AcDbEntity
  8
0
370
    35
390
0
 62
     7
 48
0.08357
100
AcDbLine
 10
24.15657
 20
81.980789
 30
0.0
 11
27.499382
 21
81.980789
 31
0.0
210
0.0
220
0.0
230
1.0
  0
LINE
  5
571
100
AcDbEntity
  8
0
370
    35
390
0
 62
     7
 48
0.083395
100
AcDbLine
 10
24.161049
 20
81.860168
 30
0.0
 11
27.496857
 21
81.860168
 31
0.0
210
0.0
220
0.0
230
1.0
  0
LINE
  5
572
100
AcDbEntity
  8
0
370
    35
390
0
 62
     7
 48
0.034542
100
AcDbLine
 10
22.750008
 20
85.643143
 30
0.0
 11
23.969131
 21
86.29335
 31
0.0
210
0.0
220
0.0
230
1.0
  0
LINE
  5
573
100
AcDbEntity
  8
0
370
    35
390
0
 62
     7
 48
0.034542
100
AcDbLine
 10
22.75
 20
82.243149
 30
0.0
 11
23.969124
 21
81.592957
 31
0.0
210
0.0
220
0.0
230
1.0
  0
ARC
  5
574
100
AcDbEntity
  8
0
370
    35
390
0
 62
     7
100
AcDbCircle
 10
23.25
 20
83.943146
 30
0.0
 40
1.5
210
0.0
220
0.0
230
1.0
100
AcDbArc
 50
109.471219
 51
180.000009
  0
ARC
  5
575
100
AcDbEntity
  8
0
370
    35
390
0
 62
     7
100
AcDbCircle
 10
23.25
 20
83.943146
 30
0.0
 40
1.5
210
0.0
220
0.0
230
1.0
100
AcDbArc
 50
179.999991
 51
250.528767
  0
ENDSEC
  0
SECTION
  2
OBJECTS
  0
DICTIONARY
  5
19
100
AcDbDictionary
280
     0
281
     1
  3
ACAD_GROUP
350
1A
  3
ACAD_MLINESTYLE
350
1B
  3
ACAD_LAYOUT
350
1E
  3
ACAD_PLOTSETTINGS
350
22
  3
ACAD_PLOTSTYLENAME
350
1F
  3
ACAD_WIPEOUT_VARS
350
23
  0
DICTIONARY
  5
1A
102
{ACAD_REACTORS
330
19
102
}
100
AcDbDictionary
280
     0
281
     1
  0
DICTIONARY
  5
1B
102
{ACAD_REACTORS
330
19
102
}
100
AcDbDictionary
280
     0
281
     1
  3
Standard
350
1C
  0
MLINESTYLE
  5
1C
102
{ACAD_REACTORS
330
1B
102
}
100
AcDbMlineStyle
  2
Standard
 70
     0
  3

 62
     0
 51
90.0
 52
90.0
 71
     2
 49
0.5
 62
   256
  6
ByLayer
 49
-0.5
 62
   256
  6
ByLayer
  0
ACDBDICTIONARYWDFLT
  5
1F
102
{ACAD_REACTORS
330
19
102
}
100
AcDbDictionary
281
     1
  3
Normal
350
1D
100
AcDbDictionaryWithDefault
340
1D
  0
ACDBPLACEHOLDER
  5
1D
102
{ACAD_REACTORS
330
1F
102
}
  0
LAYOUT
  5
20
102
{ACAD_REACTORS
330
1E
102
}
100
AcDbPlotSettings
  1

  2

  4

  6

 40
0.0
 41
0.0
 42
0.0
 43
0.0
 44
0.0
 45
0.0
 46
0.0
 47
0.0
 48
0.0
 49
0.0
140
0.0
141
0.0
142
1.0
143
1.0
 70
  1024
 72
     0
 73
     0
 74
     0
  7

 75
     0
147
1.0
148
0.0
149
0.0
100
AcDbLayout
  1
Model
 70
     0
 71
     0
 10
0.0
 20
0.0
 11
0.0
 21
0.0
 12
0.0
 22
0.0
 32
0.0
 14
0.0
 24
0.0
 34
0.0
 15
0.0
 25
0.0
 35
0.0
146
0.0
 13
0.0
 23
0.0
 33
0.0
 16
0.0
 26
0.0
 36
0.0
 17
0.0
 27
0.0
 37
0.0
 76
     0
330
A
331
0
345
0
346
0
  0
LAYOUT
  5
21
102
{ACAD_REACTORS
330
1E
102
}
100
AcDbPlotSettings
  1

  2

  4

  6

 40
0.0
 41
0.0
 42
0.0
 43
0.0
 44
0.0
 45
0.0
 46
0.0
 47
0.0
 48
0.0
 49
0.0
140
0.0
141
0.0
142
1.0
143
1.0
 70
     0
 72
     0
 73
     0
 74
     0
  7

 75
     0
147
1.0
148
0.0
149
0.0
100
AcDbLayout
  1
Layout1
 70
     0
 71
     0
 10
0.0
 20
0.0
 11
0.0
 21
0.0
 12
0.0
 22
0.0
 32
0.0
 14
0.0
 24
0.0
 34
0.0
 15
0.0
 25
0.0
 35
0.0
146
0.0
 13
0.0
 23
0.0
 33
0.0
 16
0.0
 26
0.0
 36
0.0
 17
0.0
 27
0.0
 37
0.0
 76
     0
330
B
331
0
345
0
346
0
  0
DICTIONARY
  5
1E
102
{ACAD_REACTORS
330
19
102
}
100
AcDbDictionary
280
     0
281
     1
  3
Layout1
350
21
  3
Model
350
20
  0
DICTIONARY
  5
22
102
{ACAD_REACTORS
330
19
102
}
100
AcDbDictionary
280
     0
281
     1
  0
WIPEOUTVARIABLES
  5
23
100
AcDbWipeoutVariables
 70
     1
  0
ENDSEC
  0
EOF
