  0
SECTION
  2
HEADER
  9
$ACADVER
  1
AC1014
  9
$ACADMAINTVER
 70
     9
  9
$DWGCODEPAGE
  3
ANSI_1252
  9
$INSBASE
 10
0.0
 20
0.0
 30
0.0
  9
$EXTMIN
 10
0.0
 20
0.0
 30
0.0
  9
$EXTMAX
 10
1202.807007
 20
491.099976
 30
2.0
  9
$LIMMIN
 10
0.0
 20
0.0
  9
$LIMMAX
 10
420.0
 20
297.0
  9
$ORTHOMODE
 70
     0
  9
$REGENMODE
 70
     1
  9
$FILLMODE
 70
     1
  9
$QTEXTMODE
 70
     0
  9
$MIRRTEXT
 70
     1
  9
$DRAGMODE
 70
     2
  9
$LTSCALE
 40
1.0
  9
$OSMODE
 70
     0
  9
$ATTMODE
 70
     1
  9
$TEXTSIZE
 40
2.5
  9
$TRACEWID
 40
1.0
  9
$TEXTSTYLE
  7
STANDARD
  9
$CLAYER
  8
0
  9
$CELTYPE
  6
BYLAYER
  9
$CECOLOR
 62
   256
  9
$CELTSCALE
 40
1.0
  9
$DELOBJ
 70
     1
  9
$DISPSILH
 70
     0
  9
$DIMSCALE
 40
1.0
  9
$DIMASZ
 40
2.5
  9
$DIMEXO
 40
0.625
  9
$DIMDLI
 40
3.75
  9
$DIMRND
 40
0.0
  9
$DIMDLE
 40
0.0
  9
$DIMEXE
 40
1.25
  9
$DIMTP
 40
0.0
  9
$DIMTM
 40
0.0
  9
$DIMTXT
 40
2.5
  9
$DIMCEN
 40
2.5
  9
$DIMTSZ
 40
0.0
  9
$DIMTOL
 70
     0
  9
$DIMLIM
 70
     0
  9
$DIMTIH
 70
     0
  9
$DIMTOH
 70
     0
  9
$DIMSE1
 70
     0
  9
$DIMSE2
 70
     0
  9
$DIMTAD
 70
     1
  9
$DIMZIN
 70
     8
  9
$DIMBLK
  1

  9
$DIMASO
 70
     1
  9
$DIMSHO
 70
     1
  9
$DIMPOST
  1

  9
$DIMAPOST
  1

  9
$DIMALT
 70
     0
  9
$DIMALTD
 70
     3
  9
$DIMALTF
 40
0.03937
  9
$DIMLFAC
 40
1.0
  9
$DIMTOFL
 70
     1
  9
$DIMTVP
 40
0.0
  9
$DIMTIX
 70
     0
  9
$DIMSOXD
 70
     0
  9
$DIMSAH
 70
     0
  9
$DIMBLK1
  1

  9
$DIMBLK2
  1

  9
$DIMSTYLE
  2
STANDARD
  9
$DIMCLRD
 70
     0
  9
$DIMCLRE
 70
     0
  9
$DIMCLRT
 70
     0
  9
$DIMTFAC
 40
1.0
  9
$DIMGAP
 40
0.625
  9
$DIMJUST
 70
     0
  9
$DIMSD1
 70
     0
  9
$DIMSD2
 70
     0
  9
$DIMTOLJ
 70
     0
  9
$DIMTZIN
 70
     8
  9
$DIMALTZ
 70
     0
  9
$DIMALTTZ
 70
     0
  9
$DIMFIT
 70
     0
  9
$DIMUPT
 70
     0
  9
$DIMUNIT
 70
     2
  9
$DIMDEC
 70
     2
  9
$DIMTDEC
 70
     2
  9
$DIMALTU
 70
     2
  9
$DIMALTTD
 70
     3
  9
$DIMTXSTY
  7
STANDARD
  9
$DIMAUNIT
 70
     0
  9
$LUNITS
 70
     2
  9
$LUPREC
 70
     4
  9
$SKETCHINC
 40
1.0
  9
$FILLETRAD
 40
2.5
  9
$AUNITS
 70
     0
  9
$AUPREC
 70
     0
  9
$MENU
  1
.
  9
$ELEVATION
 40
0.0
  9
$PELEVATION
 40
0.0
  9
$THICKNESS
 40
0.0
  9
$LIMCHECK
 70
     0
  9
$BLIPMODE
 70
     1
  9
$CHAMFERA
 40
2.5
  9
$CHAMFERB
 40
2.5
  9
$CHAMFERC
 40
0.0
  9
$CHAMFERD
 40
0.0
  9
$SKPOLY
 70
     0
  9
$TDCREATE
 40
2447893.375
  9
$TDUPDATE
 40
2460350.646468623
  9
$TDINDWG
 40
0.0
  9
$TDUSRTIMER
 40
0.0
  9
$USRTIMER
 70
     1
  9
$ANGBASE
 50
0.0
  9
$ANGDIR
 70
     0
  9
$PDMODE
 70
     0
  9
$PDSIZE
 40
0.0
  9
$PLINEWID
 40
0.0
  9
$COORDS
 70
     0
  9
$SPLFRAME
 70
     0
  9
$SPLINETYPE
 70
     6
  9
$SPLINESEGS
 70
     8
  9
$ATTDIA
 70
     0
  9
$ATTREQ
 70
     1
  9
$HANDLING
 70
     1
  9
$HANDSEED
  5
8F7
  9
$SURFTAB1
 70
     6
  9
$SURFTAB2
 70
     6
  9
$SURFTYPE
 70
     6
  9
$SURFU
 70
     6
  9
$SURFV
 70
     6
  9
$UCSNAME
  2

  9
$UCSORG
 10
0.0
 20
0.0
 30
0.0
  9
$UCSXDIR
 10
1.0
 20
0.0
 30
0.0
  9
$UCSYDIR
 10
0.0
 20
1.0
 30
0.0
  9
$PUCSNAME
  2

  9
$PUCSORG
 10
0.0
 20
0.0
 30
0.0
  9
$PUCSXDIR
 10
1.0
 20
0.0
 30
0.0
  9
$PUCSYDIR
 10
0.0
 20
1.0
 30
0.0
  9
$USERI1
 70
     0
  9
$USERI2
 70
     0
  9
$USERI3
 70
     0
  9
$USERI4
 70
     0
  9
$USERI5
 70
     0
  9
$USERR1
 40
0.0
  9
$USERR2
 40
0.0
  9
$USERR3
 40
0.0
  9
$USERR4
 40
0.0
  9
$USERR5
 40
0.0
  9
$WORLDVIEW
 70
     1
  9
$SHADEDGE
 70
     3
  9
$SHADEDIF
 70
    70
  9
$TILEMODE
 70
     1
  9
$MAXACTVP
 70
    64
  9
$PINSBASE
 10
0.0
 20
0.0
 30
0.0
  9
$PLIMCHECK
 70
     0
  9
$PEXTMIN
 10
0.0
 20
0.0
 30
0.0
  9
$PEXTMAX
 10
1202.807007
 20
491.099976
 30
2.0
  9
$PLIMMIN
 10
0.0
 20
0.0
  9
$PLIMMAX
 10
420.0
 20
297.0
  9
$UNITMODE
 70
     0
  9
$VISRETAIN
 70
     0
  9
$PLINEGEN
 70
     0
  9
$PSLTSCALE
 70
     1
  9
$TREEDEPTH
 70
  3020
  9
$PICKSTYLE
 70
     1
  9
$CMLSTYLE
  2
STANDARD
  9
$CMLJUST
 70
     0
  9
$CMLSCALE
 40
20.0
  9
$PROXYGRAPHICS
 70
     1
  9
$MEASUREMENT
 70
     1
  0
ENDSEC
  0
SECTION
  2
CLASSES
  0
CLASS
  1
ACDBDICTIONARYWDFLT
  2
AcDbDictionaryWithDefault
  3
ObjectDBX Classes
 90
        0
280
     0
281
     0
  0
CLASS
  1
VISUALSTYLE
  2
AcDbVisualStyle
  3
ObjectDBX Classes
 90
     4095
280
     0
281
     0
  0
CLASS
  1
MATERIAL
  2
AcDbMaterial
  3
ObjectDBX Classes
 90
     1153
280
     0
281
     0
  0
CLASS
  1
SCALE
  2
AcDbScale
  3
ObjectDBX Classes
 90
     1153
280
     0
281
     0
  0
CLASS
  1
SUN
  2
AcDbSun
  3
SCENEOE
 90
     1153
280
     0
281
     0
  0
CLASS
  1
XRECORD
  2
AcDbXrecord
  3
ObjectDBX Classes
 90
        0
280
     0
281
     0
  0
CLASS
  1
LWPOLYLINE
  2
AcDbPolyline
  3
ObjectDBX Classes
 90
        0
280
     0
281
     1
  0
CLASS
  1
HATCH
  2
AcDbHatch
  3
ObjectDBX Classes
 90
        0
280
     0
281
     1
  0
ENDSEC
  0
SECTION
  2
TABLES
  0
TABLE
  2
VPORT
  5
8
330
0
100
AcDbSymbolTable
 70
     1
  0
VPORT
  5
29
330
8
100
AcDbSymbolTableRecord
100
AcDbViewportTableRecord
  2
*ACTIVE
 70
     0
 10
0.0
 20
0.0
 11
1.0
 21
1.0
 12
10.429907
 22
4.5
 13
0.0
 23
0.0
 14
0.5
 24
0.5
 15
0.5
 25
0.5
 16
0.0
 26
0.0
 36
1.0
 17
0.0
 27
0.0
 37
0.0
 40
9.0
 41
1.972973
 42
50.0
 43
0.0
 44
0.0
 50
0.0
 51
0.0
 71
     0
 72
   100
 73
     1
 74
     3
 75
     0
 76
     0
 77
     0
 78
     0
  0
ENDTAB
  0
TABLE
  2
LTYPE
  5
5
330
0
100
AcDbSymbolTable
 70
     1
  0
LTYPE
  5
14
330
5
100
AcDbSymbolTableRecord
100
AcDbLinetypeTableRecord
  2
BYBLOCK
 70
     0
  3

 72
    65
 73
     0
 40
0.0
  0
LTYPE
  5
15
330
5
100
AcDbSymbolTableRecord
100
AcDbLinetypeTableRecord
  2
BYLAYER
 70
     0
  3

 72
    65
 73
     0
 40
0.0
  0
LTYPE
  5
16
330
5
100
AcDbSymbolTableRecord
100
AcDbLinetypeTableRecord
  2
CONTINUOUS
 70
     0
  3
Solid line
 72
    65
 73
     0
 40
0.0
  0
ENDTAB
  0
TABLE
  2
LAYER
  5
2
330
0
100
AcDbSymbolTable
 70
     1
  0
LAYER
  5
10
330
2
100
AcDbSymbolTableRecord
100
AcDbLayerTableRecord
  2
0
 70
     0
 62
     7
  6
CONTINUOUS
  0
ENDTAB
  0
TABLE
  2
STYLE
  5
3
330
0
100
AcDbSymbolTable
 70
     1
  0
STYLE
  5
11
330
3
100
AcDbSymbolTableRecord
100
AcDbTextStyleTableRecord
  2
STANDARD
 70
     0
 40
0.0
 41
1.0
 50
0.0
 71
     0
 42
2.5
  3
txt
  4

  0
ENDTAB
  0
TABLE
  2
VIEW
  5
6
330
0
100
AcDbSymbolTable
 70
     0
  0
ENDTAB
  0
TABLE
  2
UCS
  5
7
330
0
100
AcDbSymbolTable
 70
     0
  0
ENDTAB
  0
TABLE
  2
APPID
  5
9
330
0
100
AcDbSymbolTable
 70
     1
  0
APPID
  5
12
330
9
100
AcDbSymbolTableRecord
100
AcDbRegAppTableRecord
  2
ACAD
 70
     0
  0
ENDTAB
  0
TABLE
  2
DIMSTYLE
  5
A
330
0
100
AcDbSymbolTable
 70
     1
  0
DIMSTYLE
105
27
330
A
100
AcDbSymbolTableRecord
100
AcDbDimStyleTableRecord
  2
STANDARD
 70
     0
  3

  4

  5

  6

  7

 40
1.0
 41
0.18
 42
0.0625
 43
0.38
 44
0.18
 45
0.0
 46
0.0
 47
0.0
 48
0.0
140
0.18
141
0.09
142
0.0
143
25.4
144
1.0
145
0.0
146
1.0
147
0.09
 71
     0
 72
     0
 73
     1
 74
     1
 75
     0
 76
     0
 77
     0
 78
     0
170
     0
171
     2
172
     0
173
     0
174
     0
175
     0
176
     0
177
     0
178
     0
270
     2
271
     4
272
     4
273
     2
274
     2
340
11
275
     0
280
     0
281
     0
282
     0
283
     1
284
     0
285
     0
286
     0
287
     3
288
     0
  0
ENDTAB
  0
TABLE
  2
BLOCK_RECORD
  5
1
330
0
100
AcDbSymbolTable
 70
     1
  0
BLOCK_RECORD
  5
1F
330
1
100
AcDbSymbolTableRecord
100
AcDbBlockTableRecord
  2
*MODEL_SPACE
  0
BLOCK_RECORD
  5
1B
330
1
100
AcDbSymbolTableRecord
100
AcDbBlockTableRecord
  2
*PAPER_SPACE
  0
BLOCK_RECORD
  5
23
330
1
100
AcDbSymbolTableRecord
100
AcDbBlockTableRecord
  2
*PAPER_SPACE0
  0
ENDTAB
  0
ENDSEC
  0
SECTION
  2
BLOCKS
  0
BLOCK
  5
20
330
1F
100
AcDbEntity
  8
0
100
AcDbBlockBegin
  2
*MODEL_SPACE
 70
     0
 10
0.0
 20
0.0
 30
0.0
  3
*MODEL_SPACE
  1

  0
ENDBLK
  5
21
330
1F
100
AcDbEntity
  8
0
100
AcDbBlockEnd
  0
BLOCK
  5
1C
330
1B
100
AcDbEntity
 67
     1
  8
0
100
AcDbBlockBegin
  2
*PAPER_SPACE
 70
     0
 10
0.0
 20
0.0
 30
0.0
  3
*PAPER_SPACE
  1

  0
ENDBLK
  5
1D
330
1B
100
AcDbEntity
 67
     1
  8
0
100
AcDbBlockEnd
  0
BLOCK
  5
24
330
23
100
AcDbEntity
  8
0
100
AcDbBlockBegin
  2
*PAPER_SPACE0
 70
     0
 10
0.0
 20
0.0
 30
0.0
  3
*PAPER_SPACE0
  1
*PAPER_SPACE0
  0
ENDBLK
  5
25
330
23
100
AcDbEntity
  8
0
100
AcDbBlockEnd
  0
ENDSEC
  0
SECTION
  2
ENTITIES
  0
LINE
  5
6A
330
1F
100
AcDbEntity
  8
0
 62
     7
100
AcDbLine
 10
1200.307007
 20
452.599976
 30
0.0
 11
1200.307007
 21
465.700012
 31
0.0
  0
LINE
  5
6B
330
1F
100
AcDbEntity
  8
0
 62
     7
100
AcDbLine
 10
1200.307007
 20
465.700012
 30
0.0
 11
1197.988281
 21
465.700012
 31
0.0
  0
ARC
  5
6C
330
1F
100
AcDbEntity
  8
0
 62
     7
100
AcDbCircle
 10
1191.307007
 20
470.099976
 30
0.0
 40
8.0
100
AcDbArc
 50
213.367013
 51
326.632979
  0
LINE
  5
6D
330
1F
100
AcDbEntity
  8
0
 62
     7
100
AcDbLine
 10
1184.625732
 20
465.700012
 30
0.0
 11
1125.957031
 21
465.700012
 31
0.0
  0
LINE
  5
6E
330
1F
100
AcDbEntity
  8
0
 62
     7
100
AcDbLine
 10
1125.957031
 20
461.799988
 30
0.0
 11
1125.957031
 21
465.700012
 31
0.0
  0
ARC
  5
6F
330
1F
100
AcDbEntity
  8
0
 62
     7
100
AcDbCircle
 10
1125.457031
 20
461.799988
 30
0.0
 40
0.5
100
AcDbArc
 50
180.000009
 51
360.0
  0
LINE
  5
70
330
1F
100
AcDbEntity
  8
0
 62
     7
100
AcDbLine
 10
1124.957031
 20
465.700012
 30
0.0
 11
1124.957031
 21
461.799988
 31
0.0
  0
LINE
  5
71
330
1F
100
AcDbEntity
  8
0
 62
     7
100
AcDbLine
 10
1124.957031
 20
465.700012
 30
0.0
 11
1122.656982
 21
465.700012
 31
0.0
  0
LINE
  5
72
330
1F
100
AcDbEntity
  8
0
 62
     7
100
AcDbLine
 10
1122.656982
 20
461.799988
 30
0.0
 11
1122.656982
 21
465.700012
 31
0.0
  0
ARC
  5
73
330
1F
100
AcDbEntity
  8
0
 62
     7
100
AcDbCircle
 10
1122.156982
 20
461.799988
 30
0.0
 40
0.5
100
AcDbArc
 50
180.000009
 51
360.0
  0
LINE
  5
74
330
1F
100
AcDbEntity
  8
0
 62
     7
100
AcDbLine
 10
1121.656982
 20
465.700012
 30
0.0
 11
1121.656982
 21
461.799988
 31
0.0
  0
LINE
  5
75
330
1F
100
AcDbEntity
  8
0
 62
     7
100
AcDbLine
 10
1121.656982
 20
465.700012
 30
0.0
 11
825.956909
 21
465.700012
 31
0.0
  0
LINE
  5
76
330
1F
100
AcDbEntity
  8
0
 62
     7
100
AcDbLine
 10
825.956909
 20
461.799988
 30
0.0
 11
825.956909
 21
465.700012
 31
0.0
  0
ARC
  5
77
330
1F
100
AcDbEntity
  8
0
 62
     7
100
AcDbCircle
 10
825.456909
 20
461.799988
 30
0.0
 40
0.5
100
AcDbArc
 50
180.000009
 51
360.0
  0
LINE
  5
78
330
1F
100
AcDbEntity
  8
0
 62
     7
100
AcDbLine
 10
824.956909
 20
465.700012
 30
0.0
 11
824.956909
 21
461.799988
 31
0.0
  0
LINE
  5
79
330
1F
100
AcDbEntity
  8
0
 62
     7
100
AcDbLine
 10
824.956909
 20
465.700012
 30
0.0
 11
822.65686
 21
465.700012
 31
0.0
  0
LINE
  5
7A
330
1F
100
AcDbEntity
  8
0
 62
     7
100
AcDbLine
 10
822.65686
 20
461.799988
 30
0.0
 11
822.65686
 21
465.700012
 31
0.0
  0
ARC
  5
7B
330
1F
100
AcDbEntity
  8
0
 62
     7
100
AcDbCircle
 10
822.15686
 20
461.799988
 30
0.0
 40
0.5
100
AcDbArc
 50
180.000009
 51
360.0
  0
LINE
  5
7C
330
1F
100
AcDbEntity
  8
0
 62
     7
100
AcDbLine
 10
821.65686
 20
465.700012
 30
0.0
 11
821.65686
 21
461.799988
 31
0.0
  0
LINE
  5
7D
330
1F
100
AcDbEntity
  8
0
 62
     7
100
AcDbLine
 10
821.65686
 20
465.700012
 30
0.0
 11
525.956848
 21
465.700012
 31
0.0
  0
LINE
  5
7E
330
1F
100
AcDbEntity
  8
0
 62
     7
100
AcDbLine
 10
525.956848
 20
461.799988
 30
0.0
 11
525.956848
 21
465.700012
 31
0.0
  0
ARC
  5
7F
330
1F
100
AcDbEntity
  8
0
 62
     7
100
AcDbCircle
 10
525.456848
 20
461.799988
 30
0.0
 40
0.5
100
AcDbArc
 50
180.000009
 51
360.0
  0
LINE
  5
80
330
1F
100
AcDbEntity
  8
0
 62
     7
100
AcDbLine
 10
524.956848
 20
465.700012
 30
0.0
 11
524.956848
 21
461.799988
 31
0.0
  0
LINE
  5
81
330
1F
100
AcDbEntity
  8
0
 62
     7
100
AcDbLine
 10
524.956848
 20
465.700012
 30
0.0
 11
522.65686
 21
465.700012
 31
0.0
  0
LINE
  5
82
330
1F
100
AcDbEntity
  8
0
 62
     7
100
AcDbLine
 10
522.65686
 20
461.799988
 30
0.0
 11
522.65686
 21
465.700012
 31
0.0
  0
ARC
  5
83
330
1F
100
AcDbEntity
  8
0
 62
     7
100
AcDbCircle
 10
522.15686
 20
461.799988
 30
0.0
 40
0.5
100
AcDbArc
 50
180.000009
 51
360.0
  0
LINE
  5
84
330
1F
100
AcDbEntity
  8
0
 62
     7
100
AcDbLine
 10
521.65686
 20
465.700012
 30
0.0
 11
521.65686
 21
461.799988
 31
0.0
  0
LINE
  5
85
330
1F
100
AcDbEntity
  8
0
 62
     7
100
AcDbLine
 10
521.65686
 20
465.700012
 30
0.0
 11
225.956924
 21
465.700012
 31
0.0
  0
LINE
  5
86
330
1F
100
AcDbEntity
  8
0
 62
     7
100
AcDbLine
 10
225.956924
 20
461.799988
 30
0.0
 11
225.956924
 21
465.700012
 31
0.0
  0
ARC
  5
87
330
1F
100
AcDbEntity
  8
0
 62
     7
100
AcDbCircle
 10
225.456924
 20
461.799988
 30
0.0
 40
0.5
100
AcDbArc
 50
180.000009
 51
360.0
  0
LINE
  5
88
330
1F
100
AcDbEntity
  8
0
 62
     7
100
AcDbLine
 10
224.956924
 20
465.700012
 30
0.0
 11
224.956924
 21
461.799988
 31
0.0
  0
LINE
  5
89
330
1F
100
AcDbEntity
  8
0
 62
     7
100
AcDbLine
 10
224.956924
 20
465.700012
 30
0.0
 11
222.656937
 21
465.700012
 31
0.0
  0
LINE
  5
8A
330
1F
100
AcDbEntity
  8
0
 62
     7
100
AcDbLine
 10
222.656937
 20
461.799988
 30
0.0
 11
222.656937
 21
465.700012
 31
0.0
  0
ARC
  5
8B
330
1F
100
AcDbEntity
  8
0
 62
     7
100
AcDbCircle
 10
222.156937
 20
461.799988
 30
0.0
 40
0.5
100
AcDbArc
 50
180.000009
 51
360.0
  0
LINE
  5
8C
330
1F
100
AcDbEntity
  8
0
 62
     7
100
AcDbLine
 10
221.656937
 20
465.700012
 30
0.0
 11
221.656937
 21
461.799988
 31
0.0
  0
LINE
  5
8D
330
1F
100
AcDbEntity
  8
0
 62
     7
100
AcDbLine
 10
221.656937
 20
465.700012
 30
0.0
 11
162.988235
 21
465.700012
 31
0.0
  0
ARC
  5
8E
330
1F
100
AcDbEntity
  8
0
 62
     7
100
AcDbCircle
 10
156.306931
 20
470.099976
 30
0.0
 40
8.0
100
AcDbArc
 50
213.367013
 51
326.632979
  0
LINE
  5
8F
330
1F
100
AcDbEntity
  8
0
 62
     7
100
AcDbLine
 10
149.625595
 20
465.700012
 30
0.0
 11
147.306931
 21
465.700012
 31
0.0
  0
LINE
  5
90
330
1F
100
AcDbEntity
  8
0
 62
     7
100
AcDbLine
 10
147.306931
 20
452.599976
 30
0.0
 11
147.306931
 21
465.700012
 31
0.0
  0
LINE
  5
91
330
1F
100
AcDbEntity
  8
0
 62
     7
100
AcDbLine
 10
1200.307007
 20
451.799988
 30
0.0
 11
1200.307007
 21
452.599976
 31
0.0
  0
LINE
  5
92
330
1F
100
AcDbEntity
  8
0
 62
     7
100
AcDbLine
 10
147.306931
 20
452.599976
 30
0.0
 11
147.306931
 21
451.799988
 31
0.0
  0
LINE
  5
93
330
1F
100
AcDbEntity
  8
0
 62
     7
100
AcDbLine
 10
147.306931
 20
451.799988
 30
0.0
 11
1200.307007
 21
451.799988
 31
0.0
  0
LINE
  5
94
330
1F
100
AcDbEntity
  8
0
 62
     7
100
AcDbLine
 10
1200.307007
 20
465.829285
 30
0.0
 11
1200.307007
 21
465.700012
 31
0.0
  0
LINE
  5
95
330
1F
100
AcDbEntity
  8
0
 62
     7
100
AcDbLine
 10
1200.307007
 20
465.829285
 30
0.0
 11
1200.307007
 21
465.970703
 31
0.0
  0
LINE
  5
96
330
1F
100
AcDbEntity
  8
0
 62
     7
100
AcDbLine
 10
1200.307007
 20
466.099976
 30
0.0
 11
1200.307007
 21
465.970703
 31
0.0
  0
LINE
  5
97
330
1F
100
AcDbEntity
  8
0
 62
     7
100
AcDbLine
 10
1200.307007
 20
466.099976
 30
0.0
 11
1200.307007
 21
466.799988
 31
0.0
  0
LINE
  5
98
330
1F
100
AcDbEntity
  8
0
 62
     7
100
AcDbLine
 10
1200.307007
 20
466.92926
 30
0.0
 11
1200.307007
 21
466.799988
 31
0.0
  0
LINE
  5
99
330
1F
100
AcDbEntity
  8
0
 62
     7
100
AcDbLine
 10
1200.307007
 20
466.92926
 30
0.0
 11
1200.307007
 21
467.070679
 31
0.0
  0
LINE
  5
9A
330
1F
100
AcDbEntity
  8
0
 62
     7
100
AcDbLine
 10
1200.307007
 20
467.200012
 30
0.0
 11
1200.307007
 21
467.070679
 31
0.0
  0
LINE
  5
9B
330
1F
100
AcDbEntity
  8
0
 62
     7
100
AcDbLine
 10
1200.307007
 20
467.200012
 30
0.0
 11
1200.307007
 21
467.900024
 31
0.0
  0
LINE
  5
9C
330
1F
100
AcDbEntity
  8
0
 62
     7
100
AcDbLine
 10
1200.307007
 20
468.029297
 30
0.0
 11
1200.307007
 21
467.900024
 31
0.0
  0
LINE
  5
9D
330
1F
100
AcDbEntity
  8
0
 62
     7
100
AcDbLine
 10
1200.307007
 20
468.029297
 30
0.0
 11
1200.307007
 21
468.170715
 31
0.0
  0
LINE
  5
9E
330
1F
100
AcDbEntity
  8
0
 62
     7
100
AcDbLine
 10
1200.307007
 20
468.299988
 30
0.0
 11
1200.307007
 21
468.170715
 31
0.0
  0
LINE
  5
9F
330
1F
100
AcDbEntity
  8
0
 62
     7
100
AcDbLine
 10
1200.307007
 20
468.299988
 30
0.0
 11
1200.307007
 21
469.0
 31
0.0
  0
LINE
  5
A0
330
1F
100
AcDbEntity
  8
0
 62
     7
100
AcDbLine
 10
1200.307007
 20
469.129272
 30
0.0
 11
1200.307007
 21
469.0
 31
0.0
  0
LINE
  5
A1
330
1F
100
AcDbEntity
  8
0
 62
     7
100
AcDbLine
 10
1200.307007
 20
469.129272
 30
0.0
 11
1200.307007
 21
469.270691
 31
0.0
  0
LINE
  5
A2
330
1F
100
AcDbEntity
  8
0
 62
     7
100
AcDbLine
 10
1200.307007
 20
469.400024
 30
0.0
 11
1200.307007
 21
469.270691
 31
0.0
  0
LINE
  5
A3
330
1F
100
AcDbEntity
  8
0
 62
     7
100
AcDbLine
 10
1200.307007
 20
469.400024
 30
0.0
 11
1200.307007
 21
470.099976
 31
0.0
  0
LINE
  5
A4
330
1F
100
AcDbEntity
  8
0
 62
     7
100
AcDbLine
 10
1200.307007
 20
470.229309
 30
0.0
 11
1200.307007
 21
470.099976
 31
0.0
  0
LINE
  5
A5
330
1F
100
AcDbEntity
  8
0
 62
     7
100
AcDbLine
 10
1200.307007
 20
470.229309
 30
0.0
 11
1200.307007
 21
470.370728
 31
0.0
  0
LINE
  5
A6
330
1F
100
AcDbEntity
  8
0
 62
     7
100
AcDbLine
 10
1200.307007
 20
470.5
 30
0.0
 11
1200.307007
 21
470.370728
 31
0.0
  0
LINE
  5
A7
330
1F
100
AcDbEntity
  8
0
 62
     7
100
AcDbLine
 10
1200.307007
 20
470.5
 30
0.0
 11
1200.307007
 21
471.200012
 31
0.0
  0
LINE
  5
A8
330
1F
100
AcDbEntity
  8
0
 62
     7
100
AcDbLine
 10
1200.307007
 20
471.329285
 30
0.0
 11
1200.307007
 21
471.200012
 31
0.0
  0
LINE
  5
A9
330
1F
100
AcDbEntity
  8
0
 62
     7
100
AcDbLine
 10
1200.307007
 20
471.329285
 30
0.0
 11
1200.307007
 21
471.470703
 31
0.0
  0
LINE
  5
AA
330
1F
100
AcDbEntity
  8
0
 62
     7
100
AcDbLine
 10
1200.307007
 20
471.599976
 30
0.0
 11
1200.307007
 21
471.470703
 31
0.0
  0
LINE
  5
AB
330
1F
100
AcDbEntity
  8
0
 62
     7
100
AcDbLine
 10
1200.307007
 20
471.599976
 30
0.0
 11
1200.307007
 21
472.299988
 31
0.0
  0
LINE
  5
AC
330
1F
100
AcDbEntity
  8
0
 62
     7
100
AcDbLine
 10
1200.307007
 20
472.42926
 30
0.0
 11
1200.307007
 21
472.299988
 31
0.0
  0
LINE
  5
AD
330
1F
100
AcDbEntity
  8
0
 62
     7
100
AcDbLine
 10
1200.307007
 20
472.42926
 30
0.0
 11
1200.307007
 21
472.570679
 31
0.0
  0
LINE
  5
AE
330
1F
100
AcDbEntity
  8
0
 62
     7
100
AcDbLine
 10
1200.307007
 20
472.700012
 30
0.0
 11
1200.307007
 21
472.570679
 31
0.0
  0
LINE
  5
AF
330
1F
100
AcDbEntity
  8
0
 62
     7
100
AcDbLine
 10
1200.307007
 20
472.700012
 30
0.0
 11
1200.307007
 21
473.400024
 31
0.0
  0
LINE
  5
B0
330
1F
100
AcDbEntity
  8
0
 62
     7
100
AcDbLine
 10
1200.307007
 20
473.529297
 30
0.0
 11
1200.307007
 21
473.400024
 31
0.0
  0
LINE
  5
B1
330
1F
100
AcDbEntity
  8
0
 62
     7
100
AcDbLine
 10
1200.307007
 20
473.529297
 30
0.0
 11
1200.307007
 21
473.670715
 31
0.0
  0
LINE
  5
B2
330
1F
100
AcDbEntity
  8
0
 62
     7
100
AcDbLine
 10
1200.307007
 20
473.799988
 30
0.0
 11
1200.307007
 21
473.670715
 31
0.0
  0
LINE
  5
B3
330
1F
100
AcDbEntity
  8
0
 62
     7
100
AcDbLine
 10
1200.307007
 20
473.799988
 30
0.0
 11
1200.307007
 21
474.5
 31
0.0
  0
LINE
  5
B4
330
1F
100
AcDbEntity
  8
0
 62
     7
100
AcDbLine
 10
1200.307007
 20
474.629272
 30
0.0
 11
1200.307007
 21
474.5
 31
0.0
  0
LINE
  5
B5
330
1F
100
AcDbEntity
  8
0
 62
     7
100
AcDbLine
 10
1200.307007
 20
474.629272
 30
0.0
 11
1200.307007
 21
474.770691
 31
0.0
  0
LINE
  5
B6
330
1F
100
AcDbEntity
  8
0
 62
     7
100
AcDbLine
 10
1200.307007
 20
474.900024
 30
0.0
 11
1200.307007
 21
474.770691
 31
0.0
  0
LINE
  5
B7
330
1F
100
AcDbEntity
  8
0
 62
     7
100
AcDbLine
 10
1200.307007
 20
474.900024
 30
0.0
 11
1200.307007
 21
479.724243
 31
0.0
  0
LINE
  5
B8
330
1F
100
AcDbEntity
  8
0
 62
     7
100
AcDbLine
 10
1200.307007
 20
480.212158
 30
0.0
 11
1200.307007
 21
479.724243
 31
0.0
  0
LINE
  5
B9
330
1F
100
AcDbEntity
  8
0
 62
     7
100
AcDbLine
 10
1200.307007
 20
480.212158
 30
0.0
 11
1200.307007
 21
480.299988
 31
0.0
  0
LINE
  5
BA
330
1F
100
AcDbEntity
  8
0
 62
     7
100
AcDbLine
 10
1197.988281
 20
465.700012
 30
0.0
 11
1198.071655
 21
465.829285
 31
0.0
  0
ARC
  5
BB
330
1F
100
AcDbEntity
  8
0
 62
     7
100
AcDbCircle
 10
1191.307007
 20
470.099976
 30
0.0
 40
8.0
100
AcDbArc
 50
354.980203
 51
360.0
  0
LINE
  5
BC
330
1F
100
AcDbEntity
  8
0
 62
     7
100
AcDbLine
 10
1199.263916
 20
469.270691
 30
0.0
 11
1199.276367
 21
469.400024
 31
0.0
  0
LINE
  5
BD
330
1F
100
AcDbEntity
  8
0
 62
     7
100
AcDbLine
 10
1199.247925
 20
469.129272
 30
0.0
 11
1199.263916
 21
469.270691
 31
0.0
  0
LINE
  5
BE
330
1F
100
AcDbEntity
  8
0
 62
     7
100
AcDbLine
 10
1199.231079
 20
469.0
 30
0.0
 11
1199.247925
 21
469.129272
 31
0.0
  0
ARC
  5
BF
330
1F
100
AcDbEntity
  8
0
 62
     7
100
AcDbCircle
 10
1191.307007
 20
470.099976
 30
0.0
 40
8.0
100
AcDbArc
 50
346.997132
 51
352.096798
  0
LINE
  5
C0
330
1F
100
AcDbEntity
  8
0
 62
     7
100
AcDbLine
 10
1199.070923
 20
468.170715
 30
0.0
 11
1199.101929
 21
468.299988
 31
0.0
  0
LINE
  5
C1
330
1F
100
AcDbEntity
  8
0
 62
     7
100
AcDbLine
 10
1199.034424
 20
468.029297
 30
0.0
 11
1199.070923
 21
468.170715
 31
0.0
  0
LINE
  5
C2
330
1F
100
AcDbEntity
  8
0
 62
     7
100
AcDbLine
 10
1198.998535
 20
467.900024
 30
0.0
 11
1199.034424
 21
468.029297
 31
0.0
  0
ARC
  5
C3
330
1F
100
AcDbEntity
  8
0
 62
     7
100
AcDbCircle
 10
1191.307007
 20
470.099976
 30
0.0
 40
8.0
100
AcDbArc
 50
338.746183
 51
344.037995
  0
LINE
  5
C4
330
1F
100
AcDbEntity
  8
0
 62
     7
100
AcDbLine
 10
1198.711304
 20
467.070679
 30
0.0
 11
1198.762817
 21
467.200012
 31
0.0
  0
LINE
  5
C5
330
1F
100
AcDbEntity
  8
0
 62
     7
100
AcDbLine
 10
1198.651855
 20
466.92926
 30
0.0
 11
1198.711304
 21
467.070679
 31
0.0
  0
LINE
  5
C6
330
1F
100
AcDbEntity
  8
0
 62
     7
100
AcDbLine
 10
1198.594727
 20
466.799988
 30
0.0
 11
1198.651855
 21
466.92926
 31
0.0
  0
ARC
  5
C7
330
1F
100
AcDbEntity
  8
0
 62
     7
100
AcDbCircle
 10
1191.307007
 20
470.099976
 30
0.0
 40
8.0
100
AcDbArc
 50
329.999989
 51
335.63801
  0
LINE
  5
C8
330
1F
100
AcDbEntity
  8
0
 62
     7
100
AcDbLine
 10
1198.158936
 20
465.970703
 30
0.0
 11
1198.235229
 21
466.099976
 31
0.0
  0
LINE
  5
C9
330
1F
100
AcDbEntity
  8
0
 62
     7
100
AcDbLine
 10
1198.071655
 20
465.829285
 30
0.0
 11
1198.158936
 21
465.970703
 31
0.0
  0
LINE
  5
CA
330
1F
100
AcDbEntity
  8
0
 62
     7
100
AcDbLine
 10
1184.625732
 20
465.700012
 30
0.0
 11
1184.542358
 21
465.829285
 31
0.0
  0
LINE
  5
CB
330
1F
100
AcDbEntity
  8
0
 62
     7
100
AcDbLine
 10
1184.542358
 20
465.829285
 30
0.0
 11
1184.455078
 21
465.970703
 31
0.0
  0
LINE
  5
CC
330
1F
100
AcDbEntity
  8
0
 62
     7
100
AcDbLine
 10
1184.455078
 20
465.970703
 30
0.0
 11
1184.378784
 21
466.099976
 31
0.0
  0
ARC
  5
CD
330
1F
100
AcDbEntity
  8
0
 62
     7
100
AcDbCircle
 10
1191.307007
 20
470.099976
 30
0.0
 40
8.0
100
AcDbArc
 50
204.361982
 51
210.000003
  0
LINE
  5
CE
330
1F
100
AcDbEntity
  8
0
 62
     7
100
AcDbLine
 10
1184.019287
 20
466.799988
 30
0.0
 11
1183.962158
 21
466.92926
 31
0.0
  0
LINE
  5
CF
330
1F
100
AcDbEntity
  8
0
 62
     7
100
AcDbLine
 10
1183.962158
 20
466.92926
 30
0.0
 11
1183.90271
 21
467.070679
 31
0.0
  0
LINE
  5
D0
330
1F
100
AcDbEntity
  8
0
 62
     7
100
AcDbLine
 10
1183.90271
 20
467.070679
 30
0.0
 11
1183.851196
 21
467.200012
 31
0.0
  0
ARC
  5
D1
330
1F
100
AcDbEntity
  8
0
 62
     7
100
AcDbCircle
 10
1191.307007
 20
470.099976
 30
0.0
 40
8.0
100
AcDbArc
 50
195.96201
 51
201.253809
  0
LINE
  5
D2
330
1F
100
AcDbEntity
  8
0
 62
     7
100
AcDbLine
 10
1183.615479
 20
467.900024
 30
0.0
 11
1183.57959
 21
468.029297
 31
0.0
  0
LINE
  5
D3
330
1F
100
AcDbEntity
  8
0
 62
     7
100
AcDbLine
 10
1183.57959
 20
468.029297
 30
0.0
 11
1183.543091
 21
468.170715
 31
0.0
  0
LINE
  5
D4
330
1F
100
AcDbEntity
  8
0
 62
     7
100
AcDbLine
 10
1183.543091
 20
468.170715
 30
0.0
 11
1183.512085
 21
468.299988
 31
0.0
  0
ARC
  5
D5
330
1F
100
AcDbEntity
  8
0
 62
     7
100
AcDbCircle
 10
1191.307007
 20
470.099976
 30
0.0
 40
8.0
100
AcDbArc
 50
187.903207
 51
193.002872
  0
LINE
  5
D6
330
1F
100
AcDbEntity
  8
0
 62
     7
100
AcDbLine
 10
1183.382935
 20
469.0
 30
0.0
 11
1183.366089
 21
469.129272
 31
0.0
  0
LINE
  5
D7
330
1F
100
AcDbEntity
  8
0
 62
     7
100
AcDbLine
 10
1183.366089
 20
469.129272
 30
0.0
 11
1183.350098
 21
469.270691
 31
0.0
  0
LINE
  5
D8
330
1F
100
AcDbEntity
  8
0
 62
     7
100
AcDbLine
 10
1183.350098
 20
469.270691
 30
0.0
 11
1183.337646
 21
469.400024
 31
0.0
  0
ARC
  5
D9
330
1F
100
AcDbEntity
  8
0
 62
     7
100
AcDbCircle
 10
1191.307007
 20
470.099976
 30
0.0
 40
8.0
100
AcDbArc
 50
180.000009
 51
185.019802
  0
LINE
  5
DA
330
1F
100
AcDbEntity
  8
0
 62
     7
100
AcDbLine
 10
1125.957031
 20
465.829285
 30
0.0
 11
1125.957031
 21
465.700012
 31
0.0
  0
LINE
  5
DB
330
1F
100
AcDbEntity
  8
0
 62
     7
100
AcDbLine
 10
1125.957031
 20
465.970703
 30
0.0
 11
1125.957031
 21
466.099976
 31
0.0
  0
LINE
  5
DC
330
1F
100
AcDbEntity
  8
0
 62
     7
100
AcDbLine
 10
1125.957031
 20
465.970703
 30
0.0
 11
1125.957031
 21
465.829285
 31
0.0
  0
LINE
  5
DD
330
1F
100
AcDbEntity
  8
0
 62
     7
100
AcDbLine
 10
1125.957031
 20
472.700012
 30
0.0
 11
1125.957031
 21
473.099976
 31
0.0
  0
LINE
  5
DE
330
1F
100
AcDbEntity
  8
0
 62
     7
100
AcDbLine
 10
1125.957031
 20
472.570679
 30
0.0
 11
1125.957031
 21
472.700012
 31
0.0
  0
LINE
  5
DF
330
1F
100
AcDbEntity
  8
0
 62
     7
100
AcDbLine
 10
1125.957031
 20
472.570679
 30
0.0
 11
1125.957031
 21
472.42926
 31
0.0
  0
LINE
  5
E0
330
1F
100
AcDbEntity
  8
0
 62
     7
100
AcDbLine
 10
1125.957031
 20
472.42926
 30
0.0
 11
1125.957031
 21
472.299988
 31
0.0
  0
LINE
  5
E1
330
1F
100
AcDbEntity
  8
0
 62
     7
100
AcDbLine
 10
1125.957031
 20
471.599976
 30
0.0
 11
1125.957031
 21
472.299988
 31
0.0
  0
LINE
  5
E2
330
1F
100
AcDbEntity
  8
0
 62
     7
100
AcDbLine
 10
1125.957031
 20
471.470703
 30
0.0
 11
1125.957031
 21
471.599976
 31
0.0
  0
LINE
  5
E3
330
1F
100
AcDbEntity
  8
0
 62
     7
100
AcDbLine
 10
1125.957031
 20
471.470703
 30
0.0
 11
1125.957031
 21
471.329285
 31
0.0
  0
LINE
  5
E4
330
1F
100
AcDbEntity
  8
0
 62
     7
100
AcDbLine
 10
1125.957031
 20
471.329285
 30
0.0
 11
1125.957031
 21
471.200012
 31
0.0
  0
LINE
  5
E5
330
1F
100
AcDbEntity
  8
0
 62
     7
100
AcDbLine
 10
1125.957031
 20
470.5
 30
0.0
 11
1125.957031
 21
471.200012
 31
0.0
  0
LINE
  5
E6
330
1F
100
AcDbEntity
  8
0
 62
     7
100
AcDbLine
 10
1125.957031
 20
470.370728
 30
0.0
 11
1125.957031
 21
470.5
 31
0.0
  0
LINE
  5
E7
330
1F
100
AcDbEntity
  8
0
 62
     7
100
AcDbLine
 10
1125.957031
 20
470.370728
 30
0.0
 11
1125.957031
 21
470.229309
 31
0.0
  0
LINE
  5
E8
330
1F
100
AcDbEntity
  8
0
 62
     7
100
AcDbLine
 10
1125.957031
 20
470.229309
 30
0.0
 11
1125.957031
 21
470.099976
 31
0.0
  0
LINE
  5
E9
330
1F
100
AcDbEntity
  8
0
 62
     7
100
AcDbLine
 10
1125.957031
 20
469.400024
 30
0.0
 11
1125.957031
 21
470.099976
 31
0.0
  0
LINE
  5
EA
330
1F
100
AcDbEntity
  8
0
 62
     7
100
AcDbLine
 10
1125.957031
 20
469.270691
 30
0.0
 11
1125.957031
 21
469.400024
 31
0.0
  0
LINE
  5
EB
330
1F
100
AcDbEntity
  8
0
 62
     7
100
AcDbLine
 10
1125.957031
 20
469.270691
 30
0.0
 11
1125.957031
 21
469.129272
 31
0.0
  0
LINE
  5
EC
330
1F
100
AcDbEntity
  8
0
 62
     7
100
AcDbLine
 10
1125.957031
 20
469.129272
 30
0.0
 11
1125.957031
 21
469.0
 31
0.0
  0
LINE
  5
ED
330
1F
100
AcDbEntity
  8
0
 62
     7
100
AcDbLine
 10
1125.957031
 20
468.299988
 30
0.0
 11
1125.957031
 21
469.0
 31
0.0
  0
LINE
  5
EE
330
1F
100
AcDbEntity
  8
0
 62
     7
100
AcDbLine
 10
1125.957031
 20
468.170715
 30
0.0
 11
1125.957031
 21
468.299988
 31
0.0
  0
LINE
  5
EF
330
1F
100
AcDbEntity
  8
0
 62
     7
100
AcDbLine
 10
1125.957031
 20
468.170715
 30
0.0
 11
1125.957031
 21
468.029297
 31
0.0
  0
LINE
  5
F0
330
1F
100
AcDbEntity
  8
0
 62
     7
100
AcDbLine
 10
1125.957031
 20
468.029297
 30
0.0
 11
1125.957031
 21
467.900024
 31
0.0
  0
LINE
  5
F1
330
1F
100
AcDbEntity
  8
0
 62
     7
100
AcDbLine
 10
1125.957031
 20
467.200012
 30
0.0
 11
1125.957031
 21
467.900024
 31
0.0
  0
LINE
  5
F2
330
1F
100
AcDbEntity
  8
0
 62
     7
100
AcDbLine
 10
1125.957031
 20
467.070679
 30
0.0
 11
1125.957031
 21
467.200012
 31
0.0
  0
LINE
  5
F3
330
1F
100
AcDbEntity
  8
0
 62
     7
100
AcDbLine
 10
1125.957031
 20
467.070679
 30
0.0
 11
1125.957031
 21
466.92926
 31
0.0
  0
LINE
  5
F4
330
1F
100
AcDbEntity
  8
0
 62
     7
100
AcDbLine
 10
1125.957031
 20
466.92926
 30
0.0
 11
1125.957031
 21
466.799988
 31
0.0
  0
LINE
  5
F5
330
1F
100
AcDbEntity
  8
0
 62
     7
100
AcDbLine
 10
1125.957031
 20
466.099976
 30
0.0
 11
1125.957031
 21
466.799988
 31
0.0
  0
LINE
  5
F6
330
1F
100
AcDbEntity
  8
0
 62
     7
100
AcDbLine
 10
1124.957031
 20
473.400024
 30
0.0
 11
1124.957031
 21
472.700012
 31
0.0
  0
LINE
  5
F7
330
1F
100
AcDbEntity
  8
0
 62
     7
100
AcDbLine
 10
1124.957031
 20
473.529297
 30
0.0
 11
1124.957031
 21
473.400024
 31
0.0
  0
LINE
  5
F8
330
1F
100
AcDbEntity
  8
0
 62
     7
100
AcDbLine
 10
1124.957031
 20
473.529297
 30
0.0
 11
1124.957031
 21
473.599976
 31
0.0
  0
LINE
  5
F9
330
1F
100
AcDbEntity
  8
0
 62
     7
100
AcDbLine
 10
1124.957031
 20
465.829285
 30
0.0
 11
1124.957031
 21
465.700012
 31
0.0
  0
LINE
  5
FA
330
1F
100
AcDbEntity
  8
0
 62
     7
100
AcDbLine
 10
1124.957031
 20
465.829285
 30
0.0
 11
1124.957031
 21
465.970703
 31
0.0
  0
LINE
  5
FB
330
1F
100
AcDbEntity
  8
0
 62
     7
100
AcDbLine
 10
1124.957031
 20
465.970703
 30
0.0
 11
1124.957031
 21
466.099976
 31
0.0
  0
LINE
  5
FC
330
1F
100
AcDbEntity
  8
0
 62
     7
100
AcDbLine
 10
1124.957031
 20
466.799988
 30
0.0
 11
1124.957031
 21
466.099976
 31
0.0
  0
LINE
  5
FD
330
1F
100
AcDbEntity
  8
0
 62
     7
100
AcDbLine
 10
1124.957031
 20
466.92926
 30
0.0
 11
1124.957031
 21
466.799988
 31
0.0
  0
LINE
  5
FE
330
1F
100
AcDbEntity
  8
0
 62
     7
100
AcDbLine
 10
1124.957031
 20
466.92926
 30
0.0
 11
1124.957031
 21
467.070679
 31
0.0
  0
LINE
  5
FF
330
1F
100
AcDbEntity
  8
0
 62
     7
100
AcDbLine
 10
1124.957031
 20
467.070679
 30
0.0
 11
1124.957031
 21
467.200012
 31
0.0
  0
LINE
  5
100
330
1F
100
AcDbEntity
  8
0
 62
     7
100
AcDbLine
 10
1124.957031
 20
467.900024
 30
0.0
 11
1124.957031
 21
467.200012
 31
0.0
  0
LINE
  5
101
330
1F
100
AcDbEntity
  8
0
 62
     7
100
AcDbLine
 10
1124.957031
 20
468.029297
 30
0.0
 11
1124.957031
 21
467.900024
 31
0.0
  0
LINE
  5
102
330
1F
100
AcDbEntity
  8
0
 62
     7
100
AcDbLine
 10
1124.957031
 20
468.029297
 30
0.0
 11
1124.957031
 21
468.170715
 31
0.0
  0
LINE
  5
103
330
1F
100
AcDbEntity
  8
0
 62
     7
100
AcDbLine
 10
1124.957031
 20
468.170715
 30
0.0
 11
1124.957031
 21
468.299988
 31
0.0
  0
LINE
  5
104
330
1F
100
AcDbEntity
  8
0
 62
     7
100
AcDbLine
 10
1124.957031
 20
469.0
 30
0.0
 11
1124.957031
 21
468.299988
 31
0.0
  0
LINE
  5
105
330
1F
100
AcDbEntity
  8
0
 62
     7
100
AcDbLine
 10
1124.957031
 20
469.129272
 30
0.0
 11
1124.957031
 21
469.0
 31
0.0
  0
LINE
  5
106
330
1F
100
AcDbEntity
  8
0
 62
     7
100
AcDbLine
 10
1124.957031
 20
469.129272
 30
0.0
 11
1124.957031
 21
469.270691
 31
0.0
  0
LINE
  5
107
330
1F
100
AcDbEntity
  8
0
 62
     7
100
AcDbLine
 10
1124.957031
 20
469.270691
 30
0.0
 11
1124.957031
 21
469.400024
 31
0.0
  0
LINE
  5
108
330
1F
100
AcDbEntity
  8
0
 62
     7
100
AcDbLine
 10
1124.957031
 20
470.099976
 30
0.0
 11
1124.957031
 21
469.400024
 31
0.0
  0
LINE
  5
109
330
1F
100
AcDbEntity
  8
0
 62
     7
100
AcDbLine
 10
1124.957031
 20
470.229309
 30
0.0
 11
1124.957031
 21
470.099976
 31
0.0
  0
LINE
  5
10A
330
1F
100
AcDbEntity
  8
0
 62
     7
100
AcDbLine
 10
1124.957031
 20
470.229309
 30
0.0
 11
1124.957031
 21
470.370728
 31
0.0
  0
LINE
  5
10B
330
1F
100
AcDbEntity
  8
0
 62
     7
100
AcDbLine
 10
1124.957031
 20
470.370728
 30
0.0
 11
1124.957031
 21
470.5
 31
0.0
  0
LINE
  5
10C
330
1F
100
AcDbEntity
  8
0
 62
     7
100
AcDbLine
 10
1124.957031
 20
471.200012
 30
0.0
 11
1124.957031
 21
470.5
 31
0.0
  0
LINE
  5
10D
330
1F
100
AcDbEntity
  8
0
 62
     7
100
AcDbLine
 10
1124.957031
 20
471.329285
 30
0.0
 11
1124.957031
 21
471.200012
 31
0.0
  0
LINE
  5
10E
330
1F
100
AcDbEntity
  8
0
 62
     7
100
AcDbLine
 10
1124.957031
 20
471.329285
 30
0.0
 11
1124.957031
 21
471.470703
 31
0.0
  0
LINE
  5
10F
330
1F
100
AcDbEntity
  8
0
 62
     7
100
AcDbLine
 10
1124.957031
 20
471.470703
 30
0.0
 11
1124.957031
 21
471.599976
 31
0.0
  0
LINE
  5
110
330
1F
100
AcDbEntity
  8
0
 62
     7
100
AcDbLine
 10
1124.957031
 20
472.299988
 30
0.0
 11
1124.957031
 21
471.599976
 31
0.0
  0
LINE
  5
111
330
1F
100
AcDbEntity
  8
0
 62
     7
100
AcDbLine
 10
1124.957031
 20
472.42926
 30
0.0
 11
1124.957031
 21
472.299988
 31
0.0
  0
LINE
  5
112
330
1F
100
AcDbEntity
  8
0
 62
     7
100
AcDbLine
 10
1124.957031
 20
472.42926
 30
0.0
 11
1124.957031
 21
472.570679
 31
0.0
  0
LINE
  5
113
330
1F
100
AcDbEntity
  8
0
 62
     7
100
AcDbLine
 10
1124.957031
 20
472.570679
 30
0.0
 11
1124.957031
 21
472.700012
 31
0.0
  0
LINE
  5
114
330
1F
100
AcDbEntity
  8
0
 62
     7
100
AcDbLine
 10
1122.656982
 20
465.829285
 30
0.0
 11
1122.656982
 21
465.700012
 31
0.0
  0
LINE
  5
115
330
1F
100
AcDbEntity
  8
0
 62
     7
100
AcDbLine
 10
1122.656982
 20
465.970703
 30
0.0
 11
1122.656982
 21
466.099976
 31
0.0
  0
LINE
  5
116
330
1F
100
AcDbEntity
  8
0
 62
     7
100
AcDbLine
 10
1122.656982
 20
465.970703
 30
0.0
 11
1122.656982
 21
465.829285
 31
0.0
  0
LINE
  5
117
330
1F
100
AcDbEntity
  8
0
 62
     7
100
AcDbLine
 10
1122.656982
 20
473.599976
 30
0.0
 11
1122.656982
 21
473.529297
 31
0.0
  0
LINE
  5
118
330
1F
100
AcDbEntity
  8
0
 62
     7
100
AcDbLine
 10
1122.656982
 20
473.529297
 30
0.0
 11
1122.656982
 21
473.400024
 31
0.0
  0
LINE
  5
119
330
1F
100
AcDbEntity
  8
0
 62
     7
100
AcDbLine
 10
1122.656982
 20
472.700012
 30
0.0
 11
1122.656982
 21
473.400024
 31
0.0
  0
LINE
  5
11A
330
1F
100
AcDbEntity
  8
0
 62
     7
100
AcDbLine
 10
1122.656982
 20
472.570679
 30
0.0
 11
1122.656982
 21
472.700012
 31
0.0
  0
LINE
  5
11B
330
1F
100
AcDbEntity
  8
0
 62
     7
100
AcDbLine
 10
1122.656982
 20
472.570679
 30
0.0
 11
1122.656982
 21
472.42926
 31
0.0
  0
LINE
  5
11C
330
1F
100
AcDbEntity
  8
0
 62
     7
100
AcDbLine
 10
1122.656982
 20
472.42926
 30
0.0
 11
1122.656982
 21
472.299988
 31
0.0
  0
LINE
  5
11D
330
1F
100
AcDbEntity
  8
0
 62
     7
100
AcDbLine
 10
1122.656982
 20
471.599976
 30
0.0
 11
1122.656982
 21
472.299988
 31
0.0
  0
LINE
  5
11E
330
1F
100
AcDbEntity
  8
0
 62
     7
100
AcDbLine
 10
1122.656982
 20
471.470703
 30
0.0
 11
1122.656982
 21
471.599976
 31
0.0
  0
LINE
  5
11F
330
1F
100
AcDbEntity
  8
0
 62
     7
100
AcDbLine
 10
1122.656982
 20
471.470703
 30
0.0
 11
1122.656982
 21
471.329285
 31
0.0
  0
LINE
  5
120
330
1F
100
AcDbEntity
  8
0
 62
     7
100
AcDbLine
 10
1122.656982
 20
471.329285
 30
0.0
 11
1122.656982
 21
471.200012
 31
0.0
  0
LINE
  5
121
330
1F
100
AcDbEntity
  8
0
 62
     7
100
AcDbLine
 10
1122.656982
 20
470.5
 30
0.0
 11
1122.656982
 21
471.200012
 31
0.0
  0
LINE
  5
122
330
1F
100
AcDbEntity
  8
0
 62
     7
100
AcDbLine
 10
1122.656982
 20
470.370728
 30
0.0
 11
1122.656982
 21
470.5
 31
0.0
  0
LINE
  5
123
330
1F
100
AcDbEntity
  8
0
 62
     7
100
AcDbLine
 10
1122.656982
 20
470.370728
 30
0.0
 11
1122.656982
 21
470.229309
 31
0.0
  0
LINE
  5
124
330
1F
100
AcDbEntity
  8
0
 62
     7
100
AcDbLine
 10
1122.656982
 20
470.229309
 30
0.0
 11
1122.656982
 21
470.099976
 31
0.0
  0
LINE
  5
125
330
1F
100
AcDbEntity
  8
0
 62
     7
100
AcDbLine
 10
1122.656982
 20
469.400024
 30
0.0
 11
1122.656982
 21
470.099976
 31
0.0
  0
LINE
  5
126
330
1F
100
AcDbEntity
  8
0
 62
     7
100
AcDbLine
 10
1122.656982
 20
469.270691
 30
0.0
 11
1122.656982
 21
469.400024
 31
0.0
  0
LINE
  5
127
330
1F
100
AcDbEntity
  8
0
 62
     7
100
AcDbLine
 10
1122.656982
 20
469.270691
 30
0.0
 11
1122.656982
 21
469.129272
 31
0.0
  0
LINE
  5
128
330
1F
100
AcDbEntity
  8
0
 62
     7
100
AcDbLine
 10
1122.656982
 20
469.129272
 30
0.0
 11
1122.656982
 21
469.0
 31
0.0
  0
LINE
  5
129
330
1F
100
AcDbEntity
  8
0
 62
     7
100
AcDbLine
 10
1122.656982
 20
468.299988
 30
0.0
 11
1122.656982
 21
469.0
 31
0.0
  0
LINE
  5
12A
330
1F
100
AcDbEntity
  8
0
 62
     7
100
AcDbLine
 10
1122.656982
 20
468.170715
 30
0.0
 11
1122.656982
 21
468.299988
 31
0.0
  0
LINE
  5
12B
330
1F
100
AcDbEntity
  8
0
 62
     7
100
AcDbLine
 10
1122.656982
 20
468.170715
 30
0.0
 11
1122.656982
 21
468.029297
 31
0.0
  0
LINE
  5
12C
330
1F
100
AcDbEntity
  8
0
 62
     7
100
AcDbLine
 10
1122.656982
 20
468.029297
 30
0.0
 11
1122.656982
 21
467.900024
 31
0.0
  0
LINE
  5
12D
330
1F
100
AcDbEntity
  8
0
 62
     7
100
AcDbLine
 10
1122.656982
 20
467.200012
 30
0.0
 11
1122.656982
 21
467.900024
 31
0.0
  0
LINE
  5
12E
330
1F
100
AcDbEntity
  8
0
 62
     7
100
AcDbLine
 10
1122.656982
 20
467.070679
 30
0.0
 11
1122.656982
 21
467.200012
 31
0.0
  0
LINE
  5
12F
330
1F
100
AcDbEntity
  8
0
 62
     7
100
AcDbLine
 10
1122.656982
 20
467.070679
 30
0.0
 11
1122.656982
 21
466.92926
 31
0.0
  0
LINE
  5
130
330
1F
100
AcDbEntity
  8
0
 62
     7
100
AcDbLine
 10
1122.656982
 20
466.92926
 30
0.0
 11
1122.656982
 21
466.799988
 31
0.0
  0
LINE
  5
131
330
1F
100
AcDbEntity
  8
0
 62
     7
100
AcDbLine
 10
1122.656982
 20
466.099976
 30
0.0
 11
1122.656982
 21
466.799988
 31
0.0
  0
LINE
  5
132
330
1F
100
AcDbEntity
  8
0
 62
     7
100
AcDbLine
 10
1121.656982
 20
472.42926
 30
0.0
 11
1121.656982
 21
472.299988
 31
0.0
  0
LINE
  5
133
330
1F
100
AcDbEntity
  8
0
 62
     7
100
AcDbLine
 10
1121.656982
 20
472.42926
 30
0.0
 11
1121.656982
 21
472.570679
 31
0.0
  0
LINE
  5
134
330
1F
100
AcDbEntity
  8
0
 62
     7
100
AcDbLine
 10
1121.656982
 20
472.570679
 30
0.0
 11
1121.656982
 21
472.700012
 31
0.0
  0
LINE
  5
135
330
1F
100
AcDbEntity
  8
0
 62
     7
100
AcDbLine
 10
1121.656982
 20
473.099976
 30
0.0
 11
1121.656982
 21
472.700012
 31
0.0
  0
LINE
  5
136
330
1F
100
AcDbEntity
  8
0
 62
     7
100
AcDbLine
 10
1121.656982
 20
465.829285
 30
0.0
 11
1121.656982
 21
465.700012
 31
0.0
  0
LINE
  5
137
330
1F
100
AcDbEntity
  8
0
 62
     7
100
AcDbLine
 10
1121.656982
 20
465.829285
 30
0.0
 11
1121.656982
 21
465.970703
 31
0.0
  0
LINE
  5
138
330
1F
100
AcDbEntity
  8
0
 62
     7
100
AcDbLine
 10
1121.656982
 20
465.970703
 30
0.0
 11
1121.656982
 21
466.099976
 31
0.0
  0
LINE
  5
139
330
1F
100
AcDbEntity
  8
0
 62
     7
100
AcDbLine
 10
1121.656982
 20
466.799988
 30
0.0
 11
1121.656982
 21
466.099976
 31
0.0
  0
LINE
  5
13A
330
1F
100
AcDbEntity
  8
0
 62
     7
100
AcDbLine
 10
1121.656982
 20
466.92926
 30
0.0
 11
1121.656982
 21
466.799988
 31
0.0
  0
LINE
  5
13B
330
1F
100
AcDbEntity
  8
0
 62
     7
100
AcDbLine
 10
1121.656982
 20
466.92926
 30
0.0
 11
1121.656982
 21
467.070679
 31
0.0
  0
LINE
  5
13C
330
1F
100
AcDbEntity
  8
0
 62
     7
100
AcDbLine
 10
1121.656982
 20
467.070679
 30
0.0
 11
1121.656982
 21
467.200012
 31
0.0
  0
LINE
  5
13D
330
1F
100
AcDbEntity
  8
0
 62
     7
100
AcDbLine
 10
1121.656982
 20
467.900024
 30
0.0
 11
1121.656982
 21
467.200012
 31
0.0
  0
LINE
  5
13E
330
1F
100
AcDbEntity
  8
0
 62
     7
100
AcDbLine
 10
1121.656982
 20
468.029297
 30
0.0
 11
1121.656982
 21
467.900024
 31
0.0
  0
LINE
  5
13F
330
1F
100
AcDbEntity
  8
0
 62
     7
100
AcDbLine
 10
1121.656982
 20
468.029297
 30
0.0
 11
1121.656982
 21
468.170715
 31
0.0
  0
LINE
  5
140
330
1F
100
AcDbEntity
  8
0
 62
     7
100
AcDbLine
 10
1121.656982
 20
468.170715
 30
0.0
 11
1121.656982
 21
468.299988
 31
0.0
  0
LINE
  5
141
330
1F
100
AcDbEntity
  8
0
 62
     7
100
AcDbLine
 10
1121.656982
 20
469.0
 30
0.0
 11
1121.656982
 21
468.299988
 31
0.0
  0
LINE
  5
142
330
1F
100
AcDbEntity
  8
0
 62
     7
100
AcDbLine
 10
1121.656982
 20
469.129272
 30
0.0
 11
1121.656982
 21
469.0
 31
0.0
  0
LINE
  5
143
330
1F
100
AcDbEntity
  8
0
 62
     7
100
AcDbLine
 10
1121.656982
 20
469.129272
 30
0.0
 11
1121.656982
 21
469.270691
 31
0.0
  0
LINE
  5
144
330
1F
100
AcDbEntity
  8
0
 62
     7
100
AcDbLine
 10
1121.656982
 20
469.270691
 30
0.0
 11
1121.656982
 21
469.400024
 31
0.0
  0
LINE
  5
145
330
1F
100
AcDbEntity
  8
0
 62
     7
100
AcDbLine
 10
1121.656982
 20
470.099976
 30
0.0
 11
1121.656982
 21
469.400024
 31
0.0
  0
LINE
  5
146
330
1F
100
AcDbEntity
  8
0
 62
     7
100
AcDbLine
 10
1121.656982
 20
470.229309
 30
0.0
 11
1121.656982
 21
470.099976
 31
0.0
  0
LINE
  5
147
330
1F
100
AcDbEntity
  8
0
 62
     7
100
AcDbLine
 10
1121.656982
 20
470.229309
 30
0.0
 11
1121.656982
 21
470.370728
 31
0.0
  0
LINE
  5
148
330
1F
100
AcDbEntity
  8
0
 62
     7
100
AcDbLine
 10
1121.656982
 20
470.370728
 30
0.0
 11
1121.656982
 21
470.5
 31
0.0
  0
LINE
  5
149
330
1F
100
AcDbEntity
  8
0
 62
     7
100
AcDbLine
 10
1121.656982
 20
471.200012
 30
0.0
 11
1121.656982
 21
470.5
 31
0.0
  0
LINE
  5
14A
330
1F
100
AcDbEntity
  8
0
 62
     7
100
AcDbLine
 10
1121.656982
 20
471.329285
 30
0.0
 11
1121.656982
 21
471.200012
 31
0.0
  0
LINE
  5
14B
330
1F
100
AcDbEntity
  8
0
 62
     7
100
AcDbLine
 10
1121.656982
 20
471.329285
 30
0.0
 11
1121.656982
 21
471.470703
 31
0.0
  0
LINE
  5
14C
330
1F
100
AcDbEntity
  8
0
 62
     7
100
AcDbLine
 10
1121.656982
 20
471.470703
 30
0.0
 11
1121.656982
 21
471.599976
 31
0.0
  0
LINE
  5
14D
330
1F
100
AcDbEntity
  8
0
 62
     7
100
AcDbLine
 10
1121.656982
 20
472.299988
 30
0.0
 11
1121.656982
 21
471.599976
 31
0.0
  0
LINE
  5
14E
330
1F
100
AcDbEntity
  8
0
 62
     7
100
AcDbLine
 10
825.956909
 20
465.829285
 30
0.0
 11
825.956909
 21
465.700012
 31
0.0
  0
LINE
  5
14F
330
1F
100
AcDbEntity
  8
0
 62
     7
100
AcDbLine
 10
825.956909
 20
465.970703
 30
0.0
 11
825.956909
 21
466.099976
 31
0.0
  0
LINE
  5
150
330
1F
100
AcDbEntity
  8
0
 62
     7
100
AcDbLine
 10
825.956909
 20
465.970703
 30
0.0
 11
825.956909
 21
465.829285
 31
0.0
  0
LINE
  5
151
330
1F
100
AcDbEntity
  8
0
 62
     7
100
AcDbLine
 10
825.956909
 20
472.700012
 30
0.0
 11
825.956909
 21
473.099976
 31
0.0
  0
LINE
  5
152
330
1F
100
AcDbEntity
  8
0
 62
     7
100
AcDbLine
 10
825.956909
 20
472.570679
 30
0.0
 11
825.956909
 21
472.700012
 31
0.0
  0
LINE
  5
153
330
1F
100
AcDbEntity
  8
0
 62
     7
100
AcDbLine
 10
825.956909
 20
472.570679
 30
0.0
 11
825.956909
 21
472.42926
 31
0.0
  0
LINE
  5
154
330
1F
100
AcDbEntity
  8
0
 62
     7
100
AcDbLine
 10
825.956909
 20
472.42926
 30
0.0
 11
825.956909
 21
472.299988
 31
0.0
  0
LINE
  5
155
330
1F
100
AcDbEntity
  8
0
 62
     7
100
AcDbLine
 10
825.956909
 20
471.599976
 30
0.0
 11
825.956909
 21
472.299988
 31
0.0
  0
LINE
  5
156
330
1F
100
AcDbEntity
  8
0
 62
     7
100
AcDbLine
 10
825.956909
 20
471.470703
 30
0.0
 11
825.956909
 21
471.599976
 31
0.0
  0
LINE
  5
157
330
1F
100
AcDbEntity
  8
0
 62
     7
100
AcDbLine
 10
825.956909
 20
471.470703
 30
0.0
 11
825.956909
 21
471.329285
 31
0.0
  0
LINE
  5
158
330
1F
100
AcDbEntity
  8
0
 62
     7
100
AcDbLine
 10
825.956909
 20
471.329285
 30
0.0
 11
825.956909
 21
471.200012
 31
0.0
  0
LINE
  5
159
330
1F
100
AcDbEntity
  8
0
 62
     7
100
AcDbLine
 10
825.956909
 20
470.5
 30
0.0
 11
825.956909
 21
471.200012
 31
0.0
  0
LINE
  5
15A
330
1F
100
AcDbEntity
  8
0
 62
     7
100
AcDbLine
 10
825.956909
 20
470.370728
 30
0.0
 11
825.956909
 21
470.5
 31
0.0
  0
LINE
  5
15B
330
1F
100
AcDbEntity
  8
0
 62
     7
100
AcDbLine
 10
825.956909
 20
470.370728
 30
0.0
 11
825.956909
 21
470.229309
 31
0.0
  0
LINE
  5
15C
330
1F
100
AcDbEntity
  8
0
 62
     7
100
AcDbLine
 10
825.956909
 20
470.229309
 30
0.0
 11
825.956909
 21
470.099976
 31
0.0
  0
LINE
  5
15D
330
1F
100
AcDbEntity
  8
0
 62
     7
100
AcDbLine
 10
825.956909
 20
469.400024
 30
0.0
 11
825.956909
 21
470.099976
 31
0.0
  0
LINE
  5
15E
330
1F
100
AcDbEntity
  8
0
 62
     7
100
AcDbLine
 10
825.956909
 20
469.270691
 30
0.0
 11
825.956909
 21
469.400024
 31
0.0
  0
LINE
  5
15F
330
1F
100
AcDbEntity
  8
0
 62
     7
100
AcDbLine
 10
825.956909
 20
469.270691
 30
0.0
 11
825.956909
 21
469.129272
 31
0.0
  0
LINE
  5
160
330
1F
100
AcDbEntity
  8
0
 62
     7
100
AcDbLine
 10
825.956909
 20
469.129272
 30
0.0
 11
825.956909
 21
469.0
 31
0.0
  0
LINE
  5
161
330
1F
100
AcDbEntity
  8
0
 62
     7
100
AcDbLine
 10
825.956909
 20
468.299988
 30
0.0
 11
825.956909
 21
469.0
 31
0.0
  0
LINE
  5
162
330
1F
100
AcDbEntity
  8
0
 62
     7
100
AcDbLine
 10
825.956909
 20
468.170715
 30
0.0
 11
825.956909
 21
468.299988
 31
0.0
  0
LINE
  5
163
330
1F
100
AcDbEntity
  8
0
 62
     7
100
AcDbLine
 10
825.956909
 20
468.170715
 30
0.0
 11
825.956909
 21
468.029297
 31
0.0
  0
LINE
  5
164
330
1F
100
AcDbEntity
  8
0
 62
     7
100
AcDbLine
 10
825.956909
 20
468.029297
 30
0.0
 11
825.956909
 21
467.900024
 31
0.0
  0
LINE
  5
165
330
1F
100
AcDbEntity
  8
0
 62
     7
100
AcDbLine
 10
825.956909
 20
467.200012
 30
0.0
 11
825.956909
 21
467.900024
 31
0.0
  0
LINE
  5
166
330
1F
100
AcDbEntity
  8
0
 62
     7
100
AcDbLine
 10
825.956909
 20
467.070679
 30
0.0
 11
825.956909
 21
467.200012
 31
0.0
  0
LINE
  5
167
330
1F
100
AcDbEntity
  8
0
 62
     7
100
AcDbLine
 10
825.956909
 20
467.070679
 30
0.0
 11
825.956909
 21
466.92926
 31
0.0
  0
LINE
  5
168
330
1F
100
AcDbEntity
  8
0
 62
     7
100
AcDbLine
 10
825.956909
 20
466.92926
 30
0.0
 11
825.956909
 21
466.799988
 31
0.0
  0
LINE
  5
169
330
1F
100
AcDbEntity
  8
0
 62
     7
100
AcDbLine
 10
825.956909
 20
466.099976
 30
0.0
 11
825.956909
 21
466.799988
 31
0.0
  0
LINE
  5
16A
330
1F
100
AcDbEntity
  8
0
 62
     7
100
AcDbLine
 10
824.956909
 20
473.400024
 30
0.0
 11
824.956909
 21
472.700012
 31
0.0
  0
LINE
  5
16B
330
1F
100
AcDbEntity
  8
0
 62
     7
100
AcDbLine
 10
824.956909
 20
473.529297
 30
0.0
 11
824.956909
 21
473.400024
 31
0.0
  0
LINE
  5
16C
330
1F
100
AcDbEntity
  8
0
 62
     7
100
AcDbLine
 10
824.956909
 20
473.529297
 30
0.0
 11
824.956909
 21
473.599976
 31
0.0
  0
LINE
  5
16D
330
1F
100
AcDbEntity
  8
0
 62
     7
100
AcDbLine
 10
824.956909
 20
465.829285
 30
0.0
 11
824.956909
 21
465.700012
 31
0.0
  0
LINE
  5
16E
330
1F
100
AcDbEntity
  8
0
 62
     7
100
AcDbLine
 10
824.956909
 20
465.829285
 30
0.0
 11
824.956909
 21
465.970703
 31
0.0
  0
LINE
  5
16F
330
1F
100
AcDbEntity
  8
0
 62
     7
100
AcDbLine
 10
824.956909
 20
465.970703
 30
0.0
 11
824.956909
 21
466.099976
 31
0.0
  0
LINE
  5
170
330
1F
100
AcDbEntity
  8
0
 62
     7
100
AcDbLine
 10
824.956909
 20
466.799988
 30
0.0
 11
824.956909
 21
466.099976
 31
0.0
  0
LINE
  5
171
330
1F
100
AcDbEntity
  8
0
 62
     7
100
AcDbLine
 10
824.956909
 20
466.92926
 30
0.0
 11
824.956909
 21
466.799988
 31
0.0
  0
LINE
  5
172
330
1F
100
AcDbEntity
  8
0
 62
     7
100
AcDbLine
 10
824.956909
 20
466.92926
 30
0.0
 11
824.956909
 21
467.070679
 31
0.0
  0
LINE
  5
173
330
1F
100
AcDbEntity
  8
0
 62
     7
100
AcDbLine
 10
824.956909
 20
467.070679
 30
0.0
 11
824.956909
 21
467.200012
 31
0.0
  0
LINE
  5
174
330
1F
100
AcDbEntity
  8
0
 62
     7
100
AcDbLine
 10
824.956909
 20
467.900024
 30
0.0
 11
824.956909
 21
467.200012
 31
0.0
  0
LINE
  5
175
330
1F
100
AcDbEntity
  8
0
 62
     7
100
AcDbLine
 10
824.956909
 20
468.029297
 30
0.0
 11
824.956909
 21
467.900024
 31
0.0
  0
LINE
  5
176
330
1F
100
AcDbEntity
  8
0
 62
     7
100
AcDbLine
 10
824.956909
 20
468.029297
 30
0.0
 11
824.956909
 21
468.170715
 31
0.0
  0
LINE
  5
177
330
1F
100
AcDbEntity
  8
0
 62
     7
100
AcDbLine
 10
824.956909
 20
468.170715
 30
0.0
 11
824.956909
 21
468.299988
 31
0.0
  0
LINE
  5
178
330
1F
100
AcDbEntity
  8
0
 62
     7
100
AcDbLine
 10
824.956909
 20
469.0
 30
0.0
 11
824.956909
 21
468.299988
 31
0.0
  0
LINE
  5
179
330
1F
100
AcDbEntity
  8
0
 62
     7
100
AcDbLine
 10
824.956909
 20
469.129272
 30
0.0
 11
824.956909
 21
469.0
 31
0.0
  0
LINE
  5
17A
330
1F
100
AcDbEntity
  8
0
 62
     7
100
AcDbLine
 10
824.956909
 20
469.129272
 30
0.0
 11
824.956909
 21
469.270691
 31
0.0
  0
LINE
  5
17B
330
1F
100
AcDbEntity
  8
0
 62
     7
100
AcDbLine
 10
824.956909
 20
469.270691
 30
0.0
 11
824.956909
 21
469.400024
 31
0.0
  0
LINE
  5
17C
330
1F
100
AcDbEntity
  8
0
 62
     7
100
AcDbLine
 10
824.956909
 20
470.099976
 30
0.0
 11
824.956909
 21
469.400024
 31
0.0
  0
LINE
  5
17D
330
1F
100
AcDbEntity
  8
0
 62
     7
100
AcDbLine
 10
824.956909
 20
470.229309
 30
0.0
 11
824.956909
 21
470.099976
 31
0.0
  0
LINE
  5
17E
330
1F
100
AcDbEntity
  8
0
 62
     7
100
AcDbLine
 10
824.956909
 20
470.229309
 30
0.0
 11
824.956909
 21
470.370728
 31
0.0
  0
LINE
  5
17F
330
1F
100
AcDbEntity
  8
0
 62
     7
100
AcDbLine
 10
824.956909
 20
470.370728
 30
0.0
 11
824.956909
 21
470.5
 31
0.0
  0
LINE
  5
180
330
1F
100
AcDbEntity
  8
0
 62
     7
100
AcDbLine
 10
824.956909
 20
471.200012
 30
0.0
 11
824.956909
 21
470.5
 31
0.0
  0
LINE
  5
181
330
1F
100
AcDbEntity
  8
0
 62
     7
100
AcDbLine
 10
824.956909
 20
471.329285
 30
0.0
 11
824.956909
 21
471.200012
 31
0.0
  0
LINE
  5
182
330
1F
100
AcDbEntity
  8
0
 62
     7
100
AcDbLine
 10
824.956909
 20
471.329285
 30
0.0
 11
824.956909
 21
471.470703
 31
0.0
  0
LINE
  5
183
330
1F
100
AcDbEntity
  8
0
 62
     7
100
AcDbLine
 10
824.956909
 20
471.470703
 30
0.0
 11
824.956909
 21
471.599976
 31
0.0
  0
LINE
  5
184
330
1F
100
AcDbEntity
  8
0
 62
     7
100
AcDbLine
 10
824.956909
 20
472.299988
 30
0.0
 11
824.956909
 21
471.599976
 31
0.0
  0
LINE
  5
185
330
1F
100
AcDbEntity
  8
0
 62
     7
100
AcDbLine
 10
824.956909
 20
472.42926
 30
0.0
 11
824.956909
 21
472.299988
 31
0.0
  0
LINE
  5
186
330
1F
100
AcDbEntity
  8
0
 62
     7
100
AcDbLine
 10
824.956909
 20
472.42926
 30
0.0
 11
824.956909
 21
472.570679
 31
0.0
  0
LINE
  5
187
330
1F
100
AcDbEntity
  8
0
 62
     7
100
AcDbLine
 10
824.956909
 20
472.570679
 30
0.0
 11
824.956909
 21
472.700012
 31
0.0
  0
LINE
  5
188
330
1F
100
AcDbEntity
  8
0
 62
     7
100
AcDbLine
 10
822.65686
 20
465.829285
 30
0.0
 11
822.65686
 21
465.700012
 31
0.0
  0
LINE
  5
189
330
1F
100
AcDbEntity
  8
0
 62
     7
100
AcDbLine
 10
822.65686
 20
465.970703
 30
0.0
 11
822.65686
 21
466.099976
 31
0.0
  0
LINE
  5
18A
330
1F
100
AcDbEntity
  8
0
 62
     7
100
AcDbLine
 10
822.65686
 20
465.970703
 30
0.0
 11
822.65686
 21
465.829285
 31
0.0
  0
LINE
  5
18B
330
1F
100
AcDbEntity
  8
0
 62
     7
100
AcDbLine
 10
822.65686
 20
473.599976
 30
0.0
 11
822.65686
 21
473.529297
 31
0.0
  0
LINE
  5
18C
330
1F
100
AcDbEntity
  8
0
 62
     7
100
AcDbLine
 10
822.65686
 20
473.529297
 30
0.0
 11
822.65686
 21
473.400024
 31
0.0
  0
LINE
  5
18D
330
1F
100
AcDbEntity
  8
0
 62
     7
100
AcDbLine
 10
822.65686
 20
472.700012
 30
0.0
 11
822.65686
 21
473.400024
 31
0.0
  0
LINE
  5
18E
330
1F
100
AcDbEntity
  8
0
 62
     7
100
AcDbLine
 10
822.65686
 20
472.570679
 30
0.0
 11
822.65686
 21
472.700012
 31
0.0
  0
LINE
  5
18F
330
1F
100
AcDbEntity
  8
0
 62
     7
100
AcDbLine
 10
822.65686
 20
472.570679
 30
0.0
 11
822.65686
 21
472.42926
 31
0.0
  0
LINE
  5
190
330
1F
100
AcDbEntity
  8
0
 62
     7
100
AcDbLine
 10
822.65686
 20
472.42926
 30
0.0
 11
822.65686
 21
472.299988
 31
0.0
  0
LINE
  5
191
330
1F
100
AcDbEntity
  8
0
 62
     7
100
AcDbLine
 10
822.65686
 20
471.599976
 30
0.0
 11
822.65686
 21
472.299988
 31
0.0
  0
LINE
  5
192
330
1F
100
AcDbEntity
  8
0
 62
     7
100
AcDbLine
 10
822.65686
 20
471.470703
 30
0.0
 11
822.65686
 21
471.599976
 31
0.0
  0
LINE
  5
193
330
1F
100
AcDbEntity
  8
0
 62
     7
100
AcDbLine
 10
822.65686
 20
471.470703
 30
0.0
 11
822.65686
 21
471.329285
 31
0.0
  0
LINE
  5
194
330
1F
100
AcDbEntity
  8
0
 62
     7
100
AcDbLine
 10
822.65686
 20
471.329285
 30
0.0
 11
822.65686
 21
471.200012
 31
0.0
  0
LINE
  5
195
330
1F
100
AcDbEntity
  8
0
 62
     7
100
AcDbLine
 10
822.65686
 20
470.5
 30
0.0
 11
822.65686
 21
471.200012
 31
0.0
  0
LINE
  5
196
330
1F
100
AcDbEntity
  8
0
 62
     7
100
AcDbLine
 10
822.65686
 20
470.370728
 30
0.0
 11
822.65686
 21
470.5
 31
0.0
  0
LINE
  5
197
330
1F
100
AcDbEntity
  8
0
 62
     7
100
AcDbLine
 10
822.65686
 20
470.370728
 30
0.0
 11
822.65686
 21
470.229309
 31
0.0
  0
LINE
  5
198
330
1F
100
AcDbEntity
  8
0
 62
     7
100
AcDbLine
 10
822.65686
 20
470.229309
 30
0.0
 11
822.65686
 21
470.099976
 31
0.0
  0
LINE
  5
199
330
1F
100
AcDbEntity
  8
0
 62
     7
100
AcDbLine
 10
822.65686
 20
469.400024
 30
0.0
 11
822.65686
 21
470.099976
 31
0.0
  0
LINE
  5
19A
330
1F
100
AcDbEntity
  8
0
 62
     7
100
AcDbLine
 10
822.65686
 20
469.270691
 30
0.0
 11
822.65686
 21
469.400024
 31
0.0
  0
LINE
  5
19B
330
1F
100
AcDbEntity
  8
0
 62
     7
100
AcDbLine
 10
822.65686
 20
469.270691
 30
0.0
 11
822.65686
 21
469.129272
 31
0.0
  0
LINE
  5
19C
330
1F
100
AcDbEntity
  8
0
 62
     7
100
AcDbLine
 10
822.65686
 20
469.129272
 30
0.0
 11
822.65686
 21
469.0
 31
0.0
  0
LINE
  5
19D
330
1F
100
AcDbEntity
  8
0
 62
     7
100
AcDbLine
 10
822.65686
 20
468.299988
 30
0.0
 11
822.65686
 21
469.0
 31
0.0
  0
LINE
  5
19E
330
1F
100
AcDbEntity
  8
0
 62
     7
100
AcDbLine
 10
822.65686
 20
468.170715
 30
0.0
 11
822.65686
 21
468.299988
 31
0.0
  0
LINE
  5
19F
330
1F
100
AcDbEntity
  8
0
 62
     7
100
AcDbLine
 10
822.65686
 20
468.170715
 30
0.0
 11
822.65686
 21
468.029297
 31
0.0
  0
LINE
  5
1A0
330
1F
100
AcDbEntity
  8
0
 62
     7
100
AcDbLine
 10
822.65686
 20
468.029297
 30
0.0
 11
822.65686
 21
467.900024
 31
0.0
  0
LINE
  5
1A1
330
1F
100
AcDbEntity
  8
0
 62
     7
100
AcDbLine
 10
822.65686
 20
467.200012
 30
0.0
 11
822.65686
 21
467.900024
 31
0.0
  0
LINE
  5
1A2
330
1F
100
AcDbEntity
  8
0
 62
     7
100
AcDbLine
 10
822.65686
 20
467.070679
 30
0.0
 11
822.65686
 21
467.200012
 31
0.0
  0
LINE
  5
1A3
330
1F
100
AcDbEntity
  8
0
 62
     7
100
AcDbLine
 10
822.65686
 20
467.070679
 30
0.0
 11
822.65686
 21
466.92926
 31
0.0
  0
LINE
  5
1A4
330
1F
100
AcDbEntity
  8
0
 62
     7
100
AcDbLine
 10
822.65686
 20
466.92926
 30
0.0
 11
822.65686
 21
466.799988
 31
0.0
  0
LINE
  5
1A5
330
1F
100
AcDbEntity
  8
0
 62
     7
100
AcDbLine
 10
822.65686
 20
466.099976
 30
0.0
 11
822.65686
 21
466.799988
 31
0.0
  0
LINE
  5
1A6
330
1F
100
AcDbEntity
  8
0
 62
     7
100
AcDbLine
 10
821.65686
 20
472.42926
 30
0.0
 11
821.65686
 21
472.299988
 31
0.0
  0
LINE
  5
1A7
330
1F
100
AcDbEntity
  8
0
 62
     7
100
AcDbLine
 10
821.65686
 20
472.42926
 30
0.0
 11
821.65686
 21
472.570679
 31
0.0
  0
LINE
  5
1A8
330
1F
100
AcDbEntity
  8
0
 62
     7
100
AcDbLine
 10
821.65686
 20
472.570679
 30
0.0
 11
821.65686
 21
472.700012
 31
0.0
  0
LINE
  5
1A9
330
1F
100
AcDbEntity
  8
0
 62
     7
100
AcDbLine
 10
821.65686
 20
473.099976
 30
0.0
 11
821.65686
 21
472.700012
 31
0.0
  0
LINE
  5
1AA
330
1F
100
AcDbEntity
  8
0
 62
     7
100
AcDbLine
 10
821.65686
 20
465.829285
 30
0.0
 11
821.65686
 21
465.700012
 31
0.0
  0
LINE
  5
1AB
330
1F
100
AcDbEntity
  8
0
 62
     7
100
AcDbLine
 10
821.65686
 20
465.829285
 30
0.0
 11
821.65686
 21
465.970703
 31
0.0
  0
LINE
  5
1AC
330
1F
100
AcDbEntity
  8
0
 62
     7
100
AcDbLine
 10
821.65686
 20
465.970703
 30
0.0
 11
821.65686
 21
466.099976
 31
0.0
  0
LINE
  5
1AD
330
1F
100
AcDbEntity
  8
0
 62
     7
100
AcDbLine
 10
821.65686
 20
466.799988
 30
0.0
 11
821.65686
 21
466.099976
 31
0.0
  0
LINE
  5
1AE
330
1F
100
AcDbEntity
  8
0
 62
     7
100
AcDbLine
 10
821.65686
 20
466.92926
 30
0.0
 11
821.65686
 21
466.799988
 31
0.0
  0
LINE
  5
1AF
330
1F
100
AcDbEntity
  8
0
 62
     7
100
AcDbLine
 10
821.65686
 20
466.92926
 30
0.0
 11
821.65686
 21
467.070679
 31
0.0
  0
LINE
  5
1B0
330
1F
100
AcDbEntity
  8
0
 62
     7
100
AcDbLine
 10
821.65686
 20
467.070679
 30
0.0
 11
821.65686
 21
467.200012
 31
0.0
  0
LINE
  5
1B1
330
1F
100
AcDbEntity
  8
0
 62
     7
100
AcDbLine
 10
821.65686
 20
467.900024
 30
0.0
 11
821.65686
 21
467.200012
 31
0.0
  0
LINE
  5
1B2
330
1F
100
AcDbEntity
  8
0
 62
     7
100
AcDbLine
 10
821.65686
 20
468.029297
 30
0.0
 11
821.65686
 21
467.900024
 31
0.0
  0
LINE
  5
1B3
330
1F
100
AcDbEntity
  8
0
 62
     7
100
AcDbLine
 10
821.65686
 20
468.029297
 30
0.0
 11
821.65686
 21
468.170715
 31
0.0
  0
LINE
  5
1B4
330
1F
100
AcDbEntity
  8
0
 62
     7
100
AcDbLine
 10
821.65686
 20
468.170715
 30
0.0
 11
821.65686
 21
468.299988
 31
0.0
  0
LINE
  5
1B5
330
1F
100
AcDbEntity
  8
0
 62
     7
100
AcDbLine
 10
821.65686
 20
469.0
 30
0.0
 11
821.65686
 21
468.299988
 31
0.0
  0
LINE
  5
1B6
330
1F
100
AcDbEntity
  8
0
 62
     7
100
AcDbLine
 10
821.65686
 20
469.129272
 30
0.0
 11
821.65686
 21
469.0
 31
0.0
  0
LINE
  5
1B7
330
1F
100
AcDbEntity
  8
0
 62
     7
100
AcDbLine
 10
821.65686
 20
469.129272
 30
0.0
 11
821.65686
 21
469.270691
 31
0.0
  0
LINE
  5
1B8
330
1F
100
AcDbEntity
  8
0
 62
     7
100
AcDbLine
 10
821.65686
 20
469.270691
 30
0.0
 11
821.65686
 21
469.400024
 31
0.0
  0
LINE
  5
1B9
330
1F
100
AcDbEntity
  8
0
 62
     7
100
AcDbLine
 10
821.65686
 20
470.099976
 30
0.0
 11
821.65686
 21
469.400024
 31
0.0
  0
LINE
  5
1BA
330
1F
100
AcDbEntity
  8
0
 62
     7
100
AcDbLine
 10
821.65686
 20
470.229309
 30
0.0
 11
821.65686
 21
470.099976
 31
0.0
  0
LINE
  5
1BB
330
1F
100
AcDbEntity
  8
0
 62
     7
100
AcDbLine
 10
821.65686
 20
470.229309
 30
0.0
 11
821.65686
 21
470.370728
 31
0.0
  0
LINE
  5
1BC
330
1F
100
AcDbEntity
  8
0
 62
     7
100
AcDbLine
 10
821.65686
 20
470.370728
 30
0.0
 11
821.65686
 21
470.5
 31
0.0
  0
LINE
  5
1BD
330
1F
100
AcDbEntity
  8
0
 62
     7
100
AcDbLine
 10
821.65686
 20
471.200012
 30
0.0
 11
821.65686
 21
470.5
 31
0.0
  0
LINE
  5
1BE
330
1F
100
AcDbEntity
  8
0
 62
     7
100
AcDbLine
 10
821.65686
 20
471.329285
 30
0.0
 11
821.65686
 21
471.200012
 31
0.0
  0
LINE
  5
1BF
330
1F
100
AcDbEntity
  8
0
 62
     7
100
AcDbLine
 10
821.65686
 20
471.329285
 30
0.0
 11
821.65686
 21
471.470703
 31
0.0
  0
LINE
  5
1C0
330
1F
100
AcDbEntity
  8
0
 62
     7
100
AcDbLine
 10
821.65686
 20
471.470703
 30
0.0
 11
821.65686
 21
471.599976
 31
0.0
  0
LINE
  5
1C1
330
1F
100
AcDbEntity
  8
0
 62
     7
100
AcDbLine
 10
821.65686
 20
472.299988
 30
0.0
 11
821.65686
 21
471.599976
 31
0.0
  0
LINE
  5
1C2
330
1F
100
AcDbEntity
  8
0
 62
     7
100
AcDbLine
 10
525.956848
 20
465.829285
 30
0.0
 11
525.956848
 21
465.700012
 31
0.0
  0
LINE
  5
1C3
330
1F
100
AcDbEntity
  8
0
 62
     7
100
AcDbLine
 10
525.956848
 20
465.970703
 30
0.0
 11
525.956848
 21
466.099976
 31
0.0
  0
LINE
  5
1C4
330
1F
100
AcDbEntity
  8
0
 62
     7
100
AcDbLine
 10
525.956848
 20
465.970703
 30
0.0
 11
525.956848
 21
465.829285
 31
0.0
  0
LINE
  5
1C5
330
1F
100
AcDbEntity
  8
0
 62
     7
100
AcDbLine
 10
525.956848
 20
472.700012
 30
0.0
 11
525.956848
 21
473.099976
 31
0.0
  0
LINE
  5
1C6
330
1F
100
AcDbEntity
  8
0
 62
     7
100
AcDbLine
 10
525.956848
 20
472.570679
 30
0.0
 11
525.956848
 21
472.700012
 31
0.0
  0
LINE
  5
1C7
330
1F
100
AcDbEntity
  8
0
 62
     7
100
AcDbLine
 10
525.956848
 20
472.570679
 30
0.0
 11
525.956848
 21
472.42926
 31
0.0
  0
LINE
  5
1C8
330
1F
100
AcDbEntity
  8
0
 62
     7
100
AcDbLine
 10
525.956848
 20
472.42926
 30
0.0
 11
525.956848
 21
472.299988
 31
0.0
  0
LINE
  5
1C9
330
1F
100
AcDbEntity
  8
0
 62
     7
100
AcDbLine
 10
525.956848
 20
471.599976
 30
0.0
 11
525.956848
 21
472.299988
 31
0.0
  0
LINE
  5
1CA
330
1F
100
AcDbEntity
  8
0
 62
     7
100
AcDbLine
 10
525.956848
 20
471.470703
 30
0.0
 11
525.956848
 21
471.599976
 31
0.0
  0
LINE
  5
1CB
330
1F
100
AcDbEntity
  8
0
 62
     7
100
AcDbLine
 10
525.956848
 20
471.470703
 30
0.0
 11
525.956848
 21
471.329285
 31
0.0
  0
LINE
  5
1CC
330
1F
100
AcDbEntity
  8
0
 62
     7
100
AcDbLine
 10
525.956848
 20
471.329285
 30
0.0
 11
525.956848
 21
471.200012
 31
0.0
  0
LINE
  5
1CD
330
1F
100
AcDbEntity
  8
0
 62
     7
100
AcDbLine
 10
525.956848
 20
470.5
 30
0.0
 11
525.956848
 21
471.200012
 31
0.0
  0
LINE
  5
1CE
330
1F
100
AcDbEntity
  8
0
 62
     7
100
AcDbLine
 10
525.956848
 20
470.370728
 30
0.0
 11
525.956848
 21
470.5
 31
0.0
  0
LINE
  5
1CF
330
1F
100
AcDbEntity
  8
0
 62
     7
100
AcDbLine
 10
525.956848
 20
470.370728
 30
0.0
 11
525.956848
 21
470.229309
 31
0.0
  0
LINE
  5
1D0
330
1F
100
AcDbEntity
  8
0
 62
     7
100
AcDbLine
 10
525.956848
 20
470.229309
 30
0.0
 11
525.956848
 21
470.099976
 31
0.0
  0
LINE
  5
1D1
330
1F
100
AcDbEntity
  8
0
 62
     7
100
AcDbLine
 10
525.956848
 20
469.400024
 30
0.0
 11
525.956848
 21
470.099976
 31
0.0
  0
LINE
  5
1D2
330
1F
100
AcDbEntity
  8
0
 62
     7
100
AcDbLine
 10
525.956848
 20
469.270691
 30
0.0
 11
525.956848
 21
469.400024
 31
0.0
  0
LINE
  5
1D3
330
1F
100
AcDbEntity
  8
0
 62
     7
100
AcDbLine
 10
525.956848
 20
469.270691
 30
0.0
 11
525.956848
 21
469.129272
 31
0.0
  0
LINE
  5
1D4
330
1F
100
AcDbEntity
  8
0
 62
     7
100
AcDbLine
 10
525.956848
 20
469.129272
 30
0.0
 11
525.956848
 21
469.0
 31
0.0
  0
LINE
  5
1D5
330
1F
100
AcDbEntity
  8
0
 62
     7
100
AcDbLine
 10
525.956848
 20
468.299988
 30
0.0
 11
525.956848
 21
469.0
 31
0.0
  0
LINE
  5
1D6
330
1F
100
AcDbEntity
  8
0
 62
     7
100
AcDbLine
 10
525.956848
 20
468.170715
 30
0.0
 11
525.956848
 21
468.299988
 31
0.0
  0
LINE
  5
1D7
330
1F
100
AcDbEntity
  8
0
 62
     7
100
AcDbLine
 10
525.956848
 20
468.170715
 30
0.0
 11
525.956848
 21
468.029297
 31
0.0
  0
LINE
  5
1D8
330
1F
100
AcDbEntity
  8
0
 62
     7
100
AcDbLine
 10
525.956848
 20
468.029297
 30
0.0
 11
525.956848
 21
467.900024
 31
0.0
  0
LINE
  5
1D9
330
1F
100
AcDbEntity
  8
0
 62
     7
100
AcDbLine
 10
525.956848
 20
467.200012
 30
0.0
 11
525.956848
 21
467.900024
 31
0.0
  0
LINE
  5
1DA
330
1F
100
AcDbEntity
  8
0
 62
     7
100
AcDbLine
 10
525.956848
 20
467.070679
 30
0.0
 11
525.956848
 21
467.200012
 31
0.0
  0
LINE
  5
1DB
330
1F
100
AcDbEntity
  8
0
 62
     7
100
AcDbLine
 10
525.956848
 20
467.070679
 30
0.0
 11
525.956848
 21
466.92926
 31
0.0
  0
LINE
  5
1DC
330
1F
100
AcDbEntity
  8
0
 62
     7
100
AcDbLine
 10
525.956848
 20
466.92926
 30
0.0
 11
525.956848
 21
466.799988
 31
0.0
  0
LINE
  5
1DD
330
1F
100
AcDbEntity
  8
0
 62
     7
100
AcDbLine
 10
525.956848
 20
466.099976
 30
0.0
 11
525.956848
 21
466.799988
 31
0.0
  0
LINE
  5
1DE
330
1F
100
AcDbEntity
  8
0
 62
     7
100
AcDbLine
 10
524.956848
 20
473.400024
 30
0.0
 11
524.956848
 21
472.700012
 31
0.0
  0
LINE
  5
1DF
330
1F
100
AcDbEntity
  8
0
 62
     7
100
AcDbLine
 10
524.956848
 20
473.529297
 30
0.0
 11
524.956848
 21
473.400024
 31
0.0
  0
LINE
  5
1E0
330
1F
100
AcDbEntity
  8
0
 62
     7
100
AcDbLine
 10
524.956848
 20
473.529297
 30
0.0
 11
524.956848
 21
473.599976
 31
0.0
  0
LINE
  5
1E1
330
1F
100
AcDbEntity
  8
0
 62
     7
100
AcDbLine
 10
524.956848
 20
465.829285
 30
0.0
 11
524.956848
 21
465.700012
 31
0.0
  0
LINE
  5
1E2
330
1F
100
AcDbEntity
  8
0
 62
     7
100
AcDbLine
 10
524.956848
 20
465.829285
 30
0.0
 11
524.956848
 21
465.970703
 31
0.0
  0
LINE
  5
1E3
330
1F
100
AcDbEntity
  8
0
 62
     7
100
AcDbLine
 10
524.956848
 20
465.970703
 30
0.0
 11
524.956848
 21
466.099976
 31
0.0
  0
LINE
  5
1E4
330
1F
100
AcDbEntity
  8
0
 62
     7
100
AcDbLine
 10
524.956848
 20
466.799988
 30
0.0
 11
524.956848
 21
466.099976
 31
0.0
  0
LINE
  5
1E5
330
1F
100
AcDbEntity
  8
0
 62
     7
100
AcDbLine
 10
524.956848
 20
466.92926
 30
0.0
 11
524.956848
 21
466.799988
 31
0.0
  0
LINE
  5
1E6
330
1F
100
AcDbEntity
  8
0
 62
     7
100
AcDbLine
 10
524.956848
 20
466.92926
 30
0.0
 11
524.956848
 21
467.070679
 31
0.0
  0
LINE
  5
1E7
330
1F
100
AcDbEntity
  8
0
 62
     7
100
AcDbLine
 10
524.956848
 20
467.070679
 30
0.0
 11
524.956848
 21
467.200012
 31
0.0
  0
LINE
  5
1E8
330
1F
100
AcDbEntity
  8
0
 62
     7
100
AcDbLine
 10
524.956848
 20
467.900024
 30
0.0
 11
524.956848
 21
467.200012
 31
0.0
  0
LINE
  5
1E9
330
1F
100
AcDbEntity
  8
0
 62
     7
100
AcDbLine
 10
524.956848
 20
468.029297
 30
0.0
 11
524.956848
 21
467.900024
 31
0.0
  0
LINE
  5
1EA
330
1F
100
AcDbEntity
  8
0
 62
     7
100
AcDbLine
 10
524.956848
 20
468.029297
 30
0.0
 11
524.956848
 21
468.170715
 31
0.0
  0
LINE
  5
1EB
330
1F
100
AcDbEntity
  8
0
 62
     7
100
AcDbLine
 10
524.956848
 20
468.170715
 30
0.0
 11
524.956848
 21
468.299988
 31
0.0
  0
LINE
  5
1EC
330
1F
100
AcDbEntity
  8
0
 62
     7
100
AcDbLine
 10
524.956848
 20
469.0
 30
0.0
 11
524.956848
 21
468.299988
 31
0.0
  0
LINE
  5
1ED
330
1F
100
AcDbEntity
  8
0
 62
     7
100
AcDbLine
 10
524.956848
 20
469.129272
 30
0.0
 11
524.956848
 21
469.0
 31
0.0
  0
LINE
  5
1EE
330
1F
100
AcDbEntity
  8
0
 62
     7
100
AcDbLine
 10
524.956848
 20
469.129272
 30
0.0
 11
524.956848
 21
469.270691
 31
0.0
  0
LINE
  5
1EF
330
1F
100
AcDbEntity
  8
0
 62
     7
100
AcDbLine
 10
524.956848
 20
469.270691
 30
0.0
 11
524.956848
 21
469.400024
 31
0.0
  0
LINE
  5
1F0
330
1F
100
AcDbEntity
  8
0
 62
     7
100
AcDbLine
 10
524.956848
 20
470.099976
 30
0.0
 11
524.956848
 21
469.400024
 31
0.0
  0
LINE
  5
1F1
330
1F
100
AcDbEntity
  8
0
 62
     7
100
AcDbLine
 10
524.956848
 20
470.229309
 30
0.0
 11
524.956848
 21
470.099976
 31
0.0
  0
LINE
  5
1F2
330
1F
100
AcDbEntity
  8
0
 62
     7
100
AcDbLine
 10
524.956848
 20
470.229309
 30
0.0
 11
524.956848
 21
470.370728
 31
0.0
  0
LINE
  5
1F3
330
1F
100
AcDbEntity
  8
0
 62
     7
100
AcDbLine
 10
524.956848
 20
470.370728
 30
0.0
 11
524.956848
 21
470.5
 31
0.0
  0
LINE
  5
1F4
330
1F
100
AcDbEntity
  8
0
 62
     7
100
AcDbLine
 10
524.956848
 20
471.200012
 30
0.0
 11
524.956848
 21
470.5
 31
0.0
  0
LINE
  5
1F5
330
1F
100
AcDbEntity
  8
0
 62
     7
100
AcDbLine
 10
524.956848
 20
471.329285
 30
0.0
 11
524.956848
 21
471.200012
 31
0.0
  0
LINE
  5
1F6
330
1F
100
AcDbEntity
  8
0
 62
     7
100
AcDbLine
 10
524.956848
 20
471.329285
 30
0.0
 11
524.956848
 21
471.470703
 31
0.0
  0
LINE
  5
1F7
330
1F
100
AcDbEntity
  8
0
 62
     7
100
AcDbLine
 10
524.956848
 20
471.470703
 30
0.0
 11
524.956848
 21
471.599976
 31
0.0
  0
LINE
  5
1F8
330
1F
100
AcDbEntity
  8
0
 62
     7
100
AcDbLine
 10
524.956848
 20
472.299988
 30
0.0
 11
524.956848
 21
471.599976
 31
0.0
  0
LINE
  5
1F9
330
1F
100
AcDbEntity
  8
0
 62
     7
100
AcDbLine
 10
524.956848
 20
472.42926
 30
0.0
 11
524.956848
 21
472.299988
 31
0.0
  0
LINE
  5
1FA
330
1F
100
AcDbEntity
  8
0
 62
     7
100
AcDbLine
 10
524.956848
 20
472.42926
 30
0.0
 11
524.956848
 21
472.570679
 31
0.0
  0
LINE
  5
1FB
330
1F
100
AcDbEntity
  8
0
 62
     7
100
AcDbLine
 10
524.956848
 20
472.570679
 30
0.0
 11
524.956848
 21
472.700012
 31
0.0
  0
LINE
  5
1FC
330
1F
100
AcDbEntity
  8
0
 62
     7
100
AcDbLine
 10
522.65686
 20
465.829285
 30
0.0
 11
522.65686
 21
465.700012
 31
0.0
  0
LINE
  5
1FD
330
1F
100
AcDbEntity
  8
0
 62
     7
100
AcDbLine
 10
522.65686
 20
465.970703
 30
0.0
 11
522.65686
 21
466.099976
 31
0.0
  0
LINE
  5
1FE
330
1F
100
AcDbEntity
  8
0
 62
     7
100
AcDbLine
 10
522.65686
 20
465.970703
 30
0.0
 11
522.65686
 21
465.829285
 31
0.0
  0
LINE
  5
1FF
330
1F
100
AcDbEntity
  8
0
 62
     7
100
AcDbLine
 10
522.65686
 20
473.599976
 30
0.0
 11
522.65686
 21
473.529297
 31
0.0
  0
LINE
  5
200
330
1F
100
AcDbEntity
  8
0
 62
     7
100
AcDbLine
 10
522.65686
 20
473.529297
 30
0.0
 11
522.65686
 21
473.400024
 31
0.0
  0
LINE
  5
201
330
1F
100
AcDbEntity
  8
0
 62
     7
100
AcDbLine
 10
522.65686
 20
472.700012
 30
0.0
 11
522.65686
 21
473.400024
 31
0.0
  0
LINE
  5
202
330
1F
100
AcDbEntity
  8
0
 62
     7
100
AcDbLine
 10
522.65686
 20
472.570679
 30
0.0
 11
522.65686
 21
472.700012
 31
0.0
  0
LINE
  5
203
330
1F
100
AcDbEntity
  8
0
 62
     7
100
AcDbLine
 10
522.65686
 20
472.570679
 30
0.0
 11
522.65686
 21
472.42926
 31
0.0
  0
LINE
  5
204
330
1F
100
AcDbEntity
  8
0
 62
     7
100
AcDbLine
 10
522.65686
 20
472.42926
 30
0.0
 11
522.65686
 21
472.299988
 31
0.0
  0
LINE
  5
205
330
1F
100
AcDbEntity
  8
0
 62
     7
100
AcDbLine
 10
522.65686
 20
471.599976
 30
0.0
 11
522.65686
 21
472.299988
 31
0.0
  0
LINE
  5
206
330
1F
100
AcDbEntity
  8
0
 62
     7
100
AcDbLine
 10
522.65686
 20
471.470703
 30
0.0
 11
522.65686
 21
471.599976
 31
0.0
  0
LINE
  5
207
330
1F
100
AcDbEntity
  8
0
 62
     7
100
AcDbLine
 10
522.65686
 20
471.470703
 30
0.0
 11
522.65686
 21
471.329285
 31
0.0
  0
LINE
  5
208
330
1F
100
AcDbEntity
  8
0
 62
     7
100
AcDbLine
 10
522.65686
 20
471.329285
 30
0.0
 11
522.65686
 21
471.200012
 31
0.0
  0
LINE
  5
209
330
1F
100
AcDbEntity
  8
0
 62
     7
100
AcDbLine
 10
522.65686
 20
470.5
 30
0.0
 11
522.65686
 21
471.200012
 31
0.0
  0
LINE
  5
20A
330
1F
100
AcDbEntity
  8
0
 62
     7
100
AcDbLine
 10
522.65686
 20
470.370728
 30
0.0
 11
522.65686
 21
470.5
 31
0.0
  0
LINE
  5
20B
330
1F
100
AcDbEntity
  8
0
 62
     7
100
AcDbLine
 10
522.65686
 20
470.370728
 30
0.0
 11
522.65686
 21
470.229309
 31
0.0
  0
LINE
  5
20C
330
1F
100
AcDbEntity
  8
0
 62
     7
100
AcDbLine
 10
522.65686
 20
470.229309
 30
0.0
 11
522.65686
 21
470.099976
 31
0.0
  0
LINE
  5
20D
330
1F
100
AcDbEntity
  8
0
 62
     7
100
AcDbLine
 10
522.65686
 20
469.400024
 30
0.0
 11
522.65686
 21
470.099976
 31
0.0
  0
LINE
  5
20E
330
1F
100
AcDbEntity
  8
0
 62
     7
100
AcDbLine
 10
522.65686
 20
469.270691
 30
0.0
 11
522.65686
 21
469.400024
 31
0.0
  0
LINE
  5
20F
330
1F
100
AcDbEntity
  8
0
 62
     7
100
AcDbLine
 10
522.65686
 20
469.270691
 30
0.0
 11
522.65686
 21
469.129272
 31
0.0
  0
LINE
  5
210
330
1F
100
AcDbEntity
  8
0
 62
     7
100
AcDbLine
 10
522.65686
 20
469.129272
 30
0.0
 11
522.65686
 21
469.0
 31
0.0
  0
LINE
  5
211
330
1F
100
AcDbEntity
  8
0
 62
     7
100
AcDbLine
 10
522.65686
 20
468.299988
 30
0.0
 11
522.65686
 21
469.0
 31
0.0
  0
LINE
  5
212
330
1F
100
AcDbEntity
  8
0
 62
     7
100
AcDbLine
 10
522.65686
 20
468.170715
 30
0.0
 11
522.65686
 21
468.299988
 31
0.0
  0
LINE
  5
213
330
1F
100
AcDbEntity
  8
0
 62
     7
100
AcDbLine
 10
522.65686
 20
468.170715
 30
0.0
 11
522.65686
 21
468.029297
 31
0.0
  0
LINE
  5
214
330
1F
100
AcDbEntity
  8
0
 62
     7
100
AcDbLine
 10
522.65686
 20
468.029297
 30
0.0
 11
522.65686
 21
467.900024
 31
0.0
  0
LINE
  5
215
330
1F
100
AcDbEntity
  8
0
 62
     7
100
AcDbLine
 10
522.65686
 20
467.200012
 30
0.0
 11
522.65686
 21
467.900024
 31
0.0
  0
LINE
  5
216
330
1F
100
AcDbEntity
  8
0
 62
     7
100
AcDbLine
 10
522.65686
 20
467.070679
 30
0.0
 11
522.65686
 21
467.200012
 31
0.0
  0
LINE
  5
217
330
1F
100
AcDbEntity
  8
0
 62
     7
100
AcDbLine
 10
522.65686
 20
467.070679
 30
0.0
 11
522.65686
 21
466.92926
 31
0.0
  0
LINE
  5
218
330
1F
100
AcDbEntity
  8
0
 62
     7
100
AcDbLine
 10
522.65686
 20
466.92926
 30
0.0
 11
522.65686
 21
466.799988
 31
0.0
  0
LINE
  5
219
330
1F
100
AcDbEntity
  8
0
 62
     7
100
AcDbLine
 10
522.65686
 20
466.099976
 30
0.0
 11
522.65686
 21
466.799988
 31
0.0
  0
LINE
  5
21A
330
1F
100
AcDbEntity
  8
0
 62
     7
100
AcDbLine
 10
521.65686
 20
472.42926
 30
0.0
 11
521.65686
 21
472.299988
 31
0.0
  0
LINE
  5
21B
330
1F
100
AcDbEntity
  8
0
 62
     7
100
AcDbLine
 10
521.65686
 20
472.42926
 30
0.0
 11
521.65686
 21
472.570679
 31
0.0
  0
LINE
  5
21C
330
1F
100
AcDbEntity
  8
0
 62
     7
100
AcDbLine
 10
521.65686
 20
472.570679
 30
0.0
 11
521.65686
 21
472.700012
 31
0.0
  0
LINE
  5
21D
330
1F
100
AcDbEntity
  8
0
 62
     7
100
AcDbLine
 10
521.65686
 20
473.099976
 30
0.0
 11
521.65686
 21
472.700012
 31
0.0
  0
LINE
  5
21E
330
1F
100
AcDbEntity
  8
0
 62
     7
100
AcDbLine
 10
521.65686
 20
465.829285
 30
0.0
 11
521.65686
 21
465.700012
 31
0.0
  0
LINE
  5
21F
330
1F
100
AcDbEntity
  8
0
 62
     7
100
AcDbLine
 10
521.65686
 20
465.829285
 30
0.0
 11
521.65686
 21
465.970703
 31
0.0
  0
LINE
  5
220
330
1F
100
AcDbEntity
  8
0
 62
     7
100
AcDbLine
 10
521.65686
 20
465.970703
 30
0.0
 11
521.65686
 21
466.099976
 31
0.0
  0
LINE
  5
221
330
1F
100
AcDbEntity
  8
0
 62
     7
100
AcDbLine
 10
521.65686
 20
466.799988
 30
0.0
 11
521.65686
 21
466.099976
 31
0.0
  0
LINE
  5
222
330
1F
100
AcDbEntity
  8
0
 62
     7
100
AcDbLine
 10
521.65686
 20
466.92926
 30
0.0
 11
521.65686
 21
466.799988
 31
0.0
  0
LINE
  5
223
330
1F
100
AcDbEntity
  8
0
 62
     7
100
AcDbLine
 10
521.65686
 20
466.92926
 30
0.0
 11
521.65686
 21
467.070679
 31
0.0
  0
LINE
  5
224
330
1F
100
AcDbEntity
  8
0
 62
     7
100
AcDbLine
 10
521.65686
 20
467.070679
 30
0.0
 11
521.65686
 21
467.200012
 31
0.0
  0
LINE
  5
225
330
1F
100
AcDbEntity
  8
0
 62
     7
100
AcDbLine
 10
521.65686
 20
467.900024
 30
0.0
 11
521.65686
 21
467.200012
 31
0.0
  0
LINE
  5
226
330
1F
100
AcDbEntity
  8
0
 62
     7
100
AcDbLine
 10
521.65686
 20
468.029297
 30
0.0
 11
521.65686
 21
467.900024
 31
0.0
  0
LINE
  5
227
330
1F
100
AcDbEntity
  8
0
 62
     7
100
AcDbLine
 10
521.65686
 20
468.029297
 30
0.0
 11
521.65686
 21
468.170715
 31
0.0
  0
LINE
  5
228
330
1F
100
AcDbEntity
  8
0
 62
     7
100
AcDbLine
 10
521.65686
 20
468.170715
 30
0.0
 11
521.65686
 21
468.299988
 31
0.0
  0
LINE
  5
229
330
1F
100
AcDbEntity
  8
0
 62
     7
100
AcDbLine
 10
521.65686
 20
469.0
 30
0.0
 11
521.65686
 21
468.299988
 31
0.0
  0
LINE
  5
22A
330
1F
100
AcDbEntity
  8
0
 62
     7
100
AcDbLine
 10
521.65686
 20
469.129272
 30
0.0
 11
521.65686
 21
469.0
 31
0.0
  0
LINE
  5
22B
330
1F
100
AcDbEntity
  8
0
 62
     7
100
AcDbLine
 10
521.65686
 20
469.129272
 30
0.0
 11
521.65686
 21
469.270691
 31
0.0
  0
LINE
  5
22C
330
1F
100
AcDbEntity
  8
0
 62
     7
100
AcDbLine
 10
521.65686
 20
469.270691
 30
0.0
 11
521.65686
 21
469.400024
 31
0.0
  0
LINE
  5
22D
330
1F
100
AcDbEntity
  8
0
 62
     7
100
AcDbLine
 10
521.65686
 20
470.099976
 30
0.0
 11
521.65686
 21
469.400024
 31
0.0
  0
LINE
  5
22E
330
1F
100
AcDbEntity
  8
0
 62
     7
100
AcDbLine
 10
521.65686
 20
470.229309
 30
0.0
 11
521.65686
 21
470.099976
 31
0.0
  0
LINE
  5
22F
330
1F
100
AcDbEntity
  8
0
 62
     7
100
AcDbLine
 10
521.65686
 20
470.229309
 30
0.0
 11
521.65686
 21
470.370728
 31
0.0
  0
LINE
  5
230
330
1F
100
AcDbEntity
  8
0
 62
     7
100
AcDbLine
 10
521.65686
 20
470.370728
 30
0.0
 11
521.65686
 21
470.5
 31
0.0
  0
LINE
  5
231
330
1F
100
AcDbEntity
  8
0
 62
     7
100
AcDbLine
 10
521.65686
 20
471.200012
 30
0.0
 11
521.65686
 21
470.5
 31
0.0
  0
LINE
  5
232
330
1F
100
AcDbEntity
  8
0
 62
     7
100
AcDbLine
 10
521.65686
 20
471.329285
 30
0.0
 11
521.65686
 21
471.200012
 31
0.0
  0
LINE
  5
233
330
1F
100
AcDbEntity
  8
0
 62
     7
100
AcDbLine
 10
521.65686
 20
471.329285
 30
0.0
 11
521.65686
 21
471.470703
 31
0.0
  0
LINE
  5
234
330
1F
100
AcDbEntity
  8
0
 62
     7
100
AcDbLine
 10
521.65686
 20
471.470703
 30
0.0
 11
521.65686
 21
471.599976
 31
0.0
  0
LINE
  5
235
330
1F
100
AcDbEntity
  8
0
 62
     7
100
AcDbLine
 10
521.65686
 20
472.299988
 30
0.0
 11
521.65686
 21
471.599976
 31
0.0
  0
LINE
  5
236
330
1F
100
AcDbEntity
  8
0
 62
     7
100
AcDbLine
 10
225.956924
 20
465.829285
 30
0.0
 11
225.956924
 21
465.700012
 31
0.0
  0
LINE
  5
237
330
1F
100
AcDbEntity
  8
0
 62
     7
100
AcDbLine
 10
225.956924
 20
465.970703
 30
0.0
 11
225.956924
 21
466.099976
 31
0.0
  0
LINE
  5
238
330
1F
100
AcDbEntity
  8
0
 62
     7
100
AcDbLine
 10
225.956924
 20
465.970703
 30
0.0
 11
225.956924
 21
465.829285
 31
0.0
  0
LINE
  5
239
330
1F
100
AcDbEntity
  8
0
 62
     7
100
AcDbLine
 10
225.956924
 20
472.700012
 30
0.0
 11
225.956924
 21
473.099976
 31
0.0
  0
LINE
  5
23A
330
1F
100
AcDbEntity
  8
0
 62
     7
100
AcDbLine
 10
225.956924
 20
472.570679
 30
0.0
 11
225.956924
 21
472.700012
 31
0.0
  0
LINE
  5
23B
330
1F
100
AcDbEntity
  8
0
 62
     7
100
AcDbLine
 10
225.956924
 20
472.570679
 30
0.0
 11
225.956924
 21
472.42926
 31
0.0
  0
LINE
  5
23C
330
1F
100
AcDbEntity
  8
0
 62
     7
100
AcDbLine
 10
225.956924
 20
472.42926
 30
0.0
 11
225.956924
 21
472.299988
 31
0.0
  0
LINE
  5
23D
330
1F
100
AcDbEntity
  8
0
 62
     7
100
AcDbLine
 10
225.956924
 20
471.599976
 30
0.0
 11
225.956924
 21
472.299988
 31
0.0
  0
LINE
  5
23E
330
1F
100
AcDbEntity
  8
0
 62
     7
100
AcDbLine
 10
225.956924
 20
471.470703
 30
0.0
 11
225.956924
 21
471.599976
 31
0.0
  0
LINE
  5
23F
330
1F
100
AcDbEntity
  8
0
 62
     7
100
AcDbLine
 10
225.956924
 20
471.470703
 30
0.0
 11
225.956924
 21
471.329285
 31
0.0
  0
LINE
  5
240
330
1F
100
AcDbEntity
  8
0
 62
     7
100
AcDbLine
 10
225.956924
 20
471.329285
 30
0.0
 11
225.956924
 21
471.200012
 31
0.0
  0
LINE
  5
241
330
1F
100
AcDbEntity
  8
0
 62
     7
100
AcDbLine
 10
225.956924
 20
470.5
 30
0.0
 11
225.956924
 21
471.200012
 31
0.0
  0
LINE
  5
242
330
1F
100
AcDbEntity
  8
0
 62
     7
100
AcDbLine
 10
225.956924
 20
470.370728
 30
0.0
 11
225.956924
 21
470.5
 31
0.0
  0
LINE
  5
243
330
1F
100
AcDbEntity
  8
0
 62
     7
100
AcDbLine
 10
225.956924
 20
470.370728
 30
0.0
 11
225.956924
 21
470.229309
 31
0.0
  0
LINE
  5
244
330
1F
100
AcDbEntity
  8
0
 62
     7
100
AcDbLine
 10
225.956924
 20
470.229309
 30
0.0
 11
225.956924
 21
470.099976
 31
0.0
  0
LINE
  5
245
330
1F
100
AcDbEntity
  8
0
 62
     7
100
AcDbLine
 10
225.956924
 20
469.400024
 30
0.0
 11
225.956924
 21
470.099976
 31
0.0
  0
LINE
  5
246
330
1F
100
AcDbEntity
  8
0
 62
     7
100
AcDbLine
 10
225.956924
 20
469.270691
 30
0.0
 11
225.956924
 21
469.400024
 31
0.0
  0
LINE
  5
247
330
1F
100
AcDbEntity
  8
0
 62
     7
100
AcDbLine
 10
225.956924
 20
469.270691
 30
0.0
 11
225.956924
 21
469.129272
 31
0.0
  0
LINE
  5
248
330
1F
100
AcDbEntity
  8
0
 62
     7
100
AcDbLine
 10
225.956924
 20
469.129272
 30
0.0
 11
225.956924
 21
469.0
 31
0.0
  0
LINE
  5
249
330
1F
100
AcDbEntity
  8
0
 62
     7
100
AcDbLine
 10
225.956924
 20
468.299988
 30
0.0
 11
225.956924
 21
469.0
 31
0.0
  0
LINE
  5
24A
330
1F
100
AcDbEntity
  8
0
 62
     7
100
AcDbLine
 10
225.956924
 20
468.170715
 30
0.0
 11
225.956924
 21
468.299988
 31
0.0
  0
LINE
  5
24B
330
1F
100
AcDbEntity
  8
0
 62
     7
100
AcDbLine
 10
225.956924
 20
468.170715
 30
0.0
 11
225.956924
 21
468.029297
 31
0.0
  0
LINE
  5
24C
330
1F
100
AcDbEntity
  8
0
 62
     7
100
AcDbLine
 10
225.956924
 20
468.029297
 30
0.0
 11
225.956924
 21
467.900024
 31
0.0
  0
LINE
  5
24D
330
1F
100
AcDbEntity
  8
0
 62
     7
100
AcDbLine
 10
225.956924
 20
467.200012
 30
0.0
 11
225.956924
 21
467.900024
 31
0.0
  0
LINE
  5
24E
330
1F
100
AcDbEntity
  8
0
 62
     7
100
AcDbLine
 10
225.956924
 20
467.070679
 30
0.0
 11
225.956924
 21
467.200012
 31
0.0
  0
LINE
  5
24F
330
1F
100
AcDbEntity
  8
0
 62
     7
100
AcDbLine
 10
225.956924
 20
467.070679
 30
0.0
 11
225.956924
 21
466.92926
 31
0.0
  0
LINE
  5
250
330
1F
100
AcDbEntity
  8
0
 62
     7
100
AcDbLine
 10
225.956924
 20
466.92926
 30
0.0
 11
225.956924
 21
466.799988
 31
0.0
  0
LINE
  5
251
330
1F
100
AcDbEntity
  8
0
 62
     7
100
AcDbLine
 10
225.956924
 20
466.099976
 30
0.0
 11
225.956924
 21
466.799988
 31
0.0
  0
LINE
  5
252
330
1F
100
AcDbEntity
  8
0
 62
     7
100
AcDbLine
 10
224.956924
 20
473.400024
 30
0.0
 11
224.956924
 21
472.700012
 31
0.0
  0
LINE
  5
253
330
1F
100
AcDbEntity
  8
0
 62
     7
100
AcDbLine
 10
224.956924
 20
473.529297
 30
0.0
 11
224.956924
 21
473.400024
 31
0.0
  0
LINE
  5
254
330
1F
100
AcDbEntity
  8
0
 62
     7
100
AcDbLine
 10
224.956924
 20
473.529297
 30
0.0
 11
224.956924
 21
473.599976
 31
0.0
  0
LINE
  5
255
330
1F
100
AcDbEntity
  8
0
 62
     7
100
AcDbLine
 10
224.956924
 20
465.829285
 30
0.0
 11
224.956924
 21
465.700012
 31
0.0
  0
LINE
  5
256
330
1F
100
AcDbEntity
  8
0
 62
     7
100
AcDbLine
 10
224.956924
 20
465.829285
 30
0.0
 11
224.956924
 21
465.970703
 31
0.0
  0
LINE
  5
257
330
1F
100
AcDbEntity
  8
0
 62
     7
100
AcDbLine
 10
224.956924
 20
465.970703
 30
0.0
 11
224.956924
 21
466.099976
 31
0.0
  0
LINE
  5
258
330
1F
100
AcDbEntity
  8
0
 62
     7
100
AcDbLine
 10
224.956924
 20
466.799988
 30
0.0
 11
224.956924
 21
466.099976
 31
0.0
  0
LINE
  5
259
330
1F
100
AcDbEntity
  8
0
 62
     7
100
AcDbLine
 10
224.956924
 20
466.92926
 30
0.0
 11
224.956924
 21
466.799988
 31
0.0
  0
LINE
  5
25A
330
1F
100
AcDbEntity
  8
0
 62
     7
100
AcDbLine
 10
224.956924
 20
466.92926
 30
0.0
 11
224.956924
 21
467.070679
 31
0.0
  0
LINE
  5
25B
330
1F
100
AcDbEntity
  8
0
 62
     7
100
AcDbLine
 10
224.956924
 20
467.070679
 30
0.0
 11
224.956924
 21
467.200012
 31
0.0
  0
LINE
  5
25C
330
1F
100
AcDbEntity
  8
0
 62
     7
100
AcDbLine
 10
224.956924
 20
467.900024
 30
0.0
 11
224.956924
 21
467.200012
 31
0.0
  0
LINE
  5
25D
330
1F
100
AcDbEntity
  8
0
 62
     7
100
AcDbLine
 10
224.956924
 20
468.029297
 30
0.0
 11
224.956924
 21
467.900024
 31
0.0
  0
LINE
  5
25E
330
1F
100
AcDbEntity
  8
0
 62
     7
100
AcDbLine
 10
224.956924
 20
468.029297
 30
0.0
 11
224.956924
 21
468.170715
 31
0.0
  0
LINE
  5
25F
330
1F
100
AcDbEntity
  8
0
 62
     7
100
AcDbLine
 10
224.956924
 20
468.170715
 30
0.0
 11
224.956924
 21
468.299988
 31
0.0
  0
LINE
  5
260
330
1F
100
AcDbEntity
  8
0
 62
     7
100
AcDbLine
 10
224.956924
 20
469.0
 30
0.0
 11
224.956924
 21
468.299988
 31
0.0
  0
LINE
  5
261
330
1F
100
AcDbEntity
  8
0
 62
     7
100
AcDbLine
 10
224.956924
 20
469.129272
 30
0.0
 11
224.956924
 21
469.0
 31
0.0
  0
LINE
  5
262
330
1F
100
AcDbEntity
  8
0
 62
     7
100
AcDbLine
 10
224.956924
 20
469.129272
 30
0.0
 11
224.956924
 21
469.270691
 31
0.0
  0
LINE
  5
263
330
1F
100
AcDbEntity
  8
0
 62
     7
100
AcDbLine
 10
224.956924
 20
469.270691
 30
0.0
 11
224.956924
 21
469.400024
 31
0.0
  0
LINE
  5
264
330
1F
100
AcDbEntity
  8
0
 62
     7
100
AcDbLine
 10
224.956924
 20
470.099976
 30
0.0
 11
224.956924
 21
469.400024
 31
0.0
  0
LINE
  5
265
330
1F
100
AcDbEntity
  8
0
 62
     7
100
AcDbLine
 10
224.956924
 20
470.229309
 30
0.0
 11
224.956924
 21
470.099976
 31
0.0
  0
LINE
  5
266
330
1F
100
AcDbEntity
  8
0
 62
     7
100
AcDbLine
 10
224.956924
 20
470.229309
 30
0.0
 11
224.956924
 21
470.370728
 31
0.0
  0
LINE
  5
267
330
1F
100
AcDbEntity
  8
0
 62
     7
100
AcDbLine
 10
224.956924
 20
470.370728
 30
0.0
 11
224.956924
 21
470.5
 31
0.0
  0
LINE
  5
268
330
1F
100
AcDbEntity
  8
0
 62
     7
100
AcDbLine
 10
224.956924
 20
471.200012
 30
0.0
 11
224.956924
 21
470.5
 31
0.0
  0
LINE
  5
269
330
1F
100
AcDbEntity
  8
0
 62
     7
100
AcDbLine
 10
224.956924
 20
471.329285
 30
0.0
 11
224.956924
 21
471.200012
 31
0.0
  0
LINE
  5
26A
330
1F
100
AcDbEntity
  8
0
 62
     7
100
AcDbLine
 10
224.956924
 20
471.329285
 30
0.0
 11
224.956924
 21
471.470703
 31
0.0
  0
LINE
  5
26B
330
1F
100
AcDbEntity
  8
0
 62
     7
100
AcDbLine
 10
224.956924
 20
471.470703
 30
0.0
 11
224.956924
 21
471.599976
 31
0.0
  0
LINE
  5
26C
330
1F
100
AcDbEntity
  8
0
 62
     7
100
AcDbLine
 10
224.956924
 20
472.299988
 30
0.0
 11
224.956924
 21
471.599976
 31
0.0
  0
LINE
  5
26D
330
1F
100
AcDbEntity
  8
0
 62
     7
100
AcDbLine
 10
224.956924
 20
472.42926
 30
0.0
 11
224.956924
 21
472.299988
 31
0.0
  0
LINE
  5
26E
330
1F
100
AcDbEntity
  8
0
 62
     7
100
AcDbLine
 10
224.956924
 20
472.42926
 30
0.0
 11
224.956924
 21
472.570679
 31
0.0
  0
LINE
  5
26F
330
1F
100
AcDbEntity
  8
0
 62
     7
100
AcDbLine
 10
224.956924
 20
472.570679
 30
0.0
 11
224.956924
 21
472.700012
 31
0.0
  0
LINE
  5
270
330
1F
100
AcDbEntity
  8
0
 62
     7
100
AcDbLine
 10
222.656937
 20
465.829285
 30
0.0
 11
222.656937
 21
465.700012
 31
0.0
  0
LINE
  5
271
330
1F
100
AcDbEntity
  8
0
 62
     7
100
AcDbLine
 10
222.656937
 20
465.970703
 30
0.0
 11
222.656937
 21
466.099976
 31
0.0
  0
LINE
  5
272
330
1F
100
AcDbEntity
  8
0
 62
     7
100
AcDbLine
 10
222.656937
 20
465.970703
 30
0.0
 11
222.656937
 21
465.829285
 31
0.0
  0
LINE
  5
273
330
1F
100
AcDbEntity
  8
0
 62
     7
100
AcDbLine
 10
222.656937
 20
473.599976
 30
0.0
 11
222.656937
 21
473.529297
 31
0.0
  0
LINE
  5
274
330
1F
100
AcDbEntity
  8
0
 62
     7
100
AcDbLine
 10
222.656937
 20
473.529297
 30
0.0
 11
222.656937
 21
473.400024
 31
0.0
  0
LINE
  5
275
330
1F
100
AcDbEntity
  8
0
 62
     7
100
AcDbLine
 10
222.656937
 20
472.700012
 30
0.0
 11
222.656937
 21
473.400024
 31
0.0
  0
LINE
  5
276
330
1F
100
AcDbEntity
  8
0
 62
     7
100
AcDbLine
 10
222.656937
 20
472.570679
 30
0.0
 11
222.656937
 21
472.700012
 31
0.0
  0
LINE
  5
277
330
1F
100
AcDbEntity
  8
0
 62
     7
100
AcDbLine
 10
222.656937
 20
472.570679
 30
0.0
 11
222.656937
 21
472.42926
 31
0.0
  0
LINE
  5
278
330
1F
100
AcDbEntity
  8
0
 62
     7
100
AcDbLine
 10
222.656937
 20
472.42926
 30
0.0
 11
222.656937
 21
472.299988
 31
0.0
  0
LINE
  5
279
330
1F
100
AcDbEntity
  8
0
 62
     7
100
AcDbLine
 10
222.656937
 20
471.599976
 30
0.0
 11
222.656937
 21
472.299988
 31
0.0
  0
LINE
  5
27A
330
1F
100
AcDbEntity
  8
0
 62
     7
100
AcDbLine
 10
222.656937
 20
471.470703
 30
0.0
 11
222.656937
 21
471.599976
 31
0.0
  0
LINE
  5
27B
330
1F
100
AcDbEntity
  8
0
 62
     7
100
AcDbLine
 10
222.656937
 20
471.470703
 30
0.0
 11
222.656937
 21
471.329285
 31
0.0
  0
LINE
  5
27C
330
1F
100
AcDbEntity
  8
0
 62
     7
100
AcDbLine
 10
222.656937
 20
471.329285
 30
0.0
 11
222.656937
 21
471.200012
 31
0.0
  0
LINE
  5
27D
330
1F
100
AcDbEntity
  8
0
 62
     7
100
AcDbLine
 10
222.656937
 20
470.5
 30
0.0
 11
222.656937
 21
471.200012
 31
0.0
  0
LINE
  5
27E
330
1F
100
AcDbEntity
  8
0
 62
     7
100
AcDbLine
 10
222.656937
 20
470.370728
 30
0.0
 11
222.656937
 21
470.5
 31
0.0
  0
LINE
  5
27F
330
1F
100
AcDbEntity
  8
0
 62
     7
100
AcDbLine
 10
222.656937
 20
470.370728
 30
0.0
 11
222.656937
 21
470.229309
 31
0.0
  0
LINE
  5
280
330
1F
100
AcDbEntity
  8
0
 62
     7
100
AcDbLine
 10
222.656937
 20
470.229309
 30
0.0
 11
222.656937
 21
470.099976
 31
0.0
  0
LINE
  5
281
330
1F
100
AcDbEntity
  8
0
 62
     7
100
AcDbLine
 10
222.656937
 20
469.400024
 30
0.0
 11
222.656937
 21
470.099976
 31
0.0
  0
LINE
  5
282
330
1F
100
AcDbEntity
  8
0
 62
     7
100
AcDbLine
 10
222.656937
 20
469.270691
 30
0.0
 11
222.656937
 21
469.400024
 31
0.0
  0
LINE
  5
283
330
1F
100
AcDbEntity
  8
0
 62
     7
100
AcDbLine
 10
222.656937
 20
469.270691
 30
0.0
 11
222.656937
 21
469.129272
 31
0.0
  0
LINE
  5
284
330
1F
100
AcDbEntity
  8
0
 62
     7
100
AcDbLine
 10
222.656937
 20
469.129272
 30
0.0
 11
222.656937
 21
469.0
 31
0.0
  0
LINE
  5
285
330
1F
100
AcDbEntity
  8
0
 62
     7
100
AcDbLine
 10
222.656937
 20
468.299988
 30
0.0
 11
222.656937
 21
469.0
 31
0.0
  0
LINE
  5
286
330
1F
100
AcDbEntity
  8
0
 62
     7
100
AcDbLine
 10
222.656937
 20
468.170715
 30
0.0
 11
222.656937
 21
468.299988
 31
0.0
  0
LINE
  5
287
330
1F
100
AcDbEntity
  8
0
 62
     7
100
AcDbLine
 10
222.656937
 20
468.170715
 30
0.0
 11
222.656937
 21
468.029297
 31
0.0
  0
LINE
  5
288
330
1F
100
AcDbEntity
  8
0
 62
     7
100
AcDbLine
 10
222.656937
 20
468.029297
 30
0.0
 11
222.656937
 21
467.900024
 31
0.0
  0
LINE
  5
289
330
1F
100
AcDbEntity
  8
0
 62
     7
100
AcDbLine
 10
222.656937
 20
467.200012
 30
0.0
 11
222.656937
 21
467.900024
 31
0.0
  0
LINE
  5
28A
330
1F
100
AcDbEntity
  8
0
 62
     7
100
AcDbLine
 10
222.656937
 20
467.070679
 30
0.0
 11
222.656937
 21
467.200012
 31
0.0
  0
LINE
  5
28B
330
1F
100
AcDbEntity
  8
0
 62
     7
100
AcDbLine
 10
222.656937
 20
467.070679
 30
0.0
 11
222.656937
 21
466.92926
 31
0.0
  0
LINE
  5
28C
330
1F
100
AcDbEntity
  8
0
 62
     7
100
AcDbLine
 10
222.656937
 20
466.92926
 30
0.0
 11
222.656937
 21
466.799988
 31
0.0
  0
LINE
  5
28D
330
1F
100
AcDbEntity
  8
0
 62
     7
100
AcDbLine
 10
222.656937
 20
466.099976
 30
0.0
 11
222.656937
 21
466.799988
 31
0.0
  0
LINE
  5
28E
330
1F
100
AcDbEntity
  8
0
 62
     7
100
AcDbLine
 10
221.656937
 20
472.42926
 30
0.0
 11
221.656937
 21
472.299988
 31
0.0
  0
LINE
  5
28F
330
1F
100
AcDbEntity
  8
0
 62
     7
100
AcDbLine
 10
221.656937
 20
472.42926
 30
0.0
 11
221.656937
 21
472.570679
 31
0.0
  0
LINE
  5
290
330
1F
100
AcDbEntity
  8
0
 62
     7
100
AcDbLine
 10
221.656937
 20
472.570679
 30
0.0
 11
221.656937
 21
472.700012
 31
0.0
  0
LINE
  5
291
330
1F
100
AcDbEntity
  8
0
 62
     7
100
AcDbLine
 10
221.656937
 20
473.099976
 30
0.0
 11
221.656937
 21
472.700012
 31
0.0
  0
LINE
  5
292
330
1F
100
AcDbEntity
  8
0
 62
     7
100
AcDbLine
 10
221.656937
 20
465.829285
 30
0.0
 11
221.656937
 21
465.700012
 31
0.0
  0
LINE
  5
293
330
1F
100
AcDbEntity
  8
0
 62
     7
100
AcDbLine
 10
221.656937
 20
465.829285
 30
0.0
 11
221.656937
 21
465.970703
 31
0.0
  0
LINE
  5
294
330
1F
100
AcDbEntity
  8
0
 62
     7
100
AcDbLine
 10
221.656937
 20
465.970703
 30
0.0
 11
221.656937
 21
466.099976
 31
0.0
  0
LINE
  5
295
330
1F
100
AcDbEntity
  8
0
 62
     7
100
AcDbLine
 10
221.656937
 20
466.799988
 30
0.0
 11
221.656937
 21
466.099976
 31
0.0
  0
LINE
  5
296
330
1F
100
AcDbEntity
  8
0
 62
     7
100
AcDbLine
 10
221.656937
 20
466.92926
 30
0.0
 11
221.656937
 21
466.799988
 31
0.0
  0
LINE
  5
297
330
1F
100
AcDbEntity
  8
0
 62
     7
100
AcDbLine
 10
221.656937
 20
466.92926
 30
0.0
 11
221.656937
 21
467.070679
 31
0.0
  0
LINE
  5
298
330
1F
100
AcDbEntity
  8
0
 62
     7
100
AcDbLine
 10
221.656937
 20
467.070679
 30
0.0
 11
221.656937
 21
467.200012
 31
0.0
  0
LINE
  5
299
330
1F
100
AcDbEntity
  8
0
 62
     7
100
AcDbLine
 10
221.656937
 20
467.900024
 30
0.0
 11
221.656937
 21
467.200012
 31
0.0
  0
LINE
  5
29A
330
1F
100
AcDbEntity
  8
0
 62
     7
100
AcDbLine
 10
221.656937
 20
468.029297
 30
0.0
 11
221.656937
 21
467.900024
 31
0.0
  0
LINE
  5
29B
330
1F
100
AcDbEntity
  8
0
 62
     7
100
AcDbLine
 10
221.656937
 20
468.029297
 30
0.0
 11
221.656937
 21
468.170715
 31
0.0
  0
LINE
  5
29C
330
1F
100
AcDbEntity
  8
0
 62
     7
100
AcDbLine
 10
221.656937
 20
468.170715
 30
0.0
 11
221.656937
 21
468.299988
 31
0.0
  0
LINE
  5
29D
330
1F
100
AcDbEntity
  8
0
 62
     7
100
AcDbLine
 10
221.656937
 20
469.0
 30
0.0
 11
221.656937
 21
468.299988
 31
0.0
  0
LINE
  5
29E
330
1F
100
AcDbEntity
  8
0
 62
     7
100
AcDbLine
 10
221.656937
 20
469.129272
 30
0.0
 11
221.656937
 21
469.0
 31
0.0
  0
LINE
  5
29F
330
1F
100
AcDbEntity
  8
0
 62
     7
100
AcDbLine
 10
221.656937
 20
469.129272
 30
0.0
 11
221.656937
 21
469.270691
 31
0.0
  0
LINE
  5
2A0
330
1F
100
AcDbEntity
  8
0
 62
     7
100
AcDbLine
 10
221.656937
 20
469.270691
 30
0.0
 11
221.656937
 21
469.400024
 31
0.0
  0
LINE
  5
2A1
330
1F
100
AcDbEntity
  8
0
 62
     7
100
AcDbLine
 10
221.656937
 20
470.099976
 30
0.0
 11
221.656937
 21
469.400024
 31
0.0
  0
LINE
  5
2A2
330
1F
100
AcDbEntity
  8
0
 62
     7
100
AcDbLine
 10
221.656937
 20
470.229309
 30
0.0
 11
221.656937
 21
470.099976
 31
0.0
  0
LINE
  5
2A3
330
1F
100
AcDbEntity
  8
0
 62
     7
100
AcDbLine
 10
221.656937
 20
470.229309
 30
0.0
 11
221.656937
 21
470.370728
 31
0.0
  0
LINE
  5
2A4
330
1F
100
AcDbEntity
  8
0
 62
     7
100
AcDbLine
 10
221.656937
 20
470.370728
 30
0.0
 11
221.656937
 21
470.5
 31
0.0
  0
LINE
  5
2A5
330
1F
100
AcDbEntity
  8
0
 62
     7
100
AcDbLine
 10
221.656937
 20
471.200012
 30
0.0
 11
221.656937
 21
470.5
 31
0.0
  0
LINE
  5
2A6
330
1F
100
AcDbEntity
  8
0
 62
     7
100
AcDbLine
 10
221.656937
 20
471.329285
 30
0.0
 11
221.656937
 21
471.200012
 31
0.0
  0
LINE
  5
2A7
330
1F
100
AcDbEntity
  8
0
 62
     7
100
AcDbLine
 10
221.656937
 20
471.329285
 30
0.0
 11
221.656937
 21
471.470703
 31
0.0
  0
LINE
  5
2A8
330
1F
100
AcDbEntity
  8
0
 62
     7
100
AcDbLine
 10
221.656937
 20
471.470703
 30
0.0
 11
221.656937
 21
471.599976
 31
0.0
  0
LINE
  5
2A9
330
1F
100
AcDbEntity
  8
0
 62
     7
100
AcDbLine
 10
221.656937
 20
472.299988
 30
0.0
 11
221.656937
 21
471.599976
 31
0.0
  0
LINE
  5
2AA
330
1F
100
AcDbEntity
  8
0
 62
     7
100
AcDbLine
 10
162.988235
 20
465.700012
 30
0.0
 11
163.071609
 21
465.829285
 31
0.0
  0
ARC
  5
2AB
330
1F
100
AcDbEntity
  8
0
 62
     7
100
AcDbCircle
 10
156.306931
 20
470.099976
 30
0.0
 40
8.0
100
AcDbArc
 50
354.980203
 51
360.0
  0
LINE
  5
2AC
330
1F
100
AcDbEntity
  8
0
 62
     7
100
AcDbLine
 10
164.263809
 20
469.270691
 30
0.0
 11
164.27623
 21
469.400024
 31
0.0
  0
LINE
  5
2AD
330
1F
100
AcDbEntity
  8
0
 62
     7
100
AcDbLine
 10
164.247818
 20
469.129272
 30
0.0
 11
164.263809
 21
469.270691
 31
0.0
  0
LINE
  5
2AE
330
1F
100
AcDbEntity
  8
0
 62
     7
100
AcDbLine
 10
164.230942
 20
469.0
 30
0.0
 11
164.247818
 21
469.129272
 31
0.0
  0
ARC
  5
2AF
330
1F
100
AcDbEntity
  8
0
 62
     7
100
AcDbCircle
 10
156.306931
 20
470.099976
 30
0.0
 40
8.0
100
AcDbArc
 50
346.997132
 51
352.096798
  0
LINE
  5
2B0
330
1F
100
AcDbEntity
  8
0
 62
     7
100
AcDbLine
 10
164.070816
 20
468.170715
 30
0.0
 11
164.101791
 21
468.299988
 31
0.0
  0
LINE
  5
2B1
330
1F
100
AcDbEntity
  8
0
 62
     7
100
AcDbLine
 10
164.034286
 20
468.029297
 30
0.0
 11
164.070816
 21
468.170715
 31
0.0
  0
LINE
  5
2B2
330
1F
100
AcDbEntity
  8
0
 62
     7
100
AcDbLine
 10
163.998489
 20
467.900024
 30
0.0
 11
164.034286
 21
468.029297
 31
0.0
  0
ARC
  5
2B3
330
1F
100
AcDbEntity
  8
0
 62
     7
100
AcDbCircle
 10
156.306931
 20
470.099976
 30
0.0
 40
8.0
100
AcDbArc
 50
338.746183
 51
344.037995
  0
LINE
  5
2B4
330
1F
100
AcDbEntity
  8
0
 62
     7
100
AcDbLine
 10
163.711197
 20
467.070679
 30
0.0
 11
163.762802
 21
467.200012
 31
0.0
  0
LINE
  5
2B5
330
1F
100
AcDbEntity
  8
0
 62
     7
100
AcDbLine
 10
163.651749
 20
466.92926
 30
0.0
 11
163.711197
 21
467.070679
 31
0.0
  0
LINE
  5
2B6
330
1F
100
AcDbEntity
  8
0
 62
     7
100
AcDbLine
 10
163.594589
 20
466.799988
 30
0.0
 11
163.651749
 21
466.92926
 31
0.0
  0
ARC
  5
2B7
330
1F
100
AcDbEntity
  8
0
 62
     7
100
AcDbCircle
 10
156.306931
 20
470.099976
 30
0.0
 40
8.0
100
AcDbArc
 50
329.999989
 51
335.63801
  0
LINE
  5
2B8
330
1F
100
AcDbEntity
  8
0
 62
     7
100
AcDbLine
 10
163.158859
 20
465.970703
 30
0.0
 11
163.235123
 21
466.099976
 31
0.0
  0
LINE
  5
2B9
330
1F
100
AcDbEntity
  8
0
 62
     7
100
AcDbLine
 10
163.071609
 20
465.829285
 30
0.0
 11
163.158859
 21
465.970703
 31
0.0
  0
LINE
  5
2BA
330
1F
100
AcDbEntity
  8
0
 62
     7
100
AcDbLine
 10
149.625595
 20
465.700012
 30
0.0
 11
149.542221
 21
465.829285
 31
0.0
  0
LINE
  5
2BB
330
1F
100
AcDbEntity
  8
0
 62
     7
100
AcDbLine
 10
149.542221
 20
465.829285
 30
0.0
 11
149.455002
 21
465.970703
 31
0.0
  0
LINE
  5
2BC
330
1F
100
AcDbEntity
  8
0
 62
     7
100
AcDbLine
 10
149.455002
 20
465.970703
 30
0.0
 11
149.378708
 21
466.099976
 31
0.0
  0
ARC
  5
2BD
330
1F
100
AcDbEntity
  8
0
 62
     7
100
AcDbCircle
 10
156.306931
 20
470.099976
 30
0.0
 40
8.0
100
AcDbArc
 50
204.361982
 51
210.000003
  0
LINE
  5
2BE
330
1F
100
AcDbEntity
  8
0
 62
     7
100
AcDbLine
 10
149.019272
 20
466.799988
 30
0.0
 11
148.962082
 21
466.92926
 31
0.0
  0
LINE
  5
2BF
330
1F
100
AcDbEntity
  8
0
 62
     7
100
AcDbLine
 10
148.962082
 20
466.92926
 30
0.0
 11
148.902634
 21
467.070679
 31
0.0
  0
LINE
  5
2C0
330
1F
100
AcDbEntity
  8
0
 62
     7
100
AcDbLine
 10
148.902634
 20
467.070679
 30
0.0
 11
148.851059
 21
467.200012
 31
0.0
  0
ARC
  5
2C1
330
1F
100
AcDbEntity
  8
0
 62
     7
100
AcDbCircle
 10
156.306931
 20
470.099976
 30
0.0
 40
8.0
100
AcDbArc
 50
195.96201
 51
201.253809
  0
LINE
  5
2C2
330
1F
100
AcDbEntity
  8
0
 62
     7
100
AcDbLine
 10
148.615372
 20
467.900024
 30
0.0
 11
148.579544
 21
468.029297
 31
0.0
  0
LINE
  5
2C3
330
1F
100
AcDbEntity
  8
0
 62
     7
100
AcDbLine
 10
148.579544
 20
468.029297
 30
0.0
 11
148.543045
 21
468.170715
 31
0.0
  0
LINE
  5
2C4
330
1F
100
AcDbEntity
  8
0
 62
     7
100
AcDbLine
 10
148.543045
 20
468.170715
 30
0.0
 11
148.512039
 21
468.299988
 31
0.0
  0
ARC
  5
2C5
330
1F
100
AcDbEntity
  8
0
 62
     7
100
AcDbCircle
 10
156.306931
 20
470.099976
 30
0.0
 40
8.0
100
AcDbArc
 50
187.903207
 51
193.002872
  0
LINE
  5
2C6
330
1F
100
AcDbEntity
  8
0
 62
     7
100
AcDbLine
 10
148.382919
 20
469.0
 30
0.0
 11
148.366043
 21
469.129272
 31
0.0
  0
LINE
  5
2C7
330
1F
100
AcDbEntity
  8
0
 62
     7
100
AcDbLine
 10
148.366043
 20
469.129272
 30
0.0
 11
148.350021
 21
469.270691
 31
0.0
  0
LINE
  5
2C8
330
1F
100
AcDbEntity
  8
0
 62
     7
100
AcDbLine
 10
148.350021
 20
469.270691
 30
0.0
 11
148.337601
 21
469.400024
 31
0.0
  0
ARC
  5
2C9
330
1F
100
AcDbEntity
  8
0
 62
     7
100
AcDbCircle
 10
156.306931
 20
470.099976
 30
0.0
 40
8.0
100
AcDbArc
 50
180.000009
 51
185.019802
  0
LINE
  5
2CA
330
1F
100
AcDbEntity
  8
0
 62
     7
100
AcDbLine
 10
147.306931
 20
465.829285
 30
0.0
 11
147.306931
 21
465.700012
 31
0.0
  0
LINE
  5
2CB
330
1F
100
AcDbEntity
  8
0
 62
     7
100
AcDbLine
 10
147.306931
 20
465.970703
 30
0.0
 11
147.306931
 21
465.829285
 31
0.0
  0
LINE
  5
2CC
330
1F
100
AcDbEntity
  8
0
 62
     7
100
AcDbLine
 10
147.306931
 20
466.099976
 30
0.0
 11
147.306931
 21
465.970703
 31
0.0
  0
LINE
  5
2CD
330
1F
100
AcDbEntity
  8
0
 62
     7
100
AcDbLine
 10
147.306931
 20
466.099976
 30
0.0
 11
147.306931
 21
466.799988
 31
0.0
  0
LINE
  5
2CE
330
1F
100
AcDbEntity
  8
0
 62
     7
100
AcDbLine
 10
147.306931
 20
466.92926
 30
0.0
 11
147.306931
 21
466.799988
 31
0.0
  0
LINE
  5
2CF
330
1F
100
AcDbEntity
  8
0
 62
     7
100
AcDbLine
 10
147.306931
 20
467.070679
 30
0.0
 11
147.306931
 21
466.92926
 31
0.0
  0
LINE
  5
2D0
330
1F
100
AcDbEntity
  8
0
 62
     7
100
AcDbLine
 10
147.306931
 20
467.200012
 30
0.0
 11
147.306931
 21
467.070679
 31
0.0
  0
LINE
  5
2D1
330
1F
100
AcDbEntity
  8
0
 62
     7
100
AcDbLine
 10
147.306931
 20
467.200012
 30
0.0
 11
147.306931
 21
467.900024
 31
0.0
  0
LINE
  5
2D2
330
1F
100
AcDbEntity
  8
0
 62
     7
100
AcDbLine
 10
147.306931
 20
468.029297
 30
0.0
 11
147.306931
 21
467.900024
 31
0.0
  0
LINE
  5
2D3
330
1F
100
AcDbEntity
  8
0
 62
     7
100
AcDbLine
 10
147.306931
 20
468.170715
 30
0.0
 11
147.306931
 21
468.029297
 31
0.0
  0
LINE
  5
2D4
330
1F
100
AcDbEntity
  8
0
 62
     7
100
AcDbLine
 10
147.306931
 20
468.299988
 30
0.0
 11
147.306931
 21
468.170715
 31
0.0
  0
LINE
  5
2D5
330
1F
100
AcDbEntity
  8
0
 62
     7
100
AcDbLine
 10
147.306931
 20
468.299988
 30
0.0
 11
147.306931
 21
469.0
 31
0.0
  0
LINE
  5
2D6
330
1F
100
AcDbEntity
  8
0
 62
     7
100
AcDbLine
 10
147.306931
 20
469.129272
 30
0.0
 11
147.306931
 21
469.0
 31
0.0
  0
LINE
  5
2D7
330
1F
100
AcDbEntity
  8
0
 62
     7
100
AcDbLine
 10
147.306931
 20
469.270691
 30
0.0
 11
147.306931
 21
469.129272
 31
0.0
  0
LINE
  5
2D8
330
1F
100
AcDbEntity
  8
0
 62
     7
100
AcDbLine
 10
147.306931
 20
469.400024
 30
0.0
 11
147.306931
 21
469.270691
 31
0.0
  0
LINE
  5
2D9
330
1F
100
AcDbEntity
  8
0
 62
     7
100
AcDbLine
 10
147.306931
 20
469.400024
 30
0.0
 11
147.306931
 21
470.099976
 31
0.0
  0
LINE
  5
2DA
330
1F
100
AcDbEntity
  8
0
 62
     7
100
AcDbLine
 10
147.306931
 20
470.229309
 30
0.0
 11
147.306931
 21
470.099976
 31
0.0
  0
LINE
  5
2DB
330
1F
100
AcDbEntity
  8
0
 62
     7
100
AcDbLine
 10
147.306931
 20
470.370728
 30
0.0
 11
147.306931
 21
470.229309
 31
0.0
  0
LINE
  5
2DC
330
1F
100
AcDbEntity
  8
0
 62
     7
100
AcDbLine
 10
147.306931
 20
470.5
 30
0.0
 11
147.306931
 21
470.370728
 31
0.0
  0
LINE
  5
2DD
330
1F
100
AcDbEntity
  8
0
 62
     7
100
AcDbLine
 10
147.306931
 20
470.5
 30
0.0
 11
147.306931
 21
471.200012
 31
0.0
  0
LINE
  5
2DE
330
1F
100
AcDbEntity
  8
0
 62
     7
100
AcDbLine
 10
147.306931
 20
471.329285
 30
0.0
 11
147.306931
 21
471.200012
 31
0.0
  0
LINE
  5
2DF
330
1F
100
AcDbEntity
  8
0
 62
     7
100
AcDbLine
 10
147.306931
 20
471.470703
 30
0.0
 11
147.306931
 21
471.329285
 31
0.0
  0
LINE
  5
2E0
330
1F
100
AcDbEntity
  8
0
 62
     7
100
AcDbLine
 10
147.306931
 20
471.599976
 30
0.0
 11
147.306931
 21
471.470703
 31
0.0
  0
LINE
  5
2E1
330
1F
100
AcDbEntity
  8
0
 62
     7
100
AcDbLine
 10
147.306931
 20
471.599976
 30
0.0
 11
147.306931
 21
472.299988
 31
0.0
  0
LINE
  5
2E2
330
1F
100
AcDbEntity
  8
0
 62
     7
100
AcDbLine
 10
147.306931
 20
472.42926
 30
0.0
 11
147.306931
 21
472.299988
 31
0.0
  0
LINE
  5
2E3
330
1F
100
AcDbEntity
  8
0
 62
     7
100
AcDbLine
 10
147.306931
 20
472.570679
 30
0.0
 11
147.306931
 21
472.42926
 31
0.0
  0
LINE
  5
2E4
330
1F
100
AcDbEntity
  8
0
 62
     7
100
AcDbLine
 10
147.306931
 20
472.700012
 30
0.0
 11
147.306931
 21
472.570679
 31
0.0
  0
LINE
  5
2E5
330
1F
100
AcDbEntity
  8
0
 62
     7
100
AcDbLine
 10
147.306931
 20
472.700012
 30
0.0
 11
147.306931
 21
473.400024
 31
0.0
  0
LINE
  5
2E6
330
1F
100
AcDbEntity
  8
0
 62
     7
100
AcDbLine
 10
147.306931
 20
473.529297
 30
0.0
 11
147.306931
 21
473.400024
 31
0.0
  0
LINE
  5
2E7
330
1F
100
AcDbEntity
  8
0
 62
     7
100
AcDbLine
 10
147.306931
 20
473.670715
 30
0.0
 11
147.306931
 21
473.529297
 31
0.0
  0
LINE
  5
2E8
330
1F
100
AcDbEntity
  8
0
 62
     7
100
AcDbLine
 10
147.306931
 20
473.799988
 30
0.0
 11
147.306931
 21
473.670715
 31
0.0
  0
LINE
  5
2E9
330
1F
100
AcDbEntity
  8
0
 62
     7
100
AcDbLine
 10
147.306931
 20
473.799988
 30
0.0
 11
147.306931
 21
474.5
 31
0.0
  0
LINE
  5
2EA
330
1F
100
AcDbEntity
  8
0
 62
     7
100
AcDbLine
 10
147.306931
 20
474.629272
 30
0.0
 11
147.306931
 21
474.5
 31
0.0
  0
LINE
  5
2EB
330
1F
100
AcDbEntity
  8
0
 62
     7
100
AcDbLine
 10
147.306931
 20
474.770691
 30
0.0
 11
147.306931
 21
474.629272
 31
0.0
  0
LINE
  5
2EC
330
1F
100
AcDbEntity
  8
0
 62
     7
100
AcDbLine
 10
147.306931
 20
474.900024
 30
0.0
 11
147.306931
 21
474.770691
 31
0.0
  0
LINE
  5
2ED
330
1F
100
AcDbEntity
  8
0
 62
     7
100
AcDbLine
 10
147.306931
 20
474.900024
 30
0.0
 11
147.306931
 21
479.724243
 31
0.0
  0
LINE
  5
2EE
330
1F
100
AcDbEntity
  8
0
 62
     7
100
AcDbLine
 10
147.306931
 20
480.212158
 30
0.0
 11
147.306931
 21
479.724243
 31
0.0
  0
LINE
  5
2EF
330
1F
100
AcDbEntity
  8
0
 62
     7
100
AcDbLine
 10
147.306931
 20
480.299988
 30
0.0
 11
147.306931
 21
480.212158
 31
0.0
  0
ARC
  5
2F0
330
1F
100
AcDbEntity
  8
0
 62
     7
100
AcDbCircle
 10
1124.807007
 20
457.299988
 30
0.0
 40
0.5
100
AcDbArc
 50
0.0
 51
90.000003
  0
LINE
  5
2F1
330
1F
100
AcDbEntity
  8
0
 62
     7
100
AcDbLine
 10
1124.807007
 20
457.799988
 30
0.0
 11
1117.807007
 21
457.799988
 31
0.0
  0
ARC
  5
2F2
330
1F
100
AcDbEntity
  8
0
 62
     7
100
AcDbCircle
 10
1117.807007
 20
457.299988
 30
0.0
 40
0.5
100
AcDbArc
 50
90.000003
 51
180.000009
  0
LINE
  5
2F3
330
1F
100
AcDbEntity
  8
0
 62
     7
100
AcDbLine
 10
1117.307007
 20
457.299988
 30
0.0
 11
1117.307007
 21
453.299988
 31
0.0
  0
ARC
  5
2F4
330
1F
100
AcDbEntity
  8
0
 62
     7
100
AcDbCircle
 10
1117.807007
 20
453.299988
 30
0.0
 40
0.5
100
AcDbArc
 50
180.000009
 51
269.999997
  0
LINE
  5
2F5
330
1F
100
AcDbEntity
  8
0
 62
     7
100
AcDbLine
 10
1117.807007
 20
452.799988
 30
0.0
 11
1124.807007
 21
452.799988
 31
0.0
  0
ARC
  5
2F6
330
1F
100
AcDbEntity
  8
0
 62
     7
100
AcDbCircle
 10
1124.807007
 20
453.299988
 30
0.0
 40
0.5
100
AcDbArc
 50
269.999997
 51
360.0
  0
LINE
  5
2F7
330
1F
100
AcDbEntity
  8
0
 62
     7
100
AcDbLine
 10
1125.307007
 20
453.299988
 30
0.0
 11
1125.307007
 21
457.299988
 31
0.0
  0
ARC
  5
2F8
330
1F
100
AcDbEntity
  8
0
 62
     7
100
AcDbCircle
 10
204.806931
 20
457.299988
 30
0.0
 40
0.5
100
AcDbArc
 50
0.0
 51
90.000003
  0
LINE
  5
2F9
330
1F
100
AcDbEntity
  8
0
 62
     7
100
AcDbLine
 10
204.806931
 20
457.799988
 30
0.0
 11
197.806931
 21
457.799988
 31
0.0
  0
ARC
  5
2FA
330
1F
100
AcDbEntity
  8
0
 62
     7
100
AcDbCircle
 10
197.806931
 20
457.299988
 30
0.0
 40
0.5
100
AcDbArc
 50
90.000003
 51
180.000009
  0
LINE
  5
2FB
330
1F
100
AcDbEntity
  8
0
 62
     7
100
AcDbLine
 10
197.306931
 20
457.299988
 30
0.0
 11
197.306931
 21
453.299988
 31
0.0
  0
ARC
  5
2FC
330
1F
100
AcDbEntity
  8
0
 62
     7
100
AcDbCircle
 10
197.806931
 20
453.299988
 30
0.0
 40
0.5
100
AcDbArc
 50
180.000009
 51
269.999997
  0
LINE
  5
2FD
330
1F
100
AcDbEntity
  8
0
 62
     7
100
AcDbLine
 10
197.806931
 20
452.799988
 30
0.0
 11
204.806931
 21
452.799988
 31
0.0
  0
ARC
  5
2FE
330
1F
100
AcDbEntity
  8
0
 62
     7
100
AcDbCircle
 10
204.806931
 20
453.299988
 30
0.0
 40
0.5
100
AcDbArc
 50
269.999997
 51
360.0
  0
LINE
  5
2FF
330
1F
100
AcDbEntity
  8
0
 62
     7
100
AcDbLine
 10
205.306931
 20
453.299988
 30
0.0
 11
205.306931
 21
457.299988
 31
0.0
  0
LINE
  5
300
330
1F
100
AcDbEntity
  8
0
 62
     7
100
AcDbLine
 10
1200.807007
 20
458.099976
 30
0.0
 11
1200.307007
 21
458.099976
 31
0.0
  0
LINE
  5
301
330
1F
100
AcDbEntity
  8
0
 62
     7
100
AcDbLine
 10
1200.307007
 20
460.400024
 30
0.0
 11
1200.807007
 21
460.400024
 31
0.0
  0
LINE
  5
302
330
1F
100
AcDbEntity
  8
0
 62
     7
100
AcDbLine
 10
146.806931
 20
460.400024
 30
0.0
 11
147.306931
 21
460.400024
 31
0.0
  0
LINE
  5
303
330
1F
100
AcDbEntity
  8
0
 62
     7
100
AcDbLine
 10
1127.807007
 20
480.212158
 30
0.0
 11
1127.807007
 21
480.299988
 31
0.0
  0
LINE
  5
304
330
1F
100
AcDbEntity
  8
0
 62
     7
100
AcDbLine
 10
1127.807007
 20
480.212158
 30
0.0
 11
1127.807007
 21
479.724243
 31
0.0
  0
LINE
  5
305
330
1F
100
AcDbEntity
  8
0
 62
     7
100
AcDbLine
 10
1200.307007
 20
479.724243
 30
0.0
 11
1127.807007
 21
479.724243
 31
0.0
  0
ARC
  5
306
330
1F
100
AcDbEntity
  8
0
 62
     7
100
AcDbCircle
 10
1191.307007
 20
470.099976
 30
0.0
 40
8.0
100
AcDbArc
 50
36.869897
 51
143.130097
  0
LINE
  5
307
330
1F
100
AcDbEntity
  8
0
 62
     7
100
AcDbLine
 10
1200.307007
 20
474.900024
 30
0.0
 11
1197.707031
 21
474.900024
 31
0.0
  0
LINE
  5
308
330
1F
100
AcDbEntity
  8
0
 62
     7
100
AcDbLine
 10
1127.807007
 20
474.900024
 30
0.0
 11
1127.807007
 21
479.724243
 31
0.0
  0
LINE
  5
309
330
1F
100
AcDbEntity
  8
0
 62
     7
100
AcDbLine
 10
1184.906982
 20
474.900024
 30
0.0
 11
1127.807007
 21
474.900024
 31
0.0
  0
LINE
  5
30A
330
1F
100
AcDbEntity
  8
0
 62
     7
100
AcDbLine
 10
1197.707031
 20
474.900024
 30
0.0
 11
1197.802002
 21
474.770691
 31
0.0
  0
LINE
  5
30B
330
1F
100
AcDbEntity
  8
0
 62
     7
100
AcDbLine
 10
1197.802002
 20
474.770691
 30
0.0
 11
1197.901367
 21
474.629272
 31
0.0
  0
LINE
  5
30C
330
1F
100
AcDbEntity
  8
0
 62
     7
100
AcDbLine
 10
1197.901367
 20
474.629272
 30
0.0
 11
1197.988281
 21
474.5
 31
0.0
  0
LINE
  5
30D
330
1F
100
AcDbEntity
  8
0
 62
     7
100
AcDbLine
 10
1200.307007
 20
474.5
 30
0.0
 11
1197.988281
 21
474.5
 31
0.0
  0
ARC
  5
30E
330
1F
100
AcDbEntity
  8
0
 62
     7
100
AcDbCircle
 10
1191.307007
 20
470.099976
 30
0.0
 40
8.0
100
AcDbArc
 50
27.548547
 51
33.367014
  0
LINE
  5
30F
330
1F
100
AcDbEntity
  8
0
 62
     7
100
AcDbLine
 10
1200.307007
 20
473.799988
 30
0.0
 11
1198.399902
 21
473.799988
 31
0.0
  0
LINE
  5
310
330
1F
100
AcDbEntity
  8
0
 62
     7
100
AcDbLine
 10
1198.399902
 20
473.799988
 30
0.0
 11
1198.465942
 21
473.670715
 31
0.0
  0
LINE
  5
311
330
1F
100
AcDbEntity
  8
0
 62
     7
100
AcDbLine
 10
1198.465942
 20
473.670715
 30
0.0
 11
1198.53479
 21
473.529297
 31
0.0
  0
LINE
  5
312
330
1F
100
AcDbEntity
  8
0
 62
     7
100
AcDbLine
 10
1198.53479
 20
473.529297
 30
0.0
 11
1198.594727
 21
473.400024
 31
0.0
  0
LINE
  5
313
330
1F
100
AcDbEntity
  8
0
 62
     7
100
AcDbLine
 10
1200.307007
 20
473.400024
 30
0.0
 11
1198.594727
 21
473.400024
 31
0.0
  0
ARC
  5
314
330
1F
100
AcDbEntity
  8
0
 62
     7
100
AcDbCircle
 10
1191.307007
 20
470.099976
 30
0.0
 40
8.0
100
AcDbArc
 50
18.965574
 51
24.361978
  0
LINE
  5
315
330
1F
100
AcDbEntity
  8
0
 62
     7
100
AcDbLine
 10
1200.307007
 20
472.700012
 30
0.0
 11
1198.872681
 21
472.700012
 31
0.0
  0
LINE
  5
316
330
1F
100
AcDbEntity
  8
0
 62
     7
100
AcDbLine
 10
1198.872681
 20
472.700012
 30
0.0
 11
1198.915894
 21
472.570679
 31
0.0
  0
LINE
  5
317
330
1F
100
AcDbEntity
  8
0
 62
     7
100
AcDbLine
 10
1198.915894
 20
472.570679
 30
0.0
 11
1198.960449
 21
472.42926
 31
0.0
  0
LINE
  5
318
330
1F
100
AcDbEntity
  8
0
 62
     7
100
AcDbLine
 10
1198.960449
 20
472.42926
 30
0.0
 11
1198.998535
 21
472.299988
 31
0.0
  0
LINE
  5
319
330
1F
100
AcDbEntity
  8
0
 62
     7
100
AcDbLine
 10
1200.307007
 20
472.299988
 30
0.0
 11
1198.998535
 21
472.299988
 31
0.0
  0
ARC
  5
31A
330
1F
100
AcDbEntity
  8
0
 62
     7
100
AcDbCircle
 10
1191.307007
 20
470.099976
 30
0.0
 40
8.0
100
AcDbArc
 50
10.806925
 51
15.962019
  0
LINE
  5
31B
330
1F
100
AcDbEntity
  8
0
 62
     7
100
AcDbLine
 10
1200.307007
 20
471.599976
 30
0.0
 11
1199.165161
 21
471.599976
 31
0.0
  0
LINE
  5
31C
330
1F
100
AcDbEntity
  8
0
 62
     7
100
AcDbLine
 10
1199.165161
 20
471.599976
 30
0.0
 11
1199.188721
 21
471.470703
 31
0.0
  0
LINE
  5
31D
330
1F
100
AcDbEntity
  8
0
 62
     7
100
AcDbLine
 10
1199.188721
 20
471.470703
 30
0.0
 11
1199.212036
 21
471.329285
 31
0.0
  0
LINE
  5
31E
330
1F
100
AcDbEntity
  8
0
 62
     7
100
AcDbLine
 10
1199.212036
 20
471.329285
 30
0.0
 11
1199.231079
 21
471.200012
 31
0.0
  0
LINE
  5
31F
330
1F
100
AcDbEntity
  8
0
 62
     7
100
AcDbLine
 10
1200.307007
 20
471.200012
 30
0.0
 11
1199.231079
 21
471.200012
 31
0.0
  0
ARC
  5
320
330
1F
100
AcDbEntity
  8
0
 62
     7
100
AcDbCircle
 10
1191.307007
 20
470.099976
 30
0.0
 40
8.0
100
AcDbArc
 50
2.865984
 51
7.903208
  0
LINE
  5
321
330
1F
100
AcDbEntity
  8
0
 62
     7
100
AcDbLine
 10
1200.307007
 20
470.5
 30
0.0
 11
1199.296997
 21
470.5
 31
0.0
  0
LINE
  5
322
330
1F
100
AcDbEntity
  8
0
 62
     7
100
AcDbLine
 10
1199.296997
 20
470.5
 30
0.0
 11
1199.302368
 21
470.370728
 31
0.0
  0
LINE
  5
323
330
1F
100
AcDbEntity
  8
0
 62
     7
100
AcDbLine
 10
1199.302368
 20
470.370728
 30
0.0
 11
1199.305908
 21
470.229309
 31
0.0
  0
LINE
  5
324
330
1F
100
AcDbEntity
  8
0
 62
     7
100
AcDbLine
 10
1199.305908
 20
470.229309
 30
0.0
 11
1199.307007
 21
470.099976
 31
0.0
  0
LINE
  5
325
330
1F
100
AcDbEntity
  8
0
 62
     7
100
AcDbLine
 10
1200.307007
 20
470.099976
 30
0.0
 11
1199.307007
 21
470.099976
 31
0.0
  0
LINE
  5
326
330
1F
100
AcDbEntity
  8
0
 62
     7
100
AcDbLine
 10
1200.307007
 20
469.400024
 30
0.0
 11
1199.276367
 21
469.400024
 31
0.0
  0
LINE
  5
327
330
1F
100
AcDbEntity
  8
0
 62
     7
100
AcDbLine
 10
1200.307007
 20
469.0
 30
0.0
 11
1199.231079
 21
469.0
 31
0.0
  0
LINE
  5
328
330
1F
100
AcDbEntity
  8
0
 62
     7
100
AcDbLine
 10
1200.307007
 20
468.299988
 30
0.0
 11
1199.101929
 21
468.299988
 31
0.0
  0
LINE
  5
329
330
1F
100
AcDbEntity
  8
0
 62
     7
100
AcDbLine
 10
1200.307007
 20
467.900024
 30
0.0
 11
1198.998535
 21
467.900024
 31
0.0
  0
LINE
  5
32A
330
1F
100
AcDbEntity
  8
0
 62
     7
100
AcDbLine
 10
1200.307007
 20
467.200012
 30
0.0
 11
1198.762817
 21
467.200012
 31
0.0
  0
LINE
  5
32B
330
1F
100
AcDbEntity
  8
0
 62
     7
100
AcDbLine
 10
1200.307007
 20
466.799988
 30
0.0
 11
1198.594727
 21
466.799988
 31
0.0
  0
LINE
  5
32C
330
1F
100
AcDbEntity
  8
0
 62
     7
100
AcDbLine
 10
1200.307007
 20
466.099976
 30
0.0
 11
1198.235229
 21
466.099976
 31
0.0
  0
LINE
  5
32D
330
1F
100
AcDbEntity
  8
0
 62
     7
100
AcDbLine
 10
1184.378784
 20
466.099976
 30
0.0
 11
1125.957031
 21
466.099976
 31
0.0
  0
LINE
  5
32E
330
1F
100
AcDbEntity
  8
0
 62
     7
100
AcDbLine
 10
1184.019287
 20
466.799988
 30
0.0
 11
1125.957031
 21
466.799988
 31
0.0
  0
LINE
  5
32F
330
1F
100
AcDbEntity
  8
0
 62
     7
100
AcDbLine
 10
1183.851196
 20
467.200012
 30
0.0
 11
1125.957031
 21
467.200012
 31
0.0
  0
LINE
  5
330
330
1F
100
AcDbEntity
  8
0
 62
     7
100
AcDbLine
 10
1183.615479
 20
467.900024
 30
0.0
 11
1125.957031
 21
467.900024
 31
0.0
  0
LINE
  5
331
330
1F
100
AcDbEntity
  8
0
 62
     7
100
AcDbLine
 10
1183.512085
 20
468.299988
 30
0.0
 11
1125.957031
 21
468.299988
 31
0.0
  0
LINE
  5
332
330
1F
100
AcDbEntity
  8
0
 62
     7
100
AcDbLine
 10
1183.382935
 20
469.0
 30
0.0
 11
1125.957031
 21
469.0
 31
0.0
  0
LINE
  5
333
330
1F
100
AcDbEntity
  8
0
 62
     7
100
AcDbLine
 10
1183.337646
 20
469.400024
 30
0.0
 11
1125.957031
 21
469.400024
 31
0.0
  0
LINE
  5
334
330
1F
100
AcDbEntity
  8
0
 62
     7
100
AcDbLine
 10
1183.307007
 20
470.099976
 30
0.0
 11
1125.957031
 21
470.099976
 31
0.0
  0
LINE
  5
335
330
1F
100
AcDbEntity
  8
0
 62
     7
100
AcDbLine
 10
1183.308105
 20
470.229309
 30
0.0
 11
1183.307007
 21
470.099976
 31
0.0
  0
LINE
  5
336
330
1F
100
AcDbEntity
  8
0
 62
     7
100
AcDbLine
 10
1183.311646
 20
470.370728
 30
0.0
 11
1183.308105
 21
470.229309
 31
0.0
  0
LINE
  5
337
330
1F
100
AcDbEntity
  8
0
 62
     7
100
AcDbLine
 10
1183.317017
 20
470.5
 30
0.0
 11
1183.311646
 21
470.370728
 31
0.0
  0
ARC
  5
338
330
1F
100
AcDbEntity
  8
0
 62
     7
100
AcDbCircle
 10
1191.307007
 20
470.099976
 30
0.0
 40
8.0
100
AcDbArc
 50
172.096793
 51
177.134017
  0
LINE
  5
339
330
1F
100
AcDbEntity
  8
0
 62
     7
100
AcDbLine
 10
1183.401978
 20
471.329285
 30
0.0
 11
1183.382935
 21
471.200012
 31
0.0
  0
LINE
  5
33A
330
1F
100
AcDbEntity
  8
0
 62
     7
100
AcDbLine
 10
1183.425293
 20
471.470703
 30
0.0
 11
1183.401978
 21
471.329285
 31
0.0
  0
LINE
  5
33B
330
1F
100
AcDbEntity
  8
0
 62
     7
100
AcDbLine
 10
1183.448853
 20
471.599976
 30
0.0
 11
1183.425293
 21
471.470703
 31
0.0
  0
ARC
  5
33C
330
1F
100
AcDbEntity
  8
0
 62
     7
100
AcDbCircle
 10
1191.307007
 20
470.099976
 30
0.0
 40
8.0
100
AcDbArc
 50
164.03799
 51
169.193075
  0
LINE
  5
33D
330
1F
100
AcDbEntity
  8
0
 62
     7
100
AcDbLine
 10
1183.653564
 20
472.42926
 30
0.0
 11
1183.615479
 21
472.299988
 31
0.0
  0
LINE
  5
33E
330
1F
100
AcDbEntity
  8
0
 62
     7
100
AcDbLine
 10
1183.69812
 20
472.570679
 30
0.0
 11
1183.653564
 21
472.42926
 31
0.0
  0
LINE
  5
33F
330
1F
100
AcDbEntity
  8
0
 62
     7
100
AcDbLine
 10
1183.741333
 20
472.700012
 30
0.0
 11
1183.69812
 21
472.570679
 31
0.0
  0
ARC
  5
340
330
1F
100
AcDbEntity
  8
0
 62
     7
100
AcDbCircle
 10
1191.307007
 20
470.099976
 30
0.0
 40
8.0
100
AcDbArc
 50
155.638018
 51
161.034427
  0
LINE
  5
341
330
1F
100
AcDbEntity
  8
0
 62
     7
100
AcDbLine
 10
1184.079224
 20
473.529297
 30
0.0
 11
1184.019287
 21
473.400024
 31
0.0
  0
LINE
  5
342
330
1F
100
AcDbEntity
  8
0
 62
     7
100
AcDbLine
 10
1184.148071
 20
473.670715
 30
0.0
 11
1184.079224
 21
473.529297
 31
0.0
  0
LINE
  5
343
330
1F
100
AcDbEntity
  8
0
 62
     7
100
AcDbLine
 10
1184.214111
 20
473.799988
 30
0.0
 11
1184.148071
 21
473.670715
 31
0.0
  0
ARC
  5
344
330
1F
100
AcDbEntity
  8
0
 62
     7
100
AcDbCircle
 10
1191.307007
 20
470.099976
 30
0.0
 40
8.0
100
AcDbArc
 50
146.632987
 51
152.451448
  0
LINE
  5
345
330
1F
100
AcDbEntity
  8
0
 62
     7
100
AcDbLine
 10
1184.712646
 20
474.629272
 30
0.0
 11
1184.625732
 21
474.5
 31
0.0
  0
LINE
  5
346
330
1F
100
AcDbEntity
  8
0
 62
     7
100
AcDbLine
 10
1184.812012
 20
474.770691
 30
0.0
 11
1184.712646
 21
474.629272
 31
0.0
  0
LINE
  5
347
330
1F
100
AcDbEntity
  8
0
 62
     7
100
AcDbLine
 10
1184.906982
 20
474.900024
 30
0.0
 11
1184.812012
 21
474.770691
 31
0.0
  0
CIRCLE
  5
348
330
1F
100
AcDbEntity
  8
0
 62
     7
100
AcDbCircle
 10
1191.307007
 20
470.099976
 30
0.0
 40
7.5
  0
LINE
  5
349
330
1F
100
AcDbEntity
  8
0
 62
     7
100
AcDbLine
 10
1126.307007
 20
473.099976
 30
0.0
 11
1125.957031
 21
473.099976
 31
0.0
  0
LINE
  5
34A
330
1F
100
AcDbEntity
  8
0
 62
     7
100
AcDbLine
 10
1184.019287
 20
473.400024
 30
0.0
 11
1127.207031
 21
473.400024
 31
0.0
  0
ARC
  5
34B
330
1F
100
AcDbEntity
  8
0
 62
     7
100
AcDbCircle
 10
1126.307007
 20
474.599976
 30
0.0
 40
1.5
100
AcDbArc
 50
269.999997
 51
314.454478
  0
LINE
  5
34C
330
1F
100
AcDbEntity
  8
0
 62
     7
100
AcDbLine
 10
1183.741333
 20
472.700012
 30
0.0
 11
1125.957031
 21
472.700012
 31
0.0
  0
LINE
  5
34D
330
1F
100
AcDbEntity
  8
0
 62
     7
100
AcDbLine
 10
1183.615479
 20
472.299988
 30
0.0
 11
1125.957031
 21
472.299988
 31
0.0
  0
LINE
  5
34E
330
1F
100
AcDbEntity
  8
0
 62
     7
100
AcDbLine
 10
1183.448853
 20
471.599976
 30
0.0
 11
1125.957031
 21
471.599976
 31
0.0
  0
LINE
  5
34F
330
1F
100
AcDbEntity
  8
0
 62
     7
100
AcDbLine
 10
1183.382935
 20
471.200012
 30
0.0
 11
1125.957031
 21
471.200012
 31
0.0
  0
LINE
  5
350
330
1F
100
AcDbEntity
  8
0
 62
     7
100
AcDbLine
 10
1183.317017
 20
470.5
 30
0.0
 11
1125.957031
 21
470.5
 31
0.0
  0
LINE
  5
351
330
1F
100
AcDbEntity
  8
0
 62
     7
100
AcDbLine
 10
1124.957031
 20
473.400024
 30
0.0
 11
1122.656982
 21
473.400024
 31
0.0
  0
LINE
  5
352
330
1F
100
AcDbEntity
  8
0
 62
     7
100
AcDbLine
 10
1124.957031
 20
472.700012
 30
0.0
 11
1122.656982
 21
472.700012
 31
0.0
  0
ARC
  5
353
330
1F
100
AcDbEntity
  8
0
 62
     7
100
AcDbCircle
 10
1122.156982
 20
473.599976
 30
0.0
 40
0.5
100
AcDbArc
 50
0.0
 51
8.130103
  0
ARC
  5
354
330
1F
100
AcDbEntity
  8
0
 62
     7
100
AcDbCircle
 10
1125.457031
 20
473.599976
 30
0.0
 40
0.5
100
AcDbArc
 50
171.869894
 51
180.000009
  0
ARC
  5
355
330
1F
100
AcDbEntity
  8
0
 62
     7
100
AcDbCircle
 10
1125.457031
 20
473.599976
 30
0.0
 40
0.5
100
AcDbArc
 50
90.000003
 51
171.869894
  0
LINE
  5
356
330
1F
100
AcDbEntity
  8
0
 62
     7
100
AcDbLine
 10
1124.957031
 20
466.099976
 30
0.0
 11
1122.656982
 21
466.099976
 31
0.0
  0
LINE
  5
357
330
1F
100
AcDbEntity
  8
0
 62
     7
100
AcDbLine
 10
1124.957031
 20
466.799988
 30
0.0
 11
1122.656982
 21
466.799988
 31
0.0
  0
LINE
  5
358
330
1F
100
AcDbEntity
  8
0
 62
     7
100
AcDbLine
 10
1124.957031
 20
467.200012
 30
0.0
 11
1122.656982
 21
467.200012
 31
0.0
  0
LINE
  5
359
330
1F
100
AcDbEntity
  8
0
 62
     7
100
AcDbLine
 10
1124.957031
 20
467.900024
 30
0.0
 11
1122.656982
 21
467.900024
 31
0.0
  0
LINE
  5
35A
330
1F
100
AcDbEntity
  8
0
 62
     7
100
AcDbLine
 10
1124.957031
 20
468.299988
 30
0.0
 11
1122.656982
 21
468.299988
 31
0.0
  0
LINE
  5
35B
330
1F
100
AcDbEntity
  8
0
 62
     7
100
AcDbLine
 10
1124.957031
 20
469.0
 30
0.0
 11
1122.656982
 21
469.0
 31
0.0
  0
LINE
  5
35C
330
1F
100
AcDbEntity
  8
0
 62
     7
100
AcDbLine
 10
1124.957031
 20
469.400024
 30
0.0
 11
1122.656982
 21
469.400024
 31
0.0
  0
LINE
  5
35D
330
1F
100
AcDbEntity
  8
0
 62
     7
100
AcDbLine
 10
1124.957031
 20
470.099976
 30
0.0
 11
1122.656982
 21
470.099976
 31
0.0
  0
LINE
  5
35E
330
1F
100
AcDbEntity
  8
0
 62
     7
100
AcDbLine
 10
1124.957031
 20
470.5
 30
0.0
 11
1122.656982
 21
470.5
 31
0.0
  0
LINE
  5
35F
330
1F
100
AcDbEntity
  8
0
 62
     7
100
AcDbLine
 10
1124.957031
 20
471.200012
 30
0.0
 11
1122.656982
 21
471.200012
 31
0.0
  0
LINE
  5
360
330
1F
100
AcDbEntity
  8
0
 62
     7
100
AcDbLine
 10
1124.957031
 20
471.599976
 30
0.0
 11
1122.656982
 21
471.599976
 31
0.0
  0
LINE
  5
361
330
1F
100
AcDbEntity
  8
0
 62
     7
100
AcDbLine
 10
1124.957031
 20
472.299988
 30
0.0
 11
1122.656982
 21
472.299988
 31
0.0
  0
ARC
  5
362
330
1F
100
AcDbEntity
  8
0
 62
     7
100
AcDbCircle
 10
1122.156982
 20
473.599976
 30
0.0
 40
0.5
100
AcDbArc
 50
8.130103
 51
90.000003
  0
LINE
  5
363
330
1F
100
AcDbEntity
  8
0
 62
     7
100
AcDbLine
 10
1121.656982
 20
472.299988
 30
0.0
 11
825.956909
 21
472.299988
 31
0.0
  0
LINE
  5
364
330
1F
100
AcDbEntity
  8
0
 62
     7
100
AcDbLine
 10
1121.656982
 20
472.700012
 30
0.0
 11
825.956909
 21
472.700012
 31
0.0
  0
LINE
  5
365
330
1F
100
AcDbEntity
  8
0
 62
     7
100
AcDbLine
 10
1120.406982
 20
473.400024
 30
0.0
 11
827.206909
 21
473.400024
 31
0.0
  0
ARC
  5
366
330
1F
100
AcDbEntity
  8
0
 62
     7
100
AcDbCircle
 10
826.306885
 20
474.599976
 30
0.0
 40
1.5
100
AcDbArc
 50
269.999997
 51
314.454478
  0
LINE
  5
367
330
1F
100
AcDbEntity
  8
0
 62
     7
100
AcDbLine
 10
826.306885
 20
473.099976
 30
0.0
 11
825.956909
 21
473.099976
 31
0.0
  0
LINE
  5
368
330
1F
100
AcDbEntity
  8
0
 62
     7
100
AcDbLine
 10
1121.656982
 20
473.099976
 30
0.0
 11
1121.307007
 21
473.099976
 31
0.0
  0
ARC
  5
369
330
1F
100
AcDbEntity
  8
0
 62
     7
100
AcDbCircle
 10
1121.307007
 20
474.599976
 30
0.0
 40
1.5
100
AcDbArc
 50
212.230947
 51
269.999997
  0
LINE
  5
36A
330
1F
100
AcDbEntity
  8
0
 62
     7
100
AcDbLine
 10
1121.656982
 20
466.099976
 30
0.0
 11
825.956909
 21
466.099976
 31
0.0
  0
LINE
  5
36B
330
1F
100
AcDbEntity
  8
0
 62
     7
100
AcDbLine
 10
1121.656982
 20
466.799988
 30
0.0
 11
825.956909
 21
466.799988
 31
0.0
  0
LINE
  5
36C
330
1F
100
AcDbEntity
  8
0
 62
     7
100
AcDbLine
 10
1121.656982
 20
467.200012
 30
0.0
 11
825.956909
 21
467.200012
 31
0.0
  0
LINE
  5
36D
330
1F
100
AcDbEntity
  8
0
 62
     7
100
AcDbLine
 10
1121.656982
 20
467.900024
 30
0.0
 11
825.956909
 21
467.900024
 31
0.0
  0
LINE
  5
36E
330
1F
100
AcDbEntity
  8
0
 62
     7
100
AcDbLine
 10
1121.656982
 20
468.299988
 30
0.0
 11
825.956909
 21
468.299988
 31
0.0
  0
LINE
  5
36F
330
1F
100
AcDbEntity
  8
0
 62
     7
100
AcDbLine
 10
1121.656982
 20
469.0
 30
0.0
 11
825.956909
 21
469.0
 31
0.0
  0
LINE
  5
370
330
1F
100
AcDbEntity
  8
0
 62
     7
100
AcDbLine
 10
1121.656982
 20
469.400024
 30
0.0
 11
825.956909
 21
469.400024
 31
0.0
  0
LINE
  5
371
330
1F
100
AcDbEntity
  8
0
 62
     7
100
AcDbLine
 10
1121.656982
 20
470.099976
 30
0.0
 11
825.956909
 21
470.099976
 31
0.0
  0
LINE
  5
372
330
1F
100
AcDbEntity
  8
0
 62
     7
100
AcDbLine
 10
1121.656982
 20
470.5
 30
0.0
 11
825.956909
 21
470.5
 31
0.0
  0
LINE
  5
373
330
1F
100
AcDbEntity
  8
0
 62
     7
100
AcDbLine
 10
1121.656982
 20
471.200012
 30
0.0
 11
825.956909
 21
471.200012
 31
0.0
  0
LINE
  5
374
330
1F
100
AcDbEntity
  8
0
 62
     7
100
AcDbLine
 10
1121.656982
 20
471.599976
 30
0.0
 11
825.956909
 21
471.599976
 31
0.0
  0
LINE
  5
375
330
1F
100
AcDbEntity
  8
0
 62
     7
100
AcDbLine
 10
824.956909
 20
473.400024
 30
0.0
 11
822.65686
 21
473.400024
 31
0.0
  0
LINE
  5
376
330
1F
100
AcDbEntity
  8
0
 62
     7
100
AcDbLine
 10
824.956909
 20
472.700012
 30
0.0
 11
822.65686
 21
472.700012
 31
0.0
  0
ARC
  5
377
330
1F
100
AcDbEntity
  8
0
 62
     7
100
AcDbCircle
 10
825.456909
 20
473.599976
 30
0.0
 40
0.5
100
AcDbArc
 50
171.869894
 51
180.000009
  0
ARC
  5
378
330
1F
100
AcDbEntity
  8
0
 62
     7
100
AcDbCircle
 10
822.15686
 20
473.599976
 30
0.0
 40
0.5
100
AcDbArc
 50
0.0
 51
8.130103
  0
ARC
  5
379
330
1F
100
AcDbEntity
  8
0
 62
     7
100
AcDbCircle
 10
825.456909
 20
473.599976
 30
0.0
 40
0.5
100
AcDbArc
 50
90.000003
 51
171.869894
  0
LINE
  5
37A
330
1F
100
AcDbEntity
  8
0
 62
     7
100
AcDbLine
 10
824.956909
 20
466.099976
 30
0.0
 11
822.65686
 21
466.099976
 31
0.0
  0
LINE
  5
37B
330
1F
100
AcDbEntity
  8
0
 62
     7
100
AcDbLine
 10
824.956909
 20
466.799988
 30
0.0
 11
822.65686
 21
466.799988
 31
0.0
  0
LINE
  5
37C
330
1F
100
AcDbEntity
  8
0
 62
     7
100
AcDbLine
 10
824.956909
 20
467.200012
 30
0.0
 11
822.65686
 21
467.200012
 31
0.0
  0
LINE
  5
37D
330
1F
100
AcDbEntity
  8
0
 62
     7
100
AcDbLine
 10
824.956909
 20
467.900024
 30
0.0
 11
822.65686
 21
467.900024
 31
0.0
  0
LINE
  5
37E
330
1F
100
AcDbEntity
  8
0
 62
     7
100
AcDbLine
 10
824.956909
 20
468.299988
 30
0.0
 11
822.65686
 21
468.299988
 31
0.0
  0
LINE
  5
37F
330
1F
100
AcDbEntity
  8
0
 62
     7
100
AcDbLine
 10
824.956909
 20
469.0
 30
0.0
 11
822.65686
 21
469.0
 31
0.0
  0
LINE
  5
380
330
1F
100
AcDbEntity
  8
0
 62
     7
100
AcDbLine
 10
824.956909
 20
469.400024
 30
0.0
 11
822.65686
 21
469.400024
 31
0.0
  0
LINE
  5
381
330
1F
100
AcDbEntity
  8
0
 62
     7
100
AcDbLine
 10
824.956909
 20
470.099976
 30
0.0
 11
822.65686
 21
470.099976
 31
0.0
  0
LINE
  5
382
330
1F
100
AcDbEntity
  8
0
 62
     7
100
AcDbLine
 10
824.956909
 20
470.5
 30
0.0
 11
822.65686
 21
470.5
 31
0.0
  0
LINE
  5
383
330
1F
100
AcDbEntity
  8
0
 62
     7
100
AcDbLine
 10
824.956909
 20
471.200012
 30
0.0
 11
822.65686
 21
471.200012
 31
0.0
  0
LINE
  5
384
330
1F
100
AcDbEntity
  8
0
 62
     7
100
AcDbLine
 10
824.956909
 20
471.599976
 30
0.0
 11
822.65686
 21
471.599976
 31
0.0
  0
LINE
  5
385
330
1F
100
AcDbEntity
  8
0
 62
     7
100
AcDbLine
 10
824.956909
 20
472.299988
 30
0.0
 11
822.65686
 21
472.299988
 31
0.0
  0
ARC
  5
386
330
1F
100
AcDbEntity
  8
0
 62
     7
100
AcDbCircle
 10
822.15686
 20
473.599976
 30
0.0
 40
0.5
100
AcDbArc
 50
8.130103
 51
90.000003
  0
LINE
  5
387
330
1F
100
AcDbEntity
  8
0
 62
     7
100
AcDbLine
 10
821.65686
 20
472.299988
 30
0.0
 11
525.956848
 21
472.299988
 31
0.0
  0
LINE
  5
388
330
1F
100
AcDbEntity
  8
0
 62
     7
100
AcDbLine
 10
821.65686
 20
472.700012
 30
0.0
 11
525.956848
 21
472.700012
 31
0.0
  0
LINE
  5
389
330
1F
100
AcDbEntity
  8
0
 62
     7
100
AcDbLine
 10
821.65686
 20
473.099976
 30
0.0
 11
821.306885
 21
473.099976
 31
0.0
  0
ARC
  5
38A
330
1F
100
AcDbEntity
  8
0
 62
     7
100
AcDbCircle
 10
821.306885
 20
474.599976
 30
0.0
 40
1.5
100
AcDbArc
 50
212.230947
 51
269.999997
  0
LINE
  5
38B
330
1F
100
AcDbEntity
  8
0
 62
     7
100
AcDbLine
 10
820.40686
 20
473.400024
 30
0.0
 11
527.206848
 21
473.400024
 31
0.0
  0
ARC
  5
38C
330
1F
100
AcDbEntity
  8
0
 62
     7
100
AcDbCircle
 10
526.306885
 20
474.599976
 30
0.0
 40
1.5
100
AcDbArc
 50
269.999997
 51
314.454478
  0
LINE
  5
38D
330
1F
100
AcDbEntity
  8
0
 62
     7
100
AcDbLine
 10
526.306885
 20
473.099976
 30
0.0
 11
525.956848
 21
473.099976
 31
0.0
  0
LINE
  5
38E
330
1F
100
AcDbEntity
  8
0
 62
     7
100
AcDbLine
 10
821.65686
 20
466.099976
 30
0.0
 11
525.956848
 21
466.099976
 31
0.0
  0
LINE
  5
38F
330
1F
100
AcDbEntity
  8
0
 62
     7
100
AcDbLine
 10
821.65686
 20
466.799988
 30
0.0
 11
525.956848
 21
466.799988
 31
0.0
  0
LINE
  5
390
330
1F
100
AcDbEntity
  8
0
 62
     7
100
AcDbLine
 10
821.65686
 20
467.200012
 30
0.0
 11
525.956848
 21
467.200012
 31
0.0
  0
LINE
  5
391
330
1F
100
AcDbEntity
  8
0
 62
     7
100
AcDbLine
 10
821.65686
 20
467.900024
 30
0.0
 11
525.956848
 21
467.900024
 31
0.0
  0
LINE
  5
392
330
1F
100
AcDbEntity
  8
0
 62
     7
100
AcDbLine
 10
821.65686
 20
468.299988
 30
0.0
 11
525.956848
 21
468.299988
 31
0.0
  0
LINE
  5
393
330
1F
100
AcDbEntity
  8
0
 62
     7
100
AcDbLine
 10
821.65686
 20
469.0
 30
0.0
 11
525.956848
 21
469.0
 31
0.0
  0
LINE
  5
394
330
1F
100
AcDbEntity
  8
0
 62
     7
100
AcDbLine
 10
821.65686
 20
469.400024
 30
0.0
 11
525.956848
 21
469.400024
 31
0.0
  0
LINE
  5
395
330
1F
100
AcDbEntity
  8
0
 62
     7
100
AcDbLine
 10
821.65686
 20
470.099976
 30
0.0
 11
525.956848
 21
470.099976
 31
0.0
  0
LINE
  5
396
330
1F
100
AcDbEntity
  8
0
 62
     7
100
AcDbLine
 10
821.65686
 20
470.5
 30
0.0
 11
525.956848
 21
470.5
 31
0.0
  0
LINE
  5
397
330
1F
100
AcDbEntity
  8
0
 62
     7
100
AcDbLine
 10
821.65686
 20
471.200012
 30
0.0
 11
525.956848
 21
471.200012
 31
0.0
  0
LINE
  5
398
330
1F
100
AcDbEntity
  8
0
 62
     7
100
AcDbLine
 10
821.65686
 20
471.599976
 30
0.0
 11
525.956848
 21
471.599976
 31
0.0
  0
LINE
  5
399
330
1F
100
AcDbEntity
  8
0
 62
     7
100
AcDbLine
 10
524.956848
 20
472.700012
 30
0.0
 11
522.65686
 21
472.700012
 31
0.0
  0
LINE
  5
39A
330
1F
100
AcDbEntity
  8
0
 62
     7
100
AcDbLine
 10
524.956848
 20
473.400024
 30
0.0
 11
522.65686
 21
473.400024
 31
0.0
  0
ARC
  5
39B
330
1F
100
AcDbEntity
  8
0
 62
     7
100
AcDbCircle
 10
525.456848
 20
473.599976
 30
0.0
 40
0.5
100
AcDbArc
 50
171.869894
 51
180.000009
  0
ARC
  5
39C
330
1F
100
AcDbEntity
  8
0
 62
     7
100
AcDbCircle
 10
522.15686
 20
473.599976
 30
0.0
 40
0.5
100
AcDbArc
 50
0.0
 51
8.130103
  0
ARC
  5
39D
330
1F
100
AcDbEntity
  8
0
 62
     7
100
AcDbCircle
 10
525.456848
 20
473.599976
 30
0.0
 40
0.5
100
AcDbArc
 50
90.000003
 51
171.869894
  0
LINE
  5
39E
330
1F
100
AcDbEntity
  8
0
 62
     7
100
AcDbLine
 10
524.956848
 20
466.099976
 30
0.0
 11
522.65686
 21
466.099976
 31
0.0
  0
LINE
  5
39F
330
1F
100
AcDbEntity
  8
0
 62
     7
100
AcDbLine
 10
524.956848
 20
466.799988
 30
0.0
 11
522.65686
 21
466.799988
 31
0.0
  0
LINE
  5
3A0
330
1F
100
AcDbEntity
  8
0
 62
     7
100
AcDbLine
 10
524.956848
 20
467.200012
 30
0.0
 11
522.65686
 21
467.200012
 31
0.0
  0
LINE
  5
3A1
330
1F
100
AcDbEntity
  8
0
 62
     7
100
AcDbLine
 10
524.956848
 20
467.900024
 30
0.0
 11
522.65686
 21
467.900024
 31
0.0
  0
LINE
  5
3A2
330
1F
100
AcDbEntity
  8
0
 62
     7
100
AcDbLine
 10
524.956848
 20
468.299988
 30
0.0
 11
522.65686
 21
468.299988
 31
0.0
  0
LINE
  5
3A3
330
1F
100
AcDbEntity
  8
0
 62
     7
100
AcDbLine
 10
524.956848
 20
469.0
 30
0.0
 11
522.65686
 21
469.0
 31
0.0
  0
LINE
  5
3A4
330
1F
100
AcDbEntity
  8
0
 62
     7
100
AcDbLine
 10
524.956848
 20
469.400024
 30
0.0
 11
522.65686
 21
469.400024
 31
0.0
  0
LINE
  5
3A5
330
1F
100
AcDbEntity
  8
0
 62
     7
100
AcDbLine
 10
524.956848
 20
470.099976
 30
0.0
 11
522.65686
 21
470.099976
 31
0.0
  0
LINE
  5
3A6
330
1F
100
AcDbEntity
  8
0
 62
     7
100
AcDbLine
 10
524.956848
 20
470.5
 30
0.0
 11
522.65686
 21
470.5
 31
0.0
  0
LINE
  5
3A7
330
1F
100
AcDbEntity
  8
0
 62
     7
100
AcDbLine
 10
524.956848
 20
471.200012
 30
0.0
 11
522.65686
 21
471.200012
 31
0.0
  0
LINE
  5
3A8
330
1F
100
AcDbEntity
  8
0
 62
     7
100
AcDbLine
 10
524.956848
 20
471.599976
 30
0.0
 11
522.65686
 21
471.599976
 31
0.0
  0
LINE
  5
3A9
330
1F
100
AcDbEntity
  8
0
 62
     7
100
AcDbLine
 10
524.956848
 20
472.299988
 30
0.0
 11
522.65686
 21
472.299988
 31
0.0
  0
ARC
  5
3AA
330
1F
100
AcDbEntity
  8
0
 62
     7
100
AcDbCircle
 10
522.15686
 20
473.599976
 30
0.0
 40
0.5
100
AcDbArc
 50
8.130103
 51
90.000003
  0
LINE
  5
3AB
330
1F
100
AcDbEntity
  8
0
 62
     7
100
AcDbLine
 10
521.65686
 20
472.299988
 30
0.0
 11
225.956924
 21
472.299988
 31
0.0
  0
LINE
  5
3AC
330
1F
100
AcDbEntity
  8
0
 62
     7
100
AcDbLine
 10
521.65686
 20
472.700012
 30
0.0
 11
225.956924
 21
472.700012
 31
0.0
  0
LINE
  5
3AD
330
1F
100
AcDbEntity
  8
0
 62
     7
100
AcDbLine
 10
520.40686
 20
473.400024
 30
0.0
 11
227.206924
 21
473.400024
 31
0.0
  0
ARC
  5
3AE
330
1F
100
AcDbEntity
  8
0
 62
     7
100
AcDbCircle
 10
226.306931
 20
474.599976
 30
0.0
 40
1.5
100
AcDbArc
 50
269.999997
 51
314.454478
  0
LINE
  5
3AF
330
1F
100
AcDbEntity
  8
0
 62
     7
100
AcDbLine
 10
226.306931
 20
473.099976
 30
0.0
 11
225.956924
 21
473.099976
 31
0.0
  0
LINE
  5
3B0
330
1F
100
AcDbEntity
  8
0
 62
     7
100
AcDbLine
 10
521.65686
 20
473.099976
 30
0.0
 11
521.306885
 21
473.099976
 31
0.0
  0
ARC
  5
3B1
330
1F
100
AcDbEntity
  8
0
 62
     7
100
AcDbCircle
 10
521.306885
 20
474.599976
 30
0.0
 40
1.5
100
AcDbArc
 50
212.230947
 51
269.999997
  0
LINE
  5
3B2
330
1F
100
AcDbEntity
  8
0
 62
     7
100
AcDbLine
 10
521.65686
 20
466.099976
 30
0.0
 11
225.956924
 21
466.099976
 31
0.0
  0
LINE
  5
3B3
330
1F
100
AcDbEntity
  8
0
 62
     7
100
AcDbLine
 10
521.65686
 20
466.799988
 30
0.0
 11
225.956924
 21
466.799988
 31
0.0
  0
LINE
  5
3B4
330
1F
100
AcDbEntity
  8
0
 62
     7
100
AcDbLine
 10
521.65686
 20
467.200012
 30
0.0
 11
225.956924
 21
467.200012
 31
0.0
  0
LINE
  5
3B5
330
1F
100
AcDbEntity
  8
0
 62
     7
100
AcDbLine
 10
521.65686
 20
467.900024
 30
0.0
 11
225.956924
 21
467.900024
 31
0.0
  0
LINE
  5
3B6
330
1F
100
AcDbEntity
  8
0
 62
     7
100
AcDbLine
 10
521.65686
 20
468.299988
 30
0.0
 11
225.956924
 21
468.299988
 31
0.0
  0
LINE
  5
3B7
330
1F
100
AcDbEntity
  8
0
 62
     7
100
AcDbLine
 10
521.65686
 20
469.0
 30
0.0
 11
225.956924
 21
469.0
 31
0.0
  0
LINE
  5
3B8
330
1F
100
AcDbEntity
  8
0
 62
     7
100
AcDbLine
 10
521.65686
 20
469.400024
 30
0.0
 11
225.956924
 21
469.400024
 31
0.0
  0
LINE
  5
3B9
330
1F
100
AcDbEntity
  8
0
 62
     7
100
AcDbLine
 10
521.65686
 20
470.099976
 30
0.0
 11
225.956924
 21
470.099976
 31
0.0
  0
LINE
  5
3BA
330
1F
100
AcDbEntity
  8
0
 62
     7
100
AcDbLine
 10
521.65686
 20
470.5
 30
0.0
 11
225.956924
 21
470.5
 31
0.0
  0
LINE
  5
3BB
330
1F
100
AcDbEntity
  8
0
 62
     7
100
AcDbLine
 10
521.65686
 20
471.200012
 30
0.0
 11
225.956924
 21
471.200012
 31
0.0
  0
LINE
  5
3BC
330
1F
100
AcDbEntity
  8
0
 62
     7
100
AcDbLine
 10
521.65686
 20
471.599976
 30
0.0
 11
225.956924
 21
471.599976
 31
0.0
  0
LINE
  5
3BD
330
1F
100
AcDbEntity
  8
0
 62
     7
100
AcDbLine
 10
224.956924
 20
472.700012
 30
0.0
 11
222.656937
 21
472.700012
 31
0.0
  0
LINE
  5
3BE
330
1F
100
AcDbEntity
  8
0
 62
     7
100
AcDbLine
 10
224.956924
 20
473.400024
 30
0.0
 11
222.656937
 21
473.400024
 31
0.0
  0
ARC
  5
3BF
330
1F
100
AcDbEntity
  8
0
 62
     7
100
AcDbCircle
 10
225.456924
 20
473.599976
 30
0.0
 40
0.5
100
AcDbArc
 50
171.869894
 51
180.000009
  0
ARC
  5
3C0
330
1F
100
AcDbEntity
  8
0
 62
     7
100
AcDbCircle
 10
222.156937
 20
473.599976
 30
0.0
 40
0.5
100
AcDbArc
 50
0.0
 51
8.130103
  0
ARC
  5
3C1
330
1F
100
AcDbEntity
  8
0
 62
     7
100
AcDbCircle
 10
225.456924
 20
473.599976
 30
0.0
 40
0.5
100
AcDbArc
 50
90.000003
 51
171.869894
  0
LINE
  5
3C2
330
1F
100
AcDbEntity
  8
0
 62
     7
100
AcDbLine
 10
224.956924
 20
466.099976
 30
0.0
 11
222.656937
 21
466.099976
 31
0.0
  0
LINE
  5
3C3
330
1F
100
AcDbEntity
  8
0
 62
     7
100
AcDbLine
 10
224.956924
 20
466.799988
 30
0.0
 11
222.656937
 21
466.799988
 31
0.0
  0
LINE
  5
3C4
330
1F
100
AcDbEntity
  8
0
 62
     7
100
AcDbLine
 10
224.956924
 20
467.200012
 30
0.0
 11
222.656937
 21
467.200012
 31
0.0
  0
LINE
  5
3C5
330
1F
100
AcDbEntity
  8
0
 62
     7
100
AcDbLine
 10
224.956924
 20
467.900024
 30
0.0
 11
222.656937
 21
467.900024
 31
0.0
  0
LINE
  5
3C6
330
1F
100
AcDbEntity
  8
0
 62
     7
100
AcDbLine
 10
224.956924
 20
468.299988
 30
0.0
 11
222.656937
 21
468.299988
 31
0.0
  0
LINE
  5
3C7
330
1F
100
AcDbEntity
  8
0
 62
     7
100
AcDbLine
 10
224.956924
 20
469.0
 30
0.0
 11
222.656937
 21
469.0
 31
0.0
  0
LINE
  5
3C8
330
1F
100
AcDbEntity
  8
0
 62
     7
100
AcDbLine
 10
224.956924
 20
469.400024
 30
0.0
 11
222.656937
 21
469.400024
 31
0.0
  0
LINE
  5
3C9
330
1F
100
AcDbEntity
  8
0
 62
     7
100
AcDbLine
 10
224.956924
 20
470.099976
 30
0.0
 11
222.656937
 21
470.099976
 31
0.0
  0
LINE
  5
3CA
330
1F
100
AcDbEntity
  8
0
 62
     7
100
AcDbLine
 10
224.956924
 20
470.5
 30
0.0
 11
222.656937
 21
470.5
 31
0.0
  0
LINE
  5
3CB
330
1F
100
AcDbEntity
  8
0
 62
     7
100
AcDbLine
 10
224.956924
 20
471.200012
 30
0.0
 11
222.656937
 21
471.200012
 31
0.0
  0
LINE
  5
3CC
330
1F
100
AcDbEntity
  8
0
 62
     7
100
AcDbLine
 10
224.956924
 20
471.599976
 30
0.0
 11
222.656937
 21
471.599976
 31
0.0
  0
LINE
  5
3CD
330
1F
100
AcDbEntity
  8
0
 62
     7
100
AcDbLine
 10
224.956924
 20
472.299988
 30
0.0
 11
222.656937
 21
472.299988
 31
0.0
  0
ARC
  5
3CE
330
1F
100
AcDbEntity
  8
0
 62
     7
100
AcDbCircle
 10
222.156937
 20
473.599976
 30
0.0
 40
0.5
100
AcDbArc
 50
8.130103
 51
90.000003
  0
LINE
  5
3CF
330
1F
100
AcDbEntity
  8
0
 62
     7
100
AcDbLine
 10
163.960312
 20
472.42926
 30
0.0
 11
163.998489
 21
472.299988
 31
0.0
  0
LINE
  5
3D0
330
1F
100
AcDbEntity
  8
0
 62
     7
100
AcDbLine
 10
221.656937
 20
472.299988
 30
0.0
 11
163.998489
 21
472.299988
 31
0.0
  0
LINE
  5
3D1
330
1F
100
AcDbEntity
  8
0
 62
     7
100
AcDbLine
 10
163.915848
 20
472.570679
 30
0.0
 11
163.960312
 21
472.42926
 31
0.0
  0
LINE
  5
3D2
330
1F
100
AcDbEntity
  8
0
 62
     7
100
AcDbLine
 10
163.872635
 20
472.700012
 30
0.0
 11
163.915848
 21
472.570679
 31
0.0
  0
LINE
  5
3D3
330
1F
100
AcDbEntity
  8
0
 62
     7
100
AcDbLine
 10
221.656937
 20
472.700012
 30
0.0
 11
163.872635
 21
472.700012
 31
0.0
  0
ARC
  5
3D4
330
1F
100
AcDbEntity
  8
0
 62
     7
100
AcDbCircle
 10
156.306931
 20
470.099976
 30
0.0
 40
8.0
100
AcDbArc
 50
18.965574
 51
24.361978
  0
LINE
  5
3D5
330
1F
100
AcDbEntity
  8
0
 62
     7
100
AcDbLine
 10
221.656937
 20
473.099976
 30
0.0
 11
221.306931
 21
473.099976
 31
0.0
  0
ARC
  5
3D6
330
1F
100
AcDbEntity
  8
0
 62
     7
100
AcDbCircle
 10
221.306931
 20
474.599976
 30
0.0
 40
1.5
100
AcDbArc
 50
212.230947
 51
269.999997
  0
LINE
  5
3D7
330
1F
100
AcDbEntity
  8
0
 62
     7
100
AcDbLine
 10
220.406937
 20
473.400024
 30
0.0
 11
163.594589
 21
473.400024
 31
0.0
  0
LINE
  5
3D8
330
1F
100
AcDbEntity
  8
0
 62
     7
100
AcDbLine
 10
221.656937
 20
466.099976
 30
0.0
 11
163.235123
 21
466.099976
 31
0.0
  0
LINE
  5
3D9
330
1F
100
AcDbEntity
  8
0
 62
     7
100
AcDbLine
 10
221.656937
 20
466.799988
 30
0.0
 11
163.594589
 21
466.799988
 31
0.0
  0
LINE
  5
3DA
330
1F
100
AcDbEntity
  8
0
 62
     7
100
AcDbLine
 10
221.656937
 20
467.200012
 30
0.0
 11
163.762802
 21
467.200012
 31
0.0
  0
LINE
  5
3DB
330
1F
100
AcDbEntity
  8
0
 62
     7
100
AcDbLine
 10
221.656937
 20
467.900024
 30
0.0
 11
163.998489
 21
467.900024
 31
0.0
  0
LINE
  5
3DC
330
1F
100
AcDbEntity
  8
0
 62
     7
100
AcDbLine
 10
221.656937
 20
468.299988
 30
0.0
 11
164.101791
 21
468.299988
 31
0.0
  0
LINE
  5
3DD
330
1F
100
AcDbEntity
  8
0
 62
     7
100
AcDbLine
 10
221.656937
 20
469.0
 30
0.0
 11
164.230942
 21
469.0
 31
0.0
  0
LINE
  5
3DE
330
1F
100
AcDbEntity
  8
0
 62
     7
100
AcDbLine
 10
221.656937
 20
469.400024
 30
0.0
 11
164.27623
 21
469.400024
 31
0.0
  0
LINE
  5
3DF
330
1F
100
AcDbEntity
  8
0
 62
     7
100
AcDbLine
 10
221.656937
 20
470.099976
 30
0.0
 11
164.306931
 21
470.099976
 31
0.0
  0
LINE
  5
3E0
330
1F
100
AcDbEntity
  8
0
 62
     7
100
AcDbLine
 10
164.305862
 20
470.229309
 30
0.0
 11
164.306931
 21
470.099976
 31
0.0
  0
LINE
  5
3E1
330
1F
100
AcDbEntity
  8
0
 62
     7
100
AcDbLine
 10
164.302353
 20
470.370728
 30
0.0
 11
164.305862
 21
470.229309
 31
0.0
  0
LINE
  5
3E2
330
1F
100
AcDbEntity
  8
0
 62
     7
100
AcDbLine
 10
164.296921
 20
470.5
 30
0.0
 11
164.302353
 21
470.370728
 31
0.0
  0
LINE
  5
3E3
330
1F
100
AcDbEntity
  8
0
 62
     7
100
AcDbLine
 10
221.656937
 20
470.5
 30
0.0
 11
164.296921
 21
470.5
 31
0.0
  0
ARC
  5
3E4
330
1F
100
AcDbEntity
  8
0
 62
     7
100
AcDbCircle
 10
156.306931
 20
470.099976
 30
0.0
 40
8.0
100
AcDbArc
 50
2.865984
 51
7.903208
  0
LINE
  5
3E5
330
1F
100
AcDbEntity
  8
0
 62
     7
100
AcDbLine
 10
221.656937
 20
471.200012
 30
0.0
 11
164.230942
 21
471.200012
 31
0.0
  0
LINE
  5
3E6
330
1F
100
AcDbEntity
  8
0
 62
     7
100
AcDbLine
 10
164.211899
 20
471.329285
 30
0.0
 11
164.230942
 21
471.200012
 31
0.0
  0
LINE
  5
3E7
330
1F
100
AcDbEntity
  8
0
 62
     7
100
AcDbLine
 10
164.188614
 20
471.470703
 30
0.0
 11
164.211899
 21
471.329285
 31
0.0
  0
LINE
  5
3E8
330
1F
100
AcDbEntity
  8
0
 62
     7
100
AcDbLine
 10
164.165024
 20
471.599976
 30
0.0
 11
164.188614
 21
471.470703
 31
0.0
  0
LINE
  5
3E9
330
1F
100
AcDbEntity
  8
0
 62
     7
100
AcDbLine
 10
221.656937
 20
471.599976
 30
0.0
 11
164.165024
 21
471.599976
 31
0.0
  0
ARC
  5
3EA
330
1F
100
AcDbEntity
  8
0
 62
     7
100
AcDbCircle
 10
156.306931
 20
470.099976
 30
0.0
 40
8.0
100
AcDbArc
 50
10.806925
 51
15.962019
  0
LINE
  5
3EB
330
1F
100
AcDbEntity
  8
0
 62
     7
100
AcDbLine
 10
149.378708
 20
466.099976
 30
0.0
 11
147.306931
 21
466.099976
 31
0.0
  0
LINE
  5
3EC
330
1F
100
AcDbEntity
  8
0
 62
     7
100
AcDbLine
 10
149.019272
 20
466.799988
 30
0.0
 11
147.306931
 21
466.799988
 31
0.0
  0
LINE
  5
3ED
330
1F
100
AcDbEntity
  8
0
 62
     7
100
AcDbLine
 10
148.851059
 20
467.200012
 30
0.0
 11
147.306931
 21
467.200012
 31
0.0
  0
LINE
  5
3EE
330
1F
100
AcDbEntity
  8
0
 62
     7
100
AcDbLine
 10
148.615372
 20
467.900024
 30
0.0
 11
147.306931
 21
467.900024
 31
0.0
  0
LINE
  5
3EF
330
1F
100
AcDbEntity
  8
0
 62
     7
100
AcDbLine
 10
148.512039
 20
468.299988
 30
0.0
 11
147.306931
 21
468.299988
 31
0.0
  0
LINE
  5
3F0
330
1F
100
AcDbEntity
  8
0
 62
     7
100
AcDbLine
 10
148.382919
 20
469.0
 30
0.0
 11
147.306931
 21
469.0
 31
0.0
  0
LINE
  5
3F1
330
1F
100
AcDbEntity
  8
0
 62
     7
100
AcDbLine
 10
148.337601
 20
469.400024
 30
0.0
 11
147.306931
 21
469.400024
 31
0.0
  0
LINE
  5
3F2
330
1F
100
AcDbEntity
  8
0
 62
     7
100
AcDbLine
 10
148.306931
 20
470.099976
 30
0.0
 11
147.306931
 21
470.099976
 31
0.0
  0
LINE
  5
3F3
330
1F
100
AcDbEntity
  8
0
 62
     7
100
AcDbLine
 10
148.307968
 20
470.229309
 30
0.0
 11
148.306931
 21
470.099976
 31
0.0
  0
LINE
  5
3F4
330
1F
100
AcDbEntity
  8
0
 62
     7
100
AcDbLine
 10
148.311508
 20
470.370728
 30
0.0
 11
148.307968
 21
470.229309
 31
0.0
  0
LINE
  5
3F5
330
1F
100
AcDbEntity
  8
0
 62
     7
100
AcDbLine
 10
148.31694
 20
470.5
 30
0.0
 11
148.311508
 21
470.370728
 31
0.0
  0
ARC
  5
3F6
330
1F
100
AcDbEntity
  8
0
 62
     7
100
AcDbCircle
 10
156.306931
 20
470.099976
 30
0.0
 40
8.0
100
AcDbArc
 50
172.096793
 51
177.134017
  0
LINE
  5
3F7
330
1F
100
AcDbEntity
  8
0
 62
     7
100
AcDbLine
 10
148.401932
 20
471.329285
 30
0.0
 11
148.382919
 21
471.200012
 31
0.0
  0
LINE
  5
3F8
330
1F
100
AcDbEntity
  8
0
 62
     7
100
AcDbLine
 10
148.425217
 20
471.470703
 30
0.0
 11
148.401932
 21
471.329285
 31
0.0
  0
LINE
  5
3F9
330
1F
100
AcDbEntity
  8
0
 62
     7
100
AcDbLine
 10
148.448807
 20
471.599976
 30
0.0
 11
148.425217
 21
471.470703
 31
0.0
  0
ARC
  5
3FA
330
1F
100
AcDbEntity
  8
0
 62
     7
100
AcDbCircle
 10
156.306931
 20
470.099976
 30
0.0
 40
8.0
100
AcDbArc
 50
164.03799
 51
169.193075
  0
LINE
  5
3FB
330
1F
100
AcDbEntity
  8
0
 62
     7
100
AcDbLine
 10
148.653519
 20
472.42926
 30
0.0
 11
148.615372
 21
472.299988
 31
0.0
  0
LINE
  5
3FC
330
1F
100
AcDbEntity
  8
0
 62
     7
100
AcDbLine
 10
148.698013
 20
472.570679
 30
0.0
 11
148.653519
 21
472.42926
 31
0.0
  0
LINE
  5
3FD
330
1F
100
AcDbEntity
  8
0
 62
     7
100
AcDbLine
 10
148.741196
 20
472.700012
 30
0.0
 11
148.698013
 21
472.570679
 31
0.0
  0
ARC
  5
3FE
330
1F
100
AcDbEntity
  8
0
 62
     7
100
AcDbCircle
 10
156.306931
 20
470.099976
 30
0.0
 40
8.0
100
AcDbArc
 50
155.638018
 51
161.034427
  0
LINE
  5
3FF
330
1F
100
AcDbEntity
  8
0
 62
     7
100
AcDbLine
 10
149.079208
 20
473.529297
 30
0.0
 11
149.019272
 21
473.400024
 31
0.0
  0
LINE
  5
400
330
1F
100
AcDbEntity
  8
0
 62
     7
100
AcDbLine
 10
149.148026
 20
473.670715
 30
0.0
 11
149.079208
 21
473.529297
 31
0.0
  0
LINE
  5
401
330
1F
100
AcDbEntity
  8
0
 62
     7
100
AcDbLine
 10
149.213974
 20
473.799988
 30
0.0
 11
149.148026
 21
473.670715
 31
0.0
  0
ARC
  5
402
330
1F
100
AcDbEntity
  8
0
 62
     7
100
AcDbCircle
 10
156.306931
 20
470.099976
 30
0.0
 40
8.0
100
AcDbArc
 50
146.632987
 51
152.451448
  0
LINE
  5
403
330
1F
100
AcDbEntity
  8
0
 62
     7
100
AcDbLine
 10
149.71257
 20
474.629272
 30
0.0
 11
149.625595
 21
474.5
 31
0.0
  0
LINE
  5
404
330
1F
100
AcDbEntity
  8
0
 62
     7
100
AcDbLine
 10
149.811966
 20
474.770691
 30
0.0
 11
149.71257
 21
474.629272
 31
0.0
  0
LINE
  5
405
330
1F
100
AcDbEntity
  8
0
 62
     7
100
AcDbLine
 10
149.906937
 20
474.900024
 30
0.0
 11
149.811966
 21
474.770691
 31
0.0
  0
ARC
  5
406
330
1F
100
AcDbEntity
  8
0
 62
     7
100
AcDbCircle
 10
156.306931
 20
470.099976
 30
0.0
 40
8.0
100
AcDbArc
 50
36.869897
 51
143.130097
  0
LINE
  5
407
330
1F
100
AcDbEntity
  8
0
 62
     7
100
AcDbLine
 10
162.706924
 20
474.900024
 30
0.0
 11
162.801865
 21
474.770691
 31
0.0
  0
LINE
  5
408
330
1F
100
AcDbEntity
  8
0
 62
     7
100
AcDbLine
 10
162.801865
 20
474.770691
 30
0.0
 11
162.901291
 21
474.629272
 31
0.0
  0
LINE
  5
409
330
1F
100
AcDbEntity
  8
0
 62
     7
100
AcDbLine
 10
162.901291
 20
474.629272
 30
0.0
 11
162.988235
 21
474.5
 31
0.0
  0
ARC
  5
40A
330
1F
100
AcDbEntity
  8
0
 62
     7
100
AcDbCircle
 10
156.306931
 20
470.099976
 30
0.0
 40
8.0
100
AcDbArc
 50
27.548547
 51
33.367014
  0
LINE
  5
40B
330
1F
100
AcDbEntity
  8
0
 62
     7
100
AcDbLine
 10
163.399887
 20
473.799988
 30
0.0
 11
163.465836
 21
473.670715
 31
0.0
  0
LINE
  5
40C
330
1F
100
AcDbEntity
  8
0
 62
     7
100
AcDbLine
 10
163.465836
 20
473.670715
 30
0.0
 11
163.534653
 21
473.529297
 31
0.0
  0
LINE
  5
40D
330
1F
100
AcDbEntity
  8
0
 62
     7
100
AcDbLine
 10
163.534653
 20
473.529297
 30
0.0
 11
163.594589
 21
473.400024
 31
0.0
  0
CIRCLE
  5
40E
330
1F
100
AcDbEntity
  8
0
 62
     7
100
AcDbCircle
 10
156.306931
 20
470.099976
 30
0.0
 40
7.5
  0
LINE
  5
40F
330
1F
100
AcDbEntity
  8
0
 62
     7
100
AcDbLine
 10
146.806931
 20
458.099976
 30
0.0
 11
147.306931
 21
458.099976
 31
0.0
  0
LINE
  5
410
330
1F
100
AcDbEntity
  8
0
 62
     7
100
AcDbLine
 10
148.31694
 20
470.5
 30
0.0
 11
147.306931
 21
470.5
 31
0.0
  0
LINE
  5
411
330
1F
100
AcDbEntity
  8
0
 62
     7
100
AcDbLine
 10
148.382919
 20
471.200012
 30
0.0
 11
147.306931
 21
471.200012
 31
0.0
  0
LINE
  5
412
330
1F
100
AcDbEntity
  8
0
 62
     7
100
AcDbLine
 10
148.448807
 20
471.599976
 30
0.0
 11
147.306931
 21
471.599976
 31
0.0
  0
LINE
  5
413
330
1F
100
AcDbEntity
  8
0
 62
     7
100
AcDbLine
 10
148.615372
 20
472.299988
 30
0.0
 11
147.306931
 21
472.299988
 31
0.0
  0
LINE
  5
414
330
1F
100
AcDbEntity
  8
0
 62
     7
100
AcDbLine
 10
148.741196
 20
472.700012
 30
0.0
 11
147.306931
 21
472.700012
 31
0.0
  0
LINE
  5
415
330
1F
100
AcDbEntity
  8
0
 62
     7
100
AcDbLine
 10
149.019272
 20
473.400024
 30
0.0
 11
147.306931
 21
473.400024
 31
0.0
  0
LINE
  5
416
330
1F
100
AcDbEntity
  8
0
 62
     7
100
AcDbLine
 10
149.213974
 20
473.799988
 30
0.0
 11
147.306931
 21
473.799988
 31
0.0
  0
LINE
  5
417
330
1F
100
AcDbEntity
  8
0
 62
     7
100
AcDbLine
 10
149.625595
 20
474.5
 30
0.0
 11
147.306931
 21
474.5
 31
0.0
  0
LINE
  5
418
330
1F
100
AcDbEntity
  8
0
 62
     7
100
AcDbLine
 10
149.906937
 20
474.900024
 30
0.0
 11
147.306931
 21
474.900024
 31
0.0
  0
LINE
  5
419
330
1F
100
AcDbEntity
  8
0
 62
     7
100
AcDbLine
 10
219.806931
 20
474.900024
 30
0.0
 11
162.706924
 21
474.900024
 31
0.0
  0
LINE
  5
41A
330
1F
100
AcDbEntity
  8
0
 62
     7
100
AcDbLine
 10
219.806931
 20
474.900024
 30
0.0
 11
219.806931
 21
479.724243
 31
0.0
  0
LINE
  5
41B
330
1F
100
AcDbEntity
  8
0
 62
     7
100
AcDbLine
 10
219.806931
 20
479.724243
 30
0.0
 11
147.306931
 21
479.724243
 31
0.0
  0
LINE
  5
41C
330
1F
100
AcDbEntity
  8
0
 62
     7
100
AcDbLine
 10
219.806931
 20
480.212158
 30
0.0
 11
219.806931
 21
479.724243
 31
0.0
  0
LINE
  5
41D
330
1F
100
AcDbEntity
  8
0
 62
     7
100
AcDbLine
 10
219.806931
 20
480.299988
 30
0.0
 11
219.806931
 21
480.212158
 31
0.0
  0
LINE
  5
41E
330
1F
100
AcDbEntity
  8
0
 62
     7
100
AcDbLine
 10
1200.807007
 20
452.400024
 30
0.0
 11
1200.807007
 21
451.900024
 31
0.0
  0
LINE
  5
41F
330
1F
100
AcDbEntity
  8
0
 62
     7
100
AcDbLine
 10
1200.807007
 20
479.49292
 30
0.0
 11
1200.807007
 21
452.400024
 31
0.0
  0
LINE
  5
420
330
1F
100
AcDbEntity
  8
0
 62
     7
100
AcDbLine
 10
1200.807007
 20
479.846436
 30
0.0
 11
1200.807007
 21
479.49292
 31
0.0
  0
LINE
  5
421
330
1F
100
AcDbEntity
  8
0
 62
     7
100
AcDbLine
 10
1200.807007
 20
480.531128
 30
0.0
 11
1200.807007
 21
479.846436
 31
0.0
  0
LINE
  5
422
330
1F
100
AcDbEntity
  8
0
 62
     7
100
AcDbLine
 10
1127.807007
 20
474.770691
 30
0.0
 11
1127.807007
 21
474.900024
 31
0.0
  0
LINE
  5
423
330
1F
100
AcDbEntity
  8
0
 62
     7
100
AcDbLine
 10
1127.807007
 20
474.629272
 30
0.0
 11
1127.807007
 21
474.770691
 31
0.0
  0
LINE
  5
424
330
1F
100
AcDbEntity
  8
0
 62
     7
100
AcDbLine
 10
1127.807007
 20
474.629272
 30
0.0
 11
1127.807007
 21
474.599976
 31
0.0
  0
ARC
  5
425
330
1F
100
AcDbEntity
  8
0
 62
     7
100
AcDbCircle
 10
1126.307007
 20
474.599976
 30
0.0
 40
1.5
100
AcDbArc
 50
314.454478
 51
356.177454
  0
LINE
  5
426
330
1F
100
AcDbEntity
  8
0
 62
     7
100
AcDbLine
 10
1127.803589
 20
474.5
 30
0.0
 11
1127.807007
 21
474.599976
 31
0.0
  0
LINE
  5
427
330
1F
100
AcDbEntity
  8
0
 62
     7
100
AcDbLine
 10
1125.457031
 20
474.099976
 30
0.0
 11
1126.307007
 21
474.099976
 31
0.0
  0
ARC
  5
428
330
1F
100
AcDbEntity
  8
0
 62
     7
100
AcDbCircle
 10
1126.307007
 20
474.599976
 30
0.0
 40
0.5
100
AcDbArc
 50
269.999997
 51
360.0
  0
LINE
  5
429
330
1F
100
AcDbEntity
  8
0
 62
     7
100
AcDbLine
 10
1126.807007
 20
474.900024
 30
0.0
 11
1126.807007
 21
479.724243
 31
0.0
  0
LINE
  5
42A
330
1F
100
AcDbEntity
  8
0
 62
     7
100
AcDbLine
 10
1126.807007
 20
480.212158
 30
0.0
 11
1126.807007
 21
479.724243
 31
0.0
  0
LINE
  5
42B
330
1F
100
AcDbEntity
  8
0
 62
     7
100
AcDbLine
 10
1126.807007
 20
480.299988
 30
0.0
 11
1126.807007
 21
480.212158
 31
0.0
  0
LINE
  5
42C
330
1F
100
AcDbEntity
  8
0
 62
     7
100
AcDbLine
 10
1126.807007
 20
474.629272
 30
0.0
 11
1126.807007
 21
474.599976
 31
0.0
  0
LINE
  5
42D
330
1F
100
AcDbEntity
  8
0
 62
     7
100
AcDbLine
 10
1126.807007
 20
474.770691
 30
0.0
 11
1126.807007
 21
474.629272
 31
0.0
  0
LINE
  5
42E
330
1F
100
AcDbEntity
  8
0
 62
     7
100
AcDbLine
 10
1126.807007
 20
474.770691
 30
0.0
 11
1126.807007
 21
474.900024
 31
0.0
  0
LINE
  5
42F
330
1F
100
AcDbEntity
  8
0
 62
     7
100
AcDbLine
 10
1120.807007
 20
480.212158
 30
0.0
 11
1120.807007
 21
480.299988
 31
0.0
  0
LINE
  5
430
330
1F
100
AcDbEntity
  8
0
 62
     7
100
AcDbLine
 10
1120.807007
 20
480.212158
 30
0.0
 11
1120.807007
 21
479.724243
 31
0.0
  0
LINE
  5
431
330
1F
100
AcDbEntity
  8
0
 62
     7
100
AcDbLine
 10
1120.807007
 20
474.900024
 30
0.0
 11
1120.807007
 21
479.724243
 31
0.0
  0
LINE
  5
432
330
1F
100
AcDbEntity
  8
0
 62
     7
100
AcDbLine
 10
1120.807007
 20
474.770691
 30
0.0
 11
1120.807007
 21
474.900024
 31
0.0
  0
LINE
  5
433
330
1F
100
AcDbEntity
  8
0
 62
     7
100
AcDbLine
 10
1120.807007
 20
474.629272
 30
0.0
 11
1120.807007
 21
474.770691
 31
0.0
  0
LINE
  5
434
330
1F
100
AcDbEntity
  8
0
 62
     7
100
AcDbLine
 10
1120.807007
 20
474.629272
 30
0.0
 11
1120.807007
 21
474.599976
 31
0.0
  0
ARC
  5
435
330
1F
100
AcDbEntity
  8
0
 62
     7
100
AcDbCircle
 10
1121.307007
 20
474.599976
 30
0.0
 40
0.5
100
AcDbArc
 50
180.000009
 51
269.999997
  0
LINE
  5
436
330
1F
100
AcDbEntity
  8
0
 62
     7
100
AcDbLine
 10
1121.307007
 20
474.099976
 30
0.0
 11
1122.156982
 21
474.099976
 31
0.0
  0
ARC
  5
437
330
1F
100
AcDbEntity
  8
0
 62
     7
100
AcDbCircle
 10
1121.307007
 20
474.599976
 30
0.0
 40
1.5
100
AcDbArc
 50
183.822551
 51
212.230947
  0
LINE
  5
438
330
1F
100
AcDbEntity
  8
0
 62
     7
100
AcDbLine
 10
1119.810303
 20
474.5
 30
0.0
 11
1119.807007
 21
474.599976
 31
0.0
  0
LINE
  5
439
330
1F
100
AcDbEntity
  8
0
 62
     7
100
AcDbLine
 10
1119.807007
 20
474.900024
 30
0.0
 11
1119.807007
 21
479.724243
 31
0.0
  0
LINE
  5
43A
330
1F
100
AcDbEntity
  8
0
 62
     7
100
AcDbLine
 10
1119.807007
 20
480.212158
 30
0.0
 11
1119.807007
 21
479.724243
 31
0.0
  0
LINE
  5
43B
330
1F
100
AcDbEntity
  8
0
 62
     7
100
AcDbLine
 10
1119.807007
 20
480.299988
 30
0.0
 11
1119.807007
 21
480.212158
 31
0.0
  0
LINE
  5
43C
330
1F
100
AcDbEntity
  8
0
 62
     7
100
AcDbLine
 10
1119.807007
 20
474.629272
 30
0.0
 11
1119.807007
 21
474.599976
 31
0.0
  0
LINE
  5
43D
330
1F
100
AcDbEntity
  8
0
 62
     7
100
AcDbLine
 10
1119.807007
 20
474.770691
 30
0.0
 11
1119.807007
 21
474.629272
 31
0.0
  0
LINE
  5
43E
330
1F
100
AcDbEntity
  8
0
 62
     7
100
AcDbLine
 10
1119.807007
 20
474.770691
 30
0.0
 11
1119.807007
 21
474.900024
 31
0.0
  0
LINE
  5
43F
330
1F
100
AcDbEntity
  8
0
 62
     7
100
AcDbLine
 10
827.806885
 20
480.212158
 30
0.0
 11
827.806885
 21
480.299988
 31
0.0
  0
LINE
  5
440
330
1F
100
AcDbEntity
  8
0
 62
     7
100
AcDbLine
 10
827.806885
 20
480.212158
 30
0.0
 11
827.806885
 21
479.724243
 31
0.0
  0
LINE
  5
441
330
1F
100
AcDbEntity
  8
0
 62
     7
100
AcDbLine
 10
827.806885
 20
474.900024
 30
0.0
 11
827.806885
 21
479.724243
 31
0.0
  0
LINE
  5
442
330
1F
100
AcDbEntity
  8
0
 62
     7
100
AcDbLine
 10
827.806885
 20
474.770691
 30
0.0
 11
827.806885
 21
474.900024
 31
0.0
  0
LINE
  5
443
330
1F
100
AcDbEntity
  8
0
 62
     7
100
AcDbLine
 10
827.806885
 20
474.629272
 30
0.0
 11
827.806885
 21
474.770691
 31
0.0
  0
LINE
  5
444
330
1F
100
AcDbEntity
  8
0
 62
     7
100
AcDbLine
 10
827.806885
 20
474.629272
 30
0.0
 11
827.806885
 21
474.599976
 31
0.0
  0
ARC
  5
445
330
1F
100
AcDbEntity
  8
0
 62
     7
100
AcDbCircle
 10
826.306885
 20
474.599976
 30
0.0
 40
1.5
100
AcDbArc
 50
314.454478
 51
356.177454
  0
LINE
  5
446
330
1F
100
AcDbEntity
  8
0
 62
     7
100
AcDbLine
 10
827.803528
 20
474.5
 30
0.0
 11
827.806885
 21
474.599976
 31
0.0
  0
LINE
  5
447
330
1F
100
AcDbEntity
  8
0
 62
     7
100
AcDbLine
 10
825.456909
 20
474.099976
 30
0.0
 11
826.306885
 21
474.099976
 31
0.0
  0
ARC
  5
448
330
1F
100
AcDbEntity
  8
0
 62
     7
100
AcDbCircle
 10
826.306885
 20
474.599976
 30
0.0
 40
0.5
100
AcDbArc
 50
269.999997
 51
360.0
  0
LINE
  5
449
330
1F
100
AcDbEntity
  8
0
 62
     7
100
AcDbLine
 10
826.806885
 20
474.900024
 30
0.0
 11
826.806885
 21
479.724243
 31
0.0
  0
LINE
  5
44A
330
1F
100
AcDbEntity
  8
0
 62
     7
100
AcDbLine
 10
826.806885
 20
480.212158
 30
0.0
 11
826.806885
 21
479.724243
 31
0.0
  0
LINE
  5
44B
330
1F
100
AcDbEntity
  8
0
 62
     7
100
AcDbLine
 10
826.806885
 20
480.299988
 30
0.0
 11
826.806885
 21
480.212158
 31
0.0
  0
LINE
  5
44C
330
1F
100
AcDbEntity
  8
0
 62
     7
100
AcDbLine
 10
826.806885
 20
474.629272
 30
0.0
 11
826.806885
 21
474.599976
 31
0.0
  0
LINE
  5
44D
330
1F
100
AcDbEntity
  8
0
 62
     7
100
AcDbLine
 10
826.806885
 20
474.770691
 30
0.0
 11
826.806885
 21
474.629272
 31
0.0
  0
LINE
  5
44E
330
1F
100
AcDbEntity
  8
0
 62
     7
100
AcDbLine
 10
826.806885
 20
474.770691
 30
0.0
 11
826.806885
 21
474.900024
 31
0.0
  0
LINE
  5
44F
330
1F
100
AcDbEntity
  8
0
 62
     7
100
AcDbLine
 10
820.806885
 20
480.212158
 30
0.0
 11
820.806885
 21
480.299988
 31
0.0
  0
LINE
  5
450
330
1F
100
AcDbEntity
  8
0
 62
     7
100
AcDbLine
 10
820.806885
 20
480.212158
 30
0.0
 11
820.806885
 21
479.724243
 31
0.0
  0
LINE
  5
451
330
1F
100
AcDbEntity
  8
0
 62
     7
100
AcDbLine
 10
820.806885
 20
474.900024
 30
0.0
 11
820.806885
 21
479.724243
 31
0.0
  0
LINE
  5
452
330
1F
100
AcDbEntity
  8
0
 62
     7
100
AcDbLine
 10
820.806885
 20
474.770691
 30
0.0
 11
820.806885
 21
474.900024
 31
0.0
  0
LINE
  5
453
330
1F
100
AcDbEntity
  8
0
 62
     7
100
AcDbLine
 10
820.806885
 20
474.629272
 30
0.0
 11
820.806885
 21
474.770691
 31
0.0
  0
LINE
  5
454
330
1F
100
AcDbEntity
  8
0
 62
     7
100
AcDbLine
 10
820.806885
 20
474.629272
 30
0.0
 11
820.806885
 21
474.599976
 31
0.0
  0
ARC
  5
455
330
1F
100
AcDbEntity
  8
0
 62
     7
100
AcDbCircle
 10
821.306885
 20
474.599976
 30
0.0
 40
0.5
100
AcDbArc
 50
180.000009
 51
269.999997
  0
LINE
  5
456
330
1F
100
AcDbEntity
  8
0
 62
     7
100
AcDbLine
 10
821.306885
 20
474.099976
 30
0.0
 11
822.15686
 21
474.099976
 31
0.0
  0
ARC
  5
457
330
1F
100
AcDbEntity
  8
0
 62
     7
100
AcDbCircle
 10
821.306885
 20
474.599976
 30
0.0
 40
1.5
100
AcDbArc
 50
183.822551
 51
212.230947
  0
LINE
  5
458
330
1F
100
AcDbEntity
  8
0
 62
     7
100
AcDbLine
 10
819.810242
 20
474.5
 30
0.0
 11
819.806885
 21
474.599976
 31
0.0
  0
LINE
  5
459
330
1F
100
AcDbEntity
  8
0
 62
     7
100
AcDbLine
 10
819.806885
 20
474.900024
 30
0.0
 11
819.806885
 21
479.724243
 31
0.0
  0
LINE
  5
45A
330
1F
100
AcDbEntity
  8
0
 62
     7
100
AcDbLine
 10
819.806885
 20
480.212158
 30
0.0
 11
819.806885
 21
479.724243
 31
0.0
  0
LINE
  5
45B
330
1F
100
AcDbEntity
  8
0
 62
     7
100
AcDbLine
 10
819.806885
 20
480.299988
 30
0.0
 11
819.806885
 21
480.212158
 31
0.0
  0
LINE
  5
45C
330
1F
100
AcDbEntity
  8
0
 62
     7
100
AcDbLine
 10
819.806885
 20
474.629272
 30
0.0
 11
819.806885
 21
474.599976
 31
0.0
  0
LINE
  5
45D
330
1F
100
AcDbEntity
  8
0
 62
     7
100
AcDbLine
 10
819.806885
 20
474.770691
 30
0.0
 11
819.806885
 21
474.629272
 31
0.0
  0
LINE
  5
45E
330
1F
100
AcDbEntity
  8
0
 62
     7
100
AcDbLine
 10
819.806885
 20
474.770691
 30
0.0
 11
819.806885
 21
474.900024
 31
0.0
  0
LINE
  5
45F
330
1F
100
AcDbEntity
  8
0
 62
     7
100
AcDbLine
 10
527.806885
 20
480.212158
 30
0.0
 11
527.806885
 21
480.299988
 31
0.0
  0
LINE
  5
460
330
1F
100
AcDbEntity
  8
0
 62
     7
100
AcDbLine
 10
527.806885
 20
480.212158
 30
0.0
 11
527.806885
 21
479.724243
 31
0.0
  0
LINE
  5
461
330
1F
100
AcDbEntity
  8
0
 62
     7
100
AcDbLine
 10
527.806885
 20
474.900024
 30
0.0
 11
527.806885
 21
479.724243
 31
0.0
  0
LINE
  5
462
330
1F
100
AcDbEntity
  8
0
 62
     7
100
AcDbLine
 10
527.806885
 20
474.770691
 30
0.0
 11
527.806885
 21
474.900024
 31
0.0
  0
LINE
  5
463
330
1F
100
AcDbEntity
  8
0
 62
     7
100
AcDbLine
 10
527.806885
 20
474.629272
 30
0.0
 11
527.806885
 21
474.770691
 31
0.0
  0
LINE
  5
464
330
1F
100
AcDbEntity
  8
0
 62
     7
100
AcDbLine
 10
527.806885
 20
474.629272
 30
0.0
 11
527.806885
 21
474.599976
 31
0.0
  0
ARC
  5
465
330
1F
100
AcDbEntity
  8
0
 62
     7
100
AcDbCircle
 10
526.306885
 20
474.599976
 30
0.0
 40
1.5
100
AcDbArc
 50
314.454478
 51
356.177454
  0
LINE
  5
466
330
1F
100
AcDbEntity
  8
0
 62
     7
100
AcDbLine
 10
527.803528
 20
474.5
 30
0.0
 11
527.806885
 21
474.599976
 31
0.0
  0
LINE
  5
467
330
1F
100
AcDbEntity
  8
0
 62
     7
100
AcDbLine
 10
525.456848
 20
474.099976
 30
0.0
 11
526.306885
 21
474.099976
 31
0.0
  0
ARC
  5
468
330
1F
100
AcDbEntity
  8
0
 62
     7
100
AcDbCircle
 10
526.306885
 20
474.599976
 30
0.0
 40
0.5
100
AcDbArc
 50
269.999997
 51
360.0
  0
LINE
  5
469
330
1F
100
AcDbEntity
  8
0
 62
     7
100
AcDbLine
 10
526.806885
 20
474.900024
 30
0.0
 11
526.806885
 21
479.724243
 31
0.0
  0
LINE
  5
46A
330
1F
100
AcDbEntity
  8
0
 62
     7
100
AcDbLine
 10
526.806885
 20
480.212158
 30
0.0
 11
526.806885
 21
479.724243
 31
0.0
  0
LINE
  5
46B
330
1F
100
AcDbEntity
  8
0
 62
     7
100
AcDbLine
 10
526.806885
 20
480.299988
 30
0.0
 11
526.806885
 21
480.212158
 31
0.0
  0
LINE
  5
46C
330
1F
100
AcDbEntity
  8
0
 62
     7
100
AcDbLine
 10
526.806885
 20
474.629272
 30
0.0
 11
526.806885
 21
474.599976
 31
0.0
  0
LINE
  5
46D
330
1F
100
AcDbEntity
  8
0
 62
     7
100
AcDbLine
 10
526.806885
 20
474.770691
 30
0.0
 11
526.806885
 21
474.629272
 31
0.0
  0
LINE
  5
46E
330
1F
100
AcDbEntity
  8
0
 62
     7
100
AcDbLine
 10
526.806885
 20
474.770691
 30
0.0
 11
526.806885
 21
474.900024
 31
0.0
  0
LINE
  5
46F
330
1F
100
AcDbEntity
  8
0
 62
     7
100
AcDbLine
 10
520.806885
 20
480.212158
 30
0.0
 11
520.806885
 21
480.299988
 31
0.0
  0
LINE
  5
470
330
1F
100
AcDbEntity
  8
0
 62
     7
100
AcDbLine
 10
520.806885
 20
480.212158
 30
0.0
 11
520.806885
 21
479.724243
 31
0.0
  0
LINE
  5
471
330
1F
100
AcDbEntity
  8
0
 62
     7
100
AcDbLine
 10
520.806885
 20
474.900024
 30
0.0
 11
520.806885
 21
479.724243
 31
0.0
  0
LINE
  5
472
330
1F
100
AcDbEntity
  8
0
 62
     7
100
AcDbLine
 10
520.806885
 20
474.770691
 30
0.0
 11
520.806885
 21
474.900024
 31
0.0
  0
LINE
  5
473
330
1F
100
AcDbEntity
  8
0
 62
     7
100
AcDbLine
 10
520.806885
 20
474.629272
 30
0.0
 11
520.806885
 21
474.770691
 31
0.0
  0
LINE
  5
474
330
1F
100
AcDbEntity
  8
0
 62
     7
100
AcDbLine
 10
520.806885
 20
474.629272
 30
0.0
 11
520.806885
 21
474.599976
 31
0.0
  0
ARC
  5
475
330
1F
100
AcDbEntity
  8
0
 62
     7
100
AcDbCircle
 10
521.306885
 20
474.599976
 30
0.0
 40
0.5
100
AcDbArc
 50
180.000009
 51
269.999997
  0
LINE
  5
476
330
1F
100
AcDbEntity
  8
0
 62
     7
100
AcDbLine
 10
521.306885
 20
474.099976
 30
0.0
 11
522.15686
 21
474.099976
 31
0.0
  0
ARC
  5
477
330
1F
100
AcDbEntity
  8
0
 62
     7
100
AcDbCircle
 10
521.306885
 20
474.599976
 30
0.0
 40
1.5
100
AcDbArc
 50
183.822551
 51
212.230947
  0
LINE
  5
478
330
1F
100
AcDbEntity
  8
0
 62
     7
100
AcDbLine
 10
519.810181
 20
474.5
 30
0.0
 11
519.806885
 21
474.599976
 31
0.0
  0
LINE
  5
479
330
1F
100
AcDbEntity
  8
0
 62
     7
100
AcDbLine
 10
519.806885
 20
474.900024
 30
0.0
 11
519.806885
 21
479.724243
 31
0.0
  0
LINE
  5
47A
330
1F
100
AcDbEntity
  8
0
 62
     7
100
AcDbLine
 10
519.806885
 20
480.212158
 30
0.0
 11
519.806885
 21
479.724243
 31
0.0
  0
LINE
  5
47B
330
1F
100
AcDbEntity
  8
0
 62
     7
100
AcDbLine
 10
519.806885
 20
480.299988
 30
0.0
 11
519.806885
 21
480.212158
 31
0.0
  0
LINE
  5
47C
330
1F
100
AcDbEntity
  8
0
 62
     7
100
AcDbLine
 10
519.806885
 20
474.629272
 30
0.0
 11
519.806885
 21
474.599976
 31
0.0
  0
LINE
  5
47D
330
1F
100
AcDbEntity
  8
0
 62
     7
100
AcDbLine
 10
519.806885
 20
474.770691
 30
0.0
 11
519.806885
 21
474.629272
 31
0.0
  0
LINE
  5
47E
330
1F
100
AcDbEntity
  8
0
 62
     7
100
AcDbLine
 10
519.806885
 20
474.770691
 30
0.0
 11
519.806885
 21
474.900024
 31
0.0
  0
LINE
  5
47F
330
1F
100
AcDbEntity
  8
0
 62
     7
100
AcDbLine
 10
227.806931
 20
480.212158
 30
0.0
 11
227.806931
 21
480.299988
 31
0.0
  0
LINE
  5
480
330
1F
100
AcDbEntity
  8
0
 62
     7
100
AcDbLine
 10
227.806931
 20
480.212158
 30
0.0
 11
227.806931
 21
479.724243
 31
0.0
  0
LINE
  5
481
330
1F
100
AcDbEntity
  8
0
 62
     7
100
AcDbLine
 10
227.806931
 20
474.900024
 30
0.0
 11
227.806931
 21
479.724243
 31
0.0
  0
LINE
  5
482
330
1F
100
AcDbEntity
  8
0
 62
     7
100
AcDbLine
 10
227.806931
 20
474.770691
 30
0.0
 11
227.806931
 21
474.900024
 31
0.0
  0
LINE
  5
483
330
1F
100
AcDbEntity
  8
0
 62
     7
100
AcDbLine
 10
227.806931
 20
474.629272
 30
0.0
 11
227.806931
 21
474.770691
 31
0.0
  0
LINE
  5
484
330
1F
100
AcDbEntity
  8
0
 62
     7
100
AcDbLine
 10
227.806931
 20
474.629272
 30
0.0
 11
227.806931
 21
474.599976
 31
0.0
  0
ARC
  5
485
330
1F
100
AcDbEntity
  8
0
 62
     7
100
AcDbCircle
 10
226.306931
 20
474.599976
 30
0.0
 40
1.5
100
AcDbArc
 50
314.454478
 51
356.177454
  0
LINE
  5
486
330
1F
100
AcDbEntity
  8
0
 62
     7
100
AcDbLine
 10
227.803604
 20
474.5
 30
0.0
 11
227.806931
 21
474.599976
 31
0.0
  0
LINE
  5
487
330
1F
100
AcDbEntity
  8
0
 62
     7
100
AcDbLine
 10
225.456924
 20
474.099976
 30
0.0
 11
226.306931
 21
474.099976
 31
0.0
  0
ARC
  5
488
330
1F
100
AcDbEntity
  8
0
 62
     7
100
AcDbCircle
 10
226.306931
 20
474.599976
 30
0.0
 40
0.5
100
AcDbArc
 50
269.999997
 51
360.0
  0
LINE
  5
489
330
1F
100
AcDbEntity
  8
0
 62
     7
100
AcDbLine
 10
226.806931
 20
474.900024
 30
0.0
 11
226.806931
 21
479.724243
 31
0.0
  0
LINE
  5
48A
330
1F
100
AcDbEntity
  8
0
 62
     7
100
AcDbLine
 10
226.806931
 20
480.212158
 30
0.0
 11
226.806931
 21
479.724243
 31
0.0
  0
LINE
  5
48B
330
1F
100
AcDbEntity
  8
0
 62
     7
100
AcDbLine
 10
226.806931
 20
480.299988
 30
0.0
 11
226.806931
 21
480.212158
 31
0.0
  0
LINE
  5
48C
330
1F
100
AcDbEntity
  8
0
 62
     7
100
AcDbLine
 10
226.806931
 20
474.629272
 30
0.0
 11
226.806931
 21
474.599976
 31
0.0
  0
LINE
  5
48D
330
1F
100
AcDbEntity
  8
0
 62
     7
100
AcDbLine
 10
226.806931
 20
474.770691
 30
0.0
 11
226.806931
 21
474.629272
 31
0.0
  0
LINE
  5
48E
330
1F
100
AcDbEntity
  8
0
 62
     7
100
AcDbLine
 10
226.806931
 20
474.770691
 30
0.0
 11
226.806931
 21
474.900024
 31
0.0
  0
LINE
  5
48F
330
1F
100
AcDbEntity
  8
0
 62
     7
100
AcDbLine
 10
220.806931
 20
480.212158
 30
0.0
 11
220.806931
 21
480.299988
 31
0.0
  0
LINE
  5
490
330
1F
100
AcDbEntity
  8
0
 62
     7
100
AcDbLine
 10
220.806931
 20
480.212158
 30
0.0
 11
220.806931
 21
479.724243
 31
0.0
  0
LINE
  5
491
330
1F
100
AcDbEntity
  8
0
 62
     7
100
AcDbLine
 10
220.806931
 20
474.900024
 30
0.0
 11
220.806931
 21
479.724243
 31
0.0
  0
LINE
  5
492
330
1F
100
AcDbEntity
  8
0
 62
     7
100
AcDbLine
 10
220.806931
 20
474.770691
 30
0.0
 11
220.806931
 21
474.900024
 31
0.0
  0
LINE
  5
493
330
1F
100
AcDbEntity
  8
0
 62
     7
100
AcDbLine
 10
220.806931
 20
474.629272
 30
0.0
 11
220.806931
 21
474.770691
 31
0.0
  0
LINE
  5
494
330
1F
100
AcDbEntity
  8
0
 62
     7
100
AcDbLine
 10
220.806931
 20
474.629272
 30
0.0
 11
220.806931
 21
474.599976
 31
0.0
  0
ARC
  5
495
330
1F
100
AcDbEntity
  8
0
 62
     7
100
AcDbCircle
 10
221.306931
 20
474.599976
 30
0.0
 40
0.5
100
AcDbArc
 50
180.000009
 51
269.999997
  0
LINE
  5
496
330
1F
100
AcDbEntity
  8
0
 62
     7
100
AcDbLine
 10
221.306931
 20
474.099976
 30
0.0
 11
222.156937
 21
474.099976
 31
0.0
  0
ARC
  5
497
330
1F
100
AcDbEntity
  8
0
 62
     7
100
AcDbCircle
 10
221.306931
 20
474.599976
 30
0.0
 40
1.5
100
AcDbArc
 50
183.822551
 51
212.230947
  0
LINE
  5
498
330
1F
100
AcDbEntity
  8
0
 62
     7
100
AcDbLine
 10
219.810257
 20
474.5
 30
0.0
 11
219.806931
 21
474.599976
 31
0.0
  0
LINE
  5
499
330
1F
100
AcDbEntity
  8
0
 62
     7
100
AcDbLine
 10
219.806931
 20
474.629272
 30
0.0
 11
219.806931
 21
474.599976
 31
0.0
  0
LINE
  5
49A
330
1F
100
AcDbEntity
  8
0
 62
     7
100
AcDbLine
 10
219.806931
 20
474.770691
 30
0.0
 11
219.806931
 21
474.629272
 31
0.0
  0
LINE
  5
49B
330
1F
100
AcDbEntity
  8
0
 62
     7
100
AcDbLine
 10
219.806931
 20
474.770691
 30
0.0
 11
219.806931
 21
474.900024
 31
0.0
  0
LINE
  5
49C
330
1F
100
AcDbEntity
  8
0
 62
     7
100
AcDbLine
 10
146.806931
 20
479.846436
 30
0.0
 11
146.806931
 21
480.531128
 31
0.0
  0
LINE
  5
49D
330
1F
100
AcDbEntity
  8
0
 62
     7
100
AcDbLine
 10
146.806931
 20
479.49292
 30
0.0
 11
146.806931
 21
479.846436
 31
0.0
  0
LINE
  5
49E
330
1F
100
AcDbEntity
  8
0
 62
     7
100
AcDbLine
 10
146.806931
 20
452.400024
 30
0.0
 11
146.806931
 21
479.49292
 31
0.0
  0
LINE
  5
49F
330
1F
100
AcDbEntity
  8
0
 62
     7
100
AcDbLine
 10
146.806931
 20
451.900024
 30
0.0
 11
146.806931
 21
452.400024
 31
0.0
  0
LINE
  5
4A0
330
1F
100
AcDbEntity
  8
0
 62
     7
100
AcDbLine
 10
1200.807007
 20
483.099976
 30
0.0
 11
1200.807007
 21
480.531128
 31
0.0
  0
LINE
  5
4A1
330
1F
100
AcDbEntity
  8
0
 62
     7
100
AcDbLine
 10
146.806931
 20
483.099976
 30
0.0
 11
1200.807007
 21
483.099976
 31
0.0
  0
LINE
  5
4A2
330
1F
100
AcDbEntity
  8
0
 62
     7
100
AcDbLine
 10
146.806931
 20
483.099976
 30
0.0
 11
146.806931
 21
480.531128
 31
0.0
  0
LINE
  5
4A3
330
1F
100
AcDbEntity
  8
0
 62
     7
100
AcDbLine
 10
1200.807007
 20
453.599976
 30
0.0
 11
1200.307007
 21
453.599976
 31
0.0
  0
LINE
  5
4A4
330
1F
100
AcDbEntity
  8
0
 62
     7
100
AcDbLine
 10
1184.214111
 20
473.799988
 30
0.0
 11
1127.575806
 21
473.799988
 31
0.0
  0
LINE
  5
4A5
330
1F
100
AcDbEntity
  8
0
 62
     7
100
AcDbLine
 10
1184.625732
 20
474.5
 30
0.0
 11
1127.803589
 21
474.5
 31
0.0
  0
LINE
  5
4A6
330
1F
100
AcDbEntity
  8
0
 62
     7
100
AcDbLine
 10
1124.998779
 20
473.799988
 30
0.0
 11
1122.615234
 21
473.799988
 31
0.0
  0
LINE
  5
4A7
330
1F
100
AcDbEntity
  8
0
 62
     7
100
AcDbLine
 10
1126.796875
 20
474.5
 30
0.0
 11
1124.701416
 21
474.5
 31
0.0
  0
ARC
  5
4A8
330
1F
100
AcDbEntity
  8
0
 62
     7
100
AcDbCircle
 10
1123.807007
 20
476.400024
 30
0.0
 40
2.099999904632568
100
AcDbArc
 50
237.479124
 51
295.208757
  0
LINE
  5
4A9
330
1F
100
AcDbEntity
  8
0
 62
     7
100
AcDbLine
 10
1122.912598
 20
474.5
 30
0.0
 11
1120.817139
 21
474.5
 31
0.0
  0
LINE
  5
4AA
330
1F
100
AcDbEntity
  8
0
 62
     7
100
AcDbLine
 10
824.998657
 20
473.799988
 30
0.0
 11
822.615112
 21
473.799988
 31
0.0
  0
LINE
  5
4AB
330
1F
100
AcDbEntity
  8
0
 62
     7
100
AcDbLine
 10
826.796753
 20
474.5
 30
0.0
 11
824.701294
 21
474.5
 31
0.0
  0
ARC
  5
4AC
330
1F
100
AcDbEntity
  8
0
 62
     7
100
AcDbCircle
 10
823.806885
 20
476.400024
 30
0.0
 40
2.099999904632568
100
AcDbArc
 50
237.479124
 51
295.208757
  0
LINE
  5
4AD
330
1F
100
AcDbEntity
  8
0
 62
     7
100
AcDbLine
 10
822.912476
 20
474.5
 30
0.0
 11
820.817017
 21
474.5
 31
0.0
  0
LINE
  5
4AE
330
1F
100
AcDbEntity
  8
0
 62
     7
100
AcDbLine
 10
524.998596
 20
473.799988
 30
0.0
 11
522.615112
 21
473.799988
 31
0.0
  0
LINE
  5
4AF
330
1F
100
AcDbEntity
  8
0
 62
     7
100
AcDbLine
 10
526.796753
 20
474.5
 30
0.0
 11
524.701294
 21
474.5
 31
0.0
  0
ARC
  5
4B0
330
1F
100
AcDbEntity
  8
0
 62
     7
100
AcDbCircle
 10
523.806885
 20
476.400024
 30
0.0
 40
2.099999904632568
100
AcDbArc
 50
237.479124
 51
295.208757
  0
LINE
  5
4B1
330
1F
100
AcDbEntity
  8
0
 62
     7
100
AcDbLine
 10
522.912415
 20
474.5
 30
0.0
 11
520.816956
 21
474.5
 31
0.0
  0
LINE
  5
4B2
330
1F
100
AcDbEntity
  8
0
 62
     7
100
AcDbLine
 10
224.998672
 20
473.799988
 30
0.0
 11
222.615189
 21
473.799988
 31
0.0
  0
LINE
  5
4B3
330
1F
100
AcDbEntity
  8
0
 62
     7
100
AcDbLine
 10
226.796829
 20
474.5
 30
0.0
 11
224.70134
 21
474.5
 31
0.0
  0
ARC
  5
4B4
330
1F
100
AcDbEntity
  8
0
 62
     7
100
AcDbCircle
 10
223.806931
 20
476.400024
 30
0.0
 40
2.099999904632568
100
AcDbArc
 50
237.479124
 51
295.208757
  0
LINE
  5
4B5
330
1F
100
AcDbEntity
  8
0
 62
     7
100
AcDbLine
 10
222.912491
 20
474.5
 30
0.0
 11
220.817032
 21
474.5
 31
0.0
  0
LINE
  5
4B6
330
1F
100
AcDbEntity
  8
0
 62
     7
100
AcDbLine
 10
219.810257
 20
474.5
 30
0.0
 11
162.988235
 21
474.5
 31
0.0
  0
LINE
  5
4B7
330
1F
100
AcDbEntity
  8
0
 62
     7
100
AcDbLine
 10
220.038071
 20
473.799988
 30
0.0
 11
163.399887
 21
473.799988
 31
0.0
  0
LINE
  5
4B8
330
1F
100
AcDbEntity
  8
0
 62
     7
100
AcDbLine
 10
146.806931
 20
453.599976
 30
0.0
 11
147.306931
 21
453.599976
 31
0.0
  0
LINE
  5
4B9
330
1F
100
AcDbEntity
  8
0
 62
     7
100
AcDbLine
 10
1121.494507
 20
453.430359
 30
0.0
 11
1122.794434
 21
456.930359
 31
0.0
  0
ARC
  5
4BA
330
1F
100
AcDbEntity
  8
0
 62
     7
100
AcDbCircle
 10
1121.307007
 20
453.5
 30
0.0
 40
0.2000000029802322
100
AcDbArc
 50
200.37643
 51
339.623562
  0
LINE
  5
4BB
330
1F
100
AcDbEntity
  8
0
 62
     7
100
AcDbLine
 10
1119.819458
 20
456.930359
 30
0.0
 11
1121.119507
 21
453.430359
 31
0.0
  0
ARC
  5
4BC
330
1F
100
AcDbEntity
  8
0
 62
     7
100
AcDbCircle
 10
1120.006958
 20
457.0
 30
0.0
 40
0.2000000029802322
100
AcDbArc
 50
90.000003
 51
200.37643
  0
LINE
  5
4BD
330
1F
100
AcDbEntity
  8
0
 62
     7
100
AcDbLine
 10
1122.606934
 20
457.200012
 30
0.0
 11
1120.006958
 21
457.200012
 31
0.0
  0
ARC
  5
4BE
330
1F
100
AcDbEntity
  8
0
 62
     7
100
AcDbCircle
 10
1122.606934
 20
457.0
 30
0.0
 40
0.2000000029802322
100
AcDbArc
 50
339.623562
 51
90.000003
  0
LINE
  5
4BF
330
1F
100
AcDbEntity
  8
0
 62
     7
100
AcDbLine
 10
201.4944
 20
453.430359
 30
0.0
 11
202.794418
 21
456.930359
 31
0.0
  0
ARC
  5
4C0
330
1F
100
AcDbEntity
  8
0
 62
     7
100
AcDbCircle
 10
201.306931
 20
453.5
 30
0.0
 40
0.2000000029802322
100
AcDbArc
 50
200.37643
 51
339.623562
  0
LINE
  5
4C1
330
1F
100
AcDbEntity
  8
0
 62
     7
100
AcDbLine
 10
199.819443
 20
456.930359
 30
0.0
 11
201.119431
 21
453.430359
 31
0.0
  0
ARC
  5
4C2
330
1F
100
AcDbEntity
  8
0
 62
     7
100
AcDbCircle
 10
200.006912
 20
457.0
 30
0.0
 40
0.2000000029802322
100
AcDbArc
 50
90.000003
 51
200.37643
  0
LINE
  5
4C3
330
1F
100
AcDbEntity
  8
0
 62
     7
100
AcDbLine
 10
202.606918
 20
457.200012
 30
0.0
 11
200.006912
 21
457.200012
 31
0.0
  0
ARC
  5
4C4
330
1F
100
AcDbEntity
  8
0
 62
     7
100
AcDbCircle
 10
202.606918
 20
457.0
 30
0.0
 40
0.2000000029802322
100
AcDbArc
 50
339.623562
 51
90.000003
  0
LINE
  5
4C5
330
1F
100
AcDbEntity
  8
0
 62
     7
100
AcDbLine
 10
1201.807007
 20
451.900024
 30
0.0
 11
1200.807007
 21
451.900024
 31
0.0
  0
LINE
  5
4C6
330
1F
100
AcDbEntity
  8
0
 62
     7
100
AcDbLine
 10
1200.307007
 20
452.099976
 30
0.0
 11
1200.807007
 21
452.099976
 31
0.0
  0
LINE
  5
4C7
330
1F
100
AcDbEntity
  8
0
 62
     7
100
AcDbLine
 10
1124.701416
 20
474.5
 30
0.0
 11
1124.813721
 21
474.557068
 31
0.0
  0
ARC
  5
4C8
330
1F
100
AcDbEntity
  8
0
 62
     7
100
AcDbCircle
 10
1123.807007
 20
476.400024
 30
0.0
 40
2.099999904632568
100
AcDbArc
 50
298.647887
 51
314.415304
  0
ARC
  5
4C9
330
1F
100
AcDbEntity
  8
0
 62
     7
100
AcDbCircle
 10
1123.807007
 20
476.400024
 30
0.0
 40
2.099999904632568
100
AcDbArc
 50
314.415304
 51
237.479124
  0
LINE
  5
4CA
330
1F
100
AcDbEntity
  8
0
 62
     7
100
AcDbLine
 10
1126.807007
 20
474.900024
 30
0.0
 11
1125.276611
 21
474.900024
 31
0.0
  0
LINE
  5
4CB
330
1F
100
AcDbEntity
  8
0
 62
     7
100
AcDbLine
 10
1126.807007
 20
479.724243
 30
0.0
 11
1120.807007
 21
479.724243
 31
0.0
  0
LINE
  5
4CC
330
1F
100
AcDbEntity
  8
0
 62
     7
100
AcDbLine
 10
1122.33728
 20
474.900024
 30
0.0
 11
1120.807007
 21
474.900024
 31
0.0
  0
LINE
  5
4CD
330
1F
100
AcDbEntity
  8
0
 62
     7
100
AcDbLine
 10
1120.038086
 20
473.799988
 30
0.0
 11
827.575745
 21
473.799988
 31
0.0
  0
LINE
  5
4CE
330
1F
100
AcDbEntity
  8
0
 62
     7
100
AcDbLine
 10
1119.810303
 20
474.5
 30
0.0
 11
827.803528
 21
474.5
 31
0.0
  0
LINE
  5
4CF
330
1F
100
AcDbEntity
  8
0
 62
     7
100
AcDbLine
 10
1119.807007
 20
474.900024
 30
0.0
 11
827.806885
 21
474.900024
 31
0.0
  0
LINE
  5
4D0
330
1F
100
AcDbEntity
  8
0
 62
     7
100
AcDbLine
 10
1119.807007
 20
479.724243
 30
0.0
 11
827.806885
 21
479.724243
 31
0.0
  0
LINE
  5
4D1
330
1F
100
AcDbEntity
  8
0
 62
     7
100
AcDbLine
 10
824.701294
 20
474.5
 30
0.0
 11
824.81366
 21
474.557068
 31
0.0
  0
ARC
  5
4D2
330
1F
100
AcDbEntity
  8
0
 62
     7
100
AcDbCircle
 10
823.806885
 20
476.400024
 30
0.0
 40
2.099999904632568
100
AcDbArc
 50
298.647887
 51
314.415304
  0
LINE
  5
4D3
330
1F
100
AcDbEntity
  8
0
 62
     7
100
AcDbLine
 10
826.806885
 20
474.900024
 30
0.0
 11
825.27655
 21
474.900024
 31
0.0
  0
LINE
  5
4D4
330
1F
100
AcDbEntity
  8
0
 62
     7
100
AcDbLine
 10
826.806885
 20
479.724243
 30
0.0
 11
820.806885
 21
479.724243
 31
0.0
  0
LINE
  5
4D5
330
1F
100
AcDbEntity
  8
0
 62
     7
100
AcDbLine
 10
822.337219
 20
474.900024
 30
0.0
 11
820.806885
 21
474.900024
 31
0.0
  0
ARC
  5
4D6
330
1F
100
AcDbEntity
  8
0
 62
     7
100
AcDbCircle
 10
823.806885
 20
476.400024
 30
0.0
 40
2.099999904632568
100
AcDbArc
 50
314.415304
 51
237.479124
  0
LINE
  5
4D7
330
1F
100
AcDbEntity
  8
0
 62
     7
100
AcDbLine
 10
820.038025
 20
473.799988
 30
0.0
 11
527.575745
 21
473.799988
 31
0.0
  0
LINE
  5
4D8
330
1F
100
AcDbEntity
  8
0
 62
     7
100
AcDbLine
 10
819.810242
 20
474.5
 30
0.0
 11
527.803528
 21
474.5
 31
0.0
  0
LINE
  5
4D9
330
1F
100
AcDbEntity
  8
0
 62
     7
100
AcDbLine
 10
819.806885
 20
474.900024
 30
0.0
 11
527.806885
 21
474.900024
 31
0.0
  0
LINE
  5
4DA
330
1F
100
AcDbEntity
  8
0
 62
     7
100
AcDbLine
 10
819.806885
 20
479.724243
 30
0.0
 11
527.806885
 21
479.724243
 31
0.0
  0
LINE
  5
4DB
330
1F
100
AcDbEntity
  8
0
 62
     7
100
AcDbLine
 10
524.701294
 20
474.5
 30
0.0
 11
524.81366
 21
474.557068
 31
0.0
  0
ARC
  5
4DC
330
1F
100
AcDbEntity
  8
0
 62
     7
100
AcDbCircle
 10
523.806885
 20
476.400024
 30
0.0
 40
2.099999904632568
100
AcDbArc
 50
298.647887
 51
314.415304
  0
ARC
  5
4DD
330
1F
100
AcDbEntity
  8
0
 62
     7
100
AcDbCircle
 10
523.806885
 20
476.400024
 30
0.0
 40
2.099999904632568
100
AcDbArc
 50
314.415304
 51
237.479124
  0
LINE
  5
4DE
330
1F
100
AcDbEntity
  8
0
 62
     7
100
AcDbLine
 10
526.806885
 20
474.900024
 30
0.0
 11
525.27655
 21
474.900024
 31
0.0
  0
LINE
  5
4DF
330
1F
100
AcDbEntity
  8
0
 62
     7
100
AcDbLine
 10
526.806885
 20
479.724243
 30
0.0
 11
520.806885
 21
479.724243
 31
0.0
  0
LINE
  5
4E0
330
1F
100
AcDbEntity
  8
0
 62
     7
100
AcDbLine
 10
522.337158
 20
474.900024
 30
0.0
 11
520.806885
 21
474.900024
 31
0.0
  0
LINE
  5
4E1
330
1F
100
AcDbEntity
  8
0
 62
     7
100
AcDbLine
 10
519.810181
 20
474.5
 30
0.0
 11
227.803604
 21
474.5
 31
0.0
  0
LINE
  5
4E2
330
1F
100
AcDbEntity
  8
0
 62
     7
100
AcDbLine
 10
520.038025
 20
473.799988
 30
0.0
 11
227.57579
 21
473.799988
 31
0.0
  0
LINE
  5
4E3
330
1F
100
AcDbEntity
  8
0
 62
     7
100
AcDbLine
 10
519.806885
 20
474.900024
 30
0.0
 11
227.806931
 21
474.900024
 31
0.0
  0
LINE
  5
4E4
330
1F
100
AcDbEntity
  8
0
 62
     7
100
AcDbLine
 10
519.806885
 20
479.724243
 30
0.0
 11
227.806931
 21
479.724243
 31
0.0
  0
LINE
  5
4E5
330
1F
100
AcDbEntity
  8
0
 62
     7
100
AcDbLine
 10
224.70134
 20
474.5
 30
0.0
 11
224.813705
 21
474.557068
 31
0.0
  0
ARC
  5
4E6
330
1F
100
AcDbEntity
  8
0
 62
     7
100
AcDbCircle
 10
223.806931
 20
476.400024
 30
0.0
 40
2.099999904632568
100
AcDbArc
 50
298.647887
 51
314.415304
  0
LINE
  5
4E7
330
1F
100
AcDbEntity
  8
0
 62
     7
100
AcDbLine
 10
222.337234
 20
474.900024
 30
0.0
 11
220.806931
 21
474.900024
 31
0.0
  0
ARC
  5
4E8
330
1F
100
AcDbEntity
  8
0
 62
     7
100
AcDbCircle
 10
223.806931
 20
476.400024
 30
0.0
 40
2.099999904632568
100
AcDbArc
 50
314.415304
 51
237.479124
  0
LINE
  5
4E9
330
1F
100
AcDbEntity
  8
0
 62
     7
100
AcDbLine
 10
226.806931
 20
474.900024
 30
0.0
 11
225.276627
 21
474.900024
 31
0.0
  0
LINE
  5
4EA
330
1F
100
AcDbEntity
  8
0
 62
     7
100
AcDbLine
 10
226.806931
 20
479.724243
 30
0.0
 11
220.806931
 21
479.724243
 31
0.0
  0
LINE
  5
4EB
330
1F
100
AcDbEntity
  8
0
 62
     7
100
AcDbLine
 10
145.806931
 20
451.900024
 30
0.0
 11
146.806931
 21
451.900024
 31
0.0
  0
LINE
  5
4EC
330
1F
100
AcDbEntity
  8
0
 62
     7
100
AcDbLine
 10
146.806931
 20
452.099976
 30
0.0
 11
147.306931
 21
452.099976
 31
0.0
  0
CIRCLE
  5
4ED
330
1F
100
AcDbEntity
  8
0
 62
     7
100
AcDbCircle
 10
1191.307007
 20
470.099976
 30
0.0
 40
4.5
  0
CIRCLE
  5
4EE
330
1F
100
AcDbEntity
  8
0
 62
     7
100
AcDbCircle
 10
156.306931
 20
470.099976
 30
0.0
 40
4.5
  0
ARC
  5
4EF
330
1F
100
AcDbEntity
  8
0
 62
     7
100
AcDbCircle
 10
1201.807007
 20
452.900024
 30
0.0
 40
1.0
100
AcDbArc
 50
269.999997
 51
360.0
  0
LINE
  5
4F0
330
1F
100
AcDbEntity
  8
0
 62
     7
100
AcDbLine
 10
1202.807007
 20
479.285767
 30
0.0
 11
1202.807007
 21
452.900024
 31
0.0
  0
LINE
  5
4F1
330
1F
100
AcDbEntity
  8
0
 62
     7
100
AcDbLine
 10
1202.807007
 20
479.981384
 30
0.0
 11
1202.807007
 21
479.285767
 31
0.0
  0
LINE
  5
4F2
330
1F
100
AcDbEntity
  8
0
 62
     7
100
AcDbLine
 10
144.806931
 20
479.285767
 30
0.0
 11
144.806931
 21
479.981384
 31
0.0
  0
LINE
  5
4F3
330
1F
100
AcDbEntity
  8
0
 62
     7
100
AcDbLine
 10
144.806931
 20
452.900024
 30
0.0
 11
144.806931
 21
479.285767
 31
0.0
  0
ARC
  5
4F4
330
1F
100
AcDbEntity
  8
0
 62
     7
100
AcDbCircle
 10
145.806931
 20
452.900024
 30
0.0
 40
1.0
100
AcDbArc
 50
180.000009
 51
269.999997
  0
LINE
  5
4F5
330
1F
100
AcDbEntity
  8
0
 62
     7
100
AcDbLine
 10
1201.807007
 20
482.900024
 30
0.0
 11
1200.807007
 21
482.900024
 31
0.0
  0
LINE
  5
4F6
330
1F
100
AcDbEntity
  8
0
 62
     7
100
AcDbLine
 10
145.806931
 20
482.900024
 30
0.0
 11
146.806931
 21
482.900024
 31
0.0
  0
LINE
  5
4F7
330
1F
100
AcDbEntity
  8
0
 62
     7
100
AcDbLine
 10
1202.807007
 20
480.555908
 30
0.0
 11
1202.807007
 21
479.981384
 31
0.0
  0
LINE
  5
4F8
330
1F
100
AcDbEntity
  8
0
 62
     7
100
AcDbLine
 10
1202.807007
 20
481.900024
 30
0.0
 11
1202.807007
 21
480.555908
 31
0.0
  0
LINE
  5
4F9
330
1F
100
AcDbEntity
  8
0
 62
     7
100
AcDbLine
 10
144.806931
 20
479.981384
 30
0.0
 11
144.806931
 21
480.555908
 31
0.0
  0
LINE
  5
4FA
330
1F
100
AcDbEntity
  8
0
 62
     7
100
AcDbLine
 10
144.806931
 20
480.555908
 30
0.0
 11
144.806931
 21
481.900024
 31
0.0
  0
ARC
  5
4FB
330
1F
100
AcDbEntity
  8
0
 62
     7
100
AcDbCircle
 10
1191.307007
 20
470.799988
 30
0.0
 40
12.80000019073486
100
AcDbArc
 50
73.932611
 51
106.067387
  0
LINE
  5
4FC
330
1F
100
AcDbEntity
  8
0
 62
     7
100
AcDbLine
 10
664.306885
 20
483.099976
 30
0.0
 11
664.306885
 21
488.739868
 31
0.0
  0
ARC
  5
4FD
330
1F
100
AcDbEntity
  8
0
 62
     7
100
AcDbCircle
 10
673.806885
 20
470.799988
 30
0.0
 40
20.29999923706055
100
AcDbArc
 50
62.096726
 51
117.903272
  0
LINE
  5
4FE
330
1F
100
AcDbEntity
  8
0
 62
     7
100
AcDbLine
 10
683.306885
 20
488.739868
 30
0.0
 11
683.306885
 21
483.099976
 31
0.0
  0
CIRCLE
  5
4FF
330
1F
100
AcDbEntity
  8
0
 62
     7
100
AcDbCircle
 10
673.806885
 20
487.099976
 30
0.0
 40
2.5
  0
ARC
  5
500
330
1F
100
AcDbEntity
  8
0
 62
     7
100
AcDbCircle
 10
156.306931
 20
470.799988
 30
0.0
 40
12.80000019073486
100
AcDbArc
 50
73.932611
 51
106.067387
  0
ARC
  5
501
330
1F
100
AcDbEntity
  8
0
 62
     7
100
AcDbCircle
 10
1201.807007
 20
481.900024
 30
0.0
 40
1.0
100
AcDbArc
 50
0.0
 51
90.000003
  0
ARC
  5
502
330
1F
100
AcDbEntity
  8
0
 62
     7
100
AcDbCircle
 10
145.806931
 20
481.900024
 30
0.0
 40
1.0
100
AcDbArc
 50
90.000003
 51
180.000009
  0
CIRCLE
  5
503
330
1F
100
AcDbEntity
  8
0
 62
     7
100
AcDbCircle
 10
1123.807007
 20
476.400024
 30
0.0
 40
2.0
  0
CIRCLE
  5
504
330
1F
100
AcDbEntity
  8
0
 62
     7
100
AcDbCircle
 10
823.806885
 20
476.400024
 30
0.0
 40
2.0
  0
CIRCLE
  5
505
330
1F
100
AcDbEntity
  8
0
 62
     7
100
AcDbCircle
 10
523.806885
 20
476.400024
 30
0.0
 40
2.0
  0
CIRCLE
  5
506
330
1F
100
AcDbEntity
  8
0
 62
     7
100
AcDbCircle
 10
223.806931
 20
476.400024
 30
0.0
 40
2.0
  0
LINE
  5
507
330
1F
100
AcDbEntity
  8
0
 62
     7
100
AcDbLine
 10
1124.006958
 20
477.099976
 30
0.0
 11
1124.006958
 21
477.599976
 31
0.0
  0
LINE
  5
508
330
1F
100
AcDbEntity
  8
0
 62
     7
100
AcDbLine
 10
1124.006958
 20
477.599976
 30
0.0
 11
1123.606934
 21
477.599976
 31
0.0
  0
LINE
  5
509
330
1F
100
AcDbEntity
  8
0
 62
     7
100
AcDbLine
 10
1123.606934
 20
477.599976
 30
0.0
 11
1123.606934
 21
477.099976
 31
0.0
  0
ARC
  5
50A
330
1F
100
AcDbEntity
  8
0
 62
     7
100
AcDbCircle
 10
1123.106934
 20
477.099976
 30
0.0
 40
0.5
100
AcDbArc
 50
269.999997
 51
360.0
  0
LINE
  5
50B
330
1F
100
AcDbEntity
  8
0
 62
     7
100
AcDbLine
 10
1123.106934
 20
476.599976
 30
0.0
 11
1122.606934
 21
476.599976
 31
0.0
  0
LINE
  5
50C
330
1F
100
AcDbEntity
  8
0
 62
     7
100
AcDbLine
 10
1122.606934
 20
476.599976
 30
0.0
 11
1122.606934
 21
476.200012
 31
0.0
  0
LINE
  5
50D
330
1F
100
AcDbEntity
  8
0
 62
     7
100
AcDbLine
 10
1122.606934
 20
476.200012
 30
0.0
 11
1123.106934
 21
476.200012
 31
0.0
  0
ARC
  5
50E
330
1F
100
AcDbEntity
  8
0
 62
     7
100
AcDbCircle
 10
1123.106934
 20
475.700012
 30
0.0
 40
0.5
100
AcDbArc
 50
0.0
 51
90.000003
  0
LINE
  5
50F
330
1F
100
AcDbEntity
  8
0
 62
     7
100
AcDbLine
 10
1123.606934
 20
475.700012
 30
0.0
 11
1123.606934
 21
475.200012
 31
0.0
  0
LINE
  5
510
330
1F
100
AcDbEntity
  8
0
 62
     7
100
AcDbLine
 10
1123.606934
 20
475.200012
 30
0.0
 11
1124.006958
 21
475.200012
 31
0.0
  0
LINE
  5
511
330
1F
100
AcDbEntity
  8
0
 62
     7
100
AcDbLine
 10
1124.006958
 20
475.200012
 30
0.0
 11
1124.006958
 21
475.700012
 31
0.0
  0
ARC
  5
512
330
1F
100
AcDbEntity
  8
0
 62
     7
100
AcDbCircle
 10
1124.506958
 20
475.700012
 30
0.0
 40
0.5
100
AcDbArc
 50
90.000003
 51
180.000009
  0
LINE
  5
513
330
1F
100
AcDbEntity
  8
0
 62
     7
100
AcDbLine
 10
1124.506958
 20
476.200012
 30
0.0
 11
1125.006958
 21
476.200012
 31
0.0
  0
LINE
  5
514
330
1F
100
AcDbEntity
  8
0
 62
     7
100
AcDbLine
 10
1125.006958
 20
476.200012
 30
0.0
 11
1125.006958
 21
476.599976
 31
0.0
  0
LINE
  5
515
330
1F
100
AcDbEntity
  8
0
 62
     7
100
AcDbLine
 10
1125.006958
 20
476.599976
 30
0.0
 11
1124.506958
 21
476.599976
 31
0.0
  0
ARC
  5
516
330
1F
100
AcDbEntity
  8
0
 62
     7
100
AcDbCircle
 10
1124.506958
 20
477.099976
 30
0.0
 40
0.5
100
AcDbArc
 50
180.000009
 51
269.999997
  0
LINE
  5
517
330
1F
100
AcDbEntity
  8
0
 62
     7
100
AcDbLine
 10
824.006897
 20
477.099976
 30
0.0
 11
824.006897
 21
477.599976
 31
0.0
  0
LINE
  5
518
330
1F
100
AcDbEntity
  8
0
 62
     7
100
AcDbLine
 10
824.006897
 20
477.599976
 30
0.0
 11
823.606873
 21
477.599976
 31
0.0
  0
LINE
  5
519
330
1F
100
AcDbEntity
  8
0
 62
     7
100
AcDbLine
 10
823.606873
 20
477.599976
 30
0.0
 11
823.606873
 21
477.099976
 31
0.0
  0
ARC
  5
51A
330
1F
100
AcDbEntity
  8
0
 62
     7
100
AcDbCircle
 10
823.106873
 20
477.099976
 30
0.0
 40
0.5
100
AcDbArc
 50
269.999997
 51
360.0
  0
LINE
  5
51B
330
1F
100
AcDbEntity
  8
0
 62
     7
100
AcDbLine
 10
823.106873
 20
476.599976
 30
0.0
 11
822.606873
 21
476.599976
 31
0.0
  0
LINE
  5
51C
330
1F
100
AcDbEntity
  8
0
 62
     7
100
AcDbLine
 10
822.606873
 20
476.599976
 30
0.0
 11
822.606873
 21
476.200012
 31
0.0
  0
LINE
  5
51D
330
1F
100
AcDbEntity
  8
0
 62
     7
100
AcDbLine
 10
822.606873
 20
476.200012
 30
0.0
 11
823.106873
 21
476.200012
 31
0.0
  0
ARC
  5
51E
330
1F
100
AcDbEntity
  8
0
 62
     7
100
AcDbCircle
 10
823.106873
 20
475.700012
 30
0.0
 40
0.5
100
AcDbArc
 50
0.0
 51
90.000003
  0
LINE
  5
51F
330
1F
100
AcDbEntity
  8
0
 62
     7
100
AcDbLine
 10
823.606873
 20
475.700012
 30
0.0
 11
823.606873
 21
475.200012
 31
0.0
  0
LINE
  5
520
330
1F
100
AcDbEntity
  8
0
 62
     7
100
AcDbLine
 10
823.606873
 20
475.200012
 30
0.0
 11
824.006897
 21
475.200012
 31
0.0
  0
LINE
  5
521
330
1F
100
AcDbEntity
  8
0
 62
     7
100
AcDbLine
 10
824.006897
 20
475.200012
 30
0.0
 11
824.006897
 21
475.700012
 31
0.0
  0
ARC
  5
522
330
1F
100
AcDbEntity
  8
0
 62
     7
100
AcDbCircle
 10
824.506897
 20
475.700012
 30
0.0
 40
0.5
100
AcDbArc
 50
90.000003
 51
180.000009
  0
LINE
  5
523
330
1F
100
AcDbEntity
  8
0
 62
     7
100
AcDbLine
 10
824.506897
 20
476.200012
 30
0.0
 11
825.006897
 21
476.200012
 31
0.0
  0
LINE
  5
524
330
1F
100
AcDbEntity
  8
0
 62
     7
100
AcDbLine
 10
825.006897
 20
476.200012
 30
0.0
 11
825.006897
 21
476.599976
 31
0.0
  0
LINE
  5
525
330
1F
100
AcDbEntity
  8
0
 62
     7
100
AcDbLine
 10
825.006897
 20
476.599976
 30
0.0
 11
824.506897
 21
476.599976
 31
0.0
  0
ARC
  5
526
330
1F
100
AcDbEntity
  8
0
 62
     7
100
AcDbCircle
 10
824.506897
 20
477.099976
 30
0.0
 40
0.5
100
AcDbArc
 50
180.000009
 51
269.999997
  0
LINE
  5
527
330
1F
100
AcDbEntity
  8
0
 62
     7
100
AcDbLine
 10
524.006897
 20
477.099976
 30
0.0
 11
524.006897
 21
477.599976
 31
0.0
  0
LINE
  5
528
330
1F
100
AcDbEntity
  8
0
 62
     7
100
AcDbLine
 10
524.006897
 20
477.599976
 30
0.0
 11
523.606873
 21
477.599976
 31
0.0
  0
LINE
  5
529
330
1F
100
AcDbEntity
  8
0
 62
     7
100
AcDbLine
 10
523.606873
 20
477.599976
 30
0.0
 11
523.606873
 21
477.099976
 31
0.0
  0
ARC
  5
52A
330
1F
100
AcDbEntity
  8
0
 62
     7
100
AcDbCircle
 10
523.106873
 20
477.099976
 30
0.0
 40
0.5
100
AcDbArc
 50
269.999997
 51
360.0
  0
LINE
  5
52B
330
1F
100
AcDbEntity
  8
0
 62
     7
100
AcDbLine
 10
523.106873
 20
476.599976
 30
0.0
 11
522.606873
 21
476.599976
 31
0.0
  0
LINE
  5
52C
330
1F
100
AcDbEntity
  8
0
 62
     7
100
AcDbLine
 10
522.606873
 20
476.599976
 30
0.0
 11
522.606873
 21
476.200012
 31
0.0
  0
LINE
  5
52D
330
1F
100
AcDbEntity
  8
0
 62
     7
100
AcDbLine
 10
522.606873
 20
476.200012
 30
0.0
 11
523.106873
 21
476.200012
 31
0.0
  0
ARC
  5
52E
330
1F
100
AcDbEntity
  8
0
 62
     7
100
AcDbCircle
 10
523.106873
 20
475.700012
 30
0.0
 40
0.5
100
AcDbArc
 50
0.0
 51
90.000003
  0
LINE
  5
52F
330
1F
100
AcDbEntity
  8
0
 62
     7
100
AcDbLine
 10
523.606873
 20
475.700012
 30
0.0
 11
523.606873
 21
475.200012
 31
0.0
  0
LINE
  5
530
330
1F
100
AcDbEntity
  8
0
 62
     7
100
AcDbLine
 10
523.606873
 20
475.200012
 30
0.0
 11
524.006897
 21
475.200012
 31
0.0
  0
LINE
  5
531
330
1F
100
AcDbEntity
  8
0
 62
     7
100
AcDbLine
 10
524.006897
 20
475.200012
 30
0.0
 11
524.006897
 21
475.700012
 31
0.0
  0
ARC
  5
532
330
1F
100
AcDbEntity
  8
0
 62
     7
100
AcDbCircle
 10
524.506897
 20
475.700012
 30
0.0
 40
0.5
100
AcDbArc
 50
90.000003
 51
180.000009
  0
LINE
  5
533
330
1F
100
AcDbEntity
  8
0
 62
     7
100
AcDbLine
 10
524.506897
 20
476.200012
 30
0.0
 11
525.006897
 21
476.200012
 31
0.0
  0
LINE
  5
534
330
1F
100
AcDbEntity
  8
0
 62
     7
100
AcDbLine
 10
525.006897
 20
476.200012
 30
0.0
 11
525.006897
 21
476.599976
 31
0.0
  0
LINE
  5
535
330
1F
100
AcDbEntity
  8
0
 62
     7
100
AcDbLine
 10
525.006897
 20
476.599976
 30
0.0
 11
524.506897
 21
476.599976
 31
0.0
  0
ARC
  5
536
330
1F
100
AcDbEntity
  8
0
 62
     7
100
AcDbCircle
 10
524.506897
 20
477.099976
 30
0.0
 40
0.5
100
AcDbArc
 50
180.000009
 51
269.999997
  0
LINE
  5
537
330
1F
100
AcDbEntity
  8
0
 62
     7
100
AcDbLine
 10
224.006912
 20
477.099976
 30
0.0
 11
224.006912
 21
477.599976
 31
0.0
  0
LINE
  5
538
330
1F
100
AcDbEntity
  8
0
 62
     7
100
AcDbLine
 10
224.006912
 20
477.599976
 30
0.0
 11
223.606918
 21
477.599976
 31
0.0
  0
LINE
  5
539
330
1F
100
AcDbEntity
  8
0
 62
     7
100
AcDbLine
 10
223.606918
 20
477.599976
 30
0.0
 11
223.606918
 21
477.099976
 31
0.0
  0
ARC
  5
53A
330
1F
100
AcDbEntity
  8
0
 62
     7
100
AcDbCircle
 10
223.106918
 20
477.099976
 30
0.0
 40
0.5
100
AcDbArc
 50
269.999997
 51
360.0
  0
LINE
  5
53B
330
1F
100
AcDbEntity
  8
0
 62
     7
100
AcDbLine
 10
223.106918
 20
476.599976
 30
0.0
 11
222.606918
 21
476.599976
 31
0.0
  0
LINE
  5
53C
330
1F
100
AcDbEntity
  8
0
 62
     7
100
AcDbLine
 10
222.606918
 20
476.599976
 30
0.0
 11
222.606918
 21
476.200012
 31
0.0
  0
LINE
  5
53D
330
1F
100
AcDbEntity
  8
0
 62
     7
100
AcDbLine
 10
222.606918
 20
476.200012
 30
0.0
 11
223.106918
 21
476.200012
 31
0.0
  0
ARC
  5
53E
330
1F
100
AcDbEntity
  8
0
 62
     7
100
AcDbCircle
 10
223.106918
 20
475.700012
 30
0.0
 40
0.5
100
AcDbArc
 50
0.0
 51
90.000003
  0
LINE
  5
53F
330
1F
100
AcDbEntity
  8
0
 62
     7
100
AcDbLine
 10
223.606918
 20
475.700012
 30
0.0
 11
223.606918
 21
475.200012
 31
0.0
  0
LINE
  5
540
330
1F
100
AcDbEntity
  8
0
 62
     7
100
AcDbLine
 10
223.606918
 20
475.200012
 30
0.0
 11
224.006912
 21
475.200012
 31
0.0
  0
LINE
  5
541
330
1F
100
AcDbEntity
  8
0
 62
     7
100
AcDbLine
 10
224.006912
 20
475.200012
 30
0.0
 11
224.006912
 21
475.700012
 31
0.0
  0
ARC
  5
542
330
1F
100
AcDbEntity
  8
0
 62
     7
100
AcDbCircle
 10
224.506912
 20
475.700012
 30
0.0
 40
0.5
100
AcDbArc
 50
90.000003
 51
180.000009
  0
LINE
  5
543
330
1F
100
AcDbEntity
  8
0
 62
     7
100
AcDbLine
 10
224.506912
 20
476.200012
 30
0.0
 11
225.006912
 21
476.200012
 31
0.0
  0
LINE
  5
544
330
1F
100
AcDbEntity
  8
0
 62
     7
100
AcDbLine
 10
225.006912
 20
476.200012
 30
0.0
 11
225.006912
 21
476.599976
 31
0.0
  0
LINE
  5
545
330
1F
100
AcDbEntity
  8
0
 62
     7
100
AcDbLine
 10
225.006912
 20
476.599976
 30
0.0
 11
224.506912
 21
476.599976
 31
0.0
  0
ARC
  5
546
330
1F
100
AcDbEntity
  8
0
 62
     7
100
AcDbCircle
 10
224.506912
 20
477.099976
 30
0.0
 40
0.5
100
AcDbArc
 50
180.000009
 51
269.999997
  0
LINE
  5
547
330
1F
100
AcDbEntity
  8
0
 62
     7
100
AcDbLine
 10
1202.807007
 20
456.549988
 30
0.0
 11
1202.807007
 21
459.450012
 31
0.0
  0
LINE
  5
548
330
1F
100
AcDbEntity
  8
0
 62
     7
100
AcDbLine
 10
1202.807007
 20
460.75
 30
0.0
 11
1202.807007
 21
463.650024
 31
0.0
  0
LINE
  5
549
330
1F
100
AcDbEntity
  8
0
 62
     7
100
AcDbLine
 10
1127.807007
 20
480.299988
 30
0.0
 11
1200.307007
 21
480.299988
 31
0.0
  0
LINE
  5
54A
330
1F
100
AcDbEntity
  8
0
 62
     7
100
AcDbLine
 10
147.306931
 20
480.299988
 30
0.0
 11
219.806931
 21
480.299988
 31
0.0
  0
LINE
  5
54B
330
1F
100
AcDbEntity
  8
0
 62
     7
100
AcDbLine
 10
1120.807007
 20
480.299988
 30
0.0
 11
1126.807007
 21
480.299988
 31
0.0
  0
LINE
  5
54C
330
1F
100
AcDbEntity
  8
0
 62
     7
100
AcDbLine
 10
827.806885
 20
480.299988
 30
0.0
 11
1119.807007
 21
480.299988
 31
0.0
  0
LINE
  5
54D
330
1F
100
AcDbEntity
  8
0
 62
     7
100
AcDbLine
 10
820.806885
 20
480.299988
 30
0.0
 11
826.806885
 21
480.299988
 31
0.0
  0
LINE
  5
54E
330
1F
100
AcDbEntity
  8
0
 62
     7
100
AcDbLine
 10
527.806885
 20
480.299988
 30
0.0
 11
819.806885
 21
480.299988
 31
0.0
  0
LINE
  5
54F
330
1F
100
AcDbEntity
  8
0
 62
     7
100
AcDbLine
 10
520.806885
 20
480.299988
 30
0.0
 11
526.806885
 21
480.299988
 31
0.0
  0
LINE
  5
550
330
1F
100
AcDbEntity
  8
0
 62
     7
100
AcDbLine
 10
227.806931
 20
480.299988
 30
0.0
 11
519.806885
 21
480.299988
 31
0.0
  0
LINE
  5
551
330
1F
100
AcDbEntity
  8
0
 62
     7
100
AcDbLine
 10
220.806931
 20
480.299988
 30
0.0
 11
226.806931
 21
480.299988
 31
0.0
  0
LINE
  5
552
330
1F
100
AcDbEntity
  8
0
 62
     7
100
AcDbLine
 10
280.20694
 20
449.599854
 30
0.0
 11
280.20694
 21
449.890015
 31
0.0
  0
LINE
  5
553
330
1F
100
AcDbEntity
  8
0
 62
     7
100
AcDbLine
 10
280.20694
 20
449.890015
 30
0.0
 11
280.006927
 21
450.093262
 31
0.0
  0
LINE
  5
554
330
1F
100
AcDbEntity
  8
0
 62
     7
100
AcDbLine
 10
280.006927
 20
449.759216
 30
0.0
 11
280.006927
 21
450.093262
 31
0.0
  0
LINE
  5
555
330
1F
100
AcDbEntity
  8
0
 62
     7
100
AcDbLine
 10
280.006927
 20
450.093262
 30
0.0
 11
279.006927
 21
450.093262
 31
0.0
  0
LINE
  5
556
330
1F
100
AcDbEntity
  8
0
 62
     7
100
AcDbLine
 10
279.006927
 20
450.093262
 30
0.0
 11
279.006927
 21
450.150024
 31
0.0
  0
LINE
  5
557
330
1F
100
AcDbEntity
  8
0
 62
     7
100
AcDbLine
 10
278.406952
 20
450.150024
 30
0.0
 11
279.006927
 21
450.150024
 31
0.0
  0
LINE
  5
558
330
1F
100
AcDbEntity
  8
0
 62
     7
100
AcDbLine
 10
278.406952
 20
449.799927
 30
0.0
 11
278.406952
 21
450.150024
 31
0.0
  0
LINE
  5
559
330
1F
100
AcDbEntity
  8
0
 62
     7
100
AcDbLine
 10
280.006927
 20
450.093262
 30
0.0
 11
279.006927
 21
450.093262
 31
0.0
  0
LINE
  5
55A
330
1F
100
AcDbEntity
  8
0
 62
     7
100
AcDbLine
 10
280.20694
 20
449.890015
 30
0.0
 11
280.006927
 21
450.093262
 31
0.0
  0
LINE
  5
55B
330
1F
100
AcDbEntity
  8
0
 62
     7
100
AcDbLine
 10
278.106934
 20
449.799988
 30
0.0
 11
278.106934
 21
449.900024
 31
0.0
  0
LINE
  5
55C
330
1F
100
AcDbEntity
  8
0
 62
     7
100
AcDbLine
 10
279.806946
 20
449.799988
 30
0.0
 11
277.806946
 21
449.799988
 31
0.0
  0
ARC
  5
55D
330
1F
100
AcDbEntity
  8
0
 62
     7
100
AcDbCircle
 10
277.806946
 20
450.299988
 30
0.0
 40
0.5
100
AcDbArc
 50
180.000009
 51
269.999997
  0
LINE
  5
55E
330
1F
100
AcDbEntity
  8
0
 62
     7
100
AcDbLine
 10
279.806946
 20
449.299988
 30
0.0
 11
280.160492
 21
449.653564
 31
0.0
  0
ARC
  5
55F
330
1F
100
AcDbEntity
  8
0
 62
     7
100
AcDbCircle
 10
279.806946
 20
449.299988
 30
0.0
 40
0.5
100
AcDbArc
 50
0.0
 51
89.999559
  0
LINE
  5
560
330
1F
100
AcDbEntity
  8
0
 62
     7
100
AcDbLine
 10
280.306946
 20
426.200012
 30
0.0
 11
280.306946
 21
449.299988
 31
0.0
  0
ARC
  5
561
330
1F
100
AcDbEntity
  8
0
 62
     7
100
AcDbCircle
 10
276.806946
 20
450.299988
 30
0.0
 40
0.5
100
AcDbArc
 50
0.0
 51
90.000003
  0
LINE
  5
562
330
1F
100
AcDbEntity
  8
0
 62
     7
100
AcDbLine
 10
272.806946
 20
429.0
 30
0.0
 11
154.806931
 21
429.0
 31
0.0
  0
LINE
  5
563
330
1F
100
AcDbEntity
  8
0
 62
     7
100
AcDbLine
 10
202.956772
 20
443.857971
 30
0.0
 11
201.4944
 21
447.795227
 31
0.0
  0
ARC
  5
564
330
1F
100
AcDbEntity
  8
0
 62
     7
100
AcDbCircle
 10
202.769302
 20
443.78833
 30
0.0
 40
0.2000000029802322
100
AcDbArc
 50
269.999997
 51
20.376
  0
LINE
  5
565
330
1F
100
AcDbEntity
  8
0
 62
     7
100
AcDbLine
 10
199.844559
 20
443.588379
 30
0.0
 11
202.769302
 21
443.588379
 31
0.0
  0
ARC
  5
566
330
1F
100
AcDbEntity
  8
0
 62
     7
100
AcDbCircle
 10
199.844559
 20
443.78833
 30
0.0
 40
0.2000000029802322
100
AcDbArc
 50
159.624007
 51
269.999997
  0
LINE
  5
567
330
1F
100
AcDbEntity
  8
0
 62
     7
100
AcDbLine
 10
201.119431
 20
447.795227
 30
0.0
 11
199.657059
 21
443.857971
 31
0.0
  0
ARC
  5
568
330
1F
100
AcDbEntity
  8
0
 62
     7
100
AcDbCircle
 10
201.306931
 20
447.725586
 30
0.0
 40
0.2000000029802322
100
AcDbArc
 50
20.376
 51
159.624007
  0
LINE
  5
569
330
1F
100
AcDbEntity
  8
0
 62
     7
100
AcDbLine
 10
279.806946
 20
426.200012
 30
0.0
 11
280.056946
 21
425.950012
 31
0.0
  0
LINE
  5
56A
330
1F
100
AcDbEntity
  8
0
 62
     7
100
AcDbLine
 10
280.056946
 20
425.950012
 30
0.0
 11
280.306946
 21
426.200012
 31
0.0
  0
LINE
  5
56B
330
1F
100
AcDbEntity
  8
0
 62
     7
100
AcDbLine
 10
279.806946
 20
425.700012
 30
0.0
 11
280.056946
 21
425.950012
 31
0.0
  0
LINE
  5
56C
330
1F
100
AcDbEntity
  8
0
 62
     7
100
AcDbLine
 10
257.806946
 20
450.799988
 30
0.0
 11
258.806946
 21
450.799988
 31
0.0
  0
LINE
  5
56D
330
1F
100
AcDbEntity
  8
0
 62
     7
100
AcDbLine
 10
259.806946
 20
450.799988
 30
0.0
 11
258.806946
 21
450.799988
 31
0.0
  0
LINE
  5
56E
330
1F
100
AcDbEntity
  8
0
 62
     7
100
AcDbLine
 10
276.806946
 20
450.799988
 30
0.0
 11
259.806946
 21
450.799988
 31
0.0
  0
LINE
  5
56F
330
1F
100
AcDbEntity
  8
0
 62
     7
100
AcDbLine
 10
147.806931
 20
426.200012
 30
0.0
 11
147.556931
 21
425.950012
 31
0.0
  0
LINE
  5
570
330
1F
100
AcDbEntity
  8
0
 62
     7
100
AcDbLine
 10
147.806931
 20
449.299988
 30
0.0
 11
147.453384
 21
449.653564
 31
0.0
  0
ARC
  5
571
330
1F
100
AcDbEntity
  8
0
 62
     7
100
AcDbCircle
 10
147.806931
 20
449.299988
 30
0.0
 40
0.5
100
AcDbArc
 50
90.000003
 51
179.999554
  0
LINE
  5
572
330
1F
100
AcDbEntity
  8
0
 62
     7
100
AcDbLine
 10
147.306931
 20
449.299988
 30
0.0
 11
147.306931
 21
426.200012
 31
0.0
  0
LINE
  5
573
330
1F
100
AcDbEntity
  8
0
 62
     7
100
AcDbLine
 10
147.306931
 20
426.200012
 30
0.0
 11
147.556931
 21
425.950012
 31
0.0
  0
LINE
  5
574
330
1F
100
AcDbEntity
  8
0
 62
     7
100
AcDbLine
 10
154.806931
 20
425.700012
 30
0.0
 11
147.806931
 21
425.700012
 31
0.0
  0
LINE
  5
575
330
1F
100
AcDbEntity
  8
0
 62
     7
100
AcDbLine
 10
147.556931
 20
425.950012
 30
0.0
 11
147.806931
 21
425.700012
 31
0.0
  0
LINE
  5
576
330
1F
100
AcDbEntity
  8
0
 62
     7
100
AcDbLine
 10
155.306931
 20
426.200012
 30
0.0
 11
155.306931
 21
429.0
 31
0.0
  0
LINE
  5
577
330
1F
100
AcDbEntity
  8
0
 62
     7
100
AcDbLine
 10
272.306946
 20
426.200012
 30
0.0
 11
272.306946
 21
429.0
 31
0.0
  0
LINE
  5
578
330
1F
100
AcDbEntity
  8
0
 62
     7
100
AcDbLine
 10
279.806946
 20
425.700012
 30
0.0
 11
272.806946
 21
425.700012
 31
0.0
  0
LINE
  5
579
330
1F
100
AcDbEntity
  8
0
 62
     7
100
AcDbLine
 10
258.806946
 20
449.799988
 30
0.0
 11
244.806931
 21
449.799988
 31
0.0
  0
LINE
  5
57A
330
1F
100
AcDbEntity
  8
0
 62
     7
100
AcDbLine
 10
244.506912
 20
448.299988
 30
0.0
 11
244.506912
 21
449.5
 31
0.0
  0
ARC
  5
57B
330
1F
100
AcDbEntity
  8
0
 62
     7
100
AcDbCircle
 10
242.306931
 20
448.299988
 30
0.0
 40
2.200000047683716
100
AcDbArc
 50
180.000009
 51
360.0
  0
LINE
  5
57C
330
1F
100
AcDbEntity
  8
0
 62
     7
100
AcDbLine
 10
240.106918
 20
449.5
 30
0.0
 11
240.106918
 21
448.299988
 31
0.0
  0
LINE
  5
57D
330
1F
100
AcDbEntity
  8
0
 62
     7
100
AcDbLine
 10
239.806931
 20
449.799988
 30
0.0
 11
165.806931
 21
449.799988
 31
0.0
  0
LINE
  5
57E
330
1F
100
AcDbEntity
  8
0
 62
     7
100
AcDbLine
 10
165.506912
 20
448.299988
 30
0.0
 11
165.506912
 21
449.5
 31
0.0
  0
ARC
  5
57F
330
1F
100
AcDbEntity
  8
0
 62
     7
100
AcDbCircle
 10
163.306931
 20
448.299988
 30
0.0
 40
2.200000047683716
100
AcDbArc
 50
180.000009
 51
360.0
  0
ARC
  5
580
330
1F
100
AcDbEntity
  8
0
 62
     7
100
AcDbCircle
 10
166.972977
 20
447.799988
 30
0.0
 40
1.0
100
AcDbArc
 50
90.000003
 51
172.233561
  0
LINE
  5
581
330
1F
100
AcDbEntity
  8
0
 62
     7
100
AcDbLine
 10
166.972977
 20
448.799988
 30
0.0
 11
180.306931
 21
448.799988
 31
0.0
  0
ARC
  5
582
330
1F
100
AcDbEntity
  8
0
 62
     7
100
AcDbCircle
 10
180.306931
 20
445.799988
 30
0.0
 40
3.0
100
AcDbArc
 50
0.0
 51
90.000003
  0
LINE
  5
583
330
1F
100
AcDbEntity
  8
0
 62
     7
100
AcDbLine
 10
183.306931
 20
433.0
 30
0.0
 11
183.306931
 21
445.799988
 31
0.0
  0
ARC
  5
584
330
1F
100
AcDbEntity
  8
0
 62
     7
100
AcDbCircle
 10
180.306931
 20
433.0
 30
0.0
 40
3.0
100
AcDbArc
 50
269.999997
 51
360.0
  0
LINE
  5
585
330
1F
100
AcDbEntity
  8
0
 62
     7
100
AcDbLine
 10
180.306931
 20
430.0
 30
0.0
 11
166.306931
 21
430.0
 31
0.0
  0
ARC
  5
586
330
1F
100
AcDbEntity
  8
0
 62
     7
100
AcDbCircle
 10
166.306931
 20
433.0
 30
0.0
 40
3.0
100
AcDbArc
 50
180.000009
 51
269.999997
  0
LINE
  5
587
330
1F
100
AcDbEntity
  8
0
 62
     7
100
AcDbLine
 10
163.306931
 20
444.737671
 30
0.0
 11
163.306931
 21
433.0
 31
0.0
  0
ARC
  5
588
330
1F
100
AcDbEntity
  8
0
 62
     7
100
AcDbCircle
 10
164.306931
 20
444.737671
 30
0.0
 40
1.0
100
AcDbArc
 50
105.680348
 51
180.000009
  0
LINE
  5
589
330
1F
100
AcDbEntity
  8
0
 62
     7
100
AcDbLine
 10
161.106918
 20
449.5
 30
0.0
 11
161.106918
 21
448.299988
 31
0.0
  0
LINE
  5
58A
330
1F
100
AcDbEntity
  8
0
 62
     7
100
AcDbLine
 10
160.806931
 20
449.799988
 30
0.0
 11
160.306931
 21
449.799988
 31
0.0
  0
LINE
  5
58B
330
1F
100
AcDbEntity
  8
0
 62
     7
100
AcDbLine
 10
159.306931
 20
450.799988
 30
0.0
 11
150.806931
 21
450.799988
 31
0.0
  0
LINE
  5
58C
330
1F
100
AcDbEntity
  8
0
 62
     7
100
AcDbLine
 10
149.806931
 20
449.799988
 30
0.0
 11
147.806931
 21
449.799988
 31
0.0
  0
LINE
  5
58D
330
1F
100
AcDbEntity
  8
0
 62
     7
100
AcDbLine
 10
222.306931
 20
448.799988
 30
0.0
 11
236.306931
 21
448.799988
 31
0.0
  0
ARC
  5
58E
330
1F
100
AcDbEntity
  8
0
 62
     7
100
AcDbCircle
 10
236.306931
 20
445.799988
 30
0.0
 40
3.0
100
AcDbArc
 50
0.0
 51
90.000003
  0
LINE
  5
58F
330
1F
100
AcDbEntity
  8
0
 62
     7
100
AcDbLine
 10
239.306931
 20
433.0
 30
0.0
 11
239.306931
 21
445.799988
 31
0.0
  0
ARC
  5
590
330
1F
100
AcDbEntity
  8
0
 62
     7
100
AcDbCircle
 10
236.306931
 20
433.0
 30
0.0
 40
3.0
100
AcDbArc
 50
269.999997
 51
360.0
  0
LINE
  5
591
330
1F
100
AcDbEntity
  8
0
 62
     7
100
AcDbLine
 10
236.306931
 20
430.0
 30
0.0
 11
222.306931
 21
430.0
 31
0.0
  0
ARC
  5
592
330
1F
100
AcDbEntity
  8
0
 62
     7
100
AcDbCircle
 10
222.306931
 20
433.0
 30
0.0
 40
3.0
100
AcDbArc
 50
180.000009
 51
269.999997
  0
LINE
  5
593
330
1F
100
AcDbEntity
  8
0
 62
     7
100
AcDbLine
 10
219.306931
 20
445.799988
 30
0.0
 11
219.306931
 21
433.0
 31
0.0
  0
ARC
  5
594
330
1F
100
AcDbEntity
  8
0
 62
     7
100
AcDbCircle
 10
222.306931
 20
445.799988
 30
0.0
 40
3.0
100
AcDbArc
 50
90.000003
 51
180.000009
  0
LINE
  5
595
330
1F
100
AcDbEntity
  8
0
 62
     7
100
AcDbLine
 10
160.306931
 20
450.799988
 30
0.0
 11
159.306931
 21
450.799988
 31
0.0
  0
LINE
  5
596
330
1F
100
AcDbEntity
  8
0
 62
     7
100
AcDbLine
 10
161.306931
 20
450.799988
 30
0.0
 11
160.306931
 21
450.799988
 31
0.0
  0
LINE
  5
597
330
1F
100
AcDbEntity
  8
0
 62
     7
100
AcDbLine
 10
156.556931
 20
428.599976
 30
0.0
 11
156.556931
 21
429.0
 31
0.0
  0
LINE
  5
598
330
1F
100
AcDbEntity
  8
0
 62
     7
100
AcDbLine
 10
271.056946
 20
428.599976
 30
0.0
 11
271.056946
 21
429.0
 31
0.0
  0
LINE
  5
599
330
1F
100
AcDbEntity
  8
0
 62
     7
100
AcDbLine
 10
171.030136
 20
428.849976
 30
0.0
 11
170.830124
 21
428.849976
 31
0.0
  0
LINE
  5
59A
330
1F
100
AcDbEntity
  8
0
 62
     7
100
AcDbLine
 10
167.783707
 20
428.849976
 30
0.0
 11
170.830124
 21
428.849976
 31
0.0
  0
LINE
  5
59B
330
1F
100
AcDbEntity
  8
0
 62
     7
100
AcDbLine
 10
167.783707
 20
428.849976
 30
0.0
 11
167.583725
 21
428.849976
 31
0.0
  0
LINE
  5
59C
330
1F
100
AcDbEntity
  8
0
 62
     7
100
AcDbLine
 10
256.783722
 20
428.849976
 30
0.0
 11
256.58374
 21
428.849976
 31
0.0
  0
LINE
  5
59D
330
1F
100
AcDbEntity
  8
0
 62
     7
100
AcDbLine
 10
260.030151
 20
428.849976
 30
0.0
 11
259.830139
 21
428.849976
 31
0.0
  0
LINE
  5
59E
330
1F
100
AcDbEntity
  8
0
 62
     7
100
AcDbLine
 10
256.783722
 20
428.849976
 30
0.0
 11
259.830139
 21
428.849976
 31
0.0
  0
ARC
  5
59F
330
1F
100
AcDbEntity
  8
0
 62
     7
100
AcDbCircle
 10
259.806946
 20
450.299988
 30
0.0
 40
0.5
100
AcDbArc
 50
90.000003
 51
180.000009
  0
ARC
  5
5A0
330
1F
100
AcDbEntity
  8
0
 62
     7
100
AcDbCircle
 10
154.806931
 20
426.200012
 30
0.0
 40
0.5
100
AcDbArc
 50
269.999997
 51
360.0
  0
ARC
  5
5A1
330
1F
100
AcDbEntity
  8
0
 62
     7
100
AcDbCircle
 10
272.806946
 20
426.200012
 30
0.0
 40
0.5
100
AcDbArc
 50
180.000009
 51
269.999997
  0
ARC
  5
5A2
330
1F
100
AcDbEntity
  8
0
 62
     7
100
AcDbCircle
 10
258.806946
 20
450.299988
 30
0.0
 40
0.5
100
AcDbArc
 50
269.999997
 51
360.0
  0
LINE
  5
5A3
330
1F
100
AcDbEntity
  8
0
 62
     7
100
AcDbLine
 10
161.206924
 20
449.799988
 30
0.0
 11
160.806931
 21
449.799988
 31
0.0
  0
LINE
  5
5A4
330
1F
100
AcDbEntity
  8
0
 62
     7
100
AcDbLine
 10
161.206924
 20
449.799988
 30
0.0
 11
161.306931
 21
449.799988
 31
0.0
  0
ARC
  5
5A5
330
1F
100
AcDbEntity
  8
0
 62
     7
100
AcDbCircle
 10
244.806931
 20
449.5
 30
0.0
 40
0.300000011920929
100
AcDbArc
 50
90.000003
 51
180.000009
  0
ARC
  5
5A6
330
1F
100
AcDbEntity
  8
0
 62
     7
100
AcDbCircle
 10
239.806931
 20
449.5
 30
0.0
 40
0.300000011920929
100
AcDbArc
 50
0.0
 51
90.000003
  0
ARC
  5
5A7
330
1F
100
AcDbEntity
  8
0
 62
     7
100
AcDbCircle
 10
165.806931
 20
449.5
 30
0.0
 40
0.300000011920929
100
AcDbArc
 50
90.000003
 51
180.000009
  0
ARC
  5
5A8
330
1F
100
AcDbEntity
  8
0
 62
     7
100
AcDbCircle
 10
163.306931
 20
448.299988
 30
0.0
 40
2.700000047683716
100
AcDbArc
 50
285.680336
 51
352.233566
  0
CIRCLE
  5
5A9
330
1F
100
AcDbEntity
  8
0
 62
     7
100
AcDbCircle
 10
173.306931
 20
441.400024
 30
0.0
 40
4.5
  0
ARC
  5
5AA
330
1F
100
AcDbEntity
  8
0
 62
     7
100
AcDbCircle
 10
160.806931
 20
449.5
 30
0.0
 40
0.300000011920929
100
AcDbArc
 50
0.0
 51
90.000003
  0
ARC
  5
5AB
330
1F
100
AcDbEntity
  8
0
 62
     7
100
AcDbCircle
 10
160.306931
 20
450.299988
 30
0.0
 40
0.5
100
AcDbArc
 50
180.000009
 51
269.999997
  0
ARC
  5
5AC
330
1F
100
AcDbEntity
  8
0
 62
     7
100
AcDbCircle
 10
159.306931
 20
450.299988
 30
0.0
 40
0.5
100
AcDbArc
 50
0.0
 51
90.000003
  0
ARC
  5
5AD
330
1F
100
AcDbEntity
  8
0
 62
     7
100
AcDbCircle
 10
150.806931
 20
450.299988
 30
0.0
 40
0.5
100
AcDbArc
 50
90.000003
 51
180.000009
  0
ARC
  5
5AE
330
1F
100
AcDbEntity
  8
0
 62
     7
100
AcDbCircle
 10
149.806931
 20
450.299988
 30
0.0
 40
0.5
100
AcDbArc
 50
269.999997
 51
360.0
  0
CIRCLE
  5
5AF
330
1F
100
AcDbEntity
  8
0
 62
     7
100
AcDbCircle
 10
229.306931
 20
441.400024
 30
0.0
 40
4.5
  0
LINE
  5
5B0
330
1F
100
AcDbEntity
  8
0
 62
     7
100
AcDbLine
 10
149.506912
 20
449.799988
 30
0.0
 11
149.506912
 21
449.900024
 31
0.0
  0
LINE
  5
5B1
330
1F
100
AcDbEntity
  8
0
 62
     7
100
AcDbLine
 10
271.256927
 20
428.599976
 30
0.0
 11
272.256927
 21
428.599976
 31
0.0
  0
LINE
  5
5B2
330
1F
100
AcDbEntity
  8
0
 62
     7
100
AcDbLine
 10
271.256927
 20
428.599976
 30
0.0
 11
259.830139
 21
428.599976
 31
0.0
  0
LINE
  5
5B3
330
1F
100
AcDbEntity
  8
0
 62
     7
100
AcDbLine
 10
256.783722
 20
428.599976
 30
0.0
 11
170.830124
 21
428.599976
 31
0.0
  0
LINE
  5
5B4
330
1F
100
AcDbEntity
  8
0
 62
     7
100
AcDbLine
 10
167.783707
 20
428.599976
 30
0.0
 11
156.356918
 21
428.599976
 31
0.0
  0
LINE
  5
5B5
330
1F
100
AcDbEntity
  8
0
 62
     7
100
AcDbLine
 10
155.356918
 20
428.599976
 30
0.0
 11
156.356918
 21
428.599976
 31
0.0
  0
LINE
  5
5B6
330
1F
100
AcDbEntity
  8
0
 62
     7
100
AcDbLine
 10
271.256927
 20
426.099976
 30
0.0
 11
156.356918
 21
426.099976
 31
0.0
  0
LINE
  5
5B7
330
1F
100
AcDbEntity
  8
0
 62
     7
100
AcDbLine
 10
161.306931
 20
448.299988
 30
0.0
 11
161.306931
 21
450.299988
 31
0.0
  0
LINE
  5
5B8
330
1F
100
AcDbEntity
  8
0
 62
     7
100
AcDbLine
 10
161.306931
 20
450.799988
 30
0.0
 11
161.306931
 21
450.299988
 31
0.0
  0
LINE
  5
5B9
330
1F
100
AcDbEntity
  8
0
 62
     7
100
AcDbLine
 10
161.306931
 20
451.799988
 30
0.0
 11
161.306931
 21
450.799988
 31
0.0
  0
LINE
  5
5BA
330
1F
100
AcDbEntity
  8
0
 62
     7
100
AcDbLine
 10
257.806946
 20
449.799988
 30
0.0
 11
257.806946
 21
450.299988
 31
0.0
  0
LINE
  5
5BB
330
1F
100
AcDbEntity
  8
0
 62
     7
100
AcDbLine
 10
257.806946
 20
450.799988
 30
0.0
 11
257.806946
 21
450.299988
 31
0.0
  0
LINE
  5
5BC
330
1F
100
AcDbEntity
  8
0
 62
     7
100
AcDbLine
 10
257.806946
 20
451.799988
 30
0.0
 11
257.806946
 21
450.799988
 31
0.0
  0
ARC
  5
5BD
330
1F
100
AcDbEntity
  8
0
 62
     7
100
AcDbCircle
 10
163.306931
 20
448.299988
 30
0.0
 40
2.0
100
AcDbArc
 50
180.000009
 51
360.0
  0
LINE
  5
5BE
330
1F
100
AcDbEntity
  8
0
 62
     7
100
AcDbLine
 10
165.306931
 20
448.299988
 30
0.0
 11
165.306931
 21
449.799988
 31
0.0
  0
LINE
  5
5BF
330
1F
100
AcDbEntity
  8
0
 62
     7
100
AcDbLine
 10
165.806931
 20
449.799988
 30
0.0
 11
165.306931
 21
449.799988
 31
0.0
  0
LINE
  5
5C0
330
1F
100
AcDbEntity
  8
0
 62
     7
100
AcDbLine
 10
240.306931
 20
449.799988
 30
0.0
 11
239.806931
 21
449.799988
 31
0.0
  0
LINE
  5
5C1
330
1F
100
AcDbEntity
  8
0
 62
     7
100
AcDbLine
 10
240.306931
 20
448.299988
 30
0.0
 11
240.306931
 21
449.799988
 31
0.0
  0
ARC
  5
5C2
330
1F
100
AcDbEntity
  8
0
 62
     7
100
AcDbCircle
 10
242.306931
 20
448.299988
 30
0.0
 40
2.0
100
AcDbArc
 50
180.000009
 51
360.0
  0
LINE
  5
5C3
330
1F
100
AcDbEntity
  8
0
 62
     7
100
AcDbLine
 10
244.306931
 20
448.299988
 30
0.0
 11
244.306931
 21
449.799988
 31
0.0
  0
LINE
  5
5C4
330
1F
100
AcDbEntity
  8
0
 62
     7
100
AcDbLine
 10
244.806931
 20
449.799988
 30
0.0
 11
244.306931
 21
449.799988
 31
0.0
  0
LINE
  5
5C5
330
1F
100
AcDbEntity
  8
0
 62
     7
100
AcDbLine
 10
155.356918
 20
426.099976
 30
0.0
 11
155.356918
 21
428.599976
 31
0.0
  0
LINE
  5
5C6
330
1F
100
AcDbEntity
  8
0
 62
     7
100
AcDbLine
 10
272.256927
 20
426.099976
 30
0.0
 11
272.256927
 21
428.599976
 31
0.0
  0
LINE
  5
5C7
330
1F
100
AcDbEntity
  8
0
 62
     7
100
AcDbLine
 10
271.256927
 20
426.099976
 30
0.0
 11
272.256927
 21
426.099976
 31
0.0
  0
LINE
  5
5C8
330
1F
100
AcDbEntity
  8
0
 62
     7
100
AcDbLine
 10
155.356918
 20
426.099976
 30
0.0
 11
156.356918
 21
426.099976
 31
0.0
  0
LINE
  5
5C9
330
1F
100
AcDbEntity
  8
0
 62
     7
100
AcDbLine
 10
257.806946
 20
450.799988
 30
0.0
 11
161.306931
 21
450.799988
 31
0.0
  0
CIRCLE
  5
5CA
330
1F
100
AcDbEntity
  8
0
 62
     7
100
AcDbCircle
 10
173.306931
 20
441.400024
 30
0.0
 40
4.0
  0
CIRCLE
  5
5CB
330
1F
100
AcDbEntity
  8
0
 62
     7
100
AcDbCircle
 10
229.306931
 20
441.400024
 30
0.0
 40
4.0
  0
LINE
  5
5CC
330
1F
100
AcDbEntity
  8
0
 62
     7
100
AcDbLine
 10
149.206924
 20
450.150024
 30
0.0
 11
149.206924
 21
449.799927
 31
0.0
  0
CIRCLE
  5
5CD
330
1F
100
AcDbEntity
  8
0
 62
     7
100
AcDbCircle
 10
242.306931
 20
448.299988
 30
0.0
 40
1.475000023841858
  0
CIRCLE
  5
5CE
330
1F
100
AcDbEntity
  8
0
 62
     7
100
AcDbCircle
 10
163.306931
 20
448.299988
 30
0.0
 40
1.475000023841858
  0
LINE
  5
5CF
330
1F
100
AcDbEntity
  8
0
 62
     7
100
AcDbLine
 10
148.606918
 20
450.150024
 30
0.0
 11
148.606918
 21
450.093262
 31
0.0
  0
LINE
  5
5D0
330
1F
100
AcDbEntity
  8
0
 62
     7
100
AcDbLine
 10
147.606918
 20
450.093262
 30
0.0
 11
148.606918
 21
450.093262
 31
0.0
  0
LINE
  5
5D1
330
1F
100
AcDbEntity
  8
0
 62
     7
100
AcDbLine
 10
147.606918
 20
450.093262
 30
0.0
 11
147.606918
 21
449.759216
 31
0.0
  0
LINE
  5
5D2
330
1F
100
AcDbEntity
  8
0
 62
     7
100
AcDbLine
 10
149.206924
 20
450.150024
 30
0.0
 11
148.606918
 21
450.150024
 31
0.0
  0
LINE
  5
5D3
330
1F
100
AcDbEntity
  8
0
 62
     7
100
AcDbLine
 10
147.606918
 20
450.093262
 30
0.0
 11
148.606918
 21
450.093262
 31
0.0
  0
CIRCLE
  5
5D4
330
1F
100
AcDbEntity
  8
0
 62
     7
100
AcDbCircle
 10
173.306931
 20
441.400024
 30
0.0
 40
2.549999952316284
  0
CIRCLE
  5
5D5
330
1F
100
AcDbEntity
  8
0
 62
     7
100
AcDbCircle
 10
229.306931
 20
441.400024
 30
0.0
 40
2.549999952316284
  0
LINE
  5
5D6
330
1F
100
AcDbEntity
  8
0
 62
     7
100
AcDbLine
 10
147.406937
 20
449.890015
 30
0.0
 11
147.606918
 21
450.093262
 31
0.0
  0
LINE
  5
5D7
330
1F
100
AcDbEntity
  8
0
 62
     7
100
AcDbLine
 10
147.406937
 20
449.890015
 30
0.0
 11
147.406937
 21
449.599854
 31
0.0
  0
LINE
  5
5D8
330
1F
100
AcDbEntity
  8
0
 62
     7
100
AcDbLine
 10
242.106918
 20
449.400024
 30
0.0
 11
242.506912
 21
449.400024
 31
0.0
  0
LINE
  5
5D9
330
1F
100
AcDbEntity
  8
0
 62
     7
100
AcDbLine
 10
242.106918
 20
449.400024
 30
0.0
 11
242.106918
 21
448.75
 31
0.0
  0
ARC
  5
5DA
330
1F
100
AcDbEntity
  8
0
 62
     7
100
AcDbCircle
 10
241.856918
 20
448.75
 30
0.0
 40
0.25
100
AcDbArc
 50
269.999997
 51
360.0
  0
LINE
  5
5DB
330
1F
100
AcDbEntity
  8
0
 62
     7
100
AcDbLine
 10
241.856918
 20
448.5
 30
0.0
 11
241.206924
 21
448.5
 31
0.0
  0
LINE
  5
5DC
330
1F
100
AcDbEntity
  8
0
 62
     7
100
AcDbLine
 10
241.206924
 20
448.5
 30
0.0
 11
241.206924
 21
448.099976
 31
0.0
  0
LINE
  5
5DD
330
1F
100
AcDbEntity
  8
0
 62
     7
100
AcDbLine
 10
241.856918
 20
448.099976
 30
0.0
 11
241.206924
 21
448.099976
 31
0.0
  0
ARC
  5
5DE
330
1F
100
AcDbEntity
  8
0
 62
     7
100
AcDbCircle
 10
241.856918
 20
447.849976
 30
0.0
 40
0.25
100
AcDbArc
 50
0.0
 51
90.000003
  0
LINE
  5
5DF
330
1F
100
AcDbEntity
  8
0
 62
     7
100
AcDbLine
 10
242.106918
 20
447.200012
 30
0.0
 11
242.106918
 21
447.849976
 31
0.0
  0
LINE
  5
5E0
330
1F
100
AcDbEntity
  8
0
 62
     7
100
AcDbLine
 10
242.106918
 20
447.200012
 30
0.0
 11
242.506912
 21
447.200012
 31
0.0
  0
LINE
  5
5E1
330
1F
100
AcDbEntity
  8
0
 62
     7
100
AcDbLine
 10
242.506912
 20
447.200012
 30
0.0
 11
242.506912
 21
447.849976
 31
0.0
  0
ARC
  5
5E2
330
1F
100
AcDbEntity
  8
0
 62
     7
100
AcDbCircle
 10
242.756912
 20
447.849976
 30
0.0
 40
0.25
100
AcDbArc
 50
90.000003
 51
180.000009
  0
LINE
  5
5E3
330
1F
100
AcDbEntity
  8
0
 62
     7
100
AcDbLine
 10
242.756912
 20
448.099976
 30
0.0
 11
243.406937
 21
448.099976
 31
0.0
  0
LINE
  5
5E4
330
1F
100
AcDbEntity
  8
0
 62
     7
100
AcDbLine
 10
243.406937
 20
448.5
 30
0.0
 11
243.406937
 21
448.099976
 31
0.0
  0
LINE
  5
5E5
330
1F
100
AcDbEntity
  8
0
 62
     7
100
AcDbLine
 10
242.756912
 20
448.5
 30
0.0
 11
243.406937
 21
448.5
 31
0.0
  0
ARC
  5
5E6
330
1F
100
AcDbEntity
  8
0
 62
     7
100
AcDbCircle
 10
242.756912
 20
448.75
 30
0.0
 40
0.25
100
AcDbArc
 50
180.000009
 51
269.999997
  0
LINE
  5
5E7
330
1F
100
AcDbEntity
  8
0
 62
     7
100
AcDbLine
 10
242.506912
 20
449.400024
 30
0.0
 11
242.506912
 21
448.75
 31
0.0
  0
LINE
  5
5E8
330
1F
100
AcDbEntity
  8
0
 62
     7
100
AcDbLine
 10
163.106918
 20
449.400024
 30
0.0
 11
163.506912
 21
449.400024
 31
0.0
  0
LINE
  5
5E9
330
1F
100
AcDbEntity
  8
0
 62
     7
100
AcDbLine
 10
163.106918
 20
449.400024
 30
0.0
 11
163.106918
 21
448.75
 31
0.0
  0
ARC
  5
5EA
330
1F
100
AcDbEntity
  8
0
 62
     7
100
AcDbCircle
 10
162.856918
 20
448.75
 30
0.0
 40
0.25
100
AcDbArc
 50
269.999997
 51
360.0
  0
LINE
  5
5EB
330
1F
100
AcDbEntity
  8
0
 62
     7
100
AcDbLine
 10
162.856918
 20
448.5
 30
0.0
 11
162.206924
 21
448.5
 31
0.0
  0
LINE
  5
5EC
330
1F
100
AcDbEntity
  8
0
 62
     7
100
AcDbLine
 10
162.206924
 20
448.5
 30
0.0
 11
162.206924
 21
448.099976
 31
0.0
  0
LINE
  5
5ED
330
1F
100
AcDbEntity
  8
0
 62
     7
100
AcDbLine
 10
162.856918
 20
448.099976
 30
0.0
 11
162.206924
 21
448.099976
 31
0.0
  0
ARC
  5
5EE
330
1F
100
AcDbEntity
  8
0
 62
     7
100
AcDbCircle
 10
162.856918
 20
447.849976
 30
0.0
 40
0.25
100
AcDbArc
 50
0.0
 51
90.000003
  0
LINE
  5
5EF
330
1F
100
AcDbEntity
  8
0
 62
     7
100
AcDbLine
 10
163.106918
 20
447.200012
 30
0.0
 11
163.106918
 21
447.849976
 31
0.0
  0
LINE
  5
5F0
330
1F
100
AcDbEntity
  8
0
 62
     7
100
AcDbLine
 10
163.106918
 20
447.200012
 30
0.0
 11
163.506912
 21
447.200012
 31
0.0
  0
LINE
  5
5F1
330
1F
100
AcDbEntity
  8
0
 62
     7
100
AcDbLine
 10
163.506912
 20
447.200012
 30
0.0
 11
163.506912
 21
447.849976
 31
0.0
  0
ARC
  5
5F2
330
1F
100
AcDbEntity
  8
0
 62
     7
100
AcDbCircle
 10
163.756912
 20
447.849976
 30
0.0
 40
0.25
100
AcDbArc
 50
90.000003
 51
180.000009
  0
LINE
  5
5F3
330
1F
100
AcDbEntity
  8
0
 62
     7
100
AcDbLine
 10
163.756912
 20
448.099976
 30
0.0
 11
164.406937
 21
448.099976
 31
0.0
  0
LINE
  5
5F4
330
1F
100
AcDbEntity
  8
0
 62
     7
100
AcDbLine
 10
164.406937
 20
448.5
 30
0.0
 11
164.406937
 21
448.099976
 31
0.0
  0
LINE
  5
5F5
330
1F
100
AcDbEntity
  8
0
 62
     7
100
AcDbLine
 10
163.756912
 20
448.5
 30
0.0
 11
164.406937
 21
448.5
 31
0.0
  0
ARC
  5
5F6
330
1F
100
AcDbEntity
  8
0
 62
     7
100
AcDbCircle
 10
163.756912
 20
448.75
 30
0.0
 40
0.25
100
AcDbArc
 50
180.000009
 51
269.999997
  0
LINE
  5
5F7
330
1F
100
AcDbEntity
  8
0
 62
     7
100
AcDbLine
 10
163.506912
 20
449.400024
 30
0.0
 11
163.506912
 21
448.75
 31
0.0
  0
LINE
  5
5F8
330
1F
100
AcDbEntity
  8
0
 62
     7
100
AcDbLine
 10
39.306927
 20
349.900024
 30
0.0
 11
35.906925
 21
349.900024
 31
0.0
  0
LINE
  5
5F9
330
1F
100
AcDbEntity
  8
0
 62
     7
100
AcDbLine
 10
42.706928
 20
349.900024
 30
0.0
 11
39.306927
 21
349.900024
 31
0.0
  0
LINE
  5
5FA
330
1F
100
AcDbEntity
  8
0
 62
     7
100
AcDbLine
 10
117.706924
 20
431.5
 30
0.0
 11
117.706924
 21
431.349976
 31
0.0
  0
LINE
  5
5FB
330
1F
100
AcDbEntity
  8
0
 62
     7
100
AcDbLine
 10
115.506927
 20
431.5
 30
0.0
 11
115.506927
 21
431.349976
 31
0.0
  0
LINE
  5
5FC
330
1F
100
AcDbEntity
  8
0
 62
     7
100
AcDbLine
 10
113.306931
 20
431.493042
 30
0.0
 11
113.306931
 21
431.349976
 31
0.0
  0
LINE
  5
5FD
330
1F
100
AcDbEntity
  8
0
 62
     7
100
AcDbLine
 10
118.706924
 20
430.1875
 30
0.0
 11
118.706924
 21
433.900024
 31
0.0
  0
LINE
  5
5FE
330
1F
100
AcDbEntity
  8
0
 62
     7
100
AcDbLine
 10
117.706924
 20
433.900024
 30
0.0
 11
118.706924
 21
433.900024
 31
0.0
  0
LINE
  5
5FF
330
1F
100
AcDbEntity
  8
0
 62
     7
100
AcDbLine
 10
117.706924
 20
433.900024
 30
0.0
 11
117.706924
 21
430.25
 31
0.0
  0
LINE
  5
600
330
1F
100
AcDbEntity
  8
0
 62
     7
100
AcDbLine
 10
116.506927
 20
430.325012
 30
0.0
 11
116.506927
 21
433.900024
 31
0.0
  0
LINE
  5
601
330
1F
100
AcDbEntity
  8
0
 62
     7
100
AcDbLine
 10
115.506927
 20
433.900024
 30
0.0
 11
116.506927
 21
433.900024
 31
0.0
  0
LINE
  5
602
330
1F
100
AcDbEntity
  8
0
 62
     7
100
AcDbLine
 10
115.506927
 20
433.900024
 30
0.0
 11
115.506927
 21
430.387512
 31
0.0
  0
LINE
  5
603
330
1F
100
AcDbEntity
  8
0
 62
     7
100
AcDbLine
 10
114.306931
 20
430.462524
 30
0.0
 11
114.306931
 21
433.900024
 31
0.0
  0
LINE
  5
604
330
1F
100
AcDbEntity
  8
0
 62
     7
100
AcDbLine
 10
113.306931
 20
433.900024
 30
0.0
 11
114.306931
 21
433.900024
 31
0.0
  0
LINE
  5
605
330
1F
100
AcDbEntity
  8
0
 62
     7
100
AcDbLine
 10
113.306931
 20
433.900024
 30
0.0
 11
113.306931
 21
430.525024
 31
0.0
  0
LINE
  5
606
330
1F
100
AcDbEntity
  8
0
 62
     7
100
AcDbLine
 10
111.306931
 20
430.650024
 30
0.0
 11
111.306931
 21
438.6297
 31
0.0
  0
LINE
  5
607
330
1F
100
AcDbEntity
  8
0
 62
     7
100
AcDbLine
 10
111.306931
 20
438.6297
 30
0.0
 11
111.306931
 21
439.150024
 31
0.0
  0
LINE
  5
608
330
1F
100
AcDbEntity
  8
0
 62
     7
100
AcDbLine
 10
113.306931
 20
438.739441
 30
0.0
 11
113.306931
 21
435.900024
 31
0.0
  0
LINE
  5
609
330
1F
100
AcDbEntity
  8
0
 62
     7
100
AcDbLine
 10
113.306931
 20
439.275024
 30
0.0
 11
113.306931
 21
438.739441
 31
0.0
  0
LINE
  5
60A
330
1F
100
AcDbEntity
  8
0
 62
     7
100
AcDbLine
 10
113.306931
 20
435.900024
 30
0.0
 11
114.306931
 21
435.900024
 31
0.0
  0
LINE
  5
60B
330
1F
100
AcDbEntity
  8
0
 62
     7
100
AcDbLine
 10
114.306931
 20
438.79425
 30
0.0
 11
114.306931
 21
439.337524
 31
0.0
  0
LINE
  5
60C
330
1F
100
AcDbEntity
  8
0
 62
     7
100
AcDbLine
 10
114.306931
 20
435.900024
 30
0.0
 11
114.306931
 21
438.79425
 31
0.0
  0
LINE
  5
60D
330
1F
100
AcDbEntity
  8
0
 62
     7
100
AcDbLine
 10
115.506927
 20
438.860107
 30
0.0
 11
115.506927
 21
435.900024
 31
0.0
  0
LINE
  5
60E
330
1F
100
AcDbEntity
  8
0
 62
     7
100
AcDbLine
 10
115.506927
 20
439.412476
 30
0.0
 11
115.506927
 21
438.860107
 31
0.0
  0
LINE
  5
60F
330
1F
100
AcDbEntity
  8
0
 62
     7
100
AcDbLine
 10
115.506927
 20
435.900024
 30
0.0
 11
116.506927
 21
435.900024
 31
0.0
  0
LINE
  5
610
330
1F
100
AcDbEntity
  8
0
 62
     7
100
AcDbLine
 10
116.506927
 20
438.914917
 30
0.0
 11
116.506927
 21
439.474976
 31
0.0
  0
LINE
  5
611
330
1F
100
AcDbEntity
  8
0
 62
     7
100
AcDbLine
 10
116.506927
 20
435.900024
 30
0.0
 11
116.506927
 21
438.914917
 31
0.0
  0
LINE
  5
612
330
1F
100
AcDbEntity
  8
0
 62
     7
100
AcDbLine
 10
117.706924
 20
438.980774
 30
0.0
 11
117.706924
 21
435.900024
 31
0.0
  0
LINE
  5
613
330
1F
100
AcDbEntity
  8
0
 62
     7
100
AcDbLine
 10
117.706924
 20
439.549988
 30
0.0
 11
117.706924
 21
438.980774
 31
0.0
  0
LINE
  5
614
330
1F
100
AcDbEntity
  8
0
 62
     7
100
AcDbLine
 10
117.706924
 20
435.900024
 30
0.0
 11
118.706924
 21
435.900024
 31
0.0
  0
LINE
  5
615
330
1F
100
AcDbEntity
  8
0
 62
     7
100
AcDbLine
 10
118.706924
 20
439.035583
 30
0.0
 11
118.706924
 21
439.612488
 31
0.0
  0
LINE
  5
616
330
1F
100
AcDbEntity
  8
0
 62
     7
100
AcDbLine
 10
118.706924
 20
435.900024
 30
0.0
 11
118.706924
 21
439.035583
 31
0.0
  0
LINE
  5
617
330
1F
100
AcDbEntity
  8
0
 62
     7
100
AcDbLine
 10
123.306931
 20
439.287903
 30
0.0
 11
123.306931
 21
439.900024
 31
0.0
  0
LINE
  5
618
330
1F
100
AcDbEntity
  8
0
 62
     7
100
AcDbLine
 10
123.306931
 20
429.900024
 30
0.0
 11
123.306931
 21
439.287903
 31
0.0
  0
LINE
  5
619
330
1F
100
AcDbEntity
  8
0
 62
     7
100
AcDbLine
 10
124.306931
 20
439.551208
 30
0.0
 11
124.306931
 21
440.200012
 31
0.0
  0
LINE
  5
61A
330
1F
100
AcDbEntity
  8
0
 62
     7
100
AcDbLine
 10
124.306931
 20
429.599976
 30
0.0
 11
124.306931
 21
439.551208
 31
0.0
  0
LINE
  5
61B
330
1F
100
AcDbEntity
  8
0
 62
     7
100
AcDbLine
 10
129.306931
 20
429.0
 30
0.0
 11
129.306931
 21
432.071411
 31
0.0
  0
LINE
  5
61C
330
1F
100
AcDbEntity
  8
0
 62
     7
100
AcDbLine
 10
129.306931
 20
432.071411
 30
0.0
 11
129.306931
 21
440.799988
 31
0.0
  0
LINE
  5
61D
330
1F
100
AcDbEntity
  8
0
 62
     7
100
AcDbLine
 10
129.538101
 20
428.599976
 30
0.0
 11
129.538101
 21
428.743408
 31
0.0
  0
ARC
  5
61E
330
1F
100
AcDbEntity
  8
0
 62
     7
100
AcDbCircle
 10
132.052505
 20
429.703857
 30
0.0
 40
2.691781044006348
100
AcDbArc
 50
159.093943
 51
200.906016
  0
LINE
  5
61F
330
1F
100
AcDbEntity
  8
0
 62
     7
100
AcDbLine
 10
129.538101
 20
431.879639
 30
0.0
 11
129.538101
 21
430.664307
 31
0.0
  0
LINE
  5
620
330
1F
100
AcDbEntity
  8
0
 62
     7
100
AcDbLine
 10
129.538101
 20
431.879639
 30
0.0
 11
129.538101
 21
432.979065
 31
0.0
  0
ARC
  5
621
330
1F
100
AcDbEntity
  8
0
 62
     7
100
AcDbCircle
 10
139.864426
 20
434.900024
 30
0.0
 40
10.50419235229492
100
AcDbArc
 50
169.462089
 51
190.537884
  0
LINE
  5
622
330
1F
100
AcDbEntity
  8
0
 62
     7
100
AcDbLine
 10
129.538101
 20
436.820923
 30
0.0
 11
129.538101
 21
439.135681
 31
0.0
  0
ARC
  5
623
330
1F
100
AcDbEntity
  8
0
 62
     7
100
AcDbCircle
 10
132.052505
 20
440.09613
 30
0.0
 40
2.691781044006348
100
AcDbArc
 50
159.093943
 51
200.906016
  0
LINE
  5
624
330
1F
100
AcDbEntity
  8
0
 62
     7
100
AcDbLine
 10
129.538101
 20
441.056641
 30
0.0
 11
129.538101
 21
441.200012
 31
0.0
  0
LINE
  5
625
330
1F
100
AcDbEntity
  8
0
 62
     7
100
AcDbLine
 10
136.306931
 20
428.599976
 30
0.0
 11
136.306931
 21
428.743408
 31
0.0
  0
LINE
  5
626
330
1F
100
AcDbEntity
  8
0
 62
     7
100
AcDbLine
 10
129.538101
 20
428.743408
 30
0.0
 11
136.306931
 21
428.743408
 31
0.0
  0
LINE
  5
627
330
1F
100
AcDbEntity
  8
0
 62
     7
100
AcDbLine
 10
129.538101
 20
430.664307
 30
0.0
 11
136.306931
 21
430.664307
 31
0.0
  0
LINE
  5
628
330
1F
100
AcDbEntity
  8
0
 62
     7
100
AcDbLine
 10
136.306931
 20
430.664307
 30
0.0
 11
136.306931
 21
432.979065
 31
0.0
  0
LINE
  5
629
330
1F
100
AcDbEntity
  8
0
 62
     7
100
AcDbLine
 10
129.538101
 20
432.979065
 30
0.0
 11
136.306931
 21
432.979065
 31
0.0
  0
LINE
  5
62A
330
1F
100
AcDbEntity
  8
0
 62
     7
100
AcDbLine
 10
129.538101
 20
436.820923
 30
0.0
 11
136.306931
 21
436.820923
 31
0.0
  0
LINE
  5
62B
330
1F
100
AcDbEntity
  8
0
 62
     7
100
AcDbLine
 10
136.306931
 20
436.820923
 30
0.0
 11
136.306931
 21
439.135681
 31
0.0
  0
LINE
  5
62C
330
1F
100
AcDbEntity
  8
0
 62
     7
100
AcDbLine
 10
129.538101
 20
439.135681
 30
0.0
 11
136.306931
 21
439.135681
 31
0.0
  0
LINE
  5
62D
330
1F
100
AcDbEntity
  8
0
 62
     7
100
AcDbLine
 10
129.538101
 20
441.056641
 30
0.0
 11
136.306931
 21
441.056641
 31
0.0
  0
LINE
  5
62E
330
1F
100
AcDbEntity
  8
0
 62
     7
100
AcDbLine
 10
136.306931
 20
441.056641
 30
0.0
 11
136.306931
 21
441.200012
 31
0.0
  0
ARC
  5
62F
330
1F
100
AcDbEntity
  8
0
 62
     7
100
AcDbCircle
 10
184.617661
 20
472.15387
 30
0.0
 40
64.901611328125
100
AcDbArc
 50
221.89505
 51
222.55191
  0
LINE
  5
630
330
1F
100
AcDbEntity
  8
0
 62
     7
100
AcDbLine
 10
136.306931
 20
428.814697
 30
0.0
 11
136.306931
 21
428.743408
 31
0.0
  0
LINE
  5
631
330
1F
100
AcDbEntity
  8
0
 62
     7
100
AcDbLine
 10
136.806931
 20
428.099976
 30
0.0
 11
136.806931
 21
428.263672
 31
0.0
  0
LINE
  5
632
330
1F
100
AcDbEntity
  8
0
 62
     7
100
AcDbLine
 10
136.306931
 20
430.445251
 30
0.0
 11
136.306931
 21
428.814697
 31
0.0
  0
LINE
  5
633
330
1F
100
AcDbEntity
  8
0
 62
     7
100
AcDbLine
 10
136.306931
 20
430.664307
 30
0.0
 11
136.306931
 21
430.445251
 31
0.0
  0
LINE
  5
634
330
1F
100
AcDbEntity
  8
0
 62
     7
100
AcDbLine
 10
136.306931
 20
433.26947
 30
0.0
 11
136.306931
 21
432.979065
 31
0.0
  0
LINE
  5
635
330
1F
100
AcDbEntity
  8
0
 62
     7
100
AcDbLine
 10
136.306931
 20
430.445251
 30
0.0
 11
136.806931
 21
430.297607
 31
0.0
  0
LINE
  5
636
330
1F
100
AcDbEntity
  8
0
 62
     7
100
AcDbLine
 10
136.806931
 20
430.297607
 30
0.0
 11
136.806931
 21
432.866089
 31
0.0
  0
LINE
  5
637
330
1F
100
AcDbEntity
  8
0
 62
     7
100
AcDbLine
 10
136.306931
 20
433.26947
 30
0.0
 11
136.806931
 21
432.866089
 31
0.0
  0
LINE
  5
638
330
1F
100
AcDbEntity
  8
0
 62
     7
100
AcDbLine
 10
136.306931
 20
436.530579
 30
0.0
 11
136.306931
 21
433.26947
 31
0.0
  0
LINE
  5
639
330
1F
100
AcDbEntity
  8
0
 62
     7
100
AcDbLine
 10
136.306931
 20
436.530579
 30
0.0
 11
136.306931
 21
436.820923
 31
0.0
  0
LINE
  5
63A
330
1F
100
AcDbEntity
  8
0
 62
     7
100
AcDbLine
 10
136.806931
 20
436.933899
 30
0.0
 11
136.806931
 21
439.502441
 31
0.0
  0
LINE
  5
63B
330
1F
100
AcDbEntity
  8
0
 62
     7
100
AcDbLine
 10
136.306931
 20
439.354797
 30
0.0
 11
136.806931
 21
439.502441
 31
0.0
  0
LINE
  5
63C
330
1F
100
AcDbEntity
  8
0
 62
     7
100
AcDbLine
 10
136.306931
 20
439.135681
 30
0.0
 11
136.306931
 21
439.354797
 31
0.0
  0
LINE
  5
63D
330
1F
100
AcDbEntity
  8
0
 62
     7
100
AcDbLine
 10
136.306931
 20
436.530579
 30
0.0
 11
136.806931
 21
436.933899
 31
0.0
  0
LINE
  5
63E
330
1F
100
AcDbEntity
  8
0
 62
     7
100
AcDbLine
 10
136.306931
 20
440.985352
 30
0.0
 11
136.306931
 21
439.354797
 31
0.0
  0
LINE
  5
63F
330
1F
100
AcDbEntity
  8
0
 62
     7
100
AcDbLine
 10
136.306931
 20
441.056641
 30
0.0
 11
136.306931
 21
440.985352
 31
0.0
  0
ARC
  5
640
330
1F
100
AcDbEntity
  8
0
 62
     7
100
AcDbCircle
 10
184.617661
 20
397.646118
 30
0.0
 40
64.901611328125
100
AcDbArc
 50
137.44809
 51
138.10495
  0
LINE
  5
641
330
1F
100
AcDbEntity
  8
0
 62
     7
100
AcDbLine
 10
136.806931
 20
441.536316
 30
0.0
 11
136.806931
 21
441.700012
 31
0.0
  0
LINE
  5
642
330
1F
100
AcDbEntity
  8
0
 62
     7
100
AcDbLine
 10
146.306931
 20
440.985352
 30
0.0
 11
146.306931
 21
441.200012
 31
0.0
  0
LINE
  5
643
330
1F
100
AcDbEntity
  8
0
 62
     7
100
AcDbLine
 10
136.306931
 20
436.530579
 30
0.0
 11
146.306931
 21
436.530579
 31
0.0
  0
LINE
  5
644
330
1F
100
AcDbEntity
  8
0
 62
     7
100
AcDbLine
 10
136.306931
 20
433.26947
 30
0.0
 11
146.306931
 21
433.26947
 31
0.0
  0
LINE
  5
645
330
1F
100
AcDbEntity
  8
0
 62
     7
100
AcDbLine
 10
146.306931
 20
430.445251
 30
0.0
 11
146.306931
 21
433.26947
 31
0.0
  0
LINE
  5
646
330
1F
100
AcDbEntity
  8
0
 62
     7
100
AcDbLine
 10
136.306931
 20
428.814697
 30
0.0
 11
146.306931
 21
428.814697
 31
0.0
  0
LINE
  5
647
330
1F
100
AcDbEntity
  8
0
 62
     7
100
AcDbLine
 10
146.306931
 20
428.599976
 30
0.0
 11
146.306931
 21
428.814697
 31
0.0
  0
LINE
  5
648
330
1F
100
AcDbEntity
  8
0
 62
     7
100
AcDbLine
 10
136.806931
 20
428.263672
 30
0.0
 11
145.806931
 21
428.263672
 31
0.0
  0
ARC
  5
649
330
1F
100
AcDbEntity
  8
0
 62
     7
100
AcDbCircle
 10
97.99617
 20
472.15387
 30
0.0
 40
64.901611328125
100
AcDbArc
 50
317.448096
 51
318.104941
  0
LINE
  5
64A
330
1F
100
AcDbEntity
  8
0
 62
     7
100
AcDbLine
 10
145.806931
 20
428.099976
 30
0.0
 11
145.806931
 21
428.263672
 31
0.0
  0
LINE
  5
64B
330
1F
100
AcDbEntity
  8
0
 62
     7
100
AcDbLine
 10
146.306931
 20
430.445251
 30
0.0
 11
145.806931
 21
430.297607
 31
0.0
  0
LINE
  5
64C
330
1F
100
AcDbEntity
  8
0
 62
     7
100
AcDbLine
 10
136.806931
 20
430.297607
 30
0.0
 11
145.806931
 21
430.297607
 31
0.0
  0
LINE
  5
64D
330
1F
100
AcDbEntity
  8
0
 62
     7
100
AcDbLine
 10
145.806931
 20
430.297607
 30
0.0
 11
145.806931
 21
432.866089
 31
0.0
  0
LINE
  5
64E
330
1F
100
AcDbEntity
  8
0
 62
     7
100
AcDbLine
 10
136.806931
 20
432.866089
 30
0.0
 11
145.806931
 21
432.866089
 31
0.0
  0
LINE
  5
64F
330
1F
100
AcDbEntity
  8
0
 62
     7
100
AcDbLine
 10
146.306931
 20
433.26947
 30
0.0
 11
145.806931
 21
432.866089
 31
0.0
  0
LINE
  5
650
330
1F
100
AcDbEntity
  8
0
 62
     7
100
AcDbLine
 10
145.806931
 20
436.933899
 30
0.0
 11
145.806931
 21
439.502441
 31
0.0
  0
LINE
  5
651
330
1F
100
AcDbEntity
  8
0
 62
     7
100
AcDbLine
 10
136.806931
 20
439.502441
 30
0.0
 11
145.806931
 21
439.502441
 31
0.0
  0
LINE
  5
652
330
1F
100
AcDbEntity
  8
0
 62
     7
100
AcDbLine
 10
136.806931
 20
436.933899
 30
0.0
 11
145.806931
 21
436.933899
 31
0.0
  0
LINE
  5
653
330
1F
100
AcDbEntity
  8
0
 62
     7
100
AcDbLine
 10
146.306931
 20
439.354797
 30
0.0
 11
145.806931
 21
439.502441
 31
0.0
  0
LINE
  5
654
330
1F
100
AcDbEntity
  8
0
 62
     7
100
AcDbLine
 10
146.306931
 20
436.530579
 30
0.0
 11
145.806931
 21
436.933899
 31
0.0
  0
LINE
  5
655
330
1F
100
AcDbEntity
  8
0
 62
     7
100
AcDbLine
 10
136.306931
 20
440.985352
 30
0.0
 11
146.306931
 21
440.985352
 31
0.0
  0
ARC
  5
656
330
1F
100
AcDbEntity
  8
0
 62
     7
100
AcDbCircle
 10
97.99617
 20
397.646118
 30
0.0
 40
64.901611328125
100
AcDbArc
 50
41.895052
 51
42.551911
  0
LINE
  5
657
330
1F
100
AcDbEntity
  8
0
 62
     7
100
AcDbLine
 10
136.806931
 20
441.536316
 30
0.0
 11
145.806931
 21
441.536316
 31
0.0
  0
LINE
  5
658
330
1F
100
AcDbEntity
  8
0
 62
     7
100
AcDbLine
 10
145.806931
 20
441.536316
 30
0.0
 11
145.806931
 21
441.700012
 31
0.0
  0
LINE
  5
659
330
1F
100
AcDbEntity
  8
0
 62
     7
100
AcDbLine
 10
146.306931
 20
436.530579
 30
0.0
 11
146.306931
 21
439.354797
 31
0.0
  0
LINE
  5
65A
330
1F
100
AcDbEntity
  8
0
 62
     7
100
AcDbLine
 10
278.106934
 20
449.900024
 30
0.0
 11
278.406952
 21
449.900024
 31
0.0
  0
LINE
  5
65B
330
1F
100
AcDbEntity
  8
0
 62
     7
100
AcDbLine
 10
170.943527
 20
429.0
 30
0.0
 11
171.030136
 21
428.849976
 31
0.0
  0
LINE
  5
65C
330
1F
100
AcDbEntity
  8
0
 62
     7
100
AcDbLine
 10
167.670334
 20
429.0
 30
0.0
 11
167.583725
 21
428.849976
 31
0.0
  0
LINE
  5
65D
330
1F
100
AcDbEntity
  8
0
 62
     7
100
AcDbLine
 10
256.670349
 20
429.0
 30
0.0
 11
256.58374
 21
428.849976
 31
0.0
  0
LINE
  5
65E
330
1F
100
AcDbEntity
  8
0
 62
     7
100
AcDbLine
 10
259.943542
 20
429.0
 30
0.0
 11
260.030151
 21
428.849976
 31
0.0
  0
LINE
  5
65F
330
1F
100
AcDbEntity
  8
0
 62
     7
100
AcDbLine
 10
259.755707
 20
449.325623
 30
0.0
 11
259.781311
 21
449.351257
 31
0.0
  0
POLYLINE
  5
660
330
1F
100
AcDbEntity
  8
0
 62
     7
100
AcDb2dPolyline
 66
     1
 10
0.0
 20
0.0
 30
0.0
  0
VERTEX
  5
661
330
660
100
AcDbEntity
  8
0
100
AcDbVertex
100
AcDb2dVertex
 10
244.993759
 20
449.332947
 30
0.0
  0
VERTEX
  5
662
330
660
100
AcDbEntity
  8
0
100
AcDbVertex
100
AcDb2dVertex
 10
244.996964
 20
449.32312
 30
0.0
  0
VERTEX
  5
663
330
660
100
AcDbEntity
  8
0
100
AcDbVertex
100
AcDb2dVertex
 10
245.004074
 20
449.307007
 30
0.0
  0
VERTEX
  5
664
330
660
100
AcDbEntity
  8
0
100
AcDbVertex
100
AcDb2dVertex
 10
245.00737
 20
449.300537
 30
0.0
  0
VERTEX
  5
665
330
660
100
AcDbEntity
  8
0
100
AcDbVertex
100
AcDb2dVertex
 10
245.008011
 20
449.299072
 30
0.0
  0
VERTEX
  5
666
330
660
100
AcDbEntity
  8
0
100
AcDbVertex
100
AcDb2dVertex
 10
244.99086
 20
449.320557
 30
0.0
  0
VERTEX
  5
667
330
660
100
AcDbEntity
  8
0
100
AcDbVertex
100
AcDb2dVertex
 10
244.98735
 20
449.325684
 30
0.0
  0
VERTEX
  5
668
330
660
100
AcDbEntity
  8
0
100
AcDbVertex
100
AcDb2dVertex
 10
244.989182
 20
449.324463
 30
0.0
  0
VERTEX
  5
669
330
660
100
AcDbEntity
  8
0
100
AcDbVertex
100
AcDb2dVertex
 10
244.99791
 20
449.314209
 30
0.0
  0
VERTEX
  5
66A
330
660
100
AcDbEntity
  8
0
100
AcDbVertex
100
AcDb2dVertex
 10
245.006485
 20
449.302368
 30
0.0
  0
VERTEX
  5
66B
330
660
100
AcDbEntity
  8
0
100
AcDbVertex
100
AcDb2dVertex
 10
245.007278
 20
449.30072
 30
0.0
  0
VERTEX
  5
66C
330
660
100
AcDbEntity
  8
0
100
AcDbVertex
100
AcDb2dVertex
 10
245.007187
 20
449.299561
 30
0.0
  0
VERTEX
  5
66D
330
660
100
AcDbEntity
  8
0
100
AcDbVertex
100
AcDb2dVertex
 10
245.00618
 20
449.299683
 30
0.0
  0
VERTEX
  5
66E
330
660
100
AcDbEntity
  8
0
100
AcDbVertex
100
AcDb2dVertex
 10
245.004562
 20
449.300415
 30
0.0
  0
VERTEX
  5
66F
330
660
100
AcDbEntity
  8
0
100
AcDbVertex
100
AcDb2dVertex
 10
244.992752
 20
449.309021
 30
0.0
  0
VERTEX
  5
670
330
660
100
AcDbEntity
  8
0
100
AcDbVertex
100
AcDb2dVertex
 10
244.982498
 20
449.317749
 30
0.0
  0
VERTEX
  5
671
330
660
100
AcDbEntity
  8
0
100
AcDbVertex
100
AcDb2dVertex
 10
244.980881
 20
449.319397
 30
0.0
  0
VERTEX
  5
672
330
660
100
AcDbEntity
  8
0
100
AcDbVertex
100
AcDb2dVertex
 10
244.986374
 20
449.31604
 30
0.0
  0
VERTEX
  5
673
330
660
100
AcDbEntity
  8
0
100
AcDbVertex
100
AcDb2dVertex
 10
245.007431
 20
449.299744
 30
0.0
  0
VERTEX
  5
674
330
660
100
AcDbEntity
  8
0
100
AcDbVertex
100
AcDb2dVertex
 10
245.008102
 20
449.29895
 30
0.0
  0
VERTEX
  5
675
330
660
100
AcDbEntity
  8
0
100
AcDbVertex
100
AcDb2dVertex
 10
245.006424
 20
449.299561
 30
0.0
  0
VERTEX
  5
676
330
660
100
AcDbEntity
  8
0
100
AcDbVertex
100
AcDb2dVertex
 10
244.999924
 20
449.302856
 30
0.0
  0
VERTEX
  5
677
330
660
100
AcDbEntity
  8
0
100
AcDbVertex
100
AcDb2dVertex
 10
244.98378
 20
449.309998
 30
0.0
  0
VERTEX
  5
678
330
660
100
AcDbEntity
  8
0
100
AcDbVertex
100
AcDb2dVertex
 10
244.974014
 20
449.313171
 30
0.0
  0
SEQEND
  5
679
330
660
100
AcDbEntity
  8
0
 62
     7
  0
POLYLINE
  5
67A
330
1F
100
AcDbEntity
  8
0
 62
     7
100
AcDb2dPolyline
 66
     1
 10
0.0
 20
0.0
 30
0.0
  0
VERTEX
  5
67B
330
67A
100
AcDbEntity
  8
0
100
AcDbVertex
100
AcDb2dVertex
 10
165.993759
 20
449.332947
 30
0.0
  0
VERTEX
  5
67C
330
67A
100
AcDbEntity
  8
0
100
AcDbVertex
100
AcDb2dVertex
 10
165.996964
 20
449.32312
 30
0.0
  0
VERTEX
  5
67D
330
67A
100
AcDbEntity
  8
0
100
AcDbVertex
100
AcDb2dVertex
 10
166.004074
 20
449.307007
 30
0.0
  0
VERTEX
  5
67E
330
67A
100
AcDbEntity
  8
0
100
AcDbVertex
100
AcDb2dVertex
 10
166.00737
 20
449.300537
 30
0.0
  0
VERTEX
  5
67F
330
67A
100
AcDbEntity
  8
0
100
AcDbVertex
100
AcDb2dVertex
 10
166.008011
 20
449.299072
 30
0.0
  0
VERTEX
  5
680
330
67A
100
AcDbEntity
  8
0
100
AcDbVertex
100
AcDb2dVertex
 10
165.99086
 20
449.320557
 30
0.0
  0
VERTEX
  5
681
330
67A
100
AcDbEntity
  8
0
100
AcDbVertex
100
AcDb2dVertex
 10
165.98735
 20
449.325684
 30
0.0
  0
VERTEX
  5
682
330
67A
100
AcDbEntity
  8
0
100
AcDbVertex
100
AcDb2dVertex
 10
165.989151
 20
449.324463
 30
0.0
  0
VERTEX
  5
683
330
67A
100
AcDbEntity
  8
0
100
AcDbVertex
100
AcDb2dVertex
 10
165.99791
 20
449.314209
 30
0.0
  0
VERTEX
  5
684
330
67A
100
AcDbEntity
  8
0
100
AcDbVertex
100
AcDb2dVertex
 10
166.006485
 20
449.302368
 30
0.0
  0
VERTEX
  5
685
330
67A
100
AcDbEntity
  8
0
100
AcDbVertex
100
AcDb2dVertex
 10
166.007248
 20
449.30072
 30
0.0
  0
VERTEX
  5
686
330
67A
100
AcDbEntity
  8
0
100
AcDbVertex
100
AcDb2dVertex
 10
166.007156
 20
449.299561
 30
0.0
  0
VERTEX
  5
687
330
67A
100
AcDbEntity
  8
0
100
AcDbVertex
100
AcDb2dVertex
 10
166.004562
 20
449.300415
 30
0.0
  0
VERTEX
  5
688
330
67A
100
AcDbEntity
  8
0
100
AcDbVertex
100
AcDb2dVertex
 10
165.992722
 20
449.309021
 30
0.0
  0
VERTEX
  5
689
330
67A
100
AcDbEntity
  8
0
100
AcDbVertex
100
AcDb2dVertex
 10
165.982498
 20
449.317749
 30
0.0
  0
VERTEX
  5
68A
330
67A
100
AcDbEntity
  8
0
100
AcDbVertex
100
AcDb2dVertex
 10
165.98085
 20
449.319397
 30
0.0
  0
VERTEX
  5
68B
330
67A
100
AcDbEntity
  8
0
100
AcDbVertex
100
AcDb2dVertex
 10
165.986374
 20
449.31604
 30
0.0
  0
VERTEX
  5
68C
330
67A
100
AcDbEntity
  8
0
100
AcDbVertex
100
AcDb2dVertex
 10
166.007401
 20
449.299744
 30
0.0
  0
VERTEX
  5
68D
330
67A
100
AcDbEntity
  8
0
100
AcDbVertex
100
AcDb2dVertex
 10
166.008102
 20
449.29895
 30
0.0
  0
VERTEX
  5
68E
330
67A
100
AcDbEntity
  8
0
100
AcDbVertex
100
AcDb2dVertex
 10
166.006393
 20
449.299561
 30
0.0
  0
VERTEX
  5
68F
330
67A
100
AcDbEntity
  8
0
100
AcDbVertex
100
AcDb2dVertex
 10
165.999924
 20
449.302856
 30
0.0
  0
VERTEX
  5
690
330
67A
100
AcDbEntity
  8
0
100
AcDbVertex
100
AcDb2dVertex
 10
165.98378
 20
449.309998
 30
0.0
  0
VERTEX
  5
691
330
67A
100
AcDbEntity
  8
0
100
AcDbVertex
100
AcDb2dVertex
 10
165.974014
 20
449.313171
 30
0.0
  0
SEQEND
  5
692
330
67A
100
AcDbEntity
  8
0
 62
     7
  0
LINE
  5
693
330
1F
100
AcDbEntity
  8
0
 62
     7
100
AcDbLine
 10
150.755692
 20
449.325623
 30
0.0
 11
150.781296
 21
449.351257
 31
0.0
  0
LINE
  5
694
330
1F
100
AcDbEntity
  8
0
 62
     7
100
AcDbLine
 10
171.030136
 20
428.599976
 30
0.0
 11
171.030136
 21
428.849976
 31
0.0
  0
LINE
  5
695
330
1F
100
AcDbEntity
  8
0
 62
     7
100
AcDbLine
 10
167.583725
 20
428.599976
 30
0.0
 11
167.583725
 21
428.849976
 31
0.0
  0
LINE
  5
696
330
1F
100
AcDbEntity
  8
0
 62
     7
100
AcDbLine
 10
256.58374
 20
428.849976
 30
0.0
 11
256.58374
 21
428.599976
 31
0.0
  0
LINE
  5
697
330
1F
100
AcDbEntity
  8
0
 62
     7
100
AcDbLine
 10
260.030151
 20
428.849976
 30
0.0
 11
260.030151
 21
428.599976
 31
0.0
  0
LINE
  5
698
330
1F
100
AcDbEntity
  8
0
 62
     7
100
AcDbLine
 10
149.206924
 20
449.900024
 30
0.0
 11
149.506912
 21
449.900024
 31
0.0
  0
ARC
  5
699
330
1F
100
AcDbEntity
  8
0
 62
     7
100
AcDbCircle
 10
114.306931
 20
359.900024
 30
0.0
 40
78.4000015258789
100
AcDbArc
 50
92.192971
 51
179.999991
  0
ARC
  5
69A
330
1F
100
AcDbEntity
  8
0
 62
     7
100
AcDbCircle
 10
114.306976
 20
359.903809
 30
0.0
 40
78.39616394042969
100
AcDbArc
 50
90.00003
 51
90.730894
  0
ARC
  5
69B
330
1F
100
AcDbEntity
  8
0
 62
     7
100
AcDbCircle
 10
114.306931
 20
359.900024
 30
0.0
 40
71.5999984741211
100
AcDbArc
 50
92.401354
 51
180.000009
  0
ARC
  5
69C
330
1F
100
AcDbEntity
  8
0
 62
     7
100
AcDbCircle
 10
114.306976
 20
359.902222
 30
0.0
 40
71.59779357910156
100
AcDbArc
 50
90.000037
 51
90.800303
  0
LINE
  5
69D
330
1F
100
AcDbEntity
  8
0
 62
     7
100
AcDbLine
 10
115.506927
 20
438.299988
 30
0.0
 11
116.506927
 21
438.299988
 31
0.0
  0
LINE
  5
69E
330
1F
100
AcDbEntity
  8
0
 62
     7
100
AcDbLine
 10
117.706924
 20
438.299988
 30
0.0
 11
118.706924
 21
438.299988
 31
0.0
  0
LINE
  5
69F
330
1F
100
AcDbEntity
  8
0
 62
     7
100
AcDbLine
 10
35.906925
 20
349.900024
 30
0.0
 11
35.906925
 21
359.900024
 31
0.0
  0
LINE
  5
6A0
330
1F
100
AcDbEntity
  8
0
 62
     7
100
AcDbLine
 10
115.506927
 20
431.5
 30
0.0
 11
116.506927
 21
431.5
 31
0.0
  0
LINE
  5
6A1
330
1F
100
AcDbEntity
  8
0
 62
     7
100
AcDbLine
 10
117.706924
 20
431.5
 30
0.0
 11
118.706924
 21
431.5
 31
0.0
  0
LINE
  5
6A2
330
1F
100
AcDbEntity
  8
0
 62
     7
100
AcDbLine
 10
42.706928
 20
349.900024
 30
0.0
 11
42.706928
 21
359.900024
 31
0.0
  0
LINE
  5
6A3
330
1F
100
AcDbEntity
  8
0
 62
     7
100
AcDbLine
 10
111.306931
 20
439.150024
 30
0.0
 11
113.306931
 21
439.275024
 31
0.0
  0
LINE
  5
6A4
330
1F
100
AcDbEntity
  8
0
 62
     7
100
AcDbLine
 10
114.306931
 20
439.337524
 30
0.0
 11
115.506927
 21
439.412476
 31
0.0
  0
LINE
  5
6A5
330
1F
100
AcDbEntity
  8
0
 62
     7
100
AcDbLine
 10
116.506927
 20
439.474976
 30
0.0
 11
117.706924
 21
439.549988
 31
0.0
  0
LINE
  5
6A6
330
1F
100
AcDbEntity
  8
0
 62
     7
100
AcDbLine
 10
118.706924
 20
439.612488
 30
0.0
 11
123.306931
 21
439.900024
 31
0.0
  0
LINE
  5
6A7
330
1F
100
AcDbEntity
  8
0
 62
     7
100
AcDbLine
 10
111.306931
 20
430.650024
 30
0.0
 11
113.306931
 21
430.525024
 31
0.0
  0
LINE
  5
6A8
330
1F
100
AcDbEntity
  8
0
 62
     7
100
AcDbLine
 10
114.306931
 20
430.462524
 30
0.0
 11
115.506927
 21
430.387512
 31
0.0
  0
LINE
  5
6A9
330
1F
100
AcDbEntity
  8
0
 62
     7
100
AcDbLine
 10
116.506927
 20
430.325012
 30
0.0
 11
117.706924
 21
430.25
 31
0.0
  0
LINE
  5
6AA
330
1F
100
AcDbEntity
  8
0
 62
     7
100
AcDbLine
 10
118.706924
 20
430.1875
 30
0.0
 11
123.306931
 21
429.900024
 31
0.0
  0
LINE
  5
6AB
330
1F
100
AcDbEntity
  8
0
 62
     7
100
AcDbLine
 10
123.306931
 20
439.900024
 30
0.0
 11
124.306931
 21
440.200012
 31
0.0
  0
LINE
  5
6AC
330
1F
100
AcDbEntity
  8
0
 62
     7
100
AcDbLine
 10
123.306931
 20
429.900024
 30
0.0
 11
124.306931
 21
429.599976
 31
0.0
  0
LINE
  5
6AD
330
1F
100
AcDbEntity
  8
0
 62
     7
100
AcDbLine
 10
124.306931
 20
429.900024
 30
0.0
 11
129.306931
 21
429.900024
 31
0.0
  0
LINE
  5
6AE
330
1F
100
AcDbEntity
  8
0
 62
     7
100
AcDbLine
 10
124.306931
 20
439.900024
 30
0.0
 11
129.306931
 21
439.900024
 31
0.0
  0
ARC
  5
6AF
330
1F
100
AcDbEntity
  8
0
 62
     7
100
AcDbCircle
 10
134.61351
 20
431.799988
 30
0.0
 40
6.000001907348633
100
AcDbArc
 50
207.81814
 51
212.230947
  0
ARC
  5
6B0
330
1F
100
AcDbEntity
  8
0
 62
     7
100
AcDbCircle
 10
134.61351
 20
438.0
 30
0.0
 40
6.000001907348633
100
AcDbArc
 50
147.769053
 51
152.18186
  0
LINE
  5
6B1
330
1F
100
AcDbEntity
  8
0
 62
     7
100
AcDbLine
 10
129.538101
 20
428.599976
 30
0.0
 11
136.306931
 21
428.599976
 31
0.0
  0
LINE
  5
6B2
330
1F
100
AcDbEntity
  8
0
 62
     7
100
AcDbLine
 10
129.538101
 20
441.200012
 30
0.0
 11
136.306931
 21
441.200012
 31
0.0
  0
LINE
  5
6B3
330
1F
100
AcDbEntity
  8
0
 62
     7
100
AcDbLine
 10
136.306931
 20
428.599976
 30
0.0
 11
136.806931
 21
428.099976
 31
0.0
  0
LINE
  5
6B4
330
1F
100
AcDbEntity
  8
0
 62
     7
100
AcDbLine
 10
136.306931
 20
441.200012
 30
0.0
 11
136.806931
 21
441.700012
 31
0.0
  0
LINE
  5
6B5
330
1F
100
AcDbEntity
  8
0
 62
     7
100
AcDbLine
 10
146.306931
 20
428.599976
 30
0.0
 11
147.306931
 21
428.599976
 31
0.0
  0
LINE
  5
6B6
330
1F
100
AcDbEntity
  8
0
 62
     7
100
AcDbLine
 10
146.306931
 20
441.200012
 30
0.0
 11
147.306931
 21
441.200012
 31
0.0
  0
LINE
  5
6B7
330
1F
100
AcDbEntity
  8
0
 62
     7
100
AcDbLine
 10
136.806931
 20
428.099976
 30
0.0
 11
145.806931
 21
428.099976
 31
0.0
  0
LINE
  5
6B8
330
1F
100
AcDbEntity
  8
0
 62
     7
100
AcDbLine
 10
136.806931
 20
441.700012
 30
0.0
 11
145.806931
 21
441.700012
 31
0.0
  0
LINE
  5
6B9
330
1F
100
AcDbEntity
  8
0
 62
     7
100
AcDbLine
 10
146.306931
 20
441.200012
 30
0.0
 11
145.806931
 21
441.700012
 31
0.0
  0
LINE
  5
6BA
330
1F
100
AcDbEntity
  8
0
 62
     7
100
AcDbLine
 10
146.306931
 20
428.599976
 30
0.0
 11
145.806931
 21
428.099976
 31
0.0
  0
LINE
  5
6BB
330
1F
100
AcDbEntity
  8
0
 62
     7
100
AcDbLine
 10
3.792995
 20
452.599976
 30
0.0
 11
3.792995
 21
465.700012
 31
0.0
  0
ARC
  5
6BC
330
1F
100
AcDbEntity
  8
0
 62
     7
100
AcDbCircle
 10
2.992992
 20
452.599976
 30
0.0
 40
0.800000011920929
100
AcDbArc
 50
269.999997
 51
360.0
  0
LINE
  5
6BD
330
1F
100
AcDbEntity
  8
0
 62
     7
100
AcDbLine
 10
3.663704
 20
465.829285
 30
0.0
 11
3.792995
 21
465.700012
 31
0.0
  0
ARC
  5
6BE
330
1F
100
AcDbEntity
  8
0
 62
     7
100
AcDbCircle
 10
1.792995
 20
452.599976
 30
0.0
 40
0.800000011920929
100
AcDbArc
 50
241.044838
 51
269.999997
  0
LINE
  5
6BF
330
1F
100
AcDbEntity
  8
0
 62
     7
100
AcDbLine
 10
2.992992
 20
451.799988
 30
0.0
 11
1.792995
 21
451.799988
 31
0.0
  0
ARC
  5
6C0
330
1F
100
AcDbEntity
  8
0
 62
     7
100
AcDbCircle
 10
3.734417
 20
465.900024
 30
0.0
 40
0.1000000014901161
100
AcDbArc
 50
135.0
 51
225.0
  0
LINE
  5
6C1
330
1F
100
AcDbEntity
  8
0
 62
     7
100
AcDbLine
 10
3.792995
 20
466.099976
 30
0.0
 11
3.663704
 21
465.970703
 31
0.0
  0
LINE
  5
6C2
330
1F
100
AcDbEntity
  8
0
 62
     7
100
AcDbLine
 10
3.792995
 20
466.099976
 30
0.0
 11
3.792995
 21
466.799988
 31
0.0
  0
LINE
  5
6C3
330
1F
100
AcDbEntity
  8
0
 62
     7
100
AcDbLine
 10
3.663704
 20
466.92926
 30
0.0
 11
3.792995
 21
466.799988
 31
0.0
  0
ARC
  5
6C4
330
1F
100
AcDbEntity
  8
0
 62
     7
100
AcDbCircle
 10
3.734417
 20
467.0
 30
0.0
 40
0.1000000014901161
100
AcDbArc
 50
135.0
 51
225.0
  0
LINE
  5
6C5
330
1F
100
AcDbEntity
  8
0
 62
     7
100
AcDbLine
 10
3.792995
 20
467.200012
 30
0.0
 11
3.663704
 21
467.07074
 31
0.0
  0
LINE
  5
6C6
330
1F
100
AcDbEntity
  8
0
 62
     7
100
AcDbLine
 10
3.792995
 20
467.200012
 30
0.0
 11
3.792995
 21
467.900024
 31
0.0
  0
LINE
  5
6C7
330
1F
100
AcDbEntity
  8
0
 62
     7
100
AcDbLine
 10
3.663704
 20
468.029297
 30
0.0
 11
3.792995
 21
467.900024
 31
0.0
  0
ARC
  5
6C8
330
1F
100
AcDbEntity
  8
0
 62
     7
100
AcDbCircle
 10
3.734417
 20
468.099976
 30
0.0
 40
0.1000000014901161
100
AcDbArc
 50
135.0
 51
225.0
  0
LINE
  5
6C9
330
1F
100
AcDbEntity
  8
0
 62
     7
100
AcDbLine
 10
3.792995
 20
468.299988
 30
0.0
 11
3.663704
 21
468.170715
 31
0.0
  0
LINE
  5
6CA
330
1F
100
AcDbEntity
  8
0
 62
     7
100
AcDbLine
 10
3.792995
 20
468.299988
 30
0.0
 11
3.792995
 21
469.0
 31
0.0
  0
LINE
  5
6CB
330
1F
100
AcDbEntity
  8
0
 62
     7
100
AcDbLine
 10
3.663704
 20
469.129272
 30
0.0
 11
3.792995
 21
469.0
 31
0.0
  0
ARC
  5
6CC
330
1F
100
AcDbEntity
  8
0
 62
     7
100
AcDbCircle
 10
3.734417
 20
469.200012
 30
0.0
 40
0.1000000014901161
100
AcDbArc
 50
135.0
 51
225.0
  0
LINE
  5
6CD
330
1F
100
AcDbEntity
  8
0
 62
     7
100
AcDbLine
 10
3.792995
 20
469.400024
 30
0.0
 11
3.663704
 21
469.270691
 31
0.0
  0
LINE
  5
6CE
330
1F
100
AcDbEntity
  8
0
 62
     7
100
AcDbLine
 10
3.792995
 20
469.400024
 30
0.0
 11
3.792995
 21
470.099976
 31
0.0
  0
LINE
  5
6CF
330
1F
100
AcDbEntity
  8
0
 62
     7
100
AcDbLine
 10
3.663704
 20
470.229309
 30
0.0
 11
3.792995
 21
470.099976
 31
0.0
  0
ARC
  5
6D0
330
1F
100
AcDbEntity
  8
0
 62
     7
100
AcDbCircle
 10
3.734417
 20
470.299988
 30
0.0
 40
0.1000000014901161
100
AcDbArc
 50
135.0
 51
225.0
  0
LINE
  5
6D1
330
1F
100
AcDbEntity
  8
0
 62
     7
100
AcDbLine
 10
3.792995
 20
470.5
 30
0.0
 11
3.663704
 21
470.370728
 31
0.0
  0
LINE
  5
6D2
330
1F
100
AcDbEntity
  8
0
 62
     7
100
AcDbLine
 10
3.792995
 20
470.5
 30
0.0
 11
3.792995
 21
471.200012
 31
0.0
  0
LINE
  5
6D3
330
1F
100
AcDbEntity
  8
0
 62
     7
100
AcDbLine
 10
3.663704
 20
471.329285
 30
0.0
 11
3.792995
 21
471.200012
 31
0.0
  0
ARC
  5
6D4
330
1F
100
AcDbEntity
  8
0
 62
     7
100
AcDbCircle
 10
3.734417
 20
471.400024
 30
0.0
 40
0.1000000014901161
100
AcDbArc
 50
135.0
 51
225.0
  0
LINE
  5
6D5
330
1F
100
AcDbEntity
  8
0
 62
     7
100
AcDbLine
 10
3.792995
 20
471.599976
 30
0.0
 11
3.663704
 21
471.470703
 31
0.0
  0
LINE
  5
6D6
330
1F
100
AcDbEntity
  8
0
 62
     7
100
AcDbLine
 10
3.792995
 20
471.599976
 30
0.0
 11
3.792995
 21
472.299988
 31
0.0
  0
LINE
  5
6D7
330
1F
100
AcDbEntity
  8
0
 62
     7
100
AcDbLine
 10
3.663704
 20
472.42926
 30
0.0
 11
3.792995
 21
472.299988
 31
0.0
  0
ARC
  5
6D8
330
1F
100
AcDbEntity
  8
0
 62
     7
100
AcDbCircle
 10
3.734417
 20
472.5
 30
0.0
 40
0.1000000014901161
100
AcDbArc
 50
135.0
 51
225.0
  0
LINE
  5
6D9
330
1F
100
AcDbEntity
  8
0
 62
     7
100
AcDbLine
 10
3.792995
 20
472.700012
 30
0.0
 11
3.663704
 21
472.57074
 31
0.0
  0
LINE
  5
6DA
330
1F
100
AcDbEntity
  8
0
 62
     7
100
AcDbLine
 10
3.792995
 20
472.700012
 30
0.0
 11
3.792995
 21
473.400024
 31
0.0
  0
LINE
  5
6DB
330
1F
100
AcDbEntity
  8
0
 62
     7
100
AcDbLine
 10
3.663704
 20
473.529297
 30
0.0
 11
3.792995
 21
473.400024
 31
0.0
  0
ARC
  5
6DC
330
1F
100
AcDbEntity
  8
0
 62
     7
100
AcDbCircle
 10
3.734417
 20
473.599976
 30
0.0
 40
0.1000000014901161
100
AcDbArc
 50
135.0
 51
225.0
  0
LINE
  5
6DD
330
1F
100
AcDbEntity
  8
0
 62
     7
100
AcDbLine
 10
3.792995
 20
473.799988
 30
0.0
 11
3.663704
 21
473.670715
 31
0.0
  0
LINE
  5
6DE
330
1F
100
AcDbEntity
  8
0
 62
     7
100
AcDbLine
 10
3.792995
 20
473.799988
 30
0.0
 11
3.792995
 21
474.5
 31
0.0
  0
LINE
  5
6DF
330
1F
100
AcDbEntity
  8
0
 62
     7
100
AcDbLine
 10
3.663704
 20
474.629272
 30
0.0
 11
3.792995
 21
474.5
 31
0.0
  0
ARC
  5
6E0
330
1F
100
AcDbEntity
  8
0
 62
     7
100
AcDbCircle
 10
3.734417
 20
474.700012
 30
0.0
 40
0.1000000014901161
100
AcDbArc
 50
135.0
 51
225.0
  0
LINE
  5
6E1
330
1F
100
AcDbEntity
  8
0
 62
     7
100
AcDbLine
 10
3.792995
 20
474.900024
 30
0.0
 11
3.663704
 21
474.770691
 31
0.0
  0
LINE
  5
6E2
330
1F
100
AcDbEntity
  8
0
 62
     7
100
AcDbLine
 10
3.792995
 20
474.900024
 30
0.0
 11
3.792995
 21
479.724243
 31
0.0
  0
LINE
  5
6E3
330
1F
100
AcDbEntity
  8
0
 62
     7
100
AcDbLine
 10
3.305126
 20
480.212158
 30
0.0
 11
3.792995
 21
479.724243
 31
0.0
  0
ARC
  5
6E4
330
1F
100
AcDbEntity
  8
0
 62
     7
100
AcDbCircle
 10
3.092995
 20
480.0
 30
0.0
 40
0.300000011920929
100
AcDbArc
 50
45.000001
 51
106.874504
  0
LINE
  5
6E5
330
1F
100
AcDbEntity
  8
0
 62
     7
100
AcDbLine
 10
3.792995
 20
457.799988
 30
0.0
 11
3.992992
 21
457.799988
 31
0.0
  0
LINE
  5
6E6
330
1F
100
AcDbEntity
  8
0
 62
     7
100
AcDbLine
 10
3.992992
 20
457.299988
 30
0.0
 11
3.992992
 21
457.799988
 31
0.0
  0
LINE
  5
6E7
330
1F
100
AcDbEntity
  8
0
 62
     7
100
AcDbLine
 10
3.992992
 20
457.299988
 30
0.0
 11
3.992992
 21
453.299988
 31
0.0
  0
LINE
  5
6E8
330
1F
100
AcDbEntity
  8
0
 62
     7
100
AcDbLine
 10
3.992992
 20
452.799988
 30
0.0
 11
3.992992
 21
453.299988
 31
0.0
  0
LINE
  5
6E9
330
1F
100
AcDbEntity
  8
0
 62
     7
100
AcDbLine
 10
3.792995
 20
452.799988
 30
0.0
 11
3.992992
 21
452.799988
 31
0.0
  0
ARC
  5
6EA
330
1F
100
AcDbEntity
  8
0
 62
     7
100
AcDbCircle
 10
-0.207005
 20
480.099976
 30
0.0
 40
3.0
100
AcDbArc
 50
8.262821
 51
90.000003
  0
LINE
  5
6EB
330
1F
100
AcDbEntity
  8
0
 62
     7
100
AcDbLine
 10
4.042995
 20
453.299988
 30
0.0
 11
4.042995
 21
453.430359
 31
0.0
  0
LINE
  5
6EC
330
1F
100
AcDbEntity
  8
0
 62
     7
100
AcDbLine
 10
4.042995
 20
456.930359
 30
0.0
 11
4.042995
 21
453.430359
 31
0.0
  0
LINE
  5
6ED
330
1F
100
AcDbEntity
  8
0
 62
     7
100
AcDbLine
 10
3.992992
 20
457.200012
 30
0.0
 11
4.042995
 21
457.200012
 31
0.0
  0
LINE
  5
6EE
330
1F
100
AcDbEntity
  8
0
 62
     7
100
AcDbLine
 10
4.042995
 20
456.930359
 30
0.0
 11
4.042995
 21
457.200012
 31
0.0
  0
LINE
  5
6EF
330
1F
100
AcDbEntity
  8
0
 62
     7
100
AcDbLine
 10
3.446545
 20
479.846436
 30
0.0
 11
2.604473
 21
480.688538
 31
0.0
  0
ARC
  5
6F0
330
1F
100
AcDbEntity
  8
0
 62
     7
100
AcDbCircle
 10
3.092995
 20
479.49292
 30
0.0
 40
0.5
100
AcDbArc
 50
0.0
 51
45.000001
  0
LINE
  5
6F1
330
1F
100
AcDbEntity
  8
0
 62
     7
100
AcDbLine
 10
3.592995
 20
452.400024
 30
0.0
 11
3.592995
 21
479.49292
 31
0.0
  0
ARC
  5
6F2
330
1F
100
AcDbEntity
  8
0
 62
     7
100
AcDbCircle
 10
3.092995
 20
452.400024
 30
0.0
 40
0.5
100
AcDbArc
 50
269.999997
 51
360.0
  0
LINE
  5
6F3
330
1F
100
AcDbEntity
  8
0
 62
     7
100
AcDbLine
 10
-12.507006
 20
451.900024
 30
0.0
 11
3.092995
 21
451.900024
 31
0.0
  0
ARC
  5
6F4
330
1F
100
AcDbEntity
  8
0
 62
     7
100
AcDbCircle
 10
-12.507006
 20
452.400024
 30
0.0
 40
0.5
100
AcDbArc
 50
180.000009
 51
269.999997
  0
LINE
  5
6F5
330
1F
100
AcDbEntity
  8
0
 62
     7
100
AcDbLine
 10
-13.007006
 20
479.49292
 30
0.0
 11
-13.007006
 21
452.400024
 31
0.0
  0
LINE
  5
6F6
330
1F
100
AcDbEntity
  8
0
 62
     7
100
AcDbLine
 10
-13.807007
 20
461.799988
 30
0.0
 11
-13.807007
 21
463.799988
 31
0.0
  0
LINE
  5
6F7
330
1F
100
AcDbEntity
  8
0
 62
     7
100
AcDbLine
 10
-13.807007
 20
461.799988
 30
0.0
 11
-13.00701
 21
461.799988
 31
0.0
  0
LINE
  5
6F8
330
1F
100
AcDbEntity
  8
0
 62
     7
100
AcDbLine
 10
-0.207005
 20
483.099976
 30
0.0
 11
-9.207006
 21
483.099976
 31
0.0
  0
ARC
  5
6F9
330
1F
100
AcDbEntity
  8
0
 62
     7
100
AcDbCircle
 10
-9.207006
 20
480.099976
 30
0.0
 40
3.0
100
AcDbArc
 50
90.000003
 51
171.737184
  0
ARC
  5
6FA
330
1F
100
AcDbEntity
  8
0
 62
     7
100
AcDbCircle
 10
2.639828
 20
480.723877
 30
0.0
 40
0.0500000007450581
100
AcDbArc
 50
189.204208
 51
225.0
  0
ARC
  5
6FB
330
1F
100
AcDbEntity
  8
0
 62
     7
100
AcDbCircle
 10
-12.507006
 20
479.49292
 30
0.0
 40
0.5
100
AcDbArc
 50
135.0
 51
180.000009
  0
LINE
  5
6FC
330
1F
100
AcDbEntity
  8
0
 62
     7
100
AcDbLine
 10
-13.807007
 20
478.571106
 30
0.0
 11
-13.807007
 21
463.799988
 31
0.0
  0
LINE
  5
6FD
330
1F
100
AcDbEntity
  8
0
 62
     7
100
AcDbLine
 10
-13.807007
 20
478.571106
 30
0.0
 11
-13.807007
 21
478.613342
 31
0.0
  0
LINE
  5
6FE
330
1F
100
AcDbEntity
  8
0
 62
     7
100
AcDbLine
 10
-13.807007
 20
478.613342
 30
0.0
 11
-13.807007
 21
483.099976
 31
0.0
  0
LINE
  5
6FF
330
1F
100
AcDbEntity
  8
0
 62
     7
100
AcDbLine
 10
-13.607006
 20
461.799988
 30
0.0
 11
-13.607006
 21
461.299988
 31
0.0
  0
LINE
  5
700
330
1F
100
AcDbEntity
  8
0
 62
     7
100
AcDbLine
 10
-13.007008
 20
461.299988
 30
0.0
 11
-13.607006
 21
461.299988
 31
0.0
  0
LINE
  5
701
330
1F
100
AcDbEntity
  8
0
 62
     7
100
AcDbLine
 10
-13.607006
 20
452.599976
 30
0.0
 11
-13.607006
 21
461.299988
 31
0.0
  0
ARC
  5
702
330
1F
100
AcDbEntity
  8
0
 62
     7
100
AcDbCircle
 10
-12.807007
 20
452.599976
 30
0.0
 40
0.800000011920929
100
AcDbArc
 50
180.000009
 51
269.999997
  0
LINE
  5
703
330
1F
100
AcDbEntity
  8
0
 62
     7
100
AcDbLine
 10
-12.807007
 20
451.799988
 30
0.0
 11
-11.607006
 21
451.799988
 31
0.0
  0
ARC
  5
704
330
1F
100
AcDbEntity
  8
0
 62
     7
100
AcDbCircle
 10
-11.607006
 20
452.599976
 30
0.0
 40
0.800000011920929
100
AcDbArc
 50
269.999997
 51
298.955164
  0
LINE
  5
705
330
1F
100
AcDbEntity
  8
0
 62
     7
100
AcDbLine
 10
-12.018484
 20
480.688538
 30
0.0
 11
-12.86056
 21
479.846436
 31
0.0
  0
ARC
  5
706
330
1F
100
AcDbEntity
  8
0
 62
     7
100
AcDbCircle
 10
-12.053841
 20
480.723877
 30
0.0
 40
0.0500000007450581
100
AcDbArc
 50
314.999992
 51
350.795784
  0
ARC
  5
707
330
1F
100
AcDbEntity
  8
0
 62
     7
100
AcDbCircle
 10
-9.43796
 20
480.299988
 30
0.0
 40
2.599999904632568
100
AcDbArc
 50
90.000003
 51
170.795792
  0
LINE
  5
708
330
1F
100
AcDbEntity
  8
0
 62
     7
100
AcDbLine
 10
0.023945
 20
482.900024
 30
0.0
 11
-9.43796
 21
482.900024
 31
0.0
  0
ARC
  5
709
330
1F
100
AcDbEntity
  8
0
 62
     7
100
AcDbCircle
 10
0.023945
 20
480.299988
 30
0.0
 40
2.599999904632568
100
AcDbArc
 50
9.20421
 51
90.000003
  0
CIRCLE
  5
70A
330
1F
100
AcDbEntity
  8
0
 62
     7
100
AcDbCircle
 10
-4.707006
 20
460.099976
 30
0.0
 40
5.150000095367432
  0
POLYLINE
  5
70B
330
1F
100
AcDbEntity
  8
0
 62
     7
100
AcDb2dPolyline
 66
     1
 10
0.0
 20
0.0
 30
0.0
  0
VERTEX
  5
70C
330
70B
100
AcDbEntity
  8
0
100
AcDbVertex
100
AcDb2dVertex
 10
-13.307007
 20
480.010193
 30
0.0
  0
VERTEX
  5
70D
330
70B
100
AcDbEntity
  8
0
100
AcDbVertex
100
AcDb2dVertex
 10
-13.310875
 20
479.912903
 30
0.0
  0
VERTEX
  5
70E
330
70B
100
AcDbEntity
  8
0
100
AcDbVertex
100
AcDb2dVertex
 10
-13.322472
 20
479.809448
 30
0.0
  0
VERTEX
  5
70F
330
70B
100
AcDbEntity
  8
0
100
AcDbVertex
100
AcDb2dVertex
 10
-13.341824
 20
479.700073
 30
0.0
  0
VERTEX
  5
710
330
70B
100
AcDbEntity
  8
0
100
AcDbVertex
100
AcDb2dVertex
 10
-13.369017
 20
479.5849
 30
0.0
  0
VERTEX
  5
711
330
70B
100
AcDbEntity
  8
0
100
AcDbVertex
100
AcDb2dVertex
 10
-13.404209
 20
479.463989
 30
0.0
  0
VERTEX
  5
712
330
70B
100
AcDbEntity
  8
0
100
AcDbVertex
100
AcDb2dVertex
 10
-13.447662
 20
479.337341
 30
0.0
  0
VERTEX
  5
713
330
70B
100
AcDbEntity
  8
0
100
AcDbVertex
100
AcDb2dVertex
 10
-13.499746
 20
479.204895
 30
0.0
  0
VERTEX
  5
714
330
70B
100
AcDbEntity
  8
0
100
AcDbVertex
100
AcDb2dVertex
 10
-13.560974
 20
479.066406
 30
0.0
  0
VERTEX
  5
715
330
70B
100
AcDbEntity
  8
0
100
AcDbVertex
100
AcDb2dVertex
 10
-13.632004
 20
478.921814
 30
0.0
  0
VERTEX
  5
716
330
70B
100
AcDbEntity
  8
0
100
AcDbVertex
100
AcDb2dVertex
 10
-13.713673
 20
478.770874
 30
0.0
  0
VERTEX
  5
717
330
70B
100
AcDbEntity
  8
0
100
AcDbVertex
100
AcDb2dVertex
 10
-13.807007
 20
478.613342
 30
0.0
  0
SEQEND
  5
718
330
70B
100
AcDbEntity
  8
0
 62
     7
  0
LINE
  5
719
330
1F
100
AcDbEntity
  8
0
 62
     7
100
AcDbLine
 10
-13.307007
 20
480.010193
 30
0.0
 11
-13.307007
 21
483.599976
 31
0.0
  0
LINE
  5
71A
330
1F
100
AcDbEntity
  8
0
 62
     7
100
AcDbLine
 10
-12.207006
 20
483.600342
 30
0.0
 11
-12.207006
 21
488.739868
 31
0.0
  0
LINE
  5
71B
330
1F
100
AcDbEntity
  8
0
 62
     7
100
AcDbLine
 10
-12.207006
 20
491.099976
 30
0.0
 11
-12.207006
 21
488.739868
 31
0.0
  0
LINE
  5
71C
330
1F
100
AcDbEntity
  8
0
 62
     7
100
AcDbLine
 10
-12.207006
 20
480.5
 30
0.0
 11
-12.207006
 21
483.599976
 31
0.0
  0
CIRCLE
  5
71D
330
1F
100
AcDbEntity
  8
0
 62
     7
100
AcDbCircle
 10
-4.707006
 20
460.099976
 30
0.0
 40
4.150000095367432
  0
LINE
  5
71E
330
1F
100
AcDbEntity
  8
0
 62
     7
100
AcDbLine
 10
-13.307007
 20
488.739868
 30
0.0
 11
-12.207006
 21
488.739868
 31
0.0
  0
LINE
  5
71F
330
1F
100
AcDbEntity
  8
0
 62
     7
100
AcDbLine
 10
-13.807007
 20
483.100708
 30
0.0
 11
-13.807007
 21
488.172119
 31
0.0
  0
LINE
  5
720
330
1F
100
AcDbEntity
  8
0
 62
     7
100
AcDbLine
 10
-13.307007
 20
488.739868
 30
0.0
 11
-13.807007
 21
488.172119
 31
0.0
  0
LINE
  5
721
330
1F
100
AcDbEntity
  8
0
 62
     7
100
AcDbLine
 10
-13.307007
 20
491.099976
 30
0.0
 11
-13.307007
 21
488.739868
 31
0.0
  0
LINE
  5
722
330
1F
100
AcDbEntity
  8
0
 62
     7
100
AcDbLine
 10
-13.807007
 20
490.599976
 30
0.0
 11
-13.807007
 21
488.172119
 31
0.0
  0
ARC
  5
723
330
1F
100
AcDbEntity
  8
0
 62
     7
100
AcDbCircle
 10
-4.707006
 20
460.099976
 30
0.0
 40
3.75
100
AcDbArc
 50
350.018317
 51
9.981683
  0
ARC
  5
724
330
1F
100
AcDbEntity
  8
0
 62
     7
100
AcDbCircle
 10
-4.707006
 20
460.099976
 30
0.0
 40
3.75
100
AcDbArc
 50
189.981688
 51
350.018317
  0
ARC
  5
725
330
1F
100
AcDbEntity
  8
0
 62
     7
100
AcDbCircle
 10
-4.707006
 20
460.099976
 30
0.0
 40
3.75
100
AcDbArc
 50
170.018312
 51
189.981688
  0
ARC
  5
726
330
1F
100
AcDbEntity
  8
0
 62
     7
100
AcDbCircle
 10
-4.707006
 20
460.099976
 30
0.0
 40
3.75
100
AcDbArc
 50
9.981683
 51
170.018312
  0
LINE
  5
727
330
1F
100
AcDbEntity
  8
0
 62
     7
100
AcDbLine
 10
-1.217022
 20
459.450012
 30
0.0
 11
-1.013767
 21
459.450012
 31
0.0
  0
LINE
  5
728
330
1F
100
AcDbEntity
  8
0
 62
     7
100
AcDbLine
 10
-8.196991
 20
459.450012
 30
0.0
 11
-8.400244
 21
459.450012
 31
0.0
  0
LINE
  5
729
330
1F
100
AcDbEntity
  8
0
 62
     7
100
AcDbLine
 10
-1.217022
 20
459.450012
 30
0.0
 11
-8.196991
 21
459.450012
 31
0.0
  0
ARC
  5
72A
330
1F
100
AcDbEntity
  8
0
 62
     7
100
AcDbCircle
 10
-4.707006
 20
460.099976
 30
0.0
 40
3.549999952316284
100
AcDbArc
 50
190.550301
 51
349.44969
  0
LINE
  5
72B
330
1F
100
AcDbEntity
  8
0
 62
     7
100
AcDbLine
 10
-8.196991
 20
460.75
 30
0.0
 11
-8.400244
 21
460.75
 31
0.0
  0
LINE
  5
72C
330
1F
100
AcDbEntity
  8
0
 62
     7
100
AcDbLine
 10
-1.217022
 20
460.75
 30
0.0
 11
-1.013767
 21
460.75
 31
0.0
  0
LINE
  5
72D
330
1F
100
AcDbEntity
  8
0
 62
     7
100
AcDbLine
 10
-8.196991
 20
460.75
 30
0.0
 11
-1.217022
 21
460.75
 31
0.0
  0
ARC
  5
72E
330
1F
100
AcDbEntity
  8
0
 62
     7
100
AcDbCircle
 10
-4.707006
 20
460.099976
 30
0.0
 40
3.549999952316284
100
AcDbArc
 50
10.550303
 51
169.449699
  0
LINE
  5
72F
330
1F
100
AcDbEntity
  8
0
 62
     7
100
AcDbLine
 10
3.992992
 20
453.299988
 30
0.0
 11
4.042995
 21
453.299988
 31
0.0
  0
LINE
  5
730
330
1F
100
AcDbEntity
  8
0
 62
     7
100
AcDbLine
 10
3.992992
 20
453.299988
 30
0.0
 11
4.042995
 21
453.299988
 31
0.0
  0
LINE
  5
731
330
1F
100
AcDbEntity
  8
0
 62
     7
100
AcDbLine
 10
-13.807007
 20
483.099976
 30
0.0
 11
-13.307007
 21
483.599976
 31
0.0
  0
LINE
  5
732
330
1F
100
AcDbEntity
  8
0
 62
     7
100
AcDbLine
 10
-13.307007
 20
483.599976
 30
0.0
 11
-12.207006
 21
483.599976
 31
0.0
  0
LINE
  5
733
330
1F
100
AcDbEntity
  8
0
 62
     7
100
AcDbLine
 10
-12.207006
 20
491.099976
 30
0.0
 11
-13.307007
 21
491.099976
 31
0.0
  0
LINE
  5
734
330
1F
100
AcDbEntity
  8
0
 62
     7
100
AcDbLine
 10
-13.807007
 20
490.599976
 30
0.0
 11
-13.307007
 21
491.099976
 31
0.0
  0
ARC
  5
735
330
1F
100
AcDbEntity
  8
0
 62
     7
100
AcDbCircle
 10
-5.007008
 20
434.900024
 30
0.0
 40
7.0
100
AcDbArc
 50
299.059263
 51
240.940746
  0
ARC
  5
736
330
1F
100
AcDbEntity
  8
0
 62
     7
100
AcDbCircle
 10
-5.007008
 20
434.900024
 30
0.0
 40
6.900000095367432
100
AcDbArc
 50
299.52166
 51
240.478287
  0
LINE
  5
737
330
1F
100
AcDbEntity
  8
0
 62
     7
100
AcDbLine
 10
-13.607006
 20
426.200012
 30
0.0
 11
-13.607006
 21
449.299988
 31
0.0
  0
LINE
  5
738
330
1F
100
AcDbEntity
  8
0
 62
     7
100
AcDbLine
 10
-13.607006
 20
449.299988
 30
0.0
 11
-13.607006
 21
450.299988
 31
0.0
  0
LINE
  5
739
330
1F
100
AcDbEntity
  8
0
 62
     7
100
AcDbLine
 10
3.592995
 20
449.299988
 30
0.0
 11
3.592995
 21
426.200012
 31
0.0
  0
LINE
  5
73A
330
1F
100
AcDbEntity
  8
0
 62
     7
100
AcDbLine
 10
3.592995
 20
449.299988
 30
0.0
 11
3.592995
 21
450.299988
 31
0.0
  0
LINE
  5
73B
330
1F
100
AcDbEntity
  8
0
 62
     7
100
AcDbLine
 10
-13.107006
 20
449.299988
 30
0.0
 11
-13.46056
 21
449.653564
 31
0.0
  0
ARC
  5
73C
330
1F
100
AcDbEntity
  8
0
 62
     7
100
AcDbCircle
 10
-13.107006
 20
449.299988
 30
0.0
 40
0.5
100
AcDbArc
 50
90.000003
 51
180.000009
  0
ARC
  5
73D
330
1F
100
AcDbEntity
  8
0
 62
     7
100
AcDbCircle
 10
-13.107006
 20
426.200012
 30
0.0
 40
0.5
100
AcDbArc
 50
180.000009
 51
270.000353
  0
ARC
  5
73E
330
1F
100
AcDbEntity
  8
0
 62
     7
100
AcDbCircle
 10
-13.107004
 20
425.700012
 30
0.0
 40
0.5000079870223999
100
AcDbArc
 50
90.000289
 51
149.999055
  0
ARC
  5
73F
330
1F
100
AcDbEntity
  8
0
 62
     7
100
AcDbCircle
 10
-13.107006
 20
450.299988
 30
0.0
 40
0.5
100
AcDbArc
 50
90.000003
 51
180.000009
  0
LINE
  5
740
330
1F
100
AcDbEntity
  8
0
 62
     7
100
AcDbLine
 10
-13.807007
 20
444.737671
 30
0.0
 11
-13.807007
 21
445.7005
 31
0.0
  0
LINE
  5
741
330
1F
100
AcDbEntity
  8
0
 62
     7
100
AcDbLine
 10
-13.807007
 20
444.737671
 30
0.0
 11
-13.807007
 21
433.0
 31
0.0
  0
LINE
  5
742
330
1F
100
AcDbEntity
  8
0
 62
     7
100
AcDbLine
 10
-13.807007
 20
430.0
 30
0.0
 11
-13.807007
 21
433.0
 31
0.0
  0
LINE
  5
743
330
1F
100
AcDbEntity
  8
0
 62
     7
100
AcDbLine
 10
-13.807007
 20
430.0
 30
0.0
 11
-13.607006
 21
430.0
 31
0.0
  0
LINE
  5
744
330
1F
100
AcDbEntity
  8
0
 62
     7
100
AcDbLine
 10
-13.807007
 20
448.799988
 30
0.0
 11
-13.607006
 21
448.799988
 31
0.0
  0
LINE
  5
745
330
1F
100
AcDbEntity
  8
0
 62
     7
100
AcDbLine
 10
-13.807007
 20
447.93512
 30
0.0
 11
-13.807007
 21
448.799988
 31
0.0
  0
LINE
  5
746
330
1F
100
AcDbEntity
  8
0
 62
     7
100
AcDbLine
 10
-8.95669
 20
429.0
 30
0.0
 11
-8.773966
 21
429.0
 31
0.0
  0
LINE
  5
747
330
1F
100
AcDbEntity
  8
0
 62
     7
100
AcDbLine
 10
-1.240055
 20
429.0
 30
0.0
 11
-1.057323
 21
429.0
 31
0.0
  0
ARC
  5
748
330
1F
100
AcDbEntity
  8
0
 62
     7
100
AcDbCircle
 10
3.092995
 20
426.200012
 30
0.0
 40
0.5
100
AcDbArc
 50
269.999997
 51
359.999901
  0
ARC
  5
749
330
1F
100
AcDbEntity
  8
0
 62
     7
100
AcDbCircle
 10
3.092995
 20
449.299988
 30
0.0
 40
0.5
100
AcDbArc
 50
0.0
 51
90.000003
  0
LINE
  5
74A
330
1F
100
AcDbEntity
  8
0
 62
     7
100
AcDbLine
 10
3.092995
 20
449.299988
 30
0.0
 11
3.446545
 21
449.653564
 31
0.0
  0
ARC
  5
74B
330
1F
100
AcDbEntity
  8
0
 62
     7
100
AcDbCircle
 10
3.092995
 20
425.700012
 30
0.0
 40
0.4999969899654388
100
AcDbArc
 50
29.999605
 51
90.000201
  0
LINE
  5
74C
330
1F
100
AcDbEntity
  8
0
 62
     7
100
AcDbLine
 10
3.592995
 20
447.93512
 30
0.0
 11
3.592995
 21
445.7005
 31
0.0
  0
LINE
  5
74D
330
1F
100
AcDbEntity
  8
0
 62
     7
100
AcDbLine
 10
3.792995
 20
447.93512
 30
0.0
 11
3.792995
 21
448.799988
 31
0.0
  0
LINE
  5
74E
330
1F
100
AcDbEntity
  8
0
 62
     7
100
AcDbLine
 10
3.592995
 20
448.799988
 30
0.0
 11
3.792995
 21
448.799988
 31
0.0
  0
LINE
  5
74F
330
1F
100
AcDbEntity
  8
0
 62
     7
100
AcDbLine
 10
3.592995
 20
430.0
 30
0.0
 11
3.792995
 21
430.0
 31
0.0
  0
LINE
  5
750
330
1F
100
AcDbEntity
  8
0
 62
     7
100
AcDbLine
 10
3.792995
 20
430.0
 30
0.0
 11
3.792995
 21
433.0
 31
0.0
  0
LINE
  5
751
330
1F
100
AcDbEntity
  8
0
 62
     7
100
AcDbLine
 10
3.792995
 20
444.737671
 30
0.0
 11
3.792995
 21
433.0
 31
0.0
  0
LINE
  5
752
330
1F
100
AcDbEntity
  8
0
 62
     7
100
AcDbLine
 10
3.792995
 20
444.737671
 30
0.0
 11
3.792995
 21
445.7005
 31
0.0
  0
ARC
  5
753
330
1F
100
AcDbEntity
  8
0
 62
     7
100
AcDbCircle
 10
3.092995
 20
450.299988
 30
0.0
 40
0.5
100
AcDbArc
 50
0.0
 51
90.000003
  0
LINE
  5
754
330
1F
100
AcDbEntity
  8
0
 62
     7
100
AcDbLine
 10
-13.107006
 20
426.200012
 30
0.0
 11
-8.407057
 21
426.200012
 31
0.0
  0
LINE
  5
755
330
1F
100
AcDbEntity
  8
0
 62
     7
100
AcDbLine
 10
-1.607056
 20
426.200012
 30
0.0
 11
3.092995
 21
426.200012
 31
0.0
  0
ARC
  5
756
330
1F
100
AcDbEntity
  8
0
 62
     7
100
AcDbCircle
 10
-1.372105
 20
449.299988
 30
0.0
 40
0.5
100
AcDbArc
 50
90.000003
 51
218.583597
  0
ARC
  5
757
330
1F
100
AcDbEntity
  8
0
 62
     7
100
AcDbCircle
 10
-5.007008
 20
446.400024
 30
0.0
 40
4.150000095367432
100
AcDbArc
 50
0.0
 51
38.583602
  0
LINE
  5
758
330
1F
100
AcDbEntity
  8
0
 62
     7
100
AcDbLine
 10
-0.857006
 20
446.400024
 30
0.0
 11
-0.857006
 21
445.400024
 31
0.0
  0
ARC
  5
759
330
1F
100
AcDbEntity
  8
0
 62
     7
100
AcDbCircle
 10
-5.007008
 20
445.400024
 30
0.0
 40
4.150000095367432
100
AcDbArc
 50
327.912246
 51
360.0
  0
POLYLINE
  5
75A
330
1F
100
AcDbEntity
  8
0
 62
     7
100
AcDb2dPolyline
 66
     1
 10
0.0
 20
0.0
 30
0.0
  0
VERTEX
  5
75B
330
75A
100
AcDbEntity
  8
0
100
AcDbVertex
100
AcDb2dVertex
 10
-1.080162
 20
441.053833
 30
0.0
  0
VERTEX
  5
75C
330
75A
100
AcDbEntity
  8
0
100
AcDbVertex
100
AcDb2dVertex
 10
-1.154461
 20
441.104675
 30
0.0
  0
VERTEX
  5
75D
330
75A
100
AcDbEntity
  8
0
100
AcDbVertex
100
AcDb2dVertex
 10
-1.213841
 20
441.150635
 30
0.0
  0
VERTEX
  5
75E
330
75A
100
AcDbEntity
  8
0
100
AcDbVertex
100
AcDb2dVertex
 10
-1.270603
 20
441.199585
 30
0.0
  0
VERTEX
  5
75F
330
75A
100
AcDbEntity
  8
0
100
AcDbVertex
100
AcDb2dVertex
 10
-1.345245
 20
441.272644
 30
0.0
  0
VERTEX
  5
760
330
75A
100
AcDbEntity
  8
0
100
AcDbVertex
100
AcDb2dVertex
 10
-1.414162
 20
441.350891
 30
0.0
  0
VERTEX
  5
761
330
75A
100
AcDbEntity
  8
0
100
AcDbVertex
100
AcDb2dVertex
 10
-1.47702
 20
441.433655
 30
0.0
  0
VERTEX
  5
762
330
75A
100
AcDbEntity
  8
0
100
AcDbVertex
100
AcDb2dVertex
 10
-1.533566
 20
441.520386
 30
0.0
  0
VERTEX
  5
763
330
75A
100
AcDbEntity
  8
0
100
AcDbVertex
100
AcDb2dVertex
 10
-1.583607
 20
441.610535
 30
0.0
  0
VERTEX
  5
764
330
75A
100
AcDbEntity
  8
0
100
AcDbVertex
100
AcDb2dVertex
 10
-1.627033
 20
441.703613
 30
0.0
  0
VERTEX
  5
765
330
75A
100
AcDbEntity
  8
0
100
AcDbVertex
100
AcDb2dVertex
 10
-1.663776
 20
441.79895
 30
0.0
  0
VERTEX
  5
766
330
75A
100
AcDbEntity
  8
0
100
AcDbVertex
100
AcDb2dVertex
 10
-1.694916
 20
441.900024
 30
0.0
  0
VERTEX
  5
767
330
75A
100
AcDbEntity
  8
0
100
AcDbVertex
100
AcDb2dVertex
 10
-1.718876
 20
442.002502
 30
0.0
  0
VERTEX
  5
768
330
75A
100
AcDbEntity
  8
0
100
AcDbVertex
100
AcDb2dVertex
 10
-1.735745
 20
442.105835
 30
0.0
  0
VERTEX
  5
769
330
75A
100
AcDbEntity
  8
0
100
AcDbVertex
100
AcDb2dVertex
 10
-1.745647
 20
442.209473
 30
0.0
  0
VERTEX
  5
76A
330
75A
100
AcDbEntity
  8
0
100
AcDbVertex
100
AcDb2dVertex
 10
-1.748726
 20
442.31311
 30
0.0
  0
VERTEX
  5
76B
330
75A
100
AcDbEntity
  8
0
100
AcDbVertex
100
AcDb2dVertex
 10
-1.745152
 20
442.416199
 30
0.0
  0
VERTEX
  5
76C
330
75A
100
AcDbEntity
  8
0
100
AcDbVertex
100
AcDb2dVertex
 10
-1.7351
 20
442.518433
 30
0.0
  0
VERTEX
  5
76D
330
75A
100
AcDbEntity
  8
0
100
AcDbVertex
100
AcDb2dVertex
 10
-1.718349
 20
442.621582
 30
0.0
  0
VERTEX
  5
76E
330
75A
100
AcDbEntity
  8
0
100
AcDbVertex
100
AcDb2dVertex
 10
-1.695236
 20
442.723022
 30
0.0
  0
VERTEX
  5
76F
330
75A
100
AcDbEntity
  8
0
100
AcDbVertex
100
AcDb2dVertex
 10
-1.665951
 20
442.822571
 30
0.0
  0
VERTEX
  5
770
330
75A
100
AcDbEntity
  8
0
100
AcDbVertex
100
AcDb2dVertex
 10
-1.630695
 20
442.919861
 30
0.0
  0
VERTEX
  5
771
330
75A
100
AcDbEntity
  8
0
100
AcDbVertex
100
AcDb2dVertex
 10
-1.589653
 20
443.014648
 30
0.0
  0
VERTEX
  5
772
330
75A
100
AcDbEntity
  8
0
100
AcDbVertex
100
AcDb2dVertex
 10
-1.543022
 20
443.106567
 30
0.0
  0
VERTEX
  5
773
330
75A
100
AcDbEntity
  8
0
100
AcDbVertex
100
AcDb2dVertex
 10
-1.490978
 20
443.195435
 30
0.0
  0
SEQEND
  5
774
330
75A
100
AcDbEntity
  8
0
 62
     7
  0
ARC
  5
775
330
1F
100
AcDbEntity
  8
0
 62
     7
100
AcDbCircle
 10
-5.007008
 20
434.900024
 30
0.0
 40
7.300000190734863
100
AcDbArc
 50
297.758952
 51
57.457471
  0
LINE
  5
776
330
1F
100
AcDbEntity
  8
0
 62
     7
100
AcDbLine
 10
-8.506813
 20
428.493652
 30
0.0
 11
-8.407003
 21
428.440125
 31
0.0
  0
ARC
  5
777
330
1F
100
AcDbEntity
  8
0
 62
     7
100
AcDbCircle
 10
-5.007008
 20
434.900024
 30
0.0
 40
7.300000190734863
100
AcDbArc
 50
122.542528
 51
241.352115
  0
POLYLINE
  5
778
330
1F
100
AcDbEntity
  8
0
 62
     7
100
AcDb2dPolyline
 66
     1
 10
0.0
 20
0.0
 30
0.0
  0
VERTEX
  5
779
330
778
100
AcDbEntity
  8
0
100
AcDbVertex
100
AcDb2dVertex
 10
-8.933863
 20
441.053833
 30
0.0
  0
VERTEX
  5
77A
330
778
100
AcDbEntity
  8
0
100
AcDbVertex
100
AcDb2dVertex
 10
-8.854366
 20
441.108459
 30
0.0
  0
VERTEX
  5
77B
330
778
100
AcDbEntity
  8
0
100
AcDbVertex
100
AcDb2dVertex
 10
-8.778824
 20
441.168396
 30
0.0
  0
VERTEX
  5
77C
330
778
100
AcDbEntity
  8
0
100
AcDbVertex
100
AcDb2dVertex
 10
-8.707623
 20
441.233276
 30
0.0
  0
VERTEX
  5
77D
330
778
100
AcDbEntity
  8
0
100
AcDbVertex
100
AcDb2dVertex
 10
-8.641102
 20
441.302673
 30
0.0
  0
VERTEX
  5
77E
330
778
100
AcDbEntity
  8
0
100
AcDbVertex
100
AcDb2dVertex
 10
-8.579556
 20
441.376282
 30
0.0
  0
VERTEX
  5
77F
330
778
100
AcDbEntity
  8
0
100
AcDbVertex
100
AcDb2dVertex
 10
-8.517988
 20
441.461304
 30
0.0
  0
VERTEX
  5
780
330
778
100
AcDbEntity
  8
0
100
AcDbVertex
100
AcDb2dVertex
 10
-8.462948
 20
441.550232
 30
0.0
  0
VERTEX
  5
781
330
778
100
AcDbEntity
  8
0
100
AcDbVertex
100
AcDb2dVertex
 10
-8.414604
 20
441.642517
 30
0.0
  0
VERTEX
  5
782
330
778
100
AcDbEntity
  8
0
100
AcDbVertex
100
AcDb2dVertex
 10
-8.37306
 20
441.737488
 30
0.0
  0
VERTEX
  5
783
330
778
100
AcDbEntity
  8
0
100
AcDbVertex
100
AcDb2dVertex
 10
-8.338352
 20
441.834656
 30
0.0
  0
VERTEX
  5
784
330
778
100
AcDbEntity
  8
0
100
AcDbVertex
100
AcDb2dVertex
 10
-8.310469
 20
441.933411
 30
0.0
  0
VERTEX
  5
785
330
778
100
AcDbEntity
  8
0
100
AcDbVertex
100
AcDb2dVertex
 10
-8.289349
 20
442.033325
 30
0.0
  0
VERTEX
  5
786
330
778
100
AcDbEntity
  8
0
100
AcDbVertex
100
AcDb2dVertex
 10
-8.274431
 20
442.138184
 30
0.0
  0
VERTEX
  5
787
330
778
100
AcDbEntity
  8
0
100
AcDbVertex
100
AcDb2dVertex
 10
-8.266623
 20
442.243286
 30
0.0
  0
VERTEX
  5
788
330
778
100
AcDbEntity
  8
0
100
AcDbVertex
100
AcDb2dVertex
 10
-8.265762
 20
442.348145
 30
0.0
  0
VERTEX
  5
789
330
778
100
AcDbEntity
  8
0
100
AcDbVertex
100
AcDb2dVertex
 10
-8.271677
 20
442.452393
 30
0.0
  0
VERTEX
  5
78A
330
778
100
AcDbEntity
  8
0
100
AcDbVertex
100
AcDb2dVertex
 10
-8.28418
 20
442.555603
 30
0.0
  0
VERTEX
  5
78B
330
778
100
AcDbEntity
  8
0
100
AcDbVertex
100
AcDb2dVertex
 10
-8.303076
 20
442.657471
 30
0.0
  0
VERTEX
  5
78C
330
778
100
AcDbEntity
  8
0
100
AcDbVertex
100
AcDb2dVertex
 10
-8.328175
 20
442.757568
 30
0.0
  0
VERTEX
  5
78D
330
778
100
AcDbEntity
  8
0
100
AcDbVertex
100
AcDb2dVertex
 10
-8.357183
 20
442.849609
 30
0.0
  0
VERTEX
  5
78E
330
778
100
AcDbEntity
  8
0
100
AcDbVertex
100
AcDb2dVertex
 10
-8.391327
 20
442.939697
 30
0.0
  0
VERTEX
  5
78F
330
778
100
AcDbEntity
  8
0
100
AcDbVertex
100
AcDb2dVertex
 10
-8.430449
 20
443.027466
 30
0.0
  0
VERTEX
  5
790
330
778
100
AcDbEntity
  8
0
100
AcDbVertex
100
AcDb2dVertex
 10
-8.474402
 20
443.112793
 30
0.0
  0
VERTEX
  5
791
330
778
100
AcDbEntity
  8
0
100
AcDbVertex
100
AcDb2dVertex
 10
-8.523033
 20
443.195435
 30
0.0
  0
SEQEND
  5
792
330
778
100
AcDbEntity
  8
0
 62
     7
  0
ARC
  5
793
330
1F
100
AcDbEntity
  8
0
 62
     7
100
AcDbCircle
 10
-5.007008
 20
445.400024
 30
0.0
 40
4.150000095367432
100
AcDbArc
 50
180.000009
 51
212.087746
  0
LINE
  5
794
330
1F
100
AcDbEntity
  8
0
 62
     7
100
AcDbLine
 10
-9.157007
 20
446.400024
 30
0.0
 11
-9.157007
 21
445.400024
 31
0.0
  0
ARC
  5
795
330
1F
100
AcDbEntity
  8
0
 62
     7
100
AcDbCircle
 10
-5.007008
 20
446.400024
 30
0.0
 40
4.150000095367432
100
AcDbArc
 50
141.416403
 51
180.000009
  0
ARC
  5
796
330
1F
100
AcDbEntity
  8
0
 62
     7
100
AcDbCircle
 10
-8.641907
 20
449.299988
 30
0.0
 40
0.5
100
AcDbArc
 50
321.416408
 51
90.000003
  0
LINE
  5
797
330
1F
100
AcDbEntity
  8
0
 62
     7
100
AcDbLine
 10
-10.857006
 20
442.099976
 30
0.0
 11
-11.257006
 21
442.099976
 31
0.0
  0
ARC
  5
798
330
1F
100
AcDbEntity
  8
0
 62
     7
100
AcDbCircle
 10
-11.257006
 20
443.450012
 30
0.0
 40
1.350000023841858
100
AcDbArc
 50
90.000003
 51
269.99997
  0
LINE
  5
799
330
1F
100
AcDbEntity
  8
0
 62
     7
100
AcDbLine
 10
-11.257006
 20
444.799988
 30
0.0
 11
-10.857006
 21
444.799988
 31
0.0
  0
ARC
  5
79A
330
1F
100
AcDbEntity
  8
0
 62
     7
100
AcDbCircle
 10
-10.857006
 20
443.450012
 30
0.0
 40
1.350000023841858
100
AcDbArc
 50
269.999997
 51
89.999989
  0
CIRCLE
  5
79B
330
1F
100
AcDbEntity
  8
0
 62
     7
100
AcDbCircle
 10
1.042995
 20
443.450012
 30
0.0
 40
1.350000023841858
  0
LINE
  5
79C
330
1F
100
AcDbEntity
  8
0
 62
     7
100
AcDbLine
 10
-13.107006
 20
449.799988
 30
0.0
 11
-8.641907
 21
449.799988
 31
0.0
  0
LINE
  5
79D
330
1F
100
AcDbEntity
  8
0
 62
     7
100
AcDbLine
 10
-13.107006
 20
425.700012
 30
0.0
 11
-8.407057
 21
425.700012
 31
0.0
  0
LINE
  5
79E
330
1F
100
AcDbEntity
  8
0
 62
     7
100
AcDbLine
 10
-1.60706
 20
425.700012
 30
0.0
 11
3.092995
 21
425.700012
 31
0.0
  0
LINE
  5
79F
330
1F
100
AcDbEntity
  8
0
 62
     7
100
AcDbLine
 10
-6.58894
 20
449.799988
 30
0.0
 11
-8.316086
 21
449.799988
 31
0.0
  0
LINE
  5
7A0
330
1F
100
AcDbEntity
  8
0
 62
     7
100
AcDbLine
 10
-1.697929
 20
449.799988
 30
0.0
 11
-3.425076
 21
449.799988
 31
0.0
  0
LINE
  5
7A1
330
1F
100
AcDbEntity
  8
0
 62
     7
100
AcDbLine
 10
-1.697929
 20
449.799988
 30
0.0
 11
-1.372105
 21
449.799988
 31
0.0
  0
LINE
  5
7A2
330
1F
100
AcDbEntity
  8
0
 62
     7
100
AcDbLine
 10
-1.372105
 20
449.799988
 30
0.0
 11
3.092995
 21
449.799988
 31
0.0
  0
LINE
  5
7A3
330
1F
100
AcDbEntity
  8
0
 62
     7
100
AcDbLine
 10
-8.641907
 20
449.799988
 30
0.0
 11
-8.316086
 21
449.799988
 31
0.0
  0
LINE
  5
7A4
330
1F
100
AcDbEntity
  8
0
 62
     7
100
AcDbLine
 10
-13.107006
 20
450.799988
 30
0.0
 11
3.092995
 21
450.799988
 31
0.0
  0
LINE
  5
7A5
330
1F
100
AcDbEntity
  8
0
 62
     7
100
AcDbLine
 10
-13.807007
 20
445.7005
 30
0.0
 11
-13.807007
 21
447.93512
 31
0.0
  0
LINE
  5
7A6
330
1F
100
AcDbEntity
  8
0
 62
     7
100
AcDbLine
 10
3.792995
 20
445.7005
 30
0.0
 11
3.792995
 21
447.93512
 31
0.0
  0
LINE
  5
7A7
330
1F
100
AcDbEntity
  8
0
 62
     7
100
AcDbLine
 10
-1.548946
 20
443.105591
 30
0.0
 11
-1.490978
 21
443.195435
 31
0.0
  0
POLYLINE
  5
7A8
330
1F
100
AcDbEntity
  8
0
 62
     7
100
AcDb2dPolyline
 66
     1
 10
0.0
 20
0.0
 30
0.0
  0
VERTEX
  5
7A9
330
7A8
100
AcDbEntity
  8
0
100
AcDbVertex
100
AcDb2dVertex
 10
-1.548946
 20
443.105591
 30
0.0
  0
VERTEX
  5
7AA
330
7A8
100
AcDbEntity
  8
0
100
AcDbVertex
100
AcDb2dVertex
 10
-1.604672
 20
443.015686
 30
0.0
  0
VERTEX
  5
7AB
330
7A8
100
AcDbEntity
  8
0
100
AcDbVertex
100
AcDb2dVertex
 10
-1.654766
 20
442.922363
 30
0.0
  0
VERTEX
  5
7AC
330
7A8
100
AcDbEntity
  8
0
100
AcDbVertex
100
AcDb2dVertex
 10
-1.699024
 20
442.825928
 30
0.0
  0
VERTEX
  5
7AD
330
7A8
100
AcDbEntity
  8
0
100
AcDbVertex
100
AcDb2dVertex
 10
-1.737236
 20
442.726685
 30
0.0
  0
VERTEX
  5
7AE
330
7A8
100
AcDbEntity
  8
0
100
AcDbVertex
100
AcDb2dVertex
 10
-1.769184
 20
442.624939
 30
0.0
  0
VERTEX
  5
7AF
330
7A8
100
AcDbEntity
  8
0
100
AcDbVertex
100
AcDb2dVertex
 10
-1.794651
 20
442.521057
 30
0.0
  0
VERTEX
  5
7B0
330
7A8
100
AcDbEntity
  8
0
100
AcDbVertex
100
AcDb2dVertex
 10
-1.813412
 20
442.415344
 30
0.0
  0
VERTEX
  5
7B1
330
7A8
100
AcDbEntity
  8
0
100
AcDbVertex
100
AcDb2dVertex
 10
-1.825085
 20
442.310303
 30
0.0
  0
VERTEX
  5
7B2
330
7A8
100
AcDbEntity
  8
0
100
AcDbVertex
100
AcDb2dVertex
 10
-1.829895
 20
442.204285
 30
0.0
  0
VERTEX
  5
7B3
330
7A8
100
AcDbEntity
  8
0
100
AcDbVertex
100
AcDb2dVertex
 10
-1.827644
 20
442.097595
 30
0.0
  0
VERTEX
  5
7B4
330
7A8
100
AcDbEntity
  8
0
100
AcDbVertex
100
AcDb2dVertex
 10
-1.818142
 20
441.990784
 30
0.0
  0
VERTEX
  5
7B5
330
7A8
100
AcDbEntity
  8
0
100
AcDbVertex
100
AcDb2dVertex
 10
-1.80122
 20
441.884338
 30
0.0
  0
VERTEX
  5
7B6
330
7A8
100
AcDbEntity
  8
0
100
AcDbVertex
100
AcDb2dVertex
 10
-1.776741
 20
441.778748
 30
0.0
  0
VERTEX
  5
7B7
330
7A8
100
AcDbEntity
  8
0
100
AcDbVertex
100
AcDb2dVertex
 10
-1.744606
 20
441.674622
 30
0.0
  0
VERTEX
  5
7B8
330
7A8
100
AcDbEntity
  8
0
100
AcDbVertex
100
AcDb2dVertex
 10
-1.706585
 20
441.576782
 30
0.0
  0
VERTEX
  5
7B9
330
7A8
100
AcDbEntity
  8
0
100
AcDbVertex
100
AcDb2dVertex
 10
-1.661499
 20
441.481445
 30
0.0
  0
VERTEX
  5
7BA
330
7A8
100
AcDbEntity
  8
0
100
AcDbVertex
100
AcDb2dVertex
 10
-1.609421
 20
441.389221
 30
0.0
  0
VERTEX
  5
7BB
330
7A8
100
AcDbEntity
  8
0
100
AcDbVertex
100
AcDb2dVertex
 10
-1.550499
 20
441.30072
 30
0.0
  0
VERTEX
  5
7BC
330
7A8
100
AcDbEntity
  8
0
100
AcDbVertex
100
AcDb2dVertex
 10
-1.518536
 20
441.257996
 30
0.0
  0
VERTEX
  5
7BD
330
7A8
100
AcDbEntity
  8
0
100
AcDbVertex
100
AcDb2dVertex
 10
-1.484951
 20
441.216492
 30
0.0
  0
VERTEX
  5
7BE
330
7A8
100
AcDbEntity
  8
0
100
AcDbVertex
100
AcDb2dVertex
 10
-1.437714
 20
441.163025
 30
0.0
  0
VERTEX
  5
7BF
330
7A8
100
AcDbEntity
  8
0
100
AcDbVertex
100
AcDb2dVertex
 10
-1.387775
 20
441.112
 30
0.0
  0
VERTEX
  5
7C0
330
7A8
100
AcDbEntity
  8
0
100
AcDbVertex
100
AcDb2dVertex
 10
-1.335262
 20
441.063416
 30
0.0
  0
VERTEX
  5
7C1
330
7A8
100
AcDbEntity
  8
0
100
AcDbVertex
100
AcDb2dVertex
 10
-1.279903
 20
441.017273
 30
0.0
  0
VERTEX
  5
7C2
330
7A8
100
AcDbEntity
  8
0
100
AcDbVertex
100
AcDb2dVertex
 10
-1.222176
 20
440.973877
 30
0.0
  0
VERTEX
  5
7C3
330
7A8
100
AcDbEntity
  8
0
100
AcDbVertex
100
AcDb2dVertex
 10
-1.162365
 20
440.933594
 30
0.0
  0
SEQEND
  5
7C4
330
7A8
100
AcDbEntity
  8
0
 62
     7
  0
ARC
  5
7C5
330
1F
100
AcDbEntity
  8
0
 62
     7
100
AcDbCircle
 10
-5.007008
 20
434.900024
 30
0.0
 40
7.099999904632568
100
AcDbArc
 50
298.611797
 51
241.352115
  0
ARC
  5
7C6
330
1F
100
AcDbEntity
  8
0
 62
     7
100
AcDbCircle
 10
-5.00724
 20
434.899597
 30
0.0
 40
7.154872894287109
100
AcDbArc
 50
57.494627
 51
61.351983
  0
ARC
  5
7C7
330
1F
100
AcDbEntity
  8
0
 62
     7
100
AcDbCircle
 10
-5.007
 20
434.899963
 30
0.0
 40
7.154425144195557
100
AcDbArc
 50
61.352113
 51
122.505467
  0
POLYLINE
  5
7C8
330
1F
100
AcDbEntity
  8
0
 62
     7
100
AcDb2dPolyline
 66
     1
 10
0.0
 20
0.0
 30
0.0
  0
VERTEX
  5
7C9
330
7C8
100
AcDbEntity
  8
0
100
AcDbVertex
100
AcDb2dVertex
 10
-8.465065
 20
443.105591
 30
0.0
  0
VERTEX
  5
7CA
330
7C8
100
AcDbEntity
  8
0
100
AcDbVertex
100
AcDb2dVertex
 10
-8.409344
 20
443.015686
 30
0.0
  0
VERTEX
  5
7CB
330
7C8
100
AcDbEntity
  8
0
100
AcDbVertex
100
AcDb2dVertex
 10
-8.359249
 20
442.922363
 30
0.0
  0
VERTEX
  5
7CC
330
7C8
100
AcDbEntity
  8
0
100
AcDbVertex
100
AcDb2dVertex
 10
-8.314989
 20
442.825928
 30
0.0
  0
VERTEX
  5
7CD
330
7C8
100
AcDbEntity
  8
0
100
AcDbVertex
100
AcDb2dVertex
 10
-8.276777
 20
442.726685
 30
0.0
  0
VERTEX
  5
7CE
330
7C8
100
AcDbEntity
  8
0
100
AcDbVertex
100
AcDb2dVertex
 10
-8.244829
 20
442.624939
 30
0.0
  0
VERTEX
  5
7CF
330
7C8
100
AcDbEntity
  8
0
100
AcDbVertex
100
AcDb2dVertex
 10
-8.219364
 20
442.521057
 30
0.0
  0
VERTEX
  5
7D0
330
7C8
100
AcDbEntity
  8
0
100
AcDbVertex
100
AcDb2dVertex
 10
-8.200602
 20
442.415344
 30
0.0
  0
VERTEX
  5
7D1
330
7C8
100
AcDbEntity
  8
0
100
AcDbVertex
100
AcDb2dVertex
 10
-8.188931
 20
442.310303
 30
0.0
  0
VERTEX
  5
7D2
330
7C8
100
AcDbEntity
  8
0
100
AcDbVertex
100
AcDb2dVertex
 10
-8.184118
 20
442.204285
 30
0.0
  0
VERTEX
  5
7D3
330
7C8
100
AcDbEntity
  8
0
100
AcDbVertex
100
AcDb2dVertex
 10
-8.186369
 20
442.097595
 30
0.0
  0
VERTEX
  5
7D4
330
7C8
100
AcDbEntity
  8
0
100
AcDbVertex
100
AcDb2dVertex
 10
-8.195871
 20
441.990784
 30
0.0
  0
VERTEX
  5
7D5
330
7C8
100
AcDbEntity
  8
0
100
AcDbVertex
100
AcDb2dVertex
 10
-8.212793
 20
441.884338
 30
0.0
  0
VERTEX
  5
7D6
330
7C8
100
AcDbEntity
  8
0
100
AcDbVertex
100
AcDb2dVertex
 10
-8.237272
 20
441.778748
 30
0.0
  0
VERTEX
  5
7D7
330
7C8
100
AcDbEntity
  8
0
100
AcDbVertex
100
AcDb2dVertex
 10
-8.269407
 20
441.674622
 30
0.0
  0
VERTEX
  5
7D8
330
7C8
100
AcDbEntity
  8
0
100
AcDbVertex
100
AcDb2dVertex
 10
-8.307425
 20
441.576782
 30
0.0
  0
VERTEX
  5
7D9
330
7C8
100
AcDbEntity
  8
0
100
AcDbVertex
100
AcDb2dVertex
 10
-8.352512
 20
441.481445
 30
0.0
  0
VERTEX
  5
7DA
330
7C8
100
AcDbEntity
  8
0
100
AcDbVertex
100
AcDb2dVertex
 10
-8.404591
 20
441.389221
 30
0.0
  0
VERTEX
  5
7DB
330
7C8
100
AcDbEntity
  8
0
100
AcDbVertex
100
AcDb2dVertex
 10
-8.463514
 20
441.30072
 30
0.0
  0
VERTEX
  5
7DC
330
7C8
100
AcDbEntity
  8
0
100
AcDbVertex
100
AcDb2dVertex
 10
-8.495478
 20
441.257996
 30
0.0
  0
VERTEX
  5
7DD
330
7C8
100
AcDbEntity
  8
0
100
AcDbVertex
100
AcDb2dVertex
 10
-8.529064
 20
441.216492
 30
0.0
  0
VERTEX
  5
7DE
330
7C8
100
AcDbEntity
  8
0
100
AcDbVertex
100
AcDb2dVertex
 10
-8.576298
 20
441.163025
 30
0.0
  0
VERTEX
  5
7DF
330
7C8
100
AcDbEntity
  8
0
100
AcDbVertex
100
AcDb2dVertex
 10
-8.626236
 20
441.112
 30
0.0
  0
VERTEX
  5
7E0
330
7C8
100
AcDbEntity
  8
0
100
AcDbVertex
100
AcDb2dVertex
 10
-8.678751
 20
441.063416
 30
0.0
  0
VERTEX
  5
7E1
330
7C8
100
AcDbEntity
  8
0
100
AcDbVertex
100
AcDb2dVertex
 10
-8.734112
 20
441.017273
 30
0.0
  0
VERTEX
  5
7E2
330
7C8
100
AcDbEntity
  8
0
100
AcDbVertex
100
AcDb2dVertex
 10
-8.791838
 20
440.973877
 30
0.0
  0
VERTEX
  5
7E3
330
7C8
100
AcDbEntity
  8
0
100
AcDbVertex
100
AcDb2dVertex
 10
-8.851648
 20
440.933594
 30
0.0
  0
SEQEND
  5
7E4
330
7C8
100
AcDbEntity
  8
0
 62
     7
  0
LINE
  5
7E5
330
1F
100
AcDbEntity
  8
0
 62
     7
100
AcDbLine
 10
-8.523033
 20
443.195435
 30
0.0
 11
-8.465065
 21
443.105591
 31
0.0
  0
LINE
  5
7E6
330
1F
100
AcDbEntity
  8
0
 62
     7
100
AcDbLine
 10
-10.857006
 20
442.200012
 30
0.0
 11
-11.257006
 21
442.200012
 31
0.0
  0
ARC
  5
7E7
330
1F
100
AcDbEntity
  8
0
 62
     7
100
AcDbCircle
 10
-11.257006
 20
443.450012
 30
0.0
 40
1.25
100
AcDbArc
 50
90.000003
 51
269.999997
  0
LINE
  5
7E8
330
1F
100
AcDbEntity
  8
0
 62
     7
100
AcDbLine
 10
-11.257006
 20
444.700012
 30
0.0
 11
-10.857006
 21
444.700012
 31
0.0
  0
ARC
  5
7E9
330
1F
100
AcDbEntity
  8
0
 62
     7
100
AcDbCircle
 10
-10.857006
 20
443.450012
 30
0.0
 40
1.25
100
AcDbArc
 50
269.999997
 51
90.000003
  0
CIRCLE
  5
7EA
330
1F
100
AcDbEntity
  8
0
 62
     7
100
AcDbCircle
 10
1.042995
 20
443.450012
 30
0.0
 40
1.25
  0
ARC
  5
7EB
330
1F
100
AcDbEntity
  8
0
 62
     7
100
AcDbCircle
 10
-1.697929
 20
449.299988
 30
0.0
 40
0.5
100
AcDbArc
 50
90.000003
 51
221.230582
  0
ARC
  5
7EC
330
1F
100
AcDbEntity
  8
0
 62
     7
100
AcDbCircle
 10
-8.316086
 20
449.299988
 30
0.0
 40
0.5
100
AcDbArc
 50
318.769437
 51
90.000003
  0
LINE
  5
7ED
330
1F
100
AcDbEntity
  8
0
 62
     7
100
AcDbLine
 10
-9.107006
 20
451.799988
 30
0.0
 11
-9.107006
 21
450.799988
 31
0.0
  0
ARC
  5
7EE
330
1F
100
AcDbEntity
  8
0
 62
     7
100
AcDbCircle
 10
-10.807007
 20
451.299988
 30
0.0
 40
1.5
100
AcDbArc
 50
340.529081
 51
360.0
  0
LINE
  5
7EF
330
1F
100
AcDbEntity
  8
0
 62
     7
100
AcDbLine
 10
-9.807007
 20
451.799988
 30
0.0
 11
-9.807007
 21
451.900024
 31
0.0
  0
ARC
  5
7F0
330
1F
100
AcDbEntity
  8
0
 62
     7
100
AcDbCircle
 10
-10.807007
 20
451.799988
 30
0.0
 40
1.0
100
AcDbArc
 50
269.999997
 51
360.0
  0
LINE
  5
7F1
330
1F
100
AcDbEntity
  8
0
 62
     7
100
AcDbLine
 10
-9.307007
 20
451.900024
 30
0.0
 11
-9.307007
 21
451.299988
 31
0.0
  0
LINE
  5
7F2
330
1F
100
AcDbEntity
  8
0
 62
     7
100
AcDbLine
 10
-0.907005
 20
451.900024
 30
0.0
 11
-0.907005
 21
451.799927
 31
0.0
  0
LINE
  5
7F3
330
1F
100
AcDbEntity
  8
0
 62
     7
100
AcDbLine
 10
-0.707005
 20
451.900024
 30
0.0
 11
-0.707005
 21
451.299988
 31
0.0
  0
ARC
  5
7F4
330
1F
100
AcDbEntity
  8
0
 62
     7
100
AcDbCircle
 10
0.792995
 20
451.299988
 30
0.0
 40
1.5
100
AcDbArc
 50
180.000009
 51
199.470938
  0
ARC
  5
7F5
330
1F
100
AcDbEntity
  8
0
 62
     7
100
AcDbCircle
 10
0.792995
 20
451.799988
 30
0.0
 40
1.0
100
AcDbArc
 50
180.000009
 51
269.999997
  0
LINE
  5
7F6
330
1F
100
AcDbEntity
  8
0
 62
     7
100
AcDbLine
 10
-0.207005
 20
451.799988
 30
0.0
 11
-0.207005
 21
451.900024
 31
0.0
  0
ARC
  5
7F7
330
1F
100
AcDbEntity
  8
0
 62
     7
100
AcDbCircle
 10
-5.007008
 20
446.400024
 30
0.0
 40
3.900000095367432
100
AcDbArc
 50
138.769418
 51
41.230577
  0
LINE
  5
7F8
330
1F
100
AcDbEntity
  8
0
 62
     7
100
AcDbLine
 10
-0.907005
 20
450.799988
 30
0.0
 11
-0.907005
 21
451.799988
 31
0.0
  0
LINE
  5
7F9
330
1F
100
AcDbEntity
  8
0
 62
     7
100
AcDbLine
 10
-9.107006
 20
451.799988
 30
0.0
 11
-9.107006
 21
451.900085
 31
0.0
  0
ARC
  5
7FA
330
1F
100
AcDbEntity
  8
0
 62
     7
100
AcDbCircle
 10
-1.407005
 20
451.799988
 30
0.0
 40
0.5
100
AcDbArc
 50
0.0
 51
11.538233
  0
ARC
  5
7FB
330
1F
100
AcDbEntity
  8
0
 62
     7
100
AcDbCircle
 10
-5.007008
 20
446.400024
 30
0.0
 40
3.75
100
AcDbArc
 50
80.018316
 51
99.981682
  0
ARC
  5
7FC
330
1F
100
AcDbEntity
  8
0
 62
     7
100
AcDbCircle
 10
-5.007008
 20
446.400024
 30
0.0
 40
3.75
100
AcDbArc
 50
279.981697
 51
80.018316
  0
ARC
  5
7FD
330
1F
100
AcDbEntity
  8
0
 62
     7
100
AcDbCircle
 10
-5.007008
 20
446.400024
 30
0.0
 40
3.75
100
AcDbArc
 50
260.018304
 51
279.981697
  0
ARC
  5
7FE
330
1F
100
AcDbEntity
  8
0
 62
     7
100
AcDbCircle
 10
-5.007008
 20
446.400024
 30
0.0
 40
3.75
100
AcDbArc
 50
99.981682
 51
260.018304
  0
LINE
  5
7FF
330
1F
100
AcDbEntity
  8
0
 62
     7
100
AcDbLine
 10
-4.357006
 20
449.890015
 30
0.0
 11
-4.357006
 21
450.093262
 31
0.0
  0
LINE
  5
800
330
1F
100
AcDbEntity
  8
0
 62
     7
100
AcDbLine
 10
-4.357006
 20
442.910034
 30
0.0
 11
-4.357006
 21
442.706787
 31
0.0
  0
LINE
  5
801
330
1F
100
AcDbEntity
  8
0
 62
     7
100
AcDbLine
 10
-4.357006
 20
449.890015
 30
0.0
 11
-4.357006
 21
442.910034
 31
0.0
  0
ARC
  5
802
330
1F
100
AcDbEntity
  8
0
 62
     7
100
AcDbCircle
 10
-5.007008
 20
446.400024
 30
0.0
 40
3.549999952316284
100
AcDbArc
 50
280.55029
 51
79.449696
  0
LINE
  5
803
330
1F
100
AcDbEntity
  8
0
 62
     7
100
AcDbLine
 10
-5.657005
 20
442.910034
 30
0.0
 11
-5.657005
 21
442.706787
 31
0.0
  0
LINE
  5
804
330
1F
100
AcDbEntity
  8
0
 62
     7
100
AcDbLine
 10
-5.657005
 20
449.890015
 30
0.0
 11
-5.657005
 21
450.093262
 31
0.0
  0
LINE
  5
805
330
1F
100
AcDbEntity
  8
0
 62
     7
100
AcDbLine
 10
-5.657005
 20
442.910034
 30
0.0
 11
-5.657005
 21
449.890015
 31
0.0
  0
ARC
  5
806
330
1F
100
AcDbEntity
  8
0
 62
     7
100
AcDbCircle
 10
-5.007008
 20
446.400024
 30
0.0
 40
3.549999952316284
100
AcDbArc
 50
100.550302
 51
259.449705
  0
LINE
  5
807
330
1F
100
AcDbEntity
  8
0
 62
     7
100
AcDbLine
 10
-8.407007
 20
359.900024
 30
0.0
 11
-8.407007
 21
434.900024
 31
0.0
  0
ARC
  5
808
330
1F
100
AcDbEntity
  8
0
 62
     7
100
AcDbCircle
 10
-5.007008
 20
434.900024
 30
0.0
 40
3.400000095367432
100
AcDbArc
 50
0.0
 51
180.000009
  0
LINE
  5
809
330
1F
100
AcDbEntity
  8
0
 62
     7
100
AcDbLine
 10
-1.607006
 20
359.900024
 30
0.0
 11
-1.607006
 21
434.900024
 31
0.0
  0
LINE
  5
80A
330
1F
100
AcDbEntity
  8
0
 62
     7
100
AcDbLine
 10
-8.407007
 20
359.900024
 30
0.0
 11
-8.407007
 21
349.900024
 31
0.0
  0
LINE
  5
80B
330
1F
100
AcDbEntity
  8
0
 62
     7
100
AcDbLine
 10
-1.607006
 20
359.900024
 30
0.0
 11
-1.607006
 21
349.900024
 31
0.0
  0
LINE
  5
80C
330
1F
100
AcDbEntity
  8
0
 62
     7
100
AcDbLine
 10
-1.607006
 20
349.900024
 30
0.0
 11
-8.407007
 21
349.900024
 31
0.0
  0
ARC
  5
80D
330
1F
100
AcDbEntity
  8
0
 62
     7
100
AcDbCircle
 10
-5.007008
 20
434.900024
 30
0.0
 40
3.549999952316284
100
AcDbArc
 50
344.596894
 51
195.402372
  0
ARC
  5
80E
330
1F
100
AcDbEntity
  8
0
 62
     7
100
AcDbCircle
 10
-5.007008
 20
434.900024
 30
0.0
 40
4.712500095367432
100
AcDbArc
 50
192.251401
 51
223.822666
  0
ARC
  5
80F
330
1F
100
AcDbEntity
  8
0
 62
     7
100
AcDbCircle
 10
-5.007008
 20
434.900024
 30
0.0
 40
4.712500095367432
100
AcDbArc
 50
316.177161
 51
347.748591
  0
LINE
  5
810
330
1F
100
AcDbEntity
  8
0
 62
     7
100
AcDbLine
 10
-0.465805
 20
433.900024
 30
0.0
 11
-0.401829
 21
433.900024
 31
0.0
  0
ARC
  5
811
330
1F
100
AcDbEntity
  8
0
 62
     7
100
AcDbCircle
 10
-5.007008
 20
434.900024
 30
0.0
 40
4.650000095367432
100
AcDbArc
 50
316.985583
 51
347.581305
  0
ARC
  5
812
330
1F
100
AcDbEntity
  8
0
 62
     7
100
AcDbCircle
 10
-5.007008
 20
434.900024
 30
0.0
 40
4.650000095367432
100
AcDbArc
 50
192.418686
 51
223.014354
  0
ARC
  5
813
330
1F
100
AcDbEntity
  8
0
 62
     7
100
AcDbCircle
 10
-5.007008
 20
434.900024
 30
0.0
 40
4.574999809265137
100
AcDbArc
 50
192.6256
 51
221.997954
  0
ARC
  5
814
330
1F
100
AcDbEntity
  8
0
 62
     7
100
AcDbCircle
 10
-5.007008
 20
434.900024
 30
0.0
 40
4.574999809265137
100
AcDbArc
 50
318.002024
 51
347.374406
  0
LINE
  5
815
330
1F
100
AcDbEntity
  8
0
 62
     7
100
AcDbLine
 10
-0.606705
 20
433.900024
 30
0.0
 11
-0.542633
 21
433.900024
 31
0.0
  0
ARC
  5
816
330
1F
100
AcDbEntity
  8
0
 62
     7
100
AcDbCircle
 10
-5.007008
 20
434.900024
 30
0.0
 40
4.512499809265137
100
AcDbArc
 50
318.891096
 51
347.196575
  0
ARC
  5
817
330
1F
100
AcDbEntity
  8
0
 62
     7
100
AcDbCircle
 10
-5.007008
 20
434.900024
 30
0.0
 40
4.512499809265137
100
AcDbArc
 50
192.803417
 51
221.108896
  0
ARC
  5
818
330
1F
100
AcDbEntity
  8
0
 62
     7
100
AcDbCircle
 10
-5.007008
 20
434.900024
 30
0.0
 40
4.4375
100
AcDbArc
 50
193.023581
 51
219.986545
  0
ARC
  5
819
330
1F
100
AcDbEntity
  8
0
 62
     7
100
AcDbCircle
 10
-5.007008
 20
434.900024
 30
0.0
 40
4.4375
100
AcDbArc
 50
320.013433
 51
346.976424
  0
LINE
  5
81A
330
1F
100
AcDbEntity
  8
0
 62
     7
100
AcDbLine
 10
-0.747826
 20
433.900024
 30
0.0
 11
-0.683651
 21
433.900024
 31
0.0
  0
ARC
  5
81B
330
1F
100
AcDbEntity
  8
0
 62
     7
100
AcDbCircle
 10
-5.007008
 20
434.900024
 30
0.0
 40
4.375
100
AcDbArc
 50
320.999384
 51
346.787008
  0
ARC
  5
81C
330
1F
100
AcDbEntity
  8
0
 62
     7
100
AcDbCircle
 10
-5.007008
 20
434.900024
 30
0.0
 40
4.375
100
AcDbArc
 50
193.212982
 51
219.000594
  0
ARC
  5
81D
330
1F
100
AcDbEntity
  8
0
 62
     7
100
AcDbCircle
 10
-5.007008
 20
434.900024
 30
0.0
 40
4.25
100
AcDbArc
 50
323.12972
 51
216.870258
  0
ARC
  5
81E
330
1F
100
AcDbEntity
  8
0
 62
     7
100
AcDbCircle
 10
-5.007008
 20
434.900024
 30
0.0
 40
4.375
100
AcDbArc
 50
13.21298
 51
166.787018
  0
LINE
  5
81F
330
1F
100
AcDbEntity
  8
0
 62
     7
100
AcDbLine
 10
-0.747826
 20
435.900024
 30
0.0
 11
-0.683651
 21
435.900024
 31
0.0
  0
ARC
  5
820
330
1F
100
AcDbEntity
  8
0
 62
     7
100
AcDbCircle
 10
-5.007008
 20
434.900024
 30
0.0
 40
4.4375
100
AcDbArc
 50
13.023584
 51
166.976419
  0
ARC
  5
821
330
1F
100
AcDbEntity
  8
0
 62
     7
100
AcDbCircle
 10
-5.007008
 20
434.900024
 30
0.0
 40
4.512499809265137
100
AcDbArc
 50
12.803414
 51
167.196583
  0
LINE
  5
822
330
1F
100
AcDbEntity
  8
0
 62
     7
100
AcDbLine
 10
-0.606705
 20
435.900024
 30
0.0
 11
-0.542633
 21
435.900024
 31
0.0
  0
ARC
  5
823
330
1F
100
AcDbEntity
  8
0
 62
     7
100
AcDbCircle
 10
-5.007008
 20
434.900024
 30
0.0
 40
4.574999809265137
100
AcDbArc
 50
12.625598
 51
167.3744
  0
ARC
  5
824
330
1F
100
AcDbEntity
  8
0
 62
     7
100
AcDbCircle
 10
-5.007008
 20
434.900024
 30
0.0
 40
4.650000095367432
100
AcDbArc
 50
12.418682
 51
167.581314
  0
LINE
  5
825
330
1F
100
AcDbEntity
  8
0
 62
     7
100
AcDbLine
 10
-0.465805
 20
435.900024
 30
0.0
 11
-0.401829
 21
435.900024
 31
0.0
  0
ARC
  5
826
330
1F
100
AcDbEntity
  8
0
 62
     7
100
AcDbCircle
 10
-5.007008
 20
434.900024
 30
0.0
 40
4.712500095367432
100
AcDbArc
 50
12.251403
 51
167.748599
  0
LINE
  5
827
330
1F
100
AcDbEntity
  8
0
 62
     7
100
AcDbLine
 10
-9.548206
 20
433.900024
 30
0.0
 11
-9.612183
 21
433.900024
 31
0.0
  0
LINE
  5
828
330
1F
100
AcDbEntity
  8
0
 62
     7
100
AcDbLine
 10
-9.548206
 20
435.900024
 30
0.0
 11
-9.612183
 21
435.900024
 31
0.0
  0
LINE
  5
829
330
1F
100
AcDbEntity
  8
0
 62
     7
100
AcDbLine
 10
-9.407309
 20
435.900024
 30
0.0
 11
-9.471378
 21
435.900024
 31
0.0
  0
LINE
  5
82A
330
1F
100
AcDbEntity
  8
0
 62
     7
100
AcDbLine
 10
-9.266188
 20
435.900024
 30
0.0
 11
-9.330362
 21
435.900024
 31
0.0
  0
LINE
  5
82B
330
1F
100
AcDbEntity
  8
0
 62
     7
100
AcDbLine
 10
-9.266188
 20
433.900024
 30
0.0
 11
-9.330362
 21
433.900024
 31
0.0
  0
LINE
  5
82C
330
1F
100
AcDbEntity
  8
0
 62
     7
100
AcDbLine
 10
-9.407309
 20
433.900024
 30
0.0
 11
-9.471378
 21
433.900024
 31
0.0
  0
ARC
  5
82D
330
1F
100
AcDbEntity
  8
0
 62
     7
100
AcDbCircle
 10
-5.007008
 20
434.900024
 30
0.0
 40
5.0
100
AcDbArc
 50
312.843537
 51
227.156454
  0
ARC
  5
82E
330
1F
100
AcDbEntity
  8
0
 62
     7
100
AcDbCircle
 10
-5.007008
 20
434.900024
 30
0.0
 40
5.300000190734863
100
AcDbArc
 50
309.904343
 51
230.095662
  0
ARC
  5
82F
330
1F
100
AcDbEntity
  8
0
 62
     7
100
AcDbCircle
 10
-5.007008
 20
434.900024
 30
0.0
 40
5.900000095367432
100
AcDbArc
 50
305.188613
 51
151.352115
  0
ARC
  5
830
330
1F
100
AcDbEntity
  8
0
 62
     7
100
AcDbCircle
 10
-5.007008
 20
434.900024
 30
0.0
 40
5.900000095367432
100
AcDbArc
 50
151.352115
 51
234.811389
  0
ARC
  5
831
330
1F
100
AcDbEntity
  8
0
 62
     7
100
AcDbCircle
 10
-5.007008
 20
434.900024
 30
0.0
 40
6.300000190734863
100
AcDbArc
 50
137.752785
 51
162.24721
  0
LINE
  5
832
330
1F
100
AcDbEntity
  8
0
 62
     7
100
AcDbLine
 10
-11.007006
 20
436.820923
 30
0.0
 11
-11.007006
 21
432.979065
 31
0.0
  0
ARC
  5
833
330
1F
100
AcDbEntity
  8
0
 62
     7
100
AcDbCircle
 10
-5.007008
 20
434.900024
 30
0.0
 40
6.300000190734863
100
AcDbArc
 50
197.75279
 51
222.247215
  0
LINE
  5
834
330
1F
100
AcDbEntity
  8
0
 62
     7
100
AcDbLine
 10
-9.670588
 20
430.664307
 30
0.0
 11
-8.407087
 21
429.934814
 31
0.0
  0
LINE
  5
835
330
1F
100
AcDbEntity
  8
0
 62
     7
100
AcDbLine
 10
-1.60693
 20
429.934814
 30
0.0
 11
-0.343426
 21
430.664307
 31
0.0
  0
ARC
  5
836
330
1F
100
AcDbEntity
  8
0
 62
     7
100
AcDbCircle
 10
-5.007008
 20
434.900024
 30
0.0
 40
6.300000190734863
100
AcDbArc
 50
317.752777
 51
342.247199
  0
LINE
  5
837
330
1F
100
AcDbEntity
  8
0
 62
     7
100
AcDbLine
 10
0.992992
 20
432.979065
 30
0.0
 11
0.992992
 21
436.820923
 31
0.0
  0
ARC
  5
838
330
1F
100
AcDbEntity
  8
0
 62
     7
100
AcDbCircle
 10
-5.007008
 20
434.900024
 30
0.0
 40
6.300000190734863
100
AcDbArc
 50
17.75279
 51
42.24721
  0
LINE
  5
839
330
1F
100
AcDbEntity
  8
0
 62
     7
100
AcDbLine
 10
-0.343426
 20
439.135681
 30
0.0
 11
-3.670586
 21
441.056641
 31
0.0
  0
ARC
  5
83A
330
1F
100
AcDbEntity
  8
0
 62
     7
100
AcDbCircle
 10
-5.007008
 20
434.900024
 30
0.0
 40
6.300000190734863
100
AcDbArc
 50
77.75279
 51
102.247215
  0
LINE
  5
83B
330
1F
100
AcDbEntity
  8
0
 62
     7
100
AcDbLine
 10
-6.343426
 20
441.056641
 30
0.0
 11
-9.670588
 21
439.135681
 31
0.0
  0
ARC
  5
83C
330
1F
100
AcDbEntity
  8
0
 62
     7
100
AcDbCircle
 10
-5.007008
 20
434.900024
 30
0.0
 40
6.800000190734863
100
AcDbArc
 50
137.403926
 51
162.596068
  0
LINE
  5
83D
330
1F
100
AcDbEntity
  8
0
 62
     7
100
AcDbLine
 10
-11.092339
 20
436.530579
 30
0.0
 11
-11.495701
 21
436.933899
 31
0.0
  0
ARC
  5
83E
330
1F
100
AcDbEntity
  8
0
 62
     7
100
AcDbCircle
 10
-5.007008
 20
434.900024
 30
0.0
 40
6.300000190734863
100
AcDbArc
 50
162.24721
 51
164.999994
  0
ARC
  5
83F
330
1F
100
AcDbEntity
  8
0
 62
     7
100
AcDbCircle
 10
-5.007008
 20
434.900024
 30
0.0
 40
6.300000190734863
100
AcDbArc
 50
135.0
 51
137.752785
  0
LINE
  5
840
330
1F
100
AcDbEntity
  8
0
 62
     7
100
AcDbLine
 10
-9.461779
 20
439.354797
 30
0.0
 11
-10.012783
 21
439.502441
 31
0.0
  0
ARC
  5
841
330
1F
100
AcDbEntity
  8
0
 62
     7
100
AcDbCircle
 10
-5.007008
 20
434.900024
 30
0.0
 40
6.300000190734863
100
AcDbArc
 50
164.999994
 51
195.000006
  0
ARC
  5
842
330
1F
100
AcDbEntity
  8
0
 62
     7
100
AcDbCircle
 10
-5.007008
 20
434.900024
 30
0.0
 40
6.300000190734863
100
AcDbArc
 50
195.000006
 51
197.75279
  0
LINE
  5
843
330
1F
100
AcDbEntity
  8
0
 62
     7
100
AcDbLine
 10
-11.092339
 20
433.26947
 30
0.0
 11
-11.495701
 21
432.866089
 31
0.0
  0
ARC
  5
844
330
1F
100
AcDbEntity
  8
0
 62
     7
100
AcDbCircle
 10
-5.007008
 20
434.900024
 30
0.0
 40
6.800000190734863
100
AcDbArc
 50
197.403932
 51
222.596074
  0
LINE
  5
845
330
1F
100
AcDbEntity
  8
0
 62
     7
100
AcDbLine
 10
-9.461779
 20
430.445251
 30
0.0
 11
-10.012783
 21
430.297607
 31
0.0
  0
ARC
  5
846
330
1F
100
AcDbEntity
  8
0
 62
     7
100
AcDbCircle
 10
-5.007008
 20
434.900024
 30
0.0
 40
6.300000190734863
100
AcDbArc
 50
222.247215
 51
225.0
  0
ARC
  5
847
330
1F
100
AcDbEntity
  8
0
 62
     7
100
AcDbCircle
 10
-5.007008
 20
434.900024
 30
0.0
 40
6.300000190734863
100
AcDbArc
 50
225.0
 51
237.338012
  0
ARC
  5
848
330
1F
100
AcDbEntity
  8
0
 62
     7
100
AcDbCircle
 10
-5.007008
 20
434.900024
 30
0.0
 40
6.300000190734863
100
AcDbArc
 50
302.661962
 51
314.999992
  0
ARC
  5
849
330
1F
100
AcDbEntity
  8
0
 62
     7
100
AcDbCircle
 10
-5.007008
 20
434.900024
 30
0.0
 40
6.300000190734863
100
AcDbArc
 50
314.999992
 51
317.752777
  0
ARC
  5
84A
330
1F
100
AcDbEntity
  8
0
 62
     7
100
AcDbCircle
 10
-5.007008
 20
434.900024
 30
0.0
 40
6.300000190734863
100
AcDbArc
 50
342.247199
 51
345.000012
  0
LINE
  5
84B
330
1F
100
AcDbEntity
  8
0
 62
     7
100
AcDbLine
 10
-0.552235
 20
430.445251
 30
0.0
 11
-0.001232
 21
430.297607
 31
0.0
  0
ARC
  5
84C
330
1F
100
AcDbEntity
  8
0
 62
     7
100
AcDbCircle
 10
-5.007008
 20
434.900024
 30
0.0
 40
6.800000190734863
100
AcDbArc
 50
317.403918
 51
342.596085
  0
LINE
  5
84D
330
1F
100
AcDbEntity
  8
0
 62
     7
100
AcDbLine
 10
1.078327
 20
433.26947
 30
0.0
 11
1.481689
 21
432.866089
 31
0.0
  0
ARC
  5
84E
330
1F
100
AcDbEntity
  8
0
 62
     7
100
AcDbCircle
 10
-5.007008
 20
434.900024
 30
0.0
 40
6.300000190734863
100
AcDbArc
 50
345.000012
 51
15.0
  0
ARC
  5
84F
330
1F
100
AcDbEntity
  8
0
 62
     7
100
AcDbCircle
 10
-5.007008
 20
434.900024
 30
0.0
 40
6.300000190734863
100
AcDbArc
 50
15.0
 51
17.75279
  0
ARC
  5
850
330
1F
100
AcDbEntity
  8
0
 62
     7
100
AcDbCircle
 10
-5.007008
 20
434.900024
 30
0.0
 40
6.800000190734863
100
AcDbArc
 50
17.403926
 51
42.596075
  0
LINE
  5
851
330
1F
100
AcDbEntity
  8
0
 62
     7
100
AcDbLine
 10
-0.552235
 20
439.354797
 30
0.0
 11
-0.001232
 21
439.502441
 31
0.0
  0
ARC
  5
852
330
1F
100
AcDbEntity
  8
0
 62
     7
100
AcDbCircle
 10
-5.007008
 20
434.900024
 30
0.0
 40
6.300000190734863
100
AcDbArc
 50
42.24721
 51
45.000001
  0
LINE
  5
853
330
1F
100
AcDbEntity
  8
0
 62
     7
100
AcDbLine
 10
1.078327
 20
436.530579
 30
0.0
 11
1.481689
 21
436.933899
 31
0.0
  0
ARC
  5
854
330
1F
100
AcDbEntity
  8
0
 62
     7
100
AcDbCircle
 10
-5.007008
 20
434.900024
 30
0.0
 40
6.300000190734863
100
AcDbArc
 50
45.000001
 51
74.999999
  0
ARC
  5
855
330
1F
100
AcDbEntity
  8
0
 62
     7
100
AcDbCircle
 10
-5.007008
 20
434.900024
 30
0.0
 40
6.300000190734863
100
AcDbArc
 50
74.999999
 51
77.75279
  0
ARC
  5
856
330
1F
100
AcDbEntity
  8
0
 62
     7
100
AcDbCircle
 10
-5.007008
 20
434.900024
 30
0.0
 40
6.300000190734863
100
AcDbArc
 50
102.247215
 51
105.0
  0
LINE
  5
857
330
1F
100
AcDbEntity
  8
0
 62
     7
100
AcDbLine
 10
-3.376446
 20
440.985352
 30
0.0
 11
-3.524086
 21
441.536316
 31
0.0
  0
ARC
  5
858
330
1F
100
AcDbEntity
  8
0
 62
     7
100
AcDbCircle
 10
-5.007008
 20
434.900024
 30
0.0
 40
6.800000190734863
100
AcDbArc
 50
77.403925
 51
102.596073
  0
LINE
  5
859
330
1F
100
AcDbEntity
  8
0
 62
     7
100
AcDbLine
 10
-6.637566
 20
440.985352
 30
0.0
 11
-6.489925
 21
441.536316
 31
0.0
  0
ARC
  5
85A
330
1F
100
AcDbEntity
  8
0
 62
     7
100
AcDbCircle
 10
-5.007008
 20
434.900024
 30
0.0
 40
6.300000190734863
100
AcDbArc
 50
105.0
 51
135.0
  0
LINE
  5
85B
330
1F
100
AcDbEntity
  8
0
 62
     7
100
AcDbLine
 10
3.592972
 20
449.304871
 30
0.0
 11
3.592995
 21
449.299988
 31
0.0
  0
LINE
  5
85C
330
1F
100
AcDbEntity
  8
0
 62
     7
100
AcDbLine
 10
3.591907
 20
449.332947
 30
0.0
 11
3.592995
 21
449.299988
 31
0.0
  0
LINE
  5
85D
330
1F
100
AcDbEntity
  8
0
 62
     7
100
AcDbLine
 10
3.592335
 20
449.325623
 30
0.0
 11
3.592995
 21
449.299988
 31
0.0
  0
ARC
  5
85E
330
1F
100
AcDbEntity
  8
0
 62
     7
100
AcDbCircle
 10
-5.007008
 20
434.900024
 30
0.0
 40
7.0
100
AcDbArc
 50
299.059263
 51
61.352113
  0
POLYLINE
  5
85F
330
1F
100
AcDbEntity
  8
0
 62
     7
100
AcDb2dPolyline
 66
     1
 10
0.0
 20
0.0
 30
0.0
  0
VERTEX
  5
860
330
85F
100
AcDbEntity
  8
0
100
AcDbVertex
100
AcDb2dVertex
 10
191.38063
 20
359.937317
 30
0.0
  0
VERTEX
  5
861
330
85F
100
AcDbEntity
  8
0
100
AcDbVertex
100
AcDb2dVertex
 10
190.920624
 20
360.501831
 30
0.0
  0
VERTEX
  5
862
330
85F
100
AcDbEntity
  8
0
100
AcDbVertex
100
AcDb2dVertex
 10
190.230637
 20
360.743774
 30
0.0
  0
VERTEX
  5
863
330
85F
100
AcDbEntity
  8
0
100
AcDbVertex
100
AcDb2dVertex
 10
189.540634
 20
360.743774
 30
0.0
  0
VERTEX
  5
864
330
85F
100
AcDbEntity
  8
0
100
AcDbVertex
100
AcDb2dVertex
 10
188.850632
 20
360.501831
 30
0.0
  0
VERTEX
  5
865
330
85F
100
AcDbEntity
  8
0
100
AcDbVertex
100
AcDb2dVertex
 10
188.390625
 20
359.856689
 30
0.0
  0
VERTEX
  5
866
330
85F
100
AcDbEntity
  8
0
100
AcDbVertex
100
AcDb2dVertex
 10
188.390625
 20
359.292175
 30
0.0
  0
VERTEX
  5
867
330
85F
100
AcDbEntity
  8
0
100
AcDbVertex
100
AcDb2dVertex
 10
188.793137
 20
358.727631
 30
0.0
  0
SEQEND
  5
868
330
85F
100
AcDbEntity
  8
0
 62
     7
  0
POLYLINE
  5
869
330
1F
100
AcDbEntity
  8
0
 62
     7
100
AcDb2dPolyline
 66
     1
 10
0.0
 20
0.0
 30
0.0
  0
VERTEX
  5
86A
330
869
100
AcDbEntity
  8
0
100
AcDbVertex
100
AcDb2dVertex
 10
189.885635
 20
358.324432
 30
0.0
  0
VERTEX
  5
86B
330
869
100
AcDbEntity
  8
0
100
AcDbVertex
100
AcDb2dVertex
 10
190.403122
 20
358.163116
 30
0.0
  0
SEQEND
  5
86C
330
869
100
AcDbEntity
  8
0
 62
     7
  0
POLYLINE
  5
86D
330
1F
100
AcDbEntity
  8
0
 62
     7
100
AcDb2dPolyline
 66
     1
 10
0.0
 20
0.0
 30
0.0
  0
VERTEX
  5
86E
330
86D
100
AcDbEntity
  8
0
100
AcDbVertex
100
AcDb2dVertex
 10
190.920624
 20
355.90506
 30
0.0
  0
VERTEX
  5
86F
330
86D
100
AcDbEntity
  8
0
100
AcDbVertex
100
AcDb2dVertex
 10
190.230637
 20
355.743774
 30
0.0
  0
VERTEX
  5
870
330
86D
100
AcDbEntity
  8
0
100
AcDbVertex
100
AcDb2dVertex
 10
189.540634
 20
355.743774
 30
0.0
  0
VERTEX
  5
871
330
86D
100
AcDbEntity
  8
0
100
AcDbVertex
100
AcDb2dVertex
 10
188.850632
 20
356.066345
 30
0.0
  0
VERTEX
  5
872
330
86D
100
AcDbEntity
  8
0
100
AcDbVertex
100
AcDb2dVertex
 10
188.390625
 20
356.630859
 30
0.0
  0
SEQEND
  5
873
330
86D
100
AcDbEntity
  8
0
 62
     7
  0
POLYLINE
  5
874
330
1F
100
AcDbEntity
  8
0
 62
     7
100
AcDb2dPolyline
 66
     1
 10
0.0
 20
0.0
 30
0.0
  0
VERTEX
  5
875
330
874
100
AcDbEntity
  8
0
100
AcDbVertex
100
AcDb2dVertex
 10
189.425629
 20
358.40506
 30
0.0
  0
VERTEX
  5
876
330
874
100
AcDbEntity
  8
0
100
AcDbVertex
100
AcDb2dVertex
 10
189.885635
 20
358.324432
 30
0.0
  0
SEQEND
  5
877
330
874
100
AcDbEntity
  8
0
 62
     7
  0
POLYLINE
  5
878
330
1F
100
AcDbEntity
  8
0
 62
     7
100
AcDb2dPolyline
 66
     1
 10
0.0
 20
0.0
 30
0.0
  0
VERTEX
  5
879
330
878
100
AcDbEntity
  8
0
100
AcDbVertex
100
AcDb2dVertex
 10
188.793137
 20
358.727631
 30
0.0
  0
VERTEX
  5
87A
330
878
100
AcDbEntity
  8
0
100
AcDbVertex
100
AcDb2dVertex
 10
189.425629
 20
358.40506
 30
0.0
  0
SEQEND
  5
87B
330
878
100
AcDbEntity
  8
0
 62
     7
  0
POLYLINE
  5
87C
330
1F
100
AcDbEntity
  8
0
 62
     7
100
AcDb2dPolyline
 66
     1
 10
0.0
 20
0.0
 30
0.0
  0
VERTEX
  5
87D
330
87C
100
AcDbEntity
  8
0
100
AcDbVertex
100
AcDb2dVertex
 10
191.38063
 20
356.550232
 30
0.0
  0
VERTEX
  5
87E
330
87C
100
AcDbEntity
  8
0
100
AcDbVertex
100
AcDb2dVertex
 10
190.920624
 20
355.90506
 30
0.0
  0
SEQEND
  5
87F
330
87C
100
AcDbEntity
  8
0
 62
     7
  0
POLYLINE
  5
880
330
1F
100
AcDbEntity
  8
0
 62
     7
100
AcDb2dPolyline
 66
     1
 10
0.0
 20
0.0
 30
0.0
  0
VERTEX
  5
881
330
880
100
AcDbEntity
  8
0
100
AcDbVertex
100
AcDb2dVertex
 10
191.38063
 20
357.276031
 30
0.0
  0
VERTEX
  5
882
330
880
100
AcDbEntity
  8
0
100
AcDbVertex
100
AcDb2dVertex
 10
191.38063
 20
356.550232
 30
0.0
  0
SEQEND
  5
883
330
880
100
AcDbEntity
  8
0
 62
     7
  0
POLYLINE
  5
884
330
1F
100
AcDbEntity
  8
0
 62
     7
100
AcDb2dPolyline
 66
     1
 10
0.0
 20
0.0
 30
0.0
  0
VERTEX
  5
885
330
884
100
AcDbEntity
  8
0
100
AcDbVertex
100
AcDb2dVertex
 10
190.403122
 20
358.163116
 30
0.0
  0
VERTEX
  5
886
330
884
100
AcDbEntity
  8
0
100
AcDbVertex
100
AcDb2dVertex
 10
190.920624
 20
357.840546
 30
0.0
  0
VERTEX
  5
887
330
884
100
AcDbEntity
  8
0
100
AcDbVertex
100
AcDb2dVertex
 10
191.38063
 20
357.276031
 30
0.0
  0
SEQEND
  5
888
330
884
100
AcDbEntity
  8
0
 62
     7
  0
POLYLINE
  5
889
330
1F
100
AcDbEntity
  8
0
 62
     7
100
AcDb2dPolyline
 66
     1
 10
0.0
 20
0.0
 30
0.0
  0
VERTEX
  5
88A
330
889
100
AcDbEntity
  8
0
100
AcDbVertex
100
AcDb2dVertex
 10
194.295624
 20
360.743774
 30
0.0
  0
VERTEX
  5
88B
330
889
100
AcDbEntity
  8
0
100
AcDbVertex
100
AcDb2dVertex
 10
192.340622
 20
360.743774
 30
0.0
  0
SEQEND
  5
88C
330
889
100
AcDbEntity
  8
0
 62
     7
  0
POLYLINE
  5
88D
330
1F
100
AcDbEntity
  8
0
 62
     7
100
AcDb2dPolyline
 66
     1
 10
0.0
 20
0.0
 30
0.0
  0
VERTEX
  5
88E
330
88D
100
AcDbEntity
  8
0
100
AcDbVertex
100
AcDb2dVertex
 10
192.340622
 20
358.324432
 30
0.0
  0
VERTEX
  5
88F
330
88D
100
AcDbEntity
  8
0
100
AcDbVertex
100
AcDb2dVertex
 10
194.410629
 20
358.324432
 30
0.0
  0
SEQEND
  5
890
330
88D
100
AcDbEntity
  8
0
 62
     7
  0
POLYLINE
  5
891
330
1F
100
AcDbEntity
  8
0
 62
     7
100
AcDb2dPolyline
 66
     1
 10
0.0
 20
0.0
 30
0.0
  0
VERTEX
  5
892
330
891
100
AcDbEntity
  8
0
100
AcDbVertex
100
AcDb2dVertex
 10
192.340622
 20
360.743774
 30
0.0
  0
VERTEX
  5
893
330
891
100
AcDbEntity
  8
0
100
AcDbVertex
100
AcDb2dVertex
 10
192.340622
 20
355.743774
 30
0.0
  0
SEQEND
  5
894
330
891
100
AcDbEntity
  8
0
 62
     7
  0
POLYLINE
  5
895
330
1F
100
AcDbEntity
  8
0
 62
     7
100
AcDb2dPolyline
 66
     1
 10
0.0
 20
0.0
 30
0.0
  0
VERTEX
  5
896
330
895
100
AcDbEntity
  8
0
100
AcDbVertex
100
AcDb2dVertex
 10
194.295624
 20
360.743774
 30
0.0
  0
VERTEX
  5
897
330
895
100
AcDbEntity
  8
0
100
AcDbVertex
100
AcDb2dVertex
 10
194.698135
 20
360.501831
 30
0.0
  0
VERTEX
  5
898
330
895
100
AcDbEntity
  8
0
100
AcDbVertex
100
AcDb2dVertex
 10
195.100632
 20
359.937317
 30
0.0
  0
VERTEX
  5
899
330
895
100
AcDbEntity
  8
0
100
AcDbVertex
100
AcDb2dVertex
 10
195.100632
 20
359.130859
 30
0.0
  0
VERTEX
  5
89A
330
895
100
AcDbEntity
  8
0
100
AcDbVertex
100
AcDb2dVertex
 10
194.813126
 20
358.647003
 30
0.0
  0
VERTEX
  5
89B
330
895
100
AcDbEntity
  8
0
100
AcDbVertex
100
AcDb2dVertex
 10
194.410629
 20
358.324432
 30
0.0
  0
SEQEND
  5
89C
330
895
100
AcDbEntity
  8
0
 62
     7
  0
POLYLINE
  5
89D
330
1F
100
AcDbEntity
  8
0
 62
     7
100
AcDb2dPolyline
 66
     1
 10
0.0
 20
0.0
 30
0.0
  0
VERTEX
  5
89E
330
89D
100
AcDbEntity
  8
0
100
AcDbVertex
100
AcDb2dVertex
 10
193.950623
 20
358.324432
 30
0.0
  0
VERTEX
  5
89F
330
89D
100
AcDbEntity
  8
0
100
AcDbVertex
100
AcDb2dVertex
 10
195.100632
 20
355.743774
 30
0.0
  0
SEQEND
  5
8A0
330
89D
100
AcDbEntity
  8
0
 62
     7
  0
POLYLINE
  5
8A1
330
1F
100
AcDbEntity
  8
0
 62
     7
100
AcDb2dPolyline
 66
     1
 10
0.0
 20
0.0
 30
0.0
  0
VERTEX
  5
8A2
330
8A1
100
AcDbEntity
  8
0
100
AcDbVertex
100
AcDb2dVertex
 10
199.165634
 20
355.743774
 30
0.0
  0
VERTEX
  5
8A3
330
8A1
100
AcDbEntity
  8
0
100
AcDbVertex
100
AcDb2dVertex
 10
196.405624
 20
355.743774
 30
0.0
  0
VERTEX
  5
8A4
330
8A1
100
AcDbEntity
  8
0
100
AcDbVertex
100
AcDb2dVertex
 10
198.360626
 20
358.001831
 30
0.0
  0
VERTEX
  5
8A5
330
8A1
100
AcDbEntity
  8
0
100
AcDbVertex
100
AcDb2dVertex
 10
198.763123
 20
358.647003
 30
0.0
  0
VERTEX
  5
8A6
330
8A1
100
AcDbEntity
  8
0
100
AcDbVertex
100
AcDb2dVertex
 10
198.935623
 20
359.130859
 30
0.0
  0
VERTEX
  5
8A7
330
8A1
100
AcDbEntity
  8
0
100
AcDbVertex
100
AcDb2dVertex
 10
198.935623
 20
359.614746
 30
0.0
  0
VERTEX
  5
8A8
330
8A1
100
AcDbEntity
  8
0
100
AcDbVertex
100
AcDb2dVertex
 10
198.763123
 20
360.17926
 30
0.0
  0
VERTEX
  5
8A9
330
8A1
100
AcDbEntity
  8
0
100
AcDbVertex
100
AcDb2dVertex
 10
198.590637
 20
360.501831
 30
0.0
  0
VERTEX
  5
8AA
330
8A1
100
AcDbEntity
  8
0
100
AcDbVertex
100
AcDb2dVertex
 10
198.188126
 20
360.743774
 30
0.0
  0
VERTEX
  5
8AB
330
8A1
100
AcDbEntity
  8
0
100
AcDbVertex
100
AcDb2dVertex
 10
197.498123
 20
360.743774
 30
0.0
  0
VERTEX
  5
8AC
330
8A1
100
AcDbEntity
  8
0
100
AcDbVertex
100
AcDb2dVertex
 10
197.095627
 20
360.501831
 30
0.0
  0
VERTEX
  5
8AD
330
8A1
100
AcDbEntity
  8
0
100
AcDbVertex
100
AcDb2dVertex
 10
196.923126
 20
360.259918
 30
0.0
  0
VERTEX
  5
8AE
330
8A1
100
AcDbEntity
  8
0
100
AcDbVertex
100
AcDb2dVertex
 10
196.69313
 20
359.776031
 30
0.0
  0
VERTEX
  5
8AF
330
8A1
100
AcDbEntity
  8
0
100
AcDbVertex
100
AcDb2dVertex
 10
196.69313
 20
359.534088
 30
0.0
  0
SEQEND
  5
8B0
330
8A1
100
AcDbEntity
  8
0
 62
     7
  0
POLYLINE
  5
8B1
330
1F
100
AcDbEntity
  8
0
 62
     7
100
AcDb2dPolyline
 66
     1
 10
0.0
 20
0.0
 30
0.0
  0
VERTEX
  5
8B2
330
8B1
100
AcDbEntity
  8
0
100
AcDbVertex
100
AcDb2dVertex
 10
203.000626
 20
357.517975
 30
0.0
  0
VERTEX
  5
8B3
330
8B1
100
AcDbEntity
  8
0
100
AcDbVertex
100
AcDb2dVertex
 10
200.355621
 20
357.517975
 30
0.0
  0
VERTEX
  5
8B4
330
8B1
100
AcDbEntity
  8
0
100
AcDbVertex
100
AcDb2dVertex
 10
202.310623
 20
360.743774
 30
0.0
  0
VERTEX
  5
8B5
330
8B1
100
AcDbEntity
  8
0
100
AcDbVertex
100
AcDb2dVertex
 10
202.310623
 20
358.324432
 30
0.0
  0
VERTEX
  5
8B6
330
8B1
100
AcDbEntity
  8
0
100
AcDbVertex
100
AcDb2dVertex
 10
202.310623
 20
355.743774
 30
0.0
  0
SEQEND
  5
8B7
330
8B1
100
AcDbEntity
  8
0
 62
     7
  0
POLYLINE
  5
8B8
330
1F
100
AcDbEntity
  8
0
 62
     7
100
AcDb2dPolyline
 66
     1
 10
0.0
 20
0.0
 30
0.0
  0
VERTEX
  5
8B9
330
8B8
100
AcDbEntity
  8
0
100
AcDbVertex
100
AcDb2dVertex
 10
204.478134
 20
357.759918
 30
0.0
  0
VERTEX
  5
8BA
330
8B8
100
AcDbEntity
  8
0
100
AcDbVertex
100
AcDb2dVertex
 10
207.123123
 20
357.759918
 30
0.0
  0
SEQEND
  5
8BB
330
8B8
100
AcDbEntity
  8
0
 62
     7
  0
POLYLINE
  5
8BC
330
1F
100
AcDbEntity
  8
0
 62
     7
100
AcDb2dPolyline
 66
     1
 10
0.0
 20
0.0
 30
0.0
 70
     1
  0
VERTEX
  5
8BD
330
8BC
100
AcDbEntity
  8
0
100
AcDbVertex
100
AcDb2dVertex
 10
209.405624
 20
360.743774
 30
0.0
  0
VERTEX
  5
8BE
330
8BC
100
AcDbEntity
  8
0
100
AcDbVertex
100
AcDb2dVertex
 10
208.773132
 20
360.501831
 30
0.0
  0
VERTEX
  5
8BF
330
8BC
100
AcDbEntity
  8
0
100
AcDbVertex
100
AcDb2dVertex
 10
208.370636
 20
359.695374
 30
0.0
  0
VERTEX
  5
8C0
330
8BC
100
AcDbEntity
  8
0
100
AcDbVertex
100
AcDb2dVertex
 10
208.19812
 20
358.888947
 30
0.0
  0
VERTEX
  5
8C1
330
8BC
100
AcDbEntity
  8
0
100
AcDbVertex
100
AcDb2dVertex
 10
208.19812
 20
357.840546
 30
0.0
  0
VERTEX
  5
8C2
330
8BC
100
AcDbEntity
  8
0
100
AcDbVertex
100
AcDb2dVertex
 10
208.370636
 20
356.792175
 30
0.0
  0
VERTEX
  5
8C3
330
8BC
100
AcDbEntity
  8
0
100
AcDbVertex
100
AcDb2dVertex
 10
208.773132
 20
355.985718
 30
0.0
  0
VERTEX
  5
8C4
330
8BC
100
AcDbEntity
  8
0
100
AcDbVertex
100
AcDb2dVertex
 10
209.405624
 20
355.743774
 30
0.0
  0
VERTEX
  5
8C5
330
8BC
100
AcDbEntity
  8
0
100
AcDbVertex
100
AcDb2dVertex
 10
209.865631
 20
355.743774
 30
0.0
  0
VERTEX
  5
8C6
330
8BC
100
AcDbEntity
  8
0
100
AcDbVertex
100
AcDb2dVertex
 10
210.498123
 20
355.985718
 30
0.0
  0
VERTEX
  5
8C7
330
8BC
100
AcDbEntity
  8
0
100
AcDbVertex
100
AcDb2dVertex
 10
210.900635
 20
356.792175
 30
0.0
  0
VERTEX
  5
8C8
330
8BC
100
AcDbEntity
  8
0
100
AcDbVertex
100
AcDb2dVertex
 10
211.07312
 20
357.759918
 30
0.0
  0
VERTEX
  5
8C9
330
8BC
100
AcDbEntity
  8
0
100
AcDbVertex
100
AcDb2dVertex
 10
211.07312
 20
358.888947
 30
0.0
  0
VERTEX
  5
8CA
330
8BC
100
AcDbEntity
  8
0
100
AcDbVertex
100
AcDb2dVertex
 10
210.900635
 20
359.695374
 30
0.0
  0
VERTEX
  5
8CB
330
8BC
100
AcDbEntity
  8
0
100
AcDbVertex
100
AcDb2dVertex
 10
210.498123
 20
360.501831
 30
0.0
  0
VERTEX
  5
8CC
330
8BC
100
AcDbEntity
  8
0
100
AcDbVertex
100
AcDb2dVertex
 10
209.865631
 20
360.743774
 30
0.0
  0
SEQEND
  5
8CD
330
8BC
100
AcDbEntity
  8
0
 62
     7
  0
POLYLINE
  5
8CE
330
1F
100
AcDbEntity
  8
0
 62
     7
100
AcDb2dPolyline
 66
     1
 10
0.0
 20
0.0
 30
0.0
  0
VERTEX
  5
8CF
330
8CE
100
AcDbEntity
  8
0
100
AcDbVertex
100
AcDb2dVertex
 10
214.793121
 20
359.130859
 30
0.0
  0
VERTEX
  5
8D0
330
8CE
100
AcDbEntity
  8
0
100
AcDbVertex
100
AcDb2dVertex
 10
214.620636
 20
360.017975
 30
0.0
  0
VERTEX
  5
8D1
330
8CE
100
AcDbEntity
  8
0
100
AcDbVertex
100
AcDb2dVertex
 10
214.218124
 20
360.501831
 30
0.0
  0
VERTEX
  5
8D2
330
8CE
100
AcDbEntity
  8
0
100
AcDbVertex
100
AcDb2dVertex
 10
213.585632
 20
360.743774
 30
0.0
  0
VERTEX
  5
8D3
330
8CE
100
AcDbEntity
  8
0
100
AcDbVertex
100
AcDb2dVertex
 10
213.413132
 20
360.743774
 30
0.0
  0
VERTEX
  5
8D4
330
8CE
100
AcDbEntity
  8
0
100
AcDbVertex
100
AcDb2dVertex
 10
212.780624
 20
360.501831
 30
0.0
  0
VERTEX
  5
8D5
330
8CE
100
AcDbEntity
  8
0
100
AcDbVertex
100
AcDb2dVertex
 10
212.378128
 20
360.017975
 30
0.0
  0
VERTEX
  5
8D6
330
8CE
100
AcDbEntity
  8
0
100
AcDbVertex
100
AcDb2dVertex
 10
212.205627
 20
359.372803
 30
0.0
  0
VERTEX
  5
8D7
330
8CE
100
AcDbEntity
  8
0
100
AcDbVertex
100
AcDb2dVertex
 10
212.205627
 20
359.130859
 30
0.0
  0
VERTEX
  5
8D8
330
8CE
100
AcDbEntity
  8
0
100
AcDbVertex
100
AcDb2dVertex
 10
212.378128
 20
358.485718
 30
0.0
  0
VERTEX
  5
8D9
330
8CE
100
AcDbEntity
  8
0
100
AcDbVertex
100
AcDb2dVertex
 10
212.780624
 20
358.001831
 30
0.0
  0
VERTEX
  5
8DA
330
8CE
100
AcDbEntity
  8
0
100
AcDbVertex
100
AcDb2dVertex
 10
213.413132
 20
357.67926
 30
0.0
  0
VERTEX
  5
8DB
330
8CE
100
AcDbEntity
  8
0
100
AcDbVertex
100
AcDb2dVertex
 10
213.585632
 20
357.67926
 30
0.0
  0
VERTEX
  5
8DC
330
8CE
100
AcDbEntity
  8
0
100
AcDbVertex
100
AcDb2dVertex
 10
214.218124
 20
357.921204
 30
0.0
  0
VERTEX
  5
8DD
330
8CE
100
AcDbEntity
  8
0
100
AcDbVertex
100
AcDb2dVertex
 10
214.620636
 20
358.40506
 30
0.0
  0
VERTEX
  5
8DE
330
8CE
100
AcDbEntity
  8
0
100
AcDbVertex
100
AcDb2dVertex
 10
214.793121
 20
359.130859
 30
0.0
  0
VERTEX
  5
8DF
330
8CE
100
AcDbEntity
  8
0
100
AcDbVertex
100
AcDb2dVertex
 10
214.793121
 20
358.001831
 30
0.0
  0
VERTEX
  5
8E0
330
8CE
100
AcDbEntity
  8
0
100
AcDbVertex
100
AcDb2dVertex
 10
214.620636
 20
356.872803
 30
0.0
  0
VERTEX
  5
8E1
330
8CE
100
AcDbEntity
  8
0
100
AcDbVertex
100
AcDb2dVertex
 10
214.218124
 20
355.985718
 30
0.0
  0
VERTEX
  5
8E2
330
8CE
100
AcDbEntity
  8
0
100
AcDbVertex
100
AcDb2dVertex
 10
213.585632
 20
355.743774
 30
0.0
  0
VERTEX
  5
8E3
330
8CE
100
AcDbEntity
  8
0
100
AcDbVertex
100
AcDb2dVertex
 10
213.183136
 20
355.743774
 30
0.0
  0
VERTEX
  5
8E4
330
8CE
100
AcDbEntity
  8
0
100
AcDbVertex
100
AcDb2dVertex
 10
212.608124
 20
355.985718
 30
0.0
  0
VERTEX
  5
8E5
330
8CE
100
AcDbEntity
  8
0
100
AcDbVertex
100
AcDb2dVertex
 10
212.378128
 20
356.469574
 30
0.0
  0
SEQEND
  5
8E6
330
8CE
100
AcDbEntity
  8
0
 62
     7
  0
POLYLINE
  5
8E7
330
1F
100
AcDbEntity
  8
0
 62
     7
100
AcDb2dPolyline
 66
     1
 10
0.0
 20
0.0
 30
0.0
  0
VERTEX
  5
8E8
330
8E7
100
AcDbEntity
  8
0
100
AcDbVertex
100
AcDb2dVertex
 10
218.915634
 20
355.743774
 30
0.0
  0
VERTEX
  5
8E9
330
8E7
100
AcDbEntity
  8
0
100
AcDbVertex
100
AcDb2dVertex
 10
216.155624
 20
355.743774
 30
0.0
  0
VERTEX
  5
8EA
330
8E7
100
AcDbEntity
  8
0
100
AcDbVertex
100
AcDb2dVertex
 10
218.110626
 20
358.001831
 30
0.0
  0
VERTEX
  5
8EB
330
8E7
100
AcDbEntity
  8
0
100
AcDbVertex
100
AcDb2dVertex
 10
218.513123
 20
358.647003
 30
0.0
  0
VERTEX
  5
8EC
330
8E7
100
AcDbEntity
  8
0
100
AcDbVertex
100
AcDb2dVertex
 10
218.685623
 20
359.130859
 30
0.0
  0
VERTEX
  5
8ED
330
8E7
100
AcDbEntity
  8
0
100
AcDbVertex
100
AcDb2dVertex
 10
218.685623
 20
359.614746
 30
0.0
  0
VERTEX
  5
8EE
330
8E7
100
AcDbEntity
  8
0
100
AcDbVertex
100
AcDb2dVertex
 10
218.513123
 20
360.17926
 30
0.0
  0
VERTEX
  5
8EF
330
8E7
100
AcDbEntity
  8
0
100
AcDbVertex
100
AcDb2dVertex
 10
218.340637
 20
360.501831
 30
0.0
  0
VERTEX
  5
8F0
330
8E7
100
AcDbEntity
  8
0
100
AcDbVertex
100
AcDb2dVertex
 10
217.938126
 20
360.743774
 30
0.0
  0
VERTEX
  5
8F1
330
8E7
100
AcDbEntity
  8
0
100
AcDbVertex
100
AcDb2dVertex
 10
217.248123
 20
360.743774
 30
0.0
  0
VERTEX
  5
8F2
330
8E7
100
AcDbEntity
  8
0
100
AcDbVertex
100
AcDb2dVertex
 10
216.845627
 20
360.501831
 30
0.0
  0
VERTEX
  5
8F3
330
8E7
100
AcDbEntity
  8
0
100
AcDbVertex
100
AcDb2dVertex
 10
216.673126
 20
360.259918
 30
0.0
  0
VERTEX
  5
8F4
330
8E7
100
AcDbEntity
  8
0
100
AcDbVertex
100
AcDb2dVertex
 10
216.44313
 20
359.776031
 30
0.0
  0
VERTEX
  5
8F5
330
8E7
100
AcDbEntity
  8
0
100
AcDbVertex
100
AcDb2dVertex
 10
216.44313
 20
359.534088
 30
0.0
  0
SEQEND
  5
8F6
330
8E7
100
AcDbEntity
  8
0
 62
     7
  0
ENDSEC
  0
SECTION
  2
OBJECTS
  0
DICTIONARY
  5
C
330
0
100
AcDbDictionary
  3
ACAD_GROUP
350
D
  3
ACAD_MLINESTYLE
350
17
  3
ACAD_SCALELIST
350
47
  0
DICTIONARY
  5
D
102
{ACAD_REACTORS
330
C
102
}
330
C
100
AcDbDictionary
  0
DICTIONARY
  5
17
102
{ACAD_REACTORS
330
C
102
}
330
C
100
AcDbDictionary
  3
STANDARD
350
18
  0
DICTIONARY
  5
47
102
{ACAD_REACTORS
330
C
102
}
330
C
100
AcDbDictionary
  0
MLINESTYLE
  5
18
102
{ACAD_REACTORS
330
17
102
}
330
17
100
AcDbMlineStyle
  2
Standard
 70
     0
  3

 62
   256
 51
90.0
 52
90.0
 71
     2
 49
0.5
 62
   256
  6
BYLAYER
 49
-0.5
 62
   256
  6
BYLAYER
  0
ENDSEC
  0
EOF
