  0
SECTION
  2
HEADER
  9
$ACADVER
  1
AC1014
  9
$ACADMAINTVER
 70
     9
  9
$DWGCODEPAGE
  3
ANSI_1252
  9
$INSBASE
 10
0.0
 20
0.0
 30
0.0
  9
$EXTMIN
 10
0.0
 20
0.0
 30
0.0
  9
$EXTMAX
 10
1024.147095
 20
491.099976
 30
2.0
  9
$LIMMIN
 10
0.0
 20
0.0
  9
$LIMMAX
 10
420.0
 20
297.0
  9
$ORTHOMODE
 70
     0
  9
$REGENMODE
 70
     1
  9
$FILLMODE
 70
     1
  9
$QTEXTMODE
 70
     0
  9
$MIRRTEXT
 70
     1
  9
$DRAGMODE
 70
     2
  9
$LTSCALE
 40
1.0
  9
$OSMODE
 70
     0
  9
$ATTMODE
 70
     1
  9
$TEXTSIZE
 40
2.5
  9
$TRACEWID
 40
1.0
  9
$TEXTSTYLE
  7
STANDARD
  9
$CLAYER
  8
0
  9
$CELTYPE
  6
BYLAYER
  9
$CECOLOR
 62
   256
  9
$CELTSCALE
 40
1.0
  9
$DELOBJ
 70
     1
  9
$DISPSILH
 70
     0
  9
$DIMSCALE
 40
1.0
  9
$DIMASZ
 40
2.5
  9
$DIMEXO
 40
0.625
  9
$DIMDLI
 40
3.75
  9
$DIMRND
 40
0.0
  9
$DIMDLE
 40
0.0
  9
$DIMEXE
 40
1.25
  9
$DIMTP
 40
0.0
  9
$DIMTM
 40
0.0
  9
$DIMTXT
 40
2.5
  9
$DIMCEN
 40
2.5
  9
$DIMTSZ
 40
0.0
  9
$DIMTOL
 70
     0
  9
$DIMLIM
 70
     0
  9
$DIMTIH
 70
     0
  9
$DIMTOH
 70
     0
  9
$DIMSE1
 70
     0
  9
$DIMSE2
 70
     0
  9
$DIMTAD
 70
     1
  9
$DIMZIN
 70
     8
  9
$DIMBLK
  1

  9
$DIMASO
 70
     1
  9
$DIMSHO
 70
     1
  9
$DIMPOST
  1

  9
$DIMAPOST
  1

  9
$DIMALT
 70
     0
  9
$DIMALTD
 70
     3
  9
$DIMALTF
 40
0.03937
  9
$DIMLFAC
 40
1.0
  9
$DIMTOFL
 70
     1
  9
$DIMTVP
 40
0.0
  9
$DIMTIX
 70
     0
  9
$DIMSOXD
 70
     0
  9
$DIMSAH
 70
     0
  9
$DIMBLK1
  1

  9
$DIMBLK2
  1

  9
$DIMSTYLE
  2
STANDARD
  9
$DIMCLRD
 70
     0
  9
$DIMCLRE
 70
     0
  9
$DIMCLRT
 70
     0
  9
$DIMTFAC
 40
1.0
  9
$DIMGAP
 40
0.625
  9
$DIMJUST
 70
     0
  9
$DIMSD1
 70
     0
  9
$DIMSD2
 70
     0
  9
$DIMTOLJ
 70
     0
  9
$DIMTZIN
 70
     8
  9
$DIMALTZ
 70
     0
  9
$DIMALTTZ
 70
     0
  9
$DIMFIT
 70
     0
  9
$DIMUPT
 70
     0
  9
$DIMUNIT
 70
     2
  9
$DIMDEC
 70
     2
  9
$DIMTDEC
 70
     2
  9
$DIMALTU
 70
     2
  9
$DIMALTTD
 70
     3
  9
$DIMTXSTY
  7
STANDARD
  9
$DIMAUNIT
 70
     0
  9
$LUNITS
 70
     2
  9
$LUPREC
 70
     4
  9
$SKETCHINC
 40
1.0
  9
$FILLETRAD
 40
2.5
  9
$AUNITS
 70
     0
  9
$AUPREC
 70
     0
  9
$MENU
  1
.
  9
$ELEVATION
 40
0.0
  9
$PELEVATION
 40
0.0
  9
$THICKNESS
 40
0.0
  9
$LIMCHECK
 70
     0
  9
$BLIPMODE
 70
     1
  9
$CHAMFERA
 40
2.5
  9
$CHAMFERB
 40
2.5
  9
$CHAMFERC
 40
0.0
  9
$CHAMFERD
 40
0.0
  9
$SKPOLY
 70
     0
  9
$TDCREATE
 40
2447893.375
  9
$TDUPDATE
 40
2460350.642701922
  9
$TDINDWG
 40
0.0
  9
$TDUSRTIMER
 40
0.0
  9
$USRTIMER
 70
     1
  9
$ANGBASE
 50
0.0
  9
$ANGDIR
 70
     0
  9
$PDMODE
 70
     0
  9
$PDSIZE
 40
0.0
  9
$PLINEWID
 40
0.0
  9
$COORDS
 70
     0
  9
$SPLFRAME
 70
     0
  9
$SPLINETYPE
 70
     6
  9
$SPLINESEGS
 70
     8
  9
$ATTDIA
 70
     0
  9
$ATTREQ
 70
     1
  9
$HANDLING
 70
     1
  9
$HANDSEED
  5
8B8
  9
$SURFTAB1
 70
     6
  9
$SURFTAB2
 70
     6
  9
$SURFTYPE
 70
     6
  9
$SURFU
 70
     6
  9
$SURFV
 70
     6
  9
$UCSNAME
  2

  9
$UCSORG
 10
0.0
 20
0.0
 30
0.0
  9
$UCSXDIR
 10
1.0
 20
0.0
 30
0.0
  9
$UCSYDIR
 10
0.0
 20
1.0
 30
0.0
  9
$PUCSNAME
  2

  9
$PUCSORG
 10
0.0
 20
0.0
 30
0.0
  9
$PUCSXDIR
 10
1.0
 20
0.0
 30
0.0
  9
$PUCSYDIR
 10
0.0
 20
1.0
 30
0.0
  9
$USERI1
 70
     0
  9
$USERI2
 70
     0
  9
$USERI3
 70
     0
  9
$USERI4
 70
     0
  9
$USERI5
 70
     0
  9
$USERR1
 40
0.0
  9
$USERR2
 40
0.0
  9
$USERR3
 40
0.0
  9
$USERR4
 40
0.0
  9
$USERR5
 40
0.0
  9
$WORLDVIEW
 70
     1
  9
$SHADEDGE
 70
     3
  9
$SHADEDIF
 70
    70
  9
$TILEMODE
 70
     1
  9
$MAXACTVP
 70
    64
  9
$PINSBASE
 10
0.0
 20
0.0
 30
0.0
  9
$PLIMCHECK
 70
     0
  9
$PEXTMIN
 10
0.0
 20
0.0
 30
0.0
  9
$PEXTMAX
 10
1024.147095
 20
491.099976
 30
2.0
  9
$PLIMMIN
 10
0.0
 20
0.0
  9
$PLIMMAX
 10
420.0
 20
297.0
  9
$UNITMODE
 70
     0
  9
$VISRETAIN
 70
     0
  9
$PLINEGEN
 70
     0
  9
$PSLTSCALE
 70
     1
  9
$TREEDEPTH
 70
  3020
  9
$PICKSTYLE
 70
     1
  9
$CMLSTYLE
  2
STANDARD
  9
$CMLJUST
 70
     0
  9
$CMLSCALE
 40
20.0
  9
$PROXYGRAPHICS
 70
     1
  9
$MEASUREMENT
 70
     1
  0
ENDSEC
  0
SECTION
  2
CLASSES
  0
CLASS
  1
ACDBDICTIONARYWDFLT
  2
AcDbDictionaryWithDefault
  3
ObjectDBX Classes
 90
        0
280
     0
281
     0
  0
CLASS
  1
VISUALSTYLE
  2
AcDbVisualStyle
  3
ObjectDBX Classes
 90
     4095
280
     0
281
     0
  0
CLASS
  1
MATERIAL
  2
AcDbMaterial
  3
ObjectDBX Classes
 90
     1153
280
     0
281
     0
  0
CLASS
  1
SCALE
  2
AcDbScale
  3
ObjectDBX Classes
 90
     1153
280
     0
281
     0
  0
CLASS
  1
SUN
  2
AcDbSun
  3
SCENEOE
 90
     1153
280
     0
281
     0
  0
CLASS
  1
XRECORD
  2
AcDbXrecord
  3
ObjectDBX Classes
 90
        0
280
     0
281
     0
  0
CLASS
  1
LWPOLYLINE
  2
AcDbPolyline
  3
ObjectDBX Classes
 90
        0
280
     0
281
     1
  0
CLASS
  1
HATCH
  2
AcDbHatch
  3
ObjectDBX Classes
 90
        0
280
     0
281
     1
  0
ENDSEC
  0
SECTION
  2
TABLES
  0
TABLE
  2
VPORT
  5
8
330
0
100
AcDbSymbolTable
 70
     1
  0
VPORT
  5
29
330
8
100
AcDbSymbolTableRecord
100
AcDbViewportTableRecord
  2
*ACTIVE
 70
     0
 10
0.0
 20
0.0
 11
1.0
 21
1.0
 12
10.429907
 22
4.5
 13
0.0
 23
0.0
 14
0.5
 24
0.5
 15
0.5
 25
0.5
 16
0.0
 26
0.0
 36
1.0
 17
0.0
 27
0.0
 37
0.0
 40
9.0
 41
1.972973
 42
50.0
 43
0.0
 44
0.0
 50
0.0
 51
0.0
 71
     0
 72
   100
 73
     1
 74
     3
 75
     0
 76
     0
 77
     0
 78
     0
  0
ENDTAB
  0
TABLE
  2
LTYPE
  5
5
330
0
100
AcDbSymbolTable
 70
     1
  0
LTYPE
  5
14
330
5
100
AcDbSymbolTableRecord
100
AcDbLinetypeTableRecord
  2
BYBLOCK
 70
     0
  3

 72
    65
 73
     0
 40
0.0
  0
LTYPE
  5
15
330
5
100
AcDbSymbolTableRecord
100
AcDbLinetypeTableRecord
  2
BYLAYER
 70
     0
  3

 72
    65
 73
     0
 40
0.0
  0
LTYPE
  5
16
330
5
100
AcDbSymbolTableRecord
100
AcDbLinetypeTableRecord
  2
CONTINUOUS
 70
     0
  3
Solid line
 72
    65
 73
     0
 40
0.0
  0
ENDTAB
  0
TABLE
  2
LAYER
  5
2
330
0
100
AcDbSymbolTable
 70
     1
  0
LAYER
  5
10
330
2
100
AcDbSymbolTableRecord
100
AcDbLayerTableRecord
  2
0
 70
     0
 62
     7
  6
CONTINUOUS
  0
ENDTAB
  0
TABLE
  2
STYLE
  5
3
330
0
100
AcDbSymbolTable
 70
     1
  0
STYLE
  5
11
330
3
100
AcDbSymbolTableRecord
100
AcDbTextStyleTableRecord
  2
STANDARD
 70
     0
 40
0.0
 41
1.0
 50
0.0
 71
     0
 42
2.5
  3
txt
  4

  0
ENDTAB
  0
TABLE
  2
VIEW
  5
6
330
0
100
AcDbSymbolTable
 70
     0
  0
ENDTAB
  0
TABLE
  2
UCS
  5
7
330
0
100
AcDbSymbolTable
 70
     0
  0
ENDTAB
  0
TABLE
  2
APPID
  5
9
330
0
100
AcDbSymbolTable
 70
     1
  0
APPID
  5
12
330
9
100
AcDbSymbolTableRecord
100
AcDbRegAppTableRecord
  2
ACAD
 70
     0
  0
ENDTAB
  0
TABLE
  2
DIMSTYLE
  5
A
330
0
100
AcDbSymbolTable
 70
     1
  0
DIMSTYLE
105
27
330
A
100
AcDbSymbolTableRecord
100
AcDbDimStyleTableRecord
  2
STANDARD
 70
     0
  3

  4

  5

  6

  7

 40
1.0
 41
0.18
 42
0.0625
 43
0.38
 44
0.18
 45
0.0
 46
0.0
 47
0.0
 48
0.0
140
0.18
141
0.09
142
0.0
143
25.4
144
1.0
145
0.0
146
1.0
147
0.09
 71
     0
 72
     0
 73
     1
 74
     1
 75
     0
 76
     0
 77
     0
 78
     0
170
     0
171
     2
172
     0
173
     0
174
     0
175
     0
176
     0
177
     0
178
     0
270
     2
271
     4
272
     4
273
     2
274
     2
340
11
275
     0
280
     0
281
     0
282
     0
283
     1
284
     0
285
     0
286
     0
287
     3
288
     0
  0
ENDTAB
  0
TABLE
  2
BLOCK_RECORD
  5
1
330
0
100
AcDbSymbolTable
 70
     1
  0
BLOCK_RECORD
  5
1F
330
1
100
AcDbSymbolTableRecord
100
AcDbBlockTableRecord
  2
*MODEL_SPACE
  0
BLOCK_RECORD
  5
1B
330
1
100
AcDbSymbolTableRecord
100
AcDbBlockTableRecord
  2
*PAPER_SPACE
  0
BLOCK_RECORD
  5
23
330
1
100
AcDbSymbolTableRecord
100
AcDbBlockTableRecord
  2
*PAPER_SPACE0
  0
ENDTAB
  0
ENDSEC
  0
SECTION
  2
BLOCKS
  0
BLOCK
  5
20
330
1F
100
AcDbEntity
  8
0
100
AcDbBlockBegin
  2
*MODEL_SPACE
 70
     0
 10
0.0
 20
0.0
 30
0.0
  3
*MODEL_SPACE
  1

  0
ENDBLK
  5
21
330
1F
100
AcDbEntity
  8
0
100
AcDbBlockEnd
  0
BLOCK
  5
1C
330
1B
100
AcDbEntity
 67
     1
  8
0
100
AcDbBlockBegin
  2
*PAPER_SPACE
 70
     0
 10
0.0
 20
0.0
 30
0.0
  3
*PAPER_SPACE
  1

  0
ENDBLK
  5
1D
330
1B
100
AcDbEntity
 67
     1
  8
0
100
AcDbBlockEnd
  0
BLOCK
  5
24
330
23
100
AcDbEntity
  8
0
100
AcDbBlockBegin
  2
*PAPER_SPACE0
 70
     0
 10
0.0
 20
0.0
 30
0.0
  3
*PAPER_SPACE0
  1
*PAPER_SPACE0
  0
ENDBLK
  5
25
330
23
100
AcDbEntity
  8
0
100
AcDbBlockEnd
  0
ENDSEC
  0
SECTION
  2
ENTITIES
  0
LINE
  5
6A
330
1F
100
AcDbEntity
  8
0
 62
     7
100
AcDbLine
 10
1021.647034
 20
452.599976
 30
0.0
 11
1021.647034
 21
465.700012
 31
0.0
  0
LINE
  5
6B
330
1F
100
AcDbEntity
  8
0
 62
     7
100
AcDbLine
 10
1021.647034
 20
465.700012
 30
0.0
 11
1019.328369
 21
465.700012
 31
0.0
  0
ARC
  5
6C
330
1F
100
AcDbEntity
  8
0
 62
     7
100
AcDbCircle
 10
1012.647034
 20
470.099976
 30
0.0
 40
8.0
100
AcDbArc
 50
213.367013
 51
326.632979
  0
LINE
  5
6D
330
1F
100
AcDbEntity
  8
0
 62
     7
100
AcDbLine
 10
1005.965698
 20
465.700012
 30
0.0
 11
947.297058
 21
465.700012
 31
0.0
  0
LINE
  5
6E
330
1F
100
AcDbEntity
  8
0
 62
     7
100
AcDbLine
 10
947.297058
 20
461.799988
 30
0.0
 11
947.297058
 21
465.700012
 31
0.0
  0
ARC
  5
6F
330
1F
100
AcDbEntity
  8
0
 62
     7
100
AcDbCircle
 10
946.797058
 20
461.799988
 30
0.0
 40
0.5
100
AcDbArc
 50
180.000009
 51
360.0
  0
LINE
  5
70
330
1F
100
AcDbEntity
  8
0
 62
     7
100
AcDbLine
 10
946.297058
 20
465.700012
 30
0.0
 11
946.297058
 21
461.799988
 31
0.0
  0
LINE
  5
71
330
1F
100
AcDbEntity
  8
0
 62
     7
100
AcDbLine
 10
946.297058
 20
465.700012
 30
0.0
 11
943.997009
 21
465.700012
 31
0.0
  0
LINE
  5
72
330
1F
100
AcDbEntity
  8
0
 62
     7
100
AcDbLine
 10
943.997009
 20
461.799988
 30
0.0
 11
943.997009
 21
465.700012
 31
0.0
  0
ARC
  5
73
330
1F
100
AcDbEntity
  8
0
 62
     7
100
AcDbCircle
 10
943.497009
 20
461.799988
 30
0.0
 40
0.5
100
AcDbArc
 50
180.000009
 51
360.0
  0
LINE
  5
74
330
1F
100
AcDbEntity
  8
0
 62
     7
100
AcDbLine
 10
942.997009
 20
465.700012
 30
0.0
 11
942.997009
 21
461.799988
 31
0.0
  0
LINE
  5
75
330
1F
100
AcDbEntity
  8
0
 62
     7
100
AcDbLine
 10
942.997009
 20
465.700012
 30
0.0
 11
897.297058
 21
465.700012
 31
0.0
  0
LINE
  5
76
330
1F
100
AcDbEntity
  8
0
 62
     7
100
AcDbLine
 10
897.297058
 20
461.799988
 30
0.0
 11
897.297058
 21
465.700012
 31
0.0
  0
ARC
  5
77
330
1F
100
AcDbEntity
  8
0
 62
     7
100
AcDbCircle
 10
896.797058
 20
461.799988
 30
0.0
 40
0.5
100
AcDbArc
 50
180.000009
 51
360.0
  0
LINE
  5
78
330
1F
100
AcDbEntity
  8
0
 62
     7
100
AcDbLine
 10
896.297058
 20
465.700012
 30
0.0
 11
896.297058
 21
461.799988
 31
0.0
  0
LINE
  5
79
330
1F
100
AcDbEntity
  8
0
 62
     7
100
AcDbLine
 10
896.297058
 20
465.700012
 30
0.0
 11
893.997009
 21
465.700012
 31
0.0
  0
LINE
  5
7A
330
1F
100
AcDbEntity
  8
0
 62
     7
100
AcDbLine
 10
893.997009
 20
461.799988
 30
0.0
 11
893.997009
 21
465.700012
 31
0.0
  0
ARC
  5
7B
330
1F
100
AcDbEntity
  8
0
 62
     7
100
AcDbCircle
 10
893.497009
 20
461.799988
 30
0.0
 40
0.5
100
AcDbArc
 50
180.000009
 51
360.0
  0
LINE
  5
7C
330
1F
100
AcDbEntity
  8
0
 62
     7
100
AcDbLine
 10
892.997009
 20
465.700012
 30
0.0
 11
892.997009
 21
461.799988
 31
0.0
  0
LINE
  5
7D
330
1F
100
AcDbEntity
  8
0
 62
     7
100
AcDbLine
 10
892.997009
 20
465.700012
 30
0.0
 11
597.296997
 21
465.700012
 31
0.0
  0
LINE
  5
7E
330
1F
100
AcDbEntity
  8
0
 62
     7
100
AcDbLine
 10
597.296997
 20
461.799988
 30
0.0
 11
597.296997
 21
465.700012
 31
0.0
  0
ARC
  5
7F
330
1F
100
AcDbEntity
  8
0
 62
     7
100
AcDbCircle
 10
596.796997
 20
461.799988
 30
0.0
 40
0.5
100
AcDbArc
 50
180.000009
 51
360.0
  0
LINE
  5
80
330
1F
100
AcDbEntity
  8
0
 62
     7
100
AcDbLine
 10
596.296997
 20
465.700012
 30
0.0
 11
596.296997
 21
461.799988
 31
0.0
  0
LINE
  5
81
330
1F
100
AcDbEntity
  8
0
 62
     7
100
AcDbLine
 10
596.296997
 20
465.700012
 30
0.0
 11
593.99707
 21
465.700012
 31
0.0
  0
LINE
  5
82
330
1F
100
AcDbEntity
  8
0
 62
     7
100
AcDbLine
 10
593.99707
 20
461.799988
 30
0.0
 11
593.99707
 21
465.700012
 31
0.0
  0
ARC
  5
83
330
1F
100
AcDbEntity
  8
0
 62
     7
100
AcDbCircle
 10
593.49707
 20
461.799988
 30
0.0
 40
0.5
100
AcDbArc
 50
180.000009
 51
360.0
  0
LINE
  5
84
330
1F
100
AcDbEntity
  8
0
 62
     7
100
AcDbLine
 10
592.99707
 20
465.700012
 30
0.0
 11
592.99707
 21
461.799988
 31
0.0
  0
LINE
  5
85
330
1F
100
AcDbEntity
  8
0
 62
     7
100
AcDbLine
 10
592.99707
 20
465.700012
 30
0.0
 11
297.297058
 21
465.700012
 31
0.0
  0
LINE
  5
86
330
1F
100
AcDbEntity
  8
0
 62
     7
100
AcDbLine
 10
297.297058
 20
461.799988
 30
0.0
 11
297.297058
 21
465.700012
 31
0.0
  0
ARC
  5
87
330
1F
100
AcDbEntity
  8
0
 62
     7
100
AcDbCircle
 10
296.797058
 20
461.799988
 30
0.0
 40
0.5
100
AcDbArc
 50
180.000009
 51
360.0
  0
LINE
  5
88
330
1F
100
AcDbEntity
  8
0
 62
     7
100
AcDbLine
 10
296.297058
 20
465.700012
 30
0.0
 11
296.297058
 21
461.799988
 31
0.0
  0
LINE
  5
89
330
1F
100
AcDbEntity
  8
0
 62
     7
100
AcDbLine
 10
296.297058
 20
465.700012
 30
0.0
 11
293.997009
 21
465.700012
 31
0.0
  0
LINE
  5
8A
330
1F
100
AcDbEntity
  8
0
 62
     7
100
AcDbLine
 10
293.997009
 20
461.799988
 30
0.0
 11
293.997009
 21
465.700012
 31
0.0
  0
ARC
  5
8B
330
1F
100
AcDbEntity
  8
0
 62
     7
100
AcDbCircle
 10
293.497009
 20
461.799988
 30
0.0
 40
0.5
100
AcDbArc
 50
180.000009
 51
360.0
  0
LINE
  5
8C
330
1F
100
AcDbEntity
  8
0
 62
     7
100
AcDbLine
 10
292.997009
 20
465.700012
 30
0.0
 11
292.997009
 21
461.799988
 31
0.0
  0
LINE
  5
8D
330
1F
100
AcDbEntity
  8
0
 62
     7
100
AcDbLine
 10
292.997009
 20
465.700012
 30
0.0
 11
234.328354
 21
465.700012
 31
0.0
  0
ARC
  5
8E
330
1F
100
AcDbEntity
  8
0
 62
     7
100
AcDbCircle
 10
227.647034
 20
470.099976
 30
0.0
 40
8.0
100
AcDbArc
 50
213.367013
 51
326.632979
  0
LINE
  5
8F
330
1F
100
AcDbEntity
  8
0
 62
     7
100
AcDbLine
 10
220.965714
 20
465.700012
 30
0.0
 11
218.647034
 21
465.700012
 31
0.0
  0
LINE
  5
90
330
1F
100
AcDbEntity
  8
0
 62
     7
100
AcDbLine
 10
218.647034
 20
452.599976
 30
0.0
 11
218.647034
 21
465.700012
 31
0.0
  0
LINE
  5
91
330
1F
100
AcDbEntity
  8
0
 62
     7
100
AcDbLine
 10
1021.647034
 20
451.799988
 30
0.0
 11
1021.647034
 21
452.599976
 31
0.0
  0
LINE
  5
92
330
1F
100
AcDbEntity
  8
0
 62
     7
100
AcDbLine
 10
218.647034
 20
452.599976
 30
0.0
 11
218.647034
 21
451.799988
 31
0.0
  0
LINE
  5
93
330
1F
100
AcDbEntity
  8
0
 62
     7
100
AcDbLine
 10
218.647034
 20
451.799988
 30
0.0
 11
1021.647034
 21
451.799988
 31
0.0
  0
LINE
  5
94
330
1F
100
AcDbEntity
  8
0
 62
     7
100
AcDbLine
 10
1021.647034
 20
465.829285
 30
0.0
 11
1021.647034
 21
465.700012
 31
0.0
  0
LINE
  5
95
330
1F
100
AcDbEntity
  8
0
 62
     7
100
AcDbLine
 10
1021.647034
 20
465.829285
 30
0.0
 11
1021.647034
 21
465.970703
 31
0.0
  0
LINE
  5
96
330
1F
100
AcDbEntity
  8
0
 62
     7
100
AcDbLine
 10
1021.647034
 20
466.099976
 30
0.0
 11
1021.647034
 21
465.970703
 31
0.0
  0
LINE
  5
97
330
1F
100
AcDbEntity
  8
0
 62
     7
100
AcDbLine
 10
1021.647034
 20
466.099976
 30
0.0
 11
1021.647034
 21
466.799988
 31
0.0
  0
LINE
  5
98
330
1F
100
AcDbEntity
  8
0
 62
     7
100
AcDbLine
 10
1021.647034
 20
466.92926
 30
0.0
 11
1021.647034
 21
466.799988
 31
0.0
  0
LINE
  5
99
330
1F
100
AcDbEntity
  8
0
 62
     7
100
AcDbLine
 10
1021.647034
 20
466.92926
 30
0.0
 11
1021.647034
 21
467.070679
 31
0.0
  0
LINE
  5
9A
330
1F
100
AcDbEntity
  8
0
 62
     7
100
AcDbLine
 10
1021.647034
 20
467.200012
 30
0.0
 11
1021.647034
 21
467.070679
 31
0.0
  0
LINE
  5
9B
330
1F
100
AcDbEntity
  8
0
 62
     7
100
AcDbLine
 10
1021.647034
 20
467.200012
 30
0.0
 11
1021.647034
 21
467.900024
 31
0.0
  0
LINE
  5
9C
330
1F
100
AcDbEntity
  8
0
 62
     7
100
AcDbLine
 10
1021.647034
 20
468.029297
 30
0.0
 11
1021.647034
 21
467.900024
 31
0.0
  0
LINE
  5
9D
330
1F
100
AcDbEntity
  8
0
 62
     7
100
AcDbLine
 10
1021.647034
 20
468.029297
 30
0.0
 11
1021.647034
 21
468.170715
 31
0.0
  0
LINE
  5
9E
330
1F
100
AcDbEntity
  8
0
 62
     7
100
AcDbLine
 10
1021.647034
 20
468.299988
 30
0.0
 11
1021.647034
 21
468.170715
 31
0.0
  0
LINE
  5
9F
330
1F
100
AcDbEntity
  8
0
 62
     7
100
AcDbLine
 10
1021.647034
 20
468.299988
 30
0.0
 11
1021.647034
 21
469.0
 31
0.0
  0
LINE
  5
A0
330
1F
100
AcDbEntity
  8
0
 62
     7
100
AcDbLine
 10
1021.647034
 20
469.129272
 30
0.0
 11
1021.647034
 21
469.0
 31
0.0
  0
LINE
  5
A1
330
1F
100
AcDbEntity
  8
0
 62
     7
100
AcDbLine
 10
1021.647034
 20
469.129272
 30
0.0
 11
1021.647034
 21
469.270691
 31
0.0
  0
LINE
  5
A2
330
1F
100
AcDbEntity
  8
0
 62
     7
100
AcDbLine
 10
1021.647034
 20
469.400024
 30
0.0
 11
1021.647034
 21
469.270691
 31
0.0
  0
LINE
  5
A3
330
1F
100
AcDbEntity
  8
0
 62
     7
100
AcDbLine
 10
1021.647034
 20
469.400024
 30
0.0
 11
1021.647034
 21
470.099976
 31
0.0
  0
LINE
  5
A4
330
1F
100
AcDbEntity
  8
0
 62
     7
100
AcDbLine
 10
1021.647034
 20
470.229309
 30
0.0
 11
1021.647034
 21
470.099976
 31
0.0
  0
LINE
  5
A5
330
1F
100
AcDbEntity
  8
0
 62
     7
100
AcDbLine
 10
1021.647034
 20
470.229309
 30
0.0
 11
1021.647034
 21
470.370728
 31
0.0
  0
LINE
  5
A6
330
1F
100
AcDbEntity
  8
0
 62
     7
100
AcDbLine
 10
1021.647034
 20
470.5
 30
0.0
 11
1021.647034
 21
470.370728
 31
0.0
  0
LINE
  5
A7
330
1F
100
AcDbEntity
  8
0
 62
     7
100
AcDbLine
 10
1021.647034
 20
470.5
 30
0.0
 11
1021.647034
 21
471.200012
 31
0.0
  0
LINE
  5
A8
330
1F
100
AcDbEntity
  8
0
 62
     7
100
AcDbLine
 10
1021.647034
 20
471.329285
 30
0.0
 11
1021.647034
 21
471.200012
 31
0.0
  0
LINE
  5
A9
330
1F
100
AcDbEntity
  8
0
 62
     7
100
AcDbLine
 10
1021.647034
 20
471.329285
 30
0.0
 11
1021.647034
 21
471.470703
 31
0.0
  0
LINE
  5
AA
330
1F
100
AcDbEntity
  8
0
 62
     7
100
AcDbLine
 10
1021.647034
 20
471.599976
 30
0.0
 11
1021.647034
 21
471.470703
 31
0.0
  0
LINE
  5
AB
330
1F
100
AcDbEntity
  8
0
 62
     7
100
AcDbLine
 10
1021.647034
 20
471.599976
 30
0.0
 11
1021.647034
 21
472.299988
 31
0.0
  0
LINE
  5
AC
330
1F
100
AcDbEntity
  8
0
 62
     7
100
AcDbLine
 10
1021.647034
 20
472.42926
 30
0.0
 11
1021.647034
 21
472.299988
 31
0.0
  0
LINE
  5
AD
330
1F
100
AcDbEntity
  8
0
 62
     7
100
AcDbLine
 10
1021.647034
 20
472.42926
 30
0.0
 11
1021.647034
 21
472.570679
 31
0.0
  0
LINE
  5
AE
330
1F
100
AcDbEntity
  8
0
 62
     7
100
AcDbLine
 10
1021.647034
 20
472.700012
 30
0.0
 11
1021.647034
 21
472.570679
 31
0.0
  0
LINE
  5
AF
330
1F
100
AcDbEntity
  8
0
 62
     7
100
AcDbLine
 10
1021.647034
 20
472.700012
 30
0.0
 11
1021.647034
 21
473.400024
 31
0.0
  0
LINE
  5
B0
330
1F
100
AcDbEntity
  8
0
 62
     7
100
AcDbLine
 10
1021.647034
 20
473.529297
 30
0.0
 11
1021.647034
 21
473.400024
 31
0.0
  0
LINE
  5
B1
330
1F
100
AcDbEntity
  8
0
 62
     7
100
AcDbLine
 10
1021.647034
 20
473.529297
 30
0.0
 11
1021.647034
 21
473.670715
 31
0.0
  0
LINE
  5
B2
330
1F
100
AcDbEntity
  8
0
 62
     7
100
AcDbLine
 10
1021.647034
 20
473.799988
 30
0.0
 11
1021.647034
 21
473.670715
 31
0.0
  0
LINE
  5
B3
330
1F
100
AcDbEntity
  8
0
 62
     7
100
AcDbLine
 10
1021.647034
 20
473.799988
 30
0.0
 11
1021.647034
 21
474.5
 31
0.0
  0
LINE
  5
B4
330
1F
100
AcDbEntity
  8
0
 62
     7
100
AcDbLine
 10
1021.647034
 20
474.629272
 30
0.0
 11
1021.647034
 21
474.5
 31
0.0
  0
LINE
  5
B5
330
1F
100
AcDbEntity
  8
0
 62
     7
100
AcDbLine
 10
1021.647034
 20
474.629272
 30
0.0
 11
1021.647034
 21
474.770691
 31
0.0
  0
LINE
  5
B6
330
1F
100
AcDbEntity
  8
0
 62
     7
100
AcDbLine
 10
1021.647034
 20
474.900024
 30
0.0
 11
1021.647034
 21
474.770691
 31
0.0
  0
LINE
  5
B7
330
1F
100
AcDbEntity
  8
0
 62
     7
100
AcDbLine
 10
1021.647034
 20
474.900024
 30
0.0
 11
1021.647034
 21
479.724243
 31
0.0
  0
LINE
  5
B8
330
1F
100
AcDbEntity
  8
0
 62
     7
100
AcDbLine
 10
1021.647034
 20
480.212158
 30
0.0
 11
1021.647034
 21
479.724243
 31
0.0
  0
LINE
  5
B9
330
1F
100
AcDbEntity
  8
0
 62
     7
100
AcDbLine
 10
1021.647034
 20
480.212158
 30
0.0
 11
1021.647034
 21
480.299988
 31
0.0
  0
LINE
  5
BA
330
1F
100
AcDbEntity
  8
0
 62
     7
100
AcDbLine
 10
1019.328369
 20
465.700012
 30
0.0
 11
1019.411743
 21
465.829285
 31
0.0
  0
ARC
  5
BB
330
1F
100
AcDbEntity
  8
0
 62
     7
100
AcDbCircle
 10
1012.647034
 20
470.099976
 30
0.0
 40
8.0
100
AcDbArc
 50
354.980203
 51
360.0
  0
LINE
  5
BC
330
1F
100
AcDbEntity
  8
0
 62
     7
100
AcDbLine
 10
1020.603943
 20
469.270691
 30
0.0
 11
1020.616333
 21
469.400024
 31
0.0
  0
LINE
  5
BD
330
1F
100
AcDbEntity
  8
0
 62
     7
100
AcDbLine
 10
1020.587952
 20
469.129272
 30
0.0
 11
1020.603943
 21
469.270691
 31
0.0
  0
LINE
  5
BE
330
1F
100
AcDbEntity
  8
0
 62
     7
100
AcDbLine
 10
1020.571045
 20
469.0
 30
0.0
 11
1020.587952
 21
469.129272
 31
0.0
  0
ARC
  5
BF
330
1F
100
AcDbEntity
  8
0
 62
     7
100
AcDbCircle
 10
1012.647034
 20
470.099976
 30
0.0
 40
8.0
100
AcDbArc
 50
346.997132
 51
352.096798
  0
LINE
  5
C0
330
1F
100
AcDbEntity
  8
0
 62
     7
100
AcDbLine
 10
1020.410889
 20
468.170715
 30
0.0
 11
1020.441895
 21
468.299988
 31
0.0
  0
LINE
  5
C1
330
1F
100
AcDbEntity
  8
0
 62
     7
100
AcDbLine
 10
1020.37439
 20
468.029297
 30
0.0
 11
1020.410889
 21
468.170715
 31
0.0
  0
LINE
  5
C2
330
1F
100
AcDbEntity
  8
0
 62
     7
100
AcDbLine
 10
1020.338562
 20
467.900024
 30
0.0
 11
1020.37439
 21
468.029297
 31
0.0
  0
ARC
  5
C3
330
1F
100
AcDbEntity
  8
0
 62
     7
100
AcDbCircle
 10
1012.647034
 20
470.099976
 30
0.0
 40
8.0
100
AcDbArc
 50
338.746183
 51
344.037995
  0
LINE
  5
C4
330
1F
100
AcDbEntity
  8
0
 62
     7
100
AcDbLine
 10
1020.051331
 20
467.070679
 30
0.0
 11
1020.102905
 21
467.200012
 31
0.0
  0
LINE
  5
C5
330
1F
100
AcDbEntity
  8
0
 62
     7
100
AcDbLine
 10
1019.991882
 20
466.92926
 30
0.0
 11
1020.051331
 21
467.070679
 31
0.0
  0
LINE
  5
C6
330
1F
100
AcDbEntity
  8
0
 62
     7
100
AcDbLine
 10
1019.934692
 20
466.799988
 30
0.0
 11
1019.991882
 21
466.92926
 31
0.0
  0
ARC
  5
C7
330
1F
100
AcDbEntity
  8
0
 62
     7
100
AcDbCircle
 10
1012.647034
 20
470.099976
 30
0.0
 40
8.0
100
AcDbArc
 50
329.999989
 51
335.63801
  0
LINE
  5
C8
330
1F
100
AcDbEntity
  8
0
 62
     7
100
AcDbLine
 10
1019.498962
 20
465.970703
 30
0.0
 11
1019.575256
 21
466.099976
 31
0.0
  0
LINE
  5
C9
330
1F
100
AcDbEntity
  8
0
 62
     7
100
AcDbLine
 10
1019.411743
 20
465.829285
 30
0.0
 11
1019.498962
 21
465.970703
 31
0.0
  0
LINE
  5
CA
330
1F
100
AcDbEntity
  8
0
 62
     7
100
AcDbLine
 10
1005.965698
 20
465.700012
 30
0.0
 11
1005.882324
 21
465.829285
 31
0.0
  0
LINE
  5
CB
330
1F
100
AcDbEntity
  8
0
 62
     7
100
AcDbLine
 10
1005.882324
 20
465.829285
 30
0.0
 11
1005.795105
 21
465.970703
 31
0.0
  0
LINE
  5
CC
330
1F
100
AcDbEntity
  8
0
 62
     7
100
AcDbLine
 10
1005.795105
 20
465.970703
 30
0.0
 11
1005.718811
 21
466.099976
 31
0.0
  0
ARC
  5
CD
330
1F
100
AcDbEntity
  8
0
 62
     7
100
AcDbCircle
 10
1012.647034
 20
470.099976
 30
0.0
 40
8.0
100
AcDbArc
 50
204.361982
 51
210.000003
  0
LINE
  5
CE
330
1F
100
AcDbEntity
  8
0
 62
     7
100
AcDbLine
 10
1005.359375
 20
466.799988
 30
0.0
 11
1005.302185
 21
466.92926
 31
0.0
  0
LINE
  5
CF
330
1F
100
AcDbEntity
  8
0
 62
     7
100
AcDbLine
 10
1005.302185
 20
466.92926
 30
0.0
 11
1005.242737
 21
467.070679
 31
0.0
  0
LINE
  5
D0
330
1F
100
AcDbEntity
  8
0
 62
     7
100
AcDbLine
 10
1005.242737
 20
467.070679
 30
0.0
 11
1005.191162
 21
467.200012
 31
0.0
  0
ARC
  5
D1
330
1F
100
AcDbEntity
  8
0
 62
     7
100
AcDbCircle
 10
1012.647034
 20
470.099976
 30
0.0
 40
8.0
100
AcDbArc
 50
195.96201
 51
201.253809
  0
LINE
  5
D2
330
1F
100
AcDbEntity
  8
0
 62
     7
100
AcDbLine
 10
1004.955505
 20
467.900024
 30
0.0
 11
1004.919678
 21
468.029297
 31
0.0
  0
LINE
  5
D3
330
1F
100
AcDbEntity
  8
0
 62
     7
100
AcDbLine
 10
1004.919678
 20
468.029297
 30
0.0
 11
1004.883179
 21
468.170715
 31
0.0
  0
LINE
  5
D4
330
1F
100
AcDbEntity
  8
0
 62
     7
100
AcDbLine
 10
1004.883179
 20
468.170715
 30
0.0
 11
1004.852173
 21
468.299988
 31
0.0
  0
ARC
  5
D5
330
1F
100
AcDbEntity
  8
0
 62
     7
100
AcDbCircle
 10
1012.647034
 20
470.099976
 30
0.0
 40
8.0
100
AcDbArc
 50
187.903207
 51
193.002872
  0
LINE
  5
D6
330
1F
100
AcDbEntity
  8
0
 62
     7
100
AcDbLine
 10
1004.723022
 20
469.0
 30
0.0
 11
1004.706116
 21
469.129272
 31
0.0
  0
LINE
  5
D7
330
1F
100
AcDbEntity
  8
0
 62
     7
100
AcDbLine
 10
1004.706116
 20
469.129272
 30
0.0
 11
1004.690125
 21
469.270691
 31
0.0
  0
LINE
  5
D8
330
1F
100
AcDbEntity
  8
0
 62
     7
100
AcDbLine
 10
1004.690125
 20
469.270691
 30
0.0
 11
1004.677734
 21
469.400024
 31
0.0
  0
ARC
  5
D9
330
1F
100
AcDbEntity
  8
0
 62
     7
100
AcDbCircle
 10
1012.647034
 20
470.099976
 30
0.0
 40
8.0
100
AcDbArc
 50
180.000009
 51
185.019802
  0
LINE
  5
DA
330
1F
100
AcDbEntity
  8
0
 62
     7
100
AcDbLine
 10
947.297058
 20
465.829285
 30
0.0
 11
947.297058
 21
465.700012
 31
0.0
  0
LINE
  5
DB
330
1F
100
AcDbEntity
  8
0
 62
     7
100
AcDbLine
 10
947.297058
 20
465.970703
 30
0.0
 11
947.297058
 21
466.099976
 31
0.0
  0
LINE
  5
DC
330
1F
100
AcDbEntity
  8
0
 62
     7
100
AcDbLine
 10
947.297058
 20
465.970703
 30
0.0
 11
947.297058
 21
465.829285
 31
0.0
  0
LINE
  5
DD
330
1F
100
AcDbEntity
  8
0
 62
     7
100
AcDbLine
 10
947.297058
 20
472.700012
 30
0.0
 11
947.297058
 21
473.099976
 31
0.0
  0
LINE
  5
DE
330
1F
100
AcDbEntity
  8
0
 62
     7
100
AcDbLine
 10
947.297058
 20
472.570679
 30
0.0
 11
947.297058
 21
472.700012
 31
0.0
  0
LINE
  5
DF
330
1F
100
AcDbEntity
  8
0
 62
     7
100
AcDbLine
 10
947.297058
 20
472.570679
 30
0.0
 11
947.297058
 21
472.42926
 31
0.0
  0
LINE
  5
E0
330
1F
100
AcDbEntity
  8
0
 62
     7
100
AcDbLine
 10
947.297058
 20
472.42926
 30
0.0
 11
947.297058
 21
472.299988
 31
0.0
  0
LINE
  5
E1
330
1F
100
AcDbEntity
  8
0
 62
     7
100
AcDbLine
 10
947.297058
 20
471.599976
 30
0.0
 11
947.297058
 21
472.299988
 31
0.0
  0
LINE
  5
E2
330
1F
100
AcDbEntity
  8
0
 62
     7
100
AcDbLine
 10
947.297058
 20
471.470703
 30
0.0
 11
947.297058
 21
471.599976
 31
0.0
  0
LINE
  5
E3
330
1F
100
AcDbEntity
  8
0
 62
     7
100
AcDbLine
 10
947.297058
 20
471.470703
 30
0.0
 11
947.297058
 21
471.329285
 31
0.0
  0
LINE
  5
E4
330
1F
100
AcDbEntity
  8
0
 62
     7
100
AcDbLine
 10
947.297058
 20
471.329285
 30
0.0
 11
947.297058
 21
471.200012
 31
0.0
  0
LINE
  5
E5
330
1F
100
AcDbEntity
  8
0
 62
     7
100
AcDbLine
 10
947.297058
 20
470.5
 30
0.0
 11
947.297058
 21
471.200012
 31
0.0
  0
LINE
  5
E6
330
1F
100
AcDbEntity
  8
0
 62
     7
100
AcDbLine
 10
947.297058
 20
470.370728
 30
0.0
 11
947.297058
 21
470.5
 31
0.0
  0
LINE
  5
E7
330
1F
100
AcDbEntity
  8
0
 62
     7
100
AcDbLine
 10
947.297058
 20
470.370728
 30
0.0
 11
947.297058
 21
470.229309
 31
0.0
  0
LINE
  5
E8
330
1F
100
AcDbEntity
  8
0
 62
     7
100
AcDbLine
 10
947.297058
 20
470.229309
 30
0.0
 11
947.297058
 21
470.099976
 31
0.0
  0
LINE
  5
E9
330
1F
100
AcDbEntity
  8
0
 62
     7
100
AcDbLine
 10
947.297058
 20
469.400024
 30
0.0
 11
947.297058
 21
470.099976
 31
0.0
  0
LINE
  5
EA
330
1F
100
AcDbEntity
  8
0
 62
     7
100
AcDbLine
 10
947.297058
 20
469.270691
 30
0.0
 11
947.297058
 21
469.400024
 31
0.0
  0
LINE
  5
EB
330
1F
100
AcDbEntity
  8
0
 62
     7
100
AcDbLine
 10
947.297058
 20
469.270691
 30
0.0
 11
947.297058
 21
469.129272
 31
0.0
  0
LINE
  5
EC
330
1F
100
AcDbEntity
  8
0
 62
     7
100
AcDbLine
 10
947.297058
 20
469.129272
 30
0.0
 11
947.297058
 21
469.0
 31
0.0
  0
LINE
  5
ED
330
1F
100
AcDbEntity
  8
0
 62
     7
100
AcDbLine
 10
947.297058
 20
468.299988
 30
0.0
 11
947.297058
 21
469.0
 31
0.0
  0
LINE
  5
EE
330
1F
100
AcDbEntity
  8
0
 62
     7
100
AcDbLine
 10
947.297058
 20
468.170715
 30
0.0
 11
947.297058
 21
468.299988
 31
0.0
  0
LINE
  5
EF
330
1F
100
AcDbEntity
  8
0
 62
     7
100
AcDbLine
 10
947.297058
 20
468.170715
 30
0.0
 11
947.297058
 21
468.029297
 31
0.0
  0
LINE
  5
F0
330
1F
100
AcDbEntity
  8
0
 62
     7
100
AcDbLine
 10
947.297058
 20
468.029297
 30
0.0
 11
947.297058
 21
467.900024
 31
0.0
  0
LINE
  5
F1
330
1F
100
AcDbEntity
  8
0
 62
     7
100
AcDbLine
 10
947.297058
 20
467.200012
 30
0.0
 11
947.297058
 21
467.900024
 31
0.0
  0
LINE
  5
F2
330
1F
100
AcDbEntity
  8
0
 62
     7
100
AcDbLine
 10
947.297058
 20
467.070679
 30
0.0
 11
947.297058
 21
467.200012
 31
0.0
  0
LINE
  5
F3
330
1F
100
AcDbEntity
  8
0
 62
     7
100
AcDbLine
 10
947.297058
 20
467.070679
 30
0.0
 11
947.297058
 21
466.92926
 31
0.0
  0
LINE
  5
F4
330
1F
100
AcDbEntity
  8
0
 62
     7
100
AcDbLine
 10
947.297058
 20
466.92926
 30
0.0
 11
947.297058
 21
466.799988
 31
0.0
  0
LINE
  5
F5
330
1F
100
AcDbEntity
  8
0
 62
     7
100
AcDbLine
 10
947.297058
 20
466.099976
 30
0.0
 11
947.297058
 21
466.799988
 31
0.0
  0
LINE
  5
F6
330
1F
100
AcDbEntity
  8
0
 62
     7
100
AcDbLine
 10
946.297058
 20
473.400024
 30
0.0
 11
946.297058
 21
472.700012
 31
0.0
  0
LINE
  5
F7
330
1F
100
AcDbEntity
  8
0
 62
     7
100
AcDbLine
 10
946.297058
 20
473.529297
 30
0.0
 11
946.297058
 21
473.400024
 31
0.0
  0
LINE
  5
F8
330
1F
100
AcDbEntity
  8
0
 62
     7
100
AcDbLine
 10
946.297058
 20
473.529297
 30
0.0
 11
946.297058
 21
473.599976
 31
0.0
  0
LINE
  5
F9
330
1F
100
AcDbEntity
  8
0
 62
     7
100
AcDbLine
 10
946.297058
 20
465.829285
 30
0.0
 11
946.297058
 21
465.700012
 31
0.0
  0
LINE
  5
FA
330
1F
100
AcDbEntity
  8
0
 62
     7
100
AcDbLine
 10
946.297058
 20
465.829285
 30
0.0
 11
946.297058
 21
465.970703
 31
0.0
  0
LINE
  5
FB
330
1F
100
AcDbEntity
  8
0
 62
     7
100
AcDbLine
 10
946.297058
 20
465.970703
 30
0.0
 11
946.297058
 21
466.099976
 31
0.0
  0
LINE
  5
FC
330
1F
100
AcDbEntity
  8
0
 62
     7
100
AcDbLine
 10
946.297058
 20
466.799988
 30
0.0
 11
946.297058
 21
466.099976
 31
0.0
  0
LINE
  5
FD
330
1F
100
AcDbEntity
  8
0
 62
     7
100
AcDbLine
 10
946.297058
 20
466.92926
 30
0.0
 11
946.297058
 21
466.799988
 31
0.0
  0
LINE
  5
FE
330
1F
100
AcDbEntity
  8
0
 62
     7
100
AcDbLine
 10
946.297058
 20
466.92926
 30
0.0
 11
946.297058
 21
467.070679
 31
0.0
  0
LINE
  5
FF
330
1F
100
AcDbEntity
  8
0
 62
     7
100
AcDbLine
 10
946.297058
 20
467.070679
 30
0.0
 11
946.297058
 21
467.200012
 31
0.0
  0
LINE
  5
100
330
1F
100
AcDbEntity
  8
0
 62
     7
100
AcDbLine
 10
946.297058
 20
467.900024
 30
0.0
 11
946.297058
 21
467.200012
 31
0.0
  0
LINE
  5
101
330
1F
100
AcDbEntity
  8
0
 62
     7
100
AcDbLine
 10
946.297058
 20
468.029297
 30
0.0
 11
946.297058
 21
467.900024
 31
0.0
  0
LINE
  5
102
330
1F
100
AcDbEntity
  8
0
 62
     7
100
AcDbLine
 10
946.297058
 20
468.029297
 30
0.0
 11
946.297058
 21
468.170715
 31
0.0
  0
LINE
  5
103
330
1F
100
AcDbEntity
  8
0
 62
     7
100
AcDbLine
 10
946.297058
 20
468.170715
 30
0.0
 11
946.297058
 21
468.299988
 31
0.0
  0
LINE
  5
104
330
1F
100
AcDbEntity
  8
0
 62
     7
100
AcDbLine
 10
946.297058
 20
469.0
 30
0.0
 11
946.297058
 21
468.299988
 31
0.0
  0
LINE
  5
105
330
1F
100
AcDbEntity
  8
0
 62
     7
100
AcDbLine
 10
946.297058
 20
469.129272
 30
0.0
 11
946.297058
 21
469.0
 31
0.0
  0
LINE
  5
106
330
1F
100
AcDbEntity
  8
0
 62
     7
100
AcDbLine
 10
946.297058
 20
469.129272
 30
0.0
 11
946.297058
 21
469.270691
 31
0.0
  0
LINE
  5
107
330
1F
100
AcDbEntity
  8
0
 62
     7
100
AcDbLine
 10
946.297058
 20
469.270691
 30
0.0
 11
946.297058
 21
469.400024
 31
0.0
  0
LINE
  5
108
330
1F
100
AcDbEntity
  8
0
 62
     7
100
AcDbLine
 10
946.297058
 20
470.099976
 30
0.0
 11
946.297058
 21
469.400024
 31
0.0
  0
LINE
  5
109
330
1F
100
AcDbEntity
  8
0
 62
     7
100
AcDbLine
 10
946.297058
 20
470.229309
 30
0.0
 11
946.297058
 21
470.099976
 31
0.0
  0
LINE
  5
10A
330
1F
100
AcDbEntity
  8
0
 62
     7
100
AcDbLine
 10
946.297058
 20
470.229309
 30
0.0
 11
946.297058
 21
470.370728
 31
0.0
  0
LINE
  5
10B
330
1F
100
AcDbEntity
  8
0
 62
     7
100
AcDbLine
 10
946.297058
 20
470.370728
 30
0.0
 11
946.297058
 21
470.5
 31
0.0
  0
LINE
  5
10C
330
1F
100
AcDbEntity
  8
0
 62
     7
100
AcDbLine
 10
946.297058
 20
471.200012
 30
0.0
 11
946.297058
 21
470.5
 31
0.0
  0
LINE
  5
10D
330
1F
100
AcDbEntity
  8
0
 62
     7
100
AcDbLine
 10
946.297058
 20
471.329285
 30
0.0
 11
946.297058
 21
471.200012
 31
0.0
  0
LINE
  5
10E
330
1F
100
AcDbEntity
  8
0
 62
     7
100
AcDbLine
 10
946.297058
 20
471.329285
 30
0.0
 11
946.297058
 21
471.470703
 31
0.0
  0
LINE
  5
10F
330
1F
100
AcDbEntity
  8
0
 62
     7
100
AcDbLine
 10
946.297058
 20
471.470703
 30
0.0
 11
946.297058
 21
471.599976
 31
0.0
  0
LINE
  5
110
330
1F
100
AcDbEntity
  8
0
 62
     7
100
AcDbLine
 10
946.297058
 20
472.299988
 30
0.0
 11
946.297058
 21
471.599976
 31
0.0
  0
LINE
  5
111
330
1F
100
AcDbEntity
  8
0
 62
     7
100
AcDbLine
 10
946.297058
 20
472.42926
 30
0.0
 11
946.297058
 21
472.299988
 31
0.0
  0
LINE
  5
112
330
1F
100
AcDbEntity
  8
0
 62
     7
100
AcDbLine
 10
946.297058
 20
472.42926
 30
0.0
 11
946.297058
 21
472.570679
 31
0.0
  0
LINE
  5
113
330
1F
100
AcDbEntity
  8
0
 62
     7
100
AcDbLine
 10
946.297058
 20
472.570679
 30
0.0
 11
946.297058
 21
472.700012
 31
0.0
  0
LINE
  5
114
330
1F
100
AcDbEntity
  8
0
 62
     7
100
AcDbLine
 10
943.997009
 20
465.829285
 30
0.0
 11
943.997009
 21
465.700012
 31
0.0
  0
LINE
  5
115
330
1F
100
AcDbEntity
  8
0
 62
     7
100
AcDbLine
 10
943.997009
 20
465.970703
 30
0.0
 11
943.997009
 21
466.099976
 31
0.0
  0
LINE
  5
116
330
1F
100
AcDbEntity
  8
0
 62
     7
100
AcDbLine
 10
943.997009
 20
465.970703
 30
0.0
 11
943.997009
 21
465.829285
 31
0.0
  0
LINE
  5
117
330
1F
100
AcDbEntity
  8
0
 62
     7
100
AcDbLine
 10
943.997009
 20
473.599976
 30
0.0
 11
943.997009
 21
473.529297
 31
0.0
  0
LINE
  5
118
330
1F
100
AcDbEntity
  8
0
 62
     7
100
AcDbLine
 10
943.997009
 20
473.529297
 30
0.0
 11
943.997009
 21
473.400024
 31
0.0
  0
LINE
  5
119
330
1F
100
AcDbEntity
  8
0
 62
     7
100
AcDbLine
 10
943.997009
 20
472.700012
 30
0.0
 11
943.997009
 21
473.400024
 31
0.0
  0
LINE
  5
11A
330
1F
100
AcDbEntity
  8
0
 62
     7
100
AcDbLine
 10
943.997009
 20
472.570679
 30
0.0
 11
943.997009
 21
472.700012
 31
0.0
  0
LINE
  5
11B
330
1F
100
AcDbEntity
  8
0
 62
     7
100
AcDbLine
 10
943.997009
 20
472.570679
 30
0.0
 11
943.997009
 21
472.42926
 31
0.0
  0
LINE
  5
11C
330
1F
100
AcDbEntity
  8
0
 62
     7
100
AcDbLine
 10
943.997009
 20
472.42926
 30
0.0
 11
943.997009
 21
472.299988
 31
0.0
  0
LINE
  5
11D
330
1F
100
AcDbEntity
  8
0
 62
     7
100
AcDbLine
 10
943.997009
 20
471.599976
 30
0.0
 11
943.997009
 21
472.299988
 31
0.0
  0
LINE
  5
11E
330
1F
100
AcDbEntity
  8
0
 62
     7
100
AcDbLine
 10
943.997009
 20
471.470703
 30
0.0
 11
943.997009
 21
471.599976
 31
0.0
  0
LINE
  5
11F
330
1F
100
AcDbEntity
  8
0
 62
     7
100
AcDbLine
 10
943.997009
 20
471.470703
 30
0.0
 11
943.997009
 21
471.329285
 31
0.0
  0
LINE
  5
120
330
1F
100
AcDbEntity
  8
0
 62
     7
100
AcDbLine
 10
943.997009
 20
471.329285
 30
0.0
 11
943.997009
 21
471.200012
 31
0.0
  0
LINE
  5
121
330
1F
100
AcDbEntity
  8
0
 62
     7
100
AcDbLine
 10
943.997009
 20
470.5
 30
0.0
 11
943.997009
 21
471.200012
 31
0.0
  0
LINE
  5
122
330
1F
100
AcDbEntity
  8
0
 62
     7
100
AcDbLine
 10
943.997009
 20
470.370728
 30
0.0
 11
943.997009
 21
470.5
 31
0.0
  0
LINE
  5
123
330
1F
100
AcDbEntity
  8
0
 62
     7
100
AcDbLine
 10
943.997009
 20
470.370728
 30
0.0
 11
943.997009
 21
470.229309
 31
0.0
  0
LINE
  5
124
330
1F
100
AcDbEntity
  8
0
 62
     7
100
AcDbLine
 10
943.997009
 20
470.229309
 30
0.0
 11
943.997009
 21
470.099976
 31
0.0
  0
LINE
  5
125
330
1F
100
AcDbEntity
  8
0
 62
     7
100
AcDbLine
 10
943.997009
 20
469.400024
 30
0.0
 11
943.997009
 21
470.099976
 31
0.0
  0
LINE
  5
126
330
1F
100
AcDbEntity
  8
0
 62
     7
100
AcDbLine
 10
943.997009
 20
469.270691
 30
0.0
 11
943.997009
 21
469.400024
 31
0.0
  0
LINE
  5
127
330
1F
100
AcDbEntity
  8
0
 62
     7
100
AcDbLine
 10
943.997009
 20
469.270691
 30
0.0
 11
943.997009
 21
469.129272
 31
0.0
  0
LINE
  5
128
330
1F
100
AcDbEntity
  8
0
 62
     7
100
AcDbLine
 10
943.997009
 20
469.129272
 30
0.0
 11
943.997009
 21
469.0
 31
0.0
  0
LINE
  5
129
330
1F
100
AcDbEntity
  8
0
 62
     7
100
AcDbLine
 10
943.997009
 20
468.299988
 30
0.0
 11
943.997009
 21
469.0
 31
0.0
  0
LINE
  5
12A
330
1F
100
AcDbEntity
  8
0
 62
     7
100
AcDbLine
 10
943.997009
 20
468.170715
 30
0.0
 11
943.997009
 21
468.299988
 31
0.0
  0
LINE
  5
12B
330
1F
100
AcDbEntity
  8
0
 62
     7
100
AcDbLine
 10
943.997009
 20
468.170715
 30
0.0
 11
943.997009
 21
468.029297
 31
0.0
  0
LINE
  5
12C
330
1F
100
AcDbEntity
  8
0
 62
     7
100
AcDbLine
 10
943.997009
 20
468.029297
 30
0.0
 11
943.997009
 21
467.900024
 31
0.0
  0
LINE
  5
12D
330
1F
100
AcDbEntity
  8
0
 62
     7
100
AcDbLine
 10
943.997009
 20
467.200012
 30
0.0
 11
943.997009
 21
467.900024
 31
0.0
  0
LINE
  5
12E
330
1F
100
AcDbEntity
  8
0
 62
     7
100
AcDbLine
 10
943.997009
 20
467.070679
 30
0.0
 11
943.997009
 21
467.200012
 31
0.0
  0
LINE
  5
12F
330
1F
100
AcDbEntity
  8
0
 62
     7
100
AcDbLine
 10
943.997009
 20
467.070679
 30
0.0
 11
943.997009
 21
466.92926
 31
0.0
  0
LINE
  5
130
330
1F
100
AcDbEntity
  8
0
 62
     7
100
AcDbLine
 10
943.997009
 20
466.92926
 30
0.0
 11
943.997009
 21
466.799988
 31
0.0
  0
LINE
  5
131
330
1F
100
AcDbEntity
  8
0
 62
     7
100
AcDbLine
 10
943.997009
 20
466.099976
 30
0.0
 11
943.997009
 21
466.799988
 31
0.0
  0
LINE
  5
132
330
1F
100
AcDbEntity
  8
0
 62
     7
100
AcDbLine
 10
942.997009
 20
472.42926
 30
0.0
 11
942.997009
 21
472.299988
 31
0.0
  0
LINE
  5
133
330
1F
100
AcDbEntity
  8
0
 62
     7
100
AcDbLine
 10
942.997009
 20
472.42926
 30
0.0
 11
942.997009
 21
472.570679
 31
0.0
  0
LINE
  5
134
330
1F
100
AcDbEntity
  8
0
 62
     7
100
AcDbLine
 10
942.997009
 20
472.570679
 30
0.0
 11
942.997009
 21
472.700012
 31
0.0
  0
LINE
  5
135
330
1F
100
AcDbEntity
  8
0
 62
     7
100
AcDbLine
 10
942.997009
 20
473.099976
 30
0.0
 11
942.997009
 21
472.700012
 31
0.0
  0
LINE
  5
136
330
1F
100
AcDbEntity
  8
0
 62
     7
100
AcDbLine
 10
942.997009
 20
465.829285
 30
0.0
 11
942.997009
 21
465.700012
 31
0.0
  0
LINE
  5
137
330
1F
100
AcDbEntity
  8
0
 62
     7
100
AcDbLine
 10
942.997009
 20
465.829285
 30
0.0
 11
942.997009
 21
465.970703
 31
0.0
  0
LINE
  5
138
330
1F
100
AcDbEntity
  8
0
 62
     7
100
AcDbLine
 10
942.997009
 20
465.970703
 30
0.0
 11
942.997009
 21
466.099976
 31
0.0
  0
LINE
  5
139
330
1F
100
AcDbEntity
  8
0
 62
     7
100
AcDbLine
 10
942.997009
 20
466.799988
 30
0.0
 11
942.997009
 21
466.099976
 31
0.0
  0
LINE
  5
13A
330
1F
100
AcDbEntity
  8
0
 62
     7
100
AcDbLine
 10
942.997009
 20
466.92926
 30
0.0
 11
942.997009
 21
466.799988
 31
0.0
  0
LINE
  5
13B
330
1F
100
AcDbEntity
  8
0
 62
     7
100
AcDbLine
 10
942.997009
 20
466.92926
 30
0.0
 11
942.997009
 21
467.070679
 31
0.0
  0
LINE
  5
13C
330
1F
100
AcDbEntity
  8
0
 62
     7
100
AcDbLine
 10
942.997009
 20
467.070679
 30
0.0
 11
942.997009
 21
467.200012
 31
0.0
  0
LINE
  5
13D
330
1F
100
AcDbEntity
  8
0
 62
     7
100
AcDbLine
 10
942.997009
 20
467.900024
 30
0.0
 11
942.997009
 21
467.200012
 31
0.0
  0
LINE
  5
13E
330
1F
100
AcDbEntity
  8
0
 62
     7
100
AcDbLine
 10
942.997009
 20
468.029297
 30
0.0
 11
942.997009
 21
467.900024
 31
0.0
  0
LINE
  5
13F
330
1F
100
AcDbEntity
  8
0
 62
     7
100
AcDbLine
 10
942.997009
 20
468.029297
 30
0.0
 11
942.997009
 21
468.170715
 31
0.0
  0
LINE
  5
140
330
1F
100
AcDbEntity
  8
0
 62
     7
100
AcDbLine
 10
942.997009
 20
468.170715
 30
0.0
 11
942.997009
 21
468.299988
 31
0.0
  0
LINE
  5
141
330
1F
100
AcDbEntity
  8
0
 62
     7
100
AcDbLine
 10
942.997009
 20
469.0
 30
0.0
 11
942.997009
 21
468.299988
 31
0.0
  0
LINE
  5
142
330
1F
100
AcDbEntity
  8
0
 62
     7
100
AcDbLine
 10
942.997009
 20
469.129272
 30
0.0
 11
942.997009
 21
469.0
 31
0.0
  0
LINE
  5
143
330
1F
100
AcDbEntity
  8
0
 62
     7
100
AcDbLine
 10
942.997009
 20
469.129272
 30
0.0
 11
942.997009
 21
469.270691
 31
0.0
  0
LINE
  5
144
330
1F
100
AcDbEntity
  8
0
 62
     7
100
AcDbLine
 10
942.997009
 20
469.270691
 30
0.0
 11
942.997009
 21
469.400024
 31
0.0
  0
LINE
  5
145
330
1F
100
AcDbEntity
  8
0
 62
     7
100
AcDbLine
 10
942.997009
 20
470.099976
 30
0.0
 11
942.997009
 21
469.400024
 31
0.0
  0
LINE
  5
146
330
1F
100
AcDbEntity
  8
0
 62
     7
100
AcDbLine
 10
942.997009
 20
470.229309
 30
0.0
 11
942.997009
 21
470.099976
 31
0.0
  0
LINE
  5
147
330
1F
100
AcDbEntity
  8
0
 62
     7
100
AcDbLine
 10
942.997009
 20
470.229309
 30
0.0
 11
942.997009
 21
470.370728
 31
0.0
  0
LINE
  5
148
330
1F
100
AcDbEntity
  8
0
 62
     7
100
AcDbLine
 10
942.997009
 20
470.370728
 30
0.0
 11
942.997009
 21
470.5
 31
0.0
  0
LINE
  5
149
330
1F
100
AcDbEntity
  8
0
 62
     7
100
AcDbLine
 10
942.997009
 20
471.200012
 30
0.0
 11
942.997009
 21
470.5
 31
0.0
  0
LINE
  5
14A
330
1F
100
AcDbEntity
  8
0
 62
     7
100
AcDbLine
 10
942.997009
 20
471.329285
 30
0.0
 11
942.997009
 21
471.200012
 31
0.0
  0
LINE
  5
14B
330
1F
100
AcDbEntity
  8
0
 62
     7
100
AcDbLine
 10
942.997009
 20
471.329285
 30
0.0
 11
942.997009
 21
471.470703
 31
0.0
  0
LINE
  5
14C
330
1F
100
AcDbEntity
  8
0
 62
     7
100
AcDbLine
 10
942.997009
 20
471.470703
 30
0.0
 11
942.997009
 21
471.599976
 31
0.0
  0
LINE
  5
14D
330
1F
100
AcDbEntity
  8
0
 62
     7
100
AcDbLine
 10
942.997009
 20
472.299988
 30
0.0
 11
942.997009
 21
471.599976
 31
0.0
  0
LINE
  5
14E
330
1F
100
AcDbEntity
  8
0
 62
     7
100
AcDbLine
 10
897.297058
 20
465.829285
 30
0.0
 11
897.297058
 21
465.700012
 31
0.0
  0
LINE
  5
14F
330
1F
100
AcDbEntity
  8
0
 62
     7
100
AcDbLine
 10
897.297058
 20
465.970703
 30
0.0
 11
897.297058
 21
466.099976
 31
0.0
  0
LINE
  5
150
330
1F
100
AcDbEntity
  8
0
 62
     7
100
AcDbLine
 10
897.297058
 20
465.970703
 30
0.0
 11
897.297058
 21
465.829285
 31
0.0
  0
LINE
  5
151
330
1F
100
AcDbEntity
  8
0
 62
     7
100
AcDbLine
 10
897.297058
 20
472.700012
 30
0.0
 11
897.297058
 21
473.099976
 31
0.0
  0
LINE
  5
152
330
1F
100
AcDbEntity
  8
0
 62
     7
100
AcDbLine
 10
897.297058
 20
472.570679
 30
0.0
 11
897.297058
 21
472.700012
 31
0.0
  0
LINE
  5
153
330
1F
100
AcDbEntity
  8
0
 62
     7
100
AcDbLine
 10
897.297058
 20
472.570679
 30
0.0
 11
897.297058
 21
472.42926
 31
0.0
  0
LINE
  5
154
330
1F
100
AcDbEntity
  8
0
 62
     7
100
AcDbLine
 10
897.297058
 20
472.42926
 30
0.0
 11
897.297058
 21
472.299988
 31
0.0
  0
LINE
  5
155
330
1F
100
AcDbEntity
  8
0
 62
     7
100
AcDbLine
 10
897.297058
 20
471.599976
 30
0.0
 11
897.297058
 21
472.299988
 31
0.0
  0
LINE
  5
156
330
1F
100
AcDbEntity
  8
0
 62
     7
100
AcDbLine
 10
897.297058
 20
471.470703
 30
0.0
 11
897.297058
 21
471.599976
 31
0.0
  0
LINE
  5
157
330
1F
100
AcDbEntity
  8
0
 62
     7
100
AcDbLine
 10
897.297058
 20
471.470703
 30
0.0
 11
897.297058
 21
471.329285
 31
0.0
  0
LINE
  5
158
330
1F
100
AcDbEntity
  8
0
 62
     7
100
AcDbLine
 10
897.297058
 20
471.329285
 30
0.0
 11
897.297058
 21
471.200012
 31
0.0
  0
LINE
  5
159
330
1F
100
AcDbEntity
  8
0
 62
     7
100
AcDbLine
 10
897.297058
 20
470.5
 30
0.0
 11
897.297058
 21
471.200012
 31
0.0
  0
LINE
  5
15A
330
1F
100
AcDbEntity
  8
0
 62
     7
100
AcDbLine
 10
897.297058
 20
470.370728
 30
0.0
 11
897.297058
 21
470.5
 31
0.0
  0
LINE
  5
15B
330
1F
100
AcDbEntity
  8
0
 62
     7
100
AcDbLine
 10
897.297058
 20
470.370728
 30
0.0
 11
897.297058
 21
470.229309
 31
0.0
  0
LINE
  5
15C
330
1F
100
AcDbEntity
  8
0
 62
     7
100
AcDbLine
 10
897.297058
 20
470.229309
 30
0.0
 11
897.297058
 21
470.099976
 31
0.0
  0
LINE
  5
15D
330
1F
100
AcDbEntity
  8
0
 62
     7
100
AcDbLine
 10
897.297058
 20
469.400024
 30
0.0
 11
897.297058
 21
470.099976
 31
0.0
  0
LINE
  5
15E
330
1F
100
AcDbEntity
  8
0
 62
     7
100
AcDbLine
 10
897.297058
 20
469.270691
 30
0.0
 11
897.297058
 21
469.400024
 31
0.0
  0
LINE
  5
15F
330
1F
100
AcDbEntity
  8
0
 62
     7
100
AcDbLine
 10
897.297058
 20
469.270691
 30
0.0
 11
897.297058
 21
469.129272
 31
0.0
  0
LINE
  5
160
330
1F
100
AcDbEntity
  8
0
 62
     7
100
AcDbLine
 10
897.297058
 20
469.129272
 30
0.0
 11
897.297058
 21
469.0
 31
0.0
  0
LINE
  5
161
330
1F
100
AcDbEntity
  8
0
 62
     7
100
AcDbLine
 10
897.297058
 20
468.299988
 30
0.0
 11
897.297058
 21
469.0
 31
0.0
  0
LINE
  5
162
330
1F
100
AcDbEntity
  8
0
 62
     7
100
AcDbLine
 10
897.297058
 20
468.170715
 30
0.0
 11
897.297058
 21
468.299988
 31
0.0
  0
LINE
  5
163
330
1F
100
AcDbEntity
  8
0
 62
     7
100
AcDbLine
 10
897.297058
 20
468.170715
 30
0.0
 11
897.297058
 21
468.029297
 31
0.0
  0
LINE
  5
164
330
1F
100
AcDbEntity
  8
0
 62
     7
100
AcDbLine
 10
897.297058
 20
468.029297
 30
0.0
 11
897.297058
 21
467.900024
 31
0.0
  0
LINE
  5
165
330
1F
100
AcDbEntity
  8
0
 62
     7
100
AcDbLine
 10
897.297058
 20
467.200012
 30
0.0
 11
897.297058
 21
467.900024
 31
0.0
  0
LINE
  5
166
330
1F
100
AcDbEntity
  8
0
 62
     7
100
AcDbLine
 10
897.297058
 20
467.070679
 30
0.0
 11
897.297058
 21
467.200012
 31
0.0
  0
LINE
  5
167
330
1F
100
AcDbEntity
  8
0
 62
     7
100
AcDbLine
 10
897.297058
 20
467.070679
 30
0.0
 11
897.297058
 21
466.92926
 31
0.0
  0
LINE
  5
168
330
1F
100
AcDbEntity
  8
0
 62
     7
100
AcDbLine
 10
897.297058
 20
466.92926
 30
0.0
 11
897.297058
 21
466.799988
 31
0.0
  0
LINE
  5
169
330
1F
100
AcDbEntity
  8
0
 62
     7
100
AcDbLine
 10
897.297058
 20
466.099976
 30
0.0
 11
897.297058
 21
466.799988
 31
0.0
  0
LINE
  5
16A
330
1F
100
AcDbEntity
  8
0
 62
     7
100
AcDbLine
 10
896.297058
 20
473.400024
 30
0.0
 11
896.297058
 21
472.700012
 31
0.0
  0
LINE
  5
16B
330
1F
100
AcDbEntity
  8
0
 62
     7
100
AcDbLine
 10
896.297058
 20
473.529297
 30
0.0
 11
896.297058
 21
473.400024
 31
0.0
  0
LINE
  5
16C
330
1F
100
AcDbEntity
  8
0
 62
     7
100
AcDbLine
 10
896.297058
 20
473.529297
 30
0.0
 11
896.297058
 21
473.599976
 31
0.0
  0
LINE
  5
16D
330
1F
100
AcDbEntity
  8
0
 62
     7
100
AcDbLine
 10
896.297058
 20
465.829285
 30
0.0
 11
896.297058
 21
465.700012
 31
0.0
  0
LINE
  5
16E
330
1F
100
AcDbEntity
  8
0
 62
     7
100
AcDbLine
 10
896.297058
 20
465.829285
 30
0.0
 11
896.297058
 21
465.970703
 31
0.0
  0
LINE
  5
16F
330
1F
100
AcDbEntity
  8
0
 62
     7
100
AcDbLine
 10
896.297058
 20
465.970703
 30
0.0
 11
896.297058
 21
466.099976
 31
0.0
  0
LINE
  5
170
330
1F
100
AcDbEntity
  8
0
 62
     7
100
AcDbLine
 10
896.297058
 20
466.799988
 30
0.0
 11
896.297058
 21
466.099976
 31
0.0
  0
LINE
  5
171
330
1F
100
AcDbEntity
  8
0
 62
     7
100
AcDbLine
 10
896.297058
 20
466.92926
 30
0.0
 11
896.297058
 21
466.799988
 31
0.0
  0
LINE
  5
172
330
1F
100
AcDbEntity
  8
0
 62
     7
100
AcDbLine
 10
896.297058
 20
466.92926
 30
0.0
 11
896.297058
 21
467.070679
 31
0.0
  0
LINE
  5
173
330
1F
100
AcDbEntity
  8
0
 62
     7
100
AcDbLine
 10
896.297058
 20
467.070679
 30
0.0
 11
896.297058
 21
467.200012
 31
0.0
  0
LINE
  5
174
330
1F
100
AcDbEntity
  8
0
 62
     7
100
AcDbLine
 10
896.297058
 20
467.900024
 30
0.0
 11
896.297058
 21
467.200012
 31
0.0
  0
LINE
  5
175
330
1F
100
AcDbEntity
  8
0
 62
     7
100
AcDbLine
 10
896.297058
 20
468.029297
 30
0.0
 11
896.297058
 21
467.900024
 31
0.0
  0
LINE
  5
176
330
1F
100
AcDbEntity
  8
0
 62
     7
100
AcDbLine
 10
896.297058
 20
468.029297
 30
0.0
 11
896.297058
 21
468.170715
 31
0.0
  0
LINE
  5
177
330
1F
100
AcDbEntity
  8
0
 62
     7
100
AcDbLine
 10
896.297058
 20
468.170715
 30
0.0
 11
896.297058
 21
468.299988
 31
0.0
  0
LINE
  5
178
330
1F
100
AcDbEntity
  8
0
 62
     7
100
AcDbLine
 10
896.297058
 20
469.0
 30
0.0
 11
896.297058
 21
468.299988
 31
0.0
  0
LINE
  5
179
330
1F
100
AcDbEntity
  8
0
 62
     7
100
AcDbLine
 10
896.297058
 20
469.129272
 30
0.0
 11
896.297058
 21
469.0
 31
0.0
  0
LINE
  5
17A
330
1F
100
AcDbEntity
  8
0
 62
     7
100
AcDbLine
 10
896.297058
 20
469.129272
 30
0.0
 11
896.297058
 21
469.270691
 31
0.0
  0
LINE
  5
17B
330
1F
100
AcDbEntity
  8
0
 62
     7
100
AcDbLine
 10
896.297058
 20
469.270691
 30
0.0
 11
896.297058
 21
469.400024
 31
0.0
  0
LINE
  5
17C
330
1F
100
AcDbEntity
  8
0
 62
     7
100
AcDbLine
 10
896.297058
 20
470.099976
 30
0.0
 11
896.297058
 21
469.400024
 31
0.0
  0
LINE
  5
17D
330
1F
100
AcDbEntity
  8
0
 62
     7
100
AcDbLine
 10
896.297058
 20
470.229309
 30
0.0
 11
896.297058
 21
470.099976
 31
0.0
  0
LINE
  5
17E
330
1F
100
AcDbEntity
  8
0
 62
     7
100
AcDbLine
 10
896.297058
 20
470.229309
 30
0.0
 11
896.297058
 21
470.370728
 31
0.0
  0
LINE
  5
17F
330
1F
100
AcDbEntity
  8
0
 62
     7
100
AcDbLine
 10
896.297058
 20
470.370728
 30
0.0
 11
896.297058
 21
470.5
 31
0.0
  0
LINE
  5
180
330
1F
100
AcDbEntity
  8
0
 62
     7
100
AcDbLine
 10
896.297058
 20
471.200012
 30
0.0
 11
896.297058
 21
470.5
 31
0.0
  0
LINE
  5
181
330
1F
100
AcDbEntity
  8
0
 62
     7
100
AcDbLine
 10
896.297058
 20
471.329285
 30
0.0
 11
896.297058
 21
471.200012
 31
0.0
  0
LINE
  5
182
330
1F
100
AcDbEntity
  8
0
 62
     7
100
AcDbLine
 10
896.297058
 20
471.329285
 30
0.0
 11
896.297058
 21
471.470703
 31
0.0
  0
LINE
  5
183
330
1F
100
AcDbEntity
  8
0
 62
     7
100
AcDbLine
 10
896.297058
 20
471.470703
 30
0.0
 11
896.297058
 21
471.599976
 31
0.0
  0
LINE
  5
184
330
1F
100
AcDbEntity
  8
0
 62
     7
100
AcDbLine
 10
896.297058
 20
472.299988
 30
0.0
 11
896.297058
 21
471.599976
 31
0.0
  0
LINE
  5
185
330
1F
100
AcDbEntity
  8
0
 62
     7
100
AcDbLine
 10
896.297058
 20
472.42926
 30
0.0
 11
896.297058
 21
472.299988
 31
0.0
  0
LINE
  5
186
330
1F
100
AcDbEntity
  8
0
 62
     7
100
AcDbLine
 10
896.297058
 20
472.42926
 30
0.0
 11
896.297058
 21
472.570679
 31
0.0
  0
LINE
  5
187
330
1F
100
AcDbEntity
  8
0
 62
     7
100
AcDbLine
 10
896.297058
 20
472.570679
 30
0.0
 11
896.297058
 21
472.700012
 31
0.0
  0
LINE
  5
188
330
1F
100
AcDbEntity
  8
0
 62
     7
100
AcDbLine
 10
893.997009
 20
465.829285
 30
0.0
 11
893.997009
 21
465.700012
 31
0.0
  0
LINE
  5
189
330
1F
100
AcDbEntity
  8
0
 62
     7
100
AcDbLine
 10
893.997009
 20
465.970703
 30
0.0
 11
893.997009
 21
466.099976
 31
0.0
  0
LINE
  5
18A
330
1F
100
AcDbEntity
  8
0
 62
     7
100
AcDbLine
 10
893.997009
 20
465.970703
 30
0.0
 11
893.997009
 21
465.829285
 31
0.0
  0
LINE
  5
18B
330
1F
100
AcDbEntity
  8
0
 62
     7
100
AcDbLine
 10
893.997009
 20
473.599976
 30
0.0
 11
893.997009
 21
473.529297
 31
0.0
  0
LINE
  5
18C
330
1F
100
AcDbEntity
  8
0
 62
     7
100
AcDbLine
 10
893.997009
 20
473.529297
 30
0.0
 11
893.997009
 21
473.400024
 31
0.0
  0
LINE
  5
18D
330
1F
100
AcDbEntity
  8
0
 62
     7
100
AcDbLine
 10
893.997009
 20
472.700012
 30
0.0
 11
893.997009
 21
473.400024
 31
0.0
  0
LINE
  5
18E
330
1F
100
AcDbEntity
  8
0
 62
     7
100
AcDbLine
 10
893.997009
 20
472.570679
 30
0.0
 11
893.997009
 21
472.700012
 31
0.0
  0
LINE
  5
18F
330
1F
100
AcDbEntity
  8
0
 62
     7
100
AcDbLine
 10
893.997009
 20
472.570679
 30
0.0
 11
893.997009
 21
472.42926
 31
0.0
  0
LINE
  5
190
330
1F
100
AcDbEntity
  8
0
 62
     7
100
AcDbLine
 10
893.997009
 20
472.42926
 30
0.0
 11
893.997009
 21
472.299988
 31
0.0
  0
LINE
  5
191
330
1F
100
AcDbEntity
  8
0
 62
     7
100
AcDbLine
 10
893.997009
 20
471.599976
 30
0.0
 11
893.997009
 21
472.299988
 31
0.0
  0
LINE
  5
192
330
1F
100
AcDbEntity
  8
0
 62
     7
100
AcDbLine
 10
893.997009
 20
471.470703
 30
0.0
 11
893.997009
 21
471.599976
 31
0.0
  0
LINE
  5
193
330
1F
100
AcDbEntity
  8
0
 62
     7
100
AcDbLine
 10
893.997009
 20
471.470703
 30
0.0
 11
893.997009
 21
471.329285
 31
0.0
  0
LINE
  5
194
330
1F
100
AcDbEntity
  8
0
 62
     7
100
AcDbLine
 10
893.997009
 20
471.329285
 30
0.0
 11
893.997009
 21
471.200012
 31
0.0
  0
LINE
  5
195
330
1F
100
AcDbEntity
  8
0
 62
     7
100
AcDbLine
 10
893.997009
 20
470.5
 30
0.0
 11
893.997009
 21
471.200012
 31
0.0
  0
LINE
  5
196
330
1F
100
AcDbEntity
  8
0
 62
     7
100
AcDbLine
 10
893.997009
 20
470.370728
 30
0.0
 11
893.997009
 21
470.5
 31
0.0
  0
LINE
  5
197
330
1F
100
AcDbEntity
  8
0
 62
     7
100
AcDbLine
 10
893.997009
 20
470.370728
 30
0.0
 11
893.997009
 21
470.229309
 31
0.0
  0
LINE
  5
198
330
1F
100
AcDbEntity
  8
0
 62
     7
100
AcDbLine
 10
893.997009
 20
470.229309
 30
0.0
 11
893.997009
 21
470.099976
 31
0.0
  0
LINE
  5
199
330
1F
100
AcDbEntity
  8
0
 62
     7
100
AcDbLine
 10
893.997009
 20
469.400024
 30
0.0
 11
893.997009
 21
470.099976
 31
0.0
  0
LINE
  5
19A
330
1F
100
AcDbEntity
  8
0
 62
     7
100
AcDbLine
 10
893.997009
 20
469.270691
 30
0.0
 11
893.997009
 21
469.400024
 31
0.0
  0
LINE
  5
19B
330
1F
100
AcDbEntity
  8
0
 62
     7
100
AcDbLine
 10
893.997009
 20
469.270691
 30
0.0
 11
893.997009
 21
469.129272
 31
0.0
  0
LINE
  5
19C
330
1F
100
AcDbEntity
  8
0
 62
     7
100
AcDbLine
 10
893.997009
 20
469.129272
 30
0.0
 11
893.997009
 21
469.0
 31
0.0
  0
LINE
  5
19D
330
1F
100
AcDbEntity
  8
0
 62
     7
100
AcDbLine
 10
893.997009
 20
468.299988
 30
0.0
 11
893.997009
 21
469.0
 31
0.0
  0
LINE
  5
19E
330
1F
100
AcDbEntity
  8
0
 62
     7
100
AcDbLine
 10
893.997009
 20
468.170715
 30
0.0
 11
893.997009
 21
468.299988
 31
0.0
  0
LINE
  5
19F
330
1F
100
AcDbEntity
  8
0
 62
     7
100
AcDbLine
 10
893.997009
 20
468.170715
 30
0.0
 11
893.997009
 21
468.029297
 31
0.0
  0
LINE
  5
1A0
330
1F
100
AcDbEntity
  8
0
 62
     7
100
AcDbLine
 10
893.997009
 20
468.029297
 30
0.0
 11
893.997009
 21
467.900024
 31
0.0
  0
LINE
  5
1A1
330
1F
100
AcDbEntity
  8
0
 62
     7
100
AcDbLine
 10
893.997009
 20
467.200012
 30
0.0
 11
893.997009
 21
467.900024
 31
0.0
  0
LINE
  5
1A2
330
1F
100
AcDbEntity
  8
0
 62
     7
100
AcDbLine
 10
893.997009
 20
467.070679
 30
0.0
 11
893.997009
 21
467.200012
 31
0.0
  0
LINE
  5
1A3
330
1F
100
AcDbEntity
  8
0
 62
     7
100
AcDbLine
 10
893.997009
 20
467.070679
 30
0.0
 11
893.997009
 21
466.92926
 31
0.0
  0
LINE
  5
1A4
330
1F
100
AcDbEntity
  8
0
 62
     7
100
AcDbLine
 10
893.997009
 20
466.92926
 30
0.0
 11
893.997009
 21
466.799988
 31
0.0
  0
LINE
  5
1A5
330
1F
100
AcDbEntity
  8
0
 62
     7
100
AcDbLine
 10
893.997009
 20
466.099976
 30
0.0
 11
893.997009
 21
466.799988
 31
0.0
  0
LINE
  5
1A6
330
1F
100
AcDbEntity
  8
0
 62
     7
100
AcDbLine
 10
892.997009
 20
472.42926
 30
0.0
 11
892.997009
 21
472.299988
 31
0.0
  0
LINE
  5
1A7
330
1F
100
AcDbEntity
  8
0
 62
     7
100
AcDbLine
 10
892.997009
 20
472.42926
 30
0.0
 11
892.997009
 21
472.570679
 31
0.0
  0
LINE
  5
1A8
330
1F
100
AcDbEntity
  8
0
 62
     7
100
AcDbLine
 10
892.997009
 20
472.570679
 30
0.0
 11
892.997009
 21
472.700012
 31
0.0
  0
LINE
  5
1A9
330
1F
100
AcDbEntity
  8
0
 62
     7
100
AcDbLine
 10
892.997009
 20
473.099976
 30
0.0
 11
892.997009
 21
472.700012
 31
0.0
  0
LINE
  5
1AA
330
1F
100
AcDbEntity
  8
0
 62
     7
100
AcDbLine
 10
892.997009
 20
465.829285
 30
0.0
 11
892.997009
 21
465.700012
 31
0.0
  0
LINE
  5
1AB
330
1F
100
AcDbEntity
  8
0
 62
     7
100
AcDbLine
 10
892.997009
 20
465.829285
 30
0.0
 11
892.997009
 21
465.970703
 31
0.0
  0
LINE
  5
1AC
330
1F
100
AcDbEntity
  8
0
 62
     7
100
AcDbLine
 10
892.997009
 20
465.970703
 30
0.0
 11
892.997009
 21
466.099976
 31
0.0
  0
LINE
  5
1AD
330
1F
100
AcDbEntity
  8
0
 62
     7
100
AcDbLine
 10
892.997009
 20
466.799988
 30
0.0
 11
892.997009
 21
466.099976
 31
0.0
  0
LINE
  5
1AE
330
1F
100
AcDbEntity
  8
0
 62
     7
100
AcDbLine
 10
892.997009
 20
466.92926
 30
0.0
 11
892.997009
 21
466.799988
 31
0.0
  0
LINE
  5
1AF
330
1F
100
AcDbEntity
  8
0
 62
     7
100
AcDbLine
 10
892.997009
 20
466.92926
 30
0.0
 11
892.997009
 21
467.070679
 31
0.0
  0
LINE
  5
1B0
330
1F
100
AcDbEntity
  8
0
 62
     7
100
AcDbLine
 10
892.997009
 20
467.070679
 30
0.0
 11
892.997009
 21
467.200012
 31
0.0
  0
LINE
  5
1B1
330
1F
100
AcDbEntity
  8
0
 62
     7
100
AcDbLine
 10
892.997009
 20
467.900024
 30
0.0
 11
892.997009
 21
467.200012
 31
0.0
  0
LINE
  5
1B2
330
1F
100
AcDbEntity
  8
0
 62
     7
100
AcDbLine
 10
892.997009
 20
468.029297
 30
0.0
 11
892.997009
 21
467.900024
 31
0.0
  0
LINE
  5
1B3
330
1F
100
AcDbEntity
  8
0
 62
     7
100
AcDbLine
 10
892.997009
 20
468.029297
 30
0.0
 11
892.997009
 21
468.170715
 31
0.0
  0
LINE
  5
1B4
330
1F
100
AcDbEntity
  8
0
 62
     7
100
AcDbLine
 10
892.997009
 20
468.170715
 30
0.0
 11
892.997009
 21
468.299988
 31
0.0
  0
LINE
  5
1B5
330
1F
100
AcDbEntity
  8
0
 62
     7
100
AcDbLine
 10
892.997009
 20
469.0
 30
0.0
 11
892.997009
 21
468.299988
 31
0.0
  0
LINE
  5
1B6
330
1F
100
AcDbEntity
  8
0
 62
     7
100
AcDbLine
 10
892.997009
 20
469.129272
 30
0.0
 11
892.997009
 21
469.0
 31
0.0
  0
LINE
  5
1B7
330
1F
100
AcDbEntity
  8
0
 62
     7
100
AcDbLine
 10
892.997009
 20
469.129272
 30
0.0
 11
892.997009
 21
469.270691
 31
0.0
  0
LINE
  5
1B8
330
1F
100
AcDbEntity
  8
0
 62
     7
100
AcDbLine
 10
892.997009
 20
469.270691
 30
0.0
 11
892.997009
 21
469.400024
 31
0.0
  0
LINE
  5
1B9
330
1F
100
AcDbEntity
  8
0
 62
     7
100
AcDbLine
 10
892.997009
 20
470.099976
 30
0.0
 11
892.997009
 21
469.400024
 31
0.0
  0
LINE
  5
1BA
330
1F
100
AcDbEntity
  8
0
 62
     7
100
AcDbLine
 10
892.997009
 20
470.229309
 30
0.0
 11
892.997009
 21
470.099976
 31
0.0
  0
LINE
  5
1BB
330
1F
100
AcDbEntity
  8
0
 62
     7
100
AcDbLine
 10
892.997009
 20
470.229309
 30
0.0
 11
892.997009
 21
470.370728
 31
0.0
  0
LINE
  5
1BC
330
1F
100
AcDbEntity
  8
0
 62
     7
100
AcDbLine
 10
892.997009
 20
470.370728
 30
0.0
 11
892.997009
 21
470.5
 31
0.0
  0
LINE
  5
1BD
330
1F
100
AcDbEntity
  8
0
 62
     7
100
AcDbLine
 10
892.997009
 20
471.200012
 30
0.0
 11
892.997009
 21
470.5
 31
0.0
  0
LINE
  5
1BE
330
1F
100
AcDbEntity
  8
0
 62
     7
100
AcDbLine
 10
892.997009
 20
471.329285
 30
0.0
 11
892.997009
 21
471.200012
 31
0.0
  0
LINE
  5
1BF
330
1F
100
AcDbEntity
  8
0
 62
     7
100
AcDbLine
 10
892.997009
 20
471.329285
 30
0.0
 11
892.997009
 21
471.470703
 31
0.0
  0
LINE
  5
1C0
330
1F
100
AcDbEntity
  8
0
 62
     7
100
AcDbLine
 10
892.997009
 20
471.470703
 30
0.0
 11
892.997009
 21
471.599976
 31
0.0
  0
LINE
  5
1C1
330
1F
100
AcDbEntity
  8
0
 62
     7
100
AcDbLine
 10
892.997009
 20
472.299988
 30
0.0
 11
892.997009
 21
471.599976
 31
0.0
  0
LINE
  5
1C2
330
1F
100
AcDbEntity
  8
0
 62
     7
100
AcDbLine
 10
597.296997
 20
465.829285
 30
0.0
 11
597.296997
 21
465.700012
 31
0.0
  0
LINE
  5
1C3
330
1F
100
AcDbEntity
  8
0
 62
     7
100
AcDbLine
 10
597.296997
 20
465.970703
 30
0.0
 11
597.296997
 21
466.099976
 31
0.0
  0
LINE
  5
1C4
330
1F
100
AcDbEntity
  8
0
 62
     7
100
AcDbLine
 10
597.296997
 20
465.970703
 30
0.0
 11
597.296997
 21
465.829285
 31
0.0
  0
LINE
  5
1C5
330
1F
100
AcDbEntity
  8
0
 62
     7
100
AcDbLine
 10
597.296997
 20
472.700012
 30
0.0
 11
597.296997
 21
473.099976
 31
0.0
  0
LINE
  5
1C6
330
1F
100
AcDbEntity
  8
0
 62
     7
100
AcDbLine
 10
597.296997
 20
472.570679
 30
0.0
 11
597.296997
 21
472.700012
 31
0.0
  0
LINE
  5
1C7
330
1F
100
AcDbEntity
  8
0
 62
     7
100
AcDbLine
 10
597.296997
 20
472.570679
 30
0.0
 11
597.296997
 21
472.42926
 31
0.0
  0
LINE
  5
1C8
330
1F
100
AcDbEntity
  8
0
 62
     7
100
AcDbLine
 10
597.296997
 20
472.42926
 30
0.0
 11
597.296997
 21
472.299988
 31
0.0
  0
LINE
  5
1C9
330
1F
100
AcDbEntity
  8
0
 62
     7
100
AcDbLine
 10
597.296997
 20
471.599976
 30
0.0
 11
597.296997
 21
472.299988
 31
0.0
  0
LINE
  5
1CA
330
1F
100
AcDbEntity
  8
0
 62
     7
100
AcDbLine
 10
597.296997
 20
471.470703
 30
0.0
 11
597.296997
 21
471.599976
 31
0.0
  0
LINE
  5
1CB
330
1F
100
AcDbEntity
  8
0
 62
     7
100
AcDbLine
 10
597.296997
 20
471.470703
 30
0.0
 11
597.296997
 21
471.329285
 31
0.0
  0
LINE
  5
1CC
330
1F
100
AcDbEntity
  8
0
 62
     7
100
AcDbLine
 10
597.296997
 20
471.329285
 30
0.0
 11
597.296997
 21
471.200012
 31
0.0
  0
LINE
  5
1CD
330
1F
100
AcDbEntity
  8
0
 62
     7
100
AcDbLine
 10
597.296997
 20
470.5
 30
0.0
 11
597.296997
 21
471.200012
 31
0.0
  0
LINE
  5
1CE
330
1F
100
AcDbEntity
  8
0
 62
     7
100
AcDbLine
 10
597.296997
 20
470.370728
 30
0.0
 11
597.296997
 21
470.5
 31
0.0
  0
LINE
  5
1CF
330
1F
100
AcDbEntity
  8
0
 62
     7
100
AcDbLine
 10
597.296997
 20
470.370728
 30
0.0
 11
597.296997
 21
470.229309
 31
0.0
  0
LINE
  5
1D0
330
1F
100
AcDbEntity
  8
0
 62
     7
100
AcDbLine
 10
597.296997
 20
470.229309
 30
0.0
 11
597.296997
 21
470.099976
 31
0.0
  0
LINE
  5
1D1
330
1F
100
AcDbEntity
  8
0
 62
     7
100
AcDbLine
 10
597.296997
 20
469.400024
 30
0.0
 11
597.296997
 21
470.099976
 31
0.0
  0
LINE
  5
1D2
330
1F
100
AcDbEntity
  8
0
 62
     7
100
AcDbLine
 10
597.296997
 20
469.270691
 30
0.0
 11
597.296997
 21
469.400024
 31
0.0
  0
LINE
  5
1D3
330
1F
100
AcDbEntity
  8
0
 62
     7
100
AcDbLine
 10
597.296997
 20
469.270691
 30
0.0
 11
597.296997
 21
469.129272
 31
0.0
  0
LINE
  5
1D4
330
1F
100
AcDbEntity
  8
0
 62
     7
100
AcDbLine
 10
597.296997
 20
469.129272
 30
0.0
 11
597.296997
 21
469.0
 31
0.0
  0
LINE
  5
1D5
330
1F
100
AcDbEntity
  8
0
 62
     7
100
AcDbLine
 10
597.296997
 20
468.299988
 30
0.0
 11
597.296997
 21
469.0
 31
0.0
  0
LINE
  5
1D6
330
1F
100
AcDbEntity
  8
0
 62
     7
100
AcDbLine
 10
597.296997
 20
468.170715
 30
0.0
 11
597.296997
 21
468.299988
 31
0.0
  0
LINE
  5
1D7
330
1F
100
AcDbEntity
  8
0
 62
     7
100
AcDbLine
 10
597.296997
 20
468.170715
 30
0.0
 11
597.296997
 21
468.029297
 31
0.0
  0
LINE
  5
1D8
330
1F
100
AcDbEntity
  8
0
 62
     7
100
AcDbLine
 10
597.296997
 20
468.029297
 30
0.0
 11
597.296997
 21
467.900024
 31
0.0
  0
LINE
  5
1D9
330
1F
100
AcDbEntity
  8
0
 62
     7
100
AcDbLine
 10
597.296997
 20
467.200012
 30
0.0
 11
597.296997
 21
467.900024
 31
0.0
  0
LINE
  5
1DA
330
1F
100
AcDbEntity
  8
0
 62
     7
100
AcDbLine
 10
597.296997
 20
467.070679
 30
0.0
 11
597.296997
 21
467.200012
 31
0.0
  0
LINE
  5
1DB
330
1F
100
AcDbEntity
  8
0
 62
     7
100
AcDbLine
 10
597.296997
 20
467.070679
 30
0.0
 11
597.296997
 21
466.92926
 31
0.0
  0
LINE
  5
1DC
330
1F
100
AcDbEntity
  8
0
 62
     7
100
AcDbLine
 10
597.296997
 20
466.92926
 30
0.0
 11
597.296997
 21
466.799988
 31
0.0
  0
LINE
  5
1DD
330
1F
100
AcDbEntity
  8
0
 62
     7
100
AcDbLine
 10
597.296997
 20
466.099976
 30
0.0
 11
597.296997
 21
466.799988
 31
0.0
  0
LINE
  5
1DE
330
1F
100
AcDbEntity
  8
0
 62
     7
100
AcDbLine
 10
596.296997
 20
473.400024
 30
0.0
 11
596.296997
 21
472.700012
 31
0.0
  0
LINE
  5
1DF
330
1F
100
AcDbEntity
  8
0
 62
     7
100
AcDbLine
 10
596.296997
 20
473.529297
 30
0.0
 11
596.296997
 21
473.400024
 31
0.0
  0
LINE
  5
1E0
330
1F
100
AcDbEntity
  8
0
 62
     7
100
AcDbLine
 10
596.296997
 20
473.529297
 30
0.0
 11
596.296997
 21
473.599976
 31
0.0
  0
LINE
  5
1E1
330
1F
100
AcDbEntity
  8
0
 62
     7
100
AcDbLine
 10
596.296997
 20
465.829285
 30
0.0
 11
596.296997
 21
465.700012
 31
0.0
  0
LINE
  5
1E2
330
1F
100
AcDbEntity
  8
0
 62
     7
100
AcDbLine
 10
596.296997
 20
465.829285
 30
0.0
 11
596.296997
 21
465.970703
 31
0.0
  0
LINE
  5
1E3
330
1F
100
AcDbEntity
  8
0
 62
     7
100
AcDbLine
 10
596.296997
 20
465.970703
 30
0.0
 11
596.296997
 21
466.099976
 31
0.0
  0
LINE
  5
1E4
330
1F
100
AcDbEntity
  8
0
 62
     7
100
AcDbLine
 10
596.296997
 20
466.799988
 30
0.0
 11
596.296997
 21
466.099976
 31
0.0
  0
LINE
  5
1E5
330
1F
100
AcDbEntity
  8
0
 62
     7
100
AcDbLine
 10
596.296997
 20
466.92926
 30
0.0
 11
596.296997
 21
466.799988
 31
0.0
  0
LINE
  5
1E6
330
1F
100
AcDbEntity
  8
0
 62
     7
100
AcDbLine
 10
596.296997
 20
466.92926
 30
0.0
 11
596.296997
 21
467.070679
 31
0.0
  0
LINE
  5
1E7
330
1F
100
AcDbEntity
  8
0
 62
     7
100
AcDbLine
 10
596.296997
 20
467.070679
 30
0.0
 11
596.296997
 21
467.200012
 31
0.0
  0
LINE
  5
1E8
330
1F
100
AcDbEntity
  8
0
 62
     7
100
AcDbLine
 10
596.296997
 20
467.900024
 30
0.0
 11
596.296997
 21
467.200012
 31
0.0
  0
LINE
  5
1E9
330
1F
100
AcDbEntity
  8
0
 62
     7
100
AcDbLine
 10
596.296997
 20
468.029297
 30
0.0
 11
596.296997
 21
467.900024
 31
0.0
  0
LINE
  5
1EA
330
1F
100
AcDbEntity
  8
0
 62
     7
100
AcDbLine
 10
596.296997
 20
468.029297
 30
0.0
 11
596.296997
 21
468.170715
 31
0.0
  0
LINE
  5
1EB
330
1F
100
AcDbEntity
  8
0
 62
     7
100
AcDbLine
 10
596.296997
 20
468.170715
 30
0.0
 11
596.296997
 21
468.299988
 31
0.0
  0
LINE
  5
1EC
330
1F
100
AcDbEntity
  8
0
 62
     7
100
AcDbLine
 10
596.296997
 20
469.0
 30
0.0
 11
596.296997
 21
468.299988
 31
0.0
  0
LINE
  5
1ED
330
1F
100
AcDbEntity
  8
0
 62
     7
100
AcDbLine
 10
596.296997
 20
469.129272
 30
0.0
 11
596.296997
 21
469.0
 31
0.0
  0
LINE
  5
1EE
330
1F
100
AcDbEntity
  8
0
 62
     7
100
AcDbLine
 10
596.296997
 20
469.129272
 30
0.0
 11
596.296997
 21
469.270691
 31
0.0
  0
LINE
  5
1EF
330
1F
100
AcDbEntity
  8
0
 62
     7
100
AcDbLine
 10
596.296997
 20
469.270691
 30
0.0
 11
596.296997
 21
469.400024
 31
0.0
  0
LINE
  5
1F0
330
1F
100
AcDbEntity
  8
0
 62
     7
100
AcDbLine
 10
596.296997
 20
470.099976
 30
0.0
 11
596.296997
 21
469.400024
 31
0.0
  0
LINE
  5
1F1
330
1F
100
AcDbEntity
  8
0
 62
     7
100
AcDbLine
 10
596.296997
 20
470.229309
 30
0.0
 11
596.296997
 21
470.099976
 31
0.0
  0
LINE
  5
1F2
330
1F
100
AcDbEntity
  8
0
 62
     7
100
AcDbLine
 10
596.296997
 20
470.229309
 30
0.0
 11
596.296997
 21
470.370728
 31
0.0
  0
LINE
  5
1F3
330
1F
100
AcDbEntity
  8
0
 62
     7
100
AcDbLine
 10
596.296997
 20
470.370728
 30
0.0
 11
596.296997
 21
470.5
 31
0.0
  0
LINE
  5
1F4
330
1F
100
AcDbEntity
  8
0
 62
     7
100
AcDbLine
 10
596.296997
 20
471.200012
 30
0.0
 11
596.296997
 21
470.5
 31
0.0
  0
LINE
  5
1F5
330
1F
100
AcDbEntity
  8
0
 62
     7
100
AcDbLine
 10
596.296997
 20
471.329285
 30
0.0
 11
596.296997
 21
471.200012
 31
0.0
  0
LINE
  5
1F6
330
1F
100
AcDbEntity
  8
0
 62
     7
100
AcDbLine
 10
596.296997
 20
471.329285
 30
0.0
 11
596.296997
 21
471.470703
 31
0.0
  0
LINE
  5
1F7
330
1F
100
AcDbEntity
  8
0
 62
     7
100
AcDbLine
 10
596.296997
 20
471.470703
 30
0.0
 11
596.296997
 21
471.599976
 31
0.0
  0
LINE
  5
1F8
330
1F
100
AcDbEntity
  8
0
 62
     7
100
AcDbLine
 10
596.296997
 20
472.299988
 30
0.0
 11
596.296997
 21
471.599976
 31
0.0
  0
LINE
  5
1F9
330
1F
100
AcDbEntity
  8
0
 62
     7
100
AcDbLine
 10
596.296997
 20
472.42926
 30
0.0
 11
596.296997
 21
472.299988
 31
0.0
  0
LINE
  5
1FA
330
1F
100
AcDbEntity
  8
0
 62
     7
100
AcDbLine
 10
596.296997
 20
472.42926
 30
0.0
 11
596.296997
 21
472.570679
 31
0.0
  0
LINE
  5
1FB
330
1F
100
AcDbEntity
  8
0
 62
     7
100
AcDbLine
 10
596.296997
 20
472.570679
 30
0.0
 11
596.296997
 21
472.700012
 31
0.0
  0
LINE
  5
1FC
330
1F
100
AcDbEntity
  8
0
 62
     7
100
AcDbLine
 10
593.99707
 20
465.829285
 30
0.0
 11
593.99707
 21
465.700012
 31
0.0
  0
LINE
  5
1FD
330
1F
100
AcDbEntity
  8
0
 62
     7
100
AcDbLine
 10
593.99707
 20
465.970703
 30
0.0
 11
593.99707
 21
466.099976
 31
0.0
  0
LINE
  5
1FE
330
1F
100
AcDbEntity
  8
0
 62
     7
100
AcDbLine
 10
593.99707
 20
465.970703
 30
0.0
 11
593.99707
 21
465.829285
 31
0.0
  0
LINE
  5
1FF
330
1F
100
AcDbEntity
  8
0
 62
     7
100
AcDbLine
 10
593.99707
 20
473.599976
 30
0.0
 11
593.99707
 21
473.529297
 31
0.0
  0
LINE
  5
200
330
1F
100
AcDbEntity
  8
0
 62
     7
100
AcDbLine
 10
593.99707
 20
473.529297
 30
0.0
 11
593.99707
 21
473.400024
 31
0.0
  0
LINE
  5
201
330
1F
100
AcDbEntity
  8
0
 62
     7
100
AcDbLine
 10
593.99707
 20
472.700012
 30
0.0
 11
593.99707
 21
473.400024
 31
0.0
  0
LINE
  5
202
330
1F
100
AcDbEntity
  8
0
 62
     7
100
AcDbLine
 10
593.99707
 20
472.570679
 30
0.0
 11
593.99707
 21
472.700012
 31
0.0
  0
LINE
  5
203
330
1F
100
AcDbEntity
  8
0
 62
     7
100
AcDbLine
 10
593.99707
 20
472.570679
 30
0.0
 11
593.99707
 21
472.42926
 31
0.0
  0
LINE
  5
204
330
1F
100
AcDbEntity
  8
0
 62
     7
100
AcDbLine
 10
593.99707
 20
472.42926
 30
0.0
 11
593.99707
 21
472.299988
 31
0.0
  0
LINE
  5
205
330
1F
100
AcDbEntity
  8
0
 62
     7
100
AcDbLine
 10
593.99707
 20
471.599976
 30
0.0
 11
593.99707
 21
472.299988
 31
0.0
  0
LINE
  5
206
330
1F
100
AcDbEntity
  8
0
 62
     7
100
AcDbLine
 10
593.99707
 20
471.470703
 30
0.0
 11
593.99707
 21
471.599976
 31
0.0
  0
LINE
  5
207
330
1F
100
AcDbEntity
  8
0
 62
     7
100
AcDbLine
 10
593.99707
 20
471.470703
 30
0.0
 11
593.99707
 21
471.329285
 31
0.0
  0
LINE
  5
208
330
1F
100
AcDbEntity
  8
0
 62
     7
100
AcDbLine
 10
593.99707
 20
471.329285
 30
0.0
 11
593.99707
 21
471.200012
 31
0.0
  0
LINE
  5
209
330
1F
100
AcDbEntity
  8
0
 62
     7
100
AcDbLine
 10
593.99707
 20
470.5
 30
0.0
 11
593.99707
 21
471.200012
 31
0.0
  0
LINE
  5
20A
330
1F
100
AcDbEntity
  8
0
 62
     7
100
AcDbLine
 10
593.99707
 20
470.370728
 30
0.0
 11
593.99707
 21
470.5
 31
0.0
  0
LINE
  5
20B
330
1F
100
AcDbEntity
  8
0
 62
     7
100
AcDbLine
 10
593.99707
 20
470.370728
 30
0.0
 11
593.99707
 21
470.229309
 31
0.0
  0
LINE
  5
20C
330
1F
100
AcDbEntity
  8
0
 62
     7
100
AcDbLine
 10
593.99707
 20
470.229309
 30
0.0
 11
593.99707
 21
470.099976
 31
0.0
  0
LINE
  5
20D
330
1F
100
AcDbEntity
  8
0
 62
     7
100
AcDbLine
 10
593.99707
 20
469.400024
 30
0.0
 11
593.99707
 21
470.099976
 31
0.0
  0
LINE
  5
20E
330
1F
100
AcDbEntity
  8
0
 62
     7
100
AcDbLine
 10
593.99707
 20
469.270691
 30
0.0
 11
593.99707
 21
469.400024
 31
0.0
  0
LINE
  5
20F
330
1F
100
AcDbEntity
  8
0
 62
     7
100
AcDbLine
 10
593.99707
 20
469.270691
 30
0.0
 11
593.99707
 21
469.129272
 31
0.0
  0
LINE
  5
210
330
1F
100
AcDbEntity
  8
0
 62
     7
100
AcDbLine
 10
593.99707
 20
469.129272
 30
0.0
 11
593.99707
 21
469.0
 31
0.0
  0
LINE
  5
211
330
1F
100
AcDbEntity
  8
0
 62
     7
100
AcDbLine
 10
593.99707
 20
468.299988
 30
0.0
 11
593.99707
 21
469.0
 31
0.0
  0
LINE
  5
212
330
1F
100
AcDbEntity
  8
0
 62
     7
100
AcDbLine
 10
593.99707
 20
468.170715
 30
0.0
 11
593.99707
 21
468.299988
 31
0.0
  0
LINE
  5
213
330
1F
100
AcDbEntity
  8
0
 62
     7
100
AcDbLine
 10
593.99707
 20
468.170715
 30
0.0
 11
593.99707
 21
468.029297
 31
0.0
  0
LINE
  5
214
330
1F
100
AcDbEntity
  8
0
 62
     7
100
AcDbLine
 10
593.99707
 20
468.029297
 30
0.0
 11
593.99707
 21
467.900024
 31
0.0
  0
LINE
  5
215
330
1F
100
AcDbEntity
  8
0
 62
     7
100
AcDbLine
 10
593.99707
 20
467.200012
 30
0.0
 11
593.99707
 21
467.900024
 31
0.0
  0
LINE
  5
216
330
1F
100
AcDbEntity
  8
0
 62
     7
100
AcDbLine
 10
593.99707
 20
467.070679
 30
0.0
 11
593.99707
 21
467.200012
 31
0.0
  0
LINE
  5
217
330
1F
100
AcDbEntity
  8
0
 62
     7
100
AcDbLine
 10
593.99707
 20
467.070679
 30
0.0
 11
593.99707
 21
466.92926
 31
0.0
  0
LINE
  5
218
330
1F
100
AcDbEntity
  8
0
 62
     7
100
AcDbLine
 10
593.99707
 20
466.92926
 30
0.0
 11
593.99707
 21
466.799988
 31
0.0
  0
LINE
  5
219
330
1F
100
AcDbEntity
  8
0
 62
     7
100
AcDbLine
 10
593.99707
 20
466.099976
 30
0.0
 11
593.99707
 21
466.799988
 31
0.0
  0
LINE
  5
21A
330
1F
100
AcDbEntity
  8
0
 62
     7
100
AcDbLine
 10
592.99707
 20
472.42926
 30
0.0
 11
592.99707
 21
472.299988
 31
0.0
  0
LINE
  5
21B
330
1F
100
AcDbEntity
  8
0
 62
     7
100
AcDbLine
 10
592.99707
 20
472.42926
 30
0.0
 11
592.99707
 21
472.570679
 31
0.0
  0
LINE
  5
21C
330
1F
100
AcDbEntity
  8
0
 62
     7
100
AcDbLine
 10
592.99707
 20
472.570679
 30
0.0
 11
592.99707
 21
472.700012
 31
0.0
  0
LINE
  5
21D
330
1F
100
AcDbEntity
  8
0
 62
     7
100
AcDbLine
 10
592.99707
 20
473.099976
 30
0.0
 11
592.99707
 21
472.700012
 31
0.0
  0
LINE
  5
21E
330
1F
100
AcDbEntity
  8
0
 62
     7
100
AcDbLine
 10
592.99707
 20
465.829285
 30
0.0
 11
592.99707
 21
465.700012
 31
0.0
  0
LINE
  5
21F
330
1F
100
AcDbEntity
  8
0
 62
     7
100
AcDbLine
 10
592.99707
 20
465.829285
 30
0.0
 11
592.99707
 21
465.970703
 31
0.0
  0
LINE
  5
220
330
1F
100
AcDbEntity
  8
0
 62
     7
100
AcDbLine
 10
592.99707
 20
465.970703
 30
0.0
 11
592.99707
 21
466.099976
 31
0.0
  0
LINE
  5
221
330
1F
100
AcDbEntity
  8
0
 62
     7
100
AcDbLine
 10
592.99707
 20
466.799988
 30
0.0
 11
592.99707
 21
466.099976
 31
0.0
  0
LINE
  5
222
330
1F
100
AcDbEntity
  8
0
 62
     7
100
AcDbLine
 10
592.99707
 20
466.92926
 30
0.0
 11
592.99707
 21
466.799988
 31
0.0
  0
LINE
  5
223
330
1F
100
AcDbEntity
  8
0
 62
     7
100
AcDbLine
 10
592.99707
 20
466.92926
 30
0.0
 11
592.99707
 21
467.070679
 31
0.0
  0
LINE
  5
224
330
1F
100
AcDbEntity
  8
0
 62
     7
100
AcDbLine
 10
592.99707
 20
467.070679
 30
0.0
 11
592.99707
 21
467.200012
 31
0.0
  0
LINE
  5
225
330
1F
100
AcDbEntity
  8
0
 62
     7
100
AcDbLine
 10
592.99707
 20
467.900024
 30
0.0
 11
592.99707
 21
467.200012
 31
0.0
  0
LINE
  5
226
330
1F
100
AcDbEntity
  8
0
 62
     7
100
AcDbLine
 10
592.99707
 20
468.029297
 30
0.0
 11
592.99707
 21
467.900024
 31
0.0
  0
LINE
  5
227
330
1F
100
AcDbEntity
  8
0
 62
     7
100
AcDbLine
 10
592.99707
 20
468.029297
 30
0.0
 11
592.99707
 21
468.170715
 31
0.0
  0
LINE
  5
228
330
1F
100
AcDbEntity
  8
0
 62
     7
100
AcDbLine
 10
592.99707
 20
468.170715
 30
0.0
 11
592.99707
 21
468.299988
 31
0.0
  0
LINE
  5
229
330
1F
100
AcDbEntity
  8
0
 62
     7
100
AcDbLine
 10
592.99707
 20
469.0
 30
0.0
 11
592.99707
 21
468.299988
 31
0.0
  0
LINE
  5
22A
330
1F
100
AcDbEntity
  8
0
 62
     7
100
AcDbLine
 10
592.99707
 20
469.129272
 30
0.0
 11
592.99707
 21
469.0
 31
0.0
  0
LINE
  5
22B
330
1F
100
AcDbEntity
  8
0
 62
     7
100
AcDbLine
 10
592.99707
 20
469.129272
 30
0.0
 11
592.99707
 21
469.270691
 31
0.0
  0
LINE
  5
22C
330
1F
100
AcDbEntity
  8
0
 62
     7
100
AcDbLine
 10
592.99707
 20
469.270691
 30
0.0
 11
592.99707
 21
469.400024
 31
0.0
  0
LINE
  5
22D
330
1F
100
AcDbEntity
  8
0
 62
     7
100
AcDbLine
 10
592.99707
 20
470.099976
 30
0.0
 11
592.99707
 21
469.400024
 31
0.0
  0
LINE
  5
22E
330
1F
100
AcDbEntity
  8
0
 62
     7
100
AcDbLine
 10
592.99707
 20
470.229309
 30
0.0
 11
592.99707
 21
470.099976
 31
0.0
  0
LINE
  5
22F
330
1F
100
AcDbEntity
  8
0
 62
     7
100
AcDbLine
 10
592.99707
 20
470.229309
 30
0.0
 11
592.99707
 21
470.370728
 31
0.0
  0
LINE
  5
230
330
1F
100
AcDbEntity
  8
0
 62
     7
100
AcDbLine
 10
592.99707
 20
470.370728
 30
0.0
 11
592.99707
 21
470.5
 31
0.0
  0
LINE
  5
231
330
1F
100
AcDbEntity
  8
0
 62
     7
100
AcDbLine
 10
592.99707
 20
471.200012
 30
0.0
 11
592.99707
 21
470.5
 31
0.0
  0
LINE
  5
232
330
1F
100
AcDbEntity
  8
0
 62
     7
100
AcDbLine
 10
592.99707
 20
471.329285
 30
0.0
 11
592.99707
 21
471.200012
 31
0.0
  0
LINE
  5
233
330
1F
100
AcDbEntity
  8
0
 62
     7
100
AcDbLine
 10
592.99707
 20
471.329285
 30
0.0
 11
592.99707
 21
471.470703
 31
0.0
  0
LINE
  5
234
330
1F
100
AcDbEntity
  8
0
 62
     7
100
AcDbLine
 10
592.99707
 20
471.470703
 30
0.0
 11
592.99707
 21
471.599976
 31
0.0
  0
LINE
  5
235
330
1F
100
AcDbEntity
  8
0
 62
     7
100
AcDbLine
 10
592.99707
 20
472.299988
 30
0.0
 11
592.99707
 21
471.599976
 31
0.0
  0
LINE
  5
236
330
1F
100
AcDbEntity
  8
0
 62
     7
100
AcDbLine
 10
297.297058
 20
465.829285
 30
0.0
 11
297.297058
 21
465.700012
 31
0.0
  0
LINE
  5
237
330
1F
100
AcDbEntity
  8
0
 62
     7
100
AcDbLine
 10
297.297058
 20
465.970703
 30
0.0
 11
297.297058
 21
466.099976
 31
0.0
  0
LINE
  5
238
330
1F
100
AcDbEntity
  8
0
 62
     7
100
AcDbLine
 10
297.297058
 20
465.970703
 30
0.0
 11
297.297058
 21
465.829285
 31
0.0
  0
LINE
  5
239
330
1F
100
AcDbEntity
  8
0
 62
     7
100
AcDbLine
 10
297.297058
 20
472.700012
 30
0.0
 11
297.297058
 21
473.099976
 31
0.0
  0
LINE
  5
23A
330
1F
100
AcDbEntity
  8
0
 62
     7
100
AcDbLine
 10
297.297058
 20
472.570679
 30
0.0
 11
297.297058
 21
472.700012
 31
0.0
  0
LINE
  5
23B
330
1F
100
AcDbEntity
  8
0
 62
     7
100
AcDbLine
 10
297.297058
 20
472.570679
 30
0.0
 11
297.297058
 21
472.42926
 31
0.0
  0
LINE
  5
23C
330
1F
100
AcDbEntity
  8
0
 62
     7
100
AcDbLine
 10
297.297058
 20
472.42926
 30
0.0
 11
297.297058
 21
472.299988
 31
0.0
  0
LINE
  5
23D
330
1F
100
AcDbEntity
  8
0
 62
     7
100
AcDbLine
 10
297.297058
 20
471.599976
 30
0.0
 11
297.297058
 21
472.299988
 31
0.0
  0
LINE
  5
23E
330
1F
100
AcDbEntity
  8
0
 62
     7
100
AcDbLine
 10
297.297058
 20
471.470703
 30
0.0
 11
297.297058
 21
471.599976
 31
0.0
  0
LINE
  5
23F
330
1F
100
AcDbEntity
  8
0
 62
     7
100
AcDbLine
 10
297.297058
 20
471.470703
 30
0.0
 11
297.297058
 21
471.329285
 31
0.0
  0
LINE
  5
240
330
1F
100
AcDbEntity
  8
0
 62
     7
100
AcDbLine
 10
297.297058
 20
471.329285
 30
0.0
 11
297.297058
 21
471.200012
 31
0.0
  0
LINE
  5
241
330
1F
100
AcDbEntity
  8
0
 62
     7
100
AcDbLine
 10
297.297058
 20
470.5
 30
0.0
 11
297.297058
 21
471.200012
 31
0.0
  0
LINE
  5
242
330
1F
100
AcDbEntity
  8
0
 62
     7
100
AcDbLine
 10
297.297058
 20
470.370728
 30
0.0
 11
297.297058
 21
470.5
 31
0.0
  0
LINE
  5
243
330
1F
100
AcDbEntity
  8
0
 62
     7
100
AcDbLine
 10
297.297058
 20
470.370728
 30
0.0
 11
297.297058
 21
470.229309
 31
0.0
  0
LINE
  5
244
330
1F
100
AcDbEntity
  8
0
 62
     7
100
AcDbLine
 10
297.297058
 20
470.229309
 30
0.0
 11
297.297058
 21
470.099976
 31
0.0
  0
LINE
  5
245
330
1F
100
AcDbEntity
  8
0
 62
     7
100
AcDbLine
 10
297.297058
 20
469.400024
 30
0.0
 11
297.297058
 21
470.099976
 31
0.0
  0
LINE
  5
246
330
1F
100
AcDbEntity
  8
0
 62
     7
100
AcDbLine
 10
297.297058
 20
469.270691
 30
0.0
 11
297.297058
 21
469.400024
 31
0.0
  0
LINE
  5
247
330
1F
100
AcDbEntity
  8
0
 62
     7
100
AcDbLine
 10
297.297058
 20
469.270691
 30
0.0
 11
297.297058
 21
469.129272
 31
0.0
  0
LINE
  5
248
330
1F
100
AcDbEntity
  8
0
 62
     7
100
AcDbLine
 10
297.297058
 20
469.129272
 30
0.0
 11
297.297058
 21
469.0
 31
0.0
  0
LINE
  5
249
330
1F
100
AcDbEntity
  8
0
 62
     7
100
AcDbLine
 10
297.297058
 20
468.299988
 30
0.0
 11
297.297058
 21
469.0
 31
0.0
  0
LINE
  5
24A
330
1F
100
AcDbEntity
  8
0
 62
     7
100
AcDbLine
 10
297.297058
 20
468.170715
 30
0.0
 11
297.297058
 21
468.299988
 31
0.0
  0
LINE
  5
24B
330
1F
100
AcDbEntity
  8
0
 62
     7
100
AcDbLine
 10
297.297058
 20
468.170715
 30
0.0
 11
297.297058
 21
468.029297
 31
0.0
  0
LINE
  5
24C
330
1F
100
AcDbEntity
  8
0
 62
     7
100
AcDbLine
 10
297.297058
 20
468.029297
 30
0.0
 11
297.297058
 21
467.900024
 31
0.0
  0
LINE
  5
24D
330
1F
100
AcDbEntity
  8
0
 62
     7
100
AcDbLine
 10
297.297058
 20
467.200012
 30
0.0
 11
297.297058
 21
467.900024
 31
0.0
  0
LINE
  5
24E
330
1F
100
AcDbEntity
  8
0
 62
     7
100
AcDbLine
 10
297.297058
 20
467.070679
 30
0.0
 11
297.297058
 21
467.200012
 31
0.0
  0
LINE
  5
24F
330
1F
100
AcDbEntity
  8
0
 62
     7
100
AcDbLine
 10
297.297058
 20
467.070679
 30
0.0
 11
297.297058
 21
466.92926
 31
0.0
  0
LINE
  5
250
330
1F
100
AcDbEntity
  8
0
 62
     7
100
AcDbLine
 10
297.297058
 20
466.92926
 30
0.0
 11
297.297058
 21
466.799988
 31
0.0
  0
LINE
  5
251
330
1F
100
AcDbEntity
  8
0
 62
     7
100
AcDbLine
 10
297.297058
 20
466.099976
 30
0.0
 11
297.297058
 21
466.799988
 31
0.0
  0
LINE
  5
252
330
1F
100
AcDbEntity
  8
0
 62
     7
100
AcDbLine
 10
296.297058
 20
473.400024
 30
0.0
 11
296.297058
 21
472.700012
 31
0.0
  0
LINE
  5
253
330
1F
100
AcDbEntity
  8
0
 62
     7
100
AcDbLine
 10
296.297058
 20
473.529297
 30
0.0
 11
296.297058
 21
473.400024
 31
0.0
  0
LINE
  5
254
330
1F
100
AcDbEntity
  8
0
 62
     7
100
AcDbLine
 10
296.297058
 20
473.529297
 30
0.0
 11
296.297058
 21
473.599976
 31
0.0
  0
LINE
  5
255
330
1F
100
AcDbEntity
  8
0
 62
     7
100
AcDbLine
 10
296.297058
 20
465.829285
 30
0.0
 11
296.297058
 21
465.700012
 31
0.0
  0
LINE
  5
256
330
1F
100
AcDbEntity
  8
0
 62
     7
100
AcDbLine
 10
296.297058
 20
465.829285
 30
0.0
 11
296.297058
 21
465.970703
 31
0.0
  0
LINE
  5
257
330
1F
100
AcDbEntity
  8
0
 62
     7
100
AcDbLine
 10
296.297058
 20
465.970703
 30
0.0
 11
296.297058
 21
466.099976
 31
0.0
  0
LINE
  5
258
330
1F
100
AcDbEntity
  8
0
 62
     7
100
AcDbLine
 10
296.297058
 20
466.799988
 30
0.0
 11
296.297058
 21
466.099976
 31
0.0
  0
LINE
  5
259
330
1F
100
AcDbEntity
  8
0
 62
     7
100
AcDbLine
 10
296.297058
 20
466.92926
 30
0.0
 11
296.297058
 21
466.799988
 31
0.0
  0
LINE
  5
25A
330
1F
100
AcDbEntity
  8
0
 62
     7
100
AcDbLine
 10
296.297058
 20
466.92926
 30
0.0
 11
296.297058
 21
467.070679
 31
0.0
  0
LINE
  5
25B
330
1F
100
AcDbEntity
  8
0
 62
     7
100
AcDbLine
 10
296.297058
 20
467.070679
 30
0.0
 11
296.297058
 21
467.200012
 31
0.0
  0
LINE
  5
25C
330
1F
100
AcDbEntity
  8
0
 62
     7
100
AcDbLine
 10
296.297058
 20
467.900024
 30
0.0
 11
296.297058
 21
467.200012
 31
0.0
  0
LINE
  5
25D
330
1F
100
AcDbEntity
  8
0
 62
     7
100
AcDbLine
 10
296.297058
 20
468.029297
 30
0.0
 11
296.297058
 21
467.900024
 31
0.0
  0
LINE
  5
25E
330
1F
100
AcDbEntity
  8
0
 62
     7
100
AcDbLine
 10
296.297058
 20
468.029297
 30
0.0
 11
296.297058
 21
468.170715
 31
0.0
  0
LINE
  5
25F
330
1F
100
AcDbEntity
  8
0
 62
     7
100
AcDbLine
 10
296.297058
 20
468.170715
 30
0.0
 11
296.297058
 21
468.299988
 31
0.0
  0
LINE
  5
260
330
1F
100
AcDbEntity
  8
0
 62
     7
100
AcDbLine
 10
296.297058
 20
469.0
 30
0.0
 11
296.297058
 21
468.299988
 31
0.0
  0
LINE
  5
261
330
1F
100
AcDbEntity
  8
0
 62
     7
100
AcDbLine
 10
296.297058
 20
469.129272
 30
0.0
 11
296.297058
 21
469.0
 31
0.0
  0
LINE
  5
262
330
1F
100
AcDbEntity
  8
0
 62
     7
100
AcDbLine
 10
296.297058
 20
469.129272
 30
0.0
 11
296.297058
 21
469.270691
 31
0.0
  0
LINE
  5
263
330
1F
100
AcDbEntity
  8
0
 62
     7
100
AcDbLine
 10
296.297058
 20
469.270691
 30
0.0
 11
296.297058
 21
469.400024
 31
0.0
  0
LINE
  5
264
330
1F
100
AcDbEntity
  8
0
 62
     7
100
AcDbLine
 10
296.297058
 20
470.099976
 30
0.0
 11
296.297058
 21
469.400024
 31
0.0
  0
LINE
  5
265
330
1F
100
AcDbEntity
  8
0
 62
     7
100
AcDbLine
 10
296.297058
 20
470.229309
 30
0.0
 11
296.297058
 21
470.099976
 31
0.0
  0
LINE
  5
266
330
1F
100
AcDbEntity
  8
0
 62
     7
100
AcDbLine
 10
296.297058
 20
470.229309
 30
0.0
 11
296.297058
 21
470.370728
 31
0.0
  0
LINE
  5
267
330
1F
100
AcDbEntity
  8
0
 62
     7
100
AcDbLine
 10
296.297058
 20
470.370728
 30
0.0
 11
296.297058
 21
470.5
 31
0.0
  0
LINE
  5
268
330
1F
100
AcDbEntity
  8
0
 62
     7
100
AcDbLine
 10
296.297058
 20
471.200012
 30
0.0
 11
296.297058
 21
470.5
 31
0.0
  0
LINE
  5
269
330
1F
100
AcDbEntity
  8
0
 62
     7
100
AcDbLine
 10
296.297058
 20
471.329285
 30
0.0
 11
296.297058
 21
471.200012
 31
0.0
  0
LINE
  5
26A
330
1F
100
AcDbEntity
  8
0
 62
     7
100
AcDbLine
 10
296.297058
 20
471.329285
 30
0.0
 11
296.297058
 21
471.470703
 31
0.0
  0
LINE
  5
26B
330
1F
100
AcDbEntity
  8
0
 62
     7
100
AcDbLine
 10
296.297058
 20
471.470703
 30
0.0
 11
296.297058
 21
471.599976
 31
0.0
  0
LINE
  5
26C
330
1F
100
AcDbEntity
  8
0
 62
     7
100
AcDbLine
 10
296.297058
 20
472.299988
 30
0.0
 11
296.297058
 21
471.599976
 31
0.0
  0
LINE
  5
26D
330
1F
100
AcDbEntity
  8
0
 62
     7
100
AcDbLine
 10
296.297058
 20
472.42926
 30
0.0
 11
296.297058
 21
472.299988
 31
0.0
  0
LINE
  5
26E
330
1F
100
AcDbEntity
  8
0
 62
     7
100
AcDbLine
 10
296.297058
 20
472.42926
 30
0.0
 11
296.297058
 21
472.570679
 31
0.0
  0
LINE
  5
26F
330
1F
100
AcDbEntity
  8
0
 62
     7
100
AcDbLine
 10
296.297058
 20
472.570679
 30
0.0
 11
296.297058
 21
472.700012
 31
0.0
  0
LINE
  5
270
330
1F
100
AcDbEntity
  8
0
 62
     7
100
AcDbLine
 10
293.997009
 20
465.829285
 30
0.0
 11
293.997009
 21
465.700012
 31
0.0
  0
LINE
  5
271
330
1F
100
AcDbEntity
  8
0
 62
     7
100
AcDbLine
 10
293.997009
 20
465.970703
 30
0.0
 11
293.997009
 21
466.099976
 31
0.0
  0
LINE
  5
272
330
1F
100
AcDbEntity
  8
0
 62
     7
100
AcDbLine
 10
293.997009
 20
465.970703
 30
0.0
 11
293.997009
 21
465.829285
 31
0.0
  0
LINE
  5
273
330
1F
100
AcDbEntity
  8
0
 62
     7
100
AcDbLine
 10
293.997009
 20
473.599976
 30
0.0
 11
293.997009
 21
473.529297
 31
0.0
  0
LINE
  5
274
330
1F
100
AcDbEntity
  8
0
 62
     7
100
AcDbLine
 10
293.997009
 20
473.529297
 30
0.0
 11
293.997009
 21
473.400024
 31
0.0
  0
LINE
  5
275
330
1F
100
AcDbEntity
  8
0
 62
     7
100
AcDbLine
 10
293.997009
 20
472.700012
 30
0.0
 11
293.997009
 21
473.400024
 31
0.0
  0
LINE
  5
276
330
1F
100
AcDbEntity
  8
0
 62
     7
100
AcDbLine
 10
293.997009
 20
472.570679
 30
0.0
 11
293.997009
 21
472.700012
 31
0.0
  0
LINE
  5
277
330
1F
100
AcDbEntity
  8
0
 62
     7
100
AcDbLine
 10
293.997009
 20
472.570679
 30
0.0
 11
293.997009
 21
472.42926
 31
0.0
  0
LINE
  5
278
330
1F
100
AcDbEntity
  8
0
 62
     7
100
AcDbLine
 10
293.997009
 20
472.42926
 30
0.0
 11
293.997009
 21
472.299988
 31
0.0
  0
LINE
  5
279
330
1F
100
AcDbEntity
  8
0
 62
     7
100
AcDbLine
 10
293.997009
 20
471.599976
 30
0.0
 11
293.997009
 21
472.299988
 31
0.0
  0
LINE
  5
27A
330
1F
100
AcDbEntity
  8
0
 62
     7
100
AcDbLine
 10
293.997009
 20
471.470703
 30
0.0
 11
293.997009
 21
471.599976
 31
0.0
  0
LINE
  5
27B
330
1F
100
AcDbEntity
  8
0
 62
     7
100
AcDbLine
 10
293.997009
 20
471.470703
 30
0.0
 11
293.997009
 21
471.329285
 31
0.0
  0
LINE
  5
27C
330
1F
100
AcDbEntity
  8
0
 62
     7
100
AcDbLine
 10
293.997009
 20
471.329285
 30
0.0
 11
293.997009
 21
471.200012
 31
0.0
  0
LINE
  5
27D
330
1F
100
AcDbEntity
  8
0
 62
     7
100
AcDbLine
 10
293.997009
 20
470.5
 30
0.0
 11
293.997009
 21
471.200012
 31
0.0
  0
LINE
  5
27E
330
1F
100
AcDbEntity
  8
0
 62
     7
100
AcDbLine
 10
293.997009
 20
470.370728
 30
0.0
 11
293.997009
 21
470.5
 31
0.0
  0
LINE
  5
27F
330
1F
100
AcDbEntity
  8
0
 62
     7
100
AcDbLine
 10
293.997009
 20
470.370728
 30
0.0
 11
293.997009
 21
470.229309
 31
0.0
  0
LINE
  5
280
330
1F
100
AcDbEntity
  8
0
 62
     7
100
AcDbLine
 10
293.997009
 20
470.229309
 30
0.0
 11
293.997009
 21
470.099976
 31
0.0
  0
LINE
  5
281
330
1F
100
AcDbEntity
  8
0
 62
     7
100
AcDbLine
 10
293.997009
 20
469.400024
 30
0.0
 11
293.997009
 21
470.099976
 31
0.0
  0
LINE
  5
282
330
1F
100
AcDbEntity
  8
0
 62
     7
100
AcDbLine
 10
293.997009
 20
469.270691
 30
0.0
 11
293.997009
 21
469.400024
 31
0.0
  0
LINE
  5
283
330
1F
100
AcDbEntity
  8
0
 62
     7
100
AcDbLine
 10
293.997009
 20
469.270691
 30
0.0
 11
293.997009
 21
469.129272
 31
0.0
  0
LINE
  5
284
330
1F
100
AcDbEntity
  8
0
 62
     7
100
AcDbLine
 10
293.997009
 20
469.129272
 30
0.0
 11
293.997009
 21
469.0
 31
0.0
  0
LINE
  5
285
330
1F
100
AcDbEntity
  8
0
 62
     7
100
AcDbLine
 10
293.997009
 20
468.299988
 30
0.0
 11
293.997009
 21
469.0
 31
0.0
  0
LINE
  5
286
330
1F
100
AcDbEntity
  8
0
 62
     7
100
AcDbLine
 10
293.997009
 20
468.170715
 30
0.0
 11
293.997009
 21
468.299988
 31
0.0
  0
LINE
  5
287
330
1F
100
AcDbEntity
  8
0
 62
     7
100
AcDbLine
 10
293.997009
 20
468.170715
 30
0.0
 11
293.997009
 21
468.029297
 31
0.0
  0
LINE
  5
288
330
1F
100
AcDbEntity
  8
0
 62
     7
100
AcDbLine
 10
293.997009
 20
468.029297
 30
0.0
 11
293.997009
 21
467.900024
 31
0.0
  0
LINE
  5
289
330
1F
100
AcDbEntity
  8
0
 62
     7
100
AcDbLine
 10
293.997009
 20
467.200012
 30
0.0
 11
293.997009
 21
467.900024
 31
0.0
  0
LINE
  5
28A
330
1F
100
AcDbEntity
  8
0
 62
     7
100
AcDbLine
 10
293.997009
 20
467.070679
 30
0.0
 11
293.997009
 21
467.200012
 31
0.0
  0
LINE
  5
28B
330
1F
100
AcDbEntity
  8
0
 62
     7
100
AcDbLine
 10
293.997009
 20
467.070679
 30
0.0
 11
293.997009
 21
466.92926
 31
0.0
  0
LINE
  5
28C
330
1F
100
AcDbEntity
  8
0
 62
     7
100
AcDbLine
 10
293.997009
 20
466.92926
 30
0.0
 11
293.997009
 21
466.799988
 31
0.0
  0
LINE
  5
28D
330
1F
100
AcDbEntity
  8
0
 62
     7
100
AcDbLine
 10
293.997009
 20
466.099976
 30
0.0
 11
293.997009
 21
466.799988
 31
0.0
  0
LINE
  5
28E
330
1F
100
AcDbEntity
  8
0
 62
     7
100
AcDbLine
 10
292.997009
 20
472.42926
 30
0.0
 11
292.997009
 21
472.299988
 31
0.0
  0
LINE
  5
28F
330
1F
100
AcDbEntity
  8
0
 62
     7
100
AcDbLine
 10
292.997009
 20
472.42926
 30
0.0
 11
292.997009
 21
472.570679
 31
0.0
  0
LINE
  5
290
330
1F
100
AcDbEntity
  8
0
 62
     7
100
AcDbLine
 10
292.997009
 20
472.570679
 30
0.0
 11
292.997009
 21
472.700012
 31
0.0
  0
LINE
  5
291
330
1F
100
AcDbEntity
  8
0
 62
     7
100
AcDbLine
 10
292.997009
 20
473.099976
 30
0.0
 11
292.997009
 21
472.700012
 31
0.0
  0
LINE
  5
292
330
1F
100
AcDbEntity
  8
0
 62
     7
100
AcDbLine
 10
292.997009
 20
465.829285
 30
0.0
 11
292.997009
 21
465.700012
 31
0.0
  0
LINE
  5
293
330
1F
100
AcDbEntity
  8
0
 62
     7
100
AcDbLine
 10
292.997009
 20
465.829285
 30
0.0
 11
292.997009
 21
465.970703
 31
0.0
  0
LINE
  5
294
330
1F
100
AcDbEntity
  8
0
 62
     7
100
AcDbLine
 10
292.997009
 20
465.970703
 30
0.0
 11
292.997009
 21
466.099976
 31
0.0
  0
LINE
  5
295
330
1F
100
AcDbEntity
  8
0
 62
     7
100
AcDbLine
 10
292.997009
 20
466.799988
 30
0.0
 11
292.997009
 21
466.099976
 31
0.0
  0
LINE
  5
296
330
1F
100
AcDbEntity
  8
0
 62
     7
100
AcDbLine
 10
292.997009
 20
466.92926
 30
0.0
 11
292.997009
 21
466.799988
 31
0.0
  0
LINE
  5
297
330
1F
100
AcDbEntity
  8
0
 62
     7
100
AcDbLine
 10
292.997009
 20
466.92926
 30
0.0
 11
292.997009
 21
467.070679
 31
0.0
  0
LINE
  5
298
330
1F
100
AcDbEntity
  8
0
 62
     7
100
AcDbLine
 10
292.997009
 20
467.070679
 30
0.0
 11
292.997009
 21
467.200012
 31
0.0
  0
LINE
  5
299
330
1F
100
AcDbEntity
  8
0
 62
     7
100
AcDbLine
 10
292.997009
 20
467.900024
 30
0.0
 11
292.997009
 21
467.200012
 31
0.0
  0
LINE
  5
29A
330
1F
100
AcDbEntity
  8
0
 62
     7
100
AcDbLine
 10
292.997009
 20
468.029297
 30
0.0
 11
292.997009
 21
467.900024
 31
0.0
  0
LINE
  5
29B
330
1F
100
AcDbEntity
  8
0
 62
     7
100
AcDbLine
 10
292.997009
 20
468.029297
 30
0.0
 11
292.997009
 21
468.170715
 31
0.0
  0
LINE
  5
29C
330
1F
100
AcDbEntity
  8
0
 62
     7
100
AcDbLine
 10
292.997009
 20
468.170715
 30
0.0
 11
292.997009
 21
468.299988
 31
0.0
  0
LINE
  5
29D
330
1F
100
AcDbEntity
  8
0
 62
     7
100
AcDbLine
 10
292.997009
 20
469.0
 30
0.0
 11
292.997009
 21
468.299988
 31
0.0
  0
LINE
  5
29E
330
1F
100
AcDbEntity
  8
0
 62
     7
100
AcDbLine
 10
292.997009
 20
469.129272
 30
0.0
 11
292.997009
 21
469.0
 31
0.0
  0
LINE
  5
29F
330
1F
100
AcDbEntity
  8
0
 62
     7
100
AcDbLine
 10
292.997009
 20
469.129272
 30
0.0
 11
292.997009
 21
469.270691
 31
0.0
  0
LINE
  5
2A0
330
1F
100
AcDbEntity
  8
0
 62
     7
100
AcDbLine
 10
292.997009
 20
469.270691
 30
0.0
 11
292.997009
 21
469.400024
 31
0.0
  0
LINE
  5
2A1
330
1F
100
AcDbEntity
  8
0
 62
     7
100
AcDbLine
 10
292.997009
 20
470.099976
 30
0.0
 11
292.997009
 21
469.400024
 31
0.0
  0
LINE
  5
2A2
330
1F
100
AcDbEntity
  8
0
 62
     7
100
AcDbLine
 10
292.997009
 20
470.229309
 30
0.0
 11
292.997009
 21
470.099976
 31
0.0
  0
LINE
  5
2A3
330
1F
100
AcDbEntity
  8
0
 62
     7
100
AcDbLine
 10
292.997009
 20
470.229309
 30
0.0
 11
292.997009
 21
470.370728
 31
0.0
  0
LINE
  5
2A4
330
1F
100
AcDbEntity
  8
0
 62
     7
100
AcDbLine
 10
292.997009
 20
470.370728
 30
0.0
 11
292.997009
 21
470.5
 31
0.0
  0
LINE
  5
2A5
330
1F
100
AcDbEntity
  8
0
 62
     7
100
AcDbLine
 10
292.997009
 20
471.200012
 30
0.0
 11
292.997009
 21
470.5
 31
0.0
  0
LINE
  5
2A6
330
1F
100
AcDbEntity
  8
0
 62
     7
100
AcDbLine
 10
292.997009
 20
471.329285
 30
0.0
 11
292.997009
 21
471.200012
 31
0.0
  0
LINE
  5
2A7
330
1F
100
AcDbEntity
  8
0
 62
     7
100
AcDbLine
 10
292.997009
 20
471.329285
 30
0.0
 11
292.997009
 21
471.470703
 31
0.0
  0
LINE
  5
2A8
330
1F
100
AcDbEntity
  8
0
 62
     7
100
AcDbLine
 10
292.997009
 20
471.470703
 30
0.0
 11
292.997009
 21
471.599976
 31
0.0
  0
LINE
  5
2A9
330
1F
100
AcDbEntity
  8
0
 62
     7
100
AcDbLine
 10
292.997009
 20
472.299988
 30
0.0
 11
292.997009
 21
471.599976
 31
0.0
  0
LINE
  5
2AA
330
1F
100
AcDbEntity
  8
0
 62
     7
100
AcDbLine
 10
234.328354
 20
465.700012
 30
0.0
 11
234.411728
 21
465.829285
 31
0.0
  0
ARC
  5
2AB
330
1F
100
AcDbEntity
  8
0
 62
     7
100
AcDbCircle
 10
227.647034
 20
470.099976
 30
0.0
 40
8.0
100
AcDbArc
 50
354.980203
 51
360.0
  0
LINE
  5
2AC
330
1F
100
AcDbEntity
  8
0
 62
     7
100
AcDbLine
 10
235.603928
 20
469.270691
 30
0.0
 11
235.616348
 21
469.400024
 31
0.0
  0
LINE
  5
2AD
330
1F
100
AcDbEntity
  8
0
 62
     7
100
AcDbLine
 10
235.587921
 20
469.129272
 30
0.0
 11
235.603928
 21
469.270691
 31
0.0
  0
LINE
  5
2AE
330
1F
100
AcDbEntity
  8
0
 62
     7
100
AcDbLine
 10
235.571045
 20
469.0
 30
0.0
 11
235.587921
 21
469.129272
 31
0.0
  0
ARC
  5
2AF
330
1F
100
AcDbEntity
  8
0
 62
     7
100
AcDbCircle
 10
227.647034
 20
470.099976
 30
0.0
 40
8.0
100
AcDbArc
 50
346.997132
 51
352.096798
  0
LINE
  5
2B0
330
1F
100
AcDbEntity
  8
0
 62
     7
100
AcDbLine
 10
235.410904
 20
468.170715
 30
0.0
 11
235.44191
 21
468.299988
 31
0.0
  0
LINE
  5
2B1
330
1F
100
AcDbEntity
  8
0
 62
     7
100
AcDbLine
 10
235.374405
 20
468.029297
 30
0.0
 11
235.410904
 21
468.170715
 31
0.0
  0
LINE
  5
2B2
330
1F
100
AcDbEntity
  8
0
 62
     7
100
AcDbLine
 10
235.338577
 20
467.900024
 30
0.0
 11
235.374405
 21
468.029297
 31
0.0
  0
ARC
  5
2B3
330
1F
100
AcDbEntity
  8
0
 62
     7
100
AcDbCircle
 10
227.647034
 20
470.099976
 30
0.0
 40
8.0
100
AcDbArc
 50
338.746183
 51
344.037995
  0
LINE
  5
2B4
330
1F
100
AcDbEntity
  8
0
 62
     7
100
AcDbLine
 10
235.051315
 20
467.070679
 30
0.0
 11
235.102905
 21
467.200012
 31
0.0
  0
LINE
  5
2B5
330
1F
100
AcDbEntity
  8
0
 62
     7
100
AcDbLine
 10
234.991867
 20
466.92926
 30
0.0
 11
235.051315
 21
467.070679
 31
0.0
  0
LINE
  5
2B6
330
1F
100
AcDbEntity
  8
0
 62
     7
100
AcDbLine
 10
234.934692
 20
466.799988
 30
0.0
 11
234.991867
 21
466.92926
 31
0.0
  0
ARC
  5
2B7
330
1F
100
AcDbEntity
  8
0
 62
     7
100
AcDbCircle
 10
227.647034
 20
470.099976
 30
0.0
 40
8.0
100
AcDbArc
 50
329.999989
 51
335.63801
  0
LINE
  5
2B8
330
1F
100
AcDbEntity
  8
0
 62
     7
100
AcDbLine
 10
234.498962
 20
465.970703
 30
0.0
 11
234.575241
 21
466.099976
 31
0.0
  0
LINE
  5
2B9
330
1F
100
AcDbEntity
  8
0
 62
     7
100
AcDbLine
 10
234.411728
 20
465.829285
 30
0.0
 11
234.498962
 21
465.970703
 31
0.0
  0
LINE
  5
2BA
330
1F
100
AcDbEntity
  8
0
 62
     7
100
AcDbLine
 10
220.965714
 20
465.700012
 30
0.0
 11
220.882339
 21
465.829285
 31
0.0
  0
LINE
  5
2BB
330
1F
100
AcDbEntity
  8
0
 62
     7
100
AcDbLine
 10
220.882339
 20
465.829285
 30
0.0
 11
220.795105
 21
465.970703
 31
0.0
  0
LINE
  5
2BC
330
1F
100
AcDbEntity
  8
0
 62
     7
100
AcDbLine
 10
220.795105
 20
465.970703
 30
0.0
 11
220.718826
 21
466.099976
 31
0.0
  0
ARC
  5
2BD
330
1F
100
AcDbEntity
  8
0
 62
     7
100
AcDbCircle
 10
227.647034
 20
470.099976
 30
0.0
 40
8.0
100
AcDbArc
 50
204.361982
 51
210.000003
  0
LINE
  5
2BE
330
1F
100
AcDbEntity
  8
0
 62
     7
100
AcDbLine
 10
220.359375
 20
466.799988
 30
0.0
 11
220.3022
 21
466.92926
 31
0.0
  0
LINE
  5
2BF
330
1F
100
AcDbEntity
  8
0
 62
     7
100
AcDbLine
 10
220.3022
 20
466.92926
 30
0.0
 11
220.242752
 21
467.070679
 31
0.0
  0
LINE
  5
2C0
330
1F
100
AcDbEntity
  8
0
 62
     7
100
AcDbLine
 10
220.242752
 20
467.070679
 30
0.0
 11
220.191162
 21
467.200012
 31
0.0
  0
ARC
  5
2C1
330
1F
100
AcDbEntity
  8
0
 62
     7
100
AcDbCircle
 10
227.647034
 20
470.099976
 30
0.0
 40
8.0
100
AcDbArc
 50
195.96201
 51
201.253809
  0
LINE
  5
2C2
330
1F
100
AcDbEntity
  8
0
 62
     7
100
AcDbLine
 10
219.95549
 20
467.900024
 30
0.0
 11
219.919662
 21
468.029297
 31
0.0
  0
LINE
  5
2C3
330
1F
100
AcDbEntity
  8
0
 62
     7
100
AcDbLine
 10
219.919662
 20
468.029297
 30
0.0
 11
219.883163
 21
468.170715
 31
0.0
  0
LINE
  5
2C4
330
1F
100
AcDbEntity
  8
0
 62
     7
100
AcDbLine
 10
219.883163
 20
468.170715
 30
0.0
 11
219.852158
 21
468.299988
 31
0.0
  0
ARC
  5
2C5
330
1F
100
AcDbEntity
  8
0
 62
     7
100
AcDbCircle
 10
227.647034
 20
470.099976
 30
0.0
 40
8.0
100
AcDbArc
 50
187.903207
 51
193.002872
  0
LINE
  5
2C6
330
1F
100
AcDbEntity
  8
0
 62
     7
100
AcDbLine
 10
219.723022
 20
469.0
 30
0.0
 11
219.706146
 21
469.129272
 31
0.0
  0
LINE
  5
2C7
330
1F
100
AcDbEntity
  8
0
 62
     7
100
AcDbLine
 10
219.706146
 20
469.129272
 30
0.0
 11
219.69014
 21
469.270691
 31
0.0
  0
LINE
  5
2C8
330
1F
100
AcDbEntity
  8
0
 62
     7
100
AcDbLine
 10
219.69014
 20
469.270691
 30
0.0
 11
219.677719
 21
469.400024
 31
0.0
  0
ARC
  5
2C9
330
1F
100
AcDbEntity
  8
0
 62
     7
100
AcDbCircle
 10
227.647034
 20
470.099976
 30
0.0
 40
8.0
100
AcDbArc
 50
180.000009
 51
185.019802
  0
LINE
  5
2CA
330
1F
100
AcDbEntity
  8
0
 62
     7
100
AcDbLine
 10
218.647034
 20
465.829285
 30
0.0
 11
218.647034
 21
465.700012
 31
0.0
  0
LINE
  5
2CB
330
1F
100
AcDbEntity
  8
0
 62
     7
100
AcDbLine
 10
218.647034
 20
465.970703
 30
0.0
 11
218.647034
 21
465.829285
 31
0.0
  0
LINE
  5
2CC
330
1F
100
AcDbEntity
  8
0
 62
     7
100
AcDbLine
 10
218.647034
 20
466.099976
 30
0.0
 11
218.647034
 21
465.970703
 31
0.0
  0
LINE
  5
2CD
330
1F
100
AcDbEntity
  8
0
 62
     7
100
AcDbLine
 10
218.647034
 20
466.099976
 30
0.0
 11
218.647034
 21
466.799988
 31
0.0
  0
LINE
  5
2CE
330
1F
100
AcDbEntity
  8
0
 62
     7
100
AcDbLine
 10
218.647034
 20
466.92926
 30
0.0
 11
218.647034
 21
466.799988
 31
0.0
  0
LINE
  5
2CF
330
1F
100
AcDbEntity
  8
0
 62
     7
100
AcDbLine
 10
218.647034
 20
467.070679
 30
0.0
 11
218.647034
 21
466.92926
 31
0.0
  0
LINE
  5
2D0
330
1F
100
AcDbEntity
  8
0
 62
     7
100
AcDbLine
 10
218.647034
 20
467.200012
 30
0.0
 11
218.647034
 21
467.070679
 31
0.0
  0
LINE
  5
2D1
330
1F
100
AcDbEntity
  8
0
 62
     7
100
AcDbLine
 10
218.647034
 20
467.200012
 30
0.0
 11
218.647034
 21
467.900024
 31
0.0
  0
LINE
  5
2D2
330
1F
100
AcDbEntity
  8
0
 62
     7
100
AcDbLine
 10
218.647034
 20
468.029297
 30
0.0
 11
218.647034
 21
467.900024
 31
0.0
  0
LINE
  5
2D3
330
1F
100
AcDbEntity
  8
0
 62
     7
100
AcDbLine
 10
218.647034
 20
468.170715
 30
0.0
 11
218.647034
 21
468.029297
 31
0.0
  0
LINE
  5
2D4
330
1F
100
AcDbEntity
  8
0
 62
     7
100
AcDbLine
 10
218.647034
 20
468.299988
 30
0.0
 11
218.647034
 21
468.170715
 31
0.0
  0
LINE
  5
2D5
330
1F
100
AcDbEntity
  8
0
 62
     7
100
AcDbLine
 10
218.647034
 20
468.299988
 30
0.0
 11
218.647034
 21
469.0
 31
0.0
  0
LINE
  5
2D6
330
1F
100
AcDbEntity
  8
0
 62
     7
100
AcDbLine
 10
218.647034
 20
469.129272
 30
0.0
 11
218.647034
 21
469.0
 31
0.0
  0
LINE
  5
2D7
330
1F
100
AcDbEntity
  8
0
 62
     7
100
AcDbLine
 10
218.647034
 20
469.270691
 30
0.0
 11
218.647034
 21
469.129272
 31
0.0
  0
LINE
  5
2D8
330
1F
100
AcDbEntity
  8
0
 62
     7
100
AcDbLine
 10
218.647034
 20
469.400024
 30
0.0
 11
218.647034
 21
469.270691
 31
0.0
  0
LINE
  5
2D9
330
1F
100
AcDbEntity
  8
0
 62
     7
100
AcDbLine
 10
218.647034
 20
469.400024
 30
0.0
 11
218.647034
 21
470.099976
 31
0.0
  0
LINE
  5
2DA
330
1F
100
AcDbEntity
  8
0
 62
     7
100
AcDbLine
 10
218.647034
 20
470.229309
 30
0.0
 11
218.647034
 21
470.099976
 31
0.0
  0
LINE
  5
2DB
330
1F
100
AcDbEntity
  8
0
 62
     7
100
AcDbLine
 10
218.647034
 20
470.370728
 30
0.0
 11
218.647034
 21
470.229309
 31
0.0
  0
LINE
  5
2DC
330
1F
100
AcDbEntity
  8
0
 62
     7
100
AcDbLine
 10
218.647034
 20
470.5
 30
0.0
 11
218.647034
 21
470.370728
 31
0.0
  0
LINE
  5
2DD
330
1F
100
AcDbEntity
  8
0
 62
     7
100
AcDbLine
 10
218.647034
 20
470.5
 30
0.0
 11
218.647034
 21
471.200012
 31
0.0
  0
LINE
  5
2DE
330
1F
100
AcDbEntity
  8
0
 62
     7
100
AcDbLine
 10
218.647034
 20
471.329285
 30
0.0
 11
218.647034
 21
471.200012
 31
0.0
  0
LINE
  5
2DF
330
1F
100
AcDbEntity
  8
0
 62
     7
100
AcDbLine
 10
218.647034
 20
471.470703
 30
0.0
 11
218.647034
 21
471.329285
 31
0.0
  0
LINE
  5
2E0
330
1F
100
AcDbEntity
  8
0
 62
     7
100
AcDbLine
 10
218.647034
 20
471.599976
 30
0.0
 11
218.647034
 21
471.470703
 31
0.0
  0
LINE
  5
2E1
330
1F
100
AcDbEntity
  8
0
 62
     7
100
AcDbLine
 10
218.647034
 20
471.599976
 30
0.0
 11
218.647034
 21
472.299988
 31
0.0
  0
LINE
  5
2E2
330
1F
100
AcDbEntity
  8
0
 62
     7
100
AcDbLine
 10
218.647034
 20
472.42926
 30
0.0
 11
218.647034
 21
472.299988
 31
0.0
  0
LINE
  5
2E3
330
1F
100
AcDbEntity
  8
0
 62
     7
100
AcDbLine
 10
218.647034
 20
472.570679
 30
0.0
 11
218.647034
 21
472.42926
 31
0.0
  0
LINE
  5
2E4
330
1F
100
AcDbEntity
  8
0
 62
     7
100
AcDbLine
 10
218.647034
 20
472.700012
 30
0.0
 11
218.647034
 21
472.570679
 31
0.0
  0
LINE
  5
2E5
330
1F
100
AcDbEntity
  8
0
 62
     7
100
AcDbLine
 10
218.647034
 20
472.700012
 30
0.0
 11
218.647034
 21
473.400024
 31
0.0
  0
LINE
  5
2E6
330
1F
100
AcDbEntity
  8
0
 62
     7
100
AcDbLine
 10
218.647034
 20
473.529297
 30
0.0
 11
218.647034
 21
473.400024
 31
0.0
  0
LINE
  5
2E7
330
1F
100
AcDbEntity
  8
0
 62
     7
100
AcDbLine
 10
218.647034
 20
473.670715
 30
0.0
 11
218.647034
 21
473.529297
 31
0.0
  0
LINE
  5
2E8
330
1F
100
AcDbEntity
  8
0
 62
     7
100
AcDbLine
 10
218.647034
 20
473.799988
 30
0.0
 11
218.647034
 21
473.670715
 31
0.0
  0
LINE
  5
2E9
330
1F
100
AcDbEntity
  8
0
 62
     7
100
AcDbLine
 10
218.647034
 20
473.799988
 30
0.0
 11
218.647034
 21
474.5
 31
0.0
  0
LINE
  5
2EA
330
1F
100
AcDbEntity
  8
0
 62
     7
100
AcDbLine
 10
218.647034
 20
474.629272
 30
0.0
 11
218.647034
 21
474.5
 31
0.0
  0
LINE
  5
2EB
330
1F
100
AcDbEntity
  8
0
 62
     7
100
AcDbLine
 10
218.647034
 20
474.770691
 30
0.0
 11
218.647034
 21
474.629272
 31
0.0
  0
LINE
  5
2EC
330
1F
100
AcDbEntity
  8
0
 62
     7
100
AcDbLine
 10
218.647034
 20
474.900024
 30
0.0
 11
218.647034
 21
474.770691
 31
0.0
  0
LINE
  5
2ED
330
1F
100
AcDbEntity
  8
0
 62
     7
100
AcDbLine
 10
218.647034
 20
474.900024
 30
0.0
 11
218.647034
 21
479.724243
 31
0.0
  0
LINE
  5
2EE
330
1F
100
AcDbEntity
  8
0
 62
     7
100
AcDbLine
 10
218.647034
 20
480.212158
 30
0.0
 11
218.647034
 21
479.724243
 31
0.0
  0
LINE
  5
2EF
330
1F
100
AcDbEntity
  8
0
 62
     7
100
AcDbLine
 10
218.647034
 20
480.299988
 30
0.0
 11
218.647034
 21
480.212158
 31
0.0
  0
ARC
  5
2F0
330
1F
100
AcDbEntity
  8
0
 62
     7
100
AcDbCircle
 10
946.147034
 20
457.299988
 30
0.0
 40
0.5
100
AcDbArc
 50
0.0
 51
90.000003
  0
LINE
  5
2F1
330
1F
100
AcDbEntity
  8
0
 62
     7
100
AcDbLine
 10
946.147034
 20
457.799988
 30
0.0
 11
939.147034
 21
457.799988
 31
0.0
  0
ARC
  5
2F2
330
1F
100
AcDbEntity
  8
0
 62
     7
100
AcDbCircle
 10
939.147034
 20
457.299988
 30
0.0
 40
0.5
100
AcDbArc
 50
90.000003
 51
180.000009
  0
LINE
  5
2F3
330
1F
100
AcDbEntity
  8
0
 62
     7
100
AcDbLine
 10
938.647034
 20
457.299988
 30
0.0
 11
938.647034
 21
453.299988
 31
0.0
  0
ARC
  5
2F4
330
1F
100
AcDbEntity
  8
0
 62
     7
100
AcDbCircle
 10
939.147034
 20
453.299988
 30
0.0
 40
0.5
100
AcDbArc
 50
180.000009
 51
269.999997
  0
LINE
  5
2F5
330
1F
100
AcDbEntity
  8
0
 62
     7
100
AcDbLine
 10
939.147034
 20
452.799988
 30
0.0
 11
946.147034
 21
452.799988
 31
0.0
  0
ARC
  5
2F6
330
1F
100
AcDbEntity
  8
0
 62
     7
100
AcDbCircle
 10
946.147034
 20
453.299988
 30
0.0
 40
0.5
100
AcDbArc
 50
269.999997
 51
360.0
  0
LINE
  5
2F7
330
1F
100
AcDbEntity
  8
0
 62
     7
100
AcDbLine
 10
946.647034
 20
453.299988
 30
0.0
 11
946.647034
 21
457.299988
 31
0.0
  0
ARC
  5
2F8
330
1F
100
AcDbEntity
  8
0
 62
     7
100
AcDbCircle
 10
276.147034
 20
457.299988
 30
0.0
 40
0.5
100
AcDbArc
 50
0.0
 51
90.000003
  0
LINE
  5
2F9
330
1F
100
AcDbEntity
  8
0
 62
     7
100
AcDbLine
 10
276.147034
 20
457.799988
 30
0.0
 11
269.147034
 21
457.799988
 31
0.0
  0
ARC
  5
2FA
330
1F
100
AcDbEntity
  8
0
 62
     7
100
AcDbCircle
 10
269.147034
 20
457.299988
 30
0.0
 40
0.5
100
AcDbArc
 50
90.000003
 51
180.000009
  0
LINE
  5
2FB
330
1F
100
AcDbEntity
  8
0
 62
     7
100
AcDbLine
 10
268.647034
 20
457.299988
 30
0.0
 11
268.647034
 21
453.299988
 31
0.0
  0
ARC
  5
2FC
330
1F
100
AcDbEntity
  8
0
 62
     7
100
AcDbCircle
 10
269.147034
 20
453.299988
 30
0.0
 40
0.5
100
AcDbArc
 50
180.000009
 51
269.999997
  0
LINE
  5
2FD
330
1F
100
AcDbEntity
  8
0
 62
     7
100
AcDbLine
 10
269.147034
 20
452.799988
 30
0.0
 11
276.147034
 21
452.799988
 31
0.0
  0
ARC
  5
2FE
330
1F
100
AcDbEntity
  8
0
 62
     7
100
AcDbCircle
 10
276.147034
 20
453.299988
 30
0.0
 40
0.5
100
AcDbArc
 50
269.999997
 51
360.0
  0
LINE
  5
2FF
330
1F
100
AcDbEntity
  8
0
 62
     7
100
AcDbLine
 10
276.647034
 20
453.299988
 30
0.0
 11
276.647034
 21
457.299988
 31
0.0
  0
LINE
  5
300
330
1F
100
AcDbEntity
  8
0
 62
     7
100
AcDbLine
 10
1022.147034
 20
458.099976
 30
0.0
 11
1021.647034
 21
458.099976
 31
0.0
  0
LINE
  5
301
330
1F
100
AcDbEntity
  8
0
 62
     7
100
AcDbLine
 10
1021.647034
 20
460.399963
 30
0.0
 11
1022.147034
 21
460.399963
 31
0.0
  0
LINE
  5
302
330
1F
100
AcDbEntity
  8
0
 62
     7
100
AcDbLine
 10
218.147034
 20
460.400024
 30
0.0
 11
218.647034
 21
460.399963
 31
0.0
  0
LINE
  5
303
330
1F
100
AcDbEntity
  8
0
 62
     7
100
AcDbLine
 10
949.147034
 20
480.212158
 30
0.0
 11
949.147034
 21
480.299988
 31
0.0
  0
LINE
  5
304
330
1F
100
AcDbEntity
  8
0
 62
     7
100
AcDbLine
 10
949.147034
 20
480.212158
 30
0.0
 11
949.147034
 21
479.724243
 31
0.0
  0
LINE
  5
305
330
1F
100
AcDbEntity
  8
0
 62
     7
100
AcDbLine
 10
1021.647034
 20
479.724243
 30
0.0
 11
949.147034
 21
479.724243
 31
0.0
  0
ARC
  5
306
330
1F
100
AcDbEntity
  8
0
 62
     7
100
AcDbCircle
 10
1012.647034
 20
470.099976
 30
0.0
 40
8.0
100
AcDbArc
 50
36.869897
 51
143.130097
  0
LINE
  5
307
330
1F
100
AcDbEntity
  8
0
 62
     7
100
AcDbLine
 10
1021.647034
 20
474.900024
 30
0.0
 11
1019.047058
 21
474.900024
 31
0.0
  0
LINE
  5
308
330
1F
100
AcDbEntity
  8
0
 62
     7
100
AcDbLine
 10
949.147034
 20
474.900024
 30
0.0
 11
949.147034
 21
479.724243
 31
0.0
  0
LINE
  5
309
330
1F
100
AcDbEntity
  8
0
 62
     7
100
AcDbLine
 10
1006.247009
 20
474.900024
 30
0.0
 11
949.147034
 21
474.900024
 31
0.0
  0
LINE
  5
30A
330
1F
100
AcDbEntity
  8
0
 62
     7
100
AcDbLine
 10
1019.047058
 20
474.900024
 30
0.0
 11
1019.141968
 21
474.770691
 31
0.0
  0
LINE
  5
30B
330
1F
100
AcDbEntity
  8
0
 62
     7
100
AcDbLine
 10
1019.141968
 20
474.770691
 30
0.0
 11
1019.241394
 21
474.629272
 31
0.0
  0
LINE
  5
30C
330
1F
100
AcDbEntity
  8
0
 62
     7
100
AcDbLine
 10
1019.241394
 20
474.629272
 30
0.0
 11
1019.328369
 21
474.5
 31
0.0
  0
LINE
  5
30D
330
1F
100
AcDbEntity
  8
0
 62
     7
100
AcDbLine
 10
1021.647034
 20
474.5
 30
0.0
 11
1019.328369
 21
474.5
 31
0.0
  0
ARC
  5
30E
330
1F
100
AcDbEntity
  8
0
 62
     7
100
AcDbCircle
 10
1012.647034
 20
470.099976
 30
0.0
 40
8.0
100
AcDbArc
 50
27.548547
 51
33.367014
  0
LINE
  5
30F
330
1F
100
AcDbEntity
  8
0
 62
     7
100
AcDbLine
 10
1021.647034
 20
473.799988
 30
0.0
 11
1019.73999
 21
473.799988
 31
0.0
  0
LINE
  5
310
330
1F
100
AcDbEntity
  8
0
 62
     7
100
AcDbLine
 10
1019.73999
 20
473.799988
 30
0.0
 11
1019.805969
 21
473.670715
 31
0.0
  0
LINE
  5
311
330
1F
100
AcDbEntity
  8
0
 62
     7
100
AcDbLine
 10
1019.805969
 20
473.670715
 30
0.0
 11
1019.874756
 21
473.529297
 31
0.0
  0
LINE
  5
312
330
1F
100
AcDbEntity
  8
0
 62
     7
100
AcDbLine
 10
1019.874756
 20
473.529297
 30
0.0
 11
1019.934692
 21
473.400024
 31
0.0
  0
LINE
  5
313
330
1F
100
AcDbEntity
  8
0
 62
     7
100
AcDbLine
 10
1021.647034
 20
473.400024
 30
0.0
 11
1019.934692
 21
473.400024
 31
0.0
  0
ARC
  5
314
330
1F
100
AcDbEntity
  8
0
 62
     7
100
AcDbCircle
 10
1012.647034
 20
470.099976
 30
0.0
 40
8.0
100
AcDbArc
 50
18.965574
 51
24.361978
  0
LINE
  5
315
330
1F
100
AcDbEntity
  8
0
 62
     7
100
AcDbLine
 10
1021.647034
 20
472.700012
 30
0.0
 11
1020.212769
 21
472.700012
 31
0.0
  0
LINE
  5
316
330
1F
100
AcDbEntity
  8
0
 62
     7
100
AcDbLine
 10
1020.212769
 20
472.700012
 30
0.0
 11
1020.25592
 21
472.570679
 31
0.0
  0
LINE
  5
317
330
1F
100
AcDbEntity
  8
0
 62
     7
100
AcDbLine
 10
1020.25592
 20
472.570679
 30
0.0
 11
1020.300415
 21
472.42926
 31
0.0
  0
LINE
  5
318
330
1F
100
AcDbEntity
  8
0
 62
     7
100
AcDbLine
 10
1020.300415
 20
472.42926
 30
0.0
 11
1020.338562
 21
472.299988
 31
0.0
  0
LINE
  5
319
330
1F
100
AcDbEntity
  8
0
 62
     7
100
AcDbLine
 10
1021.647034
 20
472.299988
 30
0.0
 11
1020.338562
 21
472.299988
 31
0.0
  0
ARC
  5
31A
330
1F
100
AcDbEntity
  8
0
 62
     7
100
AcDbCircle
 10
1012.647034
 20
470.099976
 30
0.0
 40
8.0
100
AcDbArc
 50
10.806925
 51
15.962019
  0
LINE
  5
31B
330
1F
100
AcDbEntity
  8
0
 62
     7
100
AcDbLine
 10
1021.647034
 20
471.599976
 30
0.0
 11
1020.505127
 21
471.599976
 31
0.0
  0
LINE
  5
31C
330
1F
100
AcDbEntity
  8
0
 62
     7
100
AcDbLine
 10
1020.505127
 20
471.599976
 30
0.0
 11
1020.528748
 21
471.470703
 31
0.0
  0
LINE
  5
31D
330
1F
100
AcDbEntity
  8
0
 62
     7
100
AcDbLine
 10
1020.528748
 20
471.470703
 30
0.0
 11
1020.552002
 21
471.329285
 31
0.0
  0
LINE
  5
31E
330
1F
100
AcDbEntity
  8
0
 62
     7
100
AcDbLine
 10
1020.552002
 20
471.329285
 30
0.0
 11
1020.571045
 21
471.200012
 31
0.0
  0
LINE
  5
31F
330
1F
100
AcDbEntity
  8
0
 62
     7
100
AcDbLine
 10
1021.647034
 20
471.200012
 30
0.0
 11
1020.571045
 21
471.200012
 31
0.0
  0
ARC
  5
320
330
1F
100
AcDbEntity
  8
0
 62
     7
100
AcDbCircle
 10
1012.647034
 20
470.099976
 30
0.0
 40
8.0
100
AcDbArc
 50
2.865984
 51
7.903208
  0
LINE
  5
321
330
1F
100
AcDbEntity
  8
0
 62
     7
100
AcDbLine
 10
1021.647034
 20
470.5
 30
0.0
 11
1020.637024
 21
470.5
 31
0.0
  0
LINE
  5
322
330
1F
100
AcDbEntity
  8
0
 62
     7
100
AcDbLine
 10
1020.637024
 20
470.5
 30
0.0
 11
1020.642456
 21
470.370728
 31
0.0
  0
LINE
  5
323
330
1F
100
AcDbEntity
  8
0
 62
     7
100
AcDbLine
 10
1020.642456
 20
470.370728
 30
0.0
 11
1020.645996
 21
470.229309
 31
0.0
  0
LINE
  5
324
330
1F
100
AcDbEntity
  8
0
 62
     7
100
AcDbLine
 10
1020.645996
 20
470.229309
 30
0.0
 11
1020.647034
 21
470.099976
 31
0.0
  0
LINE
  5
325
330
1F
100
AcDbEntity
  8
0
 62
     7
100
AcDbLine
 10
1021.647034
 20
470.099976
 30
0.0
 11
1020.647034
 21
470.099976
 31
0.0
  0
LINE
  5
326
330
1F
100
AcDbEntity
  8
0
 62
     7
100
AcDbLine
 10
1021.647034
 20
469.400024
 30
0.0
 11
1020.616333
 21
469.400024
 31
0.0
  0
LINE
  5
327
330
1F
100
AcDbEntity
  8
0
 62
     7
100
AcDbLine
 10
1021.647034
 20
469.0
 30
0.0
 11
1020.571045
 21
469.0
 31
0.0
  0
LINE
  5
328
330
1F
100
AcDbEntity
  8
0
 62
     7
100
AcDbLine
 10
1021.647034
 20
468.299988
 30
0.0
 11
1020.441895
 21
468.299988
 31
0.0
  0
LINE
  5
329
330
1F
100
AcDbEntity
  8
0
 62
     7
100
AcDbLine
 10
1021.647034
 20
467.900024
 30
0.0
 11
1020.338562
 21
467.900024
 31
0.0
  0
LINE
  5
32A
330
1F
100
AcDbEntity
  8
0
 62
     7
100
AcDbLine
 10
1021.647034
 20
467.200012
 30
0.0
 11
1020.102905
 21
467.200012
 31
0.0
  0
LINE
  5
32B
330
1F
100
AcDbEntity
  8
0
 62
     7
100
AcDbLine
 10
1021.647034
 20
466.799988
 30
0.0
 11
1019.934692
 21
466.799988
 31
0.0
  0
LINE
  5
32C
330
1F
100
AcDbEntity
  8
0
 62
     7
100
AcDbLine
 10
1021.647034
 20
466.099976
 30
0.0
 11
1019.575256
 21
466.099976
 31
0.0
  0
LINE
  5
32D
330
1F
100
AcDbEntity
  8
0
 62
     7
100
AcDbLine
 10
1005.718811
 20
466.099976
 30
0.0
 11
947.297058
 21
466.099976
 31
0.0
  0
LINE
  5
32E
330
1F
100
AcDbEntity
  8
0
 62
     7
100
AcDbLine
 10
1005.359375
 20
466.799988
 30
0.0
 11
947.297058
 21
466.799988
 31
0.0
  0
LINE
  5
32F
330
1F
100
AcDbEntity
  8
0
 62
     7
100
AcDbLine
 10
1005.191162
 20
467.200012
 30
0.0
 11
947.297058
 21
467.200012
 31
0.0
  0
LINE
  5
330
330
1F
100
AcDbEntity
  8
0
 62
     7
100
AcDbLine
 10
1004.955505
 20
467.900024
 30
0.0
 11
947.297058
 21
467.900024
 31
0.0
  0
LINE
  5
331
330
1F
100
AcDbEntity
  8
0
 62
     7
100
AcDbLine
 10
1004.852173
 20
468.299988
 30
0.0
 11
947.297058
 21
468.299988
 31
0.0
  0
LINE
  5
332
330
1F
100
AcDbEntity
  8
0
 62
     7
100
AcDbLine
 10
1004.723022
 20
469.0
 30
0.0
 11
947.297058
 21
469.0
 31
0.0
  0
LINE
  5
333
330
1F
100
AcDbEntity
  8
0
 62
     7
100
AcDbLine
 10
1004.677734
 20
469.400024
 30
0.0
 11
947.297058
 21
469.400024
 31
0.0
  0
LINE
  5
334
330
1F
100
AcDbEntity
  8
0
 62
     7
100
AcDbLine
 10
1004.647034
 20
470.099976
 30
0.0
 11
947.297058
 21
470.099976
 31
0.0
  0
LINE
  5
335
330
1F
100
AcDbEntity
  8
0
 62
     7
100
AcDbLine
 10
1004.648071
 20
470.229309
 30
0.0
 11
1004.647034
 21
470.099976
 31
0.0
  0
LINE
  5
336
330
1F
100
AcDbEntity
  8
0
 62
     7
100
AcDbLine
 10
1004.651611
 20
470.370728
 30
0.0
 11
1004.648071
 21
470.229309
 31
0.0
  0
LINE
  5
337
330
1F
100
AcDbEntity
  8
0
 62
     7
100
AcDbLine
 10
1004.657043
 20
470.5
 30
0.0
 11
1004.651611
 21
470.370728
 31
0.0
  0
ARC
  5
338
330
1F
100
AcDbEntity
  8
0
 62
     7
100
AcDbCircle
 10
1012.647034
 20
470.099976
 30
0.0
 40
8.0
100
AcDbArc
 50
172.096793
 51
177.134017
  0
LINE
  5
339
330
1F
100
AcDbEntity
  8
0
 62
     7
100
AcDbLine
 10
1004.742065
 20
471.329285
 30
0.0
 11
1004.723022
 21
471.200012
 31
0.0
  0
LINE
  5
33A
330
1F
100
AcDbEntity
  8
0
 62
     7
100
AcDbLine
 10
1004.76532
 20
471.470703
 30
0.0
 11
1004.742065
 21
471.329285
 31
0.0
  0
LINE
  5
33B
330
1F
100
AcDbEntity
  8
0
 62
     7
100
AcDbLine
 10
1004.78894
 20
471.599976
 30
0.0
 11
1004.76532
 21
471.470703
 31
0.0
  0
ARC
  5
33C
330
1F
100
AcDbEntity
  8
0
 62
     7
100
AcDbCircle
 10
1012.647034
 20
470.099976
 30
0.0
 40
8.0
100
AcDbArc
 50
164.03799
 51
169.193075
  0
LINE
  5
33D
330
1F
100
AcDbEntity
  8
0
 62
     7
100
AcDbLine
 10
1004.993652
 20
472.42926
 30
0.0
 11
1004.955505
 21
472.299988
 31
0.0
  0
LINE
  5
33E
330
1F
100
AcDbEntity
  8
0
 62
     7
100
AcDbLine
 10
1005.038147
 20
472.570679
 30
0.0
 11
1004.993652
 21
472.42926
 31
0.0
  0
LINE
  5
33F
330
1F
100
AcDbEntity
  8
0
 62
     7
100
AcDbLine
 10
1005.081299
 20
472.700012
 30
0.0
 11
1005.038147
 21
472.570679
 31
0.0
  0
ARC
  5
340
330
1F
100
AcDbEntity
  8
0
 62
     7
100
AcDbCircle
 10
1012.647034
 20
470.099976
 30
0.0
 40
8.0
100
AcDbArc
 50
155.638018
 51
161.034427
  0
LINE
  5
341
330
1F
100
AcDbEntity
  8
0
 62
     7
100
AcDbLine
 10
1005.419312
 20
473.529297
 30
0.0
 11
1005.359375
 21
473.400024
 31
0.0
  0
LINE
  5
342
330
1F
100
AcDbEntity
  8
0
 62
     7
100
AcDbLine
 10
1005.488098
 20
473.670715
 30
0.0
 11
1005.419312
 21
473.529297
 31
0.0
  0
LINE
  5
343
330
1F
100
AcDbEntity
  8
0
 62
     7
100
AcDbLine
 10
1005.554077
 20
473.799988
 30
0.0
 11
1005.488098
 21
473.670715
 31
0.0
  0
ARC
  5
344
330
1F
100
AcDbEntity
  8
0
 62
     7
100
AcDbCircle
 10
1012.647034
 20
470.099976
 30
0.0
 40
8.0
100
AcDbArc
 50
146.632987
 51
152.451448
  0
LINE
  5
345
330
1F
100
AcDbEntity
  8
0
 62
     7
100
AcDbLine
 10
1006.052673
 20
474.629272
 30
0.0
 11
1005.965698
 21
474.5
 31
0.0
  0
LINE
  5
346
330
1F
100
AcDbEntity
  8
0
 62
     7
100
AcDbLine
 10
1006.1521
 20
474.770691
 30
0.0
 11
1006.052673
 21
474.629272
 31
0.0
  0
LINE
  5
347
330
1F
100
AcDbEntity
  8
0
 62
     7
100
AcDbLine
 10
1006.247009
 20
474.900024
 30
0.0
 11
1006.1521
 21
474.770691
 31
0.0
  0
CIRCLE
  5
348
330
1F
100
AcDbEntity
  8
0
 62
     7
100
AcDbCircle
 10
1012.647034
 20
470.099976
 30
0.0
 40
7.5
  0
LINE
  5
349
330
1F
100
AcDbEntity
  8
0
 62
     7
100
AcDbLine
 10
947.647034
 20
473.099976
 30
0.0
 11
947.297058
 21
473.099976
 31
0.0
  0
LINE
  5
34A
330
1F
100
AcDbEntity
  8
0
 62
     7
100
AcDbLine
 10
1005.359375
 20
473.400024
 30
0.0
 11
948.547058
 21
473.400024
 31
0.0
  0
ARC
  5
34B
330
1F
100
AcDbEntity
  8
0
 62
     7
100
AcDbCircle
 10
947.647034
 20
474.599976
 30
0.0
 40
1.5
100
AcDbArc
 50
269.999997
 51
314.454478
  0
LINE
  5
34C
330
1F
100
AcDbEntity
  8
0
 62
     7
100
AcDbLine
 10
1005.081299
 20
472.700012
 30
0.0
 11
947.297058
 21
472.700012
 31
0.0
  0
LINE
  5
34D
330
1F
100
AcDbEntity
  8
0
 62
     7
100
AcDbLine
 10
1004.955505
 20
472.299988
 30
0.0
 11
947.297058
 21
472.299988
 31
0.0
  0
LINE
  5
34E
330
1F
100
AcDbEntity
  8
0
 62
     7
100
AcDbLine
 10
1004.78894
 20
471.599976
 30
0.0
 11
947.297058
 21
471.599976
 31
0.0
  0
LINE
  5
34F
330
1F
100
AcDbEntity
  8
0
 62
     7
100
AcDbLine
 10
1004.723022
 20
471.200012
 30
0.0
 11
947.297058
 21
471.200012
 31
0.0
  0
LINE
  5
350
330
1F
100
AcDbEntity
  8
0
 62
     7
100
AcDbLine
 10
1004.657043
 20
470.5
 30
0.0
 11
947.297058
 21
470.5
 31
0.0
  0
LINE
  5
351
330
1F
100
AcDbEntity
  8
0
 62
     7
100
AcDbLine
 10
946.297058
 20
473.400024
 30
0.0
 11
943.997009
 21
473.400024
 31
0.0
  0
LINE
  5
352
330
1F
100
AcDbEntity
  8
0
 62
     7
100
AcDbLine
 10
946.297058
 20
472.700012
 30
0.0
 11
943.997009
 21
472.700012
 31
0.0
  0
ARC
  5
353
330
1F
100
AcDbEntity
  8
0
 62
     7
100
AcDbCircle
 10
943.497009
 20
473.599976
 30
0.0
 40
0.5
100
AcDbArc
 50
0.0
 51
8.130103
  0
ARC
  5
354
330
1F
100
AcDbEntity
  8
0
 62
     7
100
AcDbCircle
 10
946.797058
 20
473.599976
 30
0.0
 40
0.5
100
AcDbArc
 50
171.869894
 51
180.000009
  0
ARC
  5
355
330
1F
100
AcDbEntity
  8
0
 62
     7
100
AcDbCircle
 10
946.797058
 20
473.599976
 30
0.0
 40
0.5
100
AcDbArc
 50
90.000003
 51
171.869894
  0
LINE
  5
356
330
1F
100
AcDbEntity
  8
0
 62
     7
100
AcDbLine
 10
946.297058
 20
466.099976
 30
0.0
 11
943.997009
 21
466.099976
 31
0.0
  0
LINE
  5
357
330
1F
100
AcDbEntity
  8
0
 62
     7
100
AcDbLine
 10
946.297058
 20
466.799988
 30
0.0
 11
943.997009
 21
466.799988
 31
0.0
  0
LINE
  5
358
330
1F
100
AcDbEntity
  8
0
 62
     7
100
AcDbLine
 10
946.297058
 20
467.200012
 30
0.0
 11
943.997009
 21
467.200012
 31
0.0
  0
LINE
  5
359
330
1F
100
AcDbEntity
  8
0
 62
     7
100
AcDbLine
 10
946.297058
 20
467.900024
 30
0.0
 11
943.997009
 21
467.900024
 31
0.0
  0
LINE
  5
35A
330
1F
100
AcDbEntity
  8
0
 62
     7
100
AcDbLine
 10
946.297058
 20
468.299988
 30
0.0
 11
943.997009
 21
468.299988
 31
0.0
  0
LINE
  5
35B
330
1F
100
AcDbEntity
  8
0
 62
     7
100
AcDbLine
 10
946.297058
 20
469.0
 30
0.0
 11
943.997009
 21
469.0
 31
0.0
  0
LINE
  5
35C
330
1F
100
AcDbEntity
  8
0
 62
     7
100
AcDbLine
 10
946.297058
 20
469.400024
 30
0.0
 11
943.997009
 21
469.400024
 31
0.0
  0
LINE
  5
35D
330
1F
100
AcDbEntity
  8
0
 62
     7
100
AcDbLine
 10
946.297058
 20
470.099976
 30
0.0
 11
943.997009
 21
470.099976
 31
0.0
  0
LINE
  5
35E
330
1F
100
AcDbEntity
  8
0
 62
     7
100
AcDbLine
 10
946.297058
 20
470.5
 30
0.0
 11
943.997009
 21
470.5
 31
0.0
  0
LINE
  5
35F
330
1F
100
AcDbEntity
  8
0
 62
     7
100
AcDbLine
 10
946.297058
 20
471.200012
 30
0.0
 11
943.997009
 21
471.200012
 31
0.0
  0
LINE
  5
360
330
1F
100
AcDbEntity
  8
0
 62
     7
100
AcDbLine
 10
946.297058
 20
471.599976
 30
0.0
 11
943.997009
 21
471.599976
 31
0.0
  0
LINE
  5
361
330
1F
100
AcDbEntity
  8
0
 62
     7
100
AcDbLine
 10
946.297058
 20
472.299988
 30
0.0
 11
943.997009
 21
472.299988
 31
0.0
  0
ARC
  5
362
330
1F
100
AcDbEntity
  8
0
 62
     7
100
AcDbCircle
 10
943.497009
 20
473.599976
 30
0.0
 40
0.5
100
AcDbArc
 50
8.130103
 51
90.000003
  0
LINE
  5
363
330
1F
100
AcDbEntity
  8
0
 62
     7
100
AcDbLine
 10
942.997009
 20
472.299988
 30
0.0
 11
897.297058
 21
472.299988
 31
0.0
  0
LINE
  5
364
330
1F
100
AcDbEntity
  8
0
 62
     7
100
AcDbLine
 10
942.997009
 20
472.700012
 30
0.0
 11
897.297058
 21
472.700012
 31
0.0
  0
LINE
  5
365
330
1F
100
AcDbEntity
  8
0
 62
     7
100
AcDbLine
 10
941.747009
 20
473.400024
 30
0.0
 11
898.547058
 21
473.400024
 31
0.0
  0
ARC
  5
366
330
1F
100
AcDbEntity
  8
0
 62
     7
100
AcDbCircle
 10
897.647034
 20
474.599976
 30
0.0
 40
1.5
100
AcDbArc
 50
269.999997
 51
314.454478
  0
LINE
  5
367
330
1F
100
AcDbEntity
  8
0
 62
     7
100
AcDbLine
 10
897.647034
 20
473.099976
 30
0.0
 11
897.297058
 21
473.099976
 31
0.0
  0
LINE
  5
368
330
1F
100
AcDbEntity
  8
0
 62
     7
100
AcDbLine
 10
942.997009
 20
473.099976
 30
0.0
 11
942.647034
 21
473.099976
 31
0.0
  0
ARC
  5
369
330
1F
100
AcDbEntity
  8
0
 62
     7
100
AcDbCircle
 10
942.647034
 20
474.599976
 30
0.0
 40
1.5
100
AcDbArc
 50
212.230947
 51
269.999997
  0
LINE
  5
36A
330
1F
100
AcDbEntity
  8
0
 62
     7
100
AcDbLine
 10
942.997009
 20
466.099976
 30
0.0
 11
897.297058
 21
466.099976
 31
0.0
  0
LINE
  5
36B
330
1F
100
AcDbEntity
  8
0
 62
     7
100
AcDbLine
 10
942.997009
 20
466.799988
 30
0.0
 11
897.297058
 21
466.799988
 31
0.0
  0
LINE
  5
36C
330
1F
100
AcDbEntity
  8
0
 62
     7
100
AcDbLine
 10
942.997009
 20
467.200012
 30
0.0
 11
897.297058
 21
467.200012
 31
0.0
  0
LINE
  5
36D
330
1F
100
AcDbEntity
  8
0
 62
     7
100
AcDbLine
 10
942.997009
 20
467.900024
 30
0.0
 11
897.297058
 21
467.900024
 31
0.0
  0
LINE
  5
36E
330
1F
100
AcDbEntity
  8
0
 62
     7
100
AcDbLine
 10
942.997009
 20
468.299988
 30
0.0
 11
897.297058
 21
468.299988
 31
0.0
  0
LINE
  5
36F
330
1F
100
AcDbEntity
  8
0
 62
     7
100
AcDbLine
 10
942.997009
 20
469.0
 30
0.0
 11
897.297058
 21
469.0
 31
0.0
  0
LINE
  5
370
330
1F
100
AcDbEntity
  8
0
 62
     7
100
AcDbLine
 10
942.997009
 20
469.400024
 30
0.0
 11
897.297058
 21
469.400024
 31
0.0
  0
LINE
  5
371
330
1F
100
AcDbEntity
  8
0
 62
     7
100
AcDbLine
 10
942.997009
 20
470.099976
 30
0.0
 11
897.297058
 21
470.099976
 31
0.0
  0
LINE
  5
372
330
1F
100
AcDbEntity
  8
0
 62
     7
100
AcDbLine
 10
942.997009
 20
470.5
 30
0.0
 11
897.297058
 21
470.5
 31
0.0
  0
LINE
  5
373
330
1F
100
AcDbEntity
  8
0
 62
     7
100
AcDbLine
 10
942.997009
 20
471.200012
 30
0.0
 11
897.297058
 21
471.200012
 31
0.0
  0
LINE
  5
374
330
1F
100
AcDbEntity
  8
0
 62
     7
100
AcDbLine
 10
942.997009
 20
471.599976
 30
0.0
 11
897.297058
 21
471.599976
 31
0.0
  0
LINE
  5
375
330
1F
100
AcDbEntity
  8
0
 62
     7
100
AcDbLine
 10
896.297058
 20
473.400024
 30
0.0
 11
893.997009
 21
473.400024
 31
0.0
  0
LINE
  5
376
330
1F
100
AcDbEntity
  8
0
 62
     7
100
AcDbLine
 10
896.297058
 20
472.700012
 30
0.0
 11
893.997009
 21
472.700012
 31
0.0
  0
ARC
  5
377
330
1F
100
AcDbEntity
  8
0
 62
     7
100
AcDbCircle
 10
896.797058
 20
473.599976
 30
0.0
 40
0.5
100
AcDbArc
 50
171.869894
 51
180.000009
  0
ARC
  5
378
330
1F
100
AcDbEntity
  8
0
 62
     7
100
AcDbCircle
 10
893.497009
 20
473.599976
 30
0.0
 40
0.5
100
AcDbArc
 50
0.0
 51
8.130103
  0
ARC
  5
379
330
1F
100
AcDbEntity
  8
0
 62
     7
100
AcDbCircle
 10
896.797058
 20
473.599976
 30
0.0
 40
0.5
100
AcDbArc
 50
90.000003
 51
171.869894
  0
LINE
  5
37A
330
1F
100
AcDbEntity
  8
0
 62
     7
100
AcDbLine
 10
896.297058
 20
466.099976
 30
0.0
 11
893.997009
 21
466.099976
 31
0.0
  0
LINE
  5
37B
330
1F
100
AcDbEntity
  8
0
 62
     7
100
AcDbLine
 10
896.297058
 20
466.799988
 30
0.0
 11
893.997009
 21
466.799988
 31
0.0
  0
LINE
  5
37C
330
1F
100
AcDbEntity
  8
0
 62
     7
100
AcDbLine
 10
896.297058
 20
467.200012
 30
0.0
 11
893.997009
 21
467.200012
 31
0.0
  0
LINE
  5
37D
330
1F
100
AcDbEntity
  8
0
 62
     7
100
AcDbLine
 10
896.297058
 20
467.900024
 30
0.0
 11
893.997009
 21
467.900024
 31
0.0
  0
LINE
  5
37E
330
1F
100
AcDbEntity
  8
0
 62
     7
100
AcDbLine
 10
896.297058
 20
468.299988
 30
0.0
 11
893.997009
 21
468.299988
 31
0.0
  0
LINE
  5
37F
330
1F
100
AcDbEntity
  8
0
 62
     7
100
AcDbLine
 10
896.297058
 20
469.0
 30
0.0
 11
893.997009
 21
469.0
 31
0.0
  0
LINE
  5
380
330
1F
100
AcDbEntity
  8
0
 62
     7
100
AcDbLine
 10
896.297058
 20
469.400024
 30
0.0
 11
893.997009
 21
469.400024
 31
0.0
  0
LINE
  5
381
330
1F
100
AcDbEntity
  8
0
 62
     7
100
AcDbLine
 10
896.297058
 20
470.099976
 30
0.0
 11
893.997009
 21
470.099976
 31
0.0
  0
LINE
  5
382
330
1F
100
AcDbEntity
  8
0
 62
     7
100
AcDbLine
 10
896.297058
 20
470.5
 30
0.0
 11
893.997009
 21
470.5
 31
0.0
  0
LINE
  5
383
330
1F
100
AcDbEntity
  8
0
 62
     7
100
AcDbLine
 10
896.297058
 20
471.200012
 30
0.0
 11
893.997009
 21
471.200012
 31
0.0
  0
LINE
  5
384
330
1F
100
AcDbEntity
  8
0
 62
     7
100
AcDbLine
 10
896.297058
 20
471.599976
 30
0.0
 11
893.997009
 21
471.599976
 31
0.0
  0
LINE
  5
385
330
1F
100
AcDbEntity
  8
0
 62
     7
100
AcDbLine
 10
896.297058
 20
472.299988
 30
0.0
 11
893.997009
 21
472.299988
 31
0.0
  0
ARC
  5
386
330
1F
100
AcDbEntity
  8
0
 62
     7
100
AcDbCircle
 10
893.497009
 20
473.599976
 30
0.0
 40
0.5
100
AcDbArc
 50
8.130103
 51
90.000003
  0
LINE
  5
387
330
1F
100
AcDbEntity
  8
0
 62
     7
100
AcDbLine
 10
892.997009
 20
472.299988
 30
0.0
 11
597.296997
 21
472.299988
 31
0.0
  0
LINE
  5
388
330
1F
100
AcDbEntity
  8
0
 62
     7
100
AcDbLine
 10
892.997009
 20
472.700012
 30
0.0
 11
597.296997
 21
472.700012
 31
0.0
  0
LINE
  5
389
330
1F
100
AcDbEntity
  8
0
 62
     7
100
AcDbLine
 10
892.997009
 20
473.099976
 30
0.0
 11
892.647034
 21
473.099976
 31
0.0
  0
ARC
  5
38A
330
1F
100
AcDbEntity
  8
0
 62
     7
100
AcDbCircle
 10
892.647034
 20
474.599976
 30
0.0
 40
1.5
100
AcDbArc
 50
212.230947
 51
269.999997
  0
LINE
  5
38B
330
1F
100
AcDbEntity
  8
0
 62
     7
100
AcDbLine
 10
891.747009
 20
473.400024
 30
0.0
 11
598.546997
 21
473.400024
 31
0.0
  0
ARC
  5
38C
330
1F
100
AcDbEntity
  8
0
 62
     7
100
AcDbCircle
 10
597.647034
 20
474.599976
 30
0.0
 40
1.5
100
AcDbArc
 50
269.999997
 51
314.454478
  0
LINE
  5
38D
330
1F
100
AcDbEntity
  8
0
 62
     7
100
AcDbLine
 10
597.647034
 20
473.099976
 30
0.0
 11
597.296997
 21
473.099976
 31
0.0
  0
LINE
  5
38E
330
1F
100
AcDbEntity
  8
0
 62
     7
100
AcDbLine
 10
892.997009
 20
466.099976
 30
0.0
 11
597.296997
 21
466.099976
 31
0.0
  0
LINE
  5
38F
330
1F
100
AcDbEntity
  8
0
 62
     7
100
AcDbLine
 10
892.997009
 20
466.799988
 30
0.0
 11
597.296997
 21
466.799988
 31
0.0
  0
LINE
  5
390
330
1F
100
AcDbEntity
  8
0
 62
     7
100
AcDbLine
 10
892.997009
 20
467.200012
 30
0.0
 11
597.296997
 21
467.200012
 31
0.0
  0
LINE
  5
391
330
1F
100
AcDbEntity
  8
0
 62
     7
100
AcDbLine
 10
892.997009
 20
467.900024
 30
0.0
 11
597.296997
 21
467.900024
 31
0.0
  0
LINE
  5
392
330
1F
100
AcDbEntity
  8
0
 62
     7
100
AcDbLine
 10
892.997009
 20
468.299988
 30
0.0
 11
597.296997
 21
468.299988
 31
0.0
  0
LINE
  5
393
330
1F
100
AcDbEntity
  8
0
 62
     7
100
AcDbLine
 10
892.997009
 20
469.0
 30
0.0
 11
597.296997
 21
469.0
 31
0.0
  0
LINE
  5
394
330
1F
100
AcDbEntity
  8
0
 62
     7
100
AcDbLine
 10
892.997009
 20
469.400024
 30
0.0
 11
597.296997
 21
469.400024
 31
0.0
  0
LINE
  5
395
330
1F
100
AcDbEntity
  8
0
 62
     7
100
AcDbLine
 10
892.997009
 20
470.099976
 30
0.0
 11
597.296997
 21
470.099976
 31
0.0
  0
LINE
  5
396
330
1F
100
AcDbEntity
  8
0
 62
     7
100
AcDbLine
 10
892.997009
 20
470.5
 30
0.0
 11
597.296997
 21
470.5
 31
0.0
  0
LINE
  5
397
330
1F
100
AcDbEntity
  8
0
 62
     7
100
AcDbLine
 10
892.997009
 20
471.200012
 30
0.0
 11
597.296997
 21
471.200012
 31
0.0
  0
LINE
  5
398
330
1F
100
AcDbEntity
  8
0
 62
     7
100
AcDbLine
 10
892.997009
 20
471.599976
 30
0.0
 11
597.296997
 21
471.599976
 31
0.0
  0
LINE
  5
399
330
1F
100
AcDbEntity
  8
0
 62
     7
100
AcDbLine
 10
596.296997
 20
472.700012
 30
0.0
 11
593.99707
 21
472.700012
 31
0.0
  0
LINE
  5
39A
330
1F
100
AcDbEntity
  8
0
 62
     7
100
AcDbLine
 10
596.296997
 20
473.400024
 30
0.0
 11
593.99707
 21
473.400024
 31
0.0
  0
ARC
  5
39B
330
1F
100
AcDbEntity
  8
0
 62
     7
100
AcDbCircle
 10
596.796997
 20
473.599976
 30
0.0
 40
0.5
100
AcDbArc
 50
171.869894
 51
180.000009
  0
ARC
  5
39C
330
1F
100
AcDbEntity
  8
0
 62
     7
100
AcDbCircle
 10
593.49707
 20
473.599976
 30
0.0
 40
0.5
100
AcDbArc
 50
0.0
 51
8.130103
  0
ARC
  5
39D
330
1F
100
AcDbEntity
  8
0
 62
     7
100
AcDbCircle
 10
596.796997
 20
473.599976
 30
0.0
 40
0.5
100
AcDbArc
 50
90.000003
 51
171.869894
  0
LINE
  5
39E
330
1F
100
AcDbEntity
  8
0
 62
     7
100
AcDbLine
 10
596.296997
 20
466.099976
 30
0.0
 11
593.99707
 21
466.099976
 31
0.0
  0
LINE
  5
39F
330
1F
100
AcDbEntity
  8
0
 62
     7
100
AcDbLine
 10
596.296997
 20
466.799988
 30
0.0
 11
593.99707
 21
466.799988
 31
0.0
  0
LINE
  5
3A0
330
1F
100
AcDbEntity
  8
0
 62
     7
100
AcDbLine
 10
596.296997
 20
467.200012
 30
0.0
 11
593.99707
 21
467.200012
 31
0.0
  0
LINE
  5
3A1
330
1F
100
AcDbEntity
  8
0
 62
     7
100
AcDbLine
 10
596.296997
 20
467.900024
 30
0.0
 11
593.99707
 21
467.900024
 31
0.0
  0
LINE
  5
3A2
330
1F
100
AcDbEntity
  8
0
 62
     7
100
AcDbLine
 10
596.296997
 20
468.299988
 30
0.0
 11
593.99707
 21
468.299988
 31
0.0
  0
LINE
  5
3A3
330
1F
100
AcDbEntity
  8
0
 62
     7
100
AcDbLine
 10
596.296997
 20
469.0
 30
0.0
 11
593.99707
 21
469.0
 31
0.0
  0
LINE
  5
3A4
330
1F
100
AcDbEntity
  8
0
 62
     7
100
AcDbLine
 10
596.296997
 20
469.400024
 30
0.0
 11
593.99707
 21
469.400024
 31
0.0
  0
LINE
  5
3A5
330
1F
100
AcDbEntity
  8
0
 62
     7
100
AcDbLine
 10
596.296997
 20
470.099976
 30
0.0
 11
593.99707
 21
470.099976
 31
0.0
  0
LINE
  5
3A6
330
1F
100
AcDbEntity
  8
0
 62
     7
100
AcDbLine
 10
596.296997
 20
470.5
 30
0.0
 11
593.99707
 21
470.5
 31
0.0
  0
LINE
  5
3A7
330
1F
100
AcDbEntity
  8
0
 62
     7
100
AcDbLine
 10
596.296997
 20
471.200012
 30
0.0
 11
593.99707
 21
471.200012
 31
0.0
  0
LINE
  5
3A8
330
1F
100
AcDbEntity
  8
0
 62
     7
100
AcDbLine
 10
596.296997
 20
471.599976
 30
0.0
 11
593.99707
 21
471.599976
 31
0.0
  0
LINE
  5
3A9
330
1F
100
AcDbEntity
  8
0
 62
     7
100
AcDbLine
 10
596.296997
 20
472.299988
 30
0.0
 11
593.99707
 21
472.299988
 31
0.0
  0
ARC
  5
3AA
330
1F
100
AcDbEntity
  8
0
 62
     7
100
AcDbCircle
 10
593.49707
 20
473.599976
 30
0.0
 40
0.5
100
AcDbArc
 50
8.130103
 51
90.000003
  0
LINE
  5
3AB
330
1F
100
AcDbEntity
  8
0
 62
     7
100
AcDbLine
 10
592.99707
 20
472.299988
 30
0.0
 11
297.297058
 21
472.299988
 31
0.0
  0
LINE
  5
3AC
330
1F
100
AcDbEntity
  8
0
 62
     7
100
AcDbLine
 10
592.99707
 20
472.700012
 30
0.0
 11
297.297058
 21
472.700012
 31
0.0
  0
LINE
  5
3AD
330
1F
100
AcDbEntity
  8
0
 62
     7
100
AcDbLine
 10
591.74707
 20
473.400024
 30
0.0
 11
298.547058
 21
473.400024
 31
0.0
  0
ARC
  5
3AE
330
1F
100
AcDbEntity
  8
0
 62
     7
100
AcDbCircle
 10
297.647034
 20
474.599976
 30
0.0
 40
1.5
100
AcDbArc
 50
269.999997
 51
314.454478
  0
LINE
  5
3AF
330
1F
100
AcDbEntity
  8
0
 62
     7
100
AcDbLine
 10
297.647034
 20
473.099976
 30
0.0
 11
297.297058
 21
473.099976
 31
0.0
  0
LINE
  5
3B0
330
1F
100
AcDbEntity
  8
0
 62
     7
100
AcDbLine
 10
592.99707
 20
473.099976
 30
0.0
 11
592.647034
 21
473.099976
 31
0.0
  0
ARC
  5
3B1
330
1F
100
AcDbEntity
  8
0
 62
     7
100
AcDbCircle
 10
592.647034
 20
474.599976
 30
0.0
 40
1.5
100
AcDbArc
 50
212.230947
 51
269.999997
  0
LINE
  5
3B2
330
1F
100
AcDbEntity
  8
0
 62
     7
100
AcDbLine
 10
592.99707
 20
466.099976
 30
0.0
 11
297.297058
 21
466.099976
 31
0.0
  0
LINE
  5
3B3
330
1F
100
AcDbEntity
  8
0
 62
     7
100
AcDbLine
 10
592.99707
 20
466.799988
 30
0.0
 11
297.297058
 21
466.799988
 31
0.0
  0
LINE
  5
3B4
330
1F
100
AcDbEntity
  8
0
 62
     7
100
AcDbLine
 10
592.99707
 20
467.200012
 30
0.0
 11
297.297058
 21
467.200012
 31
0.0
  0
LINE
  5
3B5
330
1F
100
AcDbEntity
  8
0
 62
     7
100
AcDbLine
 10
592.99707
 20
467.900024
 30
0.0
 11
297.297058
 21
467.900024
 31
0.0
  0
LINE
  5
3B6
330
1F
100
AcDbEntity
  8
0
 62
     7
100
AcDbLine
 10
592.99707
 20
468.299988
 30
0.0
 11
297.297058
 21
468.299988
 31
0.0
  0
LINE
  5
3B7
330
1F
100
AcDbEntity
  8
0
 62
     7
100
AcDbLine
 10
592.99707
 20
469.0
 30
0.0
 11
297.297058
 21
469.0
 31
0.0
  0
LINE
  5
3B8
330
1F
100
AcDbEntity
  8
0
 62
     7
100
AcDbLine
 10
592.99707
 20
469.400024
 30
0.0
 11
297.297058
 21
469.400024
 31
0.0
  0
LINE
  5
3B9
330
1F
100
AcDbEntity
  8
0
 62
     7
100
AcDbLine
 10
592.99707
 20
470.099976
 30
0.0
 11
297.297058
 21
470.099976
 31
0.0
  0
LINE
  5
3BA
330
1F
100
AcDbEntity
  8
0
 62
     7
100
AcDbLine
 10
592.99707
 20
470.5
 30
0.0
 11
297.297058
 21
470.5
 31
0.0
  0
LINE
  5
3BB
330
1F
100
AcDbEntity
  8
0
 62
     7
100
AcDbLine
 10
592.99707
 20
471.200012
 30
0.0
 11
297.297058
 21
471.200012
 31
0.0
  0
LINE
  5
3BC
330
1F
100
AcDbEntity
  8
0
 62
     7
100
AcDbLine
 10
592.99707
 20
471.599976
 30
0.0
 11
297.297058
 21
471.599976
 31
0.0
  0
LINE
  5
3BD
330
1F
100
AcDbEntity
  8
0
 62
     7
100
AcDbLine
 10
296.297058
 20
472.700012
 30
0.0
 11
293.997009
 21
472.700012
 31
0.0
  0
LINE
  5
3BE
330
1F
100
AcDbEntity
  8
0
 62
     7
100
AcDbLine
 10
296.297058
 20
473.400024
 30
0.0
 11
293.997009
 21
473.400024
 31
0.0
  0
ARC
  5
3BF
330
1F
100
AcDbEntity
  8
0
 62
     7
100
AcDbCircle
 10
296.797058
 20
473.599976
 30
0.0
 40
0.5
100
AcDbArc
 50
171.869894
 51
180.000009
  0
ARC
  5
3C0
330
1F
100
AcDbEntity
  8
0
 62
     7
100
AcDbCircle
 10
293.497009
 20
473.599976
 30
0.0
 40
0.5
100
AcDbArc
 50
0.0
 51
8.130103
  0
ARC
  5
3C1
330
1F
100
AcDbEntity
  8
0
 62
     7
100
AcDbCircle
 10
296.797058
 20
473.599976
 30
0.0
 40
0.5
100
AcDbArc
 50
90.000003
 51
171.869894
  0
LINE
  5
3C2
330
1F
100
AcDbEntity
  8
0
 62
     7
100
AcDbLine
 10
296.297058
 20
466.099976
 30
0.0
 11
293.997009
 21
466.099976
 31
0.0
  0
LINE
  5
3C3
330
1F
100
AcDbEntity
  8
0
 62
     7
100
AcDbLine
 10
296.297058
 20
466.799988
 30
0.0
 11
293.997009
 21
466.799988
 31
0.0
  0
LINE
  5
3C4
330
1F
100
AcDbEntity
  8
0
 62
     7
100
AcDbLine
 10
296.297058
 20
467.200012
 30
0.0
 11
293.997009
 21
467.200012
 31
0.0
  0
LINE
  5
3C5
330
1F
100
AcDbEntity
  8
0
 62
     7
100
AcDbLine
 10
296.297058
 20
467.900024
 30
0.0
 11
293.997009
 21
467.900024
 31
0.0
  0
LINE
  5
3C6
330
1F
100
AcDbEntity
  8
0
 62
     7
100
AcDbLine
 10
296.297058
 20
468.299988
 30
0.0
 11
293.997009
 21
468.299988
 31
0.0
  0
LINE
  5
3C7
330
1F
100
AcDbEntity
  8
0
 62
     7
100
AcDbLine
 10
296.297058
 20
469.0
 30
0.0
 11
293.997009
 21
469.0
 31
0.0
  0
LINE
  5
3C8
330
1F
100
AcDbEntity
  8
0
 62
     7
100
AcDbLine
 10
296.297058
 20
469.400024
 30
0.0
 11
293.997009
 21
469.400024
 31
0.0
  0
LINE
  5
3C9
330
1F
100
AcDbEntity
  8
0
 62
     7
100
AcDbLine
 10
296.297058
 20
470.099976
 30
0.0
 11
293.997009
 21
470.099976
 31
0.0
  0
LINE
  5
3CA
330
1F
100
AcDbEntity
  8
0
 62
     7
100
AcDbLine
 10
296.297058
 20
470.5
 30
0.0
 11
293.997009
 21
470.5
 31
0.0
  0
LINE
  5
3CB
330
1F
100
AcDbEntity
  8
0
 62
     7
100
AcDbLine
 10
296.297058
 20
471.200012
 30
0.0
 11
293.997009
 21
471.200012
 31
0.0
  0
LINE
  5
3CC
330
1F
100
AcDbEntity
  8
0
 62
     7
100
AcDbLine
 10
296.297058
 20
471.599976
 30
0.0
 11
293.997009
 21
471.599976
 31
0.0
  0
LINE
  5
3CD
330
1F
100
AcDbEntity
  8
0
 62
     7
100
AcDbLine
 10
296.297058
 20
472.299988
 30
0.0
 11
293.997009
 21
472.299988
 31
0.0
  0
ARC
  5
3CE
330
1F
100
AcDbEntity
  8
0
 62
     7
100
AcDbCircle
 10
293.497009
 20
473.599976
 30
0.0
 40
0.5
100
AcDbArc
 50
8.130103
 51
90.000003
  0
LINE
  5
3CF
330
1F
100
AcDbEntity
  8
0
 62
     7
100
AcDbLine
 10
235.30043
 20
472.42926
 30
0.0
 11
235.338577
 21
472.299988
 31
0.0
  0
LINE
  5
3D0
330
1F
100
AcDbEntity
  8
0
 62
     7
100
AcDbLine
 10
292.997009
 20
472.299988
 30
0.0
 11
235.338577
 21
472.299988
 31
0.0
  0
LINE
  5
3D1
330
1F
100
AcDbEntity
  8
0
 62
     7
100
AcDbLine
 10
235.255951
 20
472.570679
 30
0.0
 11
235.30043
 21
472.42926
 31
0.0
  0
LINE
  5
3D2
330
1F
100
AcDbEntity
  8
0
 62
     7
100
AcDbLine
 10
235.212753
 20
472.700012
 30
0.0
 11
235.255951
 21
472.570679
 31
0.0
  0
LINE
  5
3D3
330
1F
100
AcDbEntity
  8
0
 62
     7
100
AcDbLine
 10
292.997009
 20
472.700012
 30
0.0
 11
235.212753
 21
472.700012
 31
0.0
  0
ARC
  5
3D4
330
1F
100
AcDbEntity
  8
0
 62
     7
100
AcDbCircle
 10
227.647034
 20
470.099976
 30
0.0
 40
8.0
100
AcDbArc
 50
18.965574
 51
24.361978
  0
LINE
  5
3D5
330
1F
100
AcDbEntity
  8
0
 62
     7
100
AcDbLine
 10
292.997009
 20
473.099976
 30
0.0
 11
292.647034
 21
473.099976
 31
0.0
  0
ARC
  5
3D6
330
1F
100
AcDbEntity
  8
0
 62
     7
100
AcDbCircle
 10
292.647034
 20
474.599976
 30
0.0
 40
1.5
100
AcDbArc
 50
212.230947
 51
269.999997
  0
LINE
  5
3D7
330
1F
100
AcDbEntity
  8
0
 62
     7
100
AcDbLine
 10
291.747009
 20
473.400024
 30
0.0
 11
234.934692
 21
473.400024
 31
0.0
  0
LINE
  5
3D8
330
1F
100
AcDbEntity
  8
0
 62
     7
100
AcDbLine
 10
292.997009
 20
466.099976
 30
0.0
 11
234.575241
 21
466.099976
 31
0.0
  0
LINE
  5
3D9
330
1F
100
AcDbEntity
  8
0
 62
     7
100
AcDbLine
 10
292.997009
 20
466.799988
 30
0.0
 11
234.934692
 21
466.799988
 31
0.0
  0
LINE
  5
3DA
330
1F
100
AcDbEntity
  8
0
 62
     7
100
AcDbLine
 10
292.997009
 20
467.200012
 30
0.0
 11
235.102905
 21
467.200012
 31
0.0
  0
LINE
  5
3DB
330
1F
100
AcDbEntity
  8
0
 62
     7
100
AcDbLine
 10
292.997009
 20
467.900024
 30
0.0
 11
235.338577
 21
467.900024
 31
0.0
  0
LINE
  5
3DC
330
1F
100
AcDbEntity
  8
0
 62
     7
100
AcDbLine
 10
292.997009
 20
468.299988
 30
0.0
 11
235.44191
 21
468.299988
 31
0.0
  0
LINE
  5
3DD
330
1F
100
AcDbEntity
  8
0
 62
     7
100
AcDbLine
 10
292.997009
 20
469.0
 30
0.0
 11
235.571045
 21
469.0
 31
0.0
  0
LINE
  5
3DE
330
1F
100
AcDbEntity
  8
0
 62
     7
100
AcDbLine
 10
292.997009
 20
469.400024
 30
0.0
 11
235.616348
 21
469.400024
 31
0.0
  0
LINE
  5
3DF
330
1F
100
AcDbEntity
  8
0
 62
     7
100
AcDbLine
 10
292.997009
 20
470.099976
 30
0.0
 11
235.647034
 21
470.099976
 31
0.0
  0
LINE
  5
3E0
330
1F
100
AcDbEntity
  8
0
 62
     7
100
AcDbLine
 10
235.645981
 20
470.229309
 30
0.0
 11
235.647034
 21
470.099976
 31
0.0
  0
LINE
  5
3E1
330
1F
100
AcDbEntity
  8
0
 62
     7
100
AcDbLine
 10
235.642441
 20
470.370728
 30
0.0
 11
235.645981
 21
470.229309
 31
0.0
  0
LINE
  5
3E2
330
1F
100
AcDbEntity
  8
0
 62
     7
100
AcDbLine
 10
235.637024
 20
470.5
 30
0.0
 11
235.642441
 21
470.370728
 31
0.0
  0
LINE
  5
3E3
330
1F
100
AcDbEntity
  8
0
 62
     7
100
AcDbLine
 10
292.997009
 20
470.5
 30
0.0
 11
235.637024
 21
470.5
 31
0.0
  0
ARC
  5
3E4
330
1F
100
AcDbEntity
  8
0
 62
     7
100
AcDbCircle
 10
227.647034
 20
470.099976
 30
0.0
 40
8.0
100
AcDbArc
 50
2.865984
 51
7.903208
  0
LINE
  5
3E5
330
1F
100
AcDbEntity
  8
0
 62
     7
100
AcDbLine
 10
292.997009
 20
471.200012
 30
0.0
 11
235.571045
 21
471.200012
 31
0.0
  0
LINE
  5
3E6
330
1F
100
AcDbEntity
  8
0
 62
     7
100
AcDbLine
 10
235.552017
 20
471.329285
 30
0.0
 11
235.571045
 21
471.200012
 31
0.0
  0
LINE
  5
3E7
330
1F
100
AcDbEntity
  8
0
 62
     7
100
AcDbLine
 10
235.528732
 20
471.470703
 30
0.0
 11
235.552017
 21
471.329285
 31
0.0
  0
LINE
  5
3E8
330
1F
100
AcDbEntity
  8
0
 62
     7
100
AcDbLine
 10
235.505142
 20
471.599976
 30
0.0
 11
235.528732
 21
471.470703
 31
0.0
  0
LINE
  5
3E9
330
1F
100
AcDbEntity
  8
0
 62
     7
100
AcDbLine
 10
292.997009
 20
471.599976
 30
0.0
 11
235.505142
 21
471.599976
 31
0.0
  0
ARC
  5
3EA
330
1F
100
AcDbEntity
  8
0
 62
     7
100
AcDbCircle
 10
227.647034
 20
470.099976
 30
0.0
 40
8.0
100
AcDbArc
 50
10.806925
 51
15.962019
  0
LINE
  5
3EB
330
1F
100
AcDbEntity
  8
0
 62
     7
100
AcDbLine
 10
220.718826
 20
466.099976
 30
0.0
 11
218.647034
 21
466.099976
 31
0.0
  0
LINE
  5
3EC
330
1F
100
AcDbEntity
  8
0
 62
     7
100
AcDbLine
 10
220.359375
 20
466.799988
 30
0.0
 11
218.647034
 21
466.799988
 31
0.0
  0
LINE
  5
3ED
330
1F
100
AcDbEntity
  8
0
 62
     7
100
AcDbLine
 10
220.191162
 20
467.200012
 30
0.0
 11
218.647034
 21
467.200012
 31
0.0
  0
LINE
  5
3EE
330
1F
100
AcDbEntity
  8
0
 62
     7
100
AcDbLine
 10
219.95549
 20
467.900024
 30
0.0
 11
218.647034
 21
467.900024
 31
0.0
  0
LINE
  5
3EF
330
1F
100
AcDbEntity
  8
0
 62
     7
100
AcDbLine
 10
219.852158
 20
468.299988
 30
0.0
 11
218.647034
 21
468.299988
 31
0.0
  0
LINE
  5
3F0
330
1F
100
AcDbEntity
  8
0
 62
     7
100
AcDbLine
 10
219.723022
 20
469.0
 30
0.0
 11
218.647034
 21
469.0
 31
0.0
  0
LINE
  5
3F1
330
1F
100
AcDbEntity
  8
0
 62
     7
100
AcDbLine
 10
219.677719
 20
469.400024
 30
0.0
 11
218.647034
 21
469.400024
 31
0.0
  0
LINE
  5
3F2
330
1F
100
AcDbEntity
  8
0
 62
     7
100
AcDbLine
 10
219.647034
 20
470.099976
 30
0.0
 11
218.647034
 21
470.099976
 31
0.0
  0
LINE
  5
3F3
330
1F
100
AcDbEntity
  8
0
 62
     7
100
AcDbLine
 10
219.648087
 20
470.229309
 30
0.0
 11
219.647034
 21
470.099976
 31
0.0
  0
LINE
  5
3F4
330
1F
100
AcDbEntity
  8
0
 62
     7
100
AcDbLine
 10
219.651627
 20
470.370728
 30
0.0
 11
219.648087
 21
470.229309
 31
0.0
  0
LINE
  5
3F5
330
1F
100
AcDbEntity
  8
0
 62
     7
100
AcDbLine
 10
219.657043
 20
470.5
 30
0.0
 11
219.651627
 21
470.370728
 31
0.0
  0
ARC
  5
3F6
330
1F
100
AcDbEntity
  8
0
 62
     7
100
AcDbCircle
 10
227.647034
 20
470.099976
 30
0.0
 40
8.0
100
AcDbArc
 50
172.096793
 51
177.134017
  0
LINE
  5
3F7
330
1F
100
AcDbEntity
  8
0
 62
     7
100
AcDbLine
 10
219.74205
 20
471.329285
 30
0.0
 11
219.723022
 21
471.200012
 31
0.0
  0
LINE
  5
3F8
330
1F
100
AcDbEntity
  8
0
 62
     7
100
AcDbLine
 10
219.765335
 20
471.470703
 30
0.0
 11
219.74205
 21
471.329285
 31
0.0
  0
LINE
  5
3F9
330
1F
100
AcDbEntity
  8
0
 62
     7
100
AcDbLine
 10
219.788925
 20
471.599976
 30
0.0
 11
219.765335
 21
471.470703
 31
0.0
  0
ARC
  5
3FA
330
1F
100
AcDbEntity
  8
0
 62
     7
100
AcDbCircle
 10
227.647034
 20
470.099976
 30
0.0
 40
8.0
100
AcDbArc
 50
164.03799
 51
169.193075
  0
LINE
  5
3FB
330
1F
100
AcDbEntity
  8
0
 62
     7
100
AcDbLine
 10
219.993637
 20
472.42926
 30
0.0
 11
219.95549
 21
472.299988
 31
0.0
  0
LINE
  5
3FC
330
1F
100
AcDbEntity
  8
0
 62
     7
100
AcDbLine
 10
220.038116
 20
472.570679
 30
0.0
 11
219.993637
 21
472.42926
 31
0.0
  0
LINE
  5
3FD
330
1F
100
AcDbEntity
  8
0
 62
     7
100
AcDbLine
 10
220.081314
 20
472.700012
 30
0.0
 11
220.038116
 21
472.570679
 31
0.0
  0
ARC
  5
3FE
330
1F
100
AcDbEntity
  8
0
 62
     7
100
AcDbCircle
 10
227.647034
 20
470.099976
 30
0.0
 40
8.0
100
AcDbArc
 50
155.638018
 51
161.034427
  0
LINE
  5
3FF
330
1F
100
AcDbEntity
  8
0
 62
     7
100
AcDbLine
 10
220.419312
 20
473.529297
 30
0.0
 11
220.359375
 21
473.400024
 31
0.0
  0
LINE
  5
400
330
1F
100
AcDbEntity
  8
0
 62
     7
100
AcDbLine
 10
220.488113
 20
473.670715
 30
0.0
 11
220.419312
 21
473.529297
 31
0.0
  0
LINE
  5
401
330
1F
100
AcDbEntity
  8
0
 62
     7
100
AcDbLine
 10
220.554077
 20
473.799988
 30
0.0
 11
220.488113
 21
473.670715
 31
0.0
  0
ARC
  5
402
330
1F
100
AcDbEntity
  8
0
 62
     7
100
AcDbCircle
 10
227.647034
 20
470.099976
 30
0.0
 40
8.0
100
AcDbArc
 50
146.632987
 51
152.451448
  0
LINE
  5
403
330
1F
100
AcDbEntity
  8
0
 62
     7
100
AcDbLine
 10
221.052673
 20
474.629272
 30
0.0
 11
220.965714
 21
474.5
 31
0.0
  0
LINE
  5
404
330
1F
100
AcDbEntity
  8
0
 62
     7
100
AcDbLine
 10
221.152084
 20
474.770691
 30
0.0
 11
221.052673
 21
474.629272
 31
0.0
  0
LINE
  5
405
330
1F
100
AcDbEntity
  8
0
 62
     7
100
AcDbLine
 10
221.247025
 20
474.900024
 30
0.0
 11
221.152084
 21
474.770691
 31
0.0
  0
ARC
  5
406
330
1F
100
AcDbEntity
  8
0
 62
     7
100
AcDbCircle
 10
227.647034
 20
470.099976
 30
0.0
 40
8.0
100
AcDbArc
 50
36.869897
 51
143.130097
  0
LINE
  5
407
330
1F
100
AcDbEntity
  8
0
 62
     7
100
AcDbLine
 10
234.047043
 20
474.900024
 30
0.0
 11
234.141983
 21
474.770691
 31
0.0
  0
LINE
  5
408
330
1F
100
AcDbEntity
  8
0
 62
     7
100
AcDbLine
 10
234.141983
 20
474.770691
 30
0.0
 11
234.241379
 21
474.629272
 31
0.0
  0
LINE
  5
409
330
1F
100
AcDbEntity
  8
0
 62
     7
100
AcDbLine
 10
234.241379
 20
474.629272
 30
0.0
 11
234.328354
 21
474.5
 31
0.0
  0
ARC
  5
40A
330
1F
100
AcDbEntity
  8
0
 62
     7
100
AcDbCircle
 10
227.647034
 20
470.099976
 30
0.0
 40
8.0
100
AcDbArc
 50
27.548547
 51
33.367014
  0
LINE
  5
40B
330
1F
100
AcDbEntity
  8
0
 62
     7
100
AcDbLine
 10
234.73999
 20
473.799988
 30
0.0
 11
234.805954
 21
473.670715
 31
0.0
  0
LINE
  5
40C
330
1F
100
AcDbEntity
  8
0
 62
     7
100
AcDbLine
 10
234.805954
 20
473.670715
 30
0.0
 11
234.874756
 21
473.529297
 31
0.0
  0
LINE
  5
40D
330
1F
100
AcDbEntity
  8
0
 62
     7
100
AcDbLine
 10
234.874756
 20
473.529297
 30
0.0
 11
234.934692
 21
473.400024
 31
0.0
  0
CIRCLE
  5
40E
330
1F
100
AcDbEntity
  8
0
 62
     7
100
AcDbCircle
 10
227.647034
 20
470.099976
 30
0.0
 40
7.5
  0
LINE
  5
40F
330
1F
100
AcDbEntity
  8
0
 62
     7
100
AcDbLine
 10
218.147034
 20
458.099976
 30
0.0
 11
218.647034
 21
458.099976
 31
0.0
  0
LINE
  5
410
330
1F
100
AcDbEntity
  8
0
 62
     7
100
AcDbLine
 10
219.657043
 20
470.5
 30
0.0
 11
218.647034
 21
470.5
 31
0.0
  0
LINE
  5
411
330
1F
100
AcDbEntity
  8
0
 62
     7
100
AcDbLine
 10
219.723022
 20
471.200012
 30
0.0
 11
218.647034
 21
471.200012
 31
0.0
  0
LINE
  5
412
330
1F
100
AcDbEntity
  8
0
 62
     7
100
AcDbLine
 10
219.788925
 20
471.599976
 30
0.0
 11
218.647034
 21
471.599976
 31
0.0
  0
LINE
  5
413
330
1F
100
AcDbEntity
  8
0
 62
     7
100
AcDbLine
 10
219.95549
 20
472.299988
 30
0.0
 11
218.647034
 21
472.299988
 31
0.0
  0
LINE
  5
414
330
1F
100
AcDbEntity
  8
0
 62
     7
100
AcDbLine
 10
220.081314
 20
472.700012
 30
0.0
 11
218.647034
 21
472.700012
 31
0.0
  0
LINE
  5
415
330
1F
100
AcDbEntity
  8
0
 62
     7
100
AcDbLine
 10
220.359375
 20
473.400024
 30
0.0
 11
218.647034
 21
473.400024
 31
0.0
  0
LINE
  5
416
330
1F
100
AcDbEntity
  8
0
 62
     7
100
AcDbLine
 10
220.554077
 20
473.799988
 30
0.0
 11
218.647034
 21
473.799988
 31
0.0
  0
LINE
  5
417
330
1F
100
AcDbEntity
  8
0
 62
     7
100
AcDbLine
 10
220.965714
 20
474.5
 30
0.0
 11
218.647034
 21
474.5
 31
0.0
  0
LINE
  5
418
330
1F
100
AcDbEntity
  8
0
 62
     7
100
AcDbLine
 10
221.247025
 20
474.900024
 30
0.0
 11
218.647034
 21
474.900024
 31
0.0
  0
LINE
  5
419
330
1F
100
AcDbEntity
  8
0
 62
     7
100
AcDbLine
 10
291.147034
 20
474.900024
 30
0.0
 11
234.047043
 21
474.900024
 31
0.0
  0
LINE
  5
41A
330
1F
100
AcDbEntity
  8
0
 62
     7
100
AcDbLine
 10
291.147034
 20
474.900024
 30
0.0
 11
291.147034
 21
479.724243
 31
0.0
  0
LINE
  5
41B
330
1F
100
AcDbEntity
  8
0
 62
     7
100
AcDbLine
 10
291.147034
 20
479.724243
 30
0.0
 11
218.647034
 21
479.724243
 31
0.0
  0
LINE
  5
41C
330
1F
100
AcDbEntity
  8
0
 62
     7
100
AcDbLine
 10
291.147034
 20
480.212158
 30
0.0
 11
291.147034
 21
479.724243
 31
0.0
  0
LINE
  5
41D
330
1F
100
AcDbEntity
  8
0
 62
     7
100
AcDbLine
 10
291.147034
 20
480.299988
 30
0.0
 11
291.147034
 21
480.212158
 31
0.0
  0
LINE
  5
41E
330
1F
100
AcDbEntity
  8
0
 62
     7
100
AcDbLine
 10
1022.147034
 20
452.399963
 30
0.0
 11
1022.147034
 21
451.899963
 31
0.0
  0
LINE
  5
41F
330
1F
100
AcDbEntity
  8
0
 62
     7
100
AcDbLine
 10
1022.147034
 20
479.49292
 30
0.0
 11
1022.147034
 21
452.399963
 31
0.0
  0
LINE
  5
420
330
1F
100
AcDbEntity
  8
0
 62
     7
100
AcDbLine
 10
1022.147034
 20
479.846436
 30
0.0
 11
1022.147034
 21
479.49292
 31
0.0
  0
LINE
  5
421
330
1F
100
AcDbEntity
  8
0
 62
     7
100
AcDbLine
 10
1022.147034
 20
480.531128
 30
0.0
 11
1022.147034
 21
479.846436
 31
0.0
  0
LINE
  5
422
330
1F
100
AcDbEntity
  8
0
 62
     7
100
AcDbLine
 10
949.147034
 20
474.770691
 30
0.0
 11
949.147034
 21
474.900024
 31
0.0
  0
LINE
  5
423
330
1F
100
AcDbEntity
  8
0
 62
     7
100
AcDbLine
 10
949.147034
 20
474.629272
 30
0.0
 11
949.147034
 21
474.770691
 31
0.0
  0
LINE
  5
424
330
1F
100
AcDbEntity
  8
0
 62
     7
100
AcDbLine
 10
949.147034
 20
474.629272
 30
0.0
 11
949.147034
 21
474.599976
 31
0.0
  0
ARC
  5
425
330
1F
100
AcDbEntity
  8
0
 62
     7
100
AcDbCircle
 10
947.647034
 20
474.599976
 30
0.0
 40
1.5
100
AcDbArc
 50
314.454478
 51
356.177454
  0
LINE
  5
426
330
1F
100
AcDbEntity
  8
0
 62
     7
100
AcDbLine
 10
949.143677
 20
474.5
 30
0.0
 11
949.147034
 21
474.599976
 31
0.0
  0
LINE
  5
427
330
1F
100
AcDbEntity
  8
0
 62
     7
100
AcDbLine
 10
946.797058
 20
474.099976
 30
0.0
 11
947.647034
 21
474.099976
 31
0.0
  0
ARC
  5
428
330
1F
100
AcDbEntity
  8
0
 62
     7
100
AcDbCircle
 10
947.647034
 20
474.599976
 30
0.0
 40
0.5
100
AcDbArc
 50
269.999997
 51
360.0
  0
LINE
  5
429
330
1F
100
AcDbEntity
  8
0
 62
     7
100
AcDbLine
 10
948.147034
 20
474.900024
 30
0.0
 11
948.147034
 21
479.724243
 31
0.0
  0
LINE
  5
42A
330
1F
100
AcDbEntity
  8
0
 62
     7
100
AcDbLine
 10
948.147034
 20
480.212158
 30
0.0
 11
948.147034
 21
479.724243
 31
0.0
  0
LINE
  5
42B
330
1F
100
AcDbEntity
  8
0
 62
     7
100
AcDbLine
 10
948.147034
 20
480.299988
 30
0.0
 11
948.147034
 21
480.212158
 31
0.0
  0
LINE
  5
42C
330
1F
100
AcDbEntity
  8
0
 62
     7
100
AcDbLine
 10
948.147034
 20
474.629272
 30
0.0
 11
948.147034
 21
474.599976
 31
0.0
  0
LINE
  5
42D
330
1F
100
AcDbEntity
  8
0
 62
     7
100
AcDbLine
 10
948.147034
 20
474.770691
 30
0.0
 11
948.147034
 21
474.629272
 31
0.0
  0
LINE
  5
42E
330
1F
100
AcDbEntity
  8
0
 62
     7
100
AcDbLine
 10
948.147034
 20
474.770691
 30
0.0
 11
948.147034
 21
474.900024
 31
0.0
  0
LINE
  5
42F
330
1F
100
AcDbEntity
  8
0
 62
     7
100
AcDbLine
 10
942.147034
 20
480.212158
 30
0.0
 11
942.147034
 21
480.299988
 31
0.0
  0
LINE
  5
430
330
1F
100
AcDbEntity
  8
0
 62
     7
100
AcDbLine
 10
942.147034
 20
480.212158
 30
0.0
 11
942.147034
 21
479.724243
 31
0.0
  0
LINE
  5
431
330
1F
100
AcDbEntity
  8
0
 62
     7
100
AcDbLine
 10
942.147034
 20
474.900024
 30
0.0
 11
942.147034
 21
479.724243
 31
0.0
  0
LINE
  5
432
330
1F
100
AcDbEntity
  8
0
 62
     7
100
AcDbLine
 10
942.147034
 20
474.770691
 30
0.0
 11
942.147034
 21
474.900024
 31
0.0
  0
LINE
  5
433
330
1F
100
AcDbEntity
  8
0
 62
     7
100
AcDbLine
 10
942.147034
 20
474.629272
 30
0.0
 11
942.147034
 21
474.770691
 31
0.0
  0
LINE
  5
434
330
1F
100
AcDbEntity
  8
0
 62
     7
100
AcDbLine
 10
942.147034
 20
474.629272
 30
0.0
 11
942.147034
 21
474.599976
 31
0.0
  0
ARC
  5
435
330
1F
100
AcDbEntity
  8
0
 62
     7
100
AcDbCircle
 10
942.647034
 20
474.599976
 30
0.0
 40
0.5
100
AcDbArc
 50
180.000009
 51
269.999997
  0
LINE
  5
436
330
1F
100
AcDbEntity
  8
0
 62
     7
100
AcDbLine
 10
942.647034
 20
474.099976
 30
0.0
 11
943.497009
 21
474.099976
 31
0.0
  0
ARC
  5
437
330
1F
100
AcDbEntity
  8
0
 62
     7
100
AcDbCircle
 10
942.647034
 20
474.599976
 30
0.0
 40
1.5
100
AcDbArc
 50
183.822551
 51
212.230947
  0
LINE
  5
438
330
1F
100
AcDbEntity
  8
0
 62
     7
100
AcDbLine
 10
941.150391
 20
474.5
 30
0.0
 11
941.147034
 21
474.599976
 31
0.0
  0
LINE
  5
439
330
1F
100
AcDbEntity
  8
0
 62
     7
100
AcDbLine
 10
941.147034
 20
474.900024
 30
0.0
 11
941.147034
 21
479.724243
 31
0.0
  0
LINE
  5
43A
330
1F
100
AcDbEntity
  8
0
 62
     7
100
AcDbLine
 10
941.147034
 20
480.212158
 30
0.0
 11
941.147034
 21
479.724243
 31
0.0
  0
LINE
  5
43B
330
1F
100
AcDbEntity
  8
0
 62
     7
100
AcDbLine
 10
941.147034
 20
480.299988
 30
0.0
 11
941.147034
 21
480.212158
 31
0.0
  0
LINE
  5
43C
330
1F
100
AcDbEntity
  8
0
 62
     7
100
AcDbLine
 10
941.147034
 20
474.629272
 30
0.0
 11
941.147034
 21
474.599976
 31
0.0
  0
LINE
  5
43D
330
1F
100
AcDbEntity
  8
0
 62
     7
100
AcDbLine
 10
941.147034
 20
474.770691
 30
0.0
 11
941.147034
 21
474.629272
 31
0.0
  0
LINE
  5
43E
330
1F
100
AcDbEntity
  8
0
 62
     7
100
AcDbLine
 10
941.147034
 20
474.770691
 30
0.0
 11
941.147034
 21
474.900024
 31
0.0
  0
LINE
  5
43F
330
1F
100
AcDbEntity
  8
0
 62
     7
100
AcDbLine
 10
899.147034
 20
480.212158
 30
0.0
 11
899.147034
 21
480.299988
 31
0.0
  0
LINE
  5
440
330
1F
100
AcDbEntity
  8
0
 62
     7
100
AcDbLine
 10
899.147034
 20
480.212158
 30
0.0
 11
899.147034
 21
479.724243
 31
0.0
  0
LINE
  5
441
330
1F
100
AcDbEntity
  8
0
 62
     7
100
AcDbLine
 10
899.147034
 20
474.900024
 30
0.0
 11
899.147034
 21
479.724243
 31
0.0
  0
LINE
  5
442
330
1F
100
AcDbEntity
  8
0
 62
     7
100
AcDbLine
 10
899.147034
 20
474.770691
 30
0.0
 11
899.147034
 21
474.900024
 31
0.0
  0
LINE
  5
443
330
1F
100
AcDbEntity
  8
0
 62
     7
100
AcDbLine
 10
899.147034
 20
474.629272
 30
0.0
 11
899.147034
 21
474.770691
 31
0.0
  0
LINE
  5
444
330
1F
100
AcDbEntity
  8
0
 62
     7
100
AcDbLine
 10
899.147034
 20
474.629272
 30
0.0
 11
899.147034
 21
474.599976
 31
0.0
  0
ARC
  5
445
330
1F
100
AcDbEntity
  8
0
 62
     7
100
AcDbCircle
 10
897.647034
 20
474.599976
 30
0.0
 40
1.5
100
AcDbArc
 50
314.454478
 51
356.177454
  0
LINE
  5
446
330
1F
100
AcDbEntity
  8
0
 62
     7
100
AcDbLine
 10
899.143677
 20
474.5
 30
0.0
 11
899.147034
 21
474.599976
 31
0.0
  0
LINE
  5
447
330
1F
100
AcDbEntity
  8
0
 62
     7
100
AcDbLine
 10
896.797058
 20
474.099976
 30
0.0
 11
897.647034
 21
474.099976
 31
0.0
  0
ARC
  5
448
330
1F
100
AcDbEntity
  8
0
 62
     7
100
AcDbCircle
 10
897.647034
 20
474.599976
 30
0.0
 40
0.5
100
AcDbArc
 50
269.999997
 51
360.0
  0
LINE
  5
449
330
1F
100
AcDbEntity
  8
0
 62
     7
100
AcDbLine
 10
898.147034
 20
474.900024
 30
0.0
 11
898.147034
 21
479.724243
 31
0.0
  0
LINE
  5
44A
330
1F
100
AcDbEntity
  8
0
 62
     7
100
AcDbLine
 10
898.147034
 20
480.212158
 30
0.0
 11
898.147034
 21
479.724243
 31
0.0
  0
LINE
  5
44B
330
1F
100
AcDbEntity
  8
0
 62
     7
100
AcDbLine
 10
898.147034
 20
480.299988
 30
0.0
 11
898.147034
 21
480.212158
 31
0.0
  0
LINE
  5
44C
330
1F
100
AcDbEntity
  8
0
 62
     7
100
AcDbLine
 10
898.147034
 20
474.629272
 30
0.0
 11
898.147034
 21
474.599976
 31
0.0
  0
LINE
  5
44D
330
1F
100
AcDbEntity
  8
0
 62
     7
100
AcDbLine
 10
898.147034
 20
474.770691
 30
0.0
 11
898.147034
 21
474.629272
 31
0.0
  0
LINE
  5
44E
330
1F
100
AcDbEntity
  8
0
 62
     7
100
AcDbLine
 10
898.147034
 20
474.770691
 30
0.0
 11
898.147034
 21
474.900024
 31
0.0
  0
LINE
  5
44F
330
1F
100
AcDbEntity
  8
0
 62
     7
100
AcDbLine
 10
892.147034
 20
480.212158
 30
0.0
 11
892.147034
 21
480.299988
 31
0.0
  0
LINE
  5
450
330
1F
100
AcDbEntity
  8
0
 62
     7
100
AcDbLine
 10
892.147034
 20
480.212158
 30
0.0
 11
892.147034
 21
479.724243
 31
0.0
  0
LINE
  5
451
330
1F
100
AcDbEntity
  8
0
 62
     7
100
AcDbLine
 10
892.147034
 20
474.900024
 30
0.0
 11
892.147034
 21
479.724243
 31
0.0
  0
LINE
  5
452
330
1F
100
AcDbEntity
  8
0
 62
     7
100
AcDbLine
 10
892.147034
 20
474.770691
 30
0.0
 11
892.147034
 21
474.900024
 31
0.0
  0
LINE
  5
453
330
1F
100
AcDbEntity
  8
0
 62
     7
100
AcDbLine
 10
892.147034
 20
474.629272
 30
0.0
 11
892.147034
 21
474.770691
 31
0.0
  0
LINE
  5
454
330
1F
100
AcDbEntity
  8
0
 62
     7
100
AcDbLine
 10
892.147034
 20
474.629272
 30
0.0
 11
892.147034
 21
474.599976
 31
0.0
  0
ARC
  5
455
330
1F
100
AcDbEntity
  8
0
 62
     7
100
AcDbCircle
 10
892.647034
 20
474.599976
 30
0.0
 40
0.5
100
AcDbArc
 50
180.000009
 51
269.999997
  0
LINE
  5
456
330
1F
100
AcDbEntity
  8
0
 62
     7
100
AcDbLine
 10
892.647034
 20
474.099976
 30
0.0
 11
893.497009
 21
474.099976
 31
0.0
  0
ARC
  5
457
330
1F
100
AcDbEntity
  8
0
 62
     7
100
AcDbCircle
 10
892.647034
 20
474.599976
 30
0.0
 40
1.5
100
AcDbArc
 50
183.822551
 51
212.230947
  0
LINE
  5
458
330
1F
100
AcDbEntity
  8
0
 62
     7
100
AcDbLine
 10
891.150391
 20
474.5
 30
0.0
 11
891.147034
 21
474.599976
 31
0.0
  0
LINE
  5
459
330
1F
100
AcDbEntity
  8
0
 62
     7
100
AcDbLine
 10
891.147034
 20
474.900024
 30
0.0
 11
891.147034
 21
479.724243
 31
0.0
  0
LINE
  5
45A
330
1F
100
AcDbEntity
  8
0
 62
     7
100
AcDbLine
 10
891.147034
 20
480.212158
 30
0.0
 11
891.147034
 21
479.724243
 31
0.0
  0
LINE
  5
45B
330
1F
100
AcDbEntity
  8
0
 62
     7
100
AcDbLine
 10
891.147034
 20
480.299988
 30
0.0
 11
891.147034
 21
480.212158
 31
0.0
  0
LINE
  5
45C
330
1F
100
AcDbEntity
  8
0
 62
     7
100
AcDbLine
 10
891.147034
 20
474.629272
 30
0.0
 11
891.147034
 21
474.599976
 31
0.0
  0
LINE
  5
45D
330
1F
100
AcDbEntity
  8
0
 62
     7
100
AcDbLine
 10
891.147034
 20
474.770691
 30
0.0
 11
891.147034
 21
474.629272
 31
0.0
  0
LINE
  5
45E
330
1F
100
AcDbEntity
  8
0
 62
     7
100
AcDbLine
 10
891.147034
 20
474.770691
 30
0.0
 11
891.147034
 21
474.900024
 31
0.0
  0
LINE
  5
45F
330
1F
100
AcDbEntity
  8
0
 62
     7
100
AcDbLine
 10
599.147034
 20
480.212158
 30
0.0
 11
599.147034
 21
480.299988
 31
0.0
  0
LINE
  5
460
330
1F
100
AcDbEntity
  8
0
 62
     7
100
AcDbLine
 10
599.147034
 20
480.212158
 30
0.0
 11
599.147034
 21
479.724243
 31
0.0
  0
LINE
  5
461
330
1F
100
AcDbEntity
  8
0
 62
     7
100
AcDbLine
 10
599.147034
 20
474.900024
 30
0.0
 11
599.147034
 21
479.724243
 31
0.0
  0
LINE
  5
462
330
1F
100
AcDbEntity
  8
0
 62
     7
100
AcDbLine
 10
599.147034
 20
474.770691
 30
0.0
 11
599.147034
 21
474.900024
 31
0.0
  0
LINE
  5
463
330
1F
100
AcDbEntity
  8
0
 62
     7
100
AcDbLine
 10
599.147034
 20
474.629272
 30
0.0
 11
599.147034
 21
474.770691
 31
0.0
  0
LINE
  5
464
330
1F
100
AcDbEntity
  8
0
 62
     7
100
AcDbLine
 10
599.147034
 20
474.629272
 30
0.0
 11
599.147034
 21
474.599976
 31
0.0
  0
ARC
  5
465
330
1F
100
AcDbEntity
  8
0
 62
     7
100
AcDbCircle
 10
597.647034
 20
474.599976
 30
0.0
 40
1.5
100
AcDbArc
 50
314.454478
 51
356.177454
  0
LINE
  5
466
330
1F
100
AcDbEntity
  8
0
 62
     7
100
AcDbLine
 10
599.143677
 20
474.5
 30
0.0
 11
599.147034
 21
474.599976
 31
0.0
  0
LINE
  5
467
330
1F
100
AcDbEntity
  8
0
 62
     7
100
AcDbLine
 10
596.796997
 20
474.099976
 30
0.0
 11
597.647034
 21
474.099976
 31
0.0
  0
ARC
  5
468
330
1F
100
AcDbEntity
  8
0
 62
     7
100
AcDbCircle
 10
597.647034
 20
474.599976
 30
0.0
 40
0.5
100
AcDbArc
 50
269.999997
 51
360.0
  0
LINE
  5
469
330
1F
100
AcDbEntity
  8
0
 62
     7
100
AcDbLine
 10
598.147034
 20
474.900024
 30
0.0
 11
598.147034
 21
479.724243
 31
0.0
  0
LINE
  5
46A
330
1F
100
AcDbEntity
  8
0
 62
     7
100
AcDbLine
 10
598.147034
 20
480.212158
 30
0.0
 11
598.147034
 21
479.724243
 31
0.0
  0
LINE
  5
46B
330
1F
100
AcDbEntity
  8
0
 62
     7
100
AcDbLine
 10
598.147034
 20
480.299988
 30
0.0
 11
598.147034
 21
480.212158
 31
0.0
  0
LINE
  5
46C
330
1F
100
AcDbEntity
  8
0
 62
     7
100
AcDbLine
 10
598.147034
 20
474.629272
 30
0.0
 11
598.147034
 21
474.599976
 31
0.0
  0
LINE
  5
46D
330
1F
100
AcDbEntity
  8
0
 62
     7
100
AcDbLine
 10
598.147034
 20
474.770691
 30
0.0
 11
598.147034
 21
474.629272
 31
0.0
  0
LINE
  5
46E
330
1F
100
AcDbEntity
  8
0
 62
     7
100
AcDbLine
 10
598.147034
 20
474.770691
 30
0.0
 11
598.147034
 21
474.900024
 31
0.0
  0
LINE
  5
46F
330
1F
100
AcDbEntity
  8
0
 62
     7
100
AcDbLine
 10
592.147034
 20
480.212158
 30
0.0
 11
592.147034
 21
480.299988
 31
0.0
  0
LINE
  5
470
330
1F
100
AcDbEntity
  8
0
 62
     7
100
AcDbLine
 10
592.147034
 20
480.212158
 30
0.0
 11
592.147034
 21
479.724243
 31
0.0
  0
LINE
  5
471
330
1F
100
AcDbEntity
  8
0
 62
     7
100
AcDbLine
 10
592.147034
 20
474.900024
 30
0.0
 11
592.147034
 21
479.724243
 31
0.0
  0
LINE
  5
472
330
1F
100
AcDbEntity
  8
0
 62
     7
100
AcDbLine
 10
592.147034
 20
474.770691
 30
0.0
 11
592.147034
 21
474.900024
 31
0.0
  0
LINE
  5
473
330
1F
100
AcDbEntity
  8
0
 62
     7
100
AcDbLine
 10
592.147034
 20
474.629272
 30
0.0
 11
592.147034
 21
474.770691
 31
0.0
  0
LINE
  5
474
330
1F
100
AcDbEntity
  8
0
 62
     7
100
AcDbLine
 10
592.147034
 20
474.629272
 30
0.0
 11
592.147034
 21
474.599976
 31
0.0
  0
ARC
  5
475
330
1F
100
AcDbEntity
  8
0
 62
     7
100
AcDbCircle
 10
592.647034
 20
474.599976
 30
0.0
 40
0.5
100
AcDbArc
 50
180.000009
 51
269.999997
  0
LINE
  5
476
330
1F
100
AcDbEntity
  8
0
 62
     7
100
AcDbLine
 10
592.647034
 20
474.099976
 30
0.0
 11
593.49707
 21
474.099976
 31
0.0
  0
ARC
  5
477
330
1F
100
AcDbEntity
  8
0
 62
     7
100
AcDbCircle
 10
592.647034
 20
474.599976
 30
0.0
 40
1.5
100
AcDbArc
 50
183.822551
 51
212.230947
  0
LINE
  5
478
330
1F
100
AcDbEntity
  8
0
 62
     7
100
AcDbLine
 10
591.150391
 20
474.5
 30
0.0
 11
591.147034
 21
474.599976
 31
0.0
  0
LINE
  5
479
330
1F
100
AcDbEntity
  8
0
 62
     7
100
AcDbLine
 10
591.147034
 20
474.900024
 30
0.0
 11
591.147034
 21
479.724243
 31
0.0
  0
LINE
  5
47A
330
1F
100
AcDbEntity
  8
0
 62
     7
100
AcDbLine
 10
591.147034
 20
480.212158
 30
0.0
 11
591.147034
 21
479.724243
 31
0.0
  0
LINE
  5
47B
330
1F
100
AcDbEntity
  8
0
 62
     7
100
AcDbLine
 10
591.147034
 20
480.299988
 30
0.0
 11
591.147034
 21
480.212158
 31
0.0
  0
LINE
  5
47C
330
1F
100
AcDbEntity
  8
0
 62
     7
100
AcDbLine
 10
591.147034
 20
474.629272
 30
0.0
 11
591.147034
 21
474.599976
 31
0.0
  0
LINE
  5
47D
330
1F
100
AcDbEntity
  8
0
 62
     7
100
AcDbLine
 10
591.147034
 20
474.770691
 30
0.0
 11
591.147034
 21
474.629272
 31
0.0
  0
LINE
  5
47E
330
1F
100
AcDbEntity
  8
0
 62
     7
100
AcDbLine
 10
591.147034
 20
474.770691
 30
0.0
 11
591.147034
 21
474.900024
 31
0.0
  0
LINE
  5
47F
330
1F
100
AcDbEntity
  8
0
 62
     7
100
AcDbLine
 10
299.147034
 20
480.212158
 30
0.0
 11
299.147034
 21
480.299988
 31
0.0
  0
LINE
  5
480
330
1F
100
AcDbEntity
  8
0
 62
     7
100
AcDbLine
 10
299.147034
 20
480.212158
 30
0.0
 11
299.147034
 21
479.724243
 31
0.0
  0
LINE
  5
481
330
1F
100
AcDbEntity
  8
0
 62
     7
100
AcDbLine
 10
299.147034
 20
474.900024
 30
0.0
 11
299.147034
 21
479.724243
 31
0.0
  0
LINE
  5
482
330
1F
100
AcDbEntity
  8
0
 62
     7
100
AcDbLine
 10
299.147034
 20
474.770691
 30
0.0
 11
299.147034
 21
474.900024
 31
0.0
  0
LINE
  5
483
330
1F
100
AcDbEntity
  8
0
 62
     7
100
AcDbLine
 10
299.147034
 20
474.629272
 30
0.0
 11
299.147034
 21
474.770691
 31
0.0
  0
LINE
  5
484
330
1F
100
AcDbEntity
  8
0
 62
     7
100
AcDbLine
 10
299.147034
 20
474.629272
 30
0.0
 11
299.147034
 21
474.599976
 31
0.0
  0
ARC
  5
485
330
1F
100
AcDbEntity
  8
0
 62
     7
100
AcDbCircle
 10
297.647034
 20
474.599976
 30
0.0
 40
1.5
100
AcDbArc
 50
314.454478
 51
356.177454
  0
LINE
  5
486
330
1F
100
AcDbEntity
  8
0
 62
     7
100
AcDbLine
 10
299.143677
 20
474.5
 30
0.0
 11
299.147034
 21
474.599976
 31
0.0
  0
LINE
  5
487
330
1F
100
AcDbEntity
  8
0
 62
     7
100
AcDbLine
 10
296.797058
 20
474.099976
 30
0.0
 11
297.647034
 21
474.099976
 31
0.0
  0
ARC
  5
488
330
1F
100
AcDbEntity
  8
0
 62
     7
100
AcDbCircle
 10
297.647034
 20
474.599976
 30
0.0
 40
0.5
100
AcDbArc
 50
269.999997
 51
360.0
  0
LINE
  5
489
330
1F
100
AcDbEntity
  8
0
 62
     7
100
AcDbLine
 10
298.147034
 20
474.900024
 30
0.0
 11
298.147034
 21
479.724243
 31
0.0
  0
LINE
  5
48A
330
1F
100
AcDbEntity
  8
0
 62
     7
100
AcDbLine
 10
298.147034
 20
480.212158
 30
0.0
 11
298.147034
 21
479.724243
 31
0.0
  0
LINE
  5
48B
330
1F
100
AcDbEntity
  8
0
 62
     7
100
AcDbLine
 10
298.147034
 20
480.299988
 30
0.0
 11
298.147034
 21
480.212158
 31
0.0
  0
LINE
  5
48C
330
1F
100
AcDbEntity
  8
0
 62
     7
100
AcDbLine
 10
298.147034
 20
474.629272
 30
0.0
 11
298.147034
 21
474.599976
 31
0.0
  0
LINE
  5
48D
330
1F
100
AcDbEntity
  8
0
 62
     7
100
AcDbLine
 10
298.147034
 20
474.770691
 30
0.0
 11
298.147034
 21
474.629272
 31
0.0
  0
LINE
  5
48E
330
1F
100
AcDbEntity
  8
0
 62
     7
100
AcDbLine
 10
298.147034
 20
474.770691
 30
0.0
 11
298.147034
 21
474.900024
 31
0.0
  0
LINE
  5
48F
330
1F
100
AcDbEntity
  8
0
 62
     7
100
AcDbLine
 10
292.147034
 20
480.212158
 30
0.0
 11
292.147034
 21
480.299988
 31
0.0
  0
LINE
  5
490
330
1F
100
AcDbEntity
  8
0
 62
     7
100
AcDbLine
 10
292.147034
 20
480.212158
 30
0.0
 11
292.147034
 21
479.724243
 31
0.0
  0
LINE
  5
491
330
1F
100
AcDbEntity
  8
0
 62
     7
100
AcDbLine
 10
292.147034
 20
474.900024
 30
0.0
 11
292.147034
 21
479.724243
 31
0.0
  0
LINE
  5
492
330
1F
100
AcDbEntity
  8
0
 62
     7
100
AcDbLine
 10
292.147034
 20
474.770691
 30
0.0
 11
292.147034
 21
474.900024
 31
0.0
  0
LINE
  5
493
330
1F
100
AcDbEntity
  8
0
 62
     7
100
AcDbLine
 10
292.147034
 20
474.629272
 30
0.0
 11
292.147034
 21
474.770691
 31
0.0
  0
LINE
  5
494
330
1F
100
AcDbEntity
  8
0
 62
     7
100
AcDbLine
 10
292.147034
 20
474.629272
 30
0.0
 11
292.147034
 21
474.599976
 31
0.0
  0
ARC
  5
495
330
1F
100
AcDbEntity
  8
0
 62
     7
100
AcDbCircle
 10
292.647034
 20
474.599976
 30
0.0
 40
0.5
100
AcDbArc
 50
180.000009
 51
269.999997
  0
LINE
  5
496
330
1F
100
AcDbEntity
  8
0
 62
     7
100
AcDbLine
 10
292.647034
 20
474.099976
 30
0.0
 11
293.497009
 21
474.099976
 31
0.0
  0
ARC
  5
497
330
1F
100
AcDbEntity
  8
0
 62
     7
100
AcDbCircle
 10
292.647034
 20
474.599976
 30
0.0
 40
1.5
100
AcDbArc
 50
183.822551
 51
212.230947
  0
LINE
  5
498
330
1F
100
AcDbEntity
  8
0
 62
     7
100
AcDbLine
 10
291.150391
 20
474.5
 30
0.0
 11
291.147034
 21
474.599976
 31
0.0
  0
LINE
  5
499
330
1F
100
AcDbEntity
  8
0
 62
     7
100
AcDbLine
 10
291.147034
 20
474.629272
 30
0.0
 11
291.147034
 21
474.599976
 31
0.0
  0
LINE
  5
49A
330
1F
100
AcDbEntity
  8
0
 62
     7
100
AcDbLine
 10
291.147034
 20
474.770691
 30
0.0
 11
291.147034
 21
474.629272
 31
0.0
  0
LINE
  5
49B
330
1F
100
AcDbEntity
  8
0
 62
     7
100
AcDbLine
 10
291.147034
 20
474.770691
 30
0.0
 11
291.147034
 21
474.900024
 31
0.0
  0
LINE
  5
49C
330
1F
100
AcDbEntity
  8
0
 62
     7
100
AcDbLine
 10
218.147034
 20
479.846436
 30
0.0
 11
218.147034
 21
480.531128
 31
0.0
  0
LINE
  5
49D
330
1F
100
AcDbEntity
  8
0
 62
     7
100
AcDbLine
 10
218.147034
 20
479.49292
 30
0.0
 11
218.147034
 21
479.846436
 31
0.0
  0
LINE
  5
49E
330
1F
100
AcDbEntity
  8
0
 62
     7
100
AcDbLine
 10
218.147034
 20
452.400024
 30
0.0
 11
218.147034
 21
479.49292
 31
0.0
  0
LINE
  5
49F
330
1F
100
AcDbEntity
  8
0
 62
     7
100
AcDbLine
 10
218.147034
 20
451.900024
 30
0.0
 11
218.147034
 21
452.400024
 31
0.0
  0
LINE
  5
4A0
330
1F
100
AcDbEntity
  8
0
 62
     7
100
AcDbLine
 10
1022.147034
 20
483.099976
 30
0.0
 11
1022.147034
 21
480.531128
 31
0.0
  0
LINE
  5
4A1
330
1F
100
AcDbEntity
  8
0
 62
     7
100
AcDbLine
 10
218.147034
 20
483.099976
 30
0.0
 11
1022.147034
 21
483.099976
 31
0.0
  0
LINE
  5
4A2
330
1F
100
AcDbEntity
  8
0
 62
     7
100
AcDbLine
 10
218.147034
 20
483.099976
 30
0.0
 11
218.147034
 21
480.531128
 31
0.0
  0
LINE
  5
4A3
330
1F
100
AcDbEntity
  8
0
 62
     7
100
AcDbLine
 10
1022.147034
 20
453.599976
 30
0.0
 11
1021.647034
 21
453.599976
 31
0.0
  0
LINE
  5
4A4
330
1F
100
AcDbEntity
  8
0
 62
     7
100
AcDbLine
 10
1005.554077
 20
473.799988
 30
0.0
 11
948.915894
 21
473.799988
 31
0.0
  0
LINE
  5
4A5
330
1F
100
AcDbEntity
  8
0
 62
     7
100
AcDbLine
 10
1005.965698
 20
474.5
 30
0.0
 11
949.143677
 21
474.5
 31
0.0
  0
LINE
  5
4A6
330
1F
100
AcDbEntity
  8
0
 62
     7
100
AcDbLine
 10
946.338806
 20
473.799988
 30
0.0
 11
943.955261
 21
473.799988
 31
0.0
  0
LINE
  5
4A7
330
1F
100
AcDbEntity
  8
0
 62
     7
100
AcDbLine
 10
948.136902
 20
474.5
 30
0.0
 11
946.041443
 21
474.5
 31
0.0
  0
ARC
  5
4A8
330
1F
100
AcDbEntity
  8
0
 62
     7
100
AcDbCircle
 10
945.147034
 20
476.400024
 30
0.0
 40
2.099999904632568
100
AcDbArc
 50
237.479124
 51
295.208757
  0
LINE
  5
4A9
330
1F
100
AcDbEntity
  8
0
 62
     7
100
AcDbLine
 10
944.252625
 20
474.5
 30
0.0
 11
942.157166
 21
474.5
 31
0.0
  0
LINE
  5
4AA
330
1F
100
AcDbEntity
  8
0
 62
     7
100
AcDbLine
 10
896.338806
 20
473.799988
 30
0.0
 11
893.955261
 21
473.799988
 31
0.0
  0
LINE
  5
4AB
330
1F
100
AcDbEntity
  8
0
 62
     7
100
AcDbLine
 10
898.136902
 20
474.5
 30
0.0
 11
896.041443
 21
474.5
 31
0.0
  0
ARC
  5
4AC
330
1F
100
AcDbEntity
  8
0
 62
     7
100
AcDbCircle
 10
895.147034
 20
476.400024
 30
0.0
 40
2.099999904632568
100
AcDbArc
 50
237.479124
 51
295.208757
  0
LINE
  5
4AD
330
1F
100
AcDbEntity
  8
0
 62
     7
100
AcDbLine
 10
894.252625
 20
474.5
 30
0.0
 11
892.157166
 21
474.5
 31
0.0
  0
LINE
  5
4AE
330
1F
100
AcDbEntity
  8
0
 62
     7
100
AcDbLine
 10
596.338745
 20
473.799988
 30
0.0
 11
593.955322
 21
473.799988
 31
0.0
  0
LINE
  5
4AF
330
1F
100
AcDbEntity
  8
0
 62
     7
100
AcDbLine
 10
598.136963
 20
474.5
 30
0.0
 11
596.041504
 21
474.5
 31
0.0
  0
ARC
  5
4B0
330
1F
100
AcDbEntity
  8
0
 62
     7
100
AcDbCircle
 10
595.147034
 20
476.400024
 30
0.0
 40
2.099999904632568
100
AcDbArc
 50
237.479124
 51
295.208757
  0
LINE
  5
4B1
330
1F
100
AcDbEntity
  8
0
 62
     7
100
AcDbLine
 10
594.252563
 20
474.5
 30
0.0
 11
592.157104
 21
474.5
 31
0.0
  0
LINE
  5
4B2
330
1F
100
AcDbEntity
  8
0
 62
     7
100
AcDbLine
 10
296.338806
 20
473.799988
 30
0.0
 11
293.955322
 21
473.799988
 31
0.0
  0
LINE
  5
4B3
330
1F
100
AcDbEntity
  8
0
 62
     7
100
AcDbLine
 10
298.136963
 20
474.5
 30
0.0
 11
296.041443
 21
474.5
 31
0.0
  0
ARC
  5
4B4
330
1F
100
AcDbEntity
  8
0
 62
     7
100
AcDbCircle
 10
295.147034
 20
476.400024
 30
0.0
 40
2.099999904632568
100
AcDbArc
 50
237.479124
 51
295.208757
  0
LINE
  5
4B5
330
1F
100
AcDbEntity
  8
0
 62
     7
100
AcDbLine
 10
294.252625
 20
474.5
 30
0.0
 11
292.157166
 21
474.5
 31
0.0
  0
LINE
  5
4B6
330
1F
100
AcDbEntity
  8
0
 62
     7
100
AcDbLine
 10
291.150391
 20
474.5
 30
0.0
 11
234.328354
 21
474.5
 31
0.0
  0
LINE
  5
4B7
330
1F
100
AcDbEntity
  8
0
 62
     7
100
AcDbLine
 10
291.378174
 20
473.799988
 30
0.0
 11
234.73999
 21
473.799988
 31
0.0
  0
LINE
  5
4B8
330
1F
100
AcDbEntity
  8
0
 62
     7
100
AcDbLine
 10
218.147034
 20
453.599976
 30
0.0
 11
218.647034
 21
453.599976
 31
0.0
  0
LINE
  5
4B9
330
1F
100
AcDbEntity
  8
0
 62
     7
100
AcDbLine
 10
942.834534
 20
453.430359
 30
0.0
 11
944.134521
 21
456.930359
 31
0.0
  0
ARC
  5
4BA
330
1F
100
AcDbEntity
  8
0
 62
     7
100
AcDbCircle
 10
942.647034
 20
453.5
 30
0.0
 40
0.2000000029802322
100
AcDbArc
 50
200.37643
 51
339.623562
  0
LINE
  5
4BB
330
1F
100
AcDbEntity
  8
0
 62
     7
100
AcDbLine
 10
941.159546
 20
456.930359
 30
0.0
 11
942.459534
 21
453.430359
 31
0.0
  0
ARC
  5
4BC
330
1F
100
AcDbEntity
  8
0
 62
     7
100
AcDbCircle
 10
941.347046
 20
457.0
 30
0.0
 40
0.2000000029802322
100
AcDbArc
 50
90.000003
 51
200.37643
  0
LINE
  5
4BD
330
1F
100
AcDbEntity
  8
0
 62
     7
100
AcDbLine
 10
943.947021
 20
457.200012
 30
0.0
 11
941.347046
 21
457.200012
 31
0.0
  0
ARC
  5
4BE
330
1F
100
AcDbEntity
  8
0
 62
     7
100
AcDbCircle
 10
943.947021
 20
457.0
 30
0.0
 40
0.2000000029802322
100
AcDbArc
 50
339.623562
 51
90.000003
  0
LINE
  5
4BF
330
1F
100
AcDbEntity
  8
0
 62
     7
100
AcDbLine
 10
272.834534
 20
453.430359
 30
0.0
 11
274.134521
 21
456.930359
 31
0.0
  0
ARC
  5
4C0
330
1F
100
AcDbEntity
  8
0
 62
     7
100
AcDbCircle
 10
272.647034
 20
453.5
 30
0.0
 40
0.2000000029802322
100
AcDbArc
 50
200.37643
 51
339.623562
  0
LINE
  5
4C1
330
1F
100
AcDbEntity
  8
0
 62
     7
100
AcDbLine
 10
271.159546
 20
456.930359
 30
0.0
 11
272.459534
 21
453.430359
 31
0.0
  0
ARC
  5
4C2
330
1F
100
AcDbEntity
  8
0
 62
     7
100
AcDbCircle
 10
271.347046
 20
457.0
 30
0.0
 40
0.2000000029802322
100
AcDbArc
 50
90.000003
 51
200.37643
  0
LINE
  5
4C3
330
1F
100
AcDbEntity
  8
0
 62
     7
100
AcDbLine
 10
273.947021
 20
457.200012
 30
0.0
 11
271.347046
 21
457.200012
 31
0.0
  0
ARC
  5
4C4
330
1F
100
AcDbEntity
  8
0
 62
     7
100
AcDbCircle
 10
273.947021
 20
457.0
 30
0.0
 40
0.2000000029802322
100
AcDbArc
 50
339.623562
 51
90.000003
  0
LINE
  5
4C5
330
1F
100
AcDbEntity
  8
0
 62
     7
100
AcDbLine
 10
1023.147034
 20
451.899963
 30
0.0
 11
1022.147034
 21
451.899963
 31
0.0
  0
LINE
  5
4C6
330
1F
100
AcDbEntity
  8
0
 62
     7
100
AcDbLine
 10
1021.647034
 20
452.099976
 30
0.0
 11
1022.147034
 21
452.099976
 31
0.0
  0
LINE
  5
4C7
330
1F
100
AcDbEntity
  8
0
 62
     7
100
AcDbLine
 10
946.041443
 20
474.5
 30
0.0
 11
946.153809
 21
474.557068
 31
0.0
  0
ARC
  5
4C8
330
1F
100
AcDbEntity
  8
0
 62
     7
100
AcDbCircle
 10
945.147034
 20
476.400024
 30
0.0
 40
2.099999904632568
100
AcDbArc
 50
298.647887
 51
314.415304
  0
ARC
  5
4C9
330
1F
100
AcDbEntity
  8
0
 62
     7
100
AcDbCircle
 10
945.147034
 20
476.400024
 30
0.0
 40
2.099999904632568
100
AcDbArc
 50
314.415304
 51
237.479124
  0
LINE
  5
4CA
330
1F
100
AcDbEntity
  8
0
 62
     7
100
AcDbLine
 10
948.147034
 20
474.900024
 30
0.0
 11
946.616699
 21
474.900024
 31
0.0
  0
LINE
  5
4CB
330
1F
100
AcDbEntity
  8
0
 62
     7
100
AcDbLine
 10
948.147034
 20
479.724243
 30
0.0
 11
942.147034
 21
479.724243
 31
0.0
  0
LINE
  5
4CC
330
1F
100
AcDbEntity
  8
0
 62
     7
100
AcDbLine
 10
943.677368
 20
474.900024
 30
0.0
 11
942.147034
 21
474.900024
 31
0.0
  0
LINE
  5
4CD
330
1F
100
AcDbEntity
  8
0
 62
     7
100
AcDbLine
 10
941.378174
 20
473.799988
 30
0.0
 11
898.915894
 21
473.799988
 31
0.0
  0
LINE
  5
4CE
330
1F
100
AcDbEntity
  8
0
 62
     7
100
AcDbLine
 10
941.150391
 20
474.5
 30
0.0
 11
899.143677
 21
474.5
 31
0.0
  0
LINE
  5
4CF
330
1F
100
AcDbEntity
  8
0
 62
     7
100
AcDbLine
 10
941.147034
 20
474.900024
 30
0.0
 11
899.147034
 21
474.900024
 31
0.0
  0
LINE
  5
4D0
330
1F
100
AcDbEntity
  8
0
 62
     7
100
AcDbLine
 10
941.147034
 20
479.724243
 30
0.0
 11
899.147034
 21
479.724243
 31
0.0
  0
LINE
  5
4D1
330
1F
100
AcDbEntity
  8
0
 62
     7
100
AcDbLine
 10
896.041443
 20
474.5
 30
0.0
 11
896.153809
 21
474.557068
 31
0.0
  0
ARC
  5
4D2
330
1F
100
AcDbEntity
  8
0
 62
     7
100
AcDbCircle
 10
895.147034
 20
476.400024
 30
0.0
 40
2.099999904632568
100
AcDbArc
 50
298.647887
 51
314.415304
  0
LINE
  5
4D3
330
1F
100
AcDbEntity
  8
0
 62
     7
100
AcDbLine
 10
898.147034
 20
474.900024
 30
0.0
 11
896.616699
 21
474.900024
 31
0.0
  0
LINE
  5
4D4
330
1F
100
AcDbEntity
  8
0
 62
     7
100
AcDbLine
 10
898.147034
 20
479.724243
 30
0.0
 11
892.147034
 21
479.724243
 31
0.0
  0
LINE
  5
4D5
330
1F
100
AcDbEntity
  8
0
 62
     7
100
AcDbLine
 10
893.677368
 20
474.900024
 30
0.0
 11
892.147034
 21
474.900024
 31
0.0
  0
ARC
  5
4D6
330
1F
100
AcDbEntity
  8
0
 62
     7
100
AcDbCircle
 10
895.147034
 20
476.400024
 30
0.0
 40
2.099999904632568
100
AcDbArc
 50
314.415304
 51
237.479124
  0
LINE
  5
4D7
330
1F
100
AcDbEntity
  8
0
 62
     7
100
AcDbLine
 10
891.378174
 20
473.799988
 30
0.0
 11
598.915894
 21
473.799988
 31
0.0
  0
LINE
  5
4D8
330
1F
100
AcDbEntity
  8
0
 62
     7
100
AcDbLine
 10
891.150391
 20
474.5
 30
0.0
 11
599.143677
 21
474.5
 31
0.0
  0
LINE
  5
4D9
330
1F
100
AcDbEntity
  8
0
 62
     7
100
AcDbLine
 10
891.147034
 20
474.900024
 30
0.0
 11
599.147034
 21
474.900024
 31
0.0
  0
LINE
  5
4DA
330
1F
100
AcDbEntity
  8
0
 62
     7
100
AcDbLine
 10
891.147034
 20
479.724243
 30
0.0
 11
599.147034
 21
479.724243
 31
0.0
  0
LINE
  5
4DB
330
1F
100
AcDbEntity
  8
0
 62
     7
100
AcDbLine
 10
596.041504
 20
474.5
 30
0.0
 11
596.153809
 21
474.557068
 31
0.0
  0
ARC
  5
4DC
330
1F
100
AcDbEntity
  8
0
 62
     7
100
AcDbCircle
 10
595.147034
 20
476.400024
 30
0.0
 40
2.099999904632568
100
AcDbArc
 50
298.647887
 51
314.415304
  0
ARC
  5
4DD
330
1F
100
AcDbEntity
  8
0
 62
     7
100
AcDbCircle
 10
595.147034
 20
476.400024
 30
0.0
 40
2.099999904632568
100
AcDbArc
 50
314.415304
 51
237.479124
  0
LINE
  5
4DE
330
1F
100
AcDbEntity
  8
0
 62
     7
100
AcDbLine
 10
598.147034
 20
474.900024
 30
0.0
 11
596.616699
 21
474.900024
 31
0.0
  0
LINE
  5
4DF
330
1F
100
AcDbEntity
  8
0
 62
     7
100
AcDbLine
 10
598.147034
 20
479.724243
 30
0.0
 11
592.147034
 21
479.724243
 31
0.0
  0
LINE
  5
4E0
330
1F
100
AcDbEntity
  8
0
 62
     7
100
AcDbLine
 10
593.677368
 20
474.900024
 30
0.0
 11
592.147034
 21
474.900024
 31
0.0
  0
LINE
  5
4E1
330
1F
100
AcDbEntity
  8
0
 62
     7
100
AcDbLine
 10
591.150391
 20
474.5
 30
0.0
 11
299.143677
 21
474.5
 31
0.0
  0
LINE
  5
4E2
330
1F
100
AcDbEntity
  8
0
 62
     7
100
AcDbLine
 10
591.378174
 20
473.799988
 30
0.0
 11
298.915894
 21
473.799988
 31
0.0
  0
LINE
  5
4E3
330
1F
100
AcDbEntity
  8
0
 62
     7
100
AcDbLine
 10
591.147034
 20
474.900024
 30
0.0
 11
299.147034
 21
474.900024
 31
0.0
  0
LINE
  5
4E4
330
1F
100
AcDbEntity
  8
0
 62
     7
100
AcDbLine
 10
591.147034
 20
479.724243
 30
0.0
 11
299.147034
 21
479.724243
 31
0.0
  0
LINE
  5
4E5
330
1F
100
AcDbEntity
  8
0
 62
     7
100
AcDbLine
 10
296.041443
 20
474.5
 30
0.0
 11
296.153809
 21
474.557068
 31
0.0
  0
ARC
  5
4E6
330
1F
100
AcDbEntity
  8
0
 62
     7
100
AcDbCircle
 10
295.147034
 20
476.400024
 30
0.0
 40
2.099999904632568
100
AcDbArc
 50
298.647887
 51
314.415304
  0
LINE
  5
4E7
330
1F
100
AcDbEntity
  8
0
 62
     7
100
AcDbLine
 10
293.677368
 20
474.900024
 30
0.0
 11
292.147034
 21
474.900024
 31
0.0
  0
ARC
  5
4E8
330
1F
100
AcDbEntity
  8
0
 62
     7
100
AcDbCircle
 10
295.147034
 20
476.400024
 30
0.0
 40
2.099999904632568
100
AcDbArc
 50
314.415304
 51
237.479124
  0
LINE
  5
4E9
330
1F
100
AcDbEntity
  8
0
 62
     7
100
AcDbLine
 10
298.147034
 20
474.900024
 30
0.0
 11
296.61676
 21
474.900024
 31
0.0
  0
LINE
  5
4EA
330
1F
100
AcDbEntity
  8
0
 62
     7
100
AcDbLine
 10
298.147034
 20
479.724243
 30
0.0
 11
292.147034
 21
479.724243
 31
0.0
  0
LINE
  5
4EB
330
1F
100
AcDbEntity
  8
0
 62
     7
100
AcDbLine
 10
217.147034
 20
451.900024
 30
0.0
 11
218.147034
 21
451.900024
 31
0.0
  0
LINE
  5
4EC
330
1F
100
AcDbEntity
  8
0
 62
     7
100
AcDbLine
 10
218.147034
 20
452.099976
 30
0.0
 11
218.647034
 21
452.099976
 31
0.0
  0
CIRCLE
  5
4ED
330
1F
100
AcDbEntity
  8
0
 62
     7
100
AcDbCircle
 10
1012.647034
 20
470.099976
 30
0.0
 40
4.5
  0
CIRCLE
  5
4EE
330
1F
100
AcDbEntity
  8
0
 62
     7
100
AcDbCircle
 10
227.647034
 20
470.099976
 30
0.0
 40
4.5
  0
ARC
  5
4EF
330
1F
100
AcDbEntity
  8
0
 62
     7
100
AcDbCircle
 10
1023.147034
 20
452.899963
 30
0.0
 40
1.0
100
AcDbArc
 50
269.999997
 51
360.0
  0
LINE
  5
4F0
330
1F
100
AcDbEntity
  8
0
 62
     7
100
AcDbLine
 10
1024.146973
 20
479.285767
 30
0.0
 11
1024.146973
 21
452.899963
 31
0.0
  0
LINE
  5
4F1
330
1F
100
AcDbEntity
  8
0
 62
     7
100
AcDbLine
 10
1024.146973
 20
479.981384
 30
0.0
 11
1024.146973
 21
479.285767
 31
0.0
  0
LINE
  5
4F2
330
1F
100
AcDbEntity
  8
0
 62
     7
100
AcDbLine
 10
216.147034
 20
479.285767
 30
0.0
 11
216.147034
 21
479.981384
 31
0.0
  0
LINE
  5
4F3
330
1F
100
AcDbEntity
  8
0
 62
     7
100
AcDbLine
 10
216.147034
 20
452.900024
 30
0.0
 11
216.147034
 21
479.285767
 31
0.0
  0
ARC
  5
4F4
330
1F
100
AcDbEntity
  8
0
 62
     7
100
AcDbCircle
 10
217.147034
 20
452.900024
 30
0.0
 40
1.0
100
AcDbArc
 50
180.000009
 51
269.999997
  0
LINE
  5
4F5
330
1F
100
AcDbEntity
  8
0
 62
     7
100
AcDbLine
 10
1023.147034
 20
482.900024
 30
0.0
 11
1022.147034
 21
482.900024
 31
0.0
  0
LINE
  5
4F6
330
1F
100
AcDbEntity
  8
0
 62
     7
100
AcDbLine
 10
217.147034
 20
482.900024
 30
0.0
 11
218.147034
 21
482.900024
 31
0.0
  0
LINE
  5
4F7
330
1F
100
AcDbEntity
  8
0
 62
     7
100
AcDbLine
 10
1024.146973
 20
480.555908
 30
0.0
 11
1024.146973
 21
479.981384
 31
0.0
  0
LINE
  5
4F8
330
1F
100
AcDbEntity
  8
0
 62
     7
100
AcDbLine
 10
1024.146973
 20
481.900024
 30
0.0
 11
1024.146973
 21
480.555908
 31
0.0
  0
LINE
  5
4F9
330
1F
100
AcDbEntity
  8
0
 62
     7
100
AcDbLine
 10
216.147034
 20
479.981384
 30
0.0
 11
216.147034
 21
480.555908
 31
0.0
  0
LINE
  5
4FA
330
1F
100
AcDbEntity
  8
0
 62
     7
100
AcDbLine
 10
216.147034
 20
480.555908
 30
0.0
 11
216.147034
 21
481.900024
 31
0.0
  0
ARC
  5
4FB
330
1F
100
AcDbEntity
  8
0
 62
     7
100
AcDbCircle
 10
1012.647034
 20
470.799988
 30
0.0
 40
12.80000019073486
100
AcDbArc
 50
73.932611
 51
106.067387
  0
LINE
  5
4FC
330
1F
100
AcDbEntity
  8
0
 62
     7
100
AcDbLine
 10
610.647034
 20
483.099976
 30
0.0
 11
610.647095
 21
488.739868
 31
0.0
  0
ARC
  5
4FD
330
1F
100
AcDbEntity
  8
0
 62
     7
100
AcDbCircle
 10
620.147034
 20
470.799988
 30
0.0
 40
20.29999923706055
100
AcDbArc
 50
62.096726
 51
117.903272
  0
LINE
  5
4FE
330
1F
100
AcDbEntity
  8
0
 62
     7
100
AcDbLine
 10
629.647095
 20
488.739868
 30
0.0
 11
629.647034
 21
483.099976
 31
0.0
  0
CIRCLE
  5
4FF
330
1F
100
AcDbEntity
  8
0
 62
     7
100
AcDbCircle
 10
620.147095
 20
487.099976
 30
0.0
 40
2.5
  0
ARC
  5
500
330
1F
100
AcDbEntity
  8
0
 62
     7
100
AcDbCircle
 10
227.647034
 20
470.799988
 30
0.0
 40
12.80000019073486
100
AcDbArc
 50
73.932611
 51
106.067387
  0
ARC
  5
501
330
1F
100
AcDbEntity
  8
0
 62
     7
100
AcDbCircle
 10
1023.147034
 20
481.900024
 30
0.0
 40
1.0
100
AcDbArc
 50
0.0
 51
90.000003
  0
ARC
  5
502
330
1F
100
AcDbEntity
  8
0
 62
     7
100
AcDbCircle
 10
217.147034
 20
481.900024
 30
0.0
 40
1.0
100
AcDbArc
 50
90.000003
 51
180.000009
  0
CIRCLE
  5
503
330
1F
100
AcDbEntity
  8
0
 62
     7
100
AcDbCircle
 10
945.147034
 20
476.400024
 30
0.0
 40
2.0
  0
CIRCLE
  5
504
330
1F
100
AcDbEntity
  8
0
 62
     7
100
AcDbCircle
 10
895.147034
 20
476.400024
 30
0.0
 40
2.0
  0
CIRCLE
  5
505
330
1F
100
AcDbEntity
  8
0
 62
     7
100
AcDbCircle
 10
595.147034
 20
476.400024
 30
0.0
 40
2.0
  0
CIRCLE
  5
506
330
1F
100
AcDbEntity
  8
0
 62
     7
100
AcDbCircle
 10
295.147034
 20
476.400024
 30
0.0
 40
2.0
  0
LINE
  5
507
330
1F
100
AcDbEntity
  8
0
 62
     7
100
AcDbLine
 10
945.347046
 20
477.099976
 30
0.0
 11
945.347046
 21
477.599976
 31
0.0
  0
LINE
  5
508
330
1F
100
AcDbEntity
  8
0
 62
     7
100
AcDbLine
 10
945.347046
 20
477.599976
 30
0.0
 11
944.947021
 21
477.599976
 31
0.0
  0
LINE
  5
509
330
1F
100
AcDbEntity
  8
0
 62
     7
100
AcDbLine
 10
944.947021
 20
477.599976
 30
0.0
 11
944.947021
 21
477.099976
 31
0.0
  0
ARC
  5
50A
330
1F
100
AcDbEntity
  8
0
 62
     7
100
AcDbCircle
 10
944.447021
 20
477.099976
 30
0.0
 40
0.5
100
AcDbArc
 50
269.999997
 51
360.0
  0
LINE
  5
50B
330
1F
100
AcDbEntity
  8
0
 62
     7
100
AcDbLine
 10
944.447021
 20
476.599976
 30
0.0
 11
943.947021
 21
476.599976
 31
0.0
  0
LINE
  5
50C
330
1F
100
AcDbEntity
  8
0
 62
     7
100
AcDbLine
 10
943.947021
 20
476.599976
 30
0.0
 11
943.947021
 21
476.200012
 31
0.0
  0
LINE
  5
50D
330
1F
100
AcDbEntity
  8
0
 62
     7
100
AcDbLine
 10
943.947021
 20
476.200012
 30
0.0
 11
944.447021
 21
476.200012
 31
0.0
  0
ARC
  5
50E
330
1F
100
AcDbEntity
  8
0
 62
     7
100
AcDbCircle
 10
944.447021
 20
475.700012
 30
0.0
 40
0.5
100
AcDbArc
 50
0.0
 51
90.000003
  0
LINE
  5
50F
330
1F
100
AcDbEntity
  8
0
 62
     7
100
AcDbLine
 10
944.947021
 20
475.700012
 30
0.0
 11
944.947021
 21
475.200012
 31
0.0
  0
LINE
  5
510
330
1F
100
AcDbEntity
  8
0
 62
     7
100
AcDbLine
 10
944.947021
 20
475.200012
 30
0.0
 11
945.347046
 21
475.200012
 31
0.0
  0
LINE
  5
511
330
1F
100
AcDbEntity
  8
0
 62
     7
100
AcDbLine
 10
945.347046
 20
475.200012
 30
0.0
 11
945.347046
 21
475.700012
 31
0.0
  0
ARC
  5
512
330
1F
100
AcDbEntity
  8
0
 62
     7
100
AcDbCircle
 10
945.847046
 20
475.700012
 30
0.0
 40
0.5
100
AcDbArc
 50
90.000003
 51
180.000009
  0
LINE
  5
513
330
1F
100
AcDbEntity
  8
0
 62
     7
100
AcDbLine
 10
945.847046
 20
476.200012
 30
0.0
 11
946.347046
 21
476.200012
 31
0.0
  0
LINE
  5
514
330
1F
100
AcDbEntity
  8
0
 62
     7
100
AcDbLine
 10
946.347046
 20
476.200012
 30
0.0
 11
946.347046
 21
476.599976
 31
0.0
  0
LINE
  5
515
330
1F
100
AcDbEntity
  8
0
 62
     7
100
AcDbLine
 10
946.347046
 20
476.599976
 30
0.0
 11
945.847046
 21
476.599976
 31
0.0
  0
ARC
  5
516
330
1F
100
AcDbEntity
  8
0
 62
     7
100
AcDbCircle
 10
945.847046
 20
477.099976
 30
0.0
 40
0.5
100
AcDbArc
 50
180.000009
 51
269.999997
  0
LINE
  5
517
330
1F
100
AcDbEntity
  8
0
 62
     7
100
AcDbLine
 10
895.347046
 20
477.099976
 30
0.0
 11
895.347046
 21
477.599976
 31
0.0
  0
LINE
  5
518
330
1F
100
AcDbEntity
  8
0
 62
     7
100
AcDbLine
 10
895.347046
 20
477.599976
 30
0.0
 11
894.947021
 21
477.599976
 31
0.0
  0
LINE
  5
519
330
1F
100
AcDbEntity
  8
0
 62
     7
100
AcDbLine
 10
894.947021
 20
477.599976
 30
0.0
 11
894.947021
 21
477.099976
 31
0.0
  0
ARC
  5
51A
330
1F
100
AcDbEntity
  8
0
 62
     7
100
AcDbCircle
 10
894.447021
 20
477.099976
 30
0.0
 40
0.5
100
AcDbArc
 50
269.999997
 51
360.0
  0
LINE
  5
51B
330
1F
100
AcDbEntity
  8
0
 62
     7
100
AcDbLine
 10
894.447021
 20
476.599976
 30
0.0
 11
893.947021
 21
476.599976
 31
0.0
  0
LINE
  5
51C
330
1F
100
AcDbEntity
  8
0
 62
     7
100
AcDbLine
 10
893.947021
 20
476.599976
 30
0.0
 11
893.947021
 21
476.200012
 31
0.0
  0
LINE
  5
51D
330
1F
100
AcDbEntity
  8
0
 62
     7
100
AcDbLine
 10
893.947021
 20
476.200012
 30
0.0
 11
894.447021
 21
476.200012
 31
0.0
  0
ARC
  5
51E
330
1F
100
AcDbEntity
  8
0
 62
     7
100
AcDbCircle
 10
894.447021
 20
475.700012
 30
0.0
 40
0.5
100
AcDbArc
 50
0.0
 51
90.000003
  0
LINE
  5
51F
330
1F
100
AcDbEntity
  8
0
 62
     7
100
AcDbLine
 10
894.947021
 20
475.700012
 30
0.0
 11
894.947021
 21
475.200012
 31
0.0
  0
LINE
  5
520
330
1F
100
AcDbEntity
  8
0
 62
     7
100
AcDbLine
 10
894.947021
 20
475.200012
 30
0.0
 11
895.347046
 21
475.200012
 31
0.0
  0
LINE
  5
521
330
1F
100
AcDbEntity
  8
0
 62
     7
100
AcDbLine
 10
895.347046
 20
475.200012
 30
0.0
 11
895.347046
 21
475.700012
 31
0.0
  0
ARC
  5
522
330
1F
100
AcDbEntity
  8
0
 62
     7
100
AcDbCircle
 10
895.847046
 20
475.700012
 30
0.0
 40
0.5
100
AcDbArc
 50
90.000003
 51
180.000009
  0
LINE
  5
523
330
1F
100
AcDbEntity
  8
0
 62
     7
100
AcDbLine
 10
895.847046
 20
476.200012
 30
0.0
 11
896.347046
 21
476.200012
 31
0.0
  0
LINE
  5
524
330
1F
100
AcDbEntity
  8
0
 62
     7
100
AcDbLine
 10
896.347046
 20
476.200012
 30
0.0
 11
896.347046
 21
476.599976
 31
0.0
  0
LINE
  5
525
330
1F
100
AcDbEntity
  8
0
 62
     7
100
AcDbLine
 10
896.347046
 20
476.599976
 30
0.0
 11
895.847046
 21
476.599976
 31
0.0
  0
ARC
  5
526
330
1F
100
AcDbEntity
  8
0
 62
     7
100
AcDbCircle
 10
895.847046
 20
477.099976
 30
0.0
 40
0.5
100
AcDbArc
 50
180.000009
 51
269.999997
  0
LINE
  5
527
330
1F
100
AcDbEntity
  8
0
 62
     7
100
AcDbLine
 10
595.347046
 20
477.099976
 30
0.0
 11
595.347046
 21
477.599976
 31
0.0
  0
LINE
  5
528
330
1F
100
AcDbEntity
  8
0
 62
     7
100
AcDbLine
 10
595.347046
 20
477.599976
 30
0.0
 11
594.947021
 21
477.599976
 31
0.0
  0
LINE
  5
529
330
1F
100
AcDbEntity
  8
0
 62
     7
100
AcDbLine
 10
594.947021
 20
477.599976
 30
0.0
 11
594.947021
 21
477.099976
 31
0.0
  0
ARC
  5
52A
330
1F
100
AcDbEntity
  8
0
 62
     7
100
AcDbCircle
 10
594.447021
 20
477.099976
 30
0.0
 40
0.5
100
AcDbArc
 50
269.999997
 51
360.0
  0
LINE
  5
52B
330
1F
100
AcDbEntity
  8
0
 62
     7
100
AcDbLine
 10
594.447021
 20
476.599976
 30
0.0
 11
593.947021
 21
476.599976
 31
0.0
  0
LINE
  5
52C
330
1F
100
AcDbEntity
  8
0
 62
     7
100
AcDbLine
 10
593.947021
 20
476.599976
 30
0.0
 11
593.947021
 21
476.200012
 31
0.0
  0
LINE
  5
52D
330
1F
100
AcDbEntity
  8
0
 62
     7
100
AcDbLine
 10
593.947021
 20
476.200012
 30
0.0
 11
594.447021
 21
476.200012
 31
0.0
  0
ARC
  5
52E
330
1F
100
AcDbEntity
  8
0
 62
     7
100
AcDbCircle
 10
594.447021
 20
475.700012
 30
0.0
 40
0.5
100
AcDbArc
 50
0.0
 51
90.000003
  0
LINE
  5
52F
330
1F
100
AcDbEntity
  8
0
 62
     7
100
AcDbLine
 10
594.947021
 20
475.700012
 30
0.0
 11
594.947021
 21
475.200012
 31
0.0
  0
LINE
  5
530
330
1F
100
AcDbEntity
  8
0
 62
     7
100
AcDbLine
 10
594.947021
 20
475.200012
 30
0.0
 11
595.347046
 21
475.200012
 31
0.0
  0
LINE
  5
531
330
1F
100
AcDbEntity
  8
0
 62
     7
100
AcDbLine
 10
595.347046
 20
475.200012
 30
0.0
 11
595.347046
 21
475.700012
 31
0.0
  0
ARC
  5
532
330
1F
100
AcDbEntity
  8
0
 62
     7
100
AcDbCircle
 10
595.847046
 20
475.700012
 30
0.0
 40
0.5
100
AcDbArc
 50
90.000003
 51
180.000009
  0
LINE
  5
533
330
1F
100
AcDbEntity
  8
0
 62
     7
100
AcDbLine
 10
595.847046
 20
476.200012
 30
0.0
 11
596.347046
 21
476.200012
 31
0.0
  0
LINE
  5
534
330
1F
100
AcDbEntity
  8
0
 62
     7
100
AcDbLine
 10
596.347046
 20
476.200012
 30
0.0
 11
596.347046
 21
476.599976
 31
0.0
  0
LINE
  5
535
330
1F
100
AcDbEntity
  8
0
 62
     7
100
AcDbLine
 10
596.347046
 20
476.599976
 30
0.0
 11
595.847046
 21
476.599976
 31
0.0
  0
ARC
  5
536
330
1F
100
AcDbEntity
  8
0
 62
     7
100
AcDbCircle
 10
595.847046
 20
477.099976
 30
0.0
 40
0.5
100
AcDbArc
 50
180.000009
 51
269.999997
  0
LINE
  5
537
330
1F
100
AcDbEntity
  8
0
 62
     7
100
AcDbLine
 10
295.347046
 20
477.099976
 30
0.0
 11
295.347046
 21
477.599976
 31
0.0
  0
LINE
  5
538
330
1F
100
AcDbEntity
  8
0
 62
     7
100
AcDbLine
 10
295.347046
 20
477.599976
 30
0.0
 11
294.947021
 21
477.599976
 31
0.0
  0
LINE
  5
539
330
1F
100
AcDbEntity
  8
0
 62
     7
100
AcDbLine
 10
294.947021
 20
477.599976
 30
0.0
 11
294.947021
 21
477.099976
 31
0.0
  0
ARC
  5
53A
330
1F
100
AcDbEntity
  8
0
 62
     7
100
AcDbCircle
 10
294.447021
 20
477.099976
 30
0.0
 40
0.5
100
AcDbArc
 50
269.999997
 51
360.0
  0
LINE
  5
53B
330
1F
100
AcDbEntity
  8
0
 62
     7
100
AcDbLine
 10
294.447021
 20
476.599976
 30
0.0
 11
293.947021
 21
476.599976
 31
0.0
  0
LINE
  5
53C
330
1F
100
AcDbEntity
  8
0
 62
     7
100
AcDbLine
 10
293.947021
 20
476.599976
 30
0.0
 11
293.947021
 21
476.200012
 31
0.0
  0
LINE
  5
53D
330
1F
100
AcDbEntity
  8
0
 62
     7
100
AcDbLine
 10
293.947021
 20
476.200012
 30
0.0
 11
294.447021
 21
476.200012
 31
0.0
  0
ARC
  5
53E
330
1F
100
AcDbEntity
  8
0
 62
     7
100
AcDbCircle
 10
294.447021
 20
475.700012
 30
0.0
 40
0.5
100
AcDbArc
 50
0.0
 51
90.000003
  0
LINE
  5
53F
330
1F
100
AcDbEntity
  8
0
 62
     7
100
AcDbLine
 10
294.947021
 20
475.700012
 30
0.0
 11
294.947021
 21
475.200012
 31
0.0
  0
LINE
  5
540
330
1F
100
AcDbEntity
  8
0
 62
     7
100
AcDbLine
 10
294.947021
 20
475.200012
 30
0.0
 11
295.347046
 21
475.200012
 31
0.0
  0
LINE
  5
541
330
1F
100
AcDbEntity
  8
0
 62
     7
100
AcDbLine
 10
295.347046
 20
475.200012
 30
0.0
 11
295.347046
 21
475.700012
 31
0.0
  0
ARC
  5
542
330
1F
100
AcDbEntity
  8
0
 62
     7
100
AcDbCircle
 10
295.847046
 20
475.700012
 30
0.0
 40
0.5
100
AcDbArc
 50
90.000003
 51
180.000009
  0
LINE
  5
543
330
1F
100
AcDbEntity
  8
0
 62
     7
100
AcDbLine
 10
295.847046
 20
476.200012
 30
0.0
 11
296.347046
 21
476.200012
 31
0.0
  0
LINE
  5
544
330
1F
100
AcDbEntity
  8
0
 62
     7
100
AcDbLine
 10
296.347046
 20
476.200012
 30
0.0
 11
296.347046
 21
476.599976
 31
0.0
  0
LINE
  5
545
330
1F
100
AcDbEntity
  8
0
 62
     7
100
AcDbLine
 10
296.347046
 20
476.599976
 30
0.0
 11
295.847046
 21
476.599976
 31
0.0
  0
ARC
  5
546
330
1F
100
AcDbEntity
  8
0
 62
     7
100
AcDbCircle
 10
295.847046
 20
477.099976
 30
0.0
 40
0.5
100
AcDbArc
 50
180.000009
 51
269.999997
  0
LINE
  5
547
330
1F
100
AcDbEntity
  8
0
 62
     7
100
AcDbLine
 10
1024.146973
 20
456.549988
 30
0.0
 11
1024.146973
 21
459.450012
 31
0.0
  0
LINE
  5
548
330
1F
100
AcDbEntity
  8
0
 62
     7
100
AcDbLine
 10
1024.146973
 20
460.75
 30
0.0
 11
1024.146973
 21
463.650024
 31
0.0
  0
LINE
  5
549
330
1F
100
AcDbEntity
  8
0
 62
     7
100
AcDbLine
 10
949.147034
 20
480.299988
 30
0.0
 11
1021.647034
 21
480.299988
 31
0.0
  0
LINE
  5
54A
330
1F
100
AcDbEntity
  8
0
 62
     7
100
AcDbLine
 10
218.647034
 20
480.299988
 30
0.0
 11
291.147034
 21
480.299988
 31
0.0
  0
LINE
  5
54B
330
1F
100
AcDbEntity
  8
0
 62
     7
100
AcDbLine
 10
942.147034
 20
480.299988
 30
0.0
 11
948.147034
 21
480.299988
 31
0.0
  0
LINE
  5
54C
330
1F
100
AcDbEntity
  8
0
 62
     7
100
AcDbLine
 10
899.147034
 20
480.299988
 30
0.0
 11
941.147034
 21
480.299988
 31
0.0
  0
LINE
  5
54D
330
1F
100
AcDbEntity
  8
0
 62
     7
100
AcDbLine
 10
892.147034
 20
480.299988
 30
0.0
 11
898.147034
 21
480.299988
 31
0.0
  0
LINE
  5
54E
330
1F
100
AcDbEntity
  8
0
 62
     7
100
AcDbLine
 10
599.147034
 20
480.299988
 30
0.0
 11
891.147034
 21
480.299988
 31
0.0
  0
LINE
  5
54F
330
1F
100
AcDbEntity
  8
0
 62
     7
100
AcDbLine
 10
592.147034
 20
480.299988
 30
0.0
 11
598.147034
 21
480.299988
 31
0.0
  0
LINE
  5
550
330
1F
100
AcDbEntity
  8
0
 62
     7
100
AcDbLine
 10
299.147034
 20
480.299988
 30
0.0
 11
591.147034
 21
480.299988
 31
0.0
  0
LINE
  5
551
330
1F
100
AcDbEntity
  8
0
 62
     7
100
AcDbLine
 10
292.147034
 20
480.299988
 30
0.0
 11
298.147034
 21
480.299988
 31
0.0
  0
LINE
  5
552
330
1F
100
AcDbEntity
  8
0
 62
     7
100
AcDbLine
 10
351.547058
 20
449.599854
 30
0.0
 11
351.547058
 21
449.889954
 31
0.0
  0
LINE
  5
553
330
1F
100
AcDbEntity
  8
0
 62
     7
100
AcDbLine
 10
351.547058
 20
449.889954
 30
0.0
 11
351.347046
 21
450.093201
 31
0.0
  0
LINE
  5
554
330
1F
100
AcDbEntity
  8
0
 62
     7
100
AcDbLine
 10
351.347046
 20
449.759216
 30
0.0
 11
351.347046
 21
450.093201
 31
0.0
  0
LINE
  5
555
330
1F
100
AcDbEntity
  8
0
 62
     7
100
AcDbLine
 10
351.347046
 20
450.093201
 30
0.0
 11
350.347046
 21
450.093201
 31
0.0
  0
LINE
  5
556
330
1F
100
AcDbEntity
  8
0
 62
     7
100
AcDbLine
 10
350.347046
 20
450.093201
 30
0.0
 11
350.347046
 21
450.149963
 31
0.0
  0
LINE
  5
557
330
1F
100
AcDbEntity
  8
0
 62
     7
100
AcDbLine
 10
349.74707
 20
450.149963
 30
0.0
 11
350.347046
 21
450.149963
 31
0.0
  0
LINE
  5
558
330
1F
100
AcDbEntity
  8
0
 62
     7
100
AcDbLine
 10
349.74707
 20
449.799927
 30
0.0
 11
349.74707
 21
450.149963
 31
0.0
  0
LINE
  5
559
330
1F
100
AcDbEntity
  8
0
 62
     7
100
AcDbLine
 10
351.347046
 20
450.093201
 30
0.0
 11
350.347046
 21
450.093201
 31
0.0
  0
LINE
  5
55A
330
1F
100
AcDbEntity
  8
0
 62
     7
100
AcDbLine
 10
351.547058
 20
449.889954
 30
0.0
 11
351.347046
 21
450.093201
 31
0.0
  0
LINE
  5
55B
330
1F
100
AcDbEntity
  8
0
 62
     7
100
AcDbLine
 10
349.447021
 20
449.799988
 30
0.0
 11
349.447021
 21
449.899963
 31
0.0
  0
LINE
  5
55C
330
1F
100
AcDbEntity
  8
0
 62
     7
100
AcDbLine
 10
351.147034
 20
449.799988
 30
0.0
 11
349.147034
 21
449.799988
 31
0.0
  0
ARC
  5
55D
330
1F
100
AcDbEntity
  8
0
 62
     7
100
AcDbCircle
 10
349.147034
 20
450.299988
 30
0.0
 40
0.5
100
AcDbArc
 50
180.000009
 51
269.999997
  0
LINE
  5
55E
330
1F
100
AcDbEntity
  8
0
 62
     7
100
AcDbLine
 10
351.147034
 20
449.299988
 30
0.0
 11
351.50061
 21
449.653564
 31
0.0
  0
ARC
  5
55F
330
1F
100
AcDbEntity
  8
0
 62
     7
100
AcDbCircle
 10
351.147034
 20
449.299988
 30
0.0
 40
0.5
100
AcDbArc
 50
0.0
 51
89.999559
  0
LINE
  5
560
330
1F
100
AcDbEntity
  8
0
 62
     7
100
AcDbLine
 10
351.647034
 20
426.200012
 30
0.0
 11
351.647034
 21
449.299988
 31
0.0
  0
ARC
  5
561
330
1F
100
AcDbEntity
  8
0
 62
     7
100
AcDbCircle
 10
348.147034
 20
450.299988
 30
0.0
 40
0.5
100
AcDbArc
 50
0.0
 51
90.000003
  0
LINE
  5
562
330
1F
100
AcDbEntity
  8
0
 62
     7
100
AcDbLine
 10
344.147034
 20
429.0
 30
0.0
 11
226.147034
 21
429.0
 31
0.0
  0
LINE
  5
563
330
1F
100
AcDbEntity
  8
0
 62
     7
100
AcDbLine
 10
274.296875
 20
443.857971
 30
0.0
 11
272.834534
 21
447.795227
 31
0.0
  0
ARC
  5
564
330
1F
100
AcDbEntity
  8
0
 62
     7
100
AcDbCircle
 10
274.109436
 20
443.78833
 30
0.0
 40
0.2000000029802322
100
AcDbArc
 50
269.999997
 51
20.376
  0
LINE
  5
565
330
1F
100
AcDbEntity
  8
0
 62
     7
100
AcDbLine
 10
271.184692
 20
443.588318
 30
0.0
 11
274.109436
 21
443.588318
 31
0.0
  0
ARC
  5
566
330
1F
100
AcDbEntity
  8
0
 62
     7
100
AcDbCircle
 10
271.184692
 20
443.78833
 30
0.0
 40
0.2000000029802322
100
AcDbArc
 50
159.624007
 51
269.999997
  0
LINE
  5
567
330
1F
100
AcDbEntity
  8
0
 62
     7
100
AcDbLine
 10
272.459534
 20
447.795227
 30
0.0
 11
270.997192
 21
443.857971
 31
0.0
  0
ARC
  5
568
330
1F
100
AcDbEntity
  8
0
 62
     7
100
AcDbCircle
 10
272.647034
 20
447.725586
 30
0.0
 40
0.2000000029802322
100
AcDbArc
 50
20.376
 51
159.624007
  0
LINE
  5
569
330
1F
100
AcDbEntity
  8
0
 62
     7
100
AcDbLine
 10
351.147034
 20
426.200012
 30
0.0
 11
351.397034
 21
425.950012
 31
0.0
  0
LINE
  5
56A
330
1F
100
AcDbEntity
  8
0
 62
     7
100
AcDbLine
 10
351.397034
 20
425.950012
 30
0.0
 11
351.647034
 21
426.200012
 31
0.0
  0
LINE
  5
56B
330
1F
100
AcDbEntity
  8
0
 62
     7
100
AcDbLine
 10
351.147034
 20
425.700012
 30
0.0
 11
351.397034
 21
425.950012
 31
0.0
  0
LINE
  5
56C
330
1F
100
AcDbEntity
  8
0
 62
     7
100
AcDbLine
 10
329.147034
 20
450.799988
 30
0.0
 11
330.147034
 21
450.799988
 31
0.0
  0
LINE
  5
56D
330
1F
100
AcDbEntity
  8
0
 62
     7
100
AcDbLine
 10
331.147034
 20
450.799988
 30
0.0
 11
330.147034
 21
450.799988
 31
0.0
  0
LINE
  5
56E
330
1F
100
AcDbEntity
  8
0
 62
     7
100
AcDbLine
 10
348.147034
 20
450.799988
 30
0.0
 11
331.147034
 21
450.799988
 31
0.0
  0
LINE
  5
56F
330
1F
100
AcDbEntity
  8
0
 62
     7
100
AcDbLine
 10
219.147034
 20
426.200012
 30
0.0
 11
218.897034
 21
425.950012
 31
0.0
  0
LINE
  5
570
330
1F
100
AcDbEntity
  8
0
 62
     7
100
AcDbLine
 10
219.147034
 20
449.299988
 30
0.0
 11
218.793472
 21
449.653564
 31
0.0
  0
ARC
  5
571
330
1F
100
AcDbEntity
  8
0
 62
     7
100
AcDbCircle
 10
219.147034
 20
449.299988
 30
0.0
 40
0.5
100
AcDbArc
 50
90.000003
 51
179.999554
  0
LINE
  5
572
330
1F
100
AcDbEntity
  8
0
 62
     7
100
AcDbLine
 10
218.647034
 20
449.299988
 30
0.0
 11
218.647034
 21
426.200012
 31
0.0
  0
LINE
  5
573
330
1F
100
AcDbEntity
  8
0
 62
     7
100
AcDbLine
 10
218.647034
 20
426.200012
 30
0.0
 11
218.897034
 21
425.950012
 31
0.0
  0
LINE
  5
574
330
1F
100
AcDbEntity
  8
0
 62
     7
100
AcDbLine
 10
226.147034
 20
425.700012
 30
0.0
 11
219.147034
 21
425.700012
 31
0.0
  0
LINE
  5
575
330
1F
100
AcDbEntity
  8
0
 62
     7
100
AcDbLine
 10
218.897034
 20
425.950012
 30
0.0
 11
219.147034
 21
425.700012
 31
0.0
  0
LINE
  5
576
330
1F
100
AcDbEntity
  8
0
 62
     7
100
AcDbLine
 10
226.647034
 20
426.200012
 30
0.0
 11
226.647034
 21
429.0
 31
0.0
  0
LINE
  5
577
330
1F
100
AcDbEntity
  8
0
 62
     7
100
AcDbLine
 10
343.647034
 20
426.200012
 30
0.0
 11
343.647034
 21
429.0
 31
0.0
  0
LINE
  5
578
330
1F
100
AcDbEntity
  8
0
 62
     7
100
AcDbLine
 10
351.147034
 20
425.700012
 30
0.0
 11
344.147034
 21
425.700012
 31
0.0
  0
LINE
  5
579
330
1F
100
AcDbEntity
  8
0
 62
     7
100
AcDbLine
 10
330.147034
 20
449.799988
 30
0.0
 11
316.147034
 21
449.799988
 31
0.0
  0
LINE
  5
57A
330
1F
100
AcDbEntity
  8
0
 62
     7
100
AcDbLine
 10
315.847046
 20
448.299988
 30
0.0
 11
315.847046
 21
449.5
 31
0.0
  0
ARC
  5
57B
330
1F
100
AcDbEntity
  8
0
 62
     7
100
AcDbCircle
 10
313.647034
 20
448.299988
 30
0.0
 40
2.200000047683716
100
AcDbArc
 50
180.000009
 51
360.0
  0
LINE
  5
57C
330
1F
100
AcDbEntity
  8
0
 62
     7
100
AcDbLine
 10
311.447021
 20
449.5
 30
0.0
 11
311.447021
 21
448.299988
 31
0.0
  0
LINE
  5
57D
330
1F
100
AcDbEntity
  8
0
 62
     7
100
AcDbLine
 10
311.147034
 20
449.799988
 30
0.0
 11
237.147034
 21
449.799988
 31
0.0
  0
LINE
  5
57E
330
1F
100
AcDbEntity
  8
0
 62
     7
100
AcDbLine
 10
236.847031
 20
448.299988
 30
0.0
 11
236.847031
 21
449.5
 31
0.0
  0
ARC
  5
57F
330
1F
100
AcDbEntity
  8
0
 62
     7
100
AcDbCircle
 10
234.647034
 20
448.299988
 30
0.0
 40
2.200000047683716
100
AcDbArc
 50
180.000009
 51
360.0
  0
ARC
  5
580
330
1F
100
AcDbEntity
  8
0
 62
     7
100
AcDbCircle
 10
238.313095
 20
447.799988
 30
0.0
 40
1.0
100
AcDbArc
 50
90.000003
 51
172.233561
  0
LINE
  5
581
330
1F
100
AcDbEntity
  8
0
 62
     7
100
AcDbLine
 10
238.313095
 20
448.799988
 30
0.0
 11
251.647034
 21
448.799988
 31
0.0
  0
ARC
  5
582
330
1F
100
AcDbEntity
  8
0
 62
     7
100
AcDbCircle
 10
251.647034
 20
445.799988
 30
0.0
 40
3.0
100
AcDbArc
 50
0.0
 51
90.000003
  0
LINE
  5
583
330
1F
100
AcDbEntity
  8
0
 62
     7
100
AcDbLine
 10
254.647034
 20
433.0
 30
0.0
 11
254.647034
 21
445.799988
 31
0.0
  0
ARC
  5
584
330
1F
100
AcDbEntity
  8
0
 62
     7
100
AcDbCircle
 10
251.647034
 20
433.0
 30
0.0
 40
3.0
100
AcDbArc
 50
269.999997
 51
360.0
  0
LINE
  5
585
330
1F
100
AcDbEntity
  8
0
 62
     7
100
AcDbLine
 10
251.647034
 20
430.0
 30
0.0
 11
237.647034
 21
430.0
 31
0.0
  0
ARC
  5
586
330
1F
100
AcDbEntity
  8
0
 62
     7
100
AcDbCircle
 10
237.647034
 20
433.0
 30
0.0
 40
3.0
100
AcDbArc
 50
180.000009
 51
269.999997
  0
LINE
  5
587
330
1F
100
AcDbEntity
  8
0
 62
     7
100
AcDbLine
 10
234.647034
 20
444.737671
 30
0.0
 11
234.647034
 21
433.0
 31
0.0
  0
ARC
  5
588
330
1F
100
AcDbEntity
  8
0
 62
     7
100
AcDbCircle
 10
235.647034
 20
444.737671
 30
0.0
 40
1.0
100
AcDbArc
 50
105.680348
 51
180.000009
  0
LINE
  5
589
330
1F
100
AcDbEntity
  8
0
 62
     7
100
AcDbLine
 10
232.447037
 20
449.5
 30
0.0
 11
232.447037
 21
448.299988
 31
0.0
  0
LINE
  5
58A
330
1F
100
AcDbEntity
  8
0
 62
     7
100
AcDbLine
 10
232.147034
 20
449.799988
 30
0.0
 11
231.647034
 21
449.799988
 31
0.0
  0
LINE
  5
58B
330
1F
100
AcDbEntity
  8
0
 62
     7
100
AcDbLine
 10
230.647034
 20
450.799988
 30
0.0
 11
222.147034
 21
450.799988
 31
0.0
  0
LINE
  5
58C
330
1F
100
AcDbEntity
  8
0
 62
     7
100
AcDbLine
 10
221.147034
 20
449.799988
 30
0.0
 11
219.147034
 21
449.799988
 31
0.0
  0
LINE
  5
58D
330
1F
100
AcDbEntity
  8
0
 62
     7
100
AcDbLine
 10
293.647034
 20
448.799988
 30
0.0
 11
307.647034
 21
448.799988
 31
0.0
  0
ARC
  5
58E
330
1F
100
AcDbEntity
  8
0
 62
     7
100
AcDbCircle
 10
307.647034
 20
445.799988
 30
0.0
 40
3.0
100
AcDbArc
 50
0.0
 51
90.000003
  0
LINE
  5
58F
330
1F
100
AcDbEntity
  8
0
 62
     7
100
AcDbLine
 10
310.647034
 20
433.0
 30
0.0
 11
310.647034
 21
445.799988
 31
0.0
  0
ARC
  5
590
330
1F
100
AcDbEntity
  8
0
 62
     7
100
AcDbCircle
 10
307.647034
 20
433.0
 30
0.0
 40
3.0
100
AcDbArc
 50
269.999997
 51
360.0
  0
LINE
  5
591
330
1F
100
AcDbEntity
  8
0
 62
     7
100
AcDbLine
 10
307.647034
 20
430.0
 30
0.0
 11
293.647034
 21
430.0
 31
0.0
  0
ARC
  5
592
330
1F
100
AcDbEntity
  8
0
 62
     7
100
AcDbCircle
 10
293.647034
 20
433.0
 30
0.0
 40
3.0
100
AcDbArc
 50
180.000009
 51
269.999997
  0
LINE
  5
593
330
1F
100
AcDbEntity
  8
0
 62
     7
100
AcDbLine
 10
290.647034
 20
445.799988
 30
0.0
 11
290.647034
 21
433.0
 31
0.0
  0
ARC
  5
594
330
1F
100
AcDbEntity
  8
0
 62
     7
100
AcDbCircle
 10
293.647034
 20
445.799988
 30
0.0
 40
3.0
100
AcDbArc
 50
90.000003
 51
180.000009
  0
LINE
  5
595
330
1F
100
AcDbEntity
  8
0
 62
     7
100
AcDbLine
 10
231.647034
 20
450.799988
 30
0.0
 11
230.647034
 21
450.799988
 31
0.0
  0
LINE
  5
596
330
1F
100
AcDbEntity
  8
0
 62
     7
100
AcDbLine
 10
232.647034
 20
450.799988
 30
0.0
 11
231.647034
 21
450.799988
 31
0.0
  0
LINE
  5
597
330
1F
100
AcDbEntity
  8
0
 62
     7
100
AcDbLine
 10
227.897034
 20
428.599976
 30
0.0
 11
227.897034
 21
429.0
 31
0.0
  0
LINE
  5
598
330
1F
100
AcDbEntity
  8
0
 62
     7
100
AcDbLine
 10
342.397034
 20
428.599976
 30
0.0
 11
342.397034
 21
429.0
 31
0.0
  0
LINE
  5
599
330
1F
100
AcDbEntity
  8
0
 62
     7
100
AcDbLine
 10
242.370239
 20
428.849976
 30
0.0
 11
242.170242
 21
428.849976
 31
0.0
  0
LINE
  5
59A
330
1F
100
AcDbEntity
  8
0
 62
     7
100
AcDbLine
 10
239.123825
 20
428.849976
 30
0.0
 11
242.170242
 21
428.849976
 31
0.0
  0
LINE
  5
59B
330
1F
100
AcDbEntity
  8
0
 62
     7
100
AcDbLine
 10
239.123825
 20
428.849976
 30
0.0
 11
238.923828
 21
428.849976
 31
0.0
  0
LINE
  5
59C
330
1F
100
AcDbEntity
  8
0
 62
     7
100
AcDbLine
 10
328.12384
 20
428.849976
 30
0.0
 11
327.923828
 21
428.849976
 31
0.0
  0
LINE
  5
59D
330
1F
100
AcDbEntity
  8
0
 62
     7
100
AcDbLine
 10
331.370239
 20
428.849976
 30
0.0
 11
331.170227
 21
428.849976
 31
0.0
  0
LINE
  5
59E
330
1F
100
AcDbEntity
  8
0
 62
     7
100
AcDbLine
 10
328.12384
 20
428.849976
 30
0.0
 11
331.170227
 21
428.849976
 31
0.0
  0
ARC
  5
59F
330
1F
100
AcDbEntity
  8
0
 62
     7
100
AcDbCircle
 10
331.147034
 20
450.299988
 30
0.0
 40
0.5
100
AcDbArc
 50
90.000003
 51
180.000009
  0
ARC
  5
5A0
330
1F
100
AcDbEntity
  8
0
 62
     7
100
AcDbCircle
 10
226.147034
 20
426.200012
 30
0.0
 40
0.5
100
AcDbArc
 50
269.999997
 51
360.0
  0
ARC
  5
5A1
330
1F
100
AcDbEntity
  8
0
 62
     7
100
AcDbCircle
 10
344.147034
 20
426.200012
 30
0.0
 40
0.5
100
AcDbArc
 50
180.000009
 51
269.999997
  0
ARC
  5
5A2
330
1F
100
AcDbEntity
  8
0
 62
     7
100
AcDbCircle
 10
330.147034
 20
450.299988
 30
0.0
 40
0.5
100
AcDbArc
 50
269.999997
 51
360.0
  0
LINE
  5
5A3
330
1F
100
AcDbEntity
  8
0
 62
     7
100
AcDbLine
 10
232.547043
 20
449.799988
 30
0.0
 11
232.147034
 21
449.799988
 31
0.0
  0
LINE
  5
5A4
330
1F
100
AcDbEntity
  8
0
 62
     7
100
AcDbLine
 10
232.547043
 20
449.799988
 30
0.0
 11
232.647034
 21
449.799988
 31
0.0
  0
ARC
  5
5A5
330
1F
100
AcDbEntity
  8
0
 62
     7
100
AcDbCircle
 10
316.147034
 20
449.5
 30
0.0
 40
0.300000011920929
100
AcDbArc
 50
90.000003
 51
180.000009
  0
ARC
  5
5A6
330
1F
100
AcDbEntity
  8
0
 62
     7
100
AcDbCircle
 10
311.147034
 20
449.5
 30
0.0
 40
0.300000011920929
100
AcDbArc
 50
0.0
 51
90.000003
  0
ARC
  5
5A7
330
1F
100
AcDbEntity
  8
0
 62
     7
100
AcDbCircle
 10
237.147034
 20
449.5
 30
0.0
 40
0.300000011920929
100
AcDbArc
 50
90.000003
 51
180.000009
  0
ARC
  5
5A8
330
1F
100
AcDbEntity
  8
0
 62
     7
100
AcDbCircle
 10
234.647034
 20
448.299988
 30
0.0
 40
2.700000047683716
100
AcDbArc
 50
285.680336
 51
352.233566
  0
CIRCLE
  5
5A9
330
1F
100
AcDbEntity
  8
0
 62
     7
100
AcDbCircle
 10
244.647034
 20
441.399963
 30
0.0
 40
4.5
  0
ARC
  5
5AA
330
1F
100
AcDbEntity
  8
0
 62
     7
100
AcDbCircle
 10
232.147034
 20
449.5
 30
0.0
 40
0.300000011920929
100
AcDbArc
 50
0.0
 51
90.000003
  0
ARC
  5
5AB
330
1F
100
AcDbEntity
  8
0
 62
     7
100
AcDbCircle
 10
231.647034
 20
450.299988
 30
0.0
 40
0.5
100
AcDbArc
 50
180.000009
 51
269.999997
  0
ARC
  5
5AC
330
1F
100
AcDbEntity
  8
0
 62
     7
100
AcDbCircle
 10
230.647034
 20
450.299988
 30
0.0
 40
0.5
100
AcDbArc
 50
0.0
 51
90.000003
  0
ARC
  5
5AD
330
1F
100
AcDbEntity
  8
0
 62
     7
100
AcDbCircle
 10
222.147034
 20
450.299988
 30
0.0
 40
0.5
100
AcDbArc
 50
90.000003
 51
180.000009
  0
ARC
  5
5AE
330
1F
100
AcDbEntity
  8
0
 62
     7
100
AcDbCircle
 10
221.147034
 20
450.299988
 30
0.0
 40
0.5
100
AcDbArc
 50
269.999997
 51
360.0
  0
CIRCLE
  5
5AF
330
1F
100
AcDbEntity
  8
0
 62
     7
100
AcDbCircle
 10
300.647034
 20
441.399963
 30
0.0
 40
4.5
  0
LINE
  5
5B0
330
1F
100
AcDbEntity
  8
0
 62
     7
100
AcDbLine
 10
220.847031
 20
449.799988
 30
0.0
 11
220.847031
 21
449.899963
 31
0.0
  0
LINE
  5
5B1
330
1F
100
AcDbEntity
  8
0
 62
     7
100
AcDbLine
 10
342.597046
 20
428.599976
 30
0.0
 11
343.597046
 21
428.599976
 31
0.0
  0
LINE
  5
5B2
330
1F
100
AcDbEntity
  8
0
 62
     7
100
AcDbLine
 10
342.597046
 20
428.599976
 30
0.0
 11
331.170227
 21
428.599976
 31
0.0
  0
LINE
  5
5B3
330
1F
100
AcDbEntity
  8
0
 62
     7
100
AcDbLine
 10
328.12384
 20
428.599976
 30
0.0
 11
242.170242
 21
428.599976
 31
0.0
  0
LINE
  5
5B4
330
1F
100
AcDbEntity
  8
0
 62
     7
100
AcDbLine
 10
239.123825
 20
428.599976
 30
0.0
 11
227.697037
 21
428.599976
 31
0.0
  0
LINE
  5
5B5
330
1F
100
AcDbEntity
  8
0
 62
     7
100
AcDbLine
 10
226.697037
 20
428.599976
 30
0.0
 11
227.697037
 21
428.599976
 31
0.0
  0
LINE
  5
5B6
330
1F
100
AcDbEntity
  8
0
 62
     7
100
AcDbLine
 10
342.597046
 20
426.099976
 30
0.0
 11
227.697037
 21
426.099976
 31
0.0
  0
LINE
  5
5B7
330
1F
100
AcDbEntity
  8
0
 62
     7
100
AcDbLine
 10
232.647034
 20
448.299988
 30
0.0
 11
232.647034
 21
450.299988
 31
0.0
  0
LINE
  5
5B8
330
1F
100
AcDbEntity
  8
0
 62
     7
100
AcDbLine
 10
232.647034
 20
450.799988
 30
0.0
 11
232.647034
 21
450.299988
 31
0.0
  0
LINE
  5
5B9
330
1F
100
AcDbEntity
  8
0
 62
     7
100
AcDbLine
 10
232.647034
 20
451.799988
 30
0.0
 11
232.647034
 21
450.799988
 31
0.0
  0
LINE
  5
5BA
330
1F
100
AcDbEntity
  8
0
 62
     7
100
AcDbLine
 10
329.147034
 20
449.799988
 30
0.0
 11
329.147034
 21
450.299988
 31
0.0
  0
LINE
  5
5BB
330
1F
100
AcDbEntity
  8
0
 62
     7
100
AcDbLine
 10
329.147034
 20
450.799988
 30
0.0
 11
329.147034
 21
450.299988
 31
0.0
  0
LINE
  5
5BC
330
1F
100
AcDbEntity
  8
0
 62
     7
100
AcDbLine
 10
329.147034
 20
451.799988
 30
0.0
 11
329.147034
 21
450.799988
 31
0.0
  0
ARC
  5
5BD
330
1F
100
AcDbEntity
  8
0
 62
     7
100
AcDbCircle
 10
234.647034
 20
448.299988
 30
0.0
 40
2.0
100
AcDbArc
 50
180.000009
 51
360.0
  0
LINE
  5
5BE
330
1F
100
AcDbEntity
  8
0
 62
     7
100
AcDbLine
 10
236.647034
 20
448.299988
 30
0.0
 11
236.647034
 21
449.799988
 31
0.0
  0
LINE
  5
5BF
330
1F
100
AcDbEntity
  8
0
 62
     7
100
AcDbLine
 10
237.147034
 20
449.799988
 30
0.0
 11
236.647034
 21
449.799988
 31
0.0
  0
LINE
  5
5C0
330
1F
100
AcDbEntity
  8
0
 62
     7
100
AcDbLine
 10
311.647034
 20
449.799988
 30
0.0
 11
311.147034
 21
449.799988
 31
0.0
  0
LINE
  5
5C1
330
1F
100
AcDbEntity
  8
0
 62
     7
100
AcDbLine
 10
311.647034
 20
448.299988
 30
0.0
 11
311.647034
 21
449.799988
 31
0.0
  0
ARC
  5
5C2
330
1F
100
AcDbEntity
  8
0
 62
     7
100
AcDbCircle
 10
313.647034
 20
448.299988
 30
0.0
 40
2.0
100
AcDbArc
 50
180.000009
 51
360.0
  0
LINE
  5
5C3
330
1F
100
AcDbEntity
  8
0
 62
     7
100
AcDbLine
 10
315.647034
 20
448.299988
 30
0.0
 11
315.647034
 21
449.799988
 31
0.0
  0
LINE
  5
5C4
330
1F
100
AcDbEntity
  8
0
 62
     7
100
AcDbLine
 10
316.147034
 20
449.799988
 30
0.0
 11
315.647034
 21
449.799988
 31
0.0
  0
LINE
  5
5C5
330
1F
100
AcDbEntity
  8
0
 62
     7
100
AcDbLine
 10
226.697037
 20
426.099976
 30
0.0
 11
226.697037
 21
428.599976
 31
0.0
  0
LINE
  5
5C6
330
1F
100
AcDbEntity
  8
0
 62
     7
100
AcDbLine
 10
343.597046
 20
426.099976
 30
0.0
 11
343.597046
 21
428.599976
 31
0.0
  0
LINE
  5
5C7
330
1F
100
AcDbEntity
  8
0
 62
     7
100
AcDbLine
 10
342.597046
 20
426.099976
 30
0.0
 11
343.597046
 21
426.099976
 31
0.0
  0
LINE
  5
5C8
330
1F
100
AcDbEntity
  8
0
 62
     7
100
AcDbLine
 10
226.697037
 20
426.099976
 30
0.0
 11
227.697037
 21
426.099976
 31
0.0
  0
LINE
  5
5C9
330
1F
100
AcDbEntity
  8
0
 62
     7
100
AcDbLine
 10
329.147034
 20
450.799988
 30
0.0
 11
232.647034
 21
450.799988
 31
0.0
  0
CIRCLE
  5
5CA
330
1F
100
AcDbEntity
  8
0
 62
     7
100
AcDbCircle
 10
244.647034
 20
441.399963
 30
0.0
 40
4.0
  0
CIRCLE
  5
5CB
330
1F
100
AcDbEntity
  8
0
 62
     7
100
AcDbCircle
 10
300.647034
 20
441.399963
 30
0.0
 40
4.0
  0
LINE
  5
5CC
330
1F
100
AcDbEntity
  8
0
 62
     7
100
AcDbLine
 10
220.547043
 20
450.149963
 30
0.0
 11
220.547043
 21
449.799927
 31
0.0
  0
CIRCLE
  5
5CD
330
1F
100
AcDbEntity
  8
0
 62
     7
100
AcDbCircle
 10
313.647034
 20
448.299988
 30
0.0
 40
1.475000023841858
  0
CIRCLE
  5
5CE
330
1F
100
AcDbEntity
  8
0
 62
     7
100
AcDbCircle
 10
234.647034
 20
448.299988
 30
0.0
 40
1.475000023841858
  0
LINE
  5
5CF
330
1F
100
AcDbEntity
  8
0
 62
     7
100
AcDbLine
 10
219.947037
 20
450.149963
 30
0.0
 11
219.947037
 21
450.093201
 31
0.0
  0
LINE
  5
5D0
330
1F
100
AcDbEntity
  8
0
 62
     7
100
AcDbLine
 10
218.947037
 20
450.093201
 30
0.0
 11
219.947037
 21
450.093201
 31
0.0
  0
LINE
  5
5D1
330
1F
100
AcDbEntity
  8
0
 62
     7
100
AcDbLine
 10
218.947037
 20
450.093201
 30
0.0
 11
218.947037
 21
449.759216
 31
0.0
  0
LINE
  5
5D2
330
1F
100
AcDbEntity
  8
0
 62
     7
100
AcDbLine
 10
220.547043
 20
450.149963
 30
0.0
 11
219.947037
 21
450.149963
 31
0.0
  0
LINE
  5
5D3
330
1F
100
AcDbEntity
  8
0
 62
     7
100
AcDbLine
 10
218.947037
 20
450.093201
 30
0.0
 11
219.947037
 21
450.093201
 31
0.0
  0
CIRCLE
  5
5D4
330
1F
100
AcDbEntity
  8
0
 62
     7
100
AcDbCircle
 10
244.647034
 20
441.399963
 30
0.0
 40
2.549999952316284
  0
CIRCLE
  5
5D5
330
1F
100
AcDbEntity
  8
0
 62
     7
100
AcDbCircle
 10
300.647034
 20
441.399963
 30
0.0
 40
2.549999952316284
  0
LINE
  5
5D6
330
1F
100
AcDbEntity
  8
0
 62
     7
100
AcDbLine
 10
218.747025
 20
449.889954
 30
0.0
 11
218.947037
 21
450.093201
 31
0.0
  0
LINE
  5
5D7
330
1F
100
AcDbEntity
  8
0
 62
     7
100
AcDbLine
 10
218.747025
 20
449.889954
 30
0.0
 11
218.747025
 21
449.599854
 31
0.0
  0
LINE
  5
5D8
330
1F
100
AcDbEntity
  8
0
 62
     7
100
AcDbLine
 10
313.447021
 20
449.399963
 30
0.0
 11
313.847046
 21
449.399963
 31
0.0
  0
LINE
  5
5D9
330
1F
100
AcDbEntity
  8
0
 62
     7
100
AcDbLine
 10
313.447021
 20
449.399963
 30
0.0
 11
313.447021
 21
448.75
 31
0.0
  0
ARC
  5
5DA
330
1F
100
AcDbEntity
  8
0
 62
     7
100
AcDbCircle
 10
313.197021
 20
448.75
 30
0.0
 40
0.25
100
AcDbArc
 50
269.999997
 51
360.0
  0
LINE
  5
5DB
330
1F
100
AcDbEntity
  8
0
 62
     7
100
AcDbLine
 10
313.197021
 20
448.5
 30
0.0
 11
312.547058
 21
448.5
 31
0.0
  0
LINE
  5
5DC
330
1F
100
AcDbEntity
  8
0
 62
     7
100
AcDbLine
 10
312.547058
 20
448.5
 30
0.0
 11
312.547058
 21
448.099976
 31
0.0
  0
LINE
  5
5DD
330
1F
100
AcDbEntity
  8
0
 62
     7
100
AcDbLine
 10
313.197021
 20
448.099976
 30
0.0
 11
312.547058
 21
448.099976
 31
0.0
  0
ARC
  5
5DE
330
1F
100
AcDbEntity
  8
0
 62
     7
100
AcDbCircle
 10
313.197021
 20
447.849976
 30
0.0
 40
0.25
100
AcDbArc
 50
0.0
 51
90.000003
  0
LINE
  5
5DF
330
1F
100
AcDbEntity
  8
0
 62
     7
100
AcDbLine
 10
313.447021
 20
447.200012
 30
0.0
 11
313.447021
 21
447.849976
 31
0.0
  0
LINE
  5
5E0
330
1F
100
AcDbEntity
  8
0
 62
     7
100
AcDbLine
 10
313.447021
 20
447.200012
 30
0.0
 11
313.847046
 21
447.200012
 31
0.0
  0
LINE
  5
5E1
330
1F
100
AcDbEntity
  8
0
 62
     7
100
AcDbLine
 10
313.847046
 20
447.200012
 30
0.0
 11
313.847046
 21
447.849976
 31
0.0
  0
ARC
  5
5E2
330
1F
100
AcDbEntity
  8
0
 62
     7
100
AcDbCircle
 10
314.097046
 20
447.849976
 30
0.0
 40
0.25
100
AcDbArc
 50
90.000003
 51
180.000009
  0
LINE
  5
5E3
330
1F
100
AcDbEntity
  8
0
 62
     7
100
AcDbLine
 10
314.097046
 20
448.099976
 30
0.0
 11
314.747009
 21
448.099976
 31
0.0
  0
LINE
  5
5E4
330
1F
100
AcDbEntity
  8
0
 62
     7
100
AcDbLine
 10
314.747009
 20
448.5
 30
0.0
 11
314.747009
 21
448.099976
 31
0.0
  0
LINE
  5
5E5
330
1F
100
AcDbEntity
  8
0
 62
     7
100
AcDbLine
 10
314.097046
 20
448.5
 30
0.0
 11
314.747009
 21
448.5
 31
0.0
  0
ARC
  5
5E6
330
1F
100
AcDbEntity
  8
0
 62
     7
100
AcDbCircle
 10
314.097046
 20
448.75
 30
0.0
 40
0.25
100
AcDbArc
 50
180.000009
 51
269.999997
  0
LINE
  5
5E7
330
1F
100
AcDbEntity
  8
0
 62
     7
100
AcDbLine
 10
313.847046
 20
449.399963
 30
0.0
 11
313.847046
 21
448.75
 31
0.0
  0
LINE
  5
5E8
330
1F
100
AcDbEntity
  8
0
 62
     7
100
AcDbLine
 10
234.447037
 20
449.399963
 30
0.0
 11
234.847031
 21
449.399963
 31
0.0
  0
LINE
  5
5E9
330
1F
100
AcDbEntity
  8
0
 62
     7
100
AcDbLine
 10
234.447037
 20
449.399963
 30
0.0
 11
234.447037
 21
448.75
 31
0.0
  0
ARC
  5
5EA
330
1F
100
AcDbEntity
  8
0
 62
     7
100
AcDbCircle
 10
234.197037
 20
448.75
 30
0.0
 40
0.25
100
AcDbArc
 50
269.999997
 51
360.0
  0
LINE
  5
5EB
330
1F
100
AcDbEntity
  8
0
 62
     7
100
AcDbLine
 10
234.197037
 20
448.5
 30
0.0
 11
233.547043
 21
448.5
 31
0.0
  0
LINE
  5
5EC
330
1F
100
AcDbEntity
  8
0
 62
     7
100
AcDbLine
 10
233.547043
 20
448.5
 30
0.0
 11
233.547043
 21
448.099976
 31
0.0
  0
LINE
  5
5ED
330
1F
100
AcDbEntity
  8
0
 62
     7
100
AcDbLine
 10
234.197037
 20
448.099976
 30
0.0
 11
233.547043
 21
448.099976
 31
0.0
  0
ARC
  5
5EE
330
1F
100
AcDbEntity
  8
0
 62
     7
100
AcDbCircle
 10
234.197037
 20
447.849976
 30
0.0
 40
0.25
100
AcDbArc
 50
0.0
 51
90.000003
  0
LINE
  5
5EF
330
1F
100
AcDbEntity
  8
0
 62
     7
100
AcDbLine
 10
234.447037
 20
447.200012
 30
0.0
 11
234.447037
 21
447.849976
 31
0.0
  0
LINE
  5
5F0
330
1F
100
AcDbEntity
  8
0
 62
     7
100
AcDbLine
 10
234.447037
 20
447.200012
 30
0.0
 11
234.847031
 21
447.200012
 31
0.0
  0
LINE
  5
5F1
330
1F
100
AcDbEntity
  8
0
 62
     7
100
AcDbLine
 10
234.847031
 20
447.200012
 30
0.0
 11
234.847031
 21
447.849976
 31
0.0
  0
ARC
  5
5F2
330
1F
100
AcDbEntity
  8
0
 62
     7
100
AcDbCircle
 10
235.097031
 20
447.849976
 30
0.0
 40
0.25
100
AcDbArc
 50
90.000003
 51
180.000009
  0
LINE
  5
5F3
330
1F
100
AcDbEntity
  8
0
 62
     7
100
AcDbLine
 10
235.097031
 20
448.099976
 30
0.0
 11
235.747025
 21
448.099976
 31
0.0
  0
LINE
  5
5F4
330
1F
100
AcDbEntity
  8
0
 62
     7
100
AcDbLine
 10
235.747025
 20
448.5
 30
0.0
 11
235.747025
 21
448.099976
 31
0.0
  0
LINE
  5
5F5
330
1F
100
AcDbEntity
  8
0
 62
     7
100
AcDbLine
 10
235.097031
 20
448.5
 30
0.0
 11
235.747025
 21
448.5
 31
0.0
  0
ARC
  5
5F6
330
1F
100
AcDbEntity
  8
0
 62
     7
100
AcDbCircle
 10
235.097031
 20
448.75
 30
0.0
 40
0.25
100
AcDbArc
 50
180.000009
 51
269.999997
  0
LINE
  5
5F7
330
1F
100
AcDbEntity
  8
0
 62
     7
100
AcDbLine
 10
234.847031
 20
449.399963
 30
0.0
 11
234.847031
 21
448.75
 31
0.0
  0
LINE
  5
5F8
330
1F
100
AcDbEntity
  8
0
 62
     7
100
AcDbLine
 10
463.046997
 20
349.900024
 30
0.0
 11
459.647034
 21
349.900024
 31
0.0
  0
LINE
  5
5F9
330
1F
100
AcDbEntity
  8
0
 62
     7
100
AcDbLine
 10
459.647034
 20
349.900024
 30
0.0
 11
456.247009
 21
349.900024
 31
0.0
  0
LINE
  5
5FA
330
1F
100
AcDbEntity
  8
0
 62
     7
100
AcDbLine
 10
380.24707
 20
438.450012
 30
0.0
 11
380.24707
 21
438.299988
 31
0.0
  0
LINE
  5
5FB
330
1F
100
AcDbEntity
  8
0
 62
     7
100
AcDbLine
 10
382.447021
 20
438.450012
 30
0.0
 11
382.447021
 21
438.299988
 31
0.0
  0
LINE
  5
5FC
330
1F
100
AcDbEntity
  8
0
 62
     7
100
AcDbLine
 10
384.647034
 20
438.450012
 30
0.0
 11
384.647034
 21
438.299988
 31
0.0
  0
LINE
  5
5FD
330
1F
100
AcDbEntity
  8
0
 62
     7
100
AcDbLine
 10
380.24707
 20
433.899963
 30
0.0
 11
380.24707
 21
430.764404
 31
0.0
  0
LINE
  5
5FE
330
1F
100
AcDbEntity
  8
0
 62
     7
100
AcDbLine
 10
380.24707
 20
430.764404
 30
0.0
 11
380.24707
 21
430.1875
 31
0.0
  0
LINE
  5
5FF
330
1F
100
AcDbEntity
  8
0
 62
     7
100
AcDbLine
 10
381.24707
 20
430.25
 30
0.0
 11
381.24707
 21
430.819214
 31
0.0
  0
LINE
  5
600
330
1F
100
AcDbEntity
  8
0
 62
     7
100
AcDbLine
 10
381.24707
 20
430.819214
 30
0.0
 11
381.24707
 21
433.899963
 31
0.0
  0
LINE
  5
601
330
1F
100
AcDbEntity
  8
0
 62
     7
100
AcDbLine
 10
382.447021
 20
433.899963
 30
0.0
 11
382.447021
 21
430.885071
 31
0.0
  0
LINE
  5
602
330
1F
100
AcDbEntity
  8
0
 62
     7
100
AcDbLine
 10
382.447021
 20
430.885071
 30
0.0
 11
382.447021
 21
430.325012
 31
0.0
  0
LINE
  5
603
330
1F
100
AcDbEntity
  8
0
 62
     7
100
AcDbLine
 10
383.447021
 20
430.387512
 30
0.0
 11
383.447021
 21
430.93988
 31
0.0
  0
LINE
  5
604
330
1F
100
AcDbEntity
  8
0
 62
     7
100
AcDbLine
 10
383.447021
 20
430.93988
 30
0.0
 11
383.447021
 21
433.899963
 31
0.0
  0
LINE
  5
605
330
1F
100
AcDbEntity
  8
0
 62
     7
100
AcDbLine
 10
384.647034
 20
433.899963
 30
0.0
 11
384.647034
 21
431.005737
 31
0.0
  0
LINE
  5
606
330
1F
100
AcDbEntity
  8
0
 62
     7
100
AcDbLine
 10
384.647034
 20
431.005737
 30
0.0
 11
384.647034
 21
430.462463
 31
0.0
  0
LINE
  5
607
330
1F
100
AcDbEntity
  8
0
 62
     7
100
AcDbLine
 10
385.647034
 20
430.524963
 30
0.0
 11
385.647034
 21
431.060547
 31
0.0
  0
LINE
  5
608
330
1F
100
AcDbEntity
  8
0
 62
     7
100
AcDbLine
 10
385.647034
 20
431.060547
 30
0.0
 11
385.647034
 21
433.899963
 31
0.0
  0
LINE
  5
609
330
1F
100
AcDbEntity
  8
0
 62
     7
100
AcDbLine
 10
387.647034
 20
431.170288
 30
0.0
 11
387.647034
 21
430.649963
 31
0.0
  0
LINE
  5
60A
330
1F
100
AcDbEntity
  8
0
 62
     7
100
AcDbLine
 10
387.647034
 20
439.149963
 30
0.0
 11
387.647034
 21
431.170288
 31
0.0
  0
LINE
  5
60B
330
1F
100
AcDbEntity
  8
0
 62
     7
100
AcDbLine
 10
385.647034
 20
435.899963
 30
0.0
 11
385.647034
 21
439.274963
 31
0.0
  0
LINE
  5
60C
330
1F
100
AcDbEntity
  8
0
 62
     7
100
AcDbLine
 10
384.647034
 20
439.337463
 30
0.0
 11
384.647034
 21
435.899963
 31
0.0
  0
LINE
  5
60D
330
1F
100
AcDbEntity
  8
0
 62
     7
100
AcDbLine
 10
383.447021
 20
435.899963
 30
0.0
 11
383.447021
 21
439.412476
 31
0.0
  0
LINE
  5
60E
330
1F
100
AcDbEntity
  8
0
 62
     7
100
AcDbLine
 10
382.447021
 20
439.474976
 30
0.0
 11
382.447021
 21
435.899963
 31
0.0
  0
LINE
  5
60F
330
1F
100
AcDbEntity
  8
0
 62
     7
100
AcDbLine
 10
381.24707
 20
435.899963
 30
0.0
 11
381.24707
 21
439.549988
 31
0.0
  0
LINE
  5
610
330
1F
100
AcDbEntity
  8
0
 62
     7
100
AcDbLine
 10
380.24707
 20
439.612488
 30
0.0
 11
380.24707
 21
435.899963
 31
0.0
  0
LINE
  5
611
330
1F
100
AcDbEntity
  8
0
 62
     7
100
AcDbLine
 10
381.24707
 20
433.899963
 30
0.0
 11
380.24707
 21
433.899963
 31
0.0
  0
LINE
  5
612
330
1F
100
AcDbEntity
  8
0
 62
     7
100
AcDbLine
 10
381.24707
 20
435.899963
 30
0.0
 11
380.24707
 21
435.899963
 31
0.0
  0
LINE
  5
613
330
1F
100
AcDbEntity
  8
0
 62
     7
100
AcDbLine
 10
383.447021
 20
435.899963
 30
0.0
 11
382.447021
 21
435.899963
 31
0.0
  0
LINE
  5
614
330
1F
100
AcDbEntity
  8
0
 62
     7
100
AcDbLine
 10
385.647034
 20
435.899963
 30
0.0
 11
384.647034
 21
435.899963
 31
0.0
  0
LINE
  5
615
330
1F
100
AcDbEntity
  8
0
 62
     7
100
AcDbLine
 10
385.647034
 20
433.899963
 30
0.0
 11
384.647034
 21
433.899963
 31
0.0
  0
LINE
  5
616
330
1F
100
AcDbEntity
  8
0
 62
     7
100
AcDbLine
 10
383.447021
 20
433.899963
 30
0.0
 11
382.447021
 21
433.899963
 31
0.0
  0
LINE
  5
617
330
1F
100
AcDbEntity
  8
0
 62
     7
100
AcDbLine
 10
375.647034
 20
439.899963
 30
0.0
 11
375.647034
 21
430.512085
 31
0.0
  0
LINE
  5
618
330
1F
100
AcDbEntity
  8
0
 62
     7
100
AcDbLine
 10
375.647034
 20
430.512085
 30
0.0
 11
375.647034
 21
429.899963
 31
0.0
  0
LINE
  5
619
330
1F
100
AcDbEntity
  8
0
 62
     7
100
AcDbLine
 10
374.647034
 20
440.200012
 30
0.0
 11
374.647034
 21
430.248779
 31
0.0
  0
LINE
  5
61A
330
1F
100
AcDbEntity
  8
0
 62
     7
100
AcDbLine
 10
374.647034
 20
430.248779
 30
0.0
 11
374.647034
 21
429.599976
 31
0.0
  0
LINE
  5
61B
330
1F
100
AcDbEntity
  8
0
 62
     7
100
AcDbLine
 10
369.647034
 20
437.728577
 30
0.0
 11
369.647034
 21
429.0
 31
0.0
  0
LINE
  5
61C
330
1F
100
AcDbEntity
  8
0
 62
     7
100
AcDbLine
 10
369.647034
 20
440.799988
 30
0.0
 11
369.647034
 21
437.728577
 31
0.0
  0
LINE
  5
61D
330
1F
100
AcDbEntity
  8
0
 62
     7
100
AcDbLine
 10
369.415894
 20
437.920349
 30
0.0
 11
369.415894
 21
436.820923
 31
0.0
  0
ARC
  5
61E
330
1F
100
AcDbEntity
  8
0
 62
     7
100
AcDbCircle
 10
359.089539
 20
434.900024
 30
0.0
 40
10.50419235229492
100
AcDbArc
 50
349.462094
 51
10.537886
  0
LINE
  5
61F
330
1F
100
AcDbEntity
  8
0
 62
     7
100
AcDbLine
 10
369.415894
 20
432.979065
 30
0.0
 11
369.415894
 21
430.664307
 31
0.0
  0
ARC
  5
620
330
1F
100
AcDbEntity
  8
0
 62
     7
100
AcDbCircle
 10
366.901428
 20
429.703857
 30
0.0
 40
2.691781044006348
100
AcDbArc
 50
339.093949
 51
20.906017
  0
LINE
  5
621
330
1F
100
AcDbEntity
  8
0
 62
     7
100
AcDbLine
 10
369.415894
 20
428.743347
 30
0.0
 11
369.415894
 21
428.599976
 31
0.0
  0
LINE
  5
622
330
1F
100
AcDbEntity
  8
0
 62
     7
100
AcDbLine
 10
369.415894
 20
441.200012
 30
0.0
 11
369.415894
 21
441.056641
 31
0.0
  0
ARC
  5
623
330
1F
100
AcDbEntity
  8
0
 62
     7
100
AcDbCircle
 10
366.901428
 20
440.09613
 30
0.0
 40
2.691781044006348
100
AcDbArc
 50
339.093949
 51
20.906017
  0
LINE
  5
624
330
1F
100
AcDbEntity
  8
0
 62
     7
100
AcDbLine
 10
369.415894
 20
437.920349
 30
0.0
 11
369.415894
 21
439.135681
 31
0.0
  0
LINE
  5
625
330
1F
100
AcDbEntity
  8
0
 62
     7
100
AcDbLine
 10
369.415894
 20
439.135681
 30
0.0
 11
362.647034
 21
439.135681
 31
0.0
  0
LINE
  5
626
330
1F
100
AcDbEntity
  8
0
 62
     7
100
AcDbLine
 10
362.647034
 20
439.135681
 30
0.0
 11
362.647034
 21
436.820923
 31
0.0
  0
LINE
  5
627
330
1F
100
AcDbEntity
  8
0
 62
     7
100
AcDbLine
 10
369.415894
 20
436.820923
 30
0.0
 11
362.647034
 21
436.820923
 31
0.0
  0
LINE
  5
628
330
1F
100
AcDbEntity
  8
0
 62
     7
100
AcDbLine
 10
362.647034
 20
432.979065
 30
0.0
 11
369.415894
 21
432.979065
 31
0.0
  0
LINE
  5
629
330
1F
100
AcDbEntity
  8
0
 62
     7
100
AcDbLine
 10
362.647034
 20
432.979065
 30
0.0
 11
362.647034
 21
430.664307
 31
0.0
  0
LINE
  5
62A
330
1F
100
AcDbEntity
  8
0
 62
     7
100
AcDbLine
 10
369.415894
 20
430.664307
 30
0.0
 11
362.647034
 21
430.664307
 31
0.0
  0
LINE
  5
62B
330
1F
100
AcDbEntity
  8
0
 62
     7
100
AcDbLine
 10
362.647034
 20
428.743347
 30
0.0
 11
369.415894
 21
428.743347
 31
0.0
  0
LINE
  5
62C
330
1F
100
AcDbEntity
  8
0
 62
     7
100
AcDbLine
 10
362.647034
 20
428.743347
 30
0.0
 11
362.647034
 21
428.599976
 31
0.0
  0
LINE
  5
62D
330
1F
100
AcDbEntity
  8
0
 62
     7
100
AcDbLine
 10
362.647034
 20
441.200012
 30
0.0
 11
362.647034
 21
441.056641
 31
0.0
  0
LINE
  5
62E
330
1F
100
AcDbEntity
  8
0
 62
     7
100
AcDbLine
 10
369.415894
 20
441.056641
 30
0.0
 11
362.647034
 21
441.056641
 31
0.0
  0
LINE
  5
62F
330
1F
100
AcDbEntity
  8
0
 62
     7
100
AcDbLine
 10
362.147034
 20
439.50238
 30
0.0
 11
362.147034
 21
436.933899
 31
0.0
  0
LINE
  5
630
330
1F
100
AcDbEntity
  8
0
 62
     7
100
AcDbLine
 10
362.647034
 20
436.530579
 30
0.0
 11
362.147034
 21
436.933899
 31
0.0
  0
LINE
  5
631
330
1F
100
AcDbEntity
  8
0
 62
     7
100
AcDbLine
 10
362.647034
 20
436.530579
 30
0.0
 11
362.647034
 21
436.820923
 31
0.0
  0
LINE
  5
632
330
1F
100
AcDbEntity
  8
0
 62
     7
100
AcDbLine
 10
362.647034
 20
439.135681
 30
0.0
 11
362.647034
 21
439.354736
 31
0.0
  0
LINE
  5
633
330
1F
100
AcDbEntity
  8
0
 62
     7
100
AcDbLine
 10
362.647034
 20
439.354736
 30
0.0
 11
362.147034
 21
439.50238
 31
0.0
  0
LINE
  5
634
330
1F
100
AcDbEntity
  8
0
 62
     7
100
AcDbLine
 10
362.647034
 20
433.269409
 30
0.0
 11
362.647034
 21
436.530579
 31
0.0
  0
LINE
  5
635
330
1F
100
AcDbEntity
  8
0
 62
     7
100
AcDbLine
 10
362.647034
 20
432.979065
 30
0.0
 11
362.647034
 21
433.269409
 31
0.0
  0
LINE
  5
636
330
1F
100
AcDbEntity
  8
0
 62
     7
100
AcDbLine
 10
362.647034
 20
433.269409
 30
0.0
 11
362.147034
 21
432.866089
 31
0.0
  0
LINE
  5
637
330
1F
100
AcDbEntity
  8
0
 62
     7
100
AcDbLine
 10
362.147034
 20
432.866089
 30
0.0
 11
362.147034
 21
430.297607
 31
0.0
  0
LINE
  5
638
330
1F
100
AcDbEntity
  8
0
 62
     7
100
AcDbLine
 10
362.647034
 20
430.44519
 30
0.0
 11
362.147034
 21
430.297607
 31
0.0
  0
LINE
  5
639
330
1F
100
AcDbEntity
  8
0
 62
     7
100
AcDbLine
 10
362.647034
 20
430.44519
 30
0.0
 11
362.647034
 21
430.664307
 31
0.0
  0
LINE
  5
63A
330
1F
100
AcDbEntity
  8
0
 62
     7
100
AcDbLine
 10
362.647034
 20
428.814636
 30
0.0
 11
362.647034
 21
430.44519
 31
0.0
  0
LINE
  5
63B
330
1F
100
AcDbEntity
  8
0
 62
     7
100
AcDbLine
 10
362.647034
 20
428.743347
 30
0.0
 11
362.647034
 21
428.814636
 31
0.0
  0
ARC
  5
63C
330
1F
100
AcDbEntity
  8
0
 62
     7
100
AcDbCircle
 10
314.336304
 20
472.15387
 30
0.0
 40
64.901611328125
100
AcDbArc
 50
317.448096
 51
318.104941
  0
LINE
  5
63D
330
1F
100
AcDbEntity
  8
0
 62
     7
100
AcDbLine
 10
362.147034
 20
428.263672
 30
0.0
 11
362.147034
 21
428.099976
 31
0.0
  0
LINE
  5
63E
330
1F
100
AcDbEntity
  8
0
 62
     7
100
AcDbLine
 10
362.647034
 20
440.985352
 30
0.0
 11
362.647034
 21
441.056641
 31
0.0
  0
LINE
  5
63F
330
1F
100
AcDbEntity
  8
0
 62
     7
100
AcDbLine
 10
362.147034
 20
441.700012
 30
0.0
 11
362.147034
 21
441.536316
 31
0.0
  0
ARC
  5
640
330
1F
100
AcDbEntity
  8
0
 62
     7
100
AcDbCircle
 10
314.336304
 20
397.646118
 30
0.0
 40
64.901611328125
100
AcDbArc
 50
41.895052
 51
42.551911
  0
LINE
  5
641
330
1F
100
AcDbEntity
  8
0
 62
     7
100
AcDbLine
 10
362.647034
 20
439.354736
 30
0.0
 11
362.647034
 21
440.985352
 31
0.0
  0
LINE
  5
642
330
1F
100
AcDbEntity
  8
0
 62
     7
100
AcDbLine
 10
353.147034
 20
439.50238
 30
0.0
 11
353.147034
 21
436.933899
 31
0.0
  0
LINE
  5
643
330
1F
100
AcDbEntity
  8
0
 62
     7
100
AcDbLine
 10
362.147034
 20
436.933899
 30
0.0
 11
353.147034
 21
436.933899
 31
0.0
  0
LINE
  5
644
330
1F
100
AcDbEntity
  8
0
 62
     7
100
AcDbLine
 10
362.147034
 20
439.50238
 30
0.0
 11
353.147034
 21
439.50238
 31
0.0
  0
LINE
  5
645
330
1F
100
AcDbEntity
  8
0
 62
     7
100
AcDbLine
 10
352.647034
 20
436.530579
 30
0.0
 11
353.147034
 21
436.933899
 31
0.0
  0
LINE
  5
646
330
1F
100
AcDbEntity
  8
0
 62
     7
100
AcDbLine
 10
362.647034
 20
436.530579
 30
0.0
 11
352.647034
 21
436.530579
 31
0.0
  0
LINE
  5
647
330
1F
100
AcDbEntity
  8
0
 62
     7
100
AcDbLine
 10
352.647034
 20
439.354736
 30
0.0
 11
353.147034
 21
439.50238
 31
0.0
  0
LINE
  5
648
330
1F
100
AcDbEntity
  8
0
 62
     7
100
AcDbLine
 10
362.647034
 20
440.985352
 30
0.0
 11
352.647034
 21
440.985352
 31
0.0
  0
LINE
  5
649
330
1F
100
AcDbEntity
  8
0
 62
     7
100
AcDbLine
 10
352.647034
 20
441.200012
 30
0.0
 11
352.647034
 21
440.985352
 31
0.0
  0
LINE
  5
64A
330
1F
100
AcDbEntity
  8
0
 62
     7
100
AcDbLine
 10
352.647034
 20
428.814636
 30
0.0
 11
352.647034
 21
428.599976
 31
0.0
  0
LINE
  5
64B
330
1F
100
AcDbEntity
  8
0
 62
     7
100
AcDbLine
 10
362.647034
 20
428.814636
 30
0.0
 11
352.647034
 21
428.814636
 31
0.0
  0
LINE
  5
64C
330
1F
100
AcDbEntity
  8
0
 62
     7
100
AcDbLine
 10
352.647034
 20
433.269409
 30
0.0
 11
352.647034
 21
430.44519
 31
0.0
  0
LINE
  5
64D
330
1F
100
AcDbEntity
  8
0
 62
     7
100
AcDbLine
 10
362.647034
 20
433.269409
 30
0.0
 11
352.647034
 21
433.269409
 31
0.0
  0
LINE
  5
64E
330
1F
100
AcDbEntity
  8
0
 62
     7
100
AcDbLine
 10
352.647034
 20
439.354736
 30
0.0
 11
352.647034
 21
436.530579
 31
0.0
  0
LINE
  5
64F
330
1F
100
AcDbEntity
  8
0
 62
     7
100
AcDbLine
 10
352.647034
 20
433.269409
 30
0.0
 11
353.147034
 21
432.866089
 31
0.0
  0
LINE
  5
650
330
1F
100
AcDbEntity
  8
0
 62
     7
100
AcDbLine
 10
362.147034
 20
432.866089
 30
0.0
 11
353.147034
 21
432.866089
 31
0.0
  0
LINE
  5
651
330
1F
100
AcDbEntity
  8
0
 62
     7
100
AcDbLine
 10
353.147034
 20
432.866089
 30
0.0
 11
353.147034
 21
430.297607
 31
0.0
  0
LINE
  5
652
330
1F
100
AcDbEntity
  8
0
 62
     7
100
AcDbLine
 10
362.147034
 20
430.297607
 30
0.0
 11
353.147034
 21
430.297607
 31
0.0
  0
LINE
  5
653
330
1F
100
AcDbEntity
  8
0
 62
     7
100
AcDbLine
 10
352.647034
 20
430.44519
 30
0.0
 11
353.147034
 21
430.297607
 31
0.0
  0
ARC
  5
654
330
1F
100
AcDbEntity
  8
0
 62
     7
100
AcDbCircle
 10
400.957764
 20
472.15387
 30
0.0
 40
64.901611328125
100
AcDbArc
 50
221.89505
 51
222.55191
  0
LINE
  5
655
330
1F
100
AcDbEntity
  8
0
 62
     7
100
AcDbLine
 10
362.147034
 20
428.263672
 30
0.0
 11
353.147034
 21
428.263672
 31
0.0
  0
LINE
  5
656
330
1F
100
AcDbEntity
  8
0
 62
     7
100
AcDbLine
 10
353.147034
 20
428.263672
 30
0.0
 11
353.147034
 21
428.099976
 31
0.0
  0
LINE
  5
657
330
1F
100
AcDbEntity
  8
0
 62
     7
100
AcDbLine
 10
353.147034
 20
441.700012
 30
0.0
 11
353.147034
 21
441.536316
 31
0.0
  0
LINE
  5
658
330
1F
100
AcDbEntity
  8
0
 62
     7
100
AcDbLine
 10
362.147034
 20
441.536316
 30
0.0
 11
353.147034
 21
441.536316
 31
0.0
  0
ARC
  5
659
330
1F
100
AcDbEntity
  8
0
 62
     7
100
AcDbCircle
 10
400.957764
 20
397.646118
 30
0.0
 40
64.901611328125
100
AcDbArc
 50
137.44809
 51
138.10495
  0
LINE
  5
65A
330
1F
100
AcDbEntity
  8
0
 62
     7
100
AcDbLine
 10
349.447021
 20
449.899963
 30
0.0
 11
349.74707
 21
449.899963
 31
0.0
  0
LINE
  5
65B
330
1F
100
AcDbEntity
  8
0
 62
     7
100
AcDbLine
 10
242.283646
 20
429.0
 30
0.0
 11
242.370239
 21
428.849976
 31
0.0
  0
LINE
  5
65C
330
1F
100
AcDbEntity
  8
0
 62
     7
100
AcDbLine
 10
239.010422
 20
429.0
 30
0.0
 11
238.923828
 21
428.849976
 31
0.0
  0
LINE
  5
65D
330
1F
100
AcDbEntity
  8
0
 62
     7
100
AcDbLine
 10
328.010437
 20
429.0
 30
0.0
 11
327.923828
 21
428.849976
 31
0.0
  0
LINE
  5
65E
330
1F
100
AcDbEntity
  8
0
 62
     7
100
AcDbLine
 10
331.28363
 20
429.0
 30
0.0
 11
331.370239
 21
428.849976
 31
0.0
  0
LINE
  5
65F
330
1F
100
AcDbEntity
  8
0
 62
     7
100
AcDbLine
 10
331.095825
 20
449.325623
 30
0.0
 11
331.121399
 21
449.351257
 31
0.0
  0
POLYLINE
  5
660
330
1F
100
AcDbEntity
  8
0
 62
     7
100
AcDb2dPolyline
 66
     1
 10
0.0
 20
0.0
 30
0.0
  0
VERTEX
  5
661
330
660
100
AcDbEntity
  8
0
100
AcDbVertex
100
AcDb2dVertex
 10
316.333862
 20
449.332886
 30
0.0
  0
VERTEX
  5
662
330
660
100
AcDbEntity
  8
0
100
AcDbVertex
100
AcDb2dVertex
 10
316.337097
 20
449.32312
 30
0.0
  0
VERTEX
  5
663
330
660
100
AcDbEntity
  8
0
100
AcDbVertex
100
AcDb2dVertex
 10
316.344177
 20
449.307007
 30
0.0
  0
VERTEX
  5
664
330
660
100
AcDbEntity
  8
0
100
AcDbVertex
100
AcDb2dVertex
 10
316.347473
 20
449.300537
 30
0.0
  0
VERTEX
  5
665
330
660
100
AcDbEntity
  8
0
100
AcDbVertex
100
AcDb2dVertex
 10
316.348145
 20
449.299011
 30
0.0
  0
VERTEX
  5
666
330
660
100
AcDbEntity
  8
0
100
AcDbVertex
100
AcDb2dVertex
 10
316.330994
 20
449.320557
 30
0.0
  0
VERTEX
  5
667
330
660
100
AcDbEntity
  8
0
100
AcDbVertex
100
AcDb2dVertex
 10
316.327454
 20
449.325684
 30
0.0
  0
VERTEX
  5
668
330
660
100
AcDbEntity
  8
0
100
AcDbVertex
100
AcDb2dVertex
 10
316.329285
 20
449.324402
 30
0.0
  0
VERTEX
  5
669
330
660
100
AcDbEntity
  8
0
100
AcDbVertex
100
AcDb2dVertex
 10
316.338013
 20
449.314209
 30
0.0
  0
VERTEX
  5
66A
330
660
100
AcDbEntity
  8
0
100
AcDbVertex
100
AcDb2dVertex
 10
316.346619
 20
449.302368
 30
0.0
  0
VERTEX
  5
66B
330
660
100
AcDbEntity
  8
0
100
AcDbVertex
100
AcDb2dVertex
 10
316.347351
 20
449.30072
 30
0.0
  0
VERTEX
  5
66C
330
660
100
AcDbEntity
  8
0
100
AcDbVertex
100
AcDb2dVertex
 10
316.34729
 20
449.2995
 30
0.0
  0
VERTEX
  5
66D
330
660
100
AcDbEntity
  8
0
100
AcDbVertex
100
AcDb2dVertex
 10
316.344666
 20
449.300415
 30
0.0
  0
VERTEX
  5
66E
330
660
100
AcDbEntity
  8
0
100
AcDbVertex
100
AcDb2dVertex
 10
316.332825
 20
449.309021
 30
0.0
  0
VERTEX
  5
66F
330
660
100
AcDbEntity
  8
0
100
AcDbVertex
100
AcDb2dVertex
 10
316.322571
 20
449.317749
 30
0.0
  0
VERTEX
  5
670
330
660
100
AcDbEntity
  8
0
100
AcDbVertex
100
AcDb2dVertex
 10
316.320984
 20
449.319336
 30
0.0
  0
VERTEX
  5
671
330
660
100
AcDbEntity
  8
0
100
AcDbVertex
100
AcDb2dVertex
 10
316.326477
 20
449.31604
 30
0.0
  0
VERTEX
  5
672
330
660
100
AcDbEntity
  8
0
100
AcDbVertex
100
AcDb2dVertex
 10
316.347534
 20
449.299744
 30
0.0
  0
VERTEX
  5
673
330
660
100
AcDbEntity
  8
0
100
AcDbVertex
100
AcDb2dVertex
 10
316.348206
 20
449.29895
 30
0.0
  0
VERTEX
  5
674
330
660
100
AcDbEntity
  8
0
100
AcDbVertex
100
AcDb2dVertex
 10
316.346497
 20
449.299561
 30
0.0
  0
VERTEX
  5
675
330
660
100
AcDbEntity
  8
0
100
AcDbVertex
100
AcDb2dVertex
 10
316.340027
 20
449.302856
 30
0.0
  0
VERTEX
  5
676
330
660
100
AcDbEntity
  8
0
100
AcDbVertex
100
AcDb2dVertex
 10
316.323914
 20
449.309937
 30
0.0
  0
VERTEX
  5
677
330
660
100
AcDbEntity
  8
0
100
AcDbVertex
100
AcDb2dVertex
 10
316.314148
 20
449.313171
 30
0.0
  0
SEQEND
  5
678
330
660
100
AcDbEntity
  8
0
 62
     7
  0
POLYLINE
  5
679
330
1F
100
AcDbEntity
  8
0
 62
     7
100
AcDb2dPolyline
 66
     1
 10
0.0
 20
0.0
 30
0.0
  0
VERTEX
  5
67A
330
679
100
AcDbEntity
  8
0
100
AcDbVertex
100
AcDb2dVertex
 10
237.333862
 20
449.332886
 30
0.0
  0
VERTEX
  5
67B
330
679
100
AcDbEntity
  8
0
100
AcDbVertex
100
AcDb2dVertex
 10
237.337067
 20
449.32312
 30
0.0
  0
VERTEX
  5
67C
330
679
100
AcDbEntity
  8
0
100
AcDbVertex
100
AcDb2dVertex
 10
237.344193
 20
449.307007
 30
0.0
  0
VERTEX
  5
67D
330
679
100
AcDbEntity
  8
0
100
AcDbVertex
100
AcDb2dVertex
 10
237.347458
 20
449.300537
 30
0.0
  0
VERTEX
  5
67E
330
679
100
AcDbEntity
  8
0
100
AcDbVertex
100
AcDb2dVertex
 10
237.348099
 20
449.299011
 30
0.0
  0
VERTEX
  5
67F
330
679
100
AcDbEntity
  8
0
100
AcDbVertex
100
AcDb2dVertex
 10
237.330978
 20
449.320557
 30
0.0
  0
VERTEX
  5
680
330
679
100
AcDbEntity
  8
0
100
AcDbVertex
100
AcDb2dVertex
 10
237.327454
 20
449.325684
 30
0.0
  0
VERTEX
  5
681
330
679
100
AcDbEntity
  8
0
100
AcDbVertex
100
AcDb2dVertex
 10
237.329269
 20
449.324402
 30
0.0
  0
VERTEX
  5
682
330
679
100
AcDbEntity
  8
0
100
AcDbVertex
100
AcDb2dVertex
 10
237.338028
 20
449.314209
 30
0.0
  0
VERTEX
  5
683
330
679
100
AcDbEntity
  8
0
100
AcDbVertex
100
AcDb2dVertex
 10
237.346588
 20
449.302368
 30
0.0
  0
VERTEX
  5
684
330
679
100
AcDbEntity
  8
0
100
AcDbVertex
100
AcDb2dVertex
 10
237.347366
 20
449.30072
 30
0.0
  0
VERTEX
  5
685
330
679
100
AcDbEntity
  8
0
100
AcDbVertex
100
AcDb2dVertex
 10
237.347275
 20
449.2995
 30
0.0
  0
VERTEX
  5
686
330
679
100
AcDbEntity
  8
0
100
AcDbVertex
100
AcDb2dVertex
 10
237.344681
 20
449.300415
 30
0.0
  0
VERTEX
  5
687
330
679
100
AcDbEntity
  8
0
100
AcDbVertex
100
AcDb2dVertex
 10
237.33284
 20
449.309021
 30
0.0
  0
VERTEX
  5
688
330
679
100
AcDbEntity
  8
0
100
AcDbVertex
100
AcDb2dVertex
 10
237.322586
 20
449.317749
 30
0.0
  0
VERTEX
  5
689
330
679
100
AcDbEntity
  8
0
100
AcDbVertex
100
AcDb2dVertex
 10
237.320969
 20
449.319336
 30
0.0
  0
VERTEX
  5
68A
330
679
100
AcDbEntity
  8
0
100
AcDbVertex
100
AcDb2dVertex
 10
237.326492
 20
449.31604
 30
0.0
  0
VERTEX
  5
68B
330
679
100
AcDbEntity
  8
0
100
AcDbVertex
100
AcDb2dVertex
 10
237.347519
 20
449.299744
 30
0.0
  0
VERTEX
  5
68C
330
679
100
AcDbEntity
  8
0
100
AcDbVertex
100
AcDb2dVertex
 10
237.348206
 20
449.29895
 30
0.0
  0
VERTEX
  5
68D
330
679
100
AcDbEntity
  8
0
100
AcDbVertex
100
AcDb2dVertex
 10
237.346512
 20
449.299561
 30
0.0
  0
VERTEX
  5
68E
330
679
100
AcDbEntity
  8
0
100
AcDbVertex
100
AcDb2dVertex
 10
237.340042
 20
449.302856
 30
0.0
  0
VERTEX
  5
68F
330
679
100
AcDbEntity
  8
0
100
AcDbVertex
100
AcDb2dVertex
 10
237.323898
 20
449.309937
 30
0.0
  0
VERTEX
  5
690
330
679
100
AcDbEntity
  8
0
100
AcDbVertex
100
AcDb2dVertex
 10
237.314117
 20
449.313171
 30
0.0
  0
SEQEND
  5
691
330
679
100
AcDbEntity
  8
0
 62
     7
  0
LINE
  5
692
330
1F
100
AcDbEntity
  8
0
 62
     7
100
AcDbLine
 10
222.095795
 20
449.325623
 30
0.0
 11
222.121414
 21
449.351257
 31
0.0
  0
LINE
  5
693
330
1F
100
AcDbEntity
  8
0
 62
     7
100
AcDbLine
 10
242.370239
 20
428.599976
 30
0.0
 11
242.370239
 21
428.849976
 31
0.0
  0
LINE
  5
694
330
1F
100
AcDbEntity
  8
0
 62
     7
100
AcDbLine
 10
238.923828
 20
428.599976
 30
0.0
 11
238.923828
 21
428.849976
 31
0.0
  0
LINE
  5
695
330
1F
100
AcDbEntity
  8
0
 62
     7
100
AcDbLine
 10
327.923828
 20
428.849976
 30
0.0
 11
327.923828
 21
428.599976
 31
0.0
  0
LINE
  5
696
330
1F
100
AcDbEntity
  8
0
 62
     7
100
AcDbLine
 10
331.370239
 20
428.849976
 30
0.0
 11
331.370239
 21
428.599976
 31
0.0
  0
LINE
  5
697
330
1F
100
AcDbEntity
  8
0
 62
     7
100
AcDbLine
 10
220.547043
 20
449.899963
 30
0.0
 11
220.847031
 21
449.899963
 31
0.0
  0
ARC
  5
698
330
1F
100
AcDbEntity
  8
0
 62
     7
100
AcDbCircle
 10
384.647034
 20
359.899963
 30
0.0
 40
78.4000015258789
100
AcDbArc
 50
0.000002
 51
87.807034
  0
ARC
  5
699
330
1F
100
AcDbEntity
  8
0
 62
     7
100
AcDbCircle
 10
384.646973
 20
359.903809
 30
0.0
 40
78.39616394042969
100
AcDbArc
 50
89.269111
 51
89.999968
  0
ARC
  5
69A
330
1F
100
AcDbEntity
  8
0
 62
     7
100
AcDbCircle
 10
384.647034
 20
359.899963
 30
0.0
 40
71.5999984741211
100
AcDbArc
 50
0.000002
 51
87.598651
  0
ARC
  5
69B
330
1F
100
AcDbEntity
  8
0
 62
     7
100
AcDbCircle
 10
384.646973
 20
359.902222
 30
0.0
 40
71.59779357910156
100
AcDbArc
 50
89.199702
 51
89.999962
  0
LINE
  5
69C
330
1F
100
AcDbEntity
  8
0
 62
     7
100
AcDbLine
 10
383.447021
 20
438.299988
 30
0.0
 11
382.447021
 21
438.299988
 31
0.0
  0
LINE
  5
69D
330
1F
100
AcDbEntity
  8
0
 62
     7
100
AcDbLine
 10
381.247009
 20
438.299988
 30
0.0
 11
380.247009
 21
438.299988
 31
0.0
  0
LINE
  5
69E
330
1F
100
AcDbEntity
  8
0
 62
     7
100
AcDbLine
 10
463.046997
 20
349.900024
 30
0.0
 11
463.046997
 21
359.900024
 31
0.0
  0
LINE
  5
69F
330
1F
100
AcDbEntity
  8
0
 62
     7
100
AcDbLine
 10
383.447021
 20
431.5
 30
0.0
 11
382.447021
 21
431.5
 31
0.0
  0
LINE
  5
6A0
330
1F
100
AcDbEntity
  8
0
 62
     7
100
AcDbLine
 10
381.247009
 20
431.5
 30
0.0
 11
380.247009
 21
431.5
 31
0.0
  0
LINE
  5
6A1
330
1F
100
AcDbEntity
  8
0
 62
     7
100
AcDbLine
 10
456.247009
 20
349.900024
 30
0.0
 11
456.247009
 21
359.900024
 31
0.0
  0
LINE
  5
6A2
330
1F
100
AcDbEntity
  8
0
 62
     7
100
AcDbLine
 10
387.647034
 20
439.149963
 30
0.0
 11
385.647034
 21
439.274963
 31
0.0
  0
LINE
  5
6A3
330
1F
100
AcDbEntity
  8
0
 62
     7
100
AcDbLine
 10
384.647034
 20
439.337463
 30
0.0
 11
383.447021
 21
439.412476
 31
0.0
  0
LINE
  5
6A4
330
1F
100
AcDbEntity
  8
0
 62
     7
100
AcDbLine
 10
382.447021
 20
439.474976
 30
0.0
 11
381.24707
 21
439.549988
 31
0.0
  0
LINE
  5
6A5
330
1F
100
AcDbEntity
  8
0
 62
     7
100
AcDbLine
 10
380.24707
 20
439.612488
 30
0.0
 11
375.647034
 21
439.899963
 31
0.0
  0
LINE
  5
6A6
330
1F
100
AcDbEntity
  8
0
 62
     7
100
AcDbLine
 10
387.647034
 20
430.649963
 30
0.0
 11
385.647034
 21
430.524963
 31
0.0
  0
LINE
  5
6A7
330
1F
100
AcDbEntity
  8
0
 62
     7
100
AcDbLine
 10
384.647034
 20
430.462463
 30
0.0
 11
383.447021
 21
430.387512
 31
0.0
  0
LINE
  5
6A8
330
1F
100
AcDbEntity
  8
0
 62
     7
100
AcDbLine
 10
382.447021
 20
430.325012
 30
0.0
 11
381.24707
 21
430.25
 31
0.0
  0
LINE
  5
6A9
330
1F
100
AcDbEntity
  8
0
 62
     7
100
AcDbLine
 10
380.24707
 20
430.1875
 30
0.0
 11
375.647034
 21
429.899963
 31
0.0
  0
LINE
  5
6AA
330
1F
100
AcDbEntity
  8
0
 62
     7
100
AcDbLine
 10
375.647034
 20
439.899963
 30
0.0
 11
374.647034
 21
440.200012
 31
0.0
  0
LINE
  5
6AB
330
1F
100
AcDbEntity
  8
0
 62
     7
100
AcDbLine
 10
375.647034
 20
429.899963
 30
0.0
 11
374.647034
 21
429.599976
 31
0.0
  0
LINE
  5
6AC
330
1F
100
AcDbEntity
  8
0
 62
     7
100
AcDbLine
 10
374.647034
 20
429.899963
 30
0.0
 11
369.647034
 21
429.899963
 31
0.0
  0
LINE
  5
6AD
330
1F
100
AcDbEntity
  8
0
 62
     7
100
AcDbLine
 10
374.647034
 20
439.899963
 30
0.0
 11
369.647034
 21
439.899963
 31
0.0
  0
ARC
  5
6AE
330
1F
100
AcDbEntity
  8
0
 62
     7
100
AcDbCircle
 10
364.340454
 20
431.799988
 30
0.0
 40
6.000001907348633
100
AcDbArc
 50
327.769058
 51
332.181852
  0
ARC
  5
6AF
330
1F
100
AcDbEntity
  8
0
 62
     7
100
AcDbCircle
 10
364.340454
 20
438.0
 30
0.0
 40
6.000001907348633
100
AcDbArc
 50
27.81814
 51
32.230949
  0
LINE
  5
6B0
330
1F
100
AcDbEntity
  8
0
 62
     7
100
AcDbLine
 10
369.415894
 20
428.599976
 30
0.0
 11
362.647034
 21
428.599976
 31
0.0
  0
LINE
  5
6B1
330
1F
100
AcDbEntity
  8
0
 62
     7
100
AcDbLine
 10
369.415894
 20
441.200012
 30
0.0
 11
362.647034
 21
441.200012
 31
0.0
  0
LINE
  5
6B2
330
1F
100
AcDbEntity
  8
0
 62
     7
100
AcDbLine
 10
362.647034
 20
428.599976
 30
0.0
 11
362.147034
 21
428.099976
 31
0.0
  0
LINE
  5
6B3
330
1F
100
AcDbEntity
  8
0
 62
     7
100
AcDbLine
 10
362.647034
 20
441.200012
 30
0.0
 11
362.147034
 21
441.700012
 31
0.0
  0
LINE
  5
6B4
330
1F
100
AcDbEntity
  8
0
 62
     7
100
AcDbLine
 10
352.647034
 20
428.599976
 30
0.0
 11
351.647034
 21
428.599976
 31
0.0
  0
LINE
  5
6B5
330
1F
100
AcDbEntity
  8
0
 62
     7
100
AcDbLine
 10
352.647034
 20
441.200012
 30
0.0
 11
351.647034
 21
441.200012
 31
0.0
  0
LINE
  5
6B6
330
1F
100
AcDbEntity
  8
0
 62
     7
100
AcDbLine
 10
362.147034
 20
428.099976
 30
0.0
 11
353.147034
 21
428.099976
 31
0.0
  0
LINE
  5
6B7
330
1F
100
AcDbEntity
  8
0
 62
     7
100
AcDbLine
 10
362.147034
 20
441.700012
 30
0.0
 11
353.147034
 21
441.700012
 31
0.0
  0
LINE
  5
6B8
330
1F
100
AcDbEntity
  8
0
 62
     7
100
AcDbLine
 10
352.647034
 20
441.200012
 30
0.0
 11
353.147034
 21
441.700012
 31
0.0
  0
LINE
  5
6B9
330
1F
100
AcDbEntity
  8
0
 62
     7
100
AcDbLine
 10
352.647034
 20
428.599976
 30
0.0
 11
353.147034
 21
428.099976
 31
0.0
  0
LINE
  5
6BA
330
1F
100
AcDbEntity
  8
0
 62
     7
100
AcDbLine
 10
182.452927
 20
452.599976
 30
0.0
 11
182.452927
 21
465.700012
 31
0.0
  0
ARC
  5
6BB
330
1F
100
AcDbEntity
  8
0
 62
     7
100
AcDbCircle
 10
181.652939
 20
452.599976
 30
0.0
 40
0.800000011920929
100
AcDbArc
 50
269.999997
 51
360.0
  0
LINE
  5
6BC
330
1F
100
AcDbEntity
  8
0
 62
     7
100
AcDbLine
 10
182.323654
 20
465.829285
 30
0.0
 11
182.452927
 21
465.700012
 31
0.0
  0
ARC
  5
6BD
330
1F
100
AcDbEntity
  8
0
 62
     7
100
AcDbCircle
 10
180.452927
 20
452.599976
 30
0.0
 40
0.800000011920929
100
AcDbArc
 50
241.044838
 51
269.999997
  0
LINE
  5
6BE
330
1F
100
AcDbEntity
  8
0
 62
     7
100
AcDbLine
 10
181.652939
 20
451.799988
 30
0.0
 11
180.452927
 21
451.799988
 31
0.0
  0
ARC
  5
6BF
330
1F
100
AcDbEntity
  8
0
 62
     7
100
AcDbCircle
 10
182.394363
 20
465.900024
 30
0.0
 40
0.1000000014901161
100
AcDbArc
 50
135.0
 51
225.0
  0
LINE
  5
6C0
330
1F
100
AcDbEntity
  8
0
 62
     7
100
AcDbLine
 10
182.452927
 20
466.099976
 30
0.0
 11
182.323654
 21
465.970703
 31
0.0
  0
LINE
  5
6C1
330
1F
100
AcDbEntity
  8
0
 62
     7
100
AcDbLine
 10
182.452927
 20
466.099976
 30
0.0
 11
182.452927
 21
466.799988
 31
0.0
  0
LINE
  5
6C2
330
1F
100
AcDbEntity
  8
0
 62
     7
100
AcDbLine
 10
182.323654
 20
466.92926
 30
0.0
 11
182.452927
 21
466.799988
 31
0.0
  0
ARC
  5
6C3
330
1F
100
AcDbEntity
  8
0
 62
     7
100
AcDbCircle
 10
182.394363
 20
467.0
 30
0.0
 40
0.1000000014901161
100
AcDbArc
 50
135.0
 51
225.0
  0
LINE
  5
6C4
330
1F
100
AcDbEntity
  8
0
 62
     7
100
AcDbLine
 10
182.452927
 20
467.200012
 30
0.0
 11
182.323654
 21
467.070679
 31
0.0
  0
LINE
  5
6C5
330
1F
100
AcDbEntity
  8
0
 62
     7
100
AcDbLine
 10
182.452927
 20
467.200012
 30
0.0
 11
182.452927
 21
467.900024
 31
0.0
  0
LINE
  5
6C6
330
1F
100
AcDbEntity
  8
0
 62
     7
100
AcDbLine
 10
182.323654
 20
468.029297
 30
0.0
 11
182.452927
 21
467.900024
 31
0.0
  0
ARC
  5
6C7
330
1F
100
AcDbEntity
  8
0
 62
     7
100
AcDbCircle
 10
182.394363
 20
468.099976
 30
0.0
 40
0.1000000014901161
100
AcDbArc
 50
135.0
 51
225.0
  0
LINE
  5
6C8
330
1F
100
AcDbEntity
  8
0
 62
     7
100
AcDbLine
 10
182.452927
 20
468.299988
 30
0.0
 11
182.323654
 21
468.170715
 31
0.0
  0
LINE
  5
6C9
330
1F
100
AcDbEntity
  8
0
 62
     7
100
AcDbLine
 10
182.452927
 20
468.299988
 30
0.0
 11
182.452927
 21
469.0
 31
0.0
  0
LINE
  5
6CA
330
1F
100
AcDbEntity
  8
0
 62
     7
100
AcDbLine
 10
182.323654
 20
469.129272
 30
0.0
 11
182.452927
 21
469.0
 31
0.0
  0
ARC
  5
6CB
330
1F
100
AcDbEntity
  8
0
 62
     7
100
AcDbCircle
 10
182.394363
 20
469.200012
 30
0.0
 40
0.1000000014901161
100
AcDbArc
 50
135.0
 51
225.0
  0
LINE
  5
6CC
330
1F
100
AcDbEntity
  8
0
 62
     7
100
AcDbLine
 10
182.452927
 20
469.400024
 30
0.0
 11
182.323654
 21
469.270691
 31
0.0
  0
LINE
  5
6CD
330
1F
100
AcDbEntity
  8
0
 62
     7
100
AcDbLine
 10
182.452927
 20
469.400024
 30
0.0
 11
182.452927
 21
470.099976
 31
0.0
  0
LINE
  5
6CE
330
1F
100
AcDbEntity
  8
0
 62
     7
100
AcDbLine
 10
182.323654
 20
470.229309
 30
0.0
 11
182.452927
 21
470.099976
 31
0.0
  0
ARC
  5
6CF
330
1F
100
AcDbEntity
  8
0
 62
     7
100
AcDbCircle
 10
182.394363
 20
470.299988
 30
0.0
 40
0.1000000014901161
100
AcDbArc
 50
135.0
 51
225.0
  0
LINE
  5
6D0
330
1F
100
AcDbEntity
  8
0
 62
     7
100
AcDbLine
 10
182.452927
 20
470.5
 30
0.0
 11
182.323654
 21
470.370728
 31
0.0
  0
LINE
  5
6D1
330
1F
100
AcDbEntity
  8
0
 62
     7
100
AcDbLine
 10
182.452927
 20
470.5
 30
0.0
 11
182.452927
 21
471.200012
 31
0.0
  0
LINE
  5
6D2
330
1F
100
AcDbEntity
  8
0
 62
     7
100
AcDbLine
 10
182.323654
 20
471.329285
 30
0.0
 11
182.452927
 21
471.200012
 31
0.0
  0
ARC
  5
6D3
330
1F
100
AcDbEntity
  8
0
 62
     7
100
AcDbCircle
 10
182.394363
 20
471.400024
 30
0.0
 40
0.1000000014901161
100
AcDbArc
 50
135.0
 51
225.0
  0
LINE
  5
6D4
330
1F
100
AcDbEntity
  8
0
 62
     7
100
AcDbLine
 10
182.452927
 20
471.599976
 30
0.0
 11
182.323654
 21
471.470703
 31
0.0
  0
LINE
  5
6D5
330
1F
100
AcDbEntity
  8
0
 62
     7
100
AcDbLine
 10
182.452927
 20
471.599976
 30
0.0
 11
182.452927
 21
472.299988
 31
0.0
  0
LINE
  5
6D6
330
1F
100
AcDbEntity
  8
0
 62
     7
100
AcDbLine
 10
182.323654
 20
472.42926
 30
0.0
 11
182.452927
 21
472.299988
 31
0.0
  0
ARC
  5
6D7
330
1F
100
AcDbEntity
  8
0
 62
     7
100
AcDbCircle
 10
182.394363
 20
472.5
 30
0.0
 40
0.1000000014901161
100
AcDbArc
 50
135.0
 51
225.0
  0
LINE
  5
6D8
330
1F
100
AcDbEntity
  8
0
 62
     7
100
AcDbLine
 10
182.452927
 20
472.700012
 30
0.0
 11
182.323654
 21
472.570679
 31
0.0
  0
LINE
  5
6D9
330
1F
100
AcDbEntity
  8
0
 62
     7
100
AcDbLine
 10
182.452927
 20
472.700012
 30
0.0
 11
182.452927
 21
473.400024
 31
0.0
  0
LINE
  5
6DA
330
1F
100
AcDbEntity
  8
0
 62
     7
100
AcDbLine
 10
182.323654
 20
473.529297
 30
0.0
 11
182.452927
 21
473.400024
 31
0.0
  0
ARC
  5
6DB
330
1F
100
AcDbEntity
  8
0
 62
     7
100
AcDbCircle
 10
182.394363
 20
473.599976
 30
0.0
 40
0.1000000014901161
100
AcDbArc
 50
135.0
 51
225.0
  0
LINE
  5
6DC
330
1F
100
AcDbEntity
  8
0
 62
     7
100
AcDbLine
 10
182.452927
 20
473.799988
 30
0.0
 11
182.323654
 21
473.670715
 31
0.0
  0
LINE
  5
6DD
330
1F
100
AcDbEntity
  8
0
 62
     7
100
AcDbLine
 10
182.452927
 20
473.799988
 30
0.0
 11
182.452927
 21
474.5
 31
0.0
  0
LINE
  5
6DE
330
1F
100
AcDbEntity
  8
0
 62
     7
100
AcDbLine
 10
182.323654
 20
474.629272
 30
0.0
 11
182.452927
 21
474.5
 31
0.0
  0
ARC
  5
6DF
330
1F
100
AcDbEntity
  8
0
 62
     7
100
AcDbCircle
 10
182.394363
 20
474.700012
 30
0.0
 40
0.1000000014901161
100
AcDbArc
 50
135.0
 51
225.0
  0
LINE
  5
6E0
330
1F
100
AcDbEntity
  8
0
 62
     7
100
AcDbLine
 10
182.452927
 20
474.900024
 30
0.0
 11
182.323654
 21
474.770691
 31
0.0
  0
LINE
  5
6E1
330
1F
100
AcDbEntity
  8
0
 62
     7
100
AcDbLine
 10
182.452927
 20
474.900024
 30
0.0
 11
182.452927
 21
479.724243
 31
0.0
  0
LINE
  5
6E2
330
1F
100
AcDbEntity
  8
0
 62
     7
100
AcDbLine
 10
181.965073
 20
480.212158
 30
0.0
 11
182.452927
 21
479.724243
 31
0.0
  0
ARC
  5
6E3
330
1F
100
AcDbEntity
  8
0
 62
     7
100
AcDbCircle
 10
181.752945
 20
480.0
 30
0.0
 40
0.300000011920929
100
AcDbArc
 50
45.000001
 51
106.874504
  0
LINE
  5
6E4
330
1F
100
AcDbEntity
  8
0
 62
     7
100
AcDbLine
 10
182.452927
 20
457.799988
 30
0.0
 11
182.652939
 21
457.799988
 31
0.0
  0
LINE
  5
6E5
330
1F
100
AcDbEntity
  8
0
 62
     7
100
AcDbLine
 10
182.652939
 20
457.299988
 30
0.0
 11
182.652939
 21
457.799988
 31
0.0
  0
LINE
  5
6E6
330
1F
100
AcDbEntity
  8
0
 62
     7
100
AcDbLine
 10
182.652939
 20
457.299988
 30
0.0
 11
182.652939
 21
453.299988
 31
0.0
  0
LINE
  5
6E7
330
1F
100
AcDbEntity
  8
0
 62
     7
100
AcDbLine
 10
182.652939
 20
452.799988
 30
0.0
 11
182.652939
 21
453.299988
 31
0.0
  0
LINE
  5
6E8
330
1F
100
AcDbEntity
  8
0
 62
     7
100
AcDbLine
 10
182.452927
 20
452.799988
 30
0.0
 11
182.652939
 21
452.799988
 31
0.0
  0
ARC
  5
6E9
330
1F
100
AcDbEntity
  8
0
 62
     7
100
AcDbCircle
 10
178.452927
 20
480.099976
 30
0.0
 40
3.0
100
AcDbArc
 50
8.262821
 51
90.000003
  0
LINE
  5
6EA
330
1F
100
AcDbEntity
  8
0
 62
     7
100
AcDbLine
 10
182.702927
 20
453.299988
 30
0.0
 11
182.702927
 21
453.430359
 31
0.0
  0
LINE
  5
6EB
330
1F
100
AcDbEntity
  8
0
 62
     7
100
AcDbLine
 10
182.702927
 20
456.930359
 30
0.0
 11
182.702927
 21
453.430359
 31
0.0
  0
LINE
  5
6EC
330
1F
100
AcDbEntity
  8
0
 62
     7
100
AcDbLine
 10
182.652939
 20
457.200012
 30
0.0
 11
182.702927
 21
457.200012
 31
0.0
  0
LINE
  5
6ED
330
1F
100
AcDbEntity
  8
0
 62
     7
100
AcDbLine
 10
182.702927
 20
456.930359
 30
0.0
 11
182.702927
 21
457.200012
 31
0.0
  0
LINE
  5
6EE
330
1F
100
AcDbEntity
  8
0
 62
     7
100
AcDbLine
 10
182.106491
 20
479.846436
 30
0.0
 11
181.26442
 21
480.688538
 31
0.0
  0
ARC
  5
6EF
330
1F
100
AcDbEntity
  8
0
 62
     7
100
AcDbCircle
 10
181.752945
 20
479.49292
 30
0.0
 40
0.5
100
AcDbArc
 50
0.0
 51
45.000001
  0
LINE
  5
6F0
330
1F
100
AcDbEntity
  8
0
 62
     7
100
AcDbLine
 10
182.252945
 20
452.400024
 30
0.0
 11
182.252945
 21
479.49292
 31
0.0
  0
ARC
  5
6F1
330
1F
100
AcDbEntity
  8
0
 62
     7
100
AcDbCircle
 10
181.752945
 20
452.400024
 30
0.0
 40
0.5
100
AcDbArc
 50
269.999997
 51
360.0
  0
LINE
  5
6F2
330
1F
100
AcDbEntity
  8
0
 62
     7
100
AcDbLine
 10
166.152939
 20
451.900024
 30
0.0
 11
181.752945
 21
451.900024
 31
0.0
  0
ARC
  5
6F3
330
1F
100
AcDbEntity
  8
0
 62
     7
100
AcDbCircle
 10
166.152939
 20
452.400024
 30
0.0
 40
0.5
100
AcDbArc
 50
180.000009
 51
269.999997
  0
LINE
  5
6F4
330
1F
100
AcDbEntity
  8
0
 62
     7
100
AcDbLine
 10
165.652939
 20
479.49292
 30
0.0
 11
165.652939
 21
452.400024
 31
0.0
  0
LINE
  5
6F5
330
1F
100
AcDbEntity
  8
0
 62
     7
100
AcDbLine
 10
164.852936
 20
461.799988
 30
0.0
 11
164.852936
 21
463.799988
 31
0.0
  0
LINE
  5
6F6
330
1F
100
AcDbEntity
  8
0
 62
     7
100
AcDbLine
 10
164.852936
 20
461.799988
 30
0.0
 11
165.652939
 21
461.799988
 31
0.0
  0
LINE
  5
6F7
330
1F
100
AcDbEntity
  8
0
 62
     7
100
AcDbLine
 10
178.452927
 20
483.099976
 30
0.0
 11
169.452927
 21
483.099976
 31
0.0
  0
ARC
  5
6F8
330
1F
100
AcDbEntity
  8
0
 62
     7
100
AcDbCircle
 10
169.452927
 20
480.099976
 30
0.0
 40
3.0
100
AcDbArc
 50
90.000003
 51
171.737184
  0
ARC
  5
6F9
330
1F
100
AcDbEntity
  8
0
 62
     7
100
AcDbCircle
 10
181.299774
 20
480.723877
 30
0.0
 40
0.0500000007450581
100
AcDbArc
 50
189.204208
 51
225.0
  0
ARC
  5
6FA
330
1F
100
AcDbEntity
  8
0
 62
     7
100
AcDbCircle
 10
166.152939
 20
479.49292
 30
0.0
 40
0.5
100
AcDbArc
 50
135.0
 51
180.000009
  0
LINE
  5
6FB
330
1F
100
AcDbEntity
  8
0
 62
     7
100
AcDbLine
 10
164.852936
 20
478.571106
 30
0.0
 11
164.852936
 21
463.799988
 31
0.0
  0
LINE
  5
6FC
330
1F
100
AcDbEntity
  8
0
 62
     7
100
AcDbLine
 10
164.852936
 20
478.571106
 30
0.0
 11
164.852936
 21
478.613342
 31
0.0
  0
LINE
  5
6FD
330
1F
100
AcDbEntity
  8
0
 62
     7
100
AcDbLine
 10
164.852936
 20
478.613342
 30
0.0
 11
164.852936
 21
483.099976
 31
0.0
  0
LINE
  5
6FE
330
1F
100
AcDbEntity
  8
0
 62
     7
100
AcDbLine
 10
165.052933
 20
461.799988
 30
0.0
 11
165.052933
 21
461.299988
 31
0.0
  0
LINE
  5
6FF
330
1F
100
AcDbEntity
  8
0
 62
     7
100
AcDbLine
 10
165.652939
 20
461.299988
 30
0.0
 11
165.052933
 21
461.299988
 31
0.0
  0
LINE
  5
700
330
1F
100
AcDbEntity
  8
0
 62
     7
100
AcDbLine
 10
165.052933
 20
452.599976
 30
0.0
 11
165.052933
 21
461.299988
 31
0.0
  0
ARC
  5
701
330
1F
100
AcDbEntity
  8
0
 62
     7
100
AcDbCircle
 10
165.852936
 20
452.599976
 30
0.0
 40
0.800000011920929
100
AcDbArc
 50
180.000009
 51
269.999997
  0
LINE
  5
702
330
1F
100
AcDbEntity
  8
0
 62
     7
100
AcDbLine
 10
165.852936
 20
451.799988
 30
0.0
 11
167.052933
 21
451.799988
 31
0.0
  0
ARC
  5
703
330
1F
100
AcDbEntity
  8
0
 62
     7
100
AcDbCircle
 10
167.052933
 20
452.599976
 30
0.0
 40
0.800000011920929
100
AcDbArc
 50
269.999997
 51
298.955164
  0
LINE
  5
704
330
1F
100
AcDbEntity
  8
0
 62
     7
100
AcDbLine
 10
166.641464
 20
480.688538
 30
0.0
 11
165.799377
 21
479.846436
 31
0.0
  0
ARC
  5
705
330
1F
100
AcDbEntity
  8
0
 62
     7
100
AcDbCircle
 10
166.606094
 20
480.723877
 30
0.0
 40
0.0500000007450581
100
AcDbArc
 50
314.999992
 51
350.795784
  0
ARC
  5
706
330
1F
100
AcDbEntity
  8
0
 62
     7
100
AcDbCircle
 10
169.221985
 20
480.299988
 30
0.0
 40
2.599999904632568
100
AcDbArc
 50
90.000003
 51
170.795792
  0
LINE
  5
707
330
1F
100
AcDbEntity
  8
0
 62
     7
100
AcDbLine
 10
178.683884
 20
482.900024
 30
0.0
 11
169.221985
 21
482.900024
 31
0.0
  0
ARC
  5
708
330
1F
100
AcDbEntity
  8
0
 62
     7
100
AcDbCircle
 10
178.683884
 20
480.299988
 30
0.0
 40
2.599999904632568
100
AcDbArc
 50
9.20421
 51
90.000003
  0
CIRCLE
  5
709
330
1F
100
AcDbEntity
  8
0
 62
     7
100
AcDbCircle
 10
173.952927
 20
460.099976
 30
0.0
 40
5.150000095367432
  0
POLYLINE
  5
70A
330
1F
100
AcDbEntity
  8
0
 62
     7
100
AcDb2dPolyline
 66
     1
 10
0.0
 20
0.0
 30
0.0
  0
VERTEX
  5
70B
330
70A
100
AcDbEntity
  8
0
100
AcDbVertex
100
AcDb2dVertex
 10
165.352936
 20
480.010193
 30
0.0
  0
VERTEX
  5
70C
330
70A
100
AcDbEntity
  8
0
100
AcDbVertex
100
AcDb2dVertex
 10
165.349075
 20
479.912903
 30
0.0
  0
VERTEX
  5
70D
330
70A
100
AcDbEntity
  8
0
100
AcDbVertex
100
AcDb2dVertex
 10
165.337479
 20
479.809448
 30
0.0
  0
VERTEX
  5
70E
330
70A
100
AcDbEntity
  8
0
100
AcDbVertex
100
AcDb2dVertex
 10
165.318115
 20
479.700073
 30
0.0
  0
VERTEX
  5
70F
330
70A
100
AcDbEntity
  8
0
100
AcDbVertex
100
AcDb2dVertex
 10
165.290924
 20
479.5849
 30
0.0
  0
VERTEX
  5
710
330
70A
100
AcDbEntity
  8
0
100
AcDbVertex
100
AcDb2dVertex
 10
165.255737
 20
479.463989
 30
0.0
  0
VERTEX
  5
711
330
70A
100
AcDbEntity
  8
0
100
AcDbVertex
100
AcDb2dVertex
 10
165.21228
 20
479.337341
 30
0.0
  0
VERTEX
  5
712
330
70A
100
AcDbEntity
  8
0
100
AcDbVertex
100
AcDb2dVertex
 10
165.160202
 20
479.204895
 30
0.0
  0
VERTEX
  5
713
330
70A
100
AcDbEntity
  8
0
100
AcDbVertex
100
AcDb2dVertex
 10
165.098969
 20
479.066406
 30
0.0
  0
VERTEX
  5
714
330
70A
100
AcDbEntity
  8
0
100
AcDbVertex
100
AcDb2dVertex
 10
165.027939
 20
478.921814
 30
0.0
  0
VERTEX
  5
715
330
70A
100
AcDbEntity
  8
0
100
AcDbVertex
100
AcDb2dVertex
 10
164.946274
 20
478.770874
 30
0.0
  0
VERTEX
  5
716
330
70A
100
AcDbEntity
  8
0
100
AcDbVertex
100
AcDb2dVertex
 10
164.852936
 20
478.613342
 30
0.0
  0
SEQEND
  5
717
330
70A
100
AcDbEntity
  8
0
 62
     7
  0
LINE
  5
718
330
1F
100
AcDbEntity
  8
0
 62
     7
100
AcDbLine
 10
165.352936
 20
480.010193
 30
0.0
 11
165.352936
 21
483.599976
 31
0.0
  0
LINE
  5
719
330
1F
100
AcDbEntity
  8
0
 62
     7
100
AcDbLine
 10
166.452942
 20
483.600281
 30
0.0
 11
166.452942
 21
488.739868
 31
0.0
  0
LINE
  5
71A
330
1F
100
AcDbEntity
  8
0
 62
     7
100
AcDbLine
 10
166.452942
 20
491.099976
 30
0.0
 11
166.452942
 21
488.739868
 31
0.0
  0
LINE
  5
71B
330
1F
100
AcDbEntity
  8
0
 62
     7
100
AcDbLine
 10
166.452942
 20
480.5
 30
0.0
 11
166.452942
 21
483.599976
 31
0.0
  0
CIRCLE
  5
71C
330
1F
100
AcDbEntity
  8
0
 62
     7
100
AcDbCircle
 10
173.952927
 20
460.099976
 30
0.0
 40
4.150000095367432
  0
LINE
  5
71D
330
1F
100
AcDbEntity
  8
0
 62
     7
100
AcDbLine
 10
165.352936
 20
488.739868
 30
0.0
 11
166.452942
 21
488.739868
 31
0.0
  0
LINE
  5
71E
330
1F
100
AcDbEntity
  8
0
 62
     7
100
AcDbLine
 10
164.852936
 20
483.100525
 30
0.0
 11
164.852936
 21
488.172119
 31
0.0
  0
LINE
  5
71F
330
1F
100
AcDbEntity
  8
0
 62
     7
100
AcDbLine
 10
165.352936
 20
488.739868
 30
0.0
 11
164.852936
 21
488.172119
 31
0.0
  0
LINE
  5
720
330
1F
100
AcDbEntity
  8
0
 62
     7
100
AcDbLine
 10
165.352936
 20
491.099976
 30
0.0
 11
165.352936
 21
488.739868
 31
0.0
  0
LINE
  5
721
330
1F
100
AcDbEntity
  8
0
 62
     7
100
AcDbLine
 10
164.852936
 20
490.599976
 30
0.0
 11
164.852936
 21
488.172119
 31
0.0
  0
ARC
  5
722
330
1F
100
AcDbEntity
  8
0
 62
     7
100
AcDbCircle
 10
173.952927
 20
460.099976
 30
0.0
 40
3.75
100
AcDbArc
 50
350.018317
 51
9.981683
  0
ARC
  5
723
330
1F
100
AcDbEntity
  8
0
 62
     7
100
AcDbCircle
 10
173.952927
 20
460.099976
 30
0.0
 40
3.75
100
AcDbArc
 50
189.981688
 51
350.018317
  0
ARC
  5
724
330
1F
100
AcDbEntity
  8
0
 62
     7
100
AcDbCircle
 10
173.952927
 20
460.099976
 30
0.0
 40
3.75
100
AcDbArc
 50
170.018312
 51
189.981688
  0
ARC
  5
725
330
1F
100
AcDbEntity
  8
0
 62
     7
100
AcDbCircle
 10
173.952927
 20
460.099976
 30
0.0
 40
3.75
100
AcDbArc
 50
9.981683
 51
170.018312
  0
LINE
  5
726
330
1F
100
AcDbEntity
  8
0
 62
     7
100
AcDbLine
 10
177.442917
 20
459.450012
 30
0.0
 11
177.646164
 21
459.450012
 31
0.0
  0
LINE
  5
727
330
1F
100
AcDbEntity
  8
0
 62
     7
100
AcDbLine
 10
170.462952
 20
459.450012
 30
0.0
 11
170.259705
 21
459.450012
 31
0.0
  0
LINE
  5
728
330
1F
100
AcDbEntity
  8
0
 62
     7
100
AcDbLine
 10
177.442917
 20
459.450012
 30
0.0
 11
170.462952
 21
459.450012
 31
0.0
  0
ARC
  5
729
330
1F
100
AcDbEntity
  8
0
 62
     7
100
AcDbCircle
 10
173.952927
 20
460.099976
 30
0.0
 40
3.549999952316284
100
AcDbArc
 50
190.550301
 51
349.44969
  0
LINE
  5
72A
330
1F
100
AcDbEntity
  8
0
 62
     7
100
AcDbLine
 10
170.462952
 20
460.75
 30
0.0
 11
170.259705
 21
460.75
 31
0.0
  0
LINE
  5
72B
330
1F
100
AcDbEntity
  8
0
 62
     7
100
AcDbLine
 10
177.442917
 20
460.75
 30
0.0
 11
177.646164
 21
460.75
 31
0.0
  0
LINE
  5
72C
330
1F
100
AcDbEntity
  8
0
 62
     7
100
AcDbLine
 10
170.462952
 20
460.75
 30
0.0
 11
177.442917
 21
460.75
 31
0.0
  0
ARC
  5
72D
330
1F
100
AcDbEntity
  8
0
 62
     7
100
AcDbCircle
 10
173.952927
 20
460.099976
 30
0.0
 40
3.549999952316284
100
AcDbArc
 50
10.550303
 51
169.449699
  0
LINE
  5
72E
330
1F
100
AcDbEntity
  8
0
 62
     7
100
AcDbLine
 10
182.652939
 20
453.299988
 30
0.0
 11
182.702927
 21
453.299988
 31
0.0
  0
LINE
  5
72F
330
1F
100
AcDbEntity
  8
0
 62
     7
100
AcDbLine
 10
182.652939
 20
453.299988
 30
0.0
 11
182.702927
 21
453.299988
 31
0.0
  0
LINE
  5
730
330
1F
100
AcDbEntity
  8
0
 62
     7
100
AcDbLine
 10
164.852936
 20
483.099976
 30
0.0
 11
165.352936
 21
483.599976
 31
0.0
  0
LINE
  5
731
330
1F
100
AcDbEntity
  8
0
 62
     7
100
AcDbLine
 10
165.352936
 20
483.599976
 30
0.0
 11
166.452942
 21
483.599976
 31
0.0
  0
LINE
  5
732
330
1F
100
AcDbEntity
  8
0
 62
     7
100
AcDbLine
 10
166.452942
 20
491.099976
 30
0.0
 11
165.352936
 21
491.099976
 31
0.0
  0
LINE
  5
733
330
1F
100
AcDbEntity
  8
0
 62
     7
100
AcDbLine
 10
164.852936
 20
490.599976
 30
0.0
 11
165.352936
 21
491.099976
 31
0.0
  0
LINE
  5
734
330
1F
100
AcDbEntity
  8
0
 62
     7
100
AcDbLine
 10
165.052933
 20
426.200012
 30
0.0
 11
165.052933
 21
449.299988
 31
0.0
  0
LINE
  5
735
330
1F
100
AcDbEntity
  8
0
 62
     7
100
AcDbLine
 10
165.052933
 20
449.299988
 30
0.0
 11
165.052933
 21
450.299988
 31
0.0
  0
LINE
  5
736
330
1F
100
AcDbEntity
  8
0
 62
     7
100
AcDbLine
 10
182.252945
 20
449.299988
 30
0.0
 11
182.252945
 21
426.200012
 31
0.0
  0
LINE
  5
737
330
1F
100
AcDbEntity
  8
0
 62
     7
100
AcDbLine
 10
182.252945
 20
449.299988
 30
0.0
 11
182.252945
 21
450.299988
 31
0.0
  0
LINE
  5
738
330
1F
100
AcDbEntity
  8
0
 62
     7
100
AcDbLine
 10
165.552933
 20
449.299988
 30
0.0
 11
165.199387
 21
449.653564
 31
0.0
  0
ARC
  5
739
330
1F
100
AcDbEntity
  8
0
 62
     7
100
AcDbCircle
 10
165.552933
 20
449.299988
 30
0.0
 40
0.5
100
AcDbArc
 50
90.000003
 51
180.000009
  0
ARC
  5
73A
330
1F
100
AcDbEntity
  8
0
 62
     7
100
AcDbCircle
 10
165.552933
 20
426.200012
 30
0.0
 40
0.5
100
AcDbArc
 50
180.000009
 51
270.000353
  0
ARC
  5
73B
330
1F
100
AcDbEntity
  8
0
 62
     7
100
AcDbCircle
 10
165.552933
 20
425.700012
 30
0.0
 40
0.5000079870223999
100
AcDbArc
 50
90.000289
 51
149.999055
  0
ARC
  5
73C
330
1F
100
AcDbEntity
  8
0
 62
     7
100
AcDbCircle
 10
165.552933
 20
450.299988
 30
0.0
 40
0.5
100
AcDbArc
 50
90.000003
 51
180.000009
  0
LINE
  5
73D
330
1F
100
AcDbEntity
  8
0
 62
     7
100
AcDbLine
 10
164.852936
 20
444.737671
 30
0.0
 11
164.852936
 21
445.7005
 31
0.0
  0
LINE
  5
73E
330
1F
100
AcDbEntity
  8
0
 62
     7
100
AcDbLine
 10
164.852936
 20
444.737671
 30
0.0
 11
164.852936
 21
433.0
 31
0.0
  0
LINE
  5
73F
330
1F
100
AcDbEntity
  8
0
 62
     7
100
AcDbLine
 10
164.852936
 20
430.0
 30
0.0
 11
164.852936
 21
433.0
 31
0.0
  0
LINE
  5
740
330
1F
100
AcDbEntity
  8
0
 62
     7
100
AcDbLine
 10
164.852936
 20
430.0
 30
0.0
 11
165.052933
 21
430.0
 31
0.0
  0
LINE
  5
741
330
1F
100
AcDbEntity
  8
0
 62
     7
100
AcDbLine
 10
164.852936
 20
448.799988
 30
0.0
 11
165.052933
 21
448.799988
 31
0.0
  0
LINE
  5
742
330
1F
100
AcDbEntity
  8
0
 62
     7
100
AcDbLine
 10
164.852936
 20
447.93512
 30
0.0
 11
164.852936
 21
448.799988
 31
0.0
  0
LINE
  5
743
330
1F
100
AcDbEntity
  8
0
 62
     7
100
AcDbLine
 10
169.703247
 20
429.0
 30
0.0
 11
169.885971
 21
429.0
 31
0.0
  0
LINE
  5
744
330
1F
100
AcDbEntity
  8
0
 62
     7
100
AcDbLine
 10
177.419876
 20
429.0
 30
0.0
 11
177.602615
 21
429.0
 31
0.0
  0
ARC
  5
745
330
1F
100
AcDbEntity
  8
0
 62
     7
100
AcDbCircle
 10
181.752945
 20
426.200012
 30
0.0
 40
0.5
100
AcDbArc
 50
269.999997
 51
359.999901
  0
ARC
  5
746
330
1F
100
AcDbEntity
  8
0
 62
     7
100
AcDbCircle
 10
181.752945
 20
449.299988
 30
0.0
 40
0.5
100
AcDbArc
 50
0.0
 51
90.000003
  0
LINE
  5
747
330
1F
100
AcDbEntity
  8
0
 62
     7
100
AcDbLine
 10
181.752945
 20
449.299988
 30
0.0
 11
182.106491
 21
449.653564
 31
0.0
  0
ARC
  5
748
330
1F
100
AcDbEntity
  8
0
 62
     7
100
AcDbCircle
 10
181.752945
 20
425.700012
 30
0.0
 40
0.4999969899654388
100
AcDbArc
 50
29.999605
 51
90.000201
  0
LINE
  5
749
330
1F
100
AcDbEntity
  8
0
 62
     7
100
AcDbLine
 10
182.252945
 20
447.93512
 30
0.0
 11
182.252945
 21
445.7005
 31
0.0
  0
LINE
  5
74A
330
1F
100
AcDbEntity
  8
0
 62
     7
100
AcDbLine
 10
182.452927
 20
447.93512
 30
0.0
 11
182.452927
 21
448.799988
 31
0.0
  0
LINE
  5
74B
330
1F
100
AcDbEntity
  8
0
 62
     7
100
AcDbLine
 10
182.252945
 20
448.799988
 30
0.0
 11
182.452927
 21
448.799988
 31
0.0
  0
LINE
  5
74C
330
1F
100
AcDbEntity
  8
0
 62
     7
100
AcDbLine
 10
182.252945
 20
430.0
 30
0.0
 11
182.452927
 21
430.0
 31
0.0
  0
LINE
  5
74D
330
1F
100
AcDbEntity
  8
0
 62
     7
100
AcDbLine
 10
182.452927
 20
430.0
 30
0.0
 11
182.452927
 21
433.0
 31
0.0
  0
LINE
  5
74E
330
1F
100
AcDbEntity
  8
0
 62
     7
100
AcDbLine
 10
182.452927
 20
444.737671
 30
0.0
 11
182.452927
 21
433.0
 31
0.0
  0
LINE
  5
74F
330
1F
100
AcDbEntity
  8
0
 62
     7
100
AcDbLine
 10
182.452927
 20
444.737671
 30
0.0
 11
182.452927
 21
445.7005
 31
0.0
  0
ARC
  5
750
330
1F
100
AcDbEntity
  8
0
 62
     7
100
AcDbCircle
 10
181.752945
 20
450.299988
 30
0.0
 40
0.5
100
AcDbArc
 50
0.0
 51
90.000003
  0
LINE
  5
751
330
1F
100
AcDbEntity
  8
0
 62
     7
100
AcDbLine
 10
165.552933
 20
426.200012
 30
0.0
 11
173.052933
 21
426.200012
 31
0.0
  0
LINE
  5
752
330
1F
100
AcDbEntity
  8
0
 62
     7
100
AcDbLine
 10
173.052933
 20
426.900024
 30
0.0
 11
173.052933
 21
426.200012
 31
0.0
  0
LINE
  5
753
330
1F
100
AcDbEntity
  8
0
 62
     7
100
AcDbLine
 10
173.052933
 20
426.900024
 30
0.0
 11
174.252945
 21
426.900024
 31
0.0
  0
LINE
  5
754
330
1F
100
AcDbEntity
  8
0
 62
     7
100
AcDbLine
 10
174.252945
 20
426.900024
 30
0.0
 11
174.252945
 21
426.200012
 31
0.0
  0
LINE
  5
755
330
1F
100
AcDbEntity
  8
0
 62
     7
100
AcDbLine
 10
174.252945
 20
426.200012
 30
0.0
 11
181.752945
 21
426.200012
 31
0.0
  0
ARC
  5
756
330
1F
100
AcDbEntity
  8
0
 62
     7
100
AcDbCircle
 10
177.287827
 20
449.299988
 30
0.0
 40
0.5
100
AcDbArc
 50
90.000003
 51
218.583597
  0
ARC
  5
757
330
1F
100
AcDbEntity
  8
0
 62
     7
100
AcDbCircle
 10
173.652939
 20
446.400024
 30
0.0
 40
4.150000095367432
100
AcDbArc
 50
0.0
 51
38.583602
  0
LINE
  5
758
330
1F
100
AcDbEntity
  8
0
 62
     7
100
AcDbLine
 10
177.802933
 20
446.400024
 30
0.0
 11
177.802933
 21
445.400024
 31
0.0
  0
ARC
  5
759
330
1F
100
AcDbEntity
  8
0
 62
     7
100
AcDbCircle
 10
173.652939
 20
445.400024
 30
0.0
 40
4.150000095367432
100
AcDbArc
 50
327.912246
 51
360.0
  0
POLYLINE
  5
75A
330
1F
100
AcDbEntity
  8
0
 62
     7
100
AcDb2dPolyline
 66
     1
 10
0.0
 20
0.0
 30
0.0
  0
VERTEX
  5
75B
330
75A
100
AcDbEntity
  8
0
100
AcDbVertex
100
AcDb2dVertex
 10
177.579788
 20
441.053833
 30
0.0
  0
VERTEX
  5
75C
330
75A
100
AcDbEntity
  8
0
100
AcDbVertex
100
AcDb2dVertex
 10
177.505478
 20
441.104675
 30
0.0
  0
VERTEX
  5
75D
330
75A
100
AcDbEntity
  8
0
100
AcDbVertex
100
AcDb2dVertex
 10
177.446091
 20
441.150635
 30
0.0
  0
VERTEX
  5
75E
330
75A
100
AcDbEntity
  8
0
100
AcDbVertex
100
AcDb2dVertex
 10
177.389343
 20
441.199585
 30
0.0
  0
VERTEX
  5
75F
330
75A
100
AcDbEntity
  8
0
100
AcDbVertex
100
AcDb2dVertex
 10
177.314697
 20
441.272644
 30
0.0
  0
VERTEX
  5
760
330
75A
100
AcDbEntity
  8
0
100
AcDbVertex
100
AcDb2dVertex
 10
177.245773
 20
441.350891
 30
0.0
  0
VERTEX
  5
761
330
75A
100
AcDbEntity
  8
0
100
AcDbVertex
100
AcDb2dVertex
 10
177.182922
 20
441.433655
 30
0.0
  0
VERTEX
  5
762
330
75A
100
AcDbEntity
  8
0
100
AcDbVertex
100
AcDb2dVertex
 10
177.126389
 20
441.520386
 30
0.0
  0
VERTEX
  5
763
330
75A
100
AcDbEntity
  8
0
100
AcDbVertex
100
AcDb2dVertex
 10
177.07634
 20
441.610535
 30
0.0
  0
VERTEX
  5
764
330
75A
100
AcDbEntity
  8
0
100
AcDbVertex
100
AcDb2dVertex
 10
177.032913
 20
441.703613
 30
0.0
  0
VERTEX
  5
765
330
75A
100
AcDbEntity
  8
0
100
AcDbVertex
100
AcDb2dVertex
 10
176.99617
 20
441.79895
 30
0.0
  0
VERTEX
  5
766
330
75A
100
AcDbEntity
  8
0
100
AcDbVertex
100
AcDb2dVertex
 10
176.965027
 20
441.900024
 30
0.0
  0
VERTEX
  5
767
330
75A
100
AcDbEntity
  8
0
100
AcDbVertex
100
AcDb2dVertex
 10
176.941071
 20
442.002502
 30
0.0
  0
VERTEX
  5
768
330
75A
100
AcDbEntity
  8
0
100
AcDbVertex
100
AcDb2dVertex
 10
176.924194
 20
442.105774
 30
0.0
  0
VERTEX
  5
769
330
75A
100
AcDbEntity
  8
0
100
AcDbVertex
100
AcDb2dVertex
 10
176.914291
 20
442.209473
 30
0.0
  0
VERTEX
  5
76A
330
75A
100
AcDbEntity
  8
0
100
AcDbVertex
100
AcDb2dVertex
 10
176.911209
 20
442.31311
 30
0.0
  0
VERTEX
  5
76B
330
75A
100
AcDbEntity
  8
0
100
AcDbVertex
100
AcDb2dVertex
 10
176.914795
 20
442.416199
 30
0.0
  0
VERTEX
  5
76C
330
75A
100
AcDbEntity
  8
0
100
AcDbVertex
100
AcDb2dVertex
 10
176.92485
 20
442.518433
 30
0.0
  0
VERTEX
  5
76D
330
75A
100
AcDbEntity
  8
0
100
AcDbVertex
100
AcDb2dVertex
 10
176.941589
 20
442.621521
 30
0.0
  0
VERTEX
  5
76E
330
75A
100
AcDbEntity
  8
0
100
AcDbVertex
100
AcDb2dVertex
 10
176.964706
 20
442.723022
 30
0.0
  0
VERTEX
  5
76F
330
75A
100
AcDbEntity
  8
0
100
AcDbVertex
100
AcDb2dVertex
 10
176.993988
 20
442.822571
 30
0.0
  0
VERTEX
  5
770
330
75A
100
AcDbEntity
  8
0
100
AcDbVertex
100
AcDb2dVertex
 10
177.029251
 20
442.919861
 30
0.0
  0
VERTEX
  5
771
330
75A
100
AcDbEntity
  8
0
100
AcDbVertex
100
AcDb2dVertex
 10
177.070297
 20
443.014648
 30
0.0
  0
VERTEX
  5
772
330
75A
100
AcDbEntity
  8
0
100
AcDbVertex
100
AcDb2dVertex
 10
177.116928
 20
443.106567
 30
0.0
  0
VERTEX
  5
773
330
75A
100
AcDbEntity
  8
0
100
AcDbVertex
100
AcDb2dVertex
 10
177.168961
 20
443.195435
 30
0.0
  0
SEQEND
  5
774
330
75A
100
AcDbEntity
  8
0
 62
     7
  0
ARC
  5
775
330
1F
100
AcDbEntity
  8
0
 62
     7
100
AcDbCircle
 10
173.652939
 20
434.900024
 30
0.0
 40
7.300000190734863
100
AcDbArc
 50
122.542528
 51
57.457471
  0
POLYLINE
  5
776
330
1F
100
AcDbEntity
  8
0
 62
     7
100
AcDb2dPolyline
 66
     1
 10
0.0
 20
0.0
 30
0.0
  0
VERTEX
  5
777
330
776
100
AcDbEntity
  8
0
100
AcDbVertex
100
AcDb2dVertex
 10
169.726089
 20
441.053833
 30
0.0
  0
VERTEX
  5
778
330
776
100
AcDbEntity
  8
0
100
AcDbVertex
100
AcDb2dVertex
 10
169.805573
 20
441.108459
 30
0.0
  0
VERTEX
  5
779
330
776
100
AcDbEntity
  8
0
100
AcDbVertex
100
AcDb2dVertex
 10
169.881119
 20
441.168396
 30
0.0
  0
VERTEX
  5
77A
330
776
100
AcDbEntity
  8
0
100
AcDbVertex
100
AcDb2dVertex
 10
169.952316
 20
441.233276
 30
0.0
  0
VERTEX
  5
77B
330
776
100
AcDbEntity
  8
0
100
AcDbVertex
100
AcDb2dVertex
 10
170.018845
 20
441.302673
 30
0.0
  0
VERTEX
  5
77C
330
776
100
AcDbEntity
  8
0
100
AcDbVertex
100
AcDb2dVertex
 10
170.080383
 20
441.376282
 30
0.0
  0
VERTEX
  5
77D
330
776
100
AcDbEntity
  8
0
100
AcDbVertex
100
AcDb2dVertex
 10
170.141953
 20
441.461304
 30
0.0
  0
VERTEX
  5
77E
330
776
100
AcDbEntity
  8
0
100
AcDbVertex
100
AcDb2dVertex
 10
170.196991
 20
441.550232
 30
0.0
  0
VERTEX
  5
77F
330
776
100
AcDbEntity
  8
0
100
AcDbVertex
100
AcDb2dVertex
 10
170.245346
 20
441.642517
 30
0.0
  0
VERTEX
  5
780
330
776
100
AcDbEntity
  8
0
100
AcDbVertex
100
AcDb2dVertex
 10
170.28688
 20
441.737488
 30
0.0
  0
VERTEX
  5
781
330
776
100
AcDbEntity
  8
0
100
AcDbVertex
100
AcDb2dVertex
 10
170.321594
 20
441.834656
 30
0.0
  0
VERTEX
  5
782
330
776
100
AcDbEntity
  8
0
100
AcDbVertex
100
AcDb2dVertex
 10
170.349472
 20
441.933411
 30
0.0
  0
VERTEX
  5
783
330
776
100
AcDbEntity
  8
0
100
AcDbVertex
100
AcDb2dVertex
 10
170.37059
 20
442.033325
 30
0.0
  0
VERTEX
  5
784
330
776
100
AcDbEntity
  8
0
100
AcDbVertex
100
AcDb2dVertex
 10
170.385513
 20
442.138184
 30
0.0
  0
VERTEX
  5
785
330
776
100
AcDbEntity
  8
0
100
AcDbVertex
100
AcDb2dVertex
 10
170.393326
 20
442.243286
 30
0.0
  0
VERTEX
  5
786
330
776
100
AcDbEntity
  8
0
100
AcDbVertex
100
AcDb2dVertex
 10
170.39418
 20
442.348145
 30
0.0
  0
VERTEX
  5
787
330
776
100
AcDbEntity
  8
0
100
AcDbVertex
100
AcDb2dVertex
 10
170.38826
 20
442.452393
 30
0.0
  0
VERTEX
  5
788
330
776
100
AcDbEntity
  8
0
100
AcDbVertex
100
AcDb2dVertex
 10
170.375763
 20
442.555603
 30
0.0
  0
VERTEX
  5
789
330
776
100
AcDbEntity
  8
0
100
AcDbVertex
100
AcDb2dVertex
 10
170.356857
 20
442.65741
 30
0.0
  0
VERTEX
  5
78A
330
776
100
AcDbEntity
  8
0
100
AcDbVertex
100
AcDb2dVertex
 10
170.331772
 20
442.757568
 30
0.0
  0
VERTEX
  5
78B
330
776
100
AcDbEntity
  8
0
100
AcDbVertex
100
AcDb2dVertex
 10
170.30275
 20
442.849609
 30
0.0
  0
VERTEX
  5
78C
330
776
100
AcDbEntity
  8
0
100
AcDbVertex
100
AcDb2dVertex
 10
170.268616
 20
442.939697
 30
0.0
  0
VERTEX
  5
78D
330
776
100
AcDbEntity
  8
0
100
AcDbVertex
100
AcDb2dVertex
 10
170.229492
 20
443.027466
 30
0.0
  0
VERTEX
  5
78E
330
776
100
AcDbEntity
  8
0
100
AcDbVertex
100
AcDb2dVertex
 10
170.185532
 20
443.112793
 30
0.0
  0
VERTEX
  5
78F
330
776
100
AcDbEntity
  8
0
100
AcDbVertex
100
AcDb2dVertex
 10
170.136917
 20
443.195435
 30
0.0
  0
SEQEND
  5
790
330
776
100
AcDbEntity
  8
0
 62
     7
  0
ARC
  5
791
330
1F
100
AcDbEntity
  8
0
 62
     7
100
AcDbCircle
 10
173.652939
 20
445.400024
 30
0.0
 40
4.150000095367432
100
AcDbArc
 50
180.000009
 51
212.087746
  0
LINE
  5
792
330
1F
100
AcDbEntity
  8
0
 62
     7
100
AcDbLine
 10
169.502945
 20
446.400024
 30
0.0
 11
169.502945
 21
445.400024
 31
0.0
  0
ARC
  5
793
330
1F
100
AcDbEntity
  8
0
 62
     7
100
AcDbCircle
 10
173.652939
 20
446.400024
 30
0.0
 40
4.150000095367432
100
AcDbArc
 50
141.416403
 51
180.000009
  0
ARC
  5
794
330
1F
100
AcDbEntity
  8
0
 62
     7
100
AcDbCircle
 10
170.018036
 20
449.299988
 30
0.0
 40
0.5
100
AcDbArc
 50
321.416408
 51
90.000003
  0
LINE
  5
795
330
1F
100
AcDbEntity
  8
0
 62
     7
100
AcDbLine
 10
167.802933
 20
442.099976
 30
0.0
 11
167.402939
 21
442.099976
 31
0.0
  0
ARC
  5
796
330
1F
100
AcDbEntity
  8
0
 62
     7
100
AcDbCircle
 10
167.402939
 20
443.450012
 30
0.0
 40
1.350000023841858
100
AcDbArc
 50
90.000003
 51
269.99997
  0
LINE
  5
797
330
1F
100
AcDbEntity
  8
0
 62
     7
100
AcDbLine
 10
167.402939
 20
444.799988
 30
0.0
 11
167.802933
 21
444.799988
 31
0.0
  0
ARC
  5
798
330
1F
100
AcDbEntity
  8
0
 62
     7
100
AcDbCircle
 10
167.802933
 20
443.450012
 30
0.0
 40
1.350000023841858
100
AcDbArc
 50
269.999997
 51
89.999989
  0
CIRCLE
  5
799
330
1F
100
AcDbEntity
  8
0
 62
     7
100
AcDbCircle
 10
179.702927
 20
443.450012
 30
0.0
 40
1.350000023841858
  0
LINE
  5
79A
330
1F
100
AcDbEntity
  8
0
 62
     7
100
AcDbLine
 10
165.552933
 20
449.799988
 30
0.0
 11
170.018036
 21
449.799988
 31
0.0
  0
LINE
  5
79B
330
1F
100
AcDbEntity
  8
0
 62
     7
100
AcDbLine
 10
174.252945
 20
426.200012
 30
0.0
 11
174.252945
 21
425.900024
 31
0.0
  0
LINE
  5
79C
330
1F
100
AcDbEntity
  8
0
 62
     7
100
AcDbLine
 10
173.052933
 20
425.900024
 30
0.0
 11
174.252945
 21
425.900024
 31
0.0
  0
LINE
  5
79D
330
1F
100
AcDbEntity
  8
0
 62
     7
100
AcDbLine
 10
173.052933
 20
426.200012
 30
0.0
 11
173.052933
 21
425.900024
 31
0.0
  0
LINE
  5
79E
330
1F
100
AcDbEntity
  8
0
 62
     7
100
AcDbLine
 10
165.552933
 20
425.700012
 30
0.0
 11
181.752945
 21
425.700012
 31
0.0
  0
LINE
  5
79F
330
1F
100
AcDbEntity
  8
0
 62
     7
100
AcDbLine
 10
172.070999
 20
449.799988
 30
0.0
 11
170.343857
 21
449.799988
 31
0.0
  0
LINE
  5
7A0
330
1F
100
AcDbEntity
  8
0
 62
     7
100
AcDbLine
 10
176.962021
 20
449.799988
 30
0.0
 11
175.234863
 21
449.799988
 31
0.0
  0
LINE
  5
7A1
330
1F
100
AcDbEntity
  8
0
 62
     7
100
AcDbLine
 10
176.962021
 20
449.799988
 30
0.0
 11
177.287827
 21
449.799988
 31
0.0
  0
LINE
  5
7A2
330
1F
100
AcDbEntity
  8
0
 62
     7
100
AcDbLine
 10
177.287827
 20
449.799988
 30
0.0
 11
181.752945
 21
449.799988
 31
0.0
  0
LINE
  5
7A3
330
1F
100
AcDbEntity
  8
0
 62
     7
100
AcDbLine
 10
170.018036
 20
449.799988
 30
0.0
 11
170.343857
 21
449.799988
 31
0.0
  0
LINE
  5
7A4
330
1F
100
AcDbEntity
  8
0
 62
     7
100
AcDbLine
 10
165.552933
 20
450.799988
 30
0.0
 11
181.752945
 21
450.799988
 31
0.0
  0
LINE
  5
7A5
330
1F
100
AcDbEntity
  8
0
 62
     7
100
AcDbLine
 10
164.852936
 20
445.7005
 30
0.0
 11
164.852936
 21
447.93512
 31
0.0
  0
LINE
  5
7A6
330
1F
100
AcDbEntity
  8
0
 62
     7
100
AcDbLine
 10
182.452927
 20
445.7005
 30
0.0
 11
182.452927
 21
447.93512
 31
0.0
  0
LINE
  5
7A7
330
1F
100
AcDbEntity
  8
0
 62
     7
100
AcDbLine
 10
177.110992
 20
443.105591
 30
0.0
 11
177.168961
 21
443.195435
 31
0.0
  0
POLYLINE
  5
7A8
330
1F
100
AcDbEntity
  8
0
 62
     7
100
AcDb2dPolyline
 66
     1
 10
0.0
 20
0.0
 30
0.0
  0
VERTEX
  5
7A9
330
7A8
100
AcDbEntity
  8
0
100
AcDbVertex
100
AcDb2dVertex
 10
177.110992
 20
443.105591
 30
0.0
  0
VERTEX
  5
7AA
330
7A8
100
AcDbEntity
  8
0
100
AcDbVertex
100
AcDb2dVertex
 10
177.055267
 20
443.015686
 30
0.0
  0
VERTEX
  5
7AB
330
7A8
100
AcDbEntity
  8
0
100
AcDbVertex
100
AcDb2dVertex
 10
177.005173
 20
442.922363
 30
0.0
  0
VERTEX
  5
7AC
330
7A8
100
AcDbEntity
  8
0
100
AcDbVertex
100
AcDb2dVertex
 10
176.960922
 20
442.825928
 30
0.0
  0
VERTEX
  5
7AD
330
7A8
100
AcDbEntity
  8
0
100
AcDbVertex
100
AcDb2dVertex
 10
176.922714
 20
442.726685
 30
0.0
  0
VERTEX
  5
7AE
330
7A8
100
AcDbEntity
  8
0
100
AcDbVertex
100
AcDb2dVertex
 10
176.890762
 20
442.624939
 30
0.0
  0
VERTEX
  5
7AF
330
7A8
100
AcDbEntity
  8
0
100
AcDbVertex
100
AcDb2dVertex
 10
176.865295
 20
442.521057
 30
0.0
  0
VERTEX
  5
7B0
330
7A8
100
AcDbEntity
  8
0
100
AcDbVertex
100
AcDb2dVertex
 10
176.846527
 20
442.415344
 30
0.0
  0
VERTEX
  5
7B1
330
7A8
100
AcDbEntity
  8
0
100
AcDbVertex
100
AcDb2dVertex
 10
176.834854
 20
442.310303
 30
0.0
  0
VERTEX
  5
7B2
330
7A8
100
AcDbEntity
  8
0
100
AcDbVertex
100
AcDb2dVertex
 10
176.830048
 20
442.204285
 30
0.0
  0
VERTEX
  5
7B3
330
7A8
100
AcDbEntity
  8
0
100
AcDbVertex
100
AcDb2dVertex
 10
176.832291
 20
442.097595
 30
0.0
  0
VERTEX
  5
7B4
330
7A8
100
AcDbEntity
  8
0
100
AcDbVertex
100
AcDb2dVertex
 10
176.841797
 20
441.990784
 30
0.0
  0
VERTEX
  5
7B5
330
7A8
100
AcDbEntity
  8
0
100
AcDbVertex
100
AcDb2dVertex
 10
176.858719
 20
441.884277
 30
0.0
  0
VERTEX
  5
7B6
330
7A8
100
AcDbEntity
  8
0
100
AcDbVertex
100
AcDb2dVertex
 10
176.883194
 20
441.778748
 30
0.0
  0
VERTEX
  5
7B7
330
7A8
100
AcDbEntity
  8
0
100
AcDbVertex
100
AcDb2dVertex
 10
176.915329
 20
441.674622
 30
0.0
  0
VERTEX
  5
7B8
330
7A8
100
AcDbEntity
  8
0
100
AcDbVertex
100
AcDb2dVertex
 10
176.953354
 20
441.576782
 30
0.0
  0
VERTEX
  5
7B9
330
7A8
100
AcDbEntity
  8
0
100
AcDbVertex
100
AcDb2dVertex
 10
176.998444
 20
441.481445
 30
0.0
  0
VERTEX
  5
7BA
330
7A8
100
AcDbEntity
  8
0
100
AcDbVertex
100
AcDb2dVertex
 10
177.050522
 20
441.389221
 30
0.0
  0
VERTEX
  5
7BB
330
7A8
100
AcDbEntity
  8
0
100
AcDbVertex
100
AcDb2dVertex
 10
177.109451
 20
441.30072
 30
0.0
  0
VERTEX
  5
7BC
330
7A8
100
AcDbEntity
  8
0
100
AcDbVertex
100
AcDb2dVertex
 10
177.141403
 20
441.257996
 30
0.0
  0
VERTEX
  5
7BD
330
7A8
100
AcDbEntity
  8
0
100
AcDbVertex
100
AcDb2dVertex
 10
177.175003
 20
441.216492
 30
0.0
  0
VERTEX
  5
7BE
330
7A8
100
AcDbEntity
  8
0
100
AcDbVertex
100
AcDb2dVertex
 10
177.222229
 20
441.163025
 30
0.0
  0
VERTEX
  5
7BF
330
7A8
100
AcDbEntity
  8
0
100
AcDbVertex
100
AcDb2dVertex
 10
177.272171
 20
441.112
 30
0.0
  0
VERTEX
  5
7C0
330
7A8
100
AcDbEntity
  8
0
100
AcDbVertex
100
AcDb2dVertex
 10
177.324677
 20
441.063416
 30
0.0
  0
VERTEX
  5
7C1
330
7A8
100
AcDbEntity
  8
0
100
AcDbVertex
100
AcDb2dVertex
 10
177.380051
 20
441.017273
 30
0.0
  0
VERTEX
  5
7C2
330
7A8
100
AcDbEntity
  8
0
100
AcDbVertex
100
AcDb2dVertex
 10
177.437759
 20
440.973877
 30
0.0
  0
VERTEX
  5
7C3
330
7A8
100
AcDbEntity
  8
0
100
AcDbVertex
100
AcDb2dVertex
 10
177.497574
 20
440.933594
 30
0.0
  0
SEQEND
  5
7C4
330
7A8
100
AcDbEntity
  8
0
 62
     7
  0
CIRCLE
  5
7C5
330
1F
100
AcDbEntity
  8
0
 62
     7
100
AcDbCircle
 10
173.652939
 20
434.900024
 30
0.0
 40
7.099999904632568
  0
ARC
  5
7C6
330
1F
100
AcDbEntity
  8
0
 62
     7
100
AcDbCircle
 10
173.652695
 20
434.899597
 30
0.0
 40
7.154872894287109
100
AcDbArc
 50
57.494627
 51
61.351983
  0
ARC
  5
7C7
330
1F
100
AcDbEntity
  8
0
 62
     7
100
AcDbCircle
 10
173.652939
 20
434.899963
 30
0.0
 40
7.154425144195557
100
AcDbArc
 50
61.352113
 51
122.505467
  0
POLYLINE
  5
7C8
330
1F
100
AcDbEntity
  8
0
 62
     7
100
AcDb2dPolyline
 66
     1
 10
0.0
 20
0.0
 30
0.0
  0
VERTEX
  5
7C9
330
7C8
100
AcDbEntity
  8
0
100
AcDbVertex
100
AcDb2dVertex
 10
170.19487
 20
443.105591
 30
0.0
  0
VERTEX
  5
7CA
330
7C8
100
AcDbEntity
  8
0
100
AcDbVertex
100
AcDb2dVertex
 10
170.250595
 20
443.015686
 30
0.0
  0
VERTEX
  5
7CB
330
7C8
100
AcDbEntity
  8
0
100
AcDbVertex
100
AcDb2dVertex
 10
170.30069
 20
442.922363
 30
0.0
  0
VERTEX
  5
7CC
330
7C8
100
AcDbEntity
  8
0
100
AcDbVertex
100
AcDb2dVertex
 10
170.344955
 20
442.825928
 30
0.0
  0
VERTEX
  5
7CD
330
7C8
100
AcDbEntity
  8
0
100
AcDbVertex
100
AcDb2dVertex
 10
170.383163
 20
442.726685
 30
0.0
  0
VERTEX
  5
7CE
330
7C8
100
AcDbEntity
  8
0
100
AcDbVertex
100
AcDb2dVertex
 10
170.415115
 20
442.624939
 30
0.0
  0
VERTEX
  5
7CF
330
7C8
100
AcDbEntity
  8
0
100
AcDbVertex
100
AcDb2dVertex
 10
170.440582
 20
442.521057
 30
0.0
  0
VERTEX
  5
7D0
330
7C8
100
AcDbEntity
  8
0
100
AcDbVertex
100
AcDb2dVertex
 10
170.459335
 20
442.415344
 30
0.0
  0
VERTEX
  5
7D1
330
7C8
100
AcDbEntity
  8
0
100
AcDbVertex
100
AcDb2dVertex
 10
170.471008
 20
442.310303
 30
0.0
  0
VERTEX
  5
7D2
330
7C8
100
AcDbEntity
  8
0
100
AcDbVertex
100
AcDb2dVertex
 10
170.475815
 20
442.204285
 30
0.0
  0
VERTEX
  5
7D3
330
7C8
100
AcDbEntity
  8
0
100
AcDbVertex
100
AcDb2dVertex
 10
170.473572
 20
442.097595
 30
0.0
  0
VERTEX
  5
7D4
330
7C8
100
AcDbEntity
  8
0
100
AcDbVertex
100
AcDb2dVertex
 10
170.464066
 20
441.990784
 30
0.0
  0
VERTEX
  5
7D5
330
7C8
100
AcDbEntity
  8
0
100
AcDbVertex
100
AcDb2dVertex
 10
170.447159
 20
441.884277
 30
0.0
  0
VERTEX
  5
7D6
330
7C8
100
AcDbEntity
  8
0
100
AcDbVertex
100
AcDb2dVertex
 10
170.422668
 20
441.778748
 30
0.0
  0
VERTEX
  5
7D7
330
7C8
100
AcDbEntity
  8
0
100
AcDbVertex
100
AcDb2dVertex
 10
170.390533
 20
441.674622
 30
0.0
  0
VERTEX
  5
7D8
330
7C8
100
AcDbEntity
  8
0
100
AcDbVertex
100
AcDb2dVertex
 10
170.352524
 20
441.576782
 30
0.0
  0
VERTEX
  5
7D9
330
7C8
100
AcDbEntity
  8
0
100
AcDbVertex
100
AcDb2dVertex
 10
170.307434
 20
441.481445
 30
0.0
  0
VERTEX
  5
7DA
330
7C8
100
AcDbEntity
  8
0
100
AcDbVertex
100
AcDb2dVertex
 10
170.255356
 20
441.389221
 30
0.0
  0
VERTEX
  5
7DB
330
7C8
100
AcDbEntity
  8
0
100
AcDbVertex
100
AcDb2dVertex
 10
170.196426
 20
441.30072
 30
0.0
  0
VERTEX
  5
7DC
330
7C8
100
AcDbEntity
  8
0
100
AcDbVertex
100
AcDb2dVertex
 10
170.164459
 20
441.257996
 30
0.0
  0
VERTEX
  5
7DD
330
7C8
100
AcDbEntity
  8
0
100
AcDbVertex
100
AcDb2dVertex
 10
170.130875
 20
441.216492
 30
0.0
  0
VERTEX
  5
7DE
330
7C8
100
AcDbEntity
  8
0
100
AcDbVertex
100
AcDb2dVertex
 10
170.083649
 20
441.163025
 30
0.0
  0
VERTEX
  5
7DF
330
7C8
100
AcDbEntity
  8
0
100
AcDbVertex
100
AcDb2dVertex
 10
170.033707
 20
441.112
 30
0.0
  0
VERTEX
  5
7E0
330
7C8
100
AcDbEntity
  8
0
100
AcDbVertex
100
AcDb2dVertex
 10
169.981186
 20
441.063416
 30
0.0
  0
VERTEX
  5
7E1
330
7C8
100
AcDbEntity
  8
0
100
AcDbVertex
100
AcDb2dVertex
 10
169.925827
 20
441.017273
 30
0.0
  0
VERTEX
  5
7E2
330
7C8
100
AcDbEntity
  8
0
100
AcDbVertex
100
AcDb2dVertex
 10
169.868103
 20
440.973877
 30
0.0
  0
VERTEX
  5
7E3
330
7C8
100
AcDbEntity
  8
0
100
AcDbVertex
100
AcDb2dVertex
 10
169.808304
 20
440.933594
 30
0.0
  0
SEQEND
  5
7E4
330
7C8
100
AcDbEntity
  8
0
 62
     7
  0
LINE
  5
7E5
330
1F
100
AcDbEntity
  8
0
 62
     7
100
AcDbLine
 10
170.136917
 20
443.195435
 30
0.0
 11
170.19487
 21
443.105591
 31
0.0
  0
LINE
  5
7E6
330
1F
100
AcDbEntity
  8
0
 62
     7
100
AcDbLine
 10
167.802933
 20
442.200012
 30
0.0
 11
167.402939
 21
442.200012
 31
0.0
  0
ARC
  5
7E7
330
1F
100
AcDbEntity
  8
0
 62
     7
100
AcDbCircle
 10
167.402939
 20
443.450012
 30
0.0
 40
1.25
100
AcDbArc
 50
90.000003
 51
269.999997
  0
LINE
  5
7E8
330
1F
100
AcDbEntity
  8
0
 62
     7
100
AcDbLine
 10
167.402939
 20
444.700012
 30
0.0
 11
167.802933
 21
444.700012
 31
0.0
  0
ARC
  5
7E9
330
1F
100
AcDbEntity
  8
0
 62
     7
100
AcDbCircle
 10
167.802933
 20
443.450012
 30
0.0
 40
1.25
100
AcDbArc
 50
269.999997
 51
90.000003
  0
CIRCLE
  5
7EA
330
1F
100
AcDbEntity
  8
0
 62
     7
100
AcDbCircle
 10
179.702927
 20
443.450012
 30
0.0
 40
1.25
  0
ARC
  5
7EB
330
1F
100
AcDbEntity
  8
0
 62
     7
100
AcDbCircle
 10
176.962021
 20
449.299988
 30
0.0
 40
0.5
100
AcDbArc
 50
90.000003
 51
221.230582
  0
ARC
  5
7EC
330
1F
100
AcDbEntity
  8
0
 62
     7
100
AcDbCircle
 10
170.343857
 20
449.299988
 30
0.0
 40
0.5
100
AcDbArc
 50
318.769437
 51
90.000003
  0
LINE
  5
7ED
330
1F
100
AcDbEntity
  8
0
 62
     7
100
AcDbLine
 10
169.552933
 20
451.799988
 30
0.0
 11
169.552933
 21
450.799988
 31
0.0
  0
ARC
  5
7EE
330
1F
100
AcDbEntity
  8
0
 62
     7
100
AcDbCircle
 10
167.852936
 20
451.299988
 30
0.0
 40
1.5
100
AcDbArc
 50
340.529081
 51
360.0
  0
LINE
  5
7EF
330
1F
100
AcDbEntity
  8
0
 62
     7
100
AcDbLine
 10
168.852936
 20
451.799988
 30
0.0
 11
168.852936
 21
451.900024
 31
0.0
  0
ARC
  5
7F0
330
1F
100
AcDbEntity
  8
0
 62
     7
100
AcDbCircle
 10
167.852936
 20
451.799988
 30
0.0
 40
1.0
100
AcDbArc
 50
269.999997
 51
360.0
  0
LINE
  5
7F1
330
1F
100
AcDbEntity
  8
0
 62
     7
100
AcDbLine
 10
169.352936
 20
451.900024
 30
0.0
 11
169.352936
 21
451.299988
 31
0.0
  0
LINE
  5
7F2
330
1F
100
AcDbEntity
  8
0
 62
     7
100
AcDbLine
 10
170.378799
 20
428.599976
 30
0.0
 11
170.601715
 21
428.599976
 31
0.0
  0
LINE
  5
7F3
330
1F
100
AcDbEntity
  8
0
 62
     7
100
AcDbLine
 10
176.704147
 20
428.599976
 30
0.0
 11
176.927078
 21
428.599976
 31
0.0
  0
LINE
  5
7F4
330
1F
100
AcDbEntity
  8
0
 62
     7
100
AcDbLine
 10
177.752945
 20
451.900024
 30
0.0
 11
177.752945
 21
451.799927
 31
0.0
  0
LINE
  5
7F5
330
1F
100
AcDbEntity
  8
0
 62
     7
100
AcDbLine
 10
177.952927
 20
451.900024
 30
0.0
 11
177.952927
 21
451.299988
 31
0.0
  0
ARC
  5
7F6
330
1F
100
AcDbEntity
  8
0
 62
     7
100
AcDbCircle
 10
179.452927
 20
451.299988
 30
0.0
 40
1.5
100
AcDbArc
 50
180.000009
 51
199.470938
  0
ARC
  5
7F7
330
1F
100
AcDbEntity
  8
0
 62
     7
100
AcDbCircle
 10
179.452927
 20
451.799988
 30
0.0
 40
1.0
100
AcDbArc
 50
180.000009
 51
269.999997
  0
LINE
  5
7F8
330
1F
100
AcDbEntity
  8
0
 62
     7
100
AcDbLine
 10
178.452927
 20
451.799988
 30
0.0
 11
178.452927
 21
451.900024
 31
0.0
  0
ARC
  5
7F9
330
1F
100
AcDbEntity
  8
0
 62
     7
100
AcDbCircle
 10
173.652939
 20
446.400024
 30
0.0
 40
3.900000095367432
100
AcDbArc
 50
138.769418
 51
41.230577
  0
LINE
  5
7FA
330
1F
100
AcDbEntity
  8
0
 62
     7
100
AcDbLine
 10
177.752945
 20
450.799988
 30
0.0
 11
177.752945
 21
451.799988
 31
0.0
  0
LINE
  5
7FB
330
1F
100
AcDbEntity
  8
0
 62
     7
100
AcDbLine
 10
169.552933
 20
451.799988
 30
0.0
 11
169.552933
 21
451.900085
 31
0.0
  0
ARC
  5
7FC
330
1F
100
AcDbEntity
  8
0
 62
     7
100
AcDbCircle
 10
177.252945
 20
451.799988
 30
0.0
 40
0.5
100
AcDbArc
 50
0.0
 51
11.538233
  0
ARC
  5
7FD
330
1F
100
AcDbEntity
  8
0
 62
     7
100
AcDbCircle
 10
173.652939
 20
446.400024
 30
0.0
 40
3.75
100
AcDbArc
 50
80.018316
 51
99.981682
  0
ARC
  5
7FE
330
1F
100
AcDbEntity
  8
0
 62
     7
100
AcDbCircle
 10
173.652939
 20
446.400024
 30
0.0
 40
3.75
100
AcDbArc
 50
279.981697
 51
80.018316
  0
ARC
  5
7FF
330
1F
100
AcDbEntity
  8
0
 62
     7
100
AcDbCircle
 10
173.652939
 20
446.400024
 30
0.0
 40
3.75
100
AcDbArc
 50
260.018304
 51
279.981697
  0
ARC
  5
800
330
1F
100
AcDbEntity
  8
0
 62
     7
100
AcDbCircle
 10
173.652939
 20
446.400024
 30
0.0
 40
3.75
100
AcDbArc
 50
99.981682
 51
260.018304
  0
LINE
  5
801
330
1F
100
AcDbEntity
  8
0
 62
     7
100
AcDbLine
 10
174.302933
 20
449.889954
 30
0.0
 11
174.302933
 21
450.093262
 31
0.0
  0
LINE
  5
802
330
1F
100
AcDbEntity
  8
0
 62
     7
100
AcDbLine
 10
174.302933
 20
442.910034
 30
0.0
 11
174.302933
 21
442.706787
 31
0.0
  0
LINE
  5
803
330
1F
100
AcDbEntity
  8
0
 62
     7
100
AcDbLine
 10
174.302933
 20
449.889954
 30
0.0
 11
174.302933
 21
442.910034
 31
0.0
  0
ARC
  5
804
330
1F
100
AcDbEntity
  8
0
 62
     7
100
AcDbCircle
 10
173.652939
 20
446.400024
 30
0.0
 40
3.549999952316284
100
AcDbArc
 50
280.55029
 51
79.449696
  0
LINE
  5
805
330
1F
100
AcDbEntity
  8
0
 62
     7
100
AcDbLine
 10
173.002945
 20
442.910034
 30
0.0
 11
173.002945
 21
442.706787
 31
0.0
  0
LINE
  5
806
330
1F
100
AcDbEntity
  8
0
 62
     7
100
AcDbLine
 10
173.002945
 20
449.889954
 30
0.0
 11
173.002945
 21
450.093262
 31
0.0
  0
LINE
  5
807
330
1F
100
AcDbEntity
  8
0
 62
     7
100
AcDbLine
 10
173.002945
 20
442.910034
 30
0.0
 11
173.002945
 21
449.889954
 31
0.0
  0
ARC
  5
808
330
1F
100
AcDbEntity
  8
0
 62
     7
100
AcDbCircle
 10
173.652939
 20
446.400024
 30
0.0
 40
3.549999952316284
100
AcDbArc
 50
100.550302
 51
259.449705
  0
CIRCLE
  5
809
330
1F
100
AcDbEntity
  8
0
 62
     7
100
AcDbCircle
 10
173.652939
 20
434.900024
 30
0.0
 40
7.0
  0
CIRCLE
  5
80A
330
1F
100
AcDbEntity
  8
0
 62
     7
100
AcDbCircle
 10
173.652939
 20
434.900024
 30
0.0
 40
6.900000095367432
  0
LINE
  5
80B
330
1F
100
AcDbEntity
  8
0
 62
     7
100
AcDbLine
 10
176.020065
 20
431.0
 30
0.0
 11
178.214005
 21
434.799988
 31
0.0
  0
ARC
  5
80C
330
1F
100
AcDbEntity
  8
0
 62
     7
100
AcDbCircle
 10
175.846863
 20
431.099976
 30
0.0
 40
0.2000000029802322
100
AcDbArc
 50
269.999997
 51
329.999989
  0
LINE
  5
80D
330
1F
100
AcDbEntity
  8
0
 62
     7
100
AcDbLine
 10
171.459
 20
430.900024
 30
0.0
 11
175.846863
 21
430.900024
 31
0.0
  0
ARC
  5
80E
330
1F
100
AcDbEntity
  8
0
 62
     7
100
AcDbCircle
 10
171.459
 20
431.099976
 30
0.0
 40
0.2000000029802322
100
AcDbArc
 50
210.000003
 51
269.999997
  0
LINE
  5
80F
330
1F
100
AcDbEntity
  8
0
 62
     7
100
AcDbLine
 10
169.091873
 20
434.799988
 30
0.0
 11
171.285797
 21
431.0
 31
0.0
  0
ARC
  5
810
330
1F
100
AcDbEntity
  8
0
 62
     7
100
AcDbCircle
 10
169.265076
 20
434.900024
 30
0.0
 40
0.2000000029802322
100
AcDbArc
 50
149.999997
 51
210.000003
  0
LINE
  5
811
330
1F
100
AcDbEntity
  8
0
 62
     7
100
AcDbLine
 10
171.285797
 20
438.799988
 30
0.0
 11
169.091873
 21
435.0
 31
0.0
  0
ARC
  5
812
330
1F
100
AcDbEntity
  8
0
 62
     7
100
AcDbCircle
 10
171.459
 20
438.700012
 30
0.0
 40
0.2000000029802322
100
AcDbArc
 50
90.000003
 51
149.999997
  0
LINE
  5
813
330
1F
100
AcDbEntity
  8
0
 62
     7
100
AcDbLine
 10
175.846863
 20
438.900024
 30
0.0
 11
171.459
 21
438.900024
 31
0.0
  0
ARC
  5
814
330
1F
100
AcDbEntity
  8
0
 62
     7
100
AcDbCircle
 10
175.846863
 20
438.700012
 30
0.0
 40
0.2000000029802322
100
AcDbArc
 50
30.000001
 51
90.000003
  0
LINE
  5
815
330
1F
100
AcDbEntity
  8
0
 62
     7
100
AcDbLine
 10
178.214005
 20
435.0
 30
0.0
 11
176.020065
 21
438.799988
 31
0.0
  0
ARC
  5
816
330
1F
100
AcDbEntity
  8
0
 62
     7
100
AcDbCircle
 10
178.040802
 20
434.900024
 30
0.0
 40
0.2000000029802322
100
AcDbArc
 50
329.999989
 51
30.000001
  0
ARC
  5
817
330
1F
100
AcDbEntity
  8
0
 62
     7
100
AcDbCircle
 10
173.652939
 20
432.244202
 30
0.0
 40
0.2000000029802322
100
AcDbArc
 50
240.00001
 51
299.999992
  0
LINE
  5
818
330
1F
100
AcDbEntity
  8
0
 62
     7
100
AcDbLine
 10
171.252945
 20
433.398865
 30
0.0
 11
173.552933
 21
432.070984
 31
0.0
  0
ARC
  5
819
330
1F
100
AcDbEntity
  8
0
 62
     7
100
AcDbCircle
 10
171.352936
 20
433.572083
 30
0.0
 40
0.2000000029802322
100
AcDbArc
 50
179.999991
 51
240.00001
  0
LINE
  5
81A
330
1F
100
AcDbEntity
  8
0
 62
     7
100
AcDbLine
 10
171.152939
 20
436.227905
 30
0.0
 11
171.152939
 21
433.572083
 31
0.0
  0
ARC
  5
81B
330
1F
100
AcDbEntity
  8
0
 62
     7
100
AcDbCircle
 10
171.352936
 20
436.227905
 30
0.0
 40
0.2000000029802322
100
AcDbArc
 50
120.000003
 51
179.999991
  0
LINE
  5
81C
330
1F
100
AcDbEntity
  8
0
 62
     7
100
AcDbLine
 10
173.552933
 20
437.729004
 30
0.0
 11
171.252945
 21
436.401123
 31
0.0
  0
ARC
  5
81D
330
1F
100
AcDbEntity
  8
0
 62
     7
100
AcDbCircle
 10
173.652939
 20
437.555786
 30
0.0
 40
0.2000000029802322
100
AcDbArc
 50
60.000002
 51
120.000003
  0
LINE
  5
81E
330
1F
100
AcDbEntity
  8
0
 62
     7
100
AcDbLine
 10
176.052933
 20
436.401123
 30
0.0
 11
173.752945
 21
437.729004
 31
0.0
  0
ARC
  5
81F
330
1F
100
AcDbEntity
  8
0
 62
     7
100
AcDbCircle
 10
175.952927
 20
436.227905
 30
0.0
 40
0.2000000029802322
100
AcDbArc
 50
0.0
 51
60.000002
  0
LINE
  5
820
330
1F
100
AcDbEntity
  8
0
 62
     7
100
AcDbLine
 10
176.152939
 20
433.572083
 30
0.0
 11
176.152939
 21
436.227905
 31
0.0
  0
ARC
  5
821
330
1F
100
AcDbEntity
  8
0
 62
     7
100
AcDbCircle
 10
175.952927
 20
433.572083
 30
0.0
 40
0.2000000029802322
100
AcDbArc
 50
299.999992
 51
360.0
  0
LINE
  5
822
330
1F
100
AcDbEntity
  8
0
 62
     7
100
AcDbLine
 10
173.752945
 20
432.070984
 30
0.0
 11
176.052933
 21
433.398865
 31
0.0
  0
LINE
  5
823
330
1F
100
AcDbEntity
  8
0
 62
     7
100
AcDbLine
 10
177.052933
 20
425.699951
 30
0.0
 11
177.052933
 21
359.900024
 31
0.0
  0
LINE
  5
824
330
1F
100
AcDbEntity
  8
0
 62
     7
100
AcDbLine
 10
170.252945
 20
425.699951
 30
0.0
 11
170.252945
 21
359.900024
 31
0.0
  0
LINE
  5
825
330
1F
100
AcDbEntity
  8
0
 62
     7
100
AcDbLine
 10
177.052933
 20
359.900024
 30
0.0
 11
177.052933
 21
349.900024
 31
0.0
  0
LINE
  5
826
330
1F
100
AcDbEntity
  8
0
 62
     7
100
AcDbLine
 10
170.252945
 20
359.900024
 30
0.0
 11
170.252945
 21
349.900024
 31
0.0
  0
LINE
  5
827
330
1F
100
AcDbEntity
  8
0
 62
     7
100
AcDbLine
 10
177.052933
 20
349.900024
 30
0.0
 11
170.252945
 21
349.900024
 31
0.0
  0
LINE
  5
828
330
1F
100
AcDbEntity
  8
0
 62
     7
100
AcDbLine
 10
182.252914
 20
449.304871
 30
0.0
 11
182.252945
 21
449.299988
 31
0.0
  0
LINE
  5
829
330
1F
100
AcDbEntity
  8
0
 62
     7
100
AcDbLine
 10
182.251846
 20
449.332886
 30
0.0
 11
182.252945
 21
449.299988
 31
0.0
  0
LINE
  5
82A
330
1F
100
AcDbEntity
  8
0
 62
     7
100
AcDbLine
 10
182.252274
 20
449.325623
 30
0.0
 11
182.252945
 21
449.299988
 31
0.0
  0
POLYLINE
  5
82B
330
1F
100
AcDbEntity
  8
0
 62
     7
100
AcDb2dPolyline
 66
     1
 10
0.0
 20
0.0
 30
0.0
  0
VERTEX
  5
82C
330
82B
100
AcDbEntity
  8
0
100
AcDbVertex
100
AcDb2dVertex
 10
302.511383
 20
359.497986
 30
0.0
  0
VERTEX
  5
82D
330
82B
100
AcDbEntity
  8
0
100
AcDbVertex
100
AcDb2dVertex
 10
302.051392
 20
360.0625
 30
0.0
  0
VERTEX
  5
82E
330
82B
100
AcDbEntity
  8
0
100
AcDbVertex
100
AcDb2dVertex
 10
301.361389
 20
360.304443
 30
0.0
  0
VERTEX
  5
82F
330
82B
100
AcDbEntity
  8
0
100
AcDbVertex
100
AcDb2dVertex
 10
300.671387
 20
360.304443
 30
0.0
  0
VERTEX
  5
830
330
82B
100
AcDbEntity
  8
0
100
AcDbVertex
100
AcDb2dVertex
 10
299.981384
 20
360.0625
 30
0.0
  0
VERTEX
  5
831
330
82B
100
AcDbEntity
  8
0
100
AcDbVertex
100
AcDb2dVertex
 10
299.521393
 20
359.417358
 30
0.0
  0
VERTEX
  5
832
330
82B
100
AcDbEntity
  8
0
100
AcDbVertex
100
AcDb2dVertex
 10
299.521393
 20
358.852844
 30
0.0
  0
VERTEX
  5
833
330
82B
100
AcDbEntity
  8
0
100
AcDbVertex
100
AcDb2dVertex
 10
299.923889
 20
358.2883
 30
0.0
  0
SEQEND
  5
834
330
82B
100
AcDbEntity
  8
0
 62
     7
  0
POLYLINE
  5
835
330
1F
100
AcDbEntity
  8
0
 62
     7
100
AcDb2dPolyline
 66
     1
 10
0.0
 20
0.0
 30
0.0
  0
VERTEX
  5
836
330
835
100
AcDbEntity
  8
0
100
AcDbVertex
100
AcDb2dVertex
 10
301.016388
 20
357.885101
 30
0.0
  0
VERTEX
  5
837
330
835
100
AcDbEntity
  8
0
100
AcDbVertex
100
AcDb2dVertex
 10
301.533875
 20
357.723785
 30
0.0
  0
SEQEND
  5
838
330
835
100
AcDbEntity
  8
0
 62
     7
  0
POLYLINE
  5
839
330
1F
100
AcDbEntity
  8
0
 62
     7
100
AcDb2dPolyline
 66
     1
 10
0.0
 20
0.0
 30
0.0
  0
VERTEX
  5
83A
330
839
100
AcDbEntity
  8
0
100
AcDbVertex
100
AcDb2dVertex
 10
302.051392
 20
355.465729
 30
0.0
  0
VERTEX
  5
83B
330
839
100
AcDbEntity
  8
0
100
AcDbVertex
100
AcDb2dVertex
 10
301.361389
 20
355.304443
 30
0.0
  0
VERTEX
  5
83C
330
839
100
AcDbEntity
  8
0
100
AcDbVertex
100
AcDb2dVertex
 10
300.671387
 20
355.304443
 30
0.0
  0
VERTEX
  5
83D
330
839
100
AcDbEntity
  8
0
100
AcDbVertex
100
AcDb2dVertex
 10
299.981384
 20
355.627014
 30
0.0
  0
VERTEX
  5
83E
330
839
100
AcDbEntity
  8
0
100
AcDbVertex
100
AcDb2dVertex
 10
299.521393
 20
356.191528
 30
0.0
  0
SEQEND
  5
83F
330
839
100
AcDbEntity
  8
0
 62
     7
  0
POLYLINE
  5
840
330
1F
100
AcDbEntity
  8
0
 62
     7
100
AcDb2dPolyline
 66
     1
 10
0.0
 20
0.0
 30
0.0
  0
VERTEX
  5
841
330
840
100
AcDbEntity
  8
0
100
AcDbVertex
100
AcDb2dVertex
 10
300.556396
 20
357.965729
 30
0.0
  0
VERTEX
  5
842
330
840
100
AcDbEntity
  8
0
100
AcDbVertex
100
AcDb2dVertex
 10
301.016388
 20
357.885101
 30
0.0
  0
SEQEND
  5
843
330
840
100
AcDbEntity
  8
0
 62
     7
  0
POLYLINE
  5
844
330
1F
100
AcDbEntity
  8
0
 62
     7
100
AcDb2dPolyline
 66
     1
 10
0.0
 20
0.0
 30
0.0
  0
VERTEX
  5
845
330
844
100
AcDbEntity
  8
0
100
AcDbVertex
100
AcDb2dVertex
 10
299.923889
 20
358.2883
 30
0.0
  0
VERTEX
  5
846
330
844
100
AcDbEntity
  8
0
100
AcDbVertex
100
AcDb2dVertex
 10
300.556396
 20
357.965729
 30
0.0
  0
SEQEND
  5
847
330
844
100
AcDbEntity
  8
0
 62
     7
  0
POLYLINE
  5
848
330
1F
100
AcDbEntity
  8
0
 62
     7
100
AcDb2dPolyline
 66
     1
 10
0.0
 20
0.0
 30
0.0
  0
VERTEX
  5
849
330
848
100
AcDbEntity
  8
0
100
AcDbVertex
100
AcDb2dVertex
 10
302.511383
 20
356.110901
 30
0.0
  0
VERTEX
  5
84A
330
848
100
AcDbEntity
  8
0
100
AcDbVertex
100
AcDb2dVertex
 10
302.051392
 20
355.465729
 30
0.0
  0
SEQEND
  5
84B
330
848
100
AcDbEntity
  8
0
 62
     7
  0
POLYLINE
  5
84C
330
1F
100
AcDbEntity
  8
0
 62
     7
100
AcDb2dPolyline
 66
     1
 10
0.0
 20
0.0
 30
0.0
  0
VERTEX
  5
84D
330
84C
100
AcDbEntity
  8
0
100
AcDbVertex
100
AcDb2dVertex
 10
302.511383
 20
356.8367
 30
0.0
  0
VERTEX
  5
84E
330
84C
100
AcDbEntity
  8
0
100
AcDbVertex
100
AcDb2dVertex
 10
302.511383
 20
356.110901
 30
0.0
  0
SEQEND
  5
84F
330
84C
100
AcDbEntity
  8
0
 62
     7
  0
POLYLINE
  5
850
330
1F
100
AcDbEntity
  8
0
 62
     7
100
AcDb2dPolyline
 66
     1
 10
0.0
 20
0.0
 30
0.0
  0
VERTEX
  5
851
330
850
100
AcDbEntity
  8
0
100
AcDbVertex
100
AcDb2dVertex
 10
301.533875
 20
357.723785
 30
0.0
  0
VERTEX
  5
852
330
850
100
AcDbEntity
  8
0
100
AcDbVertex
100
AcDb2dVertex
 10
302.051392
 20
357.401215
 30
0.0
  0
VERTEX
  5
853
330
850
100
AcDbEntity
  8
0
100
AcDbVertex
100
AcDb2dVertex
 10
302.511383
 20
356.8367
 30
0.0
  0
SEQEND
  5
854
330
850
100
AcDbEntity
  8
0
 62
     7
  0
POLYLINE
  5
855
330
1F
100
AcDbEntity
  8
0
 62
     7
100
AcDb2dPolyline
 66
     1
 10
0.0
 20
0.0
 30
0.0
  0
VERTEX
  5
856
330
855
100
AcDbEntity
  8
0
100
AcDbVertex
100
AcDb2dVertex
 10
305.426392
 20
360.304443
 30
0.0
  0
VERTEX
  5
857
330
855
100
AcDbEntity
  8
0
100
AcDbVertex
100
AcDb2dVertex
 10
303.471375
 20
360.304443
 30
0.0
  0
SEQEND
  5
858
330
855
100
AcDbEntity
  8
0
 62
     7
  0
POLYLINE
  5
859
330
1F
100
AcDbEntity
  8
0
 62
     7
100
AcDb2dPolyline
 66
     1
 10
0.0
 20
0.0
 30
0.0
  0
VERTEX
  5
85A
330
859
100
AcDbEntity
  8
0
100
AcDbVertex
100
AcDb2dVertex
 10
303.471375
 20
357.885101
 30
0.0
  0
VERTEX
  5
85B
330
859
100
AcDbEntity
  8
0
100
AcDbVertex
100
AcDb2dVertex
 10
305.541382
 20
357.885101
 30
0.0
  0
SEQEND
  5
85C
330
859
100
AcDbEntity
  8
0
 62
     7
  0
POLYLINE
  5
85D
330
1F
100
AcDbEntity
  8
0
 62
     7
100
AcDb2dPolyline
 66
     1
 10
0.0
 20
0.0
 30
0.0
  0
VERTEX
  5
85E
330
85D
100
AcDbEntity
  8
0
100
AcDbVertex
100
AcDb2dVertex
 10
303.471375
 20
360.304443
 30
0.0
  0
VERTEX
  5
85F
330
85D
100
AcDbEntity
  8
0
100
AcDbVertex
100
AcDb2dVertex
 10
303.471375
 20
355.304443
 30
0.0
  0
SEQEND
  5
860
330
85D
100
AcDbEntity
  8
0
 62
     7
  0
POLYLINE
  5
861
330
1F
100
AcDbEntity
  8
0
 62
     7
100
AcDb2dPolyline
 66
     1
 10
0.0
 20
0.0
 30
0.0
  0
VERTEX
  5
862
330
861
100
AcDbEntity
  8
0
100
AcDbVertex
100
AcDb2dVertex
 10
305.426392
 20
360.304443
 30
0.0
  0
VERTEX
  5
863
330
861
100
AcDbEntity
  8
0
100
AcDbVertex
100
AcDb2dVertex
 10
305.828888
 20
360.0625
 30
0.0
  0
VERTEX
  5
864
330
861
100
AcDbEntity
  8
0
100
AcDbVertex
100
AcDb2dVertex
 10
306.231384
 20
359.497986
 30
0.0
  0
VERTEX
  5
865
330
861
100
AcDbEntity
  8
0
100
AcDbVertex
100
AcDb2dVertex
 10
306.231384
 20
358.691528
 30
0.0
  0
VERTEX
  5
866
330
861
100
AcDbEntity
  8
0
100
AcDbVertex
100
AcDb2dVertex
 10
305.943878
 20
358.207672
 30
0.0
  0
VERTEX
  5
867
330
861
100
AcDbEntity
  8
0
100
AcDbVertex
100
AcDb2dVertex
 10
305.541382
 20
357.885101
 30
0.0
  0
SEQEND
  5
868
330
861
100
AcDbEntity
  8
0
 62
     7
  0
POLYLINE
  5
869
330
1F
100
AcDbEntity
  8
0
 62
     7
100
AcDb2dPolyline
 66
     1
 10
0.0
 20
0.0
 30
0.0
  0
VERTEX
  5
86A
330
869
100
AcDbEntity
  8
0
100
AcDbVertex
100
AcDb2dVertex
 10
305.08139
 20
357.885101
 30
0.0
  0
VERTEX
  5
86B
330
869
100
AcDbEntity
  8
0
100
AcDbVertex
100
AcDb2dVertex
 10
306.231384
 20
355.304443
 30
0.0
  0
SEQEND
  5
86C
330
869
100
AcDbEntity
  8
0
 62
     7
  0
POLYLINE
  5
86D
330
1F
100
AcDbEntity
  8
0
 62
     7
100
AcDb2dPolyline
 66
     1
 10
0.0
 20
0.0
 30
0.0
  0
VERTEX
  5
86E
330
86D
100
AcDbEntity
  8
0
100
AcDbVertex
100
AcDb2dVertex
 10
310.296387
 20
355.304443
 30
0.0
  0
VERTEX
  5
86F
330
86D
100
AcDbEntity
  8
0
100
AcDbVertex
100
AcDb2dVertex
 10
307.536377
 20
355.304443
 30
0.0
  0
VERTEX
  5
870
330
86D
100
AcDbEntity
  8
0
100
AcDbVertex
100
AcDb2dVertex
 10
309.491394
 20
357.5625
 30
0.0
  0
VERTEX
  5
871
330
86D
100
AcDbEntity
  8
0
100
AcDbVertex
100
AcDb2dVertex
 10
309.89389
 20
358.207672
 30
0.0
  0
VERTEX
  5
872
330
86D
100
AcDbEntity
  8
0
100
AcDbVertex
100
AcDb2dVertex
 10
310.066376
 20
358.691528
 30
0.0
  0
VERTEX
  5
873
330
86D
100
AcDbEntity
  8
0
100
AcDbVertex
100
AcDb2dVertex
 10
310.066376
 20
359.175415
 30
0.0
  0
VERTEX
  5
874
330
86D
100
AcDbEntity
  8
0
100
AcDbVertex
100
AcDb2dVertex
 10
309.89389
 20
359.739929
 30
0.0
  0
VERTEX
  5
875
330
86D
100
AcDbEntity
  8
0
100
AcDbVertex
100
AcDb2dVertex
 10
309.721375
 20
360.0625
 30
0.0
  0
VERTEX
  5
876
330
86D
100
AcDbEntity
  8
0
100
AcDbVertex
100
AcDb2dVertex
 10
309.318878
 20
360.304443
 30
0.0
  0
VERTEX
  5
877
330
86D
100
AcDbEntity
  8
0
100
AcDbVertex
100
AcDb2dVertex
 10
308.628876
 20
360.304443
 30
0.0
  0
VERTEX
  5
878
330
86D
100
AcDbEntity
  8
0
100
AcDbVertex
100
AcDb2dVertex
 10
308.226379
 20
360.0625
 30
0.0
  0
VERTEX
  5
879
330
86D
100
AcDbEntity
  8
0
100
AcDbVertex
100
AcDb2dVertex
 10
308.053894
 20
359.820587
 30
0.0
  0
VERTEX
  5
87A
330
86D
100
AcDbEntity
  8
0
100
AcDbVertex
100
AcDb2dVertex
 10
307.823883
 20
359.3367
 30
0.0
  0
VERTEX
  5
87B
330
86D
100
AcDbEntity
  8
0
100
AcDbVertex
100
AcDb2dVertex
 10
307.823883
 20
359.094757
 30
0.0
  0
SEQEND
  5
87C
330
86D
100
AcDbEntity
  8
0
 62
     7
  0
POLYLINE
  5
87D
330
1F
100
AcDbEntity
  8
0
 62
     7
100
AcDb2dPolyline
 66
     1
 10
0.0
 20
0.0
 30
0.0
  0
VERTEX
  5
87E
330
87D
100
AcDbEntity
  8
0
100
AcDbVertex
100
AcDb2dVertex
 10
314.131378
 20
357.078644
 30
0.0
  0
VERTEX
  5
87F
330
87D
100
AcDbEntity
  8
0
100
AcDbVertex
100
AcDb2dVertex
 10
311.486389
 20
357.078644
 30
0.0
  0
VERTEX
  5
880
330
87D
100
AcDbEntity
  8
0
100
AcDbVertex
100
AcDb2dVertex
 10
313.441376
 20
360.304443
 30
0.0
  0
VERTEX
  5
881
330
87D
100
AcDbEntity
  8
0
100
AcDbVertex
100
AcDb2dVertex
 10
313.441376
 20
357.885101
 30
0.0
  0
VERTEX
  5
882
330
87D
100
AcDbEntity
  8
0
100
AcDbVertex
100
AcDb2dVertex
 10
313.441376
 20
355.304443
 30
0.0
  0
SEQEND
  5
883
330
87D
100
AcDbEntity
  8
0
 62
     7
  0
POLYLINE
  5
884
330
1F
100
AcDbEntity
  8
0
 62
     7
100
AcDb2dPolyline
 66
     1
 10
0.0
 20
0.0
 30
0.0
  0
VERTEX
  5
885
330
884
100
AcDbEntity
  8
0
100
AcDbVertex
100
AcDb2dVertex
 10
315.608887
 20
357.320587
 30
0.0
  0
VERTEX
  5
886
330
884
100
AcDbEntity
  8
0
100
AcDbVertex
100
AcDb2dVertex
 10
318.253876
 20
357.320587
 30
0.0
  0
SEQEND
  5
887
330
884
100
AcDbEntity
  8
0
 62
     7
  0
POLYLINE
  5
888
330
1F
100
AcDbEntity
  8
0
 62
     7
100
AcDb2dPolyline
 66
     1
 10
0.0
 20
0.0
 30
0.0
 70
     1
  0
VERTEX
  5
889
330
888
100
AcDbEntity
  8
0
100
AcDbVertex
100
AcDb2dVertex
 10
320.536377
 20
360.304443
 30
0.0
  0
VERTEX
  5
88A
330
888
100
AcDbEntity
  8
0
100
AcDbVertex
100
AcDb2dVertex
 10
319.90387
 20
360.0625
 30
0.0
  0
VERTEX
  5
88B
330
888
100
AcDbEntity
  8
0
100
AcDbVertex
100
AcDb2dVertex
 10
319.501373
 20
359.256042
 30
0.0
  0
VERTEX
  5
88C
330
888
100
AcDbEntity
  8
0
100
AcDbVertex
100
AcDb2dVertex
 10
319.328888
 20
358.449615
 30
0.0
  0
VERTEX
  5
88D
330
888
100
AcDbEntity
  8
0
100
AcDbVertex
100
AcDb2dVertex
 10
319.328888
 20
357.401215
 30
0.0
  0
VERTEX
  5
88E
330
888
100
AcDbEntity
  8
0
100
AcDbVertex
100
AcDb2dVertex
 10
319.501373
 20
356.352844
 30
0.0
  0
VERTEX
  5
88F
330
888
100
AcDbEntity
  8
0
100
AcDbVertex
100
AcDb2dVertex
 10
319.90387
 20
355.546387
 30
0.0
  0
VERTEX
  5
890
330
888
100
AcDbEntity
  8
0
100
AcDbVertex
100
AcDb2dVertex
 10
320.536377
 20
355.304443
 30
0.0
  0
VERTEX
  5
891
330
888
100
AcDbEntity
  8
0
100
AcDbVertex
100
AcDb2dVertex
 10
320.996368
 20
355.304443
 30
0.0
  0
VERTEX
  5
892
330
888
100
AcDbEntity
  8
0
100
AcDbVertex
100
AcDb2dVertex
 10
321.628876
 20
355.546387
 30
0.0
  0
VERTEX
  5
893
330
888
100
AcDbEntity
  8
0
100
AcDbVertex
100
AcDb2dVertex
 10
322.031372
 20
356.352844
 30
0.0
  0
VERTEX
  5
894
330
888
100
AcDbEntity
  8
0
100
AcDbVertex
100
AcDb2dVertex
 10
322.203888
 20
357.320587
 30
0.0
  0
VERTEX
  5
895
330
888
100
AcDbEntity
  8
0
100
AcDbVertex
100
AcDb2dVertex
 10
322.203888
 20
358.449615
 30
0.0
  0
VERTEX
  5
896
330
888
100
AcDbEntity
  8
0
100
AcDbVertex
100
AcDb2dVertex
 10
322.031372
 20
359.256042
 30
0.0
  0
VERTEX
  5
897
330
888
100
AcDbEntity
  8
0
100
AcDbVertex
100
AcDb2dVertex
 10
321.628876
 20
360.0625
 30
0.0
  0
VERTEX
  5
898
330
888
100
AcDbEntity
  8
0
100
AcDbVertex
100
AcDb2dVertex
 10
320.996368
 20
360.304443
 30
0.0
  0
SEQEND
  5
899
330
888
100
AcDbEntity
  8
0
 62
     7
  0
POLYLINE
  5
89A
330
1F
100
AcDbEntity
  8
0
 62
     7
100
AcDb2dPolyline
 66
     1
 10
0.0
 20
0.0
 30
0.0
  0
VERTEX
  5
89B
330
89A
100
AcDbEntity
  8
0
100
AcDbVertex
100
AcDb2dVertex
 10
325.866394
 20
359.659271
 30
0.0
  0
VERTEX
  5
89C
330
89A
100
AcDbEntity
  8
0
100
AcDbVertex
100
AcDb2dVertex
 10
325.693878
 20
360.0625
 30
0.0
  0
VERTEX
  5
89D
330
89A
100
AcDbEntity
  8
0
100
AcDbVertex
100
AcDb2dVertex
 10
325.061371
 20
360.304443
 30
0.0
  0
VERTEX
  5
89E
330
89A
100
AcDbEntity
  8
0
100
AcDbVertex
100
AcDb2dVertex
 10
324.71637
 20
360.304443
 30
0.0
  0
VERTEX
  5
89F
330
89A
100
AcDbEntity
  8
0
100
AcDbVertex
100
AcDb2dVertex
 10
324.083893
 20
360.0625
 30
0.0
  0
VERTEX
  5
8A0
330
89A
100
AcDbEntity
  8
0
100
AcDbVertex
100
AcDb2dVertex
 10
323.681396
 20
359.417358
 30
0.0
  0
VERTEX
  5
8A1
330
89A
100
AcDbEntity
  8
0
100
AcDbVertex
100
AcDb2dVertex
 10
323.508881
 20
358.2883
 30
0.0
  0
VERTEX
  5
8A2
330
89A
100
AcDbEntity
  8
0
100
AcDbVertex
100
AcDb2dVertex
 10
323.508881
 20
357.159271
 30
0.0
  0
VERTEX
  5
8A3
330
89A
100
AcDbEntity
  8
0
100
AcDbVertex
100
AcDb2dVertex
 10
323.681396
 20
356.272186
 30
0.0
  0
VERTEX
  5
8A4
330
89A
100
AcDbEntity
  8
0
100
AcDbVertex
100
AcDb2dVertex
 10
324.026367
 20
355.707672
 30
0.0
  0
VERTEX
  5
8A5
330
89A
100
AcDbEntity
  8
0
100
AcDbVertex
100
AcDb2dVertex
 10
324.658875
 20
355.304443
 30
0.0
  0
VERTEX
  5
8A6
330
89A
100
AcDbEntity
  8
0
100
AcDbVertex
100
AcDb2dVertex
 10
324.888885
 20
355.304443
 30
0.0
  0
VERTEX
  5
8A7
330
89A
100
AcDbEntity
  8
0
100
AcDbVertex
100
AcDb2dVertex
 10
325.521393
 20
355.546387
 30
0.0
  0
VERTEX
  5
8A8
330
89A
100
AcDbEntity
  8
0
100
AcDbVertex
100
AcDb2dVertex
 10
325.866394
 20
356.030243
 30
0.0
  0
VERTEX
  5
8A9
330
89A
100
AcDbEntity
  8
0
100
AcDbVertex
100
AcDb2dVertex
 10
326.038879
 20
356.675415
 30
0.0
  0
VERTEX
  5
8AA
330
89A
100
AcDbEntity
  8
0
100
AcDbVertex
100
AcDb2dVertex
 10
326.038879
 20
356.917358
 30
0.0
  0
VERTEX
  5
8AB
330
89A
100
AcDbEntity
  8
0
100
AcDbVertex
100
AcDb2dVertex
 10
325.866394
 20
357.5625
 30
0.0
  0
VERTEX
  5
8AC
330
89A
100
AcDbEntity
  8
0
100
AcDbVertex
100
AcDb2dVertex
 10
325.521393
 20
358.046387
 30
0.0
  0
VERTEX
  5
8AD
330
89A
100
AcDbEntity
  8
0
100
AcDbVertex
100
AcDb2dVertex
 10
324.888885
 20
358.2883
 30
0.0
  0
VERTEX
  5
8AE
330
89A
100
AcDbEntity
  8
0
100
AcDbVertex
100
AcDb2dVertex
 10
324.658875
 20
358.2883
 30
0.0
  0
VERTEX
  5
8AF
330
89A
100
AcDbEntity
  8
0
100
AcDbVertex
100
AcDb2dVertex
 10
324.026367
 20
358.046387
 30
0.0
  0
VERTEX
  5
8B0
330
89A
100
AcDbEntity
  8
0
100
AcDbVertex
100
AcDb2dVertex
 10
323.681396
 20
357.643158
 30
0.0
  0
VERTEX
  5
8B1
330
89A
100
AcDbEntity
  8
0
100
AcDbVertex
100
AcDb2dVertex
 10
323.508881
 20
357.078644
 30
0.0
  0
SEQEND
  5
8B2
330
89A
100
AcDbEntity
  8
0
 62
     7
  0
POLYLINE
  5
8B3
330
1F
100
AcDbEntity
  8
0
 62
     7
100
AcDb2dPolyline
 66
     1
 10
0.0
 20
0.0
 30
0.0
  0
VERTEX
  5
8B4
330
8B3
100
AcDbEntity
  8
0
100
AcDbVertex
100
AcDb2dVertex
 10
327.286377
 20
360.304443
 30
0.0
  0
VERTEX
  5
8B5
330
8B3
100
AcDbEntity
  8
0
100
AcDbVertex
100
AcDb2dVertex
 10
330.046387
 20
360.304443
 30
0.0
  0
VERTEX
  5
8B6
330
8B3
100
AcDbEntity
  8
0
100
AcDbVertex
100
AcDb2dVertex
 10
327.976379
 20
355.304443
 30
0.0
  0
SEQEND
  5
8B7
330
8B3
100
AcDbEntity
  8
0
 62
     7
  0
ENDSEC
  0
SECTION
  2
OBJECTS
  0
DICTIONARY
  5
C
330
0
100
AcDbDictionary
  3
ACAD_GROUP
350
D
  3
ACAD_MLINESTYLE
350
17
  3
ACAD_SCALELIST
350
47
  0
DICTIONARY
  5
D
102
{ACAD_REACTORS
330
C
102
}
330
C
100
AcDbDictionary
  0
DICTIONARY
  5
17
102
{ACAD_REACTORS
330
C
102
}
330
C
100
AcDbDictionary
  3
STANDARD
350
18
  0
DICTIONARY
  5
47
102
{ACAD_REACTORS
330
C
102
}
330
C
100
AcDbDictionary
  0
MLINESTYLE
  5
18
102
{ACAD_REACTORS
330
17
102
}
330
17
100
AcDbMlineStyle
  2
Standard
 70
     0
  3

 62
   256
 51
90.0
 52
90.0
 71
     2
 49
0.5
 62
   256
  6
BYLAYER
 49
-0.5
 62
   256
  6
BYLAYER
  0
ENDSEC
  0
EOF
