  0
SECTION
  2
HEADER
  9
$ACADVER
  1
AC1014
  9
$ACADMAINTVER
 70
     9
  9
$DWGCODEPAGE
  3
ANSI_1252
  9
$INSBASE
 10
0.0
 20
0.0
 30
0.0
  9
$EXTMIN
 10
0.0
 20
0.0
 30
0.0
  9
$EXTMAX
 10
389.647034
 20
215.350006
 30
2.0
  9
$LIMMIN
 10
0.0
 20
0.0
  9
$LIMMAX
 10
420.0
 20
297.0
  9
$ORTHOMODE
 70
     0
  9
$REGENMODE
 70
     1
  9
$FILLMODE
 70
     1
  9
$QTEXTMODE
 70
     0
  9
$MIRRTEXT
 70
     1
  9
$DRAGMODE
 70
     2
  9
$LTSCALE
 40
1.0
  9
$OSMODE
 70
     0
  9
$ATTMODE
 70
     1
  9
$TEXTSIZE
 40
2.5
  9
$TRACEWID
 40
1.0
  9
$TEXTSTYLE
  7
STANDARD
  9
$CLAYER
  8
0
  9
$CELTYPE
  6
BYLAYER
  9
$CECOLOR
 62
   256
  9
$CELTSCALE
 40
1.0
  9
$DELOBJ
 70
     1
  9
$DISPSILH
 70
     0
  9
$DIMSCALE
 40
1.0
  9
$DIMASZ
 40
2.5
  9
$DIMEXO
 40
0.625
  9
$DIMDLI
 40
3.75
  9
$DIMRND
 40
0.0
  9
$DIMDLE
 40
0.0
  9
$DIMEXE
 40
1.25
  9
$DIMTP
 40
0.0
  9
$DIMTM
 40
0.0
  9
$DIMTXT
 40
2.5
  9
$DIMCEN
 40
2.5
  9
$DIMTSZ
 40
0.0
  9
$DIMTOL
 70
     0
  9
$DIMLIM
 70
     0
  9
$DIMTIH
 70
     0
  9
$DIMTOH
 70
     0
  9
$DIMSE1
 70
     0
  9
$DIMSE2
 70
     0
  9
$DIMTAD
 70
     1
  9
$DIMZIN
 70
     8
  9
$DIMBLK
  1

  9
$DIMASO
 70
     1
  9
$DIMSHO
 70
     1
  9
$DIMPOST
  1

  9
$DIMAPOST
  1

  9
$DIMALT
 70
     0
  9
$DIMALTD
 70
     3
  9
$DIMALTF
 40
0.03937
  9
$DIMLFAC
 40
1.0
  9
$DIMTOFL
 70
     1
  9
$DIMTVP
 40
0.0
  9
$DIMTIX
 70
     0
  9
$DIMSOXD
 70
     0
  9
$DIMSAH
 70
     0
  9
$DIMBLK1
  1

  9
$DIMBLK2
  1

  9
$DIMSTYLE
  2
STANDARD
  9
$DIMCLRD
 70
     0
  9
$DIMCLRE
 70
     0
  9
$DIMCLRT
 70
     0
  9
$DIMTFAC
 40
1.0
  9
$DIMGAP
 40
0.625
  9
$DIMJUST
 70
     0
  9
$DIMSD1
 70
     0
  9
$DIMSD2
 70
     0
  9
$DIMTOLJ
 70
     0
  9
$DIMTZIN
 70
     8
  9
$DIMALTZ
 70
     0
  9
$DIMALTTZ
 70
     0
  9
$DIMFIT
 70
     0
  9
$DIMUPT
 70
     0
  9
$DIMUNIT
 70
     2
  9
$DIMDEC
 70
     2
  9
$DIMTDEC
 70
     2
  9
$DIMALTU
 70
     2
  9
$DIMALTTD
 70
     3
  9
$DIMTXSTY
  7
STANDARD
  9
$DIMAUNIT
 70
     0
  9
$LUNITS
 70
     2
  9
$LUPREC
 70
     4
  9
$SKETCHINC
 40
1.0
  9
$FILLETRAD
 40
2.5
  9
$AUNITS
 70
     0
  9
$AUPREC
 70
     0
  9
$MENU
  1
.
  9
$ELEVATION
 40
0.0
  9
$PELEVATION
 40
0.0
  9
$THICKNESS
 40
0.0
  9
$LIMCHECK
 70
     0
  9
$BLIPMODE
 70
     1
  9
$CHAMFERA
 40
2.5
  9
$CHAMFERB
 40
2.5
  9
$CHAMFERC
 40
0.0
  9
$CHAMFERD
 40
0.0
  9
$SKPOLY
 70
     0
  9
$TDCREATE
 40
2447893.375
  9
$TDUPDATE
 40
2460350.630804653
  9
$TDINDWG
 40
0.0
  9
$TDUSRTIMER
 40
0.0
  9
$USRTIMER
 70
     1
  9
$ANGBASE
 50
0.0
  9
$ANGDIR
 70
     0
  9
$PDMODE
 70
     0
  9
$PDSIZE
 40
0.0
  9
$PLINEWID
 40
0.0
  9
$COORDS
 70
     0
  9
$SPLFRAME
 70
     0
  9
$SPLINETYPE
 70
     6
  9
$SPLINESEGS
 70
     8
  9
$ATTDIA
 70
     0
  9
$ATTREQ
 70
     1
  9
$HANDLING
 70
     1
  9
$HANDSEED
  5
6D9
  9
$SURFTAB1
 70
     6
  9
$SURFTAB2
 70
     6
  9
$SURFTYPE
 70
     6
  9
$SURFU
 70
     6
  9
$SURFV
 70
     6
  9
$UCSNAME
  2

  9
$UCSORG
 10
0.0
 20
0.0
 30
0.0
  9
$UCSXDIR
 10
1.0
 20
0.0
 30
0.0
  9
$UCSYDIR
 10
0.0
 20
1.0
 30
0.0
  9
$PUCSNAME
  2

  9
$PUCSORG
 10
0.0
 20
0.0
 30
0.0
  9
$PUCSXDIR
 10
1.0
 20
0.0
 30
0.0
  9
$PUCSYDIR
 10
0.0
 20
1.0
 30
0.0
  9
$USERI1
 70
     0
  9
$USERI2
 70
     0
  9
$USERI3
 70
     0
  9
$USERI4
 70
     0
  9
$USERI5
 70
     0
  9
$USERR1
 40
0.0
  9
$USERR2
 40
0.0
  9
$USERR3
 40
0.0
  9
$USERR4
 40
0.0
  9
$USERR5
 40
0.0
  9
$WORLDVIEW
 70
     1
  9
$SHADEDGE
 70
     3
  9
$SHADEDIF
 70
    70
  9
$TILEMODE
 70
     1
  9
$MAXACTVP
 70
    64
  9
$PINSBASE
 10
0.0
 20
0.0
 30
0.0
  9
$PLIMCHECK
 70
     0
  9
$PEXTMIN
 10
0.0
 20
0.0
 30
0.0
  9
$PEXTMAX
 10
389.647034
 20
215.350006
 30
2.0
  9
$PLIMMIN
 10
0.0
 20
0.0
  9
$PLIMMAX
 10
420.0
 20
297.0
  9
$UNITMODE
 70
     0
  9
$VISRETAIN
 70
     0
  9
$PLINEGEN
 70
     0
  9
$PSLTSCALE
 70
     1
  9
$TREEDEPTH
 70
  3020
  9
$PICKSTYLE
 70
     1
  9
$CMLSTYLE
  2
STANDARD
  9
$CMLJUST
 70
     0
  9
$CMLSCALE
 40
20.0
  9
$PROXYGRAPHICS
 70
     1
  9
$MEASUREMENT
 70
     1
  0
ENDSEC
  0
SECTION
  2
CLASSES
  0
CLASS
  1
ACDBDICTIONARYWDFLT
  2
AcDbDictionaryWithDefault
  3
ObjectDBX Classes
 90
        0
280
     0
281
     0
  0
CLASS
  1
VISUALSTYLE
  2
AcDbVisualStyle
  3
ObjectDBX Classes
 90
     4095
280
     0
281
     0
  0
CLASS
  1
MATERIAL
  2
AcDbMaterial
  3
ObjectDBX Classes
 90
     1153
280
     0
281
     0
  0
CLASS
  1
SCALE
  2
AcDbScale
  3
ObjectDBX Classes
 90
     1153
280
     0
281
     0
  0
CLASS
  1
SUN
  2
AcDbSun
  3
SCENEOE
 90
     1153
280
     0
281
     0
  0
CLASS
  1
XRECORD
  2
AcDbXrecord
  3
ObjectDBX Classes
 90
        0
280
     0
281
     0
  0
CLASS
  1
LWPOLYLINE
  2
AcDbPolyline
  3
ObjectDBX Classes
 90
        0
280
     0
281
     1
  0
CLASS
  1
HATCH
  2
AcDbHatch
  3
ObjectDBX Classes
 90
        0
280
     0
281
     1
  0
ENDSEC
  0
SECTION
  2
TABLES
  0
TABLE
  2
VPORT
  5
8
330
0
100
AcDbSymbolTable
 70
     1
  0
VPORT
  5
29
330
8
100
AcDbSymbolTableRecord
100
AcDbViewportTableRecord
  2
*ACTIVE
 70
     0
 10
0.0
 20
0.0
 11
1.0
 21
1.0
 12
10.429907
 22
4.5
 13
0.0
 23
0.0
 14
0.5
 24
0.5
 15
0.5
 25
0.5
 16
0.0
 26
0.0
 36
1.0
 17
0.0
 27
0.0
 37
0.0
 40
9.0
 41
1.972973
 42
50.0
 43
0.0
 44
0.0
 50
0.0
 51
0.0
 71
     0
 72
   100
 73
     1
 74
     3
 75
     0
 76
     0
 77
     0
 78
     0
  0
ENDTAB
  0
TABLE
  2
LTYPE
  5
5
330
0
100
AcDbSymbolTable
 70
     1
  0
LTYPE
  5
14
330
5
100
AcDbSymbolTableRecord
100
AcDbLinetypeTableRecord
  2
BYBLOCK
 70
     0
  3

 72
    65
 73
     0
 40
0.0
  0
LTYPE
  5
15
330
5
100
AcDbSymbolTableRecord
100
AcDbLinetypeTableRecord
  2
BYLAYER
 70
     0
  3

 72
    65
 73
     0
 40
0.0
  0
LTYPE
  5
16
330
5
100
AcDbSymbolTableRecord
100
AcDbLinetypeTableRecord
  2
CONTINUOUS
 70
     0
  3
Solid line
 72
    65
 73
     0
 40
0.0
  0
ENDTAB
  0
TABLE
  2
LAYER
  5
2
330
0
100
AcDbSymbolTable
 70
     1
  0
LAYER
  5
10
330
2
100
AcDbSymbolTableRecord
100
AcDbLayerTableRecord
  2
0
 70
     0
 62
     7
  6
CONTINUOUS
  0
ENDTAB
  0
TABLE
  2
STYLE
  5
3
330
0
100
AcDbSymbolTable
 70
     1
  0
STYLE
  5
11
330
3
100
AcDbSymbolTableRecord
100
AcDbTextStyleTableRecord
  2
STANDARD
 70
     0
 40
0.0
 41
1.0
 50
0.0
 71
     0
 42
2.5
  3
txt
  4

  0
ENDTAB
  0
TABLE
  2
VIEW
  5
6
330
0
100
AcDbSymbolTable
 70
     0
  0
ENDTAB
  0
TABLE
  2
UCS
  5
7
330
0
100
AcDbSymbolTable
 70
     0
  0
ENDTAB
  0
TABLE
  2
APPID
  5
9
330
0
100
AcDbSymbolTable
 70
     1
  0
APPID
  5
12
330
9
100
AcDbSymbolTableRecord
100
AcDbRegAppTableRecord
  2
ACAD
 70
     0
  0
ENDTAB
  0
TABLE
  2
DIMSTYLE
  5
A
330
0
100
AcDbSymbolTable
 70
     1
  0
DIMSTYLE
105
27
330
A
100
AcDbSymbolTableRecord
100
AcDbDimStyleTableRecord
  2
STANDARD
 70
     0
  3

  4

  5

  6

  7

 40
1.0
 41
0.18
 42
0.0625
 43
0.38
 44
0.18
 45
0.0
 46
0.0
 47
0.0
 48
0.0
140
0.18
141
0.09
142
0.0
143
25.4
144
1.0
145
0.0
146
1.0
147
0.09
 71
     0
 72
     0
 73
     1
 74
     1
 75
     0
 76
     0
 77
     0
 78
     0
170
     0
171
     2
172
     0
173
     0
174
     0
175
     0
176
     0
177
     0
178
     0
270
     2
271
     4
272
     4
273
     2
274
     2
340
11
275
     0
280
     0
281
     0
282
     0
283
     1
284
     0
285
     0
286
     0
287
     3
288
     0
  0
ENDTAB
  0
TABLE
  2
BLOCK_RECORD
  5
1
330
0
100
AcDbSymbolTable
 70
     1
  0
BLOCK_RECORD
  5
1F
330
1
100
AcDbSymbolTableRecord
100
AcDbBlockTableRecord
  2
*MODEL_SPACE
  0
BLOCK_RECORD
  5
1B
330
1
100
AcDbSymbolTableRecord
100
AcDbBlockTableRecord
  2
*PAPER_SPACE
  0
BLOCK_RECORD
  5
23
330
1
100
AcDbSymbolTableRecord
100
AcDbBlockTableRecord
  2
*PAPER_SPACE0
  0
ENDTAB
  0
ENDSEC
  0
SECTION
  2
BLOCKS
  0
BLOCK
  5
20
330
1F
100
AcDbEntity
  8
0
100
AcDbBlockBegin
  2
*MODEL_SPACE
 70
     0
 10
0.0
 20
0.0
 30
0.0
  3
*MODEL_SPACE
  1

  0
ENDBLK
  5
21
330
1F
100
AcDbEntity
  8
0
100
AcDbBlockEnd
  0
BLOCK
  5
1C
330
1B
100
AcDbEntity
 67
     1
  8
0
100
AcDbBlockBegin
  2
*PAPER_SPACE
 70
     0
 10
0.0
 20
0.0
 30
0.0
  3
*PAPER_SPACE
  1

  0
ENDBLK
  5
1D
330
1B
100
AcDbEntity
 67
     1
  8
0
100
AcDbBlockEnd
  0
BLOCK
  5
24
330
23
100
AcDbEntity
  8
0
100
AcDbBlockBegin
  2
*PAPER_SPACE0
 70
     0
 10
0.0
 20
0.0
 30
0.0
  3
*PAPER_SPACE0
  1
*PAPER_SPACE0
  0
ENDBLK
  5
25
330
23
100
AcDbEntity
  8
0
100
AcDbBlockEnd
  0
ENDSEC
  0
SECTION
  2
ENTITIES
  0
LINE
  5
6A
330
1F
100
AcDbEntity
  8
0
 62
     7
100
AcDbLine
 10
387.147034
 20
184.350006
 30
0.0
 11
387.147034
 21
197.450012
 31
0.0
  0
LINE
  5
6B
330
1F
100
AcDbEntity
  8
0
 62
     7
100
AcDbLine
 10
387.147034
 20
197.450012
 30
0.0
 11
384.828339
 21
197.450012
 31
0.0
  0
ARC
  5
6C
330
1F
100
AcDbEntity
  8
0
 62
     7
100
AcDbCircle
 10
378.147034
 20
201.850006
 30
0.0
 40
8.0
100
AcDbArc
 50
213.367013
 51
326.632979
  0
LINE
  5
6D
330
1F
100
AcDbEntity
  8
0
 62
     7
100
AcDbLine
 10
371.465729
 20
197.450012
 30
0.0
 11
312.797028
 21
197.450012
 31
0.0
  0
LINE
  5
6E
330
1F
100
AcDbEntity
  8
0
 62
     7
100
AcDbLine
 10
312.797028
 20
193.549988
 30
0.0
 11
312.797028
 21
197.450012
 31
0.0
  0
ARC
  5
6F
330
1F
100
AcDbEntity
  8
0
 62
     7
100
AcDbCircle
 10
312.297028
 20
193.549988
 30
0.0
 40
0.5
100
AcDbArc
 50
180.000009
 51
360.0
  0
LINE
  5
70
330
1F
100
AcDbEntity
  8
0
 62
     7
100
AcDbLine
 10
311.797028
 20
197.450012
 30
0.0
 11
311.797028
 21
193.549988
 31
0.0
  0
LINE
  5
71
330
1F
100
AcDbEntity
  8
0
 62
     7
100
AcDbLine
 10
311.797028
 20
197.450012
 30
0.0
 11
309.49704
 21
197.450012
 31
0.0
  0
LINE
  5
72
330
1F
100
AcDbEntity
  8
0
 62
     7
100
AcDbLine
 10
309.49704
 20
193.549988
 30
0.0
 11
309.49704
 21
197.450012
 31
0.0
  0
ARC
  5
73
330
1F
100
AcDbEntity
  8
0
 62
     7
100
AcDbCircle
 10
308.99704
 20
193.549988
 30
0.0
 40
0.5
100
AcDbArc
 50
180.000009
 51
360.0
  0
LINE
  5
74
330
1F
100
AcDbEntity
  8
0
 62
     7
100
AcDbLine
 10
308.49704
 20
197.450012
 30
0.0
 11
308.49704
 21
193.549988
 31
0.0
  0
LINE
  5
75
330
1F
100
AcDbEntity
  8
0
 62
     7
100
AcDbLine
 10
308.49704
 20
197.450012
 30
0.0
 11
162.797058
 21
197.450012
 31
0.0
  0
LINE
  5
76
330
1F
100
AcDbEntity
  8
0
 62
     7
100
AcDbLine
 10
162.797058
 20
193.549988
 30
0.0
 11
162.797058
 21
197.450012
 31
0.0
  0
ARC
  5
77
330
1F
100
AcDbEntity
  8
0
 62
     7
100
AcDbCircle
 10
162.297058
 20
193.549988
 30
0.0
 40
0.5
100
AcDbArc
 50
180.000009
 51
360.0
  0
LINE
  5
78
330
1F
100
AcDbEntity
  8
0
 62
     7
100
AcDbLine
 10
161.797058
 20
197.450012
 30
0.0
 11
161.797058
 21
193.549988
 31
0.0
  0
LINE
  5
79
330
1F
100
AcDbEntity
  8
0
 62
     7
100
AcDbLine
 10
161.797058
 20
197.450012
 30
0.0
 11
159.49704
 21
197.450012
 31
0.0
  0
LINE
  5
7A
330
1F
100
AcDbEntity
  8
0
 62
     7
100
AcDbLine
 10
159.49704
 20
193.549988
 30
0.0
 11
159.49704
 21
197.450012
 31
0.0
  0
ARC
  5
7B
330
1F
100
AcDbEntity
  8
0
 62
     7
100
AcDbCircle
 10
158.99704
 20
193.549988
 30
0.0
 40
0.5
100
AcDbArc
 50
180.000009
 51
360.0
  0
LINE
  5
7C
330
1F
100
AcDbEntity
  8
0
 62
     7
100
AcDbLine
 10
158.49704
 20
197.450012
 30
0.0
 11
158.49704
 21
193.549988
 31
0.0
  0
LINE
  5
7D
330
1F
100
AcDbEntity
  8
0
 62
     7
100
AcDbLine
 10
158.49704
 20
197.450012
 30
0.0
 11
99.828377
 21
197.450012
 31
0.0
  0
ARC
  5
7E
330
1F
100
AcDbEntity
  8
0
 62
     7
100
AcDbCircle
 10
93.147064
 20
201.850006
 30
0.0
 40
8.0
100
AcDbArc
 50
213.367013
 51
326.632979
  0
LINE
  5
7F
330
1F
100
AcDbEntity
  8
0
 62
     7
100
AcDbLine
 10
86.465744
 20
197.450012
 30
0.0
 11
84.147064
 21
197.450012
 31
0.0
  0
LINE
  5
80
330
1F
100
AcDbEntity
  8
0
 62
     7
100
AcDbLine
 10
84.147064
 20
184.350006
 30
0.0
 11
84.147064
 21
197.450012
 31
0.0
  0
LINE
  5
81
330
1F
100
AcDbEntity
  8
0
 62
     7
100
AcDbLine
 10
387.147034
 20
183.549988
 30
0.0
 11
387.147034
 21
184.350006
 31
0.0
  0
LINE
  5
82
330
1F
100
AcDbEntity
  8
0
 62
     7
100
AcDbLine
 10
84.147064
 20
184.350006
 30
0.0
 11
84.147064
 21
183.549988
 31
0.0
  0
LINE
  5
83
330
1F
100
AcDbEntity
  8
0
 62
     7
100
AcDbLine
 10
84.147064
 20
183.549988
 30
0.0
 11
387.147034
 21
183.549988
 31
0.0
  0
LINE
  5
84
330
1F
100
AcDbEntity
  8
0
 62
     7
100
AcDbLine
 10
387.147034
 20
197.579285
 30
0.0
 11
387.147034
 21
197.450012
 31
0.0
  0
LINE
  5
85
330
1F
100
AcDbEntity
  8
0
 62
     7
100
AcDbLine
 10
387.147034
 20
197.579285
 30
0.0
 11
387.147034
 21
197.720703
 31
0.0
  0
LINE
  5
86
330
1F
100
AcDbEntity
  8
0
 62
     7
100
AcDbLine
 10
387.147034
 20
197.850006
 30
0.0
 11
387.147034
 21
197.720703
 31
0.0
  0
LINE
  5
87
330
1F
100
AcDbEntity
  8
0
 62
     7
100
AcDbLine
 10
387.147034
 20
197.850006
 30
0.0
 11
387.147034
 21
198.549988
 31
0.0
  0
LINE
  5
88
330
1F
100
AcDbEntity
  8
0
 62
     7
100
AcDbLine
 10
387.147034
 20
198.679291
 30
0.0
 11
387.147034
 21
198.549988
 31
0.0
  0
LINE
  5
89
330
1F
100
AcDbEntity
  8
0
 62
     7
100
AcDbLine
 10
387.147034
 20
198.679291
 30
0.0
 11
387.147034
 21
198.820709
 31
0.0
  0
LINE
  5
8A
330
1F
100
AcDbEntity
  8
0
 62
     7
100
AcDbLine
 10
387.147034
 20
198.950012
 30
0.0
 11
387.147034
 21
198.820709
 31
0.0
  0
LINE
  5
8B
330
1F
100
AcDbEntity
  8
0
 62
     7
100
AcDbLine
 10
387.147034
 20
198.950012
 30
0.0
 11
387.147034
 21
199.649994
 31
0.0
  0
LINE
  5
8C
330
1F
100
AcDbEntity
  8
0
 62
     7
100
AcDbLine
 10
387.147034
 20
199.779297
 30
0.0
 11
387.147034
 21
199.649994
 31
0.0
  0
LINE
  5
8D
330
1F
100
AcDbEntity
  8
0
 62
     7
100
AcDbLine
 10
387.147034
 20
199.779297
 30
0.0
 11
387.147034
 21
199.920715
 31
0.0
  0
LINE
  5
8E
330
1F
100
AcDbEntity
  8
0
 62
     7
100
AcDbLine
 10
387.147034
 20
200.049988
 30
0.0
 11
387.147034
 21
199.920715
 31
0.0
  0
LINE
  5
8F
330
1F
100
AcDbEntity
  8
0
 62
     7
100
AcDbLine
 10
387.147034
 20
200.049988
 30
0.0
 11
387.147034
 21
200.75
 31
0.0
  0
LINE
  5
90
330
1F
100
AcDbEntity
  8
0
 62
     7
100
AcDbLine
 10
387.147034
 20
200.879272
 30
0.0
 11
387.147034
 21
200.75
 31
0.0
  0
LINE
  5
91
330
1F
100
AcDbEntity
  8
0
 62
     7
100
AcDbLine
 10
387.147034
 20
200.879272
 30
0.0
 11
387.147034
 21
201.020721
 31
0.0
  0
LINE
  5
92
330
1F
100
AcDbEntity
  8
0
 62
     7
100
AcDbLine
 10
387.147034
 20
201.149994
 30
0.0
 11
387.147034
 21
201.020721
 31
0.0
  0
LINE
  5
93
330
1F
100
AcDbEntity
  8
0
 62
     7
100
AcDbLine
 10
387.147034
 20
201.149994
 30
0.0
 11
387.147034
 21
201.850006
 31
0.0
  0
LINE
  5
94
330
1F
100
AcDbEntity
  8
0
 62
     7
100
AcDbLine
 10
387.147034
 20
201.979279
 30
0.0
 11
387.147034
 21
201.850006
 31
0.0
  0
LINE
  5
95
330
1F
100
AcDbEntity
  8
0
 62
     7
100
AcDbLine
 10
387.147034
 20
201.979279
 30
0.0
 11
387.147034
 21
202.120697
 31
0.0
  0
LINE
  5
96
330
1F
100
AcDbEntity
  8
0
 62
     7
100
AcDbLine
 10
387.147034
 20
202.25
 30
0.0
 11
387.147034
 21
202.120697
 31
0.0
  0
LINE
  5
97
330
1F
100
AcDbEntity
  8
0
 62
     7
100
AcDbLine
 10
387.147034
 20
202.25
 30
0.0
 11
387.147034
 21
202.950012
 31
0.0
  0
LINE
  5
98
330
1F
100
AcDbEntity
  8
0
 62
     7
100
AcDbLine
 10
387.147034
 20
203.079285
 30
0.0
 11
387.147034
 21
202.950012
 31
0.0
  0
LINE
  5
99
330
1F
100
AcDbEntity
  8
0
 62
     7
100
AcDbLine
 10
387.147034
 20
203.079285
 30
0.0
 11
387.147034
 21
203.220703
 31
0.0
  0
LINE
  5
9A
330
1F
100
AcDbEntity
  8
0
 62
     7
100
AcDbLine
 10
387.147034
 20
203.350006
 30
0.0
 11
387.147034
 21
203.220703
 31
0.0
  0
LINE
  5
9B
330
1F
100
AcDbEntity
  8
0
 62
     7
100
AcDbLine
 10
387.147034
 20
203.350006
 30
0.0
 11
387.147034
 21
204.049988
 31
0.0
  0
LINE
  5
9C
330
1F
100
AcDbEntity
  8
0
 62
     7
100
AcDbLine
 10
387.147034
 20
204.179291
 30
0.0
 11
387.147034
 21
204.049988
 31
0.0
  0
LINE
  5
9D
330
1F
100
AcDbEntity
  8
0
 62
     7
100
AcDbLine
 10
387.147034
 20
204.179291
 30
0.0
 11
387.147034
 21
204.320709
 31
0.0
  0
LINE
  5
9E
330
1F
100
AcDbEntity
  8
0
 62
     7
100
AcDbLine
 10
387.147034
 20
204.450012
 30
0.0
 11
387.147034
 21
204.320709
 31
0.0
  0
LINE
  5
9F
330
1F
100
AcDbEntity
  8
0
 62
     7
100
AcDbLine
 10
387.147034
 20
204.450012
 30
0.0
 11
387.147034
 21
205.149994
 31
0.0
  0
LINE
  5
A0
330
1F
100
AcDbEntity
  8
0
 62
     7
100
AcDbLine
 10
387.147034
 20
205.279297
 30
0.0
 11
387.147034
 21
205.149994
 31
0.0
  0
LINE
  5
A1
330
1F
100
AcDbEntity
  8
0
 62
     7
100
AcDbLine
 10
387.147034
 20
205.279297
 30
0.0
 11
387.147034
 21
205.420715
 31
0.0
  0
LINE
  5
A2
330
1F
100
AcDbEntity
  8
0
 62
     7
100
AcDbLine
 10
387.147034
 20
205.549988
 30
0.0
 11
387.147034
 21
205.420715
 31
0.0
  0
LINE
  5
A3
330
1F
100
AcDbEntity
  8
0
 62
     7
100
AcDbLine
 10
387.147034
 20
205.549988
 30
0.0
 11
387.147034
 21
206.25
 31
0.0
  0
LINE
  5
A4
330
1F
100
AcDbEntity
  8
0
 62
     7
100
AcDbLine
 10
387.147034
 20
206.379272
 30
0.0
 11
387.147034
 21
206.25
 31
0.0
  0
LINE
  5
A5
330
1F
100
AcDbEntity
  8
0
 62
     7
100
AcDbLine
 10
387.147034
 20
206.379272
 30
0.0
 11
387.147034
 21
206.520721
 31
0.0
  0
LINE
  5
A6
330
1F
100
AcDbEntity
  8
0
 62
     7
100
AcDbLine
 10
387.147034
 20
206.649994
 30
0.0
 11
387.147034
 21
206.520721
 31
0.0
  0
LINE
  5
A7
330
1F
100
AcDbEntity
  8
0
 62
     7
100
AcDbLine
 10
387.147034
 20
206.649994
 30
0.0
 11
387.147034
 21
211.474274
 31
0.0
  0
LINE
  5
A8
330
1F
100
AcDbEntity
  8
0
 62
     7
100
AcDbLine
 10
387.147034
 20
211.962128
 30
0.0
 11
387.147034
 21
211.474274
 31
0.0
  0
LINE
  5
A9
330
1F
100
AcDbEntity
  8
0
 62
     7
100
AcDbLine
 10
387.147034
 20
211.962128
 30
0.0
 11
387.147034
 21
212.049988
 31
0.0
  0
LINE
  5
AA
330
1F
100
AcDbEntity
  8
0
 62
     7
100
AcDbLine
 10
384.828339
 20
197.450012
 30
0.0
 11
384.911713
 21
197.579285
 31
0.0
  0
ARC
  5
AB
330
1F
100
AcDbEntity
  8
0
 62
     7
100
AcDbCircle
 10
378.147034
 20
201.850006
 30
0.0
 40
8.0
100
AcDbArc
 50
354.980203
 51
360.0
  0
LINE
  5
AC
330
1F
100
AcDbEntity
  8
0
 62
     7
100
AcDbLine
 10
386.103943
 20
201.020721
 30
0.0
 11
386.116364
 21
201.149994
 31
0.0
  0
LINE
  5
AD
330
1F
100
AcDbEntity
  8
0
 62
     7
100
AcDbLine
 10
386.087921
 20
200.879272
 30
0.0
 11
386.103943
 21
201.020721
 31
0.0
  0
LINE
  5
AE
330
1F
100
AcDbEntity
  8
0
 62
     7
100
AcDbLine
 10
386.071045
 20
200.75
 30
0.0
 11
386.087921
 21
200.879272
 31
0.0
  0
ARC
  5
AF
330
1F
100
AcDbEntity
  8
0
 62
     7
100
AcDbCircle
 10
378.147034
 20
201.850006
 30
0.0
 40
8.0
100
AcDbArc
 50
346.997132
 51
352.096798
  0
LINE
  5
B0
330
1F
100
AcDbEntity
  8
0
 62
     7
100
AcDbLine
 10
385.910919
 20
199.920715
 30
0.0
 11
385.941895
 21
200.049988
 31
0.0
  0
LINE
  5
B1
330
1F
100
AcDbEntity
  8
0
 62
     7
100
AcDbLine
 10
385.87439
 20
199.779297
 30
0.0
 11
385.910919
 21
199.920715
 31
0.0
  0
LINE
  5
B2
330
1F
100
AcDbEntity
  8
0
 62
     7
100
AcDbLine
 10
385.838593
 20
199.649994
 30
0.0
 11
385.87439
 21
199.779297
 31
0.0
  0
ARC
  5
B3
330
1F
100
AcDbEntity
  8
0
 62
     7
100
AcDbCircle
 10
378.147034
 20
201.850006
 30
0.0
 40
8.0
100
AcDbArc
 50
338.746183
 51
344.037995
  0
LINE
  5
B4
330
1F
100
AcDbEntity
  8
0
 62
     7
100
AcDbLine
 10
385.551331
 20
198.820709
 30
0.0
 11
385.602905
 21
198.950012
 31
0.0
  0
LINE
  5
B5
330
1F
100
AcDbEntity
  8
0
 62
     7
100
AcDbLine
 10
385.491882
 20
198.679291
 30
0.0
 11
385.551331
 21
198.820709
 31
0.0
  0
LINE
  5
B6
330
1F
100
AcDbEntity
  8
0
 62
     7
100
AcDbLine
 10
385.434692
 20
198.549988
 30
0.0
 11
385.491882
 21
198.679291
 31
0.0
  0
ARC
  5
B7
330
1F
100
AcDbEntity
  8
0
 62
     7
100
AcDbCircle
 10
378.147034
 20
201.850006
 30
0.0
 40
8.0
100
AcDbArc
 50
329.999989
 51
335.63801
  0
LINE
  5
B8
330
1F
100
AcDbEntity
  8
0
 62
     7
100
AcDbLine
 10
384.998962
 20
197.720703
 30
0.0
 11
385.075226
 21
197.850006
 31
0.0
  0
LINE
  5
B9
330
1F
100
AcDbEntity
  8
0
 62
     7
100
AcDbLine
 10
384.911713
 20
197.579285
 30
0.0
 11
384.998962
 21
197.720703
 31
0.0
  0
LINE
  5
BA
330
1F
100
AcDbEntity
  8
0
 62
     7
100
AcDbLine
 10
371.465729
 20
197.450012
 30
0.0
 11
371.382355
 21
197.579285
 31
0.0
  0
LINE
  5
BB
330
1F
100
AcDbEntity
  8
0
 62
     7
100
AcDbLine
 10
371.382355
 20
197.579285
 30
0.0
 11
371.295105
 21
197.720703
 31
0.0
  0
LINE
  5
BC
330
1F
100
AcDbEntity
  8
0
 62
     7
100
AcDbLine
 10
371.295105
 20
197.720703
 30
0.0
 11
371.218842
 21
197.850006
 31
0.0
  0
ARC
  5
BD
330
1F
100
AcDbEntity
  8
0
 62
     7
100
AcDbCircle
 10
378.147034
 20
201.850006
 30
0.0
 40
8.0
100
AcDbArc
 50
204.361982
 51
210.000003
  0
LINE
  5
BE
330
1F
100
AcDbEntity
  8
0
 62
     7
100
AcDbLine
 10
370.859375
 20
198.549988
 30
0.0
 11
370.802185
 21
198.679291
 31
0.0
  0
LINE
  5
BF
330
1F
100
AcDbEntity
  8
0
 62
     7
100
AcDbLine
 10
370.802185
 20
198.679291
 30
0.0
 11
370.742737
 21
198.820709
 31
0.0
  0
LINE
  5
C0
330
1F
100
AcDbEntity
  8
0
 62
     7
100
AcDbLine
 10
370.742737
 20
198.820709
 30
0.0
 11
370.691162
 21
198.950012
 31
0.0
  0
ARC
  5
C1
330
1F
100
AcDbEntity
  8
0
 62
     7
100
AcDbCircle
 10
378.147034
 20
201.850006
 30
0.0
 40
8.0
100
AcDbArc
 50
195.96201
 51
201.253809
  0
LINE
  5
C2
330
1F
100
AcDbEntity
  8
0
 62
     7
100
AcDbLine
 10
370.455475
 20
199.649994
 30
0.0
 11
370.419678
 21
199.779297
 31
0.0
  0
LINE
  5
C3
330
1F
100
AcDbEntity
  8
0
 62
     7
100
AcDbLine
 10
370.419678
 20
199.779297
 30
0.0
 11
370.383148
 21
199.920715
 31
0.0
  0
LINE
  5
C4
330
1F
100
AcDbEntity
  8
0
 62
     7
100
AcDbLine
 10
370.383148
 20
199.920715
 30
0.0
 11
370.352173
 21
200.049988
 31
0.0
  0
ARC
  5
C5
330
1F
100
AcDbEntity
  8
0
 62
     7
100
AcDbCircle
 10
378.147034
 20
201.850006
 30
0.0
 40
8.0
100
AcDbArc
 50
187.903207
 51
193.002872
  0
LINE
  5
C6
330
1F
100
AcDbEntity
  8
0
 62
     7
100
AcDbLine
 10
370.223022
 20
200.75
 30
0.0
 11
370.206146
 21
200.879272
 31
0.0
  0
LINE
  5
C7
330
1F
100
AcDbEntity
  8
0
 62
     7
100
AcDbLine
 10
370.206146
 20
200.879272
 30
0.0
 11
370.190125
 21
201.020721
 31
0.0
  0
LINE
  5
C8
330
1F
100
AcDbEntity
  8
0
 62
     7
100
AcDbLine
 10
370.190125
 20
201.020721
 30
0.0
 11
370.177704
 21
201.149994
 31
0.0
  0
ARC
  5
C9
330
1F
100
AcDbEntity
  8
0
 62
     7
100
AcDbCircle
 10
378.147034
 20
201.850006
 30
0.0
 40
8.0
100
AcDbArc
 50
180.000009
 51
185.019802
  0
LINE
  5
CA
330
1F
100
AcDbEntity
  8
0
 62
     7
100
AcDbLine
 10
312.797028
 20
197.579285
 30
0.0
 11
312.797028
 21
197.450012
 31
0.0
  0
LINE
  5
CB
330
1F
100
AcDbEntity
  8
0
 62
     7
100
AcDbLine
 10
312.797028
 20
197.720703
 30
0.0
 11
312.797028
 21
197.850006
 31
0.0
  0
LINE
  5
CC
330
1F
100
AcDbEntity
  8
0
 62
     7
100
AcDbLine
 10
312.797028
 20
197.720703
 30
0.0
 11
312.797028
 21
197.579285
 31
0.0
  0
LINE
  5
CD
330
1F
100
AcDbEntity
  8
0
 62
     7
100
AcDbLine
 10
312.797028
 20
204.450012
 30
0.0
 11
312.797028
 21
204.850006
 31
0.0
  0
LINE
  5
CE
330
1F
100
AcDbEntity
  8
0
 62
     7
100
AcDbLine
 10
312.797028
 20
204.320709
 30
0.0
 11
312.797028
 21
204.450012
 31
0.0
  0
LINE
  5
CF
330
1F
100
AcDbEntity
  8
0
 62
     7
100
AcDbLine
 10
312.797028
 20
204.320709
 30
0.0
 11
312.797028
 21
204.179291
 31
0.0
  0
LINE
  5
D0
330
1F
100
AcDbEntity
  8
0
 62
     7
100
AcDbLine
 10
312.797028
 20
204.179291
 30
0.0
 11
312.797028
 21
204.049988
 31
0.0
  0
LINE
  5
D1
330
1F
100
AcDbEntity
  8
0
 62
     7
100
AcDbLine
 10
312.797028
 20
203.350006
 30
0.0
 11
312.797028
 21
204.049988
 31
0.0
  0
LINE
  5
D2
330
1F
100
AcDbEntity
  8
0
 62
     7
100
AcDbLine
 10
312.797028
 20
203.220703
 30
0.0
 11
312.797028
 21
203.350006
 31
0.0
  0
LINE
  5
D3
330
1F
100
AcDbEntity
  8
0
 62
     7
100
AcDbLine
 10
312.797028
 20
203.220703
 30
0.0
 11
312.797028
 21
203.079285
 31
0.0
  0
LINE
  5
D4
330
1F
100
AcDbEntity
  8
0
 62
     7
100
AcDbLine
 10
312.797028
 20
203.079285
 30
0.0
 11
312.797028
 21
202.950012
 31
0.0
  0
LINE
  5
D5
330
1F
100
AcDbEntity
  8
0
 62
     7
100
AcDbLine
 10
312.797028
 20
202.25
 30
0.0
 11
312.797028
 21
202.950012
 31
0.0
  0
LINE
  5
D6
330
1F
100
AcDbEntity
  8
0
 62
     7
100
AcDbLine
 10
312.797028
 20
202.120697
 30
0.0
 11
312.797028
 21
202.25
 31
0.0
  0
LINE
  5
D7
330
1F
100
AcDbEntity
  8
0
 62
     7
100
AcDbLine
 10
312.797028
 20
202.120697
 30
0.0
 11
312.797028
 21
201.979279
 31
0.0
  0
LINE
  5
D8
330
1F
100
AcDbEntity
  8
0
 62
     7
100
AcDbLine
 10
312.797028
 20
201.979279
 30
0.0
 11
312.797028
 21
201.850006
 31
0.0
  0
LINE
  5
D9
330
1F
100
AcDbEntity
  8
0
 62
     7
100
AcDbLine
 10
312.797028
 20
201.149994
 30
0.0
 11
312.797028
 21
201.850006
 31
0.0
  0
LINE
  5
DA
330
1F
100
AcDbEntity
  8
0
 62
     7
100
AcDbLine
 10
312.797028
 20
201.020721
 30
0.0
 11
312.797028
 21
201.149994
 31
0.0
  0
LINE
  5
DB
330
1F
100
AcDbEntity
  8
0
 62
     7
100
AcDbLine
 10
312.797028
 20
201.020721
 30
0.0
 11
312.797028
 21
200.879272
 31
0.0
  0
LINE
  5
DC
330
1F
100
AcDbEntity
  8
0
 62
     7
100
AcDbLine
 10
312.797028
 20
200.879272
 30
0.0
 11
312.797028
 21
200.75
 31
0.0
  0
LINE
  5
DD
330
1F
100
AcDbEntity
  8
0
 62
     7
100
AcDbLine
 10
312.797028
 20
200.049988
 30
0.0
 11
312.797028
 21
200.75
 31
0.0
  0
LINE
  5
DE
330
1F
100
AcDbEntity
  8
0
 62
     7
100
AcDbLine
 10
312.797028
 20
199.920715
 30
0.0
 11
312.797028
 21
200.049988
 31
0.0
  0
LINE
  5
DF
330
1F
100
AcDbEntity
  8
0
 62
     7
100
AcDbLine
 10
312.797028
 20
199.920715
 30
0.0
 11
312.797028
 21
199.779297
 31
0.0
  0
LINE
  5
E0
330
1F
100
AcDbEntity
  8
0
 62
     7
100
AcDbLine
 10
312.797028
 20
199.779297
 30
0.0
 11
312.797028
 21
199.649994
 31
0.0
  0
LINE
  5
E1
330
1F
100
AcDbEntity
  8
0
 62
     7
100
AcDbLine
 10
312.797028
 20
198.950012
 30
0.0
 11
312.797028
 21
199.649994
 31
0.0
  0
LINE
  5
E2
330
1F
100
AcDbEntity
  8
0
 62
     7
100
AcDbLine
 10
312.797028
 20
198.820709
 30
0.0
 11
312.797028
 21
198.950012
 31
0.0
  0
LINE
  5
E3
330
1F
100
AcDbEntity
  8
0
 62
     7
100
AcDbLine
 10
312.797028
 20
198.820709
 30
0.0
 11
312.797028
 21
198.679291
 31
0.0
  0
LINE
  5
E4
330
1F
100
AcDbEntity
  8
0
 62
     7
100
AcDbLine
 10
312.797028
 20
198.679291
 30
0.0
 11
312.797028
 21
198.549988
 31
0.0
  0
LINE
  5
E5
330
1F
100
AcDbEntity
  8
0
 62
     7
100
AcDbLine
 10
312.797028
 20
197.850006
 30
0.0
 11
312.797028
 21
198.549988
 31
0.0
  0
LINE
  5
E6
330
1F
100
AcDbEntity
  8
0
 62
     7
100
AcDbLine
 10
311.797028
 20
205.149994
 30
0.0
 11
311.797028
 21
204.450012
 31
0.0
  0
LINE
  5
E7
330
1F
100
AcDbEntity
  8
0
 62
     7
100
AcDbLine
 10
311.797028
 20
205.279297
 30
0.0
 11
311.797028
 21
205.149994
 31
0.0
  0
LINE
  5
E8
330
1F
100
AcDbEntity
  8
0
 62
     7
100
AcDbLine
 10
311.797028
 20
205.279297
 30
0.0
 11
311.797028
 21
205.350006
 31
0.0
  0
LINE
  5
E9
330
1F
100
AcDbEntity
  8
0
 62
     7
100
AcDbLine
 10
311.797028
 20
197.579285
 30
0.0
 11
311.797028
 21
197.450012
 31
0.0
  0
LINE
  5
EA
330
1F
100
AcDbEntity
  8
0
 62
     7
100
AcDbLine
 10
311.797028
 20
197.579285
 30
0.0
 11
311.797028
 21
197.720703
 31
0.0
  0
LINE
  5
EB
330
1F
100
AcDbEntity
  8
0
 62
     7
100
AcDbLine
 10
311.797028
 20
197.720703
 30
0.0
 11
311.797028
 21
197.850006
 31
0.0
  0
LINE
  5
EC
330
1F
100
AcDbEntity
  8
0
 62
     7
100
AcDbLine
 10
311.797028
 20
198.549988
 30
0.0
 11
311.797028
 21
197.850006
 31
0.0
  0
LINE
  5
ED
330
1F
100
AcDbEntity
  8
0
 62
     7
100
AcDbLine
 10
311.797028
 20
198.679291
 30
0.0
 11
311.797028
 21
198.549988
 31
0.0
  0
LINE
  5
EE
330
1F
100
AcDbEntity
  8
0
 62
     7
100
AcDbLine
 10
311.797028
 20
198.679291
 30
0.0
 11
311.797028
 21
198.820709
 31
0.0
  0
LINE
  5
EF
330
1F
100
AcDbEntity
  8
0
 62
     7
100
AcDbLine
 10
311.797028
 20
198.820709
 30
0.0
 11
311.797028
 21
198.950012
 31
0.0
  0
LINE
  5
F0
330
1F
100
AcDbEntity
  8
0
 62
     7
100
AcDbLine
 10
311.797028
 20
199.649994
 30
0.0
 11
311.797028
 21
198.950012
 31
0.0
  0
LINE
  5
F1
330
1F
100
AcDbEntity
  8
0
 62
     7
100
AcDbLine
 10
311.797028
 20
199.779297
 30
0.0
 11
311.797028
 21
199.649994
 31
0.0
  0
LINE
  5
F2
330
1F
100
AcDbEntity
  8
0
 62
     7
100
AcDbLine
 10
311.797028
 20
199.779297
 30
0.0
 11
311.797028
 21
199.920715
 31
0.0
  0
LINE
  5
F3
330
1F
100
AcDbEntity
  8
0
 62
     7
100
AcDbLine
 10
311.797028
 20
199.920715
 30
0.0
 11
311.797028
 21
200.049988
 31
0.0
  0
LINE
  5
F4
330
1F
100
AcDbEntity
  8
0
 62
     7
100
AcDbLine
 10
311.797028
 20
200.75
 30
0.0
 11
311.797028
 21
200.049988
 31
0.0
  0
LINE
  5
F5
330
1F
100
AcDbEntity
  8
0
 62
     7
100
AcDbLine
 10
311.797028
 20
200.879272
 30
0.0
 11
311.797028
 21
200.75
 31
0.0
  0
LINE
  5
F6
330
1F
100
AcDbEntity
  8
0
 62
     7
100
AcDbLine
 10
311.797028
 20
200.879272
 30
0.0
 11
311.797028
 21
201.020721
 31
0.0
  0
LINE
  5
F7
330
1F
100
AcDbEntity
  8
0
 62
     7
100
AcDbLine
 10
311.797028
 20
201.020721
 30
0.0
 11
311.797028
 21
201.149994
 31
0.0
  0
LINE
  5
F8
330
1F
100
AcDbEntity
  8
0
 62
     7
100
AcDbLine
 10
311.797028
 20
201.850006
 30
0.0
 11
311.797028
 21
201.149994
 31
0.0
  0
LINE
  5
F9
330
1F
100
AcDbEntity
  8
0
 62
     7
100
AcDbLine
 10
311.797028
 20
201.979279
 30
0.0
 11
311.797028
 21
201.850006
 31
0.0
  0
LINE
  5
FA
330
1F
100
AcDbEntity
  8
0
 62
     7
100
AcDbLine
 10
311.797028
 20
201.979279
 30
0.0
 11
311.797028
 21
202.120697
 31
0.0
  0
LINE
  5
FB
330
1F
100
AcDbEntity
  8
0
 62
     7
100
AcDbLine
 10
311.797028
 20
202.120697
 30
0.0
 11
311.797028
 21
202.25
 31
0.0
  0
LINE
  5
FC
330
1F
100
AcDbEntity
  8
0
 62
     7
100
AcDbLine
 10
311.797028
 20
202.950012
 30
0.0
 11
311.797028
 21
202.25
 31
0.0
  0
LINE
  5
FD
330
1F
100
AcDbEntity
  8
0
 62
     7
100
AcDbLine
 10
311.797028
 20
203.079285
 30
0.0
 11
311.797028
 21
202.950012
 31
0.0
  0
LINE
  5
FE
330
1F
100
AcDbEntity
  8
0
 62
     7
100
AcDbLine
 10
311.797028
 20
203.079285
 30
0.0
 11
311.797028
 21
203.220703
 31
0.0
  0
LINE
  5
FF
330
1F
100
AcDbEntity
  8
0
 62
     7
100
AcDbLine
 10
311.797028
 20
203.220703
 30
0.0
 11
311.797028
 21
203.350006
 31
0.0
  0
LINE
  5
100
330
1F
100
AcDbEntity
  8
0
 62
     7
100
AcDbLine
 10
311.797028
 20
204.049988
 30
0.0
 11
311.797028
 21
203.350006
 31
0.0
  0
LINE
  5
101
330
1F
100
AcDbEntity
  8
0
 62
     7
100
AcDbLine
 10
311.797028
 20
204.179291
 30
0.0
 11
311.797028
 21
204.049988
 31
0.0
  0
LINE
  5
102
330
1F
100
AcDbEntity
  8
0
 62
     7
100
AcDbLine
 10
311.797028
 20
204.179291
 30
0.0
 11
311.797028
 21
204.320709
 31
0.0
  0
LINE
  5
103
330
1F
100
AcDbEntity
  8
0
 62
     7
100
AcDbLine
 10
311.797028
 20
204.320709
 30
0.0
 11
311.797028
 21
204.450012
 31
0.0
  0
LINE
  5
104
330
1F
100
AcDbEntity
  8
0
 62
     7
100
AcDbLine
 10
309.49704
 20
197.579285
 30
0.0
 11
309.49704
 21
197.450012
 31
0.0
  0
LINE
  5
105
330
1F
100
AcDbEntity
  8
0
 62
     7
100
AcDbLine
 10
309.49704
 20
197.720703
 30
0.0
 11
309.49704
 21
197.850006
 31
0.0
  0
LINE
  5
106
330
1F
100
AcDbEntity
  8
0
 62
     7
100
AcDbLine
 10
309.49704
 20
197.720703
 30
0.0
 11
309.49704
 21
197.579285
 31
0.0
  0
LINE
  5
107
330
1F
100
AcDbEntity
  8
0
 62
     7
100
AcDbLine
 10
309.49704
 20
205.350006
 30
0.0
 11
309.49704
 21
205.279297
 31
0.0
  0
LINE
  5
108
330
1F
100
AcDbEntity
  8
0
 62
     7
100
AcDbLine
 10
309.49704
 20
205.279297
 30
0.0
 11
309.49704
 21
205.149994
 31
0.0
  0
LINE
  5
109
330
1F
100
AcDbEntity
  8
0
 62
     7
100
AcDbLine
 10
309.49704
 20
204.450012
 30
0.0
 11
309.49704
 21
205.149994
 31
0.0
  0
LINE
  5
10A
330
1F
100
AcDbEntity
  8
0
 62
     7
100
AcDbLine
 10
309.49704
 20
204.320709
 30
0.0
 11
309.49704
 21
204.450012
 31
0.0
  0
LINE
  5
10B
330
1F
100
AcDbEntity
  8
0
 62
     7
100
AcDbLine
 10
309.49704
 20
204.320709
 30
0.0
 11
309.49704
 21
204.179291
 31
0.0
  0
LINE
  5
10C
330
1F
100
AcDbEntity
  8
0
 62
     7
100
AcDbLine
 10
309.49704
 20
204.179291
 30
0.0
 11
309.49704
 21
204.049988
 31
0.0
  0
LINE
  5
10D
330
1F
100
AcDbEntity
  8
0
 62
     7
100
AcDbLine
 10
309.49704
 20
203.350006
 30
0.0
 11
309.49704
 21
204.049988
 31
0.0
  0
LINE
  5
10E
330
1F
100
AcDbEntity
  8
0
 62
     7
100
AcDbLine
 10
309.49704
 20
203.220703
 30
0.0
 11
309.49704
 21
203.350006
 31
0.0
  0
LINE
  5
10F
330
1F
100
AcDbEntity
  8
0
 62
     7
100
AcDbLine
 10
309.49704
 20
203.220703
 30
0.0
 11
309.49704
 21
203.079285
 31
0.0
  0
LINE
  5
110
330
1F
100
AcDbEntity
  8
0
 62
     7
100
AcDbLine
 10
309.49704
 20
203.079285
 30
0.0
 11
309.49704
 21
202.950012
 31
0.0
  0
LINE
  5
111
330
1F
100
AcDbEntity
  8
0
 62
     7
100
AcDbLine
 10
309.49704
 20
202.25
 30
0.0
 11
309.49704
 21
202.950012
 31
0.0
  0
LINE
  5
112
330
1F
100
AcDbEntity
  8
0
 62
     7
100
AcDbLine
 10
309.49704
 20
202.120697
 30
0.0
 11
309.49704
 21
202.25
 31
0.0
  0
LINE
  5
113
330
1F
100
AcDbEntity
  8
0
 62
     7
100
AcDbLine
 10
309.49704
 20
202.120697
 30
0.0
 11
309.49704
 21
201.979279
 31
0.0
  0
LINE
  5
114
330
1F
100
AcDbEntity
  8
0
 62
     7
100
AcDbLine
 10
309.49704
 20
201.979279
 30
0.0
 11
309.49704
 21
201.850006
 31
0.0
  0
LINE
  5
115
330
1F
100
AcDbEntity
  8
0
 62
     7
100
AcDbLine
 10
309.49704
 20
201.149994
 30
0.0
 11
309.49704
 21
201.850006
 31
0.0
  0
LINE
  5
116
330
1F
100
AcDbEntity
  8
0
 62
     7
100
AcDbLine
 10
309.49704
 20
201.020721
 30
0.0
 11
309.49704
 21
201.149994
 31
0.0
  0
LINE
  5
117
330
1F
100
AcDbEntity
  8
0
 62
     7
100
AcDbLine
 10
309.49704
 20
201.020721
 30
0.0
 11
309.49704
 21
200.879272
 31
0.0
  0
LINE
  5
118
330
1F
100
AcDbEntity
  8
0
 62
     7
100
AcDbLine
 10
309.49704
 20
200.879272
 30
0.0
 11
309.49704
 21
200.75
 31
0.0
  0
LINE
  5
119
330
1F
100
AcDbEntity
  8
0
 62
     7
100
AcDbLine
 10
309.49704
 20
200.049988
 30
0.0
 11
309.49704
 21
200.75
 31
0.0
  0
LINE
  5
11A
330
1F
100
AcDbEntity
  8
0
 62
     7
100
AcDbLine
 10
309.49704
 20
199.920715
 30
0.0
 11
309.49704
 21
200.049988
 31
0.0
  0
LINE
  5
11B
330
1F
100
AcDbEntity
  8
0
 62
     7
100
AcDbLine
 10
309.49704
 20
199.920715
 30
0.0
 11
309.49704
 21
199.779297
 31
0.0
  0
LINE
  5
11C
330
1F
100
AcDbEntity
  8
0
 62
     7
100
AcDbLine
 10
309.49704
 20
199.779297
 30
0.0
 11
309.49704
 21
199.649994
 31
0.0
  0
LINE
  5
11D
330
1F
100
AcDbEntity
  8
0
 62
     7
100
AcDbLine
 10
309.49704
 20
198.950012
 30
0.0
 11
309.49704
 21
199.649994
 31
0.0
  0
LINE
  5
11E
330
1F
100
AcDbEntity
  8
0
 62
     7
100
AcDbLine
 10
309.49704
 20
198.820709
 30
0.0
 11
309.49704
 21
198.950012
 31
0.0
  0
LINE
  5
11F
330
1F
100
AcDbEntity
  8
0
 62
     7
100
AcDbLine
 10
309.49704
 20
198.820709
 30
0.0
 11
309.49704
 21
198.679291
 31
0.0
  0
LINE
  5
120
330
1F
100
AcDbEntity
  8
0
 62
     7
100
AcDbLine
 10
309.49704
 20
198.679291
 30
0.0
 11
309.49704
 21
198.549988
 31
0.0
  0
LINE
  5
121
330
1F
100
AcDbEntity
  8
0
 62
     7
100
AcDbLine
 10
309.49704
 20
197.850006
 30
0.0
 11
309.49704
 21
198.549988
 31
0.0
  0
LINE
  5
122
330
1F
100
AcDbEntity
  8
0
 62
     7
100
AcDbLine
 10
308.49704
 20
204.179291
 30
0.0
 11
308.49704
 21
204.049988
 31
0.0
  0
LINE
  5
123
330
1F
100
AcDbEntity
  8
0
 62
     7
100
AcDbLine
 10
308.49704
 20
204.179291
 30
0.0
 11
308.49704
 21
204.320709
 31
0.0
  0
LINE
  5
124
330
1F
100
AcDbEntity
  8
0
 62
     7
100
AcDbLine
 10
308.49704
 20
204.320709
 30
0.0
 11
308.49704
 21
204.450012
 31
0.0
  0
LINE
  5
125
330
1F
100
AcDbEntity
  8
0
 62
     7
100
AcDbLine
 10
308.49704
 20
204.850006
 30
0.0
 11
308.49704
 21
204.450012
 31
0.0
  0
LINE
  5
126
330
1F
100
AcDbEntity
  8
0
 62
     7
100
AcDbLine
 10
308.49704
 20
197.579285
 30
0.0
 11
308.49704
 21
197.450012
 31
0.0
  0
LINE
  5
127
330
1F
100
AcDbEntity
  8
0
 62
     7
100
AcDbLine
 10
308.49704
 20
197.579285
 30
0.0
 11
308.49704
 21
197.720703
 31
0.0
  0
LINE
  5
128
330
1F
100
AcDbEntity
  8
0
 62
     7
100
AcDbLine
 10
308.49704
 20
197.720703
 30
0.0
 11
308.49704
 21
197.850006
 31
0.0
  0
LINE
  5
129
330
1F
100
AcDbEntity
  8
0
 62
     7
100
AcDbLine
 10
308.49704
 20
198.549988
 30
0.0
 11
308.49704
 21
197.850006
 31
0.0
  0
LINE
  5
12A
330
1F
100
AcDbEntity
  8
0
 62
     7
100
AcDbLine
 10
308.49704
 20
198.679291
 30
0.0
 11
308.49704
 21
198.549988
 31
0.0
  0
LINE
  5
12B
330
1F
100
AcDbEntity
  8
0
 62
     7
100
AcDbLine
 10
308.49704
 20
198.679291
 30
0.0
 11
308.49704
 21
198.820709
 31
0.0
  0
LINE
  5
12C
330
1F
100
AcDbEntity
  8
0
 62
     7
100
AcDbLine
 10
308.49704
 20
198.820709
 30
0.0
 11
308.49704
 21
198.950012
 31
0.0
  0
LINE
  5
12D
330
1F
100
AcDbEntity
  8
0
 62
     7
100
AcDbLine
 10
308.49704
 20
199.649994
 30
0.0
 11
308.49704
 21
198.950012
 31
0.0
  0
LINE
  5
12E
330
1F
100
AcDbEntity
  8
0
 62
     7
100
AcDbLine
 10
308.49704
 20
199.779297
 30
0.0
 11
308.49704
 21
199.649994
 31
0.0
  0
LINE
  5
12F
330
1F
100
AcDbEntity
  8
0
 62
     7
100
AcDbLine
 10
308.49704
 20
199.779297
 30
0.0
 11
308.49704
 21
199.920715
 31
0.0
  0
LINE
  5
130
330
1F
100
AcDbEntity
  8
0
 62
     7
100
AcDbLine
 10
308.49704
 20
199.920715
 30
0.0
 11
308.49704
 21
200.049988
 31
0.0
  0
LINE
  5
131
330
1F
100
AcDbEntity
  8
0
 62
     7
100
AcDbLine
 10
308.49704
 20
200.75
 30
0.0
 11
308.49704
 21
200.049988
 31
0.0
  0
LINE
  5
132
330
1F
100
AcDbEntity
  8
0
 62
     7
100
AcDbLine
 10
308.49704
 20
200.879272
 30
0.0
 11
308.49704
 21
200.75
 31
0.0
  0
LINE
  5
133
330
1F
100
AcDbEntity
  8
0
 62
     7
100
AcDbLine
 10
308.49704
 20
200.879272
 30
0.0
 11
308.49704
 21
201.020721
 31
0.0
  0
LINE
  5
134
330
1F
100
AcDbEntity
  8
0
 62
     7
100
AcDbLine
 10
308.49704
 20
201.020721
 30
0.0
 11
308.49704
 21
201.149994
 31
0.0
  0
LINE
  5
135
330
1F
100
AcDbEntity
  8
0
 62
     7
100
AcDbLine
 10
308.49704
 20
201.850006
 30
0.0
 11
308.49704
 21
201.149994
 31
0.0
  0
LINE
  5
136
330
1F
100
AcDbEntity
  8
0
 62
     7
100
AcDbLine
 10
308.49704
 20
201.979279
 30
0.0
 11
308.49704
 21
201.850006
 31
0.0
  0
LINE
  5
137
330
1F
100
AcDbEntity
  8
0
 62
     7
100
AcDbLine
 10
308.49704
 20
201.979279
 30
0.0
 11
308.49704
 21
202.120697
 31
0.0
  0
LINE
  5
138
330
1F
100
AcDbEntity
  8
0
 62
     7
100
AcDbLine
 10
308.49704
 20
202.120697
 30
0.0
 11
308.49704
 21
202.25
 31
0.0
  0
LINE
  5
139
330
1F
100
AcDbEntity
  8
0
 62
     7
100
AcDbLine
 10
308.49704
 20
202.950012
 30
0.0
 11
308.49704
 21
202.25
 31
0.0
  0
LINE
  5
13A
330
1F
100
AcDbEntity
  8
0
 62
     7
100
AcDbLine
 10
308.49704
 20
203.079285
 30
0.0
 11
308.49704
 21
202.950012
 31
0.0
  0
LINE
  5
13B
330
1F
100
AcDbEntity
  8
0
 62
     7
100
AcDbLine
 10
308.49704
 20
203.079285
 30
0.0
 11
308.49704
 21
203.220703
 31
0.0
  0
LINE
  5
13C
330
1F
100
AcDbEntity
  8
0
 62
     7
100
AcDbLine
 10
308.49704
 20
203.220703
 30
0.0
 11
308.49704
 21
203.350006
 31
0.0
  0
LINE
  5
13D
330
1F
100
AcDbEntity
  8
0
 62
     7
100
AcDbLine
 10
308.49704
 20
204.049988
 30
0.0
 11
308.49704
 21
203.350006
 31
0.0
  0
LINE
  5
13E
330
1F
100
AcDbEntity
  8
0
 62
     7
100
AcDbLine
 10
162.797058
 20
197.579285
 30
0.0
 11
162.797058
 21
197.450012
 31
0.0
  0
LINE
  5
13F
330
1F
100
AcDbEntity
  8
0
 62
     7
100
AcDbLine
 10
162.797058
 20
197.720703
 30
0.0
 11
162.797058
 21
197.850006
 31
0.0
  0
LINE
  5
140
330
1F
100
AcDbEntity
  8
0
 62
     7
100
AcDbLine
 10
162.797058
 20
197.720703
 30
0.0
 11
162.797058
 21
197.579285
 31
0.0
  0
LINE
  5
141
330
1F
100
AcDbEntity
  8
0
 62
     7
100
AcDbLine
 10
162.797058
 20
204.450012
 30
0.0
 11
162.797058
 21
204.850006
 31
0.0
  0
LINE
  5
142
330
1F
100
AcDbEntity
  8
0
 62
     7
100
AcDbLine
 10
162.797058
 20
204.320709
 30
0.0
 11
162.797058
 21
204.450012
 31
0.0
  0
LINE
  5
143
330
1F
100
AcDbEntity
  8
0
 62
     7
100
AcDbLine
 10
162.797058
 20
204.320709
 30
0.0
 11
162.797058
 21
204.179291
 31
0.0
  0
LINE
  5
144
330
1F
100
AcDbEntity
  8
0
 62
     7
100
AcDbLine
 10
162.797058
 20
204.179291
 30
0.0
 11
162.797058
 21
204.049988
 31
0.0
  0
LINE
  5
145
330
1F
100
AcDbEntity
  8
0
 62
     7
100
AcDbLine
 10
162.797058
 20
203.350006
 30
0.0
 11
162.797058
 21
204.049988
 31
0.0
  0
LINE
  5
146
330
1F
100
AcDbEntity
  8
0
 62
     7
100
AcDbLine
 10
162.797058
 20
203.220703
 30
0.0
 11
162.797058
 21
203.350006
 31
0.0
  0
LINE
  5
147
330
1F
100
AcDbEntity
  8
0
 62
     7
100
AcDbLine
 10
162.797058
 20
203.220703
 30
0.0
 11
162.797058
 21
203.079285
 31
0.0
  0
LINE
  5
148
330
1F
100
AcDbEntity
  8
0
 62
     7
100
AcDbLine
 10
162.797058
 20
203.079285
 30
0.0
 11
162.797058
 21
202.950012
 31
0.0
  0
LINE
  5
149
330
1F
100
AcDbEntity
  8
0
 62
     7
100
AcDbLine
 10
162.797058
 20
202.25
 30
0.0
 11
162.797058
 21
202.950012
 31
0.0
  0
LINE
  5
14A
330
1F
100
AcDbEntity
  8
0
 62
     7
100
AcDbLine
 10
162.797058
 20
202.120697
 30
0.0
 11
162.797058
 21
202.25
 31
0.0
  0
LINE
  5
14B
330
1F
100
AcDbEntity
  8
0
 62
     7
100
AcDbLine
 10
162.797058
 20
202.120697
 30
0.0
 11
162.797058
 21
201.979279
 31
0.0
  0
LINE
  5
14C
330
1F
100
AcDbEntity
  8
0
 62
     7
100
AcDbLine
 10
162.797058
 20
201.979279
 30
0.0
 11
162.797058
 21
201.850006
 31
0.0
  0
LINE
  5
14D
330
1F
100
AcDbEntity
  8
0
 62
     7
100
AcDbLine
 10
162.797058
 20
201.149994
 30
0.0
 11
162.797058
 21
201.850006
 31
0.0
  0
LINE
  5
14E
330
1F
100
AcDbEntity
  8
0
 62
     7
100
AcDbLine
 10
162.797058
 20
201.020721
 30
0.0
 11
162.797058
 21
201.149994
 31
0.0
  0
LINE
  5
14F
330
1F
100
AcDbEntity
  8
0
 62
     7
100
AcDbLine
 10
162.797058
 20
201.020721
 30
0.0
 11
162.797058
 21
200.879272
 31
0.0
  0
LINE
  5
150
330
1F
100
AcDbEntity
  8
0
 62
     7
100
AcDbLine
 10
162.797058
 20
200.879272
 30
0.0
 11
162.797058
 21
200.75
 31
0.0
  0
LINE
  5
151
330
1F
100
AcDbEntity
  8
0
 62
     7
100
AcDbLine
 10
162.797058
 20
200.049988
 30
0.0
 11
162.797058
 21
200.75
 31
0.0
  0
LINE
  5
152
330
1F
100
AcDbEntity
  8
0
 62
     7
100
AcDbLine
 10
162.797058
 20
199.920715
 30
0.0
 11
162.797058
 21
200.049988
 31
0.0
  0
LINE
  5
153
330
1F
100
AcDbEntity
  8
0
 62
     7
100
AcDbLine
 10
162.797058
 20
199.920715
 30
0.0
 11
162.797058
 21
199.779297
 31
0.0
  0
LINE
  5
154
330
1F
100
AcDbEntity
  8
0
 62
     7
100
AcDbLine
 10
162.797058
 20
199.779297
 30
0.0
 11
162.797058
 21
199.649994
 31
0.0
  0
LINE
  5
155
330
1F
100
AcDbEntity
  8
0
 62
     7
100
AcDbLine
 10
162.797058
 20
198.950012
 30
0.0
 11
162.797058
 21
199.649994
 31
0.0
  0
LINE
  5
156
330
1F
100
AcDbEntity
  8
0
 62
     7
100
AcDbLine
 10
162.797058
 20
198.820709
 30
0.0
 11
162.797058
 21
198.950012
 31
0.0
  0
LINE
  5
157
330
1F
100
AcDbEntity
  8
0
 62
     7
100
AcDbLine
 10
162.797058
 20
198.820709
 30
0.0
 11
162.797058
 21
198.679291
 31
0.0
  0
LINE
  5
158
330
1F
100
AcDbEntity
  8
0
 62
     7
100
AcDbLine
 10
162.797058
 20
198.679291
 30
0.0
 11
162.797058
 21
198.549988
 31
0.0
  0
LINE
  5
159
330
1F
100
AcDbEntity
  8
0
 62
     7
100
AcDbLine
 10
162.797058
 20
197.850006
 30
0.0
 11
162.797058
 21
198.549988
 31
0.0
  0
LINE
  5
15A
330
1F
100
AcDbEntity
  8
0
 62
     7
100
AcDbLine
 10
161.797058
 20
205.149994
 30
0.0
 11
161.797058
 21
204.450012
 31
0.0
  0
LINE
  5
15B
330
1F
100
AcDbEntity
  8
0
 62
     7
100
AcDbLine
 10
161.797058
 20
205.279297
 30
0.0
 11
161.797058
 21
205.149994
 31
0.0
  0
LINE
  5
15C
330
1F
100
AcDbEntity
  8
0
 62
     7
100
AcDbLine
 10
161.797058
 20
205.279297
 30
0.0
 11
161.797058
 21
205.350006
 31
0.0
  0
LINE
  5
15D
330
1F
100
AcDbEntity
  8
0
 62
     7
100
AcDbLine
 10
161.797058
 20
197.579285
 30
0.0
 11
161.797058
 21
197.450012
 31
0.0
  0
LINE
  5
15E
330
1F
100
AcDbEntity
  8
0
 62
     7
100
AcDbLine
 10
161.797058
 20
197.579285
 30
0.0
 11
161.797058
 21
197.720703
 31
0.0
  0
LINE
  5
15F
330
1F
100
AcDbEntity
  8
0
 62
     7
100
AcDbLine
 10
161.797058
 20
197.720703
 30
0.0
 11
161.797058
 21
197.850006
 31
0.0
  0
LINE
  5
160
330
1F
100
AcDbEntity
  8
0
 62
     7
100
AcDbLine
 10
161.797058
 20
198.549988
 30
0.0
 11
161.797058
 21
197.850006
 31
0.0
  0
LINE
  5
161
330
1F
100
AcDbEntity
  8
0
 62
     7
100
AcDbLine
 10
161.797058
 20
198.679291
 30
0.0
 11
161.797058
 21
198.549988
 31
0.0
  0
LINE
  5
162
330
1F
100
AcDbEntity
  8
0
 62
     7
100
AcDbLine
 10
161.797058
 20
198.679291
 30
0.0
 11
161.797058
 21
198.820709
 31
0.0
  0
LINE
  5
163
330
1F
100
AcDbEntity
  8
0
 62
     7
100
AcDbLine
 10
161.797058
 20
198.820709
 30
0.0
 11
161.797058
 21
198.950012
 31
0.0
  0
LINE
  5
164
330
1F
100
AcDbEntity
  8
0
 62
     7
100
AcDbLine
 10
161.797058
 20
199.649994
 30
0.0
 11
161.797058
 21
198.950012
 31
0.0
  0
LINE
  5
165
330
1F
100
AcDbEntity
  8
0
 62
     7
100
AcDbLine
 10
161.797058
 20
199.779297
 30
0.0
 11
161.797058
 21
199.649994
 31
0.0
  0
LINE
  5
166
330
1F
100
AcDbEntity
  8
0
 62
     7
100
AcDbLine
 10
161.797058
 20
199.779297
 30
0.0
 11
161.797058
 21
199.920715
 31
0.0
  0
LINE
  5
167
330
1F
100
AcDbEntity
  8
0
 62
     7
100
AcDbLine
 10
161.797058
 20
199.920715
 30
0.0
 11
161.797058
 21
200.049988
 31
0.0
  0
LINE
  5
168
330
1F
100
AcDbEntity
  8
0
 62
     7
100
AcDbLine
 10
161.797058
 20
200.75
 30
0.0
 11
161.797058
 21
200.049988
 31
0.0
  0
LINE
  5
169
330
1F
100
AcDbEntity
  8
0
 62
     7
100
AcDbLine
 10
161.797058
 20
200.879272
 30
0.0
 11
161.797058
 21
200.75
 31
0.0
  0
LINE
  5
16A
330
1F
100
AcDbEntity
  8
0
 62
     7
100
AcDbLine
 10
161.797058
 20
200.879272
 30
0.0
 11
161.797058
 21
201.020721
 31
0.0
  0
LINE
  5
16B
330
1F
100
AcDbEntity
  8
0
 62
     7
100
AcDbLine
 10
161.797058
 20
201.020721
 30
0.0
 11
161.797058
 21
201.149994
 31
0.0
  0
LINE
  5
16C
330
1F
100
AcDbEntity
  8
0
 62
     7
100
AcDbLine
 10
161.797058
 20
201.850006
 30
0.0
 11
161.797058
 21
201.149994
 31
0.0
  0
LINE
  5
16D
330
1F
100
AcDbEntity
  8
0
 62
     7
100
AcDbLine
 10
161.797058
 20
201.979279
 30
0.0
 11
161.797058
 21
201.850006
 31
0.0
  0
LINE
  5
16E
330
1F
100
AcDbEntity
  8
0
 62
     7
100
AcDbLine
 10
161.797058
 20
201.979279
 30
0.0
 11
161.797058
 21
202.120697
 31
0.0
  0
LINE
  5
16F
330
1F
100
AcDbEntity
  8
0
 62
     7
100
AcDbLine
 10
161.797058
 20
202.120697
 30
0.0
 11
161.797058
 21
202.25
 31
0.0
  0
LINE
  5
170
330
1F
100
AcDbEntity
  8
0
 62
     7
100
AcDbLine
 10
161.797058
 20
202.950012
 30
0.0
 11
161.797058
 21
202.25
 31
0.0
  0
LINE
  5
171
330
1F
100
AcDbEntity
  8
0
 62
     7
100
AcDbLine
 10
161.797058
 20
203.079285
 30
0.0
 11
161.797058
 21
202.950012
 31
0.0
  0
LINE
  5
172
330
1F
100
AcDbEntity
  8
0
 62
     7
100
AcDbLine
 10
161.797058
 20
203.079285
 30
0.0
 11
161.797058
 21
203.220703
 31
0.0
  0
LINE
  5
173
330
1F
100
AcDbEntity
  8
0
 62
     7
100
AcDbLine
 10
161.797058
 20
203.220703
 30
0.0
 11
161.797058
 21
203.350006
 31
0.0
  0
LINE
  5
174
330
1F
100
AcDbEntity
  8
0
 62
     7
100
AcDbLine
 10
161.797058
 20
204.049988
 30
0.0
 11
161.797058
 21
203.350006
 31
0.0
  0
LINE
  5
175
330
1F
100
AcDbEntity
  8
0
 62
     7
100
AcDbLine
 10
161.797058
 20
204.179291
 30
0.0
 11
161.797058
 21
204.049988
 31
0.0
  0
LINE
  5
176
330
1F
100
AcDbEntity
  8
0
 62
     7
100
AcDbLine
 10
161.797058
 20
204.179291
 30
0.0
 11
161.797058
 21
204.320709
 31
0.0
  0
LINE
  5
177
330
1F
100
AcDbEntity
  8
0
 62
     7
100
AcDbLine
 10
161.797058
 20
204.320709
 30
0.0
 11
161.797058
 21
204.450012
 31
0.0
  0
LINE
  5
178
330
1F
100
AcDbEntity
  8
0
 62
     7
100
AcDbLine
 10
159.49704
 20
197.579285
 30
0.0
 11
159.49704
 21
197.450012
 31
0.0
  0
LINE
  5
179
330
1F
100
AcDbEntity
  8
0
 62
     7
100
AcDbLine
 10
159.49704
 20
197.720703
 30
0.0
 11
159.49704
 21
197.850006
 31
0.0
  0
LINE
  5
17A
330
1F
100
AcDbEntity
  8
0
 62
     7
100
AcDbLine
 10
159.49704
 20
197.720703
 30
0.0
 11
159.49704
 21
197.579285
 31
0.0
  0
LINE
  5
17B
330
1F
100
AcDbEntity
  8
0
 62
     7
100
AcDbLine
 10
159.49704
 20
205.350006
 30
0.0
 11
159.49704
 21
205.279297
 31
0.0
  0
LINE
  5
17C
330
1F
100
AcDbEntity
  8
0
 62
     7
100
AcDbLine
 10
159.49704
 20
205.279297
 30
0.0
 11
159.49704
 21
205.149994
 31
0.0
  0
LINE
  5
17D
330
1F
100
AcDbEntity
  8
0
 62
     7
100
AcDbLine
 10
159.49704
 20
204.450012
 30
0.0
 11
159.49704
 21
205.149994
 31
0.0
  0
LINE
  5
17E
330
1F
100
AcDbEntity
  8
0
 62
     7
100
AcDbLine
 10
159.49704
 20
204.320709
 30
0.0
 11
159.49704
 21
204.450012
 31
0.0
  0
LINE
  5
17F
330
1F
100
AcDbEntity
  8
0
 62
     7
100
AcDbLine
 10
159.49704
 20
204.320709
 30
0.0
 11
159.49704
 21
204.179291
 31
0.0
  0
LINE
  5
180
330
1F
100
AcDbEntity
  8
0
 62
     7
100
AcDbLine
 10
159.49704
 20
204.179291
 30
0.0
 11
159.49704
 21
204.049988
 31
0.0
  0
LINE
  5
181
330
1F
100
AcDbEntity
  8
0
 62
     7
100
AcDbLine
 10
159.49704
 20
203.350006
 30
0.0
 11
159.49704
 21
204.049988
 31
0.0
  0
LINE
  5
182
330
1F
100
AcDbEntity
  8
0
 62
     7
100
AcDbLine
 10
159.49704
 20
203.220703
 30
0.0
 11
159.49704
 21
203.350006
 31
0.0
  0
LINE
  5
183
330
1F
100
AcDbEntity
  8
0
 62
     7
100
AcDbLine
 10
159.49704
 20
203.220703
 30
0.0
 11
159.49704
 21
203.079285
 31
0.0
  0
LINE
  5
184
330
1F
100
AcDbEntity
  8
0
 62
     7
100
AcDbLine
 10
159.49704
 20
203.079285
 30
0.0
 11
159.49704
 21
202.950012
 31
0.0
  0
LINE
  5
185
330
1F
100
AcDbEntity
  8
0
 62
     7
100
AcDbLine
 10
159.49704
 20
202.25
 30
0.0
 11
159.49704
 21
202.950012
 31
0.0
  0
LINE
  5
186
330
1F
100
AcDbEntity
  8
0
 62
     7
100
AcDbLine
 10
159.49704
 20
202.120697
 30
0.0
 11
159.49704
 21
202.25
 31
0.0
  0
LINE
  5
187
330
1F
100
AcDbEntity
  8
0
 62
     7
100
AcDbLine
 10
159.49704
 20
202.120697
 30
0.0
 11
159.49704
 21
201.979279
 31
0.0
  0
LINE
  5
188
330
1F
100
AcDbEntity
  8
0
 62
     7
100
AcDbLine
 10
159.49704
 20
201.979279
 30
0.0
 11
159.49704
 21
201.850006
 31
0.0
  0
LINE
  5
189
330
1F
100
AcDbEntity
  8
0
 62
     7
100
AcDbLine
 10
159.49704
 20
201.149994
 30
0.0
 11
159.49704
 21
201.850006
 31
0.0
  0
LINE
  5
18A
330
1F
100
AcDbEntity
  8
0
 62
     7
100
AcDbLine
 10
159.49704
 20
201.020721
 30
0.0
 11
159.49704
 21
201.149994
 31
0.0
  0
LINE
  5
18B
330
1F
100
AcDbEntity
  8
0
 62
     7
100
AcDbLine
 10
159.49704
 20
201.020721
 30
0.0
 11
159.49704
 21
200.879272
 31
0.0
  0
LINE
  5
18C
330
1F
100
AcDbEntity
  8
0
 62
     7
100
AcDbLine
 10
159.49704
 20
200.879272
 30
0.0
 11
159.49704
 21
200.75
 31
0.0
  0
LINE
  5
18D
330
1F
100
AcDbEntity
  8
0
 62
     7
100
AcDbLine
 10
159.49704
 20
200.049988
 30
0.0
 11
159.49704
 21
200.75
 31
0.0
  0
LINE
  5
18E
330
1F
100
AcDbEntity
  8
0
 62
     7
100
AcDbLine
 10
159.49704
 20
199.920715
 30
0.0
 11
159.49704
 21
200.049988
 31
0.0
  0
LINE
  5
18F
330
1F
100
AcDbEntity
  8
0
 62
     7
100
AcDbLine
 10
159.49704
 20
199.920715
 30
0.0
 11
159.49704
 21
199.779297
 31
0.0
  0
LINE
  5
190
330
1F
100
AcDbEntity
  8
0
 62
     7
100
AcDbLine
 10
159.49704
 20
199.779297
 30
0.0
 11
159.49704
 21
199.649994
 31
0.0
  0
LINE
  5
191
330
1F
100
AcDbEntity
  8
0
 62
     7
100
AcDbLine
 10
159.49704
 20
198.950012
 30
0.0
 11
159.49704
 21
199.649994
 31
0.0
  0
LINE
  5
192
330
1F
100
AcDbEntity
  8
0
 62
     7
100
AcDbLine
 10
159.49704
 20
198.820709
 30
0.0
 11
159.49704
 21
198.950012
 31
0.0
  0
LINE
  5
193
330
1F
100
AcDbEntity
  8
0
 62
     7
100
AcDbLine
 10
159.49704
 20
198.820709
 30
0.0
 11
159.49704
 21
198.679291
 31
0.0
  0
LINE
  5
194
330
1F
100
AcDbEntity
  8
0
 62
     7
100
AcDbLine
 10
159.49704
 20
198.679291
 30
0.0
 11
159.49704
 21
198.549988
 31
0.0
  0
LINE
  5
195
330
1F
100
AcDbEntity
  8
0
 62
     7
100
AcDbLine
 10
159.49704
 20
197.850006
 30
0.0
 11
159.49704
 21
198.549988
 31
0.0
  0
LINE
  5
196
330
1F
100
AcDbEntity
  8
0
 62
     7
100
AcDbLine
 10
158.49704
 20
204.179291
 30
0.0
 11
158.49704
 21
204.049988
 31
0.0
  0
LINE
  5
197
330
1F
100
AcDbEntity
  8
0
 62
     7
100
AcDbLine
 10
158.49704
 20
204.179291
 30
0.0
 11
158.49704
 21
204.320709
 31
0.0
  0
LINE
  5
198
330
1F
100
AcDbEntity
  8
0
 62
     7
100
AcDbLine
 10
158.49704
 20
204.320709
 30
0.0
 11
158.49704
 21
204.450012
 31
0.0
  0
LINE
  5
199
330
1F
100
AcDbEntity
  8
0
 62
     7
100
AcDbLine
 10
158.49704
 20
204.850006
 30
0.0
 11
158.49704
 21
204.450012
 31
0.0
  0
LINE
  5
19A
330
1F
100
AcDbEntity
  8
0
 62
     7
100
AcDbLine
 10
158.49704
 20
197.579285
 30
0.0
 11
158.49704
 21
197.450012
 31
0.0
  0
LINE
  5
19B
330
1F
100
AcDbEntity
  8
0
 62
     7
100
AcDbLine
 10
158.49704
 20
197.579285
 30
0.0
 11
158.49704
 21
197.720703
 31
0.0
  0
LINE
  5
19C
330
1F
100
AcDbEntity
  8
0
 62
     7
100
AcDbLine
 10
158.49704
 20
197.720703
 30
0.0
 11
158.49704
 21
197.850006
 31
0.0
  0
LINE
  5
19D
330
1F
100
AcDbEntity
  8
0
 62
     7
100
AcDbLine
 10
158.49704
 20
198.549988
 30
0.0
 11
158.49704
 21
197.850006
 31
0.0
  0
LINE
  5
19E
330
1F
100
AcDbEntity
  8
0
 62
     7
100
AcDbLine
 10
158.49704
 20
198.679291
 30
0.0
 11
158.49704
 21
198.549988
 31
0.0
  0
LINE
  5
19F
330
1F
100
AcDbEntity
  8
0
 62
     7
100
AcDbLine
 10
158.49704
 20
198.679291
 30
0.0
 11
158.49704
 21
198.820709
 31
0.0
  0
LINE
  5
1A0
330
1F
100
AcDbEntity
  8
0
 62
     7
100
AcDbLine
 10
158.49704
 20
198.820709
 30
0.0
 11
158.49704
 21
198.950012
 31
0.0
  0
LINE
  5
1A1
330
1F
100
AcDbEntity
  8
0
 62
     7
100
AcDbLine
 10
158.49704
 20
199.649994
 30
0.0
 11
158.49704
 21
198.950012
 31
0.0
  0
LINE
  5
1A2
330
1F
100
AcDbEntity
  8
0
 62
     7
100
AcDbLine
 10
158.49704
 20
199.779297
 30
0.0
 11
158.49704
 21
199.649994
 31
0.0
  0
LINE
  5
1A3
330
1F
100
AcDbEntity
  8
0
 62
     7
100
AcDbLine
 10
158.49704
 20
199.779297
 30
0.0
 11
158.49704
 21
199.920715
 31
0.0
  0
LINE
  5
1A4
330
1F
100
AcDbEntity
  8
0
 62
     7
100
AcDbLine
 10
158.49704
 20
199.920715
 30
0.0
 11
158.49704
 21
200.049988
 31
0.0
  0
LINE
  5
1A5
330
1F
100
AcDbEntity
  8
0
 62
     7
100
AcDbLine
 10
158.49704
 20
200.75
 30
0.0
 11
158.49704
 21
200.049988
 31
0.0
  0
LINE
  5
1A6
330
1F
100
AcDbEntity
  8
0
 62
     7
100
AcDbLine
 10
158.49704
 20
200.879272
 30
0.0
 11
158.49704
 21
200.75
 31
0.0
  0
LINE
  5
1A7
330
1F
100
AcDbEntity
  8
0
 62
     7
100
AcDbLine
 10
158.49704
 20
200.879272
 30
0.0
 11
158.49704
 21
201.020721
 31
0.0
  0
LINE
  5
1A8
330
1F
100
AcDbEntity
  8
0
 62
     7
100
AcDbLine
 10
158.49704
 20
201.020721
 30
0.0
 11
158.49704
 21
201.149994
 31
0.0
  0
LINE
  5
1A9
330
1F
100
AcDbEntity
  8
0
 62
     7
100
AcDbLine
 10
158.49704
 20
201.850006
 30
0.0
 11
158.49704
 21
201.149994
 31
0.0
  0
LINE
  5
1AA
330
1F
100
AcDbEntity
  8
0
 62
     7
100
AcDbLine
 10
158.49704
 20
201.979279
 30
0.0
 11
158.49704
 21
201.850006
 31
0.0
  0
LINE
  5
1AB
330
1F
100
AcDbEntity
  8
0
 62
     7
100
AcDbLine
 10
158.49704
 20
201.979279
 30
0.0
 11
158.49704
 21
202.120697
 31
0.0
  0
LINE
  5
1AC
330
1F
100
AcDbEntity
  8
0
 62
     7
100
AcDbLine
 10
158.49704
 20
202.120697
 30
0.0
 11
158.49704
 21
202.25
 31
0.0
  0
LINE
  5
1AD
330
1F
100
AcDbEntity
  8
0
 62
     7
100
AcDbLine
 10
158.49704
 20
202.950012
 30
0.0
 11
158.49704
 21
202.25
 31
0.0
  0
LINE
  5
1AE
330
1F
100
AcDbEntity
  8
0
 62
     7
100
AcDbLine
 10
158.49704
 20
203.079285
 30
0.0
 11
158.49704
 21
202.950012
 31
0.0
  0
LINE
  5
1AF
330
1F
100
AcDbEntity
  8
0
 62
     7
100
AcDbLine
 10
158.49704
 20
203.079285
 30
0.0
 11
158.49704
 21
203.220703
 31
0.0
  0
LINE
  5
1B0
330
1F
100
AcDbEntity
  8
0
 62
     7
100
AcDbLine
 10
158.49704
 20
203.220703
 30
0.0
 11
158.49704
 21
203.350006
 31
0.0
  0
LINE
  5
1B1
330
1F
100
AcDbEntity
  8
0
 62
     7
100
AcDbLine
 10
158.49704
 20
204.049988
 30
0.0
 11
158.49704
 21
203.350006
 31
0.0
  0
LINE
  5
1B2
330
1F
100
AcDbEntity
  8
0
 62
     7
100
AcDbLine
 10
99.828377
 20
197.450012
 30
0.0
 11
99.911751
 21
197.579285
 31
0.0
  0
ARC
  5
1B3
330
1F
100
AcDbEntity
  8
0
 62
     7
100
AcDbCircle
 10
93.147064
 20
201.850006
 30
0.0
 40
8.0
100
AcDbArc
 50
354.980203
 51
360.0
  0
LINE
  5
1B4
330
1F
100
AcDbEntity
  8
0
 62
     7
100
AcDbLine
 10
101.103966
 20
201.020721
 30
0.0
 11
101.116379
 21
201.149994
 31
0.0
  0
LINE
  5
1B5
330
1F
100
AcDbEntity
  8
0
 62
     7
100
AcDbLine
 10
101.087952
 20
200.879272
 30
0.0
 11
101.103966
 21
201.020721
 31
0.0
  0
LINE
  5
1B6
330
1F
100
AcDbEntity
  8
0
 62
     7
100
AcDbLine
 10
101.071075
 20
200.75
 30
0.0
 11
101.087952
 21
200.879272
 31
0.0
  0
ARC
  5
1B7
330
1F
100
AcDbEntity
  8
0
 62
     7
100
AcDbCircle
 10
93.147064
 20
201.850006
 30
0.0
 40
8.0
100
AcDbArc
 50
346.997132
 51
352.096798
  0
LINE
  5
1B8
330
1F
100
AcDbEntity
  8
0
 62
     7
100
AcDbLine
 10
100.910942
 20
199.920715
 30
0.0
 11
100.941933
 21
200.049988
 31
0.0
  0
LINE
  5
1B9
330
1F
100
AcDbEntity
  8
0
 62
     7
100
AcDbLine
 10
100.874428
 20
199.779297
 30
0.0
 11
100.910942
 21
199.920715
 31
0.0
  0
LINE
  5
1BA
330
1F
100
AcDbEntity
  8
0
 62
     7
100
AcDbLine
 10
100.838615
 20
199.649994
 30
0.0
 11
100.874428
 21
199.779297
 31
0.0
  0
ARC
  5
1BB
330
1F
100
AcDbEntity
  8
0
 62
     7
100
AcDbCircle
 10
93.147064
 20
201.850006
 30
0.0
 40
8.0
100
AcDbArc
 50
338.746183
 51
344.037995
  0
LINE
  5
1BC
330
1F
100
AcDbEntity
  8
0
 62
     7
100
AcDbLine
 10
100.551346
 20
198.820709
 30
0.0
 11
100.602936
 21
198.950012
 31
0.0
  0
LINE
  5
1BD
330
1F
100
AcDbEntity
  8
0
 62
     7
100
AcDbLine
 10
100.491898
 20
198.679291
 30
0.0
 11
100.551346
 21
198.820709
 31
0.0
  0
LINE
  5
1BE
330
1F
100
AcDbEntity
  8
0
 62
     7
100
AcDbLine
 10
100.434723
 20
198.549988
 30
0.0
 11
100.491898
 21
198.679291
 31
0.0
  0
ARC
  5
1BF
330
1F
100
AcDbEntity
  8
0
 62
     7
100
AcDbCircle
 10
93.147064
 20
201.850006
 30
0.0
 40
8.0
100
AcDbArc
 50
329.999989
 51
335.63801
  0
LINE
  5
1C0
330
1F
100
AcDbEntity
  8
0
 62
     7
100
AcDbLine
 10
99.998993
 20
197.720703
 30
0.0
 11
100.075264
 21
197.850006
 31
0.0
  0
LINE
  5
1C1
330
1F
100
AcDbEntity
  8
0
 62
     7
100
AcDbLine
 10
99.911751
 20
197.579285
 30
0.0
 11
99.998993
 21
197.720703
 31
0.0
  0
LINE
  5
1C2
330
1F
100
AcDbEntity
  8
0
 62
     7
100
AcDbLine
 10
86.465744
 20
197.450012
 30
0.0
 11
86.382378
 21
197.579285
 31
0.0
  0
LINE
  5
1C3
330
1F
100
AcDbEntity
  8
0
 62
     7
100
AcDbLine
 10
86.382378
 20
197.579285
 30
0.0
 11
86.295135
 21
197.720703
 31
0.0
  0
LINE
  5
1C4
330
1F
100
AcDbEntity
  8
0
 62
     7
100
AcDbLine
 10
86.295135
 20
197.720703
 30
0.0
 11
86.218864
 21
197.850006
 31
0.0
  0
ARC
  5
1C5
330
1F
100
AcDbEntity
  8
0
 62
     7
100
AcDbCircle
 10
93.147064
 20
201.850006
 30
0.0
 40
8.0
100
AcDbArc
 50
204.361982
 51
210.000003
  0
LINE
  5
1C6
330
1F
100
AcDbEntity
  8
0
 62
     7
100
AcDbLine
 10
85.859406
 20
198.549988
 30
0.0
 11
85.802231
 21
198.679291
 31
0.0
  0
LINE
  5
1C7
330
1F
100
AcDbEntity
  8
0
 62
     7
100
AcDbLine
 10
85.802231
 20
198.679291
 30
0.0
 11
85.742783
 21
198.820709
 31
0.0
  0
LINE
  5
1C8
330
1F
100
AcDbEntity
  8
0
 62
     7
100
AcDbLine
 10
85.742783
 20
198.820709
 30
0.0
 11
85.691193
 21
198.950012
 31
0.0
  0
ARC
  5
1C9
330
1F
100
AcDbEntity
  8
0
 62
     7
100
AcDbCircle
 10
93.147064
 20
201.850006
 30
0.0
 40
8.0
100
AcDbArc
 50
195.96201
 51
201.253809
  0
LINE
  5
1CA
330
1F
100
AcDbEntity
  8
0
 62
     7
100
AcDbLine
 10
85.455513
 20
199.649994
 30
0.0
 11
85.419701
 21
199.779297
 31
0.0
  0
LINE
  5
1CB
330
1F
100
AcDbEntity
  8
0
 62
     7
100
AcDbLine
 10
85.419701
 20
199.779297
 30
0.0
 11
85.383186
 21
199.920715
 31
0.0
  0
LINE
  5
1CC
330
1F
100
AcDbEntity
  8
0
 62
     7
100
AcDbLine
 10
85.383186
 20
199.920715
 30
0.0
 11
85.352196
 21
200.049988
 31
0.0
  0
ARC
  5
1CD
330
1F
100
AcDbEntity
  8
0
 62
     7
100
AcDbCircle
 10
93.147064
 20
201.850006
 30
0.0
 40
8.0
100
AcDbArc
 50
187.903207
 51
193.002872
  0
LINE
  5
1CE
330
1F
100
AcDbEntity
  8
0
 62
     7
100
AcDbLine
 10
85.223053
 20
200.75
 30
0.0
 11
85.206177
 21
200.879272
 31
0.0
  0
LINE
  5
1CF
330
1F
100
AcDbEntity
  8
0
 62
     7
100
AcDbLine
 10
85.206177
 20
200.879272
 30
0.0
 11
85.190163
 21
201.020721
 31
0.0
  0
LINE
  5
1D0
330
1F
100
AcDbEntity
  8
0
 62
     7
100
AcDbLine
 10
85.190163
 20
201.020721
 30
0.0
 11
85.17775
 21
201.149994
 31
0.0
  0
ARC
  5
1D1
330
1F
100
AcDbEntity
  8
0
 62
     7
100
AcDbCircle
 10
93.147064
 20
201.850006
 30
0.0
 40
8.0
100
AcDbArc
 50
180.000009
 51
185.019802
  0
LINE
  5
1D2
330
1F
100
AcDbEntity
  8
0
 62
     7
100
AcDbLine
 10
84.147064
 20
197.579285
 30
0.0
 11
84.147064
 21
197.450012
 31
0.0
  0
LINE
  5
1D3
330
1F
100
AcDbEntity
  8
0
 62
     7
100
AcDbLine
 10
84.147064
 20
197.720703
 30
0.0
 11
84.147064
 21
197.579285
 31
0.0
  0
LINE
  5
1D4
330
1F
100
AcDbEntity
  8
0
 62
     7
100
AcDbLine
 10
84.147064
 20
197.850006
 30
0.0
 11
84.147064
 21
197.720703
 31
0.0
  0
LINE
  5
1D5
330
1F
100
AcDbEntity
  8
0
 62
     7
100
AcDbLine
 10
84.147064
 20
197.850006
 30
0.0
 11
84.147064
 21
198.549988
 31
0.0
  0
LINE
  5
1D6
330
1F
100
AcDbEntity
  8
0
 62
     7
100
AcDbLine
 10
84.147064
 20
198.679291
 30
0.0
 11
84.147064
 21
198.549988
 31
0.0
  0
LINE
  5
1D7
330
1F
100
AcDbEntity
  8
0
 62
     7
100
AcDbLine
 10
84.147064
 20
198.820709
 30
0.0
 11
84.147064
 21
198.679291
 31
0.0
  0
LINE
  5
1D8
330
1F
100
AcDbEntity
  8
0
 62
     7
100
AcDbLine
 10
84.147064
 20
198.950012
 30
0.0
 11
84.147064
 21
198.820709
 31
0.0
  0
LINE
  5
1D9
330
1F
100
AcDbEntity
  8
0
 62
     7
100
AcDbLine
 10
84.147064
 20
198.950012
 30
0.0
 11
84.147064
 21
199.649994
 31
0.0
  0
LINE
  5
1DA
330
1F
100
AcDbEntity
  8
0
 62
     7
100
AcDbLine
 10
84.147064
 20
199.779297
 30
0.0
 11
84.147064
 21
199.649994
 31
0.0
  0
LINE
  5
1DB
330
1F
100
AcDbEntity
  8
0
 62
     7
100
AcDbLine
 10
84.147064
 20
199.920715
 30
0.0
 11
84.147064
 21
199.779297
 31
0.0
  0
LINE
  5
1DC
330
1F
100
AcDbEntity
  8
0
 62
     7
100
AcDbLine
 10
84.147064
 20
200.049988
 30
0.0
 11
84.147064
 21
199.920715
 31
0.0
  0
LINE
  5
1DD
330
1F
100
AcDbEntity
  8
0
 62
     7
100
AcDbLine
 10
84.147064
 20
200.049988
 30
0.0
 11
84.147064
 21
200.75
 31
0.0
  0
LINE
  5
1DE
330
1F
100
AcDbEntity
  8
0
 62
     7
100
AcDbLine
 10
84.147064
 20
200.879272
 30
0.0
 11
84.147064
 21
200.75
 31
0.0
  0
LINE
  5
1DF
330
1F
100
AcDbEntity
  8
0
 62
     7
100
AcDbLine
 10
84.147064
 20
201.020721
 30
0.0
 11
84.147064
 21
200.879272
 31
0.0
  0
LINE
  5
1E0
330
1F
100
AcDbEntity
  8
0
 62
     7
100
AcDbLine
 10
84.147064
 20
201.149994
 30
0.0
 11
84.147064
 21
201.020721
 31
0.0
  0
LINE
  5
1E1
330
1F
100
AcDbEntity
  8
0
 62
     7
100
AcDbLine
 10
84.147064
 20
201.149994
 30
0.0
 11
84.147064
 21
201.850006
 31
0.0
  0
LINE
  5
1E2
330
1F
100
AcDbEntity
  8
0
 62
     7
100
AcDbLine
 10
84.147064
 20
201.979279
 30
0.0
 11
84.147064
 21
201.850006
 31
0.0
  0
LINE
  5
1E3
330
1F
100
AcDbEntity
  8
0
 62
     7
100
AcDbLine
 10
84.147064
 20
202.120697
 30
0.0
 11
84.147064
 21
201.979279
 31
0.0
  0
LINE
  5
1E4
330
1F
100
AcDbEntity
  8
0
 62
     7
100
AcDbLine
 10
84.147064
 20
202.25
 30
0.0
 11
84.147064
 21
202.120697
 31
0.0
  0
LINE
  5
1E5
330
1F
100
AcDbEntity
  8
0
 62
     7
100
AcDbLine
 10
84.147064
 20
202.25
 30
0.0
 11
84.147064
 21
202.950012
 31
0.0
  0
LINE
  5
1E6
330
1F
100
AcDbEntity
  8
0
 62
     7
100
AcDbLine
 10
84.147064
 20
203.079285
 30
0.0
 11
84.147064
 21
202.950012
 31
0.0
  0
LINE
  5
1E7
330
1F
100
AcDbEntity
  8
0
 62
     7
100
AcDbLine
 10
84.147064
 20
203.220703
 30
0.0
 11
84.147064
 21
203.079285
 31
0.0
  0
LINE
  5
1E8
330
1F
100
AcDbEntity
  8
0
 62
     7
100
AcDbLine
 10
84.147064
 20
203.350006
 30
0.0
 11
84.147064
 21
203.220703
 31
0.0
  0
LINE
  5
1E9
330
1F
100
AcDbEntity
  8
0
 62
     7
100
AcDbLine
 10
84.147064
 20
203.350006
 30
0.0
 11
84.147064
 21
204.049988
 31
0.0
  0
LINE
  5
1EA
330
1F
100
AcDbEntity
  8
0
 62
     7
100
AcDbLine
 10
84.147064
 20
204.179291
 30
0.0
 11
84.147064
 21
204.049988
 31
0.0
  0
LINE
  5
1EB
330
1F
100
AcDbEntity
  8
0
 62
     7
100
AcDbLine
 10
84.147064
 20
204.320709
 30
0.0
 11
84.147064
 21
204.179291
 31
0.0
  0
LINE
  5
1EC
330
1F
100
AcDbEntity
  8
0
 62
     7
100
AcDbLine
 10
84.147064
 20
204.450012
 30
0.0
 11
84.147064
 21
204.320709
 31
0.0
  0
LINE
  5
1ED
330
1F
100
AcDbEntity
  8
0
 62
     7
100
AcDbLine
 10
84.147064
 20
204.450012
 30
0.0
 11
84.147064
 21
205.149994
 31
0.0
  0
LINE
  5
1EE
330
1F
100
AcDbEntity
  8
0
 62
     7
100
AcDbLine
 10
84.147064
 20
205.279297
 30
0.0
 11
84.147064
 21
205.149994
 31
0.0
  0
LINE
  5
1EF
330
1F
100
AcDbEntity
  8
0
 62
     7
100
AcDbLine
 10
84.147064
 20
205.420715
 30
0.0
 11
84.147064
 21
205.279297
 31
0.0
  0
LINE
  5
1F0
330
1F
100
AcDbEntity
  8
0
 62
     7
100
AcDbLine
 10
84.147064
 20
205.549988
 30
0.0
 11
84.147064
 21
205.420715
 31
0.0
  0
LINE
  5
1F1
330
1F
100
AcDbEntity
  8
0
 62
     7
100
AcDbLine
 10
84.147064
 20
205.549988
 30
0.0
 11
84.147064
 21
206.25
 31
0.0
  0
LINE
  5
1F2
330
1F
100
AcDbEntity
  8
0
 62
     7
100
AcDbLine
 10
84.147064
 20
206.379272
 30
0.0
 11
84.147064
 21
206.25
 31
0.0
  0
LINE
  5
1F3
330
1F
100
AcDbEntity
  8
0
 62
     7
100
AcDbLine
 10
84.147064
 20
206.520721
 30
0.0
 11
84.147064
 21
206.379272
 31
0.0
  0
LINE
  5
1F4
330
1F
100
AcDbEntity
  8
0
 62
     7
100
AcDbLine
 10
84.147064
 20
206.649994
 30
0.0
 11
84.147064
 21
206.520721
 31
0.0
  0
LINE
  5
1F5
330
1F
100
AcDbEntity
  8
0
 62
     7
100
AcDbLine
 10
84.147064
 20
206.649994
 30
0.0
 11
84.147064
 21
211.474274
 31
0.0
  0
LINE
  5
1F6
330
1F
100
AcDbEntity
  8
0
 62
     7
100
AcDbLine
 10
84.147064
 20
211.962128
 30
0.0
 11
84.147064
 21
211.474274
 31
0.0
  0
LINE
  5
1F7
330
1F
100
AcDbEntity
  8
0
 62
     7
100
AcDbLine
 10
84.147064
 20
212.049988
 30
0.0
 11
84.147064
 21
211.962128
 31
0.0
  0
ARC
  5
1F8
330
1F
100
AcDbEntity
  8
0
 62
     7
100
AcDbCircle
 10
311.647034
 20
189.049988
 30
0.0
 40
0.5
100
AcDbArc
 50
0.0
 51
90.000003
  0
LINE
  5
1F9
330
1F
100
AcDbEntity
  8
0
 62
     7
100
AcDbLine
 10
311.647034
 20
189.549988
 30
0.0
 11
304.647034
 21
189.549988
 31
0.0
  0
ARC
  5
1FA
330
1F
100
AcDbEntity
  8
0
 62
     7
100
AcDbCircle
 10
304.647034
 20
189.049988
 30
0.0
 40
0.5
100
AcDbArc
 50
90.000003
 51
180.000009
  0
LINE
  5
1FB
330
1F
100
AcDbEntity
  8
0
 62
     7
100
AcDbLine
 10
304.147034
 20
189.049988
 30
0.0
 11
304.147034
 21
185.049988
 31
0.0
  0
ARC
  5
1FC
330
1F
100
AcDbEntity
  8
0
 62
     7
100
AcDbCircle
 10
304.647034
 20
185.049988
 30
0.0
 40
0.5
100
AcDbArc
 50
180.000009
 51
269.999997
  0
LINE
  5
1FD
330
1F
100
AcDbEntity
  8
0
 62
     7
100
AcDbLine
 10
304.647034
 20
184.549988
 30
0.0
 11
311.647034
 21
184.549988
 31
0.0
  0
ARC
  5
1FE
330
1F
100
AcDbEntity
  8
0
 62
     7
100
AcDbCircle
 10
311.647034
 20
185.049988
 30
0.0
 40
0.5
100
AcDbArc
 50
269.999997
 51
360.0
  0
LINE
  5
1FF
330
1F
100
AcDbEntity
  8
0
 62
     7
100
AcDbLine
 10
312.147034
 20
185.049988
 30
0.0
 11
312.147034
 21
189.049988
 31
0.0
  0
ARC
  5
200
330
1F
100
AcDbEntity
  8
0
 62
     7
100
AcDbCircle
 10
141.647064
 20
189.049988
 30
0.0
 40
0.5
100
AcDbArc
 50
0.0
 51
90.000003
  0
LINE
  5
201
330
1F
100
AcDbEntity
  8
0
 62
     7
100
AcDbLine
 10
141.647064
 20
189.549988
 30
0.0
 11
134.647064
 21
189.549988
 31
0.0
  0
ARC
  5
202
330
1F
100
AcDbEntity
  8
0
 62
     7
100
AcDbCircle
 10
134.647064
 20
189.049988
 30
0.0
 40
0.5
100
AcDbArc
 50
90.000003
 51
180.000009
  0
LINE
  5
203
330
1F
100
AcDbEntity
  8
0
 62
     7
100
AcDbLine
 10
134.147064
 20
189.049988
 30
0.0
 11
134.147064
 21
185.049988
 31
0.0
  0
ARC
  5
204
330
1F
100
AcDbEntity
  8
0
 62
     7
100
AcDbCircle
 10
134.647064
 20
185.049988
 30
0.0
 40
0.5
100
AcDbArc
 50
180.000009
 51
269.999997
  0
LINE
  5
205
330
1F
100
AcDbEntity
  8
0
 62
     7
100
AcDbLine
 10
134.647064
 20
184.549988
 30
0.0
 11
141.647064
 21
184.549988
 31
0.0
  0
ARC
  5
206
330
1F
100
AcDbEntity
  8
0
 62
     7
100
AcDbCircle
 10
141.647064
 20
185.049988
 30
0.0
 40
0.5
100
AcDbArc
 50
269.999997
 51
360.0
  0
LINE
  5
207
330
1F
100
AcDbEntity
  8
0
 62
     7
100
AcDbLine
 10
142.147064
 20
185.049988
 30
0.0
 11
142.147064
 21
189.049988
 31
0.0
  0
LINE
  5
208
330
1F
100
AcDbEntity
  8
0
 62
     7
100
AcDbLine
 10
387.647034
 20
189.850006
 30
0.0
 11
387.147034
 21
189.850006
 31
0.0
  0
LINE
  5
209
330
1F
100
AcDbEntity
  8
0
 62
     7
100
AcDbLine
 10
387.147034
 20
192.149994
 30
0.0
 11
387.647034
 21
192.149994
 31
0.0
  0
LINE
  5
20A
330
1F
100
AcDbEntity
  8
0
 62
     7
100
AcDbLine
 10
83.647064
 20
192.149994
 30
0.0
 11
84.147064
 21
192.149994
 31
0.0
  0
LINE
  5
20B
330
1F
100
AcDbEntity
  8
0
 62
     7
100
AcDbLine
 10
314.647034
 20
211.962128
 30
0.0
 11
314.647034
 21
212.049988
 31
0.0
  0
LINE
  5
20C
330
1F
100
AcDbEntity
  8
0
 62
     7
100
AcDbLine
 10
314.647034
 20
211.962128
 30
0.0
 11
314.647034
 21
211.474274
 31
0.0
  0
LINE
  5
20D
330
1F
100
AcDbEntity
  8
0
 62
     7
100
AcDbLine
 10
387.147034
 20
211.474274
 30
0.0
 11
314.647034
 21
211.474274
 31
0.0
  0
ARC
  5
20E
330
1F
100
AcDbEntity
  8
0
 62
     7
100
AcDbCircle
 10
378.147034
 20
201.850006
 30
0.0
 40
8.0
100
AcDbArc
 50
36.869897
 51
143.130097
  0
LINE
  5
20F
330
1F
100
AcDbEntity
  8
0
 62
     7
100
AcDbLine
 10
387.147034
 20
206.649994
 30
0.0
 11
384.547028
 21
206.649994
 31
0.0
  0
LINE
  5
210
330
1F
100
AcDbEntity
  8
0
 62
     7
100
AcDbLine
 10
314.647034
 20
206.649994
 30
0.0
 11
314.647034
 21
211.474274
 31
0.0
  0
LINE
  5
211
330
1F
100
AcDbEntity
  8
0
 62
     7
100
AcDbLine
 10
371.74704
 20
206.649994
 30
0.0
 11
314.647034
 21
206.649994
 31
0.0
  0
LINE
  5
212
330
1F
100
AcDbEntity
  8
0
 62
     7
100
AcDbLine
 10
384.547028
 20
206.649994
 30
0.0
 11
384.641998
 21
206.520721
 31
0.0
  0
LINE
  5
213
330
1F
100
AcDbEntity
  8
0
 62
     7
100
AcDbLine
 10
384.641998
 20
206.520721
 30
0.0
 11
384.741394
 21
206.379272
 31
0.0
  0
LINE
  5
214
330
1F
100
AcDbEntity
  8
0
 62
     7
100
AcDbLine
 10
384.741394
 20
206.379272
 30
0.0
 11
384.828339
 21
206.25
 31
0.0
  0
LINE
  5
215
330
1F
100
AcDbEntity
  8
0
 62
     7
100
AcDbLine
 10
387.147034
 20
206.25
 30
0.0
 11
384.828339
 21
206.25
 31
0.0
  0
ARC
  5
216
330
1F
100
AcDbEntity
  8
0
 62
     7
100
AcDbCircle
 10
378.147034
 20
201.850006
 30
0.0
 40
8.0
100
AcDbArc
 50
27.548547
 51
33.367014
  0
LINE
  5
217
330
1F
100
AcDbEntity
  8
0
 62
     7
100
AcDbLine
 10
387.147034
 20
205.549988
 30
0.0
 11
385.23999
 21
205.549988
 31
0.0
  0
LINE
  5
218
330
1F
100
AcDbEntity
  8
0
 62
     7
100
AcDbLine
 10
385.23999
 20
205.549988
 30
0.0
 11
385.305939
 21
205.420715
 31
0.0
  0
LINE
  5
219
330
1F
100
AcDbEntity
  8
0
 62
     7
100
AcDbLine
 10
385.305939
 20
205.420715
 30
0.0
 11
385.374756
 21
205.279297
 31
0.0
  0
LINE
  5
21A
330
1F
100
AcDbEntity
  8
0
 62
     7
100
AcDbLine
 10
385.374756
 20
205.279297
 30
0.0
 11
385.434692
 21
205.149994
 31
0.0
  0
LINE
  5
21B
330
1F
100
AcDbEntity
  8
0
 62
     7
100
AcDbLine
 10
387.147034
 20
205.149994
 30
0.0
 11
385.434692
 21
205.149994
 31
0.0
  0
ARC
  5
21C
330
1F
100
AcDbEntity
  8
0
 62
     7
100
AcDbCircle
 10
378.147034
 20
201.850006
 30
0.0
 40
8.0
100
AcDbArc
 50
18.965574
 51
24.361978
  0
LINE
  5
21D
330
1F
100
AcDbEntity
  8
0
 62
     7
100
AcDbLine
 10
387.147034
 20
204.450012
 30
0.0
 11
385.712738
 21
204.450012
 31
0.0
  0
LINE
  5
21E
330
1F
100
AcDbEntity
  8
0
 62
     7
100
AcDbLine
 10
385.712738
 20
204.450012
 30
0.0
 11
385.755951
 21
204.320709
 31
0.0
  0
LINE
  5
21F
330
1F
100
AcDbEntity
  8
0
 62
     7
100
AcDbLine
 10
385.755951
 20
204.320709
 30
0.0
 11
385.800415
 21
204.179291
 31
0.0
  0
LINE
  5
220
330
1F
100
AcDbEntity
  8
0
 62
     7
100
AcDbLine
 10
385.800415
 20
204.179291
 30
0.0
 11
385.838593
 21
204.049988
 31
0.0
  0
LINE
  5
221
330
1F
100
AcDbEntity
  8
0
 62
     7
100
AcDbLine
 10
387.147034
 20
204.049988
 30
0.0
 11
385.838593
 21
204.049988
 31
0.0
  0
ARC
  5
222
330
1F
100
AcDbEntity
  8
0
 62
     7
100
AcDbCircle
 10
378.147034
 20
201.850006
 30
0.0
 40
8.0
100
AcDbArc
 50
10.806925
 51
15.962019
  0
LINE
  5
223
330
1F
100
AcDbEntity
  8
0
 62
     7
100
AcDbLine
 10
387.147034
 20
203.350006
 30
0.0
 11
386.005157
 21
203.350006
 31
0.0
  0
LINE
  5
224
330
1F
100
AcDbEntity
  8
0
 62
     7
100
AcDbLine
 10
386.005157
 20
203.350006
 30
0.0
 11
386.028717
 21
203.220703
 31
0.0
  0
LINE
  5
225
330
1F
100
AcDbEntity
  8
0
 62
     7
100
AcDbLine
 10
386.028717
 20
203.220703
 30
0.0
 11
386.052032
 21
203.079285
 31
0.0
  0
LINE
  5
226
330
1F
100
AcDbEntity
  8
0
 62
     7
100
AcDbLine
 10
386.052032
 20
203.079285
 30
0.0
 11
386.071045
 21
202.950012
 31
0.0
  0
LINE
  5
227
330
1F
100
AcDbEntity
  8
0
 62
     7
100
AcDbLine
 10
387.147034
 20
202.950012
 30
0.0
 11
386.071045
 21
202.950012
 31
0.0
  0
ARC
  5
228
330
1F
100
AcDbEntity
  8
0
 62
     7
100
AcDbCircle
 10
378.147034
 20
201.850006
 30
0.0
 40
8.0
100
AcDbArc
 50
2.865984
 51
7.903208
  0
LINE
  5
229
330
1F
100
AcDbEntity
  8
0
 62
     7
100
AcDbLine
 10
387.147034
 20
202.25
 30
0.0
 11
386.137024
 21
202.25
 31
0.0
  0
LINE
  5
22A
330
1F
100
AcDbEntity
  8
0
 62
     7
100
AcDbLine
 10
386.137024
 20
202.25
 30
0.0
 11
386.142456
 21
202.120697
 31
0.0
  0
LINE
  5
22B
330
1F
100
AcDbEntity
  8
0
 62
     7
100
AcDbLine
 10
386.142456
 20
202.120697
 30
0.0
 11
386.145996
 21
201.979279
 31
0.0
  0
LINE
  5
22C
330
1F
100
AcDbEntity
  8
0
 62
     7
100
AcDbLine
 10
386.145996
 20
201.979279
 30
0.0
 11
386.147034
 21
201.850006
 31
0.0
  0
LINE
  5
22D
330
1F
100
AcDbEntity
  8
0
 62
     7
100
AcDbLine
 10
387.147034
 20
201.850006
 30
0.0
 11
386.147034
 21
201.850006
 31
0.0
  0
LINE
  5
22E
330
1F
100
AcDbEntity
  8
0
 62
     7
100
AcDbLine
 10
387.147034
 20
201.149994
 30
0.0
 11
386.116364
 21
201.149994
 31
0.0
  0
LINE
  5
22F
330
1F
100
AcDbEntity
  8
0
 62
     7
100
AcDbLine
 10
387.147034
 20
200.75
 30
0.0
 11
386.071045
 21
200.75
 31
0.0
  0
LINE
  5
230
330
1F
100
AcDbEntity
  8
0
 62
     7
100
AcDbLine
 10
387.147034
 20
200.049988
 30
0.0
 11
385.941895
 21
200.049988
 31
0.0
  0
LINE
  5
231
330
1F
100
AcDbEntity
  8
0
 62
     7
100
AcDbLine
 10
387.147034
 20
199.649994
 30
0.0
 11
385.838593
 21
199.649994
 31
0.0
  0
LINE
  5
232
330
1F
100
AcDbEntity
  8
0
 62
     7
100
AcDbLine
 10
387.147034
 20
198.950012
 30
0.0
 11
385.602905
 21
198.950012
 31
0.0
  0
LINE
  5
233
330
1F
100
AcDbEntity
  8
0
 62
     7
100
AcDbLine
 10
387.147034
 20
198.549988
 30
0.0
 11
385.434692
 21
198.549988
 31
0.0
  0
LINE
  5
234
330
1F
100
AcDbEntity
  8
0
 62
     7
100
AcDbLine
 10
387.147034
 20
197.850006
 30
0.0
 11
385.075226
 21
197.850006
 31
0.0
  0
LINE
  5
235
330
1F
100
AcDbEntity
  8
0
 62
     7
100
AcDbLine
 10
371.218842
 20
197.850006
 30
0.0
 11
312.797028
 21
197.850006
 31
0.0
  0
LINE
  5
236
330
1F
100
AcDbEntity
  8
0
 62
     7
100
AcDbLine
 10
370.859375
 20
198.549988
 30
0.0
 11
312.797028
 21
198.549988
 31
0.0
  0
LINE
  5
237
330
1F
100
AcDbEntity
  8
0
 62
     7
100
AcDbLine
 10
370.691162
 20
198.950012
 30
0.0
 11
312.797028
 21
198.950012
 31
0.0
  0
LINE
  5
238
330
1F
100
AcDbEntity
  8
0
 62
     7
100
AcDbLine
 10
370.455475
 20
199.649994
 30
0.0
 11
312.797028
 21
199.649994
 31
0.0
  0
LINE
  5
239
330
1F
100
AcDbEntity
  8
0
 62
     7
100
AcDbLine
 10
370.352173
 20
200.049988
 30
0.0
 11
312.797028
 21
200.049988
 31
0.0
  0
LINE
  5
23A
330
1F
100
AcDbEntity
  8
0
 62
     7
100
AcDbLine
 10
370.223022
 20
200.75
 30
0.0
 11
312.797028
 21
200.75
 31
0.0
  0
LINE
  5
23B
330
1F
100
AcDbEntity
  8
0
 62
     7
100
AcDbLine
 10
370.177704
 20
201.149994
 30
0.0
 11
312.797028
 21
201.149994
 31
0.0
  0
LINE
  5
23C
330
1F
100
AcDbEntity
  8
0
 62
     7
100
AcDbLine
 10
370.147034
 20
201.850006
 30
0.0
 11
312.797028
 21
201.850006
 31
0.0
  0
LINE
  5
23D
330
1F
100
AcDbEntity
  8
0
 62
     7
100
AcDbLine
 10
370.148071
 20
201.979279
 30
0.0
 11
370.147034
 21
201.850006
 31
0.0
  0
LINE
  5
23E
330
1F
100
AcDbEntity
  8
0
 62
     7
100
AcDbLine
 10
370.151611
 20
202.120697
 30
0.0
 11
370.148071
 21
201.979279
 31
0.0
  0
LINE
  5
23F
330
1F
100
AcDbEntity
  8
0
 62
     7
100
AcDbLine
 10
370.157043
 20
202.25
 30
0.0
 11
370.151611
 21
202.120697
 31
0.0
  0
ARC
  5
240
330
1F
100
AcDbEntity
  8
0
 62
     7
100
AcDbCircle
 10
378.147034
 20
201.850006
 30
0.0
 40
8.0
100
AcDbArc
 50
172.096793
 51
177.134017
  0
LINE
  5
241
330
1F
100
AcDbEntity
  8
0
 62
     7
100
AcDbLine
 10
370.242035
 20
203.079285
 30
0.0
 11
370.223022
 21
202.950012
 31
0.0
  0
LINE
  5
242
330
1F
100
AcDbEntity
  8
0
 62
     7
100
AcDbLine
 10
370.26535
 20
203.220703
 30
0.0
 11
370.242035
 21
203.079285
 31
0.0
  0
LINE
  5
243
330
1F
100
AcDbEntity
  8
0
 62
     7
100
AcDbLine
 10
370.28891
 20
203.350006
 30
0.0
 11
370.26535
 21
203.220703
 31
0.0
  0
ARC
  5
244
330
1F
100
AcDbEntity
  8
0
 62
     7
100
AcDbCircle
 10
378.147034
 20
201.850006
 30
0.0
 40
8.0
100
AcDbArc
 50
164.03799
 51
169.193075
  0
LINE
  5
245
330
1F
100
AcDbEntity
  8
0
 62
     7
100
AcDbLine
 10
370.493652
 20
204.179291
 30
0.0
 11
370.455475
 21
204.049988
 31
0.0
  0
LINE
  5
246
330
1F
100
AcDbEntity
  8
0
 62
     7
100
AcDbLine
 10
370.538116
 20
204.320709
 30
0.0
 11
370.493652
 21
204.179291
 31
0.0
  0
LINE
  5
247
330
1F
100
AcDbEntity
  8
0
 62
     7
100
AcDbLine
 10
370.581329
 20
204.450012
 30
0.0
 11
370.538116
 21
204.320709
 31
0.0
  0
ARC
  5
248
330
1F
100
AcDbEntity
  8
0
 62
     7
100
AcDbCircle
 10
378.147034
 20
201.850006
 30
0.0
 40
8.0
100
AcDbArc
 50
155.638018
 51
161.034427
  0
LINE
  5
249
330
1F
100
AcDbEntity
  8
0
 62
     7
100
AcDbLine
 10
370.919312
 20
205.279297
 30
0.0
 11
370.859375
 21
205.149994
 31
0.0
  0
LINE
  5
24A
330
1F
100
AcDbEntity
  8
0
 62
     7
100
AcDbLine
 10
370.988129
 20
205.420715
 30
0.0
 11
370.919312
 21
205.279297
 31
0.0
  0
LINE
  5
24B
330
1F
100
AcDbEntity
  8
0
 62
     7
100
AcDbLine
 10
371.054077
 20
205.549988
 30
0.0
 11
370.988129
 21
205.420715
 31
0.0
  0
ARC
  5
24C
330
1F
100
AcDbEntity
  8
0
 62
     7
100
AcDbCircle
 10
378.147034
 20
201.850006
 30
0.0
 40
8.0
100
AcDbArc
 50
146.632987
 51
152.451448
  0
LINE
  5
24D
330
1F
100
AcDbEntity
  8
0
 62
     7
100
AcDbLine
 10
371.552673
 20
206.379272
 30
0.0
 11
371.465729
 21
206.25
 31
0.0
  0
LINE
  5
24E
330
1F
100
AcDbEntity
  8
0
 62
     7
100
AcDbLine
 10
371.652069
 20
206.520721
 30
0.0
 11
371.552673
 21
206.379272
 31
0.0
  0
LINE
  5
24F
330
1F
100
AcDbEntity
  8
0
 62
     7
100
AcDbLine
 10
371.74704
 20
206.649994
 30
0.0
 11
371.652069
 21
206.520721
 31
0.0
  0
CIRCLE
  5
250
330
1F
100
AcDbEntity
  8
0
 62
     7
100
AcDbCircle
 10
378.147034
 20
201.850006
 30
0.0
 40
7.5
  0
LINE
  5
251
330
1F
100
AcDbEntity
  8
0
 62
     7
100
AcDbLine
 10
313.147034
 20
204.850006
 30
0.0
 11
312.797028
 21
204.850006
 31
0.0
  0
LINE
  5
252
330
1F
100
AcDbEntity
  8
0
 62
     7
100
AcDbLine
 10
370.859375
 20
205.149994
 30
0.0
 11
314.047028
 21
205.149994
 31
0.0
  0
ARC
  5
253
330
1F
100
AcDbEntity
  8
0
 62
     7
100
AcDbCircle
 10
313.147034
 20
206.350006
 30
0.0
 40
1.5
100
AcDbArc
 50
269.999997
 51
314.454478
  0
LINE
  5
254
330
1F
100
AcDbEntity
  8
0
 62
     7
100
AcDbLine
 10
370.581329
 20
204.450012
 30
0.0
 11
312.797028
 21
204.450012
 31
0.0
  0
LINE
  5
255
330
1F
100
AcDbEntity
  8
0
 62
     7
100
AcDbLine
 10
370.455475
 20
204.049988
 30
0.0
 11
312.797028
 21
204.049988
 31
0.0
  0
LINE
  5
256
330
1F
100
AcDbEntity
  8
0
 62
     7
100
AcDbLine
 10
370.28891
 20
203.350006
 30
0.0
 11
312.797028
 21
203.350006
 31
0.0
  0
LINE
  5
257
330
1F
100
AcDbEntity
  8
0
 62
     7
100
AcDbLine
 10
370.223022
 20
202.950012
 30
0.0
 11
312.797028
 21
202.950012
 31
0.0
  0
LINE
  5
258
330
1F
100
AcDbEntity
  8
0
 62
     7
100
AcDbLine
 10
370.157043
 20
202.25
 30
0.0
 11
312.797028
 21
202.25
 31
0.0
  0
LINE
  5
259
330
1F
100
AcDbEntity
  8
0
 62
     7
100
AcDbLine
 10
311.797028
 20
205.149994
 30
0.0
 11
309.49704
 21
205.149994
 31
0.0
  0
LINE
  5
25A
330
1F
100
AcDbEntity
  8
0
 62
     7
100
AcDbLine
 10
311.797028
 20
204.450012
 30
0.0
 11
309.49704
 21
204.450012
 31
0.0
  0
ARC
  5
25B
330
1F
100
AcDbEntity
  8
0
 62
     7
100
AcDbCircle
 10
308.99704
 20
205.350006
 30
0.0
 40
0.5
100
AcDbArc
 50
0.0
 51
8.130103
  0
ARC
  5
25C
330
1F
100
AcDbEntity
  8
0
 62
     7
100
AcDbCircle
 10
312.297028
 20
205.350006
 30
0.0
 40
0.5
100
AcDbArc
 50
171.869894
 51
180.000009
  0
ARC
  5
25D
330
1F
100
AcDbEntity
  8
0
 62
     7
100
AcDbCircle
 10
312.297028
 20
205.350006
 30
0.0
 40
0.5
100
AcDbArc
 50
90.000003
 51
171.869894
  0
LINE
  5
25E
330
1F
100
AcDbEntity
  8
0
 62
     7
100
AcDbLine
 10
311.797028
 20
197.850006
 30
0.0
 11
309.49704
 21
197.850006
 31
0.0
  0
LINE
  5
25F
330
1F
100
AcDbEntity
  8
0
 62
     7
100
AcDbLine
 10
311.797028
 20
198.549988
 30
0.0
 11
309.49704
 21
198.549988
 31
0.0
  0
LINE
  5
260
330
1F
100
AcDbEntity
  8
0
 62
     7
100
AcDbLine
 10
311.797028
 20
198.950012
 30
0.0
 11
309.49704
 21
198.950012
 31
0.0
  0
LINE
  5
261
330
1F
100
AcDbEntity
  8
0
 62
     7
100
AcDbLine
 10
311.797028
 20
199.649994
 30
0.0
 11
309.49704
 21
199.649994
 31
0.0
  0
LINE
  5
262
330
1F
100
AcDbEntity
  8
0
 62
     7
100
AcDbLine
 10
311.797028
 20
200.049988
 30
0.0
 11
309.49704
 21
200.049988
 31
0.0
  0
LINE
  5
263
330
1F
100
AcDbEntity
  8
0
 62
     7
100
AcDbLine
 10
311.797028
 20
200.75
 30
0.0
 11
309.49704
 21
200.75
 31
0.0
  0
LINE
  5
264
330
1F
100
AcDbEntity
  8
0
 62
     7
100
AcDbLine
 10
311.797028
 20
201.149994
 30
0.0
 11
309.49704
 21
201.149994
 31
0.0
  0
LINE
  5
265
330
1F
100
AcDbEntity
  8
0
 62
     7
100
AcDbLine
 10
311.797028
 20
201.850006
 30
0.0
 11
309.49704
 21
201.850006
 31
0.0
  0
LINE
  5
266
330
1F
100
AcDbEntity
  8
0
 62
     7
100
AcDbLine
 10
311.797028
 20
202.25
 30
0.0
 11
309.49704
 21
202.25
 31
0.0
  0
LINE
  5
267
330
1F
100
AcDbEntity
  8
0
 62
     7
100
AcDbLine
 10
311.797028
 20
202.950012
 30
0.0
 11
309.49704
 21
202.950012
 31
0.0
  0
LINE
  5
268
330
1F
100
AcDbEntity
  8
0
 62
     7
100
AcDbLine
 10
311.797028
 20
203.350006
 30
0.0
 11
309.49704
 21
203.350006
 31
0.0
  0
LINE
  5
269
330
1F
100
AcDbEntity
  8
0
 62
     7
100
AcDbLine
 10
311.797028
 20
204.049988
 30
0.0
 11
309.49704
 21
204.049988
 31
0.0
  0
ARC
  5
26A
330
1F
100
AcDbEntity
  8
0
 62
     7
100
AcDbCircle
 10
308.99704
 20
205.350006
 30
0.0
 40
0.5
100
AcDbArc
 50
8.130103
 51
90.000003
  0
LINE
  5
26B
330
1F
100
AcDbEntity
  8
0
 62
     7
100
AcDbLine
 10
308.49704
 20
204.049988
 30
0.0
 11
162.797058
 21
204.049988
 31
0.0
  0
LINE
  5
26C
330
1F
100
AcDbEntity
  8
0
 62
     7
100
AcDbLine
 10
308.49704
 20
204.450012
 30
0.0
 11
162.797058
 21
204.450012
 31
0.0
  0
LINE
  5
26D
330
1F
100
AcDbEntity
  8
0
 62
     7
100
AcDbLine
 10
308.49704
 20
204.850006
 30
0.0
 11
308.147034
 21
204.850006
 31
0.0
  0
ARC
  5
26E
330
1F
100
AcDbEntity
  8
0
 62
     7
100
AcDbCircle
 10
308.147034
 20
206.350006
 30
0.0
 40
1.5
100
AcDbArc
 50
212.230947
 51
269.999997
  0
LINE
  5
26F
330
1F
100
AcDbEntity
  8
0
 62
     7
100
AcDbLine
 10
307.24704
 20
205.149994
 30
0.0
 11
164.047058
 21
205.149994
 31
0.0
  0
ARC
  5
270
330
1F
100
AcDbEntity
  8
0
 62
     7
100
AcDbCircle
 10
163.147064
 20
206.350006
 30
0.0
 40
1.5
100
AcDbArc
 50
269.999997
 51
314.454478
  0
LINE
  5
271
330
1F
100
AcDbEntity
  8
0
 62
     7
100
AcDbLine
 10
163.147064
 20
204.850006
 30
0.0
 11
162.797058
 21
204.850006
 31
0.0
  0
LINE
  5
272
330
1F
100
AcDbEntity
  8
0
 62
     7
100
AcDbLine
 10
308.49704
 20
197.850006
 30
0.0
 11
162.797058
 21
197.850006
 31
0.0
  0
LINE
  5
273
330
1F
100
AcDbEntity
  8
0
 62
     7
100
AcDbLine
 10
308.49704
 20
198.549988
 30
0.0
 11
162.797058
 21
198.549988
 31
0.0
  0
LINE
  5
274
330
1F
100
AcDbEntity
  8
0
 62
     7
100
AcDbLine
 10
308.49704
 20
198.950012
 30
0.0
 11
162.797058
 21
198.950012
 31
0.0
  0
LINE
  5
275
330
1F
100
AcDbEntity
  8
0
 62
     7
100
AcDbLine
 10
308.49704
 20
199.649994
 30
0.0
 11
162.797058
 21
199.649994
 31
0.0
  0
LINE
  5
276
330
1F
100
AcDbEntity
  8
0
 62
     7
100
AcDbLine
 10
308.49704
 20
200.049988
 30
0.0
 11
162.797058
 21
200.049988
 31
0.0
  0
LINE
  5
277
330
1F
100
AcDbEntity
  8
0
 62
     7
100
AcDbLine
 10
308.49704
 20
200.75
 30
0.0
 11
162.797058
 21
200.75
 31
0.0
  0
LINE
  5
278
330
1F
100
AcDbEntity
  8
0
 62
     7
100
AcDbLine
 10
308.49704
 20
201.149994
 30
0.0
 11
162.797058
 21
201.149994
 31
0.0
  0
LINE
  5
279
330
1F
100
AcDbEntity
  8
0
 62
     7
100
AcDbLine
 10
308.49704
 20
201.850006
 30
0.0
 11
162.797058
 21
201.850006
 31
0.0
  0
LINE
  5
27A
330
1F
100
AcDbEntity
  8
0
 62
     7
100
AcDbLine
 10
308.49704
 20
202.25
 30
0.0
 11
162.797058
 21
202.25
 31
0.0
  0
LINE
  5
27B
330
1F
100
AcDbEntity
  8
0
 62
     7
100
AcDbLine
 10
308.49704
 20
202.950012
 30
0.0
 11
162.797058
 21
202.950012
 31
0.0
  0
LINE
  5
27C
330
1F
100
AcDbEntity
  8
0
 62
     7
100
AcDbLine
 10
308.49704
 20
203.350006
 30
0.0
 11
162.797058
 21
203.350006
 31
0.0
  0
LINE
  5
27D
330
1F
100
AcDbEntity
  8
0
 62
     7
100
AcDbLine
 10
161.797058
 20
204.450012
 30
0.0
 11
159.49704
 21
204.450012
 31
0.0
  0
LINE
  5
27E
330
1F
100
AcDbEntity
  8
0
 62
     7
100
AcDbLine
 10
161.797058
 20
205.149994
 30
0.0
 11
159.49704
 21
205.149994
 31
0.0
  0
ARC
  5
27F
330
1F
100
AcDbEntity
  8
0
 62
     7
100
AcDbCircle
 10
162.297058
 20
205.350006
 30
0.0
 40
0.5
100
AcDbArc
 50
171.869894
 51
180.000009
  0
ARC
  5
280
330
1F
100
AcDbEntity
  8
0
 62
     7
100
AcDbCircle
 10
158.99704
 20
205.350006
 30
0.0
 40
0.5
100
AcDbArc
 50
0.0
 51
8.130103
  0
ARC
  5
281
330
1F
100
AcDbEntity
  8
0
 62
     7
100
AcDbCircle
 10
162.297058
 20
205.350006
 30
0.0
 40
0.5
100
AcDbArc
 50
90.000003
 51
171.869894
  0
LINE
  5
282
330
1F
100
AcDbEntity
  8
0
 62
     7
100
AcDbLine
 10
161.797058
 20
197.850006
 30
0.0
 11
159.49704
 21
197.850006
 31
0.0
  0
LINE
  5
283
330
1F
100
AcDbEntity
  8
0
 62
     7
100
AcDbLine
 10
161.797058
 20
198.549988
 30
0.0
 11
159.49704
 21
198.549988
 31
0.0
  0
LINE
  5
284
330
1F
100
AcDbEntity
  8
0
 62
     7
100
AcDbLine
 10
161.797058
 20
198.950012
 30
0.0
 11
159.49704
 21
198.950012
 31
0.0
  0
LINE
  5
285
330
1F
100
AcDbEntity
  8
0
 62
     7
100
AcDbLine
 10
161.797058
 20
199.649994
 30
0.0
 11
159.49704
 21
199.649994
 31
0.0
  0
LINE
  5
286
330
1F
100
AcDbEntity
  8
0
 62
     7
100
AcDbLine
 10
161.797058
 20
200.049988
 30
0.0
 11
159.49704
 21
200.049988
 31
0.0
  0
LINE
  5
287
330
1F
100
AcDbEntity
  8
0
 62
     7
100
AcDbLine
 10
161.797058
 20
200.75
 30
0.0
 11
159.49704
 21
200.75
 31
0.0
  0
LINE
  5
288
330
1F
100
AcDbEntity
  8
0
 62
     7
100
AcDbLine
 10
161.797058
 20
201.149994
 30
0.0
 11
159.49704
 21
201.149994
 31
0.0
  0
LINE
  5
289
330
1F
100
AcDbEntity
  8
0
 62
     7
100
AcDbLine
 10
161.797058
 20
201.850006
 30
0.0
 11
159.49704
 21
201.850006
 31
0.0
  0
LINE
  5
28A
330
1F
100
AcDbEntity
  8
0
 62
     7
100
AcDbLine
 10
161.797058
 20
202.25
 30
0.0
 11
159.49704
 21
202.25
 31
0.0
  0
LINE
  5
28B
330
1F
100
AcDbEntity
  8
0
 62
     7
100
AcDbLine
 10
161.797058
 20
202.950012
 30
0.0
 11
159.49704
 21
202.950012
 31
0.0
  0
LINE
  5
28C
330
1F
100
AcDbEntity
  8
0
 62
     7
100
AcDbLine
 10
161.797058
 20
203.350006
 30
0.0
 11
159.49704
 21
203.350006
 31
0.0
  0
LINE
  5
28D
330
1F
100
AcDbEntity
  8
0
 62
     7
100
AcDbLine
 10
161.797058
 20
204.049988
 30
0.0
 11
159.49704
 21
204.049988
 31
0.0
  0
ARC
  5
28E
330
1F
100
AcDbEntity
  8
0
 62
     7
100
AcDbCircle
 10
158.99704
 20
205.350006
 30
0.0
 40
0.5
100
AcDbArc
 50
8.130103
 51
90.000003
  0
LINE
  5
28F
330
1F
100
AcDbEntity
  8
0
 62
     7
100
AcDbLine
 10
100.800453
 20
204.179291
 30
0.0
 11
100.838615
 21
204.049988
 31
0.0
  0
LINE
  5
290
330
1F
100
AcDbEntity
  8
0
 62
     7
100
AcDbLine
 10
158.49704
 20
204.049988
 30
0.0
 11
100.838615
 21
204.049988
 31
0.0
  0
LINE
  5
291
330
1F
100
AcDbEntity
  8
0
 62
     7
100
AcDbLine
 10
100.755981
 20
204.320709
 30
0.0
 11
100.800453
 21
204.179291
 31
0.0
  0
LINE
  5
292
330
1F
100
AcDbEntity
  8
0
 62
     7
100
AcDbLine
 10
100.712776
 20
204.450012
 30
0.0
 11
100.755981
 21
204.320709
 31
0.0
  0
LINE
  5
293
330
1F
100
AcDbEntity
  8
0
 62
     7
100
AcDbLine
 10
158.49704
 20
204.450012
 30
0.0
 11
100.712776
 21
204.450012
 31
0.0
  0
ARC
  5
294
330
1F
100
AcDbEntity
  8
0
 62
     7
100
AcDbCircle
 10
93.147064
 20
201.850006
 30
0.0
 40
8.0
100
AcDbArc
 50
18.965574
 51
24.361978
  0
LINE
  5
295
330
1F
100
AcDbEntity
  8
0
 62
     7
100
AcDbLine
 10
158.49704
 20
204.850006
 30
0.0
 11
158.147064
 21
204.850006
 31
0.0
  0
ARC
  5
296
330
1F
100
AcDbEntity
  8
0
 62
     7
100
AcDbCircle
 10
158.147064
 20
206.350006
 30
0.0
 40
1.5
100
AcDbArc
 50
212.230947
 51
269.999997
  0
LINE
  5
297
330
1F
100
AcDbEntity
  8
0
 62
     7
100
AcDbLine
 10
157.24704
 20
205.149994
 30
0.0
 11
100.434723
 21
205.149994
 31
0.0
  0
LINE
  5
298
330
1F
100
AcDbEntity
  8
0
 62
     7
100
AcDbLine
 10
158.49704
 20
197.850006
 30
0.0
 11
100.075264
 21
197.850006
 31
0.0
  0
LINE
  5
299
330
1F
100
AcDbEntity
  8
0
 62
     7
100
AcDbLine
 10
158.49704
 20
198.549988
 30
0.0
 11
100.434723
 21
198.549988
 31
0.0
  0
LINE
  5
29A
330
1F
100
AcDbEntity
  8
0
 62
     7
100
AcDbLine
 10
158.49704
 20
198.950012
 30
0.0
 11
100.602936
 21
198.950012
 31
0.0
  0
LINE
  5
29B
330
1F
100
AcDbEntity
  8
0
 62
     7
100
AcDbLine
 10
158.49704
 20
199.649994
 30
0.0
 11
100.838615
 21
199.649994
 31
0.0
  0
LINE
  5
29C
330
1F
100
AcDbEntity
  8
0
 62
     7
100
AcDbLine
 10
158.49704
 20
200.049988
 30
0.0
 11
100.941933
 21
200.049988
 31
0.0
  0
LINE
  5
29D
330
1F
100
AcDbEntity
  8
0
 62
     7
100
AcDbLine
 10
158.49704
 20
200.75
 30
0.0
 11
101.071075
 21
200.75
 31
0.0
  0
LINE
  5
29E
330
1F
100
AcDbEntity
  8
0
 62
     7
100
AcDbLine
 10
158.49704
 20
201.149994
 30
0.0
 11
101.116379
 21
201.149994
 31
0.0
  0
LINE
  5
29F
330
1F
100
AcDbEntity
  8
0
 62
     7
100
AcDbLine
 10
158.49704
 20
201.850006
 30
0.0
 11
101.147064
 21
201.850006
 31
0.0
  0
LINE
  5
2A0
330
1F
100
AcDbEntity
  8
0
 62
     7
100
AcDbLine
 10
101.146019
 20
201.979279
 30
0.0
 11
101.147064
 21
201.850006
 31
0.0
  0
LINE
  5
2A1
330
1F
100
AcDbEntity
  8
0
 62
     7
100
AcDbLine
 10
101.142479
 20
202.120697
 30
0.0
 11
101.146019
 21
201.979279
 31
0.0
  0
LINE
  5
2A2
330
1F
100
AcDbEntity
  8
0
 62
     7
100
AcDbLine
 10
101.137054
 20
202.25
 30
0.0
 11
101.142479
 21
202.120697
 31
0.0
  0
LINE
  5
2A3
330
1F
100
AcDbEntity
  8
0
 62
     7
100
AcDbLine
 10
158.49704
 20
202.25
 30
0.0
 11
101.137054
 21
202.25
 31
0.0
  0
ARC
  5
2A4
330
1F
100
AcDbEntity
  8
0
 62
     7
100
AcDbCircle
 10
93.147064
 20
201.850006
 30
0.0
 40
8.0
100
AcDbArc
 50
2.865984
 51
7.903208
  0
LINE
  5
2A5
330
1F
100
AcDbEntity
  8
0
 62
     7
100
AcDbLine
 10
158.49704
 20
202.950012
 30
0.0
 11
101.071075
 21
202.950012
 31
0.0
  0
LINE
  5
2A6
330
1F
100
AcDbEntity
  8
0
 62
     7
100
AcDbLine
 10
101.052055
 20
203.079285
 30
0.0
 11
101.071075
 21
202.950012
 31
0.0
  0
LINE
  5
2A7
330
1F
100
AcDbEntity
  8
0
 62
     7
100
AcDbLine
 10
101.028763
 20
203.220703
 30
0.0
 11
101.052055
 21
203.079285
 31
0.0
  0
LINE
  5
2A8
330
1F
100
AcDbEntity
  8
0
 62
     7
100
AcDbLine
 10
101.00518
 20
203.350006
 30
0.0
 11
101.028763
 21
203.220703
 31
0.0
  0
LINE
  5
2A9
330
1F
100
AcDbEntity
  8
0
 62
     7
100
AcDbLine
 10
158.49704
 20
203.350006
 30
0.0
 11
101.00518
 21
203.350006
 31
0.0
  0
ARC
  5
2AA
330
1F
100
AcDbEntity
  8
0
 62
     7
100
AcDbCircle
 10
93.147064
 20
201.850006
 30
0.0
 40
8.0
100
AcDbArc
 50
10.806925
 51
15.962019
  0
LINE
  5
2AB
330
1F
100
AcDbEntity
  8
0
 62
     7
100
AcDbLine
 10
86.218864
 20
197.850006
 30
0.0
 11
84.147064
 21
197.850006
 31
0.0
  0
LINE
  5
2AC
330
1F
100
AcDbEntity
  8
0
 62
     7
100
AcDbLine
 10
85.859406
 20
198.549988
 30
0.0
 11
84.147064
 21
198.549988
 31
0.0
  0
LINE
  5
2AD
330
1F
100
AcDbEntity
  8
0
 62
     7
100
AcDbLine
 10
85.691193
 20
198.950012
 30
0.0
 11
84.147064
 21
198.950012
 31
0.0
  0
LINE
  5
2AE
330
1F
100
AcDbEntity
  8
0
 62
     7
100
AcDbLine
 10
85.455513
 20
199.649994
 30
0.0
 11
84.147064
 21
199.649994
 31
0.0
  0
LINE
  5
2AF
330
1F
100
AcDbEntity
  8
0
 62
     7
100
AcDbLine
 10
85.352196
 20
200.049988
 30
0.0
 11
84.147064
 21
200.049988
 31
0.0
  0
LINE
  5
2B0
330
1F
100
AcDbEntity
  8
0
 62
     7
100
AcDbLine
 10
85.223053
 20
200.75
 30
0.0
 11
84.147064
 21
200.75
 31
0.0
  0
LINE
  5
2B1
330
1F
100
AcDbEntity
  8
0
 62
     7
100
AcDbLine
 10
85.17775
 20
201.149994
 30
0.0
 11
84.147064
 21
201.149994
 31
0.0
  0
LINE
  5
2B2
330
1F
100
AcDbEntity
  8
0
 62
     7
100
AcDbLine
 10
85.147064
 20
201.850006
 30
0.0
 11
84.147064
 21
201.850006
 31
0.0
  0
LINE
  5
2B3
330
1F
100
AcDbEntity
  8
0
 62
     7
100
AcDbLine
 10
85.148109
 20
201.979279
 30
0.0
 11
85.147064
 21
201.850006
 31
0.0
  0
LINE
  5
2B4
330
1F
100
AcDbEntity
  8
0
 62
     7
100
AcDbLine
 10
85.151649
 20
202.120697
 30
0.0
 11
85.148109
 21
201.979279
 31
0.0
  0
LINE
  5
2B5
330
1F
100
AcDbEntity
  8
0
 62
     7
100
AcDbLine
 10
85.157074
 20
202.25
 30
0.0
 11
85.151649
 21
202.120697
 31
0.0
  0
ARC
  5
2B6
330
1F
100
AcDbEntity
  8
0
 62
     7
100
AcDbCircle
 10
93.147064
 20
201.850006
 30
0.0
 40
8.0
100
AcDbArc
 50
172.096793
 51
177.134017
  0
LINE
  5
2B7
330
1F
100
AcDbEntity
  8
0
 62
     7
100
AcDbLine
 10
85.242073
 20
203.079285
 30
0.0
 11
85.223053
 21
202.950012
 31
0.0
  0
LINE
  5
2B8
330
1F
100
AcDbEntity
  8
0
 62
     7
100
AcDbLine
 10
85.265366
 20
203.220703
 30
0.0
 11
85.242073
 21
203.079285
 31
0.0
  0
LINE
  5
2B9
330
1F
100
AcDbEntity
  8
0
 62
     7
100
AcDbLine
 10
85.288948
 20
203.350006
 30
0.0
 11
85.265366
 21
203.220703
 31
0.0
  0
ARC
  5
2BA
330
1F
100
AcDbEntity
  8
0
 62
     7
100
AcDbCircle
 10
93.147064
 20
201.850006
 30
0.0
 40
8.0
100
AcDbArc
 50
164.03799
 51
169.193075
  0
LINE
  5
2BB
330
1F
100
AcDbEntity
  8
0
 62
     7
100
AcDbLine
 10
85.493675
 20
204.179291
 30
0.0
 11
85.455513
 21
204.049988
 31
0.0
  0
LINE
  5
2BC
330
1F
100
AcDbEntity
  8
0
 62
     7
100
AcDbLine
 10
85.538147
 20
204.320709
 30
0.0
 11
85.493675
 21
204.179291
 31
0.0
  0
LINE
  5
2BD
330
1F
100
AcDbEntity
  8
0
 62
     7
100
AcDbLine
 10
85.581352
 20
204.450012
 30
0.0
 11
85.538147
 21
204.320709
 31
0.0
  0
ARC
  5
2BE
330
1F
100
AcDbEntity
  8
0
 62
     7
100
AcDbCircle
 10
93.147064
 20
201.850006
 30
0.0
 40
8.0
100
AcDbArc
 50
155.638018
 51
161.034427
  0
LINE
  5
2BF
330
1F
100
AcDbEntity
  8
0
 62
     7
100
AcDbLine
 10
85.919342
 20
205.279297
 30
0.0
 11
85.859406
 21
205.149994
 31
0.0
  0
LINE
  5
2C0
330
1F
100
AcDbEntity
  8
0
 62
     7
100
AcDbLine
 10
85.988152
 20
205.420715
 30
0.0
 11
85.919342
 21
205.279297
 31
0.0
  0
LINE
  5
2C1
330
1F
100
AcDbEntity
  8
0
 62
     7
100
AcDbLine
 10
86.054108
 20
205.549988
 30
0.0
 11
85.988152
 21
205.420715
 31
0.0
  0
ARC
  5
2C2
330
1F
100
AcDbEntity
  8
0
 62
     7
100
AcDbCircle
 10
93.147064
 20
201.850006
 30
0.0
 40
8.0
100
AcDbArc
 50
146.632987
 51
152.451448
  0
LINE
  5
2C3
330
1F
100
AcDbEntity
  8
0
 62
     7
100
AcDbLine
 10
86.552704
 20
206.379272
 30
0.0
 11
86.465744
 21
206.25
 31
0.0
  0
LINE
  5
2C4
330
1F
100
AcDbEntity
  8
0
 62
     7
100
AcDbLine
 10
86.652107
 20
206.520721
 30
0.0
 11
86.552704
 21
206.379272
 31
0.0
  0
LINE
  5
2C5
330
1F
100
AcDbEntity
  8
0
 62
     7
100
AcDbLine
 10
86.747063
 20
206.649994
 30
0.0
 11
86.652107
 21
206.520721
 31
0.0
  0
ARC
  5
2C6
330
1F
100
AcDbEntity
  8
0
 62
     7
100
AcDbCircle
 10
93.147064
 20
201.850006
 30
0.0
 40
8.0
100
AcDbArc
 50
36.869897
 51
143.130097
  0
LINE
  5
2C7
330
1F
100
AcDbEntity
  8
0
 62
     7
100
AcDbLine
 10
99.547066
 20
206.649994
 30
0.0
 11
99.642021
 21
206.520721
 31
0.0
  0
LINE
  5
2C8
330
1F
100
AcDbEntity
  8
0
 62
     7
100
AcDbLine
 10
99.642021
 20
206.520721
 30
0.0
 11
99.741417
 21
206.379272
 31
0.0
  0
LINE
  5
2C9
330
1F
100
AcDbEntity
  8
0
 62
     7
100
AcDbLine
 10
99.741417
 20
206.379272
 30
0.0
 11
99.828377
 21
206.25
 31
0.0
  0
ARC
  5
2CA
330
1F
100
AcDbEntity
  8
0
 62
     7
100
AcDbCircle
 10
93.147064
 20
201.850006
 30
0.0
 40
8.0
100
AcDbArc
 50
27.548547
 51
33.367014
  0
LINE
  5
2CB
330
1F
100
AcDbEntity
  8
0
 62
     7
100
AcDbLine
 10
100.240021
 20
205.549988
 30
0.0
 11
100.305977
 21
205.420715
 31
0.0
  0
LINE
  5
2CC
330
1F
100
AcDbEntity
  8
0
 62
     7
100
AcDbLine
 10
100.305977
 20
205.420715
 30
0.0
 11
100.374786
 21
205.279297
 31
0.0
  0
LINE
  5
2CD
330
1F
100
AcDbEntity
  8
0
 62
     7
100
AcDbLine
 10
100.374786
 20
205.279297
 30
0.0
 11
100.434723
 21
205.149994
 31
0.0
  0
CIRCLE
  5
2CE
330
1F
100
AcDbEntity
  8
0
 62
     7
100
AcDbCircle
 10
93.147064
 20
201.850006
 30
0.0
 40
7.5
  0
LINE
  5
2CF
330
1F
100
AcDbEntity
  8
0
 62
     7
100
AcDbLine
 10
83.647064
 20
189.850006
 30
0.0
 11
84.147064
 21
189.850006
 31
0.0
  0
LINE
  5
2D0
330
1F
100
AcDbEntity
  8
0
 62
     7
100
AcDbLine
 10
85.157074
 20
202.25
 30
0.0
 11
84.147064
 21
202.25
 31
0.0
  0
LINE
  5
2D1
330
1F
100
AcDbEntity
  8
0
 62
     7
100
AcDbLine
 10
85.223053
 20
202.950012
 30
0.0
 11
84.147064
 21
202.950012
 31
0.0
  0
LINE
  5
2D2
330
1F
100
AcDbEntity
  8
0
 62
     7
100
AcDbLine
 10
85.288948
 20
203.350006
 30
0.0
 11
84.147064
 21
203.350006
 31
0.0
  0
LINE
  5
2D3
330
1F
100
AcDbEntity
  8
0
 62
     7
100
AcDbLine
 10
85.455513
 20
204.049988
 30
0.0
 11
84.147064
 21
204.049988
 31
0.0
  0
LINE
  5
2D4
330
1F
100
AcDbEntity
  8
0
 62
     7
100
AcDbLine
 10
85.581352
 20
204.450012
 30
0.0
 11
84.147064
 21
204.450012
 31
0.0
  0
LINE
  5
2D5
330
1F
100
AcDbEntity
  8
0
 62
     7
100
AcDbLine
 10
85.859406
 20
205.149994
 30
0.0
 11
84.147064
 21
205.149994
 31
0.0
  0
LINE
  5
2D6
330
1F
100
AcDbEntity
  8
0
 62
     7
100
AcDbLine
 10
86.054108
 20
205.549988
 30
0.0
 11
84.147064
 21
205.549988
 31
0.0
  0
LINE
  5
2D7
330
1F
100
AcDbEntity
  8
0
 62
     7
100
AcDbLine
 10
86.465744
 20
206.25
 30
0.0
 11
84.147064
 21
206.25
 31
0.0
  0
LINE
  5
2D8
330
1F
100
AcDbEntity
  8
0
 62
     7
100
AcDbLine
 10
86.747063
 20
206.649994
 30
0.0
 11
84.147064
 21
206.649994
 31
0.0
  0
LINE
  5
2D9
330
1F
100
AcDbEntity
  8
0
 62
     7
100
AcDbLine
 10
156.647064
 20
206.649994
 30
0.0
 11
99.547066
 21
206.649994
 31
0.0
  0
LINE
  5
2DA
330
1F
100
AcDbEntity
  8
0
 62
     7
100
AcDbLine
 10
156.647064
 20
206.649994
 30
0.0
 11
156.647064
 21
211.474274
 31
0.0
  0
LINE
  5
2DB
330
1F
100
AcDbEntity
  8
0
 62
     7
100
AcDbLine
 10
156.647064
 20
211.474274
 30
0.0
 11
84.147064
 21
211.474274
 31
0.0
  0
LINE
  5
2DC
330
1F
100
AcDbEntity
  8
0
 62
     7
100
AcDbLine
 10
156.647064
 20
211.962128
 30
0.0
 11
156.647064
 21
211.474274
 31
0.0
  0
LINE
  5
2DD
330
1F
100
AcDbEntity
  8
0
 62
     7
100
AcDbLine
 10
156.647064
 20
212.049988
 30
0.0
 11
156.647064
 21
211.962128
 31
0.0
  0
LINE
  5
2DE
330
1F
100
AcDbEntity
  8
0
 62
     7
100
AcDbLine
 10
387.647034
 20
184.149994
 30
0.0
 11
387.647034
 21
183.649994
 31
0.0
  0
LINE
  5
2DF
330
1F
100
AcDbEntity
  8
0
 62
     7
100
AcDbLine
 10
387.647034
 20
211.242889
 30
0.0
 11
387.647034
 21
184.149994
 31
0.0
  0
LINE
  5
2E0
330
1F
100
AcDbEntity
  8
0
 62
     7
100
AcDbLine
 10
387.647034
 20
211.596436
 30
0.0
 11
387.647034
 21
211.242889
 31
0.0
  0
LINE
  5
2E1
330
1F
100
AcDbEntity
  8
0
 62
     7
100
AcDbLine
 10
387.647034
 20
212.281128
 30
0.0
 11
387.647034
 21
211.596436
 31
0.0
  0
LINE
  5
2E2
330
1F
100
AcDbEntity
  8
0
 62
     7
100
AcDbLine
 10
314.647034
 20
206.520721
 30
0.0
 11
314.647034
 21
206.649994
 31
0.0
  0
LINE
  5
2E3
330
1F
100
AcDbEntity
  8
0
 62
     7
100
AcDbLine
 10
314.647034
 20
206.379272
 30
0.0
 11
314.647034
 21
206.520721
 31
0.0
  0
LINE
  5
2E4
330
1F
100
AcDbEntity
  8
0
 62
     7
100
AcDbLine
 10
314.647034
 20
206.379272
 30
0.0
 11
314.647034
 21
206.350006
 31
0.0
  0
ARC
  5
2E5
330
1F
100
AcDbEntity
  8
0
 62
     7
100
AcDbCircle
 10
313.147034
 20
206.350006
 30
0.0
 40
1.5
100
AcDbArc
 50
314.454478
 51
356.177454
  0
LINE
  5
2E6
330
1F
100
AcDbEntity
  8
0
 62
     7
100
AcDbLine
 10
314.643707
 20
206.25
 30
0.0
 11
314.647034
 21
206.350006
 31
0.0
  0
LINE
  5
2E7
330
1F
100
AcDbEntity
  8
0
 62
     7
100
AcDbLine
 10
312.297028
 20
205.850006
 30
0.0
 11
313.147034
 21
205.850006
 31
0.0
  0
ARC
  5
2E8
330
1F
100
AcDbEntity
  8
0
 62
     7
100
AcDbCircle
 10
313.147034
 20
206.350006
 30
0.0
 40
0.5
100
AcDbArc
 50
269.999997
 51
360.0
  0
LINE
  5
2E9
330
1F
100
AcDbEntity
  8
0
 62
     7
100
AcDbLine
 10
313.647034
 20
206.649994
 30
0.0
 11
313.647034
 21
211.474274
 31
0.0
  0
LINE
  5
2EA
330
1F
100
AcDbEntity
  8
0
 62
     7
100
AcDbLine
 10
313.647034
 20
211.962128
 30
0.0
 11
313.647034
 21
211.474274
 31
0.0
  0
LINE
  5
2EB
330
1F
100
AcDbEntity
  8
0
 62
     7
100
AcDbLine
 10
313.647034
 20
212.049988
 30
0.0
 11
313.647034
 21
211.962128
 31
0.0
  0
LINE
  5
2EC
330
1F
100
AcDbEntity
  8
0
 62
     7
100
AcDbLine
 10
313.647034
 20
206.379272
 30
0.0
 11
313.647034
 21
206.350006
 31
0.0
  0
LINE
  5
2ED
330
1F
100
AcDbEntity
  8
0
 62
     7
100
AcDbLine
 10
313.647034
 20
206.520721
 30
0.0
 11
313.647034
 21
206.379272
 31
0.0
  0
LINE
  5
2EE
330
1F
100
AcDbEntity
  8
0
 62
     7
100
AcDbLine
 10
313.647034
 20
206.520721
 30
0.0
 11
313.647034
 21
206.649994
 31
0.0
  0
LINE
  5
2EF
330
1F
100
AcDbEntity
  8
0
 62
     7
100
AcDbLine
 10
307.647034
 20
211.962128
 30
0.0
 11
307.647034
 21
212.049988
 31
0.0
  0
LINE
  5
2F0
330
1F
100
AcDbEntity
  8
0
 62
     7
100
AcDbLine
 10
307.647034
 20
211.962128
 30
0.0
 11
307.647034
 21
211.474274
 31
0.0
  0
LINE
  5
2F1
330
1F
100
AcDbEntity
  8
0
 62
     7
100
AcDbLine
 10
307.647034
 20
206.649994
 30
0.0
 11
307.647034
 21
211.474274
 31
0.0
  0
LINE
  5
2F2
330
1F
100
AcDbEntity
  8
0
 62
     7
100
AcDbLine
 10
307.647034
 20
206.520721
 30
0.0
 11
307.647034
 21
206.649994
 31
0.0
  0
LINE
  5
2F3
330
1F
100
AcDbEntity
  8
0
 62
     7
100
AcDbLine
 10
307.647034
 20
206.379272
 30
0.0
 11
307.647034
 21
206.520721
 31
0.0
  0
LINE
  5
2F4
330
1F
100
AcDbEntity
  8
0
 62
     7
100
AcDbLine
 10
307.647034
 20
206.379272
 30
0.0
 11
307.647034
 21
206.350006
 31
0.0
  0
ARC
  5
2F5
330
1F
100
AcDbEntity
  8
0
 62
     7
100
AcDbCircle
 10
308.147034
 20
206.350006
 30
0.0
 40
0.5
100
AcDbArc
 50
180.000009
 51
269.999997
  0
LINE
  5
2F6
330
1F
100
AcDbEntity
  8
0
 62
     7
100
AcDbLine
 10
308.147034
 20
205.850006
 30
0.0
 11
308.99704
 21
205.850006
 31
0.0
  0
ARC
  5
2F7
330
1F
100
AcDbEntity
  8
0
 62
     7
100
AcDbCircle
 10
308.147034
 20
206.350006
 30
0.0
 40
1.5
100
AcDbArc
 50
183.822551
 51
212.230947
  0
LINE
  5
2F8
330
1F
100
AcDbEntity
  8
0
 62
     7
100
AcDbLine
 10
306.650391
 20
206.25
 30
0.0
 11
306.647034
 21
206.350006
 31
0.0
  0
LINE
  5
2F9
330
1F
100
AcDbEntity
  8
0
 62
     7
100
AcDbLine
 10
306.647034
 20
206.649994
 30
0.0
 11
306.647034
 21
211.474274
 31
0.0
  0
LINE
  5
2FA
330
1F
100
AcDbEntity
  8
0
 62
     7
100
AcDbLine
 10
306.647034
 20
211.962128
 30
0.0
 11
306.647034
 21
211.474274
 31
0.0
  0
LINE
  5
2FB
330
1F
100
AcDbEntity
  8
0
 62
     7
100
AcDbLine
 10
306.647034
 20
212.049988
 30
0.0
 11
306.647034
 21
211.962128
 31
0.0
  0
LINE
  5
2FC
330
1F
100
AcDbEntity
  8
0
 62
     7
100
AcDbLine
 10
306.647034
 20
206.379272
 30
0.0
 11
306.647034
 21
206.350006
 31
0.0
  0
LINE
  5
2FD
330
1F
100
AcDbEntity
  8
0
 62
     7
100
AcDbLine
 10
306.647034
 20
206.520721
 30
0.0
 11
306.647034
 21
206.379272
 31
0.0
  0
LINE
  5
2FE
330
1F
100
AcDbEntity
  8
0
 62
     7
100
AcDbLine
 10
306.647034
 20
206.520721
 30
0.0
 11
306.647034
 21
206.649994
 31
0.0
  0
LINE
  5
2FF
330
1F
100
AcDbEntity
  8
0
 62
     7
100
AcDbLine
 10
164.647064
 20
211.962128
 30
0.0
 11
164.647064
 21
212.049988
 31
0.0
  0
LINE
  5
300
330
1F
100
AcDbEntity
  8
0
 62
     7
100
AcDbLine
 10
164.647064
 20
211.962128
 30
0.0
 11
164.647064
 21
211.474274
 31
0.0
  0
LINE
  5
301
330
1F
100
AcDbEntity
  8
0
 62
     7
100
AcDbLine
 10
164.647064
 20
206.649994
 30
0.0
 11
164.647064
 21
211.474274
 31
0.0
  0
LINE
  5
302
330
1F
100
AcDbEntity
  8
0
 62
     7
100
AcDbLine
 10
164.647064
 20
206.520721
 30
0.0
 11
164.647064
 21
206.649994
 31
0.0
  0
LINE
  5
303
330
1F
100
AcDbEntity
  8
0
 62
     7
100
AcDbLine
 10
164.647064
 20
206.379272
 30
0.0
 11
164.647064
 21
206.520721
 31
0.0
  0
LINE
  5
304
330
1F
100
AcDbEntity
  8
0
 62
     7
100
AcDbLine
 10
164.647064
 20
206.379272
 30
0.0
 11
164.647064
 21
206.350006
 31
0.0
  0
ARC
  5
305
330
1F
100
AcDbEntity
  8
0
 62
     7
100
AcDbCircle
 10
163.147064
 20
206.350006
 30
0.0
 40
1.5
100
AcDbArc
 50
314.454478
 51
356.177454
  0
LINE
  5
306
330
1F
100
AcDbEntity
  8
0
 62
     7
100
AcDbLine
 10
164.643707
 20
206.25
 30
0.0
 11
164.647064
 21
206.350006
 31
0.0
  0
LINE
  5
307
330
1F
100
AcDbEntity
  8
0
 62
     7
100
AcDbLine
 10
162.297058
 20
205.850006
 30
0.0
 11
163.147064
 21
205.850006
 31
0.0
  0
ARC
  5
308
330
1F
100
AcDbEntity
  8
0
 62
     7
100
AcDbCircle
 10
163.147064
 20
206.350006
 30
0.0
 40
0.5
100
AcDbArc
 50
269.999997
 51
360.0
  0
LINE
  5
309
330
1F
100
AcDbEntity
  8
0
 62
     7
100
AcDbLine
 10
163.647064
 20
206.649994
 30
0.0
 11
163.647064
 21
211.474274
 31
0.0
  0
LINE
  5
30A
330
1F
100
AcDbEntity
  8
0
 62
     7
100
AcDbLine
 10
163.647064
 20
211.962128
 30
0.0
 11
163.647064
 21
211.474274
 31
0.0
  0
LINE
  5
30B
330
1F
100
AcDbEntity
  8
0
 62
     7
100
AcDbLine
 10
163.647064
 20
212.049988
 30
0.0
 11
163.647064
 21
211.962128
 31
0.0
  0
LINE
  5
30C
330
1F
100
AcDbEntity
  8
0
 62
     7
100
AcDbLine
 10
163.647064
 20
206.379272
 30
0.0
 11
163.647064
 21
206.350006
 31
0.0
  0
LINE
  5
30D
330
1F
100
AcDbEntity
  8
0
 62
     7
100
AcDbLine
 10
163.647064
 20
206.520721
 30
0.0
 11
163.647064
 21
206.379272
 31
0.0
  0
LINE
  5
30E
330
1F
100
AcDbEntity
  8
0
 62
     7
100
AcDbLine
 10
163.647064
 20
206.520721
 30
0.0
 11
163.647064
 21
206.649994
 31
0.0
  0
LINE
  5
30F
330
1F
100
AcDbEntity
  8
0
 62
     7
100
AcDbLine
 10
157.647064
 20
211.962128
 30
0.0
 11
157.647064
 21
212.049988
 31
0.0
  0
LINE
  5
310
330
1F
100
AcDbEntity
  8
0
 62
     7
100
AcDbLine
 10
157.647064
 20
211.962128
 30
0.0
 11
157.647064
 21
211.474274
 31
0.0
  0
LINE
  5
311
330
1F
100
AcDbEntity
  8
0
 62
     7
100
AcDbLine
 10
157.647064
 20
206.649994
 30
0.0
 11
157.647064
 21
211.474274
 31
0.0
  0
LINE
  5
312
330
1F
100
AcDbEntity
  8
0
 62
     7
100
AcDbLine
 10
157.647064
 20
206.520721
 30
0.0
 11
157.647064
 21
206.649994
 31
0.0
  0
LINE
  5
313
330
1F
100
AcDbEntity
  8
0
 62
     7
100
AcDbLine
 10
157.647064
 20
206.379272
 30
0.0
 11
157.647064
 21
206.520721
 31
0.0
  0
LINE
  5
314
330
1F
100
AcDbEntity
  8
0
 62
     7
100
AcDbLine
 10
157.647064
 20
206.379272
 30
0.0
 11
157.647064
 21
206.350006
 31
0.0
  0
ARC
  5
315
330
1F
100
AcDbEntity
  8
0
 62
     7
100
AcDbCircle
 10
158.147064
 20
206.350006
 30
0.0
 40
0.5
100
AcDbArc
 50
180.000009
 51
269.999997
  0
LINE
  5
316
330
1F
100
AcDbEntity
  8
0
 62
     7
100
AcDbLine
 10
158.147064
 20
205.850006
 30
0.0
 11
158.99704
 21
205.850006
 31
0.0
  0
ARC
  5
317
330
1F
100
AcDbEntity
  8
0
 62
     7
100
AcDbCircle
 10
158.147064
 20
206.350006
 30
0.0
 40
1.5
100
AcDbArc
 50
183.822551
 51
212.230947
  0
LINE
  5
318
330
1F
100
AcDbEntity
  8
0
 62
     7
100
AcDbLine
 10
156.650391
 20
206.25
 30
0.0
 11
156.647064
 21
206.350006
 31
0.0
  0
LINE
  5
319
330
1F
100
AcDbEntity
  8
0
 62
     7
100
AcDbLine
 10
156.647064
 20
206.379272
 30
0.0
 11
156.647064
 21
206.350006
 31
0.0
  0
LINE
  5
31A
330
1F
100
AcDbEntity
  8
0
 62
     7
100
AcDbLine
 10
156.647064
 20
206.520721
 30
0.0
 11
156.647064
 21
206.379272
 31
0.0
  0
LINE
  5
31B
330
1F
100
AcDbEntity
  8
0
 62
     7
100
AcDbLine
 10
156.647064
 20
206.520721
 30
0.0
 11
156.647064
 21
206.649994
 31
0.0
  0
LINE
  5
31C
330
1F
100
AcDbEntity
  8
0
 62
     7
100
AcDbLine
 10
83.647064
 20
211.596436
 30
0.0
 11
83.647064
 21
212.281128
 31
0.0
  0
LINE
  5
31D
330
1F
100
AcDbEntity
  8
0
 62
     7
100
AcDbLine
 10
83.647064
 20
211.242889
 30
0.0
 11
83.647064
 21
211.596436
 31
0.0
  0
LINE
  5
31E
330
1F
100
AcDbEntity
  8
0
 62
     7
100
AcDbLine
 10
83.647064
 20
184.149994
 30
0.0
 11
83.647064
 21
211.242889
 31
0.0
  0
LINE
  5
31F
330
1F
100
AcDbEntity
  8
0
 62
     7
100
AcDbLine
 10
83.647064
 20
183.649994
 30
0.0
 11
83.647064
 21
184.149994
 31
0.0
  0
LINE
  5
320
330
1F
100
AcDbEntity
  8
0
 62
     7
100
AcDbLine
 10
387.647034
 20
214.850006
 30
0.0
 11
387.647034
 21
212.281128
 31
0.0
  0
LINE
  5
321
330
1F
100
AcDbEntity
  8
0
 62
     7
100
AcDbLine
 10
83.647064
 20
214.850006
 30
0.0
 11
387.647034
 21
214.850006
 31
0.0
  0
LINE
  5
322
330
1F
100
AcDbEntity
  8
0
 62
     7
100
AcDbLine
 10
83.647064
 20
214.850006
 30
0.0
 11
83.647064
 21
212.281128
 31
0.0
  0
LINE
  5
323
330
1F
100
AcDbEntity
  8
0
 62
     7
100
AcDbLine
 10
387.647034
 20
185.350006
 30
0.0
 11
387.147034
 21
185.350006
 31
0.0
  0
LINE
  5
324
330
1F
100
AcDbEntity
  8
0
 62
     7
100
AcDbLine
 10
371.054077
 20
205.549988
 30
0.0
 11
314.415894
 21
205.549988
 31
0.0
  0
LINE
  5
325
330
1F
100
AcDbEntity
  8
0
 62
     7
100
AcDbLine
 10
371.465729
 20
206.25
 30
0.0
 11
314.643707
 21
206.25
 31
0.0
  0
LINE
  5
326
330
1F
100
AcDbEntity
  8
0
 62
     7
100
AcDbLine
 10
311.838776
 20
205.549988
 30
0.0
 11
309.455292
 21
205.549988
 31
0.0
  0
LINE
  5
327
330
1F
100
AcDbEntity
  8
0
 62
     7
100
AcDbLine
 10
313.636932
 20
206.25
 30
0.0
 11
311.541473
 21
206.25
 31
0.0
  0
ARC
  5
328
330
1F
100
AcDbEntity
  8
0
 62
     7
100
AcDbCircle
 10
310.647034
 20
208.149994
 30
0.0
 40
2.099999904632568
100
AcDbArc
 50
237.479124
 51
295.208757
  0
LINE
  5
329
330
1F
100
AcDbEntity
  8
0
 62
     7
100
AcDbLine
 10
309.752625
 20
206.25
 30
0.0
 11
307.657135
 21
206.25
 31
0.0
  0
LINE
  5
32A
330
1F
100
AcDbEntity
  8
0
 62
     7
100
AcDbLine
 10
161.838806
 20
205.549988
 30
0.0
 11
159.455322
 21
205.549988
 31
0.0
  0
LINE
  5
32B
330
1F
100
AcDbEntity
  8
0
 62
     7
100
AcDbLine
 10
163.636963
 20
206.25
 30
0.0
 11
161.541473
 21
206.25
 31
0.0
  0
ARC
  5
32C
330
1F
100
AcDbEntity
  8
0
 62
     7
100
AcDbCircle
 10
160.647064
 20
208.149994
 30
0.0
 40
2.099999904632568
100
AcDbArc
 50
237.479124
 51
295.208757
  0
LINE
  5
32D
330
1F
100
AcDbEntity
  8
0
 62
     7
100
AcDbLine
 10
159.752625
 20
206.25
 30
0.0
 11
157.657166
 21
206.25
 31
0.0
  0
LINE
  5
32E
330
1F
100
AcDbEntity
  8
0
 62
     7
100
AcDbLine
 10
156.650391
 20
206.25
 30
0.0
 11
99.828377
 21
206.25
 31
0.0
  0
LINE
  5
32F
330
1F
100
AcDbEntity
  8
0
 62
     7
100
AcDbLine
 10
156.878204
 20
205.549988
 30
0.0
 11
100.240021
 21
205.549988
 31
0.0
  0
LINE
  5
330
330
1F
100
AcDbEntity
  8
0
 62
     7
100
AcDbLine
 10
83.647064
 20
185.350006
 30
0.0
 11
84.147064
 21
185.350006
 31
0.0
  0
LINE
  5
331
330
1F
100
AcDbEntity
  8
0
 62
     7
100
AcDbLine
 10
308.334534
 20
185.180359
 30
0.0
 11
309.634521
 21
188.680359
 31
0.0
  0
ARC
  5
332
330
1F
100
AcDbEntity
  8
0
 62
     7
100
AcDbCircle
 10
308.147034
 20
185.25
 30
0.0
 40
0.2000000029802322
100
AcDbArc
 50
200.37643
 51
339.623562
  0
LINE
  5
333
330
1F
100
AcDbEntity
  8
0
 62
     7
100
AcDbLine
 10
306.659546
 20
188.680359
 30
0.0
 11
307.959564
 21
185.180359
 31
0.0
  0
ARC
  5
334
330
1F
100
AcDbEntity
  8
0
 62
     7
100
AcDbCircle
 10
306.847046
 20
188.75
 30
0.0
 40
0.2000000029802322
100
AcDbArc
 50
90.000003
 51
200.37643
  0
LINE
  5
335
330
1F
100
AcDbEntity
  8
0
 62
     7
100
AcDbLine
 10
309.447052
 20
188.949982
 30
0.0
 11
306.847046
 21
188.949982
 31
0.0
  0
ARC
  5
336
330
1F
100
AcDbEntity
  8
0
 62
     7
100
AcDbCircle
 10
309.447052
 20
188.75
 30
0.0
 40
0.2000000029802322
100
AcDbArc
 50
339.623562
 51
90.000003
  0
LINE
  5
337
330
1F
100
AcDbEntity
  8
0
 62
     7
100
AcDbLine
 10
138.334534
 20
185.180359
 30
0.0
 11
139.634552
 21
188.680359
 31
0.0
  0
ARC
  5
338
330
1F
100
AcDbEntity
  8
0
 62
     7
100
AcDbCircle
 10
138.147064
 20
185.25
 30
0.0
 40
0.2000000029802322
100
AcDbArc
 50
200.37643
 51
339.623562
  0
LINE
  5
339
330
1F
100
AcDbEntity
  8
0
 62
     7
100
AcDbLine
 10
136.659576
 20
188.680359
 30
0.0
 11
137.959564
 21
185.180359
 31
0.0
  0
ARC
  5
33A
330
1F
100
AcDbEntity
  8
0
 62
     7
100
AcDbCircle
 10
136.847046
 20
188.75
 30
0.0
 40
0.2000000029802322
100
AcDbArc
 50
90.000003
 51
200.37643
  0
LINE
  5
33B
330
1F
100
AcDbEntity
  8
0
 62
     7
100
AcDbLine
 10
139.447052
 20
188.949982
 30
0.0
 11
136.847046
 21
188.949982
 31
0.0
  0
ARC
  5
33C
330
1F
100
AcDbEntity
  8
0
 62
     7
100
AcDbCircle
 10
139.447052
 20
188.75
 30
0.0
 40
0.2000000029802322
100
AcDbArc
 50
339.623562
 51
90.000003
  0
LINE
  5
33D
330
1F
100
AcDbEntity
  8
0
 62
     7
100
AcDbLine
 10
388.647034
 20
183.649994
 30
0.0
 11
387.647034
 21
183.649994
 31
0.0
  0
LINE
  5
33E
330
1F
100
AcDbEntity
  8
0
 62
     7
100
AcDbLine
 10
387.147034
 20
183.850006
 30
0.0
 11
387.647034
 21
183.850006
 31
0.0
  0
LINE
  5
33F
330
1F
100
AcDbEntity
  8
0
 62
     7
100
AcDbLine
 10
311.541473
 20
206.25
 30
0.0
 11
311.653839
 21
206.307068
 31
0.0
  0
ARC
  5
340
330
1F
100
AcDbEntity
  8
0
 62
     7
100
AcDbCircle
 10
310.647034
 20
208.149994
 30
0.0
 40
2.099999904632568
100
AcDbArc
 50
298.647887
 51
314.415304
  0
LINE
  5
341
330
1F
100
AcDbEntity
  8
0
 62
     7
100
AcDbLine
 10
309.177338
 20
206.649994
 30
0.0
 11
307.647034
 21
206.649994
 31
0.0
  0
ARC
  5
342
330
1F
100
AcDbEntity
  8
0
 62
     7
100
AcDbCircle
 10
310.647034
 20
208.149994
 30
0.0
 40
2.099999904632568
100
AcDbArc
 50
314.415304
 51
237.479124
  0
LINE
  5
343
330
1F
100
AcDbEntity
  8
0
 62
     7
100
AcDbLine
 10
313.647034
 20
206.649994
 30
0.0
 11
312.11673
 21
206.649994
 31
0.0
  0
LINE
  5
344
330
1F
100
AcDbEntity
  8
0
 62
     7
100
AcDbLine
 10
313.647034
 20
211.474274
 30
0.0
 11
307.647034
 21
211.474274
 31
0.0
  0
LINE
  5
345
330
1F
100
AcDbEntity
  8
0
 62
     7
100
AcDbLine
 10
306.878174
 20
205.549988
 30
0.0
 11
164.415924
 21
205.549988
 31
0.0
  0
LINE
  5
346
330
1F
100
AcDbEntity
  8
0
 62
     7
100
AcDbLine
 10
306.650391
 20
206.25
 30
0.0
 11
164.643707
 21
206.25
 31
0.0
  0
LINE
  5
347
330
1F
100
AcDbEntity
  8
0
 62
     7
100
AcDbLine
 10
306.647034
 20
206.649994
 30
0.0
 11
164.647064
 21
206.649994
 31
0.0
  0
LINE
  5
348
330
1F
100
AcDbEntity
  8
0
 62
     7
100
AcDbLine
 10
306.647034
 20
211.474274
 30
0.0
 11
164.647064
 21
211.474274
 31
0.0
  0
LINE
  5
349
330
1F
100
AcDbEntity
  8
0
 62
     7
100
AcDbLine
 10
161.541473
 20
206.25
 30
0.0
 11
161.653839
 21
206.307068
 31
0.0
  0
ARC
  5
34A
330
1F
100
AcDbEntity
  8
0
 62
     7
100
AcDbCircle
 10
160.647064
 20
208.149994
 30
0.0
 40
2.099999904632568
100
AcDbArc
 50
298.647887
 51
314.415304
  0
ARC
  5
34B
330
1F
100
AcDbEntity
  8
0
 62
     7
100
AcDbCircle
 10
160.647064
 20
208.149994
 30
0.0
 40
2.099999904632568
100
AcDbArc
 50
314.415304
 51
237.479124
  0
LINE
  5
34C
330
1F
100
AcDbEntity
  8
0
 62
     7
100
AcDbLine
 10
163.647064
 20
206.649994
 30
0.0
 11
162.11676
 21
206.649994
 31
0.0
  0
LINE
  5
34D
330
1F
100
AcDbEntity
  8
0
 62
     7
100
AcDbLine
 10
163.647064
 20
211.474274
 30
0.0
 11
157.647064
 21
211.474274
 31
0.0
  0
LINE
  5
34E
330
1F
100
AcDbEntity
  8
0
 62
     7
100
AcDbLine
 10
159.177368
 20
206.649994
 30
0.0
 11
157.647064
 21
206.649994
 31
0.0
  0
LINE
  5
34F
330
1F
100
AcDbEntity
  8
0
 62
     7
100
AcDbLine
 10
82.647064
 20
183.649994
 30
0.0
 11
83.647064
 21
183.649994
 31
0.0
  0
LINE
  5
350
330
1F
100
AcDbEntity
  8
0
 62
     7
100
AcDbLine
 10
83.647064
 20
183.850006
 30
0.0
 11
84.147064
 21
183.850006
 31
0.0
  0
CIRCLE
  5
351
330
1F
100
AcDbEntity
  8
0
 62
     7
100
AcDbCircle
 10
378.147034
 20
201.850006
 30
0.0
 40
4.5
  0
CIRCLE
  5
352
330
1F
100
AcDbEntity
  8
0
 62
     7
100
AcDbCircle
 10
93.147064
 20
201.850006
 30
0.0
 40
4.5
  0
ARC
  5
353
330
1F
100
AcDbEntity
  8
0
 62
     7
100
AcDbCircle
 10
388.647034
 20
184.649994
 30
0.0
 40
1.0
100
AcDbArc
 50
269.999997
 51
360.0
  0
LINE
  5
354
330
1F
100
AcDbEntity
  8
0
 62
     7
100
AcDbLine
 10
389.647034
 20
211.035797
 30
0.0
 11
389.647034
 21
184.649994
 31
0.0
  0
LINE
  5
355
330
1F
100
AcDbEntity
  8
0
 62
     7
100
AcDbLine
 10
389.647034
 20
211.731415
 30
0.0
 11
389.647034
 21
211.035797
 31
0.0
  0
LINE
  5
356
330
1F
100
AcDbEntity
  8
0
 62
     7
100
AcDbLine
 10
81.647064
 20
211.035797
 30
0.0
 11
81.647064
 21
211.731415
 31
0.0
  0
LINE
  5
357
330
1F
100
AcDbEntity
  8
0
 62
     7
100
AcDbLine
 10
81.647064
 20
184.649994
 30
0.0
 11
81.647064
 21
211.035797
 31
0.0
  0
ARC
  5
358
330
1F
100
AcDbEntity
  8
0
 62
     7
100
AcDbCircle
 10
82.647064
 20
184.649994
 30
0.0
 40
1.0
100
AcDbArc
 50
180.000009
 51
269.999997
  0
LINE
  5
359
330
1F
100
AcDbEntity
  8
0
 62
     7
100
AcDbLine
 10
388.647034
 20
214.649994
 30
0.0
 11
387.647034
 21
214.649994
 31
0.0
  0
LINE
  5
35A
330
1F
100
AcDbEntity
  8
0
 62
     7
100
AcDbLine
 10
82.647064
 20
214.649994
 30
0.0
 11
83.647064
 21
214.649994
 31
0.0
  0
LINE
  5
35B
330
1F
100
AcDbEntity
  8
0
 62
     7
100
AcDbLine
 10
389.647034
 20
212.305939
 30
0.0
 11
389.647034
 21
211.731415
 31
0.0
  0
LINE
  5
35C
330
1F
100
AcDbEntity
  8
0
 62
     7
100
AcDbLine
 10
389.647034
 20
213.649994
 30
0.0
 11
389.647034
 21
212.305939
 31
0.0
  0
LINE
  5
35D
330
1F
100
AcDbEntity
  8
0
 62
     7
100
AcDbLine
 10
81.647064
 20
211.731415
 30
0.0
 11
81.647064
 21
212.305939
 31
0.0
  0
LINE
  5
35E
330
1F
100
AcDbEntity
  8
0
 62
     7
100
AcDbLine
 10
81.647064
 20
212.305939
 30
0.0
 11
81.647064
 21
213.649994
 31
0.0
  0
ARC
  5
35F
330
1F
100
AcDbEntity
  8
0
 62
     7
100
AcDbCircle
 10
378.147034
 20
202.549988
 30
0.0
 40
12.80000019073486
100
AcDbArc
 50
73.932611
 51
106.067387
  0
ARC
  5
360
330
1F
100
AcDbEntity
  8
0
 62
     7
100
AcDbCircle
 10
93.147064
 20
202.549988
 30
0.0
 40
12.80000019073486
100
AcDbArc
 50
73.932611
 51
106.067387
  0
ARC
  5
361
330
1F
100
AcDbEntity
  8
0
 62
     7
100
AcDbCircle
 10
388.647034
 20
213.649994
 30
0.0
 40
1.0
100
AcDbArc
 50
0.0
 51
90.000003
  0
ARC
  5
362
330
1F
100
AcDbEntity
  8
0
 62
     7
100
AcDbCircle
 10
82.647064
 20
213.649994
 30
0.0
 40
1.0
100
AcDbArc
 50
90.000003
 51
180.000009
  0
CIRCLE
  5
363
330
1F
100
AcDbEntity
  8
0
 62
     7
100
AcDbCircle
 10
310.647034
 20
208.149994
 30
0.0
 40
2.0
  0
CIRCLE
  5
364
330
1F
100
AcDbEntity
  8
0
 62
     7
100
AcDbCircle
 10
160.647064
 20
208.149994
 30
0.0
 40
2.0
  0
LINE
  5
365
330
1F
100
AcDbEntity
  8
0
 62
     7
100
AcDbLine
 10
310.847046
 20
208.850006
 30
0.0
 11
310.847046
 21
209.350006
 31
0.0
  0
LINE
  5
366
330
1F
100
AcDbEntity
  8
0
 62
     7
100
AcDbLine
 10
310.847046
 20
209.350006
 30
0.0
 11
310.447052
 21
209.350006
 31
0.0
  0
LINE
  5
367
330
1F
100
AcDbEntity
  8
0
 62
     7
100
AcDbLine
 10
310.447052
 20
209.350006
 30
0.0
 11
310.447052
 21
208.850006
 31
0.0
  0
ARC
  5
368
330
1F
100
AcDbEntity
  8
0
 62
     7
100
AcDbCircle
 10
309.947052
 20
208.850006
 30
0.0
 40
0.5
100
AcDbArc
 50
269.999997
 51
360.0
  0
LINE
  5
369
330
1F
100
AcDbEntity
  8
0
 62
     7
100
AcDbLine
 10
309.947052
 20
208.350006
 30
0.0
 11
309.447052
 21
208.350006
 31
0.0
  0
LINE
  5
36A
330
1F
100
AcDbEntity
  8
0
 62
     7
100
AcDbLine
 10
309.447052
 20
208.350006
 30
0.0
 11
309.447052
 21
207.950012
 31
0.0
  0
LINE
  5
36B
330
1F
100
AcDbEntity
  8
0
 62
     7
100
AcDbLine
 10
309.447052
 20
207.950012
 30
0.0
 11
309.947052
 21
207.950012
 31
0.0
  0
ARC
  5
36C
330
1F
100
AcDbEntity
  8
0
 62
     7
100
AcDbCircle
 10
309.947052
 20
207.450012
 30
0.0
 40
0.5
100
AcDbArc
 50
0.0
 51
90.000003
  0
LINE
  5
36D
330
1F
100
AcDbEntity
  8
0
 62
     7
100
AcDbLine
 10
310.447052
 20
207.450012
 30
0.0
 11
310.447052
 21
206.950012
 31
0.0
  0
LINE
  5
36E
330
1F
100
AcDbEntity
  8
0
 62
     7
100
AcDbLine
 10
310.447052
 20
206.950012
 30
0.0
 11
310.847046
 21
206.950012
 31
0.0
  0
LINE
  5
36F
330
1F
100
AcDbEntity
  8
0
 62
     7
100
AcDbLine
 10
310.847046
 20
206.950012
 30
0.0
 11
310.847046
 21
207.450012
 31
0.0
  0
ARC
  5
370
330
1F
100
AcDbEntity
  8
0
 62
     7
100
AcDbCircle
 10
311.347046
 20
207.450012
 30
0.0
 40
0.5
100
AcDbArc
 50
90.000003
 51
180.000009
  0
LINE
  5
371
330
1F
100
AcDbEntity
  8
0
 62
     7
100
AcDbLine
 10
311.347046
 20
207.950012
 30
0.0
 11
311.847046
 21
207.950012
 31
0.0
  0
LINE
  5
372
330
1F
100
AcDbEntity
  8
0
 62
     7
100
AcDbLine
 10
311.847046
 20
207.950012
 30
0.0
 11
311.847046
 21
208.350006
 31
0.0
  0
LINE
  5
373
330
1F
100
AcDbEntity
  8
0
 62
     7
100
AcDbLine
 10
311.847046
 20
208.350006
 30
0.0
 11
311.347046
 21
208.350006
 31
0.0
  0
ARC
  5
374
330
1F
100
AcDbEntity
  8
0
 62
     7
100
AcDbCircle
 10
311.347046
 20
208.850006
 30
0.0
 40
0.5
100
AcDbArc
 50
180.000009
 51
269.999997
  0
LINE
  5
375
330
1F
100
AcDbEntity
  8
0
 62
     7
100
AcDbLine
 10
160.847046
 20
208.850006
 30
0.0
 11
160.847046
 21
209.350006
 31
0.0
  0
LINE
  5
376
330
1F
100
AcDbEntity
  8
0
 62
     7
100
AcDbLine
 10
160.847046
 20
209.350006
 30
0.0
 11
160.447052
 21
209.350006
 31
0.0
  0
LINE
  5
377
330
1F
100
AcDbEntity
  8
0
 62
     7
100
AcDbLine
 10
160.447052
 20
209.350006
 30
0.0
 11
160.447052
 21
208.850006
 31
0.0
  0
ARC
  5
378
330
1F
100
AcDbEntity
  8
0
 62
     7
100
AcDbCircle
 10
159.947052
 20
208.850006
 30
0.0
 40
0.5
100
AcDbArc
 50
269.999997
 51
360.0
  0
LINE
  5
379
330
1F
100
AcDbEntity
  8
0
 62
     7
100
AcDbLine
 10
159.947052
 20
208.350006
 30
0.0
 11
159.447052
 21
208.350006
 31
0.0
  0
LINE
  5
37A
330
1F
100
AcDbEntity
  8
0
 62
     7
100
AcDbLine
 10
159.447052
 20
208.350006
 30
0.0
 11
159.447052
 21
207.950012
 31
0.0
  0
LINE
  5
37B
330
1F
100
AcDbEntity
  8
0
 62
     7
100
AcDbLine
 10
159.447052
 20
207.950012
 30
0.0
 11
159.947052
 21
207.950012
 31
0.0
  0
ARC
  5
37C
330
1F
100
AcDbEntity
  8
0
 62
     7
100
AcDbCircle
 10
159.947052
 20
207.450012
 30
0.0
 40
0.5
100
AcDbArc
 50
0.0
 51
90.000003
  0
LINE
  5
37D
330
1F
100
AcDbEntity
  8
0
 62
     7
100
AcDbLine
 10
160.447052
 20
207.450012
 30
0.0
 11
160.447052
 21
206.950012
 31
0.0
  0
LINE
  5
37E
330
1F
100
AcDbEntity
  8
0
 62
     7
100
AcDbLine
 10
160.447052
 20
206.950012
 30
0.0
 11
160.847046
 21
206.950012
 31
0.0
  0
LINE
  5
37F
330
1F
100
AcDbEntity
  8
0
 62
     7
100
AcDbLine
 10
160.847046
 20
206.950012
 30
0.0
 11
160.847046
 21
207.450012
 31
0.0
  0
ARC
  5
380
330
1F
100
AcDbEntity
  8
0
 62
     7
100
AcDbCircle
 10
161.347046
 20
207.450012
 30
0.0
 40
0.5
100
AcDbArc
 50
90.000003
 51
180.000009
  0
LINE
  5
381
330
1F
100
AcDbEntity
  8
0
 62
     7
100
AcDbLine
 10
161.347046
 20
207.950012
 30
0.0
 11
161.847046
 21
207.950012
 31
0.0
  0
LINE
  5
382
330
1F
100
AcDbEntity
  8
0
 62
     7
100
AcDbLine
 10
161.847046
 20
207.950012
 30
0.0
 11
161.847046
 21
208.350006
 31
0.0
  0
LINE
  5
383
330
1F
100
AcDbEntity
  8
0
 62
     7
100
AcDbLine
 10
161.847046
 20
208.350006
 30
0.0
 11
161.347046
 21
208.350006
 31
0.0
  0
ARC
  5
384
330
1F
100
AcDbEntity
  8
0
 62
     7
100
AcDbCircle
 10
161.347046
 20
208.850006
 30
0.0
 40
0.5
100
AcDbArc
 50
180.000009
 51
269.999997
  0
LINE
  5
385
330
1F
100
AcDbEntity
  8
0
 62
     7
100
AcDbLine
 10
389.647034
 20
188.299988
 30
0.0
 11
389.647034
 21
191.199982
 31
0.0
  0
LINE
  5
386
330
1F
100
AcDbEntity
  8
0
 62
     7
100
AcDbLine
 10
389.647034
 20
192.5
 30
0.0
 11
389.647034
 21
195.399994
 31
0.0
  0
LINE
  5
387
330
1F
100
AcDbEntity
  8
0
 62
     7
100
AcDbLine
 10
314.647034
 20
212.049988
 30
0.0
 11
387.147034
 21
212.049988
 31
0.0
  0
LINE
  5
388
330
1F
100
AcDbEntity
  8
0
 62
     7
100
AcDbLine
 10
84.147064
 20
212.049988
 30
0.0
 11
156.647064
 21
212.049988
 31
0.0
  0
LINE
  5
389
330
1F
100
AcDbEntity
  8
0
 62
     7
100
AcDbLine
 10
307.647034
 20
212.049988
 30
0.0
 11
313.647034
 21
212.049988
 31
0.0
  0
LINE
  5
38A
330
1F
100
AcDbEntity
  8
0
 62
     7
100
AcDbLine
 10
164.647064
 20
212.049988
 30
0.0
 11
306.647034
 21
212.049988
 31
0.0
  0
LINE
  5
38B
330
1F
100
AcDbEntity
  8
0
 62
     7
100
AcDbLine
 10
157.647064
 20
212.049988
 30
0.0
 11
163.647064
 21
212.049988
 31
0.0
  0
LINE
  5
38C
330
1F
100
AcDbEntity
  8
0
 62
     7
100
AcDbLine
 10
217.047058
 20
181.349884
 30
0.0
 11
217.047058
 21
181.639984
 31
0.0
  0
LINE
  5
38D
330
1F
100
AcDbEntity
  8
0
 62
     7
100
AcDbLine
 10
217.047058
 20
181.639984
 30
0.0
 11
216.847046
 21
181.843231
 31
0.0
  0
LINE
  5
38E
330
1F
100
AcDbEntity
  8
0
 62
     7
100
AcDbLine
 10
216.847046
 20
181.509216
 30
0.0
 11
216.847046
 21
181.843231
 31
0.0
  0
LINE
  5
38F
330
1F
100
AcDbEntity
  8
0
 62
     7
100
AcDbLine
 10
216.847046
 20
181.843231
 30
0.0
 11
215.847046
 21
181.843231
 31
0.0
  0
LINE
  5
390
330
1F
100
AcDbEntity
  8
0
 62
     7
100
AcDbLine
 10
215.847046
 20
181.843231
 30
0.0
 11
215.847046
 21
181.899994
 31
0.0
  0
LINE
  5
391
330
1F
100
AcDbEntity
  8
0
 62
     7
100
AcDbLine
 10
215.24707
 20
181.899994
 30
0.0
 11
215.847046
 21
181.899994
 31
0.0
  0
LINE
  5
392
330
1F
100
AcDbEntity
  8
0
 62
     7
100
AcDbLine
 10
215.24707
 20
181.549927
 30
0.0
 11
215.24707
 21
181.899994
 31
0.0
  0
LINE
  5
393
330
1F
100
AcDbEntity
  8
0
 62
     7
100
AcDbLine
 10
216.847046
 20
181.843231
 30
0.0
 11
215.847046
 21
181.843231
 31
0.0
  0
LINE
  5
394
330
1F
100
AcDbEntity
  8
0
 62
     7
100
AcDbLine
 10
217.047058
 20
181.639984
 30
0.0
 11
216.847046
 21
181.843231
 31
0.0
  0
LINE
  5
395
330
1F
100
AcDbEntity
  8
0
 62
     7
100
AcDbLine
 10
214.947052
 20
181.549988
 30
0.0
 11
214.947052
 21
181.649994
 31
0.0
  0
LINE
  5
396
330
1F
100
AcDbEntity
  8
0
 62
     7
100
AcDbLine
 10
216.647064
 20
181.549988
 30
0.0
 11
214.647064
 21
181.549988
 31
0.0
  0
ARC
  5
397
330
1F
100
AcDbEntity
  8
0
 62
     7
100
AcDbCircle
 10
214.647064
 20
182.049988
 30
0.0
 40
0.5
100
AcDbArc
 50
180.000009
 51
269.999997
  0
LINE
  5
398
330
1F
100
AcDbEntity
  8
0
 62
     7
100
AcDbLine
 10
216.647064
 20
181.049988
 30
0.0
 11
217.00061
 21
181.403534
 31
0.0
  0
ARC
  5
399
330
1F
100
AcDbEntity
  8
0
 62
     7
100
AcDbCircle
 10
216.647064
 20
181.049988
 30
0.0
 40
0.5
100
AcDbArc
 50
0.0
 51
89.999559
  0
LINE
  5
39A
330
1F
100
AcDbEntity
  8
0
 62
     7
100
AcDbLine
 10
217.147064
 20
157.949982
 30
0.0
 11
217.147064
 21
181.049988
 31
0.0
  0
ARC
  5
39B
330
1F
100
AcDbEntity
  8
0
 62
     7
100
AcDbCircle
 10
213.647064
 20
182.049988
 30
0.0
 40
0.5
100
AcDbArc
 50
0.0
 51
90.000003
  0
LINE
  5
39C
330
1F
100
AcDbEntity
  8
0
 62
     7
100
AcDbLine
 10
209.647064
 20
160.75
 30
0.0
 11
91.647064
 21
160.75
 31
0.0
  0
LINE
  5
39D
330
1F
100
AcDbEntity
  8
0
 62
     7
100
AcDbLine
 10
139.796906
 20
175.607971
 30
0.0
 11
138.334534
 21
179.545227
 31
0.0
  0
ARC
  5
39E
330
1F
100
AcDbEntity
  8
0
 62
     7
100
AcDbCircle
 10
139.609436
 20
175.53833
 30
0.0
 40
0.2000000029802322
100
AcDbArc
 50
269.999997
 51
20.376
  0
LINE
  5
39F
330
1F
100
AcDbEntity
  8
0
 62
     7
100
AcDbLine
 10
136.684692
 20
175.338348
 30
0.0
 11
139.609436
 21
175.338348
 31
0.0
  0
ARC
  5
3A0
330
1F
100
AcDbEntity
  8
0
 62
     7
100
AcDbCircle
 10
136.684692
 20
175.53833
 30
0.0
 40
0.2000000029802322
100
AcDbArc
 50
159.624007
 51
269.999997
  0
LINE
  5
3A1
330
1F
100
AcDbEntity
  8
0
 62
     7
100
AcDbLine
 10
137.959564
 20
179.545227
 30
0.0
 11
136.497192
 21
175.607971
 31
0.0
  0
ARC
  5
3A2
330
1F
100
AcDbEntity
  8
0
 62
     7
100
AcDbCircle
 10
138.147064
 20
179.475586
 30
0.0
 40
0.2000000029802322
100
AcDbArc
 50
20.376
 51
159.624007
  0
LINE
  5
3A3
330
1F
100
AcDbEntity
  8
0
 62
     7
100
AcDbLine
 10
216.647064
 20
157.949982
 30
0.0
 11
216.897064
 21
157.699982
 31
0.0
  0
LINE
  5
3A4
330
1F
100
AcDbEntity
  8
0
 62
     7
100
AcDbLine
 10
216.897064
 20
157.699982
 30
0.0
 11
217.147064
 21
157.949982
 31
0.0
  0
LINE
  5
3A5
330
1F
100
AcDbEntity
  8
0
 62
     7
100
AcDbLine
 10
216.647064
 20
157.449982
 30
0.0
 11
216.897064
 21
157.699982
 31
0.0
  0
LINE
  5
3A6
330
1F
100
AcDbEntity
  8
0
 62
     7
100
AcDbLine
 10
194.647064
 20
182.549988
 30
0.0
 11
195.647064
 21
182.549988
 31
0.0
  0
LINE
  5
3A7
330
1F
100
AcDbEntity
  8
0
 62
     7
100
AcDbLine
 10
196.647064
 20
182.549988
 30
0.0
 11
195.647064
 21
182.549988
 31
0.0
  0
LINE
  5
3A8
330
1F
100
AcDbEntity
  8
0
 62
     7
100
AcDbLine
 10
213.647064
 20
182.549988
 30
0.0
 11
196.647064
 21
182.549988
 31
0.0
  0
LINE
  5
3A9
330
1F
100
AcDbEntity
  8
0
 62
     7
100
AcDbLine
 10
84.647064
 20
157.949982
 30
0.0
 11
84.397064
 21
157.699982
 31
0.0
  0
LINE
  5
3AA
330
1F
100
AcDbEntity
  8
0
 62
     7
100
AcDbLine
 10
84.647064
 20
181.049988
 30
0.0
 11
84.29351
 21
181.403534
 31
0.0
  0
ARC
  5
3AB
330
1F
100
AcDbEntity
  8
0
 62
     7
100
AcDbCircle
 10
84.647064
 20
181.049988
 30
0.0
 40
0.5
100
AcDbArc
 50
90.000003
 51
179.999554
  0
LINE
  5
3AC
330
1F
100
AcDbEntity
  8
0
 62
     7
100
AcDbLine
 10
84.147064
 20
181.049988
 30
0.0
 11
84.147064
 21
157.949982
 31
0.0
  0
LINE
  5
3AD
330
1F
100
AcDbEntity
  8
0
 62
     7
100
AcDbLine
 10
84.147064
 20
157.949982
 30
0.0
 11
84.397064
 21
157.699982
 31
0.0
  0
LINE
  5
3AE
330
1F
100
AcDbEntity
  8
0
 62
     7
100
AcDbLine
 10
91.647064
 20
157.449982
 30
0.0
 11
84.647064
 21
157.449982
 31
0.0
  0
LINE
  5
3AF
330
1F
100
AcDbEntity
  8
0
 62
     7
100
AcDbLine
 10
84.397064
 20
157.699982
 30
0.0
 11
84.647064
 21
157.449982
 31
0.0
  0
LINE
  5
3B0
330
1F
100
AcDbEntity
  8
0
 62
     7
100
AcDbLine
 10
92.147064
 20
157.949982
 30
0.0
 11
92.147064
 21
160.75
 31
0.0
  0
LINE
  5
3B1
330
1F
100
AcDbEntity
  8
0
 62
     7
100
AcDbLine
 10
209.147064
 20
157.949982
 30
0.0
 11
209.147064
 21
160.75
 31
0.0
  0
LINE
  5
3B2
330
1F
100
AcDbEntity
  8
0
 62
     7
100
AcDbLine
 10
216.647064
 20
157.449982
 30
0.0
 11
209.647064
 21
157.449982
 31
0.0
  0
LINE
  5
3B3
330
1F
100
AcDbEntity
  8
0
 62
     7
100
AcDbLine
 10
195.647064
 20
181.549988
 30
0.0
 11
181.647064
 21
181.549988
 31
0.0
  0
LINE
  5
3B4
330
1F
100
AcDbEntity
  8
0
 62
     7
100
AcDbLine
 10
181.347046
 20
180.049988
 30
0.0
 11
181.347046
 21
181.25
 31
0.0
  0
ARC
  5
3B5
330
1F
100
AcDbEntity
  8
0
 62
     7
100
AcDbCircle
 10
179.147064
 20
180.049988
 30
0.0
 40
2.200000047683716
100
AcDbArc
 50
180.000009
 51
360.0
  0
LINE
  5
3B6
330
1F
100
AcDbEntity
  8
0
 62
     7
100
AcDbLine
 10
176.947052
 20
181.25
 30
0.0
 11
176.947052
 21
180.049988
 31
0.0
  0
LINE
  5
3B7
330
1F
100
AcDbEntity
  8
0
 62
     7
100
AcDbLine
 10
176.647064
 20
181.549988
 30
0.0
 11
102.647064
 21
181.549988
 31
0.0
  0
LINE
  5
3B8
330
1F
100
AcDbEntity
  8
0
 62
     7
100
AcDbLine
 10
102.347061
 20
180.049988
 30
0.0
 11
102.347061
 21
181.25
 31
0.0
  0
ARC
  5
3B9
330
1F
100
AcDbEntity
  8
0
 62
     7
100
AcDbCircle
 10
100.147064
 20
180.049988
 30
0.0
 40
2.200000047683716
100
AcDbArc
 50
180.000009
 51
360.0
  0
ARC
  5
3BA
330
1F
100
AcDbEntity
  8
0
 62
     7
100
AcDbCircle
 10
103.813126
 20
179.549988
 30
0.0
 40
1.0
100
AcDbArc
 50
90.000003
 51
172.233561
  0
LINE
  5
3BB
330
1F
100
AcDbEntity
  8
0
 62
     7
100
AcDbLine
 10
103.813126
 20
180.549988
 30
0.0
 11
117.147064
 21
180.549988
 31
0.0
  0
ARC
  5
3BC
330
1F
100
AcDbEntity
  8
0
 62
     7
100
AcDbCircle
 10
117.147064
 20
177.549988
 30
0.0
 40
3.0
100
AcDbArc
 50
0.0
 51
90.000003
  0
LINE
  5
3BD
330
1F
100
AcDbEntity
  8
0
 62
     7
100
AcDbLine
 10
120.147064
 20
164.75
 30
0.0
 11
120.147064
 21
177.549988
 31
0.0
  0
ARC
  5
3BE
330
1F
100
AcDbEntity
  8
0
 62
     7
100
AcDbCircle
 10
117.147064
 20
164.75
 30
0.0
 40
3.0
100
AcDbArc
 50
269.999997
 51
360.0
  0
LINE
  5
3BF
330
1F
100
AcDbEntity
  8
0
 62
     7
100
AcDbLine
 10
117.147064
 20
161.75
 30
0.0
 11
103.147064
 21
161.75
 31
0.0
  0
ARC
  5
3C0
330
1F
100
AcDbEntity
  8
0
 62
     7
100
AcDbCircle
 10
103.147064
 20
164.75
 30
0.0
 40
3.0
100
AcDbArc
 50
180.000009
 51
269.999997
  0
LINE
  5
3C1
330
1F
100
AcDbEntity
  8
0
 62
     7
100
AcDbLine
 10
100.147064
 20
176.487701
 30
0.0
 11
100.147064
 21
164.75
 31
0.0
  0
ARC
  5
3C2
330
1F
100
AcDbEntity
  8
0
 62
     7
100
AcDbCircle
 10
101.147064
 20
176.487701
 30
0.0
 40
1.0
100
AcDbArc
 50
105.680348
 51
180.000009
  0
LINE
  5
3C3
330
1F
100
AcDbEntity
  8
0
 62
     7
100
AcDbLine
 10
97.947067
 20
181.25
 30
0.0
 11
97.947067
 21
180.049988
 31
0.0
  0
LINE
  5
3C4
330
1F
100
AcDbEntity
  8
0
 62
     7
100
AcDbLine
 10
97.647064
 20
181.549988
 30
0.0
 11
97.147064
 21
181.549988
 31
0.0
  0
LINE
  5
3C5
330
1F
100
AcDbEntity
  8
0
 62
     7
100
AcDbLine
 10
96.147064
 20
182.549988
 30
0.0
 11
87.647064
 21
182.549988
 31
0.0
  0
LINE
  5
3C6
330
1F
100
AcDbEntity
  8
0
 62
     7
100
AcDbLine
 10
86.647064
 20
181.549988
 30
0.0
 11
84.647064
 21
181.549988
 31
0.0
  0
LINE
  5
3C7
330
1F
100
AcDbEntity
  8
0
 62
     7
100
AcDbLine
 10
159.147064
 20
180.549988
 30
0.0
 11
173.147064
 21
180.549988
 31
0.0
  0
ARC
  5
3C8
330
1F
100
AcDbEntity
  8
0
 62
     7
100
AcDbCircle
 10
173.147064
 20
177.549988
 30
0.0
 40
3.0
100
AcDbArc
 50
0.0
 51
90.000003
  0
LINE
  5
3C9
330
1F
100
AcDbEntity
  8
0
 62
     7
100
AcDbLine
 10
176.147064
 20
164.75
 30
0.0
 11
176.147064
 21
177.549988
 31
0.0
  0
ARC
  5
3CA
330
1F
100
AcDbEntity
  8
0
 62
     7
100
AcDbCircle
 10
173.147064
 20
164.75
 30
0.0
 40
3.0
100
AcDbArc
 50
269.999997
 51
360.0
  0
LINE
  5
3CB
330
1F
100
AcDbEntity
  8
0
 62
     7
100
AcDbLine
 10
173.147064
 20
161.75
 30
0.0
 11
159.147064
 21
161.75
 31
0.0
  0
ARC
  5
3CC
330
1F
100
AcDbEntity
  8
0
 62
     7
100
AcDbCircle
 10
159.147064
 20
164.75
 30
0.0
 40
3.0
100
AcDbArc
 50
180.000009
 51
269.999997
  0
LINE
  5
3CD
330
1F
100
AcDbEntity
  8
0
 62
     7
100
AcDbLine
 10
156.147064
 20
177.549988
 30
0.0
 11
156.147064
 21
164.75
 31
0.0
  0
ARC
  5
3CE
330
1F
100
AcDbEntity
  8
0
 62
     7
100
AcDbCircle
 10
159.147064
 20
177.549988
 30
0.0
 40
3.0
100
AcDbArc
 50
90.000003
 51
180.000009
  0
LINE
  5
3CF
330
1F
100
AcDbEntity
  8
0
 62
     7
100
AcDbLine
 10
97.147064
 20
182.549988
 30
0.0
 11
96.147064
 21
182.549988
 31
0.0
  0
LINE
  5
3D0
330
1F
100
AcDbEntity
  8
0
 62
     7
100
AcDbLine
 10
98.147064
 20
182.549988
 30
0.0
 11
97.147064
 21
182.549988
 31
0.0
  0
LINE
  5
3D1
330
1F
100
AcDbEntity
  8
0
 62
     7
100
AcDbLine
 10
93.397064
 20
160.350006
 30
0.0
 11
93.397064
 21
160.75
 31
0.0
  0
LINE
  5
3D2
330
1F
100
AcDbEntity
  8
0
 62
     7
100
AcDbLine
 10
207.897064
 20
160.350006
 30
0.0
 11
207.897064
 21
160.75
 31
0.0
  0
LINE
  5
3D3
330
1F
100
AcDbEntity
  8
0
 62
     7
100
AcDbLine
 10
107.87027
 20
160.600006
 30
0.0
 11
107.670265
 21
160.600006
 31
0.0
  0
LINE
  5
3D4
330
1F
100
AcDbEntity
  8
0
 62
     7
100
AcDbLine
 10
104.623856
 20
160.600006
 30
0.0
 11
107.670265
 21
160.600006
 31
0.0
  0
LINE
  5
3D5
330
1F
100
AcDbEntity
  8
0
 62
     7
100
AcDbLine
 10
104.623856
 20
160.600006
 30
0.0
 11
104.423859
 21
160.600006
 31
0.0
  0
LINE
  5
3D6
330
1F
100
AcDbEntity
  8
0
 62
     7
100
AcDbLine
 10
193.62384
 20
160.600006
 30
0.0
 11
193.423859
 21
160.600006
 31
0.0
  0
LINE
  5
3D7
330
1F
100
AcDbEntity
  8
0
 62
     7
100
AcDbLine
 10
196.87027
 20
160.600006
 30
0.0
 11
196.670258
 21
160.600006
 31
0.0
  0
LINE
  5
3D8
330
1F
100
AcDbEntity
  8
0
 62
     7
100
AcDbLine
 10
193.62384
 20
160.600006
 30
0.0
 11
196.670258
 21
160.600006
 31
0.0
  0
ARC
  5
3D9
330
1F
100
AcDbEntity
  8
0
 62
     7
100
AcDbCircle
 10
196.647064
 20
182.049988
 30
0.0
 40
0.5
100
AcDbArc
 50
90.000003
 51
180.000009
  0
ARC
  5
3DA
330
1F
100
AcDbEntity
  8
0
 62
     7
100
AcDbCircle
 10
91.647064
 20
157.949982
 30
0.0
 40
0.5
100
AcDbArc
 50
269.999997
 51
360.0
  0
ARC
  5
3DB
330
1F
100
AcDbEntity
  8
0
 62
     7
100
AcDbCircle
 10
209.647064
 20
157.949982
 30
0.0
 40
0.5
100
AcDbArc
 50
180.000009
 51
269.999997
  0
ARC
  5
3DC
330
1F
100
AcDbEntity
  8
0
 62
     7
100
AcDbCircle
 10
195.647064
 20
182.049988
 30
0.0
 40
0.5
100
AcDbArc
 50
269.999997
 51
360.0
  0
LINE
  5
3DD
330
1F
100
AcDbEntity
  8
0
 62
     7
100
AcDbLine
 10
98.047066
 20
181.549988
 30
0.0
 11
97.647064
 21
181.549988
 31
0.0
  0
LINE
  5
3DE
330
1F
100
AcDbEntity
  8
0
 62
     7
100
AcDbLine
 10
98.047066
 20
181.549988
 30
0.0
 11
98.147064
 21
181.549988
 31
0.0
  0
ARC
  5
3DF
330
1F
100
AcDbEntity
  8
0
 62
     7
100
AcDbCircle
 10
181.647064
 20
181.25
 30
0.0
 40
0.300000011920929
100
AcDbArc
 50
90.000003
 51
180.000009
  0
ARC
  5
3E0
330
1F
100
AcDbEntity
  8
0
 62
     7
100
AcDbCircle
 10
176.647064
 20
181.25
 30
0.0
 40
0.300000011920929
100
AcDbArc
 50
0.0
 51
90.000003
  0
ARC
  5
3E1
330
1F
100
AcDbEntity
  8
0
 62
     7
100
AcDbCircle
 10
102.647064
 20
181.25
 30
0.0
 40
0.300000011920929
100
AcDbArc
 50
90.000003
 51
180.000009
  0
ARC
  5
3E2
330
1F
100
AcDbEntity
  8
0
 62
     7
100
AcDbCircle
 10
100.147064
 20
180.049988
 30
0.0
 40
2.700000047683716
100
AcDbArc
 50
285.680336
 51
352.233566
  0
CIRCLE
  5
3E3
330
1F
100
AcDbEntity
  8
0
 62
     7
100
AcDbCircle
 10
110.147064
 20
173.149994
 30
0.0
 40
4.5
  0
ARC
  5
3E4
330
1F
100
AcDbEntity
  8
0
 62
     7
100
AcDbCircle
 10
97.647064
 20
181.25
 30
0.0
 40
0.300000011920929
100
AcDbArc
 50
0.0
 51
90.000003
  0
ARC
  5
3E5
330
1F
100
AcDbEntity
  8
0
 62
     7
100
AcDbCircle
 10
97.147064
 20
182.049988
 30
0.0
 40
0.5
100
AcDbArc
 50
180.000009
 51
269.999997
  0
ARC
  5
3E6
330
1F
100
AcDbEntity
  8
0
 62
     7
100
AcDbCircle
 10
96.147064
 20
182.049988
 30
0.0
 40
0.5
100
AcDbArc
 50
0.0
 51
90.000003
  0
ARC
  5
3E7
330
1F
100
AcDbEntity
  8
0
 62
     7
100
AcDbCircle
 10
87.647064
 20
182.049988
 30
0.0
 40
0.5
100
AcDbArc
 50
90.000003
 51
180.000009
  0
ARC
  5
3E8
330
1F
100
AcDbEntity
  8
0
 62
     7
100
AcDbCircle
 10
86.647064
 20
182.049988
 30
0.0
 40
0.5
100
AcDbArc
 50
269.999997
 51
360.0
  0
CIRCLE
  5
3E9
330
1F
100
AcDbEntity
  8
0
 62
     7
100
AcDbCircle
 10
166.147064
 20
173.149994
 30
0.0
 40
4.5
  0
LINE
  5
3EA
330
1F
100
AcDbEntity
  8
0
 62
     7
100
AcDbLine
 10
86.347061
 20
181.549988
 30
0.0
 11
86.347061
 21
181.649994
 31
0.0
  0
LINE
  5
3EB
330
1F
100
AcDbEntity
  8
0
 62
     7
100
AcDbLine
 10
208.097046
 20
160.350006
 30
0.0
 11
209.097046
 21
160.350006
 31
0.0
  0
LINE
  5
3EC
330
1F
100
AcDbEntity
  8
0
 62
     7
100
AcDbLine
 10
208.097046
 20
160.350006
 30
0.0
 11
196.670258
 21
160.350006
 31
0.0
  0
LINE
  5
3ED
330
1F
100
AcDbEntity
  8
0
 62
     7
100
AcDbLine
 10
193.62384
 20
160.350006
 30
0.0
 11
107.670265
 21
160.350006
 31
0.0
  0
LINE
  5
3EE
330
1F
100
AcDbEntity
  8
0
 62
     7
100
AcDbLine
 10
104.623856
 20
160.350006
 30
0.0
 11
93.197067
 21
160.350006
 31
0.0
  0
LINE
  5
3EF
330
1F
100
AcDbEntity
  8
0
 62
     7
100
AcDbLine
 10
92.197067
 20
160.350006
 30
0.0
 11
93.197067
 21
160.350006
 31
0.0
  0
LINE
  5
3F0
330
1F
100
AcDbEntity
  8
0
 62
     7
100
AcDbLine
 10
208.097046
 20
157.850006
 30
0.0
 11
93.197067
 21
157.850006
 31
0.0
  0
LINE
  5
3F1
330
1F
100
AcDbEntity
  8
0
 62
     7
100
AcDbLine
 10
98.147064
 20
180.049988
 30
0.0
 11
98.147064
 21
182.049988
 31
0.0
  0
LINE
  5
3F2
330
1F
100
AcDbEntity
  8
0
 62
     7
100
AcDbLine
 10
98.147064
 20
182.549988
 30
0.0
 11
98.147064
 21
182.049988
 31
0.0
  0
LINE
  5
3F3
330
1F
100
AcDbEntity
  8
0
 62
     7
100
AcDbLine
 10
98.147064
 20
183.549988
 30
0.0
 11
98.147064
 21
182.549988
 31
0.0
  0
LINE
  5
3F4
330
1F
100
AcDbEntity
  8
0
 62
     7
100
AcDbLine
 10
194.647064
 20
181.549988
 30
0.0
 11
194.647064
 21
182.049988
 31
0.0
  0
LINE
  5
3F5
330
1F
100
AcDbEntity
  8
0
 62
     7
100
AcDbLine
 10
194.647064
 20
182.549988
 30
0.0
 11
194.647064
 21
182.049988
 31
0.0
  0
LINE
  5
3F6
330
1F
100
AcDbEntity
  8
0
 62
     7
100
AcDbLine
 10
194.647064
 20
183.549988
 30
0.0
 11
194.647064
 21
182.549988
 31
0.0
  0
ARC
  5
3F7
330
1F
100
AcDbEntity
  8
0
 62
     7
100
AcDbCircle
 10
100.147064
 20
180.049988
 30
0.0
 40
2.0
100
AcDbArc
 50
180.000009
 51
360.0
  0
LINE
  5
3F8
330
1F
100
AcDbEntity
  8
0
 62
     7
100
AcDbLine
 10
102.147064
 20
180.049988
 30
0.0
 11
102.147064
 21
181.549988
 31
0.0
  0
LINE
  5
3F9
330
1F
100
AcDbEntity
  8
0
 62
     7
100
AcDbLine
 10
102.647064
 20
181.549988
 30
0.0
 11
102.147064
 21
181.549988
 31
0.0
  0
LINE
  5
3FA
330
1F
100
AcDbEntity
  8
0
 62
     7
100
AcDbLine
 10
177.147064
 20
181.549988
 30
0.0
 11
176.647064
 21
181.549988
 31
0.0
  0
LINE
  5
3FB
330
1F
100
AcDbEntity
  8
0
 62
     7
100
AcDbLine
 10
177.147064
 20
180.049988
 30
0.0
 11
177.147064
 21
181.549988
 31
0.0
  0
ARC
  5
3FC
330
1F
100
AcDbEntity
  8
0
 62
     7
100
AcDbCircle
 10
179.147064
 20
180.049988
 30
0.0
 40
2.0
100
AcDbArc
 50
180.000009
 51
360.0
  0
LINE
  5
3FD
330
1F
100
AcDbEntity
  8
0
 62
     7
100
AcDbLine
 10
181.147064
 20
180.049988
 30
0.0
 11
181.147064
 21
181.549988
 31
0.0
  0
LINE
  5
3FE
330
1F
100
AcDbEntity
  8
0
 62
     7
100
AcDbLine
 10
181.647064
 20
181.549988
 30
0.0
 11
181.147064
 21
181.549988
 31
0.0
  0
LINE
  5
3FF
330
1F
100
AcDbEntity
  8
0
 62
     7
100
AcDbLine
 10
92.197067
 20
157.850006
 30
0.0
 11
92.197067
 21
160.350006
 31
0.0
  0
LINE
  5
400
330
1F
100
AcDbEntity
  8
0
 62
     7
100
AcDbLine
 10
209.097046
 20
157.850006
 30
0.0
 11
209.097046
 21
160.350006
 31
0.0
  0
LINE
  5
401
330
1F
100
AcDbEntity
  8
0
 62
     7
100
AcDbLine
 10
208.097046
 20
157.850006
 30
0.0
 11
209.097046
 21
157.850006
 31
0.0
  0
LINE
  5
402
330
1F
100
AcDbEntity
  8
0
 62
     7
100
AcDbLine
 10
92.197067
 20
157.850006
 30
0.0
 11
93.197067
 21
157.850006
 31
0.0
  0
LINE
  5
403
330
1F
100
AcDbEntity
  8
0
 62
     7
100
AcDbLine
 10
194.647064
 20
182.549988
 30
0.0
 11
98.147064
 21
182.549988
 31
0.0
  0
CIRCLE
  5
404
330
1F
100
AcDbEntity
  8
0
 62
     7
100
AcDbCircle
 10
110.147064
 20
173.149994
 30
0.0
 40
4.0
  0
CIRCLE
  5
405
330
1F
100
AcDbEntity
  8
0
 62
     7
100
AcDbCircle
 10
166.147064
 20
173.149994
 30
0.0
 40
4.0
  0
LINE
  5
406
330
1F
100
AcDbEntity
  8
0
 62
     7
100
AcDbLine
 10
86.047066
 20
181.899994
 30
0.0
 11
86.047066
 21
181.549927
 31
0.0
  0
CIRCLE
  5
407
330
1F
100
AcDbEntity
  8
0
 62
     7
100
AcDbCircle
 10
179.147064
 20
180.049988
 30
0.0
 40
1.475000023841858
  0
CIRCLE
  5
408
330
1F
100
AcDbEntity
  8
0
 62
     7
100
AcDbCircle
 10
100.147064
 20
180.049988
 30
0.0
 40
1.475000023841858
  0
LINE
  5
409
330
1F
100
AcDbEntity
  8
0
 62
     7
100
AcDbLine
 10
85.447067
 20
181.899994
 30
0.0
 11
85.447067
 21
181.843231
 31
0.0
  0
LINE
  5
40A
330
1F
100
AcDbEntity
  8
0
 62
     7
100
AcDbLine
 10
84.447067
 20
181.843231
 30
0.0
 11
85.447067
 21
181.843231
 31
0.0
  0
LINE
  5
40B
330
1F
100
AcDbEntity
  8
0
 62
     7
100
AcDbLine
 10
84.447067
 20
181.843231
 30
0.0
 11
84.447067
 21
181.509216
 31
0.0
  0
LINE
  5
40C
330
1F
100
AcDbEntity
  8
0
 62
     7
100
AcDbLine
 10
86.047066
 20
181.899994
 30
0.0
 11
85.447067
 21
181.899994
 31
0.0
  0
LINE
  5
40D
330
1F
100
AcDbEntity
  8
0
 62
     7
100
AcDbLine
 10
84.447067
 20
181.843231
 30
0.0
 11
85.447067
 21
181.843231
 31
0.0
  0
CIRCLE
  5
40E
330
1F
100
AcDbEntity
  8
0
 62
     7
100
AcDbCircle
 10
110.147064
 20
173.149994
 30
0.0
 40
2.549999952316284
  0
CIRCLE
  5
40F
330
1F
100
AcDbEntity
  8
0
 62
     7
100
AcDbCircle
 10
166.147064
 20
173.149994
 30
0.0
 40
2.549999952316284
  0
LINE
  5
410
330
1F
100
AcDbEntity
  8
0
 62
     7
100
AcDbLine
 10
84.247063
 20
181.639984
 30
0.0
 11
84.447067
 21
181.843231
 31
0.0
  0
LINE
  5
411
330
1F
100
AcDbEntity
  8
0
 62
     7
100
AcDbLine
 10
84.247063
 20
181.639984
 30
0.0
 11
84.247063
 21
181.349884
 31
0.0
  0
LINE
  5
412
330
1F
100
AcDbEntity
  8
0
 62
     7
100
AcDbLine
 10
178.947052
 20
181.149994
 30
0.0
 11
179.347046
 21
181.149994
 31
0.0
  0
LINE
  5
413
330
1F
100
AcDbEntity
  8
0
 62
     7
100
AcDbLine
 10
178.947052
 20
181.149994
 30
0.0
 11
178.947052
 21
180.5
 31
0.0
  0
ARC
  5
414
330
1F
100
AcDbEntity
  8
0
 62
     7
100
AcDbCircle
 10
178.697052
 20
180.5
 30
0.0
 40
0.25
100
AcDbArc
 50
269.999997
 51
360.0
  0
LINE
  5
415
330
1F
100
AcDbEntity
  8
0
 62
     7
100
AcDbLine
 10
178.697052
 20
180.25
 30
0.0
 11
178.047058
 21
180.25
 31
0.0
  0
LINE
  5
416
330
1F
100
AcDbEntity
  8
0
 62
     7
100
AcDbLine
 10
178.047058
 20
180.25
 30
0.0
 11
178.047058
 21
179.850006
 31
0.0
  0
LINE
  5
417
330
1F
100
AcDbEntity
  8
0
 62
     7
100
AcDbLine
 10
178.697052
 20
179.850006
 30
0.0
 11
178.047058
 21
179.850006
 31
0.0
  0
ARC
  5
418
330
1F
100
AcDbEntity
  8
0
 62
     7
100
AcDbCircle
 10
178.697052
 20
179.600006
 30
0.0
 40
0.25
100
AcDbArc
 50
0.0
 51
90.000003
  0
LINE
  5
419
330
1F
100
AcDbEntity
  8
0
 62
     7
100
AcDbLine
 10
178.947052
 20
178.949982
 30
0.0
 11
178.947052
 21
179.600006
 31
0.0
  0
LINE
  5
41A
330
1F
100
AcDbEntity
  8
0
 62
     7
100
AcDbLine
 10
178.947052
 20
178.949982
 30
0.0
 11
179.347046
 21
178.949982
 31
0.0
  0
LINE
  5
41B
330
1F
100
AcDbEntity
  8
0
 62
     7
100
AcDbLine
 10
179.347046
 20
178.949982
 30
0.0
 11
179.347046
 21
179.600006
 31
0.0
  0
ARC
  5
41C
330
1F
100
AcDbEntity
  8
0
 62
     7
100
AcDbCircle
 10
179.597046
 20
179.600006
 30
0.0
 40
0.25
100
AcDbArc
 50
90.000003
 51
180.000009
  0
LINE
  5
41D
330
1F
100
AcDbEntity
  8
0
 62
     7
100
AcDbLine
 10
179.597046
 20
179.850006
 30
0.0
 11
180.24704
 21
179.850006
 31
0.0
  0
LINE
  5
41E
330
1F
100
AcDbEntity
  8
0
 62
     7
100
AcDbLine
 10
180.24704
 20
180.25
 30
0.0
 11
180.24704
 21
179.850006
 31
0.0
  0
LINE
  5
41F
330
1F
100
AcDbEntity
  8
0
 62
     7
100
AcDbLine
 10
179.597046
 20
180.25
 30
0.0
 11
180.24704
 21
180.25
 31
0.0
  0
ARC
  5
420
330
1F
100
AcDbEntity
  8
0
 62
     7
100
AcDbCircle
 10
179.597046
 20
180.5
 30
0.0
 40
0.25
100
AcDbArc
 50
180.000009
 51
269.999997
  0
LINE
  5
421
330
1F
100
AcDbEntity
  8
0
 62
     7
100
AcDbLine
 10
179.347046
 20
181.149994
 30
0.0
 11
179.347046
 21
180.5
 31
0.0
  0
LINE
  5
422
330
1F
100
AcDbEntity
  8
0
 62
     7
100
AcDbLine
 10
99.94706
 20
181.149994
 30
0.0
 11
100.347061
 21
181.149994
 31
0.0
  0
LINE
  5
423
330
1F
100
AcDbEntity
  8
0
 62
     7
100
AcDbLine
 10
99.94706
 20
181.149994
 30
0.0
 11
99.94706
 21
180.5
 31
0.0
  0
ARC
  5
424
330
1F
100
AcDbEntity
  8
0
 62
     7
100
AcDbCircle
 10
99.69706
 20
180.5
 30
0.0
 40
0.25
100
AcDbArc
 50
269.999997
 51
360.0
  0
LINE
  5
425
330
1F
100
AcDbEntity
  8
0
 62
     7
100
AcDbLine
 10
99.69706
 20
180.25
 30
0.0
 11
99.047066
 21
180.25
 31
0.0
  0
LINE
  5
426
330
1F
100
AcDbEntity
  8
0
 62
     7
100
AcDbLine
 10
99.047066
 20
180.25
 30
0.0
 11
99.047066
 21
179.850006
 31
0.0
  0
LINE
  5
427
330
1F
100
AcDbEntity
  8
0
 62
     7
100
AcDbLine
 10
99.69706
 20
179.850006
 30
0.0
 11
99.047066
 21
179.850006
 31
0.0
  0
ARC
  5
428
330
1F
100
AcDbEntity
  8
0
 62
     7
100
AcDbCircle
 10
99.69706
 20
179.600006
 30
0.0
 40
0.25
100
AcDbArc
 50
0.0
 51
90.000003
  0
LINE
  5
429
330
1F
100
AcDbEntity
  8
0
 62
     7
100
AcDbLine
 10
99.94706
 20
178.949982
 30
0.0
 11
99.94706
 21
179.600006
 31
0.0
  0
LINE
  5
42A
330
1F
100
AcDbEntity
  8
0
 62
     7
100
AcDbLine
 10
99.94706
 20
178.949982
 30
0.0
 11
100.347061
 21
178.949982
 31
0.0
  0
LINE
  5
42B
330
1F
100
AcDbEntity
  8
0
 62
     7
100
AcDbLine
 10
100.347061
 20
178.949982
 30
0.0
 11
100.347061
 21
179.600006
 31
0.0
  0
ARC
  5
42C
330
1F
100
AcDbEntity
  8
0
 62
     7
100
AcDbCircle
 10
100.597061
 20
179.600006
 30
0.0
 40
0.25
100
AcDbArc
 50
90.000003
 51
180.000009
  0
LINE
  5
42D
330
1F
100
AcDbEntity
  8
0
 62
     7
100
AcDbLine
 10
100.597061
 20
179.850006
 30
0.0
 11
101.247063
 21
179.850006
 31
0.0
  0
LINE
  5
42E
330
1F
100
AcDbEntity
  8
0
 62
     7
100
AcDbLine
 10
101.247063
 20
180.25
 30
0.0
 11
101.247063
 21
179.850006
 31
0.0
  0
LINE
  5
42F
330
1F
100
AcDbEntity
  8
0
 62
     7
100
AcDbLine
 10
100.597061
 20
180.25
 30
0.0
 11
101.247063
 21
180.25
 31
0.0
  0
ARC
  5
430
330
1F
100
AcDbEntity
  8
0
 62
     7
100
AcDbCircle
 10
100.597061
 20
180.5
 30
0.0
 40
0.25
100
AcDbArc
 50
180.000009
 51
269.999997
  0
LINE
  5
431
330
1F
100
AcDbEntity
  8
0
 62
     7
100
AcDbLine
 10
100.347061
 20
181.149994
 30
0.0
 11
100.347061
 21
180.5
 31
0.0
  0
LINE
  5
432
330
1F
100
AcDbEntity
  8
0
 62
     7
100
AcDbLine
 10
328.547028
 20
81.649994
 30
0.0
 11
325.147034
 21
81.649994
 31
0.0
  0
LINE
  5
433
330
1F
100
AcDbEntity
  8
0
 62
     7
100
AcDbLine
 10
325.147034
 20
81.649994
 30
0.0
 11
321.74704
 21
81.649994
 31
0.0
  0
LINE
  5
434
330
1F
100
AcDbEntity
  8
0
 62
     7
100
AcDbLine
 10
245.74707
 20
170.199982
 30
0.0
 11
245.74707
 21
170.049957
 31
0.0
  0
LINE
  5
435
330
1F
100
AcDbEntity
  8
0
 62
     7
100
AcDbLine
 10
247.947052
 20
170.199982
 30
0.0
 11
247.947052
 21
170.049957
 31
0.0
  0
LINE
  5
436
330
1F
100
AcDbEntity
  8
0
 62
     7
100
AcDbLine
 10
250.147064
 20
170.199982
 30
0.0
 11
250.147064
 21
170.049957
 31
0.0
  0
LINE
  5
437
330
1F
100
AcDbEntity
  8
0
 62
     7
100
AcDbLine
 10
245.74707
 20
165.649994
 30
0.0
 11
245.74707
 21
162.514374
 31
0.0
  0
LINE
  5
438
330
1F
100
AcDbEntity
  8
0
 62
     7
100
AcDbLine
 10
245.74707
 20
162.514374
 30
0.0
 11
245.74707
 21
161.9375
 31
0.0
  0
LINE
  5
439
330
1F
100
AcDbEntity
  8
0
 62
     7
100
AcDbLine
 10
246.74707
 20
162.0
 30
0.0
 11
246.74707
 21
162.569244
 31
0.0
  0
LINE
  5
43A
330
1F
100
AcDbEntity
  8
0
 62
     7
100
AcDbLine
 10
246.74707
 20
162.569244
 30
0.0
 11
246.74707
 21
165.649994
 31
0.0
  0
LINE
  5
43B
330
1F
100
AcDbEntity
  8
0
 62
     7
100
AcDbLine
 10
247.947052
 20
165.649994
 30
0.0
 11
247.947052
 21
162.63504
 31
0.0
  0
LINE
  5
43C
330
1F
100
AcDbEntity
  8
0
 62
     7
100
AcDbLine
 10
247.947052
 20
162.63504
 30
0.0
 11
247.947052
 21
162.074982
 31
0.0
  0
LINE
  5
43D
330
1F
100
AcDbEntity
  8
0
 62
     7
100
AcDbLine
 10
248.947052
 20
162.137482
 30
0.0
 11
248.947052
 21
162.689911
 31
0.0
  0
LINE
  5
43E
330
1F
100
AcDbEntity
  8
0
 62
     7
100
AcDbLine
 10
248.947052
 20
162.689911
 30
0.0
 11
248.947052
 21
165.649994
 31
0.0
  0
LINE
  5
43F
330
1F
100
AcDbEntity
  8
0
 62
     7
100
AcDbLine
 10
250.147064
 20
165.649994
 30
0.0
 11
250.147064
 21
162.755707
 31
0.0
  0
LINE
  5
440
330
1F
100
AcDbEntity
  8
0
 62
     7
100
AcDbLine
 10
250.147064
 20
162.755707
 30
0.0
 11
250.147064
 21
162.212494
 31
0.0
  0
LINE
  5
441
330
1F
100
AcDbEntity
  8
0
 62
     7
100
AcDbLine
 10
251.147064
 20
162.274994
 30
0.0
 11
251.147064
 21
162.810577
 31
0.0
  0
LINE
  5
442
330
1F
100
AcDbEntity
  8
0
 62
     7
100
AcDbLine
 10
251.147064
 20
162.810577
 30
0.0
 11
251.147064
 21
165.649994
 31
0.0
  0
LINE
  5
443
330
1F
100
AcDbEntity
  8
0
 62
     7
100
AcDbLine
 10
253.147064
 20
162.920258
 30
0.0
 11
253.147064
 21
162.399994
 31
0.0
  0
LINE
  5
444
330
1F
100
AcDbEntity
  8
0
 62
     7
100
AcDbLine
 10
253.147064
 20
170.899994
 30
0.0
 11
253.147064
 21
162.920258
 31
0.0
  0
LINE
  5
445
330
1F
100
AcDbEntity
  8
0
 62
     7
100
AcDbLine
 10
251.147064
 20
167.649994
 30
0.0
 11
251.147064
 21
171.024994
 31
0.0
  0
LINE
  5
446
330
1F
100
AcDbEntity
  8
0
 62
     7
100
AcDbLine
 10
250.147064
 20
171.087494
 30
0.0
 11
250.147064
 21
167.649994
 31
0.0
  0
LINE
  5
447
330
1F
100
AcDbEntity
  8
0
 62
     7
100
AcDbLine
 10
248.947052
 20
167.649994
 30
0.0
 11
248.947052
 21
171.162506
 31
0.0
  0
LINE
  5
448
330
1F
100
AcDbEntity
  8
0
 62
     7
100
AcDbLine
 10
247.947052
 20
171.225006
 30
0.0
 11
247.947052
 21
167.649994
 31
0.0
  0
LINE
  5
449
330
1F
100
AcDbEntity
  8
0
 62
     7
100
AcDbLine
 10
246.74707
 20
167.649994
 30
0.0
 11
246.74707
 21
171.299988
 31
0.0
  0
LINE
  5
44A
330
1F
100
AcDbEntity
  8
0
 62
     7
100
AcDbLine
 10
245.74707
 20
171.362488
 30
0.0
 11
245.74707
 21
167.649994
 31
0.0
  0
LINE
  5
44B
330
1F
100
AcDbEntity
  8
0
 62
     7
100
AcDbLine
 10
246.74707
 20
165.649994
 30
0.0
 11
245.74707
 21
165.649994
 31
0.0
  0
LINE
  5
44C
330
1F
100
AcDbEntity
  8
0
 62
     7
100
AcDbLine
 10
246.74707
 20
167.649994
 30
0.0
 11
245.74707
 21
167.649994
 31
0.0
  0
LINE
  5
44D
330
1F
100
AcDbEntity
  8
0
 62
     7
100
AcDbLine
 10
248.947052
 20
167.649994
 30
0.0
 11
247.947052
 21
167.649994
 31
0.0
  0
LINE
  5
44E
330
1F
100
AcDbEntity
  8
0
 62
     7
100
AcDbLine
 10
251.147064
 20
167.649994
 30
0.0
 11
250.147064
 21
167.649994
 31
0.0
  0
LINE
  5
44F
330
1F
100
AcDbEntity
  8
0
 62
     7
100
AcDbLine
 10
251.147064
 20
165.649994
 30
0.0
 11
250.147064
 21
165.649994
 31
0.0
  0
LINE
  5
450
330
1F
100
AcDbEntity
  8
0
 62
     7
100
AcDbLine
 10
248.947052
 20
165.649994
 30
0.0
 11
247.947052
 21
165.649994
 31
0.0
  0
LINE
  5
451
330
1F
100
AcDbEntity
  8
0
 62
     7
100
AcDbLine
 10
241.147064
 20
171.649994
 30
0.0
 11
241.147064
 21
162.262085
 31
0.0
  0
LINE
  5
452
330
1F
100
AcDbEntity
  8
0
 62
     7
100
AcDbLine
 10
241.147064
 20
162.262085
 30
0.0
 11
241.147064
 21
161.649994
 31
0.0
  0
LINE
  5
453
330
1F
100
AcDbEntity
  8
0
 62
     7
100
AcDbLine
 10
240.147064
 20
171.949982
 30
0.0
 11
240.147064
 21
161.99881
 31
0.0
  0
LINE
  5
454
330
1F
100
AcDbEntity
  8
0
 62
     7
100
AcDbLine
 10
240.147064
 20
161.99881
 30
0.0
 11
240.147064
 21
161.350006
 31
0.0
  0
LINE
  5
455
330
1F
100
AcDbEntity
  8
0
 62
     7
100
AcDbLine
 10
235.147064
 20
169.478607
 30
0.0
 11
235.147064
 21
160.75
 31
0.0
  0
LINE
  5
456
330
1F
100
AcDbEntity
  8
0
 62
     7
100
AcDbLine
 10
235.147064
 20
172.549988
 30
0.0
 11
235.147064
 21
169.478607
 31
0.0
  0
LINE
  5
457
330
1F
100
AcDbEntity
  8
0
 62
     7
100
AcDbLine
 10
234.915894
 20
169.67038
 30
0.0
 11
234.915894
 21
168.570923
 31
0.0
  0
ARC
  5
458
330
1F
100
AcDbEntity
  8
0
 62
     7
100
AcDbCircle
 10
224.589569
 20
166.649994
 30
0.0
 40
10.50419235229492
100
AcDbArc
 50
349.462094
 51
10.537886
  0
LINE
  5
459
330
1F
100
AcDbEntity
  8
0
 62
     7
100
AcDbLine
 10
234.915894
 20
164.729065
 30
0.0
 11
234.915894
 21
162.414307
 31
0.0
  0
ARC
  5
45A
330
1F
100
AcDbEntity
  8
0
 62
     7
100
AcDbCircle
 10
232.401459
 20
161.453827
 30
0.0
 40
2.691781044006348
100
AcDbArc
 50
339.093949
 51
20.906017
  0
LINE
  5
45B
330
1F
100
AcDbEntity
  8
0
 62
     7
100
AcDbLine
 10
234.915894
 20
160.493378
 30
0.0
 11
234.915894
 21
160.350006
 31
0.0
  0
LINE
  5
45C
330
1F
100
AcDbEntity
  8
0
 62
     7
100
AcDbLine
 10
234.915894
 20
172.949982
 30
0.0
 11
234.915894
 21
172.80661
 31
0.0
  0
ARC
  5
45D
330
1F
100
AcDbEntity
  8
0
 62
     7
100
AcDbCircle
 10
232.401459
 20
171.846161
 30
0.0
 40
2.691781044006348
100
AcDbArc
 50
339.093949
 51
20.906017
  0
LINE
  5
45E
330
1F
100
AcDbEntity
  8
0
 62
     7
100
AcDbLine
 10
234.915894
 20
169.67038
 30
0.0
 11
234.915894
 21
170.885681
 31
0.0
  0
LINE
  5
45F
330
1F
100
AcDbEntity
  8
0
 62
     7
100
AcDbLine
 10
234.915894
 20
170.885681
 30
0.0
 11
228.147064
 21
170.885681
 31
0.0
  0
LINE
  5
460
330
1F
100
AcDbEntity
  8
0
 62
     7
100
AcDbLine
 10
228.147064
 20
170.885681
 30
0.0
 11
228.147064
 21
168.570923
 31
0.0
  0
LINE
  5
461
330
1F
100
AcDbEntity
  8
0
 62
     7
100
AcDbLine
 10
234.915894
 20
168.570923
 30
0.0
 11
228.147064
 21
168.570923
 31
0.0
  0
LINE
  5
462
330
1F
100
AcDbEntity
  8
0
 62
     7
100
AcDbLine
 10
228.147064
 20
164.729065
 30
0.0
 11
234.915894
 21
164.729065
 31
0.0
  0
LINE
  5
463
330
1F
100
AcDbEntity
  8
0
 62
     7
100
AcDbLine
 10
228.147064
 20
164.729065
 30
0.0
 11
228.147064
 21
162.414307
 31
0.0
  0
LINE
  5
464
330
1F
100
AcDbEntity
  8
0
 62
     7
100
AcDbLine
 10
234.915894
 20
162.414307
 30
0.0
 11
228.147064
 21
162.414307
 31
0.0
  0
LINE
  5
465
330
1F
100
AcDbEntity
  8
0
 62
     7
100
AcDbLine
 10
228.147064
 20
160.493378
 30
0.0
 11
234.915894
 21
160.493378
 31
0.0
  0
LINE
  5
466
330
1F
100
AcDbEntity
  8
0
 62
     7
100
AcDbLine
 10
228.147064
 20
160.493378
 30
0.0
 11
228.147064
 21
160.350006
 31
0.0
  0
LINE
  5
467
330
1F
100
AcDbEntity
  8
0
 62
     7
100
AcDbLine
 10
228.147064
 20
172.949982
 30
0.0
 11
228.147064
 21
172.80661
 31
0.0
  0
LINE
  5
468
330
1F
100
AcDbEntity
  8
0
 62
     7
100
AcDbLine
 10
234.915894
 20
172.80661
 30
0.0
 11
228.147064
 21
172.80661
 31
0.0
  0
LINE
  5
469
330
1F
100
AcDbEntity
  8
0
 62
     7
100
AcDbLine
 10
227.647064
 20
171.252411
 30
0.0
 11
227.647064
 21
168.683929
 31
0.0
  0
LINE
  5
46A
330
1F
100
AcDbEntity
  8
0
 62
     7
100
AcDbLine
 10
228.147064
 20
168.280548
 30
0.0
 11
227.647064
 21
168.683929
 31
0.0
  0
LINE
  5
46B
330
1F
100
AcDbEntity
  8
0
 62
     7
100
AcDbLine
 10
228.147064
 20
168.280548
 30
0.0
 11
228.147064
 21
168.570923
 31
0.0
  0
LINE
  5
46C
330
1F
100
AcDbEntity
  8
0
 62
     7
100
AcDbLine
 10
228.147064
 20
170.885681
 30
0.0
 11
228.147064
 21
171.104767
 31
0.0
  0
LINE
  5
46D
330
1F
100
AcDbEntity
  8
0
 62
     7
100
AcDbLine
 10
228.147064
 20
171.104767
 30
0.0
 11
227.647064
 21
171.252411
 31
0.0
  0
LINE
  5
46E
330
1F
100
AcDbEntity
  8
0
 62
     7
100
AcDbLine
 10
228.147064
 20
165.01944
 30
0.0
 11
228.147064
 21
168.280548
 31
0.0
  0
LINE
  5
46F
330
1F
100
AcDbEntity
  8
0
 62
     7
100
AcDbLine
 10
228.147064
 20
164.729065
 30
0.0
 11
228.147064
 21
165.01944
 31
0.0
  0
LINE
  5
470
330
1F
100
AcDbEntity
  8
0
 62
     7
100
AcDbLine
 10
228.147064
 20
165.01944
 30
0.0
 11
227.647064
 21
164.616058
 31
0.0
  0
LINE
  5
471
330
1F
100
AcDbEntity
  8
0
 62
     7
100
AcDbLine
 10
227.647064
 20
164.616058
 30
0.0
 11
227.647064
 21
162.047577
 31
0.0
  0
LINE
  5
472
330
1F
100
AcDbEntity
  8
0
 62
     7
100
AcDbLine
 10
228.147064
 20
162.195221
 30
0.0
 11
227.647064
 21
162.047577
 31
0.0
  0
LINE
  5
473
330
1F
100
AcDbEntity
  8
0
 62
     7
100
AcDbLine
 10
228.147064
 20
162.195221
 30
0.0
 11
228.147064
 21
162.414307
 31
0.0
  0
LINE
  5
474
330
1F
100
AcDbEntity
  8
0
 62
     7
100
AcDbLine
 10
228.147064
 20
160.564667
 30
0.0
 11
228.147064
 21
162.195221
 31
0.0
  0
LINE
  5
475
330
1F
100
AcDbEntity
  8
0
 62
     7
100
AcDbLine
 10
228.147064
 20
160.493378
 30
0.0
 11
228.147064
 21
160.564667
 31
0.0
  0
ARC
  5
476
330
1F
100
AcDbEntity
  8
0
 62
     7
100
AcDbCircle
 10
179.836304
 20
203.9039
 30
0.0
 40
64.901611328125
100
AcDbArc
 50
317.448096
 51
318.104941
  0
LINE
  5
477
330
1F
100
AcDbEntity
  8
0
 62
     7
100
AcDbLine
 10
227.647064
 20
160.013672
 30
0.0
 11
227.647064
 21
159.850006
 31
0.0
  0
LINE
  5
478
330
1F
100
AcDbEntity
  8
0
 62
     7
100
AcDbLine
 10
228.147064
 20
172.735321
 30
0.0
 11
228.147064
 21
172.80661
 31
0.0
  0
LINE
  5
479
330
1F
100
AcDbEntity
  8
0
 62
     7
100
AcDbLine
 10
227.647064
 20
173.449982
 30
0.0
 11
227.647064
 21
173.286316
 31
0.0
  0
ARC
  5
47A
330
1F
100
AcDbEntity
  8
0
 62
     7
100
AcDbCircle
 10
179.836304
 20
129.396088
 30
0.0
 40
64.901611328125
100
AcDbArc
 50
41.895052
 51
42.551911
  0
LINE
  5
47B
330
1F
100
AcDbEntity
  8
0
 62
     7
100
AcDbLine
 10
228.147064
 20
171.104767
 30
0.0
 11
228.147064
 21
172.735321
 31
0.0
  0
LINE
  5
47C
330
1F
100
AcDbEntity
  8
0
 62
     7
100
AcDbLine
 10
218.647064
 20
171.252411
 30
0.0
 11
218.647064
 21
168.683929
 31
0.0
  0
LINE
  5
47D
330
1F
100
AcDbEntity
  8
0
 62
     7
100
AcDbLine
 10
227.647064
 20
168.683929
 30
0.0
 11
218.647064
 21
168.683929
 31
0.0
  0
LINE
  5
47E
330
1F
100
AcDbEntity
  8
0
 62
     7
100
AcDbLine
 10
227.647064
 20
171.252411
 30
0.0
 11
218.647064
 21
171.252411
 31
0.0
  0
LINE
  5
47F
330
1F
100
AcDbEntity
  8
0
 62
     7
100
AcDbLine
 10
218.147064
 20
168.280548
 30
0.0
 11
218.647064
 21
168.683929
 31
0.0
  0
LINE
  5
480
330
1F
100
AcDbEntity
  8
0
 62
     7
100
AcDbLine
 10
228.147064
 20
168.280548
 30
0.0
 11
218.147064
 21
168.280548
 31
0.0
  0
LINE
  5
481
330
1F
100
AcDbEntity
  8
0
 62
     7
100
AcDbLine
 10
218.147064
 20
171.104767
 30
0.0
 11
218.647064
 21
171.252411
 31
0.0
  0
LINE
  5
482
330
1F
100
AcDbEntity
  8
0
 62
     7
100
AcDbLine
 10
228.147064
 20
172.735321
 30
0.0
 11
218.147064
 21
172.735321
 31
0.0
  0
LINE
  5
483
330
1F
100
AcDbEntity
  8
0
 62
     7
100
AcDbLine
 10
218.147064
 20
172.949982
 30
0.0
 11
218.147064
 21
172.735321
 31
0.0
  0
LINE
  5
484
330
1F
100
AcDbEntity
  8
0
 62
     7
100
AcDbLine
 10
218.147064
 20
160.564667
 30
0.0
 11
218.147064
 21
160.350006
 31
0.0
  0
LINE
  5
485
330
1F
100
AcDbEntity
  8
0
 62
     7
100
AcDbLine
 10
228.147064
 20
160.564667
 30
0.0
 11
218.147064
 21
160.564667
 31
0.0
  0
LINE
  5
486
330
1F
100
AcDbEntity
  8
0
 62
     7
100
AcDbLine
 10
218.147064
 20
165.01944
 30
0.0
 11
218.147064
 21
162.195221
 31
0.0
  0
LINE
  5
487
330
1F
100
AcDbEntity
  8
0
 62
     7
100
AcDbLine
 10
228.147064
 20
165.01944
 30
0.0
 11
218.147064
 21
165.01944
 31
0.0
  0
LINE
  5
488
330
1F
100
AcDbEntity
  8
0
 62
     7
100
AcDbLine
 10
218.147064
 20
171.104767
 30
0.0
 11
218.147064
 21
168.280548
 31
0.0
  0
LINE
  5
489
330
1F
100
AcDbEntity
  8
0
 62
     7
100
AcDbLine
 10
218.147064
 20
165.01944
 30
0.0
 11
218.647064
 21
164.616058
 31
0.0
  0
LINE
  5
48A
330
1F
100
AcDbEntity
  8
0
 62
     7
100
AcDbLine
 10
227.647064
 20
164.616058
 30
0.0
 11
218.647064
 21
164.616058
 31
0.0
  0
LINE
  5
48B
330
1F
100
AcDbEntity
  8
0
 62
     7
100
AcDbLine
 10
218.647064
 20
164.616058
 30
0.0
 11
218.647064
 21
162.047577
 31
0.0
  0
LINE
  5
48C
330
1F
100
AcDbEntity
  8
0
 62
     7
100
AcDbLine
 10
227.647064
 20
162.047577
 30
0.0
 11
218.647064
 21
162.047577
 31
0.0
  0
LINE
  5
48D
330
1F
100
AcDbEntity
  8
0
 62
     7
100
AcDbLine
 10
218.147064
 20
162.195221
 30
0.0
 11
218.647064
 21
162.047577
 31
0.0
  0
ARC
  5
48E
330
1F
100
AcDbEntity
  8
0
 62
     7
100
AcDbCircle
 10
266.457794
 20
203.9039
 30
0.0
 40
64.901611328125
100
AcDbArc
 50
221.89505
 51
222.55191
  0
LINE
  5
48F
330
1F
100
AcDbEntity
  8
0
 62
     7
100
AcDbLine
 10
227.647064
 20
160.013672
 30
0.0
 11
218.647064
 21
160.013672
 31
0.0
  0
LINE
  5
490
330
1F
100
AcDbEntity
  8
0
 62
     7
100
AcDbLine
 10
218.647064
 20
160.013672
 30
0.0
 11
218.647064
 21
159.850006
 31
0.0
  0
LINE
  5
491
330
1F
100
AcDbEntity
  8
0
 62
     7
100
AcDbLine
 10
218.647064
 20
173.449982
 30
0.0
 11
218.647064
 21
173.286316
 31
0.0
  0
LINE
  5
492
330
1F
100
AcDbEntity
  8
0
 62
     7
100
AcDbLine
 10
227.647064
 20
173.286316
 30
0.0
 11
218.647064
 21
173.286316
 31
0.0
  0
ARC
  5
493
330
1F
100
AcDbEntity
  8
0
 62
     7
100
AcDbCircle
 10
266.457794
 20
129.396088
 30
0.0
 40
64.901611328125
100
AcDbArc
 50
137.44809
 51
138.10495
  0
LINE
  5
494
330
1F
100
AcDbEntity
  8
0
 62
     7
100
AcDbLine
 10
214.947052
 20
181.649994
 30
0.0
 11
215.24707
 21
181.649994
 31
0.0
  0
LINE
  5
495
330
1F
100
AcDbEntity
  8
0
 62
     7
100
AcDbLine
 10
107.783669
 20
160.75
 30
0.0
 11
107.87027
 21
160.600006
 31
0.0
  0
LINE
  5
496
330
1F
100
AcDbEntity
  8
0
 62
     7
100
AcDbLine
 10
104.51046
 20
160.75
 30
0.0
 11
104.423859
 21
160.600006
 31
0.0
  0
LINE
  5
497
330
1F
100
AcDbEntity
  8
0
 62
     7
100
AcDbLine
 10
193.510437
 20
160.75
 30
0.0
 11
193.423859
 21
160.600006
 31
0.0
  0
LINE
  5
498
330
1F
100
AcDbEntity
  8
0
 62
     7
100
AcDbLine
 10
196.783661
 20
160.75
 30
0.0
 11
196.87027
 21
160.600006
 31
0.0
  0
LINE
  5
499
330
1F
100
AcDbEntity
  8
0
 62
     7
100
AcDbLine
 10
196.595825
 20
181.075623
 30
0.0
 11
196.621429
 21
181.101227
 31
0.0
  0
POLYLINE
  5
49A
330
1F
100
AcDbEntity
  8
0
 62
     7
100
AcDb2dPolyline
 66
     1
 10
0.0
 20
0.0
 30
0.0
  0
VERTEX
  5
49B
330
49A
100
AcDbEntity
  8
0
100
AcDbVertex
100
AcDb2dVertex
 10
181.833893
 20
181.082916
 30
0.0
  0
VERTEX
  5
49C
330
49A
100
AcDbEntity
  8
0
100
AcDbVertex
100
AcDb2dVertex
 10
181.837097
 20
181.07312
 30
0.0
  0
VERTEX
  5
49D
330
49A
100
AcDbEntity
  8
0
100
AcDbVertex
100
AcDb2dVertex
 10
181.844208
 20
181.056976
 30
0.0
  0
VERTEX
  5
49E
330
49A
100
AcDbEntity
  8
0
100
AcDbVertex
100
AcDb2dVertex
 10
181.847473
 20
181.050507
 30
0.0
  0
VERTEX
  5
49F
330
49A
100
AcDbEntity
  8
0
100
AcDbVertex
100
AcDb2dVertex
 10
181.848145
 20
181.049042
 30
0.0
  0
VERTEX
  5
4A0
330
49A
100
AcDbEntity
  8
0
100
AcDbVertex
100
AcDb2dVertex
 10
181.830994
 20
181.070526
 30
0.0
  0
VERTEX
  5
4A1
330
49A
100
AcDbEntity
  8
0
100
AcDbVertex
100
AcDb2dVertex
 10
181.827484
 20
181.075684
 30
0.0
  0
VERTEX
  5
4A2
330
49A
100
AcDbEntity
  8
0
100
AcDbVertex
100
AcDb2dVertex
 10
181.829285
 20
181.074432
 30
0.0
  0
VERTEX
  5
4A3
330
49A
100
AcDbEntity
  8
0
100
AcDbVertex
100
AcDb2dVertex
 10
181.838043
 20
181.064178
 30
0.0
  0
VERTEX
  5
4A4
330
49A
100
AcDbEntity
  8
0
100
AcDbVertex
100
AcDb2dVertex
 10
181.846619
 20
181.052368
 30
0.0
  0
VERTEX
  5
4A5
330
49A
100
AcDbEntity
  8
0
100
AcDbVertex
100
AcDb2dVertex
 10
181.847382
 20
181.05072
 30
0.0
  0
VERTEX
  5
4A6
330
49A
100
AcDbEntity
  8
0
100
AcDbVertex
100
AcDb2dVertex
 10
181.84729
 20
181.04953
 30
0.0
  0
VERTEX
  5
4A7
330
49A
100
AcDbEntity
  8
0
100
AcDbVertex
100
AcDb2dVertex
 10
181.844696
 20
181.050446
 30
0.0
  0
VERTEX
  5
4A8
330
49A
100
AcDbEntity
  8
0
100
AcDbVertex
100
AcDb2dVertex
 10
181.832855
 20
181.05899
 30
0.0
  0
VERTEX
  5
4A9
330
49A
100
AcDbEntity
  8
0
100
AcDbVertex
100
AcDb2dVertex
 10
181.822601
 20
181.067749
 30
0.0
  0
VERTEX
  5
4AA
330
49A
100
AcDbEntity
  8
0
100
AcDbVertex
100
AcDb2dVertex
 10
181.820984
 20
181.069366
 30
0.0
  0
VERTEX
  5
4AB
330
49A
100
AcDbEntity
  8
0
100
AcDbVertex
100
AcDb2dVertex
 10
181.826508
 20
181.06604
 30
0.0
  0
VERTEX
  5
4AC
330
49A
100
AcDbEntity
  8
0
100
AcDbVertex
100
AcDb2dVertex
 10
181.847534
 20
181.049713
 30
0.0
  0
VERTEX
  5
4AD
330
49A
100
AcDbEntity
  8
0
100
AcDbVertex
100
AcDb2dVertex
 10
181.848236
 20
181.04892
 30
0.0
  0
VERTEX
  5
4AE
330
49A
100
AcDbEntity
  8
0
100
AcDbVertex
100
AcDb2dVertex
 10
181.846527
 20
181.049561
 30
0.0
  0
VERTEX
  5
4AF
330
49A
100
AcDbEntity
  8
0
100
AcDbVertex
100
AcDb2dVertex
 10
181.840057
 20
181.052826
 30
0.0
  0
VERTEX
  5
4B0
330
49A
100
AcDbEntity
  8
0
100
AcDbVertex
100
AcDb2dVertex
 10
181.823914
 20
181.059967
 30
0.0
  0
VERTEX
  5
4B1
330
49A
100
AcDbEntity
  8
0
100
AcDbVertex
100
AcDb2dVertex
 10
181.814148
 20
181.063171
 30
0.0
  0
SEQEND
  5
4B2
330
49A
100
AcDbEntity
  8
0
 62
     7
  0
POLYLINE
  5
4B3
330
1F
100
AcDbEntity
  8
0
 62
     7
100
AcDb2dPolyline
 66
     1
 10
0.0
 20
0.0
 30
0.0
  0
VERTEX
  5
4B4
330
4B3
100
AcDbEntity
  8
0
100
AcDbVertex
100
AcDb2dVertex
 10
102.833893
 20
181.082916
 30
0.0
  0
VERTEX
  5
4B5
330
4B3
100
AcDbEntity
  8
0
100
AcDbVertex
100
AcDb2dVertex
 10
102.837097
 20
181.07312
 30
0.0
  0
VERTEX
  5
4B6
330
4B3
100
AcDbEntity
  8
0
100
AcDbVertex
100
AcDb2dVertex
 10
102.844215
 20
181.056976
 30
0.0
  0
VERTEX
  5
4B7
330
4B3
100
AcDbEntity
  8
0
100
AcDbVertex
100
AcDb2dVertex
 10
102.847496
 20
181.050507
 30
0.0
  0
VERTEX
  5
4B8
330
4B3
100
AcDbEntity
  8
0
100
AcDbVertex
100
AcDb2dVertex
 10
102.848137
 20
181.049042
 30
0.0
  0
VERTEX
  5
4B9
330
4B3
100
AcDbEntity
  8
0
100
AcDbVertex
100
AcDb2dVertex
 10
102.831009
 20
181.070526
 30
0.0
  0
VERTEX
  5
4BA
330
4B3
100
AcDbEntity
  8
0
100
AcDbVertex
100
AcDb2dVertex
 10
102.827484
 20
181.075684
 30
0.0
  0
VERTEX
  5
4BB
330
4B3
100
AcDbEntity
  8
0
100
AcDbVertex
100
AcDb2dVertex
 10
102.829308
 20
181.074432
 30
0.0
  0
VERTEX
  5
4BC
330
4B3
100
AcDbEntity
  8
0
100
AcDbVertex
100
AcDb2dVertex
 10
102.838051
 20
181.064178
 30
0.0
  0
VERTEX
  5
4BD
330
4B3
100
AcDbEntity
  8
0
100
AcDbVertex
100
AcDb2dVertex
 10
102.846619
 20
181.052368
 30
0.0
  0
VERTEX
  5
4BE
330
4B3
100
AcDbEntity
  8
0
100
AcDbVertex
100
AcDb2dVertex
 10
102.847397
 20
181.05072
 30
0.0
  0
VERTEX
  5
4BF
330
4B3
100
AcDbEntity
  8
0
100
AcDbVertex
100
AcDb2dVertex
 10
102.847313
 20
181.04953
 30
0.0
  0
VERTEX
  5
4C0
330
4B3
100
AcDbEntity
  8
0
100
AcDbVertex
100
AcDb2dVertex
 10
102.844704
 20
181.050446
 30
0.0
  0
VERTEX
  5
4C1
330
4B3
100
AcDbEntity
  8
0
100
AcDbVertex
100
AcDb2dVertex
 10
102.832878
 20
181.05899
 30
0.0
  0
VERTEX
  5
4C2
330
4B3
100
AcDbEntity
  8
0
100
AcDbVertex
100
AcDb2dVertex
 10
102.822624
 20
181.067749
 30
0.0
  0
VERTEX
  5
4C3
330
4B3
100
AcDbEntity
  8
0
100
AcDbVertex
100
AcDb2dVertex
 10
102.820999
 20
181.069366
 30
0.0
  0
VERTEX
  5
4C4
330
4B3
100
AcDbEntity
  8
0
100
AcDbVertex
100
AcDb2dVertex
 10
102.826515
 20
181.06604
 30
0.0
  0
VERTEX
  5
4C5
330
4B3
100
AcDbEntity
  8
0
100
AcDbVertex
100
AcDb2dVertex
 10
102.847549
 20
181.049713
 30
0.0
  0
VERTEX
  5
4C6
330
4B3
100
AcDbEntity
  8
0
100
AcDbVertex
100
AcDb2dVertex
 10
102.848236
 20
181.04892
 30
0.0
  0
VERTEX
  5
4C7
330
4B3
100
AcDbEntity
  8
0
100
AcDbVertex
100
AcDb2dVertex
 10
102.846542
 20
181.049561
 30
0.0
  0
VERTEX
  5
4C8
330
4B3
100
AcDbEntity
  8
0
100
AcDbVertex
100
AcDb2dVertex
 10
102.840065
 20
181.052826
 30
0.0
  0
VERTEX
  5
4C9
330
4B3
100
AcDbEntity
  8
0
100
AcDbVertex
100
AcDb2dVertex
 10
102.823921
 20
181.059967
 30
0.0
  0
VERTEX
  5
4CA
330
4B3
100
AcDbEntity
  8
0
100
AcDbVertex
100
AcDb2dVertex
 10
102.814148
 20
181.063171
 30
0.0
  0
SEQEND
  5
4CB
330
4B3
100
AcDbEntity
  8
0
 62
     7
  0
LINE
  5
4CC
330
1F
100
AcDbEntity
  8
0
 62
     7
100
AcDbLine
 10
87.595825
 20
181.075623
 30
0.0
 11
87.621445
 21
181.101227
 31
0.0
  0
LINE
  5
4CD
330
1F
100
AcDbEntity
  8
0
 62
     7
100
AcDbLine
 10
107.87027
 20
160.350006
 30
0.0
 11
107.87027
 21
160.600006
 31
0.0
  0
LINE
  5
4CE
330
1F
100
AcDbEntity
  8
0
 62
     7
100
AcDbLine
 10
104.423859
 20
160.350006
 30
0.0
 11
104.423859
 21
160.600006
 31
0.0
  0
LINE
  5
4CF
330
1F
100
AcDbEntity
  8
0
 62
     7
100
AcDbLine
 10
193.423859
 20
160.600006
 30
0.0
 11
193.423859
 21
160.350006
 31
0.0
  0
LINE
  5
4D0
330
1F
100
AcDbEntity
  8
0
 62
     7
100
AcDbLine
 10
196.87027
 20
160.600006
 30
0.0
 11
196.87027
 21
160.350006
 31
0.0
  0
LINE
  5
4D1
330
1F
100
AcDbEntity
  8
0
 62
     7
100
AcDbLine
 10
86.047066
 20
181.649994
 30
0.0
 11
86.347061
 21
181.649994
 31
0.0
  0
ARC
  5
4D2
330
1F
100
AcDbEntity
  8
0
 62
     7
100
AcDbCircle
 10
250.147064
 20
91.649986
 30
0.0
 40
78.4000015258789
100
AcDbArc
 50
0.000002
 51
87.807034
  0
ARC
  5
4D3
330
1F
100
AcDbEntity
  8
0
 62
     7
100
AcDbCircle
 10
250.147003
 20
91.653824
 30
0.0
 40
78.39616394042969
100
AcDbArc
 50
89.269111
 51
89.999968
  0
ARC
  5
4D4
330
1F
100
AcDbEntity
  8
0
 62
     7
100
AcDbCircle
 10
250.147064
 20
91.649986
 30
0.0
 40
71.5999984741211
100
AcDbArc
 50
0.000002
 51
87.598651
  0
ARC
  5
4D5
330
1F
100
AcDbEntity
  8
0
 62
     7
100
AcDbCircle
 10
250.147003
 20
91.652191
 30
0.0
 40
71.59779357910156
100
AcDbArc
 50
89.199702
 51
89.999962
  0
LINE
  5
4D6
330
1F
100
AcDbEntity
  8
0
 62
     7
100
AcDbLine
 10
248.947052
 20
170.049988
 30
0.0
 11
247.947052
 21
170.049988
 31
0.0
  0
LINE
  5
4D7
330
1F
100
AcDbEntity
  8
0
 62
     7
100
AcDbLine
 10
246.74704
 20
170.049988
 30
0.0
 11
245.74704
 21
170.049988
 31
0.0
  0
LINE
  5
4D8
330
1F
100
AcDbEntity
  8
0
 62
     7
100
AcDbLine
 10
328.547028
 20
81.649994
 30
0.0
 11
328.547028
 21
91.649994
 31
0.0
  0
LINE
  5
4D9
330
1F
100
AcDbEntity
  8
0
 62
     7
100
AcDbLine
 10
248.947052
 20
163.25
 30
0.0
 11
247.947052
 21
163.25
 31
0.0
  0
LINE
  5
4DA
330
1F
100
AcDbEntity
  8
0
 62
     7
100
AcDbLine
 10
246.74704
 20
163.25
 30
0.0
 11
245.74704
 21
163.25
 31
0.0
  0
LINE
  5
4DB
330
1F
100
AcDbEntity
  8
0
 62
     7
100
AcDbLine
 10
321.74704
 20
81.649994
 30
0.0
 11
321.74704
 21
91.649994
 31
0.0
  0
LINE
  5
4DC
330
1F
100
AcDbEntity
  8
0
 62
     7
100
AcDbLine
 10
253.147064
 20
170.899994
 30
0.0
 11
251.147064
 21
171.024994
 31
0.0
  0
LINE
  5
4DD
330
1F
100
AcDbEntity
  8
0
 62
     7
100
AcDbLine
 10
250.147064
 20
171.087494
 30
0.0
 11
248.947052
 21
171.162506
 31
0.0
  0
LINE
  5
4DE
330
1F
100
AcDbEntity
  8
0
 62
     7
100
AcDbLine
 10
247.947052
 20
171.225006
 30
0.0
 11
246.74707
 21
171.299988
 31
0.0
  0
LINE
  5
4DF
330
1F
100
AcDbEntity
  8
0
 62
     7
100
AcDbLine
 10
245.74707
 20
171.362488
 30
0.0
 11
241.147064
 21
171.649994
 31
0.0
  0
LINE
  5
4E0
330
1F
100
AcDbEntity
  8
0
 62
     7
100
AcDbLine
 10
253.147064
 20
162.399994
 30
0.0
 11
251.147064
 21
162.274994
 31
0.0
  0
LINE
  5
4E1
330
1F
100
AcDbEntity
  8
0
 62
     7
100
AcDbLine
 10
250.147064
 20
162.212494
 30
0.0
 11
248.947052
 21
162.137482
 31
0.0
  0
LINE
  5
4E2
330
1F
100
AcDbEntity
  8
0
 62
     7
100
AcDbLine
 10
247.947052
 20
162.074982
 30
0.0
 11
246.74707
 21
162.0
 31
0.0
  0
LINE
  5
4E3
330
1F
100
AcDbEntity
  8
0
 62
     7
100
AcDbLine
 10
245.74707
 20
161.9375
 30
0.0
 11
241.147064
 21
161.649994
 31
0.0
  0
LINE
  5
4E4
330
1F
100
AcDbEntity
  8
0
 62
     7
100
AcDbLine
 10
241.147064
 20
171.649994
 30
0.0
 11
240.147064
 21
171.949982
 31
0.0
  0
LINE
  5
4E5
330
1F
100
AcDbEntity
  8
0
 62
     7
100
AcDbLine
 10
241.147064
 20
161.649994
 30
0.0
 11
240.147064
 21
161.350006
 31
0.0
  0
LINE
  5
4E6
330
1F
100
AcDbEntity
  8
0
 62
     7
100
AcDbLine
 10
240.147064
 20
161.649994
 30
0.0
 11
235.147064
 21
161.649994
 31
0.0
  0
LINE
  5
4E7
330
1F
100
AcDbEntity
  8
0
 62
     7
100
AcDbLine
 10
240.147064
 20
171.649994
 30
0.0
 11
235.147064
 21
171.649994
 31
0.0
  0
ARC
  5
4E8
330
1F
100
AcDbEntity
  8
0
 62
     7
100
AcDbCircle
 10
229.840454
 20
163.549988
 30
0.0
 40
6.000001907348633
100
AcDbArc
 50
327.769058
 51
332.181852
  0
ARC
  5
4E9
330
1F
100
AcDbEntity
  8
0
 62
     7
100
AcDbCircle
 10
229.840454
 20
169.75
 30
0.0
 40
6.000001907348633
100
AcDbArc
 50
27.81814
 51
32.230949
  0
LINE
  5
4EA
330
1F
100
AcDbEntity
  8
0
 62
     7
100
AcDbLine
 10
234.915894
 20
160.350006
 30
0.0
 11
228.147064
 21
160.350006
 31
0.0
  0
LINE
  5
4EB
330
1F
100
AcDbEntity
  8
0
 62
     7
100
AcDbLine
 10
234.915894
 20
172.949982
 30
0.0
 11
228.147064
 21
172.949982
 31
0.0
  0
LINE
  5
4EC
330
1F
100
AcDbEntity
  8
0
 62
     7
100
AcDbLine
 10
228.147064
 20
160.350006
 30
0.0
 11
227.647064
 21
159.850006
 31
0.0
  0
LINE
  5
4ED
330
1F
100
AcDbEntity
  8
0
 62
     7
100
AcDbLine
 10
228.147064
 20
172.949982
 30
0.0
 11
227.647064
 21
173.449982
 31
0.0
  0
LINE
  5
4EE
330
1F
100
AcDbEntity
  8
0
 62
     7
100
AcDbLine
 10
218.147064
 20
160.350006
 30
0.0
 11
217.147064
 21
160.350006
 31
0.0
  0
LINE
  5
4EF
330
1F
100
AcDbEntity
  8
0
 62
     7
100
AcDbLine
 10
218.147064
 20
172.949982
 30
0.0
 11
217.147064
 21
172.949982
 31
0.0
  0
LINE
  5
4F0
330
1F
100
AcDbEntity
  8
0
 62
     7
100
AcDbLine
 10
227.647064
 20
159.850006
 30
0.0
 11
218.647064
 21
159.850006
 31
0.0
  0
LINE
  5
4F1
330
1F
100
AcDbEntity
  8
0
 62
     7
100
AcDbLine
 10
227.647064
 20
173.449982
 30
0.0
 11
218.647064
 21
173.449982
 31
0.0
  0
LINE
  5
4F2
330
1F
100
AcDbEntity
  8
0
 62
     7
100
AcDbLine
 10
218.147064
 20
172.949982
 30
0.0
 11
218.647064
 21
173.449982
 31
0.0
  0
LINE
  5
4F3
330
1F
100
AcDbEntity
  8
0
 62
     7
100
AcDbLine
 10
218.147064
 20
160.350006
 30
0.0
 11
218.647064
 21
159.850006
 31
0.0
  0
LINE
  5
4F4
330
1F
100
AcDbEntity
  8
0
 62
     7
100
AcDbLine
 10
47.952965
 20
184.350006
 30
0.0
 11
47.952965
 21
197.450012
 31
0.0
  0
ARC
  5
4F5
330
1F
100
AcDbEntity
  8
0
 62
     7
100
AcDbCircle
 10
47.152966
 20
184.350006
 30
0.0
 40
0.800000011920929
100
AcDbArc
 50
269.999997
 51
360.0
  0
LINE
  5
4F6
330
1F
100
AcDbEntity
  8
0
 62
     7
100
AcDbLine
 10
47.823677
 20
197.579285
 30
0.0
 11
47.952965
 21
197.450012
 31
0.0
  0
ARC
  5
4F7
330
1F
100
AcDbEntity
  8
0
 62
     7
100
AcDbCircle
 10
45.952965
 20
184.350006
 30
0.0
 40
0.800000011920929
100
AcDbArc
 50
241.044838
 51
269.999997
  0
LINE
  5
4F8
330
1F
100
AcDbEntity
  8
0
 62
     7
100
AcDbLine
 10
47.152966
 20
183.549988
 30
0.0
 11
45.952965
 21
183.549988
 31
0.0
  0
ARC
  5
4F9
330
1F
100
AcDbEntity
  8
0
 62
     7
100
AcDbCircle
 10
47.894386
 20
197.649994
 30
0.0
 40
0.1000000014901161
100
AcDbArc
 50
135.0
 51
225.0
  0
LINE
  5
4FA
330
1F
100
AcDbEntity
  8
0
 62
     7
100
AcDbLine
 10
47.952965
 20
197.850006
 30
0.0
 11
47.823677
 21
197.720703
 31
0.0
  0
LINE
  5
4FB
330
1F
100
AcDbEntity
  8
0
 62
     7
100
AcDbLine
 10
47.952965
 20
197.850006
 30
0.0
 11
47.952965
 21
198.549988
 31
0.0
  0
LINE
  5
4FC
330
1F
100
AcDbEntity
  8
0
 62
     7
100
AcDbLine
 10
47.823677
 20
198.679291
 30
0.0
 11
47.952965
 21
198.549988
 31
0.0
  0
ARC
  5
4FD
330
1F
100
AcDbEntity
  8
0
 62
     7
100
AcDbCircle
 10
47.894386
 20
198.75
 30
0.0
 40
0.1000000014901161
100
AcDbArc
 50
135.0
 51
225.0
  0
LINE
  5
4FE
330
1F
100
AcDbEntity
  8
0
 62
     7
100
AcDbLine
 10
47.952965
 20
198.950012
 30
0.0
 11
47.823677
 21
198.820709
 31
0.0
  0
LINE
  5
4FF
330
1F
100
AcDbEntity
  8
0
 62
     7
100
AcDbLine
 10
47.952965
 20
198.950012
 30
0.0
 11
47.952965
 21
199.649994
 31
0.0
  0
LINE
  5
500
330
1F
100
AcDbEntity
  8
0
 62
     7
100
AcDbLine
 10
47.823677
 20
199.779297
 30
0.0
 11
47.952965
 21
199.649994
 31
0.0
  0
ARC
  5
501
330
1F
100
AcDbEntity
  8
0
 62
     7
100
AcDbCircle
 10
47.894386
 20
199.850006
 30
0.0
 40
0.1000000014901161
100
AcDbArc
 50
135.0
 51
225.0
  0
LINE
  5
502
330
1F
100
AcDbEntity
  8
0
 62
     7
100
AcDbLine
 10
47.952965
 20
200.049988
 30
0.0
 11
47.823677
 21
199.920715
 31
0.0
  0
LINE
  5
503
330
1F
100
AcDbEntity
  8
0
 62
     7
100
AcDbLine
 10
47.952965
 20
200.049988
 30
0.0
 11
47.952965
 21
200.75
 31
0.0
  0
LINE
  5
504
330
1F
100
AcDbEntity
  8
0
 62
     7
100
AcDbLine
 10
47.823677
 20
200.879303
 30
0.0
 11
47.952965
 21
200.75
 31
0.0
  0
ARC
  5
505
330
1F
100
AcDbEntity
  8
0
 62
     7
100
AcDbCircle
 10
47.894386
 20
200.950012
 30
0.0
 40
0.1000000014901161
100
AcDbArc
 50
135.0
 51
225.0
  0
LINE
  5
506
330
1F
100
AcDbEntity
  8
0
 62
     7
100
AcDbLine
 10
47.952965
 20
201.149994
 30
0.0
 11
47.823677
 21
201.020721
 31
0.0
  0
LINE
  5
507
330
1F
100
AcDbEntity
  8
0
 62
     7
100
AcDbLine
 10
47.952965
 20
201.149994
 30
0.0
 11
47.952965
 21
201.850006
 31
0.0
  0
LINE
  5
508
330
1F
100
AcDbEntity
  8
0
 62
     7
100
AcDbLine
 10
47.823677
 20
201.979279
 30
0.0
 11
47.952965
 21
201.850006
 31
0.0
  0
ARC
  5
509
330
1F
100
AcDbEntity
  8
0
 62
     7
100
AcDbCircle
 10
47.894386
 20
202.049988
 30
0.0
 40
0.1000000014901161
100
AcDbArc
 50
135.0
 51
225.0
  0
LINE
  5
50A
330
1F
100
AcDbEntity
  8
0
 62
     7
100
AcDbLine
 10
47.952965
 20
202.25
 30
0.0
 11
47.823677
 21
202.120697
 31
0.0
  0
LINE
  5
50B
330
1F
100
AcDbEntity
  8
0
 62
     7
100
AcDbLine
 10
47.952965
 20
202.25
 30
0.0
 11
47.952965
 21
202.950012
 31
0.0
  0
LINE
  5
50C
330
1F
100
AcDbEntity
  8
0
 62
     7
100
AcDbLine
 10
47.823677
 20
203.079285
 30
0.0
 11
47.952965
 21
202.950012
 31
0.0
  0
ARC
  5
50D
330
1F
100
AcDbEntity
  8
0
 62
     7
100
AcDbCircle
 10
47.894386
 20
203.149994
 30
0.0
 40
0.1000000014901161
100
AcDbArc
 50
135.0
 51
225.0
  0
LINE
  5
50E
330
1F
100
AcDbEntity
  8
0
 62
     7
100
AcDbLine
 10
47.952965
 20
203.350006
 30
0.0
 11
47.823677
 21
203.220703
 31
0.0
  0
LINE
  5
50F
330
1F
100
AcDbEntity
  8
0
 62
     7
100
AcDbLine
 10
47.952965
 20
203.350006
 30
0.0
 11
47.952965
 21
204.049988
 31
0.0
  0
LINE
  5
510
330
1F
100
AcDbEntity
  8
0
 62
     7
100
AcDbLine
 10
47.823677
 20
204.179291
 30
0.0
 11
47.952965
 21
204.049988
 31
0.0
  0
ARC
  5
511
330
1F
100
AcDbEntity
  8
0
 62
     7
100
AcDbCircle
 10
47.894386
 20
204.25
 30
0.0
 40
0.1000000014901161
100
AcDbArc
 50
135.0
 51
225.0
  0
LINE
  5
512
330
1F
100
AcDbEntity
  8
0
 62
     7
100
AcDbLine
 10
47.952965
 20
204.450012
 30
0.0
 11
47.823677
 21
204.320709
 31
0.0
  0
LINE
  5
513
330
1F
100
AcDbEntity
  8
0
 62
     7
100
AcDbLine
 10
47.952965
 20
204.450012
 30
0.0
 11
47.952965
 21
205.149994
 31
0.0
  0
LINE
  5
514
330
1F
100
AcDbEntity
  8
0
 62
     7
100
AcDbLine
 10
47.823677
 20
205.279297
 30
0.0
 11
47.952965
 21
205.149994
 31
0.0
  0
ARC
  5
515
330
1F
100
AcDbEntity
  8
0
 62
     7
100
AcDbCircle
 10
47.894386
 20
205.350006
 30
0.0
 40
0.1000000014901161
100
AcDbArc
 50
135.0
 51
225.0
  0
LINE
  5
516
330
1F
100
AcDbEntity
  8
0
 62
     7
100
AcDbLine
 10
47.952965
 20
205.549988
 30
0.0
 11
47.823677
 21
205.420715
 31
0.0
  0
LINE
  5
517
330
1F
100
AcDbEntity
  8
0
 62
     7
100
AcDbLine
 10
47.952965
 20
205.549988
 30
0.0
 11
47.952965
 21
206.25
 31
0.0
  0
LINE
  5
518
330
1F
100
AcDbEntity
  8
0
 62
     7
100
AcDbLine
 10
47.823677
 20
206.379303
 30
0.0
 11
47.952965
 21
206.25
 31
0.0
  0
ARC
  5
519
330
1F
100
AcDbEntity
  8
0
 62
     7
100
AcDbCircle
 10
47.894386
 20
206.450012
 30
0.0
 40
0.1000000014901161
100
AcDbArc
 50
135.0
 51
225.0
  0
LINE
  5
51A
330
1F
100
AcDbEntity
  8
0
 62
     7
100
AcDbLine
 10
47.952965
 20
206.649994
 30
0.0
 11
47.823677
 21
206.520721
 31
0.0
  0
LINE
  5
51B
330
1F
100
AcDbEntity
  8
0
 62
     7
100
AcDbLine
 10
47.952965
 20
206.649994
 30
0.0
 11
47.952965
 21
211.474274
 31
0.0
  0
LINE
  5
51C
330
1F
100
AcDbEntity
  8
0
 62
     7
100
AcDbLine
 10
47.465099
 20
211.962128
 30
0.0
 11
47.952965
 21
211.474274
 31
0.0
  0
ARC
  5
51D
330
1F
100
AcDbEntity
  8
0
 62
     7
100
AcDbCircle
 10
47.252968
 20
211.75
 30
0.0
 40
0.300000011920929
100
AcDbArc
 50
45.000001
 51
106.874504
  0
LINE
  5
51E
330
1F
100
AcDbEntity
  8
0
 62
     7
100
AcDbLine
 10
47.952965
 20
189.549988
 30
0.0
 11
48.152969
 21
189.549988
 31
0.0
  0
LINE
  5
51F
330
1F
100
AcDbEntity
  8
0
 62
     7
100
AcDbLine
 10
48.152969
 20
189.049988
 30
0.0
 11
48.152969
 21
189.549988
 31
0.0
  0
LINE
  5
520
330
1F
100
AcDbEntity
  8
0
 62
     7
100
AcDbLine
 10
48.152969
 20
189.049988
 30
0.0
 11
48.152969
 21
185.049988
 31
0.0
  0
LINE
  5
521
330
1F
100
AcDbEntity
  8
0
 62
     7
100
AcDbLine
 10
48.152969
 20
184.549988
 30
0.0
 11
48.152969
 21
185.049988
 31
0.0
  0
LINE
  5
522
330
1F
100
AcDbEntity
  8
0
 62
     7
100
AcDbLine
 10
47.952965
 20
184.549988
 30
0.0
 11
48.152969
 21
184.549988
 31
0.0
  0
ARC
  5
523
330
1F
100
AcDbEntity
  8
0
 62
     7
100
AcDbCircle
 10
43.952965
 20
211.850006
 30
0.0
 40
3.0
100
AcDbArc
 50
8.262821
 51
90.000003
  0
LINE
  5
524
330
1F
100
AcDbEntity
  8
0
 62
     7
100
AcDbLine
 10
48.202965
 20
185.049988
 30
0.0
 11
48.202965
 21
185.180359
 31
0.0
  0
LINE
  5
525
330
1F
100
AcDbEntity
  8
0
 62
     7
100
AcDbLine
 10
48.202965
 20
188.680359
 30
0.0
 11
48.202965
 21
185.180359
 31
0.0
  0
LINE
  5
526
330
1F
100
AcDbEntity
  8
0
 62
     7
100
AcDbLine
 10
48.152969
 20
188.949982
 30
0.0
 11
48.202965
 21
188.949982
 31
0.0
  0
LINE
  5
527
330
1F
100
AcDbEntity
  8
0
 62
     7
100
AcDbLine
 10
48.202965
 20
188.680359
 30
0.0
 11
48.202965
 21
188.949982
 31
0.0
  0
LINE
  5
528
330
1F
100
AcDbEntity
  8
0
 62
     7
100
AcDbLine
 10
47.606522
 20
211.596436
 30
0.0
 11
46.764442
 21
212.438507
 31
0.0
  0
ARC
  5
529
330
1F
100
AcDbEntity
  8
0
 62
     7
100
AcDbCircle
 10
47.252968
 20
211.242889
 30
0.0
 40
0.5
100
AcDbArc
 50
0.0
 51
45.000001
  0
LINE
  5
52A
330
1F
100
AcDbEntity
  8
0
 62
     7
100
AcDbLine
 10
47.752968
 20
184.149994
 30
0.0
 11
47.752968
 21
211.242889
 31
0.0
  0
ARC
  5
52B
330
1F
100
AcDbEntity
  8
0
 62
     7
100
AcDbCircle
 10
47.252968
 20
184.149994
 30
0.0
 40
0.5
100
AcDbArc
 50
269.999997
 51
360.0
  0
LINE
  5
52C
330
1F
100
AcDbEntity
  8
0
 62
     7
100
AcDbLine
 10
31.652967
 20
183.649994
 30
0.0
 11
47.252968
 21
183.649994
 31
0.0
  0
ARC
  5
52D
330
1F
100
AcDbEntity
  8
0
 62
     7
100
AcDbCircle
 10
31.652967
 20
184.149994
 30
0.0
 40
0.5
100
AcDbArc
 50
180.000009
 51
269.999997
  0
LINE
  5
52E
330
1F
100
AcDbEntity
  8
0
 62
     7
100
AcDbLine
 10
31.152967
 20
211.242889
 30
0.0
 11
31.152967
 21
184.149994
 31
0.0
  0
LINE
  5
52F
330
1F
100
AcDbEntity
  8
0
 62
     7
100
AcDbLine
 10
30.352966
 20
193.549988
 30
0.0
 11
30.352966
 21
195.549988
 31
0.0
  0
LINE
  5
530
330
1F
100
AcDbEntity
  8
0
 62
     7
100
AcDbLine
 10
30.352966
 20
193.549988
 30
0.0
 11
31.152964
 21
193.549988
 31
0.0
  0
LINE
  5
531
330
1F
100
AcDbEntity
  8
0
 62
     7
100
AcDbLine
 10
43.952965
 20
214.850006
 30
0.0
 11
34.952965
 21
214.850006
 31
0.0
  0
ARC
  5
532
330
1F
100
AcDbEntity
  8
0
 62
     7
100
AcDbCircle
 10
34.952965
 20
211.850006
 30
0.0
 40
3.0
100
AcDbArc
 50
90.000003
 51
171.737184
  0
ARC
  5
533
330
1F
100
AcDbEntity
  8
0
 62
     7
100
AcDbCircle
 10
46.799801
 20
212.473877
 30
0.0
 40
0.0500000007450581
100
AcDbArc
 50
189.204208
 51
225.0
  0
ARC
  5
534
330
1F
100
AcDbEntity
  8
0
 62
     7
100
AcDbCircle
 10
31.652967
 20
211.242889
 30
0.0
 40
0.5
100
AcDbArc
 50
135.0
 51
180.000009
  0
LINE
  5
535
330
1F
100
AcDbEntity
  8
0
 62
     7
100
AcDbLine
 10
30.352966
 20
210.321106
 30
0.0
 11
30.352966
 21
195.549988
 31
0.0
  0
LINE
  5
536
330
1F
100
AcDbEntity
  8
0
 62
     7
100
AcDbLine
 10
30.352966
 20
210.321106
 30
0.0
 11
30.352966
 21
210.363342
 31
0.0
  0
LINE
  5
537
330
1F
100
AcDbEntity
  8
0
 62
     7
100
AcDbLine
 10
30.352966
 20
210.363342
 30
0.0
 11
30.352966
 21
214.850006
 31
0.0
  0
LINE
  5
538
330
1F
100
AcDbEntity
  8
0
 62
     7
100
AcDbLine
 10
30.552967
 20
193.549988
 30
0.0
 11
30.552967
 21
193.049988
 31
0.0
  0
LINE
  5
539
330
1F
100
AcDbEntity
  8
0
 62
     7
100
AcDbLine
 10
31.152966
 20
193.049988
 30
0.0
 11
30.552967
 21
193.049988
 31
0.0
  0
LINE
  5
53A
330
1F
100
AcDbEntity
  8
0
 62
     7
100
AcDbLine
 10
30.552967
 20
184.350006
 30
0.0
 11
30.552967
 21
193.049988
 31
0.0
  0
ARC
  5
53B
330
1F
100
AcDbEntity
  8
0
 62
     7
100
AcDbCircle
 10
31.352966
 20
184.350006
 30
0.0
 40
0.800000011920929
100
AcDbArc
 50
180.000009
 51
269.999997
  0
LINE
  5
53C
330
1F
100
AcDbEntity
  8
0
 62
     7
100
AcDbLine
 10
31.352966
 20
183.549988
 30
0.0
 11
32.552967
 21
183.549988
 31
0.0
  0
ARC
  5
53D
330
1F
100
AcDbEntity
  8
0
 62
     7
100
AcDbCircle
 10
32.552967
 20
184.350006
 30
0.0
 40
0.800000011920929
100
AcDbArc
 50
269.999997
 51
298.955164
  0
LINE
  5
53E
330
1F
100
AcDbEntity
  8
0
 62
     7
100
AcDbLine
 10
32.141487
 20
212.438507
 30
0.0
 11
31.299414
 21
211.596436
 31
0.0
  0
ARC
  5
53F
330
1F
100
AcDbEntity
  8
0
 62
     7
100
AcDbCircle
 10
32.106133
 20
212.473877
 30
0.0
 40
0.0500000007450581
100
AcDbArc
 50
314.999992
 51
350.795784
  0
ARC
  5
540
330
1F
100
AcDbEntity
  8
0
 62
     7
100
AcDbCircle
 10
34.722012
 20
212.049988
 30
0.0
 40
2.599999904632568
100
AcDbArc
 50
90.000003
 51
170.795792
  0
LINE
  5
541
330
1F
100
AcDbEntity
  8
0
 62
     7
100
AcDbLine
 10
44.183922
 20
214.649994
 30
0.0
 11
34.722012
 21
214.649994
 31
0.0
  0
ARC
  5
542
330
1F
100
AcDbEntity
  8
0
 62
     7
100
AcDbCircle
 10
44.183922
 20
212.049988
 30
0.0
 40
2.599999904632568
100
AcDbArc
 50
9.20421
 51
90.000003
  0
CIRCLE
  5
543
330
1F
100
AcDbEntity
  8
0
 62
     7
100
AcDbCircle
 10
39.452965
 20
191.850006
 30
0.0
 40
5.150000095367432
  0
POLYLINE
  5
544
330
1F
100
AcDbEntity
  8
0
 62
     7
100
AcDb2dPolyline
 66
     1
 10
0.0
 20
0.0
 30
0.0
  0
VERTEX
  5
545
330
544
100
AcDbEntity
  8
0
100
AcDbVertex
100
AcDb2dVertex
 10
30.852966
 20
211.760193
 30
0.0
  0
VERTEX
  5
546
330
544
100
AcDbEntity
  8
0
100
AcDbVertex
100
AcDb2dVertex
 10
30.849098
 20
211.662903
 30
0.0
  0
VERTEX
  5
547
330
544
100
AcDbEntity
  8
0
100
AcDbVertex
100
AcDb2dVertex
 10
30.837502
 20
211.559448
 30
0.0
  0
VERTEX
  5
548
330
544
100
AcDbEntity
  8
0
100
AcDbVertex
100
AcDb2dVertex
 10
30.81815
 20
211.450043
 30
0.0
  0
VERTEX
  5
549
330
544
100
AcDbEntity
  8
0
100
AcDbVertex
100
AcDb2dVertex
 10
30.790956
 20
211.334869
 30
0.0
  0
VERTEX
  5
54A
330
544
100
AcDbEntity
  8
0
100
AcDbVertex
100
AcDb2dVertex
 10
30.755764
 20
211.213989
 30
0.0
  0
VERTEX
  5
54B
330
544
100
AcDbEntity
  8
0
100
AcDbVertex
100
AcDb2dVertex
 10
30.712311
 20
211.087341
 30
0.0
  0
VERTEX
  5
54C
330
544
100
AcDbEntity
  8
0
100
AcDbVertex
100
AcDb2dVertex
 10
30.660227
 20
210.954865
 30
0.0
  0
VERTEX
  5
54D
330
544
100
AcDbEntity
  8
0
100
AcDbVertex
100
AcDb2dVertex
 10
30.598999
 20
210.816437
 30
0.0
  0
VERTEX
  5
54E
330
544
100
AcDbEntity
  8
0
100
AcDbVertex
100
AcDb2dVertex
 10
30.527969
 20
210.671814
 30
0.0
  0
VERTEX
  5
54F
330
544
100
AcDbEntity
  8
0
100
AcDbVertex
100
AcDb2dVertex
 10
30.446301
 20
210.520874
 30
0.0
  0
VERTEX
  5
550
330
544
100
AcDbEntity
  8
0
100
AcDbVertex
100
AcDb2dVertex
 10
30.352966
 20
210.363342
 30
0.0
  0
SEQEND
  5
551
330
544
100
AcDbEntity
  8
0
 62
     7
  0
LINE
  5
552
330
1F
100
AcDbEntity
  8
0
 62
     7
100
AcDbLine
 10
30.852966
 20
211.760193
 30
0.0
 11
30.852966
 21
215.350006
 31
0.0
  0
LINE
  5
553
330
1F
100
AcDbEntity
  8
0
 62
     7
100
AcDbLine
 10
31.952967
 20
212.25
 30
0.0
 11
31.952967
 21
215.350006
 31
0.0
  0
CIRCLE
  5
554
330
1F
100
AcDbEntity
  8
0
 62
     7
100
AcDbCircle
 10
39.452965
 20
191.850006
 30
0.0
 40
4.150000095367432
  0
ARC
  5
555
330
1F
100
AcDbEntity
  8
0
 62
     7
100
AcDbCircle
 10
39.452965
 20
191.850006
 30
0.0
 40
3.75
100
AcDbArc
 50
350.018317
 51
9.981683
  0
ARC
  5
556
330
1F
100
AcDbEntity
  8
0
 62
     7
100
AcDbCircle
 10
39.452965
 20
191.850006
 30
0.0
 40
3.75
100
AcDbArc
 50
189.981688
 51
350.018317
  0
ARC
  5
557
330
1F
100
AcDbEntity
  8
0
 62
     7
100
AcDbCircle
 10
39.452965
 20
191.850006
 30
0.0
 40
3.75
100
AcDbArc
 50
170.018312
 51
189.981688
  0
ARC
  5
558
330
1F
100
AcDbEntity
  8
0
 62
     7
100
AcDbCircle
 10
39.452965
 20
191.850006
 30
0.0
 40
3.75
100
AcDbArc
 50
9.981683
 51
170.018312
  0
LINE
  5
559
330
1F
100
AcDbEntity
  8
0
 62
     7
100
AcDbLine
 10
42.942951
 20
191.199982
 30
0.0
 11
43.146202
 21
191.199982
 31
0.0
  0
LINE
  5
55A
330
1F
100
AcDbEntity
  8
0
 62
     7
100
AcDbLine
 10
35.962982
 20
191.199982
 30
0.0
 11
35.759731
 21
191.199982
 31
0.0
  0
LINE
  5
55B
330
1F
100
AcDbEntity
  8
0
 62
     7
100
AcDbLine
 10
42.942951
 20
191.199982
 30
0.0
 11
35.962982
 21
191.199982
 31
0.0
  0
ARC
  5
55C
330
1F
100
AcDbEntity
  8
0
 62
     7
100
AcDbCircle
 10
39.452965
 20
191.850006
 30
0.0
 40
3.549999952316284
100
AcDbArc
 50
190.550301
 51
349.44969
  0
LINE
  5
55D
330
1F
100
AcDbEntity
  8
0
 62
     7
100
AcDbLine
 10
35.962982
 20
192.5
 30
0.0
 11
35.759731
 21
192.5
 31
0.0
  0
LINE
  5
55E
330
1F
100
AcDbEntity
  8
0
 62
     7
100
AcDbLine
 10
42.942951
 20
192.5
 30
0.0
 11
43.146202
 21
192.5
 31
0.0
  0
LINE
  5
55F
330
1F
100
AcDbEntity
  8
0
 62
     7
100
AcDbLine
 10
35.962982
 20
192.5
 30
0.0
 11
42.942951
 21
192.5
 31
0.0
  0
ARC
  5
560
330
1F
100
AcDbEntity
  8
0
 62
     7
100
AcDbCircle
 10
39.452965
 20
191.850006
 30
0.0
 40
3.549999952316284
100
AcDbArc
 50
10.550303
 51
169.449699
  0
LINE
  5
561
330
1F
100
AcDbEntity
  8
0
 62
     7
100
AcDbLine
 10
48.152969
 20
185.049988
 30
0.0
 11
48.202965
 21
185.049988
 31
0.0
  0
LINE
  5
562
330
1F
100
AcDbEntity
  8
0
 62
     7
100
AcDbLine
 10
48.152969
 20
185.049988
 30
0.0
 11
48.202965
 21
185.049988
 31
0.0
  0
LINE
  5
563
330
1F
100
AcDbEntity
  8
0
 62
     7
100
AcDbLine
 10
30.352966
 20
214.850006
 30
0.0
 11
30.852966
 21
215.350006
 31
0.0
  0
LINE
  5
564
330
1F
100
AcDbEntity
  8
0
 62
     7
100
AcDbLine
 10
30.852966
 20
215.350006
 30
0.0
 11
31.952967
 21
215.350006
 31
0.0
  0
LINE
  5
565
330
1F
100
AcDbEntity
  8
0
 62
     7
100
AcDbLine
 10
30.552967
 20
157.949982
 30
0.0
 11
30.552967
 21
181.049988
 31
0.0
  0
LINE
  5
566
330
1F
100
AcDbEntity
  8
0
 62
     7
100
AcDbLine
 10
30.552967
 20
181.049988
 30
0.0
 11
30.552967
 21
182.049988
 31
0.0
  0
LINE
  5
567
330
1F
100
AcDbEntity
  8
0
 62
     7
100
AcDbLine
 10
47.752968
 20
181.049988
 30
0.0
 11
47.752968
 21
157.949982
 31
0.0
  0
LINE
  5
568
330
1F
100
AcDbEntity
  8
0
 62
     7
100
AcDbLine
 10
47.752968
 20
181.049988
 30
0.0
 11
47.752968
 21
182.049988
 31
0.0
  0
LINE
  5
569
330
1F
100
AcDbEntity
  8
0
 62
     7
100
AcDbLine
 10
31.052967
 20
181.049988
 30
0.0
 11
30.699413
 21
181.403534
 31
0.0
  0
ARC
  5
56A
330
1F
100
AcDbEntity
  8
0
 62
     7
100
AcDbCircle
 10
31.052967
 20
181.049988
 30
0.0
 40
0.5
100
AcDbArc
 50
90.000003
 51
180.000009
  0
ARC
  5
56B
330
1F
100
AcDbEntity
  8
0
 62
     7
100
AcDbCircle
 10
31.052967
 20
157.949982
 30
0.0
 40
0.5
100
AcDbArc
 50
180.000009
 51
270.000353
  0
ARC
  5
56C
330
1F
100
AcDbEntity
  8
0
 62
     7
100
AcDbCircle
 10
31.052969
 20
157.449982
 30
0.0
 40
0.5000079870223999
100
AcDbArc
 50
90.000289
 51
149.999055
  0
ARC
  5
56D
330
1F
100
AcDbEntity
  8
0
 62
     7
100
AcDbCircle
 10
31.052967
 20
182.049988
 30
0.0
 40
0.5
100
AcDbArc
 50
90.000003
 51
180.000009
  0
LINE
  5
56E
330
1F
100
AcDbEntity
  8
0
 62
     7
100
AcDbLine
 10
30.352966
 20
176.487701
 30
0.0
 11
30.352966
 21
177.45047
 31
0.0
  0
LINE
  5
56F
330
1F
100
AcDbEntity
  8
0
 62
     7
100
AcDbLine
 10
30.352966
 20
176.487701
 30
0.0
 11
30.352966
 21
164.75
 31
0.0
  0
LINE
  5
570
330
1F
100
AcDbEntity
  8
0
 62
     7
100
AcDbLine
 10
30.352966
 20
161.75
 30
0.0
 11
30.352966
 21
164.75
 31
0.0
  0
LINE
  5
571
330
1F
100
AcDbEntity
  8
0
 62
     7
100
AcDbLine
 10
30.352966
 20
161.75
 30
0.0
 11
30.552967
 21
161.75
 31
0.0
  0
LINE
  5
572
330
1F
100
AcDbEntity
  8
0
 62
     7
100
AcDbLine
 10
30.352966
 20
180.549988
 30
0.0
 11
30.552967
 21
180.549988
 31
0.0
  0
LINE
  5
573
330
1F
100
AcDbEntity
  8
0
 62
     7
100
AcDbLine
 10
30.352966
 20
179.68512
 30
0.0
 11
30.352966
 21
180.549988
 31
0.0
  0
LINE
  5
574
330
1F
100
AcDbEntity
  8
0
 62
     7
100
AcDbLine
 10
35.203281
 20
160.75
 30
0.0
 11
35.386009
 21
160.75
 31
0.0
  0
LINE
  5
575
330
1F
100
AcDbEntity
  8
0
 62
     7
100
AcDbLine
 10
42.919914
 20
160.75
 30
0.0
 11
43.10265
 21
160.75
 31
0.0
  0
ARC
  5
576
330
1F
100
AcDbEntity
  8
0
 62
     7
100
AcDbCircle
 10
47.252968
 20
157.949982
 30
0.0
 40
0.5
100
AcDbArc
 50
269.999997
 51
359.999901
  0
ARC
  5
577
330
1F
100
AcDbEntity
  8
0
 62
     7
100
AcDbCircle
 10
47.252968
 20
181.049988
 30
0.0
 40
0.5
100
AcDbArc
 50
0.0
 51
90.000003
  0
LINE
  5
578
330
1F
100
AcDbEntity
  8
0
 62
     7
100
AcDbLine
 10
47.252968
 20
181.049988
 30
0.0
 11
47.606522
 21
181.403534
 31
0.0
  0
ARC
  5
579
330
1F
100
AcDbEntity
  8
0
 62
     7
100
AcDbCircle
 10
47.252968
 20
157.450012
 30
0.0
 40
0.4999969899654388
100
AcDbArc
 50
29.999605
 51
90.000201
  0
LINE
  5
57A
330
1F
100
AcDbEntity
  8
0
 62
     7
100
AcDbLine
 10
47.752968
 20
179.68512
 30
0.0
 11
47.752968
 21
177.45047
 31
0.0
  0
LINE
  5
57B
330
1F
100
AcDbEntity
  8
0
 62
     7
100
AcDbLine
 10
47.952965
 20
179.68512
 30
0.0
 11
47.952965
 21
180.549988
 31
0.0
  0
LINE
  5
57C
330
1F
100
AcDbEntity
  8
0
 62
     7
100
AcDbLine
 10
47.752968
 20
180.549988
 30
0.0
 11
47.952965
 21
180.549988
 31
0.0
  0
LINE
  5
57D
330
1F
100
AcDbEntity
  8
0
 62
     7
100
AcDbLine
 10
47.752968
 20
161.75
 30
0.0
 11
47.952965
 21
161.75
 31
0.0
  0
LINE
  5
57E
330
1F
100
AcDbEntity
  8
0
 62
     7
100
AcDbLine
 10
47.952965
 20
161.75
 30
0.0
 11
47.952965
 21
164.75
 31
0.0
  0
LINE
  5
57F
330
1F
100
AcDbEntity
  8
0
 62
     7
100
AcDbLine
 10
47.952965
 20
176.487701
 30
0.0
 11
47.952965
 21
164.75
 31
0.0
  0
LINE
  5
580
330
1F
100
AcDbEntity
  8
0
 62
     7
100
AcDbLine
 10
47.952965
 20
176.487701
 30
0.0
 11
47.952965
 21
177.45047
 31
0.0
  0
ARC
  5
581
330
1F
100
AcDbEntity
  8
0
 62
     7
100
AcDbCircle
 10
47.252968
 20
182.049988
 30
0.0
 40
0.5
100
AcDbArc
 50
0.0
 51
90.000003
  0
LINE
  5
582
330
1F
100
AcDbEntity
  8
0
 62
     7
100
AcDbLine
 10
31.052967
 20
157.949982
 30
0.0
 11
38.552967
 21
157.949982
 31
0.0
  0
LINE
  5
583
330
1F
100
AcDbEntity
  8
0
 62
     7
100
AcDbLine
 10
38.552967
 20
158.649994
 30
0.0
 11
38.552967
 21
157.949982
 31
0.0
  0
LINE
  5
584
330
1F
100
AcDbEntity
  8
0
 62
     7
100
AcDbLine
 10
38.552967
 20
158.649994
 30
0.0
 11
39.752968
 21
158.649994
 31
0.0
  0
LINE
  5
585
330
1F
100
AcDbEntity
  8
0
 62
     7
100
AcDbLine
 10
39.752968
 20
158.649994
 30
0.0
 11
39.752968
 21
157.949982
 31
0.0
  0
LINE
  5
586
330
1F
100
AcDbEntity
  8
0
 62
     7
100
AcDbLine
 10
39.752968
 20
157.949982
 30
0.0
 11
47.252968
 21
157.949982
 31
0.0
  0
ARC
  5
587
330
1F
100
AcDbEntity
  8
0
 62
     7
100
AcDbCircle
 10
42.787865
 20
181.049988
 30
0.0
 40
0.5
100
AcDbArc
 50
90.000003
 51
218.583597
  0
ARC
  5
588
330
1F
100
AcDbEntity
  8
0
 62
     7
100
AcDbCircle
 10
39.152966
 20
178.149994
 30
0.0
 40
4.150000095367432
100
AcDbArc
 50
0.0
 51
38.583602
  0
LINE
  5
589
330
1F
100
AcDbEntity
  8
0
 62
     7
100
AcDbLine
 10
43.302967
 20
178.149994
 30
0.0
 11
43.302967
 21
177.149994
 31
0.0
  0
ARC
  5
58A
330
1F
100
AcDbEntity
  8
0
 62
     7
100
AcDbCircle
 10
39.152966
 20
177.149994
 30
0.0
 40
4.150000095367432
100
AcDbArc
 50
327.912246
 51
360.0
  0
POLYLINE
  5
58B
330
1F
100
AcDbEntity
  8
0
 62
     7
100
AcDb2dPolyline
 66
     1
 10
0.0
 20
0.0
 30
0.0
  0
VERTEX
  5
58C
330
58B
100
AcDbEntity
  8
0
100
AcDbVertex
100
AcDb2dVertex
 10
43.079811
 20
172.803833
 30
0.0
  0
VERTEX
  5
58D
330
58B
100
AcDbEntity
  8
0
100
AcDbVertex
100
AcDb2dVertex
 10
43.005516
 20
172.854675
 30
0.0
  0
VERTEX
  5
58E
330
58B
100
AcDbEntity
  8
0
100
AcDbVertex
100
AcDb2dVertex
 10
42.946129
 20
172.900604
 30
0.0
  0
VERTEX
  5
58F
330
58B
100
AcDbEntity
  8
0
100
AcDbVertex
100
AcDb2dVertex
 10
42.88937
 20
172.949554
 30
0.0
  0
VERTEX
  5
590
330
58B
100
AcDbEntity
  8
0
100
AcDbVertex
100
AcDb2dVertex
 10
42.814728
 20
173.022675
 30
0.0
  0
VERTEX
  5
591
330
58B
100
AcDbEntity
  8
0
100
AcDbVertex
100
AcDb2dVertex
 10
42.745811
 20
173.100861
 30
0.0
  0
VERTEX
  5
592
330
58B
100
AcDbEntity
  8
0
100
AcDbVertex
100
AcDb2dVertex
 10
42.682953
 20
173.183624
 30
0.0
  0
VERTEX
  5
593
330
58B
100
AcDbEntity
  8
0
100
AcDbVertex
100
AcDb2dVertex
 10
42.626411
 20
173.270386
 30
0.0
  0
VERTEX
  5
594
330
58B
100
AcDbEntity
  8
0
100
AcDbVertex
100
AcDb2dVertex
 10
42.576363
 20
173.360565
 30
0.0
  0
VERTEX
  5
595
330
58B
100
AcDbEntity
  8
0
100
AcDbVertex
100
AcDb2dVertex
 10
42.53294
 20
173.453583
 30
0.0
  0
VERTEX
  5
596
330
58B
100
AcDbEntity
  8
0
100
AcDbVertex
100
AcDb2dVertex
 10
42.496193
 20
173.54895
 30
0.0
  0
VERTEX
  5
597
330
58B
100
AcDbEntity
  8
0
100
AcDbVertex
100
AcDb2dVertex
 10
42.465057
 20
173.650024
 30
0.0
  0
VERTEX
  5
598
330
58B
100
AcDbEntity
  8
0
100
AcDbVertex
100
AcDb2dVertex
 10
42.441097
 20
173.752472
 30
0.0
  0
VERTEX
  5
599
330
58B
100
AcDbEntity
  8
0
100
AcDbVertex
100
AcDb2dVertex
 10
42.424229
 20
173.855804
 30
0.0
  0
VERTEX
  5
59A
330
58B
100
AcDbEntity
  8
0
100
AcDbVertex
100
AcDb2dVertex
 10
42.41433
 20
173.959503
 30
0.0
  0
VERTEX
  5
59B
330
58B
100
AcDbEntity
  8
0
100
AcDbVertex
100
AcDb2dVertex
 10
42.411247
 20
174.06311
 30
0.0
  0
VERTEX
  5
59C
330
58B
100
AcDbEntity
  8
0
100
AcDbVertex
100
AcDb2dVertex
 10
42.414822
 20
174.166229
 30
0.0
  0
VERTEX
  5
59D
330
58B
100
AcDbEntity
  8
0
100
AcDbVertex
100
AcDb2dVertex
 10
42.424873
 20
174.268463
 30
0.0
  0
VERTEX
  5
59E
330
58B
100
AcDbEntity
  8
0
100
AcDbVertex
100
AcDb2dVertex
 10
42.441624
 20
174.371552
 30
0.0
  0
VERTEX
  5
59F
330
58B
100
AcDbEntity
  8
0
100
AcDbVertex
100
AcDb2dVertex
 10
42.464737
 20
174.473022
 30
0.0
  0
VERTEX
  5
5A0
330
58B
100
AcDbEntity
  8
0
100
AcDbVertex
100
AcDb2dVertex
 10
42.494019
 20
174.572571
 30
0.0
  0
VERTEX
  5
5A1
330
58B
100
AcDbEntity
  8
0
100
AcDbVertex
100
AcDb2dVertex
 10
42.529278
 20
174.669891
 30
0.0
  0
VERTEX
  5
5A2
330
58B
100
AcDbEntity
  8
0
100
AcDbVertex
100
AcDb2dVertex
 10
42.57032
 20
174.764648
 30
0.0
  0
VERTEX
  5
5A3
330
58B
100
AcDbEntity
  8
0
100
AcDbVertex
100
AcDb2dVertex
 10
42.616951
 20
174.856598
 30
0.0
  0
VERTEX
  5
5A4
330
58B
100
AcDbEntity
  8
0
100
AcDbVertex
100
AcDb2dVertex
 10
42.668995
 20
174.945435
 30
0.0
  0
SEQEND
  5
5A5
330
58B
100
AcDbEntity
  8
0
 62
     7
  0
ARC
  5
5A6
330
1F
100
AcDbEntity
  8
0
 62
     7
100
AcDbCircle
 10
39.152966
 20
166.649994
 30
0.0
 40
7.300000190734863
100
AcDbArc
 50
122.542528
 51
57.457471
  0
POLYLINE
  5
5A7
330
1F
100
AcDbEntity
  8
0
 62
     7
100
AcDb2dPolyline
 66
     1
 10
0.0
 20
0.0
 30
0.0
  0
VERTEX
  5
5A8
330
5A7
100
AcDbEntity
  8
0
100
AcDbVertex
100
AcDb2dVertex
 10
35.226112
 20
172.803833
 30
0.0
  0
VERTEX
  5
5A9
330
5A7
100
AcDbEntity
  8
0
100
AcDbVertex
100
AcDb2dVertex
 10
35.305607
 20
172.85849
 30
0.0
  0
VERTEX
  5
5AA
330
5A7
100
AcDbEntity
  8
0
100
AcDbVertex
100
AcDb2dVertex
 10
35.381149
 20
172.918396
 30
0.0
  0
VERTEX
  5
5AB
330
5A7
100
AcDbEntity
  8
0
100
AcDbVertex
100
AcDb2dVertex
 10
35.452351
 20
172.983276
 30
0.0
  0
VERTEX
  5
5AC
330
5A7
100
AcDbEntity
  8
0
100
AcDbVertex
100
AcDb2dVertex
 10
35.518871
 20
173.052704
 30
0.0
  0
VERTEX
  5
5AD
330
5A7
100
AcDbEntity
  8
0
100
AcDbVertex
100
AcDb2dVertex
 10
35.580418
 20
173.126251
 30
0.0
  0
VERTEX
  5
5AE
330
5A7
100
AcDbEntity
  8
0
100
AcDbVertex
100
AcDb2dVertex
 10
35.641987
 20
173.211304
 30
0.0
  0
VERTEX
  5
5AF
330
5A7
100
AcDbEntity
  8
0
100
AcDbVertex
100
AcDb2dVertex
 10
35.697025
 20
173.300232
 30
0.0
  0
VERTEX
  5
5B0
330
5A7
100
AcDbEntity
  8
0
100
AcDbVertex
100
AcDb2dVertex
 10
35.745369
 20
173.392487
 30
0.0
  0
VERTEX
  5
5B1
330
5A7
100
AcDbEntity
  8
0
100
AcDbVertex
100
AcDb2dVertex
 10
35.786915
 20
173.487488
 30
0.0
  0
VERTEX
  5
5B2
330
5A7
100
AcDbEntity
  8
0
100
AcDbVertex
100
AcDb2dVertex
 10
35.821621
 20
173.584656
 30
0.0
  0
VERTEX
  5
5B3
330
5A7
100
AcDbEntity
  8
0
100
AcDbVertex
100
AcDb2dVertex
 10
35.849506
 20
173.683411
 30
0.0
  0
VERTEX
  5
5B4
330
5A7
100
AcDbEntity
  8
0
100
AcDbVertex
100
AcDb2dVertex
 10
35.870625
 20
173.783325
 30
0.0
  0
VERTEX
  5
5B5
330
5A7
100
AcDbEntity
  8
0
100
AcDbVertex
100
AcDb2dVertex
 10
35.88554
 20
173.888184
 30
0.0
  0
VERTEX
  5
5B6
330
5A7
100
AcDbEntity
  8
0
100
AcDbVertex
100
AcDb2dVertex
 10
35.893349
 20
173.993286
 30
0.0
  0
VERTEX
  5
5B7
330
5A7
100
AcDbEntity
  8
0
100
AcDbVertex
100
AcDb2dVertex
 10
35.894211
 20
174.098145
 30
0.0
  0
VERTEX
  5
5B8
330
5A7
100
AcDbEntity
  8
0
100
AcDbVertex
100
AcDb2dVertex
 10
35.888294
 20
174.202393
 30
0.0
  0
VERTEX
  5
5B9
330
5A7
100
AcDbEntity
  8
0
100
AcDbVertex
100
AcDb2dVertex
 10
35.875793
 20
174.305603
 30
0.0
  0
VERTEX
  5
5BA
330
5A7
100
AcDbEntity
  8
0
100
AcDbVertex
100
AcDb2dVertex
 10
35.856895
 20
174.40744
 30
0.0
  0
VERTEX
  5
5BB
330
5A7
100
AcDbEntity
  8
0
100
AcDbVertex
100
AcDb2dVertex
 10
35.831799
 20
174.507538
 30
0.0
  0
VERTEX
  5
5BC
330
5A7
100
AcDbEntity
  8
0
100
AcDbVertex
100
AcDb2dVertex
 10
35.802788
 20
174.599609
 30
0.0
  0
VERTEX
  5
5BD
330
5A7
100
AcDbEntity
  8
0
100
AcDbVertex
100
AcDb2dVertex
 10
35.768646
 20
174.689667
 30
0.0
  0
VERTEX
  5
5BE
330
5A7
100
AcDbEntity
  8
0
100
AcDbVertex
100
AcDb2dVertex
 10
35.729523
 20
174.777466
 30
0.0
  0
VERTEX
  5
5BF
330
5A7
100
AcDbEntity
  8
0
100
AcDbVertex
100
AcDb2dVertex
 10
35.68557
 20
174.862793
 30
0.0
  0
VERTEX
  5
5C0
330
5A7
100
AcDbEntity
  8
0
100
AcDbVertex
100
AcDb2dVertex
 10
35.63694
 20
174.945435
 30
0.0
  0
SEQEND
  5
5C1
330
5A7
100
AcDbEntity
  8
0
 62
     7
  0
ARC
  5
5C2
330
1F
100
AcDbEntity
  8
0
 62
     7
100
AcDbCircle
 10
39.152966
 20
177.149994
 30
0.0
 40
4.150000095367432
100
AcDbArc
 50
180.000009
 51
212.087746
  0
LINE
  5
5C3
330
1F
100
AcDbEntity
  8
0
 62
     7
100
AcDbLine
 10
35.002968
 20
178.149994
 30
0.0
 11
35.002968
 21
177.149994
 31
0.0
  0
ARC
  5
5C4
330
1F
100
AcDbEntity
  8
0
 62
     7
100
AcDbCircle
 10
39.152966
 20
178.149994
 30
0.0
 40
4.150000095367432
100
AcDbArc
 50
141.416403
 51
180.000009
  0
ARC
  5
5C5
330
1F
100
AcDbEntity
  8
0
 62
     7
100
AcDbCircle
 10
35.518066
 20
181.049988
 30
0.0
 40
0.5
100
AcDbArc
 50
321.416408
 51
90.000003
  0
LINE
  5
5C6
330
1F
100
AcDbEntity
  8
0
 62
     7
100
AcDbLine
 10
33.302967
 20
173.850006
 30
0.0
 11
32.902966
 21
173.850006
 31
0.0
  0
ARC
  5
5C7
330
1F
100
AcDbEntity
  8
0
 62
     7
100
AcDbCircle
 10
32.902966
 20
175.199982
 30
0.0
 40
1.350000023841858
100
AcDbArc
 50
90.000003
 51
269.99997
  0
LINE
  5
5C8
330
1F
100
AcDbEntity
  8
0
 62
     7
100
AcDbLine
 10
32.902966
 20
176.549988
 30
0.0
 11
33.302967
 21
176.549988
 31
0.0
  0
ARC
  5
5C9
330
1F
100
AcDbEntity
  8
0
 62
     7
100
AcDbCircle
 10
33.302967
 20
175.199982
 30
0.0
 40
1.350000023841858
100
AcDbArc
 50
269.999997
 51
89.999989
  0
CIRCLE
  5
5CA
330
1F
100
AcDbEntity
  8
0
 62
     7
100
AcDbCircle
 10
45.202965
 20
175.199982
 30
0.0
 40
1.350000023841858
  0
LINE
  5
5CB
330
1F
100
AcDbEntity
  8
0
 62
     7
100
AcDbLine
 10
31.052967
 20
181.549988
 30
0.0
 11
35.518066
 21
181.549988
 31
0.0
  0
LINE
  5
5CC
330
1F
100
AcDbEntity
  8
0
 62
     7
100
AcDbLine
 10
39.752968
 20
157.949982
 30
0.0
 11
39.752968
 21
157.649994
 31
0.0
  0
LINE
  5
5CD
330
1F
100
AcDbEntity
  8
0
 62
     7
100
AcDbLine
 10
38.552967
 20
157.649994
 30
0.0
 11
39.752968
 21
157.649994
 31
0.0
  0
LINE
  5
5CE
330
1F
100
AcDbEntity
  8
0
 62
     7
100
AcDbLine
 10
38.552967
 20
157.949982
 30
0.0
 11
38.552967
 21
157.649994
 31
0.0
  0
LINE
  5
5CF
330
1F
100
AcDbEntity
  8
0
 62
     7
100
AcDbLine
 10
31.052967
 20
157.449982
 30
0.0
 11
47.252968
 21
157.449982
 31
0.0
  0
LINE
  5
5D0
330
1F
100
AcDbEntity
  8
0
 62
     7
100
AcDbLine
 10
37.571033
 20
181.549988
 30
0.0
 11
35.843887
 21
181.549988
 31
0.0
  0
LINE
  5
5D1
330
1F
100
AcDbEntity
  8
0
 62
     7
100
AcDbLine
 10
42.462044
 20
181.549988
 30
0.0
 11
40.734898
 21
181.549988
 31
0.0
  0
LINE
  5
5D2
330
1F
100
AcDbEntity
  8
0
 62
     7
100
AcDbLine
 10
42.462044
 20
181.549988
 30
0.0
 11
42.787865
 21
181.549988
 31
0.0
  0
LINE
  5
5D3
330
1F
100
AcDbEntity
  8
0
 62
     7
100
AcDbLine
 10
42.787865
 20
181.549988
 30
0.0
 11
47.252968
 21
181.549988
 31
0.0
  0
LINE
  5
5D4
330
1F
100
AcDbEntity
  8
0
 62
     7
100
AcDbLine
 10
35.518066
 20
181.549988
 30
0.0
 11
35.843887
 21
181.549988
 31
0.0
  0
LINE
  5
5D5
330
1F
100
AcDbEntity
  8
0
 62
     7
100
AcDbLine
 10
31.052967
 20
182.549988
 30
0.0
 11
47.252968
 21
182.549988
 31
0.0
  0
LINE
  5
5D6
330
1F
100
AcDbEntity
  8
0
 62
     7
100
AcDbLine
 10
30.352966
 20
177.45047
 30
0.0
 11
30.352966
 21
179.68512
 31
0.0
  0
LINE
  5
5D7
330
1F
100
AcDbEntity
  8
0
 62
     7
100
AcDbLine
 10
47.952965
 20
177.45047
 30
0.0
 11
47.952965
 21
179.68512
 31
0.0
  0
LINE
  5
5D8
330
1F
100
AcDbEntity
  8
0
 62
     7
100
AcDbLine
 10
42.611023
 20
174.855591
 30
0.0
 11
42.668995
 21
174.945435
 31
0.0
  0
POLYLINE
  5
5D9
330
1F
100
AcDbEntity
  8
0
 62
     7
100
AcDb2dPolyline
 66
     1
 10
0.0
 20
0.0
 30
0.0
  0
VERTEX
  5
5DA
330
5D9
100
AcDbEntity
  8
0
100
AcDbVertex
100
AcDb2dVertex
 10
42.611023
 20
174.855591
 30
0.0
  0
VERTEX
  5
5DB
330
5D9
100
AcDbEntity
  8
0
100
AcDbVertex
100
AcDb2dVertex
 10
42.555302
 20
174.765656
 30
0.0
  0
VERTEX
  5
5DC
330
5D9
100
AcDbEntity
  8
0
100
AcDbVertex
100
AcDb2dVertex
 10
42.505211
 20
174.672363
 30
0.0
  0
VERTEX
  5
5DD
330
5D9
100
AcDbEntity
  8
0
100
AcDbVertex
100
AcDb2dVertex
 10
42.460949
 20
174.575928
 30
0.0
  0
VERTEX
  5
5DE
330
5D9
100
AcDbEntity
  8
0
100
AcDbVertex
100
AcDb2dVertex
 10
42.422737
 20
174.476685
 30
0.0
  0
VERTEX
  5
5DF
330
5D9
100
AcDbEntity
  8
0
100
AcDbVertex
100
AcDb2dVertex
 10
42.390789
 20
174.374969
 30
0.0
  0
VERTEX
  5
5E0
330
5D9
100
AcDbEntity
  8
0
100
AcDbVertex
100
AcDb2dVertex
 10
42.365326
 20
174.271057
 30
0.0
  0
VERTEX
  5
5E1
330
5D9
100
AcDbEntity
  8
0
100
AcDbVertex
100
AcDb2dVertex
 10
42.346561
 20
174.165344
 30
0.0
  0
VERTEX
  5
5E2
330
5D9
100
AcDbEntity
  8
0
100
AcDbVertex
100
AcDb2dVertex
 10
42.334892
 20
174.060333
 30
0.0
  0
VERTEX
  5
5E3
330
5D9
100
AcDbEntity
  8
0
100
AcDbVertex
100
AcDb2dVertex
 10
42.330078
 20
173.954285
 30
0.0
  0
VERTEX
  5
5E4
330
5D9
100
AcDbEntity
  8
0
100
AcDbVertex
100
AcDb2dVertex
 10
42.332329
 20
173.847595
 30
0.0
  0
VERTEX
  5
5E5
330
5D9
100
AcDbEntity
  8
0
100
AcDbVertex
100
AcDb2dVertex
 10
42.341831
 20
173.740784
 30
0.0
  0
VERTEX
  5
5E6
330
5D9
100
AcDbEntity
  8
0
100
AcDbVertex
100
AcDb2dVertex
 10
42.358753
 20
173.634308
 30
0.0
  0
VERTEX
  5
5E7
330
5D9
100
AcDbEntity
  8
0
100
AcDbVertex
100
AcDb2dVertex
 10
42.383232
 20
173.528717
 30
0.0
  0
VERTEX
  5
5E8
330
5D9
100
AcDbEntity
  8
0
100
AcDbVertex
100
AcDb2dVertex
 10
42.415367
 20
173.424622
 30
0.0
  0
VERTEX
  5
5E9
330
5D9
100
AcDbEntity
  8
0
100
AcDbVertex
100
AcDb2dVertex
 10
42.453384
 20
173.326782
 30
0.0
  0
VERTEX
  5
5EA
330
5D9
100
AcDbEntity
  8
0
100
AcDbVertex
100
AcDb2dVertex
 10
42.498474
 20
173.231476
 30
0.0
  0
VERTEX
  5
5EB
330
5D9
100
AcDbEntity
  8
0
100
AcDbVertex
100
AcDb2dVertex
 10
42.550552
 20
173.139221
 30
0.0
  0
VERTEX
  5
5EC
330
5D9
100
AcDbEntity
  8
0
100
AcDbVertex
100
AcDb2dVertex
 10
42.609474
 20
173.05069
 30
0.0
  0
VERTEX
  5
5ED
330
5D9
100
AcDbEntity
  8
0
100
AcDbVertex
100
AcDb2dVertex
 10
42.641438
 20
173.008026
 30
0.0
  0
VERTEX
  5
5EE
330
5D9
100
AcDbEntity
  8
0
100
AcDbVertex
100
AcDb2dVertex
 10
42.675026
 20
172.966492
 30
0.0
  0
VERTEX
  5
5EF
330
5D9
100
AcDbEntity
  8
0
100
AcDbVertex
100
AcDb2dVertex
 10
42.72226
 20
172.913055
 30
0.0
  0
VERTEX
  5
5F0
330
5D9
100
AcDbEntity
  8
0
100
AcDbVertex
100
AcDb2dVertex
 10
42.772198
 20
172.861969
 30
0.0
  0
VERTEX
  5
5F1
330
5D9
100
AcDbEntity
  8
0
100
AcDbVertex
100
AcDb2dVertex
 10
42.824711
 20
172.813446
 30
0.0
  0
VERTEX
  5
5F2
330
5D9
100
AcDbEntity
  8
0
100
AcDbVertex
100
AcDb2dVertex
 10
42.880074
 20
172.767242
 30
0.0
  0
VERTEX
  5
5F3
330
5D9
100
AcDbEntity
  8
0
100
AcDbVertex
100
AcDb2dVertex
 10
42.937798
 20
172.723907
 30
0.0
  0
VERTEX
  5
5F4
330
5D9
100
AcDbEntity
  8
0
100
AcDbVertex
100
AcDb2dVertex
 10
42.997608
 20
172.683594
 30
0.0
  0
SEQEND
  5
5F5
330
5D9
100
AcDbEntity
  8
0
 62
     7
  0
CIRCLE
  5
5F6
330
1F
100
AcDbEntity
  8
0
 62
     7
100
AcDbCircle
 10
39.152966
 20
166.649994
 30
0.0
 40
7.099999904632568
  0
ARC
  5
5F7
330
1F
100
AcDbEntity
  8
0
 62
     7
100
AcDbCircle
 10
39.152733
 20
166.649597
 30
0.0
 40
7.154872894287109
100
AcDbArc
 50
57.494627
 51
61.351983
  0
ARC
  5
5F8
330
1F
100
AcDbEntity
  8
0
 62
     7
100
AcDbCircle
 10
39.152973
 20
166.649994
 30
0.0
 40
7.154425144195557
100
AcDbArc
 50
61.352113
 51
122.505467
  0
POLYLINE
  5
5F9
330
1F
100
AcDbEntity
  8
0
 62
     7
100
AcDb2dPolyline
 66
     1
 10
0.0
 20
0.0
 30
0.0
  0
VERTEX
  5
5FA
330
5F9
100
AcDbEntity
  8
0
100
AcDbVertex
100
AcDb2dVertex
 10
35.694908
 20
174.855591
 30
0.0
  0
VERTEX
  5
5FB
330
5F9
100
AcDbEntity
  8
0
100
AcDbVertex
100
AcDb2dVertex
 10
35.750629
 20
174.765656
 30
0.0
  0
VERTEX
  5
5FC
330
5F9
100
AcDbEntity
  8
0
100
AcDbVertex
100
AcDb2dVertex
 10
35.800724
 20
174.672363
 30
0.0
  0
VERTEX
  5
5FD
330
5F9
100
AcDbEntity
  8
0
100
AcDbVertex
100
AcDb2dVertex
 10
35.844986
 20
174.575928
 30
0.0
  0
VERTEX
  5
5FE
330
5F9
100
AcDbEntity
  8
0
100
AcDbVertex
100
AcDb2dVertex
 10
35.883198
 20
174.476685
 30
0.0
  0
VERTEX
  5
5FF
330
5F9
100
AcDbEntity
  8
0
100
AcDbVertex
100
AcDb2dVertex
 10
35.915146
 20
174.374969
 30
0.0
  0
VERTEX
  5
600
330
5F9
100
AcDbEntity
  8
0
100
AcDbVertex
100
AcDb2dVertex
 10
35.940609
 20
174.271057
 30
0.0
  0
VERTEX
  5
601
330
5F9
100
AcDbEntity
  8
0
100
AcDbVertex
100
AcDb2dVertex
 10
35.95937
 20
174.165344
 30
0.0
  0
VERTEX
  5
602
330
5F9
100
AcDbEntity
  8
0
100
AcDbVertex
100
AcDb2dVertex
 10
35.971043
 20
174.060333
 30
0.0
  0
VERTEX
  5
603
330
5F9
100
AcDbEntity
  8
0
100
AcDbVertex
100
AcDb2dVertex
 10
35.975853
 20
173.954285
 30
0.0
  0
VERTEX
  5
604
330
5F9
100
AcDbEntity
  8
0
100
AcDbVertex
100
AcDb2dVertex
 10
35.973602
 20
173.847595
 30
0.0
  0
VERTEX
  5
605
330
5F9
100
AcDbEntity
  8
0
100
AcDbVertex
100
AcDb2dVertex
 10
35.964104
 20
173.740784
 30
0.0
  0
VERTEX
  5
606
330
5F9
100
AcDbEntity
  8
0
100
AcDbVertex
100
AcDb2dVertex
 10
35.947182
 20
173.634308
 30
0.0
  0
VERTEX
  5
607
330
5F9
100
AcDbEntity
  8
0
100
AcDbVertex
100
AcDb2dVertex
 10
35.922703
 20
173.528717
 30
0.0
  0
VERTEX
  5
608
330
5F9
100
AcDbEntity
  8
0
100
AcDbVertex
100
AcDb2dVertex
 10
35.890568
 20
173.424622
 30
0.0
  0
VERTEX
  5
609
330
5F9
100
AcDbEntity
  8
0
100
AcDbVertex
100
AcDb2dVertex
 10
35.852547
 20
173.326782
 30
0.0
  0
VERTEX
  5
60A
330
5F9
100
AcDbEntity
  8
0
100
AcDbVertex
100
AcDb2dVertex
 10
35.807461
 20
173.231476
 30
0.0
  0
VERTEX
  5
60B
330
5F9
100
AcDbEntity
  8
0
100
AcDbVertex
100
AcDb2dVertex
 10
35.755383
 20
173.139221
 30
0.0
  0
VERTEX
  5
60C
330
5F9
100
AcDbEntity
  8
0
100
AcDbVertex
100
AcDb2dVertex
 10
35.696457
 20
173.05069
 30
0.0
  0
VERTEX
  5
60D
330
5F9
100
AcDbEntity
  8
0
100
AcDbVertex
100
AcDb2dVertex
 10
35.664494
 20
173.008026
 30
0.0
  0
VERTEX
  5
60E
330
5F9
100
AcDbEntity
  8
0
100
AcDbVertex
100
AcDb2dVertex
 10
35.630909
 20
172.966492
 30
0.0
  0
VERTEX
  5
60F
330
5F9
100
AcDbEntity
  8
0
100
AcDbVertex
100
AcDb2dVertex
 10
35.583675
 20
172.913055
 30
0.0
  0
VERTEX
  5
610
330
5F9
100
AcDbEntity
  8
0
100
AcDbVertex
100
AcDb2dVertex
 10
35.533737
 20
172.861969
 30
0.0
  0
VERTEX
  5
611
330
5F9
100
AcDbEntity
  8
0
100
AcDbVertex
100
AcDb2dVertex
 10
35.48122
 20
172.813446
 30
0.0
  0
VERTEX
  5
612
330
5F9
100
AcDbEntity
  8
0
100
AcDbVertex
100
AcDb2dVertex
 10
35.425861
 20
172.767242
 30
0.0
  0
VERTEX
  5
613
330
5F9
100
AcDbEntity
  8
0
100
AcDbVertex
100
AcDb2dVertex
 10
35.368134
 20
172.723907
 30
0.0
  0
VERTEX
  5
614
330
5F9
100
AcDbEntity
  8
0
100
AcDbVertex
100
AcDb2dVertex
 10
35.308327
 20
172.683594
 30
0.0
  0
SEQEND
  5
615
330
5F9
100
AcDbEntity
  8
0
 62
     7
  0
LINE
  5
616
330
1F
100
AcDbEntity
  8
0
 62
     7
100
AcDbLine
 10
35.63694
 20
174.945435
 30
0.0
 11
35.694908
 21
174.855591
 31
0.0
  0
LINE
  5
617
330
1F
100
AcDbEntity
  8
0
 62
     7
100
AcDbLine
 10
33.302967
 20
173.949982
 30
0.0
 11
32.902966
 21
173.949982
 31
0.0
  0
ARC
  5
618
330
1F
100
AcDbEntity
  8
0
 62
     7
100
AcDbCircle
 10
32.902966
 20
175.199982
 30
0.0
 40
1.25
100
AcDbArc
 50
90.000003
 51
269.999997
  0
LINE
  5
619
330
1F
100
AcDbEntity
  8
0
 62
     7
100
AcDbLine
 10
32.902966
 20
176.449982
 30
0.0
 11
33.302967
 21
176.449982
 31
0.0
  0
ARC
  5
61A
330
1F
100
AcDbEntity
  8
0
 62
     7
100
AcDbCircle
 10
33.302967
 20
175.199982
 30
0.0
 40
1.25
100
AcDbArc
 50
269.999997
 51
90.000003
  0
CIRCLE
  5
61B
330
1F
100
AcDbEntity
  8
0
 62
     7
100
AcDbCircle
 10
45.202965
 20
175.199982
 30
0.0
 40
1.25
  0
ARC
  5
61C
330
1F
100
AcDbEntity
  8
0
 62
     7
100
AcDbCircle
 10
42.462044
 20
181.049988
 30
0.0
 40
0.5
100
AcDbArc
 50
90.000003
 51
221.230582
  0
ARC
  5
61D
330
1F
100
AcDbEntity
  8
0
 62
     7
100
AcDbCircle
 10
35.843887
 20
181.049988
 30
0.0
 40
0.5
100
AcDbArc
 50
318.769437
 51
90.000003
  0
LINE
  5
61E
330
1F
100
AcDbEntity
  8
0
 62
     7
100
AcDbLine
 10
35.052967
 20
183.549988
 30
0.0
 11
35.052967
 21
182.550018
 31
0.0
  0
ARC
  5
61F
330
1F
100
AcDbEntity
  8
0
 62
     7
100
AcDbCircle
 10
33.352966
 20
183.049988
 30
0.0
 40
1.5
100
AcDbArc
 50
340.529081
 51
360.0
  0
LINE
  5
620
330
1F
100
AcDbEntity
  8
0
 62
     7
100
AcDbLine
 10
34.352966
 20
183.549988
 30
0.0
 11
34.352966
 21
183.649994
 31
0.0
  0
ARC
  5
621
330
1F
100
AcDbEntity
  8
0
 62
     7
100
AcDbCircle
 10
33.352966
 20
183.549988
 30
0.0
 40
1.0
100
AcDbArc
 50
269.999997
 51
360.0
  0
LINE
  5
622
330
1F
100
AcDbEntity
  8
0
 62
     7
100
AcDbLine
 10
34.852966
 20
183.649994
 30
0.0
 11
34.852966
 21
183.049988
 31
0.0
  0
LINE
  5
623
330
1F
100
AcDbEntity
  8
0
 62
     7
100
AcDbLine
 10
35.878826
 20
160.350006
 30
0.0
 11
36.101742
 21
160.350006
 31
0.0
  0
LINE
  5
624
330
1F
100
AcDbEntity
  8
0
 62
     7
100
AcDbLine
 10
42.204182
 20
160.350006
 30
0.0
 11
42.427109
 21
160.350006
 31
0.0
  0
LINE
  5
625
330
1F
100
AcDbEntity
  8
0
 62
     7
100
AcDbLine
 10
43.252968
 20
183.649994
 30
0.0
 11
43.252968
 21
183.549957
 31
0.0
  0
LINE
  5
626
330
1F
100
AcDbEntity
  8
0
 62
     7
100
AcDbLine
 10
43.452965
 20
183.649994
 30
0.0
 11
43.452965
 21
183.049988
 31
0.0
  0
ARC
  5
627
330
1F
100
AcDbEntity
  8
0
 62
     7
100
AcDbCircle
 10
44.952965
 20
183.049988
 30
0.0
 40
1.5
100
AcDbArc
 50
180.000009
 51
199.470938
  0
ARC
  5
628
330
1F
100
AcDbEntity
  8
0
 62
     7
100
AcDbCircle
 10
44.952965
 20
183.549988
 30
0.0
 40
1.0
100
AcDbArc
 50
180.000009
 51
269.999997
  0
LINE
  5
629
330
1F
100
AcDbEntity
  8
0
 62
     7
100
AcDbLine
 10
43.952965
 20
183.549988
 30
0.0
 11
43.952965
 21
183.649994
 31
0.0
  0
ARC
  5
62A
330
1F
100
AcDbEntity
  8
0
 62
     7
100
AcDbCircle
 10
39.152966
 20
178.149994
 30
0.0
 40
3.900000095367432
100
AcDbArc
 50
138.769418
 51
41.230577
  0
LINE
  5
62B
330
1F
100
AcDbEntity
  8
0
 62
     7
100
AcDbLine
 10
43.252968
 20
182.550018
 30
0.0
 11
43.252968
 21
183.549988
 31
0.0
  0
LINE
  5
62C
330
1F
100
AcDbEntity
  8
0
 62
     7
100
AcDbLine
 10
35.052967
 20
183.549988
 30
0.0
 11
35.052967
 21
183.650085
 31
0.0
  0
ARC
  5
62D
330
1F
100
AcDbEntity
  8
0
 62
     7
100
AcDbCircle
 10
42.752968
 20
183.549988
 30
0.0
 40
0.5
100
AcDbArc
 50
0.0
 51
11.538233
  0
ARC
  5
62E
330
1F
100
AcDbEntity
  8
0
 62
     7
100
AcDbCircle
 10
39.152966
 20
178.149994
 30
0.0
 40
3.75
100
AcDbArc
 50
80.018316
 51
99.981682
  0
ARC
  5
62F
330
1F
100
AcDbEntity
  8
0
 62
     7
100
AcDbCircle
 10
39.152966
 20
178.149994
 30
0.0
 40
3.75
100
AcDbArc
 50
279.981697
 51
80.018316
  0
ARC
  5
630
330
1F
100
AcDbEntity
  8
0
 62
     7
100
AcDbCircle
 10
39.152966
 20
178.149994
 30
0.0
 40
3.75
100
AcDbArc
 50
260.018304
 51
279.981697
  0
ARC
  5
631
330
1F
100
AcDbEntity
  8
0
 62
     7
100
AcDbCircle
 10
39.152966
 20
178.149994
 30
0.0
 40
3.75
100
AcDbArc
 50
99.981682
 51
260.018304
  0
LINE
  5
632
330
1F
100
AcDbEntity
  8
0
 62
     7
100
AcDbLine
 10
39.802967
 20
181.639984
 30
0.0
 11
39.802967
 21
181.843231
 31
0.0
  0
LINE
  5
633
330
1F
100
AcDbEntity
  8
0
 62
     7
100
AcDbLine
 10
39.802967
 20
174.660004
 30
0.0
 11
39.802967
 21
174.456757
 31
0.0
  0
LINE
  5
634
330
1F
100
AcDbEntity
  8
0
 62
     7
100
AcDbLine
 10
39.802967
 20
181.639984
 30
0.0
 11
39.802967
 21
174.660004
 31
0.0
  0
ARC
  5
635
330
1F
100
AcDbEntity
  8
0
 62
     7
100
AcDbCircle
 10
39.152966
 20
178.149994
 30
0.0
 40
3.549999952316284
100
AcDbArc
 50
280.55029
 51
79.449696
  0
LINE
  5
636
330
1F
100
AcDbEntity
  8
0
 62
     7
100
AcDbLine
 10
38.502968
 20
174.660004
 30
0.0
 11
38.502968
 21
174.456757
 31
0.0
  0
LINE
  5
637
330
1F
100
AcDbEntity
  8
0
 62
     7
100
AcDbLine
 10
38.502968
 20
181.639984
 30
0.0
 11
38.502968
 21
181.843231
 31
0.0
  0
LINE
  5
638
330
1F
100
AcDbEntity
  8
0
 62
     7
100
AcDbLine
 10
38.502968
 20
174.660004
 30
0.0
 11
38.502968
 21
181.639984
 31
0.0
  0
ARC
  5
639
330
1F
100
AcDbEntity
  8
0
 62
     7
100
AcDbCircle
 10
39.152966
 20
178.149994
 30
0.0
 40
3.549999952316284
100
AcDbArc
 50
100.550302
 51
259.449705
  0
CIRCLE
  5
63A
330
1F
100
AcDbEntity
  8
0
 62
     7
100
AcDbCircle
 10
39.152966
 20
166.649994
 30
0.0
 40
7.0
  0
CIRCLE
  5
63B
330
1F
100
AcDbEntity
  8
0
 62
     7
100
AcDbCircle
 10
39.152966
 20
166.649994
 30
0.0
 40
6.900000095367432
  0
LINE
  5
63C
330
1F
100
AcDbEntity
  8
0
 62
     7
100
AcDbLine
 10
41.520103
 20
162.75
 30
0.0
 11
43.714035
 21
166.549988
 31
0.0
  0
ARC
  5
63D
330
1F
100
AcDbEntity
  8
0
 62
     7
100
AcDbCircle
 10
41.346897
 20
162.850006
 30
0.0
 40
0.2000000029802322
100
AcDbArc
 50
269.999997
 51
329.999989
  0
LINE
  5
63E
330
1F
100
AcDbEntity
  8
0
 62
     7
100
AcDbLine
 10
36.959038
 20
162.649994
 30
0.0
 11
41.346897
 21
162.649994
 31
0.0
  0
ARC
  5
63F
330
1F
100
AcDbEntity
  8
0
 62
     7
100
AcDbCircle
 10
36.959038
 20
162.850006
 30
0.0
 40
0.2000000029802322
100
AcDbArc
 50
210.000003
 51
269.999997
  0
LINE
  5
640
330
1F
100
AcDbEntity
  8
0
 62
     7
100
AcDbLine
 10
34.5919
 20
166.549988
 30
0.0
 11
36.785831
 21
162.75
 31
0.0
  0
ARC
  5
641
330
1F
100
AcDbEntity
  8
0
 62
     7
100
AcDbCircle
 10
34.765106
 20
166.649994
 30
0.0
 40
0.2000000029802322
100
AcDbArc
 50
149.999997
 51
210.000003
  0
LINE
  5
642
330
1F
100
AcDbEntity
  8
0
 62
     7
100
AcDbLine
 10
36.785831
 20
170.549988
 30
0.0
 11
34.5919
 21
166.75
 31
0.0
  0
ARC
  5
643
330
1F
100
AcDbEntity
  8
0
 62
     7
100
AcDbCircle
 10
36.959038
 20
170.449982
 30
0.0
 40
0.2000000029802322
100
AcDbArc
 50
90.000003
 51
149.999997
  0
LINE
  5
644
330
1F
100
AcDbEntity
  8
0
 62
     7
100
AcDbLine
 10
41.346897
 20
170.649994
 30
0.0
 11
36.959038
 21
170.649994
 31
0.0
  0
ARC
  5
645
330
1F
100
AcDbEntity
  8
0
 62
     7
100
AcDbCircle
 10
41.346897
 20
170.449982
 30
0.0
 40
0.2000000029802322
100
AcDbArc
 50
30.000001
 51
90.000003
  0
LINE
  5
646
330
1F
100
AcDbEntity
  8
0
 62
     7
100
AcDbLine
 10
43.714035
 20
166.75
 30
0.0
 11
41.520103
 21
170.549988
 31
0.0
  0
ARC
  5
647
330
1F
100
AcDbEntity
  8
0
 62
     7
100
AcDbCircle
 10
43.540829
 20
166.649994
 30
0.0
 40
0.2000000029802322
100
AcDbArc
 50
329.999989
 51
30.000001
  0
ARC
  5
648
330
1F
100
AcDbEntity
  8
0
 62
     7
100
AcDbCircle
 10
39.152966
 20
163.994171
 30
0.0
 40
0.2000000029802322
100
AcDbArc
 50
240.00001
 51
299.999992
  0
LINE
  5
649
330
1F
100
AcDbEntity
  8
0
 62
     7
100
AcDbLine
 10
36.752968
 20
165.148895
 30
0.0
 11
39.052967
 21
163.820984
 31
0.0
  0
ARC
  5
64A
330
1F
100
AcDbEntity
  8
0
 62
     7
100
AcDbCircle
 10
36.852966
 20
165.322083
 30
0.0
 40
0.2000000029802322
100
AcDbArc
 50
179.999991
 51
240.00001
  0
LINE
  5
64B
330
1F
100
AcDbEntity
  8
0
 62
     7
100
AcDbLine
 10
36.652966
 20
167.977905
 30
0.0
 11
36.652966
 21
165.322083
 31
0.0
  0
ARC
  5
64C
330
1F
100
AcDbEntity
  8
0
 62
     7
100
AcDbCircle
 10
36.852966
 20
167.977905
 30
0.0
 40
0.2000000029802322
100
AcDbArc
 50
120.000003
 51
179.999991
  0
LINE
  5
64D
330
1F
100
AcDbEntity
  8
0
 62
     7
100
AcDbLine
 10
39.052967
 20
169.479004
 30
0.0
 11
36.752968
 21
168.151093
 31
0.0
  0
ARC
  5
64E
330
1F
100
AcDbEntity
  8
0
 62
     7
100
AcDbCircle
 10
39.152966
 20
169.305817
 30
0.0
 40
0.2000000029802322
100
AcDbArc
 50
60.000002
 51
120.000003
  0
LINE
  5
64F
330
1F
100
AcDbEntity
  8
0
 62
     7
100
AcDbLine
 10
41.552967
 20
168.151093
 30
0.0
 11
39.252968
 21
169.479004
 31
0.0
  0
ARC
  5
650
330
1F
100
AcDbEntity
  8
0
 62
     7
100
AcDbCircle
 10
41.452965
 20
167.977905
 30
0.0
 40
0.2000000029802322
100
AcDbArc
 50
0.0
 51
60.000002
  0
LINE
  5
651
330
1F
100
AcDbEntity
  8
0
 62
     7
100
AcDbLine
 10
41.652966
 20
165.322083
 30
0.0
 11
41.652966
 21
167.977905
 31
0.0
  0
ARC
  5
652
330
1F
100
AcDbEntity
  8
0
 62
     7
100
AcDbCircle
 10
41.452965
 20
165.322083
 30
0.0
 40
0.2000000029802322
100
AcDbArc
 50
299.999992
 51
360.0
  0
LINE
  5
653
330
1F
100
AcDbEntity
  8
0
 62
     7
100
AcDbLine
 10
39.252968
 20
163.820984
 30
0.0
 11
41.552967
 21
165.148895
 31
0.0
  0
LINE
  5
654
330
1F
100
AcDbEntity
  8
0
 62
     7
100
AcDbLine
 10
42.552967
 20
157.449982
 30
0.0
 11
42.552967
 21
91.649994
 31
0.0
  0
LINE
  5
655
330
1F
100
AcDbEntity
  8
0
 62
     7
100
AcDbLine
 10
35.752968
 20
157.449982
 30
0.0
 11
35.752968
 21
91.649994
 31
0.0
  0
LINE
  5
656
330
1F
100
AcDbEntity
  8
0
 62
     7
100
AcDbLine
 10
42.552967
 20
91.649994
 30
0.0
 11
42.552967
 21
81.649994
 31
0.0
  0
LINE
  5
657
330
1F
100
AcDbEntity
  8
0
 62
     7
100
AcDbLine
 10
35.752968
 20
91.649994
 30
0.0
 11
35.752968
 21
81.649994
 31
0.0
  0
LINE
  5
658
330
1F
100
AcDbEntity
  8
0
 62
     7
100
AcDbLine
 10
42.552967
 20
81.649994
 30
0.0
 11
35.752968
 21
81.649994
 31
0.0
  0
LINE
  5
659
330
1F
100
AcDbEntity
  8
0
 62
     7
100
AcDbLine
 10
47.752945
 20
181.054871
 30
0.0
 11
47.752968
 21
181.049988
 31
0.0
  0
LINE
  5
65A
330
1F
100
AcDbEntity
  8
0
 62
     7
100
AcDbLine
 10
47.751881
 20
181.082916
 30
0.0
 11
47.752968
 21
181.049988
 31
0.0
  0
LINE
  5
65B
330
1F
100
AcDbEntity
  8
0
 62
     7
100
AcDbLine
 10
47.752312
 20
181.075623
 30
0.0
 11
47.752968
 21
181.049988
 31
0.0
  0
POLYLINE
  5
65C
330
1F
100
AcDbEntity
  8
0
 62
     7
100
AcDb2dPolyline
 66
     1
 10
0.0
 20
0.0
 30
0.0
  0
VERTEX
  5
65D
330
65C
100
AcDbEntity
  8
0
100
AcDbVertex
100
AcDb2dVertex
 10
170.450958
 20
92.590164
 30
0.0
  0
VERTEX
  5
65E
330
65C
100
AcDbEntity
  8
0
100
AcDbVertex
100
AcDb2dVertex
 10
169.990952
 20
93.154678
 30
0.0
  0
VERTEX
  5
65F
330
65C
100
AcDbEntity
  8
0
100
AcDbVertex
100
AcDb2dVertex
 10
169.300964
 20
93.396614
 30
0.0
  0
VERTEX
  5
660
330
65C
100
AcDbEntity
  8
0
100
AcDbVertex
100
AcDb2dVertex
 10
168.610962
 20
93.396614
 30
0.0
  0
VERTEX
  5
661
330
65C
100
AcDbEntity
  8
0
100
AcDbVertex
100
AcDb2dVertex
 10
167.920959
 20
93.154678
 30
0.0
  0
VERTEX
  5
662
330
65C
100
AcDbEntity
  8
0
100
AcDbVertex
100
AcDb2dVertex
 10
167.460953
 20
92.509514
 30
0.0
  0
VERTEX
  5
663
330
65C
100
AcDbEntity
  8
0
100
AcDbVertex
100
AcDb2dVertex
 10
167.460953
 20
91.945
 30
0.0
  0
VERTEX
  5
664
330
65C
100
AcDbEntity
  8
0
100
AcDbVertex
100
AcDb2dVertex
 10
167.863464
 20
91.380486
 30
0.0
  0
SEQEND
  5
665
330
65C
100
AcDbEntity
  8
0
 62
     7
  0
POLYLINE
  5
666
330
1F
100
AcDbEntity
  8
0
 62
     7
100
AcDb2dPolyline
 66
     1
 10
0.0
 20
0.0
 30
0.0
  0
VERTEX
  5
667
330
666
100
AcDbEntity
  8
0
100
AcDbVertex
100
AcDb2dVertex
 10
168.955963
 20
90.977257
 30
0.0
  0
VERTEX
  5
668
330
666
100
AcDbEntity
  8
0
100
AcDbVertex
100
AcDb2dVertex
 10
169.47345
 20
90.815971
 30
0.0
  0
SEQEND
  5
669
330
666
100
AcDbEntity
  8
0
 62
     7
  0
POLYLINE
  5
66A
330
1F
100
AcDbEntity
  8
0
 62
     7
100
AcDb2dPolyline
 66
     1
 10
0.0
 20
0.0
 30
0.0
  0
VERTEX
  5
66B
330
66A
100
AcDbEntity
  8
0
100
AcDbVertex
100
AcDb2dVertex
 10
169.990952
 20
88.557907
 30
0.0
  0
VERTEX
  5
66C
330
66A
100
AcDbEntity
  8
0
100
AcDbVertex
100
AcDb2dVertex
 10
169.300964
 20
88.396614
 30
0.0
  0
VERTEX
  5
66D
330
66A
100
AcDbEntity
  8
0
100
AcDbVertex
100
AcDb2dVertex
 10
168.610962
 20
88.396614
 30
0.0
  0
VERTEX
  5
66E
330
66A
100
AcDbEntity
  8
0
100
AcDbVertex
100
AcDb2dVertex
 10
167.920959
 20
88.719193
 30
0.0
  0
VERTEX
  5
66F
330
66A
100
AcDbEntity
  8
0
100
AcDbVertex
100
AcDb2dVertex
 10
167.460953
 20
89.283714
 30
0.0
  0
SEQEND
  5
670
330
66A
100
AcDbEntity
  8
0
 62
     7
  0
POLYLINE
  5
671
330
1F
100
AcDbEntity
  8
0
 62
     7
100
AcDb2dPolyline
 66
     1
 10
0.0
 20
0.0
 30
0.0
  0
VERTEX
  5
672
330
671
100
AcDbEntity
  8
0
100
AcDbVertex
100
AcDb2dVertex
 10
168.495956
 20
91.057907
 30
0.0
  0
VERTEX
  5
673
330
671
100
AcDbEntity
  8
0
100
AcDbVertex
100
AcDb2dVertex
 10
168.955963
 20
90.977257
 30
0.0
  0
SEQEND
  5
674
330
671
100
AcDbEntity
  8
0
 62
     7
  0
POLYLINE
  5
675
330
1F
100
AcDbEntity
  8
0
 62
     7
100
AcDb2dPolyline
 66
     1
 10
0.0
 20
0.0
 30
0.0
  0
VERTEX
  5
676
330
675
100
AcDbEntity
  8
0
100
AcDbVertex
100
AcDb2dVertex
 10
167.863464
 20
91.380486
 30
0.0
  0
VERTEX
  5
677
330
675
100
AcDbEntity
  8
0
100
AcDbVertex
100
AcDb2dVertex
 10
168.495956
 20
91.057907
 30
0.0
  0
SEQEND
  5
678
330
675
100
AcDbEntity
  8
0
 62
     7
  0
POLYLINE
  5
679
330
1F
100
AcDbEntity
  8
0
 62
     7
100
AcDb2dPolyline
 66
     1
 10
0.0
 20
0.0
 30
0.0
  0
VERTEX
  5
67A
330
679
100
AcDbEntity
  8
0
100
AcDbVertex
100
AcDb2dVertex
 10
170.450958
 20
89.203064
 30
0.0
  0
VERTEX
  5
67B
330
679
100
AcDbEntity
  8
0
100
AcDbVertex
100
AcDb2dVertex
 10
169.990952
 20
88.557907
 30
0.0
  0
SEQEND
  5
67C
330
679
100
AcDbEntity
  8
0
 62
     7
  0
POLYLINE
  5
67D
330
1F
100
AcDbEntity
  8
0
 62
     7
100
AcDb2dPolyline
 66
     1
 10
0.0
 20
0.0
 30
0.0
  0
VERTEX
  5
67E
330
67D
100
AcDbEntity
  8
0
100
AcDbVertex
100
AcDb2dVertex
 10
170.450958
 20
89.928871
 30
0.0
  0
VERTEX
  5
67F
330
67D
100
AcDbEntity
  8
0
100
AcDbVertex
100
AcDb2dVertex
 10
170.450958
 20
89.203064
 30
0.0
  0
SEQEND
  5
680
330
67D
100
AcDbEntity
  8
0
 62
     7
  0
POLYLINE
  5
681
330
1F
100
AcDbEntity
  8
0
 62
     7
100
AcDb2dPolyline
 66
     1
 10
0.0
 20
0.0
 30
0.0
  0
VERTEX
  5
682
330
681
100
AcDbEntity
  8
0
100
AcDbVertex
100
AcDb2dVertex
 10
169.47345
 20
90.815971
 30
0.0
  0
VERTEX
  5
683
330
681
100
AcDbEntity
  8
0
100
AcDbVertex
100
AcDb2dVertex
 10
169.990952
 20
90.493385
 30
0.0
  0
VERTEX
  5
684
330
681
100
AcDbEntity
  8
0
100
AcDbVertex
100
AcDb2dVertex
 10
170.450958
 20
89.928871
 30
0.0
  0
SEQEND
  5
685
330
681
100
AcDbEntity
  8
0
 62
     7
  0
POLYLINE
  5
686
330
1F
100
AcDbEntity
  8
0
 62
     7
100
AcDb2dPolyline
 66
     1
 10
0.0
 20
0.0
 30
0.0
  0
VERTEX
  5
687
330
686
100
AcDbEntity
  8
0
100
AcDbVertex
100
AcDb2dVertex
 10
173.365952
 20
93.396614
 30
0.0
  0
VERTEX
  5
688
330
686
100
AcDbEntity
  8
0
100
AcDbVertex
100
AcDb2dVertex
 10
171.41095
 20
93.396614
 30
0.0
  0
SEQEND
  5
689
330
686
100
AcDbEntity
  8
0
 62
     7
  0
POLYLINE
  5
68A
330
1F
100
AcDbEntity
  8
0
 62
     7
100
AcDb2dPolyline
 66
     1
 10
0.0
 20
0.0
 30
0.0
  0
VERTEX
  5
68B
330
68A
100
AcDbEntity
  8
0
100
AcDbVertex
100
AcDb2dVertex
 10
171.41095
 20
90.977257
 30
0.0
  0
VERTEX
  5
68C
330
68A
100
AcDbEntity
  8
0
100
AcDbVertex
100
AcDb2dVertex
 10
173.480957
 20
90.977257
 30
0.0
  0
SEQEND
  5
68D
330
68A
100
AcDbEntity
  8
0
 62
     7
  0
POLYLINE
  5
68E
330
1F
100
AcDbEntity
  8
0
 62
     7
100
AcDb2dPolyline
 66
     1
 10
0.0
 20
0.0
 30
0.0
  0
VERTEX
  5
68F
330
68E
100
AcDbEntity
  8
0
100
AcDbVertex
100
AcDb2dVertex
 10
171.41095
 20
93.396614
 30
0.0
  0
VERTEX
  5
690
330
68E
100
AcDbEntity
  8
0
100
AcDbVertex
100
AcDb2dVertex
 10
171.41095
 20
88.396614
 30
0.0
  0
SEQEND
  5
691
330
68E
100
AcDbEntity
  8
0
 62
     7
  0
POLYLINE
  5
692
330
1F
100
AcDbEntity
  8
0
 62
     7
100
AcDb2dPolyline
 66
     1
 10
0.0
 20
0.0
 30
0.0
  0
VERTEX
  5
693
330
692
100
AcDbEntity
  8
0
100
AcDbVertex
100
AcDb2dVertex
 10
173.365952
 20
93.396614
 30
0.0
  0
VERTEX
  5
694
330
692
100
AcDbEntity
  8
0
100
AcDbVertex
100
AcDb2dVertex
 10
173.768463
 20
93.154678
 30
0.0
  0
VERTEX
  5
695
330
692
100
AcDbEntity
  8
0
100
AcDbVertex
100
AcDb2dVertex
 10
174.170959
 20
92.590164
 30
0.0
  0
VERTEX
  5
696
330
692
100
AcDbEntity
  8
0
100
AcDbVertex
100
AcDb2dVertex
 10
174.170959
 20
91.783714
 30
0.0
  0
VERTEX
  5
697
330
692
100
AcDbEntity
  8
0
100
AcDbVertex
100
AcDb2dVertex
 10
173.883453
 20
91.299843
 30
0.0
  0
VERTEX
  5
698
330
692
100
AcDbEntity
  8
0
100
AcDbVertex
100
AcDb2dVertex
 10
173.480957
 20
90.977257
 30
0.0
  0
SEQEND
  5
699
330
692
100
AcDbEntity
  8
0
 62
     7
  0
POLYLINE
  5
69A
330
1F
100
AcDbEntity
  8
0
 62
     7
100
AcDb2dPolyline
 66
     1
 10
0.0
 20
0.0
 30
0.0
  0
VERTEX
  5
69B
330
69A
100
AcDbEntity
  8
0
100
AcDbVertex
100
AcDb2dVertex
 10
173.02095
 20
90.977257
 30
0.0
  0
VERTEX
  5
69C
330
69A
100
AcDbEntity
  8
0
100
AcDbVertex
100
AcDb2dVertex
 10
174.170959
 20
88.396614
 30
0.0
  0
SEQEND
  5
69D
330
69A
100
AcDbEntity
  8
0
 62
     7
  0
POLYLINE
  5
69E
330
1F
100
AcDbEntity
  8
0
 62
     7
100
AcDb2dPolyline
 66
     1
 10
0.0
 20
0.0
 30
0.0
  0
VERTEX
  5
69F
330
69E
100
AcDbEntity
  8
0
100
AcDbVertex
100
AcDb2dVertex
 10
178.235962
 20
88.396614
 30
0.0
  0
VERTEX
  5
6A0
330
69E
100
AcDbEntity
  8
0
100
AcDbVertex
100
AcDb2dVertex
 10
175.475952
 20
88.396614
 30
0.0
  0
VERTEX
  5
6A1
330
69E
100
AcDbEntity
  8
0
100
AcDbVertex
100
AcDb2dVertex
 10
177.430954
 20
90.654678
 30
0.0
  0
VERTEX
  5
6A2
330
69E
100
AcDbEntity
  8
0
100
AcDbVertex
100
AcDb2dVertex
 10
177.83345
 20
91.299843
 30
0.0
  0
VERTEX
  5
6A3
330
69E
100
AcDbEntity
  8
0
100
AcDbVertex
100
AcDb2dVertex
 10
178.005951
 20
91.783714
 30
0.0
  0
VERTEX
  5
6A4
330
69E
100
AcDbEntity
  8
0
100
AcDbVertex
100
AcDb2dVertex
 10
178.005951
 20
92.267578
 30
0.0
  0
VERTEX
  5
6A5
330
69E
100
AcDbEntity
  8
0
100
AcDbVertex
100
AcDb2dVertex
 10
177.83345
 20
92.8321
 30
0.0
  0
VERTEX
  5
6A6
330
69E
100
AcDbEntity
  8
0
100
AcDbVertex
100
AcDb2dVertex
 10
177.66095
 20
93.154678
 30
0.0
  0
VERTEX
  5
6A7
330
69E
100
AcDbEntity
  8
0
100
AcDbVertex
100
AcDb2dVertex
 10
177.258453
 20
93.396614
 30
0.0
  0
VERTEX
  5
6A8
330
69E
100
AcDbEntity
  8
0
100
AcDbVertex
100
AcDb2dVertex
 10
176.568451
 20
93.396614
 30
0.0
  0
VERTEX
  5
6A9
330
69E
100
AcDbEntity
  8
0
100
AcDbVertex
100
AcDb2dVertex
 10
176.165955
 20
93.154678
 30
0.0
  0
VERTEX
  5
6AA
330
69E
100
AcDbEntity
  8
0
100
AcDbVertex
100
AcDb2dVertex
 10
175.993454
 20
92.912743
 30
0.0
  0
VERTEX
  5
6AB
330
69E
100
AcDbEntity
  8
0
100
AcDbVertex
100
AcDb2dVertex
 10
175.763458
 20
92.428871
 30
0.0
  0
VERTEX
  5
6AC
330
69E
100
AcDbEntity
  8
0
100
AcDbVertex
100
AcDb2dVertex
 10
175.763458
 20
92.186935
 30
0.0
  0
SEQEND
  5
6AD
330
69E
100
AcDbEntity
  8
0
 62
     7
  0
POLYLINE
  5
6AE
330
1F
100
AcDbEntity
  8
0
 62
     7
100
AcDb2dPolyline
 66
     1
 10
0.0
 20
0.0
 30
0.0
  0
VERTEX
  5
6AF
330
6AE
100
AcDbEntity
  8
0
100
AcDbVertex
100
AcDb2dVertex
 10
182.070953
 20
90.170807
 30
0.0
  0
VERTEX
  5
6B0
330
6AE
100
AcDbEntity
  8
0
100
AcDbVertex
100
AcDb2dVertex
 10
179.425964
 20
90.170807
 30
0.0
  0
VERTEX
  5
6B1
330
6AE
100
AcDbEntity
  8
0
100
AcDbVertex
100
AcDb2dVertex
 10
181.380951
 20
93.396614
 30
0.0
  0
VERTEX
  5
6B2
330
6AE
100
AcDbEntity
  8
0
100
AcDbVertex
100
AcDb2dVertex
 10
181.380951
 20
90.977257
 30
0.0
  0
VERTEX
  5
6B3
330
6AE
100
AcDbEntity
  8
0
100
AcDbVertex
100
AcDb2dVertex
 10
181.380951
 20
88.396614
 30
0.0
  0
SEQEND
  5
6B4
330
6AE
100
AcDbEntity
  8
0
 62
     7
  0
POLYLINE
  5
6B5
330
1F
100
AcDbEntity
  8
0
 62
     7
100
AcDb2dPolyline
 66
     1
 10
0.0
 20
0.0
 30
0.0
  0
VERTEX
  5
6B6
330
6B5
100
AcDbEntity
  8
0
100
AcDbVertex
100
AcDb2dVertex
 10
183.548462
 20
90.412743
 30
0.0
  0
VERTEX
  5
6B7
330
6B5
100
AcDbEntity
  8
0
100
AcDbVertex
100
AcDb2dVertex
 10
186.193451
 20
90.412743
 30
0.0
  0
SEQEND
  5
6B8
330
6B5
100
AcDbEntity
  8
0
 62
     7
  0
POLYLINE
  5
6B9
330
1F
100
AcDbEntity
  8
0
 62
     7
100
AcDb2dPolyline
 66
     1
 10
0.0
 20
0.0
 30
0.0
 70
     1
  0
VERTEX
  5
6BA
330
6B9
100
AcDbEntity
  8
0
100
AcDbVertex
100
AcDb2dVertex
 10
188.475952
 20
93.396614
 30
0.0
  0
VERTEX
  5
6BB
330
6B9
100
AcDbEntity
  8
0
100
AcDbVertex
100
AcDb2dVertex
 10
187.84346
 20
93.154678
 30
0.0
  0
VERTEX
  5
6BC
330
6B9
100
AcDbEntity
  8
0
100
AcDbVertex
100
AcDb2dVertex
 10
187.440948
 20
92.348228
 30
0.0
  0
VERTEX
  5
6BD
330
6B9
100
AcDbEntity
  8
0
100
AcDbVertex
100
AcDb2dVertex
 10
187.268463
 20
91.541779
 30
0.0
  0
VERTEX
  5
6BE
330
6B9
100
AcDbEntity
  8
0
100
AcDbVertex
100
AcDb2dVertex
 10
187.268463
 20
90.493385
 30
0.0
  0
VERTEX
  5
6BF
330
6B9
100
AcDbEntity
  8
0
100
AcDbVertex
100
AcDb2dVertex
 10
187.440948
 20
89.445
 30
0.0
  0
VERTEX
  5
6C0
330
6B9
100
AcDbEntity
  8
0
100
AcDbVertex
100
AcDb2dVertex
 10
187.84346
 20
88.63855
 30
0.0
  0
VERTEX
  5
6C1
330
6B9
100
AcDbEntity
  8
0
100
AcDbVertex
100
AcDb2dVertex
 10
188.475952
 20
88.396614
 30
0.0
  0
VERTEX
  5
6C2
330
6B9
100
AcDbEntity
  8
0
100
AcDbVertex
100
AcDb2dVertex
 10
188.935959
 20
88.396614
 30
0.0
  0
VERTEX
  5
6C3
330
6B9
100
AcDbEntity
  8
0
100
AcDbVertex
100
AcDb2dVertex
 10
189.568451
 20
88.63855
 30
0.0
  0
VERTEX
  5
6C4
330
6B9
100
AcDbEntity
  8
0
100
AcDbVertex
100
AcDb2dVertex
 10
189.970947
 20
89.445
 30
0.0
  0
VERTEX
  5
6C5
330
6B9
100
AcDbEntity
  8
0
100
AcDbVertex
100
AcDb2dVertex
 10
190.143463
 20
90.412743
 30
0.0
  0
VERTEX
  5
6C6
330
6B9
100
AcDbEntity
  8
0
100
AcDbVertex
100
AcDb2dVertex
 10
190.143463
 20
91.541779
 30
0.0
  0
VERTEX
  5
6C7
330
6B9
100
AcDbEntity
  8
0
100
AcDbVertex
100
AcDb2dVertex
 10
189.970947
 20
92.348228
 30
0.0
  0
VERTEX
  5
6C8
330
6B9
100
AcDbEntity
  8
0
100
AcDbVertex
100
AcDb2dVertex
 10
189.568451
 20
93.154678
 30
0.0
  0
VERTEX
  5
6C9
330
6B9
100
AcDbEntity
  8
0
100
AcDbVertex
100
AcDb2dVertex
 10
188.935959
 20
93.396614
 30
0.0
  0
SEQEND
  5
6CA
330
6B9
100
AcDbEntity
  8
0
 62
     7
  0
POLYLINE
  5
6CB
330
1F
100
AcDbEntity
  8
0
 62
     7
100
AcDb2dPolyline
 66
     1
 10
0.0
 20
0.0
 30
0.0
  0
VERTEX
  5
6CC
330
6CB
100
AcDbEntity
  8
0
100
AcDbVertex
100
AcDb2dVertex
 10
192.138458
 20
92.75145
 30
0.0
  0
VERTEX
  5
6CD
330
6CB
100
AcDbEntity
  8
0
100
AcDbVertex
100
AcDb2dVertex
 10
192.77095
 20
93.396614
 30
0.0
  0
VERTEX
  5
6CE
330
6CB
100
AcDbEntity
  8
0
100
AcDbVertex
100
AcDb2dVertex
 10
192.77095
 20
88.396614
 30
0.0
  0
SEQEND
  5
6CF
330
6CB
100
AcDbEntity
  8
0
 62
     7
  0
POLYLINE
  5
6D0
330
1F
100
AcDbEntity
  8
0
 62
     7
100
AcDb2dPolyline
 66
     1
 10
0.0
 20
0.0
 30
0.0
  0
VERTEX
  5
6D1
330
6D0
100
AcDbEntity
  8
0
100
AcDbVertex
100
AcDb2dVertex
 10
191.793457
 20
92.509514
 30
0.0
  0
VERTEX
  5
6D2
330
6D0
100
AcDbEntity
  8
0
100
AcDbVertex
100
AcDb2dVertex
 10
192.138458
 20
92.75145
 30
0.0
  0
SEQEND
  5
6D3
330
6D0
100
AcDbEntity
  8
0
 62
     7
  0
POLYLINE
  5
6D4
330
1F
100
AcDbEntity
  8
0
 62
     7
100
AcDb2dPolyline
 66
     1
 10
0.0
 20
0.0
 30
0.0
  0
VERTEX
  5
6D5
330
6D4
100
AcDbEntity
  8
0
100
AcDbVertex
100
AcDb2dVertex
 10
195.225952
 20
93.396614
 30
0.0
  0
VERTEX
  5
6D6
330
6D4
100
AcDbEntity
  8
0
100
AcDbVertex
100
AcDb2dVertex
 10
197.985962
 20
93.396614
 30
0.0
  0
VERTEX
  5
6D7
330
6D4
100
AcDbEntity
  8
0
100
AcDbVertex
100
AcDb2dVertex
 10
195.915955
 20
88.396614
 30
0.0
  0
SEQEND
  5
6D8
330
6D4
100
AcDbEntity
  8
0
 62
     7
  0
ENDSEC
  0
SECTION
  2
OBJECTS
  0
DICTIONARY
  5
C
330
0
100
AcDbDictionary
  3
ACAD_GROUP
350
D
  3
ACAD_MLINESTYLE
350
17
  3
ACAD_SCALELIST
350
47
  0
DICTIONARY
  5
D
102
{ACAD_REACTORS
330
C
102
}
330
C
100
AcDbDictionary
  0
DICTIONARY
  5
17
102
{ACAD_REACTORS
330
C
102
}
330
C
100
AcDbDictionary
  3
STANDARD
350
18
  0
DICTIONARY
  5
47
102
{ACAD_REACTORS
330
C
102
}
330
C
100
AcDbDictionary
  0
MLINESTYLE
  5
18
102
{ACAD_REACTORS
330
17
102
}
330
17
100
AcDbMlineStyle
  2
Standard
 70
     0
  3

 62
   256
 51
90.0
 52
90.0
 71
     2
 49
0.5
 62
   256
  6
BYLAYER
 49
-0.5
 62
   256
  6
BYLAYER
  0
ENDSEC
  0
EOF
