  0
SECTION
  2
HEADER
  9
$ACADVER
  1
AC1014
  9
$ACADMAINTVER
 70
     9
  9
$DWGCODEPAGE
  3
ANSI_1252
  9
$INSBASE
 10
0.0
 20
0.0
 30
0.0
  9
$EXTMIN
 10
0.0
 20
0.0
 30
0.0
  9
$EXTMAX
 10
530.306946
 20
276.849976
 30
2.0
  9
$LIMMIN
 10
0.0
 20
0.0
  9
$LIMMAX
 10
420.0
 20
297.0
  9
$ORTHOMODE
 70
     0
  9
$REGENMODE
 70
     1
  9
$FILLMODE
 70
     1
  9
$QTEXTMODE
 70
     0
  9
$MIRRTEXT
 70
     1
  9
$DRAGMODE
 70
     2
  9
$LTSCALE
 40
1.0
  9
$OSMODE
 70
     0
  9
$ATTMODE
 70
     1
  9
$TEXTSIZE
 40
2.5
  9
$TRACEWID
 40
1.0
  9
$TEXTSTYLE
  7
STANDARD
  9
$CLAYER
  8
0
  9
$CELTYPE
  6
BYLAYER
  9
$CECOLOR
 62
   256
  9
$CELTSCALE
 40
1.0
  9
$DELOBJ
 70
     1
  9
$DISPSILH
 70
     0
  9
$DIMSCALE
 40
1.0
  9
$DIMASZ
 40
2.5
  9
$DIMEXO
 40
0.625
  9
$DIMDLI
 40
3.75
  9
$DIMRND
 40
0.0
  9
$DIMDLE
 40
0.0
  9
$DIMEXE
 40
1.25
  9
$DIMTP
 40
0.0
  9
$DIMTM
 40
0.0
  9
$DIMTXT
 40
2.5
  9
$DIMCEN
 40
2.5
  9
$DIMTSZ
 40
0.0
  9
$DIMTOL
 70
     0
  9
$DIMLIM
 70
     0
  9
$DIMTIH
 70
     0
  9
$DIMTOH
 70
     0
  9
$DIMSE1
 70
     0
  9
$DIMSE2
 70
     0
  9
$DIMTAD
 70
     1
  9
$DIMZIN
 70
     8
  9
$DIMBLK
  1

  9
$DIMASO
 70
     1
  9
$DIMSHO
 70
     1
  9
$DIMPOST
  1

  9
$DIMAPOST
  1

  9
$DIMALT
 70
     0
  9
$DIMALTD
 70
     3
  9
$DIMALTF
 40
0.03937
  9
$DIMLFAC
 40
1.0
  9
$DIMTOFL
 70
     1
  9
$DIMTVP
 40
0.0
  9
$DIMTIX
 70
     0
  9
$DIMSOXD
 70
     0
  9
$DIMSAH
 70
     0
  9
$DIMBLK1
  1

  9
$DIMBLK2
  1

  9
$DIMSTYLE
  2
STANDARD
  9
$DIMCLRD
 70
     0
  9
$DIMCLRE
 70
     0
  9
$DIMCLRT
 70
     0
  9
$DIMTFAC
 40
1.0
  9
$DIMGAP
 40
0.625
  9
$DIMJUST
 70
     0
  9
$DIMSD1
 70
     0
  9
$DIMSD2
 70
     0
  9
$DIMTOLJ
 70
     0
  9
$DIMTZIN
 70
     8
  9
$DIMALTZ
 70
     0
  9
$DIMALTTZ
 70
     0
  9
$DIMFIT
 70
     0
  9
$DIMUPT
 70
     0
  9
$DIMUNIT
 70
     2
  9
$DIMDEC
 70
     2
  9
$DIMTDEC
 70
     2
  9
$DIMALTU
 70
     2
  9
$DIMALTTD
 70
     3
  9
$DIMTXSTY
  7
STANDARD
  9
$DIMAUNIT
 70
     0
  9
$LUNITS
 70
     2
  9
$LUPREC
 70
     4
  9
$SKETCHINC
 40
1.0
  9
$FILLETRAD
 40
2.5
  9
$AUNITS
 70
     0
  9
$AUPREC
 70
     0
  9
$MENU
  1
.
  9
$ELEVATION
 40
0.0
  9
$PELEVATION
 40
0.0
  9
$THICKNESS
 40
0.0
  9
$LIMCHECK
 70
     0
  9
$BLIPMODE
 70
     1
  9
$CHAMFERA
 40
2.5
  9
$CHAMFERB
 40
2.5
  9
$CHAMFERC
 40
0.0
  9
$CHAMFERD
 40
0.0
  9
$SKPOLY
 70
     0
  9
$TDCREATE
 40
2447893.375
  9
$TDUPDATE
 40
2460350.624364699
  9
$TDINDWG
 40
0.0
  9
$TDUSRTIMER
 40
0.0
  9
$USRTIMER
 70
     1
  9
$ANGBASE
 50
0.0
  9
$ANGDIR
 70
     0
  9
$PDMODE
 70
     0
  9
$PDSIZE
 40
0.0
  9
$PLINEWID
 40
0.0
  9
$COORDS
 70
     0
  9
$SPLFRAME
 70
     0
  9
$SPLINETYPE
 70
     6
  9
$SPLINESEGS
 70
     8
  9
$ATTDIA
 70
     0
  9
$ATTREQ
 70
     1
  9
$HANDLING
 70
     1
  9
$HANDSEED
  5
70E
  9
$SURFTAB1
 70
     6
  9
$SURFTAB2
 70
     6
  9
$SURFTYPE
 70
     6
  9
$SURFU
 70
     6
  9
$SURFV
 70
     6
  9
$UCSNAME
  2

  9
$UCSORG
 10
0.0
 20
0.0
 30
0.0
  9
$UCSXDIR
 10
1.0
 20
0.0
 30
0.0
  9
$UCSYDIR
 10
0.0
 20
1.0
 30
0.0
  9
$PUCSNAME
  2

  9
$PUCSORG
 10
0.0
 20
0.0
 30
0.0
  9
$PUCSXDIR
 10
1.0
 20
0.0
 30
0.0
  9
$PUCSYDIR
 10
0.0
 20
1.0
 30
0.0
  9
$USERI1
 70
     0
  9
$USERI2
 70
     0
  9
$USERI3
 70
     0
  9
$USERI4
 70
     0
  9
$USERI5
 70
     0
  9
$USERR1
 40
0.0
  9
$USERR2
 40
0.0
  9
$USERR3
 40
0.0
  9
$USERR4
 40
0.0
  9
$USERR5
 40
0.0
  9
$WORLDVIEW
 70
     1
  9
$SHADEDGE
 70
     3
  9
$SHADEDIF
 70
    70
  9
$TILEMODE
 70
     1
  9
$MAXACTVP
 70
    64
  9
$PINSBASE
 10
0.0
 20
0.0
 30
0.0
  9
$PLIMCHECK
 70
     0
  9
$PEXTMIN
 10
0.0
 20
0.0
 30
0.0
  9
$PEXTMAX
 10
530.306946
 20
276.849976
 30
2.0
  9
$PLIMMIN
 10
0.0
 20
0.0
  9
$PLIMMAX
 10
420.0
 20
297.0
  9
$UNITMODE
 70
     0
  9
$VISRETAIN
 70
     0
  9
$PLINEGEN
 70
     0
  9
$PSLTSCALE
 70
     1
  9
$TREEDEPTH
 70
  3020
  9
$PICKSTYLE
 70
     1
  9
$CMLSTYLE
  2
STANDARD
  9
$CMLJUST
 70
     0
  9
$CMLSCALE
 40
20.0
  9
$PROXYGRAPHICS
 70
     1
  9
$MEASUREMENT
 70
     1
  0
ENDSEC
  0
SECTION
  2
CLASSES
  0
CLASS
  1
ACDBDICTIONARYWDFLT
  2
AcDbDictionaryWithDefault
  3
ObjectDBX Classes
 90
        0
280
     0
281
     0
  0
CLASS
  1
VISUALSTYLE
  2
AcDbVisualStyle
  3
ObjectDBX Classes
 90
     4095
280
     0
281
     0
  0
CLASS
  1
MATERIAL
  2
AcDbMaterial
  3
ObjectDBX Classes
 90
     1153
280
     0
281
     0
  0
CLASS
  1
SCALE
  2
AcDbScale
  3
ObjectDBX Classes
 90
     1153
280
     0
281
     0
  0
CLASS
  1
SUN
  2
AcDbSun
  3
SCENEOE
 90
     1153
280
     0
281
     0
  0
CLASS
  1
XRECORD
  2
AcDbXrecord
  3
ObjectDBX Classes
 90
        0
280
     0
281
     0
  0
CLASS
  1
LWPOLYLINE
  2
AcDbPolyline
  3
ObjectDBX Classes
 90
        0
280
     0
281
     1
  0
CLASS
  1
HATCH
  2
AcDbHatch
  3
ObjectDBX Classes
 90
        0
280
     0
281
     1
  0
ENDSEC
  0
SECTION
  2
TABLES
  0
TABLE
  2
VPORT
  5
8
330
0
100
AcDbSymbolTable
 70
     1
  0
VPORT
  5
29
330
8
100
AcDbSymbolTableRecord
100
AcDbViewportTableRecord
  2
*ACTIVE
 70
     0
 10
0.0
 20
0.0
 11
1.0
 21
1.0
 12
10.429907
 22
4.5
 13
0.0
 23
0.0
 14
0.5
 24
0.5
 15
0.5
 25
0.5
 16
0.0
 26
0.0
 36
1.0
 17
0.0
 27
0.0
 37
0.0
 40
9.0
 41
1.972973
 42
50.0
 43
0.0
 44
0.0
 50
0.0
 51
0.0
 71
     0
 72
   100
 73
     1
 74
     3
 75
     0
 76
     0
 77
     0
 78
     0
  0
ENDTAB
  0
TABLE
  2
LTYPE
  5
5
330
0
100
AcDbSymbolTable
 70
     1
  0
LTYPE
  5
14
330
5
100
AcDbSymbolTableRecord
100
AcDbLinetypeTableRecord
  2
BYBLOCK
 70
     0
  3

 72
    65
 73
     0
 40
0.0
  0
LTYPE
  5
15
330
5
100
AcDbSymbolTableRecord
100
AcDbLinetypeTableRecord
  2
BYLAYER
 70
     0
  3

 72
    65
 73
     0
 40
0.0
  0
LTYPE
  5
16
330
5
100
AcDbSymbolTableRecord
100
AcDbLinetypeTableRecord
  2
CONTINUOUS
 70
     0
  3
Solid line
 72
    65
 73
     0
 40
0.0
  0
ENDTAB
  0
TABLE
  2
LAYER
  5
2
330
0
100
AcDbSymbolTable
 70
     1
  0
LAYER
  5
10
330
2
100
AcDbSymbolTableRecord
100
AcDbLayerTableRecord
  2
0
 70
     0
 62
     7
  6
CONTINUOUS
  0
ENDTAB
  0
TABLE
  2
STYLE
  5
3
330
0
100
AcDbSymbolTable
 70
     1
  0
STYLE
  5
11
330
3
100
AcDbSymbolTableRecord
100
AcDbTextStyleTableRecord
  2
STANDARD
 70
     0
 40
0.0
 41
1.0
 50
0.0
 71
     0
 42
2.5
  3
txt
  4

  0
ENDTAB
  0
TABLE
  2
VIEW
  5
6
330
0
100
AcDbSymbolTable
 70
     0
  0
ENDTAB
  0
TABLE
  2
UCS
  5
7
330
0
100
AcDbSymbolTable
 70
     0
  0
ENDTAB
  0
TABLE
  2
APPID
  5
9
330
0
100
AcDbSymbolTable
 70
     1
  0
APPID
  5
12
330
9
100
AcDbSymbolTableRecord
100
AcDbRegAppTableRecord
  2
ACAD
 70
     0
  0
ENDTAB
  0
TABLE
  2
DIMSTYLE
  5
A
330
0
100
AcDbSymbolTable
 70
     1
  0
DIMSTYLE
105
27
330
A
100
AcDbSymbolTableRecord
100
AcDbDimStyleTableRecord
  2
STANDARD
 70
     0
  3

  4

  5

  6

  7

 40
1.0
 41
0.18
 42
0.0625
 43
0.38
 44
0.18
 45
0.0
 46
0.0
 47
0.0
 48
0.0
140
0.18
141
0.09
142
0.0
143
25.4
144
1.0
145
0.0
146
1.0
147
0.09
 71
     0
 72
     0
 73
     1
 74
     1
 75
     0
 76
     0
 77
     0
 78
     0
170
     0
171
     2
172
     0
173
     0
174
     0
175
     0
176
     0
177
     0
178
     0
270
     2
271
     4
272
     4
273
     2
274
     2
340
11
275
     0
280
     0
281
     0
282
     0
283
     1
284
     0
285
     0
286
     0
287
     3
288
     0
  0
ENDTAB
  0
TABLE
  2
BLOCK_RECORD
  5
1
330
0
100
AcDbSymbolTable
 70
     1
  0
BLOCK_RECORD
  5
1F
330
1
100
AcDbSymbolTableRecord
100
AcDbBlockTableRecord
  2
*MODEL_SPACE
  0
BLOCK_RECORD
  5
1B
330
1
100
AcDbSymbolTableRecord
100
AcDbBlockTableRecord
  2
*PAPER_SPACE
  0
BLOCK_RECORD
  5
23
330
1
100
AcDbSymbolTableRecord
100
AcDbBlockTableRecord
  2
*PAPER_SPACE0
  0
ENDTAB
  0
ENDSEC
  0
SECTION
  2
BLOCKS
  0
BLOCK
  5
20
330
1F
100
AcDbEntity
  8
0
100
AcDbBlockBegin
  2
*MODEL_SPACE
 70
     0
 10
0.0
 20
0.0
 30
0.0
  3
*MODEL_SPACE
  1

  0
ENDBLK
  5
21
330
1F
100
AcDbEntity
  8
0
100
AcDbBlockEnd
  0
BLOCK
  5
1C
330
1B
100
AcDbEntity
 67
     1
  8
0
100
AcDbBlockBegin
  2
*PAPER_SPACE
 70
     0
 10
0.0
 20
0.0
 30
0.0
  3
*PAPER_SPACE
  1

  0
ENDBLK
  5
1D
330
1B
100
AcDbEntity
 67
     1
  8
0
100
AcDbBlockEnd
  0
BLOCK
  5
24
330
23
100
AcDbEntity
  8
0
100
AcDbBlockBegin
  2
*PAPER_SPACE0
 70
     0
 10
0.0
 20
0.0
 30
0.0
  3
*PAPER_SPACE0
  1
*PAPER_SPACE0
  0
ENDBLK
  5
25
330
23
100
AcDbEntity
  8
0
100
AcDbBlockEnd
  0
ENDSEC
  0
SECTION
  2
ENTITIES
  0
LINE
  5
6A
330
1F
100
AcDbEntity
  8
0
 62
     7
100
AcDbLine
 10
527.806946
 20
245.850006
 30
0.0
 11
527.806946
 21
258.950012
 31
0.0
  0
LINE
  5
6B
330
1F
100
AcDbEntity
  8
0
 62
     7
100
AcDbLine
 10
527.806946
 20
258.950012
 30
0.0
 11
525.488281
 21
258.950012
 31
0.0
  0
ARC
  5
6C
330
1F
100
AcDbEntity
  8
0
 62
     7
100
AcDbCircle
 10
518.806946
 20
263.349976
 30
0.0
 40
8.0
100
AcDbArc
 50
213.367013
 51
326.632979
  0
LINE
  5
6D
330
1F
100
AcDbEntity
  8
0
 62
     7
100
AcDbLine
 10
512.125671
 20
258.950012
 30
0.0
 11
453.45697
 21
258.950012
 31
0.0
  0
LINE
  5
6E
330
1F
100
AcDbEntity
  8
0
 62
     7
100
AcDbLine
 10
453.45697
 20
255.050003
 30
0.0
 11
453.45697
 21
258.950012
 31
0.0
  0
ARC
  5
6F
330
1F
100
AcDbEntity
  8
0
 62
     7
100
AcDbCircle
 10
452.95697
 20
255.050003
 30
0.0
 40
0.5
100
AcDbArc
 50
180.000009
 51
360.0
  0
LINE
  5
70
330
1F
100
AcDbEntity
  8
0
 62
     7
100
AcDbLine
 10
452.45697
 20
258.950012
 30
0.0
 11
452.45697
 21
255.050003
 31
0.0
  0
LINE
  5
71
330
1F
100
AcDbEntity
  8
0
 62
     7
100
AcDbLine
 10
452.45697
 20
258.950012
 30
0.0
 11
450.156982
 21
258.950012
 31
0.0
  0
LINE
  5
72
330
1F
100
AcDbEntity
  8
0
 62
     7
100
AcDbLine
 10
450.156982
 20
255.050003
 30
0.0
 11
450.156982
 21
258.950012
 31
0.0
  0
ARC
  5
73
330
1F
100
AcDbEntity
  8
0
 62
     7
100
AcDbCircle
 10
449.656982
 20
255.050003
 30
0.0
 40
0.5
100
AcDbArc
 50
180.000009
 51
360.0
  0
LINE
  5
74
330
1F
100
AcDbEntity
  8
0
 62
     7
100
AcDbLine
 10
449.156982
 20
258.950012
 30
0.0
 11
449.156982
 21
255.050003
 31
0.0
  0
LINE
  5
75
330
1F
100
AcDbEntity
  8
0
 62
     7
100
AcDbLine
 10
449.156982
 20
258.950012
 30
0.0
 11
303.45697
 21
258.950012
 31
0.0
  0
LINE
  5
76
330
1F
100
AcDbEntity
  8
0
 62
     7
100
AcDbLine
 10
303.45697
 20
255.050003
 30
0.0
 11
303.45697
 21
258.950012
 31
0.0
  0
ARC
  5
77
330
1F
100
AcDbEntity
  8
0
 62
     7
100
AcDbCircle
 10
302.95697
 20
255.050003
 30
0.0
 40
0.5
100
AcDbArc
 50
180.000009
 51
360.0
  0
LINE
  5
78
330
1F
100
AcDbEntity
  8
0
 62
     7
100
AcDbLine
 10
302.45697
 20
258.950012
 30
0.0
 11
302.45697
 21
255.050003
 31
0.0
  0
LINE
  5
79
330
1F
100
AcDbEntity
  8
0
 62
     7
100
AcDbLine
 10
302.45697
 20
258.950012
 30
0.0
 11
300.156982
 21
258.950012
 31
0.0
  0
LINE
  5
7A
330
1F
100
AcDbEntity
  8
0
 62
     7
100
AcDbLine
 10
300.156982
 20
255.050003
 30
0.0
 11
300.156982
 21
258.950012
 31
0.0
  0
ARC
  5
7B
330
1F
100
AcDbEntity
  8
0
 62
     7
100
AcDbCircle
 10
299.656982
 20
255.050003
 30
0.0
 40
0.5
100
AcDbArc
 50
180.000009
 51
360.0
  0
LINE
  5
7C
330
1F
100
AcDbEntity
  8
0
 62
     7
100
AcDbLine
 10
299.156982
 20
258.950012
 30
0.0
 11
299.156982
 21
255.050003
 31
0.0
  0
LINE
  5
7D
330
1F
100
AcDbEntity
  8
0
 62
     7
100
AcDbLine
 10
299.156982
 20
258.950012
 30
0.0
 11
240.488281
 21
258.950012
 31
0.0
  0
ARC
  5
7E
330
1F
100
AcDbEntity
  8
0
 62
     7
100
AcDbCircle
 10
233.806976
 20
263.349976
 30
0.0
 40
8.0
100
AcDbArc
 50
213.367013
 51
326.632979
  0
LINE
  5
7F
330
1F
100
AcDbEntity
  8
0
 62
     7
100
AcDbLine
 10
227.125641
 20
258.950012
 30
0.0
 11
224.806976
 21
258.950012
 31
0.0
  0
LINE
  5
80
330
1F
100
AcDbEntity
  8
0
 62
     7
100
AcDbLine
 10
224.806976
 20
245.850006
 30
0.0
 11
224.806976
 21
258.950012
 31
0.0
  0
LINE
  5
81
330
1F
100
AcDbEntity
  8
0
 62
     7
100
AcDbLine
 10
527.806946
 20
245.050003
 30
0.0
 11
527.806946
 21
245.850006
 31
0.0
  0
LINE
  5
82
330
1F
100
AcDbEntity
  8
0
 62
     7
100
AcDbLine
 10
224.806976
 20
245.850006
 30
0.0
 11
224.806976
 21
245.050003
 31
0.0
  0
LINE
  5
83
330
1F
100
AcDbEntity
  8
0
 62
     7
100
AcDbLine
 10
224.806976
 20
245.050003
 30
0.0
 11
527.806946
 21
245.050003
 31
0.0
  0
LINE
  5
84
330
1F
100
AcDbEntity
  8
0
 62
     7
100
AcDbLine
 10
527.806946
 20
259.079285
 30
0.0
 11
527.806946
 21
258.950012
 31
0.0
  0
LINE
  5
85
330
1F
100
AcDbEntity
  8
0
 62
     7
100
AcDbLine
 10
527.806946
 20
259.079285
 30
0.0
 11
527.806946
 21
259.220703
 31
0.0
  0
LINE
  5
86
330
1F
100
AcDbEntity
  8
0
 62
     7
100
AcDbLine
 10
527.806946
 20
259.349976
 30
0.0
 11
527.806946
 21
259.220703
 31
0.0
  0
LINE
  5
87
330
1F
100
AcDbEntity
  8
0
 62
     7
100
AcDbLine
 10
527.806946
 20
259.349976
 30
0.0
 11
527.806946
 21
260.049988
 31
0.0
  0
LINE
  5
88
330
1F
100
AcDbEntity
  8
0
 62
     7
100
AcDbLine
 10
527.806946
 20
260.17926
 30
0.0
 11
527.806946
 21
260.049988
 31
0.0
  0
LINE
  5
89
330
1F
100
AcDbEntity
  8
0
 62
     7
100
AcDbLine
 10
527.806946
 20
260.17926
 30
0.0
 11
527.806946
 21
260.320679
 31
0.0
  0
LINE
  5
8A
330
1F
100
AcDbEntity
  8
0
 62
     7
100
AcDbLine
 10
527.806946
 20
260.450012
 30
0.0
 11
527.806946
 21
260.320679
 31
0.0
  0
LINE
  5
8B
330
1F
100
AcDbEntity
  8
0
 62
     7
100
AcDbLine
 10
527.806946
 20
260.450012
 30
0.0
 11
527.806946
 21
261.150024
 31
0.0
  0
LINE
  5
8C
330
1F
100
AcDbEntity
  8
0
 62
     7
100
AcDbLine
 10
527.806946
 20
261.279297
 30
0.0
 11
527.806946
 21
261.150024
 31
0.0
  0
LINE
  5
8D
330
1F
100
AcDbEntity
  8
0
 62
     7
100
AcDbLine
 10
527.806946
 20
261.279297
 30
0.0
 11
527.806946
 21
261.420715
 31
0.0
  0
LINE
  5
8E
330
1F
100
AcDbEntity
  8
0
 62
     7
100
AcDbLine
 10
527.806946
 20
261.549988
 30
0.0
 11
527.806946
 21
261.420715
 31
0.0
  0
LINE
  5
8F
330
1F
100
AcDbEntity
  8
0
 62
     7
100
AcDbLine
 10
527.806946
 20
261.549988
 30
0.0
 11
527.806946
 21
262.25
 31
0.0
  0
LINE
  5
90
330
1F
100
AcDbEntity
  8
0
 62
     7
100
AcDbLine
 10
527.806946
 20
262.379272
 30
0.0
 11
527.806946
 21
262.25
 31
0.0
  0
LINE
  5
91
330
1F
100
AcDbEntity
  8
0
 62
     7
100
AcDbLine
 10
527.806946
 20
262.379272
 30
0.0
 11
527.806946
 21
262.520691
 31
0.0
  0
LINE
  5
92
330
1F
100
AcDbEntity
  8
0
 62
     7
100
AcDbLine
 10
527.806946
 20
262.650024
 30
0.0
 11
527.806946
 21
262.520691
 31
0.0
  0
LINE
  5
93
330
1F
100
AcDbEntity
  8
0
 62
     7
100
AcDbLine
 10
527.806946
 20
262.650024
 30
0.0
 11
527.806946
 21
263.349976
 31
0.0
  0
LINE
  5
94
330
1F
100
AcDbEntity
  8
0
 62
     7
100
AcDbLine
 10
527.806946
 20
263.479309
 30
0.0
 11
527.806946
 21
263.349976
 31
0.0
  0
LINE
  5
95
330
1F
100
AcDbEntity
  8
0
 62
     7
100
AcDbLine
 10
527.806946
 20
263.479309
 30
0.0
 11
527.806946
 21
263.620728
 31
0.0
  0
LINE
  5
96
330
1F
100
AcDbEntity
  8
0
 62
     7
100
AcDbLine
 10
527.806946
 20
263.75
 30
0.0
 11
527.806946
 21
263.620728
 31
0.0
  0
LINE
  5
97
330
1F
100
AcDbEntity
  8
0
 62
     7
100
AcDbLine
 10
527.806946
 20
263.75
 30
0.0
 11
527.806946
 21
264.450012
 31
0.0
  0
LINE
  5
98
330
1F
100
AcDbEntity
  8
0
 62
     7
100
AcDbLine
 10
527.806946
 20
264.579285
 30
0.0
 11
527.806946
 21
264.450012
 31
0.0
  0
LINE
  5
99
330
1F
100
AcDbEntity
  8
0
 62
     7
100
AcDbLine
 10
527.806946
 20
264.579285
 30
0.0
 11
527.806946
 21
264.720703
 31
0.0
  0
LINE
  5
9A
330
1F
100
AcDbEntity
  8
0
 62
     7
100
AcDbLine
 10
527.806946
 20
264.849976
 30
0.0
 11
527.806946
 21
264.720703
 31
0.0
  0
LINE
  5
9B
330
1F
100
AcDbEntity
  8
0
 62
     7
100
AcDbLine
 10
527.806946
 20
264.849976
 30
0.0
 11
527.806946
 21
265.549988
 31
0.0
  0
LINE
  5
9C
330
1F
100
AcDbEntity
  8
0
 62
     7
100
AcDbLine
 10
527.806946
 20
265.67926
 30
0.0
 11
527.806946
 21
265.549988
 31
0.0
  0
LINE
  5
9D
330
1F
100
AcDbEntity
  8
0
 62
     7
100
AcDbLine
 10
527.806946
 20
265.67926
 30
0.0
 11
527.806946
 21
265.820679
 31
0.0
  0
LINE
  5
9E
330
1F
100
AcDbEntity
  8
0
 62
     7
100
AcDbLine
 10
527.806946
 20
265.950012
 30
0.0
 11
527.806946
 21
265.820679
 31
0.0
  0
LINE
  5
9F
330
1F
100
AcDbEntity
  8
0
 62
     7
100
AcDbLine
 10
527.806946
 20
265.950012
 30
0.0
 11
527.806946
 21
266.650024
 31
0.0
  0
LINE
  5
A0
330
1F
100
AcDbEntity
  8
0
 62
     7
100
AcDbLine
 10
527.806946
 20
266.779297
 30
0.0
 11
527.806946
 21
266.650024
 31
0.0
  0
LINE
  5
A1
330
1F
100
AcDbEntity
  8
0
 62
     7
100
AcDbLine
 10
527.806946
 20
266.779297
 30
0.0
 11
527.806946
 21
266.920715
 31
0.0
  0
LINE
  5
A2
330
1F
100
AcDbEntity
  8
0
 62
     7
100
AcDbLine
 10
527.806946
 20
267.049988
 30
0.0
 11
527.806946
 21
266.920715
 31
0.0
  0
LINE
  5
A3
330
1F
100
AcDbEntity
  8
0
 62
     7
100
AcDbLine
 10
527.806946
 20
267.049988
 30
0.0
 11
527.806946
 21
267.75
 31
0.0
  0
LINE
  5
A4
330
1F
100
AcDbEntity
  8
0
 62
     7
100
AcDbLine
 10
527.806946
 20
267.879272
 30
0.0
 11
527.806946
 21
267.75
 31
0.0
  0
LINE
  5
A5
330
1F
100
AcDbEntity
  8
0
 62
     7
100
AcDbLine
 10
527.806946
 20
267.879272
 30
0.0
 11
527.806946
 21
268.020691
 31
0.0
  0
LINE
  5
A6
330
1F
100
AcDbEntity
  8
0
 62
     7
100
AcDbLine
 10
527.806946
 20
268.150024
 30
0.0
 11
527.806946
 21
268.020691
 31
0.0
  0
LINE
  5
A7
330
1F
100
AcDbEntity
  8
0
 62
     7
100
AcDbLine
 10
527.806946
 20
268.150024
 30
0.0
 11
527.806946
 21
272.974243
 31
0.0
  0
LINE
  5
A8
330
1F
100
AcDbEntity
  8
0
 62
     7
100
AcDbLine
 10
527.806946
 20
273.462158
 30
0.0
 11
527.806946
 21
272.974243
 31
0.0
  0
LINE
  5
A9
330
1F
100
AcDbEntity
  8
0
 62
     7
100
AcDbLine
 10
527.806946
 20
273.462158
 30
0.0
 11
527.806946
 21
273.549988
 31
0.0
  0
LINE
  5
AA
330
1F
100
AcDbEntity
  8
0
 62
     7
100
AcDbLine
 10
525.488281
 20
258.950012
 30
0.0
 11
525.571655
 21
259.079285
 31
0.0
  0
ARC
  5
AB
330
1F
100
AcDbEntity
  8
0
 62
     7
100
AcDbCircle
 10
518.806946
 20
263.349976
 30
0.0
 40
8.0
100
AcDbArc
 50
354.980203
 51
360.0
  0
LINE
  5
AC
330
1F
100
AcDbEntity
  8
0
 62
     7
100
AcDbLine
 10
526.763855
 20
262.520691
 30
0.0
 11
526.776306
 21
262.650024
 31
0.0
  0
LINE
  5
AD
330
1F
100
AcDbEntity
  8
0
 62
     7
100
AcDbLine
 10
526.747864
 20
262.379272
 30
0.0
 11
526.763855
 21
262.520691
 31
0.0
  0
LINE
  5
AE
330
1F
100
AcDbEntity
  8
0
 62
     7
100
AcDbLine
 10
526.730957
 20
262.25
 30
0.0
 11
526.747864
 21
262.379272
 31
0.0
  0
ARC
  5
AF
330
1F
100
AcDbEntity
  8
0
 62
     7
100
AcDbCircle
 10
518.806946
 20
263.349976
 30
0.0
 40
8.0
100
AcDbArc
 50
346.997132
 51
352.096798
  0
LINE
  5
B0
330
1F
100
AcDbEntity
  8
0
 62
     7
100
AcDbLine
 10
526.570862
 20
261.420715
 30
0.0
 11
526.601807
 21
261.549988
 31
0.0
  0
LINE
  5
B1
330
1F
100
AcDbEntity
  8
0
 62
     7
100
AcDbLine
 10
526.534302
 20
261.279297
 30
0.0
 11
526.570862
 21
261.420715
 31
0.0
  0
LINE
  5
B2
330
1F
100
AcDbEntity
  8
0
 62
     7
100
AcDbLine
 10
526.498535
 20
261.150024
 30
0.0
 11
526.534302
 21
261.279297
 31
0.0
  0
ARC
  5
B3
330
1F
100
AcDbEntity
  8
0
 62
     7
100
AcDbCircle
 10
518.806946
 20
263.349976
 30
0.0
 40
8.0
100
AcDbArc
 50
338.746183
 51
344.037995
  0
LINE
  5
B4
330
1F
100
AcDbEntity
  8
0
 62
     7
100
AcDbLine
 10
526.211243
 20
260.320679
 30
0.0
 11
526.262817
 21
260.450012
 31
0.0
  0
LINE
  5
B5
330
1F
100
AcDbEntity
  8
0
 62
     7
100
AcDbLine
 10
526.151794
 20
260.17926
 30
0.0
 11
526.211243
 21
260.320679
 31
0.0
  0
LINE
  5
B6
330
1F
100
AcDbEntity
  8
0
 62
     7
100
AcDbLine
 10
526.094604
 20
260.049988
 30
0.0
 11
526.151794
 21
260.17926
 31
0.0
  0
ARC
  5
B7
330
1F
100
AcDbEntity
  8
0
 62
     7
100
AcDbCircle
 10
518.806946
 20
263.349976
 30
0.0
 40
8.0
100
AcDbArc
 50
329.999989
 51
335.63801
  0
LINE
  5
B8
330
1F
100
AcDbEntity
  8
0
 62
     7
100
AcDbLine
 10
525.658875
 20
259.220703
 30
0.0
 11
525.735168
 21
259.349976
 31
0.0
  0
LINE
  5
B9
330
1F
100
AcDbEntity
  8
0
 62
     7
100
AcDbLine
 10
525.571655
 20
259.079285
 30
0.0
 11
525.658875
 21
259.220703
 31
0.0
  0
LINE
  5
BA
330
1F
100
AcDbEntity
  8
0
 62
     7
100
AcDbLine
 10
512.125671
 20
258.950012
 30
0.0
 11
512.042297
 21
259.079285
 31
0.0
  0
LINE
  5
BB
330
1F
100
AcDbEntity
  8
0
 62
     7
100
AcDbLine
 10
512.042297
 20
259.079285
 30
0.0
 11
511.955048
 21
259.220703
 31
0.0
  0
LINE
  5
BC
330
1F
100
AcDbEntity
  8
0
 62
     7
100
AcDbLine
 10
511.955048
 20
259.220703
 30
0.0
 11
511.878784
 21
259.349976
 31
0.0
  0
ARC
  5
BD
330
1F
100
AcDbEntity
  8
0
 62
     7
100
AcDbCircle
 10
518.806946
 20
263.349976
 30
0.0
 40
8.0
100
AcDbArc
 50
204.361982
 51
210.000003
  0
LINE
  5
BE
330
1F
100
AcDbEntity
  8
0
 62
     7
100
AcDbLine
 10
511.519318
 20
260.049988
 30
0.0
 11
511.462128
 21
260.17926
 31
0.0
  0
LINE
  5
BF
330
1F
100
AcDbEntity
  8
0
 62
     7
100
AcDbLine
 10
511.462128
 20
260.17926
 30
0.0
 11
511.402679
 21
260.320679
 31
0.0
  0
LINE
  5
C0
330
1F
100
AcDbEntity
  8
0
 62
     7
100
AcDbLine
 10
511.402679
 20
260.320679
 30
0.0
 11
511.351105
 21
260.450012
 31
0.0
  0
ARC
  5
C1
330
1F
100
AcDbEntity
  8
0
 62
     7
100
AcDbCircle
 10
518.806946
 20
263.349976
 30
0.0
 40
8.0
100
AcDbArc
 50
195.96201
 51
201.253809
  0
LINE
  5
C2
330
1F
100
AcDbEntity
  8
0
 62
     7
100
AcDbLine
 10
511.115417
 20
261.150024
 30
0.0
 11
511.07962
 21
261.279297
 31
0.0
  0
LINE
  5
C3
330
1F
100
AcDbEntity
  8
0
 62
     7
100
AcDbLine
 10
511.07962
 20
261.279297
 30
0.0
 11
511.043091
 21
261.420715
 31
0.0
  0
LINE
  5
C4
330
1F
100
AcDbEntity
  8
0
 62
     7
100
AcDbLine
 10
511.043091
 20
261.420715
 30
0.0
 11
511.012115
 21
261.549988
 31
0.0
  0
ARC
  5
C5
330
1F
100
AcDbEntity
  8
0
 62
     7
100
AcDbCircle
 10
518.806946
 20
263.349976
 30
0.0
 40
8.0
100
AcDbArc
 50
187.903207
 51
193.002872
  0
LINE
  5
C6
330
1F
100
AcDbEntity
  8
0
 62
     7
100
AcDbLine
 10
510.882965
 20
262.25
 30
0.0
 11
510.866089
 21
262.379272
 31
0.0
  0
LINE
  5
C7
330
1F
100
AcDbEntity
  8
0
 62
     7
100
AcDbLine
 10
510.866089
 20
262.379272
 30
0.0
 11
510.850067
 21
262.520691
 31
0.0
  0
LINE
  5
C8
330
1F
100
AcDbEntity
  8
0
 62
     7
100
AcDbLine
 10
510.850067
 20
262.520691
 30
0.0
 11
510.837646
 21
262.650024
 31
0.0
  0
ARC
  5
C9
330
1F
100
AcDbEntity
  8
0
 62
     7
100
AcDbCircle
 10
518.806946
 20
263.349976
 30
0.0
 40
8.0
100
AcDbArc
 50
180.000009
 51
185.019802
  0
LINE
  5
CA
330
1F
100
AcDbEntity
  8
0
 62
     7
100
AcDbLine
 10
453.45697
 20
259.079285
 30
0.0
 11
453.45697
 21
258.950012
 31
0.0
  0
LINE
  5
CB
330
1F
100
AcDbEntity
  8
0
 62
     7
100
AcDbLine
 10
453.45697
 20
259.220703
 30
0.0
 11
453.45697
 21
259.349976
 31
0.0
  0
LINE
  5
CC
330
1F
100
AcDbEntity
  8
0
 62
     7
100
AcDbLine
 10
453.45697
 20
259.220703
 30
0.0
 11
453.45697
 21
259.079285
 31
0.0
  0
LINE
  5
CD
330
1F
100
AcDbEntity
  8
0
 62
     7
100
AcDbLine
 10
453.45697
 20
265.950012
 30
0.0
 11
453.45697
 21
266.349976
 31
0.0
  0
LINE
  5
CE
330
1F
100
AcDbEntity
  8
0
 62
     7
100
AcDbLine
 10
453.45697
 20
265.820679
 30
0.0
 11
453.45697
 21
265.950012
 31
0.0
  0
LINE
  5
CF
330
1F
100
AcDbEntity
  8
0
 62
     7
100
AcDbLine
 10
453.45697
 20
265.820679
 30
0.0
 11
453.45697
 21
265.67926
 31
0.0
  0
LINE
  5
D0
330
1F
100
AcDbEntity
  8
0
 62
     7
100
AcDbLine
 10
453.45697
 20
265.67926
 30
0.0
 11
453.45697
 21
265.549988
 31
0.0
  0
LINE
  5
D1
330
1F
100
AcDbEntity
  8
0
 62
     7
100
AcDbLine
 10
453.45697
 20
264.849976
 30
0.0
 11
453.45697
 21
265.549988
 31
0.0
  0
LINE
  5
D2
330
1F
100
AcDbEntity
  8
0
 62
     7
100
AcDbLine
 10
453.45697
 20
264.720703
 30
0.0
 11
453.45697
 21
264.849976
 31
0.0
  0
LINE
  5
D3
330
1F
100
AcDbEntity
  8
0
 62
     7
100
AcDbLine
 10
453.45697
 20
264.720703
 30
0.0
 11
453.45697
 21
264.579285
 31
0.0
  0
LINE
  5
D4
330
1F
100
AcDbEntity
  8
0
 62
     7
100
AcDbLine
 10
453.45697
 20
264.579285
 30
0.0
 11
453.45697
 21
264.450012
 31
0.0
  0
LINE
  5
D5
330
1F
100
AcDbEntity
  8
0
 62
     7
100
AcDbLine
 10
453.45697
 20
263.75
 30
0.0
 11
453.45697
 21
264.450012
 31
0.0
  0
LINE
  5
D6
330
1F
100
AcDbEntity
  8
0
 62
     7
100
AcDbLine
 10
453.45697
 20
263.620728
 30
0.0
 11
453.45697
 21
263.75
 31
0.0
  0
LINE
  5
D7
330
1F
100
AcDbEntity
  8
0
 62
     7
100
AcDbLine
 10
453.45697
 20
263.620728
 30
0.0
 11
453.45697
 21
263.479309
 31
0.0
  0
LINE
  5
D8
330
1F
100
AcDbEntity
  8
0
 62
     7
100
AcDbLine
 10
453.45697
 20
263.479309
 30
0.0
 11
453.45697
 21
263.349976
 31
0.0
  0
LINE
  5
D9
330
1F
100
AcDbEntity
  8
0
 62
     7
100
AcDbLine
 10
453.45697
 20
262.650024
 30
0.0
 11
453.45697
 21
263.349976
 31
0.0
  0
LINE
  5
DA
330
1F
100
AcDbEntity
  8
0
 62
     7
100
AcDbLine
 10
453.45697
 20
262.520691
 30
0.0
 11
453.45697
 21
262.650024
 31
0.0
  0
LINE
  5
DB
330
1F
100
AcDbEntity
  8
0
 62
     7
100
AcDbLine
 10
453.45697
 20
262.520691
 30
0.0
 11
453.45697
 21
262.379272
 31
0.0
  0
LINE
  5
DC
330
1F
100
AcDbEntity
  8
0
 62
     7
100
AcDbLine
 10
453.45697
 20
262.379272
 30
0.0
 11
453.45697
 21
262.25
 31
0.0
  0
LINE
  5
DD
330
1F
100
AcDbEntity
  8
0
 62
     7
100
AcDbLine
 10
453.45697
 20
261.549988
 30
0.0
 11
453.45697
 21
262.25
 31
0.0
  0
LINE
  5
DE
330
1F
100
AcDbEntity
  8
0
 62
     7
100
AcDbLine
 10
453.45697
 20
261.420715
 30
0.0
 11
453.45697
 21
261.549988
 31
0.0
  0
LINE
  5
DF
330
1F
100
AcDbEntity
  8
0
 62
     7
100
AcDbLine
 10
453.45697
 20
261.420715
 30
0.0
 11
453.45697
 21
261.279297
 31
0.0
  0
LINE
  5
E0
330
1F
100
AcDbEntity
  8
0
 62
     7
100
AcDbLine
 10
453.45697
 20
261.279297
 30
0.0
 11
453.45697
 21
261.150024
 31
0.0
  0
LINE
  5
E1
330
1F
100
AcDbEntity
  8
0
 62
     7
100
AcDbLine
 10
453.45697
 20
260.450012
 30
0.0
 11
453.45697
 21
261.150024
 31
0.0
  0
LINE
  5
E2
330
1F
100
AcDbEntity
  8
0
 62
     7
100
AcDbLine
 10
453.45697
 20
260.320679
 30
0.0
 11
453.45697
 21
260.450012
 31
0.0
  0
LINE
  5
E3
330
1F
100
AcDbEntity
  8
0
 62
     7
100
AcDbLine
 10
453.45697
 20
260.320679
 30
0.0
 11
453.45697
 21
260.17926
 31
0.0
  0
LINE
  5
E4
330
1F
100
AcDbEntity
  8
0
 62
     7
100
AcDbLine
 10
453.45697
 20
260.17926
 30
0.0
 11
453.45697
 21
260.049988
 31
0.0
  0
LINE
  5
E5
330
1F
100
AcDbEntity
  8
0
 62
     7
100
AcDbLine
 10
453.45697
 20
259.349976
 30
0.0
 11
453.45697
 21
260.049988
 31
0.0
  0
LINE
  5
E6
330
1F
100
AcDbEntity
  8
0
 62
     7
100
AcDbLine
 10
452.45697
 20
266.650024
 30
0.0
 11
452.45697
 21
265.950012
 31
0.0
  0
LINE
  5
E7
330
1F
100
AcDbEntity
  8
0
 62
     7
100
AcDbLine
 10
452.45697
 20
266.779297
 30
0.0
 11
452.45697
 21
266.650024
 31
0.0
  0
LINE
  5
E8
330
1F
100
AcDbEntity
  8
0
 62
     7
100
AcDbLine
 10
452.45697
 20
266.779297
 30
0.0
 11
452.45697
 21
266.849976
 31
0.0
  0
LINE
  5
E9
330
1F
100
AcDbEntity
  8
0
 62
     7
100
AcDbLine
 10
452.45697
 20
259.079285
 30
0.0
 11
452.45697
 21
258.950012
 31
0.0
  0
LINE
  5
EA
330
1F
100
AcDbEntity
  8
0
 62
     7
100
AcDbLine
 10
452.45697
 20
259.079285
 30
0.0
 11
452.45697
 21
259.220703
 31
0.0
  0
LINE
  5
EB
330
1F
100
AcDbEntity
  8
0
 62
     7
100
AcDbLine
 10
452.45697
 20
259.220703
 30
0.0
 11
452.45697
 21
259.349976
 31
0.0
  0
LINE
  5
EC
330
1F
100
AcDbEntity
  8
0
 62
     7
100
AcDbLine
 10
452.45697
 20
260.049988
 30
0.0
 11
452.45697
 21
259.349976
 31
0.0
  0
LINE
  5
ED
330
1F
100
AcDbEntity
  8
0
 62
     7
100
AcDbLine
 10
452.45697
 20
260.17926
 30
0.0
 11
452.45697
 21
260.049988
 31
0.0
  0
LINE
  5
EE
330
1F
100
AcDbEntity
  8
0
 62
     7
100
AcDbLine
 10
452.45697
 20
260.17926
 30
0.0
 11
452.45697
 21
260.320679
 31
0.0
  0
LINE
  5
EF
330
1F
100
AcDbEntity
  8
0
 62
     7
100
AcDbLine
 10
452.45697
 20
260.320679
 30
0.0
 11
452.45697
 21
260.450012
 31
0.0
  0
LINE
  5
F0
330
1F
100
AcDbEntity
  8
0
 62
     7
100
AcDbLine
 10
452.45697
 20
261.150024
 30
0.0
 11
452.45697
 21
260.450012
 31
0.0
  0
LINE
  5
F1
330
1F
100
AcDbEntity
  8
0
 62
     7
100
AcDbLine
 10
452.45697
 20
261.279297
 30
0.0
 11
452.45697
 21
261.150024
 31
0.0
  0
LINE
  5
F2
330
1F
100
AcDbEntity
  8
0
 62
     7
100
AcDbLine
 10
452.45697
 20
261.279297
 30
0.0
 11
452.45697
 21
261.420715
 31
0.0
  0
LINE
  5
F3
330
1F
100
AcDbEntity
  8
0
 62
     7
100
AcDbLine
 10
452.45697
 20
261.420715
 30
0.0
 11
452.45697
 21
261.549988
 31
0.0
  0
LINE
  5
F4
330
1F
100
AcDbEntity
  8
0
 62
     7
100
AcDbLine
 10
452.45697
 20
262.25
 30
0.0
 11
452.45697
 21
261.549988
 31
0.0
  0
LINE
  5
F5
330
1F
100
AcDbEntity
  8
0
 62
     7
100
AcDbLine
 10
452.45697
 20
262.379272
 30
0.0
 11
452.45697
 21
262.25
 31
0.0
  0
LINE
  5
F6
330
1F
100
AcDbEntity
  8
0
 62
     7
100
AcDbLine
 10
452.45697
 20
262.379272
 30
0.0
 11
452.45697
 21
262.520691
 31
0.0
  0
LINE
  5
F7
330
1F
100
AcDbEntity
  8
0
 62
     7
100
AcDbLine
 10
452.45697
 20
262.520691
 30
0.0
 11
452.45697
 21
262.650024
 31
0.0
  0
LINE
  5
F8
330
1F
100
AcDbEntity
  8
0
 62
     7
100
AcDbLine
 10
452.45697
 20
263.349976
 30
0.0
 11
452.45697
 21
262.650024
 31
0.0
  0
LINE
  5
F9
330
1F
100
AcDbEntity
  8
0
 62
     7
100
AcDbLine
 10
452.45697
 20
263.479309
 30
0.0
 11
452.45697
 21
263.349976
 31
0.0
  0
LINE
  5
FA
330
1F
100
AcDbEntity
  8
0
 62
     7
100
AcDbLine
 10
452.45697
 20
263.479309
 30
0.0
 11
452.45697
 21
263.620728
 31
0.0
  0
LINE
  5
FB
330
1F
100
AcDbEntity
  8
0
 62
     7
100
AcDbLine
 10
452.45697
 20
263.620728
 30
0.0
 11
452.45697
 21
263.75
 31
0.0
  0
LINE
  5
FC
330
1F
100
AcDbEntity
  8
0
 62
     7
100
AcDbLine
 10
452.45697
 20
264.450012
 30
0.0
 11
452.45697
 21
263.75
 31
0.0
  0
LINE
  5
FD
330
1F
100
AcDbEntity
  8
0
 62
     7
100
AcDbLine
 10
452.45697
 20
264.579285
 30
0.0
 11
452.45697
 21
264.450012
 31
0.0
  0
LINE
  5
FE
330
1F
100
AcDbEntity
  8
0
 62
     7
100
AcDbLine
 10
452.45697
 20
264.579285
 30
0.0
 11
452.45697
 21
264.720703
 31
0.0
  0
LINE
  5
FF
330
1F
100
AcDbEntity
  8
0
 62
     7
100
AcDbLine
 10
452.45697
 20
264.720703
 30
0.0
 11
452.45697
 21
264.849976
 31
0.0
  0
LINE
  5
100
330
1F
100
AcDbEntity
  8
0
 62
     7
100
AcDbLine
 10
452.45697
 20
265.549988
 30
0.0
 11
452.45697
 21
264.849976
 31
0.0
  0
LINE
  5
101
330
1F
100
AcDbEntity
  8
0
 62
     7
100
AcDbLine
 10
452.45697
 20
265.67926
 30
0.0
 11
452.45697
 21
265.549988
 31
0.0
  0
LINE
  5
102
330
1F
100
AcDbEntity
  8
0
 62
     7
100
AcDbLine
 10
452.45697
 20
265.67926
 30
0.0
 11
452.45697
 21
265.820679
 31
0.0
  0
LINE
  5
103
330
1F
100
AcDbEntity
  8
0
 62
     7
100
AcDbLine
 10
452.45697
 20
265.820679
 30
0.0
 11
452.45697
 21
265.950012
 31
0.0
  0
LINE
  5
104
330
1F
100
AcDbEntity
  8
0
 62
     7
100
AcDbLine
 10
450.156982
 20
259.079285
 30
0.0
 11
450.156982
 21
258.950012
 31
0.0
  0
LINE
  5
105
330
1F
100
AcDbEntity
  8
0
 62
     7
100
AcDbLine
 10
450.156982
 20
259.220703
 30
0.0
 11
450.156982
 21
259.349976
 31
0.0
  0
LINE
  5
106
330
1F
100
AcDbEntity
  8
0
 62
     7
100
AcDbLine
 10
450.156982
 20
259.220703
 30
0.0
 11
450.156982
 21
259.079285
 31
0.0
  0
LINE
  5
107
330
1F
100
AcDbEntity
  8
0
 62
     7
100
AcDbLine
 10
450.156982
 20
266.849976
 30
0.0
 11
450.156982
 21
266.779297
 31
0.0
  0
LINE
  5
108
330
1F
100
AcDbEntity
  8
0
 62
     7
100
AcDbLine
 10
450.156982
 20
266.779297
 30
0.0
 11
450.156982
 21
266.650024
 31
0.0
  0
LINE
  5
109
330
1F
100
AcDbEntity
  8
0
 62
     7
100
AcDbLine
 10
450.156982
 20
265.950012
 30
0.0
 11
450.156982
 21
266.650024
 31
0.0
  0
LINE
  5
10A
330
1F
100
AcDbEntity
  8
0
 62
     7
100
AcDbLine
 10
450.156982
 20
265.820679
 30
0.0
 11
450.156982
 21
265.950012
 31
0.0
  0
LINE
  5
10B
330
1F
100
AcDbEntity
  8
0
 62
     7
100
AcDbLine
 10
450.156982
 20
265.820679
 30
0.0
 11
450.156982
 21
265.67926
 31
0.0
  0
LINE
  5
10C
330
1F
100
AcDbEntity
  8
0
 62
     7
100
AcDbLine
 10
450.156982
 20
265.67926
 30
0.0
 11
450.156982
 21
265.549988
 31
0.0
  0
LINE
  5
10D
330
1F
100
AcDbEntity
  8
0
 62
     7
100
AcDbLine
 10
450.156982
 20
264.849976
 30
0.0
 11
450.156982
 21
265.549988
 31
0.0
  0
LINE
  5
10E
330
1F
100
AcDbEntity
  8
0
 62
     7
100
AcDbLine
 10
450.156982
 20
264.720703
 30
0.0
 11
450.156982
 21
264.849976
 31
0.0
  0
LINE
  5
10F
330
1F
100
AcDbEntity
  8
0
 62
     7
100
AcDbLine
 10
450.156982
 20
264.720703
 30
0.0
 11
450.156982
 21
264.579285
 31
0.0
  0
LINE
  5
110
330
1F
100
AcDbEntity
  8
0
 62
     7
100
AcDbLine
 10
450.156982
 20
264.579285
 30
0.0
 11
450.156982
 21
264.450012
 31
0.0
  0
LINE
  5
111
330
1F
100
AcDbEntity
  8
0
 62
     7
100
AcDbLine
 10
450.156982
 20
263.75
 30
0.0
 11
450.156982
 21
264.450012
 31
0.0
  0
LINE
  5
112
330
1F
100
AcDbEntity
  8
0
 62
     7
100
AcDbLine
 10
450.156982
 20
263.620728
 30
0.0
 11
450.156982
 21
263.75
 31
0.0
  0
LINE
  5
113
330
1F
100
AcDbEntity
  8
0
 62
     7
100
AcDbLine
 10
450.156982
 20
263.620728
 30
0.0
 11
450.156982
 21
263.479309
 31
0.0
  0
LINE
  5
114
330
1F
100
AcDbEntity
  8
0
 62
     7
100
AcDbLine
 10
450.156982
 20
263.479309
 30
0.0
 11
450.156982
 21
263.349976
 31
0.0
  0
LINE
  5
115
330
1F
100
AcDbEntity
  8
0
 62
     7
100
AcDbLine
 10
450.156982
 20
262.650024
 30
0.0
 11
450.156982
 21
263.349976
 31
0.0
  0
LINE
  5
116
330
1F
100
AcDbEntity
  8
0
 62
     7
100
AcDbLine
 10
450.156982
 20
262.520691
 30
0.0
 11
450.156982
 21
262.650024
 31
0.0
  0
LINE
  5
117
330
1F
100
AcDbEntity
  8
0
 62
     7
100
AcDbLine
 10
450.156982
 20
262.520691
 30
0.0
 11
450.156982
 21
262.379272
 31
0.0
  0
LINE
  5
118
330
1F
100
AcDbEntity
  8
0
 62
     7
100
AcDbLine
 10
450.156982
 20
262.379272
 30
0.0
 11
450.156982
 21
262.25
 31
0.0
  0
LINE
  5
119
330
1F
100
AcDbEntity
  8
0
 62
     7
100
AcDbLine
 10
450.156982
 20
261.549988
 30
0.0
 11
450.156982
 21
262.25
 31
0.0
  0
LINE
  5
11A
330
1F
100
AcDbEntity
  8
0
 62
     7
100
AcDbLine
 10
450.156982
 20
261.420715
 30
0.0
 11
450.156982
 21
261.549988
 31
0.0
  0
LINE
  5
11B
330
1F
100
AcDbEntity
  8
0
 62
     7
100
AcDbLine
 10
450.156982
 20
261.420715
 30
0.0
 11
450.156982
 21
261.279297
 31
0.0
  0
LINE
  5
11C
330
1F
100
AcDbEntity
  8
0
 62
     7
100
AcDbLine
 10
450.156982
 20
261.279297
 30
0.0
 11
450.156982
 21
261.150024
 31
0.0
  0
LINE
  5
11D
330
1F
100
AcDbEntity
  8
0
 62
     7
100
AcDbLine
 10
450.156982
 20
260.450012
 30
0.0
 11
450.156982
 21
261.150024
 31
0.0
  0
LINE
  5
11E
330
1F
100
AcDbEntity
  8
0
 62
     7
100
AcDbLine
 10
450.156982
 20
260.320679
 30
0.0
 11
450.156982
 21
260.450012
 31
0.0
  0
LINE
  5
11F
330
1F
100
AcDbEntity
  8
0
 62
     7
100
AcDbLine
 10
450.156982
 20
260.320679
 30
0.0
 11
450.156982
 21
260.17926
 31
0.0
  0
LINE
  5
120
330
1F
100
AcDbEntity
  8
0
 62
     7
100
AcDbLine
 10
450.156982
 20
260.17926
 30
0.0
 11
450.156982
 21
260.049988
 31
0.0
  0
LINE
  5
121
330
1F
100
AcDbEntity
  8
0
 62
     7
100
AcDbLine
 10
450.156982
 20
259.349976
 30
0.0
 11
450.156982
 21
260.049988
 31
0.0
  0
LINE
  5
122
330
1F
100
AcDbEntity
  8
0
 62
     7
100
AcDbLine
 10
449.156982
 20
265.67926
 30
0.0
 11
449.156982
 21
265.549988
 31
0.0
  0
LINE
  5
123
330
1F
100
AcDbEntity
  8
0
 62
     7
100
AcDbLine
 10
449.156982
 20
265.67926
 30
0.0
 11
449.156982
 21
265.820679
 31
0.0
  0
LINE
  5
124
330
1F
100
AcDbEntity
  8
0
 62
     7
100
AcDbLine
 10
449.156982
 20
265.820679
 30
0.0
 11
449.156982
 21
265.950012
 31
0.0
  0
LINE
  5
125
330
1F
100
AcDbEntity
  8
0
 62
     7
100
AcDbLine
 10
449.156982
 20
266.349976
 30
0.0
 11
449.156982
 21
265.950012
 31
0.0
  0
LINE
  5
126
330
1F
100
AcDbEntity
  8
0
 62
     7
100
AcDbLine
 10
449.156982
 20
259.079285
 30
0.0
 11
449.156982
 21
258.950012
 31
0.0
  0
LINE
  5
127
330
1F
100
AcDbEntity
  8
0
 62
     7
100
AcDbLine
 10
449.156982
 20
259.079285
 30
0.0
 11
449.156982
 21
259.220703
 31
0.0
  0
LINE
  5
128
330
1F
100
AcDbEntity
  8
0
 62
     7
100
AcDbLine
 10
449.156982
 20
259.220703
 30
0.0
 11
449.156982
 21
259.349976
 31
0.0
  0
LINE
  5
129
330
1F
100
AcDbEntity
  8
0
 62
     7
100
AcDbLine
 10
449.156982
 20
260.049988
 30
0.0
 11
449.156982
 21
259.349976
 31
0.0
  0
LINE
  5
12A
330
1F
100
AcDbEntity
  8
0
 62
     7
100
AcDbLine
 10
449.156982
 20
260.17926
 30
0.0
 11
449.156982
 21
260.049988
 31
0.0
  0
LINE
  5
12B
330
1F
100
AcDbEntity
  8
0
 62
     7
100
AcDbLine
 10
449.156982
 20
260.17926
 30
0.0
 11
449.156982
 21
260.320679
 31
0.0
  0
LINE
  5
12C
330
1F
100
AcDbEntity
  8
0
 62
     7
100
AcDbLine
 10
449.156982
 20
260.320679
 30
0.0
 11
449.156982
 21
260.450012
 31
0.0
  0
LINE
  5
12D
330
1F
100
AcDbEntity
  8
0
 62
     7
100
AcDbLine
 10
449.156982
 20
261.150024
 30
0.0
 11
449.156982
 21
260.450012
 31
0.0
  0
LINE
  5
12E
330
1F
100
AcDbEntity
  8
0
 62
     7
100
AcDbLine
 10
449.156982
 20
261.279297
 30
0.0
 11
449.156982
 21
261.150024
 31
0.0
  0
LINE
  5
12F
330
1F
100
AcDbEntity
  8
0
 62
     7
100
AcDbLine
 10
449.156982
 20
261.279297
 30
0.0
 11
449.156982
 21
261.420715
 31
0.0
  0
LINE
  5
130
330
1F
100
AcDbEntity
  8
0
 62
     7
100
AcDbLine
 10
449.156982
 20
261.420715
 30
0.0
 11
449.156982
 21
261.549988
 31
0.0
  0
LINE
  5
131
330
1F
100
AcDbEntity
  8
0
 62
     7
100
AcDbLine
 10
449.156982
 20
262.25
 30
0.0
 11
449.156982
 21
261.549988
 31
0.0
  0
LINE
  5
132
330
1F
100
AcDbEntity
  8
0
 62
     7
100
AcDbLine
 10
449.156982
 20
262.379272
 30
0.0
 11
449.156982
 21
262.25
 31
0.0
  0
LINE
  5
133
330
1F
100
AcDbEntity
  8
0
 62
     7
100
AcDbLine
 10
449.156982
 20
262.379272
 30
0.0
 11
449.156982
 21
262.520691
 31
0.0
  0
LINE
  5
134
330
1F
100
AcDbEntity
  8
0
 62
     7
100
AcDbLine
 10
449.156982
 20
262.520691
 30
0.0
 11
449.156982
 21
262.650024
 31
0.0
  0
LINE
  5
135
330
1F
100
AcDbEntity
  8
0
 62
     7
100
AcDbLine
 10
449.156982
 20
263.349976
 30
0.0
 11
449.156982
 21
262.650024
 31
0.0
  0
LINE
  5
136
330
1F
100
AcDbEntity
  8
0
 62
     7
100
AcDbLine
 10
449.156982
 20
263.479309
 30
0.0
 11
449.156982
 21
263.349976
 31
0.0
  0
LINE
  5
137
330
1F
100
AcDbEntity
  8
0
 62
     7
100
AcDbLine
 10
449.156982
 20
263.479309
 30
0.0
 11
449.156982
 21
263.620728
 31
0.0
  0
LINE
  5
138
330
1F
100
AcDbEntity
  8
0
 62
     7
100
AcDbLine
 10
449.156982
 20
263.620728
 30
0.0
 11
449.156982
 21
263.75
 31
0.0
  0
LINE
  5
139
330
1F
100
AcDbEntity
  8
0
 62
     7
100
AcDbLine
 10
449.156982
 20
264.450012
 30
0.0
 11
449.156982
 21
263.75
 31
0.0
  0
LINE
  5
13A
330
1F
100
AcDbEntity
  8
0
 62
     7
100
AcDbLine
 10
449.156982
 20
264.579285
 30
0.0
 11
449.156982
 21
264.450012
 31
0.0
  0
LINE
  5
13B
330
1F
100
AcDbEntity
  8
0
 62
     7
100
AcDbLine
 10
449.156982
 20
264.579285
 30
0.0
 11
449.156982
 21
264.720703
 31
0.0
  0
LINE
  5
13C
330
1F
100
AcDbEntity
  8
0
 62
     7
100
AcDbLine
 10
449.156982
 20
264.720703
 30
0.0
 11
449.156982
 21
264.849976
 31
0.0
  0
LINE
  5
13D
330
1F
100
AcDbEntity
  8
0
 62
     7
100
AcDbLine
 10
449.156982
 20
265.549988
 30
0.0
 11
449.156982
 21
264.849976
 31
0.0
  0
LINE
  5
13E
330
1F
100
AcDbEntity
  8
0
 62
     7
100
AcDbLine
 10
303.45697
 20
259.079285
 30
0.0
 11
303.45697
 21
258.950012
 31
0.0
  0
LINE
  5
13F
330
1F
100
AcDbEntity
  8
0
 62
     7
100
AcDbLine
 10
303.45697
 20
259.220703
 30
0.0
 11
303.45697
 21
259.349976
 31
0.0
  0
LINE
  5
140
330
1F
100
AcDbEntity
  8
0
 62
     7
100
AcDbLine
 10
303.45697
 20
259.220703
 30
0.0
 11
303.45697
 21
259.079285
 31
0.0
  0
LINE
  5
141
330
1F
100
AcDbEntity
  8
0
 62
     7
100
AcDbLine
 10
303.45697
 20
265.950012
 30
0.0
 11
303.45697
 21
266.349976
 31
0.0
  0
LINE
  5
142
330
1F
100
AcDbEntity
  8
0
 62
     7
100
AcDbLine
 10
303.45697
 20
265.820679
 30
0.0
 11
303.45697
 21
265.950012
 31
0.0
  0
LINE
  5
143
330
1F
100
AcDbEntity
  8
0
 62
     7
100
AcDbLine
 10
303.45697
 20
265.820679
 30
0.0
 11
303.45697
 21
265.67926
 31
0.0
  0
LINE
  5
144
330
1F
100
AcDbEntity
  8
0
 62
     7
100
AcDbLine
 10
303.45697
 20
265.67926
 30
0.0
 11
303.45697
 21
265.549988
 31
0.0
  0
LINE
  5
145
330
1F
100
AcDbEntity
  8
0
 62
     7
100
AcDbLine
 10
303.45697
 20
264.849976
 30
0.0
 11
303.45697
 21
265.549988
 31
0.0
  0
LINE
  5
146
330
1F
100
AcDbEntity
  8
0
 62
     7
100
AcDbLine
 10
303.45697
 20
264.720703
 30
0.0
 11
303.45697
 21
264.849976
 31
0.0
  0
LINE
  5
147
330
1F
100
AcDbEntity
  8
0
 62
     7
100
AcDbLine
 10
303.45697
 20
264.720703
 30
0.0
 11
303.45697
 21
264.579285
 31
0.0
  0
LINE
  5
148
330
1F
100
AcDbEntity
  8
0
 62
     7
100
AcDbLine
 10
303.45697
 20
264.579285
 30
0.0
 11
303.45697
 21
264.450012
 31
0.0
  0
LINE
  5
149
330
1F
100
AcDbEntity
  8
0
 62
     7
100
AcDbLine
 10
303.45697
 20
263.75
 30
0.0
 11
303.45697
 21
264.450012
 31
0.0
  0
LINE
  5
14A
330
1F
100
AcDbEntity
  8
0
 62
     7
100
AcDbLine
 10
303.45697
 20
263.620728
 30
0.0
 11
303.45697
 21
263.75
 31
0.0
  0
LINE
  5
14B
330
1F
100
AcDbEntity
  8
0
 62
     7
100
AcDbLine
 10
303.45697
 20
263.620728
 30
0.0
 11
303.45697
 21
263.479309
 31
0.0
  0
LINE
  5
14C
330
1F
100
AcDbEntity
  8
0
 62
     7
100
AcDbLine
 10
303.45697
 20
263.479309
 30
0.0
 11
303.45697
 21
263.349976
 31
0.0
  0
LINE
  5
14D
330
1F
100
AcDbEntity
  8
0
 62
     7
100
AcDbLine
 10
303.45697
 20
262.650024
 30
0.0
 11
303.45697
 21
263.349976
 31
0.0
  0
LINE
  5
14E
330
1F
100
AcDbEntity
  8
0
 62
     7
100
AcDbLine
 10
303.45697
 20
262.520691
 30
0.0
 11
303.45697
 21
262.650024
 31
0.0
  0
LINE
  5
14F
330
1F
100
AcDbEntity
  8
0
 62
     7
100
AcDbLine
 10
303.45697
 20
262.520691
 30
0.0
 11
303.45697
 21
262.379272
 31
0.0
  0
LINE
  5
150
330
1F
100
AcDbEntity
  8
0
 62
     7
100
AcDbLine
 10
303.45697
 20
262.379272
 30
0.0
 11
303.45697
 21
262.25
 31
0.0
  0
LINE
  5
151
330
1F
100
AcDbEntity
  8
0
 62
     7
100
AcDbLine
 10
303.45697
 20
261.549988
 30
0.0
 11
303.45697
 21
262.25
 31
0.0
  0
LINE
  5
152
330
1F
100
AcDbEntity
  8
0
 62
     7
100
AcDbLine
 10
303.45697
 20
261.420715
 30
0.0
 11
303.45697
 21
261.549988
 31
0.0
  0
LINE
  5
153
330
1F
100
AcDbEntity
  8
0
 62
     7
100
AcDbLine
 10
303.45697
 20
261.420715
 30
0.0
 11
303.45697
 21
261.279297
 31
0.0
  0
LINE
  5
154
330
1F
100
AcDbEntity
  8
0
 62
     7
100
AcDbLine
 10
303.45697
 20
261.279297
 30
0.0
 11
303.45697
 21
261.150024
 31
0.0
  0
LINE
  5
155
330
1F
100
AcDbEntity
  8
0
 62
     7
100
AcDbLine
 10
303.45697
 20
260.450012
 30
0.0
 11
303.45697
 21
261.150024
 31
0.0
  0
LINE
  5
156
330
1F
100
AcDbEntity
  8
0
 62
     7
100
AcDbLine
 10
303.45697
 20
260.320679
 30
0.0
 11
303.45697
 21
260.450012
 31
0.0
  0
LINE
  5
157
330
1F
100
AcDbEntity
  8
0
 62
     7
100
AcDbLine
 10
303.45697
 20
260.320679
 30
0.0
 11
303.45697
 21
260.17926
 31
0.0
  0
LINE
  5
158
330
1F
100
AcDbEntity
  8
0
 62
     7
100
AcDbLine
 10
303.45697
 20
260.17926
 30
0.0
 11
303.45697
 21
260.049988
 31
0.0
  0
LINE
  5
159
330
1F
100
AcDbEntity
  8
0
 62
     7
100
AcDbLine
 10
303.45697
 20
259.349976
 30
0.0
 11
303.45697
 21
260.049988
 31
0.0
  0
LINE
  5
15A
330
1F
100
AcDbEntity
  8
0
 62
     7
100
AcDbLine
 10
302.45697
 20
266.650024
 30
0.0
 11
302.45697
 21
265.950012
 31
0.0
  0
LINE
  5
15B
330
1F
100
AcDbEntity
  8
0
 62
     7
100
AcDbLine
 10
302.45697
 20
266.779297
 30
0.0
 11
302.45697
 21
266.650024
 31
0.0
  0
LINE
  5
15C
330
1F
100
AcDbEntity
  8
0
 62
     7
100
AcDbLine
 10
302.45697
 20
266.779297
 30
0.0
 11
302.45697
 21
266.849976
 31
0.0
  0
LINE
  5
15D
330
1F
100
AcDbEntity
  8
0
 62
     7
100
AcDbLine
 10
302.45697
 20
259.079285
 30
0.0
 11
302.45697
 21
258.950012
 31
0.0
  0
LINE
  5
15E
330
1F
100
AcDbEntity
  8
0
 62
     7
100
AcDbLine
 10
302.45697
 20
259.079285
 30
0.0
 11
302.45697
 21
259.220703
 31
0.0
  0
LINE
  5
15F
330
1F
100
AcDbEntity
  8
0
 62
     7
100
AcDbLine
 10
302.45697
 20
259.220703
 30
0.0
 11
302.45697
 21
259.349976
 31
0.0
  0
LINE
  5
160
330
1F
100
AcDbEntity
  8
0
 62
     7
100
AcDbLine
 10
302.45697
 20
260.049988
 30
0.0
 11
302.45697
 21
259.349976
 31
0.0
  0
LINE
  5
161
330
1F
100
AcDbEntity
  8
0
 62
     7
100
AcDbLine
 10
302.45697
 20
260.17926
 30
0.0
 11
302.45697
 21
260.049988
 31
0.0
  0
LINE
  5
162
330
1F
100
AcDbEntity
  8
0
 62
     7
100
AcDbLine
 10
302.45697
 20
260.17926
 30
0.0
 11
302.45697
 21
260.320679
 31
0.0
  0
LINE
  5
163
330
1F
100
AcDbEntity
  8
0
 62
     7
100
AcDbLine
 10
302.45697
 20
260.320679
 30
0.0
 11
302.45697
 21
260.450012
 31
0.0
  0
LINE
  5
164
330
1F
100
AcDbEntity
  8
0
 62
     7
100
AcDbLine
 10
302.45697
 20
261.150024
 30
0.0
 11
302.45697
 21
260.450012
 31
0.0
  0
LINE
  5
165
330
1F
100
AcDbEntity
  8
0
 62
     7
100
AcDbLine
 10
302.45697
 20
261.279297
 30
0.0
 11
302.45697
 21
261.150024
 31
0.0
  0
LINE
  5
166
330
1F
100
AcDbEntity
  8
0
 62
     7
100
AcDbLine
 10
302.45697
 20
261.279297
 30
0.0
 11
302.45697
 21
261.420715
 31
0.0
  0
LINE
  5
167
330
1F
100
AcDbEntity
  8
0
 62
     7
100
AcDbLine
 10
302.45697
 20
261.420715
 30
0.0
 11
302.45697
 21
261.549988
 31
0.0
  0
LINE
  5
168
330
1F
100
AcDbEntity
  8
0
 62
     7
100
AcDbLine
 10
302.45697
 20
262.25
 30
0.0
 11
302.45697
 21
261.549988
 31
0.0
  0
LINE
  5
169
330
1F
100
AcDbEntity
  8
0
 62
     7
100
AcDbLine
 10
302.45697
 20
262.379272
 30
0.0
 11
302.45697
 21
262.25
 31
0.0
  0
LINE
  5
16A
330
1F
100
AcDbEntity
  8
0
 62
     7
100
AcDbLine
 10
302.45697
 20
262.379272
 30
0.0
 11
302.45697
 21
262.520691
 31
0.0
  0
LINE
  5
16B
330
1F
100
AcDbEntity
  8
0
 62
     7
100
AcDbLine
 10
302.45697
 20
262.520691
 30
0.0
 11
302.45697
 21
262.650024
 31
0.0
  0
LINE
  5
16C
330
1F
100
AcDbEntity
  8
0
 62
     7
100
AcDbLine
 10
302.45697
 20
263.349976
 30
0.0
 11
302.45697
 21
262.650024
 31
0.0
  0
LINE
  5
16D
330
1F
100
AcDbEntity
  8
0
 62
     7
100
AcDbLine
 10
302.45697
 20
263.479309
 30
0.0
 11
302.45697
 21
263.349976
 31
0.0
  0
LINE
  5
16E
330
1F
100
AcDbEntity
  8
0
 62
     7
100
AcDbLine
 10
302.45697
 20
263.479309
 30
0.0
 11
302.45697
 21
263.620728
 31
0.0
  0
LINE
  5
16F
330
1F
100
AcDbEntity
  8
0
 62
     7
100
AcDbLine
 10
302.45697
 20
263.620728
 30
0.0
 11
302.45697
 21
263.75
 31
0.0
  0
LINE
  5
170
330
1F
100
AcDbEntity
  8
0
 62
     7
100
AcDbLine
 10
302.45697
 20
264.450012
 30
0.0
 11
302.45697
 21
263.75
 31
0.0
  0
LINE
  5
171
330
1F
100
AcDbEntity
  8
0
 62
     7
100
AcDbLine
 10
302.45697
 20
264.579285
 30
0.0
 11
302.45697
 21
264.450012
 31
0.0
  0
LINE
  5
172
330
1F
100
AcDbEntity
  8
0
 62
     7
100
AcDbLine
 10
302.45697
 20
264.579285
 30
0.0
 11
302.45697
 21
264.720703
 31
0.0
  0
LINE
  5
173
330
1F
100
AcDbEntity
  8
0
 62
     7
100
AcDbLine
 10
302.45697
 20
264.720703
 30
0.0
 11
302.45697
 21
264.849976
 31
0.0
  0
LINE
  5
174
330
1F
100
AcDbEntity
  8
0
 62
     7
100
AcDbLine
 10
302.45697
 20
265.549988
 30
0.0
 11
302.45697
 21
264.849976
 31
0.0
  0
LINE
  5
175
330
1F
100
AcDbEntity
  8
0
 62
     7
100
AcDbLine
 10
302.45697
 20
265.67926
 30
0.0
 11
302.45697
 21
265.549988
 31
0.0
  0
LINE
  5
176
330
1F
100
AcDbEntity
  8
0
 62
     7
100
AcDbLine
 10
302.45697
 20
265.67926
 30
0.0
 11
302.45697
 21
265.820679
 31
0.0
  0
LINE
  5
177
330
1F
100
AcDbEntity
  8
0
 62
     7
100
AcDbLine
 10
302.45697
 20
265.820679
 30
0.0
 11
302.45697
 21
265.950012
 31
0.0
  0
LINE
  5
178
330
1F
100
AcDbEntity
  8
0
 62
     7
100
AcDbLine
 10
300.156982
 20
259.079285
 30
0.0
 11
300.156982
 21
258.950012
 31
0.0
  0
LINE
  5
179
330
1F
100
AcDbEntity
  8
0
 62
     7
100
AcDbLine
 10
300.156982
 20
259.220703
 30
0.0
 11
300.156982
 21
259.349976
 31
0.0
  0
LINE
  5
17A
330
1F
100
AcDbEntity
  8
0
 62
     7
100
AcDbLine
 10
300.156982
 20
259.220703
 30
0.0
 11
300.156982
 21
259.079285
 31
0.0
  0
LINE
  5
17B
330
1F
100
AcDbEntity
  8
0
 62
     7
100
AcDbLine
 10
300.156982
 20
266.849976
 30
0.0
 11
300.156982
 21
266.779297
 31
0.0
  0
LINE
  5
17C
330
1F
100
AcDbEntity
  8
0
 62
     7
100
AcDbLine
 10
300.156982
 20
266.779297
 30
0.0
 11
300.156982
 21
266.650024
 31
0.0
  0
LINE
  5
17D
330
1F
100
AcDbEntity
  8
0
 62
     7
100
AcDbLine
 10
300.156982
 20
265.950012
 30
0.0
 11
300.156982
 21
266.650024
 31
0.0
  0
LINE
  5
17E
330
1F
100
AcDbEntity
  8
0
 62
     7
100
AcDbLine
 10
300.156982
 20
265.820679
 30
0.0
 11
300.156982
 21
265.950012
 31
0.0
  0
LINE
  5
17F
330
1F
100
AcDbEntity
  8
0
 62
     7
100
AcDbLine
 10
300.156982
 20
265.820679
 30
0.0
 11
300.156982
 21
265.67926
 31
0.0
  0
LINE
  5
180
330
1F
100
AcDbEntity
  8
0
 62
     7
100
AcDbLine
 10
300.156982
 20
265.67926
 30
0.0
 11
300.156982
 21
265.549988
 31
0.0
  0
LINE
  5
181
330
1F
100
AcDbEntity
  8
0
 62
     7
100
AcDbLine
 10
300.156982
 20
264.849976
 30
0.0
 11
300.156982
 21
265.549988
 31
0.0
  0
LINE
  5
182
330
1F
100
AcDbEntity
  8
0
 62
     7
100
AcDbLine
 10
300.156982
 20
264.720703
 30
0.0
 11
300.156982
 21
264.849976
 31
0.0
  0
LINE
  5
183
330
1F
100
AcDbEntity
  8
0
 62
     7
100
AcDbLine
 10
300.156982
 20
264.720703
 30
0.0
 11
300.156982
 21
264.579285
 31
0.0
  0
LINE
  5
184
330
1F
100
AcDbEntity
  8
0
 62
     7
100
AcDbLine
 10
300.156982
 20
264.579285
 30
0.0
 11
300.156982
 21
264.450012
 31
0.0
  0
LINE
  5
185
330
1F
100
AcDbEntity
  8
0
 62
     7
100
AcDbLine
 10
300.156982
 20
263.75
 30
0.0
 11
300.156982
 21
264.450012
 31
0.0
  0
LINE
  5
186
330
1F
100
AcDbEntity
  8
0
 62
     7
100
AcDbLine
 10
300.156982
 20
263.620728
 30
0.0
 11
300.156982
 21
263.75
 31
0.0
  0
LINE
  5
187
330
1F
100
AcDbEntity
  8
0
 62
     7
100
AcDbLine
 10
300.156982
 20
263.620728
 30
0.0
 11
300.156982
 21
263.479309
 31
0.0
  0
LINE
  5
188
330
1F
100
AcDbEntity
  8
0
 62
     7
100
AcDbLine
 10
300.156982
 20
263.479309
 30
0.0
 11
300.156982
 21
263.349976
 31
0.0
  0
LINE
  5
189
330
1F
100
AcDbEntity
  8
0
 62
     7
100
AcDbLine
 10
300.156982
 20
262.650024
 30
0.0
 11
300.156982
 21
263.349976
 31
0.0
  0
LINE
  5
18A
330
1F
100
AcDbEntity
  8
0
 62
     7
100
AcDbLine
 10
300.156982
 20
262.520691
 30
0.0
 11
300.156982
 21
262.650024
 31
0.0
  0
LINE
  5
18B
330
1F
100
AcDbEntity
  8
0
 62
     7
100
AcDbLine
 10
300.156982
 20
262.520691
 30
0.0
 11
300.156982
 21
262.379272
 31
0.0
  0
LINE
  5
18C
330
1F
100
AcDbEntity
  8
0
 62
     7
100
AcDbLine
 10
300.156982
 20
262.379272
 30
0.0
 11
300.156982
 21
262.25
 31
0.0
  0
LINE
  5
18D
330
1F
100
AcDbEntity
  8
0
 62
     7
100
AcDbLine
 10
300.156982
 20
261.549988
 30
0.0
 11
300.156982
 21
262.25
 31
0.0
  0
LINE
  5
18E
330
1F
100
AcDbEntity
  8
0
 62
     7
100
AcDbLine
 10
300.156982
 20
261.420715
 30
0.0
 11
300.156982
 21
261.549988
 31
0.0
  0
LINE
  5
18F
330
1F
100
AcDbEntity
  8
0
 62
     7
100
AcDbLine
 10
300.156982
 20
261.420715
 30
0.0
 11
300.156982
 21
261.279297
 31
0.0
  0
LINE
  5
190
330
1F
100
AcDbEntity
  8
0
 62
     7
100
AcDbLine
 10
300.156982
 20
261.279297
 30
0.0
 11
300.156982
 21
261.150024
 31
0.0
  0
LINE
  5
191
330
1F
100
AcDbEntity
  8
0
 62
     7
100
AcDbLine
 10
300.156982
 20
260.450012
 30
0.0
 11
300.156982
 21
261.150024
 31
0.0
  0
LINE
  5
192
330
1F
100
AcDbEntity
  8
0
 62
     7
100
AcDbLine
 10
300.156982
 20
260.320679
 30
0.0
 11
300.156982
 21
260.450012
 31
0.0
  0
LINE
  5
193
330
1F
100
AcDbEntity
  8
0
 62
     7
100
AcDbLine
 10
300.156982
 20
260.320679
 30
0.0
 11
300.156982
 21
260.17926
 31
0.0
  0
LINE
  5
194
330
1F
100
AcDbEntity
  8
0
 62
     7
100
AcDbLine
 10
300.156982
 20
260.17926
 30
0.0
 11
300.156982
 21
260.049988
 31
0.0
  0
LINE
  5
195
330
1F
100
AcDbEntity
  8
0
 62
     7
100
AcDbLine
 10
300.156982
 20
259.349976
 30
0.0
 11
300.156982
 21
260.049988
 31
0.0
  0
LINE
  5
196
330
1F
100
AcDbEntity
  8
0
 62
     7
100
AcDbLine
 10
299.156982
 20
265.67926
 30
0.0
 11
299.156982
 21
265.549988
 31
0.0
  0
LINE
  5
197
330
1F
100
AcDbEntity
  8
0
 62
     7
100
AcDbLine
 10
299.156982
 20
265.67926
 30
0.0
 11
299.156982
 21
265.820679
 31
0.0
  0
LINE
  5
198
330
1F
100
AcDbEntity
  8
0
 62
     7
100
AcDbLine
 10
299.156982
 20
265.820679
 30
0.0
 11
299.156982
 21
265.950012
 31
0.0
  0
LINE
  5
199
330
1F
100
AcDbEntity
  8
0
 62
     7
100
AcDbLine
 10
299.156982
 20
266.349976
 30
0.0
 11
299.156982
 21
265.950012
 31
0.0
  0
LINE
  5
19A
330
1F
100
AcDbEntity
  8
0
 62
     7
100
AcDbLine
 10
299.156982
 20
259.079285
 30
0.0
 11
299.156982
 21
258.950012
 31
0.0
  0
LINE
  5
19B
330
1F
100
AcDbEntity
  8
0
 62
     7
100
AcDbLine
 10
299.156982
 20
259.079285
 30
0.0
 11
299.156982
 21
259.220703
 31
0.0
  0
LINE
  5
19C
330
1F
100
AcDbEntity
  8
0
 62
     7
100
AcDbLine
 10
299.156982
 20
259.220703
 30
0.0
 11
299.156982
 21
259.349976
 31
0.0
  0
LINE
  5
19D
330
1F
100
AcDbEntity
  8
0
 62
     7
100
AcDbLine
 10
299.156982
 20
260.049988
 30
0.0
 11
299.156982
 21
259.349976
 31
0.0
  0
LINE
  5
19E
330
1F
100
AcDbEntity
  8
0
 62
     7
100
AcDbLine
 10
299.156982
 20
260.17926
 30
0.0
 11
299.156982
 21
260.049988
 31
0.0
  0
LINE
  5
19F
330
1F
100
AcDbEntity
  8
0
 62
     7
100
AcDbLine
 10
299.156982
 20
260.17926
 30
0.0
 11
299.156982
 21
260.320679
 31
0.0
  0
LINE
  5
1A0
330
1F
100
AcDbEntity
  8
0
 62
     7
100
AcDbLine
 10
299.156982
 20
260.320679
 30
0.0
 11
299.156982
 21
260.450012
 31
0.0
  0
LINE
  5
1A1
330
1F
100
AcDbEntity
  8
0
 62
     7
100
AcDbLine
 10
299.156982
 20
261.150024
 30
0.0
 11
299.156982
 21
260.450012
 31
0.0
  0
LINE
  5
1A2
330
1F
100
AcDbEntity
  8
0
 62
     7
100
AcDbLine
 10
299.156982
 20
261.279297
 30
0.0
 11
299.156982
 21
261.150024
 31
0.0
  0
LINE
  5
1A3
330
1F
100
AcDbEntity
  8
0
 62
     7
100
AcDbLine
 10
299.156982
 20
261.279297
 30
0.0
 11
299.156982
 21
261.420715
 31
0.0
  0
LINE
  5
1A4
330
1F
100
AcDbEntity
  8
0
 62
     7
100
AcDbLine
 10
299.156982
 20
261.420715
 30
0.0
 11
299.156982
 21
261.549988
 31
0.0
  0
LINE
  5
1A5
330
1F
100
AcDbEntity
  8
0
 62
     7
100
AcDbLine
 10
299.156982
 20
262.25
 30
0.0
 11
299.156982
 21
261.549988
 31
0.0
  0
LINE
  5
1A6
330
1F
100
AcDbEntity
  8
0
 62
     7
100
AcDbLine
 10
299.156982
 20
262.379272
 30
0.0
 11
299.156982
 21
262.25
 31
0.0
  0
LINE
  5
1A7
330
1F
100
AcDbEntity
  8
0
 62
     7
100
AcDbLine
 10
299.156982
 20
262.379272
 30
0.0
 11
299.156982
 21
262.520691
 31
0.0
  0
LINE
  5
1A8
330
1F
100
AcDbEntity
  8
0
 62
     7
100
AcDbLine
 10
299.156982
 20
262.520691
 30
0.0
 11
299.156982
 21
262.650024
 31
0.0
  0
LINE
  5
1A9
330
1F
100
AcDbEntity
  8
0
 62
     7
100
AcDbLine
 10
299.156982
 20
263.349976
 30
0.0
 11
299.156982
 21
262.650024
 31
0.0
  0
LINE
  5
1AA
330
1F
100
AcDbEntity
  8
0
 62
     7
100
AcDbLine
 10
299.156982
 20
263.479309
 30
0.0
 11
299.156982
 21
263.349976
 31
0.0
  0
LINE
  5
1AB
330
1F
100
AcDbEntity
  8
0
 62
     7
100
AcDbLine
 10
299.156982
 20
263.479309
 30
0.0
 11
299.156982
 21
263.620728
 31
0.0
  0
LINE
  5
1AC
330
1F
100
AcDbEntity
  8
0
 62
     7
100
AcDbLine
 10
299.156982
 20
263.620728
 30
0.0
 11
299.156982
 21
263.75
 31
0.0
  0
LINE
  5
1AD
330
1F
100
AcDbEntity
  8
0
 62
     7
100
AcDbLine
 10
299.156982
 20
264.450012
 30
0.0
 11
299.156982
 21
263.75
 31
0.0
  0
LINE
  5
1AE
330
1F
100
AcDbEntity
  8
0
 62
     7
100
AcDbLine
 10
299.156982
 20
264.579285
 30
0.0
 11
299.156982
 21
264.450012
 31
0.0
  0
LINE
  5
1AF
330
1F
100
AcDbEntity
  8
0
 62
     7
100
AcDbLine
 10
299.156982
 20
264.579285
 30
0.0
 11
299.156982
 21
264.720703
 31
0.0
  0
LINE
  5
1B0
330
1F
100
AcDbEntity
  8
0
 62
     7
100
AcDbLine
 10
299.156982
 20
264.720703
 30
0.0
 11
299.156982
 21
264.849976
 31
0.0
  0
LINE
  5
1B1
330
1F
100
AcDbEntity
  8
0
 62
     7
100
AcDbLine
 10
299.156982
 20
265.549988
 30
0.0
 11
299.156982
 21
264.849976
 31
0.0
  0
LINE
  5
1B2
330
1F
100
AcDbEntity
  8
0
 62
     7
100
AcDbLine
 10
240.488281
 20
258.950012
 30
0.0
 11
240.571655
 21
259.079285
 31
0.0
  0
ARC
  5
1B3
330
1F
100
AcDbEntity
  8
0
 62
     7
100
AcDbCircle
 10
233.806976
 20
263.349976
 30
0.0
 40
8.0
100
AcDbArc
 50
354.980203
 51
360.0
  0
LINE
  5
1B4
330
1F
100
AcDbEntity
  8
0
 62
     7
100
AcDbLine
 10
241.763855
 20
262.520691
 30
0.0
 11
241.776276
 21
262.650024
 31
0.0
  0
LINE
  5
1B5
330
1F
100
AcDbEntity
  8
0
 62
     7
100
AcDbLine
 10
241.747864
 20
262.379272
 30
0.0
 11
241.763855
 21
262.520691
 31
0.0
  0
LINE
  5
1B6
330
1F
100
AcDbEntity
  8
0
 62
     7
100
AcDbLine
 10
241.730988
 20
262.25
 30
0.0
 11
241.747864
 21
262.379272
 31
0.0
  0
ARC
  5
1B7
330
1F
100
AcDbEntity
  8
0
 62
     7
100
AcDbCircle
 10
233.806976
 20
263.349976
 30
0.0
 40
8.0
100
AcDbArc
 50
346.997132
 51
352.096798
  0
LINE
  5
1B8
330
1F
100
AcDbEntity
  8
0
 62
     7
100
AcDbLine
 10
241.570862
 20
261.420715
 30
0.0
 11
241.601837
 21
261.549988
 31
0.0
  0
LINE
  5
1B9
330
1F
100
AcDbEntity
  8
0
 62
     7
100
AcDbLine
 10
241.534332
 20
261.279297
 30
0.0
 11
241.570862
 21
261.420715
 31
0.0
  0
LINE
  5
1BA
330
1F
100
AcDbEntity
  8
0
 62
     7
100
AcDbLine
 10
241.498535
 20
261.150024
 30
0.0
 11
241.534332
 21
261.279297
 31
0.0
  0
ARC
  5
1BB
330
1F
100
AcDbEntity
  8
0
 62
     7
100
AcDbCircle
 10
233.806976
 20
263.349976
 30
0.0
 40
8.0
100
AcDbArc
 50
338.746183
 51
344.037995
  0
LINE
  5
1BC
330
1F
100
AcDbEntity
  8
0
 62
     7
100
AcDbLine
 10
241.211243
 20
260.320679
 30
0.0
 11
241.262848
 21
260.450012
 31
0.0
  0
LINE
  5
1BD
330
1F
100
AcDbEntity
  8
0
 62
     7
100
AcDbLine
 10
241.151794
 20
260.17926
 30
0.0
 11
241.211243
 21
260.320679
 31
0.0
  0
LINE
  5
1BE
330
1F
100
AcDbEntity
  8
0
 62
     7
100
AcDbLine
 10
241.094635
 20
260.049988
 30
0.0
 11
241.151794
 21
260.17926
 31
0.0
  0
ARC
  5
1BF
330
1F
100
AcDbEntity
  8
0
 62
     7
100
AcDbCircle
 10
233.806976
 20
263.349976
 30
0.0
 40
8.0
100
AcDbArc
 50
329.999989
 51
335.63801
  0
LINE
  5
1C0
330
1F
100
AcDbEntity
  8
0
 62
     7
100
AcDbLine
 10
240.658905
 20
259.220703
 30
0.0
 11
240.735168
 21
259.349976
 31
0.0
  0
LINE
  5
1C1
330
1F
100
AcDbEntity
  8
0
 62
     7
100
AcDbLine
 10
240.571655
 20
259.079285
 30
0.0
 11
240.658905
 21
259.220703
 31
0.0
  0
LINE
  5
1C2
330
1F
100
AcDbEntity
  8
0
 62
     7
100
AcDbLine
 10
227.125641
 20
258.950012
 30
0.0
 11
227.042267
 21
259.079285
 31
0.0
  0
LINE
  5
1C3
330
1F
100
AcDbEntity
  8
0
 62
     7
100
AcDbLine
 10
227.042267
 20
259.079285
 30
0.0
 11
226.955048
 21
259.220703
 31
0.0
  0
LINE
  5
1C4
330
1F
100
AcDbEntity
  8
0
 62
     7
100
AcDbLine
 10
226.955048
 20
259.220703
 30
0.0
 11
226.878754
 21
259.349976
 31
0.0
  0
ARC
  5
1C5
330
1F
100
AcDbEntity
  8
0
 62
     7
100
AcDbCircle
 10
233.806976
 20
263.349976
 30
0.0
 40
8.0
100
AcDbArc
 50
204.361982
 51
210.000003
  0
LINE
  5
1C6
330
1F
100
AcDbEntity
  8
0
 62
     7
100
AcDbLine
 10
226.519318
 20
260.049988
 30
0.0
 11
226.462128
 21
260.17926
 31
0.0
  0
LINE
  5
1C7
330
1F
100
AcDbEntity
  8
0
 62
     7
100
AcDbLine
 10
226.462128
 20
260.17926
 30
0.0
 11
226.402679
 21
260.320679
 31
0.0
  0
LINE
  5
1C8
330
1F
100
AcDbEntity
  8
0
 62
     7
100
AcDbLine
 10
226.402679
 20
260.320679
 30
0.0
 11
226.351105
 21
260.450012
 31
0.0
  0
ARC
  5
1C9
330
1F
100
AcDbEntity
  8
0
 62
     7
100
AcDbCircle
 10
233.806976
 20
263.349976
 30
0.0
 40
8.0
100
AcDbArc
 50
195.96201
 51
201.253809
  0
LINE
  5
1CA
330
1F
100
AcDbEntity
  8
0
 62
     7
100
AcDbLine
 10
226.115417
 20
261.150024
 30
0.0
 11
226.07959
 21
261.279297
 31
0.0
  0
LINE
  5
1CB
330
1F
100
AcDbEntity
  8
0
 62
     7
100
AcDbLine
 10
226.07959
 20
261.279297
 30
0.0
 11
226.043091
 21
261.420715
 31
0.0
  0
LINE
  5
1CC
330
1F
100
AcDbEntity
  8
0
 62
     7
100
AcDbLine
 10
226.043091
 20
261.420715
 30
0.0
 11
226.012085
 21
261.549988
 31
0.0
  0
ARC
  5
1CD
330
1F
100
AcDbEntity
  8
0
 62
     7
100
AcDbCircle
 10
233.806976
 20
263.349976
 30
0.0
 40
8.0
100
AcDbArc
 50
187.903207
 51
193.002872
  0
LINE
  5
1CE
330
1F
100
AcDbEntity
  8
0
 62
     7
100
AcDbLine
 10
225.882965
 20
262.25
 30
0.0
 11
225.866089
 21
262.379272
 31
0.0
  0
LINE
  5
1CF
330
1F
100
AcDbEntity
  8
0
 62
     7
100
AcDbLine
 10
225.866089
 20
262.379272
 30
0.0
 11
225.850067
 21
262.520691
 31
0.0
  0
LINE
  5
1D0
330
1F
100
AcDbEntity
  8
0
 62
     7
100
AcDbLine
 10
225.850067
 20
262.520691
 30
0.0
 11
225.837646
 21
262.650024
 31
0.0
  0
ARC
  5
1D1
330
1F
100
AcDbEntity
  8
0
 62
     7
100
AcDbCircle
 10
233.806976
 20
263.349976
 30
0.0
 40
8.0
100
AcDbArc
 50
180.000009
 51
185.019802
  0
LINE
  5
1D2
330
1F
100
AcDbEntity
  8
0
 62
     7
100
AcDbLine
 10
224.806976
 20
259.079285
 30
0.0
 11
224.806976
 21
258.950012
 31
0.0
  0
LINE
  5
1D3
330
1F
100
AcDbEntity
  8
0
 62
     7
100
AcDbLine
 10
224.806976
 20
259.220703
 30
0.0
 11
224.806976
 21
259.079285
 31
0.0
  0
LINE
  5
1D4
330
1F
100
AcDbEntity
  8
0
 62
     7
100
AcDbLine
 10
224.806976
 20
259.349976
 30
0.0
 11
224.806976
 21
259.220703
 31
0.0
  0
LINE
  5
1D5
330
1F
100
AcDbEntity
  8
0
 62
     7
100
AcDbLine
 10
224.806976
 20
259.349976
 30
0.0
 11
224.806976
 21
260.049988
 31
0.0
  0
LINE
  5
1D6
330
1F
100
AcDbEntity
  8
0
 62
     7
100
AcDbLine
 10
224.806976
 20
260.17926
 30
0.0
 11
224.806976
 21
260.049988
 31
0.0
  0
LINE
  5
1D7
330
1F
100
AcDbEntity
  8
0
 62
     7
100
AcDbLine
 10
224.806976
 20
260.320679
 30
0.0
 11
224.806976
 21
260.17926
 31
0.0
  0
LINE
  5
1D8
330
1F
100
AcDbEntity
  8
0
 62
     7
100
AcDbLine
 10
224.806976
 20
260.450012
 30
0.0
 11
224.806976
 21
260.320679
 31
0.0
  0
LINE
  5
1D9
330
1F
100
AcDbEntity
  8
0
 62
     7
100
AcDbLine
 10
224.806976
 20
260.450012
 30
0.0
 11
224.806976
 21
261.150024
 31
0.0
  0
LINE
  5
1DA
330
1F
100
AcDbEntity
  8
0
 62
     7
100
AcDbLine
 10
224.806976
 20
261.279297
 30
0.0
 11
224.806976
 21
261.150024
 31
0.0
  0
LINE
  5
1DB
330
1F
100
AcDbEntity
  8
0
 62
     7
100
AcDbLine
 10
224.806976
 20
261.420715
 30
0.0
 11
224.806976
 21
261.279297
 31
0.0
  0
LINE
  5
1DC
330
1F
100
AcDbEntity
  8
0
 62
     7
100
AcDbLine
 10
224.806976
 20
261.549988
 30
0.0
 11
224.806976
 21
261.420715
 31
0.0
  0
LINE
  5
1DD
330
1F
100
AcDbEntity
  8
0
 62
     7
100
AcDbLine
 10
224.806976
 20
261.549988
 30
0.0
 11
224.806976
 21
262.25
 31
0.0
  0
LINE
  5
1DE
330
1F
100
AcDbEntity
  8
0
 62
     7
100
AcDbLine
 10
224.806976
 20
262.379272
 30
0.0
 11
224.806976
 21
262.25
 31
0.0
  0
LINE
  5
1DF
330
1F
100
AcDbEntity
  8
0
 62
     7
100
AcDbLine
 10
224.806976
 20
262.520691
 30
0.0
 11
224.806976
 21
262.379272
 31
0.0
  0
LINE
  5
1E0
330
1F
100
AcDbEntity
  8
0
 62
     7
100
AcDbLine
 10
224.806976
 20
262.650024
 30
0.0
 11
224.806976
 21
262.520691
 31
0.0
  0
LINE
  5
1E1
330
1F
100
AcDbEntity
  8
0
 62
     7
100
AcDbLine
 10
224.806976
 20
262.650024
 30
0.0
 11
224.806976
 21
263.349976
 31
0.0
  0
LINE
  5
1E2
330
1F
100
AcDbEntity
  8
0
 62
     7
100
AcDbLine
 10
224.806976
 20
263.479309
 30
0.0
 11
224.806976
 21
263.349976
 31
0.0
  0
LINE
  5
1E3
330
1F
100
AcDbEntity
  8
0
 62
     7
100
AcDbLine
 10
224.806976
 20
263.620728
 30
0.0
 11
224.806976
 21
263.479309
 31
0.0
  0
LINE
  5
1E4
330
1F
100
AcDbEntity
  8
0
 62
     7
100
AcDbLine
 10
224.806976
 20
263.75
 30
0.0
 11
224.806976
 21
263.620728
 31
0.0
  0
LINE
  5
1E5
330
1F
100
AcDbEntity
  8
0
 62
     7
100
AcDbLine
 10
224.806976
 20
263.75
 30
0.0
 11
224.806976
 21
264.450012
 31
0.0
  0
LINE
  5
1E6
330
1F
100
AcDbEntity
  8
0
 62
     7
100
AcDbLine
 10
224.806976
 20
264.579285
 30
0.0
 11
224.806976
 21
264.450012
 31
0.0
  0
LINE
  5
1E7
330
1F
100
AcDbEntity
  8
0
 62
     7
100
AcDbLine
 10
224.806976
 20
264.720703
 30
0.0
 11
224.806976
 21
264.579285
 31
0.0
  0
LINE
  5
1E8
330
1F
100
AcDbEntity
  8
0
 62
     7
100
AcDbLine
 10
224.806976
 20
264.849976
 30
0.0
 11
224.806976
 21
264.720703
 31
0.0
  0
LINE
  5
1E9
330
1F
100
AcDbEntity
  8
0
 62
     7
100
AcDbLine
 10
224.806976
 20
264.849976
 30
0.0
 11
224.806976
 21
265.549988
 31
0.0
  0
LINE
  5
1EA
330
1F
100
AcDbEntity
  8
0
 62
     7
100
AcDbLine
 10
224.806976
 20
265.67926
 30
0.0
 11
224.806976
 21
265.549988
 31
0.0
  0
LINE
  5
1EB
330
1F
100
AcDbEntity
  8
0
 62
     7
100
AcDbLine
 10
224.806976
 20
265.820679
 30
0.0
 11
224.806976
 21
265.67926
 31
0.0
  0
LINE
  5
1EC
330
1F
100
AcDbEntity
  8
0
 62
     7
100
AcDbLine
 10
224.806976
 20
265.950012
 30
0.0
 11
224.806976
 21
265.820679
 31
0.0
  0
LINE
  5
1ED
330
1F
100
AcDbEntity
  8
0
 62
     7
100
AcDbLine
 10
224.806976
 20
265.950012
 30
0.0
 11
224.806976
 21
266.650024
 31
0.0
  0
LINE
  5
1EE
330
1F
100
AcDbEntity
  8
0
 62
     7
100
AcDbLine
 10
224.806976
 20
266.779297
 30
0.0
 11
224.806976
 21
266.650024
 31
0.0
  0
LINE
  5
1EF
330
1F
100
AcDbEntity
  8
0
 62
     7
100
AcDbLine
 10
224.806976
 20
266.920715
 30
0.0
 11
224.806976
 21
266.779297
 31
0.0
  0
LINE
  5
1F0
330
1F
100
AcDbEntity
  8
0
 62
     7
100
AcDbLine
 10
224.806976
 20
267.049988
 30
0.0
 11
224.806976
 21
266.920715
 31
0.0
  0
LINE
  5
1F1
330
1F
100
AcDbEntity
  8
0
 62
     7
100
AcDbLine
 10
224.806976
 20
267.049988
 30
0.0
 11
224.806976
 21
267.75
 31
0.0
  0
LINE
  5
1F2
330
1F
100
AcDbEntity
  8
0
 62
     7
100
AcDbLine
 10
224.806976
 20
267.879272
 30
0.0
 11
224.806976
 21
267.75
 31
0.0
  0
LINE
  5
1F3
330
1F
100
AcDbEntity
  8
0
 62
     7
100
AcDbLine
 10
224.806976
 20
268.020691
 30
0.0
 11
224.806976
 21
267.879272
 31
0.0
  0
LINE
  5
1F4
330
1F
100
AcDbEntity
  8
0
 62
     7
100
AcDbLine
 10
224.806976
 20
268.150024
 30
0.0
 11
224.806976
 21
268.020691
 31
0.0
  0
LINE
  5
1F5
330
1F
100
AcDbEntity
  8
0
 62
     7
100
AcDbLine
 10
224.806976
 20
268.150024
 30
0.0
 11
224.806976
 21
272.974243
 31
0.0
  0
LINE
  5
1F6
330
1F
100
AcDbEntity
  8
0
 62
     7
100
AcDbLine
 10
224.806976
 20
273.462158
 30
0.0
 11
224.806976
 21
272.974243
 31
0.0
  0
LINE
  5
1F7
330
1F
100
AcDbEntity
  8
0
 62
     7
100
AcDbLine
 10
224.806976
 20
273.549988
 30
0.0
 11
224.806976
 21
273.462158
 31
0.0
  0
ARC
  5
1F8
330
1F
100
AcDbEntity
  8
0
 62
     7
100
AcDbCircle
 10
452.306976
 20
250.550003
 30
0.0
 40
0.5
100
AcDbArc
 50
0.0
 51
90.000003
  0
LINE
  5
1F9
330
1F
100
AcDbEntity
  8
0
 62
     7
100
AcDbLine
 10
452.306976
 20
251.050003
 30
0.0
 11
445.306976
 21
251.050003
 31
0.0
  0
ARC
  5
1FA
330
1F
100
AcDbEntity
  8
0
 62
     7
100
AcDbCircle
 10
445.306976
 20
250.550003
 30
0.0
 40
0.5
100
AcDbArc
 50
90.000003
 51
180.000009
  0
LINE
  5
1FB
330
1F
100
AcDbEntity
  8
0
 62
     7
100
AcDbLine
 10
444.806976
 20
250.550003
 30
0.0
 11
444.806976
 21
246.550003
 31
0.0
  0
ARC
  5
1FC
330
1F
100
AcDbEntity
  8
0
 62
     7
100
AcDbCircle
 10
445.306976
 20
246.550003
 30
0.0
 40
0.5
100
AcDbArc
 50
180.000009
 51
269.999997
  0
LINE
  5
1FD
330
1F
100
AcDbEntity
  8
0
 62
     7
100
AcDbLine
 10
445.306976
 20
246.050003
 30
0.0
 11
452.306976
 21
246.050003
 31
0.0
  0
ARC
  5
1FE
330
1F
100
AcDbEntity
  8
0
 62
     7
100
AcDbCircle
 10
452.306976
 20
246.550003
 30
0.0
 40
0.5
100
AcDbArc
 50
269.999997
 51
360.0
  0
LINE
  5
1FF
330
1F
100
AcDbEntity
  8
0
 62
     7
100
AcDbLine
 10
452.806976
 20
246.550003
 30
0.0
 11
452.806976
 21
250.550003
 31
0.0
  0
ARC
  5
200
330
1F
100
AcDbEntity
  8
0
 62
     7
100
AcDbCircle
 10
282.306976
 20
250.550003
 30
0.0
 40
0.5
100
AcDbArc
 50
0.0
 51
90.000003
  0
LINE
  5
201
330
1F
100
AcDbEntity
  8
0
 62
     7
100
AcDbLine
 10
282.306976
 20
251.050003
 30
0.0
 11
275.306976
 21
251.050003
 31
0.0
  0
ARC
  5
202
330
1F
100
AcDbEntity
  8
0
 62
     7
100
AcDbCircle
 10
275.306976
 20
250.550003
 30
0.0
 40
0.5
100
AcDbArc
 50
90.000003
 51
180.000009
  0
LINE
  5
203
330
1F
100
AcDbEntity
  8
0
 62
     7
100
AcDbLine
 10
274.806976
 20
250.550003
 30
0.0
 11
274.806976
 21
246.550003
 31
0.0
  0
ARC
  5
204
330
1F
100
AcDbEntity
  8
0
 62
     7
100
AcDbCircle
 10
275.306976
 20
246.550003
 30
0.0
 40
0.5
100
AcDbArc
 50
180.000009
 51
269.999997
  0
LINE
  5
205
330
1F
100
AcDbEntity
  8
0
 62
     7
100
AcDbLine
 10
275.306976
 20
246.050003
 30
0.0
 11
282.306976
 21
246.050003
 31
0.0
  0
ARC
  5
206
330
1F
100
AcDbEntity
  8
0
 62
     7
100
AcDbCircle
 10
282.306976
 20
246.550003
 30
0.0
 40
0.5
100
AcDbArc
 50
269.999997
 51
360.0
  0
LINE
  5
207
330
1F
100
AcDbEntity
  8
0
 62
     7
100
AcDbLine
 10
282.806976
 20
246.550003
 30
0.0
 11
282.806976
 21
250.550003
 31
0.0
  0
LINE
  5
208
330
1F
100
AcDbEntity
  8
0
 62
     7
100
AcDbLine
 10
528.306946
 20
251.350006
 30
0.0
 11
527.806946
 21
251.350006
 31
0.0
  0
LINE
  5
209
330
1F
100
AcDbEntity
  8
0
 62
     7
100
AcDbLine
 10
527.806946
 20
253.650009
 30
0.0
 11
528.306946
 21
253.650009
 31
0.0
  0
LINE
  5
20A
330
1F
100
AcDbEntity
  8
0
 62
     7
100
AcDbLine
 10
224.306976
 20
253.650009
 30
0.0
 11
224.806976
 21
253.650009
 31
0.0
  0
LINE
  5
20B
330
1F
100
AcDbEntity
  8
0
 62
     7
100
AcDbLine
 10
455.306976
 20
273.462158
 30
0.0
 11
455.306976
 21
273.549988
 31
0.0
  0
LINE
  5
20C
330
1F
100
AcDbEntity
  8
0
 62
     7
100
AcDbLine
 10
455.306976
 20
273.462158
 30
0.0
 11
455.306976
 21
272.974243
 31
0.0
  0
LINE
  5
20D
330
1F
100
AcDbEntity
  8
0
 62
     7
100
AcDbLine
 10
527.806946
 20
272.974243
 30
0.0
 11
455.306976
 21
272.974243
 31
0.0
  0
ARC
  5
20E
330
1F
100
AcDbEntity
  8
0
 62
     7
100
AcDbCircle
 10
518.806946
 20
263.349976
 30
0.0
 40
8.0
100
AcDbArc
 50
36.869897
 51
143.130097
  0
LINE
  5
20F
330
1F
100
AcDbEntity
  8
0
 62
     7
100
AcDbLine
 10
527.806946
 20
268.150024
 30
0.0
 11
525.20697
 21
268.150024
 31
0.0
  0
LINE
  5
210
330
1F
100
AcDbEntity
  8
0
 62
     7
100
AcDbLine
 10
455.306976
 20
268.150024
 30
0.0
 11
455.306976
 21
272.974243
 31
0.0
  0
LINE
  5
211
330
1F
100
AcDbEntity
  8
0
 62
     7
100
AcDbLine
 10
512.406982
 20
268.150024
 30
0.0
 11
455.306976
 21
268.150024
 31
0.0
  0
LINE
  5
212
330
1F
100
AcDbEntity
  8
0
 62
     7
100
AcDbLine
 10
525.20697
 20
268.150024
 30
0.0
 11
525.301941
 21
268.020691
 31
0.0
  0
LINE
  5
213
330
1F
100
AcDbEntity
  8
0
 62
     7
100
AcDbLine
 10
525.301941
 20
268.020691
 30
0.0
 11
525.401306
 21
267.879272
 31
0.0
  0
LINE
  5
214
330
1F
100
AcDbEntity
  8
0
 62
     7
100
AcDbLine
 10
525.401306
 20
267.879272
 30
0.0
 11
525.488281
 21
267.75
 31
0.0
  0
LINE
  5
215
330
1F
100
AcDbEntity
  8
0
 62
     7
100
AcDbLine
 10
527.806946
 20
267.75
 30
0.0
 11
525.488281
 21
267.75
 31
0.0
  0
ARC
  5
216
330
1F
100
AcDbEntity
  8
0
 62
     7
100
AcDbCircle
 10
518.806946
 20
263.349976
 30
0.0
 40
8.0
100
AcDbArc
 50
27.548547
 51
33.367014
  0
LINE
  5
217
330
1F
100
AcDbEntity
  8
0
 62
     7
100
AcDbLine
 10
527.806946
 20
267.049988
 30
0.0
 11
525.899902
 21
267.049988
 31
0.0
  0
LINE
  5
218
330
1F
100
AcDbEntity
  8
0
 62
     7
100
AcDbLine
 10
525.899902
 20
267.049988
 30
0.0
 11
525.965881
 21
266.920715
 31
0.0
  0
LINE
  5
219
330
1F
100
AcDbEntity
  8
0
 62
     7
100
AcDbLine
 10
525.965881
 20
266.920715
 30
0.0
 11
526.034668
 21
266.779297
 31
0.0
  0
LINE
  5
21A
330
1F
100
AcDbEntity
  8
0
 62
     7
100
AcDbLine
 10
526.034668
 20
266.779297
 30
0.0
 11
526.094604
 21
266.650024
 31
0.0
  0
LINE
  5
21B
330
1F
100
AcDbEntity
  8
0
 62
     7
100
AcDbLine
 10
527.806946
 20
266.650024
 30
0.0
 11
526.094604
 21
266.650024
 31
0.0
  0
ARC
  5
21C
330
1F
100
AcDbEntity
  8
0
 62
     7
100
AcDbCircle
 10
518.806946
 20
263.349976
 30
0.0
 40
8.0
100
AcDbArc
 50
18.965574
 51
24.361978
  0
LINE
  5
21D
330
1F
100
AcDbEntity
  8
0
 62
     7
100
AcDbLine
 10
527.806946
 20
265.950012
 30
0.0
 11
526.372681
 21
265.950012
 31
0.0
  0
LINE
  5
21E
330
1F
100
AcDbEntity
  8
0
 62
     7
100
AcDbLine
 10
526.372681
 20
265.950012
 30
0.0
 11
526.415894
 21
265.820679
 31
0.0
  0
LINE
  5
21F
330
1F
100
AcDbEntity
  8
0
 62
     7
100
AcDbLine
 10
526.415894
 20
265.820679
 30
0.0
 11
526.460327
 21
265.67926
 31
0.0
  0
LINE
  5
220
330
1F
100
AcDbEntity
  8
0
 62
     7
100
AcDbLine
 10
526.460327
 20
265.67926
 30
0.0
 11
526.498535
 21
265.549988
 31
0.0
  0
LINE
  5
221
330
1F
100
AcDbEntity
  8
0
 62
     7
100
AcDbLine
 10
527.806946
 20
265.549988
 30
0.0
 11
526.498535
 21
265.549988
 31
0.0
  0
ARC
  5
222
330
1F
100
AcDbEntity
  8
0
 62
     7
100
AcDbCircle
 10
518.806946
 20
263.349976
 30
0.0
 40
8.0
100
AcDbArc
 50
10.806925
 51
15.962019
  0
LINE
  5
223
330
1F
100
AcDbEntity
  8
0
 62
     7
100
AcDbLine
 10
527.806946
 20
264.849976
 30
0.0
 11
526.6651
 21
264.849976
 31
0.0
  0
LINE
  5
224
330
1F
100
AcDbEntity
  8
0
 62
     7
100
AcDbLine
 10
526.6651
 20
264.849976
 30
0.0
 11
526.68866
 21
264.720703
 31
0.0
  0
LINE
  5
225
330
1F
100
AcDbEntity
  8
0
 62
     7
100
AcDbLine
 10
526.68866
 20
264.720703
 30
0.0
 11
526.711975
 21
264.579285
 31
0.0
  0
LINE
  5
226
330
1F
100
AcDbEntity
  8
0
 62
     7
100
AcDbLine
 10
526.711975
 20
264.579285
 30
0.0
 11
526.730957
 21
264.450012
 31
0.0
  0
LINE
  5
227
330
1F
100
AcDbEntity
  8
0
 62
     7
100
AcDbLine
 10
527.806946
 20
264.450012
 30
0.0
 11
526.730957
 21
264.450012
 31
0.0
  0
ARC
  5
228
330
1F
100
AcDbEntity
  8
0
 62
     7
100
AcDbCircle
 10
518.806946
 20
263.349976
 30
0.0
 40
8.0
100
AcDbArc
 50
2.865984
 51
7.903208
  0
LINE
  5
229
330
1F
100
AcDbEntity
  8
0
 62
     7
100
AcDbLine
 10
527.806946
 20
263.75
 30
0.0
 11
526.796936
 21
263.75
 31
0.0
  0
LINE
  5
22A
330
1F
100
AcDbEntity
  8
0
 62
     7
100
AcDbLine
 10
526.796936
 20
263.75
 30
0.0
 11
526.802368
 21
263.620728
 31
0.0
  0
LINE
  5
22B
330
1F
100
AcDbEntity
  8
0
 62
     7
100
AcDbLine
 10
526.802368
 20
263.620728
 30
0.0
 11
526.805908
 21
263.479309
 31
0.0
  0
LINE
  5
22C
330
1F
100
AcDbEntity
  8
0
 62
     7
100
AcDbLine
 10
526.805908
 20
263.479309
 30
0.0
 11
526.806946
 21
263.349976
 31
0.0
  0
LINE
  5
22D
330
1F
100
AcDbEntity
  8
0
 62
     7
100
AcDbLine
 10
527.806946
 20
263.349976
 30
0.0
 11
526.806946
 21
263.349976
 31
0.0
  0
LINE
  5
22E
330
1F
100
AcDbEntity
  8
0
 62
     7
100
AcDbLine
 10
527.806946
 20
262.650024
 30
0.0
 11
526.776306
 21
262.650024
 31
0.0
  0
LINE
  5
22F
330
1F
100
AcDbEntity
  8
0
 62
     7
100
AcDbLine
 10
527.806946
 20
262.25
 30
0.0
 11
526.730957
 21
262.25
 31
0.0
  0
LINE
  5
230
330
1F
100
AcDbEntity
  8
0
 62
     7
100
AcDbLine
 10
527.806946
 20
261.549988
 30
0.0
 11
526.601807
 21
261.549988
 31
0.0
  0
LINE
  5
231
330
1F
100
AcDbEntity
  8
0
 62
     7
100
AcDbLine
 10
527.806946
 20
261.150024
 30
0.0
 11
526.498535
 21
261.150024
 31
0.0
  0
LINE
  5
232
330
1F
100
AcDbEntity
  8
0
 62
     7
100
AcDbLine
 10
527.806946
 20
260.450012
 30
0.0
 11
526.262817
 21
260.450012
 31
0.0
  0
LINE
  5
233
330
1F
100
AcDbEntity
  8
0
 62
     7
100
AcDbLine
 10
527.806946
 20
260.049988
 30
0.0
 11
526.094604
 21
260.049988
 31
0.0
  0
LINE
  5
234
330
1F
100
AcDbEntity
  8
0
 62
     7
100
AcDbLine
 10
527.806946
 20
259.349976
 30
0.0
 11
525.735168
 21
259.349976
 31
0.0
  0
LINE
  5
235
330
1F
100
AcDbEntity
  8
0
 62
     7
100
AcDbLine
 10
511.878784
 20
259.349976
 30
0.0
 11
453.45697
 21
259.349976
 31
0.0
  0
LINE
  5
236
330
1F
100
AcDbEntity
  8
0
 62
     7
100
AcDbLine
 10
511.519318
 20
260.049988
 30
0.0
 11
453.45697
 21
260.049988
 31
0.0
  0
LINE
  5
237
330
1F
100
AcDbEntity
  8
0
 62
     7
100
AcDbLine
 10
511.351105
 20
260.450012
 30
0.0
 11
453.45697
 21
260.450012
 31
0.0
  0
LINE
  5
238
330
1F
100
AcDbEntity
  8
0
 62
     7
100
AcDbLine
 10
511.115417
 20
261.150024
 30
0.0
 11
453.45697
 21
261.150024
 31
0.0
  0
LINE
  5
239
330
1F
100
AcDbEntity
  8
0
 62
     7
100
AcDbLine
 10
511.012115
 20
261.549988
 30
0.0
 11
453.45697
 21
261.549988
 31
0.0
  0
LINE
  5
23A
330
1F
100
AcDbEntity
  8
0
 62
     7
100
AcDbLine
 10
510.882965
 20
262.25
 30
0.0
 11
453.45697
 21
262.25
 31
0.0
  0
LINE
  5
23B
330
1F
100
AcDbEntity
  8
0
 62
     7
100
AcDbLine
 10
510.837646
 20
262.650024
 30
0.0
 11
453.45697
 21
262.650024
 31
0.0
  0
LINE
  5
23C
330
1F
100
AcDbEntity
  8
0
 62
     7
100
AcDbLine
 10
510.806976
 20
263.349976
 30
0.0
 11
453.45697
 21
263.349976
 31
0.0
  0
LINE
  5
23D
330
1F
100
AcDbEntity
  8
0
 62
     7
100
AcDbLine
 10
510.808014
 20
263.479309
 30
0.0
 11
510.806976
 21
263.349976
 31
0.0
  0
LINE
  5
23E
330
1F
100
AcDbEntity
  8
0
 62
     7
100
AcDbLine
 10
510.811554
 20
263.620728
 30
0.0
 11
510.808014
 21
263.479309
 31
0.0
  0
LINE
  5
23F
330
1F
100
AcDbEntity
  8
0
 62
     7
100
AcDbLine
 10
510.816986
 20
263.75
 30
0.0
 11
510.811554
 21
263.620728
 31
0.0
  0
ARC
  5
240
330
1F
100
AcDbEntity
  8
0
 62
     7
100
AcDbCircle
 10
518.806946
 20
263.349976
 30
0.0
 40
8.0
100
AcDbArc
 50
172.096793
 51
177.134017
  0
LINE
  5
241
330
1F
100
AcDbEntity
  8
0
 62
     7
100
AcDbLine
 10
510.901978
 20
264.579285
 30
0.0
 11
510.882965
 21
264.450012
 31
0.0
  0
LINE
  5
242
330
1F
100
AcDbEntity
  8
0
 62
     7
100
AcDbLine
 10
510.925293
 20
264.720703
 30
0.0
 11
510.901978
 21
264.579285
 31
0.0
  0
LINE
  5
243
330
1F
100
AcDbEntity
  8
0
 62
     7
100
AcDbLine
 10
510.948853
 20
264.849976
 30
0.0
 11
510.925293
 21
264.720703
 31
0.0
  0
ARC
  5
244
330
1F
100
AcDbEntity
  8
0
 62
     7
100
AcDbCircle
 10
518.806946
 20
263.349976
 30
0.0
 40
8.0
100
AcDbArc
 50
164.03799
 51
169.193075
  0
LINE
  5
245
330
1F
100
AcDbEntity
  8
0
 62
     7
100
AcDbLine
 10
511.153595
 20
265.67926
 30
0.0
 11
511.115417
 21
265.549988
 31
0.0
  0
LINE
  5
246
330
1F
100
AcDbEntity
  8
0
 62
     7
100
AcDbLine
 10
511.198059
 20
265.820679
 30
0.0
 11
511.153595
 21
265.67926
 31
0.0
  0
LINE
  5
247
330
1F
100
AcDbEntity
  8
0
 62
     7
100
AcDbLine
 10
511.241272
 20
265.950012
 30
0.0
 11
511.198059
 21
265.820679
 31
0.0
  0
ARC
  5
248
330
1F
100
AcDbEntity
  8
0
 62
     7
100
AcDbCircle
 10
518.806946
 20
263.349976
 30
0.0
 40
8.0
100
AcDbArc
 50
155.638018
 51
161.034427
  0
LINE
  5
249
330
1F
100
AcDbEntity
  8
0
 62
     7
100
AcDbLine
 10
511.579254
 20
266.779297
 30
0.0
 11
511.519318
 21
266.650024
 31
0.0
  0
LINE
  5
24A
330
1F
100
AcDbEntity
  8
0
 62
     7
100
AcDbLine
 10
511.648071
 20
266.920715
 30
0.0
 11
511.579254
 21
266.779297
 31
0.0
  0
LINE
  5
24B
330
1F
100
AcDbEntity
  8
0
 62
     7
100
AcDbLine
 10
511.71402
 20
267.049988
 30
0.0
 11
511.648071
 21
266.920715
 31
0.0
  0
ARC
  5
24C
330
1F
100
AcDbEntity
  8
0
 62
     7
100
AcDbCircle
 10
518.806946
 20
263.349976
 30
0.0
 40
8.0
100
AcDbArc
 50
146.632987
 51
152.451448
  0
LINE
  5
24D
330
1F
100
AcDbEntity
  8
0
 62
     7
100
AcDbLine
 10
512.212585
 20
267.879272
 30
0.0
 11
512.125671
 21
267.75
 31
0.0
  0
LINE
  5
24E
330
1F
100
AcDbEntity
  8
0
 62
     7
100
AcDbLine
 10
512.312012
 20
268.020691
 30
0.0
 11
512.212585
 21
267.879272
 31
0.0
  0
LINE
  5
24F
330
1F
100
AcDbEntity
  8
0
 62
     7
100
AcDbLine
 10
512.406982
 20
268.150024
 30
0.0
 11
512.312012
 21
268.020691
 31
0.0
  0
CIRCLE
  5
250
330
1F
100
AcDbEntity
  8
0
 62
     7
100
AcDbCircle
 10
518.806946
 20
263.349976
 30
0.0
 40
7.5
  0
LINE
  5
251
330
1F
100
AcDbEntity
  8
0
 62
     7
100
AcDbLine
 10
453.806976
 20
266.349976
 30
0.0
 11
453.45697
 21
266.349976
 31
0.0
  0
LINE
  5
252
330
1F
100
AcDbEntity
  8
0
 62
     7
100
AcDbLine
 10
511.519318
 20
266.650024
 30
0.0
 11
454.70697
 21
266.650024
 31
0.0
  0
ARC
  5
253
330
1F
100
AcDbEntity
  8
0
 62
     7
100
AcDbCircle
 10
453.806976
 20
267.849976
 30
0.0
 40
1.5
100
AcDbArc
 50
269.999997
 51
314.454478
  0
LINE
  5
254
330
1F
100
AcDbEntity
  8
0
 62
     7
100
AcDbLine
 10
511.241272
 20
265.950012
 30
0.0
 11
453.45697
 21
265.950012
 31
0.0
  0
LINE
  5
255
330
1F
100
AcDbEntity
  8
0
 62
     7
100
AcDbLine
 10
511.115417
 20
265.549988
 30
0.0
 11
453.45697
 21
265.549988
 31
0.0
  0
LINE
  5
256
330
1F
100
AcDbEntity
  8
0
 62
     7
100
AcDbLine
 10
510.948853
 20
264.849976
 30
0.0
 11
453.45697
 21
264.849976
 31
0.0
  0
LINE
  5
257
330
1F
100
AcDbEntity
  8
0
 62
     7
100
AcDbLine
 10
510.882965
 20
264.450012
 30
0.0
 11
453.45697
 21
264.450012
 31
0.0
  0
LINE
  5
258
330
1F
100
AcDbEntity
  8
0
 62
     7
100
AcDbLine
 10
510.816986
 20
263.75
 30
0.0
 11
453.45697
 21
263.75
 31
0.0
  0
LINE
  5
259
330
1F
100
AcDbEntity
  8
0
 62
     7
100
AcDbLine
 10
452.45697
 20
266.650024
 30
0.0
 11
450.156982
 21
266.650024
 31
0.0
  0
LINE
  5
25A
330
1F
100
AcDbEntity
  8
0
 62
     7
100
AcDbLine
 10
452.45697
 20
265.950012
 30
0.0
 11
450.156982
 21
265.950012
 31
0.0
  0
ARC
  5
25B
330
1F
100
AcDbEntity
  8
0
 62
     7
100
AcDbCircle
 10
449.656982
 20
266.849976
 30
0.0
 40
0.5
100
AcDbArc
 50
0.0
 51
8.130103
  0
ARC
  5
25C
330
1F
100
AcDbEntity
  8
0
 62
     7
100
AcDbCircle
 10
452.95697
 20
266.849976
 30
0.0
 40
0.5
100
AcDbArc
 50
171.869894
 51
180.000009
  0
ARC
  5
25D
330
1F
100
AcDbEntity
  8
0
 62
     7
100
AcDbCircle
 10
452.95697
 20
266.849976
 30
0.0
 40
0.5
100
AcDbArc
 50
90.000003
 51
171.869894
  0
LINE
  5
25E
330
1F
100
AcDbEntity
  8
0
 62
     7
100
AcDbLine
 10
452.45697
 20
259.349976
 30
0.0
 11
450.156982
 21
259.349976
 31
0.0
  0
LINE
  5
25F
330
1F
100
AcDbEntity
  8
0
 62
     7
100
AcDbLine
 10
452.45697
 20
260.049988
 30
0.0
 11
450.156982
 21
260.049988
 31
0.0
  0
LINE
  5
260
330
1F
100
AcDbEntity
  8
0
 62
     7
100
AcDbLine
 10
452.45697
 20
260.450012
 30
0.0
 11
450.156982
 21
260.450012
 31
0.0
  0
LINE
  5
261
330
1F
100
AcDbEntity
  8
0
 62
     7
100
AcDbLine
 10
452.45697
 20
261.150024
 30
0.0
 11
450.156982
 21
261.150024
 31
0.0
  0
LINE
  5
262
330
1F
100
AcDbEntity
  8
0
 62
     7
100
AcDbLine
 10
452.45697
 20
261.549988
 30
0.0
 11
450.156982
 21
261.549988
 31
0.0
  0
LINE
  5
263
330
1F
100
AcDbEntity
  8
0
 62
     7
100
AcDbLine
 10
452.45697
 20
262.25
 30
0.0
 11
450.156982
 21
262.25
 31
0.0
  0
LINE
  5
264
330
1F
100
AcDbEntity
  8
0
 62
     7
100
AcDbLine
 10
452.45697
 20
262.650024
 30
0.0
 11
450.156982
 21
262.650024
 31
0.0
  0
LINE
  5
265
330
1F
100
AcDbEntity
  8
0
 62
     7
100
AcDbLine
 10
452.45697
 20
263.349976
 30
0.0
 11
450.156982
 21
263.349976
 31
0.0
  0
LINE
  5
266
330
1F
100
AcDbEntity
  8
0
 62
     7
100
AcDbLine
 10
452.45697
 20
263.75
 30
0.0
 11
450.156982
 21
263.75
 31
0.0
  0
LINE
  5
267
330
1F
100
AcDbEntity
  8
0
 62
     7
100
AcDbLine
 10
452.45697
 20
264.450012
 30
0.0
 11
450.156982
 21
264.450012
 31
0.0
  0
LINE
  5
268
330
1F
100
AcDbEntity
  8
0
 62
     7
100
AcDbLine
 10
452.45697
 20
264.849976
 30
0.0
 11
450.156982
 21
264.849976
 31
0.0
  0
LINE
  5
269
330
1F
100
AcDbEntity
  8
0
 62
     7
100
AcDbLine
 10
452.45697
 20
265.549988
 30
0.0
 11
450.156982
 21
265.549988
 31
0.0
  0
ARC
  5
26A
330
1F
100
AcDbEntity
  8
0
 62
     7
100
AcDbCircle
 10
449.656982
 20
266.849976
 30
0.0
 40
0.5
100
AcDbArc
 50
8.130103
 51
90.000003
  0
LINE
  5
26B
330
1F
100
AcDbEntity
  8
0
 62
     7
100
AcDbLine
 10
449.156982
 20
265.549988
 30
0.0
 11
303.45697
 21
265.549988
 31
0.0
  0
LINE
  5
26C
330
1F
100
AcDbEntity
  8
0
 62
     7
100
AcDbLine
 10
449.156982
 20
265.950012
 30
0.0
 11
303.45697
 21
265.950012
 31
0.0
  0
LINE
  5
26D
330
1F
100
AcDbEntity
  8
0
 62
     7
100
AcDbLine
 10
449.156982
 20
266.349976
 30
0.0
 11
448.806976
 21
266.349976
 31
0.0
  0
ARC
  5
26E
330
1F
100
AcDbEntity
  8
0
 62
     7
100
AcDbCircle
 10
448.806976
 20
267.849976
 30
0.0
 40
1.5
100
AcDbArc
 50
212.230947
 51
269.999997
  0
LINE
  5
26F
330
1F
100
AcDbEntity
  8
0
 62
     7
100
AcDbLine
 10
447.906982
 20
266.650024
 30
0.0
 11
304.70697
 21
266.650024
 31
0.0
  0
ARC
  5
270
330
1F
100
AcDbEntity
  8
0
 62
     7
100
AcDbCircle
 10
303.806976
 20
267.849976
 30
0.0
 40
1.5
100
AcDbArc
 50
269.999997
 51
314.454478
  0
LINE
  5
271
330
1F
100
AcDbEntity
  8
0
 62
     7
100
AcDbLine
 10
303.806976
 20
266.349976
 30
0.0
 11
303.45697
 21
266.349976
 31
0.0
  0
LINE
  5
272
330
1F
100
AcDbEntity
  8
0
 62
     7
100
AcDbLine
 10
449.156982
 20
259.349976
 30
0.0
 11
303.45697
 21
259.349976
 31
0.0
  0
LINE
  5
273
330
1F
100
AcDbEntity
  8
0
 62
     7
100
AcDbLine
 10
449.156982
 20
260.049988
 30
0.0
 11
303.45697
 21
260.049988
 31
0.0
  0
LINE
  5
274
330
1F
100
AcDbEntity
  8
0
 62
     7
100
AcDbLine
 10
449.156982
 20
260.450012
 30
0.0
 11
303.45697
 21
260.450012
 31
0.0
  0
LINE
  5
275
330
1F
100
AcDbEntity
  8
0
 62
     7
100
AcDbLine
 10
449.156982
 20
261.150024
 30
0.0
 11
303.45697
 21
261.150024
 31
0.0
  0
LINE
  5
276
330
1F
100
AcDbEntity
  8
0
 62
     7
100
AcDbLine
 10
449.156982
 20
261.549988
 30
0.0
 11
303.45697
 21
261.549988
 31
0.0
  0
LINE
  5
277
330
1F
100
AcDbEntity
  8
0
 62
     7
100
AcDbLine
 10
449.156982
 20
262.25
 30
0.0
 11
303.45697
 21
262.25
 31
0.0
  0
LINE
  5
278
330
1F
100
AcDbEntity
  8
0
 62
     7
100
AcDbLine
 10
449.156982
 20
262.650024
 30
0.0
 11
303.45697
 21
262.650024
 31
0.0
  0
LINE
  5
279
330
1F
100
AcDbEntity
  8
0
 62
     7
100
AcDbLine
 10
449.156982
 20
263.349976
 30
0.0
 11
303.45697
 21
263.349976
 31
0.0
  0
LINE
  5
27A
330
1F
100
AcDbEntity
  8
0
 62
     7
100
AcDbLine
 10
449.156982
 20
263.75
 30
0.0
 11
303.45697
 21
263.75
 31
0.0
  0
LINE
  5
27B
330
1F
100
AcDbEntity
  8
0
 62
     7
100
AcDbLine
 10
449.156982
 20
264.450012
 30
0.0
 11
303.45697
 21
264.450012
 31
0.0
  0
LINE
  5
27C
330
1F
100
AcDbEntity
  8
0
 62
     7
100
AcDbLine
 10
449.156982
 20
264.849976
 30
0.0
 11
303.45697
 21
264.849976
 31
0.0
  0
LINE
  5
27D
330
1F
100
AcDbEntity
  8
0
 62
     7
100
AcDbLine
 10
302.45697
 20
265.950012
 30
0.0
 11
300.156982
 21
265.950012
 31
0.0
  0
LINE
  5
27E
330
1F
100
AcDbEntity
  8
0
 62
     7
100
AcDbLine
 10
302.45697
 20
266.650024
 30
0.0
 11
300.156982
 21
266.650024
 31
0.0
  0
ARC
  5
27F
330
1F
100
AcDbEntity
  8
0
 62
     7
100
AcDbCircle
 10
302.95697
 20
266.849976
 30
0.0
 40
0.5
100
AcDbArc
 50
171.869894
 51
180.000009
  0
ARC
  5
280
330
1F
100
AcDbEntity
  8
0
 62
     7
100
AcDbCircle
 10
299.656982
 20
266.849976
 30
0.0
 40
0.5
100
AcDbArc
 50
0.0
 51
8.130103
  0
ARC
  5
281
330
1F
100
AcDbEntity
  8
0
 62
     7
100
AcDbCircle
 10
302.95697
 20
266.849976
 30
0.0
 40
0.5
100
AcDbArc
 50
90.000003
 51
171.869894
  0
LINE
  5
282
330
1F
100
AcDbEntity
  8
0
 62
     7
100
AcDbLine
 10
302.45697
 20
259.349976
 30
0.0
 11
300.156982
 21
259.349976
 31
0.0
  0
LINE
  5
283
330
1F
100
AcDbEntity
  8
0
 62
     7
100
AcDbLine
 10
302.45697
 20
260.049988
 30
0.0
 11
300.156982
 21
260.049988
 31
0.0
  0
LINE
  5
284
330
1F
100
AcDbEntity
  8
0
 62
     7
100
AcDbLine
 10
302.45697
 20
260.450012
 30
0.0
 11
300.156982
 21
260.450012
 31
0.0
  0
LINE
  5
285
330
1F
100
AcDbEntity
  8
0
 62
     7
100
AcDbLine
 10
302.45697
 20
261.150024
 30
0.0
 11
300.156982
 21
261.150024
 31
0.0
  0
LINE
  5
286
330
1F
100
AcDbEntity
  8
0
 62
     7
100
AcDbLine
 10
302.45697
 20
261.549988
 30
0.0
 11
300.156982
 21
261.549988
 31
0.0
  0
LINE
  5
287
330
1F
100
AcDbEntity
  8
0
 62
     7
100
AcDbLine
 10
302.45697
 20
262.25
 30
0.0
 11
300.156982
 21
262.25
 31
0.0
  0
LINE
  5
288
330
1F
100
AcDbEntity
  8
0
 62
     7
100
AcDbLine
 10
302.45697
 20
262.650024
 30
0.0
 11
300.156982
 21
262.650024
 31
0.0
  0
LINE
  5
289
330
1F
100
AcDbEntity
  8
0
 62
     7
100
AcDbLine
 10
302.45697
 20
263.349976
 30
0.0
 11
300.156982
 21
263.349976
 31
0.0
  0
LINE
  5
28A
330
1F
100
AcDbEntity
  8
0
 62
     7
100
AcDbLine
 10
302.45697
 20
263.75
 30
0.0
 11
300.156982
 21
263.75
 31
0.0
  0
LINE
  5
28B
330
1F
100
AcDbEntity
  8
0
 62
     7
100
AcDbLine
 10
302.45697
 20
264.450012
 30
0.0
 11
300.156982
 21
264.450012
 31
0.0
  0
LINE
  5
28C
330
1F
100
AcDbEntity
  8
0
 62
     7
100
AcDbLine
 10
302.45697
 20
264.849976
 30
0.0
 11
300.156982
 21
264.849976
 31
0.0
  0
LINE
  5
28D
330
1F
100
AcDbEntity
  8
0
 62
     7
100
AcDbLine
 10
302.45697
 20
265.549988
 30
0.0
 11
300.156982
 21
265.549988
 31
0.0
  0
ARC
  5
28E
330
1F
100
AcDbEntity
  8
0
 62
     7
100
AcDbCircle
 10
299.656982
 20
266.849976
 30
0.0
 40
0.5
100
AcDbArc
 50
8.130103
 51
90.000003
  0
LINE
  5
28F
330
1F
100
AcDbEntity
  8
0
 62
     7
100
AcDbLine
 10
241.460358
 20
265.67926
 30
0.0
 11
241.498535
 21
265.549988
 31
0.0
  0
LINE
  5
290
330
1F
100
AcDbEntity
  8
0
 62
     7
100
AcDbLine
 10
299.156982
 20
265.549988
 30
0.0
 11
241.498535
 21
265.549988
 31
0.0
  0
LINE
  5
291
330
1F
100
AcDbEntity
  8
0
 62
     7
100
AcDbLine
 10
241.415894
 20
265.820679
 30
0.0
 11
241.460358
 21
265.67926
 31
0.0
  0
LINE
  5
292
330
1F
100
AcDbEntity
  8
0
 62
     7
100
AcDbLine
 10
241.372681
 20
265.950012
 30
0.0
 11
241.415894
 21
265.820679
 31
0.0
  0
LINE
  5
293
330
1F
100
AcDbEntity
  8
0
 62
     7
100
AcDbLine
 10
299.156982
 20
265.950012
 30
0.0
 11
241.372681
 21
265.950012
 31
0.0
  0
ARC
  5
294
330
1F
100
AcDbEntity
  8
0
 62
     7
100
AcDbCircle
 10
233.806976
 20
263.349976
 30
0.0
 40
8.0
100
AcDbArc
 50
18.965574
 51
24.361978
  0
LINE
  5
295
330
1F
100
AcDbEntity
  8
0
 62
     7
100
AcDbLine
 10
299.156982
 20
266.349976
 30
0.0
 11
298.806976
 21
266.349976
 31
0.0
  0
ARC
  5
296
330
1F
100
AcDbEntity
  8
0
 62
     7
100
AcDbCircle
 10
298.806976
 20
267.849976
 30
0.0
 40
1.5
100
AcDbArc
 50
212.230947
 51
269.999997
  0
LINE
  5
297
330
1F
100
AcDbEntity
  8
0
 62
     7
100
AcDbLine
 10
297.906982
 20
266.650024
 30
0.0
 11
241.094635
 21
266.650024
 31
0.0
  0
LINE
  5
298
330
1F
100
AcDbEntity
  8
0
 62
     7
100
AcDbLine
 10
299.156982
 20
259.349976
 30
0.0
 11
240.735168
 21
259.349976
 31
0.0
  0
LINE
  5
299
330
1F
100
AcDbEntity
  8
0
 62
     7
100
AcDbLine
 10
299.156982
 20
260.049988
 30
0.0
 11
241.094635
 21
260.049988
 31
0.0
  0
LINE
  5
29A
330
1F
100
AcDbEntity
  8
0
 62
     7
100
AcDbLine
 10
299.156982
 20
260.450012
 30
0.0
 11
241.262848
 21
260.450012
 31
0.0
  0
LINE
  5
29B
330
1F
100
AcDbEntity
  8
0
 62
     7
100
AcDbLine
 10
299.156982
 20
261.150024
 30
0.0
 11
241.498535
 21
261.150024
 31
0.0
  0
LINE
  5
29C
330
1F
100
AcDbEntity
  8
0
 62
     7
100
AcDbLine
 10
299.156982
 20
261.549988
 30
0.0
 11
241.601837
 21
261.549988
 31
0.0
  0
LINE
  5
29D
330
1F
100
AcDbEntity
  8
0
 62
     7
100
AcDbLine
 10
299.156982
 20
262.25
 30
0.0
 11
241.730988
 21
262.25
 31
0.0
  0
LINE
  5
29E
330
1F
100
AcDbEntity
  8
0
 62
     7
100
AcDbLine
 10
299.156982
 20
262.650024
 30
0.0
 11
241.776276
 21
262.650024
 31
0.0
  0
LINE
  5
29F
330
1F
100
AcDbEntity
  8
0
 62
     7
100
AcDbLine
 10
299.156982
 20
263.349976
 30
0.0
 11
241.806976
 21
263.349976
 31
0.0
  0
LINE
  5
2A0
330
1F
100
AcDbEntity
  8
0
 62
     7
100
AcDbLine
 10
241.805908
 20
263.479309
 30
0.0
 11
241.806976
 21
263.349976
 31
0.0
  0
LINE
  5
2A1
330
1F
100
AcDbEntity
  8
0
 62
     7
100
AcDbLine
 10
241.802399
 20
263.620728
 30
0.0
 11
241.805908
 21
263.479309
 31
0.0
  0
LINE
  5
2A2
330
1F
100
AcDbEntity
  8
0
 62
     7
100
AcDbLine
 10
241.796967
 20
263.75
 30
0.0
 11
241.802399
 21
263.620728
 31
0.0
  0
LINE
  5
2A3
330
1F
100
AcDbEntity
  8
0
 62
     7
100
AcDbLine
 10
299.156982
 20
263.75
 30
0.0
 11
241.796967
 21
263.75
 31
0.0
  0
ARC
  5
2A4
330
1F
100
AcDbEntity
  8
0
 62
     7
100
AcDbCircle
 10
233.806976
 20
263.349976
 30
0.0
 40
8.0
100
AcDbArc
 50
2.865984
 51
7.903208
  0
LINE
  5
2A5
330
1F
100
AcDbEntity
  8
0
 62
     7
100
AcDbLine
 10
299.156982
 20
264.450012
 30
0.0
 11
241.730988
 21
264.450012
 31
0.0
  0
LINE
  5
2A6
330
1F
100
AcDbEntity
  8
0
 62
     7
100
AcDbLine
 10
241.711945
 20
264.579285
 30
0.0
 11
241.730988
 21
264.450012
 31
0.0
  0
LINE
  5
2A7
330
1F
100
AcDbEntity
  8
0
 62
     7
100
AcDbLine
 10
241.68866
 20
264.720703
 30
0.0
 11
241.711945
 21
264.579285
 31
0.0
  0
LINE
  5
2A8
330
1F
100
AcDbEntity
  8
0
 62
     7
100
AcDbLine
 10
241.66507
 20
264.849976
 30
0.0
 11
241.68866
 21
264.720703
 31
0.0
  0
LINE
  5
2A9
330
1F
100
AcDbEntity
  8
0
 62
     7
100
AcDbLine
 10
299.156982
 20
264.849976
 30
0.0
 11
241.66507
 21
264.849976
 31
0.0
  0
ARC
  5
2AA
330
1F
100
AcDbEntity
  8
0
 62
     7
100
AcDbCircle
 10
233.806976
 20
263.349976
 30
0.0
 40
8.0
100
AcDbArc
 50
10.806925
 51
15.962019
  0
LINE
  5
2AB
330
1F
100
AcDbEntity
  8
0
 62
     7
100
AcDbLine
 10
226.878754
 20
259.349976
 30
0.0
 11
224.806976
 21
259.349976
 31
0.0
  0
LINE
  5
2AC
330
1F
100
AcDbEntity
  8
0
 62
     7
100
AcDbLine
 10
226.519318
 20
260.049988
 30
0.0
 11
224.806976
 21
260.049988
 31
0.0
  0
LINE
  5
2AD
330
1F
100
AcDbEntity
  8
0
 62
     7
100
AcDbLine
 10
226.351105
 20
260.450012
 30
0.0
 11
224.806976
 21
260.450012
 31
0.0
  0
LINE
  5
2AE
330
1F
100
AcDbEntity
  8
0
 62
     7
100
AcDbLine
 10
226.115417
 20
261.150024
 30
0.0
 11
224.806976
 21
261.150024
 31
0.0
  0
LINE
  5
2AF
330
1F
100
AcDbEntity
  8
0
 62
     7
100
AcDbLine
 10
226.012085
 20
261.549988
 30
0.0
 11
224.806976
 21
261.549988
 31
0.0
  0
LINE
  5
2B0
330
1F
100
AcDbEntity
  8
0
 62
     7
100
AcDbLine
 10
225.882965
 20
262.25
 30
0.0
 11
224.806976
 21
262.25
 31
0.0
  0
LINE
  5
2B1
330
1F
100
AcDbEntity
  8
0
 62
     7
100
AcDbLine
 10
225.837646
 20
262.650024
 30
0.0
 11
224.806976
 21
262.650024
 31
0.0
  0
LINE
  5
2B2
330
1F
100
AcDbEntity
  8
0
 62
     7
100
AcDbLine
 10
225.806976
 20
263.349976
 30
0.0
 11
224.806976
 21
263.349976
 31
0.0
  0
LINE
  5
2B3
330
1F
100
AcDbEntity
  8
0
 62
     7
100
AcDbLine
 10
225.808014
 20
263.479309
 30
0.0
 11
225.806976
 21
263.349976
 31
0.0
  0
LINE
  5
2B4
330
1F
100
AcDbEntity
  8
0
 62
     7
100
AcDbLine
 10
225.811554
 20
263.620728
 30
0.0
 11
225.808014
 21
263.479309
 31
0.0
  0
LINE
  5
2B5
330
1F
100
AcDbEntity
  8
0
 62
     7
100
AcDbLine
 10
225.816986
 20
263.75
 30
0.0
 11
225.811554
 21
263.620728
 31
0.0
  0
ARC
  5
2B6
330
1F
100
AcDbEntity
  8
0
 62
     7
100
AcDbCircle
 10
233.806976
 20
263.349976
 30
0.0
 40
8.0
100
AcDbArc
 50
172.096793
 51
177.134017
  0
LINE
  5
2B7
330
1F
100
AcDbEntity
  8
0
 62
     7
100
AcDbLine
 10
225.901978
 20
264.579285
 30
0.0
 11
225.882965
 21
264.450012
 31
0.0
  0
LINE
  5
2B8
330
1F
100
AcDbEntity
  8
0
 62
     7
100
AcDbLine
 10
225.925262
 20
264.720703
 30
0.0
 11
225.901978
 21
264.579285
 31
0.0
  0
LINE
  5
2B9
330
1F
100
AcDbEntity
  8
0
 62
     7
100
AcDbLine
 10
225.948853
 20
264.849976
 30
0.0
 11
225.925262
 21
264.720703
 31
0.0
  0
ARC
  5
2BA
330
1F
100
AcDbEntity
  8
0
 62
     7
100
AcDbCircle
 10
233.806976
 20
263.349976
 30
0.0
 40
8.0
100
AcDbArc
 50
164.03799
 51
169.193075
  0
LINE
  5
2BB
330
1F
100
AcDbEntity
  8
0
 62
     7
100
AcDbLine
 10
226.153564
 20
265.67926
 30
0.0
 11
226.115417
 21
265.549988
 31
0.0
  0
LINE
  5
2BC
330
1F
100
AcDbEntity
  8
0
 62
     7
100
AcDbLine
 10
226.198059
 20
265.820679
 30
0.0
 11
226.153564
 21
265.67926
 31
0.0
  0
LINE
  5
2BD
330
1F
100
AcDbEntity
  8
0
 62
     7
100
AcDbLine
 10
226.241241
 20
265.950012
 30
0.0
 11
226.198059
 21
265.820679
 31
0.0
  0
ARC
  5
2BE
330
1F
100
AcDbEntity
  8
0
 62
     7
100
AcDbCircle
 10
233.806976
 20
263.349976
 30
0.0
 40
8.0
100
AcDbArc
 50
155.638018
 51
161.034427
  0
LINE
  5
2BF
330
1F
100
AcDbEntity
  8
0
 62
     7
100
AcDbLine
 10
226.579254
 20
266.779297
 30
0.0
 11
226.519318
 21
266.650024
 31
0.0
  0
LINE
  5
2C0
330
1F
100
AcDbEntity
  8
0
 62
     7
100
AcDbLine
 10
226.648071
 20
266.920715
 30
0.0
 11
226.579254
 21
266.779297
 31
0.0
  0
LINE
  5
2C1
330
1F
100
AcDbEntity
  8
0
 62
     7
100
AcDbLine
 10
226.71402
 20
267.049988
 30
0.0
 11
226.648071
 21
266.920715
 31
0.0
  0
ARC
  5
2C2
330
1F
100
AcDbEntity
  8
0
 62
     7
100
AcDbCircle
 10
233.806976
 20
263.349976
 30
0.0
 40
8.0
100
AcDbArc
 50
146.632987
 51
152.451448
  0
LINE
  5
2C3
330
1F
100
AcDbEntity
  8
0
 62
     7
100
AcDbLine
 10
227.212616
 20
267.879272
 30
0.0
 11
227.125641
 21
267.75
 31
0.0
  0
LINE
  5
2C4
330
1F
100
AcDbEntity
  8
0
 62
     7
100
AcDbLine
 10
227.312012
 20
268.020691
 30
0.0
 11
227.212616
 21
267.879272
 31
0.0
  0
LINE
  5
2C5
330
1F
100
AcDbEntity
  8
0
 62
     7
100
AcDbLine
 10
227.406982
 20
268.150024
 30
0.0
 11
227.312012
 21
268.020691
 31
0.0
  0
ARC
  5
2C6
330
1F
100
AcDbEntity
  8
0
 62
     7
100
AcDbCircle
 10
233.806976
 20
263.349976
 30
0.0
 40
8.0
100
AcDbArc
 50
36.869897
 51
143.130097
  0
LINE
  5
2C7
330
1F
100
AcDbEntity
  8
0
 62
     7
100
AcDbLine
 10
240.20697
 20
268.150024
 30
0.0
 11
240.30191
 21
268.020691
 31
0.0
  0
LINE
  5
2C8
330
1F
100
AcDbEntity
  8
0
 62
     7
100
AcDbLine
 10
240.30191
 20
268.020691
 30
0.0
 11
240.401337
 21
267.879272
 31
0.0
  0
LINE
  5
2C9
330
1F
100
AcDbEntity
  8
0
 62
     7
100
AcDbLine
 10
240.401337
 20
267.879272
 30
0.0
 11
240.488281
 21
267.75
 31
0.0
  0
ARC
  5
2CA
330
1F
100
AcDbEntity
  8
0
 62
     7
100
AcDbCircle
 10
233.806976
 20
263.349976
 30
0.0
 40
8.0
100
AcDbArc
 50
27.548547
 51
33.367014
  0
LINE
  5
2CB
330
1F
100
AcDbEntity
  8
0
 62
     7
100
AcDbLine
 10
240.899933
 20
267.049988
 30
0.0
 11
240.965881
 21
266.920715
 31
0.0
  0
LINE
  5
2CC
330
1F
100
AcDbEntity
  8
0
 62
     7
100
AcDbLine
 10
240.965881
 20
266.920715
 30
0.0
 11
241.034698
 21
266.779297
 31
0.0
  0
LINE
  5
2CD
330
1F
100
AcDbEntity
  8
0
 62
     7
100
AcDbLine
 10
241.034698
 20
266.779297
 30
0.0
 11
241.094635
 21
266.650024
 31
0.0
  0
CIRCLE
  5
2CE
330
1F
100
AcDbEntity
  8
0
 62
     7
100
AcDbCircle
 10
233.806976
 20
263.349976
 30
0.0
 40
7.5
  0
LINE
  5
2CF
330
1F
100
AcDbEntity
  8
0
 62
     7
100
AcDbLine
 10
224.306976
 20
251.350006
 30
0.0
 11
224.806976
 21
251.350006
 31
0.0
  0
LINE
  5
2D0
330
1F
100
AcDbEntity
  8
0
 62
     7
100
AcDbLine
 10
225.816986
 20
263.75
 30
0.0
 11
224.806976
 21
263.75
 31
0.0
  0
LINE
  5
2D1
330
1F
100
AcDbEntity
  8
0
 62
     7
100
AcDbLine
 10
225.882965
 20
264.450012
 30
0.0
 11
224.806976
 21
264.450012
 31
0.0
  0
LINE
  5
2D2
330
1F
100
AcDbEntity
  8
0
 62
     7
100
AcDbLine
 10
225.948853
 20
264.849976
 30
0.0
 11
224.806976
 21
264.849976
 31
0.0
  0
LINE
  5
2D3
330
1F
100
AcDbEntity
  8
0
 62
     7
100
AcDbLine
 10
226.115417
 20
265.549988
 30
0.0
 11
224.806976
 21
265.549988
 31
0.0
  0
LINE
  5
2D4
330
1F
100
AcDbEntity
  8
0
 62
     7
100
AcDbLine
 10
226.241241
 20
265.950012
 30
0.0
 11
224.806976
 21
265.950012
 31
0.0
  0
LINE
  5
2D5
330
1F
100
AcDbEntity
  8
0
 62
     7
100
AcDbLine
 10
226.519318
 20
266.650024
 30
0.0
 11
224.806976
 21
266.650024
 31
0.0
  0
LINE
  5
2D6
330
1F
100
AcDbEntity
  8
0
 62
     7
100
AcDbLine
 10
226.71402
 20
267.049988
 30
0.0
 11
224.806976
 21
267.049988
 31
0.0
  0
LINE
  5
2D7
330
1F
100
AcDbEntity
  8
0
 62
     7
100
AcDbLine
 10
227.125641
 20
267.75
 30
0.0
 11
224.806976
 21
267.75
 31
0.0
  0
LINE
  5
2D8
330
1F
100
AcDbEntity
  8
0
 62
     7
100
AcDbLine
 10
227.406982
 20
268.150024
 30
0.0
 11
224.806976
 21
268.150024
 31
0.0
  0
LINE
  5
2D9
330
1F
100
AcDbEntity
  8
0
 62
     7
100
AcDbLine
 10
297.306976
 20
268.150024
 30
0.0
 11
240.20697
 21
268.150024
 31
0.0
  0
LINE
  5
2DA
330
1F
100
AcDbEntity
  8
0
 62
     7
100
AcDbLine
 10
297.306976
 20
268.150024
 30
0.0
 11
297.306976
 21
272.974243
 31
0.0
  0
LINE
  5
2DB
330
1F
100
AcDbEntity
  8
0
 62
     7
100
AcDbLine
 10
297.306976
 20
272.974243
 30
0.0
 11
224.806976
 21
272.974243
 31
0.0
  0
LINE
  5
2DC
330
1F
100
AcDbEntity
  8
0
 62
     7
100
AcDbLine
 10
297.306976
 20
273.462158
 30
0.0
 11
297.306976
 21
272.974243
 31
0.0
  0
LINE
  5
2DD
330
1F
100
AcDbEntity
  8
0
 62
     7
100
AcDbLine
 10
297.306976
 20
273.549988
 30
0.0
 11
297.306976
 21
273.462158
 31
0.0
  0
LINE
  5
2DE
330
1F
100
AcDbEntity
  8
0
 62
     7
100
AcDbLine
 10
528.306946
 20
245.650009
 30
0.0
 11
528.306946
 21
245.150009
 31
0.0
  0
LINE
  5
2DF
330
1F
100
AcDbEntity
  8
0
 62
     7
100
AcDbLine
 10
528.306946
 20
272.74292
 30
0.0
 11
528.306946
 21
245.650009
 31
0.0
  0
LINE
  5
2E0
330
1F
100
AcDbEntity
  8
0
 62
     7
100
AcDbLine
 10
528.306946
 20
273.096436
 30
0.0
 11
528.306946
 21
272.74292
 31
0.0
  0
LINE
  5
2E1
330
1F
100
AcDbEntity
  8
0
 62
     7
100
AcDbLine
 10
528.306946
 20
273.781128
 30
0.0
 11
528.306946
 21
273.096436
 31
0.0
  0
LINE
  5
2E2
330
1F
100
AcDbEntity
  8
0
 62
     7
100
AcDbLine
 10
455.306976
 20
268.020691
 30
0.0
 11
455.306976
 21
268.150024
 31
0.0
  0
LINE
  5
2E3
330
1F
100
AcDbEntity
  8
0
 62
     7
100
AcDbLine
 10
455.306976
 20
267.879272
 30
0.0
 11
455.306976
 21
268.020691
 31
0.0
  0
LINE
  5
2E4
330
1F
100
AcDbEntity
  8
0
 62
     7
100
AcDbLine
 10
455.306976
 20
267.879272
 30
0.0
 11
455.306976
 21
267.849976
 31
0.0
  0
ARC
  5
2E5
330
1F
100
AcDbEntity
  8
0
 62
     7
100
AcDbCircle
 10
453.806976
 20
267.849976
 30
0.0
 40
1.5
100
AcDbArc
 50
314.454478
 51
356.177454
  0
LINE
  5
2E6
330
1F
100
AcDbEntity
  8
0
 62
     7
100
AcDbLine
 10
455.303619
 20
267.75
 30
0.0
 11
455.306976
 21
267.849976
 31
0.0
  0
LINE
  5
2E7
330
1F
100
AcDbEntity
  8
0
 62
     7
100
AcDbLine
 10
452.95697
 20
267.349976
 30
0.0
 11
453.806976
 21
267.349976
 31
0.0
  0
ARC
  5
2E8
330
1F
100
AcDbEntity
  8
0
 62
     7
100
AcDbCircle
 10
453.806976
 20
267.849976
 30
0.0
 40
0.5
100
AcDbArc
 50
269.999997
 51
360.0
  0
LINE
  5
2E9
330
1F
100
AcDbEntity
  8
0
 62
     7
100
AcDbLine
 10
454.306976
 20
268.150024
 30
0.0
 11
454.306976
 21
272.974243
 31
0.0
  0
LINE
  5
2EA
330
1F
100
AcDbEntity
  8
0
 62
     7
100
AcDbLine
 10
454.306976
 20
273.462158
 30
0.0
 11
454.306976
 21
272.974243
 31
0.0
  0
LINE
  5
2EB
330
1F
100
AcDbEntity
  8
0
 62
     7
100
AcDbLine
 10
454.306976
 20
273.549988
 30
0.0
 11
454.306976
 21
273.462158
 31
0.0
  0
LINE
  5
2EC
330
1F
100
AcDbEntity
  8
0
 62
     7
100
AcDbLine
 10
454.306976
 20
267.879272
 30
0.0
 11
454.306976
 21
267.849976
 31
0.0
  0
LINE
  5
2ED
330
1F
100
AcDbEntity
  8
0
 62
     7
100
AcDbLine
 10
454.306976
 20
268.020691
 30
0.0
 11
454.306976
 21
267.879272
 31
0.0
  0
LINE
  5
2EE
330
1F
100
AcDbEntity
  8
0
 62
     7
100
AcDbLine
 10
454.306976
 20
268.020691
 30
0.0
 11
454.306976
 21
268.150024
 31
0.0
  0
LINE
  5
2EF
330
1F
100
AcDbEntity
  8
0
 62
     7
100
AcDbLine
 10
448.306976
 20
273.462158
 30
0.0
 11
448.306976
 21
273.549988
 31
0.0
  0
LINE
  5
2F0
330
1F
100
AcDbEntity
  8
0
 62
     7
100
AcDbLine
 10
448.306976
 20
273.462158
 30
0.0
 11
448.306976
 21
272.974243
 31
0.0
  0
LINE
  5
2F1
330
1F
100
AcDbEntity
  8
0
 62
     7
100
AcDbLine
 10
448.306976
 20
268.150024
 30
0.0
 11
448.306976
 21
272.974243
 31
0.0
  0
LINE
  5
2F2
330
1F
100
AcDbEntity
  8
0
 62
     7
100
AcDbLine
 10
448.306976
 20
268.020691
 30
0.0
 11
448.306976
 21
268.150024
 31
0.0
  0
LINE
  5
2F3
330
1F
100
AcDbEntity
  8
0
 62
     7
100
AcDbLine
 10
448.306976
 20
267.879272
 30
0.0
 11
448.306976
 21
268.020691
 31
0.0
  0
LINE
  5
2F4
330
1F
100
AcDbEntity
  8
0
 62
     7
100
AcDbLine
 10
448.306976
 20
267.879272
 30
0.0
 11
448.306976
 21
267.849976
 31
0.0
  0
ARC
  5
2F5
330
1F
100
AcDbEntity
  8
0
 62
     7
100
AcDbCircle
 10
448.806976
 20
267.849976
 30
0.0
 40
0.5
100
AcDbArc
 50
180.000009
 51
269.999997
  0
LINE
  5
2F6
330
1F
100
AcDbEntity
  8
0
 62
     7
100
AcDbLine
 10
448.806976
 20
267.349976
 30
0.0
 11
449.656982
 21
267.349976
 31
0.0
  0
ARC
  5
2F7
330
1F
100
AcDbEntity
  8
0
 62
     7
100
AcDbCircle
 10
448.806976
 20
267.849976
 30
0.0
 40
1.5
100
AcDbArc
 50
183.822551
 51
212.230947
  0
LINE
  5
2F8
330
1F
100
AcDbEntity
  8
0
 62
     7
100
AcDbLine
 10
447.310303
 20
267.75
 30
0.0
 11
447.306976
 21
267.849976
 31
0.0
  0
LINE
  5
2F9
330
1F
100
AcDbEntity
  8
0
 62
     7
100
AcDbLine
 10
447.306976
 20
268.150024
 30
0.0
 11
447.306976
 21
272.974243
 31
0.0
  0
LINE
  5
2FA
330
1F
100
AcDbEntity
  8
0
 62
     7
100
AcDbLine
 10
447.306976
 20
273.462158
 30
0.0
 11
447.306976
 21
272.974243
 31
0.0
  0
LINE
  5
2FB
330
1F
100
AcDbEntity
  8
0
 62
     7
100
AcDbLine
 10
447.306976
 20
273.549988
 30
0.0
 11
447.306976
 21
273.462158
 31
0.0
  0
LINE
  5
2FC
330
1F
100
AcDbEntity
  8
0
 62
     7
100
AcDbLine
 10
447.306976
 20
267.879272
 30
0.0
 11
447.306976
 21
267.849976
 31
0.0
  0
LINE
  5
2FD
330
1F
100
AcDbEntity
  8
0
 62
     7
100
AcDbLine
 10
447.306976
 20
268.020691
 30
0.0
 11
447.306976
 21
267.879272
 31
0.0
  0
LINE
  5
2FE
330
1F
100
AcDbEntity
  8
0
 62
     7
100
AcDbLine
 10
447.306976
 20
268.020691
 30
0.0
 11
447.306976
 21
268.150024
 31
0.0
  0
LINE
  5
2FF
330
1F
100
AcDbEntity
  8
0
 62
     7
100
AcDbLine
 10
305.306976
 20
273.462158
 30
0.0
 11
305.306976
 21
273.549988
 31
0.0
  0
LINE
  5
300
330
1F
100
AcDbEntity
  8
0
 62
     7
100
AcDbLine
 10
305.306976
 20
273.462158
 30
0.0
 11
305.306976
 21
272.974243
 31
0.0
  0
LINE
  5
301
330
1F
100
AcDbEntity
  8
0
 62
     7
100
AcDbLine
 10
305.306976
 20
268.150024
 30
0.0
 11
305.306976
 21
272.974243
 31
0.0
  0
LINE
  5
302
330
1F
100
AcDbEntity
  8
0
 62
     7
100
AcDbLine
 10
305.306976
 20
268.020691
 30
0.0
 11
305.306976
 21
268.150024
 31
0.0
  0
LINE
  5
303
330
1F
100
AcDbEntity
  8
0
 62
     7
100
AcDbLine
 10
305.306976
 20
267.879272
 30
0.0
 11
305.306976
 21
268.020691
 31
0.0
  0
LINE
  5
304
330
1F
100
AcDbEntity
  8
0
 62
     7
100
AcDbLine
 10
305.306976
 20
267.879272
 30
0.0
 11
305.306976
 21
267.849976
 31
0.0
  0
ARC
  5
305
330
1F
100
AcDbEntity
  8
0
 62
     7
100
AcDbCircle
 10
303.806976
 20
267.849976
 30
0.0
 40
1.5
100
AcDbArc
 50
314.454478
 51
356.177454
  0
LINE
  5
306
330
1F
100
AcDbEntity
  8
0
 62
     7
100
AcDbLine
 10
305.30365
 20
267.75
 30
0.0
 11
305.306976
 21
267.849976
 31
0.0
  0
LINE
  5
307
330
1F
100
AcDbEntity
  8
0
 62
     7
100
AcDbLine
 10
302.95697
 20
267.349976
 30
0.0
 11
303.806976
 21
267.349976
 31
0.0
  0
ARC
  5
308
330
1F
100
AcDbEntity
  8
0
 62
     7
100
AcDbCircle
 10
303.806976
 20
267.849976
 30
0.0
 40
0.5
100
AcDbArc
 50
269.999997
 51
360.0
  0
LINE
  5
309
330
1F
100
AcDbEntity
  8
0
 62
     7
100
AcDbLine
 10
304.306976
 20
268.150024
 30
0.0
 11
304.306976
 21
272.974243
 31
0.0
  0
LINE
  5
30A
330
1F
100
AcDbEntity
  8
0
 62
     7
100
AcDbLine
 10
304.306976
 20
273.462158
 30
0.0
 11
304.306976
 21
272.974243
 31
0.0
  0
LINE
  5
30B
330
1F
100
AcDbEntity
  8
0
 62
     7
100
AcDbLine
 10
304.306976
 20
273.549988
 30
0.0
 11
304.306976
 21
273.462158
 31
0.0
  0
LINE
  5
30C
330
1F
100
AcDbEntity
  8
0
 62
     7
100
AcDbLine
 10
304.306976
 20
267.879272
 30
0.0
 11
304.306976
 21
267.849976
 31
0.0
  0
LINE
  5
30D
330
1F
100
AcDbEntity
  8
0
 62
     7
100
AcDbLine
 10
304.306976
 20
268.020691
 30
0.0
 11
304.306976
 21
267.879272
 31
0.0
  0
LINE
  5
30E
330
1F
100
AcDbEntity
  8
0
 62
     7
100
AcDbLine
 10
304.306976
 20
268.020691
 30
0.0
 11
304.306976
 21
268.150024
 31
0.0
  0
LINE
  5
30F
330
1F
100
AcDbEntity
  8
0
 62
     7
100
AcDbLine
 10
298.306976
 20
273.462158
 30
0.0
 11
298.306976
 21
273.549988
 31
0.0
  0
LINE
  5
310
330
1F
100
AcDbEntity
  8
0
 62
     7
100
AcDbLine
 10
298.306976
 20
273.462158
 30
0.0
 11
298.306976
 21
272.974243
 31
0.0
  0
LINE
  5
311
330
1F
100
AcDbEntity
  8
0
 62
     7
100
AcDbLine
 10
298.306976
 20
268.150024
 30
0.0
 11
298.306976
 21
272.974243
 31
0.0
  0
LINE
  5
312
330
1F
100
AcDbEntity
  8
0
 62
     7
100
AcDbLine
 10
298.306976
 20
268.020691
 30
0.0
 11
298.306976
 21
268.150024
 31
0.0
  0
LINE
  5
313
330
1F
100
AcDbEntity
  8
0
 62
     7
100
AcDbLine
 10
298.306976
 20
267.879272
 30
0.0
 11
298.306976
 21
268.020691
 31
0.0
  0
LINE
  5
314
330
1F
100
AcDbEntity
  8
0
 62
     7
100
AcDbLine
 10
298.306976
 20
267.879272
 30
0.0
 11
298.306976
 21
267.849976
 31
0.0
  0
ARC
  5
315
330
1F
100
AcDbEntity
  8
0
 62
     7
100
AcDbCircle
 10
298.806976
 20
267.849976
 30
0.0
 40
0.5
100
AcDbArc
 50
180.000009
 51
269.999997
  0
LINE
  5
316
330
1F
100
AcDbEntity
  8
0
 62
     7
100
AcDbLine
 10
298.806976
 20
267.349976
 30
0.0
 11
299.656982
 21
267.349976
 31
0.0
  0
ARC
  5
317
330
1F
100
AcDbEntity
  8
0
 62
     7
100
AcDbCircle
 10
298.806976
 20
267.849976
 30
0.0
 40
1.5
100
AcDbArc
 50
183.822551
 51
212.230947
  0
LINE
  5
318
330
1F
100
AcDbEntity
  8
0
 62
     7
100
AcDbLine
 10
297.310303
 20
267.75
 30
0.0
 11
297.306976
 21
267.849976
 31
0.0
  0
LINE
  5
319
330
1F
100
AcDbEntity
  8
0
 62
     7
100
AcDbLine
 10
297.306976
 20
267.879272
 30
0.0
 11
297.306976
 21
267.849976
 31
0.0
  0
LINE
  5
31A
330
1F
100
AcDbEntity
  8
0
 62
     7
100
AcDbLine
 10
297.306976
 20
268.020691
 30
0.0
 11
297.306976
 21
267.879272
 31
0.0
  0
LINE
  5
31B
330
1F
100
AcDbEntity
  8
0
 62
     7
100
AcDbLine
 10
297.306976
 20
268.020691
 30
0.0
 11
297.306976
 21
268.150024
 31
0.0
  0
LINE
  5
31C
330
1F
100
AcDbEntity
  8
0
 62
     7
100
AcDbLine
 10
224.306976
 20
273.096436
 30
0.0
 11
224.306976
 21
273.781128
 31
0.0
  0
LINE
  5
31D
330
1F
100
AcDbEntity
  8
0
 62
     7
100
AcDbLine
 10
224.306976
 20
272.74292
 30
0.0
 11
224.306976
 21
273.096436
 31
0.0
  0
LINE
  5
31E
330
1F
100
AcDbEntity
  8
0
 62
     7
100
AcDbLine
 10
224.306976
 20
245.650009
 30
0.0
 11
224.306976
 21
272.74292
 31
0.0
  0
LINE
  5
31F
330
1F
100
AcDbEntity
  8
0
 62
     7
100
AcDbLine
 10
224.306976
 20
245.150009
 30
0.0
 11
224.306976
 21
245.650009
 31
0.0
  0
LINE
  5
320
330
1F
100
AcDbEntity
  8
0
 62
     7
100
AcDbLine
 10
528.306946
 20
276.349976
 30
0.0
 11
528.306946
 21
273.781128
 31
0.0
  0
LINE
  5
321
330
1F
100
AcDbEntity
  8
0
 62
     7
100
AcDbLine
 10
224.306976
 20
276.349976
 30
0.0
 11
528.306946
 21
276.349976
 31
0.0
  0
LINE
  5
322
330
1F
100
AcDbEntity
  8
0
 62
     7
100
AcDbLine
 10
224.306976
 20
276.349976
 30
0.0
 11
224.306976
 21
273.781128
 31
0.0
  0
LINE
  5
323
330
1F
100
AcDbEntity
  8
0
 62
     7
100
AcDbLine
 10
528.306946
 20
246.850006
 30
0.0
 11
527.806946
 21
246.850006
 31
0.0
  0
LINE
  5
324
330
1F
100
AcDbEntity
  8
0
 62
     7
100
AcDbLine
 10
511.71402
 20
267.049988
 30
0.0
 11
455.075836
 21
267.049988
 31
0.0
  0
LINE
  5
325
330
1F
100
AcDbEntity
  8
0
 62
     7
100
AcDbLine
 10
512.125671
 20
267.75
 30
0.0
 11
455.303619
 21
267.75
 31
0.0
  0
LINE
  5
326
330
1F
100
AcDbEntity
  8
0
 62
     7
100
AcDbLine
 10
452.498718
 20
267.049988
 30
0.0
 11
450.115234
 21
267.049988
 31
0.0
  0
LINE
  5
327
330
1F
100
AcDbEntity
  8
0
 62
     7
100
AcDbLine
 10
454.296875
 20
267.75
 30
0.0
 11
452.201385
 21
267.75
 31
0.0
  0
ARC
  5
328
330
1F
100
AcDbEntity
  8
0
 62
     7
100
AcDbCircle
 10
451.306976
 20
269.650024
 30
0.0
 40
2.099999904632568
100
AcDbArc
 50
237.479124
 51
295.208757
  0
LINE
  5
329
330
1F
100
AcDbEntity
  8
0
 62
     7
100
AcDbLine
 10
450.412537
 20
267.75
 30
0.0
 11
448.317078
 21
267.75
 31
0.0
  0
LINE
  5
32A
330
1F
100
AcDbEntity
  8
0
 62
     7
100
AcDbLine
 10
302.498718
 20
267.049988
 30
0.0
 11
300.115234
 21
267.049988
 31
0.0
  0
LINE
  5
32B
330
1F
100
AcDbEntity
  8
0
 62
     7
100
AcDbLine
 10
304.296875
 20
267.75
 30
0.0
 11
302.201385
 21
267.75
 31
0.0
  0
ARC
  5
32C
330
1F
100
AcDbEntity
  8
0
 62
     7
100
AcDbCircle
 10
301.306976
 20
269.650024
 30
0.0
 40
2.099999904632568
100
AcDbArc
 50
237.479124
 51
295.208757
  0
LINE
  5
32D
330
1F
100
AcDbEntity
  8
0
 62
     7
100
AcDbLine
 10
300.412537
 20
267.75
 30
0.0
 11
298.317078
 21
267.75
 31
0.0
  0
LINE
  5
32E
330
1F
100
AcDbEntity
  8
0
 62
     7
100
AcDbLine
 10
297.310303
 20
267.75
 30
0.0
 11
240.488281
 21
267.75
 31
0.0
  0
LINE
  5
32F
330
1F
100
AcDbEntity
  8
0
 62
     7
100
AcDbLine
 10
297.538116
 20
267.049988
 30
0.0
 11
240.899933
 21
267.049988
 31
0.0
  0
LINE
  5
330
330
1F
100
AcDbEntity
  8
0
 62
     7
100
AcDbLine
 10
224.306976
 20
246.850006
 30
0.0
 11
224.806976
 21
246.850006
 31
0.0
  0
LINE
  5
331
330
1F
100
AcDbEntity
  8
0
 62
     7
100
AcDbLine
 10
448.994446
 20
246.680374
 30
0.0
 11
450.294464
 21
250.180374
 31
0.0
  0
ARC
  5
332
330
1F
100
AcDbEntity
  8
0
 62
     7
100
AcDbCircle
 10
448.806976
 20
246.750015
 30
0.0
 40
0.2000000029802322
100
AcDbArc
 50
200.37643
 51
339.623562
  0
LINE
  5
333
330
1F
100
AcDbEntity
  8
0
 62
     7
100
AcDbLine
 10
447.319489
 20
250.180374
 30
0.0
 11
448.619476
 21
246.680374
 31
0.0
  0
ARC
  5
334
330
1F
100
AcDbEntity
  8
0
 62
     7
100
AcDbCircle
 10
447.506958
 20
250.250015
 30
0.0
 40
0.2000000029802322
100
AcDbArc
 50
90.000003
 51
200.37643
  0
LINE
  5
335
330
1F
100
AcDbEntity
  8
0
 62
     7
100
AcDbLine
 10
450.106964
 20
250.449997
 30
0.0
 11
447.506958
 21
250.449997
 31
0.0
  0
ARC
  5
336
330
1F
100
AcDbEntity
  8
0
 62
     7
100
AcDbCircle
 10
450.106964
 20
250.250015
 30
0.0
 40
0.2000000029802322
100
AcDbArc
 50
339.623562
 51
90.000003
  0
LINE
  5
337
330
1F
100
AcDbEntity
  8
0
 62
     7
100
AcDbLine
 10
278.994446
 20
246.680374
 30
0.0
 11
280.294464
 21
250.180374
 31
0.0
  0
ARC
  5
338
330
1F
100
AcDbEntity
  8
0
 62
     7
100
AcDbCircle
 10
278.806976
 20
246.750015
 30
0.0
 40
0.2000000029802322
100
AcDbArc
 50
200.37643
 51
339.623562
  0
LINE
  5
339
330
1F
100
AcDbEntity
  8
0
 62
     7
100
AcDbLine
 10
277.319489
 20
250.180374
 30
0.0
 11
278.619476
 21
246.680374
 31
0.0
  0
ARC
  5
33A
330
1F
100
AcDbEntity
  8
0
 62
     7
100
AcDbCircle
 10
277.506958
 20
250.250015
 30
0.0
 40
0.2000000029802322
100
AcDbArc
 50
90.000003
 51
200.37643
  0
LINE
  5
33B
330
1F
100
AcDbEntity
  8
0
 62
     7
100
AcDbLine
 10
280.106964
 20
250.449997
 30
0.0
 11
277.506958
 21
250.449997
 31
0.0
  0
ARC
  5
33C
330
1F
100
AcDbEntity
  8
0
 62
     7
100
AcDbCircle
 10
280.106964
 20
250.250015
 30
0.0
 40
0.2000000029802322
100
AcDbArc
 50
339.623562
 51
90.000003
  0
LINE
  5
33D
330
1F
100
AcDbEntity
  8
0
 62
     7
100
AcDbLine
 10
529.306946
 20
245.150009
 30
0.0
 11
528.306946
 21
245.150009
 31
0.0
  0
LINE
  5
33E
330
1F
100
AcDbEntity
  8
0
 62
     7
100
AcDbLine
 10
527.806946
 20
245.350006
 30
0.0
 11
528.306946
 21
245.350006
 31
0.0
  0
LINE
  5
33F
330
1F
100
AcDbEntity
  8
0
 62
     7
100
AcDbLine
 10
452.201385
 20
267.75
 30
0.0
 11
452.313751
 21
267.807068
 31
0.0
  0
ARC
  5
340
330
1F
100
AcDbEntity
  8
0
 62
     7
100
AcDbCircle
 10
451.306976
 20
269.650024
 30
0.0
 40
2.099999904632568
100
AcDbArc
 50
298.647887
 51
314.415304
  0
LINE
  5
341
330
1F
100
AcDbEntity
  8
0
 62
     7
100
AcDbLine
 10
449.83728
 20
268.150024
 30
0.0
 11
448.306976
 21
268.150024
 31
0.0
  0
ARC
  5
342
330
1F
100
AcDbEntity
  8
0
 62
     7
100
AcDbCircle
 10
451.306976
 20
269.650024
 30
0.0
 40
2.099999904632568
100
AcDbArc
 50
314.415304
 51
237.479124
  0
LINE
  5
343
330
1F
100
AcDbEntity
  8
0
 62
     7
100
AcDbLine
 10
454.306976
 20
268.150024
 30
0.0
 11
452.776672
 21
268.150024
 31
0.0
  0
LINE
  5
344
330
1F
100
AcDbEntity
  8
0
 62
     7
100
AcDbLine
 10
454.306976
 20
272.974243
 30
0.0
 11
448.306976
 21
272.974243
 31
0.0
  0
LINE
  5
345
330
1F
100
AcDbEntity
  8
0
 62
     7
100
AcDbLine
 10
447.538116
 20
267.049988
 30
0.0
 11
305.075836
 21
267.049988
 31
0.0
  0
LINE
  5
346
330
1F
100
AcDbEntity
  8
0
 62
     7
100
AcDbLine
 10
447.310303
 20
267.75
 30
0.0
 11
305.30365
 21
267.75
 31
0.0
  0
LINE
  5
347
330
1F
100
AcDbEntity
  8
0
 62
     7
100
AcDbLine
 10
447.306976
 20
268.150024
 30
0.0
 11
305.306976
 21
268.150024
 31
0.0
  0
LINE
  5
348
330
1F
100
AcDbEntity
  8
0
 62
     7
100
AcDbLine
 10
447.306976
 20
272.974243
 30
0.0
 11
305.306976
 21
272.974243
 31
0.0
  0
LINE
  5
349
330
1F
100
AcDbEntity
  8
0
 62
     7
100
AcDbLine
 10
302.201385
 20
267.75
 30
0.0
 11
302.313751
 21
267.807068
 31
0.0
  0
ARC
  5
34A
330
1F
100
AcDbEntity
  8
0
 62
     7
100
AcDbCircle
 10
301.306976
 20
269.650024
 30
0.0
 40
2.099999904632568
100
AcDbArc
 50
298.647887
 51
314.415304
  0
ARC
  5
34B
330
1F
100
AcDbEntity
  8
0
 62
     7
100
AcDbCircle
 10
301.306976
 20
269.650024
 30
0.0
 40
2.099999904632568
100
AcDbArc
 50
314.415304
 51
237.479124
  0
LINE
  5
34C
330
1F
100
AcDbEntity
  8
0
 62
     7
100
AcDbLine
 10
304.306976
 20
268.150024
 30
0.0
 11
302.776672
 21
268.150024
 31
0.0
  0
LINE
  5
34D
330
1F
100
AcDbEntity
  8
0
 62
     7
100
AcDbLine
 10
304.306976
 20
272.974243
 30
0.0
 11
298.306976
 21
272.974243
 31
0.0
  0
LINE
  5
34E
330
1F
100
AcDbEntity
  8
0
 62
     7
100
AcDbLine
 10
299.83728
 20
268.150024
 30
0.0
 11
298.306976
 21
268.150024
 31
0.0
  0
LINE
  5
34F
330
1F
100
AcDbEntity
  8
0
 62
     7
100
AcDbLine
 10
223.306976
 20
245.150009
 30
0.0
 11
224.306976
 21
245.150009
 31
0.0
  0
LINE
  5
350
330
1F
100
AcDbEntity
  8
0
 62
     7
100
AcDbLine
 10
224.306976
 20
245.350006
 30
0.0
 11
224.806976
 21
245.350006
 31
0.0
  0
CIRCLE
  5
351
330
1F
100
AcDbEntity
  8
0
 62
     7
100
AcDbCircle
 10
518.806946
 20
263.349976
 30
0.0
 40
4.5
  0
CIRCLE
  5
352
330
1F
100
AcDbEntity
  8
0
 62
     7
100
AcDbCircle
 10
233.806976
 20
263.349976
 30
0.0
 40
4.5
  0
ARC
  5
353
330
1F
100
AcDbEntity
  8
0
 62
     7
100
AcDbCircle
 10
529.306946
 20
246.150009
 30
0.0
 40
1.0
100
AcDbArc
 50
269.999997
 51
360.0
  0
LINE
  5
354
330
1F
100
AcDbEntity
  8
0
 62
     7
100
AcDbLine
 10
530.306946
 20
272.535767
 30
0.0
 11
530.306946
 21
246.150009
 31
0.0
  0
LINE
  5
355
330
1F
100
AcDbEntity
  8
0
 62
     7
100
AcDbLine
 10
530.306946
 20
273.231384
 30
0.0
 11
530.306946
 21
272.535767
 31
0.0
  0
LINE
  5
356
330
1F
100
AcDbEntity
  8
0
 62
     7
100
AcDbLine
 10
222.306976
 20
272.535767
 30
0.0
 11
222.306976
 21
273.231384
 31
0.0
  0
LINE
  5
357
330
1F
100
AcDbEntity
  8
0
 62
     7
100
AcDbLine
 10
222.306976
 20
246.150009
 30
0.0
 11
222.306976
 21
272.535767
 31
0.0
  0
ARC
  5
358
330
1F
100
AcDbEntity
  8
0
 62
     7
100
AcDbCircle
 10
223.306976
 20
246.150009
 30
0.0
 40
1.0
100
AcDbArc
 50
180.000009
 51
269.999997
  0
LINE
  5
359
330
1F
100
AcDbEntity
  8
0
 62
     7
100
AcDbLine
 10
529.306946
 20
276.150024
 30
0.0
 11
528.306946
 21
276.150024
 31
0.0
  0
LINE
  5
35A
330
1F
100
AcDbEntity
  8
0
 62
     7
100
AcDbLine
 10
223.306976
 20
276.150024
 30
0.0
 11
224.306976
 21
276.150024
 31
0.0
  0
LINE
  5
35B
330
1F
100
AcDbEntity
  8
0
 62
     7
100
AcDbLine
 10
530.306946
 20
273.805908
 30
0.0
 11
530.306946
 21
273.231384
 31
0.0
  0
LINE
  5
35C
330
1F
100
AcDbEntity
  8
0
 62
     7
100
AcDbLine
 10
530.306946
 20
275.150024
 30
0.0
 11
530.306946
 21
273.805908
 31
0.0
  0
LINE
  5
35D
330
1F
100
AcDbEntity
  8
0
 62
     7
100
AcDbLine
 10
222.306976
 20
273.231384
 30
0.0
 11
222.306976
 21
273.805908
 31
0.0
  0
LINE
  5
35E
330
1F
100
AcDbEntity
  8
0
 62
     7
100
AcDbLine
 10
222.306976
 20
273.805908
 30
0.0
 11
222.306976
 21
275.150024
 31
0.0
  0
ARC
  5
35F
330
1F
100
AcDbEntity
  8
0
 62
     7
100
AcDbCircle
 10
518.806946
 20
264.049988
 30
0.0
 40
12.80000019073486
100
AcDbArc
 50
73.932611
 51
106.067387
  0
ARC
  5
360
330
1F
100
AcDbEntity
  8
0
 62
     7
100
AcDbCircle
 10
233.806976
 20
264.049988
 30
0.0
 40
12.80000019073486
100
AcDbArc
 50
73.932611
 51
106.067387
  0
ARC
  5
361
330
1F
100
AcDbEntity
  8
0
 62
     7
100
AcDbCircle
 10
529.306946
 20
275.150024
 30
0.0
 40
1.0
100
AcDbArc
 50
0.0
 51
90.000003
  0
ARC
  5
362
330
1F
100
AcDbEntity
  8
0
 62
     7
100
AcDbCircle
 10
223.306976
 20
275.150024
 30
0.0
 40
1.0
100
AcDbArc
 50
90.000003
 51
180.000009
  0
CIRCLE
  5
363
330
1F
100
AcDbEntity
  8
0
 62
     7
100
AcDbCircle
 10
451.306976
 20
269.650024
 30
0.0
 40
2.0
  0
CIRCLE
  5
364
330
1F
100
AcDbEntity
  8
0
 62
     7
100
AcDbCircle
 10
301.306976
 20
269.650024
 30
0.0
 40
2.0
  0
LINE
  5
365
330
1F
100
AcDbEntity
  8
0
 62
     7
100
AcDbLine
 10
451.506958
 20
270.349976
 30
0.0
 11
451.506958
 21
270.849976
 31
0.0
  0
LINE
  5
366
330
1F
100
AcDbEntity
  8
0
 62
     7
100
AcDbLine
 10
451.506958
 20
270.849976
 30
0.0
 11
451.106964
 21
270.849976
 31
0.0
  0
LINE
  5
367
330
1F
100
AcDbEntity
  8
0
 62
     7
100
AcDbLine
 10
451.106964
 20
270.849976
 30
0.0
 11
451.106964
 21
270.349976
 31
0.0
  0
ARC
  5
368
330
1F
100
AcDbEntity
  8
0
 62
     7
100
AcDbCircle
 10
450.606964
 20
270.349976
 30
0.0
 40
0.5
100
AcDbArc
 50
269.999997
 51
360.0
  0
LINE
  5
369
330
1F
100
AcDbEntity
  8
0
 62
     7
100
AcDbLine
 10
450.606964
 20
269.849976
 30
0.0
 11
450.106964
 21
269.849976
 31
0.0
  0
LINE
  5
36A
330
1F
100
AcDbEntity
  8
0
 62
     7
100
AcDbLine
 10
450.106964
 20
269.849976
 30
0.0
 11
450.106964
 21
269.450012
 31
0.0
  0
LINE
  5
36B
330
1F
100
AcDbEntity
  8
0
 62
     7
100
AcDbLine
 10
450.106964
 20
269.450012
 30
0.0
 11
450.606964
 21
269.450012
 31
0.0
  0
ARC
  5
36C
330
1F
100
AcDbEntity
  8
0
 62
     7
100
AcDbCircle
 10
450.606964
 20
268.950012
 30
0.0
 40
0.5
100
AcDbArc
 50
0.0
 51
90.000003
  0
LINE
  5
36D
330
1F
100
AcDbEntity
  8
0
 62
     7
100
AcDbLine
 10
451.106964
 20
268.950012
 30
0.0
 11
451.106964
 21
268.450012
 31
0.0
  0
LINE
  5
36E
330
1F
100
AcDbEntity
  8
0
 62
     7
100
AcDbLine
 10
451.106964
 20
268.450012
 30
0.0
 11
451.506958
 21
268.450012
 31
0.0
  0
LINE
  5
36F
330
1F
100
AcDbEntity
  8
0
 62
     7
100
AcDbLine
 10
451.506958
 20
268.450012
 30
0.0
 11
451.506958
 21
268.950012
 31
0.0
  0
ARC
  5
370
330
1F
100
AcDbEntity
  8
0
 62
     7
100
AcDbCircle
 10
452.006958
 20
268.950012
 30
0.0
 40
0.5
100
AcDbArc
 50
90.000003
 51
180.000009
  0
LINE
  5
371
330
1F
100
AcDbEntity
  8
0
 62
     7
100
AcDbLine
 10
452.006958
 20
269.450012
 30
0.0
 11
452.506958
 21
269.450012
 31
0.0
  0
LINE
  5
372
330
1F
100
AcDbEntity
  8
0
 62
     7
100
AcDbLine
 10
452.506958
 20
269.450012
 30
0.0
 11
452.506958
 21
269.849976
 31
0.0
  0
LINE
  5
373
330
1F
100
AcDbEntity
  8
0
 62
     7
100
AcDbLine
 10
452.506958
 20
269.849976
 30
0.0
 11
452.006958
 21
269.849976
 31
0.0
  0
ARC
  5
374
330
1F
100
AcDbEntity
  8
0
 62
     7
100
AcDbCircle
 10
452.006958
 20
270.349976
 30
0.0
 40
0.5
100
AcDbArc
 50
180.000009
 51
269.999997
  0
LINE
  5
375
330
1F
100
AcDbEntity
  8
0
 62
     7
100
AcDbLine
 10
301.506958
 20
270.349976
 30
0.0
 11
301.506958
 21
270.849976
 31
0.0
  0
LINE
  5
376
330
1F
100
AcDbEntity
  8
0
 62
     7
100
AcDbLine
 10
301.506958
 20
270.849976
 30
0.0
 11
301.106964
 21
270.849976
 31
0.0
  0
LINE
  5
377
330
1F
100
AcDbEntity
  8
0
 62
     7
100
AcDbLine
 10
301.106964
 20
270.849976
 30
0.0
 11
301.106964
 21
270.349976
 31
0.0
  0
ARC
  5
378
330
1F
100
AcDbEntity
  8
0
 62
     7
100
AcDbCircle
 10
300.606964
 20
270.349976
 30
0.0
 40
0.5
100
AcDbArc
 50
269.999997
 51
360.0
  0
LINE
  5
379
330
1F
100
AcDbEntity
  8
0
 62
     7
100
AcDbLine
 10
300.606964
 20
269.849976
 30
0.0
 11
300.106964
 21
269.849976
 31
0.0
  0
LINE
  5
37A
330
1F
100
AcDbEntity
  8
0
 62
     7
100
AcDbLine
 10
300.106964
 20
269.849976
 30
0.0
 11
300.106964
 21
269.450012
 31
0.0
  0
LINE
  5
37B
330
1F
100
AcDbEntity
  8
0
 62
     7
100
AcDbLine
 10
300.106964
 20
269.450012
 30
0.0
 11
300.606964
 21
269.450012
 31
0.0
  0
ARC
  5
37C
330
1F
100
AcDbEntity
  8
0
 62
     7
100
AcDbCircle
 10
300.606964
 20
268.950012
 30
0.0
 40
0.5
100
AcDbArc
 50
0.0
 51
90.000003
  0
LINE
  5
37D
330
1F
100
AcDbEntity
  8
0
 62
     7
100
AcDbLine
 10
301.106964
 20
268.950012
 30
0.0
 11
301.106964
 21
268.450012
 31
0.0
  0
LINE
  5
37E
330
1F
100
AcDbEntity
  8
0
 62
     7
100
AcDbLine
 10
301.106964
 20
268.450012
 30
0.0
 11
301.506958
 21
268.450012
 31
0.0
  0
LINE
  5
37F
330
1F
100
AcDbEntity
  8
0
 62
     7
100
AcDbLine
 10
301.506958
 20
268.450012
 30
0.0
 11
301.506958
 21
268.950012
 31
0.0
  0
ARC
  5
380
330
1F
100
AcDbEntity
  8
0
 62
     7
100
AcDbCircle
 10
302.006958
 20
268.950012
 30
0.0
 40
0.5
100
AcDbArc
 50
90.000003
 51
180.000009
  0
LINE
  5
381
330
1F
100
AcDbEntity
  8
0
 62
     7
100
AcDbLine
 10
302.006958
 20
269.450012
 30
0.0
 11
302.506958
 21
269.450012
 31
0.0
  0
LINE
  5
382
330
1F
100
AcDbEntity
  8
0
 62
     7
100
AcDbLine
 10
302.506958
 20
269.450012
 30
0.0
 11
302.506958
 21
269.849976
 31
0.0
  0
LINE
  5
383
330
1F
100
AcDbEntity
  8
0
 62
     7
100
AcDbLine
 10
302.506958
 20
269.849976
 30
0.0
 11
302.006958
 21
269.849976
 31
0.0
  0
ARC
  5
384
330
1F
100
AcDbEntity
  8
0
 62
     7
100
AcDbCircle
 10
302.006958
 20
270.349976
 30
0.0
 40
0.5
100
AcDbArc
 50
180.000009
 51
269.999997
  0
LINE
  5
385
330
1F
100
AcDbEntity
  8
0
 62
     7
100
AcDbLine
 10
530.306946
 20
249.800003
 30
0.0
 11
530.306946
 21
252.699997
 31
0.0
  0
LINE
  5
386
330
1F
100
AcDbEntity
  8
0
 62
     7
100
AcDbLine
 10
530.306946
 20
254.000015
 30
0.0
 11
530.306946
 21
256.900024
 31
0.0
  0
LINE
  5
387
330
1F
100
AcDbEntity
  8
0
 62
     7
100
AcDbLine
 10
455.306976
 20
273.549988
 30
0.0
 11
527.806946
 21
273.549988
 31
0.0
  0
LINE
  5
388
330
1F
100
AcDbEntity
  8
0
 62
     7
100
AcDbLine
 10
224.806976
 20
273.549988
 30
0.0
 11
297.306976
 21
273.549988
 31
0.0
  0
LINE
  5
389
330
1F
100
AcDbEntity
  8
0
 62
     7
100
AcDbLine
 10
448.306976
 20
273.549988
 30
0.0
 11
454.306976
 21
273.549988
 31
0.0
  0
LINE
  5
38A
330
1F
100
AcDbEntity
  8
0
 62
     7
100
AcDbLine
 10
305.306976
 20
273.549988
 30
0.0
 11
447.306976
 21
273.549988
 31
0.0
  0
LINE
  5
38B
330
1F
100
AcDbEntity
  8
0
 62
     7
100
AcDbLine
 10
298.306976
 20
273.549988
 30
0.0
 11
304.306976
 21
273.549988
 31
0.0
  0
LINE
  5
38C
330
1F
100
AcDbEntity
  8
0
 62
     7
100
AcDbLine
 10
357.70697
 20
242.849884
 30
0.0
 11
357.70697
 21
243.139999
 31
0.0
  0
LINE
  5
38D
330
1F
100
AcDbEntity
  8
0
 62
     7
100
AcDbLine
 10
357.70697
 20
243.139999
 30
0.0
 11
357.506958
 21
243.343246
 31
0.0
  0
LINE
  5
38E
330
1F
100
AcDbEntity
  8
0
 62
     7
100
AcDbLine
 10
357.506958
 20
243.009216
 30
0.0
 11
357.506958
 21
243.343246
 31
0.0
  0
LINE
  5
38F
330
1F
100
AcDbEntity
  8
0
 62
     7
100
AcDbLine
 10
357.506958
 20
243.343246
 30
0.0
 11
356.506958
 21
243.343246
 31
0.0
  0
LINE
  5
390
330
1F
100
AcDbEntity
  8
0
 62
     7
100
AcDbLine
 10
356.506958
 20
243.343246
 30
0.0
 11
356.506958
 21
243.400009
 31
0.0
  0
LINE
  5
391
330
1F
100
AcDbEntity
  8
0
 62
     7
100
AcDbLine
 10
355.906982
 20
243.400009
 30
0.0
 11
356.506958
 21
243.400009
 31
0.0
  0
LINE
  5
392
330
1F
100
AcDbEntity
  8
0
 62
     7
100
AcDbLine
 10
355.906982
 20
243.049942
 30
0.0
 11
355.906982
 21
243.400009
 31
0.0
  0
LINE
  5
393
330
1F
100
AcDbEntity
  8
0
 62
     7
100
AcDbLine
 10
357.506958
 20
243.343246
 30
0.0
 11
356.506958
 21
243.343246
 31
0.0
  0
LINE
  5
394
330
1F
100
AcDbEntity
  8
0
 62
     7
100
AcDbLine
 10
357.70697
 20
243.139999
 30
0.0
 11
357.506958
 21
243.343246
 31
0.0
  0
LINE
  5
395
330
1F
100
AcDbEntity
  8
0
 62
     7
100
AcDbLine
 10
224.906982
 20
243.139999
 30
0.0
 11
224.906982
 21
242.849884
 31
0.0
  0
LINE
  5
396
330
1F
100
AcDbEntity
  8
0
 62
     7
100
AcDbLine
 10
225.106964
 20
243.343246
 30
0.0
 11
225.106964
 21
243.009216
 31
0.0
  0
LINE
  5
397
330
1F
100
AcDbEntity
  8
0
 62
     7
100
AcDbLine
 10
224.906982
 20
243.139999
 30
0.0
 11
225.106964
 21
243.343246
 31
0.0
  0
LINE
  5
398
330
1F
100
AcDbEntity
  8
0
 62
     7
100
AcDbLine
 10
225.106964
 20
243.343246
 30
0.0
 11
226.106964
 21
243.343246
 31
0.0
  0
LINE
  5
399
330
1F
100
AcDbEntity
  8
0
 62
     7
100
AcDbLine
 10
226.106964
 20
243.400009
 30
0.0
 11
226.106964
 21
243.343246
 31
0.0
  0
LINE
  5
39A
330
1F
100
AcDbEntity
  8
0
 62
     7
100
AcDbLine
 10
226.70697
 20
243.400009
 30
0.0
 11
226.70697
 21
243.049942
 31
0.0
  0
LINE
  5
39B
330
1F
100
AcDbEntity
  8
0
 62
     7
100
AcDbLine
 10
226.70697
 20
243.400009
 30
0.0
 11
226.106964
 21
243.400009
 31
0.0
  0
LINE
  5
39C
330
1F
100
AcDbEntity
  8
0
 62
     7
100
AcDbLine
 10
225.106964
 20
243.343246
 30
0.0
 11
226.106964
 21
243.343246
 31
0.0
  0
LINE
  5
39D
330
1F
100
AcDbEntity
  8
0
 62
     7
100
AcDbLine
 10
227.006958
 20
243.050003
 30
0.0
 11
227.006958
 21
243.150009
 31
0.0
  0
LINE
  5
39E
330
1F
100
AcDbEntity
  8
0
 62
     7
100
AcDbLine
 10
227.306976
 20
243.050003
 30
0.0
 11
225.306976
 21
243.050003
 31
0.0
  0
ARC
  5
39F
330
1F
100
AcDbEntity
  8
0
 62
     7
100
AcDbCircle
 10
225.306976
 20
242.550003
 30
0.0
 40
0.5
100
AcDbArc
 50
90.000003
 51
179.999554
  0
LINE
  5
3A0
330
1F
100
AcDbEntity
  8
0
 62
     7
100
AcDbLine
 10
225.306976
 20
242.550003
 30
0.0
 11
224.95343
 21
242.903549
 31
0.0
  0
ARC
  5
3A1
330
1F
100
AcDbEntity
  8
0
 62
     7
100
AcDbCircle
 10
227.306976
 20
243.550003
 30
0.0
 40
0.5
100
AcDbArc
 50
269.999997
 51
360.0
  0
LINE
  5
3A2
330
1F
100
AcDbEntity
  8
0
 62
     7
100
AcDbLine
 10
224.806976
 20
242.550003
 30
0.0
 11
224.806976
 21
219.449997
 31
0.0
  0
LINE
  5
3A3
330
1F
100
AcDbEntity
  8
0
 62
     7
100
AcDbLine
 10
225.306976
 20
219.449997
 30
0.0
 11
225.056976
 21
219.199997
 31
0.0
  0
LINE
  5
3A4
330
1F
100
AcDbEntity
  8
0
 62
     7
100
AcDbLine
 10
224.806976
 20
219.449997
 30
0.0
 11
225.056976
 21
219.199997
 31
0.0
  0
ARC
  5
3A5
330
1F
100
AcDbEntity
  8
0
 62
     7
100
AcDbCircle
 10
228.306976
 20
243.550003
 30
0.0
 40
0.5
100
AcDbArc
 50
90.000003
 51
180.000009
  0
LINE
  5
3A6
330
1F
100
AcDbEntity
  8
0
 62
     7
100
AcDbLine
 10
225.056976
 20
219.199997
 30
0.0
 11
225.306976
 21
218.949997
 31
0.0
  0
LINE
  5
3A7
330
1F
100
AcDbEntity
  8
0
 62
     7
100
AcDbLine
 10
232.306976
 20
218.949997
 30
0.0
 11
225.306976
 21
218.949997
 31
0.0
  0
LINE
  5
3A8
330
1F
100
AcDbEntity
  8
0
 62
     7
100
AcDbLine
 10
236.806976
 20
244.050003
 30
0.0
 11
228.306976
 21
244.050003
 31
0.0
  0
LINE
  5
3A9
330
1F
100
AcDbEntity
  8
0
 62
     7
100
AcDbLine
 10
238.306976
 20
243.050003
 30
0.0
 11
237.806976
 21
243.050003
 31
0.0
  0
LINE
  5
3AA
330
1F
100
AcDbEntity
  8
0
 62
     7
100
AcDbLine
 10
238.606964
 20
242.750015
 30
0.0
 11
238.606964
 21
241.550003
 31
0.0
  0
ARC
  5
3AB
330
1F
100
AcDbEntity
  8
0
 62
     7
100
AcDbCircle
 10
240.806976
 20
241.550003
 30
0.0
 40
2.200000047683716
100
AcDbArc
 50
180.000009
 51
360.0
  0
ARC
  5
3AC
330
1F
100
AcDbEntity
  8
0
 62
     7
100
AcDbCircle
 10
241.806976
 20
237.987701
 30
0.0
 40
1.0
100
AcDbArc
 50
105.680348
 51
180.000009
  0
LINE
  5
3AD
330
1F
100
AcDbEntity
  8
0
 62
     7
100
AcDbLine
 10
240.806976
 20
237.987701
 30
0.0
 11
240.806976
 21
226.250015
 31
0.0
  0
ARC
  5
3AE
330
1F
100
AcDbEntity
  8
0
 62
     7
100
AcDbCircle
 10
243.806976
 20
226.250015
 30
0.0
 40
3.0
100
AcDbArc
 50
180.000009
 51
269.999997
  0
LINE
  5
3AF
330
1F
100
AcDbEntity
  8
0
 62
     7
100
AcDbLine
 10
257.806976
 20
223.250015
 30
0.0
 11
243.806976
 21
223.250015
 31
0.0
  0
ARC
  5
3B0
330
1F
100
AcDbEntity
  8
0
 62
     7
100
AcDbCircle
 10
257.806976
 20
226.250015
 30
0.0
 40
3.0
100
AcDbArc
 50
269.999997
 51
360.0
  0
LINE
  5
3B1
330
1F
100
AcDbEntity
  8
0
 62
     7
100
AcDbLine
 10
260.806976
 20
226.250015
 30
0.0
 11
260.806976
 21
239.050003
 31
0.0
  0
ARC
  5
3B2
330
1F
100
AcDbEntity
  8
0
 62
     7
100
AcDbCircle
 10
257.806976
 20
239.050003
 30
0.0
 40
3.0
100
AcDbArc
 50
0.0
 51
90.000003
  0
LINE
  5
3B3
330
1F
100
AcDbEntity
  8
0
 62
     7
100
AcDbLine
 10
244.473022
 20
242.050003
 30
0.0
 11
257.806976
 21
242.050003
 31
0.0
  0
ARC
  5
3B4
330
1F
100
AcDbEntity
  8
0
 62
     7
100
AcDbCircle
 10
244.473022
 20
241.050003
 30
0.0
 40
1.0
100
AcDbArc
 50
90.000003
 51
172.233561
  0
LINE
  5
3B5
330
1F
100
AcDbEntity
  8
0
 62
     7
100
AcDbLine
 10
243.006958
 20
241.550003
 30
0.0
 11
243.006958
 21
242.750015
 31
0.0
  0
LINE
  5
3B6
330
1F
100
AcDbEntity
  8
0
 62
     7
100
AcDbLine
 10
317.306976
 20
243.050003
 30
0.0
 11
243.306976
 21
243.050003
 31
0.0
  0
LINE
  5
3B7
330
1F
100
AcDbEntity
  8
0
 62
     7
100
AcDbLine
 10
317.606964
 20
242.750015
 30
0.0
 11
317.606964
 21
241.550003
 31
0.0
  0
ARC
  5
3B8
330
1F
100
AcDbEntity
  8
0
 62
     7
100
AcDbCircle
 10
319.806976
 20
241.550003
 30
0.0
 40
2.200000047683716
100
AcDbArc
 50
180.000009
 51
360.0
  0
LINE
  5
3B9
330
1F
100
AcDbEntity
  8
0
 62
     7
100
AcDbLine
 10
322.006958
 20
241.550003
 30
0.0
 11
322.006958
 21
242.750015
 31
0.0
  0
LINE
  5
3BA
330
1F
100
AcDbEntity
  8
0
 62
     7
100
AcDbLine
 10
336.306976
 20
243.050003
 30
0.0
 11
322.306976
 21
243.050003
 31
0.0
  0
LINE
  5
3BB
330
1F
100
AcDbEntity
  8
0
 62
     7
100
AcDbLine
 10
354.306976
 20
244.050003
 30
0.0
 11
337.306976
 21
244.050003
 31
0.0
  0
LINE
  5
3BC
330
1F
100
AcDbEntity
  8
0
 62
     7
100
AcDbLine
 10
357.306976
 20
243.050003
 30
0.0
 11
355.306976
 21
243.050003
 31
0.0
  0
LINE
  5
3BD
330
1F
100
AcDbEntity
  8
0
 62
     7
100
AcDbLine
 10
357.306976
 20
242.550003
 30
0.0
 11
357.660522
 21
242.903549
 31
0.0
  0
ARC
  5
3BE
330
1F
100
AcDbEntity
  8
0
 62
     7
100
AcDbCircle
 10
357.306976
 20
242.550003
 30
0.0
 40
0.5
100
AcDbArc
 50
0.0
 51
89.999559
  0
LINE
  5
3BF
330
1F
100
AcDbEntity
  8
0
 62
     7
100
AcDbLine
 10
357.806976
 20
219.449997
 30
0.0
 11
357.806976
 21
242.550003
 31
0.0
  0
LINE
  5
3C0
330
1F
100
AcDbEntity
  8
0
 62
     7
100
AcDbLine
 10
357.306976
 20
219.449997
 30
0.0
 11
357.556976
 21
219.199997
 31
0.0
  0
LINE
  5
3C1
330
1F
100
AcDbEntity
  8
0
 62
     7
100
AcDbLine
 10
357.556976
 20
219.199997
 30
0.0
 11
357.806976
 21
219.449997
 31
0.0
  0
LINE
  5
3C2
330
1F
100
AcDbEntity
  8
0
 62
     7
100
AcDbLine
 10
357.306976
 20
218.949997
 30
0.0
 11
350.306976
 21
218.949997
 31
0.0
  0
LINE
  5
3C3
330
1F
100
AcDbEntity
  8
0
 62
     7
100
AcDbLine
 10
357.306976
 20
218.949997
 30
0.0
 11
357.556976
 21
219.199997
 31
0.0
  0
LINE
  5
3C4
330
1F
100
AcDbEntity
  8
0
 62
     7
100
AcDbLine
 10
349.806976
 20
219.449997
 30
0.0
 11
349.806976
 21
222.250015
 31
0.0
  0
LINE
  5
3C5
330
1F
100
AcDbEntity
  8
0
 62
     7
100
AcDbLine
 10
350.306976
 20
222.250015
 30
0.0
 11
232.306976
 21
222.250015
 31
0.0
  0
LINE
  5
3C6
330
1F
100
AcDbEntity
  8
0
 62
     7
100
AcDbLine
 10
232.806976
 20
219.449997
 30
0.0
 11
232.806976
 21
222.250015
 31
0.0
  0
LINE
  5
3C7
330
1F
100
AcDbEntity
  8
0
 62
     7
100
AcDbLine
 10
299.806976
 20
242.050003
 30
0.0
 11
313.806976
 21
242.050003
 31
0.0
  0
ARC
  5
3C8
330
1F
100
AcDbEntity
  8
0
 62
     7
100
AcDbCircle
 10
313.806976
 20
239.050003
 30
0.0
 40
3.0
100
AcDbArc
 50
0.0
 51
90.000003
  0
LINE
  5
3C9
330
1F
100
AcDbEntity
  8
0
 62
     7
100
AcDbLine
 10
316.806976
 20
226.250015
 30
0.0
 11
316.806976
 21
239.050003
 31
0.0
  0
ARC
  5
3CA
330
1F
100
AcDbEntity
  8
0
 62
     7
100
AcDbCircle
 10
313.806976
 20
226.250015
 30
0.0
 40
3.0
100
AcDbArc
 50
269.999997
 51
360.0
  0
LINE
  5
3CB
330
1F
100
AcDbEntity
  8
0
 62
     7
100
AcDbLine
 10
313.806976
 20
223.250015
 30
0.0
 11
299.806976
 21
223.250015
 31
0.0
  0
ARC
  5
3CC
330
1F
100
AcDbEntity
  8
0
 62
     7
100
AcDbCircle
 10
299.806976
 20
226.250015
 30
0.0
 40
3.0
100
AcDbArc
 50
180.000009
 51
269.999997
  0
LINE
  5
3CD
330
1F
100
AcDbEntity
  8
0
 62
     7
100
AcDbLine
 10
296.806976
 20
239.050003
 30
0.0
 11
296.806976
 21
226.250015
 31
0.0
  0
ARC
  5
3CE
330
1F
100
AcDbEntity
  8
0
 62
     7
100
AcDbCircle
 10
299.806976
 20
239.050003
 30
0.0
 40
3.0
100
AcDbArc
 50
90.000003
 51
180.000009
  0
LINE
  5
3CF
330
1F
100
AcDbEntity
  8
0
 62
     7
100
AcDbLine
 10
237.806976
 20
244.050003
 30
0.0
 11
236.806976
 21
244.050003
 31
0.0
  0
LINE
  5
3D0
330
1F
100
AcDbEntity
  8
0
 62
     7
100
AcDbLine
 10
238.806976
 20
244.050003
 30
0.0
 11
237.806976
 21
244.050003
 31
0.0
  0
ARC
  5
3D1
330
1F
100
AcDbEntity
  8
0
 62
     7
100
AcDbCircle
 10
232.306976
 20
219.449997
 30
0.0
 40
0.5
100
AcDbArc
 50
269.999997
 51
360.0
  0
ARC
  5
3D2
330
1F
100
AcDbEntity
  8
0
 62
     7
100
AcDbCircle
 10
236.806976
 20
243.550003
 30
0.0
 40
0.5
100
AcDbArc
 50
0.0
 51
90.000003
  0
ARC
  5
3D3
330
1F
100
AcDbEntity
  8
0
 62
     7
100
AcDbCircle
 10
237.806976
 20
243.550003
 30
0.0
 40
0.5
100
AcDbArc
 50
180.000009
 51
269.999997
  0
LINE
  5
3D4
330
1F
100
AcDbEntity
  8
0
 62
     7
100
AcDbLine
 10
238.70697
 20
243.050003
 30
0.0
 11
238.306976
 21
243.050003
 31
0.0
  0
LINE
  5
3D5
330
1F
100
AcDbEntity
  8
0
 62
     7
100
AcDbLine
 10
238.70697
 20
243.050003
 30
0.0
 11
238.806976
 21
243.050003
 31
0.0
  0
ARC
  5
3D6
330
1F
100
AcDbEntity
  8
0
 62
     7
100
AcDbCircle
 10
238.306976
 20
242.750015
 30
0.0
 40
0.300000011920929
100
AcDbArc
 50
0.0
 51
90.000003
  0
ARC
  5
3D7
330
1F
100
AcDbEntity
  8
0
 62
     7
100
AcDbCircle
 10
240.806976
 20
241.550003
 30
0.0
 40
2.700000047683716
100
AcDbArc
 50
285.680336
 51
352.233566
  0
CIRCLE
  5
3D8
330
1F
100
AcDbEntity
  8
0
 62
     7
100
AcDbCircle
 10
250.806976
 20
234.650009
 30
0.0
 40
4.5
  0
ARC
  5
3D9
330
1F
100
AcDbEntity
  8
0
 62
     7
100
AcDbCircle
 10
243.306976
 20
242.750015
 30
0.0
 40
0.300000011920929
100
AcDbArc
 50
90.000003
 51
180.000009
  0
ARC
  5
3DA
330
1F
100
AcDbEntity
  8
0
 62
     7
100
AcDbCircle
 10
317.306976
 20
242.750015
 30
0.0
 40
0.300000011920929
100
AcDbArc
 50
0.0
 51
90.000003
  0
ARC
  5
3DB
330
1F
100
AcDbEntity
  8
0
 62
     7
100
AcDbCircle
 10
322.306976
 20
242.750015
 30
0.0
 40
0.300000011920929
100
AcDbArc
 50
90.000003
 51
180.000009
  0
ARC
  5
3DC
330
1F
100
AcDbEntity
  8
0
 62
     7
100
AcDbCircle
 10
336.306976
 20
243.550003
 30
0.0
 40
0.5
100
AcDbArc
 50
269.999997
 51
360.0
  0
ARC
  5
3DD
330
1F
100
AcDbEntity
  8
0
 62
     7
100
AcDbCircle
 10
337.306976
 20
243.550003
 30
0.0
 40
0.5
100
AcDbArc
 50
90.000003
 51
180.000009
  0
LINE
  5
3DE
330
1F
100
AcDbEntity
  8
0
 62
     7
100
AcDbLine
 10
335.306976
 20
244.050003
 30
0.0
 11
336.306976
 21
244.050003
 31
0.0
  0
LINE
  5
3DF
330
1F
100
AcDbEntity
  8
0
 62
     7
100
AcDbLine
 10
337.306976
 20
244.050003
 30
0.0
 11
336.306976
 21
244.050003
 31
0.0
  0
ARC
  5
3E0
330
1F
100
AcDbEntity
  8
0
 62
     7
100
AcDbCircle
 10
354.306976
 20
243.550003
 30
0.0
 40
0.5
100
AcDbArc
 50
0.0
 51
90.000003
  0
ARC
  5
3E1
330
1F
100
AcDbEntity
  8
0
 62
     7
100
AcDbCircle
 10
355.306976
 20
243.550003
 30
0.0
 40
0.5
100
AcDbArc
 50
180.000009
 51
269.999997
  0
ARC
  5
3E2
330
1F
100
AcDbEntity
  8
0
 62
     7
100
AcDbCircle
 10
350.306976
 20
219.449997
 30
0.0
 40
0.5
100
AcDbArc
 50
180.000009
 51
269.999997
  0
LINE
  5
3E3
330
1F
100
AcDbEntity
  8
0
 62
     7
100
AcDbLine
 10
234.056976
 20
221.850006
 30
0.0
 11
234.056976
 21
222.250015
 31
0.0
  0
LINE
  5
3E4
330
1F
100
AcDbEntity
  8
0
 62
     7
100
AcDbLine
 10
348.556976
 20
221.850006
 30
0.0
 11
348.556976
 21
222.250015
 31
0.0
  0
LINE
  5
3E5
330
1F
100
AcDbEntity
  8
0
 62
     7
100
AcDbLine
 10
248.530182
 20
222.100006
 30
0.0
 11
248.33017
 21
222.100006
 31
0.0
  0
LINE
  5
3E6
330
1F
100
AcDbEntity
  8
0
 62
     7
100
AcDbLine
 10
245.283752
 20
222.100006
 30
0.0
 11
248.33017
 21
222.100006
 31
0.0
  0
LINE
  5
3E7
330
1F
100
AcDbEntity
  8
0
 62
     7
100
AcDbLine
 10
245.283752
 20
222.100006
 30
0.0
 11
245.083771
 21
222.100006
 31
0.0
  0
LINE
  5
3E8
330
1F
100
AcDbEntity
  8
0
 62
     7
100
AcDbLine
 10
334.283752
 20
222.100006
 30
0.0
 11
334.083771
 21
222.100006
 31
0.0
  0
LINE
  5
3E9
330
1F
100
AcDbEntity
  8
0
 62
     7
100
AcDbLine
 10
337.530182
 20
222.100006
 30
0.0
 11
337.33017
 21
222.100006
 31
0.0
  0
LINE
  5
3EA
330
1F
100
AcDbEntity
  8
0
 62
     7
100
AcDbLine
 10
334.283752
 20
222.100006
 30
0.0
 11
337.33017
 21
222.100006
 31
0.0
  0
CIRCLE
  5
3EB
330
1F
100
AcDbEntity
  8
0
 62
     7
100
AcDbCircle
 10
306.806976
 20
234.650009
 30
0.0
 40
4.5
  0
LINE
  5
3EC
330
1F
100
AcDbEntity
  8
0
 62
     7
100
AcDbLine
 10
238.806976
 20
241.550003
 30
0.0
 11
238.806976
 21
243.550003
 31
0.0
  0
LINE
  5
3ED
330
1F
100
AcDbEntity
  8
0
 62
     7
100
AcDbLine
 10
238.806976
 20
244.050003
 30
0.0
 11
238.806976
 21
243.550003
 31
0.0
  0
LINE
  5
3EE
330
1F
100
AcDbEntity
  8
0
 62
     7
100
AcDbLine
 10
238.806976
 20
245.050003
 30
0.0
 11
238.806976
 21
244.050003
 31
0.0
  0
LINE
  5
3EF
330
1F
100
AcDbEntity
  8
0
 62
     7
100
AcDbLine
 10
335.306976
 20
243.050003
 30
0.0
 11
335.306976
 21
243.550003
 31
0.0
  0
LINE
  5
3F0
330
1F
100
AcDbEntity
  8
0
 62
     7
100
AcDbLine
 10
335.306976
 20
244.050003
 30
0.0
 11
335.306976
 21
243.550003
 31
0.0
  0
LINE
  5
3F1
330
1F
100
AcDbEntity
  8
0
 62
     7
100
AcDbLine
 10
335.306976
 20
245.050003
 30
0.0
 11
335.306976
 21
244.050003
 31
0.0
  0
ARC
  5
3F2
330
1F
100
AcDbEntity
  8
0
 62
     7
100
AcDbCircle
 10
240.806976
 20
241.550003
 30
0.0
 40
2.0
100
AcDbArc
 50
180.000009
 51
360.0
  0
LINE
  5
3F3
330
1F
100
AcDbEntity
  8
0
 62
     7
100
AcDbLine
 10
242.806976
 20
241.550003
 30
0.0
 11
242.806976
 21
243.050003
 31
0.0
  0
LINE
  5
3F4
330
1F
100
AcDbEntity
  8
0
 62
     7
100
AcDbLine
 10
243.306976
 20
243.050003
 30
0.0
 11
242.806976
 21
243.050003
 31
0.0
  0
LINE
  5
3F5
330
1F
100
AcDbEntity
  8
0
 62
     7
100
AcDbLine
 10
317.806976
 20
243.050003
 30
0.0
 11
317.306976
 21
243.050003
 31
0.0
  0
LINE
  5
3F6
330
1F
100
AcDbEntity
  8
0
 62
     7
100
AcDbLine
 10
317.806976
 20
241.550003
 30
0.0
 11
317.806976
 21
243.050003
 31
0.0
  0
ARC
  5
3F7
330
1F
100
AcDbEntity
  8
0
 62
     7
100
AcDbCircle
 10
319.806976
 20
241.550003
 30
0.0
 40
2.0
100
AcDbArc
 50
180.000009
 51
360.0
  0
LINE
  5
3F8
330
1F
100
AcDbEntity
  8
0
 62
     7
100
AcDbLine
 10
321.806976
 20
241.550003
 30
0.0
 11
321.806976
 21
243.050003
 31
0.0
  0
LINE
  5
3F9
330
1F
100
AcDbEntity
  8
0
 62
     7
100
AcDbLine
 10
322.306976
 20
243.050003
 30
0.0
 11
321.806976
 21
243.050003
 31
0.0
  0
LINE
  5
3FA
330
1F
100
AcDbEntity
  8
0
 62
     7
100
AcDbLine
 10
355.606964
 20
243.050003
 30
0.0
 11
355.606964
 21
243.150009
 31
0.0
  0
LINE
  5
3FB
330
1F
100
AcDbEntity
  8
0
 62
     7
100
AcDbLine
 10
348.756958
 20
221.850006
 30
0.0
 11
349.756958
 21
221.850006
 31
0.0
  0
LINE
  5
3FC
330
1F
100
AcDbEntity
  8
0
 62
     7
100
AcDbLine
 10
348.756958
 20
221.850006
 30
0.0
 11
337.33017
 21
221.850006
 31
0.0
  0
LINE
  5
3FD
330
1F
100
AcDbEntity
  8
0
 62
     7
100
AcDbLine
 10
334.283752
 20
221.850006
 30
0.0
 11
248.33017
 21
221.850006
 31
0.0
  0
LINE
  5
3FE
330
1F
100
AcDbEntity
  8
0
 62
     7
100
AcDbLine
 10
245.283752
 20
221.850006
 30
0.0
 11
233.856964
 21
221.850006
 31
0.0
  0
LINE
  5
3FF
330
1F
100
AcDbEntity
  8
0
 62
     7
100
AcDbLine
 10
232.856964
 20
221.850006
 30
0.0
 11
233.856964
 21
221.850006
 31
0.0
  0
LINE
  5
400
330
1F
100
AcDbEntity
  8
0
 62
     7
100
AcDbLine
 10
348.756958
 20
219.350006
 30
0.0
 11
233.856964
 21
219.350006
 31
0.0
  0
LINE
  5
401
330
1F
100
AcDbEntity
  8
0
 62
     7
100
AcDbLine
 10
335.306976
 20
244.050003
 30
0.0
 11
238.806976
 21
244.050003
 31
0.0
  0
CIRCLE
  5
402
330
1F
100
AcDbEntity
  8
0
 62
     7
100
AcDbCircle
 10
250.806976
 20
234.650009
 30
0.0
 40
4.0
  0
LINE
  5
403
330
1F
100
AcDbEntity
  8
0
 62
     7
100
AcDbLine
 10
232.856964
 20
219.350006
 30
0.0
 11
232.856964
 21
221.850006
 31
0.0
  0
LINE
  5
404
330
1F
100
AcDbEntity
  8
0
 62
     7
100
AcDbLine
 10
349.756958
 20
219.350006
 30
0.0
 11
349.756958
 21
221.850006
 31
0.0
  0
LINE
  5
405
330
1F
100
AcDbEntity
  8
0
 62
     7
100
AcDbLine
 10
348.756958
 20
219.350006
 30
0.0
 11
349.756958
 21
219.350006
 31
0.0
  0
LINE
  5
406
330
1F
100
AcDbEntity
  8
0
 62
     7
100
AcDbLine
 10
232.856964
 20
219.350006
 30
0.0
 11
233.856964
 21
219.350006
 31
0.0
  0
CIRCLE
  5
407
330
1F
100
AcDbEntity
  8
0
 62
     7
100
AcDbCircle
 10
306.806976
 20
234.650009
 30
0.0
 40
4.0
  0
CIRCLE
  5
408
330
1F
100
AcDbEntity
  8
0
 62
     7
100
AcDbCircle
 10
319.806976
 20
241.550003
 30
0.0
 40
1.475000023841858
  0
CIRCLE
  5
409
330
1F
100
AcDbEntity
  8
0
 62
     7
100
AcDbCircle
 10
240.806976
 20
241.550003
 30
0.0
 40
1.475000023841858
  0
CIRCLE
  5
40A
330
1F
100
AcDbEntity
  8
0
 62
     7
100
AcDbCircle
 10
250.806976
 20
234.650009
 30
0.0
 40
2.549999952316284
  0
CIRCLE
  5
40B
330
1F
100
AcDbEntity
  8
0
 62
     7
100
AcDbCircle
 10
306.806976
 20
234.650009
 30
0.0
 40
2.549999952316284
  0
LINE
  5
40C
330
1F
100
AcDbEntity
  8
0
 62
     7
100
AcDbLine
 10
319.606964
 20
242.650009
 30
0.0
 11
320.006958
 21
242.650009
 31
0.0
  0
LINE
  5
40D
330
1F
100
AcDbEntity
  8
0
 62
     7
100
AcDbLine
 10
319.606964
 20
242.650009
 30
0.0
 11
319.606964
 21
242.000015
 31
0.0
  0
ARC
  5
40E
330
1F
100
AcDbEntity
  8
0
 62
     7
100
AcDbCircle
 10
319.356964
 20
242.000015
 30
0.0
 40
0.25
100
AcDbArc
 50
269.999997
 51
360.0
  0
LINE
  5
40F
330
1F
100
AcDbEntity
  8
0
 62
     7
100
AcDbLine
 10
319.356964
 20
241.750015
 30
0.0
 11
318.70697
 21
241.750015
 31
0.0
  0
LINE
  5
410
330
1F
100
AcDbEntity
  8
0
 62
     7
100
AcDbLine
 10
318.70697
 20
241.750015
 30
0.0
 11
318.70697
 21
241.350006
 31
0.0
  0
LINE
  5
411
330
1F
100
AcDbEntity
  8
0
 62
     7
100
AcDbLine
 10
319.356964
 20
241.350006
 30
0.0
 11
318.70697
 21
241.350006
 31
0.0
  0
ARC
  5
412
330
1F
100
AcDbEntity
  8
0
 62
     7
100
AcDbCircle
 10
319.356964
 20
241.100006
 30
0.0
 40
0.25
100
AcDbArc
 50
0.0
 51
90.000003
  0
LINE
  5
413
330
1F
100
AcDbEntity
  8
0
 62
     7
100
AcDbLine
 10
319.606964
 20
240.449997
 30
0.0
 11
319.606964
 21
241.100006
 31
0.0
  0
LINE
  5
414
330
1F
100
AcDbEntity
  8
0
 62
     7
100
AcDbLine
 10
319.606964
 20
240.449997
 30
0.0
 11
320.006958
 21
240.449997
 31
0.0
  0
LINE
  5
415
330
1F
100
AcDbEntity
  8
0
 62
     7
100
AcDbLine
 10
320.006958
 20
240.449997
 30
0.0
 11
320.006958
 21
241.100006
 31
0.0
  0
ARC
  5
416
330
1F
100
AcDbEntity
  8
0
 62
     7
100
AcDbCircle
 10
320.256958
 20
241.100006
 30
0.0
 40
0.25
100
AcDbArc
 50
90.000003
 51
180.000009
  0
LINE
  5
417
330
1F
100
AcDbEntity
  8
0
 62
     7
100
AcDbLine
 10
320.256958
 20
241.350006
 30
0.0
 11
320.906982
 21
241.350006
 31
0.0
  0
LINE
  5
418
330
1F
100
AcDbEntity
  8
0
 62
     7
100
AcDbLine
 10
320.906982
 20
241.750015
 30
0.0
 11
320.906982
 21
241.350006
 31
0.0
  0
LINE
  5
419
330
1F
100
AcDbEntity
  8
0
 62
     7
100
AcDbLine
 10
320.256958
 20
241.750015
 30
0.0
 11
320.906982
 21
241.750015
 31
0.0
  0
ARC
  5
41A
330
1F
100
AcDbEntity
  8
0
 62
     7
100
AcDbCircle
 10
320.256958
 20
242.000015
 30
0.0
 40
0.25
100
AcDbArc
 50
180.000009
 51
269.999997
  0
LINE
  5
41B
330
1F
100
AcDbEntity
  8
0
 62
     7
100
AcDbLine
 10
320.006958
 20
242.650009
 30
0.0
 11
320.006958
 21
242.000015
 31
0.0
  0
LINE
  5
41C
330
1F
100
AcDbEntity
  8
0
 62
     7
100
AcDbLine
 10
240.606964
 20
242.650009
 30
0.0
 11
241.006958
 21
242.650009
 31
0.0
  0
LINE
  5
41D
330
1F
100
AcDbEntity
  8
0
 62
     7
100
AcDbLine
 10
240.606964
 20
242.650009
 30
0.0
 11
240.606964
 21
242.000015
 31
0.0
  0
ARC
  5
41E
330
1F
100
AcDbEntity
  8
0
 62
     7
100
AcDbCircle
 10
240.356964
 20
242.000015
 30
0.0
 40
0.25
100
AcDbArc
 50
269.999997
 51
360.0
  0
LINE
  5
41F
330
1F
100
AcDbEntity
  8
0
 62
     7
100
AcDbLine
 10
240.356964
 20
241.750015
 30
0.0
 11
239.70697
 21
241.750015
 31
0.0
  0
LINE
  5
420
330
1F
100
AcDbEntity
  8
0
 62
     7
100
AcDbLine
 10
239.70697
 20
241.750015
 30
0.0
 11
239.70697
 21
241.350006
 31
0.0
  0
LINE
  5
421
330
1F
100
AcDbEntity
  8
0
 62
     7
100
AcDbLine
 10
240.356964
 20
241.350006
 30
0.0
 11
239.70697
 21
241.350006
 31
0.0
  0
ARC
  5
422
330
1F
100
AcDbEntity
  8
0
 62
     7
100
AcDbCircle
 10
240.356964
 20
241.100006
 30
0.0
 40
0.25
100
AcDbArc
 50
0.0
 51
90.000003
  0
LINE
  5
423
330
1F
100
AcDbEntity
  8
0
 62
     7
100
AcDbLine
 10
240.606964
 20
240.449997
 30
0.0
 11
240.606964
 21
241.100006
 31
0.0
  0
LINE
  5
424
330
1F
100
AcDbEntity
  8
0
 62
     7
100
AcDbLine
 10
240.606964
 20
240.449997
 30
0.0
 11
241.006958
 21
240.449997
 31
0.0
  0
LINE
  5
425
330
1F
100
AcDbEntity
  8
0
 62
     7
100
AcDbLine
 10
241.006958
 20
240.449997
 30
0.0
 11
241.006958
 21
241.100006
 31
0.0
  0
ARC
  5
426
330
1F
100
AcDbEntity
  8
0
 62
     7
100
AcDbCircle
 10
241.256958
 20
241.100006
 30
0.0
 40
0.25
100
AcDbArc
 50
90.000003
 51
180.000009
  0
LINE
  5
427
330
1F
100
AcDbEntity
  8
0
 62
     7
100
AcDbLine
 10
241.256958
 20
241.350006
 30
0.0
 11
241.906982
 21
241.350006
 31
0.0
  0
LINE
  5
428
330
1F
100
AcDbEntity
  8
0
 62
     7
100
AcDbLine
 10
241.906982
 20
241.750015
 30
0.0
 11
241.906982
 21
241.350006
 31
0.0
  0
LINE
  5
429
330
1F
100
AcDbEntity
  8
0
 62
     7
100
AcDbLine
 10
241.256958
 20
241.750015
 30
0.0
 11
241.906982
 21
241.750015
 31
0.0
  0
ARC
  5
42A
330
1F
100
AcDbEntity
  8
0
 62
     7
100
AcDbCircle
 10
241.256958
 20
242.000015
 30
0.0
 40
0.25
100
AcDbArc
 50
180.000009
 51
269.999997
  0
LINE
  5
42B
330
1F
100
AcDbEntity
  8
0
 62
     7
100
AcDbLine
 10
241.006958
 20
242.650009
 30
0.0
 11
241.006958
 21
242.000015
 31
0.0
  0
LINE
  5
42C
330
1F
100
AcDbEntity
  8
0
 62
     7
100
AcDbLine
 10
280.456818
 20
237.107986
 30
0.0
 11
278.994446
 21
241.045227
 31
0.0
  0
ARC
  5
42D
330
1F
100
AcDbEntity
  8
0
 62
     7
100
AcDbCircle
 10
280.269348
 20
237.038345
 30
0.0
 40
0.2000000029802322
100
AcDbArc
 50
269.999997
 51
20.376
  0
LINE
  5
42E
330
1F
100
AcDbEntity
  8
0
 62
     7
100
AcDbLine
 10
277.344604
 20
236.838364
 30
0.0
 11
280.269348
 21
236.838364
 31
0.0
  0
ARC
  5
42F
330
1F
100
AcDbEntity
  8
0
 62
     7
100
AcDbCircle
 10
277.344604
 20
237.038345
 30
0.0
 40
0.2000000029802322
100
AcDbArc
 50
159.624007
 51
269.999997
  0
LINE
  5
430
330
1F
100
AcDbEntity
  8
0
 62
     7
100
AcDbLine
 10
278.619476
 20
241.045227
 30
0.0
 11
277.157104
 21
237.107986
 31
0.0
  0
ARC
  5
431
330
1F
100
AcDbEntity
  8
0
 62
     7
100
AcDbCircle
 10
278.806976
 20
240.975586
 30
0.0
 40
0.2000000029802322
100
AcDbArc
 50
20.376
 51
159.624007
  0
LINE
  5
432
330
1F
100
AcDbEntity
  8
0
 62
     7
100
AcDbLine
 10
226.70697
 20
243.150009
 30
0.0
 11
227.006958
 21
243.150009
 31
0.0
  0
LINE
  5
433
330
1F
100
AcDbEntity
  8
0
 62
     7
100
AcDbLine
 10
228.255737
 20
242.575623
 30
0.0
 11
228.281342
 21
242.601242
 31
0.0
  0
POLYLINE
  5
434
330
1F
100
AcDbEntity
  8
0
 62
     7
100
AcDb2dPolyline
 66
     1
 10
0.0
 20
0.0
 30
0.0
  0
VERTEX
  5
435
330
434
100
AcDbEntity
  8
0
100
AcDbVertex
100
AcDb2dVertex
 10
243.493805
 20
242.582932
 30
0.0
  0
VERTEX
  5
436
330
434
100
AcDbEntity
  8
0
100
AcDbVertex
100
AcDb2dVertex
 10
243.497009
 20
242.573135
 30
0.0
  0
VERTEX
  5
437
330
434
100
AcDbEntity
  8
0
100
AcDbVertex
100
AcDb2dVertex
 10
243.50412
 20
242.556992
 30
0.0
  0
VERTEX
  5
438
330
434
100
AcDbEntity
  8
0
100
AcDbVertex
100
AcDb2dVertex
 10
243.507416
 20
242.550522
 30
0.0
  0
VERTEX
  5
439
330
434
100
AcDbEntity
  8
0
100
AcDbVertex
100
AcDb2dVertex
 10
243.508057
 20
242.549057
 30
0.0
  0
VERTEX
  5
43A
330
434
100
AcDbEntity
  8
0
100
AcDbVertex
100
AcDb2dVertex
 10
243.490906
 20
242.570541
 30
0.0
  0
VERTEX
  5
43B
330
434
100
AcDbEntity
  8
0
100
AcDbVertex
100
AcDb2dVertex
 10
243.487396
 20
242.575699
 30
0.0
  0
VERTEX
  5
43C
330
434
100
AcDbEntity
  8
0
100
AcDbVertex
100
AcDb2dVertex
 10
243.489197
 20
242.574448
 30
0.0
  0
VERTEX
  5
43D
330
434
100
AcDbEntity
  8
0
100
AcDbVertex
100
AcDb2dVertex
 10
243.497955
 20
242.564194
 30
0.0
  0
VERTEX
  5
43E
330
434
100
AcDbEntity
  8
0
100
AcDbVertex
100
AcDb2dVertex
 10
243.506531
 20
242.552368
 30
0.0
  0
VERTEX
  5
43F
330
434
100
AcDbEntity
  8
0
100
AcDbVertex
100
AcDb2dVertex
 10
243.507294
 20
242.550735
 30
0.0
  0
VERTEX
  5
440
330
434
100
AcDbEntity
  8
0
100
AcDbVertex
100
AcDb2dVertex
 10
243.507202
 20
242.549545
 30
0.0
  0
VERTEX
  5
441
330
434
100
AcDbEntity
  8
0
100
AcDbVertex
100
AcDb2dVertex
 10
243.504608
 20
242.550446
 30
0.0
  0
VERTEX
  5
442
330
434
100
AcDbEntity
  8
0
100
AcDbVertex
100
AcDb2dVertex
 10
243.492767
 20
242.559006
 30
0.0
  0
VERTEX
  5
443
330
434
100
AcDbEntity
  8
0
100
AcDbVertex
100
AcDb2dVertex
 10
243.482544
 20
242.567764
 30
0.0
  0
VERTEX
  5
444
330
434
100
AcDbEntity
  8
0
100
AcDbVertex
100
AcDb2dVertex
 10
243.480896
 20
242.569382
 30
0.0
  0
VERTEX
  5
445
330
434
100
AcDbEntity
  8
0
100
AcDbVertex
100
AcDb2dVertex
 10
243.48642
 20
242.566055
 30
0.0
  0
VERTEX
  5
446
330
434
100
AcDbEntity
  8
0
100
AcDbVertex
100
AcDb2dVertex
 10
243.507446
 20
242.549728
 30
0.0
  0
VERTEX
  5
447
330
434
100
AcDbEntity
  8
0
100
AcDbVertex
100
AcDb2dVertex
 10
243.508148
 20
242.548935
 30
0.0
  0
VERTEX
  5
448
330
434
100
AcDbEntity
  8
0
100
AcDbVertex
100
AcDb2dVertex
 10
243.506439
 20
242.549576
 30
0.0
  0
VERTEX
  5
449
330
434
100
AcDbEntity
  8
0
100
AcDbVertex
100
AcDb2dVertex
 10
243.499969
 20
242.552841
 30
0.0
  0
VERTEX
  5
44A
330
434
100
AcDbEntity
  8
0
100
AcDbVertex
100
AcDb2dVertex
 10
243.483826
 20
242.559982
 30
0.0
  0
VERTEX
  5
44B
330
434
100
AcDbEntity
  8
0
100
AcDbVertex
100
AcDb2dVertex
 10
243.47406
 20
242.563171
 30
0.0
  0
SEQEND
  5
44C
330
434
100
AcDbEntity
  8
0
 62
     7
  0
POLYLINE
  5
44D
330
1F
100
AcDbEntity
  8
0
 62
     7
100
AcDb2dPolyline
 66
     1
 10
0.0
 20
0.0
 30
0.0
  0
VERTEX
  5
44E
330
44D
100
AcDbEntity
  8
0
100
AcDbVertex
100
AcDb2dVertex
 10
322.493805
 20
242.582932
 30
0.0
  0
VERTEX
  5
44F
330
44D
100
AcDbEntity
  8
0
100
AcDbVertex
100
AcDb2dVertex
 10
322.497009
 20
242.573135
 30
0.0
  0
VERTEX
  5
450
330
44D
100
AcDbEntity
  8
0
100
AcDbVertex
100
AcDb2dVertex
 10
322.50412
 20
242.556992
 30
0.0
  0
VERTEX
  5
451
330
44D
100
AcDbEntity
  8
0
100
AcDbVertex
100
AcDb2dVertex
 10
322.507416
 20
242.550522
 30
0.0
  0
VERTEX
  5
452
330
44D
100
AcDbEntity
  8
0
100
AcDbVertex
100
AcDb2dVertex
 10
322.508057
 20
242.549057
 30
0.0
  0
VERTEX
  5
453
330
44D
100
AcDbEntity
  8
0
100
AcDbVertex
100
AcDb2dVertex
 10
322.490906
 20
242.570541
 30
0.0
  0
VERTEX
  5
454
330
44D
100
AcDbEntity
  8
0
100
AcDbVertex
100
AcDb2dVertex
 10
322.487396
 20
242.575699
 30
0.0
  0
VERTEX
  5
455
330
44D
100
AcDbEntity
  8
0
100
AcDbVertex
100
AcDb2dVertex
 10
322.489227
 20
242.574448
 30
0.0
  0
VERTEX
  5
456
330
44D
100
AcDbEntity
  8
0
100
AcDbVertex
100
AcDb2dVertex
 10
322.497955
 20
242.564194
 30
0.0
  0
VERTEX
  5
457
330
44D
100
AcDbEntity
  8
0
100
AcDbVertex
100
AcDb2dVertex
 10
322.506531
 20
242.552368
 30
0.0
  0
VERTEX
  5
458
330
44D
100
AcDbEntity
  8
0
100
AcDbVertex
100
AcDb2dVertex
 10
322.507324
 20
242.550735
 30
0.0
  0
VERTEX
  5
459
330
44D
100
AcDbEntity
  8
0
100
AcDbVertex
100
AcDb2dVertex
 10
322.507233
 20
242.549545
 30
0.0
  0
VERTEX
  5
45A
330
44D
100
AcDbEntity
  8
0
100
AcDbVertex
100
AcDb2dVertex
 10
322.506226
 20
242.549667
 30
0.0
  0
VERTEX
  5
45B
330
44D
100
AcDbEntity
  8
0
100
AcDbVertex
100
AcDb2dVertex
 10
322.504608
 20
242.550446
 30
0.0
  0
VERTEX
  5
45C
330
44D
100
AcDbEntity
  8
0
100
AcDbVertex
100
AcDb2dVertex
 10
322.492798
 20
242.559006
 30
0.0
  0
VERTEX
  5
45D
330
44D
100
AcDbEntity
  8
0
100
AcDbVertex
100
AcDb2dVertex
 10
322.482544
 20
242.567764
 30
0.0
  0
VERTEX
  5
45E
330
44D
100
AcDbEntity
  8
0
100
AcDbVertex
100
AcDb2dVertex
 10
322.480927
 20
242.569382
 30
0.0
  0
VERTEX
  5
45F
330
44D
100
AcDbEntity
  8
0
100
AcDbVertex
100
AcDb2dVertex
 10
322.48642
 20
242.566055
 30
0.0
  0
VERTEX
  5
460
330
44D
100
AcDbEntity
  8
0
100
AcDbVertex
100
AcDb2dVertex
 10
322.507477
 20
242.549728
 30
0.0
  0
VERTEX
  5
461
330
44D
100
AcDbEntity
  8
0
100
AcDbVertex
100
AcDb2dVertex
 10
322.508148
 20
242.548935
 30
0.0
  0
VERTEX
  5
462
330
44D
100
AcDbEntity
  8
0
100
AcDbVertex
100
AcDb2dVertex
 10
322.50647
 20
242.549576
 30
0.0
  0
VERTEX
  5
463
330
44D
100
AcDbEntity
  8
0
100
AcDbVertex
100
AcDb2dVertex
 10
322.499969
 20
242.552841
 30
0.0
  0
VERTEX
  5
464
330
44D
100
AcDbEntity
  8
0
100
AcDbVertex
100
AcDb2dVertex
 10
322.483826
 20
242.559982
 30
0.0
  0
VERTEX
  5
465
330
44D
100
AcDbEntity
  8
0
100
AcDbVertex
100
AcDb2dVertex
 10
322.47406
 20
242.563171
 30
0.0
  0
SEQEND
  5
466
330
44D
100
AcDbEntity
  8
0
 62
     7
  0
LINE
  5
467
330
1F
100
AcDbEntity
  8
0
 62
     7
100
AcDbLine
 10
337.255737
 20
242.575623
 30
0.0
 11
337.281342
 21
242.601242
 31
0.0
  0
LINE
  5
468
330
1F
100
AcDbEntity
  8
0
 62
     7
100
AcDbLine
 10
248.443573
 20
222.250015
 30
0.0
 11
248.530182
 21
222.100006
 31
0.0
  0
LINE
  5
469
330
1F
100
AcDbEntity
  8
0
 62
     7
100
AcDbLine
 10
245.17038
 20
222.250015
 30
0.0
 11
245.083771
 21
222.100006
 31
0.0
  0
LINE
  5
46A
330
1F
100
AcDbEntity
  8
0
 62
     7
100
AcDbLine
 10
334.17038
 20
222.250015
 30
0.0
 11
334.083771
 21
222.100006
 31
0.0
  0
LINE
  5
46B
330
1F
100
AcDbEntity
  8
0
 62
     7
100
AcDbLine
 10
337.443573
 20
222.250015
 30
0.0
 11
337.530182
 21
222.100006
 31
0.0
  0
LINE
  5
46C
330
1F
100
AcDbEntity
  8
0
 62
     7
100
AcDbLine
 10
248.530182
 20
221.850006
 30
0.0
 11
248.530182
 21
222.100006
 31
0.0
  0
LINE
  5
46D
330
1F
100
AcDbEntity
  8
0
 62
     7
100
AcDbLine
 10
245.083771
 20
221.850006
 30
0.0
 11
245.083771
 21
222.100006
 31
0.0
  0
LINE
  5
46E
330
1F
100
AcDbEntity
  8
0
 62
     7
100
AcDbLine
 10
334.083771
 20
222.100006
 30
0.0
 11
334.083771
 21
221.850006
 31
0.0
  0
LINE
  5
46F
330
1F
100
AcDbEntity
  8
0
 62
     7
100
AcDbLine
 10
337.530182
 20
222.100006
 30
0.0
 11
337.530182
 21
221.850006
 31
0.0
  0
LINE
  5
470
330
1F
100
AcDbEntity
  8
0
 62
     7
100
AcDbLine
 10
355.606964
 20
243.150009
 30
0.0
 11
355.906982
 21
243.150009
 31
0.0
  0
LINE
  5
471
330
1F
100
AcDbEntity
  8
0
 62
     7
100
AcDbLine
 10
116.806976
 20
143.150009
 30
0.0
 11
113.406967
 21
143.150009
 31
0.0
  0
LINE
  5
472
330
1F
100
AcDbEntity
  8
0
 62
     7
100
AcDbLine
 10
120.20697
 20
143.150009
 30
0.0
 11
116.806976
 21
143.150009
 31
0.0
  0
LINE
  5
473
330
1F
100
AcDbEntity
  8
0
 62
     7
100
AcDbLine
 10
195.20697
 20
224.750031
 30
0.0
 11
195.20697
 21
224.600006
 31
0.0
  0
LINE
  5
474
330
1F
100
AcDbEntity
  8
0
 62
     7
100
AcDbLine
 10
193.006958
 20
224.750031
 30
0.0
 11
193.006958
 21
224.600006
 31
0.0
  0
LINE
  5
475
330
1F
100
AcDbEntity
  8
0
 62
     7
100
AcDbLine
 10
190.806976
 20
224.743027
 30
0.0
 11
190.806976
 21
224.600006
 31
0.0
  0
LINE
  5
476
330
1F
100
AcDbEntity
  8
0
 62
     7
100
AcDbLine
 10
196.20697
 20
232.285614
 30
0.0
 11
196.20697
 21
232.862503
 31
0.0
  0
LINE
  5
477
330
1F
100
AcDbEntity
  8
0
 62
     7
100
AcDbLine
 10
196.20697
 20
229.150009
 30
0.0
 11
196.20697
 21
232.285614
 31
0.0
  0
LINE
  5
478
330
1F
100
AcDbEntity
  8
0
 62
     7
100
AcDbLine
 10
195.20697
 20
229.150009
 30
0.0
 11
196.20697
 21
229.150009
 31
0.0
  0
LINE
  5
479
330
1F
100
AcDbEntity
  8
0
 62
     7
100
AcDbLine
 10
195.20697
 20
232.230759
 30
0.0
 11
195.20697
 21
229.150009
 31
0.0
  0
LINE
  5
47A
330
1F
100
AcDbEntity
  8
0
 62
     7
100
AcDbLine
 10
195.20697
 20
232.800003
 30
0.0
 11
195.20697
 21
232.230759
 31
0.0
  0
LINE
  5
47B
330
1F
100
AcDbEntity
  8
0
 62
     7
100
AcDbLine
 10
194.006958
 20
232.164948
 30
0.0
 11
194.006958
 21
232.725006
 31
0.0
  0
LINE
  5
47C
330
1F
100
AcDbEntity
  8
0
 62
     7
100
AcDbLine
 10
194.006958
 20
229.150009
 30
0.0
 11
194.006958
 21
232.164948
 31
0.0
  0
LINE
  5
47D
330
1F
100
AcDbEntity
  8
0
 62
     7
100
AcDbLine
 10
193.006958
 20
229.150009
 30
0.0
 11
194.006958
 21
229.150009
 31
0.0
  0
LINE
  5
47E
330
1F
100
AcDbEntity
  8
0
 62
     7
100
AcDbLine
 10
193.006958
 20
232.110092
 30
0.0
 11
193.006958
 21
229.150009
 31
0.0
  0
LINE
  5
47F
330
1F
100
AcDbEntity
  8
0
 62
     7
100
AcDbLine
 10
193.006958
 20
232.662506
 30
0.0
 11
193.006958
 21
232.110092
 31
0.0
  0
LINE
  5
480
330
1F
100
AcDbEntity
  8
0
 62
     7
100
AcDbLine
 10
191.806976
 20
232.044281
 30
0.0
 11
191.806976
 21
232.587509
 31
0.0
  0
LINE
  5
481
330
1F
100
AcDbEntity
  8
0
 62
     7
100
AcDbLine
 10
191.806976
 20
229.150009
 30
0.0
 11
191.806976
 21
232.044281
 31
0.0
  0
LINE
  5
482
330
1F
100
AcDbEntity
  8
0
 62
     7
100
AcDbLine
 10
190.806976
 20
229.150009
 30
0.0
 11
191.806976
 21
229.150009
 31
0.0
  0
LINE
  5
483
330
1F
100
AcDbEntity
  8
0
 62
     7
100
AcDbLine
 10
190.806976
 20
231.989426
 30
0.0
 11
190.806976
 21
229.150009
 31
0.0
  0
LINE
  5
484
330
1F
100
AcDbEntity
  8
0
 62
     7
100
AcDbLine
 10
190.806976
 20
232.525009
 30
0.0
 11
190.806976
 21
231.989426
 31
0.0
  0
LINE
  5
485
330
1F
100
AcDbEntity
  8
0
 62
     7
100
AcDbLine
 10
188.806976
 20
223.900009
 30
0.0
 11
188.806976
 21
231.87973
 31
0.0
  0
LINE
  5
486
330
1F
100
AcDbEntity
  8
0
 62
     7
100
AcDbLine
 10
188.806976
 20
231.87973
 30
0.0
 11
188.806976
 21
232.400009
 31
0.0
  0
LINE
  5
487
330
1F
100
AcDbEntity
  8
0
 62
     7
100
AcDbLine
 10
190.806976
 20
227.150009
 30
0.0
 11
190.806976
 21
223.775009
 31
0.0
  0
LINE
  5
488
330
1F
100
AcDbEntity
  8
0
 62
     7
100
AcDbLine
 10
190.806976
 20
227.150009
 30
0.0
 11
191.806976
 21
227.150009
 31
0.0
  0
LINE
  5
489
330
1F
100
AcDbEntity
  8
0
 62
     7
100
AcDbLine
 10
191.806976
 20
223.712509
 30
0.0
 11
191.806976
 21
227.150009
 31
0.0
  0
LINE
  5
48A
330
1F
100
AcDbEntity
  8
0
 62
     7
100
AcDbLine
 10
193.006958
 20
227.150009
 30
0.0
 11
193.006958
 21
223.637497
 31
0.0
  0
LINE
  5
48B
330
1F
100
AcDbEntity
  8
0
 62
     7
100
AcDbLine
 10
193.006958
 20
227.150009
 30
0.0
 11
194.006958
 21
227.150009
 31
0.0
  0
LINE
  5
48C
330
1F
100
AcDbEntity
  8
0
 62
     7
100
AcDbLine
 10
194.006958
 20
223.574997
 30
0.0
 11
194.006958
 21
227.150009
 31
0.0
  0
LINE
  5
48D
330
1F
100
AcDbEntity
  8
0
 62
     7
100
AcDbLine
 10
195.20697
 20
227.150009
 30
0.0
 11
195.20697
 21
223.500015
 31
0.0
  0
LINE
  5
48E
330
1F
100
AcDbEntity
  8
0
 62
     7
100
AcDbLine
 10
195.20697
 20
227.150009
 30
0.0
 11
196.20697
 21
227.150009
 31
0.0
  0
LINE
  5
48F
330
1F
100
AcDbEntity
  8
0
 62
     7
100
AcDbLine
 10
196.20697
 20
223.437515
 30
0.0
 11
196.20697
 21
227.150009
 31
0.0
  0
LINE
  5
490
330
1F
100
AcDbEntity
  8
0
 62
     7
100
AcDbLine
 10
200.806976
 20
232.537918
 30
0.0
 11
200.806976
 21
233.150009
 31
0.0
  0
LINE
  5
491
330
1F
100
AcDbEntity
  8
0
 62
     7
100
AcDbLine
 10
200.806976
 20
223.150009
 30
0.0
 11
200.806976
 21
232.537918
 31
0.0
  0
LINE
  5
492
330
1F
100
AcDbEntity
  8
0
 62
     7
100
AcDbLine
 10
201.806976
 20
232.801193
 30
0.0
 11
201.806976
 21
233.449997
 31
0.0
  0
LINE
  5
493
330
1F
100
AcDbEntity
  8
0
 62
     7
100
AcDbLine
 10
201.806976
 20
222.850006
 30
0.0
 11
201.806976
 21
232.801193
 31
0.0
  0
LINE
  5
494
330
1F
100
AcDbEntity
  8
0
 62
     7
100
AcDbLine
 10
223.806976
 20
229.780563
 30
0.0
 11
223.806976
 21
232.604782
 31
0.0
  0
LINE
  5
495
330
1F
100
AcDbEntity
  8
0
 62
     7
100
AcDbLine
 10
223.806976
 20
234.235336
 30
0.0
 11
223.806976
 21
234.449997
 31
0.0
  0
LINE
  5
496
330
1F
100
AcDbEntity
  8
0
 62
     7
100
AcDbLine
 10
213.806976
 20
229.780563
 30
0.0
 11
223.806976
 21
229.780563
 31
0.0
  0
LINE
  5
497
330
1F
100
AcDbEntity
  8
0
 62
     7
100
AcDbLine
 10
213.806976
 20
229.780563
 30
0.0
 11
213.806976
 21
226.519455
 31
0.0
  0
LINE
  5
498
330
1F
100
AcDbEntity
  8
0
 62
     7
100
AcDbLine
 10
213.806976
 20
226.519455
 30
0.0
 11
223.806976
 21
226.519455
 31
0.0
  0
LINE
  5
499
330
1F
100
AcDbEntity
  8
0
 62
     7
100
AcDbLine
 10
223.806976
 20
223.695236
 30
0.0
 11
223.806976
 21
226.519455
 31
0.0
  0
LINE
  5
49A
330
1F
100
AcDbEntity
  8
0
 62
     7
100
AcDbLine
 10
213.806976
 20
223.695236
 30
0.0
 11
213.806976
 21
222.064682
 31
0.0
  0
LINE
  5
49B
330
1F
100
AcDbEntity
  8
0
 62
     7
100
AcDbLine
 10
213.806976
 20
222.064682
 30
0.0
 11
223.806976
 21
222.064682
 31
0.0
  0
LINE
  5
49C
330
1F
100
AcDbEntity
  8
0
 62
     7
100
AcDbLine
 10
223.806976
 20
221.850006
 30
0.0
 11
223.806976
 21
222.064682
 31
0.0
  0
LINE
  5
49D
330
1F
100
AcDbEntity
  8
0
 62
     7
100
AcDbLine
 10
213.806976
 20
234.235336
 30
0.0
 11
213.806976
 21
232.604782
 31
0.0
  0
LINE
  5
49E
330
1F
100
AcDbEntity
  8
0
 62
     7
100
AcDbLine
 10
213.806976
 20
234.235336
 30
0.0
 11
223.806976
 21
234.235336
 31
0.0
  0
LINE
  5
49F
330
1F
100
AcDbEntity
  8
0
 62
     7
100
AcDbLine
 10
223.806976
 20
232.604782
 30
0.0
 11
223.306976
 21
232.752426
 31
0.0
  0
LINE
  5
4A0
330
1F
100
AcDbEntity
  8
0
 62
     7
100
AcDbLine
 10
223.306976
 20
230.183929
 30
0.0
 11
223.306976
 21
232.752426
 31
0.0
  0
LINE
  5
4A1
330
1F
100
AcDbEntity
  8
0
 62
     7
100
AcDbLine
 10
223.806976
 20
229.780563
 30
0.0
 11
223.306976
 21
230.183929
 31
0.0
  0
LINE
  5
4A2
330
1F
100
AcDbEntity
  8
0
 62
     7
100
AcDbLine
 10
223.306976
 20
234.786346
 30
0.0
 11
223.306976
 21
234.949997
 31
0.0
  0
ARC
  5
4A3
330
1F
100
AcDbEntity
  8
0
 62
     7
100
AcDbCircle
 10
175.496216
 20
190.896103
 30
0.0
 40
64.901611328125
100
AcDbArc
 50
41.895052
 51
42.551911
  0
LINE
  5
4A4
330
1F
100
AcDbEntity
  8
0
 62
     7
100
AcDbLine
 10
214.306976
 20
230.183929
 30
0.0
 11
223.306976
 21
230.183929
 31
0.0
  0
LINE
  5
4A5
330
1F
100
AcDbEntity
  8
0
 62
     7
100
AcDbLine
 10
213.806976
 20
229.780563
 30
0.0
 11
214.306976
 21
230.183929
 31
0.0
  0
LINE
  5
4A6
330
1F
100
AcDbEntity
  8
0
 62
     7
100
AcDbLine
 10
213.806976
 20
226.519455
 30
0.0
 11
213.806976
 21
226.22908
 31
0.0
  0
LINE
  5
4A7
330
1F
100
AcDbEntity
  8
0
 62
     7
100
AcDbLine
 10
213.806976
 20
229.780563
 30
0.0
 11
213.806976
 21
230.070938
 31
0.0
  0
LINE
  5
4A8
330
1F
100
AcDbEntity
  8
0
 62
     7
100
AcDbLine
 10
213.806976
 20
226.519455
 30
0.0
 11
214.306976
 21
226.116089
 31
0.0
  0
LINE
  5
4A9
330
1F
100
AcDbEntity
  8
0
 62
     7
100
AcDbLine
 10
214.306976
 20
226.116089
 30
0.0
 11
223.306976
 21
226.116089
 31
0.0
  0
LINE
  5
4AA
330
1F
100
AcDbEntity
  8
0
 62
     7
100
AcDbLine
 10
223.806976
 20
226.519455
 30
0.0
 11
223.306976
 21
226.116089
 31
0.0
  0
LINE
  5
4AB
330
1F
100
AcDbEntity
  8
0
 62
     7
100
AcDbLine
 10
223.306976
 20
223.547592
 30
0.0
 11
223.306976
 21
226.116089
 31
0.0
  0
LINE
  5
4AC
330
1F
100
AcDbEntity
  8
0
 62
     7
100
AcDbLine
 10
223.806976
 20
223.695236
 30
0.0
 11
223.306976
 21
223.547592
 31
0.0
  0
LINE
  5
4AD
330
1F
100
AcDbEntity
  8
0
 62
     7
100
AcDbLine
 10
214.306976
 20
223.547592
 30
0.0
 11
223.306976
 21
223.547592
 31
0.0
  0
LINE
  5
4AE
330
1F
100
AcDbEntity
  8
0
 62
     7
100
AcDbLine
 10
213.806976
 20
223.695236
 30
0.0
 11
214.306976
 21
223.547592
 31
0.0
  0
LINE
  5
4AF
330
1F
100
AcDbEntity
  8
0
 62
     7
100
AcDbLine
 10
213.806976
 20
222.064682
 30
0.0
 11
213.806976
 21
221.993393
 31
0.0
  0
LINE
  5
4B0
330
1F
100
AcDbEntity
  8
0
 62
     7
100
AcDbLine
 10
213.806976
 20
223.914322
 30
0.0
 11
213.806976
 21
223.695236
 31
0.0
  0
ARC
  5
4B1
330
1F
100
AcDbEntity
  8
0
 62
     7
100
AcDbCircle
 10
262.117706
 20
265.40387
 30
0.0
 40
64.901611328125
100
AcDbArc
 50
221.89505
 51
222.55191
  0
LINE
  5
4B2
330
1F
100
AcDbEntity
  8
0
 62
     7
100
AcDbLine
 10
214.306976
 20
221.513672
 30
0.0
 11
223.306976
 21
221.513672
 31
0.0
  0
ARC
  5
4B3
330
1F
100
AcDbEntity
  8
0
 62
     7
100
AcDbCircle
 10
175.496216
 20
265.40387
 30
0.0
 40
64.901611328125
100
AcDbArc
 50
317.448096
 51
318.104941
  0
LINE
  5
4B4
330
1F
100
AcDbEntity
  8
0
 62
     7
100
AcDbLine
 10
223.306976
 20
221.350006
 30
0.0
 11
223.306976
 21
221.513672
 31
0.0
  0
LINE
  5
4B5
330
1F
100
AcDbEntity
  8
0
 62
     7
100
AcDbLine
 10
213.806976
 20
232.385696
 30
0.0
 11
213.806976
 21
232.604782
 31
0.0
  0
LINE
  5
4B6
330
1F
100
AcDbEntity
  8
0
 62
     7
100
AcDbLine
 10
213.806976
 20
234.306625
 30
0.0
 11
213.806976
 21
234.235336
 31
0.0
  0
LINE
  5
4B7
330
1F
100
AcDbEntity
  8
0
 62
     7
100
AcDbLine
 10
213.806976
 20
232.604782
 30
0.0
 11
214.306976
 21
232.752426
 31
0.0
  0
LINE
  5
4B8
330
1F
100
AcDbEntity
  8
0
 62
     7
100
AcDbLine
 10
214.306976
 20
232.752426
 30
0.0
 11
223.306976
 21
232.752426
 31
0.0
  0
LINE
  5
4B9
330
1F
100
AcDbEntity
  8
0
 62
     7
100
AcDbLine
 10
214.306976
 20
234.786346
 30
0.0
 11
223.306976
 21
234.786346
 31
0.0
  0
ARC
  5
4BA
330
1F
100
AcDbEntity
  8
0
 62
     7
100
AcDbCircle
 10
262.117706
 20
190.896103
 30
0.0
 40
64.901611328125
100
AcDbArc
 50
137.44809
 51
138.10495
  0
LINE
  5
4BB
330
1F
100
AcDbEntity
  8
0
 62
     7
100
AcDbLine
 10
214.306976
 20
230.183929
 30
0.0
 11
214.306976
 21
232.752426
 31
0.0
  0
LINE
  5
4BC
330
1F
100
AcDbEntity
  8
0
 62
     7
100
AcDbLine
 10
213.806976
 20
234.306625
 30
0.0
 11
213.806976
 21
234.449997
 31
0.0
  0
LINE
  5
4BD
330
1F
100
AcDbEntity
  8
0
 62
     7
100
AcDbLine
 10
214.306976
 20
234.786346
 30
0.0
 11
214.306976
 21
234.949997
 31
0.0
  0
LINE
  5
4BE
330
1F
100
AcDbEntity
  8
0
 62
     7
100
AcDbLine
 10
213.806976
 20
230.070938
 30
0.0
 11
213.806976
 21
232.385696
 31
0.0
  0
LINE
  5
4BF
330
1F
100
AcDbEntity
  8
0
 62
     7
100
AcDbLine
 10
213.806976
 20
223.914322
 30
0.0
 11
213.806976
 21
226.22908
 31
0.0
  0
LINE
  5
4C0
330
1F
100
AcDbEntity
  8
0
 62
     7
100
AcDbLine
 10
214.306976
 20
223.547592
 30
0.0
 11
214.306976
 21
226.116089
 31
0.0
  0
LINE
  5
4C1
330
1F
100
AcDbEntity
  8
0
 62
     7
100
AcDbLine
 10
207.038147
 20
230.070938
 30
0.0
 11
213.806976
 21
230.070938
 31
0.0
  0
LINE
  5
4C2
330
1F
100
AcDbEntity
  8
0
 62
     7
100
AcDbLine
 10
207.038147
 20
226.22908
 30
0.0
 11
213.806976
 21
226.22908
 31
0.0
  0
ARC
  5
4C3
330
1F
100
AcDbEntity
  8
0
 62
     7
100
AcDbCircle
 10
217.364471
 20
228.150009
 30
0.0
 40
10.50419235229492
100
AcDbArc
 50
169.462089
 51
190.537884
  0
LINE
  5
4C4
330
1F
100
AcDbEntity
  8
0
 62
     7
100
AcDbLine
 10
207.038147
 20
223.914322
 30
0.0
 11
213.806976
 21
223.914322
 31
0.0
  0
LINE
  5
4C5
330
1F
100
AcDbEntity
  8
0
 62
     7
100
AcDbLine
 10
207.038147
 20
221.993393
 30
0.0
 11
213.806976
 21
221.993393
 31
0.0
  0
ARC
  5
4C6
330
1F
100
AcDbEntity
  8
0
 62
     7
100
AcDbCircle
 10
209.552551
 20
222.953857
 30
0.0
 40
2.691781044006348
100
AcDbArc
 50
159.093943
 51
200.906016
  0
LINE
  5
4C7
330
1F
100
AcDbEntity
  8
0
 62
     7
100
AcDbLine
 10
213.806976
 20
221.850006
 30
0.0
 11
213.806976
 21
221.993393
 31
0.0
  0
LINE
  5
4C8
330
1F
100
AcDbEntity
  8
0
 62
     7
100
AcDbLine
 10
214.306976
 20
221.350006
 30
0.0
 11
214.306976
 21
221.513672
 31
0.0
  0
LINE
  5
4C9
330
1F
100
AcDbEntity
  8
0
 62
     7
100
AcDbLine
 10
207.038147
 20
234.306625
 30
0.0
 11
213.806976
 21
234.306625
 31
0.0
  0
LINE
  5
4CA
330
1F
100
AcDbEntity
  8
0
 62
     7
100
AcDbLine
 10
207.038147
 20
232.385696
 30
0.0
 11
213.806976
 21
232.385696
 31
0.0
  0
ARC
  5
4CB
330
1F
100
AcDbEntity
  8
0
 62
     7
100
AcDbCircle
 10
209.552551
 20
233.346161
 30
0.0
 40
2.691781044006348
100
AcDbArc
 50
159.093943
 51
200.906016
  0
LINE
  5
4CC
330
1F
100
AcDbEntity
  8
0
 62
     7
100
AcDbLine
 10
207.038147
 20
234.306625
 30
0.0
 11
207.038147
 21
234.449997
 31
0.0
  0
LINE
  5
4CD
330
1F
100
AcDbEntity
  8
0
 62
     7
100
AcDbLine
 10
206.806976
 20
225.321396
 30
0.0
 11
206.806976
 21
234.050003
 31
0.0
  0
LINE
  5
4CE
330
1F
100
AcDbEntity
  8
0
 62
     7
100
AcDbLine
 10
207.038147
 20
225.129623
 30
0.0
 11
207.038147
 21
226.22908
 31
0.0
  0
LINE
  5
4CF
330
1F
100
AcDbEntity
  8
0
 62
     7
100
AcDbLine
 10
207.038147
 20
230.070938
 30
0.0
 11
207.038147
 21
232.385696
 31
0.0
  0
LINE
  5
4D0
330
1F
100
AcDbEntity
  8
0
 62
     7
100
AcDbLine
 10
207.038147
 20
225.129623
 30
0.0
 11
207.038147
 21
223.914322
 31
0.0
  0
LINE
  5
4D1
330
1F
100
AcDbEntity
  8
0
 62
     7
100
AcDbLine
 10
207.038147
 20
221.850006
 30
0.0
 11
207.038147
 21
221.993393
 31
0.0
  0
LINE
  5
4D2
330
1F
100
AcDbEntity
  8
0
 62
     7
100
AcDbLine
 10
206.806976
 20
222.250015
 30
0.0
 11
206.806976
 21
225.321396
 31
0.0
  0
ARC
  5
4D3
330
1F
100
AcDbEntity
  8
0
 62
     7
100
AcDbCircle
 10
191.806976
 20
153.150009
 30
0.0
 40
78.4000015258789
100
AcDbArc
 50
92.192971
 51
179.999991
  0
ARC
  5
4D4
330
1F
100
AcDbEntity
  8
0
 62
     7
100
AcDbCircle
 10
191.807007
 20
153.153839
 30
0.0
 40
78.39616394042969
100
AcDbArc
 50
90.00003
 51
90.730894
  0
ARC
  5
4D5
330
1F
100
AcDbEntity
  8
0
 62
     7
100
AcDbCircle
 10
191.806976
 20
153.150009
 30
0.0
 40
71.5999984741211
100
AcDbArc
 50
92.401354
 51
180.000009
  0
ARC
  5
4D6
330
1F
100
AcDbEntity
  8
0
 62
     7
100
AcDbCircle
 10
191.807007
 20
153.152206
 30
0.0
 40
71.59779357910156
100
AcDbArc
 50
90.000037
 51
90.800303
  0
LINE
  5
4D7
330
1F
100
AcDbEntity
  8
0
 62
     7
100
AcDbLine
 10
193.006958
 20
231.550003
 30
0.0
 11
194.006958
 21
231.550003
 31
0.0
  0
LINE
  5
4D8
330
1F
100
AcDbEntity
  8
0
 62
     7
100
AcDbLine
 10
195.20697
 20
231.550003
 30
0.0
 11
196.20697
 21
231.550003
 31
0.0
  0
LINE
  5
4D9
330
1F
100
AcDbEntity
  8
0
 62
     7
100
AcDbLine
 10
113.406967
 20
143.150009
 30
0.0
 11
113.406967
 21
153.150009
 31
0.0
  0
LINE
  5
4DA
330
1F
100
AcDbEntity
  8
0
 62
     7
100
AcDbLine
 10
193.006958
 20
224.750015
 30
0.0
 11
194.006958
 21
224.750015
 31
0.0
  0
LINE
  5
4DB
330
1F
100
AcDbEntity
  8
0
 62
     7
100
AcDbLine
 10
195.20697
 20
224.750015
 30
0.0
 11
196.20697
 21
224.750015
 31
0.0
  0
LINE
  5
4DC
330
1F
100
AcDbEntity
  8
0
 62
     7
100
AcDbLine
 10
120.20697
 20
143.150009
 30
0.0
 11
120.20697
 21
153.150009
 31
0.0
  0
LINE
  5
4DD
330
1F
100
AcDbEntity
  8
0
 62
     7
100
AcDbLine
 10
188.806976
 20
232.400009
 30
0.0
 11
190.806976
 21
232.525009
 31
0.0
  0
LINE
  5
4DE
330
1F
100
AcDbEntity
  8
0
 62
     7
100
AcDbLine
 10
191.806976
 20
232.587509
 30
0.0
 11
193.006958
 21
232.662506
 31
0.0
  0
LINE
  5
4DF
330
1F
100
AcDbEntity
  8
0
 62
     7
100
AcDbLine
 10
194.006958
 20
232.725006
 30
0.0
 11
195.20697
 21
232.800003
 31
0.0
  0
LINE
  5
4E0
330
1F
100
AcDbEntity
  8
0
 62
     7
100
AcDbLine
 10
196.20697
 20
232.862503
 30
0.0
 11
200.806976
 21
233.150009
 31
0.0
  0
LINE
  5
4E1
330
1F
100
AcDbEntity
  8
0
 62
     7
100
AcDbLine
 10
188.806976
 20
223.900009
 30
0.0
 11
190.806976
 21
223.775009
 31
0.0
  0
LINE
  5
4E2
330
1F
100
AcDbEntity
  8
0
 62
     7
100
AcDbLine
 10
191.806976
 20
223.712509
 30
0.0
 11
193.006958
 21
223.637497
 31
0.0
  0
LINE
  5
4E3
330
1F
100
AcDbEntity
  8
0
 62
     7
100
AcDbLine
 10
194.006958
 20
223.574997
 30
0.0
 11
195.20697
 21
223.500015
 31
0.0
  0
LINE
  5
4E4
330
1F
100
AcDbEntity
  8
0
 62
     7
100
AcDbLine
 10
196.20697
 20
223.437515
 30
0.0
 11
200.806976
 21
223.150009
 31
0.0
  0
LINE
  5
4E5
330
1F
100
AcDbEntity
  8
0
 62
     7
100
AcDbLine
 10
200.806976
 20
233.150009
 30
0.0
 11
201.806976
 21
233.449997
 31
0.0
  0
LINE
  5
4E6
330
1F
100
AcDbEntity
  8
0
 62
     7
100
AcDbLine
 10
200.806976
 20
223.150009
 30
0.0
 11
201.806976
 21
222.850006
 31
0.0
  0
LINE
  5
4E7
330
1F
100
AcDbEntity
  8
0
 62
     7
100
AcDbLine
 10
201.806976
 20
223.150009
 30
0.0
 11
206.806976
 21
223.150009
 31
0.0
  0
LINE
  5
4E8
330
1F
100
AcDbEntity
  8
0
 62
     7
100
AcDbLine
 10
201.806976
 20
233.150009
 30
0.0
 11
206.806976
 21
233.150009
 31
0.0
  0
LINE
  5
4E9
330
1F
100
AcDbEntity
  8
0
 62
     7
100
AcDbLine
 10
223.806976
 20
221.850006
 30
0.0
 11
224.806976
 21
221.850006
 31
0.0
  0
LINE
  5
4EA
330
1F
100
AcDbEntity
  8
0
 62
     7
100
AcDbLine
 10
223.806976
 20
234.449997
 30
0.0
 11
224.806976
 21
234.449997
 31
0.0
  0
LINE
  5
4EB
330
1F
100
AcDbEntity
  8
0
 62
     7
100
AcDbLine
 10
223.806976
 20
234.449997
 30
0.0
 11
223.306976
 21
234.949997
 31
0.0
  0
LINE
  5
4EC
330
1F
100
AcDbEntity
  8
0
 62
     7
100
AcDbLine
 10
223.806976
 20
221.850006
 30
0.0
 11
223.306976
 21
221.350006
 31
0.0
  0
LINE
  5
4ED
330
1F
100
AcDbEntity
  8
0
 62
     7
100
AcDbLine
 10
213.806976
 20
234.449997
 30
0.0
 11
214.306976
 21
234.949997
 31
0.0
  0
LINE
  5
4EE
330
1F
100
AcDbEntity
  8
0
 62
     7
100
AcDbLine
 10
214.306976
 20
234.949997
 30
0.0
 11
223.306976
 21
234.949997
 31
0.0
  0
LINE
  5
4EF
330
1F
100
AcDbEntity
  8
0
 62
     7
100
AcDbLine
 10
213.806976
 20
221.850006
 30
0.0
 11
214.306976
 21
221.350006
 31
0.0
  0
LINE
  5
4F0
330
1F
100
AcDbEntity
  8
0
 62
     7
100
AcDbLine
 10
214.306976
 20
221.350006
 30
0.0
 11
223.306976
 21
221.350006
 31
0.0
  0
LINE
  5
4F1
330
1F
100
AcDbEntity
  8
0
 62
     7
100
AcDbLine
 10
207.038147
 20
234.449997
 30
0.0
 11
213.806976
 21
234.449997
 31
0.0
  0
ARC
  5
4F2
330
1F
100
AcDbEntity
  8
0
 62
     7
100
AcDbCircle
 10
212.113556
 20
231.250015
 30
0.0
 40
6.000001907348633
100
AcDbArc
 50
147.769053
 51
152.18186
  0
LINE
  5
4F3
330
1F
100
AcDbEntity
  8
0
 62
     7
100
AcDbLine
 10
207.038147
 20
221.850006
 30
0.0
 11
213.806976
 21
221.850006
 31
0.0
  0
ARC
  5
4F4
330
1F
100
AcDbEntity
  8
0
 62
     7
100
AcDbCircle
 10
212.113556
 20
225.050003
 30
0.0
 40
6.000001907348633
100
AcDbArc
 50
207.81814
 51
212.230947
  0
LINE
  5
4F5
330
1F
100
AcDbEntity
  8
0
 62
     7
100
AcDbLine
 10
81.293045
 20
245.850006
 30
0.0
 11
81.293045
 21
258.950012
 31
0.0
  0
ARC
  5
4F6
330
1F
100
AcDbEntity
  8
0
 62
     7
100
AcDbCircle
 10
80.493042
 20
245.850006
 30
0.0
 40
0.800000011920929
100
AcDbArc
 50
269.999997
 51
360.0
  0
LINE
  5
4F7
330
1F
100
AcDbEntity
  8
0
 62
     7
100
AcDbLine
 10
81.163742
 20
259.079285
 30
0.0
 11
81.293045
 21
258.950012
 31
0.0
  0
ARC
  5
4F8
330
1F
100
AcDbEntity
  8
0
 62
     7
100
AcDbCircle
 10
79.293045
 20
245.850006
 30
0.0
 40
0.800000011920929
100
AcDbArc
 50
241.044838
 51
269.999997
  0
LINE
  5
4F9
330
1F
100
AcDbEntity
  8
0
 62
     7
100
AcDbLine
 10
80.493042
 20
245.050003
 30
0.0
 11
79.293045
 21
245.050003
 31
0.0
  0
ARC
  5
4FA
330
1F
100
AcDbEntity
  8
0
 62
     7
100
AcDbCircle
 10
81.234467
 20
259.150024
 30
0.0
 40
0.1000000014901161
100
AcDbArc
 50
135.0
 51
225.0
  0
LINE
  5
4FB
330
1F
100
AcDbEntity
  8
0
 62
     7
100
AcDbLine
 10
81.293045
 20
259.349976
 30
0.0
 11
81.163742
 21
259.220703
 31
0.0
  0
LINE
  5
4FC
330
1F
100
AcDbEntity
  8
0
 62
     7
100
AcDbLine
 10
81.293045
 20
259.349976
 30
0.0
 11
81.293045
 21
260.049988
 31
0.0
  0
LINE
  5
4FD
330
1F
100
AcDbEntity
  8
0
 62
     7
100
AcDbLine
 10
81.163742
 20
260.17926
 30
0.0
 11
81.293045
 21
260.049988
 31
0.0
  0
ARC
  5
4FE
330
1F
100
AcDbEntity
  8
0
 62
     7
100
AcDbCircle
 10
81.234467
 20
260.25
 30
0.0
 40
0.1000000014901161
100
AcDbArc
 50
135.0
 51
225.0
  0
LINE
  5
4FF
330
1F
100
AcDbEntity
  8
0
 62
     7
100
AcDbLine
 10
81.293045
 20
260.450012
 30
0.0
 11
81.163742
 21
260.32074
 31
0.0
  0
LINE
  5
500
330
1F
100
AcDbEntity
  8
0
 62
     7
100
AcDbLine
 10
81.293045
 20
260.450012
 30
0.0
 11
81.293045
 21
261.150024
 31
0.0
  0
LINE
  5
501
330
1F
100
AcDbEntity
  8
0
 62
     7
100
AcDbLine
 10
81.163742
 20
261.279297
 30
0.0
 11
81.293045
 21
261.150024
 31
0.0
  0
ARC
  5
502
330
1F
100
AcDbEntity
  8
0
 62
     7
100
AcDbCircle
 10
81.234467
 20
261.349976
 30
0.0
 40
0.1000000014901161
100
AcDbArc
 50
135.0
 51
225.0
  0
LINE
  5
503
330
1F
100
AcDbEntity
  8
0
 62
     7
100
AcDbLine
 10
81.293045
 20
261.549988
 30
0.0
 11
81.163742
 21
261.420715
 31
0.0
  0
LINE
  5
504
330
1F
100
AcDbEntity
  8
0
 62
     7
100
AcDbLine
 10
81.293045
 20
261.549988
 30
0.0
 11
81.293045
 21
262.25
 31
0.0
  0
LINE
  5
505
330
1F
100
AcDbEntity
  8
0
 62
     7
100
AcDbLine
 10
81.163742
 20
262.379272
 30
0.0
 11
81.293045
 21
262.25
 31
0.0
  0
ARC
  5
506
330
1F
100
AcDbEntity
  8
0
 62
     7
100
AcDbCircle
 10
81.234467
 20
262.450012
 30
0.0
 40
0.1000000014901161
100
AcDbArc
 50
135.0
 51
225.0
  0
LINE
  5
507
330
1F
100
AcDbEntity
  8
0
 62
     7
100
AcDbLine
 10
81.293045
 20
262.650024
 30
0.0
 11
81.163742
 21
262.520691
 31
0.0
  0
LINE
  5
508
330
1F
100
AcDbEntity
  8
0
 62
     7
100
AcDbLine
 10
81.293045
 20
262.650024
 30
0.0
 11
81.293045
 21
263.349976
 31
0.0
  0
LINE
  5
509
330
1F
100
AcDbEntity
  8
0
 62
     7
100
AcDbLine
 10
81.163742
 20
263.479309
 30
0.0
 11
81.293045
 21
263.349976
 31
0.0
  0
ARC
  5
50A
330
1F
100
AcDbEntity
  8
0
 62
     7
100
AcDbCircle
 10
81.234467
 20
263.549988
 30
0.0
 40
0.1000000014901161
100
AcDbArc
 50
135.0
 51
225.0
  0
LINE
  5
50B
330
1F
100
AcDbEntity
  8
0
 62
     7
100
AcDbLine
 10
81.293045
 20
263.75
 30
0.0
 11
81.163742
 21
263.620728
 31
0.0
  0
LINE
  5
50C
330
1F
100
AcDbEntity
  8
0
 62
     7
100
AcDbLine
 10
81.293045
 20
263.75
 30
0.0
 11
81.293045
 21
264.450012
 31
0.0
  0
LINE
  5
50D
330
1F
100
AcDbEntity
  8
0
 62
     7
100
AcDbLine
 10
81.163742
 20
264.579285
 30
0.0
 11
81.293045
 21
264.450012
 31
0.0
  0
ARC
  5
50E
330
1F
100
AcDbEntity
  8
0
 62
     7
100
AcDbCircle
 10
81.234467
 20
264.650024
 30
0.0
 40
0.1000000014901161
100
AcDbArc
 50
135.0
 51
225.0
  0
LINE
  5
50F
330
1F
100
AcDbEntity
  8
0
 62
     7
100
AcDbLine
 10
81.293045
 20
264.849976
 30
0.0
 11
81.163742
 21
264.720703
 31
0.0
  0
LINE
  5
510
330
1F
100
AcDbEntity
  8
0
 62
     7
100
AcDbLine
 10
81.293045
 20
264.849976
 30
0.0
 11
81.293045
 21
265.549988
 31
0.0
  0
LINE
  5
511
330
1F
100
AcDbEntity
  8
0
 62
     7
100
AcDbLine
 10
81.163742
 20
265.67926
 30
0.0
 11
81.293045
 21
265.549988
 31
0.0
  0
ARC
  5
512
330
1F
100
AcDbEntity
  8
0
 62
     7
100
AcDbCircle
 10
81.234467
 20
265.75
 30
0.0
 40
0.1000000014901161
100
AcDbArc
 50
135.0
 51
225.0
  0
LINE
  5
513
330
1F
100
AcDbEntity
  8
0
 62
     7
100
AcDbLine
 10
81.293045
 20
265.950012
 30
0.0
 11
81.163742
 21
265.82074
 31
0.0
  0
LINE
  5
514
330
1F
100
AcDbEntity
  8
0
 62
     7
100
AcDbLine
 10
81.293045
 20
265.950012
 30
0.0
 11
81.293045
 21
266.650024
 31
0.0
  0
LINE
  5
515
330
1F
100
AcDbEntity
  8
0
 62
     7
100
AcDbLine
 10
81.163742
 20
266.779297
 30
0.0
 11
81.293045
 21
266.650024
 31
0.0
  0
ARC
  5
516
330
1F
100
AcDbEntity
  8
0
 62
     7
100
AcDbCircle
 10
81.234467
 20
266.849976
 30
0.0
 40
0.1000000014901161
100
AcDbArc
 50
135.0
 51
225.0
  0
LINE
  5
517
330
1F
100
AcDbEntity
  8
0
 62
     7
100
AcDbLine
 10
81.293045
 20
267.049988
 30
0.0
 11
81.163742
 21
266.920715
 31
0.0
  0
LINE
  5
518
330
1F
100
AcDbEntity
  8
0
 62
     7
100
AcDbLine
 10
81.293045
 20
267.049988
 30
0.0
 11
81.293045
 21
267.75
 31
0.0
  0
LINE
  5
519
330
1F
100
AcDbEntity
  8
0
 62
     7
100
AcDbLine
 10
81.163742
 20
267.879272
 30
0.0
 11
81.293045
 21
267.75
 31
0.0
  0
ARC
  5
51A
330
1F
100
AcDbEntity
  8
0
 62
     7
100
AcDbCircle
 10
81.234467
 20
267.950012
 30
0.0
 40
0.1000000014901161
100
AcDbArc
 50
135.0
 51
225.0
  0
LINE
  5
51B
330
1F
100
AcDbEntity
  8
0
 62
     7
100
AcDbLine
 10
81.293045
 20
268.150024
 30
0.0
 11
81.163742
 21
268.020691
 31
0.0
  0
LINE
  5
51C
330
1F
100
AcDbEntity
  8
0
 62
     7
100
AcDbLine
 10
81.293045
 20
268.150024
 30
0.0
 11
81.293045
 21
272.974243
 31
0.0
  0
LINE
  5
51D
330
1F
100
AcDbEntity
  8
0
 62
     7
100
AcDbLine
 10
80.805176
 20
273.462158
 30
0.0
 11
81.293045
 21
272.974243
 31
0.0
  0
ARC
  5
51E
330
1F
100
AcDbEntity
  8
0
 62
     7
100
AcDbCircle
 10
80.593033
 20
273.25
 30
0.0
 40
0.300000011920929
100
AcDbArc
 50
45.000001
 51
106.874504
  0
LINE
  5
51F
330
1F
100
AcDbEntity
  8
0
 62
     7
100
AcDbLine
 10
81.293045
 20
251.050003
 30
0.0
 11
81.493042
 21
251.050003
 31
0.0
  0
LINE
  5
520
330
1F
100
AcDbEntity
  8
0
 62
     7
100
AcDbLine
 10
81.493042
 20
250.550003
 30
0.0
 11
81.493042
 21
251.050003
 31
0.0
  0
LINE
  5
521
330
1F
100
AcDbEntity
  8
0
 62
     7
100
AcDbLine
 10
81.493042
 20
250.550003
 30
0.0
 11
81.493042
 21
246.550003
 31
0.0
  0
LINE
  5
522
330
1F
100
AcDbEntity
  8
0
 62
     7
100
AcDbLine
 10
81.493042
 20
246.050003
 30
0.0
 11
81.493042
 21
246.550003
 31
0.0
  0
LINE
  5
523
330
1F
100
AcDbEntity
  8
0
 62
     7
100
AcDbLine
 10
81.293045
 20
246.050003
 30
0.0
 11
81.493042
 21
246.050003
 31
0.0
  0
ARC
  5
524
330
1F
100
AcDbEntity
  8
0
 62
     7
100
AcDbCircle
 10
77.293045
 20
273.349976
 30
0.0
 40
3.0
100
AcDbArc
 50
8.262821
 51
90.000003
  0
LINE
  5
525
330
1F
100
AcDbEntity
  8
0
 62
     7
100
AcDbLine
 10
81.543045
 20
246.550003
 30
0.0
 11
81.543045
 21
246.680374
 31
0.0
  0
LINE
  5
526
330
1F
100
AcDbEntity
  8
0
 62
     7
100
AcDbLine
 10
81.543045
 20
250.180374
 30
0.0
 11
81.543045
 21
246.680374
 31
0.0
  0
LINE
  5
527
330
1F
100
AcDbEntity
  8
0
 62
     7
100
AcDbLine
 10
81.493042
 20
250.449997
 30
0.0
 11
81.543045
 21
250.449997
 31
0.0
  0
LINE
  5
528
330
1F
100
AcDbEntity
  8
0
 62
     7
100
AcDbLine
 10
81.543045
 20
250.180374
 30
0.0
 11
81.543045
 21
250.449997
 31
0.0
  0
LINE
  5
529
330
1F
100
AcDbEntity
  8
0
 62
     7
100
AcDbLine
 10
80.946594
 20
273.096436
 30
0.0
 11
80.104523
 21
273.938538
 31
0.0
  0
ARC
  5
52A
330
1F
100
AcDbEntity
  8
0
 62
     7
100
AcDbCircle
 10
80.593033
 20
272.74292
 30
0.0
 40
0.5
100
AcDbArc
 50
0.0
 51
45.000001
  0
LINE
  5
52B
330
1F
100
AcDbEntity
  8
0
 62
     7
100
AcDbLine
 10
81.093033
 20
245.650009
 30
0.0
 11
81.093033
 21
272.74292
 31
0.0
  0
ARC
  5
52C
330
1F
100
AcDbEntity
  8
0
 62
     7
100
AcDbCircle
 10
80.593033
 20
245.650009
 30
0.0
 40
0.5
100
AcDbArc
 50
269.999997
 51
360.0
  0
LINE
  5
52D
330
1F
100
AcDbEntity
  8
0
 62
     7
100
AcDbLine
 10
64.993042
 20
245.150009
 30
0.0
 11
80.593033
 21
245.150009
 31
0.0
  0
ARC
  5
52E
330
1F
100
AcDbEntity
  8
0
 62
     7
100
AcDbCircle
 10
64.993042
 20
245.650009
 30
0.0
 40
0.5
100
AcDbArc
 50
180.000009
 51
269.999997
  0
LINE
  5
52F
330
1F
100
AcDbEntity
  8
0
 62
     7
100
AcDbLine
 10
64.493042
 20
272.74292
 30
0.0
 11
64.493042
 21
245.650009
 31
0.0
  0
LINE
  5
530
330
1F
100
AcDbEntity
  8
0
 62
     7
100
AcDbLine
 10
63.693039
 20
255.050003
 30
0.0
 11
63.693039
 21
257.049988
 31
0.0
  0
LINE
  5
531
330
1F
100
AcDbEntity
  8
0
 62
     7
100
AcDbLine
 10
63.693039
 20
255.050003
 30
0.0
 11
64.493042
 21
255.050003
 31
0.0
  0
LINE
  5
532
330
1F
100
AcDbEntity
  8
0
 62
     7
100
AcDbLine
 10
77.293045
 20
276.349976
 30
0.0
 11
68.293045
 21
276.349976
 31
0.0
  0
ARC
  5
533
330
1F
100
AcDbEntity
  8
0
 62
     7
100
AcDbCircle
 10
68.293045
 20
273.349976
 30
0.0
 40
3.0
100
AcDbArc
 50
90.000003
 51
171.737184
  0
ARC
  5
534
330
1F
100
AcDbEntity
  8
0
 62
     7
100
AcDbCircle
 10
80.139877
 20
273.973877
 30
0.0
 40
0.0500000007450581
100
AcDbArc
 50
189.204208
 51
225.0
  0
ARC
  5
535
330
1F
100
AcDbEntity
  8
0
 62
     7
100
AcDbCircle
 10
64.993042
 20
272.74292
 30
0.0
 40
0.5
100
AcDbArc
 50
135.0
 51
180.000009
  0
LINE
  5
536
330
1F
100
AcDbEntity
  8
0
 62
     7
100
AcDbLine
 10
63.693039
 20
271.821106
 30
0.0
 11
63.693039
 21
257.049988
 31
0.0
  0
LINE
  5
537
330
1F
100
AcDbEntity
  8
0
 62
     7
100
AcDbLine
 10
63.693039
 20
271.821106
 30
0.0
 11
63.693039
 21
271.863342
 31
0.0
  0
LINE
  5
538
330
1F
100
AcDbEntity
  8
0
 62
     7
100
AcDbLine
 10
63.693039
 20
271.863342
 30
0.0
 11
63.693039
 21
276.349976
 31
0.0
  0
LINE
  5
539
330
1F
100
AcDbEntity
  8
0
 62
     7
100
AcDbLine
 10
63.89304
 20
255.050003
 30
0.0
 11
63.89304
 21
254.550003
 31
0.0
  0
LINE
  5
53A
330
1F
100
AcDbEntity
  8
0
 62
     7
100
AcDbLine
 10
64.493042
 20
254.550003
 30
0.0
 11
63.89304
 21
254.550003
 31
0.0
  0
LINE
  5
53B
330
1F
100
AcDbEntity
  8
0
 62
     7
100
AcDbLine
 10
63.89304
 20
245.850006
 30
0.0
 11
63.89304
 21
254.550003
 31
0.0
  0
ARC
  5
53C
330
1F
100
AcDbEntity
  8
0
 62
     7
100
AcDbCircle
 10
64.693039
 20
245.850006
 30
0.0
 40
0.800000011920929
100
AcDbArc
 50
180.000009
 51
269.999997
  0
LINE
  5
53D
330
1F
100
AcDbEntity
  8
0
 62
     7
100
AcDbLine
 10
64.693039
 20
245.050003
 30
0.0
 11
65.893036
 21
245.050003
 31
0.0
  0
ARC
  5
53E
330
1F
100
AcDbEntity
  8
0
 62
     7
100
AcDbCircle
 10
65.893036
 20
245.850006
 30
0.0
 40
0.800000011920929
100
AcDbArc
 50
269.999997
 51
298.955164
  0
LINE
  5
53F
330
1F
100
AcDbEntity
  8
0
 62
     7
100
AcDbLine
 10
65.481567
 20
273.938538
 30
0.0
 11
64.639481
 21
273.096436
 31
0.0
  0
ARC
  5
540
330
1F
100
AcDbEntity
  8
0
 62
     7
100
AcDbCircle
 10
65.446198
 20
273.973877
 30
0.0
 40
0.0500000007450581
100
AcDbArc
 50
314.999992
 51
350.795784
  0
ARC
  5
541
330
1F
100
AcDbEntity
  8
0
 62
     7
100
AcDbCircle
 10
68.062088
 20
273.549988
 30
0.0
 40
2.599999904632568
100
AcDbArc
 50
90.000003
 51
170.795792
  0
LINE
  5
542
330
1F
100
AcDbEntity
  8
0
 62
     7
100
AcDbLine
 10
77.523987
 20
276.150024
 30
0.0
 11
68.062088
 21
276.150024
 31
0.0
  0
ARC
  5
543
330
1F
100
AcDbEntity
  8
0
 62
     7
100
AcDbCircle
 10
77.523987
 20
273.549988
 30
0.0
 40
2.599999904632568
100
AcDbArc
 50
9.20421
 51
90.000003
  0
CIRCLE
  5
544
330
1F
100
AcDbEntity
  8
0
 62
     7
100
AcDbCircle
 10
72.793045
 20
253.350006
 30
0.0
 40
5.150000095367432
  0
POLYLINE
  5
545
330
1F
100
AcDbEntity
  8
0
 62
     7
100
AcDb2dPolyline
 66
     1
 10
0.0
 20
0.0
 30
0.0
  0
VERTEX
  5
546
330
545
100
AcDbEntity
  8
0
100
AcDbVertex
100
AcDb2dVertex
 10
64.193039
 20
273.260193
 30
0.0
  0
VERTEX
  5
547
330
545
100
AcDbEntity
  8
0
100
AcDbVertex
100
AcDb2dVertex
 10
64.189163
 20
273.162903
 30
0.0
  0
VERTEX
  5
548
330
545
100
AcDbEntity
  8
0
100
AcDbVertex
100
AcDb2dVertex
 10
64.177567
 20
273.059448
 30
0.0
  0
VERTEX
  5
549
330
545
100
AcDbEntity
  8
0
100
AcDbVertex
100
AcDb2dVertex
 10
64.158218
 20
272.950073
 30
0.0
  0
VERTEX
  5
54A
330
545
100
AcDbEntity
  8
0
100
AcDbVertex
100
AcDb2dVertex
 10
64.131027
 20
272.8349
 30
0.0
  0
VERTEX
  5
54B
330
545
100
AcDbEntity
  8
0
100
AcDbVertex
100
AcDb2dVertex
 10
64.09584
 20
272.713989
 30
0.0
  0
VERTEX
  5
54C
330
545
100
AcDbEntity
  8
0
100
AcDbVertex
100
AcDb2dVertex
 10
64.052383
 20
272.587341
 30
0.0
  0
VERTEX
  5
54D
330
545
100
AcDbEntity
  8
0
100
AcDbVertex
100
AcDb2dVertex
 10
64.000305
 20
272.454895
 30
0.0
  0
VERTEX
  5
54E
330
545
100
AcDbEntity
  8
0
100
AcDbVertex
100
AcDb2dVertex
 10
63.939072
 20
272.316406
 30
0.0
  0
VERTEX
  5
54F
330
545
100
AcDbEntity
  8
0
100
AcDbVertex
100
AcDb2dVertex
 10
63.868042
 20
272.171814
 30
0.0
  0
VERTEX
  5
550
330
545
100
AcDbEntity
  8
0
100
AcDbVertex
100
AcDb2dVertex
 10
63.786373
 20
272.020874
 30
0.0
  0
VERTEX
  5
551
330
545
100
AcDbEntity
  8
0
100
AcDbVertex
100
AcDb2dVertex
 10
63.693039
 20
271.863342
 30
0.0
  0
SEQEND
  5
552
330
545
100
AcDbEntity
  8
0
 62
     7
  0
LINE
  5
553
330
1F
100
AcDbEntity
  8
0
 62
     7
100
AcDbLine
 10
64.193039
 20
273.260193
 30
0.0
 11
64.193039
 21
276.849976
 31
0.0
  0
LINE
  5
554
330
1F
100
AcDbEntity
  8
0
 62
     7
100
AcDbLine
 10
65.293045
 20
273.75
 30
0.0
 11
65.293045
 21
276.849976
 31
0.0
  0
CIRCLE
  5
555
330
1F
100
AcDbEntity
  8
0
 62
     7
100
AcDbCircle
 10
72.793045
 20
253.350006
 30
0.0
 40
4.150000095367432
  0
ARC
  5
556
330
1F
100
AcDbEntity
  8
0
 62
     7
100
AcDbCircle
 10
72.793045
 20
253.350006
 30
0.0
 40
3.75
100
AcDbArc
 50
350.018317
 51
9.981683
  0
ARC
  5
557
330
1F
100
AcDbEntity
  8
0
 62
     7
100
AcDbCircle
 10
72.793045
 20
253.350006
 30
0.0
 40
3.75
100
AcDbArc
 50
189.981688
 51
350.018317
  0
ARC
  5
558
330
1F
100
AcDbEntity
  8
0
 62
     7
100
AcDbCircle
 10
72.793045
 20
253.350006
 30
0.0
 40
3.75
100
AcDbArc
 50
170.018312
 51
189.981688
  0
ARC
  5
559
330
1F
100
AcDbEntity
  8
0
 62
     7
100
AcDbCircle
 10
72.793045
 20
253.350006
 30
0.0
 40
3.75
100
AcDbArc
 50
9.981683
 51
170.018312
  0
LINE
  5
55A
330
1F
100
AcDbEntity
  8
0
 62
     7
100
AcDbLine
 10
76.28302
 20
252.699997
 30
0.0
 11
76.486282
 21
252.699997
 31
0.0
  0
LINE
  5
55B
330
1F
100
AcDbEntity
  8
0
 62
     7
100
AcDbLine
 10
69.303055
 20
252.699997
 30
0.0
 11
69.099808
 21
252.699997
 31
0.0
  0
LINE
  5
55C
330
1F
100
AcDbEntity
  8
0
 62
     7
100
AcDbLine
 10
76.28302
 20
252.699997
 30
0.0
 11
69.303055
 21
252.699997
 31
0.0
  0
ARC
  5
55D
330
1F
100
AcDbEntity
  8
0
 62
     7
100
AcDbCircle
 10
72.793045
 20
253.350006
 30
0.0
 40
3.549999952316284
100
AcDbArc
 50
190.550301
 51
349.44969
  0
LINE
  5
55E
330
1F
100
AcDbEntity
  8
0
 62
     7
100
AcDbLine
 10
69.303055
 20
254.000015
 30
0.0
 11
69.099808
 21
254.000015
 31
0.0
  0
LINE
  5
55F
330
1F
100
AcDbEntity
  8
0
 62
     7
100
AcDbLine
 10
76.28302
 20
254.000015
 30
0.0
 11
76.486282
 21
254.000015
 31
0.0
  0
LINE
  5
560
330
1F
100
AcDbEntity
  8
0
 62
     7
100
AcDbLine
 10
69.303055
 20
254.000015
 30
0.0
 11
76.28302
 21
254.000015
 31
0.0
  0
ARC
  5
561
330
1F
100
AcDbEntity
  8
0
 62
     7
100
AcDbCircle
 10
72.793045
 20
253.350006
 30
0.0
 40
3.549999952316284
100
AcDbArc
 50
10.550303
 51
169.449699
  0
LINE
  5
562
330
1F
100
AcDbEntity
  8
0
 62
     7
100
AcDbLine
 10
81.493042
 20
246.550003
 30
0.0
 11
81.543045
 21
246.550003
 31
0.0
  0
LINE
  5
563
330
1F
100
AcDbEntity
  8
0
 62
     7
100
AcDbLine
 10
81.493042
 20
246.550003
 30
0.0
 11
81.543045
 21
246.550003
 31
0.0
  0
LINE
  5
564
330
1F
100
AcDbEntity
  8
0
 62
     7
100
AcDbLine
 10
63.693039
 20
276.349976
 30
0.0
 11
64.193039
 21
276.849976
 31
0.0
  0
LINE
  5
565
330
1F
100
AcDbEntity
  8
0
 62
     7
100
AcDbLine
 10
64.193039
 20
276.849976
 30
0.0
 11
65.293045
 21
276.849976
 31
0.0
  0
ARC
  5
566
330
1F
100
AcDbEntity
  8
0
 62
     7
100
AcDbCircle
 10
72.493042
 20
239.650009
 30
0.0
 40
3.549999952316284
100
AcDbArc
 50
280.55029
 51
79.449696
  0
LINE
  5
567
330
1F
100
AcDbEntity
  8
0
 62
     7
100
AcDbLine
 10
73.143036
 20
236.160019
 30
0.0
 11
73.143036
 21
235.956772
 31
0.0
  0
ARC
  5
568
330
1F
100
AcDbEntity
  8
0
 62
     7
100
AcDbCircle
 10
72.493042
 20
239.650009
 30
0.0
 40
3.75
100
AcDbArc
 50
279.981697
 51
80.018316
  0
LINE
  5
569
330
1F
100
AcDbEntity
  8
0
 62
     7
100
AcDbLine
 10
73.143036
 20
243.139999
 30
0.0
 11
73.143036
 21
243.343246
 31
0.0
  0
LINE
  5
56A
330
1F
100
AcDbEntity
  8
0
 62
     7
100
AcDbLine
 10
73.143036
 20
243.139999
 30
0.0
 11
73.143036
 21
236.160019
 31
0.0
  0
ARC
  5
56B
330
1F
100
AcDbEntity
  8
0
 62
     7
100
AcDbCircle
 10
72.493042
 20
239.650009
 30
0.0
 40
3.75
100
AcDbArc
 50
80.018316
 51
99.981682
  0
ARC
  5
56C
330
1F
100
AcDbEntity
  8
0
 62
     7
100
AcDbCircle
 10
72.493042
 20
239.650009
 30
0.0
 40
3.75
100
AcDbArc
 50
260.018304
 51
279.981697
  0
ARC
  5
56D
330
1F
100
AcDbEntity
  8
0
 62
     7
100
AcDbCircle
 10
72.493042
 20
239.650009
 30
0.0
 40
3.75
100
AcDbArc
 50
99.981682
 51
260.018304
  0
LINE
  5
56E
330
1F
100
AcDbEntity
  8
0
 62
     7
100
AcDbLine
 10
71.843033
 20
236.160019
 30
0.0
 11
71.843033
 21
235.956772
 31
0.0
  0
LINE
  5
56F
330
1F
100
AcDbEntity
  8
0
 62
     7
100
AcDbLine
 10
71.843033
 20
243.139999
 30
0.0
 11
71.843033
 21
243.343246
 31
0.0
  0
LINE
  5
570
330
1F
100
AcDbEntity
  8
0
 62
     7
100
AcDbLine
 10
71.843033
 20
236.160019
 30
0.0
 11
71.843033
 21
243.139999
 31
0.0
  0
ARC
  5
571
330
1F
100
AcDbEntity
  8
0
 62
     7
100
AcDbCircle
 10
72.493042
 20
239.650009
 30
0.0
 40
3.549999952316284
100
AcDbArc
 50
100.550302
 51
259.449705
  0
LINE
  5
572
330
1F
100
AcDbEntity
  8
0
 62
     7
100
AcDbLine
 10
70.911102
 20
243.050003
 30
0.0
 11
69.18396
 21
243.050003
 31
0.0
  0
LINE
  5
573
330
1F
100
AcDbEntity
  8
0
 62
     7
100
AcDbLine
 10
75.802109
 20
243.050003
 30
0.0
 11
74.074966
 21
243.050003
 31
0.0
  0
LINE
  5
574
330
1F
100
AcDbEntity
  8
0
 62
     7
100
AcDbLine
 10
75.802109
 20
243.050003
 30
0.0
 11
76.127945
 21
243.050003
 31
0.0
  0
LINE
  5
575
330
1F
100
AcDbEntity
  8
0
 62
     7
100
AcDbLine
 10
76.127945
 20
243.050003
 30
0.0
 11
80.593033
 21
243.050003
 31
0.0
  0
LINE
  5
576
330
1F
100
AcDbEntity
  8
0
 62
     7
100
AcDbLine
 10
64.393036
 20
243.050003
 30
0.0
 11
68.858139
 21
243.050003
 31
0.0
  0
LINE
  5
577
330
1F
100
AcDbEntity
  8
0
 62
     7
100
AcDbLine
 10
68.858139
 20
243.050003
 30
0.0
 11
69.18396
 21
243.050003
 31
0.0
  0
ARC
  5
578
330
1F
100
AcDbEntity
  8
0
 62
     7
100
AcDbCircle
 10
69.18396
 20
242.550003
 30
0.0
 40
0.5
100
AcDbArc
 50
318.769437
 51
90.000003
  0
ARC
  5
579
330
1F
100
AcDbEntity
  8
0
 62
     7
100
AcDbCircle
 10
72.493042
 20
239.650009
 30
0.0
 40
3.900000095367432
100
AcDbArc
 50
138.769418
 51
41.230577
  0
ARC
  5
57A
330
1F
100
AcDbEntity
  8
0
 62
     7
100
AcDbCircle
 10
75.802109
 20
242.550003
 30
0.0
 40
0.5
100
AcDbArc
 50
90.000003
 51
221.230582
  0
ARC
  5
57B
330
1F
100
AcDbEntity
  8
0
 62
     7
100
AcDbCircle
 10
76.127945
 20
242.550003
 30
0.0
 40
0.5
100
AcDbArc
 50
90.000003
 51
218.583597
  0
LINE
  5
57C
330
1F
100
AcDbEntity
  8
0
 62
     7
100
AcDbLine
 10
80.593033
 20
242.550003
 30
0.0
 11
80.946594
 21
242.903549
 31
0.0
  0
ARC
  5
57D
330
1F
100
AcDbEntity
  8
0
 62
     7
100
AcDbCircle
 10
80.593033
 20
242.550003
 30
0.0
 40
0.5
100
AcDbArc
 50
0.0
 51
90.000003
  0
ARC
  5
57E
330
1F
100
AcDbEntity
  8
0
 62
     7
100
AcDbCircle
 10
64.393036
 20
242.550003
 30
0.0
 40
0.5
100
AcDbArc
 50
90.000003
 51
180.000009
  0
ARC
  5
57F
330
1F
100
AcDbEntity
  8
0
 62
     7
100
AcDbCircle
 10
68.858139
 20
242.550003
 30
0.0
 40
0.5
100
AcDbArc
 50
321.416408
 51
90.000003
  0
LINE
  5
580
330
1F
100
AcDbEntity
  8
0
 62
     7
100
AcDbLine
 10
64.393036
 20
242.550003
 30
0.0
 11
64.03949
 21
242.903549
 31
0.0
  0
POLYLINE
  5
581
330
1F
100
AcDbEntity
  8
0
 62
     7
100
AcDb2dPolyline
 66
     1
 10
0.0
 20
0.0
 30
0.0
  0
VERTEX
  5
582
330
581
100
AcDbEntity
  8
0
100
AcDbVertex
100
AcDb2dVertex
 10
69.034973
 20
236.355591
 30
0.0
  0
VERTEX
  5
583
330
581
100
AcDbEntity
  8
0
100
AcDbVertex
100
AcDb2dVertex
 10
69.090698
 20
236.265671
 30
0.0
  0
VERTEX
  5
584
330
581
100
AcDbEntity
  8
0
100
AcDbVertex
100
AcDb2dVertex
 10
69.140793
 20
236.172363
 30
0.0
  0
VERTEX
  5
585
330
581
100
AcDbEntity
  8
0
100
AcDbVertex
100
AcDb2dVertex
 10
69.185059
 20
236.075943
 30
0.0
  0
VERTEX
  5
586
330
581
100
AcDbEntity
  8
0
100
AcDbVertex
100
AcDb2dVertex
 10
69.223267
 20
235.9767
 30
0.0
  0
VERTEX
  5
587
330
581
100
AcDbEntity
  8
0
100
AcDbVertex
100
AcDb2dVertex
 10
69.255219
 20
235.874969
 30
0.0
  0
VERTEX
  5
588
330
581
100
AcDbEntity
  8
0
100
AcDbVertex
100
AcDb2dVertex
 10
69.280685
 20
235.771072
 30
0.0
  0
VERTEX
  5
589
330
581
100
AcDbEntity
  8
0
100
AcDbVertex
100
AcDb2dVertex
 10
69.299438
 20
235.665359
 30
0.0
  0
VERTEX
  5
58A
330
581
100
AcDbEntity
  8
0
100
AcDbVertex
100
AcDb2dVertex
 10
69.311111
 20
235.560333
 30
0.0
  0
VERTEX
  5
58B
330
581
100
AcDbEntity
  8
0
100
AcDbVertex
100
AcDb2dVertex
 10
69.315933
 20
235.454285
 30
0.0
  0
VERTEX
  5
58C
330
581
100
AcDbEntity
  8
0
100
AcDbVertex
100
AcDb2dVertex
 10
69.313675
 20
235.34761
 30
0.0
  0
VERTEX
  5
58D
330
581
100
AcDbEntity
  8
0
100
AcDbVertex
100
AcDb2dVertex
 10
69.304169
 20
235.240784
 30
0.0
  0
VERTEX
  5
58E
330
581
100
AcDbEntity
  8
0
100
AcDbVertex
100
AcDb2dVertex
 10
69.287247
 20
235.134323
 30
0.0
  0
VERTEX
  5
58F
330
581
100
AcDbEntity
  8
0
100
AcDbVertex
100
AcDb2dVertex
 10
69.262772
 20
235.028732
 30
0.0
  0
VERTEX
  5
590
330
581
100
AcDbEntity
  8
0
100
AcDbVertex
100
AcDb2dVertex
 10
69.230637
 20
234.924622
 30
0.0
  0
VERTEX
  5
591
330
581
100
AcDbEntity
  8
0
100
AcDbVertex
100
AcDb2dVertex
 10
69.192612
 20
234.826797
 30
0.0
  0
VERTEX
  5
592
330
581
100
AcDbEntity
  8
0
100
AcDbVertex
100
AcDb2dVertex
 10
69.147537
 20
234.731476
 30
0.0
  0
VERTEX
  5
593
330
581
100
AcDbEntity
  8
0
100
AcDbVertex
100
AcDb2dVertex
 10
69.095459
 20
234.639236
 30
0.0
  0
VERTEX
  5
594
330
581
100
AcDbEntity
  8
0
100
AcDbVertex
100
AcDb2dVertex
 10
69.03653
 20
234.550705
 30
0.0
  0
VERTEX
  5
595
330
581
100
AcDbEntity
  8
0
100
AcDbVertex
100
AcDb2dVertex
 10
69.004562
 20
234.508026
 30
0.0
  0
VERTEX
  5
596
330
581
100
AcDbEntity
  8
0
100
AcDbVertex
100
AcDb2dVertex
 10
68.970978
 20
234.466507
 30
0.0
  0
VERTEX
  5
597
330
581
100
AcDbEntity
  8
0
100
AcDbVertex
100
AcDb2dVertex
 10
68.923752
 20
234.413055
 30
0.0
  0
VERTEX
  5
598
330
581
100
AcDbEntity
  8
0
100
AcDbVertex
100
AcDb2dVertex
 10
68.87381
 20
234.361984
 30
0.0
  0
VERTEX
  5
599
330
581
100
AcDbEntity
  8
0
100
AcDbVertex
100
AcDb2dVertex
 10
68.821289
 20
234.313446
 30
0.0
  0
VERTEX
  5
59A
330
581
100
AcDbEntity
  8
0
100
AcDbVertex
100
AcDb2dVertex
 10
68.76593
 20
234.267258
 30
0.0
  0
VERTEX
  5
59B
330
581
100
AcDbEntity
  8
0
100
AcDbVertex
100
AcDb2dVertex
 10
68.708206
 20
234.223907
 30
0.0
  0
VERTEX
  5
59C
330
581
100
AcDbEntity
  8
0
100
AcDbVertex
100
AcDb2dVertex
 10
68.648392
 20
234.183609
 30
0.0
  0
SEQEND
  5
59D
330
581
100
AcDbEntity
  8
0
 62
     7
  0
ARC
  5
59E
330
1F
100
AcDbEntity
  8
0
 62
     7
100
AcDbCircle
 10
72.493042
 20
228.149994
 30
0.0
 40
7.154425144195557
100
AcDbArc
 50
57.494627
 51
122.50533
  0
POLYLINE
  5
59F
330
1F
100
AcDbEntity
  8
0
 62
     7
100
AcDb2dPolyline
 66
     1
 10
0.0
 20
0.0
 30
0.0
  0
VERTEX
  5
5A0
330
59F
100
AcDbEntity
  8
0
100
AcDbVertex
100
AcDb2dVertex
 10
75.951096
 20
236.355591
 30
0.0
  0
VERTEX
  5
5A1
330
59F
100
AcDbEntity
  8
0
100
AcDbVertex
100
AcDb2dVertex
 10
75.89537
 20
236.265671
 30
0.0
  0
VERTEX
  5
5A2
330
59F
100
AcDbEntity
  8
0
100
AcDbVertex
100
AcDb2dVertex
 10
75.845276
 20
236.172363
 30
0.0
  0
VERTEX
  5
5A3
330
59F
100
AcDbEntity
  8
0
100
AcDbVertex
100
AcDb2dVertex
 10
75.801025
 20
236.075943
 30
0.0
  0
VERTEX
  5
5A4
330
59F
100
AcDbEntity
  8
0
100
AcDbVertex
100
AcDb2dVertex
 10
75.762802
 20
235.9767
 30
0.0
  0
VERTEX
  5
5A5
330
59F
100
AcDbEntity
  8
0
100
AcDbVertex
100
AcDb2dVertex
 10
75.730865
 20
235.874969
 30
0.0
  0
VERTEX
  5
5A6
330
59F
100
AcDbEntity
  8
0
100
AcDbVertex
100
AcDb2dVertex
 10
75.705399
 20
235.771072
 30
0.0
  0
VERTEX
  5
5A7
330
59F
100
AcDbEntity
  8
0
100
AcDbVertex
100
AcDb2dVertex
 10
75.68663
 20
235.665359
 30
0.0
  0
VERTEX
  5
5A8
330
59F
100
AcDbEntity
  8
0
100
AcDbVertex
100
AcDb2dVertex
 10
75.674957
 20
235.560333
 30
0.0
  0
VERTEX
  5
5A9
330
59F
100
AcDbEntity
  8
0
100
AcDbVertex
100
AcDb2dVertex
 10
75.670151
 20
235.454285
 30
0.0
  0
VERTEX
  5
5AA
330
59F
100
AcDbEntity
  8
0
100
AcDbVertex
100
AcDb2dVertex
 10
75.672394
 20
235.34761
 30
0.0
  0
VERTEX
  5
5AB
330
59F
100
AcDbEntity
  8
0
100
AcDbVertex
100
AcDb2dVertex
 10
75.6819
 20
235.240784
 30
0.0
  0
VERTEX
  5
5AC
330
59F
100
AcDbEntity
  8
0
100
AcDbVertex
100
AcDb2dVertex
 10
75.698822
 20
235.134323
 30
0.0
  0
VERTEX
  5
5AD
330
59F
100
AcDbEntity
  8
0
100
AcDbVertex
100
AcDb2dVertex
 10
75.723297
 20
235.028732
 30
0.0
  0
VERTEX
  5
5AE
330
59F
100
AcDbEntity
  8
0
100
AcDbVertex
100
AcDb2dVertex
 10
75.755432
 20
234.924622
 30
0.0
  0
VERTEX
  5
5AF
330
59F
100
AcDbEntity
  8
0
100
AcDbVertex
100
AcDb2dVertex
 10
75.793457
 20
234.826797
 30
0.0
  0
VERTEX
  5
5B0
330
59F
100
AcDbEntity
  8
0
100
AcDbVertex
100
AcDb2dVertex
 10
75.838547
 20
234.731476
 30
0.0
  0
VERTEX
  5
5B1
330
59F
100
AcDbEntity
  8
0
100
AcDbVertex
100
AcDb2dVertex
 10
75.890625
 20
234.639236
 30
0.0
  0
VERTEX
  5
5B2
330
59F
100
AcDbEntity
  8
0
100
AcDbVertex
100
AcDb2dVertex
 10
75.949539
 20
234.550705
 30
0.0
  0
VERTEX
  5
5B3
330
59F
100
AcDbEntity
  8
0
100
AcDbVertex
100
AcDb2dVertex
 10
75.981506
 20
234.508026
 30
0.0
  0
VERTEX
  5
5B4
330
59F
100
AcDbEntity
  8
0
100
AcDbVertex
100
AcDb2dVertex
 10
76.015091
 20
234.466507
 30
0.0
  0
VERTEX
  5
5B5
330
59F
100
AcDbEntity
  8
0
100
AcDbVertex
100
AcDb2dVertex
 10
76.062332
 20
234.413055
 30
0.0
  0
VERTEX
  5
5B6
330
59F
100
AcDbEntity
  8
0
100
AcDbVertex
100
AcDb2dVertex
 10
76.112274
 20
234.361984
 30
0.0
  0
VERTEX
  5
5B7
330
59F
100
AcDbEntity
  8
0
100
AcDbVertex
100
AcDb2dVertex
 10
76.16478
 20
234.313446
 30
0.0
  0
VERTEX
  5
5B8
330
59F
100
AcDbEntity
  8
0
100
AcDbVertex
100
AcDb2dVertex
 10
76.220139
 20
234.267258
 30
0.0
  0
VERTEX
  5
5B9
330
59F
100
AcDbEntity
  8
0
100
AcDbVertex
100
AcDb2dVertex
 10
76.277863
 20
234.223907
 30
0.0
  0
VERTEX
  5
5BA
330
59F
100
AcDbEntity
  8
0
100
AcDbVertex
100
AcDb2dVertex
 10
76.337677
 20
234.183609
 30
0.0
  0
SEQEND
  5
5BB
330
59F
100
AcDbEntity
  8
0
 62
     7
  0
ARC
  5
5BC
330
1F
100
AcDbEntity
  8
0
 62
     7
100
AcDbCircle
 10
72.493042
 20
239.650009
 30
0.0
 40
4.150000095367432
100
AcDbArc
 50
0.0
 51
38.583602
  0
LINE
  5
5BD
330
1F
100
AcDbEntity
  8
0
 62
     7
100
AcDbLine
 10
64.393036
 20
219.449997
 30
0.0
 11
69.092987
 21
219.449997
 31
0.0
  0
LINE
  5
5BE
330
1F
100
AcDbEntity
  8
0
 62
     7
100
AcDbLine
 10
75.89299
 20
219.449997
 30
0.0
 11
80.593033
 21
219.449997
 31
0.0
  0
LINE
  5
5BF
330
1F
100
AcDbEntity
  8
0
 62
     7
100
AcDbLine
 10
76.643036
 20
239.650009
 30
0.0
 11
76.643036
 21
238.650009
 31
0.0
  0
ARC
  5
5C0
330
1F
100
AcDbEntity
  8
0
 62
     7
100
AcDbCircle
 10
72.493042
 20
238.650009
 30
0.0
 40
4.150000095367432
100
AcDbArc
 50
327.912246
 51
360.0
  0
POLYLINE
  5
5C1
330
1F
100
AcDbEntity
  8
0
 62
     7
100
AcDb2dPolyline
 66
     1
 10
0.0
 20
0.0
 30
0.0
  0
VERTEX
  5
5C2
330
5C1
100
AcDbEntity
  8
0
100
AcDbVertex
100
AcDb2dVertex
 10
76.419876
 20
234.303833
 30
0.0
  0
VERTEX
  5
5C3
330
5C1
100
AcDbEntity
  8
0
100
AcDbVertex
100
AcDb2dVertex
 10
76.345581
 20
234.354691
 30
0.0
  0
VERTEX
  5
5C4
330
5C1
100
AcDbEntity
  8
0
100
AcDbVertex
100
AcDb2dVertex
 10
76.286209
 20
234.40062
 30
0.0
  0
VERTEX
  5
5C5
330
5C1
100
AcDbEntity
  8
0
100
AcDbVertex
100
AcDb2dVertex
 10
76.229446
 20
234.44957
 30
0.0
  0
VERTEX
  5
5C6
330
5C1
100
AcDbEntity
  8
0
100
AcDbVertex
100
AcDb2dVertex
 10
76.1548
 20
234.522675
 30
0.0
  0
VERTEX
  5
5C7
330
5C1
100
AcDbEntity
  8
0
100
AcDbVertex
100
AcDb2dVertex
 10
76.085876
 20
234.600876
 30
0.0
  0
VERTEX
  5
5C8
330
5C1
100
AcDbEntity
  8
0
100
AcDbVertex
100
AcDb2dVertex
 10
76.023026
 20
234.68364
 30
0.0
  0
VERTEX
  5
5C9
330
5C1
100
AcDbEntity
  8
0
100
AcDbVertex
100
AcDb2dVertex
 10
75.966476
 20
234.770401
 30
0.0
  0
VERTEX
  5
5CA
330
5C1
100
AcDbEntity
  8
0
100
AcDbVertex
100
AcDb2dVertex
 10
75.916443
 20
234.860565
 30
0.0
  0
VERTEX
  5
5CB
330
5C1
100
AcDbEntity
  8
0
100
AcDbVertex
100
AcDb2dVertex
 10
75.873016
 20
234.953598
 30
0.0
  0
VERTEX
  5
5CC
330
5C1
100
AcDbEntity
  8
0
100
AcDbVertex
100
AcDb2dVertex
 10
75.836273
 20
235.04895
 30
0.0
  0
VERTEX
  5
5CD
330
5C1
100
AcDbEntity
  8
0
100
AcDbVertex
100
AcDb2dVertex
 10
75.80513
 20
235.150024
 30
0.0
  0
VERTEX
  5
5CE
330
5C1
100
AcDbEntity
  8
0
100
AcDbVertex
100
AcDb2dVertex
 10
75.781174
 20
235.252487
 30
0.0
  0
VERTEX
  5
5CF
330
5C1
100
AcDbEntity
  8
0
100
AcDbVertex
100
AcDb2dVertex
 10
75.764297
 20
235.35582
 30
0.0
  0
VERTEX
  5
5D0
330
5C1
100
AcDbEntity
  8
0
100
AcDbVertex
100
AcDb2dVertex
 10
75.754395
 20
235.459503
 30
0.0
  0
VERTEX
  5
5D1
330
5C1
100
AcDbEntity
  8
0
100
AcDbVertex
100
AcDb2dVertex
 10
75.751312
 20
235.563126
 30
0.0
  0
VERTEX
  5
5D2
330
5C1
100
AcDbEntity
  8
0
100
AcDbVertex
100
AcDb2dVertex
 10
75.754898
 20
235.666229
 30
0.0
  0
VERTEX
  5
5D3
330
5C1
100
AcDbEntity
  8
0
100
AcDbVertex
100
AcDb2dVertex
 10
75.764938
 20
235.768463
 30
0.0
  0
VERTEX
  5
5D4
330
5C1
100
AcDbEntity
  8
0
100
AcDbVertex
100
AcDb2dVertex
 10
75.781693
 20
235.871567
 30
0.0
  0
VERTEX
  5
5D5
330
5C1
100
AcDbEntity
  8
0
100
AcDbVertex
100
AcDb2dVertex
 10
75.80481
 20
235.973038
 30
0.0
  0
VERTEX
  5
5D6
330
5C1
100
AcDbEntity
  8
0
100
AcDbVertex
100
AcDb2dVertex
 10
75.834091
 20
236.072586
 30
0.0
  0
VERTEX
  5
5D7
330
5C1
100
AcDbEntity
  8
0
100
AcDbVertex
100
AcDb2dVertex
 10
75.869354
 20
236.169891
 30
0.0
  0
VERTEX
  5
5D8
330
5C1
100
AcDbEntity
  8
0
100
AcDbVertex
100
AcDb2dVertex
 10
75.910385
 20
236.264664
 30
0.0
  0
VERTEX
  5
5D9
330
5C1
100
AcDbEntity
  8
0
100
AcDbVertex
100
AcDb2dVertex
 10
75.957016
 20
236.356598
 30
0.0
  0
VERTEX
  5
5DA
330
5C1
100
AcDbEntity
  8
0
100
AcDbVertex
100
AcDb2dVertex
 10
76.009064
 20
236.44545
 30
0.0
  0
SEQEND
  5
5DB
330
5C1
100
AcDbEntity
  8
0
 62
     7
  0
ARC
  5
5DC
330
1F
100
AcDbEntity
  8
0
 62
     7
100
AcDbCircle
 10
72.493042
 20
228.150009
 30
0.0
 40
7.300000190734863
100
AcDbArc
 50
297.758952
 51
57.457471
  0
LINE
  5
5DD
330
1F
100
AcDbEntity
  8
0
 62
     7
100
AcDbLine
 10
68.993225
 20
221.743652
 30
0.0
 11
69.093048
 21
221.690125
 31
0.0
  0
ARC
  5
5DE
330
1F
100
AcDbEntity
  8
0
 62
     7
100
AcDbCircle
 10
72.493042
 20
228.150009
 30
0.0
 40
7.300000190734863
100
AcDbArc
 50
122.542528
 51
241.352115
  0
POLYLINE
  5
5DF
330
1F
100
AcDbEntity
  8
0
 62
     7
100
AcDb2dPolyline
 66
     1
 10
0.0
 20
0.0
 30
0.0
  0
VERTEX
  5
5E0
330
5DF
100
AcDbEntity
  8
0
100
AcDbVertex
100
AcDb2dVertex
 10
68.566177
 20
234.303848
 30
0.0
  0
VERTEX
  5
5E1
330
5DF
100
AcDbEntity
  8
0
100
AcDbVertex
100
AcDb2dVertex
 10
68.645676
 20
234.35849
 30
0.0
  0
VERTEX
  5
5E2
330
5DF
100
AcDbEntity
  8
0
100
AcDbVertex
100
AcDb2dVertex
 10
68.721222
 20
234.418411
 30
0.0
  0
VERTEX
  5
5E3
330
5DF
100
AcDbEntity
  8
0
100
AcDbVertex
100
AcDb2dVertex
 10
68.792419
 20
234.483276
 30
0.0
  0
VERTEX
  5
5E4
330
5DF
100
AcDbEntity
  8
0
100
AcDbVertex
100
AcDb2dVertex
 10
68.858948
 20
234.552704
 30
0.0
  0
VERTEX
  5
5E5
330
5DF
100
AcDbEntity
  8
0
100
AcDbVertex
100
AcDb2dVertex
 10
68.920486
 20
234.626266
 30
0.0
  0
VERTEX
  5
5E6
330
5DF
100
AcDbEntity
  8
0
100
AcDbVertex
100
AcDb2dVertex
 10
68.982056
 20
234.711319
 30
0.0
  0
VERTEX
  5
5E7
330
5DF
100
AcDbEntity
  8
0
100
AcDbVertex
100
AcDb2dVertex
 10
69.037094
 20
234.800247
 30
0.0
  0
VERTEX
  5
5E8
330
5DF
100
AcDbEntity
  8
0
100
AcDbVertex
100
AcDb2dVertex
 10
69.085434
 20
234.892502
 30
0.0
  0
VERTEX
  5
5E9
330
5DF
100
AcDbEntity
  8
0
100
AcDbVertex
100
AcDb2dVertex
 10
69.126984
 20
234.987503
 30
0.0
  0
VERTEX
  5
5EA
330
5DF
100
AcDbEntity
  8
0
100
AcDbVertex
100
AcDb2dVertex
 10
69.161697
 20
235.084656
 30
0.0
  0
VERTEX
  5
5EB
330
5DF
100
AcDbEntity
  8
0
100
AcDbVertex
100
AcDb2dVertex
 10
69.189575
 20
235.183426
 30
0.0
  0
VERTEX
  5
5EC
330
5DF
100
AcDbEntity
  8
0
100
AcDbVertex
100
AcDb2dVertex
 10
69.210693
 20
235.28334
 30
0.0
  0
VERTEX
  5
5ED
330
5DF
100
AcDbEntity
  8
0
100
AcDbVertex
100
AcDb2dVertex
 10
69.225616
 20
235.388199
 30
0.0
  0
VERTEX
  5
5EE
330
5DF
100
AcDbEntity
  8
0
100
AcDbVertex
100
AcDb2dVertex
 10
69.233429
 20
235.493286
 30
0.0
  0
VERTEX
  5
5EF
330
5DF
100
AcDbEntity
  8
0
100
AcDbVertex
100
AcDb2dVertex
 10
69.234283
 20
235.59816
 30
0.0
  0
VERTEX
  5
5F0
330
5DF
100
AcDbEntity
  8
0
100
AcDbVertex
100
AcDb2dVertex
 10
69.228363
 20
235.702408
 30
0.0
  0
VERTEX
  5
5F1
330
5DF
100
AcDbEntity
  8
0
100
AcDbVertex
100
AcDb2dVertex
 10
69.215866
 20
235.805618
 30
0.0
  0
VERTEX
  5
5F2
330
5DF
100
AcDbEntity
  8
0
100
AcDbVertex
100
AcDb2dVertex
 10
69.196976
 20
235.907455
 30
0.0
  0
VERTEX
  5
5F3
330
5DF
100
AcDbEntity
  8
0
100
AcDbVertex
100
AcDb2dVertex
 10
69.171875
 20
236.007553
 30
0.0
  0
VERTEX
  5
5F4
330
5DF
100
AcDbEntity
  8
0
100
AcDbVertex
100
AcDb2dVertex
 10
69.142868
 20
236.099625
 30
0.0
  0
VERTEX
  5
5F5
330
5DF
100
AcDbEntity
  8
0
100
AcDbVertex
100
AcDb2dVertex
 10
69.108719
 20
236.189682
 30
0.0
  0
VERTEX
  5
5F6
330
5DF
100
AcDbEntity
  8
0
100
AcDbVertex
100
AcDb2dVertex
 10
69.069595
 20
236.277481
 30
0.0
  0
VERTEX
  5
5F7
330
5DF
100
AcDbEntity
  8
0
100
AcDbVertex
100
AcDb2dVertex
 10
69.02565
 20
236.362808
 30
0.0
  0
VERTEX
  5
5F8
330
5DF
100
AcDbEntity
  8
0
100
AcDbVertex
100
AcDb2dVertex
 10
68.977005
 20
236.44545
 30
0.0
  0
SEQEND
  5
5F9
330
5DF
100
AcDbEntity
  8
0
 62
     7
  0
ARC
  5
5FA
330
1F
100
AcDbEntity
  8
0
 62
     7
100
AcDbCircle
 10
72.493042
 20
238.650009
 30
0.0
 40
4.150000095367432
100
AcDbArc
 50
180.000009
 51
212.087746
  0
LINE
  5
5FB
330
1F
100
AcDbEntity
  8
0
 62
     7
100
AcDbLine
 10
68.343033
 20
239.650009
 30
0.0
 11
68.343033
 21
238.650009
 31
0.0
  0
ARC
  5
5FC
330
1F
100
AcDbEntity
  8
0
 62
     7
100
AcDbCircle
 10
72.493042
 20
239.650009
 30
0.0
 40
4.150000095367432
100
AcDbArc
 50
141.416403
 51
180.000009
  0
LINE
  5
5FD
330
1F
100
AcDbEntity
  8
0
 62
     7
100
AcDbLine
 10
66.643036
 20
235.350006
 30
0.0
 11
66.243042
 21
235.350006
 31
0.0
  0
ARC
  5
5FE
330
1F
100
AcDbEntity
  8
0
 62
     7
100
AcDbCircle
 10
66.243042
 20
236.699997
 30
0.0
 40
1.350000023841858
100
AcDbArc
 50
90.000003
 51
269.99997
  0
LINE
  5
5FF
330
1F
100
AcDbEntity
  8
0
 62
     7
100
AcDbLine
 10
66.243042
 20
238.050003
 30
0.0
 11
66.643036
 21
238.050003
 31
0.0
  0
ARC
  5
600
330
1F
100
AcDbEntity
  8
0
 62
     7
100
AcDbCircle
 10
66.643036
 20
236.699997
 30
0.0
 40
1.350000023841858
100
AcDbArc
 50
269.999997
 51
89.999989
  0
CIRCLE
  5
601
330
1F
100
AcDbEntity
  8
0
 62
     7
100
AcDbCircle
 10
78.543045
 20
236.699997
 30
0.0
 40
1.350000023841858
  0
ARC
  5
602
330
1F
100
AcDbEntity
  8
0
 62
     7
100
AcDbCircle
 10
80.593033
 20
219.449997
 30
0.0
 40
0.5
100
AcDbArc
 50
269.999997
 51
359.999901
  0
LINE
  5
603
330
1F
100
AcDbEntity
  8
0
 62
     7
100
AcDbLine
 10
81.093033
 20
242.550003
 30
0.0
 11
81.093033
 21
219.449997
 31
0.0
  0
ARC
  5
604
330
1F
100
AcDbEntity
  8
0
 62
     7
100
AcDbCircle
 10
80.593033
 20
218.950012
 30
0.0
 40
0.4999969899654388
100
AcDbArc
 50
29.999605
 51
90.000201
  0
LINE
  5
605
330
1F
100
AcDbEntity
  8
0
 62
     7
100
AcDbLine
 10
64.393036
 20
244.050003
 30
0.0
 11
80.593033
 21
244.050003
 31
0.0
  0
LINE
  5
606
330
1F
100
AcDbEntity
  8
0
 62
     7
100
AcDbLine
 10
63.89304
 20
219.449997
 30
0.0
 11
63.89304
 21
242.550003
 31
0.0
  0
LINE
  5
607
330
1F
100
AcDbEntity
  8
0
 62
     7
100
AcDbLine
 10
63.89304
 20
242.550003
 30
0.0
 11
63.89304
 21
243.550003
 31
0.0
  0
ARC
  5
608
330
1F
100
AcDbEntity
  8
0
 62
     7
100
AcDbCircle
 10
64.393036
 20
219.449997
 30
0.0
 40
0.5
100
AcDbArc
 50
180.000009
 51
270.000353
  0
ARC
  5
609
330
1F
100
AcDbEntity
  8
0
 62
     7
100
AcDbCircle
 10
64.393036
 20
218.949997
 30
0.0
 40
0.5000079870223999
100
AcDbArc
 50
90.000289
 51
149.999055
  0
LINE
  5
60A
330
1F
100
AcDbEntity
  8
0
 62
     7
100
AcDbLine
 10
68.977005
 20
236.44545
 30
0.0
 11
69.034973
 21
236.355591
 31
0.0
  0
ARC
  5
60B
330
1F
100
AcDbEntity
  8
0
 62
     7
100
AcDbCircle
 10
72.493042
 20
228.150009
 30
0.0
 40
7.099999904632568
100
AcDbArc
 50
0.0
 51
241.352115
  0
ARC
  5
60C
330
1F
100
AcDbEntity
  8
0
 62
     7
100
AcDbCircle
 10
72.493042
 20
228.150009
 30
0.0
 40
7.099999904632568
100
AcDbArc
 50
298.611797
 51
360.0
  0
LINE
  5
60D
330
1F
100
AcDbEntity
  8
0
 62
     7
100
AcDbLine
 10
75.951096
 20
236.355591
 30
0.0
 11
76.009064
 21
236.44545
 31
0.0
  0
LINE
  5
60E
330
1F
100
AcDbEntity
  8
0
 62
     7
100
AcDbLine
 10
64.393036
 20
218.949997
 30
0.0
 11
69.092987
 21
218.949997
 31
0.0
  0
LINE
  5
60F
330
1F
100
AcDbEntity
  8
0
 62
     7
100
AcDbLine
 10
75.89299
 20
218.949997
 30
0.0
 11
80.593033
 21
218.949997
 31
0.0
  0
LINE
  5
610
330
1F
100
AcDbEntity
  8
0
 62
     7
100
AcDbLine
 10
66.643036
 20
235.449997
 30
0.0
 11
66.243042
 21
235.449997
 31
0.0
  0
ARC
  5
611
330
1F
100
AcDbEntity
  8
0
 62
     7
100
AcDbCircle
 10
66.243042
 20
236.699997
 30
0.0
 40
1.25
100
AcDbArc
 50
90.000003
 51
269.999997
  0
LINE
  5
612
330
1F
100
AcDbEntity
  8
0
 62
     7
100
AcDbLine
 10
66.243042
 20
237.949997
 30
0.0
 11
66.643036
 21
237.949997
 31
0.0
  0
ARC
  5
613
330
1F
100
AcDbEntity
  8
0
 62
     7
100
AcDbCircle
 10
66.643036
 20
236.699997
 30
0.0
 40
1.25
100
AcDbArc
 50
269.999997
 51
90.000003
  0
CIRCLE
  5
614
330
1F
100
AcDbEntity
  8
0
 62
     7
100
AcDbCircle
 10
78.543045
 20
236.699997
 30
0.0
 40
1.25
  0
LINE
  5
615
330
1F
100
AcDbEntity
  8
0
 62
     7
100
AcDbLine
 10
81.093033
 20
242.550003
 30
0.0
 11
81.093033
 21
243.550003
 31
0.0
  0
ARC
  5
616
330
1F
100
AcDbEntity
  8
0
 62
     7
100
AcDbCircle
 10
80.593033
 20
243.550003
 30
0.0
 40
0.5
100
AcDbArc
 50
0.0
 51
90.000003
  0
LINE
  5
617
330
1F
100
AcDbEntity
  8
0
 62
     7
100
AcDbLine
 10
81.093033
 20
241.185135
 30
0.0
 11
81.093033
 21
238.950485
 31
0.0
  0
LINE
  5
618
330
1F
100
AcDbEntity
  8
0
 62
     7
100
AcDbLine
 10
81.293045
 20
237.987701
 30
0.0
 11
81.293045
 21
238.950485
 31
0.0
  0
LINE
  5
619
330
1F
100
AcDbEntity
  8
0
 62
     7
100
AcDbLine
 10
81.293045
 20
237.987701
 30
0.0
 11
81.293045
 21
226.250015
 31
0.0
  0
LINE
  5
61A
330
1F
100
AcDbEntity
  8
0
 62
     7
100
AcDbLine
 10
81.293045
 20
223.250015
 30
0.0
 11
81.293045
 21
226.250015
 31
0.0
  0
LINE
  5
61B
330
1F
100
AcDbEntity
  8
0
 62
     7
100
AcDbLine
 10
81.093033
 20
223.250015
 30
0.0
 11
81.293045
 21
223.250015
 31
0.0
  0
LINE
  5
61C
330
1F
100
AcDbEntity
  8
0
 62
     7
100
AcDbLine
 10
81.093033
 20
242.050003
 30
0.0
 11
81.293045
 21
242.050003
 31
0.0
  0
LINE
  5
61D
330
1F
100
AcDbEntity
  8
0
 62
     7
100
AcDbLine
 10
81.293045
 20
241.185135
 30
0.0
 11
81.293045
 21
242.050003
 31
0.0
  0
LINE
  5
61E
330
1F
100
AcDbEntity
  8
0
 62
     7
100
AcDbLine
 10
68.54335
 20
222.250015
 30
0.0
 11
68.726074
 21
222.250015
 31
0.0
  0
LINE
  5
61F
330
1F
100
AcDbEntity
  8
0
 62
     7
100
AcDbLine
 10
76.259995
 20
222.250015
 30
0.0
 11
76.442719
 21
222.250015
 31
0.0
  0
ARC
  5
620
330
1F
100
AcDbEntity
  8
0
 62
     7
100
AcDbCircle
 10
64.393036
 20
243.550003
 30
0.0
 40
0.5
100
AcDbArc
 50
90.000003
 51
180.000009
  0
LINE
  5
621
330
1F
100
AcDbEntity
  8
0
 62
     7
100
AcDbLine
 10
63.693039
 20
242.050003
 30
0.0
 11
63.89304
 21
242.050003
 31
0.0
  0
LINE
  5
622
330
1F
100
AcDbEntity
  8
0
 62
     7
100
AcDbLine
 10
63.693039
 20
241.185135
 30
0.0
 11
63.693039
 21
242.050003
 31
0.0
  0
LINE
  5
623
330
1F
100
AcDbEntity
  8
0
 62
     7
100
AcDbLine
 10
63.693039
 20
223.250015
 30
0.0
 11
63.89304
 21
223.250015
 31
0.0
  0
LINE
  5
624
330
1F
100
AcDbEntity
  8
0
 62
     7
100
AcDbLine
 10
63.693039
 20
223.250015
 30
0.0
 11
63.693039
 21
226.250015
 31
0.0
  0
LINE
  5
625
330
1F
100
AcDbEntity
  8
0
 62
     7
100
AcDbLine
 10
63.693039
 20
237.987701
 30
0.0
 11
63.693039
 21
226.250015
 31
0.0
  0
LINE
  5
626
330
1F
100
AcDbEntity
  8
0
 62
     7
100
AcDbLine
 10
63.693039
 20
237.987701
 30
0.0
 11
63.693039
 21
238.950485
 31
0.0
  0
LINE
  5
627
330
1F
100
AcDbEntity
  8
0
 62
     7
100
AcDbLine
 10
81.293045
 20
238.950485
 30
0.0
 11
81.293045
 21
241.185135
 31
0.0
  0
LINE
  5
628
330
1F
100
AcDbEntity
  8
0
 62
     7
100
AcDbLine
 10
68.393036
 20
245.050003
 30
0.0
 11
68.393036
 21
244.050018
 31
0.0
  0
LINE
  5
629
330
1F
100
AcDbEntity
  8
0
 62
     7
100
AcDbLine
 10
63.693039
 20
238.950485
 30
0.0
 11
63.693039
 21
241.185135
 31
0.0
  0
LINE
  5
62A
330
1F
100
AcDbEntity
  8
0
 62
     7
100
AcDbLine
 10
76.793045
 20
245.150009
 30
0.0
 11
76.793045
 21
244.550003
 31
0.0
  0
ARC
  5
62B
330
1F
100
AcDbEntity
  8
0
 62
     7
100
AcDbCircle
 10
78.293045
 20
244.550003
 30
0.0
 40
1.5
100
AcDbArc
 50
180.000009
 51
199.470938
  0
ARC
  5
62C
330
1F
100
AcDbEntity
  8
0
 62
     7
100
AcDbCircle
 10
78.293045
 20
245.050003
 30
0.0
 40
1.0
100
AcDbArc
 50
180.000009
 51
269.999997
  0
LINE
  5
62D
330
1F
100
AcDbEntity
  8
0
 62
     7
100
AcDbLine
 10
77.293045
 20
245.050003
 30
0.0
 11
77.293045
 21
245.150009
 31
0.0
  0
LINE
  5
62E
330
1F
100
AcDbEntity
  8
0
 62
     7
100
AcDbLine
 10
76.593033
 20
244.050018
 30
0.0
 11
76.593033
 21
245.050003
 31
0.0
  0
LINE
  5
62F
330
1F
100
AcDbEntity
  8
0
 62
     7
100
AcDbLine
 10
68.393036
 20
245.050003
 30
0.0
 11
68.393036
 21
245.150085
 31
0.0
  0
ARC
  5
630
330
1F
100
AcDbEntity
  8
0
 62
     7
100
AcDbCircle
 10
66.693039
 20
244.550003
 30
0.0
 40
1.5
100
AcDbArc
 50
340.529081
 51
360.0
  0
LINE
  5
631
330
1F
100
AcDbEntity
  8
0
 62
     7
100
AcDbLine
 10
67.693039
 20
245.050003
 30
0.0
 11
67.693039
 21
245.150009
 31
0.0
  0
ARC
  5
632
330
1F
100
AcDbEntity
  8
0
 62
     7
100
AcDbCircle
 10
66.693039
 20
245.050003
 30
0.0
 40
1.0
100
AcDbArc
 50
269.999997
 51
360.0
  0
LINE
  5
633
330
1F
100
AcDbEntity
  8
0
 62
     7
100
AcDbLine
 10
68.193039
 20
245.150009
 30
0.0
 11
68.193039
 21
244.550003
 31
0.0
  0
LINE
  5
634
330
1F
100
AcDbEntity
  8
0
 62
     7
100
AcDbLine
 10
76.593033
 20
245.150009
 30
0.0
 11
76.593033
 21
245.049957
 31
0.0
  0
ARC
  5
635
330
1F
100
AcDbEntity
  8
0
 62
     7
100
AcDbCircle
 10
76.093033
 20
245.050003
 30
0.0
 40
0.5
100
AcDbArc
 50
0.0
 51
11.538233
  0
ARC
  5
636
330
1F
100
AcDbEntity
  8
0
 62
     7
100
AcDbCircle
 10
72.493042
 20
228.150009
 30
0.0
 40
7.0
100
AcDbArc
 50
299.059263
 51
240.940746
  0
ARC
  5
637
330
1F
100
AcDbEntity
  8
0
 62
     7
100
AcDbCircle
 10
72.493042
 20
228.150009
 30
0.0
 40
6.900000095367432
100
AcDbArc
 50
299.52166
 51
240.478287
  0
LINE
  5
638
330
1F
100
AcDbEntity
  8
0
 62
     7
100
AcDbLine
 10
81.092377
 20
242.575623
 30
0.0
 11
81.093033
 21
242.550003
 31
0.0
  0
LINE
  5
639
330
1F
100
AcDbEntity
  8
0
 62
     7
100
AcDbLine
 10
81.091949
 20
242.582932
 30
0.0
 11
81.093033
 21
242.550003
 31
0.0
  0
LINE
  5
63A
330
1F
100
AcDbEntity
  8
0
 62
     7
100
AcDbLine
 10
81.093018
 20
242.554886
 30
0.0
 11
81.093033
 21
242.550003
 31
0.0
  0
LINE
  5
63B
330
1F
100
AcDbEntity
  8
0
 62
     7
100
AcDbLine
 10
69.093033
 20
153.150009
 30
0.0
 11
69.093033
 21
228.150009
 31
0.0
  0
ARC
  5
63C
330
1F
100
AcDbEntity
  8
0
 62
     7
100
AcDbCircle
 10
72.493042
 20
228.150009
 30
0.0
 40
3.400000095367432
100
AcDbArc
 50
0.0
 51
180.000009
  0
LINE
  5
63D
330
1F
100
AcDbEntity
  8
0
 62
     7
100
AcDbLine
 10
75.893036
 20
153.150009
 30
0.0
 11
75.893036
 21
228.150009
 31
0.0
  0
LINE
  5
63E
330
1F
100
AcDbEntity
  8
0
 62
     7
100
AcDbLine
 10
69.093033
 20
153.150009
 30
0.0
 11
69.093033
 21
143.150009
 31
0.0
  0
LINE
  5
63F
330
1F
100
AcDbEntity
  8
0
 62
     7
100
AcDbLine
 10
75.893036
 20
153.150009
 30
0.0
 11
75.893036
 21
143.150009
 31
0.0
  0
LINE
  5
640
330
1F
100
AcDbEntity
  8
0
 62
     7
100
AcDbLine
 10
75.893036
 20
143.150009
 30
0.0
 11
69.093033
 21
143.150009
 31
0.0
  0
ARC
  5
641
330
1F
100
AcDbEntity
  8
0
 62
     7
100
AcDbCircle
 10
72.493042
 20
228.150009
 30
0.0
 40
3.549999952316284
100
AcDbArc
 50
344.596894
 51
195.402372
  0
ARC
  5
642
330
1F
100
AcDbEntity
  8
0
 62
     7
100
AcDbCircle
 10
72.493042
 20
228.150009
 30
0.0
 40
4.712500095367432
100
AcDbArc
 50
12.251403
 51
167.748599
  0
LINE
  5
643
330
1F
100
AcDbEntity
  8
0
 62
     7
100
AcDbLine
 10
77.034241
 20
229.150009
 30
0.0
 11
77.098221
 21
229.150009
 31
0.0
  0
ARC
  5
644
330
1F
100
AcDbEntity
  8
0
 62
     7
100
AcDbCircle
 10
72.493042
 20
228.150009
 30
0.0
 40
4.650000095367432
100
AcDbArc
 50
12.418682
 51
167.581314
  0
ARC
  5
645
330
1F
100
AcDbEntity
  8
0
 62
     7
100
AcDbCircle
 10
72.493042
 20
228.150009
 30
0.0
 40
4.574999809265137
100
AcDbArc
 50
12.625598
 51
167.3744
  0
LINE
  5
646
330
1F
100
AcDbEntity
  8
0
 62
     7
100
AcDbLine
 10
76.893341
 20
229.150009
 30
0.0
 11
76.957413
 21
229.150009
 31
0.0
  0
ARC
  5
647
330
1F
100
AcDbEntity
  8
0
 62
     7
100
AcDbCircle
 10
72.493042
 20
228.150009
 30
0.0
 40
4.512499809265137
100
AcDbArc
 50
12.803414
 51
167.196583
  0
ARC
  5
648
330
1F
100
AcDbEntity
  8
0
 62
     7
100
AcDbCircle
 10
72.493042
 20
228.150009
 30
0.0
 40
4.4375
100
AcDbArc
 50
13.023584
 51
166.976419
  0
LINE
  5
649
330
1F
100
AcDbEntity
  8
0
 62
     7
100
AcDbLine
 10
76.752213
 20
229.150009
 30
0.0
 11
76.816391
 21
229.150009
 31
0.0
  0
ARC
  5
64A
330
1F
100
AcDbEntity
  8
0
 62
     7
100
AcDbCircle
 10
72.493042
 20
228.150009
 30
0.0
 40
4.375
100
AcDbArc
 50
13.21298
 51
166.787018
  0
ARC
  5
64B
330
1F
100
AcDbEntity
  8
0
 62
     7
100
AcDbCircle
 10
72.493042
 20
228.150009
 30
0.0
 40
4.25
100
AcDbArc
 50
323.12972
 51
216.870258
  0
ARC
  5
64C
330
1F
100
AcDbEntity
  8
0
 62
     7
100
AcDbCircle
 10
72.493042
 20
228.150009
 30
0.0
 40
4.375
100
AcDbArc
 50
320.999384
 51
346.787008
  0
ARC
  5
64D
330
1F
100
AcDbEntity
  8
0
 62
     7
100
AcDbCircle
 10
72.493042
 20
228.150009
 30
0.0
 40
4.375
100
AcDbArc
 50
193.212982
 51
219.000594
  0
LINE
  5
64E
330
1F
100
AcDbEntity
  8
0
 62
     7
100
AcDbLine
 10
76.752213
 20
227.150009
 30
0.0
 11
76.816391
 21
227.150009
 31
0.0
  0
ARC
  5
64F
330
1F
100
AcDbEntity
  8
0
 62
     7
100
AcDbCircle
 10
72.493042
 20
228.150009
 30
0.0
 40
4.4375
100
AcDbArc
 50
193.023581
 51
219.986545
  0
ARC
  5
650
330
1F
100
AcDbEntity
  8
0
 62
     7
100
AcDbCircle
 10
72.493042
 20
228.150009
 30
0.0
 40
4.4375
100
AcDbArc
 50
320.013433
 51
346.976424
  0
ARC
  5
651
330
1F
100
AcDbEntity
  8
0
 62
     7
100
AcDbCircle
 10
72.493042
 20
228.150009
 30
0.0
 40
4.512499809265137
100
AcDbArc
 50
318.891096
 51
347.196575
  0
ARC
  5
652
330
1F
100
AcDbEntity
  8
0
 62
     7
100
AcDbCircle
 10
72.493042
 20
228.150009
 30
0.0
 40
4.512499809265137
100
AcDbArc
 50
192.803417
 51
221.108896
  0
LINE
  5
653
330
1F
100
AcDbEntity
  8
0
 62
     7
100
AcDbLine
 10
76.893341
 20
227.150009
 30
0.0
 11
76.957413
 21
227.150009
 31
0.0
  0
ARC
  5
654
330
1F
100
AcDbEntity
  8
0
 62
     7
100
AcDbCircle
 10
72.493042
 20
228.150009
 30
0.0
 40
4.574999809265137
100
AcDbArc
 50
192.6256
 51
221.997954
  0
ARC
  5
655
330
1F
100
AcDbEntity
  8
0
 62
     7
100
AcDbCircle
 10
72.493042
 20
228.150009
 30
0.0
 40
4.574999809265137
100
AcDbArc
 50
318.002024
 51
347.374406
  0
ARC
  5
656
330
1F
100
AcDbEntity
  8
0
 62
     7
100
AcDbCircle
 10
72.493042
 20
228.150009
 30
0.0
 40
4.650000095367432
100
AcDbArc
 50
316.985583
 51
347.581305
  0
ARC
  5
657
330
1F
100
AcDbEntity
  8
0
 62
     7
100
AcDbCircle
 10
72.493042
 20
228.150009
 30
0.0
 40
4.650000095367432
100
AcDbArc
 50
192.418686
 51
223.014354
  0
LINE
  5
658
330
1F
100
AcDbEntity
  8
0
 62
     7
100
AcDbLine
 10
77.034241
 20
227.150009
 30
0.0
 11
77.098221
 21
227.150009
 31
0.0
  0
ARC
  5
659
330
1F
100
AcDbEntity
  8
0
 62
     7
100
AcDbCircle
 10
72.493042
 20
228.150009
 30
0.0
 40
4.712500095367432
100
AcDbArc
 50
192.251401
 51
223.822666
  0
ARC
  5
65A
330
1F
100
AcDbEntity
  8
0
 62
     7
100
AcDbCircle
 10
72.493042
 20
228.150009
 30
0.0
 40
4.712500095367432
100
AcDbArc
 50
316.177161
 51
347.748591
  0
LINE
  5
65B
330
1F
100
AcDbEntity
  8
0
 62
     7
100
AcDbLine
 10
68.092743
 20
227.150009
 30
0.0
 11
68.028671
 21
227.150009
 31
0.0
  0
LINE
  5
65C
330
1F
100
AcDbEntity
  8
0
 62
     7
100
AcDbLine
 10
68.233856
 20
227.150009
 30
0.0
 11
68.169678
 21
227.150009
 31
0.0
  0
LINE
  5
65D
330
1F
100
AcDbEntity
  8
0
 62
     7
100
AcDbLine
 10
68.233856
 20
229.150009
 30
0.0
 11
68.169678
 21
229.150009
 31
0.0
  0
LINE
  5
65E
330
1F
100
AcDbEntity
  8
0
 62
     7
100
AcDbLine
 10
68.092743
 20
229.150009
 30
0.0
 11
68.028671
 21
229.150009
 31
0.0
  0
LINE
  5
65F
330
1F
100
AcDbEntity
  8
0
 62
     7
100
AcDbLine
 10
67.951843
 20
229.150009
 30
0.0
 11
67.887863
 21
229.150009
 31
0.0
  0
LINE
  5
660
330
1F
100
AcDbEntity
  8
0
 62
     7
100
AcDbLine
 10
67.951843
 20
227.150009
 30
0.0
 11
67.887863
 21
227.150009
 31
0.0
  0
ARC
  5
661
330
1F
100
AcDbEntity
  8
0
 62
     7
100
AcDbCircle
 10
72.493042
 20
228.150009
 30
0.0
 40
5.0
100
AcDbArc
 50
312.843537
 51
227.156454
  0
ARC
  5
662
330
1F
100
AcDbEntity
  8
0
 62
     7
100
AcDbCircle
 10
72.493042
 20
228.150009
 30
0.0
 40
5.300000190734863
100
AcDbArc
 50
309.904343
 51
230.095662
  0
ARC
  5
663
330
1F
100
AcDbEntity
  8
0
 62
     7
100
AcDbCircle
 10
72.493042
 20
228.150009
 30
0.0
 40
7.0
100
AcDbArc
 50
299.059263
 51
240.940746
  0
ARC
  5
664
330
1F
100
AcDbEntity
  8
0
 62
     7
100
AcDbCircle
 10
72.493042
 20
228.150009
 30
0.0
 40
6.900000095367432
100
AcDbArc
 50
299.52166
 51
240.478287
  0
ARC
  5
665
330
1F
100
AcDbEntity
  8
0
 62
     7
100
AcDbCircle
 10
72.493042
 20
228.150009
 30
0.0
 40
6.300000190734863
100
AcDbArc
 50
105.0
 51
135.0
  0
ARC
  5
666
330
1F
100
AcDbEntity
  8
0
 62
     7
100
AcDbCircle
 10
72.493042
 20
228.150009
 30
0.0
 40
6.300000190734863
100
AcDbArc
 50
345.000012
 51
15.0
  0
ARC
  5
667
330
1F
100
AcDbEntity
  8
0
 62
     7
100
AcDbCircle
 10
72.493042
 20
228.150009
 30
0.0
 40
6.300000190734863
100
AcDbArc
 50
302.661962
 51
314.999992
  0
ARC
  5
668
330
1F
100
AcDbEntity
  8
0
 62
     7
100
AcDbCircle
 10
72.493042
 20
228.150009
 30
0.0
 40
6.300000190734863
100
AcDbArc
 50
225.0
 51
237.338012
  0
ARC
  5
669
330
1F
100
AcDbEntity
  8
0
 62
     7
100
AcDbCircle
 10
72.493042
 20
228.150009
 30
0.0
 40
6.300000190734863
100
AcDbArc
 50
164.999994
 51
195.000006
  0
ARC
  5
66A
330
1F
100
AcDbEntity
  8
0
 62
     7
100
AcDbCircle
 10
72.493042
 20
228.150009
 30
0.0
 40
6.300000190734863
100
AcDbArc
 50
45.000001
 51
74.999999
  0
ARC
  5
66B
330
1F
100
AcDbEntity
  8
0
 62
     7
100
AcDbCircle
 10
72.493042
 20
228.150009
 30
0.0
 40
6.300000190734863
100
AcDbArc
 50
102.247215
 51
105.0
  0
ARC
  5
66C
330
1F
100
AcDbEntity
  8
0
 62
     7
100
AcDbCircle
 10
72.493042
 20
228.150009
 30
0.0
 40
6.300000190734863
100
AcDbArc
 50
135.0
 51
137.752785
  0
LINE
  5
66D
330
1F
100
AcDbEntity
  8
0
 62
     7
100
AcDbLine
 10
70.862473
 20
234.235336
 30
0.0
 11
71.010117
 21
234.786346
 31
0.0
  0
LINE
  5
66E
330
1F
100
AcDbEntity
  8
0
 62
     7
100
AcDbLine
 10
78.578369
 20
229.780563
 30
0.0
 11
78.981735
 21
230.183929
 31
0.0
  0
ARC
  5
66F
330
1F
100
AcDbEntity
  8
0
 62
     7
100
AcDbCircle
 10
72.493042
 20
228.150009
 30
0.0
 40
6.300000190734863
100
AcDbArc
 50
342.247199
 51
345.000012
  0
ARC
  5
670
330
1F
100
AcDbEntity
  8
0
 62
     7
100
AcDbCircle
 10
72.493042
 20
228.150009
 30
0.0
 40
6.300000190734863
100
AcDbArc
 50
15.0
 51
17.75279
  0
LINE
  5
671
330
1F
100
AcDbEntity
  8
0
 62
     7
100
AcDbLine
 10
78.578369
 20
226.519455
 30
0.0
 11
78.981735
 21
226.116089
 31
0.0
  0
LINE
  5
672
330
1F
100
AcDbEntity
  8
0
 62
     7
100
AcDbLine
 10
76.947815
 20
223.695236
 30
0.0
 11
77.49881
 21
223.547592
 31
0.0
  0
ARC
  5
673
330
1F
100
AcDbEntity
  8
0
 62
     7
100
AcDbCircle
 10
72.493042
 20
228.150009
 30
0.0
 40
6.300000190734863
100
AcDbArc
 50
314.999992
 51
317.752777
  0
ARC
  5
674
330
1F
100
AcDbEntity
  8
0
 62
     7
100
AcDbCircle
 10
72.493042
 20
228.150009
 30
0.0
 40
6.300000190734863
100
AcDbArc
 50
222.247215
 51
225.0
  0
LINE
  5
675
330
1F
100
AcDbEntity
  8
0
 62
     7
100
AcDbLine
 10
68.038269
 20
223.695236
 30
0.0
 11
67.487259
 21
223.547592
 31
0.0
  0
LINE
  5
676
330
1F
100
AcDbEntity
  8
0
 62
     7
100
AcDbLine
 10
66.4077
 20
226.519455
 30
0.0
 11
66.004349
 21
226.116089
 31
0.0
  0
ARC
  5
677
330
1F
100
AcDbEntity
  8
0
 62
     7
100
AcDbCircle
 10
72.493042
 20
228.150009
 30
0.0
 40
6.300000190734863
100
AcDbArc
 50
162.24721
 51
164.999994
  0
ARC
  5
678
330
1F
100
AcDbEntity
  8
0
 62
     7
100
AcDbCircle
 10
72.493042
 20
228.150009
 30
0.0
 40
6.300000190734863
100
AcDbArc
 50
195.000006
 51
197.75279
  0
LINE
  5
679
330
1F
100
AcDbEntity
  8
0
 62
     7
100
AcDbLine
 10
66.4077
 20
229.780563
 30
0.0
 11
66.004349
 21
230.183929
 31
0.0
  0
LINE
  5
67A
330
1F
100
AcDbEntity
  8
0
 62
     7
100
AcDbLine
 10
68.038269
 20
232.604782
 30
0.0
 11
67.487259
 21
232.752426
 31
0.0
  0
ARC
  5
67B
330
1F
100
AcDbEntity
  8
0
 62
     7
100
AcDbCircle
 10
72.493042
 20
228.150009
 30
0.0
 40
6.300000190734863
100
AcDbArc
 50
42.24721
 51
45.000001
  0
ARC
  5
67C
330
1F
100
AcDbEntity
  8
0
 62
     7
100
AcDbCircle
 10
72.493042
 20
228.150009
 30
0.0
 40
6.300000190734863
100
AcDbArc
 50
74.999999
 51
77.75279
  0
LINE
  5
67D
330
1F
100
AcDbEntity
  8
0
 62
     7
100
AcDbLine
 10
76.947815
 20
232.604782
 30
0.0
 11
77.49881
 21
232.752426
 31
0.0
  0
LINE
  5
67E
330
1F
100
AcDbEntity
  8
0
 62
     7
100
AcDbLine
 10
74.123596
 20
234.235336
 30
0.0
 11
73.975952
 21
234.786346
 31
0.0
  0
ARC
  5
67F
330
1F
100
AcDbEntity
  8
0
 62
     7
100
AcDbCircle
 10
72.493042
 20
228.150009
 30
0.0
 40
6.800000190734863
100
AcDbArc
 50
17.403926
 51
42.596075
  0
ARC
  5
680
330
1F
100
AcDbEntity
  8
0
 62
     7
100
AcDbCircle
 10
72.493042
 20
228.150009
 30
0.0
 40
6.800000190734863
100
AcDbArc
 50
77.403925
 51
102.596073
  0
ARC
  5
681
330
1F
100
AcDbEntity
  8
0
 62
     7
100
AcDbCircle
 10
72.493042
 20
228.150009
 30
0.0
 40
6.800000190734863
100
AcDbArc
 50
137.403926
 51
162.596068
  0
LINE
  5
682
330
1F
100
AcDbEntity
  8
0
 62
     7
100
AcDbLine
 10
71.156616
 20
234.306625
 30
0.0
 11
67.829453
 21
232.385696
 31
0.0
  0
ARC
  5
683
330
1F
100
AcDbEntity
  8
0
 62
     7
100
AcDbCircle
 10
72.493042
 20
228.150009
 30
0.0
 40
6.800000190734863
100
AcDbArc
 50
317.403918
 51
342.596085
  0
LINE
  5
684
330
1F
100
AcDbEntity
  8
0
 62
     7
100
AcDbLine
 10
78.493042
 20
226.229065
 30
0.0
 11
78.493042
 21
230.070938
 31
0.0
  0
LINE
  5
685
330
1F
100
AcDbEntity
  8
0
 62
     7
100
AcDbLine
 10
75.893112
 20
223.184845
 30
0.0
 11
77.156616
 21
223.914322
 31
0.0
  0
ARC
  5
686
330
1F
100
AcDbEntity
  8
0
 62
     7
100
AcDbCircle
 10
72.493042
 20
228.150009
 30
0.0
 40
6.800000190734863
100
AcDbArc
 50
197.403932
 51
222.596074
  0
LINE
  5
687
330
1F
100
AcDbEntity
  8
0
 62
     7
100
AcDbLine
 10
67.829453
 20
223.914322
 30
0.0
 11
69.092957
 21
223.184845
 31
0.0
  0
LINE
  5
688
330
1F
100
AcDbEntity
  8
0
 62
     7
100
AcDbLine
 10
66.493042
 20
230.070938
 30
0.0
 11
66.493042
 21
226.229065
 31
0.0
  0
LINE
  5
689
330
1F
100
AcDbEntity
  8
0
 62
     7
100
AcDbLine
 10
77.156616
 20
232.385696
 30
0.0
 11
73.829453
 21
234.306625
 31
0.0
  0
ARC
  5
68A
330
1F
100
AcDbEntity
  8
0
 62
     7
100
AcDbCircle
 10
72.493042
 20
228.150009
 30
0.0
 40
6.300000190734863
100
AcDbArc
 50
77.75279
 51
102.247215
  0
ARC
  5
68B
330
1F
100
AcDbEntity
  8
0
 62
     7
100
AcDbCircle
 10
72.493042
 20
228.150009
 30
0.0
 40
6.300000190734863
100
AcDbArc
 50
137.752785
 51
162.24721
  0
ARC
  5
68C
330
1F
100
AcDbEntity
  8
0
 62
     7
100
AcDbCircle
 10
72.493042
 20
228.150009
 30
0.0
 40
5.900000095367432
100
AcDbArc
 50
305.188613
 51
234.811389
  0
ARC
  5
68D
330
1F
100
AcDbEntity
  8
0
 62
     7
100
AcDbCircle
 10
72.493042
 20
228.150009
 30
0.0
 40
6.300000190734863
100
AcDbArc
 50
317.752777
 51
342.247199
  0
ARC
  5
68E
330
1F
100
AcDbEntity
  8
0
 62
     7
100
AcDbCircle
 10
72.493042
 20
228.150009
 30
0.0
 40
6.300000190734863
100
AcDbArc
 50
17.75279
 51
42.24721
  0
ARC
  5
68F
330
1F
100
AcDbEntity
  8
0
 62
     7
100
AcDbCircle
 10
72.493042
 20
228.150009
 30
0.0
 40
6.300000190734863
100
AcDbArc
 50
197.75279
 51
222.247215
  0
ARC
  5
690
330
1F
100
AcDbEntity
  8
0
 62
     7
100
AcDbCircle
 10
72.493042
 20
228.150009
 30
0.0
 40
7.0
100
AcDbArc
 50
299.059263
 51
61.352113
  0
POLYLINE
  5
691
330
1F
100
AcDbEntity
  8
0
 62
     7
100
AcDb2dPolyline
 66
     1
 10
0.0
 20
0.0
 30
0.0
  0
VERTEX
  5
692
330
691
100
AcDbEntity
  8
0
100
AcDbVertex
100
AcDb2dVertex
 10
269.117432
 20
155.133774
 30
0.0
  0
VERTEX
  5
693
330
691
100
AcDbEntity
  8
0
100
AcDbVertex
100
AcDb2dVertex
 10
268.65744
 20
155.698303
 30
0.0
  0
VERTEX
  5
694
330
691
100
AcDbEntity
  8
0
100
AcDbVertex
100
AcDb2dVertex
 10
267.967438
 20
155.940231
 30
0.0
  0
VERTEX
  5
695
330
691
100
AcDbEntity
  8
0
100
AcDbVertex
100
AcDb2dVertex
 10
267.277435
 20
155.940231
 30
0.0
  0
VERTEX
  5
696
330
691
100
AcDbEntity
  8
0
100
AcDbVertex
100
AcDb2dVertex
 10
266.587433
 20
155.698303
 30
0.0
  0
VERTEX
  5
697
330
691
100
AcDbEntity
  8
0
100
AcDbVertex
100
AcDb2dVertex
 10
266.127441
 20
155.053131
 30
0.0
  0
VERTEX
  5
698
330
691
100
AcDbEntity
  8
0
100
AcDbVertex
100
AcDb2dVertex
 10
266.127441
 20
154.488617
 30
0.0
  0
VERTEX
  5
699
330
691
100
AcDbEntity
  8
0
100
AcDbVertex
100
AcDb2dVertex
 10
266.529938
 20
153.924103
 30
0.0
  0
SEQEND
  5
69A
330
691
100
AcDbEntity
  8
0
 62
     7
  0
POLYLINE
  5
69B
330
1F
100
AcDbEntity
  8
0
 62
     7
100
AcDb2dPolyline
 66
     1
 10
0.0
 20
0.0
 30
0.0
  0
VERTEX
  5
69C
330
69B
100
AcDbEntity
  8
0
100
AcDbVertex
100
AcDb2dVertex
 10
267.622437
 20
153.520874
 30
0.0
  0
VERTEX
  5
69D
330
69B
100
AcDbEntity
  8
0
100
AcDbVertex
100
AcDb2dVertex
 10
268.139923
 20
153.359589
 30
0.0
  0
SEQEND
  5
69E
330
69B
100
AcDbEntity
  8
0
 62
     7
  0
POLYLINE
  5
69F
330
1F
100
AcDbEntity
  8
0
 62
     7
100
AcDb2dPolyline
 66
     1
 10
0.0
 20
0.0
 30
0.0
  0
VERTEX
  5
6A0
330
69F
100
AcDbEntity
  8
0
100
AcDbVertex
100
AcDb2dVertex
 10
268.65744
 20
151.101517
 30
0.0
  0
VERTEX
  5
6A1
330
69F
100
AcDbEntity
  8
0
100
AcDbVertex
100
AcDb2dVertex
 10
267.967438
 20
150.940231
 30
0.0
  0
VERTEX
  5
6A2
330
69F
100
AcDbEntity
  8
0
100
AcDbVertex
100
AcDb2dVertex
 10
267.277435
 20
150.940231
 30
0.0
  0
VERTEX
  5
6A3
330
69F
100
AcDbEntity
  8
0
100
AcDbVertex
100
AcDb2dVertex
 10
266.587433
 20
151.262817
 30
0.0
  0
VERTEX
  5
6A4
330
69F
100
AcDbEntity
  8
0
100
AcDbVertex
100
AcDb2dVertex
 10
266.127441
 20
151.827332
 30
0.0
  0
SEQEND
  5
6A5
330
69F
100
AcDbEntity
  8
0
 62
     7
  0
POLYLINE
  5
6A6
330
1F
100
AcDbEntity
  8
0
 62
     7
100
AcDb2dPolyline
 66
     1
 10
0.0
 20
0.0
 30
0.0
  0
VERTEX
  5
6A7
330
6A6
100
AcDbEntity
  8
0
100
AcDbVertex
100
AcDb2dVertex
 10
267.162445
 20
153.601517
 30
0.0
  0
VERTEX
  5
6A8
330
6A6
100
AcDbEntity
  8
0
100
AcDbVertex
100
AcDb2dVertex
 10
267.622437
 20
153.520874
 30
0.0
  0
SEQEND
  5
6A9
330
6A6
100
AcDbEntity
  8
0
 62
     7
  0
POLYLINE
  5
6AA
330
1F
100
AcDbEntity
  8
0
 62
     7
100
AcDb2dPolyline
 66
     1
 10
0.0
 20
0.0
 30
0.0
  0
VERTEX
  5
6AB
330
6AA
100
AcDbEntity
  8
0
100
AcDbVertex
100
AcDb2dVertex
 10
266.529938
 20
153.924103
 30
0.0
  0
VERTEX
  5
6AC
330
6AA
100
AcDbEntity
  8
0
100
AcDbVertex
100
AcDb2dVertex
 10
267.162445
 20
153.601517
 30
0.0
  0
SEQEND
  5
6AD
330
6AA
100
AcDbEntity
  8
0
 62
     7
  0
POLYLINE
  5
6AE
330
1F
100
AcDbEntity
  8
0
 62
     7
100
AcDb2dPolyline
 66
     1
 10
0.0
 20
0.0
 30
0.0
  0
VERTEX
  5
6AF
330
6AE
100
AcDbEntity
  8
0
100
AcDbVertex
100
AcDb2dVertex
 10
269.117432
 20
151.746689
 30
0.0
  0
VERTEX
  5
6B0
330
6AE
100
AcDbEntity
  8
0
100
AcDbVertex
100
AcDb2dVertex
 10
268.65744
 20
151.101517
 30
0.0
  0
SEQEND
  5
6B1
330
6AE
100
AcDbEntity
  8
0
 62
     7
  0
POLYLINE
  5
6B2
330
1F
100
AcDbEntity
  8
0
 62
     7
100
AcDb2dPolyline
 66
     1
 10
0.0
 20
0.0
 30
0.0
  0
VERTEX
  5
6B3
330
6B2
100
AcDbEntity
  8
0
100
AcDbVertex
100
AcDb2dVertex
 10
269.117432
 20
152.472488
 30
0.0
  0
VERTEX
  5
6B4
330
6B2
100
AcDbEntity
  8
0
100
AcDbVertex
100
AcDb2dVertex
 10
269.117432
 20
151.746689
 30
0.0
  0
SEQEND
  5
6B5
330
6B2
100
AcDbEntity
  8
0
 62
     7
  0
POLYLINE
  5
6B6
330
1F
100
AcDbEntity
  8
0
 62
     7
100
AcDb2dPolyline
 66
     1
 10
0.0
 20
0.0
 30
0.0
  0
VERTEX
  5
6B7
330
6B6
100
AcDbEntity
  8
0
100
AcDbVertex
100
AcDb2dVertex
 10
268.139923
 20
153.359589
 30
0.0
  0
VERTEX
  5
6B8
330
6B6
100
AcDbEntity
  8
0
100
AcDbVertex
100
AcDb2dVertex
 10
268.65744
 20
153.037003
 30
0.0
  0
VERTEX
  5
6B9
330
6B6
100
AcDbEntity
  8
0
100
AcDbVertex
100
AcDb2dVertex
 10
269.117432
 20
152.472488
 30
0.0
  0
SEQEND
  5
6BA
330
6B6
100
AcDbEntity
  8
0
 62
     7
  0
POLYLINE
  5
6BB
330
1F
100
AcDbEntity
  8
0
 62
     7
100
AcDb2dPolyline
 66
     1
 10
0.0
 20
0.0
 30
0.0
  0
VERTEX
  5
6BC
330
6BB
100
AcDbEntity
  8
0
100
AcDbVertex
100
AcDb2dVertex
 10
272.03244
 20
155.940231
 30
0.0
  0
VERTEX
  5
6BD
330
6BB
100
AcDbEntity
  8
0
100
AcDbVertex
100
AcDb2dVertex
 10
270.077423
 20
155.940231
 30
0.0
  0
SEQEND
  5
6BE
330
6BB
100
AcDbEntity
  8
0
 62
     7
  0
POLYLINE
  5
6BF
330
1F
100
AcDbEntity
  8
0
 62
     7
100
AcDb2dPolyline
 66
     1
 10
0.0
 20
0.0
 30
0.0
  0
VERTEX
  5
6C0
330
6BF
100
AcDbEntity
  8
0
100
AcDbVertex
100
AcDb2dVertex
 10
270.077423
 20
153.520874
 30
0.0
  0
VERTEX
  5
6C1
330
6BF
100
AcDbEntity
  8
0
100
AcDbVertex
100
AcDb2dVertex
 10
272.14743
 20
153.520874
 30
0.0
  0
SEQEND
  5
6C2
330
6BF
100
AcDbEntity
  8
0
 62
     7
  0
POLYLINE
  5
6C3
330
1F
100
AcDbEntity
  8
0
 62
     7
100
AcDb2dPolyline
 66
     1
 10
0.0
 20
0.0
 30
0.0
  0
VERTEX
  5
6C4
330
6C3
100
AcDbEntity
  8
0
100
AcDbVertex
100
AcDb2dVertex
 10
270.077423
 20
155.940231
 30
0.0
  0
VERTEX
  5
6C5
330
6C3
100
AcDbEntity
  8
0
100
AcDbVertex
100
AcDb2dVertex
 10
270.077423
 20
150.940231
 30
0.0
  0
SEQEND
  5
6C6
330
6C3
100
AcDbEntity
  8
0
 62
     7
  0
POLYLINE
  5
6C7
330
1F
100
AcDbEntity
  8
0
 62
     7
100
AcDb2dPolyline
 66
     1
 10
0.0
 20
0.0
 30
0.0
  0
VERTEX
  5
6C8
330
6C7
100
AcDbEntity
  8
0
100
AcDbVertex
100
AcDb2dVertex
 10
272.03244
 20
155.940231
 30
0.0
  0
VERTEX
  5
6C9
330
6C7
100
AcDbEntity
  8
0
100
AcDbVertex
100
AcDb2dVertex
 10
272.434937
 20
155.698303
 30
0.0
  0
VERTEX
  5
6CA
330
6C7
100
AcDbEntity
  8
0
100
AcDbVertex
100
AcDb2dVertex
 10
272.837433
 20
155.133774
 30
0.0
  0
VERTEX
  5
6CB
330
6C7
100
AcDbEntity
  8
0
100
AcDbVertex
100
AcDb2dVertex
 10
272.837433
 20
154.327332
 30
0.0
  0
VERTEX
  5
6CC
330
6C7
100
AcDbEntity
  8
0
100
AcDbVertex
100
AcDb2dVertex
 10
272.549927
 20
153.84346
 30
0.0
  0
VERTEX
  5
6CD
330
6C7
100
AcDbEntity
  8
0
100
AcDbVertex
100
AcDb2dVertex
 10
272.14743
 20
153.520874
 30
0.0
  0
SEQEND
  5
6CE
330
6C7
100
AcDbEntity
  8
0
 62
     7
  0
POLYLINE
  5
6CF
330
1F
100
AcDbEntity
  8
0
 62
     7
100
AcDb2dPolyline
 66
     1
 10
0.0
 20
0.0
 30
0.0
  0
VERTEX
  5
6D0
330
6CF
100
AcDbEntity
  8
0
100
AcDbVertex
100
AcDb2dVertex
 10
271.687439
 20
153.520874
 30
0.0
  0
VERTEX
  5
6D1
330
6CF
100
AcDbEntity
  8
0
100
AcDbVertex
100
AcDb2dVertex
 10
272.837433
 20
150.940231
 30
0.0
  0
SEQEND
  5
6D2
330
6CF
100
AcDbEntity
  8
0
 62
     7
  0
POLYLINE
  5
6D3
330
1F
100
AcDbEntity
  8
0
 62
     7
100
AcDb2dPolyline
 66
     1
 10
0.0
 20
0.0
 30
0.0
  0
VERTEX
  5
6D4
330
6D3
100
AcDbEntity
  8
0
100
AcDbVertex
100
AcDb2dVertex
 10
276.902435
 20
150.940231
 30
0.0
  0
VERTEX
  5
6D5
330
6D3
100
AcDbEntity
  8
0
100
AcDbVertex
100
AcDb2dVertex
 10
274.142426
 20
150.940231
 30
0.0
  0
VERTEX
  5
6D6
330
6D3
100
AcDbEntity
  8
0
100
AcDbVertex
100
AcDb2dVertex
 10
276.097443
 20
153.198303
 30
0.0
  0
VERTEX
  5
6D7
330
6D3
100
AcDbEntity
  8
0
100
AcDbVertex
100
AcDb2dVertex
 10
276.499939
 20
153.84346
 30
0.0
  0
VERTEX
  5
6D8
330
6D3
100
AcDbEntity
  8
0
100
AcDbVertex
100
AcDb2dVertex
 10
276.672424
 20
154.327332
 30
0.0
  0
VERTEX
  5
6D9
330
6D3
100
AcDbEntity
  8
0
100
AcDbVertex
100
AcDb2dVertex
 10
276.672424
 20
154.811203
 30
0.0
  0
VERTEX
  5
6DA
330
6D3
100
AcDbEntity
  8
0
100
AcDbVertex
100
AcDb2dVertex
 10
276.499939
 20
155.375717
 30
0.0
  0
VERTEX
  5
6DB
330
6D3
100
AcDbEntity
  8
0
100
AcDbVertex
100
AcDb2dVertex
 10
276.327423
 20
155.698303
 30
0.0
  0
VERTEX
  5
6DC
330
6D3
100
AcDbEntity
  8
0
100
AcDbVertex
100
AcDb2dVertex
 10
275.924927
 20
155.940231
 30
0.0
  0
VERTEX
  5
6DD
330
6D3
100
AcDbEntity
  8
0
100
AcDbVertex
100
AcDb2dVertex
 10
275.234924
 20
155.940231
 30
0.0
  0
VERTEX
  5
6DE
330
6D3
100
AcDbEntity
  8
0
100
AcDbVertex
100
AcDb2dVertex
 10
274.832428
 20
155.698303
 30
0.0
  0
VERTEX
  5
6DF
330
6D3
100
AcDbEntity
  8
0
100
AcDbVertex
100
AcDb2dVertex
 10
274.659943
 20
155.45636
 30
0.0
  0
VERTEX
  5
6E0
330
6D3
100
AcDbEntity
  8
0
100
AcDbVertex
100
AcDb2dVertex
 10
274.429932
 20
154.972488
 30
0.0
  0
VERTEX
  5
6E1
330
6D3
100
AcDbEntity
  8
0
100
AcDbVertex
100
AcDb2dVertex
 10
274.429932
 20
154.73056
 30
0.0
  0
SEQEND
  5
6E2
330
6D3
100
AcDbEntity
  8
0
 62
     7
  0
POLYLINE
  5
6E3
330
1F
100
AcDbEntity
  8
0
 62
     7
100
AcDb2dPolyline
 66
     1
 10
0.0
 20
0.0
 30
0.0
  0
VERTEX
  5
6E4
330
6E3
100
AcDbEntity
  8
0
100
AcDbVertex
100
AcDb2dVertex
 10
280.737427
 20
152.714432
 30
0.0
  0
VERTEX
  5
6E5
330
6E3
100
AcDbEntity
  8
0
100
AcDbVertex
100
AcDb2dVertex
 10
278.092438
 20
152.714432
 30
0.0
  0
VERTEX
  5
6E6
330
6E3
100
AcDbEntity
  8
0
100
AcDbVertex
100
AcDb2dVertex
 10
280.047424
 20
155.940231
 30
0.0
  0
VERTEX
  5
6E7
330
6E3
100
AcDbEntity
  8
0
100
AcDbVertex
100
AcDb2dVertex
 10
280.047424
 20
153.520874
 30
0.0
  0
VERTEX
  5
6E8
330
6E3
100
AcDbEntity
  8
0
100
AcDbVertex
100
AcDb2dVertex
 10
280.047424
 20
150.940231
 30
0.0
  0
SEQEND
  5
6E9
330
6E3
100
AcDbEntity
  8
0
 62
     7
  0
POLYLINE
  5
6EA
330
1F
100
AcDbEntity
  8
0
 62
     7
100
AcDb2dPolyline
 66
     1
 10
0.0
 20
0.0
 30
0.0
  0
VERTEX
  5
6EB
330
6EA
100
AcDbEntity
  8
0
100
AcDbVertex
100
AcDb2dVertex
 10
282.214935
 20
152.95636
 30
0.0
  0
VERTEX
  5
6EC
330
6EA
100
AcDbEntity
  8
0
100
AcDbVertex
100
AcDb2dVertex
 10
284.859924
 20
152.95636
 30
0.0
  0
SEQEND
  5
6ED
330
6EA
100
AcDbEntity
  8
0
 62
     7
  0
POLYLINE
  5
6EE
330
1F
100
AcDbEntity
  8
0
 62
     7
100
AcDb2dPolyline
 66
     1
 10
0.0
 20
0.0
 30
0.0
 70
     1
  0
VERTEX
  5
6EF
330
6EE
100
AcDbEntity
  8
0
100
AcDbVertex
100
AcDb2dVertex
 10
287.142426
 20
155.940231
 30
0.0
  0
VERTEX
  5
6F0
330
6EE
100
AcDbEntity
  8
0
100
AcDbVertex
100
AcDb2dVertex
 10
286.509918
 20
155.698303
 30
0.0
  0
VERTEX
  5
6F1
330
6EE
100
AcDbEntity
  8
0
100
AcDbVertex
100
AcDb2dVertex
 10
286.107422
 20
154.891846
 30
0.0
  0
VERTEX
  5
6F2
330
6EE
100
AcDbEntity
  8
0
100
AcDbVertex
100
AcDb2dVertex
 10
285.934937
 20
154.085388
 30
0.0
  0
VERTEX
  5
6F3
330
6EE
100
AcDbEntity
  8
0
100
AcDbVertex
100
AcDb2dVertex
 10
285.934937
 20
153.037003
 30
0.0
  0
VERTEX
  5
6F4
330
6EE
100
AcDbEntity
  8
0
100
AcDbVertex
100
AcDb2dVertex
 10
286.107422
 20
151.988617
 30
0.0
  0
VERTEX
  5
6F5
330
6EE
100
AcDbEntity
  8
0
100
AcDbVertex
100
AcDb2dVertex
 10
286.509918
 20
151.182159
 30
0.0
  0
VERTEX
  5
6F6
330
6EE
100
AcDbEntity
  8
0
100
AcDbVertex
100
AcDb2dVertex
 10
287.142426
 20
150.940231
 30
0.0
  0
VERTEX
  5
6F7
330
6EE
100
AcDbEntity
  8
0
100
AcDbVertex
100
AcDb2dVertex
 10
287.602417
 20
150.940231
 30
0.0
  0
VERTEX
  5
6F8
330
6EE
100
AcDbEntity
  8
0
100
AcDbVertex
100
AcDb2dVertex
 10
288.234924
 20
151.182159
 30
0.0
  0
VERTEX
  5
6F9
330
6EE
100
AcDbEntity
  8
0
100
AcDbVertex
100
AcDb2dVertex
 10
288.637421
 20
151.988617
 30
0.0
  0
VERTEX
  5
6FA
330
6EE
100
AcDbEntity
  8
0
100
AcDbVertex
100
AcDb2dVertex
 10
288.809937
 20
152.95636
 30
0.0
  0
VERTEX
  5
6FB
330
6EE
100
AcDbEntity
  8
0
100
AcDbVertex
100
AcDb2dVertex
 10
288.809937
 20
154.085388
 30
0.0
  0
VERTEX
  5
6FC
330
6EE
100
AcDbEntity
  8
0
100
AcDbVertex
100
AcDb2dVertex
 10
288.637421
 20
154.891846
 30
0.0
  0
VERTEX
  5
6FD
330
6EE
100
AcDbEntity
  8
0
100
AcDbVertex
100
AcDb2dVertex
 10
288.234924
 20
155.698303
 30
0.0
  0
VERTEX
  5
6FE
330
6EE
100
AcDbEntity
  8
0
100
AcDbVertex
100
AcDb2dVertex
 10
287.602417
 20
155.940231
 30
0.0
  0
SEQEND
  5
6FF
330
6EE
100
AcDbEntity
  8
0
 62
     7
  0
POLYLINE
  5
700
330
1F
100
AcDbEntity
  8
0
 62
     7
100
AcDb2dPolyline
 66
     1
 10
0.0
 20
0.0
 30
0.0
  0
VERTEX
  5
701
330
700
100
AcDbEntity
  8
0
100
AcDbVertex
100
AcDb2dVertex
 10
290.804932
 20
155.295074
 30
0.0
  0
VERTEX
  5
702
330
700
100
AcDbEntity
  8
0
100
AcDbVertex
100
AcDb2dVertex
 10
291.437439
 20
155.940231
 30
0.0
  0
VERTEX
  5
703
330
700
100
AcDbEntity
  8
0
100
AcDbVertex
100
AcDb2dVertex
 10
291.437439
 20
150.940231
 30
0.0
  0
SEQEND
  5
704
330
700
100
AcDbEntity
  8
0
 62
     7
  0
POLYLINE
  5
705
330
1F
100
AcDbEntity
  8
0
 62
     7
100
AcDb2dPolyline
 66
     1
 10
0.0
 20
0.0
 30
0.0
  0
VERTEX
  5
706
330
705
100
AcDbEntity
  8
0
100
AcDbVertex
100
AcDb2dVertex
 10
290.45993
 20
155.053131
 30
0.0
  0
VERTEX
  5
707
330
705
100
AcDbEntity
  8
0
100
AcDbVertex
100
AcDb2dVertex
 10
290.804932
 20
155.295074
 30
0.0
  0
SEQEND
  5
708
330
705
100
AcDbEntity
  8
0
 62
     7
  0
POLYLINE
  5
709
330
1F
100
AcDbEntity
  8
0
 62
     7
100
AcDb2dPolyline
 66
     1
 10
0.0
 20
0.0
 30
0.0
  0
VERTEX
  5
70A
330
709
100
AcDbEntity
  8
0
100
AcDbVertex
100
AcDb2dVertex
 10
293.892426
 20
155.940231
 30
0.0
  0
VERTEX
  5
70B
330
709
100
AcDbEntity
  8
0
100
AcDbVertex
100
AcDb2dVertex
 10
296.652435
 20
155.940231
 30
0.0
  0
VERTEX
  5
70C
330
709
100
AcDbEntity
  8
0
100
AcDbVertex
100
AcDb2dVertex
 10
294.582428
 20
150.940231
 30
0.0
  0
SEQEND
  5
70D
330
709
100
AcDbEntity
  8
0
 62
     7
  0
ENDSEC
  0
SECTION
  2
OBJECTS
  0
DICTIONARY
  5
C
330
0
100
AcDbDictionary
  3
ACAD_GROUP
350
D
  3
ACAD_MLINESTYLE
350
17
  3
ACAD_SCALELIST
350
47
  0
DICTIONARY
  5
D
102
{ACAD_REACTORS
330
C
102
}
330
C
100
AcDbDictionary
  0
DICTIONARY
  5
17
102
{ACAD_REACTORS
330
C
102
}
330
C
100
AcDbDictionary
  3
STANDARD
350
18
  0
DICTIONARY
  5
47
102
{ACAD_REACTORS
330
C
102
}
330
C
100
AcDbDictionary
  0
MLINESTYLE
  5
18
102
{ACAD_REACTORS
330
17
102
}
330
17
100
AcDbMlineStyle
  2
Standard
 70
     0
  3

 62
   256
 51
90.0
 52
90.0
 71
     2
 49
0.5
 62
   256
  6
BYLAYER
 49
-0.5
 62
   256
  6
BYLAYER
  0
ENDSEC
  0
EOF
