  0
SECTION
  2
HEADER
  9
$ACADVER
  1
AC1014
  9
$ACADMAINTVER
 70
     9
  9
$DWGCODEPAGE
  3
ANSI_1252
  9
$INSBASE
 10
0.0
 20
0.0
 30
0.0
  9
$EXTMIN
 10
0.0
 20
0.0
 30
0.0
  9
$EXTMAX
 10
331.647034
 20
191.850006
 30
2.0
  9
$LIMMIN
 10
0.0
 20
0.0
  9
$LIMMAX
 10
420.0
 20
297.0
  9
$ORTHOMODE
 70
     0
  9
$REGENMODE
 70
     1
  9
$FILLMODE
 70
     1
  9
$QTEXTMODE
 70
     0
  9
$MIRRTEXT
 70
     1
  9
$DRAGMODE
 70
     2
  9
$LTSCALE
 40
1.0
  9
$OSMODE
 70
     0
  9
$ATTMODE
 70
     1
  9
$TEXTSIZE
 40
2.5
  9
$TRACEWID
 40
1.0
  9
$TEXTSTYLE
  7
STANDARD
  9
$CLAYER
  8
0
  9
$CELTYPE
  6
BYLAYER
  9
$CECOLOR
 62
   256
  9
$CELTSCALE
 40
1.0
  9
$DELOBJ
 70
     1
  9
$DISPSILH
 70
     0
  9
$DIMSCALE
 40
1.0
  9
$DIMASZ
 40
2.5
  9
$DIMEXO
 40
0.625
  9
$DIMDLI
 40
3.75
  9
$DIMRND
 40
0.0
  9
$DIMDLE
 40
0.0
  9
$DIMEXE
 40
1.25
  9
$DIMTP
 40
0.0
  9
$DIMTM
 40
0.0
  9
$DIMTXT
 40
2.5
  9
$DIMCEN
 40
2.5
  9
$DIMTSZ
 40
0.0
  9
$DIMTOL
 70
     0
  9
$DIMLIM
 70
     0
  9
$DIMTIH
 70
     0
  9
$DIMTOH
 70
     0
  9
$DIMSE1
 70
     0
  9
$DIMSE2
 70
     0
  9
$DIMTAD
 70
     1
  9
$DIMZIN
 70
     8
  9
$DIMBLK
  1

  9
$DIMASO
 70
     1
  9
$DIMSHO
 70
     1
  9
$DIMPOST
  1

  9
$DIMAPOST
  1

  9
$DIMALT
 70
     0
  9
$DIMALTD
 70
     3
  9
$DIMALTF
 40
0.03937
  9
$DIMLFAC
 40
1.0
  9
$DIMTOFL
 70
     1
  9
$DIMTVP
 40
0.0
  9
$DIMTIX
 70
     0
  9
$DIMSOXD
 70
     0
  9
$DIMSAH
 70
     0
  9
$DIMBLK1
  1

  9
$DIMBLK2
  1

  9
$DIMSTYLE
  2
STANDARD
  9
$DIMCLRD
 70
     0
  9
$DIMCLRE
 70
     0
  9
$DIMCLRT
 70
     0
  9
$DIMTFAC
 40
1.0
  9
$DIMGAP
 40
0.625
  9
$DIMJUST
 70
     0
  9
$DIMSD1
 70
     0
  9
$DIMSD2
 70
     0
  9
$DIMTOLJ
 70
     0
  9
$DIMTZIN
 70
     8
  9
$DIMALTZ
 70
     0
  9
$DIMALTTZ
 70
     0
  9
$DIMFIT
 70
     0
  9
$DIMUPT
 70
     0
  9
$DIMUNIT
 70
     2
  9
$DIMDEC
 70
     2
  9
$DIMTDEC
 70
     2
  9
$DIMALTU
 70
     2
  9
$DIMALTTD
 70
     3
  9
$DIMTXSTY
  7
STANDARD
  9
$DIMAUNIT
 70
     0
  9
$LUNITS
 70
     2
  9
$LUPREC
 70
     4
  9
$SKETCHINC
 40
1.0
  9
$FILLETRAD
 40
2.5
  9
$AUNITS
 70
     0
  9
$AUPREC
 70
     0
  9
$MENU
  1
.
  9
$ELEVATION
 40
0.0
  9
$PELEVATION
 40
0.0
  9
$THICKNESS
 40
0.0
  9
$LIMCHECK
 70
     0
  9
$BLIPMODE
 70
     1
  9
$CHAMFERA
 40
2.5
  9
$CHAMFERB
 40
2.5
  9
$CHAMFERC
 40
0.0
  9
$CHAMFERD
 40
0.0
  9
$SKPOLY
 70
     0
  9
$TDCREATE
 40
2447893.375
  9
$TDUPDATE
 40
2460350.623331725
  9
$TDINDWG
 40
0.0
  9
$TDUSRTIMER
 40
0.0
  9
$USRTIMER
 70
     1
  9
$ANGBASE
 50
0.0
  9
$ANGDIR
 70
     0
  9
$PDMODE
 70
     0
  9
$PDSIZE
 40
0.0
  9
$PLINEWID
 40
0.0
  9
$COORDS
 70
     0
  9
$SPLFRAME
 70
     0
  9
$SPLINETYPE
 70
     6
  9
$SPLINESEGS
 70
     8
  9
$ATTDIA
 70
     0
  9
$ATTREQ
 70
     1
  9
$HANDLING
 70
     1
  9
$HANDSEED
  5
6E4
  9
$SURFTAB1
 70
     6
  9
$SURFTAB2
 70
     6
  9
$SURFTYPE
 70
     6
  9
$SURFU
 70
     6
  9
$SURFV
 70
     6
  9
$UCSNAME
  2

  9
$UCSORG
 10
0.0
 20
0.0
 30
0.0
  9
$UCSXDIR
 10
1.0
 20
0.0
 30
0.0
  9
$UCSYDIR
 10
0.0
 20
1.0
 30
0.0
  9
$PUCSNAME
  2

  9
$PUCSORG
 10
0.0
 20
0.0
 30
0.0
  9
$PUCSXDIR
 10
1.0
 20
0.0
 30
0.0
  9
$PUCSYDIR
 10
0.0
 20
1.0
 30
0.0
  9
$USERI1
 70
     0
  9
$USERI2
 70
     0
  9
$USERI3
 70
     0
  9
$USERI4
 70
     0
  9
$USERI5
 70
     0
  9
$USERR1
 40
0.0
  9
$USERR2
 40
0.0
  9
$USERR3
 40
0.0
  9
$USERR4
 40
0.0
  9
$USERR5
 40
0.0
  9
$WORLDVIEW
 70
     1
  9
$SHADEDGE
 70
     3
  9
$SHADEDIF
 70
    70
  9
$TILEMODE
 70
     1
  9
$MAXACTVP
 70
    64
  9
$PINSBASE
 10
0.0
 20
0.0
 30
0.0
  9
$PLIMCHECK
 70
     0
  9
$PEXTMIN
 10
0.0
 20
0.0
 30
0.0
  9
$PEXTMAX
 10
331.647034
 20
191.850006
 30
2.0
  9
$PLIMMIN
 10
0.0
 20
0.0
  9
$PLIMMAX
 10
420.0
 20
297.0
  9
$UNITMODE
 70
     0
  9
$VISRETAIN
 70
     0
  9
$PLINEGEN
 70
     0
  9
$PSLTSCALE
 70
     1
  9
$TREEDEPTH
 70
  3020
  9
$PICKSTYLE
 70
     1
  9
$CMLSTYLE
  2
STANDARD
  9
$CMLJUST
 70
     0
  9
$CMLSCALE
 40
20.0
  9
$PROXYGRAPHICS
 70
     1
  9
$MEASUREMENT
 70
     1
  0
ENDSEC
  0
SECTION
  2
CLASSES
  0
CLASS
  1
ACDBDICTIONARYWDFLT
  2
AcDbDictionaryWithDefault
  3
ObjectDBX Classes
 90
        0
280
     0
281
     0
  0
CLASS
  1
VISUALSTYLE
  2
AcDbVisualStyle
  3
ObjectDBX Classes
 90
     4095
280
     0
281
     0
  0
CLASS
  1
MATERIAL
  2
AcDbMaterial
  3
ObjectDBX Classes
 90
     1153
280
     0
281
     0
  0
CLASS
  1
SCALE
  2
AcDbScale
  3
ObjectDBX Classes
 90
     1153
280
     0
281
     0
  0
CLASS
  1
SUN
  2
AcDbSun
  3
SCENEOE
 90
     1153
280
     0
281
     0
  0
CLASS
  1
XRECORD
  2
AcDbXrecord
  3
ObjectDBX Classes
 90
        0
280
     0
281
     0
  0
CLASS
  1
LWPOLYLINE
  2
AcDbPolyline
  3
ObjectDBX Classes
 90
        0
280
     0
281
     1
  0
CLASS
  1
HATCH
  2
AcDbHatch
  3
ObjectDBX Classes
 90
        0
280
     0
281
     1
  0
ENDSEC
  0
SECTION
  2
TABLES
  0
TABLE
  2
VPORT
  5
8
330
0
100
AcDbSymbolTable
 70
     1
  0
VPORT
  5
29
330
8
100
AcDbSymbolTableRecord
100
AcDbViewportTableRecord
  2
*ACTIVE
 70
     0
 10
0.0
 20
0.0
 11
1.0
 21
1.0
 12
10.429907
 22
4.5
 13
0.0
 23
0.0
 14
0.5
 24
0.5
 15
0.5
 25
0.5
 16
0.0
 26
0.0
 36
1.0
 17
0.0
 27
0.0
 37
0.0
 40
9.0
 41
1.972973
 42
50.0
 43
0.0
 44
0.0
 50
0.0
 51
0.0
 71
     0
 72
   100
 73
     1
 74
     3
 75
     0
 76
     0
 77
     0
 78
     0
  0
ENDTAB
  0
TABLE
  2
LTYPE
  5
5
330
0
100
AcDbSymbolTable
 70
     1
  0
LTYPE
  5
14
330
5
100
AcDbSymbolTableRecord
100
AcDbLinetypeTableRecord
  2
BYBLOCK
 70
     0
  3

 72
    65
 73
     0
 40
0.0
  0
LTYPE
  5
15
330
5
100
AcDbSymbolTableRecord
100
AcDbLinetypeTableRecord
  2
BYLAYER
 70
     0
  3

 72
    65
 73
     0
 40
0.0
  0
LTYPE
  5
16
330
5
100
AcDbSymbolTableRecord
100
AcDbLinetypeTableRecord
  2
CONTINUOUS
 70
     0
  3
Solid line
 72
    65
 73
     0
 40
0.0
  0
ENDTAB
  0
TABLE
  2
LAYER
  5
2
330
0
100
AcDbSymbolTable
 70
     1
  0
LAYER
  5
10
330
2
100
AcDbSymbolTableRecord
100
AcDbLayerTableRecord
  2
0
 70
     0
 62
     7
  6
CONTINUOUS
  0
ENDTAB
  0
TABLE
  2
STYLE
  5
3
330
0
100
AcDbSymbolTable
 70
     1
  0
STYLE
  5
11
330
3
100
AcDbSymbolTableRecord
100
AcDbTextStyleTableRecord
  2
STANDARD
 70
     0
 40
0.0
 41
1.0
 50
0.0
 71
     0
 42
2.5
  3
txt
  4

  0
ENDTAB
  0
TABLE
  2
VIEW
  5
6
330
0
100
AcDbSymbolTable
 70
     0
  0
ENDTAB
  0
TABLE
  2
UCS
  5
7
330
0
100
AcDbSymbolTable
 70
     0
  0
ENDTAB
  0
TABLE
  2
APPID
  5
9
330
0
100
AcDbSymbolTable
 70
     1
  0
APPID
  5
12
330
9
100
AcDbSymbolTableRecord
100
AcDbRegAppTableRecord
  2
ACAD
 70
     0
  0
ENDTAB
  0
TABLE
  2
DIMSTYLE
  5
A
330
0
100
AcDbSymbolTable
 70
     1
  0
DIMSTYLE
105
27
330
A
100
AcDbSymbolTableRecord
100
AcDbDimStyleTableRecord
  2
STANDARD
 70
     0
  3

  4

  5

  6

  7

 40
1.0
 41
0.18
 42
0.0625
 43
0.38
 44
0.18
 45
0.0
 46
0.0
 47
0.0
 48
0.0
140
0.18
141
0.09
142
0.0
143
25.4
144
1.0
145
0.0
146
1.0
147
0.09
 71
     0
 72
     0
 73
     1
 74
     1
 75
     0
 76
     0
 77
     0
 78
     0
170
     0
171
     2
172
     0
173
     0
174
     0
175
     0
176
     0
177
     0
178
     0
270
     2
271
     4
272
     4
273
     2
274
     2
340
11
275
     0
280
     0
281
     0
282
     0
283
     1
284
     0
285
     0
286
     0
287
     3
288
     0
  0
ENDTAB
  0
TABLE
  2
BLOCK_RECORD
  5
1
330
0
100
AcDbSymbolTable
 70
     1
  0
BLOCK_RECORD
  5
1F
330
1
100
AcDbSymbolTableRecord
100
AcDbBlockTableRecord
  2
*MODEL_SPACE
  0
BLOCK_RECORD
  5
1B
330
1
100
AcDbSymbolTableRecord
100
AcDbBlockTableRecord
  2
*PAPER_SPACE
  0
BLOCK_RECORD
  5
23
330
1
100
AcDbSymbolTableRecord
100
AcDbBlockTableRecord
  2
*PAPER_SPACE0
  0
ENDTAB
  0
ENDSEC
  0
SECTION
  2
BLOCKS
  0
BLOCK
  5
20
330
1F
100
AcDbEntity
  8
0
100
AcDbBlockBegin
  2
*MODEL_SPACE
 70
     0
 10
0.0
 20
0.0
 30
0.0
  3
*MODEL_SPACE
  1

  0
ENDBLK
  5
21
330
1F
100
AcDbEntity
  8
0
100
AcDbBlockEnd
  0
BLOCK
  5
1C
330
1B
100
AcDbEntity
 67
     1
  8
0
100
AcDbBlockBegin
  2
*PAPER_SPACE
 70
     0
 10
0.0
 20
0.0
 30
0.0
  3
*PAPER_SPACE
  1

  0
ENDBLK
  5
1D
330
1B
100
AcDbEntity
 67
     1
  8
0
100
AcDbBlockEnd
  0
BLOCK
  5
24
330
23
100
AcDbEntity
  8
0
100
AcDbBlockBegin
  2
*PAPER_SPACE0
 70
     0
 10
0.0
 20
0.0
 30
0.0
  3
*PAPER_SPACE0
  1
*PAPER_SPACE0
  0
ENDBLK
  5
25
330
23
100
AcDbEntity
  8
0
100
AcDbBlockEnd
  0
ENDSEC
  0
SECTION
  2
ENTITIES
  0
LINE
  5
6A
330
1F
100
AcDbEntity
  8
0
 62
     7
100
AcDbLine
 10
329.147034
 20
160.850006
 30
0.0
 11
329.147034
 21
173.950012
 31
0.0
  0
LINE
  5
6B
330
1F
100
AcDbEntity
  8
0
 62
     7
100
AcDbLine
 10
329.147034
 20
173.950012
 30
0.0
 11
326.828369
 21
173.950012
 31
0.0
  0
ARC
  5
6C
330
1F
100
AcDbEntity
  8
0
 62
     7
100
AcDbCircle
 10
320.147034
 20
178.350006
 30
0.0
 40
8.0
100
AcDbArc
 50
213.367013
 51
326.632979
  0
LINE
  5
6D
330
1F
100
AcDbEntity
  8
0
 62
     7
100
AcDbLine
 10
313.465729
 20
173.950012
 30
0.0
 11
254.797028
 21
173.950012
 31
0.0
  0
LINE
  5
6E
330
1F
100
AcDbEntity
  8
0
 62
     7
100
AcDbLine
 10
254.797028
 20
170.049988
 30
0.0
 11
254.797028
 21
173.950012
 31
0.0
  0
ARC
  5
6F
330
1F
100
AcDbEntity
  8
0
 62
     7
100
AcDbCircle
 10
254.297028
 20
170.049988
 30
0.0
 40
0.5
100
AcDbArc
 50
180.000009
 51
360.0
  0
LINE
  5
70
330
1F
100
AcDbEntity
  8
0
 62
     7
100
AcDbLine
 10
253.797028
 20
173.950012
 30
0.0
 11
253.797028
 21
170.049988
 31
0.0
  0
LINE
  5
71
330
1F
100
AcDbEntity
  8
0
 62
     7
100
AcDbLine
 10
253.797028
 20
173.950012
 30
0.0
 11
251.49704
 21
173.950012
 31
0.0
  0
LINE
  5
72
330
1F
100
AcDbEntity
  8
0
 62
     7
100
AcDbLine
 10
251.49704
 20
170.049988
 30
0.0
 11
251.49704
 21
173.950012
 31
0.0
  0
ARC
  5
73
330
1F
100
AcDbEntity
  8
0
 62
     7
100
AcDbCircle
 10
250.99704
 20
170.049988
 30
0.0
 40
0.5
100
AcDbArc
 50
180.000009
 51
360.0
  0
LINE
  5
74
330
1F
100
AcDbEntity
  8
0
 62
     7
100
AcDbLine
 10
250.49704
 20
173.950012
 30
0.0
 11
250.49704
 21
170.049988
 31
0.0
  0
LINE
  5
75
330
1F
100
AcDbEntity
  8
0
 62
     7
100
AcDbLine
 10
250.49704
 20
173.950012
 30
0.0
 11
154.797058
 21
173.950012
 31
0.0
  0
LINE
  5
76
330
1F
100
AcDbEntity
  8
0
 62
     7
100
AcDbLine
 10
154.797058
 20
170.049988
 30
0.0
 11
154.797058
 21
173.950012
 31
0.0
  0
ARC
  5
77
330
1F
100
AcDbEntity
  8
0
 62
     7
100
AcDbCircle
 10
154.297058
 20
170.049988
 30
0.0
 40
0.5
100
AcDbArc
 50
180.000009
 51
360.0
  0
LINE
  5
78
330
1F
100
AcDbEntity
  8
0
 62
     7
100
AcDbLine
 10
153.797058
 20
173.950012
 30
0.0
 11
153.797058
 21
170.049988
 31
0.0
  0
LINE
  5
79
330
1F
100
AcDbEntity
  8
0
 62
     7
100
AcDbLine
 10
153.797058
 20
173.950012
 30
0.0
 11
151.49704
 21
173.950012
 31
0.0
  0
LINE
  5
7A
330
1F
100
AcDbEntity
  8
0
 62
     7
100
AcDbLine
 10
151.49704
 20
170.049988
 30
0.0
 11
151.49704
 21
173.950012
 31
0.0
  0
ARC
  5
7B
330
1F
100
AcDbEntity
  8
0
 62
     7
100
AcDbCircle
 10
150.99704
 20
170.049988
 30
0.0
 40
0.5
100
AcDbArc
 50
180.000009
 51
360.0
  0
LINE
  5
7C
330
1F
100
AcDbEntity
  8
0
 62
     7
100
AcDbLine
 10
150.49704
 20
173.950012
 30
0.0
 11
150.49704
 21
170.049988
 31
0.0
  0
LINE
  5
7D
330
1F
100
AcDbEntity
  8
0
 62
     7
100
AcDbLine
 10
150.49704
 20
173.950012
 30
0.0
 11
91.828377
 21
173.950012
 31
0.0
  0
ARC
  5
7E
330
1F
100
AcDbEntity
  8
0
 62
     7
100
AcDbCircle
 10
85.147064
 20
178.350006
 30
0.0
 40
8.0
100
AcDbArc
 50
213.367013
 51
326.632979
  0
LINE
  5
7F
330
1F
100
AcDbEntity
  8
0
 62
     7
100
AcDbLine
 10
78.465744
 20
173.950012
 30
0.0
 11
76.147064
 21
173.950012
 31
0.0
  0
LINE
  5
80
330
1F
100
AcDbEntity
  8
0
 62
     7
100
AcDbLine
 10
76.147064
 20
160.850006
 30
0.0
 11
76.147064
 21
173.950012
 31
0.0
  0
LINE
  5
81
330
1F
100
AcDbEntity
  8
0
 62
     7
100
AcDbLine
 10
329.147034
 20
160.049988
 30
0.0
 11
329.147034
 21
160.850006
 31
0.0
  0
LINE
  5
82
330
1F
100
AcDbEntity
  8
0
 62
     7
100
AcDbLine
 10
76.147064
 20
160.850006
 30
0.0
 11
76.147064
 21
160.049988
 31
0.0
  0
LINE
  5
83
330
1F
100
AcDbEntity
  8
0
 62
     7
100
AcDbLine
 10
76.147064
 20
160.049988
 30
0.0
 11
329.147034
 21
160.049988
 31
0.0
  0
LINE
  5
84
330
1F
100
AcDbEntity
  8
0
 62
     7
100
AcDbLine
 10
329.147034
 20
174.079285
 30
0.0
 11
329.147034
 21
173.950012
 31
0.0
  0
LINE
  5
85
330
1F
100
AcDbEntity
  8
0
 62
     7
100
AcDbLine
 10
329.147034
 20
174.079285
 30
0.0
 11
329.147034
 21
174.220703
 31
0.0
  0
LINE
  5
86
330
1F
100
AcDbEntity
  8
0
 62
     7
100
AcDbLine
 10
329.147034
 20
174.350006
 30
0.0
 11
329.147034
 21
174.220703
 31
0.0
  0
LINE
  5
87
330
1F
100
AcDbEntity
  8
0
 62
     7
100
AcDbLine
 10
329.147034
 20
174.350006
 30
0.0
 11
329.147034
 21
175.049988
 31
0.0
  0
LINE
  5
88
330
1F
100
AcDbEntity
  8
0
 62
     7
100
AcDbLine
 10
329.147034
 20
175.179291
 30
0.0
 11
329.147034
 21
175.049988
 31
0.0
  0
LINE
  5
89
330
1F
100
AcDbEntity
  8
0
 62
     7
100
AcDbLine
 10
329.147034
 20
175.179291
 30
0.0
 11
329.147034
 21
175.320709
 31
0.0
  0
LINE
  5
8A
330
1F
100
AcDbEntity
  8
0
 62
     7
100
AcDbLine
 10
329.147034
 20
175.450012
 30
0.0
 11
329.147034
 21
175.320709
 31
0.0
  0
LINE
  5
8B
330
1F
100
AcDbEntity
  8
0
 62
     7
100
AcDbLine
 10
329.147034
 20
175.450012
 30
0.0
 11
329.147034
 21
176.149994
 31
0.0
  0
LINE
  5
8C
330
1F
100
AcDbEntity
  8
0
 62
     7
100
AcDbLine
 10
329.147034
 20
176.279297
 30
0.0
 11
329.147034
 21
176.149994
 31
0.0
  0
LINE
  5
8D
330
1F
100
AcDbEntity
  8
0
 62
     7
100
AcDbLine
 10
329.147034
 20
176.279297
 30
0.0
 11
329.147034
 21
176.420715
 31
0.0
  0
LINE
  5
8E
330
1F
100
AcDbEntity
  8
0
 62
     7
100
AcDbLine
 10
329.147034
 20
176.549988
 30
0.0
 11
329.147034
 21
176.420715
 31
0.0
  0
LINE
  5
8F
330
1F
100
AcDbEntity
  8
0
 62
     7
100
AcDbLine
 10
329.147034
 20
176.549988
 30
0.0
 11
329.147034
 21
177.25
 31
0.0
  0
LINE
  5
90
330
1F
100
AcDbEntity
  8
0
 62
     7
100
AcDbLine
 10
329.147034
 20
177.379272
 30
0.0
 11
329.147034
 21
177.25
 31
0.0
  0
LINE
  5
91
330
1F
100
AcDbEntity
  8
0
 62
     7
100
AcDbLine
 10
329.147034
 20
177.379272
 30
0.0
 11
329.147034
 21
177.520721
 31
0.0
  0
LINE
  5
92
330
1F
100
AcDbEntity
  8
0
 62
     7
100
AcDbLine
 10
329.147034
 20
177.649994
 30
0.0
 11
329.147034
 21
177.520721
 31
0.0
  0
LINE
  5
93
330
1F
100
AcDbEntity
  8
0
 62
     7
100
AcDbLine
 10
329.147034
 20
177.649994
 30
0.0
 11
329.147034
 21
178.350006
 31
0.0
  0
LINE
  5
94
330
1F
100
AcDbEntity
  8
0
 62
     7
100
AcDbLine
 10
329.147034
 20
178.479279
 30
0.0
 11
329.147034
 21
178.350006
 31
0.0
  0
LINE
  5
95
330
1F
100
AcDbEntity
  8
0
 62
     7
100
AcDbLine
 10
329.147034
 20
178.479279
 30
0.0
 11
329.147034
 21
178.620697
 31
0.0
  0
LINE
  5
96
330
1F
100
AcDbEntity
  8
0
 62
     7
100
AcDbLine
 10
329.147034
 20
178.75
 30
0.0
 11
329.147034
 21
178.620697
 31
0.0
  0
LINE
  5
97
330
1F
100
AcDbEntity
  8
0
 62
     7
100
AcDbLine
 10
329.147034
 20
178.75
 30
0.0
 11
329.147034
 21
179.450012
 31
0.0
  0
LINE
  5
98
330
1F
100
AcDbEntity
  8
0
 62
     7
100
AcDbLine
 10
329.147034
 20
179.579285
 30
0.0
 11
329.147034
 21
179.450012
 31
0.0
  0
LINE
  5
99
330
1F
100
AcDbEntity
  8
0
 62
     7
100
AcDbLine
 10
329.147034
 20
179.579285
 30
0.0
 11
329.147034
 21
179.720703
 31
0.0
  0
LINE
  5
9A
330
1F
100
AcDbEntity
  8
0
 62
     7
100
AcDbLine
 10
329.147034
 20
179.850006
 30
0.0
 11
329.147034
 21
179.720703
 31
0.0
  0
LINE
  5
9B
330
1F
100
AcDbEntity
  8
0
 62
     7
100
AcDbLine
 10
329.147034
 20
179.850006
 30
0.0
 11
329.147034
 21
180.549988
 31
0.0
  0
LINE
  5
9C
330
1F
100
AcDbEntity
  8
0
 62
     7
100
AcDbLine
 10
329.147034
 20
180.679291
 30
0.0
 11
329.147034
 21
180.549988
 31
0.0
  0
LINE
  5
9D
330
1F
100
AcDbEntity
  8
0
 62
     7
100
AcDbLine
 10
329.147034
 20
180.679291
 30
0.0
 11
329.147034
 21
180.820709
 31
0.0
  0
LINE
  5
9E
330
1F
100
AcDbEntity
  8
0
 62
     7
100
AcDbLine
 10
329.147034
 20
180.950012
 30
0.0
 11
329.147034
 21
180.820709
 31
0.0
  0
LINE
  5
9F
330
1F
100
AcDbEntity
  8
0
 62
     7
100
AcDbLine
 10
329.147034
 20
180.950012
 30
0.0
 11
329.147034
 21
181.649994
 31
0.0
  0
LINE
  5
A0
330
1F
100
AcDbEntity
  8
0
 62
     7
100
AcDbLine
 10
329.147034
 20
181.779297
 30
0.0
 11
329.147034
 21
181.649994
 31
0.0
  0
LINE
  5
A1
330
1F
100
AcDbEntity
  8
0
 62
     7
100
AcDbLine
 10
329.147034
 20
181.779297
 30
0.0
 11
329.147034
 21
181.920715
 31
0.0
  0
LINE
  5
A2
330
1F
100
AcDbEntity
  8
0
 62
     7
100
AcDbLine
 10
329.147034
 20
182.049988
 30
0.0
 11
329.147034
 21
181.920715
 31
0.0
  0
LINE
  5
A3
330
1F
100
AcDbEntity
  8
0
 62
     7
100
AcDbLine
 10
329.147034
 20
182.049988
 30
0.0
 11
329.147034
 21
182.75
 31
0.0
  0
LINE
  5
A4
330
1F
100
AcDbEntity
  8
0
 62
     7
100
AcDbLine
 10
329.147034
 20
182.879272
 30
0.0
 11
329.147034
 21
182.75
 31
0.0
  0
LINE
  5
A5
330
1F
100
AcDbEntity
  8
0
 62
     7
100
AcDbLine
 10
329.147034
 20
182.879272
 30
0.0
 11
329.147034
 21
183.020721
 31
0.0
  0
LINE
  5
A6
330
1F
100
AcDbEntity
  8
0
 62
     7
100
AcDbLine
 10
329.147034
 20
183.149994
 30
0.0
 11
329.147034
 21
183.020721
 31
0.0
  0
LINE
  5
A7
330
1F
100
AcDbEntity
  8
0
 62
     7
100
AcDbLine
 10
329.147034
 20
183.149994
 30
0.0
 11
329.147034
 21
187.974274
 31
0.0
  0
LINE
  5
A8
330
1F
100
AcDbEntity
  8
0
 62
     7
100
AcDbLine
 10
329.147034
 20
188.462128
 30
0.0
 11
329.147034
 21
187.974274
 31
0.0
  0
LINE
  5
A9
330
1F
100
AcDbEntity
  8
0
 62
     7
100
AcDbLine
 10
329.147034
 20
188.462128
 30
0.0
 11
329.147034
 21
188.549988
 31
0.0
  0
LINE
  5
AA
330
1F
100
AcDbEntity
  8
0
 62
     7
100
AcDbLine
 10
326.828369
 20
173.950012
 30
0.0
 11
326.911743
 21
174.079285
 31
0.0
  0
ARC
  5
AB
330
1F
100
AcDbEntity
  8
0
 62
     7
100
AcDbCircle
 10
320.147034
 20
178.350006
 30
0.0
 40
8.0
100
AcDbArc
 50
354.980203
 51
360.0
  0
LINE
  5
AC
330
1F
100
AcDbEntity
  8
0
 62
     7
100
AcDbLine
 10
328.103943
 20
177.520721
 30
0.0
 11
328.116364
 21
177.649994
 31
0.0
  0
LINE
  5
AD
330
1F
100
AcDbEntity
  8
0
 62
     7
100
AcDbLine
 10
328.087921
 20
177.379272
 30
0.0
 11
328.103943
 21
177.520721
 31
0.0
  0
LINE
  5
AE
330
1F
100
AcDbEntity
  8
0
 62
     7
100
AcDbLine
 10
328.071045
 20
177.25
 30
0.0
 11
328.087921
 21
177.379272
 31
0.0
  0
ARC
  5
AF
330
1F
100
AcDbEntity
  8
0
 62
     7
100
AcDbCircle
 10
320.147034
 20
178.350006
 30
0.0
 40
8.0
100
AcDbArc
 50
346.997132
 51
352.096798
  0
LINE
  5
B0
330
1F
100
AcDbEntity
  8
0
 62
     7
100
AcDbLine
 10
327.910919
 20
176.420715
 30
0.0
 11
327.941925
 21
176.549988
 31
0.0
  0
LINE
  5
B1
330
1F
100
AcDbEntity
  8
0
 62
     7
100
AcDbLine
 10
327.87442
 20
176.279297
 30
0.0
 11
327.910919
 21
176.420715
 31
0.0
  0
LINE
  5
B2
330
1F
100
AcDbEntity
  8
0
 62
     7
100
AcDbLine
 10
327.838593
 20
176.149994
 30
0.0
 11
327.87442
 21
176.279297
 31
0.0
  0
ARC
  5
B3
330
1F
100
AcDbEntity
  8
0
 62
     7
100
AcDbCircle
 10
320.147034
 20
178.350006
 30
0.0
 40
8.0
100
AcDbArc
 50
338.746183
 51
344.037995
  0
LINE
  5
B4
330
1F
100
AcDbEntity
  8
0
 62
     7
100
AcDbLine
 10
327.551331
 20
175.320709
 30
0.0
 11
327.602905
 21
175.450012
 31
0.0
  0
LINE
  5
B5
330
1F
100
AcDbEntity
  8
0
 62
     7
100
AcDbLine
 10
327.491882
 20
175.179291
 30
0.0
 11
327.551331
 21
175.320709
 31
0.0
  0
LINE
  5
B6
330
1F
100
AcDbEntity
  8
0
 62
     7
100
AcDbLine
 10
327.434692
 20
175.049988
 30
0.0
 11
327.491882
 21
175.179291
 31
0.0
  0
ARC
  5
B7
330
1F
100
AcDbEntity
  8
0
 62
     7
100
AcDbCircle
 10
320.147034
 20
178.350006
 30
0.0
 40
8.0
100
AcDbArc
 50
329.999989
 51
335.63801
  0
LINE
  5
B8
330
1F
100
AcDbEntity
  8
0
 62
     7
100
AcDbLine
 10
326.998962
 20
174.220703
 30
0.0
 11
327.075256
 21
174.350006
 31
0.0
  0
LINE
  5
B9
330
1F
100
AcDbEntity
  8
0
 62
     7
100
AcDbLine
 10
326.911743
 20
174.079285
 30
0.0
 11
326.998962
 21
174.220703
 31
0.0
  0
LINE
  5
BA
330
1F
100
AcDbEntity
  8
0
 62
     7
100
AcDbLine
 10
313.465729
 20
173.950012
 30
0.0
 11
313.382355
 21
174.079285
 31
0.0
  0
LINE
  5
BB
330
1F
100
AcDbEntity
  8
0
 62
     7
100
AcDbLine
 10
313.382355
 20
174.079285
 30
0.0
 11
313.295105
 21
174.220703
 31
0.0
  0
LINE
  5
BC
330
1F
100
AcDbEntity
  8
0
 62
     7
100
AcDbLine
 10
313.295105
 20
174.220703
 30
0.0
 11
313.218842
 21
174.350006
 31
0.0
  0
ARC
  5
BD
330
1F
100
AcDbEntity
  8
0
 62
     7
100
AcDbCircle
 10
320.147034
 20
178.350006
 30
0.0
 40
8.0
100
AcDbArc
 50
204.361982
 51
210.000003
  0
LINE
  5
BE
330
1F
100
AcDbEntity
  8
0
 62
     7
100
AcDbLine
 10
312.859375
 20
175.049988
 30
0.0
 11
312.802216
 21
175.179291
 31
0.0
  0
LINE
  5
BF
330
1F
100
AcDbEntity
  8
0
 62
     7
100
AcDbLine
 10
312.802216
 20
175.179291
 30
0.0
 11
312.742767
 21
175.320709
 31
0.0
  0
LINE
  5
C0
330
1F
100
AcDbEntity
  8
0
 62
     7
100
AcDbLine
 10
312.742767
 20
175.320709
 30
0.0
 11
312.691162
 21
175.450012
 31
0.0
  0
ARC
  5
C1
330
1F
100
AcDbEntity
  8
0
 62
     7
100
AcDbCircle
 10
320.147034
 20
178.350006
 30
0.0
 40
8.0
100
AcDbArc
 50
195.96201
 51
201.253809
  0
LINE
  5
C2
330
1F
100
AcDbEntity
  8
0
 62
     7
100
AcDbLine
 10
312.455475
 20
176.149994
 30
0.0
 11
312.419678
 21
176.279297
 31
0.0
  0
LINE
  5
C3
330
1F
100
AcDbEntity
  8
0
 62
     7
100
AcDbLine
 10
312.419678
 20
176.279297
 30
0.0
 11
312.383148
 21
176.420715
 31
0.0
  0
LINE
  5
C4
330
1F
100
AcDbEntity
  8
0
 62
     7
100
AcDbLine
 10
312.383148
 20
176.420715
 30
0.0
 11
312.352173
 21
176.549988
 31
0.0
  0
ARC
  5
C5
330
1F
100
AcDbEntity
  8
0
 62
     7
100
AcDbCircle
 10
320.147034
 20
178.350006
 30
0.0
 40
8.0
100
AcDbArc
 50
187.903207
 51
193.002872
  0
LINE
  5
C6
330
1F
100
AcDbEntity
  8
0
 62
     7
100
AcDbLine
 10
312.223022
 20
177.25
 30
0.0
 11
312.206146
 21
177.379272
 31
0.0
  0
LINE
  5
C7
330
1F
100
AcDbEntity
  8
0
 62
     7
100
AcDbLine
 10
312.206146
 20
177.379272
 30
0.0
 11
312.190155
 21
177.520721
 31
0.0
  0
LINE
  5
C8
330
1F
100
AcDbEntity
  8
0
 62
     7
100
AcDbLine
 10
312.190155
 20
177.520721
 30
0.0
 11
312.177734
 21
177.649994
 31
0.0
  0
ARC
  5
C9
330
1F
100
AcDbEntity
  8
0
 62
     7
100
AcDbCircle
 10
320.147034
 20
178.350006
 30
0.0
 40
8.0
100
AcDbArc
 50
180.000009
 51
185.019802
  0
LINE
  5
CA
330
1F
100
AcDbEntity
  8
0
 62
     7
100
AcDbLine
 10
254.797028
 20
174.079285
 30
0.0
 11
254.797028
 21
173.950012
 31
0.0
  0
LINE
  5
CB
330
1F
100
AcDbEntity
  8
0
 62
     7
100
AcDbLine
 10
254.797028
 20
174.220703
 30
0.0
 11
254.797028
 21
174.350006
 31
0.0
  0
LINE
  5
CC
330
1F
100
AcDbEntity
  8
0
 62
     7
100
AcDbLine
 10
254.797028
 20
174.220703
 30
0.0
 11
254.797028
 21
174.079285
 31
0.0
  0
LINE
  5
CD
330
1F
100
AcDbEntity
  8
0
 62
     7
100
AcDbLine
 10
254.797028
 20
180.950012
 30
0.0
 11
254.797028
 21
181.350006
 31
0.0
  0
LINE
  5
CE
330
1F
100
AcDbEntity
  8
0
 62
     7
100
AcDbLine
 10
254.797028
 20
180.820709
 30
0.0
 11
254.797028
 21
180.950012
 31
0.0
  0
LINE
  5
CF
330
1F
100
AcDbEntity
  8
0
 62
     7
100
AcDbLine
 10
254.797028
 20
180.820709
 30
0.0
 11
254.797028
 21
180.679291
 31
0.0
  0
LINE
  5
D0
330
1F
100
AcDbEntity
  8
0
 62
     7
100
AcDbLine
 10
254.797028
 20
180.679291
 30
0.0
 11
254.797028
 21
180.549988
 31
0.0
  0
LINE
  5
D1
330
1F
100
AcDbEntity
  8
0
 62
     7
100
AcDbLine
 10
254.797028
 20
179.850006
 30
0.0
 11
254.797028
 21
180.549988
 31
0.0
  0
LINE
  5
D2
330
1F
100
AcDbEntity
  8
0
 62
     7
100
AcDbLine
 10
254.797028
 20
179.720703
 30
0.0
 11
254.797028
 21
179.850006
 31
0.0
  0
LINE
  5
D3
330
1F
100
AcDbEntity
  8
0
 62
     7
100
AcDbLine
 10
254.797028
 20
179.720703
 30
0.0
 11
254.797028
 21
179.579285
 31
0.0
  0
LINE
  5
D4
330
1F
100
AcDbEntity
  8
0
 62
     7
100
AcDbLine
 10
254.797028
 20
179.579285
 30
0.0
 11
254.797028
 21
179.450012
 31
0.0
  0
LINE
  5
D5
330
1F
100
AcDbEntity
  8
0
 62
     7
100
AcDbLine
 10
254.797028
 20
178.75
 30
0.0
 11
254.797028
 21
179.450012
 31
0.0
  0
LINE
  5
D6
330
1F
100
AcDbEntity
  8
0
 62
     7
100
AcDbLine
 10
254.797028
 20
178.620697
 30
0.0
 11
254.797028
 21
178.75
 31
0.0
  0
LINE
  5
D7
330
1F
100
AcDbEntity
  8
0
 62
     7
100
AcDbLine
 10
254.797028
 20
178.620697
 30
0.0
 11
254.797028
 21
178.479279
 31
0.0
  0
LINE
  5
D8
330
1F
100
AcDbEntity
  8
0
 62
     7
100
AcDbLine
 10
254.797028
 20
178.479279
 30
0.0
 11
254.797028
 21
178.350006
 31
0.0
  0
LINE
  5
D9
330
1F
100
AcDbEntity
  8
0
 62
     7
100
AcDbLine
 10
254.797028
 20
177.649994
 30
0.0
 11
254.797028
 21
178.350006
 31
0.0
  0
LINE
  5
DA
330
1F
100
AcDbEntity
  8
0
 62
     7
100
AcDbLine
 10
254.797028
 20
177.520721
 30
0.0
 11
254.797028
 21
177.649994
 31
0.0
  0
LINE
  5
DB
330
1F
100
AcDbEntity
  8
0
 62
     7
100
AcDbLine
 10
254.797028
 20
177.520721
 30
0.0
 11
254.797028
 21
177.379272
 31
0.0
  0
LINE
  5
DC
330
1F
100
AcDbEntity
  8
0
 62
     7
100
AcDbLine
 10
254.797028
 20
177.379272
 30
0.0
 11
254.797028
 21
177.25
 31
0.0
  0
LINE
  5
DD
330
1F
100
AcDbEntity
  8
0
 62
     7
100
AcDbLine
 10
254.797028
 20
176.549988
 30
0.0
 11
254.797028
 21
177.25
 31
0.0
  0
LINE
  5
DE
330
1F
100
AcDbEntity
  8
0
 62
     7
100
AcDbLine
 10
254.797028
 20
176.420715
 30
0.0
 11
254.797028
 21
176.549988
 31
0.0
  0
LINE
  5
DF
330
1F
100
AcDbEntity
  8
0
 62
     7
100
AcDbLine
 10
254.797028
 20
176.420715
 30
0.0
 11
254.797028
 21
176.279297
 31
0.0
  0
LINE
  5
E0
330
1F
100
AcDbEntity
  8
0
 62
     7
100
AcDbLine
 10
254.797028
 20
176.279297
 30
0.0
 11
254.797028
 21
176.149994
 31
0.0
  0
LINE
  5
E1
330
1F
100
AcDbEntity
  8
0
 62
     7
100
AcDbLine
 10
254.797028
 20
175.450012
 30
0.0
 11
254.797028
 21
176.149994
 31
0.0
  0
LINE
  5
E2
330
1F
100
AcDbEntity
  8
0
 62
     7
100
AcDbLine
 10
254.797028
 20
175.320709
 30
0.0
 11
254.797028
 21
175.450012
 31
0.0
  0
LINE
  5
E3
330
1F
100
AcDbEntity
  8
0
 62
     7
100
AcDbLine
 10
254.797028
 20
175.320709
 30
0.0
 11
254.797028
 21
175.179291
 31
0.0
  0
LINE
  5
E4
330
1F
100
AcDbEntity
  8
0
 62
     7
100
AcDbLine
 10
254.797028
 20
175.179291
 30
0.0
 11
254.797028
 21
175.049988
 31
0.0
  0
LINE
  5
E5
330
1F
100
AcDbEntity
  8
0
 62
     7
100
AcDbLine
 10
254.797028
 20
174.350006
 30
0.0
 11
254.797028
 21
175.049988
 31
0.0
  0
LINE
  5
E6
330
1F
100
AcDbEntity
  8
0
 62
     7
100
AcDbLine
 10
253.797028
 20
181.649994
 30
0.0
 11
253.797028
 21
180.950012
 31
0.0
  0
LINE
  5
E7
330
1F
100
AcDbEntity
  8
0
 62
     7
100
AcDbLine
 10
253.797028
 20
181.779297
 30
0.0
 11
253.797028
 21
181.649994
 31
0.0
  0
LINE
  5
E8
330
1F
100
AcDbEntity
  8
0
 62
     7
100
AcDbLine
 10
253.797028
 20
181.779297
 30
0.0
 11
253.797028
 21
181.850006
 31
0.0
  0
LINE
  5
E9
330
1F
100
AcDbEntity
  8
0
 62
     7
100
AcDbLine
 10
253.797028
 20
174.079285
 30
0.0
 11
253.797028
 21
173.950012
 31
0.0
  0
LINE
  5
EA
330
1F
100
AcDbEntity
  8
0
 62
     7
100
AcDbLine
 10
253.797028
 20
174.079285
 30
0.0
 11
253.797028
 21
174.220703
 31
0.0
  0
LINE
  5
EB
330
1F
100
AcDbEntity
  8
0
 62
     7
100
AcDbLine
 10
253.797028
 20
174.220703
 30
0.0
 11
253.797028
 21
174.350006
 31
0.0
  0
LINE
  5
EC
330
1F
100
AcDbEntity
  8
0
 62
     7
100
AcDbLine
 10
253.797028
 20
175.049988
 30
0.0
 11
253.797028
 21
174.350006
 31
0.0
  0
LINE
  5
ED
330
1F
100
AcDbEntity
  8
0
 62
     7
100
AcDbLine
 10
253.797028
 20
175.179291
 30
0.0
 11
253.797028
 21
175.049988
 31
0.0
  0
LINE
  5
EE
330
1F
100
AcDbEntity
  8
0
 62
     7
100
AcDbLine
 10
253.797028
 20
175.179291
 30
0.0
 11
253.797028
 21
175.320709
 31
0.0
  0
LINE
  5
EF
330
1F
100
AcDbEntity
  8
0
 62
     7
100
AcDbLine
 10
253.797028
 20
175.320709
 30
0.0
 11
253.797028
 21
175.450012
 31
0.0
  0
LINE
  5
F0
330
1F
100
AcDbEntity
  8
0
 62
     7
100
AcDbLine
 10
253.797028
 20
176.149994
 30
0.0
 11
253.797028
 21
175.450012
 31
0.0
  0
LINE
  5
F1
330
1F
100
AcDbEntity
  8
0
 62
     7
100
AcDbLine
 10
253.797028
 20
176.279297
 30
0.0
 11
253.797028
 21
176.149994
 31
0.0
  0
LINE
  5
F2
330
1F
100
AcDbEntity
  8
0
 62
     7
100
AcDbLine
 10
253.797028
 20
176.279297
 30
0.0
 11
253.797028
 21
176.420715
 31
0.0
  0
LINE
  5
F3
330
1F
100
AcDbEntity
  8
0
 62
     7
100
AcDbLine
 10
253.797028
 20
176.420715
 30
0.0
 11
253.797028
 21
176.549988
 31
0.0
  0
LINE
  5
F4
330
1F
100
AcDbEntity
  8
0
 62
     7
100
AcDbLine
 10
253.797028
 20
177.25
 30
0.0
 11
253.797028
 21
176.549988
 31
0.0
  0
LINE
  5
F5
330
1F
100
AcDbEntity
  8
0
 62
     7
100
AcDbLine
 10
253.797028
 20
177.379272
 30
0.0
 11
253.797028
 21
177.25
 31
0.0
  0
LINE
  5
F6
330
1F
100
AcDbEntity
  8
0
 62
     7
100
AcDbLine
 10
253.797028
 20
177.379272
 30
0.0
 11
253.797028
 21
177.520721
 31
0.0
  0
LINE
  5
F7
330
1F
100
AcDbEntity
  8
0
 62
     7
100
AcDbLine
 10
253.797028
 20
177.520721
 30
0.0
 11
253.797028
 21
177.649994
 31
0.0
  0
LINE
  5
F8
330
1F
100
AcDbEntity
  8
0
 62
     7
100
AcDbLine
 10
253.797028
 20
178.350006
 30
0.0
 11
253.797028
 21
177.649994
 31
0.0
  0
LINE
  5
F9
330
1F
100
AcDbEntity
  8
0
 62
     7
100
AcDbLine
 10
253.797028
 20
178.479279
 30
0.0
 11
253.797028
 21
178.350006
 31
0.0
  0
LINE
  5
FA
330
1F
100
AcDbEntity
  8
0
 62
     7
100
AcDbLine
 10
253.797028
 20
178.479279
 30
0.0
 11
253.797028
 21
178.620697
 31
0.0
  0
LINE
  5
FB
330
1F
100
AcDbEntity
  8
0
 62
     7
100
AcDbLine
 10
253.797028
 20
178.620697
 30
0.0
 11
253.797028
 21
178.75
 31
0.0
  0
LINE
  5
FC
330
1F
100
AcDbEntity
  8
0
 62
     7
100
AcDbLine
 10
253.797028
 20
179.450012
 30
0.0
 11
253.797028
 21
178.75
 31
0.0
  0
LINE
  5
FD
330
1F
100
AcDbEntity
  8
0
 62
     7
100
AcDbLine
 10
253.797028
 20
179.579285
 30
0.0
 11
253.797028
 21
179.450012
 31
0.0
  0
LINE
  5
FE
330
1F
100
AcDbEntity
  8
0
 62
     7
100
AcDbLine
 10
253.797028
 20
179.579285
 30
0.0
 11
253.797028
 21
179.720703
 31
0.0
  0
LINE
  5
FF
330
1F
100
AcDbEntity
  8
0
 62
     7
100
AcDbLine
 10
253.797028
 20
179.720703
 30
0.0
 11
253.797028
 21
179.850006
 31
0.0
  0
LINE
  5
100
330
1F
100
AcDbEntity
  8
0
 62
     7
100
AcDbLine
 10
253.797028
 20
180.549988
 30
0.0
 11
253.797028
 21
179.850006
 31
0.0
  0
LINE
  5
101
330
1F
100
AcDbEntity
  8
0
 62
     7
100
AcDbLine
 10
253.797028
 20
180.679291
 30
0.0
 11
253.797028
 21
180.549988
 31
0.0
  0
LINE
  5
102
330
1F
100
AcDbEntity
  8
0
 62
     7
100
AcDbLine
 10
253.797028
 20
180.679291
 30
0.0
 11
253.797028
 21
180.820709
 31
0.0
  0
LINE
  5
103
330
1F
100
AcDbEntity
  8
0
 62
     7
100
AcDbLine
 10
253.797028
 20
180.820709
 30
0.0
 11
253.797028
 21
180.950012
 31
0.0
  0
LINE
  5
104
330
1F
100
AcDbEntity
  8
0
 62
     7
100
AcDbLine
 10
251.49704
 20
174.079285
 30
0.0
 11
251.49704
 21
173.950012
 31
0.0
  0
LINE
  5
105
330
1F
100
AcDbEntity
  8
0
 62
     7
100
AcDbLine
 10
251.49704
 20
174.220703
 30
0.0
 11
251.49704
 21
174.350006
 31
0.0
  0
LINE
  5
106
330
1F
100
AcDbEntity
  8
0
 62
     7
100
AcDbLine
 10
251.49704
 20
174.220703
 30
0.0
 11
251.49704
 21
174.079285
 31
0.0
  0
LINE
  5
107
330
1F
100
AcDbEntity
  8
0
 62
     7
100
AcDbLine
 10
251.49704
 20
181.850006
 30
0.0
 11
251.49704
 21
181.779297
 31
0.0
  0
LINE
  5
108
330
1F
100
AcDbEntity
  8
0
 62
     7
100
AcDbLine
 10
251.49704
 20
181.779297
 30
0.0
 11
251.49704
 21
181.649994
 31
0.0
  0
LINE
  5
109
330
1F
100
AcDbEntity
  8
0
 62
     7
100
AcDbLine
 10
251.49704
 20
180.950012
 30
0.0
 11
251.49704
 21
181.649994
 31
0.0
  0
LINE
  5
10A
330
1F
100
AcDbEntity
  8
0
 62
     7
100
AcDbLine
 10
251.49704
 20
180.820709
 30
0.0
 11
251.49704
 21
180.950012
 31
0.0
  0
LINE
  5
10B
330
1F
100
AcDbEntity
  8
0
 62
     7
100
AcDbLine
 10
251.49704
 20
180.820709
 30
0.0
 11
251.49704
 21
180.679291
 31
0.0
  0
LINE
  5
10C
330
1F
100
AcDbEntity
  8
0
 62
     7
100
AcDbLine
 10
251.49704
 20
180.679291
 30
0.0
 11
251.49704
 21
180.549988
 31
0.0
  0
LINE
  5
10D
330
1F
100
AcDbEntity
  8
0
 62
     7
100
AcDbLine
 10
251.49704
 20
179.850006
 30
0.0
 11
251.49704
 21
180.549988
 31
0.0
  0
LINE
  5
10E
330
1F
100
AcDbEntity
  8
0
 62
     7
100
AcDbLine
 10
251.49704
 20
179.720703
 30
0.0
 11
251.49704
 21
179.850006
 31
0.0
  0
LINE
  5
10F
330
1F
100
AcDbEntity
  8
0
 62
     7
100
AcDbLine
 10
251.49704
 20
179.720703
 30
0.0
 11
251.49704
 21
179.579285
 31
0.0
  0
LINE
  5
110
330
1F
100
AcDbEntity
  8
0
 62
     7
100
AcDbLine
 10
251.49704
 20
179.579285
 30
0.0
 11
251.49704
 21
179.450012
 31
0.0
  0
LINE
  5
111
330
1F
100
AcDbEntity
  8
0
 62
     7
100
AcDbLine
 10
251.49704
 20
178.75
 30
0.0
 11
251.49704
 21
179.450012
 31
0.0
  0
LINE
  5
112
330
1F
100
AcDbEntity
  8
0
 62
     7
100
AcDbLine
 10
251.49704
 20
178.620697
 30
0.0
 11
251.49704
 21
178.75
 31
0.0
  0
LINE
  5
113
330
1F
100
AcDbEntity
  8
0
 62
     7
100
AcDbLine
 10
251.49704
 20
178.620697
 30
0.0
 11
251.49704
 21
178.479279
 31
0.0
  0
LINE
  5
114
330
1F
100
AcDbEntity
  8
0
 62
     7
100
AcDbLine
 10
251.49704
 20
178.479279
 30
0.0
 11
251.49704
 21
178.350006
 31
0.0
  0
LINE
  5
115
330
1F
100
AcDbEntity
  8
0
 62
     7
100
AcDbLine
 10
251.49704
 20
177.649994
 30
0.0
 11
251.49704
 21
178.350006
 31
0.0
  0
LINE
  5
116
330
1F
100
AcDbEntity
  8
0
 62
     7
100
AcDbLine
 10
251.49704
 20
177.520721
 30
0.0
 11
251.49704
 21
177.649994
 31
0.0
  0
LINE
  5
117
330
1F
100
AcDbEntity
  8
0
 62
     7
100
AcDbLine
 10
251.49704
 20
177.520721
 30
0.0
 11
251.49704
 21
177.379272
 31
0.0
  0
LINE
  5
118
330
1F
100
AcDbEntity
  8
0
 62
     7
100
AcDbLine
 10
251.49704
 20
177.379272
 30
0.0
 11
251.49704
 21
177.25
 31
0.0
  0
LINE
  5
119
330
1F
100
AcDbEntity
  8
0
 62
     7
100
AcDbLine
 10
251.49704
 20
176.549988
 30
0.0
 11
251.49704
 21
177.25
 31
0.0
  0
LINE
  5
11A
330
1F
100
AcDbEntity
  8
0
 62
     7
100
AcDbLine
 10
251.49704
 20
176.420715
 30
0.0
 11
251.49704
 21
176.549988
 31
0.0
  0
LINE
  5
11B
330
1F
100
AcDbEntity
  8
0
 62
     7
100
AcDbLine
 10
251.49704
 20
176.420715
 30
0.0
 11
251.49704
 21
176.279297
 31
0.0
  0
LINE
  5
11C
330
1F
100
AcDbEntity
  8
0
 62
     7
100
AcDbLine
 10
251.49704
 20
176.279297
 30
0.0
 11
251.49704
 21
176.149994
 31
0.0
  0
LINE
  5
11D
330
1F
100
AcDbEntity
  8
0
 62
     7
100
AcDbLine
 10
251.49704
 20
175.450012
 30
0.0
 11
251.49704
 21
176.149994
 31
0.0
  0
LINE
  5
11E
330
1F
100
AcDbEntity
  8
0
 62
     7
100
AcDbLine
 10
251.49704
 20
175.320709
 30
0.0
 11
251.49704
 21
175.450012
 31
0.0
  0
LINE
  5
11F
330
1F
100
AcDbEntity
  8
0
 62
     7
100
AcDbLine
 10
251.49704
 20
175.320709
 30
0.0
 11
251.49704
 21
175.179291
 31
0.0
  0
LINE
  5
120
330
1F
100
AcDbEntity
  8
0
 62
     7
100
AcDbLine
 10
251.49704
 20
175.179291
 30
0.0
 11
251.49704
 21
175.049988
 31
0.0
  0
LINE
  5
121
330
1F
100
AcDbEntity
  8
0
 62
     7
100
AcDbLine
 10
251.49704
 20
174.350006
 30
0.0
 11
251.49704
 21
175.049988
 31
0.0
  0
LINE
  5
122
330
1F
100
AcDbEntity
  8
0
 62
     7
100
AcDbLine
 10
250.49704
 20
180.679291
 30
0.0
 11
250.49704
 21
180.549988
 31
0.0
  0
LINE
  5
123
330
1F
100
AcDbEntity
  8
0
 62
     7
100
AcDbLine
 10
250.49704
 20
180.679291
 30
0.0
 11
250.49704
 21
180.820709
 31
0.0
  0
LINE
  5
124
330
1F
100
AcDbEntity
  8
0
 62
     7
100
AcDbLine
 10
250.49704
 20
180.820709
 30
0.0
 11
250.49704
 21
180.950012
 31
0.0
  0
LINE
  5
125
330
1F
100
AcDbEntity
  8
0
 62
     7
100
AcDbLine
 10
250.49704
 20
181.350006
 30
0.0
 11
250.49704
 21
180.950012
 31
0.0
  0
LINE
  5
126
330
1F
100
AcDbEntity
  8
0
 62
     7
100
AcDbLine
 10
250.49704
 20
174.079285
 30
0.0
 11
250.49704
 21
173.950012
 31
0.0
  0
LINE
  5
127
330
1F
100
AcDbEntity
  8
0
 62
     7
100
AcDbLine
 10
250.49704
 20
174.079285
 30
0.0
 11
250.49704
 21
174.220703
 31
0.0
  0
LINE
  5
128
330
1F
100
AcDbEntity
  8
0
 62
     7
100
AcDbLine
 10
250.49704
 20
174.220703
 30
0.0
 11
250.49704
 21
174.350006
 31
0.0
  0
LINE
  5
129
330
1F
100
AcDbEntity
  8
0
 62
     7
100
AcDbLine
 10
250.49704
 20
175.049988
 30
0.0
 11
250.49704
 21
174.350006
 31
0.0
  0
LINE
  5
12A
330
1F
100
AcDbEntity
  8
0
 62
     7
100
AcDbLine
 10
250.49704
 20
175.179291
 30
0.0
 11
250.49704
 21
175.049988
 31
0.0
  0
LINE
  5
12B
330
1F
100
AcDbEntity
  8
0
 62
     7
100
AcDbLine
 10
250.49704
 20
175.179291
 30
0.0
 11
250.49704
 21
175.320709
 31
0.0
  0
LINE
  5
12C
330
1F
100
AcDbEntity
  8
0
 62
     7
100
AcDbLine
 10
250.49704
 20
175.320709
 30
0.0
 11
250.49704
 21
175.450012
 31
0.0
  0
LINE
  5
12D
330
1F
100
AcDbEntity
  8
0
 62
     7
100
AcDbLine
 10
250.49704
 20
176.149994
 30
0.0
 11
250.49704
 21
175.450012
 31
0.0
  0
LINE
  5
12E
330
1F
100
AcDbEntity
  8
0
 62
     7
100
AcDbLine
 10
250.49704
 20
176.279297
 30
0.0
 11
250.49704
 21
176.149994
 31
0.0
  0
LINE
  5
12F
330
1F
100
AcDbEntity
  8
0
 62
     7
100
AcDbLine
 10
250.49704
 20
176.279297
 30
0.0
 11
250.49704
 21
176.420715
 31
0.0
  0
LINE
  5
130
330
1F
100
AcDbEntity
  8
0
 62
     7
100
AcDbLine
 10
250.49704
 20
176.420715
 30
0.0
 11
250.49704
 21
176.549988
 31
0.0
  0
LINE
  5
131
330
1F
100
AcDbEntity
  8
0
 62
     7
100
AcDbLine
 10
250.49704
 20
177.25
 30
0.0
 11
250.49704
 21
176.549988
 31
0.0
  0
LINE
  5
132
330
1F
100
AcDbEntity
  8
0
 62
     7
100
AcDbLine
 10
250.49704
 20
177.379272
 30
0.0
 11
250.49704
 21
177.25
 31
0.0
  0
LINE
  5
133
330
1F
100
AcDbEntity
  8
0
 62
     7
100
AcDbLine
 10
250.49704
 20
177.379272
 30
0.0
 11
250.49704
 21
177.520721
 31
0.0
  0
LINE
  5
134
330
1F
100
AcDbEntity
  8
0
 62
     7
100
AcDbLine
 10
250.49704
 20
177.520721
 30
0.0
 11
250.49704
 21
177.649994
 31
0.0
  0
LINE
  5
135
330
1F
100
AcDbEntity
  8
0
 62
     7
100
AcDbLine
 10
250.49704
 20
178.350006
 30
0.0
 11
250.49704
 21
177.649994
 31
0.0
  0
LINE
  5
136
330
1F
100
AcDbEntity
  8
0
 62
     7
100
AcDbLine
 10
250.49704
 20
178.479279
 30
0.0
 11
250.49704
 21
178.350006
 31
0.0
  0
LINE
  5
137
330
1F
100
AcDbEntity
  8
0
 62
     7
100
AcDbLine
 10
250.49704
 20
178.479279
 30
0.0
 11
250.49704
 21
178.620697
 31
0.0
  0
LINE
  5
138
330
1F
100
AcDbEntity
  8
0
 62
     7
100
AcDbLine
 10
250.49704
 20
178.620697
 30
0.0
 11
250.49704
 21
178.75
 31
0.0
  0
LINE
  5
139
330
1F
100
AcDbEntity
  8
0
 62
     7
100
AcDbLine
 10
250.49704
 20
179.450012
 30
0.0
 11
250.49704
 21
178.75
 31
0.0
  0
LINE
  5
13A
330
1F
100
AcDbEntity
  8
0
 62
     7
100
AcDbLine
 10
250.49704
 20
179.579285
 30
0.0
 11
250.49704
 21
179.450012
 31
0.0
  0
LINE
  5
13B
330
1F
100
AcDbEntity
  8
0
 62
     7
100
AcDbLine
 10
250.49704
 20
179.579285
 30
0.0
 11
250.49704
 21
179.720703
 31
0.0
  0
LINE
  5
13C
330
1F
100
AcDbEntity
  8
0
 62
     7
100
AcDbLine
 10
250.49704
 20
179.720703
 30
0.0
 11
250.49704
 21
179.850006
 31
0.0
  0
LINE
  5
13D
330
1F
100
AcDbEntity
  8
0
 62
     7
100
AcDbLine
 10
250.49704
 20
180.549988
 30
0.0
 11
250.49704
 21
179.850006
 31
0.0
  0
LINE
  5
13E
330
1F
100
AcDbEntity
  8
0
 62
     7
100
AcDbLine
 10
154.797058
 20
174.079285
 30
0.0
 11
154.797058
 21
173.950012
 31
0.0
  0
LINE
  5
13F
330
1F
100
AcDbEntity
  8
0
 62
     7
100
AcDbLine
 10
154.797058
 20
174.220703
 30
0.0
 11
154.797058
 21
174.350006
 31
0.0
  0
LINE
  5
140
330
1F
100
AcDbEntity
  8
0
 62
     7
100
AcDbLine
 10
154.797058
 20
174.220703
 30
0.0
 11
154.797058
 21
174.079285
 31
0.0
  0
LINE
  5
141
330
1F
100
AcDbEntity
  8
0
 62
     7
100
AcDbLine
 10
154.797058
 20
180.950012
 30
0.0
 11
154.797058
 21
181.350006
 31
0.0
  0
LINE
  5
142
330
1F
100
AcDbEntity
  8
0
 62
     7
100
AcDbLine
 10
154.797058
 20
180.820709
 30
0.0
 11
154.797058
 21
180.950012
 31
0.0
  0
LINE
  5
143
330
1F
100
AcDbEntity
  8
0
 62
     7
100
AcDbLine
 10
154.797058
 20
180.820709
 30
0.0
 11
154.797058
 21
180.679291
 31
0.0
  0
LINE
  5
144
330
1F
100
AcDbEntity
  8
0
 62
     7
100
AcDbLine
 10
154.797058
 20
180.679291
 30
0.0
 11
154.797058
 21
180.549988
 31
0.0
  0
LINE
  5
145
330
1F
100
AcDbEntity
  8
0
 62
     7
100
AcDbLine
 10
154.797058
 20
179.850006
 30
0.0
 11
154.797058
 21
180.549988
 31
0.0
  0
LINE
  5
146
330
1F
100
AcDbEntity
  8
0
 62
     7
100
AcDbLine
 10
154.797058
 20
179.720703
 30
0.0
 11
154.797058
 21
179.850006
 31
0.0
  0
LINE
  5
147
330
1F
100
AcDbEntity
  8
0
 62
     7
100
AcDbLine
 10
154.797058
 20
179.720703
 30
0.0
 11
154.797058
 21
179.579285
 31
0.0
  0
LINE
  5
148
330
1F
100
AcDbEntity
  8
0
 62
     7
100
AcDbLine
 10
154.797058
 20
179.579285
 30
0.0
 11
154.797058
 21
179.450012
 31
0.0
  0
LINE
  5
149
330
1F
100
AcDbEntity
  8
0
 62
     7
100
AcDbLine
 10
154.797058
 20
178.75
 30
0.0
 11
154.797058
 21
179.450012
 31
0.0
  0
LINE
  5
14A
330
1F
100
AcDbEntity
  8
0
 62
     7
100
AcDbLine
 10
154.797058
 20
178.620697
 30
0.0
 11
154.797058
 21
178.75
 31
0.0
  0
LINE
  5
14B
330
1F
100
AcDbEntity
  8
0
 62
     7
100
AcDbLine
 10
154.797058
 20
178.620697
 30
0.0
 11
154.797058
 21
178.479279
 31
0.0
  0
LINE
  5
14C
330
1F
100
AcDbEntity
  8
0
 62
     7
100
AcDbLine
 10
154.797058
 20
178.479279
 30
0.0
 11
154.797058
 21
178.350006
 31
0.0
  0
LINE
  5
14D
330
1F
100
AcDbEntity
  8
0
 62
     7
100
AcDbLine
 10
154.797058
 20
177.649994
 30
0.0
 11
154.797058
 21
178.350006
 31
0.0
  0
LINE
  5
14E
330
1F
100
AcDbEntity
  8
0
 62
     7
100
AcDbLine
 10
154.797058
 20
177.520721
 30
0.0
 11
154.797058
 21
177.649994
 31
0.0
  0
LINE
  5
14F
330
1F
100
AcDbEntity
  8
0
 62
     7
100
AcDbLine
 10
154.797058
 20
177.520721
 30
0.0
 11
154.797058
 21
177.379272
 31
0.0
  0
LINE
  5
150
330
1F
100
AcDbEntity
  8
0
 62
     7
100
AcDbLine
 10
154.797058
 20
177.379272
 30
0.0
 11
154.797058
 21
177.25
 31
0.0
  0
LINE
  5
151
330
1F
100
AcDbEntity
  8
0
 62
     7
100
AcDbLine
 10
154.797058
 20
176.549988
 30
0.0
 11
154.797058
 21
177.25
 31
0.0
  0
LINE
  5
152
330
1F
100
AcDbEntity
  8
0
 62
     7
100
AcDbLine
 10
154.797058
 20
176.420715
 30
0.0
 11
154.797058
 21
176.549988
 31
0.0
  0
LINE
  5
153
330
1F
100
AcDbEntity
  8
0
 62
     7
100
AcDbLine
 10
154.797058
 20
176.420715
 30
0.0
 11
154.797058
 21
176.279297
 31
0.0
  0
LINE
  5
154
330
1F
100
AcDbEntity
  8
0
 62
     7
100
AcDbLine
 10
154.797058
 20
176.279297
 30
0.0
 11
154.797058
 21
176.149994
 31
0.0
  0
LINE
  5
155
330
1F
100
AcDbEntity
  8
0
 62
     7
100
AcDbLine
 10
154.797058
 20
175.450012
 30
0.0
 11
154.797058
 21
176.149994
 31
0.0
  0
LINE
  5
156
330
1F
100
AcDbEntity
  8
0
 62
     7
100
AcDbLine
 10
154.797058
 20
175.320709
 30
0.0
 11
154.797058
 21
175.450012
 31
0.0
  0
LINE
  5
157
330
1F
100
AcDbEntity
  8
0
 62
     7
100
AcDbLine
 10
154.797058
 20
175.320709
 30
0.0
 11
154.797058
 21
175.179291
 31
0.0
  0
LINE
  5
158
330
1F
100
AcDbEntity
  8
0
 62
     7
100
AcDbLine
 10
154.797058
 20
175.179291
 30
0.0
 11
154.797058
 21
175.049988
 31
0.0
  0
LINE
  5
159
330
1F
100
AcDbEntity
  8
0
 62
     7
100
AcDbLine
 10
154.797058
 20
174.350006
 30
0.0
 11
154.797058
 21
175.049988
 31
0.0
  0
LINE
  5
15A
330
1F
100
AcDbEntity
  8
0
 62
     7
100
AcDbLine
 10
153.797058
 20
181.649994
 30
0.0
 11
153.797058
 21
180.950012
 31
0.0
  0
LINE
  5
15B
330
1F
100
AcDbEntity
  8
0
 62
     7
100
AcDbLine
 10
153.797058
 20
181.779297
 30
0.0
 11
153.797058
 21
181.649994
 31
0.0
  0
LINE
  5
15C
330
1F
100
AcDbEntity
  8
0
 62
     7
100
AcDbLine
 10
153.797058
 20
181.779297
 30
0.0
 11
153.797058
 21
181.850006
 31
0.0
  0
LINE
  5
15D
330
1F
100
AcDbEntity
  8
0
 62
     7
100
AcDbLine
 10
153.797058
 20
174.079285
 30
0.0
 11
153.797058
 21
173.950012
 31
0.0
  0
LINE
  5
15E
330
1F
100
AcDbEntity
  8
0
 62
     7
100
AcDbLine
 10
153.797058
 20
174.079285
 30
0.0
 11
153.797058
 21
174.220703
 31
0.0
  0
LINE
  5
15F
330
1F
100
AcDbEntity
  8
0
 62
     7
100
AcDbLine
 10
153.797058
 20
174.220703
 30
0.0
 11
153.797058
 21
174.350006
 31
0.0
  0
LINE
  5
160
330
1F
100
AcDbEntity
  8
0
 62
     7
100
AcDbLine
 10
153.797058
 20
175.049988
 30
0.0
 11
153.797058
 21
174.350006
 31
0.0
  0
LINE
  5
161
330
1F
100
AcDbEntity
  8
0
 62
     7
100
AcDbLine
 10
153.797058
 20
175.179291
 30
0.0
 11
153.797058
 21
175.049988
 31
0.0
  0
LINE
  5
162
330
1F
100
AcDbEntity
  8
0
 62
     7
100
AcDbLine
 10
153.797058
 20
175.179291
 30
0.0
 11
153.797058
 21
175.320709
 31
0.0
  0
LINE
  5
163
330
1F
100
AcDbEntity
  8
0
 62
     7
100
AcDbLine
 10
153.797058
 20
175.320709
 30
0.0
 11
153.797058
 21
175.450012
 31
0.0
  0
LINE
  5
164
330
1F
100
AcDbEntity
  8
0
 62
     7
100
AcDbLine
 10
153.797058
 20
176.149994
 30
0.0
 11
153.797058
 21
175.450012
 31
0.0
  0
LINE
  5
165
330
1F
100
AcDbEntity
  8
0
 62
     7
100
AcDbLine
 10
153.797058
 20
176.279297
 30
0.0
 11
153.797058
 21
176.149994
 31
0.0
  0
LINE
  5
166
330
1F
100
AcDbEntity
  8
0
 62
     7
100
AcDbLine
 10
153.797058
 20
176.279297
 30
0.0
 11
153.797058
 21
176.420715
 31
0.0
  0
LINE
  5
167
330
1F
100
AcDbEntity
  8
0
 62
     7
100
AcDbLine
 10
153.797058
 20
176.420715
 30
0.0
 11
153.797058
 21
176.549988
 31
0.0
  0
LINE
  5
168
330
1F
100
AcDbEntity
  8
0
 62
     7
100
AcDbLine
 10
153.797058
 20
177.25
 30
0.0
 11
153.797058
 21
176.549988
 31
0.0
  0
LINE
  5
169
330
1F
100
AcDbEntity
  8
0
 62
     7
100
AcDbLine
 10
153.797058
 20
177.379272
 30
0.0
 11
153.797058
 21
177.25
 31
0.0
  0
LINE
  5
16A
330
1F
100
AcDbEntity
  8
0
 62
     7
100
AcDbLine
 10
153.797058
 20
177.379272
 30
0.0
 11
153.797058
 21
177.520721
 31
0.0
  0
LINE
  5
16B
330
1F
100
AcDbEntity
  8
0
 62
     7
100
AcDbLine
 10
153.797058
 20
177.520721
 30
0.0
 11
153.797058
 21
177.649994
 31
0.0
  0
LINE
  5
16C
330
1F
100
AcDbEntity
  8
0
 62
     7
100
AcDbLine
 10
153.797058
 20
178.350006
 30
0.0
 11
153.797058
 21
177.649994
 31
0.0
  0
LINE
  5
16D
330
1F
100
AcDbEntity
  8
0
 62
     7
100
AcDbLine
 10
153.797058
 20
178.479279
 30
0.0
 11
153.797058
 21
178.350006
 31
0.0
  0
LINE
  5
16E
330
1F
100
AcDbEntity
  8
0
 62
     7
100
AcDbLine
 10
153.797058
 20
178.479279
 30
0.0
 11
153.797058
 21
178.620697
 31
0.0
  0
LINE
  5
16F
330
1F
100
AcDbEntity
  8
0
 62
     7
100
AcDbLine
 10
153.797058
 20
178.620697
 30
0.0
 11
153.797058
 21
178.75
 31
0.0
  0
LINE
  5
170
330
1F
100
AcDbEntity
  8
0
 62
     7
100
AcDbLine
 10
153.797058
 20
179.450012
 30
0.0
 11
153.797058
 21
178.75
 31
0.0
  0
LINE
  5
171
330
1F
100
AcDbEntity
  8
0
 62
     7
100
AcDbLine
 10
153.797058
 20
179.579285
 30
0.0
 11
153.797058
 21
179.450012
 31
0.0
  0
LINE
  5
172
330
1F
100
AcDbEntity
  8
0
 62
     7
100
AcDbLine
 10
153.797058
 20
179.579285
 30
0.0
 11
153.797058
 21
179.720703
 31
0.0
  0
LINE
  5
173
330
1F
100
AcDbEntity
  8
0
 62
     7
100
AcDbLine
 10
153.797058
 20
179.720703
 30
0.0
 11
153.797058
 21
179.850006
 31
0.0
  0
LINE
  5
174
330
1F
100
AcDbEntity
  8
0
 62
     7
100
AcDbLine
 10
153.797058
 20
180.549988
 30
0.0
 11
153.797058
 21
179.850006
 31
0.0
  0
LINE
  5
175
330
1F
100
AcDbEntity
  8
0
 62
     7
100
AcDbLine
 10
153.797058
 20
180.679291
 30
0.0
 11
153.797058
 21
180.549988
 31
0.0
  0
LINE
  5
176
330
1F
100
AcDbEntity
  8
0
 62
     7
100
AcDbLine
 10
153.797058
 20
180.679291
 30
0.0
 11
153.797058
 21
180.820709
 31
0.0
  0
LINE
  5
177
330
1F
100
AcDbEntity
  8
0
 62
     7
100
AcDbLine
 10
153.797058
 20
180.820709
 30
0.0
 11
153.797058
 21
180.950012
 31
0.0
  0
LINE
  5
178
330
1F
100
AcDbEntity
  8
0
 62
     7
100
AcDbLine
 10
151.49704
 20
174.079285
 30
0.0
 11
151.49704
 21
173.950012
 31
0.0
  0
LINE
  5
179
330
1F
100
AcDbEntity
  8
0
 62
     7
100
AcDbLine
 10
151.49704
 20
174.220703
 30
0.0
 11
151.49704
 21
174.350006
 31
0.0
  0
LINE
  5
17A
330
1F
100
AcDbEntity
  8
0
 62
     7
100
AcDbLine
 10
151.49704
 20
174.220703
 30
0.0
 11
151.49704
 21
174.079285
 31
0.0
  0
LINE
  5
17B
330
1F
100
AcDbEntity
  8
0
 62
     7
100
AcDbLine
 10
151.49704
 20
181.850006
 30
0.0
 11
151.49704
 21
181.779297
 31
0.0
  0
LINE
  5
17C
330
1F
100
AcDbEntity
  8
0
 62
     7
100
AcDbLine
 10
151.49704
 20
181.779297
 30
0.0
 11
151.49704
 21
181.649994
 31
0.0
  0
LINE
  5
17D
330
1F
100
AcDbEntity
  8
0
 62
     7
100
AcDbLine
 10
151.49704
 20
180.950012
 30
0.0
 11
151.49704
 21
181.649994
 31
0.0
  0
LINE
  5
17E
330
1F
100
AcDbEntity
  8
0
 62
     7
100
AcDbLine
 10
151.49704
 20
180.820709
 30
0.0
 11
151.49704
 21
180.950012
 31
0.0
  0
LINE
  5
17F
330
1F
100
AcDbEntity
  8
0
 62
     7
100
AcDbLine
 10
151.49704
 20
180.820709
 30
0.0
 11
151.49704
 21
180.679291
 31
0.0
  0
LINE
  5
180
330
1F
100
AcDbEntity
  8
0
 62
     7
100
AcDbLine
 10
151.49704
 20
180.679291
 30
0.0
 11
151.49704
 21
180.549988
 31
0.0
  0
LINE
  5
181
330
1F
100
AcDbEntity
  8
0
 62
     7
100
AcDbLine
 10
151.49704
 20
179.850006
 30
0.0
 11
151.49704
 21
180.549988
 31
0.0
  0
LINE
  5
182
330
1F
100
AcDbEntity
  8
0
 62
     7
100
AcDbLine
 10
151.49704
 20
179.720703
 30
0.0
 11
151.49704
 21
179.850006
 31
0.0
  0
LINE
  5
183
330
1F
100
AcDbEntity
  8
0
 62
     7
100
AcDbLine
 10
151.49704
 20
179.720703
 30
0.0
 11
151.49704
 21
179.579285
 31
0.0
  0
LINE
  5
184
330
1F
100
AcDbEntity
  8
0
 62
     7
100
AcDbLine
 10
151.49704
 20
179.579285
 30
0.0
 11
151.49704
 21
179.450012
 31
0.0
  0
LINE
  5
185
330
1F
100
AcDbEntity
  8
0
 62
     7
100
AcDbLine
 10
151.49704
 20
178.75
 30
0.0
 11
151.49704
 21
179.450012
 31
0.0
  0
LINE
  5
186
330
1F
100
AcDbEntity
  8
0
 62
     7
100
AcDbLine
 10
151.49704
 20
178.620697
 30
0.0
 11
151.49704
 21
178.75
 31
0.0
  0
LINE
  5
187
330
1F
100
AcDbEntity
  8
0
 62
     7
100
AcDbLine
 10
151.49704
 20
178.620697
 30
0.0
 11
151.49704
 21
178.479279
 31
0.0
  0
LINE
  5
188
330
1F
100
AcDbEntity
  8
0
 62
     7
100
AcDbLine
 10
151.49704
 20
178.479279
 30
0.0
 11
151.49704
 21
178.350006
 31
0.0
  0
LINE
  5
189
330
1F
100
AcDbEntity
  8
0
 62
     7
100
AcDbLine
 10
151.49704
 20
177.649994
 30
0.0
 11
151.49704
 21
178.350006
 31
0.0
  0
LINE
  5
18A
330
1F
100
AcDbEntity
  8
0
 62
     7
100
AcDbLine
 10
151.49704
 20
177.520721
 30
0.0
 11
151.49704
 21
177.649994
 31
0.0
  0
LINE
  5
18B
330
1F
100
AcDbEntity
  8
0
 62
     7
100
AcDbLine
 10
151.49704
 20
177.520721
 30
0.0
 11
151.49704
 21
177.379272
 31
0.0
  0
LINE
  5
18C
330
1F
100
AcDbEntity
  8
0
 62
     7
100
AcDbLine
 10
151.49704
 20
177.379272
 30
0.0
 11
151.49704
 21
177.25
 31
0.0
  0
LINE
  5
18D
330
1F
100
AcDbEntity
  8
0
 62
     7
100
AcDbLine
 10
151.49704
 20
176.549988
 30
0.0
 11
151.49704
 21
177.25
 31
0.0
  0
LINE
  5
18E
330
1F
100
AcDbEntity
  8
0
 62
     7
100
AcDbLine
 10
151.49704
 20
176.420715
 30
0.0
 11
151.49704
 21
176.549988
 31
0.0
  0
LINE
  5
18F
330
1F
100
AcDbEntity
  8
0
 62
     7
100
AcDbLine
 10
151.49704
 20
176.420715
 30
0.0
 11
151.49704
 21
176.279297
 31
0.0
  0
LINE
  5
190
330
1F
100
AcDbEntity
  8
0
 62
     7
100
AcDbLine
 10
151.49704
 20
176.279297
 30
0.0
 11
151.49704
 21
176.149994
 31
0.0
  0
LINE
  5
191
330
1F
100
AcDbEntity
  8
0
 62
     7
100
AcDbLine
 10
151.49704
 20
175.450012
 30
0.0
 11
151.49704
 21
176.149994
 31
0.0
  0
LINE
  5
192
330
1F
100
AcDbEntity
  8
0
 62
     7
100
AcDbLine
 10
151.49704
 20
175.320709
 30
0.0
 11
151.49704
 21
175.450012
 31
0.0
  0
LINE
  5
193
330
1F
100
AcDbEntity
  8
0
 62
     7
100
AcDbLine
 10
151.49704
 20
175.320709
 30
0.0
 11
151.49704
 21
175.179291
 31
0.0
  0
LINE
  5
194
330
1F
100
AcDbEntity
  8
0
 62
     7
100
AcDbLine
 10
151.49704
 20
175.179291
 30
0.0
 11
151.49704
 21
175.049988
 31
0.0
  0
LINE
  5
195
330
1F
100
AcDbEntity
  8
0
 62
     7
100
AcDbLine
 10
151.49704
 20
174.350006
 30
0.0
 11
151.49704
 21
175.049988
 31
0.0
  0
LINE
  5
196
330
1F
100
AcDbEntity
  8
0
 62
     7
100
AcDbLine
 10
150.49704
 20
180.679291
 30
0.0
 11
150.49704
 21
180.549988
 31
0.0
  0
LINE
  5
197
330
1F
100
AcDbEntity
  8
0
 62
     7
100
AcDbLine
 10
150.49704
 20
180.679291
 30
0.0
 11
150.49704
 21
180.820709
 31
0.0
  0
LINE
  5
198
330
1F
100
AcDbEntity
  8
0
 62
     7
100
AcDbLine
 10
150.49704
 20
180.820709
 30
0.0
 11
150.49704
 21
180.950012
 31
0.0
  0
LINE
  5
199
330
1F
100
AcDbEntity
  8
0
 62
     7
100
AcDbLine
 10
150.49704
 20
181.350006
 30
0.0
 11
150.49704
 21
180.950012
 31
0.0
  0
LINE
  5
19A
330
1F
100
AcDbEntity
  8
0
 62
     7
100
AcDbLine
 10
150.49704
 20
174.079285
 30
0.0
 11
150.49704
 21
173.950012
 31
0.0
  0
LINE
  5
19B
330
1F
100
AcDbEntity
  8
0
 62
     7
100
AcDbLine
 10
150.49704
 20
174.079285
 30
0.0
 11
150.49704
 21
174.220703
 31
0.0
  0
LINE
  5
19C
330
1F
100
AcDbEntity
  8
0
 62
     7
100
AcDbLine
 10
150.49704
 20
174.220703
 30
0.0
 11
150.49704
 21
174.350006
 31
0.0
  0
LINE
  5
19D
330
1F
100
AcDbEntity
  8
0
 62
     7
100
AcDbLine
 10
150.49704
 20
175.049988
 30
0.0
 11
150.49704
 21
174.350006
 31
0.0
  0
LINE
  5
19E
330
1F
100
AcDbEntity
  8
0
 62
     7
100
AcDbLine
 10
150.49704
 20
175.179291
 30
0.0
 11
150.49704
 21
175.049988
 31
0.0
  0
LINE
  5
19F
330
1F
100
AcDbEntity
  8
0
 62
     7
100
AcDbLine
 10
150.49704
 20
175.179291
 30
0.0
 11
150.49704
 21
175.320709
 31
0.0
  0
LINE
  5
1A0
330
1F
100
AcDbEntity
  8
0
 62
     7
100
AcDbLine
 10
150.49704
 20
175.320709
 30
0.0
 11
150.49704
 21
175.450012
 31
0.0
  0
LINE
  5
1A1
330
1F
100
AcDbEntity
  8
0
 62
     7
100
AcDbLine
 10
150.49704
 20
176.149994
 30
0.0
 11
150.49704
 21
175.450012
 31
0.0
  0
LINE
  5
1A2
330
1F
100
AcDbEntity
  8
0
 62
     7
100
AcDbLine
 10
150.49704
 20
176.279297
 30
0.0
 11
150.49704
 21
176.149994
 31
0.0
  0
LINE
  5
1A3
330
1F
100
AcDbEntity
  8
0
 62
     7
100
AcDbLine
 10
150.49704
 20
176.279297
 30
0.0
 11
150.49704
 21
176.420715
 31
0.0
  0
LINE
  5
1A4
330
1F
100
AcDbEntity
  8
0
 62
     7
100
AcDbLine
 10
150.49704
 20
176.420715
 30
0.0
 11
150.49704
 21
176.549988
 31
0.0
  0
LINE
  5
1A5
330
1F
100
AcDbEntity
  8
0
 62
     7
100
AcDbLine
 10
150.49704
 20
177.25
 30
0.0
 11
150.49704
 21
176.549988
 31
0.0
  0
LINE
  5
1A6
330
1F
100
AcDbEntity
  8
0
 62
     7
100
AcDbLine
 10
150.49704
 20
177.379272
 30
0.0
 11
150.49704
 21
177.25
 31
0.0
  0
LINE
  5
1A7
330
1F
100
AcDbEntity
  8
0
 62
     7
100
AcDbLine
 10
150.49704
 20
177.379272
 30
0.0
 11
150.49704
 21
177.520721
 31
0.0
  0
LINE
  5
1A8
330
1F
100
AcDbEntity
  8
0
 62
     7
100
AcDbLine
 10
150.49704
 20
177.520721
 30
0.0
 11
150.49704
 21
177.649994
 31
0.0
  0
LINE
  5
1A9
330
1F
100
AcDbEntity
  8
0
 62
     7
100
AcDbLine
 10
150.49704
 20
178.350006
 30
0.0
 11
150.49704
 21
177.649994
 31
0.0
  0
LINE
  5
1AA
330
1F
100
AcDbEntity
  8
0
 62
     7
100
AcDbLine
 10
150.49704
 20
178.479279
 30
0.0
 11
150.49704
 21
178.350006
 31
0.0
  0
LINE
  5
1AB
330
1F
100
AcDbEntity
  8
0
 62
     7
100
AcDbLine
 10
150.49704
 20
178.479279
 30
0.0
 11
150.49704
 21
178.620697
 31
0.0
  0
LINE
  5
1AC
330
1F
100
AcDbEntity
  8
0
 62
     7
100
AcDbLine
 10
150.49704
 20
178.620697
 30
0.0
 11
150.49704
 21
178.75
 31
0.0
  0
LINE
  5
1AD
330
1F
100
AcDbEntity
  8
0
 62
     7
100
AcDbLine
 10
150.49704
 20
179.450012
 30
0.0
 11
150.49704
 21
178.75
 31
0.0
  0
LINE
  5
1AE
330
1F
100
AcDbEntity
  8
0
 62
     7
100
AcDbLine
 10
150.49704
 20
179.579285
 30
0.0
 11
150.49704
 21
179.450012
 31
0.0
  0
LINE
  5
1AF
330
1F
100
AcDbEntity
  8
0
 62
     7
100
AcDbLine
 10
150.49704
 20
179.579285
 30
0.0
 11
150.49704
 21
179.720703
 31
0.0
  0
LINE
  5
1B0
330
1F
100
AcDbEntity
  8
0
 62
     7
100
AcDbLine
 10
150.49704
 20
179.720703
 30
0.0
 11
150.49704
 21
179.850006
 31
0.0
  0
LINE
  5
1B1
330
1F
100
AcDbEntity
  8
0
 62
     7
100
AcDbLine
 10
150.49704
 20
180.549988
 30
0.0
 11
150.49704
 21
179.850006
 31
0.0
  0
LINE
  5
1B2
330
1F
100
AcDbEntity
  8
0
 62
     7
100
AcDbLine
 10
91.828377
 20
173.950012
 30
0.0
 11
91.911751
 21
174.079285
 31
0.0
  0
ARC
  5
1B3
330
1F
100
AcDbEntity
  8
0
 62
     7
100
AcDbCircle
 10
85.147064
 20
178.350006
 30
0.0
 40
8.0
100
AcDbArc
 50
354.980203
 51
360.0
  0
LINE
  5
1B4
330
1F
100
AcDbEntity
  8
0
 62
     7
100
AcDbLine
 10
93.103966
 20
177.520721
 30
0.0
 11
93.116379
 21
177.649994
 31
0.0
  0
LINE
  5
1B5
330
1F
100
AcDbEntity
  8
0
 62
     7
100
AcDbLine
 10
93.087952
 20
177.379272
 30
0.0
 11
93.103966
 21
177.520721
 31
0.0
  0
LINE
  5
1B6
330
1F
100
AcDbEntity
  8
0
 62
     7
100
AcDbLine
 10
93.071075
 20
177.25
 30
0.0
 11
93.087952
 21
177.379272
 31
0.0
  0
ARC
  5
1B7
330
1F
100
AcDbEntity
  8
0
 62
     7
100
AcDbCircle
 10
85.147064
 20
178.350006
 30
0.0
 40
8.0
100
AcDbArc
 50
346.997132
 51
352.096798
  0
LINE
  5
1B8
330
1F
100
AcDbEntity
  8
0
 62
     7
100
AcDbLine
 10
92.910942
 20
176.420715
 30
0.0
 11
92.941933
 21
176.549988
 31
0.0
  0
LINE
  5
1B9
330
1F
100
AcDbEntity
  8
0
 62
     7
100
AcDbLine
 10
92.874428
 20
176.279297
 30
0.0
 11
92.910942
 21
176.420715
 31
0.0
  0
LINE
  5
1BA
330
1F
100
AcDbEntity
  8
0
 62
     7
100
AcDbLine
 10
92.838615
 20
176.149994
 30
0.0
 11
92.874428
 21
176.279297
 31
0.0
  0
ARC
  5
1BB
330
1F
100
AcDbEntity
  8
0
 62
     7
100
AcDbCircle
 10
85.147064
 20
178.350006
 30
0.0
 40
8.0
100
AcDbArc
 50
338.746183
 51
344.037995
  0
LINE
  5
1BC
330
1F
100
AcDbEntity
  8
0
 62
     7
100
AcDbLine
 10
92.551346
 20
175.320709
 30
0.0
 11
92.602936
 21
175.450012
 31
0.0
  0
LINE
  5
1BD
330
1F
100
AcDbEntity
  8
0
 62
     7
100
AcDbLine
 10
92.491898
 20
175.179291
 30
0.0
 11
92.551346
 21
175.320709
 31
0.0
  0
LINE
  5
1BE
330
1F
100
AcDbEntity
  8
0
 62
     7
100
AcDbLine
 10
92.434723
 20
175.049988
 30
0.0
 11
92.491898
 21
175.179291
 31
0.0
  0
ARC
  5
1BF
330
1F
100
AcDbEntity
  8
0
 62
     7
100
AcDbCircle
 10
85.147064
 20
178.350006
 30
0.0
 40
8.0
100
AcDbArc
 50
329.999989
 51
335.63801
  0
LINE
  5
1C0
330
1F
100
AcDbEntity
  8
0
 62
     7
100
AcDbLine
 10
91.998993
 20
174.220703
 30
0.0
 11
92.075264
 21
174.350006
 31
0.0
  0
LINE
  5
1C1
330
1F
100
AcDbEntity
  8
0
 62
     7
100
AcDbLine
 10
91.911751
 20
174.079285
 30
0.0
 11
91.998993
 21
174.220703
 31
0.0
  0
LINE
  5
1C2
330
1F
100
AcDbEntity
  8
0
 62
     7
100
AcDbLine
 10
78.465744
 20
173.950012
 30
0.0
 11
78.382378
 21
174.079285
 31
0.0
  0
LINE
  5
1C3
330
1F
100
AcDbEntity
  8
0
 62
     7
100
AcDbLine
 10
78.382378
 20
174.079285
 30
0.0
 11
78.295135
 21
174.220703
 31
0.0
  0
LINE
  5
1C4
330
1F
100
AcDbEntity
  8
0
 62
     7
100
AcDbLine
 10
78.295135
 20
174.220703
 30
0.0
 11
78.218864
 21
174.350006
 31
0.0
  0
ARC
  5
1C5
330
1F
100
AcDbEntity
  8
0
 62
     7
100
AcDbCircle
 10
85.147064
 20
178.350006
 30
0.0
 40
8.0
100
AcDbArc
 50
204.361982
 51
210.000003
  0
LINE
  5
1C6
330
1F
100
AcDbEntity
  8
0
 62
     7
100
AcDbLine
 10
77.859406
 20
175.049988
 30
0.0
 11
77.802231
 21
175.179291
 31
0.0
  0
LINE
  5
1C7
330
1F
100
AcDbEntity
  8
0
 62
     7
100
AcDbLine
 10
77.802231
 20
175.179291
 30
0.0
 11
77.742783
 21
175.320709
 31
0.0
  0
LINE
  5
1C8
330
1F
100
AcDbEntity
  8
0
 62
     7
100
AcDbLine
 10
77.742783
 20
175.320709
 30
0.0
 11
77.691193
 21
175.450012
 31
0.0
  0
ARC
  5
1C9
330
1F
100
AcDbEntity
  8
0
 62
     7
100
AcDbCircle
 10
85.147064
 20
178.350006
 30
0.0
 40
8.0
100
AcDbArc
 50
195.96201
 51
201.253809
  0
LINE
  5
1CA
330
1F
100
AcDbEntity
  8
0
 62
     7
100
AcDbLine
 10
77.455513
 20
176.149994
 30
0.0
 11
77.419701
 21
176.279297
 31
0.0
  0
LINE
  5
1CB
330
1F
100
AcDbEntity
  8
0
 62
     7
100
AcDbLine
 10
77.419701
 20
176.279297
 30
0.0
 11
77.383186
 21
176.420715
 31
0.0
  0
LINE
  5
1CC
330
1F
100
AcDbEntity
  8
0
 62
     7
100
AcDbLine
 10
77.383186
 20
176.420715
 30
0.0
 11
77.352196
 21
176.549988
 31
0.0
  0
ARC
  5
1CD
330
1F
100
AcDbEntity
  8
0
 62
     7
100
AcDbCircle
 10
85.147064
 20
178.350006
 30
0.0
 40
8.0
100
AcDbArc
 50
187.903207
 51
193.002872
  0
LINE
  5
1CE
330
1F
100
AcDbEntity
  8
0
 62
     7
100
AcDbLine
 10
77.223053
 20
177.25
 30
0.0
 11
77.206177
 21
177.379272
 31
0.0
  0
LINE
  5
1CF
330
1F
100
AcDbEntity
  8
0
 62
     7
100
AcDbLine
 10
77.206177
 20
177.379272
 30
0.0
 11
77.190163
 21
177.520721
 31
0.0
  0
LINE
  5
1D0
330
1F
100
AcDbEntity
  8
0
 62
     7
100
AcDbLine
 10
77.190163
 20
177.520721
 30
0.0
 11
77.17775
 21
177.649994
 31
0.0
  0
ARC
  5
1D1
330
1F
100
AcDbEntity
  8
0
 62
     7
100
AcDbCircle
 10
85.147064
 20
178.350006
 30
0.0
 40
8.0
100
AcDbArc
 50
180.000009
 51
185.019802
  0
LINE
  5
1D2
330
1F
100
AcDbEntity
  8
0
 62
     7
100
AcDbLine
 10
76.147064
 20
174.079285
 30
0.0
 11
76.147064
 21
173.950012
 31
0.0
  0
LINE
  5
1D3
330
1F
100
AcDbEntity
  8
0
 62
     7
100
AcDbLine
 10
76.147064
 20
174.220703
 30
0.0
 11
76.147064
 21
174.079285
 31
0.0
  0
LINE
  5
1D4
330
1F
100
AcDbEntity
  8
0
 62
     7
100
AcDbLine
 10
76.147064
 20
174.350006
 30
0.0
 11
76.147064
 21
174.220703
 31
0.0
  0
LINE
  5
1D5
330
1F
100
AcDbEntity
  8
0
 62
     7
100
AcDbLine
 10
76.147064
 20
174.350006
 30
0.0
 11
76.147064
 21
175.049988
 31
0.0
  0
LINE
  5
1D6
330
1F
100
AcDbEntity
  8
0
 62
     7
100
AcDbLine
 10
76.147064
 20
175.179291
 30
0.0
 11
76.147064
 21
175.049988
 31
0.0
  0
LINE
  5
1D7
330
1F
100
AcDbEntity
  8
0
 62
     7
100
AcDbLine
 10
76.147064
 20
175.320709
 30
0.0
 11
76.147064
 21
175.179291
 31
0.0
  0
LINE
  5
1D8
330
1F
100
AcDbEntity
  8
0
 62
     7
100
AcDbLine
 10
76.147064
 20
175.450012
 30
0.0
 11
76.147064
 21
175.320709
 31
0.0
  0
LINE
  5
1D9
330
1F
100
AcDbEntity
  8
0
 62
     7
100
AcDbLine
 10
76.147064
 20
175.450012
 30
0.0
 11
76.147064
 21
176.149994
 31
0.0
  0
LINE
  5
1DA
330
1F
100
AcDbEntity
  8
0
 62
     7
100
AcDbLine
 10
76.147064
 20
176.279297
 30
0.0
 11
76.147064
 21
176.149994
 31
0.0
  0
LINE
  5
1DB
330
1F
100
AcDbEntity
  8
0
 62
     7
100
AcDbLine
 10
76.147064
 20
176.420715
 30
0.0
 11
76.147064
 21
176.279297
 31
0.0
  0
LINE
  5
1DC
330
1F
100
AcDbEntity
  8
0
 62
     7
100
AcDbLine
 10
76.147064
 20
176.549988
 30
0.0
 11
76.147064
 21
176.420715
 31
0.0
  0
LINE
  5
1DD
330
1F
100
AcDbEntity
  8
0
 62
     7
100
AcDbLine
 10
76.147064
 20
176.549988
 30
0.0
 11
76.147064
 21
177.25
 31
0.0
  0
LINE
  5
1DE
330
1F
100
AcDbEntity
  8
0
 62
     7
100
AcDbLine
 10
76.147064
 20
177.379272
 30
0.0
 11
76.147064
 21
177.25
 31
0.0
  0
LINE
  5
1DF
330
1F
100
AcDbEntity
  8
0
 62
     7
100
AcDbLine
 10
76.147064
 20
177.520721
 30
0.0
 11
76.147064
 21
177.379272
 31
0.0
  0
LINE
  5
1E0
330
1F
100
AcDbEntity
  8
0
 62
     7
100
AcDbLine
 10
76.147064
 20
177.649994
 30
0.0
 11
76.147064
 21
177.520721
 31
0.0
  0
LINE
  5
1E1
330
1F
100
AcDbEntity
  8
0
 62
     7
100
AcDbLine
 10
76.147064
 20
177.649994
 30
0.0
 11
76.147064
 21
178.350006
 31
0.0
  0
LINE
  5
1E2
330
1F
100
AcDbEntity
  8
0
 62
     7
100
AcDbLine
 10
76.147064
 20
178.479279
 30
0.0
 11
76.147064
 21
178.350006
 31
0.0
  0
LINE
  5
1E3
330
1F
100
AcDbEntity
  8
0
 62
     7
100
AcDbLine
 10
76.147064
 20
178.620697
 30
0.0
 11
76.147064
 21
178.479279
 31
0.0
  0
LINE
  5
1E4
330
1F
100
AcDbEntity
  8
0
 62
     7
100
AcDbLine
 10
76.147064
 20
178.75
 30
0.0
 11
76.147064
 21
178.620697
 31
0.0
  0
LINE
  5
1E5
330
1F
100
AcDbEntity
  8
0
 62
     7
100
AcDbLine
 10
76.147064
 20
178.75
 30
0.0
 11
76.147064
 21
179.450012
 31
0.0
  0
LINE
  5
1E6
330
1F
100
AcDbEntity
  8
0
 62
     7
100
AcDbLine
 10
76.147064
 20
179.579285
 30
0.0
 11
76.147064
 21
179.450012
 31
0.0
  0
LINE
  5
1E7
330
1F
100
AcDbEntity
  8
0
 62
     7
100
AcDbLine
 10
76.147064
 20
179.720703
 30
0.0
 11
76.147064
 21
179.579285
 31
0.0
  0
LINE
  5
1E8
330
1F
100
AcDbEntity
  8
0
 62
     7
100
AcDbLine
 10
76.147064
 20
179.850006
 30
0.0
 11
76.147064
 21
179.720703
 31
0.0
  0
LINE
  5
1E9
330
1F
100
AcDbEntity
  8
0
 62
     7
100
AcDbLine
 10
76.147064
 20
179.850006
 30
0.0
 11
76.147064
 21
180.549988
 31
0.0
  0
LINE
  5
1EA
330
1F
100
AcDbEntity
  8
0
 62
     7
100
AcDbLine
 10
76.147064
 20
180.679291
 30
0.0
 11
76.147064
 21
180.549988
 31
0.0
  0
LINE
  5
1EB
330
1F
100
AcDbEntity
  8
0
 62
     7
100
AcDbLine
 10
76.147064
 20
180.820709
 30
0.0
 11
76.147064
 21
180.679291
 31
0.0
  0
LINE
  5
1EC
330
1F
100
AcDbEntity
  8
0
 62
     7
100
AcDbLine
 10
76.147064
 20
180.950012
 30
0.0
 11
76.147064
 21
180.820709
 31
0.0
  0
LINE
  5
1ED
330
1F
100
AcDbEntity
  8
0
 62
     7
100
AcDbLine
 10
76.147064
 20
180.950012
 30
0.0
 11
76.147064
 21
181.649994
 31
0.0
  0
LINE
  5
1EE
330
1F
100
AcDbEntity
  8
0
 62
     7
100
AcDbLine
 10
76.147064
 20
181.779297
 30
0.0
 11
76.147064
 21
181.649994
 31
0.0
  0
LINE
  5
1EF
330
1F
100
AcDbEntity
  8
0
 62
     7
100
AcDbLine
 10
76.147064
 20
181.920715
 30
0.0
 11
76.147064
 21
181.779297
 31
0.0
  0
LINE
  5
1F0
330
1F
100
AcDbEntity
  8
0
 62
     7
100
AcDbLine
 10
76.147064
 20
182.049988
 30
0.0
 11
76.147064
 21
181.920715
 31
0.0
  0
LINE
  5
1F1
330
1F
100
AcDbEntity
  8
0
 62
     7
100
AcDbLine
 10
76.147064
 20
182.049988
 30
0.0
 11
76.147064
 21
182.75
 31
0.0
  0
LINE
  5
1F2
330
1F
100
AcDbEntity
  8
0
 62
     7
100
AcDbLine
 10
76.147064
 20
182.879272
 30
0.0
 11
76.147064
 21
182.75
 31
0.0
  0
LINE
  5
1F3
330
1F
100
AcDbEntity
  8
0
 62
     7
100
AcDbLine
 10
76.147064
 20
183.020721
 30
0.0
 11
76.147064
 21
182.879272
 31
0.0
  0
LINE
  5
1F4
330
1F
100
AcDbEntity
  8
0
 62
     7
100
AcDbLine
 10
76.147064
 20
183.149994
 30
0.0
 11
76.147064
 21
183.020721
 31
0.0
  0
LINE
  5
1F5
330
1F
100
AcDbEntity
  8
0
 62
     7
100
AcDbLine
 10
76.147064
 20
183.149994
 30
0.0
 11
76.147064
 21
187.974274
 31
0.0
  0
LINE
  5
1F6
330
1F
100
AcDbEntity
  8
0
 62
     7
100
AcDbLine
 10
76.147064
 20
188.462128
 30
0.0
 11
76.147064
 21
187.974274
 31
0.0
  0
LINE
  5
1F7
330
1F
100
AcDbEntity
  8
0
 62
     7
100
AcDbLine
 10
76.147064
 20
188.549988
 30
0.0
 11
76.147064
 21
188.462128
 31
0.0
  0
ARC
  5
1F8
330
1F
100
AcDbEntity
  8
0
 62
     7
100
AcDbCircle
 10
253.647034
 20
165.549988
 30
0.0
 40
0.5
100
AcDbArc
 50
0.0
 51
90.000003
  0
LINE
  5
1F9
330
1F
100
AcDbEntity
  8
0
 62
     7
100
AcDbLine
 10
253.647034
 20
166.049988
 30
0.0
 11
246.647064
 21
166.049988
 31
0.0
  0
ARC
  5
1FA
330
1F
100
AcDbEntity
  8
0
 62
     7
100
AcDbCircle
 10
246.647064
 20
165.549988
 30
0.0
 40
0.5
100
AcDbArc
 50
90.000003
 51
180.000009
  0
LINE
  5
1FB
330
1F
100
AcDbEntity
  8
0
 62
     7
100
AcDbLine
 10
246.147064
 20
165.549988
 30
0.0
 11
246.147064
 21
161.549988
 31
0.0
  0
ARC
  5
1FC
330
1F
100
AcDbEntity
  8
0
 62
     7
100
AcDbCircle
 10
246.647064
 20
161.549988
 30
0.0
 40
0.5
100
AcDbArc
 50
180.000009
 51
269.999997
  0
LINE
  5
1FD
330
1F
100
AcDbEntity
  8
0
 62
     7
100
AcDbLine
 10
246.647064
 20
161.049988
 30
0.0
 11
253.647034
 21
161.049988
 31
0.0
  0
ARC
  5
1FE
330
1F
100
AcDbEntity
  8
0
 62
     7
100
AcDbCircle
 10
253.647034
 20
161.549988
 30
0.0
 40
0.5
100
AcDbArc
 50
269.999997
 51
360.0
  0
LINE
  5
1FF
330
1F
100
AcDbEntity
  8
0
 62
     7
100
AcDbLine
 10
254.147034
 20
161.549988
 30
0.0
 11
254.147034
 21
165.549988
 31
0.0
  0
ARC
  5
200
330
1F
100
AcDbEntity
  8
0
 62
     7
100
AcDbCircle
 10
133.647064
 20
165.549988
 30
0.0
 40
0.5
100
AcDbArc
 50
0.0
 51
90.000003
  0
LINE
  5
201
330
1F
100
AcDbEntity
  8
0
 62
     7
100
AcDbLine
 10
133.647064
 20
166.049988
 30
0.0
 11
126.647064
 21
166.049988
 31
0.0
  0
ARC
  5
202
330
1F
100
AcDbEntity
  8
0
 62
     7
100
AcDbCircle
 10
126.647064
 20
165.549988
 30
0.0
 40
0.5
100
AcDbArc
 50
90.000003
 51
180.000009
  0
LINE
  5
203
330
1F
100
AcDbEntity
  8
0
 62
     7
100
AcDbLine
 10
126.147064
 20
165.549988
 30
0.0
 11
126.147064
 21
161.549988
 31
0.0
  0
ARC
  5
204
330
1F
100
AcDbEntity
  8
0
 62
     7
100
AcDbCircle
 10
126.647064
 20
161.549988
 30
0.0
 40
0.5
100
AcDbArc
 50
180.000009
 51
269.999997
  0
LINE
  5
205
330
1F
100
AcDbEntity
  8
0
 62
     7
100
AcDbLine
 10
126.647064
 20
161.049988
 30
0.0
 11
133.647064
 21
161.049988
 31
0.0
  0
ARC
  5
206
330
1F
100
AcDbEntity
  8
0
 62
     7
100
AcDbCircle
 10
133.647064
 20
161.549988
 30
0.0
 40
0.5
100
AcDbArc
 50
269.999997
 51
360.0
  0
LINE
  5
207
330
1F
100
AcDbEntity
  8
0
 62
     7
100
AcDbLine
 10
134.147064
 20
161.549988
 30
0.0
 11
134.147064
 21
165.549988
 31
0.0
  0
LINE
  5
208
330
1F
100
AcDbEntity
  8
0
 62
     7
100
AcDbLine
 10
329.647034
 20
166.350006
 30
0.0
 11
329.147034
 21
166.350006
 31
0.0
  0
LINE
  5
209
330
1F
100
AcDbEntity
  8
0
 62
     7
100
AcDbLine
 10
329.147034
 20
168.649994
 30
0.0
 11
329.647034
 21
168.649994
 31
0.0
  0
LINE
  5
20A
330
1F
100
AcDbEntity
  8
0
 62
     7
100
AcDbLine
 10
75.647064
 20
168.649994
 30
0.0
 11
76.147064
 21
168.649994
 31
0.0
  0
LINE
  5
20B
330
1F
100
AcDbEntity
  8
0
 62
     7
100
AcDbLine
 10
256.647034
 20
188.462128
 30
0.0
 11
256.647034
 21
188.549988
 31
0.0
  0
LINE
  5
20C
330
1F
100
AcDbEntity
  8
0
 62
     7
100
AcDbLine
 10
256.647034
 20
188.462128
 30
0.0
 11
256.647034
 21
187.974274
 31
0.0
  0
LINE
  5
20D
330
1F
100
AcDbEntity
  8
0
 62
     7
100
AcDbLine
 10
329.147034
 20
187.974274
 30
0.0
 11
256.647034
 21
187.974274
 31
0.0
  0
ARC
  5
20E
330
1F
100
AcDbEntity
  8
0
 62
     7
100
AcDbCircle
 10
320.147034
 20
178.350006
 30
0.0
 40
8.0
100
AcDbArc
 50
36.869897
 51
143.130097
  0
LINE
  5
20F
330
1F
100
AcDbEntity
  8
0
 62
     7
100
AcDbLine
 10
329.147034
 20
183.149994
 30
0.0
 11
326.547028
 21
183.149994
 31
0.0
  0
LINE
  5
210
330
1F
100
AcDbEntity
  8
0
 62
     7
100
AcDbLine
 10
256.647034
 20
183.149994
 30
0.0
 11
256.647034
 21
187.974274
 31
0.0
  0
LINE
  5
211
330
1F
100
AcDbEntity
  8
0
 62
     7
100
AcDbLine
 10
313.74704
 20
183.149994
 30
0.0
 11
256.647034
 21
183.149994
 31
0.0
  0
LINE
  5
212
330
1F
100
AcDbEntity
  8
0
 62
     7
100
AcDbLine
 10
326.547028
 20
183.149994
 30
0.0
 11
326.641998
 21
183.020721
 31
0.0
  0
LINE
  5
213
330
1F
100
AcDbEntity
  8
0
 62
     7
100
AcDbLine
 10
326.641998
 20
183.020721
 30
0.0
 11
326.741394
 21
182.879272
 31
0.0
  0
LINE
  5
214
330
1F
100
AcDbEntity
  8
0
 62
     7
100
AcDbLine
 10
326.741394
 20
182.879272
 30
0.0
 11
326.828369
 21
182.75
 31
0.0
  0
LINE
  5
215
330
1F
100
AcDbEntity
  8
0
 62
     7
100
AcDbLine
 10
329.147034
 20
182.75
 30
0.0
 11
326.828369
 21
182.75
 31
0.0
  0
ARC
  5
216
330
1F
100
AcDbEntity
  8
0
 62
     7
100
AcDbCircle
 10
320.147034
 20
178.350006
 30
0.0
 40
8.0
100
AcDbArc
 50
27.548547
 51
33.367014
  0
LINE
  5
217
330
1F
100
AcDbEntity
  8
0
 62
     7
100
AcDbLine
 10
329.147034
 20
182.049988
 30
0.0
 11
327.23999
 21
182.049988
 31
0.0
  0
LINE
  5
218
330
1F
100
AcDbEntity
  8
0
 62
     7
100
AcDbLine
 10
327.23999
 20
182.049988
 30
0.0
 11
327.305939
 21
181.920715
 31
0.0
  0
LINE
  5
219
330
1F
100
AcDbEntity
  8
0
 62
     7
100
AcDbLine
 10
327.305939
 20
181.920715
 30
0.0
 11
327.374756
 21
181.779297
 31
0.0
  0
LINE
  5
21A
330
1F
100
AcDbEntity
  8
0
 62
     7
100
AcDbLine
 10
327.374756
 20
181.779297
 30
0.0
 11
327.434692
 21
181.649994
 31
0.0
  0
LINE
  5
21B
330
1F
100
AcDbEntity
  8
0
 62
     7
100
AcDbLine
 10
329.147034
 20
181.649994
 30
0.0
 11
327.434692
 21
181.649994
 31
0.0
  0
ARC
  5
21C
330
1F
100
AcDbEntity
  8
0
 62
     7
100
AcDbCircle
 10
320.147034
 20
178.350006
 30
0.0
 40
8.0
100
AcDbArc
 50
18.965574
 51
24.361978
  0
LINE
  5
21D
330
1F
100
AcDbEntity
  8
0
 62
     7
100
AcDbLine
 10
329.147034
 20
180.950012
 30
0.0
 11
327.712769
 21
180.950012
 31
0.0
  0
LINE
  5
21E
330
1F
100
AcDbEntity
  8
0
 62
     7
100
AcDbLine
 10
327.712769
 20
180.950012
 30
0.0
 11
327.755951
 21
180.820709
 31
0.0
  0
LINE
  5
21F
330
1F
100
AcDbEntity
  8
0
 62
     7
100
AcDbLine
 10
327.755951
 20
180.820709
 30
0.0
 11
327.800446
 21
180.679291
 31
0.0
  0
LINE
  5
220
330
1F
100
AcDbEntity
  8
0
 62
     7
100
AcDbLine
 10
327.800446
 20
180.679291
 30
0.0
 11
327.838593
 21
180.549988
 31
0.0
  0
LINE
  5
221
330
1F
100
AcDbEntity
  8
0
 62
     7
100
AcDbLine
 10
329.147034
 20
180.549988
 30
0.0
 11
327.838593
 21
180.549988
 31
0.0
  0
ARC
  5
222
330
1F
100
AcDbEntity
  8
0
 62
     7
100
AcDbCircle
 10
320.147034
 20
178.350006
 30
0.0
 40
8.0
100
AcDbArc
 50
10.806925
 51
15.962019
  0
LINE
  5
223
330
1F
100
AcDbEntity
  8
0
 62
     7
100
AcDbLine
 10
329.147034
 20
179.850006
 30
0.0
 11
328.005157
 21
179.850006
 31
0.0
  0
LINE
  5
224
330
1F
100
AcDbEntity
  8
0
 62
     7
100
AcDbLine
 10
328.005157
 20
179.850006
 30
0.0
 11
328.028748
 21
179.720703
 31
0.0
  0
LINE
  5
225
330
1F
100
AcDbEntity
  8
0
 62
     7
100
AcDbLine
 10
328.028748
 20
179.720703
 30
0.0
 11
328.052032
 21
179.579285
 31
0.0
  0
LINE
  5
226
330
1F
100
AcDbEntity
  8
0
 62
     7
100
AcDbLine
 10
328.052032
 20
179.579285
 30
0.0
 11
328.071045
 21
179.450012
 31
0.0
  0
LINE
  5
227
330
1F
100
AcDbEntity
  8
0
 62
     7
100
AcDbLine
 10
329.147034
 20
179.450012
 30
0.0
 11
328.071045
 21
179.450012
 31
0.0
  0
ARC
  5
228
330
1F
100
AcDbEntity
  8
0
 62
     7
100
AcDbCircle
 10
320.147034
 20
178.350006
 30
0.0
 40
8.0
100
AcDbArc
 50
2.865984
 51
7.903208
  0
LINE
  5
229
330
1F
100
AcDbEntity
  8
0
 62
     7
100
AcDbLine
 10
329.147034
 20
178.75
 30
0.0
 11
328.137024
 21
178.75
 31
0.0
  0
LINE
  5
22A
330
1F
100
AcDbEntity
  8
0
 62
     7
100
AcDbLine
 10
328.137024
 20
178.75
 30
0.0
 11
328.142456
 21
178.620697
 31
0.0
  0
LINE
  5
22B
330
1F
100
AcDbEntity
  8
0
 62
     7
100
AcDbLine
 10
328.142456
 20
178.620697
 30
0.0
 11
328.145996
 21
178.479279
 31
0.0
  0
LINE
  5
22C
330
1F
100
AcDbEntity
  8
0
 62
     7
100
AcDbLine
 10
328.145996
 20
178.479279
 30
0.0
 11
328.147034
 21
178.350006
 31
0.0
  0
LINE
  5
22D
330
1F
100
AcDbEntity
  8
0
 62
     7
100
AcDbLine
 10
329.147034
 20
178.350006
 30
0.0
 11
328.147034
 21
178.350006
 31
0.0
  0
LINE
  5
22E
330
1F
100
AcDbEntity
  8
0
 62
     7
100
AcDbLine
 10
329.147034
 20
177.649994
 30
0.0
 11
328.116364
 21
177.649994
 31
0.0
  0
LINE
  5
22F
330
1F
100
AcDbEntity
  8
0
 62
     7
100
AcDbLine
 10
329.147034
 20
177.25
 30
0.0
 11
328.071045
 21
177.25
 31
0.0
  0
LINE
  5
230
330
1F
100
AcDbEntity
  8
0
 62
     7
100
AcDbLine
 10
329.147034
 20
176.549988
 30
0.0
 11
327.941925
 21
176.549988
 31
0.0
  0
LINE
  5
231
330
1F
100
AcDbEntity
  8
0
 62
     7
100
AcDbLine
 10
329.147034
 20
176.149994
 30
0.0
 11
327.838593
 21
176.149994
 31
0.0
  0
LINE
  5
232
330
1F
100
AcDbEntity
  8
0
 62
     7
100
AcDbLine
 10
329.147034
 20
175.450012
 30
0.0
 11
327.602905
 21
175.450012
 31
0.0
  0
LINE
  5
233
330
1F
100
AcDbEntity
  8
0
 62
     7
100
AcDbLine
 10
329.147034
 20
175.049988
 30
0.0
 11
327.434692
 21
175.049988
 31
0.0
  0
LINE
  5
234
330
1F
100
AcDbEntity
  8
0
 62
     7
100
AcDbLine
 10
329.147034
 20
174.350006
 30
0.0
 11
327.075256
 21
174.350006
 31
0.0
  0
LINE
  5
235
330
1F
100
AcDbEntity
  8
0
 62
     7
100
AcDbLine
 10
313.218842
 20
174.350006
 30
0.0
 11
254.797028
 21
174.350006
 31
0.0
  0
LINE
  5
236
330
1F
100
AcDbEntity
  8
0
 62
     7
100
AcDbLine
 10
312.859375
 20
175.049988
 30
0.0
 11
254.797028
 21
175.049988
 31
0.0
  0
LINE
  5
237
330
1F
100
AcDbEntity
  8
0
 62
     7
100
AcDbLine
 10
312.691162
 20
175.450012
 30
0.0
 11
254.797028
 21
175.450012
 31
0.0
  0
LINE
  5
238
330
1F
100
AcDbEntity
  8
0
 62
     7
100
AcDbLine
 10
312.455475
 20
176.149994
 30
0.0
 11
254.797028
 21
176.149994
 31
0.0
  0
LINE
  5
239
330
1F
100
AcDbEntity
  8
0
 62
     7
100
AcDbLine
 10
312.352173
 20
176.549988
 30
0.0
 11
254.797028
 21
176.549988
 31
0.0
  0
LINE
  5
23A
330
1F
100
AcDbEntity
  8
0
 62
     7
100
AcDbLine
 10
312.223022
 20
177.25
 30
0.0
 11
254.797028
 21
177.25
 31
0.0
  0
LINE
  5
23B
330
1F
100
AcDbEntity
  8
0
 62
     7
100
AcDbLine
 10
312.177734
 20
177.649994
 30
0.0
 11
254.797028
 21
177.649994
 31
0.0
  0
LINE
  5
23C
330
1F
100
AcDbEntity
  8
0
 62
     7
100
AcDbLine
 10
312.147034
 20
178.350006
 30
0.0
 11
254.797028
 21
178.350006
 31
0.0
  0
LINE
  5
23D
330
1F
100
AcDbEntity
  8
0
 62
     7
100
AcDbLine
 10
312.148071
 20
178.479279
 30
0.0
 11
312.147034
 21
178.350006
 31
0.0
  0
LINE
  5
23E
330
1F
100
AcDbEntity
  8
0
 62
     7
100
AcDbLine
 10
312.151611
 20
178.620697
 30
0.0
 11
312.148071
 21
178.479279
 31
0.0
  0
LINE
  5
23F
330
1F
100
AcDbEntity
  8
0
 62
     7
100
AcDbLine
 10
312.157043
 20
178.75
 30
0.0
 11
312.151611
 21
178.620697
 31
0.0
  0
ARC
  5
240
330
1F
100
AcDbEntity
  8
0
 62
     7
100
AcDbCircle
 10
320.147034
 20
178.350006
 30
0.0
 40
8.0
100
AcDbArc
 50
172.096793
 51
177.134017
  0
LINE
  5
241
330
1F
100
AcDbEntity
  8
0
 62
     7
100
AcDbLine
 10
312.242065
 20
179.579285
 30
0.0
 11
312.223022
 21
179.450012
 31
0.0
  0
LINE
  5
242
330
1F
100
AcDbEntity
  8
0
 62
     7
100
AcDbLine
 10
312.26535
 20
179.720703
 30
0.0
 11
312.242065
 21
179.579285
 31
0.0
  0
LINE
  5
243
330
1F
100
AcDbEntity
  8
0
 62
     7
100
AcDbLine
 10
312.28891
 20
179.850006
 30
0.0
 11
312.26535
 21
179.720703
 31
0.0
  0
ARC
  5
244
330
1F
100
AcDbEntity
  8
0
 62
     7
100
AcDbCircle
 10
320.147034
 20
178.350006
 30
0.0
 40
8.0
100
AcDbArc
 50
164.03799
 51
169.193075
  0
LINE
  5
245
330
1F
100
AcDbEntity
  8
0
 62
     7
100
AcDbLine
 10
312.493652
 20
180.679291
 30
0.0
 11
312.455475
 21
180.549988
 31
0.0
  0
LINE
  5
246
330
1F
100
AcDbEntity
  8
0
 62
     7
100
AcDbLine
 10
312.538116
 20
180.820709
 30
0.0
 11
312.493652
 21
180.679291
 31
0.0
  0
LINE
  5
247
330
1F
100
AcDbEntity
  8
0
 62
     7
100
AcDbLine
 10
312.581329
 20
180.950012
 30
0.0
 11
312.538116
 21
180.820709
 31
0.0
  0
ARC
  5
248
330
1F
100
AcDbEntity
  8
0
 62
     7
100
AcDbCircle
 10
320.147034
 20
178.350006
 30
0.0
 40
8.0
100
AcDbArc
 50
155.638018
 51
161.034427
  0
LINE
  5
249
330
1F
100
AcDbEntity
  8
0
 62
     7
100
AcDbLine
 10
312.919312
 20
181.779297
 30
0.0
 11
312.859375
 21
181.649994
 31
0.0
  0
LINE
  5
24A
330
1F
100
AcDbEntity
  8
0
 62
     7
100
AcDbLine
 10
312.988129
 20
181.920715
 30
0.0
 11
312.919312
 21
181.779297
 31
0.0
  0
LINE
  5
24B
330
1F
100
AcDbEntity
  8
0
 62
     7
100
AcDbLine
 10
313.054077
 20
182.049988
 30
0.0
 11
312.988129
 21
181.920715
 31
0.0
  0
ARC
  5
24C
330
1F
100
AcDbEntity
  8
0
 62
     7
100
AcDbCircle
 10
320.147034
 20
178.350006
 30
0.0
 40
8.0
100
AcDbArc
 50
146.632987
 51
152.451448
  0
LINE
  5
24D
330
1F
100
AcDbEntity
  8
0
 62
     7
100
AcDbLine
 10
313.552673
 20
182.879272
 30
0.0
 11
313.465729
 21
182.75
 31
0.0
  0
LINE
  5
24E
330
1F
100
AcDbEntity
  8
0
 62
     7
100
AcDbLine
 10
313.6521
 20
183.020721
 30
0.0
 11
313.552673
 21
182.879272
 31
0.0
  0
LINE
  5
24F
330
1F
100
AcDbEntity
  8
0
 62
     7
100
AcDbLine
 10
313.74704
 20
183.149994
 30
0.0
 11
313.6521
 21
183.020721
 31
0.0
  0
CIRCLE
  5
250
330
1F
100
AcDbEntity
  8
0
 62
     7
100
AcDbCircle
 10
320.147034
 20
178.350006
 30
0.0
 40
7.5
  0
LINE
  5
251
330
1F
100
AcDbEntity
  8
0
 62
     7
100
AcDbLine
 10
255.147034
 20
181.350006
 30
0.0
 11
254.797028
 21
181.350006
 31
0.0
  0
LINE
  5
252
330
1F
100
AcDbEntity
  8
0
 62
     7
100
AcDbLine
 10
312.859375
 20
181.649994
 30
0.0
 11
256.047028
 21
181.649994
 31
0.0
  0
ARC
  5
253
330
1F
100
AcDbEntity
  8
0
 62
     7
100
AcDbCircle
 10
255.147034
 20
182.850006
 30
0.0
 40
1.5
100
AcDbArc
 50
269.999997
 51
314.454478
  0
LINE
  5
254
330
1F
100
AcDbEntity
  8
0
 62
     7
100
AcDbLine
 10
312.581329
 20
180.950012
 30
0.0
 11
254.797028
 21
180.950012
 31
0.0
  0
LINE
  5
255
330
1F
100
AcDbEntity
  8
0
 62
     7
100
AcDbLine
 10
312.455475
 20
180.549988
 30
0.0
 11
254.797028
 21
180.549988
 31
0.0
  0
LINE
  5
256
330
1F
100
AcDbEntity
  8
0
 62
     7
100
AcDbLine
 10
312.28891
 20
179.850006
 30
0.0
 11
254.797028
 21
179.850006
 31
0.0
  0
LINE
  5
257
330
1F
100
AcDbEntity
  8
0
 62
     7
100
AcDbLine
 10
312.223022
 20
179.450012
 30
0.0
 11
254.797028
 21
179.450012
 31
0.0
  0
LINE
  5
258
330
1F
100
AcDbEntity
  8
0
 62
     7
100
AcDbLine
 10
312.157043
 20
178.75
 30
0.0
 11
254.797028
 21
178.75
 31
0.0
  0
LINE
  5
259
330
1F
100
AcDbEntity
  8
0
 62
     7
100
AcDbLine
 10
253.797028
 20
181.649994
 30
0.0
 11
251.49704
 21
181.649994
 31
0.0
  0
LINE
  5
25A
330
1F
100
AcDbEntity
  8
0
 62
     7
100
AcDbLine
 10
253.797028
 20
180.950012
 30
0.0
 11
251.49704
 21
180.950012
 31
0.0
  0
ARC
  5
25B
330
1F
100
AcDbEntity
  8
0
 62
     7
100
AcDbCircle
 10
250.99704
 20
181.850006
 30
0.0
 40
0.5
100
AcDbArc
 50
0.0
 51
8.130103
  0
ARC
  5
25C
330
1F
100
AcDbEntity
  8
0
 62
     7
100
AcDbCircle
 10
254.297028
 20
181.850006
 30
0.0
 40
0.5
100
AcDbArc
 50
171.869894
 51
180.000009
  0
ARC
  5
25D
330
1F
100
AcDbEntity
  8
0
 62
     7
100
AcDbCircle
 10
254.297028
 20
181.850006
 30
0.0
 40
0.5
100
AcDbArc
 50
90.000003
 51
171.869894
  0
LINE
  5
25E
330
1F
100
AcDbEntity
  8
0
 62
     7
100
AcDbLine
 10
253.797028
 20
174.350006
 30
0.0
 11
251.49704
 21
174.350006
 31
0.0
  0
LINE
  5
25F
330
1F
100
AcDbEntity
  8
0
 62
     7
100
AcDbLine
 10
253.797028
 20
175.049988
 30
0.0
 11
251.49704
 21
175.049988
 31
0.0
  0
LINE
  5
260
330
1F
100
AcDbEntity
  8
0
 62
     7
100
AcDbLine
 10
253.797028
 20
175.450012
 30
0.0
 11
251.49704
 21
175.450012
 31
0.0
  0
LINE
  5
261
330
1F
100
AcDbEntity
  8
0
 62
     7
100
AcDbLine
 10
253.797028
 20
176.149994
 30
0.0
 11
251.49704
 21
176.149994
 31
0.0
  0
LINE
  5
262
330
1F
100
AcDbEntity
  8
0
 62
     7
100
AcDbLine
 10
253.797028
 20
176.549988
 30
0.0
 11
251.49704
 21
176.549988
 31
0.0
  0
LINE
  5
263
330
1F
100
AcDbEntity
  8
0
 62
     7
100
AcDbLine
 10
253.797028
 20
177.25
 30
0.0
 11
251.49704
 21
177.25
 31
0.0
  0
LINE
  5
264
330
1F
100
AcDbEntity
  8
0
 62
     7
100
AcDbLine
 10
253.797028
 20
177.649994
 30
0.0
 11
251.49704
 21
177.649994
 31
0.0
  0
LINE
  5
265
330
1F
100
AcDbEntity
  8
0
 62
     7
100
AcDbLine
 10
253.797028
 20
178.350006
 30
0.0
 11
251.49704
 21
178.350006
 31
0.0
  0
LINE
  5
266
330
1F
100
AcDbEntity
  8
0
 62
     7
100
AcDbLine
 10
253.797028
 20
178.75
 30
0.0
 11
251.49704
 21
178.75
 31
0.0
  0
LINE
  5
267
330
1F
100
AcDbEntity
  8
0
 62
     7
100
AcDbLine
 10
253.797028
 20
179.450012
 30
0.0
 11
251.49704
 21
179.450012
 31
0.0
  0
LINE
  5
268
330
1F
100
AcDbEntity
  8
0
 62
     7
100
AcDbLine
 10
253.797028
 20
179.850006
 30
0.0
 11
251.49704
 21
179.850006
 31
0.0
  0
LINE
  5
269
330
1F
100
AcDbEntity
  8
0
 62
     7
100
AcDbLine
 10
253.797028
 20
180.549988
 30
0.0
 11
251.49704
 21
180.549988
 31
0.0
  0
ARC
  5
26A
330
1F
100
AcDbEntity
  8
0
 62
     7
100
AcDbCircle
 10
250.99704
 20
181.850006
 30
0.0
 40
0.5
100
AcDbArc
 50
8.130103
 51
90.000003
  0
LINE
  5
26B
330
1F
100
AcDbEntity
  8
0
 62
     7
100
AcDbLine
 10
250.49704
 20
180.549988
 30
0.0
 11
154.797058
 21
180.549988
 31
0.0
  0
LINE
  5
26C
330
1F
100
AcDbEntity
  8
0
 62
     7
100
AcDbLine
 10
250.49704
 20
180.950012
 30
0.0
 11
154.797058
 21
180.950012
 31
0.0
  0
LINE
  5
26D
330
1F
100
AcDbEntity
  8
0
 62
     7
100
AcDbLine
 10
250.49704
 20
181.350006
 30
0.0
 11
250.147034
 21
181.350006
 31
0.0
  0
ARC
  5
26E
330
1F
100
AcDbEntity
  8
0
 62
     7
100
AcDbCircle
 10
250.147034
 20
182.850006
 30
0.0
 40
1.5
100
AcDbArc
 50
212.230947
 51
269.999997
  0
LINE
  5
26F
330
1F
100
AcDbEntity
  8
0
 62
     7
100
AcDbLine
 10
249.24704
 20
181.649994
 30
0.0
 11
156.047058
 21
181.649994
 31
0.0
  0
ARC
  5
270
330
1F
100
AcDbEntity
  8
0
 62
     7
100
AcDbCircle
 10
155.147064
 20
182.850006
 30
0.0
 40
1.5
100
AcDbArc
 50
269.999997
 51
314.454478
  0
LINE
  5
271
330
1F
100
AcDbEntity
  8
0
 62
     7
100
AcDbLine
 10
155.147064
 20
181.350006
 30
0.0
 11
154.797058
 21
181.350006
 31
0.0
  0
LINE
  5
272
330
1F
100
AcDbEntity
  8
0
 62
     7
100
AcDbLine
 10
250.49704
 20
174.350006
 30
0.0
 11
154.797058
 21
174.350006
 31
0.0
  0
LINE
  5
273
330
1F
100
AcDbEntity
  8
0
 62
     7
100
AcDbLine
 10
250.49704
 20
175.049988
 30
0.0
 11
154.797058
 21
175.049988
 31
0.0
  0
LINE
  5
274
330
1F
100
AcDbEntity
  8
0
 62
     7
100
AcDbLine
 10
250.49704
 20
175.450012
 30
0.0
 11
154.797058
 21
175.450012
 31
0.0
  0
LINE
  5
275
330
1F
100
AcDbEntity
  8
0
 62
     7
100
AcDbLine
 10
250.49704
 20
176.149994
 30
0.0
 11
154.797058
 21
176.149994
 31
0.0
  0
LINE
  5
276
330
1F
100
AcDbEntity
  8
0
 62
     7
100
AcDbLine
 10
250.49704
 20
176.549988
 30
0.0
 11
154.797058
 21
176.549988
 31
0.0
  0
LINE
  5
277
330
1F
100
AcDbEntity
  8
0
 62
     7
100
AcDbLine
 10
250.49704
 20
177.25
 30
0.0
 11
154.797058
 21
177.25
 31
0.0
  0
LINE
  5
278
330
1F
100
AcDbEntity
  8
0
 62
     7
100
AcDbLine
 10
250.49704
 20
177.649994
 30
0.0
 11
154.797058
 21
177.649994
 31
0.0
  0
LINE
  5
279
330
1F
100
AcDbEntity
  8
0
 62
     7
100
AcDbLine
 10
250.49704
 20
178.350006
 30
0.0
 11
154.797058
 21
178.350006
 31
0.0
  0
LINE
  5
27A
330
1F
100
AcDbEntity
  8
0
 62
     7
100
AcDbLine
 10
250.49704
 20
178.75
 30
0.0
 11
154.797058
 21
178.75
 31
0.0
  0
LINE
  5
27B
330
1F
100
AcDbEntity
  8
0
 62
     7
100
AcDbLine
 10
250.49704
 20
179.450012
 30
0.0
 11
154.797058
 21
179.450012
 31
0.0
  0
LINE
  5
27C
330
1F
100
AcDbEntity
  8
0
 62
     7
100
AcDbLine
 10
250.49704
 20
179.850006
 30
0.0
 11
154.797058
 21
179.850006
 31
0.0
  0
LINE
  5
27D
330
1F
100
AcDbEntity
  8
0
 62
     7
100
AcDbLine
 10
153.797058
 20
180.950012
 30
0.0
 11
151.49704
 21
180.950012
 31
0.0
  0
LINE
  5
27E
330
1F
100
AcDbEntity
  8
0
 62
     7
100
AcDbLine
 10
153.797058
 20
181.649994
 30
0.0
 11
151.49704
 21
181.649994
 31
0.0
  0
ARC
  5
27F
330
1F
100
AcDbEntity
  8
0
 62
     7
100
AcDbCircle
 10
154.297058
 20
181.850006
 30
0.0
 40
0.5
100
AcDbArc
 50
171.869894
 51
180.000009
  0
ARC
  5
280
330
1F
100
AcDbEntity
  8
0
 62
     7
100
AcDbCircle
 10
150.99704
 20
181.850006
 30
0.0
 40
0.5
100
AcDbArc
 50
0.0
 51
8.130103
  0
ARC
  5
281
330
1F
100
AcDbEntity
  8
0
 62
     7
100
AcDbCircle
 10
154.297058
 20
181.850006
 30
0.0
 40
0.5
100
AcDbArc
 50
90.000003
 51
171.869894
  0
LINE
  5
282
330
1F
100
AcDbEntity
  8
0
 62
     7
100
AcDbLine
 10
153.797058
 20
174.350006
 30
0.0
 11
151.49704
 21
174.350006
 31
0.0
  0
LINE
  5
283
330
1F
100
AcDbEntity
  8
0
 62
     7
100
AcDbLine
 10
153.797058
 20
175.049988
 30
0.0
 11
151.49704
 21
175.049988
 31
0.0
  0
LINE
  5
284
330
1F
100
AcDbEntity
  8
0
 62
     7
100
AcDbLine
 10
153.797058
 20
175.450012
 30
0.0
 11
151.49704
 21
175.450012
 31
0.0
  0
LINE
  5
285
330
1F
100
AcDbEntity
  8
0
 62
     7
100
AcDbLine
 10
153.797058
 20
176.149994
 30
0.0
 11
151.49704
 21
176.149994
 31
0.0
  0
LINE
  5
286
330
1F
100
AcDbEntity
  8
0
 62
     7
100
AcDbLine
 10
153.797058
 20
176.549988
 30
0.0
 11
151.49704
 21
176.549988
 31
0.0
  0
LINE
  5
287
330
1F
100
AcDbEntity
  8
0
 62
     7
100
AcDbLine
 10
153.797058
 20
177.25
 30
0.0
 11
151.49704
 21
177.25
 31
0.0
  0
LINE
  5
288
330
1F
100
AcDbEntity
  8
0
 62
     7
100
AcDbLine
 10
153.797058
 20
177.649994
 30
0.0
 11
151.49704
 21
177.649994
 31
0.0
  0
LINE
  5
289
330
1F
100
AcDbEntity
  8
0
 62
     7
100
AcDbLine
 10
153.797058
 20
178.350006
 30
0.0
 11
151.49704
 21
178.350006
 31
0.0
  0
LINE
  5
28A
330
1F
100
AcDbEntity
  8
0
 62
     7
100
AcDbLine
 10
153.797058
 20
178.75
 30
0.0
 11
151.49704
 21
178.75
 31
0.0
  0
LINE
  5
28B
330
1F
100
AcDbEntity
  8
0
 62
     7
100
AcDbLine
 10
153.797058
 20
179.450012
 30
0.0
 11
151.49704
 21
179.450012
 31
0.0
  0
LINE
  5
28C
330
1F
100
AcDbEntity
  8
0
 62
     7
100
AcDbLine
 10
153.797058
 20
179.850006
 30
0.0
 11
151.49704
 21
179.850006
 31
0.0
  0
LINE
  5
28D
330
1F
100
AcDbEntity
  8
0
 62
     7
100
AcDbLine
 10
153.797058
 20
180.549988
 30
0.0
 11
151.49704
 21
180.549988
 31
0.0
  0
ARC
  5
28E
330
1F
100
AcDbEntity
  8
0
 62
     7
100
AcDbCircle
 10
150.99704
 20
181.850006
 30
0.0
 40
0.5
100
AcDbArc
 50
8.130103
 51
90.000003
  0
LINE
  5
28F
330
1F
100
AcDbEntity
  8
0
 62
     7
100
AcDbLine
 10
92.800453
 20
180.679291
 30
0.0
 11
92.838615
 21
180.549988
 31
0.0
  0
LINE
  5
290
330
1F
100
AcDbEntity
  8
0
 62
     7
100
AcDbLine
 10
150.49704
 20
180.549988
 30
0.0
 11
92.838615
 21
180.549988
 31
0.0
  0
LINE
  5
291
330
1F
100
AcDbEntity
  8
0
 62
     7
100
AcDbLine
 10
92.755981
 20
180.820709
 30
0.0
 11
92.800453
 21
180.679291
 31
0.0
  0
LINE
  5
292
330
1F
100
AcDbEntity
  8
0
 62
     7
100
AcDbLine
 10
92.712776
 20
180.950012
 30
0.0
 11
92.755981
 21
180.820709
 31
0.0
  0
LINE
  5
293
330
1F
100
AcDbEntity
  8
0
 62
     7
100
AcDbLine
 10
150.49704
 20
180.950012
 30
0.0
 11
92.712776
 21
180.950012
 31
0.0
  0
ARC
  5
294
330
1F
100
AcDbEntity
  8
0
 62
     7
100
AcDbCircle
 10
85.147064
 20
178.350006
 30
0.0
 40
8.0
100
AcDbArc
 50
18.965574
 51
24.361978
  0
LINE
  5
295
330
1F
100
AcDbEntity
  8
0
 62
     7
100
AcDbLine
 10
150.49704
 20
181.350006
 30
0.0
 11
150.147064
 21
181.350006
 31
0.0
  0
ARC
  5
296
330
1F
100
AcDbEntity
  8
0
 62
     7
100
AcDbCircle
 10
150.147064
 20
182.850006
 30
0.0
 40
1.5
100
AcDbArc
 50
212.230947
 51
269.999997
  0
LINE
  5
297
330
1F
100
AcDbEntity
  8
0
 62
     7
100
AcDbLine
 10
149.24704
 20
181.649994
 30
0.0
 11
92.434723
 21
181.649994
 31
0.0
  0
LINE
  5
298
330
1F
100
AcDbEntity
  8
0
 62
     7
100
AcDbLine
 10
150.49704
 20
174.350006
 30
0.0
 11
92.075264
 21
174.350006
 31
0.0
  0
LINE
  5
299
330
1F
100
AcDbEntity
  8
0
 62
     7
100
AcDbLine
 10
150.49704
 20
175.049988
 30
0.0
 11
92.434723
 21
175.049988
 31
0.0
  0
LINE
  5
29A
330
1F
100
AcDbEntity
  8
0
 62
     7
100
AcDbLine
 10
150.49704
 20
175.450012
 30
0.0
 11
92.602936
 21
175.450012
 31
0.0
  0
LINE
  5
29B
330
1F
100
AcDbEntity
  8
0
 62
     7
100
AcDbLine
 10
150.49704
 20
176.149994
 30
0.0
 11
92.838615
 21
176.149994
 31
0.0
  0
LINE
  5
29C
330
1F
100
AcDbEntity
  8
0
 62
     7
100
AcDbLine
 10
150.49704
 20
176.549988
 30
0.0
 11
92.941933
 21
176.549988
 31
0.0
  0
LINE
  5
29D
330
1F
100
AcDbEntity
  8
0
 62
     7
100
AcDbLine
 10
150.49704
 20
177.25
 30
0.0
 11
93.071075
 21
177.25
 31
0.0
  0
LINE
  5
29E
330
1F
100
AcDbEntity
  8
0
 62
     7
100
AcDbLine
 10
150.49704
 20
177.649994
 30
0.0
 11
93.116379
 21
177.649994
 31
0.0
  0
LINE
  5
29F
330
1F
100
AcDbEntity
  8
0
 62
     7
100
AcDbLine
 10
150.49704
 20
178.350006
 30
0.0
 11
93.147064
 21
178.350006
 31
0.0
  0
LINE
  5
2A0
330
1F
100
AcDbEntity
  8
0
 62
     7
100
AcDbLine
 10
93.146019
 20
178.479279
 30
0.0
 11
93.147064
 21
178.350006
 31
0.0
  0
LINE
  5
2A1
330
1F
100
AcDbEntity
  8
0
 62
     7
100
AcDbLine
 10
93.142479
 20
178.620697
 30
0.0
 11
93.146019
 21
178.479279
 31
0.0
  0
LINE
  5
2A2
330
1F
100
AcDbEntity
  8
0
 62
     7
100
AcDbLine
 10
93.137054
 20
178.75
 30
0.0
 11
93.142479
 21
178.620697
 31
0.0
  0
LINE
  5
2A3
330
1F
100
AcDbEntity
  8
0
 62
     7
100
AcDbLine
 10
150.49704
 20
178.75
 30
0.0
 11
93.137054
 21
178.75
 31
0.0
  0
ARC
  5
2A4
330
1F
100
AcDbEntity
  8
0
 62
     7
100
AcDbCircle
 10
85.147064
 20
178.350006
 30
0.0
 40
8.0
100
AcDbArc
 50
2.865984
 51
7.903208
  0
LINE
  5
2A5
330
1F
100
AcDbEntity
  8
0
 62
     7
100
AcDbLine
 10
150.49704
 20
179.450012
 30
0.0
 11
93.071075
 21
179.450012
 31
0.0
  0
LINE
  5
2A6
330
1F
100
AcDbEntity
  8
0
 62
     7
100
AcDbLine
 10
93.052055
 20
179.579285
 30
0.0
 11
93.071075
 21
179.450012
 31
0.0
  0
LINE
  5
2A7
330
1F
100
AcDbEntity
  8
0
 62
     7
100
AcDbLine
 10
93.028763
 20
179.720703
 30
0.0
 11
93.052055
 21
179.579285
 31
0.0
  0
LINE
  5
2A8
330
1F
100
AcDbEntity
  8
0
 62
     7
100
AcDbLine
 10
93.00518
 20
179.850006
 30
0.0
 11
93.028763
 21
179.720703
 31
0.0
  0
LINE
  5
2A9
330
1F
100
AcDbEntity
  8
0
 62
     7
100
AcDbLine
 10
150.49704
 20
179.850006
 30
0.0
 11
93.00518
 21
179.850006
 31
0.0
  0
ARC
  5
2AA
330
1F
100
AcDbEntity
  8
0
 62
     7
100
AcDbCircle
 10
85.147064
 20
178.350006
 30
0.0
 40
8.0
100
AcDbArc
 50
10.806925
 51
15.962019
  0
LINE
  5
2AB
330
1F
100
AcDbEntity
  8
0
 62
     7
100
AcDbLine
 10
78.218864
 20
174.350006
 30
0.0
 11
76.147064
 21
174.350006
 31
0.0
  0
LINE
  5
2AC
330
1F
100
AcDbEntity
  8
0
 62
     7
100
AcDbLine
 10
77.859406
 20
175.049988
 30
0.0
 11
76.147064
 21
175.049988
 31
0.0
  0
LINE
  5
2AD
330
1F
100
AcDbEntity
  8
0
 62
     7
100
AcDbLine
 10
77.691193
 20
175.450012
 30
0.0
 11
76.147064
 21
175.450012
 31
0.0
  0
LINE
  5
2AE
330
1F
100
AcDbEntity
  8
0
 62
     7
100
AcDbLine
 10
77.455513
 20
176.149994
 30
0.0
 11
76.147064
 21
176.149994
 31
0.0
  0
LINE
  5
2AF
330
1F
100
AcDbEntity
  8
0
 62
     7
100
AcDbLine
 10
77.352196
 20
176.549988
 30
0.0
 11
76.147064
 21
176.549988
 31
0.0
  0
LINE
  5
2B0
330
1F
100
AcDbEntity
  8
0
 62
     7
100
AcDbLine
 10
77.223053
 20
177.25
 30
0.0
 11
76.147064
 21
177.25
 31
0.0
  0
LINE
  5
2B1
330
1F
100
AcDbEntity
  8
0
 62
     7
100
AcDbLine
 10
77.17775
 20
177.649994
 30
0.0
 11
76.147064
 21
177.649994
 31
0.0
  0
LINE
  5
2B2
330
1F
100
AcDbEntity
  8
0
 62
     7
100
AcDbLine
 10
77.147064
 20
178.350006
 30
0.0
 11
76.147064
 21
178.350006
 31
0.0
  0
LINE
  5
2B3
330
1F
100
AcDbEntity
  8
0
 62
     7
100
AcDbLine
 10
77.148109
 20
178.479279
 30
0.0
 11
77.147064
 21
178.350006
 31
0.0
  0
LINE
  5
2B4
330
1F
100
AcDbEntity
  8
0
 62
     7
100
AcDbLine
 10
77.151649
 20
178.620697
 30
0.0
 11
77.148109
 21
178.479279
 31
0.0
  0
LINE
  5
2B5
330
1F
100
AcDbEntity
  8
0
 62
     7
100
AcDbLine
 10
77.157074
 20
178.75
 30
0.0
 11
77.151649
 21
178.620697
 31
0.0
  0
ARC
  5
2B6
330
1F
100
AcDbEntity
  8
0
 62
     7
100
AcDbCircle
 10
85.147064
 20
178.350006
 30
0.0
 40
8.0
100
AcDbArc
 50
172.096793
 51
177.134017
  0
LINE
  5
2B7
330
1F
100
AcDbEntity
  8
0
 62
     7
100
AcDbLine
 10
77.242073
 20
179.579285
 30
0.0
 11
77.223053
 21
179.450012
 31
0.0
  0
LINE
  5
2B8
330
1F
100
AcDbEntity
  8
0
 62
     7
100
AcDbLine
 10
77.265366
 20
179.720703
 30
0.0
 11
77.242073
 21
179.579285
 31
0.0
  0
LINE
  5
2B9
330
1F
100
AcDbEntity
  8
0
 62
     7
100
AcDbLine
 10
77.288948
 20
179.850006
 30
0.0
 11
77.265366
 21
179.720703
 31
0.0
  0
ARC
  5
2BA
330
1F
100
AcDbEntity
  8
0
 62
     7
100
AcDbCircle
 10
85.147064
 20
178.350006
 30
0.0
 40
8.0
100
AcDbArc
 50
164.03799
 51
169.193075
  0
LINE
  5
2BB
330
1F
100
AcDbEntity
  8
0
 62
     7
100
AcDbLine
 10
77.493675
 20
180.679291
 30
0.0
 11
77.455513
 21
180.549988
 31
0.0
  0
LINE
  5
2BC
330
1F
100
AcDbEntity
  8
0
 62
     7
100
AcDbLine
 10
77.538147
 20
180.820709
 30
0.0
 11
77.493675
 21
180.679291
 31
0.0
  0
LINE
  5
2BD
330
1F
100
AcDbEntity
  8
0
 62
     7
100
AcDbLine
 10
77.581352
 20
180.950012
 30
0.0
 11
77.538147
 21
180.820709
 31
0.0
  0
ARC
  5
2BE
330
1F
100
AcDbEntity
  8
0
 62
     7
100
AcDbCircle
 10
85.147064
 20
178.350006
 30
0.0
 40
8.0
100
AcDbArc
 50
155.638018
 51
161.034427
  0
LINE
  5
2BF
330
1F
100
AcDbEntity
  8
0
 62
     7
100
AcDbLine
 10
77.919342
 20
181.779297
 30
0.0
 11
77.859406
 21
181.649994
 31
0.0
  0
LINE
  5
2C0
330
1F
100
AcDbEntity
  8
0
 62
     7
100
AcDbLine
 10
77.988152
 20
181.920715
 30
0.0
 11
77.919342
 21
181.779297
 31
0.0
  0
LINE
  5
2C1
330
1F
100
AcDbEntity
  8
0
 62
     7
100
AcDbLine
 10
78.054108
 20
182.049988
 30
0.0
 11
77.988152
 21
181.920715
 31
0.0
  0
ARC
  5
2C2
330
1F
100
AcDbEntity
  8
0
 62
     7
100
AcDbCircle
 10
85.147064
 20
178.350006
 30
0.0
 40
8.0
100
AcDbArc
 50
146.632987
 51
152.451448
  0
LINE
  5
2C3
330
1F
100
AcDbEntity
  8
0
 62
     7
100
AcDbLine
 10
78.552704
 20
182.879272
 30
0.0
 11
78.465744
 21
182.75
 31
0.0
  0
LINE
  5
2C4
330
1F
100
AcDbEntity
  8
0
 62
     7
100
AcDbLine
 10
78.652107
 20
183.020721
 30
0.0
 11
78.552704
 21
182.879272
 31
0.0
  0
LINE
  5
2C5
330
1F
100
AcDbEntity
  8
0
 62
     7
100
AcDbLine
 10
78.747063
 20
183.149994
 30
0.0
 11
78.652107
 21
183.020721
 31
0.0
  0
ARC
  5
2C6
330
1F
100
AcDbEntity
  8
0
 62
     7
100
AcDbCircle
 10
85.147064
 20
178.350006
 30
0.0
 40
8.0
100
AcDbArc
 50
36.869897
 51
143.130097
  0
LINE
  5
2C7
330
1F
100
AcDbEntity
  8
0
 62
     7
100
AcDbLine
 10
91.547066
 20
183.149994
 30
0.0
 11
91.642021
 21
183.020721
 31
0.0
  0
LINE
  5
2C8
330
1F
100
AcDbEntity
  8
0
 62
     7
100
AcDbLine
 10
91.642021
 20
183.020721
 30
0.0
 11
91.741417
 21
182.879272
 31
0.0
  0
LINE
  5
2C9
330
1F
100
AcDbEntity
  8
0
 62
     7
100
AcDbLine
 10
91.741417
 20
182.879272
 30
0.0
 11
91.828377
 21
182.75
 31
0.0
  0
ARC
  5
2CA
330
1F
100
AcDbEntity
  8
0
 62
     7
100
AcDbCircle
 10
85.147064
 20
178.350006
 30
0.0
 40
8.0
100
AcDbArc
 50
27.548547
 51
33.367014
  0
LINE
  5
2CB
330
1F
100
AcDbEntity
  8
0
 62
     7
100
AcDbLine
 10
92.240021
 20
182.049988
 30
0.0
 11
92.305977
 21
181.920715
 31
0.0
  0
LINE
  5
2CC
330
1F
100
AcDbEntity
  8
0
 62
     7
100
AcDbLine
 10
92.305977
 20
181.920715
 30
0.0
 11
92.374786
 21
181.779297
 31
0.0
  0
LINE
  5
2CD
330
1F
100
AcDbEntity
  8
0
 62
     7
100
AcDbLine
 10
92.374786
 20
181.779297
 30
0.0
 11
92.434723
 21
181.649994
 31
0.0
  0
CIRCLE
  5
2CE
330
1F
100
AcDbEntity
  8
0
 62
     7
100
AcDbCircle
 10
85.147064
 20
178.350006
 30
0.0
 40
7.5
  0
LINE
  5
2CF
330
1F
100
AcDbEntity
  8
0
 62
     7
100
AcDbLine
 10
75.647064
 20
166.350006
 30
0.0
 11
76.147064
 21
166.350006
 31
0.0
  0
LINE
  5
2D0
330
1F
100
AcDbEntity
  8
0
 62
     7
100
AcDbLine
 10
77.157074
 20
178.75
 30
0.0
 11
76.147064
 21
178.75
 31
0.0
  0
LINE
  5
2D1
330
1F
100
AcDbEntity
  8
0
 62
     7
100
AcDbLine
 10
77.223053
 20
179.450012
 30
0.0
 11
76.147064
 21
179.450012
 31
0.0
  0
LINE
  5
2D2
330
1F
100
AcDbEntity
  8
0
 62
     7
100
AcDbLine
 10
77.288948
 20
179.850006
 30
0.0
 11
76.147064
 21
179.850006
 31
0.0
  0
LINE
  5
2D3
330
1F
100
AcDbEntity
  8
0
 62
     7
100
AcDbLine
 10
77.455513
 20
180.549988
 30
0.0
 11
76.147064
 21
180.549988
 31
0.0
  0
LINE
  5
2D4
330
1F
100
AcDbEntity
  8
0
 62
     7
100
AcDbLine
 10
77.581352
 20
180.950012
 30
0.0
 11
76.147064
 21
180.950012
 31
0.0
  0
LINE
  5
2D5
330
1F
100
AcDbEntity
  8
0
 62
     7
100
AcDbLine
 10
77.859406
 20
181.649994
 30
0.0
 11
76.147064
 21
181.649994
 31
0.0
  0
LINE
  5
2D6
330
1F
100
AcDbEntity
  8
0
 62
     7
100
AcDbLine
 10
78.054108
 20
182.049988
 30
0.0
 11
76.147064
 21
182.049988
 31
0.0
  0
LINE
  5
2D7
330
1F
100
AcDbEntity
  8
0
 62
     7
100
AcDbLine
 10
78.465744
 20
182.75
 30
0.0
 11
76.147064
 21
182.75
 31
0.0
  0
LINE
  5
2D8
330
1F
100
AcDbEntity
  8
0
 62
     7
100
AcDbLine
 10
78.747063
 20
183.149994
 30
0.0
 11
76.147064
 21
183.149994
 31
0.0
  0
LINE
  5
2D9
330
1F
100
AcDbEntity
  8
0
 62
     7
100
AcDbLine
 10
148.647064
 20
183.149994
 30
0.0
 11
91.547066
 21
183.149994
 31
0.0
  0
LINE
  5
2DA
330
1F
100
AcDbEntity
  8
0
 62
     7
100
AcDbLine
 10
148.647064
 20
183.149994
 30
0.0
 11
148.647064
 21
187.974274
 31
0.0
  0
LINE
  5
2DB
330
1F
100
AcDbEntity
  8
0
 62
     7
100
AcDbLine
 10
148.647064
 20
187.974274
 30
0.0
 11
76.147064
 21
187.974274
 31
0.0
  0
LINE
  5
2DC
330
1F
100
AcDbEntity
  8
0
 62
     7
100
AcDbLine
 10
148.647064
 20
188.462128
 30
0.0
 11
148.647064
 21
187.974274
 31
0.0
  0
LINE
  5
2DD
330
1F
100
AcDbEntity
  8
0
 62
     7
100
AcDbLine
 10
148.647064
 20
188.549988
 30
0.0
 11
148.647064
 21
188.462128
 31
0.0
  0
LINE
  5
2DE
330
1F
100
AcDbEntity
  8
0
 62
     7
100
AcDbLine
 10
329.647034
 20
160.649994
 30
0.0
 11
329.647034
 21
160.149994
 31
0.0
  0
LINE
  5
2DF
330
1F
100
AcDbEntity
  8
0
 62
     7
100
AcDbLine
 10
329.647034
 20
187.742889
 30
0.0
 11
329.647034
 21
160.649994
 31
0.0
  0
LINE
  5
2E0
330
1F
100
AcDbEntity
  8
0
 62
     7
100
AcDbLine
 10
329.647034
 20
188.096436
 30
0.0
 11
329.647034
 21
187.742889
 31
0.0
  0
LINE
  5
2E1
330
1F
100
AcDbEntity
  8
0
 62
     7
100
AcDbLine
 10
329.647034
 20
188.781128
 30
0.0
 11
329.647034
 21
188.096436
 31
0.0
  0
LINE
  5
2E2
330
1F
100
AcDbEntity
  8
0
 62
     7
100
AcDbLine
 10
256.647034
 20
183.020721
 30
0.0
 11
256.647034
 21
183.149994
 31
0.0
  0
LINE
  5
2E3
330
1F
100
AcDbEntity
  8
0
 62
     7
100
AcDbLine
 10
256.647034
 20
182.879272
 30
0.0
 11
256.647034
 21
183.020721
 31
0.0
  0
LINE
  5
2E4
330
1F
100
AcDbEntity
  8
0
 62
     7
100
AcDbLine
 10
256.647034
 20
182.879272
 30
0.0
 11
256.647034
 21
182.850006
 31
0.0
  0
ARC
  5
2E5
330
1F
100
AcDbEntity
  8
0
 62
     7
100
AcDbCircle
 10
255.147034
 20
182.850006
 30
0.0
 40
1.5
100
AcDbArc
 50
314.454478
 51
356.177454
  0
LINE
  5
2E6
330
1F
100
AcDbEntity
  8
0
 62
     7
100
AcDbLine
 10
256.643707
 20
182.75
 30
0.0
 11
256.647034
 21
182.850006
 31
0.0
  0
LINE
  5
2E7
330
1F
100
AcDbEntity
  8
0
 62
     7
100
AcDbLine
 10
254.297028
 20
182.350006
 30
0.0
 11
255.147034
 21
182.350006
 31
0.0
  0
ARC
  5
2E8
330
1F
100
AcDbEntity
  8
0
 62
     7
100
AcDbCircle
 10
255.147034
 20
182.850006
 30
0.0
 40
0.5
100
AcDbArc
 50
269.999997
 51
360.0
  0
LINE
  5
2E9
330
1F
100
AcDbEntity
  8
0
 62
     7
100
AcDbLine
 10
255.647034
 20
183.149994
 30
0.0
 11
255.647034
 21
187.974274
 31
0.0
  0
LINE
  5
2EA
330
1F
100
AcDbEntity
  8
0
 62
     7
100
AcDbLine
 10
255.647034
 20
188.462128
 30
0.0
 11
255.647034
 21
187.974274
 31
0.0
  0
LINE
  5
2EB
330
1F
100
AcDbEntity
  8
0
 62
     7
100
AcDbLine
 10
255.647034
 20
188.549988
 30
0.0
 11
255.647034
 21
188.462128
 31
0.0
  0
LINE
  5
2EC
330
1F
100
AcDbEntity
  8
0
 62
     7
100
AcDbLine
 10
255.647034
 20
182.879272
 30
0.0
 11
255.647034
 21
182.850006
 31
0.0
  0
LINE
  5
2ED
330
1F
100
AcDbEntity
  8
0
 62
     7
100
AcDbLine
 10
255.647034
 20
183.020721
 30
0.0
 11
255.647034
 21
182.879272
 31
0.0
  0
LINE
  5
2EE
330
1F
100
AcDbEntity
  8
0
 62
     7
100
AcDbLine
 10
255.647034
 20
183.020721
 30
0.0
 11
255.647034
 21
183.149994
 31
0.0
  0
LINE
  5
2EF
330
1F
100
AcDbEntity
  8
0
 62
     7
100
AcDbLine
 10
249.647034
 20
188.462128
 30
0.0
 11
249.647034
 21
188.549988
 31
0.0
  0
LINE
  5
2F0
330
1F
100
AcDbEntity
  8
0
 62
     7
100
AcDbLine
 10
249.647034
 20
188.462128
 30
0.0
 11
249.647034
 21
187.974274
 31
0.0
  0
LINE
  5
2F1
330
1F
100
AcDbEntity
  8
0
 62
     7
100
AcDbLine
 10
249.647034
 20
183.149994
 30
0.0
 11
249.647034
 21
187.974274
 31
0.0
  0
LINE
  5
2F2
330
1F
100
AcDbEntity
  8
0
 62
     7
100
AcDbLine
 10
249.647034
 20
183.020721
 30
0.0
 11
249.647034
 21
183.149994
 31
0.0
  0
LINE
  5
2F3
330
1F
100
AcDbEntity
  8
0
 62
     7
100
AcDbLine
 10
249.647034
 20
182.879272
 30
0.0
 11
249.647034
 21
183.020721
 31
0.0
  0
LINE
  5
2F4
330
1F
100
AcDbEntity
  8
0
 62
     7
100
AcDbLine
 10
249.647034
 20
182.879272
 30
0.0
 11
249.647034
 21
182.850006
 31
0.0
  0
ARC
  5
2F5
330
1F
100
AcDbEntity
  8
0
 62
     7
100
AcDbCircle
 10
250.147034
 20
182.850006
 30
0.0
 40
0.5
100
AcDbArc
 50
180.000009
 51
269.999997
  0
LINE
  5
2F6
330
1F
100
AcDbEntity
  8
0
 62
     7
100
AcDbLine
 10
250.147034
 20
182.350006
 30
0.0
 11
250.99704
 21
182.350006
 31
0.0
  0
ARC
  5
2F7
330
1F
100
AcDbEntity
  8
0
 62
     7
100
AcDbCircle
 10
250.147034
 20
182.850006
 30
0.0
 40
1.5
100
AcDbArc
 50
183.822551
 51
212.230947
  0
LINE
  5
2F8
330
1F
100
AcDbEntity
  8
0
 62
     7
100
AcDbLine
 10
248.650391
 20
182.75
 30
0.0
 11
248.647064
 21
182.850006
 31
0.0
  0
LINE
  5
2F9
330
1F
100
AcDbEntity
  8
0
 62
     7
100
AcDbLine
 10
248.647064
 20
183.149994
 30
0.0
 11
248.647064
 21
187.974274
 31
0.0
  0
LINE
  5
2FA
330
1F
100
AcDbEntity
  8
0
 62
     7
100
AcDbLine
 10
248.647064
 20
188.462128
 30
0.0
 11
248.647064
 21
187.974274
 31
0.0
  0
LINE
  5
2FB
330
1F
100
AcDbEntity
  8
0
 62
     7
100
AcDbLine
 10
248.647064
 20
188.549988
 30
0.0
 11
248.647064
 21
188.462128
 31
0.0
  0
LINE
  5
2FC
330
1F
100
AcDbEntity
  8
0
 62
     7
100
AcDbLine
 10
248.647064
 20
182.879272
 30
0.0
 11
248.647064
 21
182.850006
 31
0.0
  0
LINE
  5
2FD
330
1F
100
AcDbEntity
  8
0
 62
     7
100
AcDbLine
 10
248.647064
 20
183.020721
 30
0.0
 11
248.647064
 21
182.879272
 31
0.0
  0
LINE
  5
2FE
330
1F
100
AcDbEntity
  8
0
 62
     7
100
AcDbLine
 10
248.647064
 20
183.020721
 30
0.0
 11
248.647064
 21
183.149994
 31
0.0
  0
LINE
  5
2FF
330
1F
100
AcDbEntity
  8
0
 62
     7
100
AcDbLine
 10
156.647064
 20
188.462128
 30
0.0
 11
156.647064
 21
188.549988
 31
0.0
  0
LINE
  5
300
330
1F
100
AcDbEntity
  8
0
 62
     7
100
AcDbLine
 10
156.647064
 20
188.462128
 30
0.0
 11
156.647064
 21
187.974274
 31
0.0
  0
LINE
  5
301
330
1F
100
AcDbEntity
  8
0
 62
     7
100
AcDbLine
 10
156.647064
 20
183.149994
 30
0.0
 11
156.647064
 21
187.974274
 31
0.0
  0
LINE
  5
302
330
1F
100
AcDbEntity
  8
0
 62
     7
100
AcDbLine
 10
156.647064
 20
183.020721
 30
0.0
 11
156.647064
 21
183.149994
 31
0.0
  0
LINE
  5
303
330
1F
100
AcDbEntity
  8
0
 62
     7
100
AcDbLine
 10
156.647064
 20
182.879272
 30
0.0
 11
156.647064
 21
183.020721
 31
0.0
  0
LINE
  5
304
330
1F
100
AcDbEntity
  8
0
 62
     7
100
AcDbLine
 10
156.647064
 20
182.879272
 30
0.0
 11
156.647064
 21
182.850006
 31
0.0
  0
ARC
  5
305
330
1F
100
AcDbEntity
  8
0
 62
     7
100
AcDbCircle
 10
155.147064
 20
182.850006
 30
0.0
 40
1.5
100
AcDbArc
 50
314.454478
 51
356.177454
  0
LINE
  5
306
330
1F
100
AcDbEntity
  8
0
 62
     7
100
AcDbLine
 10
156.643707
 20
182.75
 30
0.0
 11
156.647064
 21
182.850006
 31
0.0
  0
LINE
  5
307
330
1F
100
AcDbEntity
  8
0
 62
     7
100
AcDbLine
 10
154.297058
 20
182.350006
 30
0.0
 11
155.147064
 21
182.350006
 31
0.0
  0
ARC
  5
308
330
1F
100
AcDbEntity
  8
0
 62
     7
100
AcDbCircle
 10
155.147064
 20
182.850006
 30
0.0
 40
0.5
100
AcDbArc
 50
269.999997
 51
360.0
  0
LINE
  5
309
330
1F
100
AcDbEntity
  8
0
 62
     7
100
AcDbLine
 10
155.647064
 20
183.149994
 30
0.0
 11
155.647064
 21
187.974274
 31
0.0
  0
LINE
  5
30A
330
1F
100
AcDbEntity
  8
0
 62
     7
100
AcDbLine
 10
155.647064
 20
188.462128
 30
0.0
 11
155.647064
 21
187.974274
 31
0.0
  0
LINE
  5
30B
330
1F
100
AcDbEntity
  8
0
 62
     7
100
AcDbLine
 10
155.647064
 20
188.549988
 30
0.0
 11
155.647064
 21
188.462128
 31
0.0
  0
LINE
  5
30C
330
1F
100
AcDbEntity
  8
0
 62
     7
100
AcDbLine
 10
155.647064
 20
182.879272
 30
0.0
 11
155.647064
 21
182.850006
 31
0.0
  0
LINE
  5
30D
330
1F
100
AcDbEntity
  8
0
 62
     7
100
AcDbLine
 10
155.647064
 20
183.020721
 30
0.0
 11
155.647064
 21
182.879272
 31
0.0
  0
LINE
  5
30E
330
1F
100
AcDbEntity
  8
0
 62
     7
100
AcDbLine
 10
155.647064
 20
183.020721
 30
0.0
 11
155.647064
 21
183.149994
 31
0.0
  0
LINE
  5
30F
330
1F
100
AcDbEntity
  8
0
 62
     7
100
AcDbLine
 10
149.647064
 20
188.462128
 30
0.0
 11
149.647064
 21
188.549988
 31
0.0
  0
LINE
  5
310
330
1F
100
AcDbEntity
  8
0
 62
     7
100
AcDbLine
 10
149.647064
 20
188.462128
 30
0.0
 11
149.647064
 21
187.974274
 31
0.0
  0
LINE
  5
311
330
1F
100
AcDbEntity
  8
0
 62
     7
100
AcDbLine
 10
149.647064
 20
183.149994
 30
0.0
 11
149.647064
 21
187.974274
 31
0.0
  0
LINE
  5
312
330
1F
100
AcDbEntity
  8
0
 62
     7
100
AcDbLine
 10
149.647064
 20
183.020721
 30
0.0
 11
149.647064
 21
183.149994
 31
0.0
  0
LINE
  5
313
330
1F
100
AcDbEntity
  8
0
 62
     7
100
AcDbLine
 10
149.647064
 20
182.879272
 30
0.0
 11
149.647064
 21
183.020721
 31
0.0
  0
LINE
  5
314
330
1F
100
AcDbEntity
  8
0
 62
     7
100
AcDbLine
 10
149.647064
 20
182.879272
 30
0.0
 11
149.647064
 21
182.850006
 31
0.0
  0
ARC
  5
315
330
1F
100
AcDbEntity
  8
0
 62
     7
100
AcDbCircle
 10
150.147064
 20
182.850006
 30
0.0
 40
0.5
100
AcDbArc
 50
180.000009
 51
269.999997
  0
LINE
  5
316
330
1F
100
AcDbEntity
  8
0
 62
     7
100
AcDbLine
 10
150.147064
 20
182.350006
 30
0.0
 11
150.99704
 21
182.350006
 31
0.0
  0
ARC
  5
317
330
1F
100
AcDbEntity
  8
0
 62
     7
100
AcDbCircle
 10
150.147064
 20
182.850006
 30
0.0
 40
1.5
100
AcDbArc
 50
183.822551
 51
212.230947
  0
LINE
  5
318
330
1F
100
AcDbEntity
  8
0
 62
     7
100
AcDbLine
 10
148.650391
 20
182.75
 30
0.0
 11
148.647064
 21
182.850006
 31
0.0
  0
LINE
  5
319
330
1F
100
AcDbEntity
  8
0
 62
     7
100
AcDbLine
 10
148.647064
 20
182.879272
 30
0.0
 11
148.647064
 21
182.850006
 31
0.0
  0
LINE
  5
31A
330
1F
100
AcDbEntity
  8
0
 62
     7
100
AcDbLine
 10
148.647064
 20
183.020721
 30
0.0
 11
148.647064
 21
182.879272
 31
0.0
  0
LINE
  5
31B
330
1F
100
AcDbEntity
  8
0
 62
     7
100
AcDbLine
 10
148.647064
 20
183.020721
 30
0.0
 11
148.647064
 21
183.149994
 31
0.0
  0
LINE
  5
31C
330
1F
100
AcDbEntity
  8
0
 62
     7
100
AcDbLine
 10
75.647064
 20
188.096436
 30
0.0
 11
75.647064
 21
188.781128
 31
0.0
  0
LINE
  5
31D
330
1F
100
AcDbEntity
  8
0
 62
     7
100
AcDbLine
 10
75.647064
 20
187.742889
 30
0.0
 11
75.647064
 21
188.096436
 31
0.0
  0
LINE
  5
31E
330
1F
100
AcDbEntity
  8
0
 62
     7
100
AcDbLine
 10
75.647064
 20
160.649994
 30
0.0
 11
75.647064
 21
187.742889
 31
0.0
  0
LINE
  5
31F
330
1F
100
AcDbEntity
  8
0
 62
     7
100
AcDbLine
 10
75.647064
 20
160.149994
 30
0.0
 11
75.647064
 21
160.649994
 31
0.0
  0
LINE
  5
320
330
1F
100
AcDbEntity
  8
0
 62
     7
100
AcDbLine
 10
329.647034
 20
191.350006
 30
0.0
 11
329.647034
 21
188.781128
 31
0.0
  0
LINE
  5
321
330
1F
100
AcDbEntity
  8
0
 62
     7
100
AcDbLine
 10
75.647064
 20
191.350006
 30
0.0
 11
329.647034
 21
191.350006
 31
0.0
  0
LINE
  5
322
330
1F
100
AcDbEntity
  8
0
 62
     7
100
AcDbLine
 10
75.647064
 20
191.350006
 30
0.0
 11
75.647064
 21
188.781128
 31
0.0
  0
LINE
  5
323
330
1F
100
AcDbEntity
  8
0
 62
     7
100
AcDbLine
 10
329.647034
 20
161.850006
 30
0.0
 11
329.147034
 21
161.850006
 31
0.0
  0
LINE
  5
324
330
1F
100
AcDbEntity
  8
0
 62
     7
100
AcDbLine
 10
313.054077
 20
182.049988
 30
0.0
 11
256.415894
 21
182.049988
 31
0.0
  0
LINE
  5
325
330
1F
100
AcDbEntity
  8
0
 62
     7
100
AcDbLine
 10
313.465729
 20
182.75
 30
0.0
 11
256.643707
 21
182.75
 31
0.0
  0
LINE
  5
326
330
1F
100
AcDbEntity
  8
0
 62
     7
100
AcDbLine
 10
253.838776
 20
182.049988
 30
0.0
 11
251.455292
 21
182.049988
 31
0.0
  0
LINE
  5
327
330
1F
100
AcDbEntity
  8
0
 62
     7
100
AcDbLine
 10
255.636932
 20
182.75
 30
0.0
 11
253.541473
 21
182.75
 31
0.0
  0
ARC
  5
328
330
1F
100
AcDbEntity
  8
0
 62
     7
100
AcDbCircle
 10
252.647034
 20
184.649994
 30
0.0
 40
2.099999904632568
100
AcDbArc
 50
237.479124
 51
295.208757
  0
LINE
  5
329
330
1F
100
AcDbEntity
  8
0
 62
     7
100
AcDbLine
 10
251.752625
 20
182.75
 30
0.0
 11
249.657135
 21
182.75
 31
0.0
  0
LINE
  5
32A
330
1F
100
AcDbEntity
  8
0
 62
     7
100
AcDbLine
 10
153.838806
 20
182.049988
 30
0.0
 11
151.455322
 21
182.049988
 31
0.0
  0
LINE
  5
32B
330
1F
100
AcDbEntity
  8
0
 62
     7
100
AcDbLine
 10
155.636963
 20
182.75
 30
0.0
 11
153.541473
 21
182.75
 31
0.0
  0
ARC
  5
32C
330
1F
100
AcDbEntity
  8
0
 62
     7
100
AcDbCircle
 10
152.647064
 20
184.649994
 30
0.0
 40
2.099999904632568
100
AcDbArc
 50
237.479124
 51
295.208757
  0
LINE
  5
32D
330
1F
100
AcDbEntity
  8
0
 62
     7
100
AcDbLine
 10
151.752625
 20
182.75
 30
0.0
 11
149.657166
 21
182.75
 31
0.0
  0
LINE
  5
32E
330
1F
100
AcDbEntity
  8
0
 62
     7
100
AcDbLine
 10
148.650391
 20
182.75
 30
0.0
 11
91.828377
 21
182.75
 31
0.0
  0
LINE
  5
32F
330
1F
100
AcDbEntity
  8
0
 62
     7
100
AcDbLine
 10
148.878204
 20
182.049988
 30
0.0
 11
92.240021
 21
182.049988
 31
0.0
  0
LINE
  5
330
330
1F
100
AcDbEntity
  8
0
 62
     7
100
AcDbLine
 10
75.647064
 20
161.850006
 30
0.0
 11
76.147064
 21
161.850006
 31
0.0
  0
LINE
  5
331
330
1F
100
AcDbEntity
  8
0
 62
     7
100
AcDbLine
 10
250.334534
 20
161.680359
 30
0.0
 11
251.634521
 21
165.180359
 31
0.0
  0
ARC
  5
332
330
1F
100
AcDbEntity
  8
0
 62
     7
100
AcDbCircle
 10
250.147034
 20
161.75
 30
0.0
 40
0.2000000029802322
100
AcDbArc
 50
200.37643
 51
339.623562
  0
LINE
  5
333
330
1F
100
AcDbEntity
  8
0
 62
     7
100
AcDbLine
 10
248.659576
 20
165.180359
 30
0.0
 11
249.959564
 21
161.680359
 31
0.0
  0
ARC
  5
334
330
1F
100
AcDbEntity
  8
0
 62
     7
100
AcDbCircle
 10
248.847046
 20
165.25
 30
0.0
 40
0.2000000029802322
100
AcDbArc
 50
90.000003
 51
200.37643
  0
LINE
  5
335
330
1F
100
AcDbEntity
  8
0
 62
     7
100
AcDbLine
 10
251.447052
 20
165.449982
 30
0.0
 11
248.847046
 21
165.449982
 31
0.0
  0
ARC
  5
336
330
1F
100
AcDbEntity
  8
0
 62
     7
100
AcDbCircle
 10
251.447052
 20
165.25
 30
0.0
 40
0.2000000029802322
100
AcDbArc
 50
339.623562
 51
90.000003
  0
LINE
  5
337
330
1F
100
AcDbEntity
  8
0
 62
     7
100
AcDbLine
 10
130.334534
 20
161.680359
 30
0.0
 11
131.634552
 21
165.180359
 31
0.0
  0
ARC
  5
338
330
1F
100
AcDbEntity
  8
0
 62
     7
100
AcDbCircle
 10
130.147064
 20
161.75
 30
0.0
 40
0.2000000029802322
100
AcDbArc
 50
200.37643
 51
339.623562
  0
LINE
  5
339
330
1F
100
AcDbEntity
  8
0
 62
     7
100
AcDbLine
 10
128.659576
 20
165.180359
 30
0.0
 11
129.959564
 21
161.680359
 31
0.0
  0
ARC
  5
33A
330
1F
100
AcDbEntity
  8
0
 62
     7
100
AcDbCircle
 10
128.847046
 20
165.25
 30
0.0
 40
0.2000000029802322
100
AcDbArc
 50
90.000003
 51
200.37643
  0
LINE
  5
33B
330
1F
100
AcDbEntity
  8
0
 62
     7
100
AcDbLine
 10
131.447052
 20
165.449982
 30
0.0
 11
128.847046
 21
165.449982
 31
0.0
  0
ARC
  5
33C
330
1F
100
AcDbEntity
  8
0
 62
     7
100
AcDbCircle
 10
131.447052
 20
165.25
 30
0.0
 40
0.2000000029802322
100
AcDbArc
 50
339.623562
 51
90.000003
  0
LINE
  5
33D
330
1F
100
AcDbEntity
  8
0
 62
     7
100
AcDbLine
 10
330.647034
 20
160.149994
 30
0.0
 11
329.647034
 21
160.149994
 31
0.0
  0
LINE
  5
33E
330
1F
100
AcDbEntity
  8
0
 62
     7
100
AcDbLine
 10
329.147034
 20
160.350006
 30
0.0
 11
329.647034
 21
160.350006
 31
0.0
  0
LINE
  5
33F
330
1F
100
AcDbEntity
  8
0
 62
     7
100
AcDbLine
 10
253.541473
 20
182.75
 30
0.0
 11
253.653839
 21
182.807068
 31
0.0
  0
ARC
  5
340
330
1F
100
AcDbEntity
  8
0
 62
     7
100
AcDbCircle
 10
252.647034
 20
184.649994
 30
0.0
 40
2.099999904632568
100
AcDbArc
 50
298.647887
 51
314.415304
  0
LINE
  5
341
330
1F
100
AcDbEntity
  8
0
 62
     7
100
AcDbLine
 10
251.177338
 20
183.149994
 30
0.0
 11
249.647034
 21
183.149994
 31
0.0
  0
ARC
  5
342
330
1F
100
AcDbEntity
  8
0
 62
     7
100
AcDbCircle
 10
252.647034
 20
184.649994
 30
0.0
 40
2.099999904632568
100
AcDbArc
 50
314.415304
 51
237.479124
  0
LINE
  5
343
330
1F
100
AcDbEntity
  8
0
 62
     7
100
AcDbLine
 10
255.647034
 20
183.149994
 30
0.0
 11
254.11673
 21
183.149994
 31
0.0
  0
LINE
  5
344
330
1F
100
AcDbEntity
  8
0
 62
     7
100
AcDbLine
 10
255.647034
 20
187.974274
 30
0.0
 11
249.647034
 21
187.974274
 31
0.0
  0
LINE
  5
345
330
1F
100
AcDbEntity
  8
0
 62
     7
100
AcDbLine
 10
248.878174
 20
182.049988
 30
0.0
 11
156.415924
 21
182.049988
 31
0.0
  0
LINE
  5
346
330
1F
100
AcDbEntity
  8
0
 62
     7
100
AcDbLine
 10
248.650391
 20
182.75
 30
0.0
 11
156.643707
 21
182.75
 31
0.0
  0
LINE
  5
347
330
1F
100
AcDbEntity
  8
0
 62
     7
100
AcDbLine
 10
248.647064
 20
183.149994
 30
0.0
 11
156.647064
 21
183.149994
 31
0.0
  0
LINE
  5
348
330
1F
100
AcDbEntity
  8
0
 62
     7
100
AcDbLine
 10
248.647064
 20
187.974274
 30
0.0
 11
156.647064
 21
187.974274
 31
0.0
  0
LINE
  5
349
330
1F
100
AcDbEntity
  8
0
 62
     7
100
AcDbLine
 10
153.541473
 20
182.75
 30
0.0
 11
153.653839
 21
182.807068
 31
0.0
  0
ARC
  5
34A
330
1F
100
AcDbEntity
  8
0
 62
     7
100
AcDbCircle
 10
152.647064
 20
184.649994
 30
0.0
 40
2.099999904632568
100
AcDbArc
 50
298.647887
 51
314.415304
  0
ARC
  5
34B
330
1F
100
AcDbEntity
  8
0
 62
     7
100
AcDbCircle
 10
152.647064
 20
184.649994
 30
0.0
 40
2.099999904632568
100
AcDbArc
 50
314.415304
 51
237.479124
  0
LINE
  5
34C
330
1F
100
AcDbEntity
  8
0
 62
     7
100
AcDbLine
 10
155.647064
 20
183.149994
 30
0.0
 11
154.11676
 21
183.149994
 31
0.0
  0
LINE
  5
34D
330
1F
100
AcDbEntity
  8
0
 62
     7
100
AcDbLine
 10
155.647064
 20
187.974274
 30
0.0
 11
149.647064
 21
187.974274
 31
0.0
  0
LINE
  5
34E
330
1F
100
AcDbEntity
  8
0
 62
     7
100
AcDbLine
 10
151.177368
 20
183.149994
 30
0.0
 11
149.647064
 21
183.149994
 31
0.0
  0
LINE
  5
34F
330
1F
100
AcDbEntity
  8
0
 62
     7
100
AcDbLine
 10
74.647064
 20
160.149994
 30
0.0
 11
75.647064
 21
160.149994
 31
0.0
  0
LINE
  5
350
330
1F
100
AcDbEntity
  8
0
 62
     7
100
AcDbLine
 10
75.647064
 20
160.350006
 30
0.0
 11
76.147064
 21
160.350006
 31
0.0
  0
CIRCLE
  5
351
330
1F
100
AcDbEntity
  8
0
 62
     7
100
AcDbCircle
 10
320.147034
 20
178.350006
 30
0.0
 40
4.5
  0
CIRCLE
  5
352
330
1F
100
AcDbEntity
  8
0
 62
     7
100
AcDbCircle
 10
85.147064
 20
178.350006
 30
0.0
 40
4.5
  0
ARC
  5
353
330
1F
100
AcDbEntity
  8
0
 62
     7
100
AcDbCircle
 10
330.647034
 20
161.149994
 30
0.0
 40
1.0
100
AcDbArc
 50
269.999997
 51
360.0
  0
LINE
  5
354
330
1F
100
AcDbEntity
  8
0
 62
     7
100
AcDbLine
 10
331.647034
 20
187.535797
 30
0.0
 11
331.647034
 21
161.149994
 31
0.0
  0
LINE
  5
355
330
1F
100
AcDbEntity
  8
0
 62
     7
100
AcDbLine
 10
331.647034
 20
188.231415
 30
0.0
 11
331.647034
 21
187.535797
 31
0.0
  0
LINE
  5
356
330
1F
100
AcDbEntity
  8
0
 62
     7
100
AcDbLine
 10
73.647064
 20
187.535797
 30
0.0
 11
73.647064
 21
188.231415
 31
0.0
  0
LINE
  5
357
330
1F
100
AcDbEntity
  8
0
 62
     7
100
AcDbLine
 10
73.647064
 20
161.149994
 30
0.0
 11
73.647064
 21
187.535797
 31
0.0
  0
ARC
  5
358
330
1F
100
AcDbEntity
  8
0
 62
     7
100
AcDbCircle
 10
74.647064
 20
161.149994
 30
0.0
 40
1.0
100
AcDbArc
 50
180.000009
 51
269.999997
  0
LINE
  5
359
330
1F
100
AcDbEntity
  8
0
 62
     7
100
AcDbLine
 10
330.647034
 20
191.149994
 30
0.0
 11
329.647034
 21
191.149994
 31
0.0
  0
LINE
  5
35A
330
1F
100
AcDbEntity
  8
0
 62
     7
100
AcDbLine
 10
74.647064
 20
191.149994
 30
0.0
 11
75.647064
 21
191.149994
 31
0.0
  0
LINE
  5
35B
330
1F
100
AcDbEntity
  8
0
 62
     7
100
AcDbLine
 10
331.647034
 20
188.805939
 30
0.0
 11
331.647034
 21
188.231415
 31
0.0
  0
LINE
  5
35C
330
1F
100
AcDbEntity
  8
0
 62
     7
100
AcDbLine
 10
331.647034
 20
190.149994
 30
0.0
 11
331.647034
 21
188.805939
 31
0.0
  0
LINE
  5
35D
330
1F
100
AcDbEntity
  8
0
 62
     7
100
AcDbLine
 10
73.647064
 20
188.231415
 30
0.0
 11
73.647064
 21
188.805939
 31
0.0
  0
LINE
  5
35E
330
1F
100
AcDbEntity
  8
0
 62
     7
100
AcDbLine
 10
73.647064
 20
188.805939
 30
0.0
 11
73.647064
 21
190.149994
 31
0.0
  0
ARC
  5
35F
330
1F
100
AcDbEntity
  8
0
 62
     7
100
AcDbCircle
 10
320.147034
 20
179.049988
 30
0.0
 40
12.80000019073486
100
AcDbArc
 50
73.932611
 51
106.067387
  0
ARC
  5
360
330
1F
100
AcDbEntity
  8
0
 62
     7
100
AcDbCircle
 10
85.147064
 20
179.049988
 30
0.0
 40
12.80000019073486
100
AcDbArc
 50
73.932611
 51
106.067387
  0
ARC
  5
361
330
1F
100
AcDbEntity
  8
0
 62
     7
100
AcDbCircle
 10
330.647034
 20
190.149994
 30
0.0
 40
1.0
100
AcDbArc
 50
0.0
 51
90.000003
  0
ARC
  5
362
330
1F
100
AcDbEntity
  8
0
 62
     7
100
AcDbCircle
 10
74.647064
 20
190.149994
 30
0.0
 40
1.0
100
AcDbArc
 50
90.000003
 51
180.000009
  0
CIRCLE
  5
363
330
1F
100
AcDbEntity
  8
0
 62
     7
100
AcDbCircle
 10
252.647034
 20
184.649994
 30
0.0
 40
2.0
  0
CIRCLE
  5
364
330
1F
100
AcDbEntity
  8
0
 62
     7
100
AcDbCircle
 10
152.647064
 20
184.649994
 30
0.0
 40
2.0
  0
LINE
  5
365
330
1F
100
AcDbEntity
  8
0
 62
     7
100
AcDbLine
 10
252.847046
 20
185.350006
 30
0.0
 11
252.847046
 21
185.850006
 31
0.0
  0
LINE
  5
366
330
1F
100
AcDbEntity
  8
0
 62
     7
100
AcDbLine
 10
252.847046
 20
185.850006
 30
0.0
 11
252.447052
 21
185.850006
 31
0.0
  0
LINE
  5
367
330
1F
100
AcDbEntity
  8
0
 62
     7
100
AcDbLine
 10
252.447052
 20
185.850006
 30
0.0
 11
252.447052
 21
185.350006
 31
0.0
  0
ARC
  5
368
330
1F
100
AcDbEntity
  8
0
 62
     7
100
AcDbCircle
 10
251.947052
 20
185.350006
 30
0.0
 40
0.5
100
AcDbArc
 50
269.999997
 51
360.0
  0
LINE
  5
369
330
1F
100
AcDbEntity
  8
0
 62
     7
100
AcDbLine
 10
251.947052
 20
184.850006
 30
0.0
 11
251.447052
 21
184.850006
 31
0.0
  0
LINE
  5
36A
330
1F
100
AcDbEntity
  8
0
 62
     7
100
AcDbLine
 10
251.447052
 20
184.850006
 30
0.0
 11
251.447052
 21
184.450012
 31
0.0
  0
LINE
  5
36B
330
1F
100
AcDbEntity
  8
0
 62
     7
100
AcDbLine
 10
251.447052
 20
184.450012
 30
0.0
 11
251.947052
 21
184.450012
 31
0.0
  0
ARC
  5
36C
330
1F
100
AcDbEntity
  8
0
 62
     7
100
AcDbCircle
 10
251.947052
 20
183.950012
 30
0.0
 40
0.5
100
AcDbArc
 50
0.0
 51
90.000003
  0
LINE
  5
36D
330
1F
100
AcDbEntity
  8
0
 62
     7
100
AcDbLine
 10
252.447052
 20
183.950012
 30
0.0
 11
252.447052
 21
183.450012
 31
0.0
  0
LINE
  5
36E
330
1F
100
AcDbEntity
  8
0
 62
     7
100
AcDbLine
 10
252.447052
 20
183.450012
 30
0.0
 11
252.847046
 21
183.450012
 31
0.0
  0
LINE
  5
36F
330
1F
100
AcDbEntity
  8
0
 62
     7
100
AcDbLine
 10
252.847046
 20
183.450012
 30
0.0
 11
252.847046
 21
183.950012
 31
0.0
  0
ARC
  5
370
330
1F
100
AcDbEntity
  8
0
 62
     7
100
AcDbCircle
 10
253.347046
 20
183.950012
 30
0.0
 40
0.5
100
AcDbArc
 50
90.000003
 51
180.000009
  0
LINE
  5
371
330
1F
100
AcDbEntity
  8
0
 62
     7
100
AcDbLine
 10
253.347046
 20
184.450012
 30
0.0
 11
253.847046
 21
184.450012
 31
0.0
  0
LINE
  5
372
330
1F
100
AcDbEntity
  8
0
 62
     7
100
AcDbLine
 10
253.847046
 20
184.450012
 30
0.0
 11
253.847046
 21
184.850006
 31
0.0
  0
LINE
  5
373
330
1F
100
AcDbEntity
  8
0
 62
     7
100
AcDbLine
 10
253.847046
 20
184.850006
 30
0.0
 11
253.347046
 21
184.850006
 31
0.0
  0
ARC
  5
374
330
1F
100
AcDbEntity
  8
0
 62
     7
100
AcDbCircle
 10
253.347046
 20
185.350006
 30
0.0
 40
0.5
100
AcDbArc
 50
180.000009
 51
269.999997
  0
LINE
  5
375
330
1F
100
AcDbEntity
  8
0
 62
     7
100
AcDbLine
 10
152.847046
 20
185.350006
 30
0.0
 11
152.847046
 21
185.850006
 31
0.0
  0
LINE
  5
376
330
1F
100
AcDbEntity
  8
0
 62
     7
100
AcDbLine
 10
152.847046
 20
185.850006
 30
0.0
 11
152.447052
 21
185.850006
 31
0.0
  0
LINE
  5
377
330
1F
100
AcDbEntity
  8
0
 62
     7
100
AcDbLine
 10
152.447052
 20
185.850006
 30
0.0
 11
152.447052
 21
185.350006
 31
0.0
  0
ARC
  5
378
330
1F
100
AcDbEntity
  8
0
 62
     7
100
AcDbCircle
 10
151.947052
 20
185.350006
 30
0.0
 40
0.5
100
AcDbArc
 50
269.999997
 51
360.0
  0
LINE
  5
379
330
1F
100
AcDbEntity
  8
0
 62
     7
100
AcDbLine
 10
151.947052
 20
184.850006
 30
0.0
 11
151.447052
 21
184.850006
 31
0.0
  0
LINE
  5
37A
330
1F
100
AcDbEntity
  8
0
 62
     7
100
AcDbLine
 10
151.447052
 20
184.850006
 30
0.0
 11
151.447052
 21
184.450012
 31
0.0
  0
LINE
  5
37B
330
1F
100
AcDbEntity
  8
0
 62
     7
100
AcDbLine
 10
151.447052
 20
184.450012
 30
0.0
 11
151.947052
 21
184.450012
 31
0.0
  0
ARC
  5
37C
330
1F
100
AcDbEntity
  8
0
 62
     7
100
AcDbCircle
 10
151.947052
 20
183.950012
 30
0.0
 40
0.5
100
AcDbArc
 50
0.0
 51
90.000003
  0
LINE
  5
37D
330
1F
100
AcDbEntity
  8
0
 62
     7
100
AcDbLine
 10
152.447052
 20
183.950012
 30
0.0
 11
152.447052
 21
183.450012
 31
0.0
  0
LINE
  5
37E
330
1F
100
AcDbEntity
  8
0
 62
     7
100
AcDbLine
 10
152.447052
 20
183.450012
 30
0.0
 11
152.847046
 21
183.450012
 31
0.0
  0
LINE
  5
37F
330
1F
100
AcDbEntity
  8
0
 62
     7
100
AcDbLine
 10
152.847046
 20
183.450012
 30
0.0
 11
152.847046
 21
183.950012
 31
0.0
  0
ARC
  5
380
330
1F
100
AcDbEntity
  8
0
 62
     7
100
AcDbCircle
 10
153.347046
 20
183.950012
 30
0.0
 40
0.5
100
AcDbArc
 50
90.000003
 51
180.000009
  0
LINE
  5
381
330
1F
100
AcDbEntity
  8
0
 62
     7
100
AcDbLine
 10
153.347046
 20
184.450012
 30
0.0
 11
153.847046
 21
184.450012
 31
0.0
  0
LINE
  5
382
330
1F
100
AcDbEntity
  8
0
 62
     7
100
AcDbLine
 10
153.847046
 20
184.450012
 30
0.0
 11
153.847046
 21
184.850006
 31
0.0
  0
LINE
  5
383
330
1F
100
AcDbEntity
  8
0
 62
     7
100
AcDbLine
 10
153.847046
 20
184.850006
 30
0.0
 11
153.347046
 21
184.850006
 31
0.0
  0
ARC
  5
384
330
1F
100
AcDbEntity
  8
0
 62
     7
100
AcDbCircle
 10
153.347046
 20
185.350006
 30
0.0
 40
0.5
100
AcDbArc
 50
180.000009
 51
269.999997
  0
LINE
  5
385
330
1F
100
AcDbEntity
  8
0
 62
     7
100
AcDbLine
 10
331.647034
 20
164.799988
 30
0.0
 11
331.647034
 21
167.699982
 31
0.0
  0
LINE
  5
386
330
1F
100
AcDbEntity
  8
0
 62
     7
100
AcDbLine
 10
331.647034
 20
169.0
 30
0.0
 11
331.647034
 21
171.899994
 31
0.0
  0
LINE
  5
387
330
1F
100
AcDbEntity
  8
0
 62
     7
100
AcDbLine
 10
256.647034
 20
188.549988
 30
0.0
 11
329.147034
 21
188.549988
 31
0.0
  0
LINE
  5
388
330
1F
100
AcDbEntity
  8
0
 62
     7
100
AcDbLine
 10
76.147064
 20
188.549988
 30
0.0
 11
148.647064
 21
188.549988
 31
0.0
  0
LINE
  5
389
330
1F
100
AcDbEntity
  8
0
 62
     7
100
AcDbLine
 10
249.647034
 20
188.549988
 30
0.0
 11
255.647034
 21
188.549988
 31
0.0
  0
LINE
  5
38A
330
1F
100
AcDbEntity
  8
0
 62
     7
100
AcDbLine
 10
156.647064
 20
188.549988
 30
0.0
 11
248.647064
 21
188.549988
 31
0.0
  0
LINE
  5
38B
330
1F
100
AcDbEntity
  8
0
 62
     7
100
AcDbLine
 10
149.647064
 20
188.549988
 30
0.0
 11
155.647064
 21
188.549988
 31
0.0
  0
LINE
  5
38C
330
1F
100
AcDbEntity
  8
0
 62
     7
100
AcDbLine
 10
209.047058
 20
157.849884
 30
0.0
 11
209.047058
 21
158.139984
 31
0.0
  0
LINE
  5
38D
330
1F
100
AcDbEntity
  8
0
 62
     7
100
AcDbLine
 10
209.047058
 20
158.139984
 30
0.0
 11
208.847046
 21
158.343231
 31
0.0
  0
LINE
  5
38E
330
1F
100
AcDbEntity
  8
0
 62
     7
100
AcDbLine
 10
208.847046
 20
158.009216
 30
0.0
 11
208.847046
 21
158.343231
 31
0.0
  0
LINE
  5
38F
330
1F
100
AcDbEntity
  8
0
 62
     7
100
AcDbLine
 10
208.847046
 20
158.343231
 30
0.0
 11
207.847046
 21
158.343231
 31
0.0
  0
LINE
  5
390
330
1F
100
AcDbEntity
  8
0
 62
     7
100
AcDbLine
 10
207.847046
 20
158.343231
 30
0.0
 11
207.847046
 21
158.399994
 31
0.0
  0
LINE
  5
391
330
1F
100
AcDbEntity
  8
0
 62
     7
100
AcDbLine
 10
207.24707
 20
158.399994
 30
0.0
 11
207.847046
 21
158.399994
 31
0.0
  0
LINE
  5
392
330
1F
100
AcDbEntity
  8
0
 62
     7
100
AcDbLine
 10
207.24707
 20
158.049927
 30
0.0
 11
207.24707
 21
158.399994
 31
0.0
  0
LINE
  5
393
330
1F
100
AcDbEntity
  8
0
 62
     7
100
AcDbLine
 10
208.847046
 20
158.343231
 30
0.0
 11
207.847046
 21
158.343231
 31
0.0
  0
LINE
  5
394
330
1F
100
AcDbEntity
  8
0
 62
     7
100
AcDbLine
 10
209.047058
 20
158.139984
 30
0.0
 11
208.847046
 21
158.343231
 31
0.0
  0
LINE
  5
395
330
1F
100
AcDbEntity
  8
0
 62
     7
100
AcDbLine
 10
206.947052
 20
158.049988
 30
0.0
 11
206.947052
 21
158.149994
 31
0.0
  0
LINE
  5
396
330
1F
100
AcDbEntity
  8
0
 62
     7
100
AcDbLine
 10
208.647064
 20
158.049988
 30
0.0
 11
206.647064
 21
158.049988
 31
0.0
  0
ARC
  5
397
330
1F
100
AcDbEntity
  8
0
 62
     7
100
AcDbCircle
 10
206.647064
 20
158.549988
 30
0.0
 40
0.5
100
AcDbArc
 50
180.000009
 51
269.999997
  0
LINE
  5
398
330
1F
100
AcDbEntity
  8
0
 62
     7
100
AcDbLine
 10
208.647064
 20
157.549988
 30
0.0
 11
209.00061
 21
157.903534
 31
0.0
  0
ARC
  5
399
330
1F
100
AcDbEntity
  8
0
 62
     7
100
AcDbCircle
 10
208.647064
 20
157.549988
 30
0.0
 40
0.5
100
AcDbArc
 50
0.0
 51
89.999559
  0
LINE
  5
39A
330
1F
100
AcDbEntity
  8
0
 62
     7
100
AcDbLine
 10
209.147064
 20
134.449982
 30
0.0
 11
209.147064
 21
157.549988
 31
0.0
  0
ARC
  5
39B
330
1F
100
AcDbEntity
  8
0
 62
     7
100
AcDbCircle
 10
205.647064
 20
158.549988
 30
0.0
 40
0.5
100
AcDbArc
 50
0.0
 51
90.000003
  0
LINE
  5
39C
330
1F
100
AcDbEntity
  8
0
 62
     7
100
AcDbLine
 10
201.647064
 20
137.25
 30
0.0
 11
83.647064
 21
137.25
 31
0.0
  0
LINE
  5
39D
330
1F
100
AcDbEntity
  8
0
 62
     7
100
AcDbLine
 10
131.796906
 20
152.107971
 30
0.0
 11
130.334534
 21
156.045227
 31
0.0
  0
ARC
  5
39E
330
1F
100
AcDbEntity
  8
0
 62
     7
100
AcDbCircle
 10
131.609436
 20
152.03833
 30
0.0
 40
0.2000000029802322
100
AcDbArc
 50
269.999997
 51
20.376
  0
LINE
  5
39F
330
1F
100
AcDbEntity
  8
0
 62
     7
100
AcDbLine
 10
128.684692
 20
151.838348
 30
0.0
 11
131.609436
 21
151.838348
 31
0.0
  0
ARC
  5
3A0
330
1F
100
AcDbEntity
  8
0
 62
     7
100
AcDbCircle
 10
128.684692
 20
152.03833
 30
0.0
 40
0.2000000029802322
100
AcDbArc
 50
159.624007
 51
269.999997
  0
LINE
  5
3A1
330
1F
100
AcDbEntity
  8
0
 62
     7
100
AcDbLine
 10
129.959564
 20
156.045227
 30
0.0
 11
128.497192
 21
152.107971
 31
0.0
  0
ARC
  5
3A2
330
1F
100
AcDbEntity
  8
0
 62
     7
100
AcDbCircle
 10
130.147064
 20
155.975586
 30
0.0
 40
0.2000000029802322
100
AcDbArc
 50
20.376
 51
159.624007
  0
LINE
  5
3A3
330
1F
100
AcDbEntity
  8
0
 62
     7
100
AcDbLine
 10
208.647064
 20
134.449982
 30
0.0
 11
208.897064
 21
134.199982
 31
0.0
  0
LINE
  5
3A4
330
1F
100
AcDbEntity
  8
0
 62
     7
100
AcDbLine
 10
208.897064
 20
134.199982
 30
0.0
 11
209.147064
 21
134.449982
 31
0.0
  0
LINE
  5
3A5
330
1F
100
AcDbEntity
  8
0
 62
     7
100
AcDbLine
 10
208.647064
 20
133.949982
 30
0.0
 11
208.897064
 21
134.199982
 31
0.0
  0
LINE
  5
3A6
330
1F
100
AcDbEntity
  8
0
 62
     7
100
AcDbLine
 10
186.647064
 20
159.049988
 30
0.0
 11
187.647064
 21
159.049988
 31
0.0
  0
LINE
  5
3A7
330
1F
100
AcDbEntity
  8
0
 62
     7
100
AcDbLine
 10
188.647064
 20
159.049988
 30
0.0
 11
187.647064
 21
159.049988
 31
0.0
  0
LINE
  5
3A8
330
1F
100
AcDbEntity
  8
0
 62
     7
100
AcDbLine
 10
205.647064
 20
159.049988
 30
0.0
 11
188.647064
 21
159.049988
 31
0.0
  0
LINE
  5
3A9
330
1F
100
AcDbEntity
  8
0
 62
     7
100
AcDbLine
 10
76.647064
 20
134.449982
 30
0.0
 11
76.397064
 21
134.199982
 31
0.0
  0
LINE
  5
3AA
330
1F
100
AcDbEntity
  8
0
 62
     7
100
AcDbLine
 10
76.647064
 20
157.549988
 30
0.0
 11
76.29351
 21
157.903534
 31
0.0
  0
ARC
  5
3AB
330
1F
100
AcDbEntity
  8
0
 62
     7
100
AcDbCircle
 10
76.647064
 20
157.549988
 30
0.0
 40
0.5
100
AcDbArc
 50
90.000003
 51
179.999554
  0
LINE
  5
3AC
330
1F
100
AcDbEntity
  8
0
 62
     7
100
AcDbLine
 10
76.147064
 20
157.549988
 30
0.0
 11
76.147064
 21
134.449982
 31
0.0
  0
LINE
  5
3AD
330
1F
100
AcDbEntity
  8
0
 62
     7
100
AcDbLine
 10
76.147064
 20
134.449982
 30
0.0
 11
76.397064
 21
134.199982
 31
0.0
  0
LINE
  5
3AE
330
1F
100
AcDbEntity
  8
0
 62
     7
100
AcDbLine
 10
83.647064
 20
133.949982
 30
0.0
 11
76.647064
 21
133.949982
 31
0.0
  0
LINE
  5
3AF
330
1F
100
AcDbEntity
  8
0
 62
     7
100
AcDbLine
 10
76.397064
 20
134.199982
 30
0.0
 11
76.647064
 21
133.949982
 31
0.0
  0
LINE
  5
3B0
330
1F
100
AcDbEntity
  8
0
 62
     7
100
AcDbLine
 10
84.147064
 20
134.449982
 30
0.0
 11
84.147064
 21
137.25
 31
0.0
  0
LINE
  5
3B1
330
1F
100
AcDbEntity
  8
0
 62
     7
100
AcDbLine
 10
201.147064
 20
134.449982
 30
0.0
 11
201.147064
 21
137.25
 31
0.0
  0
LINE
  5
3B2
330
1F
100
AcDbEntity
  8
0
 62
     7
100
AcDbLine
 10
208.647064
 20
133.949982
 30
0.0
 11
201.647064
 21
133.949982
 31
0.0
  0
LINE
  5
3B3
330
1F
100
AcDbEntity
  8
0
 62
     7
100
AcDbLine
 10
187.647064
 20
158.049988
 30
0.0
 11
173.647064
 21
158.049988
 31
0.0
  0
LINE
  5
3B4
330
1F
100
AcDbEntity
  8
0
 62
     7
100
AcDbLine
 10
173.347046
 20
156.549988
 30
0.0
 11
173.347046
 21
157.75
 31
0.0
  0
ARC
  5
3B5
330
1F
100
AcDbEntity
  8
0
 62
     7
100
AcDbCircle
 10
171.147064
 20
156.549988
 30
0.0
 40
2.200000047683716
100
AcDbArc
 50
180.000009
 51
360.0
  0
LINE
  5
3B6
330
1F
100
AcDbEntity
  8
0
 62
     7
100
AcDbLine
 10
168.947052
 20
157.75
 30
0.0
 11
168.947052
 21
156.549988
 31
0.0
  0
LINE
  5
3B7
330
1F
100
AcDbEntity
  8
0
 62
     7
100
AcDbLine
 10
168.647064
 20
158.049988
 30
0.0
 11
94.647064
 21
158.049988
 31
0.0
  0
LINE
  5
3B8
330
1F
100
AcDbEntity
  8
0
 62
     7
100
AcDbLine
 10
94.347061
 20
156.549988
 30
0.0
 11
94.347061
 21
157.75
 31
0.0
  0
ARC
  5
3B9
330
1F
100
AcDbEntity
  8
0
 62
     7
100
AcDbCircle
 10
92.147064
 20
156.549988
 30
0.0
 40
2.200000047683716
100
AcDbArc
 50
180.000009
 51
360.0
  0
ARC
  5
3BA
330
1F
100
AcDbEntity
  8
0
 62
     7
100
AcDbCircle
 10
95.813126
 20
156.049988
 30
0.0
 40
1.0
100
AcDbArc
 50
90.000003
 51
172.233561
  0
LINE
  5
3BB
330
1F
100
AcDbEntity
  8
0
 62
     7
100
AcDbLine
 10
95.813126
 20
157.049988
 30
0.0
 11
109.147064
 21
157.049988
 31
0.0
  0
ARC
  5
3BC
330
1F
100
AcDbEntity
  8
0
 62
     7
100
AcDbCircle
 10
109.147064
 20
154.049988
 30
0.0
 40
3.0
100
AcDbArc
 50
0.0
 51
90.000003
  0
LINE
  5
3BD
330
1F
100
AcDbEntity
  8
0
 62
     7
100
AcDbLine
 10
112.147064
 20
141.25
 30
0.0
 11
112.147064
 21
154.049988
 31
0.0
  0
ARC
  5
3BE
330
1F
100
AcDbEntity
  8
0
 62
     7
100
AcDbCircle
 10
109.147064
 20
141.25
 30
0.0
 40
3.0
100
AcDbArc
 50
269.999997
 51
360.0
  0
LINE
  5
3BF
330
1F
100
AcDbEntity
  8
0
 62
     7
100
AcDbLine
 10
109.147064
 20
138.25
 30
0.0
 11
95.147064
 21
138.25
 31
0.0
  0
ARC
  5
3C0
330
1F
100
AcDbEntity
  8
0
 62
     7
100
AcDbCircle
 10
95.147064
 20
141.25
 30
0.0
 40
3.0
100
AcDbArc
 50
180.000009
 51
269.999997
  0
LINE
  5
3C1
330
1F
100
AcDbEntity
  8
0
 62
     7
100
AcDbLine
 10
92.147064
 20
152.987701
 30
0.0
 11
92.147064
 21
141.25
 31
0.0
  0
ARC
  5
3C2
330
1F
100
AcDbEntity
  8
0
 62
     7
100
AcDbCircle
 10
93.147064
 20
152.987701
 30
0.0
 40
1.0
100
AcDbArc
 50
105.680348
 51
180.000009
  0
LINE
  5
3C3
330
1F
100
AcDbEntity
  8
0
 62
     7
100
AcDbLine
 10
89.947067
 20
157.75
 30
0.0
 11
89.947067
 21
156.549988
 31
0.0
  0
LINE
  5
3C4
330
1F
100
AcDbEntity
  8
0
 62
     7
100
AcDbLine
 10
89.647064
 20
158.049988
 30
0.0
 11
89.147064
 21
158.049988
 31
0.0
  0
LINE
  5
3C5
330
1F
100
AcDbEntity
  8
0
 62
     7
100
AcDbLine
 10
88.147064
 20
159.049988
 30
0.0
 11
79.647064
 21
159.049988
 31
0.0
  0
LINE
  5
3C6
330
1F
100
AcDbEntity
  8
0
 62
     7
100
AcDbLine
 10
78.647064
 20
158.049988
 30
0.0
 11
76.647064
 21
158.049988
 31
0.0
  0
LINE
  5
3C7
330
1F
100
AcDbEntity
  8
0
 62
     7
100
AcDbLine
 10
151.147064
 20
157.049988
 30
0.0
 11
165.147064
 21
157.049988
 31
0.0
  0
ARC
  5
3C8
330
1F
100
AcDbEntity
  8
0
 62
     7
100
AcDbCircle
 10
165.147064
 20
154.049988
 30
0.0
 40
3.0
100
AcDbArc
 50
0.0
 51
90.000003
  0
LINE
  5
3C9
330
1F
100
AcDbEntity
  8
0
 62
     7
100
AcDbLine
 10
168.147064
 20
141.25
 30
0.0
 11
168.147064
 21
154.049988
 31
0.0
  0
ARC
  5
3CA
330
1F
100
AcDbEntity
  8
0
 62
     7
100
AcDbCircle
 10
165.147064
 20
141.25
 30
0.0
 40
3.0
100
AcDbArc
 50
269.999997
 51
360.0
  0
LINE
  5
3CB
330
1F
100
AcDbEntity
  8
0
 62
     7
100
AcDbLine
 10
165.147064
 20
138.25
 30
0.0
 11
151.147064
 21
138.25
 31
0.0
  0
ARC
  5
3CC
330
1F
100
AcDbEntity
  8
0
 62
     7
100
AcDbCircle
 10
151.147064
 20
141.25
 30
0.0
 40
3.0
100
AcDbArc
 50
180.000009
 51
269.999997
  0
LINE
  5
3CD
330
1F
100
AcDbEntity
  8
0
 62
     7
100
AcDbLine
 10
148.147064
 20
154.049988
 30
0.0
 11
148.147064
 21
141.25
 31
0.0
  0
ARC
  5
3CE
330
1F
100
AcDbEntity
  8
0
 62
     7
100
AcDbCircle
 10
151.147064
 20
154.049988
 30
0.0
 40
3.0
100
AcDbArc
 50
90.000003
 51
180.000009
  0
LINE
  5
3CF
330
1F
100
AcDbEntity
  8
0
 62
     7
100
AcDbLine
 10
89.147064
 20
159.049988
 30
0.0
 11
88.147064
 21
159.049988
 31
0.0
  0
LINE
  5
3D0
330
1F
100
AcDbEntity
  8
0
 62
     7
100
AcDbLine
 10
90.147064
 20
159.049988
 30
0.0
 11
89.147064
 21
159.049988
 31
0.0
  0
LINE
  5
3D1
330
1F
100
AcDbEntity
  8
0
 62
     7
100
AcDbLine
 10
85.397064
 20
136.850006
 30
0.0
 11
85.397064
 21
137.25
 31
0.0
  0
LINE
  5
3D2
330
1F
100
AcDbEntity
  8
0
 62
     7
100
AcDbLine
 10
199.897064
 20
136.850006
 30
0.0
 11
199.897064
 21
137.25
 31
0.0
  0
LINE
  5
3D3
330
1F
100
AcDbEntity
  8
0
 62
     7
100
AcDbLine
 10
99.87027
 20
137.100006
 30
0.0
 11
99.670265
 21
137.100006
 31
0.0
  0
LINE
  5
3D4
330
1F
100
AcDbEntity
  8
0
 62
     7
100
AcDbLine
 10
96.623856
 20
137.100006
 30
0.0
 11
99.670265
 21
137.100006
 31
0.0
  0
LINE
  5
3D5
330
1F
100
AcDbEntity
  8
0
 62
     7
100
AcDbLine
 10
96.623856
 20
137.100006
 30
0.0
 11
96.423859
 21
137.100006
 31
0.0
  0
LINE
  5
3D6
330
1F
100
AcDbEntity
  8
0
 62
     7
100
AcDbLine
 10
185.62384
 20
137.100006
 30
0.0
 11
185.423859
 21
137.100006
 31
0.0
  0
LINE
  5
3D7
330
1F
100
AcDbEntity
  8
0
 62
     7
100
AcDbLine
 10
188.87027
 20
137.100006
 30
0.0
 11
188.670258
 21
137.100006
 31
0.0
  0
LINE
  5
3D8
330
1F
100
AcDbEntity
  8
0
 62
     7
100
AcDbLine
 10
185.62384
 20
137.100006
 30
0.0
 11
188.670258
 21
137.100006
 31
0.0
  0
ARC
  5
3D9
330
1F
100
AcDbEntity
  8
0
 62
     7
100
AcDbCircle
 10
188.647064
 20
158.549988
 30
0.0
 40
0.5
100
AcDbArc
 50
90.000003
 51
180.000009
  0
ARC
  5
3DA
330
1F
100
AcDbEntity
  8
0
 62
     7
100
AcDbCircle
 10
83.647064
 20
134.449982
 30
0.0
 40
0.5
100
AcDbArc
 50
269.999997
 51
360.0
  0
ARC
  5
3DB
330
1F
100
AcDbEntity
  8
0
 62
     7
100
AcDbCircle
 10
201.647064
 20
134.449982
 30
0.0
 40
0.5
100
AcDbArc
 50
180.000009
 51
269.999997
  0
ARC
  5
3DC
330
1F
100
AcDbEntity
  8
0
 62
     7
100
AcDbCircle
 10
187.647064
 20
158.549988
 30
0.0
 40
0.5
100
AcDbArc
 50
269.999997
 51
360.0
  0
LINE
  5
3DD
330
1F
100
AcDbEntity
  8
0
 62
     7
100
AcDbLine
 10
90.047066
 20
158.049988
 30
0.0
 11
89.647064
 21
158.049988
 31
0.0
  0
LINE
  5
3DE
330
1F
100
AcDbEntity
  8
0
 62
     7
100
AcDbLine
 10
90.047066
 20
158.049988
 30
0.0
 11
90.147064
 21
158.049988
 31
0.0
  0
ARC
  5
3DF
330
1F
100
AcDbEntity
  8
0
 62
     7
100
AcDbCircle
 10
173.647064
 20
157.75
 30
0.0
 40
0.300000011920929
100
AcDbArc
 50
90.000003
 51
180.000009
  0
ARC
  5
3E0
330
1F
100
AcDbEntity
  8
0
 62
     7
100
AcDbCircle
 10
168.647064
 20
157.75
 30
0.0
 40
0.300000011920929
100
AcDbArc
 50
0.0
 51
90.000003
  0
ARC
  5
3E1
330
1F
100
AcDbEntity
  8
0
 62
     7
100
AcDbCircle
 10
94.647064
 20
157.75
 30
0.0
 40
0.300000011920929
100
AcDbArc
 50
90.000003
 51
180.000009
  0
ARC
  5
3E2
330
1F
100
AcDbEntity
  8
0
 62
     7
100
AcDbCircle
 10
92.147064
 20
156.549988
 30
0.0
 40
2.700000047683716
100
AcDbArc
 50
285.680336
 51
352.233566
  0
CIRCLE
  5
3E3
330
1F
100
AcDbEntity
  8
0
 62
     7
100
AcDbCircle
 10
102.147064
 20
149.649994
 30
0.0
 40
4.5
  0
ARC
  5
3E4
330
1F
100
AcDbEntity
  8
0
 62
     7
100
AcDbCircle
 10
89.647064
 20
157.75
 30
0.0
 40
0.300000011920929
100
AcDbArc
 50
0.0
 51
90.000003
  0
ARC
  5
3E5
330
1F
100
AcDbEntity
  8
0
 62
     7
100
AcDbCircle
 10
89.147064
 20
158.549988
 30
0.0
 40
0.5
100
AcDbArc
 50
180.000009
 51
269.999997
  0
ARC
  5
3E6
330
1F
100
AcDbEntity
  8
0
 62
     7
100
AcDbCircle
 10
88.147064
 20
158.549988
 30
0.0
 40
0.5
100
AcDbArc
 50
0.0
 51
90.000003
  0
ARC
  5
3E7
330
1F
100
AcDbEntity
  8
0
 62
     7
100
AcDbCircle
 10
79.647064
 20
158.549988
 30
0.0
 40
0.5
100
AcDbArc
 50
90.000003
 51
180.000009
  0
ARC
  5
3E8
330
1F
100
AcDbEntity
  8
0
 62
     7
100
AcDbCircle
 10
78.647064
 20
158.549988
 30
0.0
 40
0.5
100
AcDbArc
 50
269.999997
 51
360.0
  0
CIRCLE
  5
3E9
330
1F
100
AcDbEntity
  8
0
 62
     7
100
AcDbCircle
 10
158.147064
 20
149.649994
 30
0.0
 40
4.5
  0
LINE
  5
3EA
330
1F
100
AcDbEntity
  8
0
 62
     7
100
AcDbLine
 10
78.347061
 20
158.049988
 30
0.0
 11
78.347061
 21
158.149994
 31
0.0
  0
LINE
  5
3EB
330
1F
100
AcDbEntity
  8
0
 62
     7
100
AcDbLine
 10
200.097046
 20
136.850006
 30
0.0
 11
201.097046
 21
136.850006
 31
0.0
  0
LINE
  5
3EC
330
1F
100
AcDbEntity
  8
0
 62
     7
100
AcDbLine
 10
200.097046
 20
136.850006
 30
0.0
 11
188.670258
 21
136.850006
 31
0.0
  0
LINE
  5
3ED
330
1F
100
AcDbEntity
  8
0
 62
     7
100
AcDbLine
 10
185.62384
 20
136.850006
 30
0.0
 11
99.670265
 21
136.850006
 31
0.0
  0
LINE
  5
3EE
330
1F
100
AcDbEntity
  8
0
 62
     7
100
AcDbLine
 10
96.623856
 20
136.850006
 30
0.0
 11
85.197067
 21
136.850006
 31
0.0
  0
LINE
  5
3EF
330
1F
100
AcDbEntity
  8
0
 62
     7
100
AcDbLine
 10
84.197067
 20
136.850006
 30
0.0
 11
85.197067
 21
136.850006
 31
0.0
  0
LINE
  5
3F0
330
1F
100
AcDbEntity
  8
0
 62
     7
100
AcDbLine
 10
200.097046
 20
134.350006
 30
0.0
 11
85.197067
 21
134.350006
 31
0.0
  0
LINE
  5
3F1
330
1F
100
AcDbEntity
  8
0
 62
     7
100
AcDbLine
 10
90.147064
 20
156.549988
 30
0.0
 11
90.147064
 21
158.549988
 31
0.0
  0
LINE
  5
3F2
330
1F
100
AcDbEntity
  8
0
 62
     7
100
AcDbLine
 10
90.147064
 20
159.049988
 30
0.0
 11
90.147064
 21
158.549988
 31
0.0
  0
LINE
  5
3F3
330
1F
100
AcDbEntity
  8
0
 62
     7
100
AcDbLine
 10
90.147064
 20
160.049988
 30
0.0
 11
90.147064
 21
159.049988
 31
0.0
  0
LINE
  5
3F4
330
1F
100
AcDbEntity
  8
0
 62
     7
100
AcDbLine
 10
186.647064
 20
158.049988
 30
0.0
 11
186.647064
 21
158.549988
 31
0.0
  0
LINE
  5
3F5
330
1F
100
AcDbEntity
  8
0
 62
     7
100
AcDbLine
 10
186.647064
 20
159.049988
 30
0.0
 11
186.647064
 21
158.549988
 31
0.0
  0
LINE
  5
3F6
330
1F
100
AcDbEntity
  8
0
 62
     7
100
AcDbLine
 10
186.647064
 20
160.049988
 30
0.0
 11
186.647064
 21
159.049988
 31
0.0
  0
ARC
  5
3F7
330
1F
100
AcDbEntity
  8
0
 62
     7
100
AcDbCircle
 10
92.147064
 20
156.549988
 30
0.0
 40
2.0
100
AcDbArc
 50
180.000009
 51
360.0
  0
LINE
  5
3F8
330
1F
100
AcDbEntity
  8
0
 62
     7
100
AcDbLine
 10
94.147064
 20
156.549988
 30
0.0
 11
94.147064
 21
158.049988
 31
0.0
  0
LINE
  5
3F9
330
1F
100
AcDbEntity
  8
0
 62
     7
100
AcDbLine
 10
94.647064
 20
158.049988
 30
0.0
 11
94.147064
 21
158.049988
 31
0.0
  0
LINE
  5
3FA
330
1F
100
AcDbEntity
  8
0
 62
     7
100
AcDbLine
 10
169.147064
 20
158.049988
 30
0.0
 11
168.647064
 21
158.049988
 31
0.0
  0
LINE
  5
3FB
330
1F
100
AcDbEntity
  8
0
 62
     7
100
AcDbLine
 10
169.147064
 20
156.549988
 30
0.0
 11
169.147064
 21
158.049988
 31
0.0
  0
ARC
  5
3FC
330
1F
100
AcDbEntity
  8
0
 62
     7
100
AcDbCircle
 10
171.147064
 20
156.549988
 30
0.0
 40
2.0
100
AcDbArc
 50
180.000009
 51
360.0
  0
LINE
  5
3FD
330
1F
100
AcDbEntity
  8
0
 62
     7
100
AcDbLine
 10
173.147064
 20
156.549988
 30
0.0
 11
173.147064
 21
158.049988
 31
0.0
  0
LINE
  5
3FE
330
1F
100
AcDbEntity
  8
0
 62
     7
100
AcDbLine
 10
173.647064
 20
158.049988
 30
0.0
 11
173.147064
 21
158.049988
 31
0.0
  0
LINE
  5
3FF
330
1F
100
AcDbEntity
  8
0
 62
     7
100
AcDbLine
 10
84.197067
 20
134.350006
 30
0.0
 11
84.197067
 21
136.850006
 31
0.0
  0
LINE
  5
400
330
1F
100
AcDbEntity
  8
0
 62
     7
100
AcDbLine
 10
201.097046
 20
134.350006
 30
0.0
 11
201.097046
 21
136.850006
 31
0.0
  0
LINE
  5
401
330
1F
100
AcDbEntity
  8
0
 62
     7
100
AcDbLine
 10
200.097046
 20
134.350006
 30
0.0
 11
201.097046
 21
134.350006
 31
0.0
  0
LINE
  5
402
330
1F
100
AcDbEntity
  8
0
 62
     7
100
AcDbLine
 10
84.197067
 20
134.350006
 30
0.0
 11
85.197067
 21
134.350006
 31
0.0
  0
LINE
  5
403
330
1F
100
AcDbEntity
  8
0
 62
     7
100
AcDbLine
 10
186.647064
 20
159.049988
 30
0.0
 11
90.147064
 21
159.049988
 31
0.0
  0
CIRCLE
  5
404
330
1F
100
AcDbEntity
  8
0
 62
     7
100
AcDbCircle
 10
102.147064
 20
149.649994
 30
0.0
 40
4.0
  0
CIRCLE
  5
405
330
1F
100
AcDbEntity
  8
0
 62
     7
100
AcDbCircle
 10
158.147064
 20
149.649994
 30
0.0
 40
4.0
  0
LINE
  5
406
330
1F
100
AcDbEntity
  8
0
 62
     7
100
AcDbLine
 10
78.047066
 20
158.399994
 30
0.0
 11
78.047066
 21
158.049927
 31
0.0
  0
CIRCLE
  5
407
330
1F
100
AcDbEntity
  8
0
 62
     7
100
AcDbCircle
 10
171.147064
 20
156.549988
 30
0.0
 40
1.475000023841858
  0
CIRCLE
  5
408
330
1F
100
AcDbEntity
  8
0
 62
     7
100
AcDbCircle
 10
92.147064
 20
156.549988
 30
0.0
 40
1.475000023841858
  0
LINE
  5
409
330
1F
100
AcDbEntity
  8
0
 62
     7
100
AcDbLine
 10
77.447067
 20
158.399994
 30
0.0
 11
77.447067
 21
158.343231
 31
0.0
  0
LINE
  5
40A
330
1F
100
AcDbEntity
  8
0
 62
     7
100
AcDbLine
 10
76.447067
 20
158.343231
 30
0.0
 11
77.447067
 21
158.343231
 31
0.0
  0
LINE
  5
40B
330
1F
100
AcDbEntity
  8
0
 62
     7
100
AcDbLine
 10
76.447067
 20
158.343231
 30
0.0
 11
76.447067
 21
158.009216
 31
0.0
  0
LINE
  5
40C
330
1F
100
AcDbEntity
  8
0
 62
     7
100
AcDbLine
 10
78.047066
 20
158.399994
 30
0.0
 11
77.447067
 21
158.399994
 31
0.0
  0
LINE
  5
40D
330
1F
100
AcDbEntity
  8
0
 62
     7
100
AcDbLine
 10
76.447067
 20
158.343231
 30
0.0
 11
77.447067
 21
158.343231
 31
0.0
  0
CIRCLE
  5
40E
330
1F
100
AcDbEntity
  8
0
 62
     7
100
AcDbCircle
 10
102.147064
 20
149.649994
 30
0.0
 40
2.549999952316284
  0
CIRCLE
  5
40F
330
1F
100
AcDbEntity
  8
0
 62
     7
100
AcDbCircle
 10
158.147064
 20
149.649994
 30
0.0
 40
2.549999952316284
  0
LINE
  5
410
330
1F
100
AcDbEntity
  8
0
 62
     7
100
AcDbLine
 10
76.247063
 20
158.139984
 30
0.0
 11
76.447067
 21
158.343231
 31
0.0
  0
LINE
  5
411
330
1F
100
AcDbEntity
  8
0
 62
     7
100
AcDbLine
 10
76.247063
 20
158.139984
 30
0.0
 11
76.247063
 21
157.849884
 31
0.0
  0
LINE
  5
412
330
1F
100
AcDbEntity
  8
0
 62
     7
100
AcDbLine
 10
170.947052
 20
157.649994
 30
0.0
 11
171.347046
 21
157.649994
 31
0.0
  0
LINE
  5
413
330
1F
100
AcDbEntity
  8
0
 62
     7
100
AcDbLine
 10
170.947052
 20
157.649994
 30
0.0
 11
170.947052
 21
157.0
 31
0.0
  0
ARC
  5
414
330
1F
100
AcDbEntity
  8
0
 62
     7
100
AcDbCircle
 10
170.697052
 20
157.0
 30
0.0
 40
0.25
100
AcDbArc
 50
269.999997
 51
360.0
  0
LINE
  5
415
330
1F
100
AcDbEntity
  8
0
 62
     7
100
AcDbLine
 10
170.697052
 20
156.75
 30
0.0
 11
170.047058
 21
156.75
 31
0.0
  0
LINE
  5
416
330
1F
100
AcDbEntity
  8
0
 62
     7
100
AcDbLine
 10
170.047058
 20
156.75
 30
0.0
 11
170.047058
 21
156.350006
 31
0.0
  0
LINE
  5
417
330
1F
100
AcDbEntity
  8
0
 62
     7
100
AcDbLine
 10
170.697052
 20
156.350006
 30
0.0
 11
170.047058
 21
156.350006
 31
0.0
  0
ARC
  5
418
330
1F
100
AcDbEntity
  8
0
 62
     7
100
AcDbCircle
 10
170.697052
 20
156.100006
 30
0.0
 40
0.25
100
AcDbArc
 50
0.0
 51
90.000003
  0
LINE
  5
419
330
1F
100
AcDbEntity
  8
0
 62
     7
100
AcDbLine
 10
170.947052
 20
155.449982
 30
0.0
 11
170.947052
 21
156.100006
 31
0.0
  0
LINE
  5
41A
330
1F
100
AcDbEntity
  8
0
 62
     7
100
AcDbLine
 10
170.947052
 20
155.449982
 30
0.0
 11
171.347046
 21
155.449982
 31
0.0
  0
LINE
  5
41B
330
1F
100
AcDbEntity
  8
0
 62
     7
100
AcDbLine
 10
171.347046
 20
155.449982
 30
0.0
 11
171.347046
 21
156.100006
 31
0.0
  0
ARC
  5
41C
330
1F
100
AcDbEntity
  8
0
 62
     7
100
AcDbCircle
 10
171.597046
 20
156.100006
 30
0.0
 40
0.25
100
AcDbArc
 50
90.000003
 51
180.000009
  0
LINE
  5
41D
330
1F
100
AcDbEntity
  8
0
 62
     7
100
AcDbLine
 10
171.597046
 20
156.350006
 30
0.0
 11
172.24704
 21
156.350006
 31
0.0
  0
LINE
  5
41E
330
1F
100
AcDbEntity
  8
0
 62
     7
100
AcDbLine
 10
172.24704
 20
156.75
 30
0.0
 11
172.24704
 21
156.350006
 31
0.0
  0
LINE
  5
41F
330
1F
100
AcDbEntity
  8
0
 62
     7
100
AcDbLine
 10
171.597046
 20
156.75
 30
0.0
 11
172.24704
 21
156.75
 31
0.0
  0
ARC
  5
420
330
1F
100
AcDbEntity
  8
0
 62
     7
100
AcDbCircle
 10
171.597046
 20
157.0
 30
0.0
 40
0.25
100
AcDbArc
 50
180.000009
 51
269.999997
  0
LINE
  5
421
330
1F
100
AcDbEntity
  8
0
 62
     7
100
AcDbLine
 10
171.347046
 20
157.649994
 30
0.0
 11
171.347046
 21
157.0
 31
0.0
  0
LINE
  5
422
330
1F
100
AcDbEntity
  8
0
 62
     7
100
AcDbLine
 10
91.94706
 20
157.649994
 30
0.0
 11
92.347061
 21
157.649994
 31
0.0
  0
LINE
  5
423
330
1F
100
AcDbEntity
  8
0
 62
     7
100
AcDbLine
 10
91.94706
 20
157.649994
 30
0.0
 11
91.94706
 21
157.0
 31
0.0
  0
ARC
  5
424
330
1F
100
AcDbEntity
  8
0
 62
     7
100
AcDbCircle
 10
91.69706
 20
157.0
 30
0.0
 40
0.25
100
AcDbArc
 50
269.999997
 51
360.0
  0
LINE
  5
425
330
1F
100
AcDbEntity
  8
0
 62
     7
100
AcDbLine
 10
91.69706
 20
156.75
 30
0.0
 11
91.047066
 21
156.75
 31
0.0
  0
LINE
  5
426
330
1F
100
AcDbEntity
  8
0
 62
     7
100
AcDbLine
 10
91.047066
 20
156.75
 30
0.0
 11
91.047066
 21
156.350006
 31
0.0
  0
LINE
  5
427
330
1F
100
AcDbEntity
  8
0
 62
     7
100
AcDbLine
 10
91.69706
 20
156.350006
 30
0.0
 11
91.047066
 21
156.350006
 31
0.0
  0
ARC
  5
428
330
1F
100
AcDbEntity
  8
0
 62
     7
100
AcDbCircle
 10
91.69706
 20
156.100006
 30
0.0
 40
0.25
100
AcDbArc
 50
0.0
 51
90.000003
  0
LINE
  5
429
330
1F
100
AcDbEntity
  8
0
 62
     7
100
AcDbLine
 10
91.94706
 20
155.449982
 30
0.0
 11
91.94706
 21
156.100006
 31
0.0
  0
LINE
  5
42A
330
1F
100
AcDbEntity
  8
0
 62
     7
100
AcDbLine
 10
91.94706
 20
155.449982
 30
0.0
 11
92.347061
 21
155.449982
 31
0.0
  0
LINE
  5
42B
330
1F
100
AcDbEntity
  8
0
 62
     7
100
AcDbLine
 10
92.347061
 20
155.449982
 30
0.0
 11
92.347061
 21
156.100006
 31
0.0
  0
ARC
  5
42C
330
1F
100
AcDbEntity
  8
0
 62
     7
100
AcDbCircle
 10
92.597061
 20
156.100006
 30
0.0
 40
0.25
100
AcDbArc
 50
90.000003
 51
180.000009
  0
LINE
  5
42D
330
1F
100
AcDbEntity
  8
0
 62
     7
100
AcDbLine
 10
92.597061
 20
156.350006
 30
0.0
 11
93.247063
 21
156.350006
 31
0.0
  0
LINE
  5
42E
330
1F
100
AcDbEntity
  8
0
 62
     7
100
AcDbLine
 10
93.247063
 20
156.75
 30
0.0
 11
93.247063
 21
156.350006
 31
0.0
  0
LINE
  5
42F
330
1F
100
AcDbEntity
  8
0
 62
     7
100
AcDbLine
 10
92.597061
 20
156.75
 30
0.0
 11
93.247063
 21
156.75
 31
0.0
  0
ARC
  5
430
330
1F
100
AcDbEntity
  8
0
 62
     7
100
AcDbCircle
 10
92.597061
 20
157.0
 30
0.0
 40
0.25
100
AcDbArc
 50
180.000009
 51
269.999997
  0
LINE
  5
431
330
1F
100
AcDbEntity
  8
0
 62
     7
100
AcDbLine
 10
92.347061
 20
157.649994
 30
0.0
 11
92.347061
 21
157.0
 31
0.0
  0
LINE
  5
432
330
1F
100
AcDbEntity
  8
0
 62
     7
100
AcDbLine
 10
320.547028
 20
58.149994
 30
0.0
 11
317.147034
 21
58.149994
 31
0.0
  0
LINE
  5
433
330
1F
100
AcDbEntity
  8
0
 62
     7
100
AcDbLine
 10
317.147034
 20
58.149994
 30
0.0
 11
313.74704
 21
58.149994
 31
0.0
  0
LINE
  5
434
330
1F
100
AcDbEntity
  8
0
 62
     7
100
AcDbLine
 10
237.74707
 20
146.699982
 30
0.0
 11
237.74707
 21
146.549957
 31
0.0
  0
LINE
  5
435
330
1F
100
AcDbEntity
  8
0
 62
     7
100
AcDbLine
 10
239.947052
 20
146.699982
 30
0.0
 11
239.947052
 21
146.549957
 31
0.0
  0
LINE
  5
436
330
1F
100
AcDbEntity
  8
0
 62
     7
100
AcDbLine
 10
242.147064
 20
146.699982
 30
0.0
 11
242.147064
 21
146.549957
 31
0.0
  0
LINE
  5
437
330
1F
100
AcDbEntity
  8
0
 62
     7
100
AcDbLine
 10
237.74707
 20
142.149994
 30
0.0
 11
237.74707
 21
139.014374
 31
0.0
  0
LINE
  5
438
330
1F
100
AcDbEntity
  8
0
 62
     7
100
AcDbLine
 10
237.74707
 20
139.014374
 30
0.0
 11
237.74707
 21
138.4375
 31
0.0
  0
LINE
  5
439
330
1F
100
AcDbEntity
  8
0
 62
     7
100
AcDbLine
 10
238.74707
 20
138.5
 30
0.0
 11
238.74707
 21
139.069244
 31
0.0
  0
LINE
  5
43A
330
1F
100
AcDbEntity
  8
0
 62
     7
100
AcDbLine
 10
238.74707
 20
139.069244
 30
0.0
 11
238.74707
 21
142.149994
 31
0.0
  0
LINE
  5
43B
330
1F
100
AcDbEntity
  8
0
 62
     7
100
AcDbLine
 10
239.947052
 20
142.149994
 30
0.0
 11
239.947052
 21
139.13504
 31
0.0
  0
LINE
  5
43C
330
1F
100
AcDbEntity
  8
0
 62
     7
100
AcDbLine
 10
239.947052
 20
139.13504
 30
0.0
 11
239.947052
 21
138.574982
 31
0.0
  0
LINE
  5
43D
330
1F
100
AcDbEntity
  8
0
 62
     7
100
AcDbLine
 10
240.947052
 20
138.637482
 30
0.0
 11
240.947052
 21
139.189911
 31
0.0
  0
LINE
  5
43E
330
1F
100
AcDbEntity
  8
0
 62
     7
100
AcDbLine
 10
240.947052
 20
139.189911
 30
0.0
 11
240.947052
 21
142.149994
 31
0.0
  0
LINE
  5
43F
330
1F
100
AcDbEntity
  8
0
 62
     7
100
AcDbLine
 10
242.147064
 20
142.149994
 30
0.0
 11
242.147064
 21
139.255707
 31
0.0
  0
LINE
  5
440
330
1F
100
AcDbEntity
  8
0
 62
     7
100
AcDbLine
 10
242.147064
 20
139.255707
 30
0.0
 11
242.147064
 21
138.712494
 31
0.0
  0
LINE
  5
441
330
1F
100
AcDbEntity
  8
0
 62
     7
100
AcDbLine
 10
243.147064
 20
138.774994
 30
0.0
 11
243.147064
 21
139.310577
 31
0.0
  0
LINE
  5
442
330
1F
100
AcDbEntity
  8
0
 62
     7
100
AcDbLine
 10
243.147064
 20
139.310577
 30
0.0
 11
243.147064
 21
142.149994
 31
0.0
  0
LINE
  5
443
330
1F
100
AcDbEntity
  8
0
 62
     7
100
AcDbLine
 10
245.147064
 20
139.420258
 30
0.0
 11
245.147064
 21
138.899994
 31
0.0
  0
LINE
  5
444
330
1F
100
AcDbEntity
  8
0
 62
     7
100
AcDbLine
 10
245.147064
 20
147.399994
 30
0.0
 11
245.147064
 21
139.420258
 31
0.0
  0
LINE
  5
445
330
1F
100
AcDbEntity
  8
0
 62
     7
100
AcDbLine
 10
243.147064
 20
144.149994
 30
0.0
 11
243.147064
 21
147.524994
 31
0.0
  0
LINE
  5
446
330
1F
100
AcDbEntity
  8
0
 62
     7
100
AcDbLine
 10
242.147064
 20
147.587494
 30
0.0
 11
242.147064
 21
144.149994
 31
0.0
  0
LINE
  5
447
330
1F
100
AcDbEntity
  8
0
 62
     7
100
AcDbLine
 10
240.947052
 20
144.149994
 30
0.0
 11
240.947052
 21
147.662506
 31
0.0
  0
LINE
  5
448
330
1F
100
AcDbEntity
  8
0
 62
     7
100
AcDbLine
 10
239.947052
 20
147.725006
 30
0.0
 11
239.947052
 21
144.149994
 31
0.0
  0
LINE
  5
449
330
1F
100
AcDbEntity
  8
0
 62
     7
100
AcDbLine
 10
238.74707
 20
144.149994
 30
0.0
 11
238.74707
 21
147.799988
 31
0.0
  0
LINE
  5
44A
330
1F
100
AcDbEntity
  8
0
 62
     7
100
AcDbLine
 10
237.74707
 20
147.862488
 30
0.0
 11
237.74707
 21
144.149994
 31
0.0
  0
LINE
  5
44B
330
1F
100
AcDbEntity
  8
0
 62
     7
100
AcDbLine
 10
238.74707
 20
142.149994
 30
0.0
 11
237.74707
 21
142.149994
 31
0.0
  0
LINE
  5
44C
330
1F
100
AcDbEntity
  8
0
 62
     7
100
AcDbLine
 10
238.74707
 20
144.149994
 30
0.0
 11
237.74707
 21
144.149994
 31
0.0
  0
LINE
  5
44D
330
1F
100
AcDbEntity
  8
0
 62
     7
100
AcDbLine
 10
240.947052
 20
144.149994
 30
0.0
 11
239.947052
 21
144.149994
 31
0.0
  0
LINE
  5
44E
330
1F
100
AcDbEntity
  8
0
 62
     7
100
AcDbLine
 10
243.147064
 20
144.149994
 30
0.0
 11
242.147064
 21
144.149994
 31
0.0
  0
LINE
  5
44F
330
1F
100
AcDbEntity
  8
0
 62
     7
100
AcDbLine
 10
243.147064
 20
142.149994
 30
0.0
 11
242.147064
 21
142.149994
 31
0.0
  0
LINE
  5
450
330
1F
100
AcDbEntity
  8
0
 62
     7
100
AcDbLine
 10
240.947052
 20
142.149994
 30
0.0
 11
239.947052
 21
142.149994
 31
0.0
  0
LINE
  5
451
330
1F
100
AcDbEntity
  8
0
 62
     7
100
AcDbLine
 10
233.147064
 20
148.149994
 30
0.0
 11
233.147064
 21
138.762085
 31
0.0
  0
LINE
  5
452
330
1F
100
AcDbEntity
  8
0
 62
     7
100
AcDbLine
 10
233.147064
 20
138.762085
 30
0.0
 11
233.147064
 21
138.149994
 31
0.0
  0
LINE
  5
453
330
1F
100
AcDbEntity
  8
0
 62
     7
100
AcDbLine
 10
232.147064
 20
148.449982
 30
0.0
 11
232.147064
 21
138.49881
 31
0.0
  0
LINE
  5
454
330
1F
100
AcDbEntity
  8
0
 62
     7
100
AcDbLine
 10
232.147064
 20
138.49881
 30
0.0
 11
232.147064
 21
137.850006
 31
0.0
  0
LINE
  5
455
330
1F
100
AcDbEntity
  8
0
 62
     7
100
AcDbLine
 10
227.147064
 20
145.978607
 30
0.0
 11
227.147064
 21
137.25
 31
0.0
  0
LINE
  5
456
330
1F
100
AcDbEntity
  8
0
 62
     7
100
AcDbLine
 10
227.147064
 20
149.049988
 30
0.0
 11
227.147064
 21
145.978607
 31
0.0
  0
LINE
  5
457
330
1F
100
AcDbEntity
  8
0
 62
     7
100
AcDbLine
 10
226.915894
 20
146.17038
 30
0.0
 11
226.915894
 21
145.070923
 31
0.0
  0
ARC
  5
458
330
1F
100
AcDbEntity
  8
0
 62
     7
100
AcDbCircle
 10
216.589569
 20
143.149994
 30
0.0
 40
10.50419235229492
100
AcDbArc
 50
349.462094
 51
10.537886
  0
LINE
  5
459
330
1F
100
AcDbEntity
  8
0
 62
     7
100
AcDbLine
 10
226.915894
 20
141.229065
 30
0.0
 11
226.915894
 21
138.914307
 31
0.0
  0
ARC
  5
45A
330
1F
100
AcDbEntity
  8
0
 62
     7
100
AcDbCircle
 10
224.401459
 20
137.953827
 30
0.0
 40
2.691781044006348
100
AcDbArc
 50
339.093949
 51
20.906017
  0
LINE
  5
45B
330
1F
100
AcDbEntity
  8
0
 62
     7
100
AcDbLine
 10
226.915894
 20
136.993378
 30
0.0
 11
226.915894
 21
136.850006
 31
0.0
  0
LINE
  5
45C
330
1F
100
AcDbEntity
  8
0
 62
     7
100
AcDbLine
 10
226.915894
 20
149.449982
 30
0.0
 11
226.915894
 21
149.30661
 31
0.0
  0
ARC
  5
45D
330
1F
100
AcDbEntity
  8
0
 62
     7
100
AcDbCircle
 10
224.401459
 20
148.346161
 30
0.0
 40
2.691781044006348
100
AcDbArc
 50
339.093949
 51
20.906017
  0
LINE
  5
45E
330
1F
100
AcDbEntity
  8
0
 62
     7
100
AcDbLine
 10
226.915894
 20
146.17038
 30
0.0
 11
226.915894
 21
147.385681
 31
0.0
  0
LINE
  5
45F
330
1F
100
AcDbEntity
  8
0
 62
     7
100
AcDbLine
 10
226.915894
 20
147.385681
 30
0.0
 11
220.147064
 21
147.385681
 31
0.0
  0
LINE
  5
460
330
1F
100
AcDbEntity
  8
0
 62
     7
100
AcDbLine
 10
220.147064
 20
147.385681
 30
0.0
 11
220.147064
 21
145.070923
 31
0.0
  0
LINE
  5
461
330
1F
100
AcDbEntity
  8
0
 62
     7
100
AcDbLine
 10
226.915894
 20
145.070923
 30
0.0
 11
220.147064
 21
145.070923
 31
0.0
  0
LINE
  5
462
330
1F
100
AcDbEntity
  8
0
 62
     7
100
AcDbLine
 10
220.147064
 20
141.229065
 30
0.0
 11
226.915894
 21
141.229065
 31
0.0
  0
LINE
  5
463
330
1F
100
AcDbEntity
  8
0
 62
     7
100
AcDbLine
 10
220.147064
 20
141.229065
 30
0.0
 11
220.147064
 21
138.914307
 31
0.0
  0
LINE
  5
464
330
1F
100
AcDbEntity
  8
0
 62
     7
100
AcDbLine
 10
226.915894
 20
138.914307
 30
0.0
 11
220.147064
 21
138.914307
 31
0.0
  0
LINE
  5
465
330
1F
100
AcDbEntity
  8
0
 62
     7
100
AcDbLine
 10
220.147064
 20
136.993378
 30
0.0
 11
226.915894
 21
136.993378
 31
0.0
  0
LINE
  5
466
330
1F
100
AcDbEntity
  8
0
 62
     7
100
AcDbLine
 10
220.147064
 20
136.993378
 30
0.0
 11
220.147064
 21
136.850006
 31
0.0
  0
LINE
  5
467
330
1F
100
AcDbEntity
  8
0
 62
     7
100
AcDbLine
 10
220.147064
 20
149.449982
 30
0.0
 11
220.147064
 21
149.30661
 31
0.0
  0
LINE
  5
468
330
1F
100
AcDbEntity
  8
0
 62
     7
100
AcDbLine
 10
226.915894
 20
149.30661
 30
0.0
 11
220.147064
 21
149.30661
 31
0.0
  0
LINE
  5
469
330
1F
100
AcDbEntity
  8
0
 62
     7
100
AcDbLine
 10
219.647064
 20
147.752411
 30
0.0
 11
219.647064
 21
145.183929
 31
0.0
  0
LINE
  5
46A
330
1F
100
AcDbEntity
  8
0
 62
     7
100
AcDbLine
 10
220.147064
 20
144.780548
 30
0.0
 11
219.647064
 21
145.183929
 31
0.0
  0
LINE
  5
46B
330
1F
100
AcDbEntity
  8
0
 62
     7
100
AcDbLine
 10
220.147064
 20
144.780548
 30
0.0
 11
220.147064
 21
145.070923
 31
0.0
  0
LINE
  5
46C
330
1F
100
AcDbEntity
  8
0
 62
     7
100
AcDbLine
 10
220.147064
 20
147.385681
 30
0.0
 11
220.147064
 21
147.604767
 31
0.0
  0
LINE
  5
46D
330
1F
100
AcDbEntity
  8
0
 62
     7
100
AcDbLine
 10
220.147064
 20
147.604767
 30
0.0
 11
219.647064
 21
147.752411
 31
0.0
  0
LINE
  5
46E
330
1F
100
AcDbEntity
  8
0
 62
     7
100
AcDbLine
 10
220.147064
 20
141.51944
 30
0.0
 11
220.147064
 21
144.780548
 31
0.0
  0
LINE
  5
46F
330
1F
100
AcDbEntity
  8
0
 62
     7
100
AcDbLine
 10
220.147064
 20
141.229065
 30
0.0
 11
220.147064
 21
141.51944
 31
0.0
  0
LINE
  5
470
330
1F
100
AcDbEntity
  8
0
 62
     7
100
AcDbLine
 10
220.147064
 20
141.51944
 30
0.0
 11
219.647064
 21
141.116058
 31
0.0
  0
LINE
  5
471
330
1F
100
AcDbEntity
  8
0
 62
     7
100
AcDbLine
 10
219.647064
 20
141.116058
 30
0.0
 11
219.647064
 21
138.547577
 31
0.0
  0
LINE
  5
472
330
1F
100
AcDbEntity
  8
0
 62
     7
100
AcDbLine
 10
220.147064
 20
138.695221
 30
0.0
 11
219.647064
 21
138.547577
 31
0.0
  0
LINE
  5
473
330
1F
100
AcDbEntity
  8
0
 62
     7
100
AcDbLine
 10
220.147064
 20
138.695221
 30
0.0
 11
220.147064
 21
138.914307
 31
0.0
  0
LINE
  5
474
330
1F
100
AcDbEntity
  8
0
 62
     7
100
AcDbLine
 10
220.147064
 20
137.064667
 30
0.0
 11
220.147064
 21
138.695221
 31
0.0
  0
LINE
  5
475
330
1F
100
AcDbEntity
  8
0
 62
     7
100
AcDbLine
 10
220.147064
 20
136.993378
 30
0.0
 11
220.147064
 21
137.064667
 31
0.0
  0
ARC
  5
476
330
1F
100
AcDbEntity
  8
0
 62
     7
100
AcDbCircle
 10
171.836304
 20
180.4039
 30
0.0
 40
64.901611328125
100
AcDbArc
 50
317.448096
 51
318.104941
  0
LINE
  5
477
330
1F
100
AcDbEntity
  8
0
 62
     7
100
AcDbLine
 10
219.647064
 20
136.513672
 30
0.0
 11
219.647064
 21
136.350006
 31
0.0
  0
LINE
  5
478
330
1F
100
AcDbEntity
  8
0
 62
     7
100
AcDbLine
 10
220.147064
 20
149.235321
 30
0.0
 11
220.147064
 21
149.30661
 31
0.0
  0
LINE
  5
479
330
1F
100
AcDbEntity
  8
0
 62
     7
100
AcDbLine
 10
219.647064
 20
149.949982
 30
0.0
 11
219.647064
 21
149.786316
 31
0.0
  0
ARC
  5
47A
330
1F
100
AcDbEntity
  8
0
 62
     7
100
AcDbCircle
 10
171.836304
 20
105.896088
 30
0.0
 40
64.901611328125
100
AcDbArc
 50
41.895052
 51
42.551911
  0
LINE
  5
47B
330
1F
100
AcDbEntity
  8
0
 62
     7
100
AcDbLine
 10
220.147064
 20
147.604767
 30
0.0
 11
220.147064
 21
149.235321
 31
0.0
  0
LINE
  5
47C
330
1F
100
AcDbEntity
  8
0
 62
     7
100
AcDbLine
 10
210.647064
 20
147.752411
 30
0.0
 11
210.647064
 21
145.183929
 31
0.0
  0
LINE
  5
47D
330
1F
100
AcDbEntity
  8
0
 62
     7
100
AcDbLine
 10
219.647064
 20
145.183929
 30
0.0
 11
210.647064
 21
145.183929
 31
0.0
  0
LINE
  5
47E
330
1F
100
AcDbEntity
  8
0
 62
     7
100
AcDbLine
 10
219.647064
 20
147.752411
 30
0.0
 11
210.647064
 21
147.752411
 31
0.0
  0
LINE
  5
47F
330
1F
100
AcDbEntity
  8
0
 62
     7
100
AcDbLine
 10
210.147064
 20
144.780548
 30
0.0
 11
210.647064
 21
145.183929
 31
0.0
  0
LINE
  5
480
330
1F
100
AcDbEntity
  8
0
 62
     7
100
AcDbLine
 10
220.147064
 20
144.780548
 30
0.0
 11
210.147064
 21
144.780548
 31
0.0
  0
LINE
  5
481
330
1F
100
AcDbEntity
  8
0
 62
     7
100
AcDbLine
 10
210.147064
 20
147.604767
 30
0.0
 11
210.647064
 21
147.752411
 31
0.0
  0
LINE
  5
482
330
1F
100
AcDbEntity
  8
0
 62
     7
100
AcDbLine
 10
220.147064
 20
149.235321
 30
0.0
 11
210.147064
 21
149.235321
 31
0.0
  0
LINE
  5
483
330
1F
100
AcDbEntity
  8
0
 62
     7
100
AcDbLine
 10
210.147064
 20
149.449982
 30
0.0
 11
210.147064
 21
149.235321
 31
0.0
  0
LINE
  5
484
330
1F
100
AcDbEntity
  8
0
 62
     7
100
AcDbLine
 10
210.147064
 20
137.064667
 30
0.0
 11
210.147064
 21
136.850006
 31
0.0
  0
LINE
  5
485
330
1F
100
AcDbEntity
  8
0
 62
     7
100
AcDbLine
 10
220.147064
 20
137.064667
 30
0.0
 11
210.147064
 21
137.064667
 31
0.0
  0
LINE
  5
486
330
1F
100
AcDbEntity
  8
0
 62
     7
100
AcDbLine
 10
210.147064
 20
141.51944
 30
0.0
 11
210.147064
 21
138.695221
 31
0.0
  0
LINE
  5
487
330
1F
100
AcDbEntity
  8
0
 62
     7
100
AcDbLine
 10
220.147064
 20
141.51944
 30
0.0
 11
210.147064
 21
141.51944
 31
0.0
  0
LINE
  5
488
330
1F
100
AcDbEntity
  8
0
 62
     7
100
AcDbLine
 10
210.147064
 20
147.604767
 30
0.0
 11
210.147064
 21
144.780548
 31
0.0
  0
LINE
  5
489
330
1F
100
AcDbEntity
  8
0
 62
     7
100
AcDbLine
 10
210.147064
 20
141.51944
 30
0.0
 11
210.647064
 21
141.116058
 31
0.0
  0
LINE
  5
48A
330
1F
100
AcDbEntity
  8
0
 62
     7
100
AcDbLine
 10
219.647064
 20
141.116058
 30
0.0
 11
210.647064
 21
141.116058
 31
0.0
  0
LINE
  5
48B
330
1F
100
AcDbEntity
  8
0
 62
     7
100
AcDbLine
 10
210.647064
 20
141.116058
 30
0.0
 11
210.647064
 21
138.547577
 31
0.0
  0
LINE
  5
48C
330
1F
100
AcDbEntity
  8
0
 62
     7
100
AcDbLine
 10
219.647064
 20
138.547577
 30
0.0
 11
210.647064
 21
138.547577
 31
0.0
  0
LINE
  5
48D
330
1F
100
AcDbEntity
  8
0
 62
     7
100
AcDbLine
 10
210.147064
 20
138.695221
 30
0.0
 11
210.647064
 21
138.547577
 31
0.0
  0
ARC
  5
48E
330
1F
100
AcDbEntity
  8
0
 62
     7
100
AcDbCircle
 10
258.457794
 20
180.4039
 30
0.0
 40
64.901611328125
100
AcDbArc
 50
221.89505
 51
222.55191
  0
LINE
  5
48F
330
1F
100
AcDbEntity
  8
0
 62
     7
100
AcDbLine
 10
219.647064
 20
136.513672
 30
0.0
 11
210.647064
 21
136.513672
 31
0.0
  0
LINE
  5
490
330
1F
100
AcDbEntity
  8
0
 62
     7
100
AcDbLine
 10
210.647064
 20
136.513672
 30
0.0
 11
210.647064
 21
136.350006
 31
0.0
  0
LINE
  5
491
330
1F
100
AcDbEntity
  8
0
 62
     7
100
AcDbLine
 10
210.647064
 20
149.949982
 30
0.0
 11
210.647064
 21
149.786316
 31
0.0
  0
LINE
  5
492
330
1F
100
AcDbEntity
  8
0
 62
     7
100
AcDbLine
 10
219.647064
 20
149.786316
 30
0.0
 11
210.647064
 21
149.786316
 31
0.0
  0
ARC
  5
493
330
1F
100
AcDbEntity
  8
0
 62
     7
100
AcDbCircle
 10
258.457794
 20
105.896088
 30
0.0
 40
64.901611328125
100
AcDbArc
 50
137.44809
 51
138.10495
  0
LINE
  5
494
330
1F
100
AcDbEntity
  8
0
 62
     7
100
AcDbLine
 10
206.947052
 20
158.149994
 30
0.0
 11
207.24707
 21
158.149994
 31
0.0
  0
LINE
  5
495
330
1F
100
AcDbEntity
  8
0
 62
     7
100
AcDbLine
 10
99.783669
 20
137.25
 30
0.0
 11
99.87027
 21
137.100006
 31
0.0
  0
LINE
  5
496
330
1F
100
AcDbEntity
  8
0
 62
     7
100
AcDbLine
 10
96.51046
 20
137.25
 30
0.0
 11
96.423859
 21
137.100006
 31
0.0
  0
LINE
  5
497
330
1F
100
AcDbEntity
  8
0
 62
     7
100
AcDbLine
 10
185.510437
 20
137.25
 30
0.0
 11
185.423859
 21
137.100006
 31
0.0
  0
LINE
  5
498
330
1F
100
AcDbEntity
  8
0
 62
     7
100
AcDbLine
 10
188.783661
 20
137.25
 30
0.0
 11
188.87027
 21
137.100006
 31
0.0
  0
LINE
  5
499
330
1F
100
AcDbEntity
  8
0
 62
     7
100
AcDbLine
 10
188.595825
 20
157.575623
 30
0.0
 11
188.621429
 21
157.601227
 31
0.0
  0
POLYLINE
  5
49A
330
1F
100
AcDbEntity
  8
0
 62
     7
100
AcDb2dPolyline
 66
     1
 10
0.0
 20
0.0
 30
0.0
  0
VERTEX
  5
49B
330
49A
100
AcDbEntity
  8
0
100
AcDbVertex
100
AcDb2dVertex
 10
173.833893
 20
157.582916
 30
0.0
  0
VERTEX
  5
49C
330
49A
100
AcDbEntity
  8
0
100
AcDbVertex
100
AcDb2dVertex
 10
173.837097
 20
157.57312
 30
0.0
  0
VERTEX
  5
49D
330
49A
100
AcDbEntity
  8
0
100
AcDbVertex
100
AcDb2dVertex
 10
173.844208
 20
157.556976
 30
0.0
  0
VERTEX
  5
49E
330
49A
100
AcDbEntity
  8
0
100
AcDbVertex
100
AcDb2dVertex
 10
173.847473
 20
157.550507
 30
0.0
  0
VERTEX
  5
49F
330
49A
100
AcDbEntity
  8
0
100
AcDbVertex
100
AcDb2dVertex
 10
173.848145
 20
157.549042
 30
0.0
  0
VERTEX
  5
4A0
330
49A
100
AcDbEntity
  8
0
100
AcDbVertex
100
AcDb2dVertex
 10
173.830994
 20
157.570526
 30
0.0
  0
VERTEX
  5
4A1
330
49A
100
AcDbEntity
  8
0
100
AcDbVertex
100
AcDb2dVertex
 10
173.827484
 20
157.575684
 30
0.0
  0
VERTEX
  5
4A2
330
49A
100
AcDbEntity
  8
0
100
AcDbVertex
100
AcDb2dVertex
 10
173.829285
 20
157.574432
 30
0.0
  0
VERTEX
  5
4A3
330
49A
100
AcDbEntity
  8
0
100
AcDbVertex
100
AcDb2dVertex
 10
173.838043
 20
157.564178
 30
0.0
  0
VERTEX
  5
4A4
330
49A
100
AcDbEntity
  8
0
100
AcDbVertex
100
AcDb2dVertex
 10
173.846619
 20
157.552368
 30
0.0
  0
VERTEX
  5
4A5
330
49A
100
AcDbEntity
  8
0
100
AcDbVertex
100
AcDb2dVertex
 10
173.847382
 20
157.55072
 30
0.0
  0
VERTEX
  5
4A6
330
49A
100
AcDbEntity
  8
0
100
AcDbVertex
100
AcDb2dVertex
 10
173.84729
 20
157.54953
 30
0.0
  0
VERTEX
  5
4A7
330
49A
100
AcDbEntity
  8
0
100
AcDbVertex
100
AcDb2dVertex
 10
173.844696
 20
157.550446
 30
0.0
  0
VERTEX
  5
4A8
330
49A
100
AcDbEntity
  8
0
100
AcDbVertex
100
AcDb2dVertex
 10
173.832855
 20
157.55899
 30
0.0
  0
VERTEX
  5
4A9
330
49A
100
AcDbEntity
  8
0
100
AcDbVertex
100
AcDb2dVertex
 10
173.822601
 20
157.567749
 30
0.0
  0
VERTEX
  5
4AA
330
49A
100
AcDbEntity
  8
0
100
AcDbVertex
100
AcDb2dVertex
 10
173.820984
 20
157.569366
 30
0.0
  0
VERTEX
  5
4AB
330
49A
100
AcDbEntity
  8
0
100
AcDbVertex
100
AcDb2dVertex
 10
173.826508
 20
157.56604
 30
0.0
  0
VERTEX
  5
4AC
330
49A
100
AcDbEntity
  8
0
100
AcDbVertex
100
AcDb2dVertex
 10
173.847534
 20
157.549713
 30
0.0
  0
VERTEX
  5
4AD
330
49A
100
AcDbEntity
  8
0
100
AcDbVertex
100
AcDb2dVertex
 10
173.848236
 20
157.54892
 30
0.0
  0
VERTEX
  5
4AE
330
49A
100
AcDbEntity
  8
0
100
AcDbVertex
100
AcDb2dVertex
 10
173.846527
 20
157.549561
 30
0.0
  0
VERTEX
  5
4AF
330
49A
100
AcDbEntity
  8
0
100
AcDbVertex
100
AcDb2dVertex
 10
173.840057
 20
157.552826
 30
0.0
  0
VERTEX
  5
4B0
330
49A
100
AcDbEntity
  8
0
100
AcDbVertex
100
AcDb2dVertex
 10
173.823914
 20
157.559967
 30
0.0
  0
VERTEX
  5
4B1
330
49A
100
AcDbEntity
  8
0
100
AcDbVertex
100
AcDb2dVertex
 10
173.814148
 20
157.563171
 30
0.0
  0
SEQEND
  5
4B2
330
49A
100
AcDbEntity
  8
0
 62
     7
  0
POLYLINE
  5
4B3
330
1F
100
AcDbEntity
  8
0
 62
     7
100
AcDb2dPolyline
 66
     1
 10
0.0
 20
0.0
 30
0.0
  0
VERTEX
  5
4B4
330
4B3
100
AcDbEntity
  8
0
100
AcDbVertex
100
AcDb2dVertex
 10
94.833893
 20
157.582916
 30
0.0
  0
VERTEX
  5
4B5
330
4B3
100
AcDbEntity
  8
0
100
AcDbVertex
100
AcDb2dVertex
 10
94.837097
 20
157.57312
 30
0.0
  0
VERTEX
  5
4B6
330
4B3
100
AcDbEntity
  8
0
100
AcDbVertex
100
AcDb2dVertex
 10
94.844215
 20
157.556976
 30
0.0
  0
VERTEX
  5
4B7
330
4B3
100
AcDbEntity
  8
0
100
AcDbVertex
100
AcDb2dVertex
 10
94.847496
 20
157.550507
 30
0.0
  0
VERTEX
  5
4B8
330
4B3
100
AcDbEntity
  8
0
100
AcDbVertex
100
AcDb2dVertex
 10
94.848137
 20
157.549042
 30
0.0
  0
VERTEX
  5
4B9
330
4B3
100
AcDbEntity
  8
0
100
AcDbVertex
100
AcDb2dVertex
 10
94.831009
 20
157.570526
 30
0.0
  0
VERTEX
  5
4BA
330
4B3
100
AcDbEntity
  8
0
100
AcDbVertex
100
AcDb2dVertex
 10
94.827484
 20
157.575684
 30
0.0
  0
VERTEX
  5
4BB
330
4B3
100
AcDbEntity
  8
0
100
AcDbVertex
100
AcDb2dVertex
 10
94.829308
 20
157.574432
 30
0.0
  0
VERTEX
  5
4BC
330
4B3
100
AcDbEntity
  8
0
100
AcDbVertex
100
AcDb2dVertex
 10
94.838051
 20
157.564178
 30
0.0
  0
VERTEX
  5
4BD
330
4B3
100
AcDbEntity
  8
0
100
AcDbVertex
100
AcDb2dVertex
 10
94.846619
 20
157.552368
 30
0.0
  0
VERTEX
  5
4BE
330
4B3
100
AcDbEntity
  8
0
100
AcDbVertex
100
AcDb2dVertex
 10
94.847397
 20
157.55072
 30
0.0
  0
VERTEX
  5
4BF
330
4B3
100
AcDbEntity
  8
0
100
AcDbVertex
100
AcDb2dVertex
 10
94.847313
 20
157.54953
 30
0.0
  0
VERTEX
  5
4C0
330
4B3
100
AcDbEntity
  8
0
100
AcDbVertex
100
AcDb2dVertex
 10
94.844704
 20
157.550446
 30
0.0
  0
VERTEX
  5
4C1
330
4B3
100
AcDbEntity
  8
0
100
AcDbVertex
100
AcDb2dVertex
 10
94.832878
 20
157.55899
 30
0.0
  0
VERTEX
  5
4C2
330
4B3
100
AcDbEntity
  8
0
100
AcDbVertex
100
AcDb2dVertex
 10
94.822624
 20
157.567749
 30
0.0
  0
VERTEX
  5
4C3
330
4B3
100
AcDbEntity
  8
0
100
AcDbVertex
100
AcDb2dVertex
 10
94.820999
 20
157.569366
 30
0.0
  0
VERTEX
  5
4C4
330
4B3
100
AcDbEntity
  8
0
100
AcDbVertex
100
AcDb2dVertex
 10
94.826515
 20
157.56604
 30
0.0
  0
VERTEX
  5
4C5
330
4B3
100
AcDbEntity
  8
0
100
AcDbVertex
100
AcDb2dVertex
 10
94.847549
 20
157.549713
 30
0.0
  0
VERTEX
  5
4C6
330
4B3
100
AcDbEntity
  8
0
100
AcDbVertex
100
AcDb2dVertex
 10
94.848236
 20
157.54892
 30
0.0
  0
VERTEX
  5
4C7
330
4B3
100
AcDbEntity
  8
0
100
AcDbVertex
100
AcDb2dVertex
 10
94.846542
 20
157.549561
 30
0.0
  0
VERTEX
  5
4C8
330
4B3
100
AcDbEntity
  8
0
100
AcDbVertex
100
AcDb2dVertex
 10
94.840065
 20
157.552826
 30
0.0
  0
VERTEX
  5
4C9
330
4B3
100
AcDbEntity
  8
0
100
AcDbVertex
100
AcDb2dVertex
 10
94.823921
 20
157.559967
 30
0.0
  0
VERTEX
  5
4CA
330
4B3
100
AcDbEntity
  8
0
100
AcDbVertex
100
AcDb2dVertex
 10
94.814148
 20
157.563171
 30
0.0
  0
SEQEND
  5
4CB
330
4B3
100
AcDbEntity
  8
0
 62
     7
  0
LINE
  5
4CC
330
1F
100
AcDbEntity
  8
0
 62
     7
100
AcDbLine
 10
79.595825
 20
157.575623
 30
0.0
 11
79.621445
 21
157.601227
 31
0.0
  0
LINE
  5
4CD
330
1F
100
AcDbEntity
  8
0
 62
     7
100
AcDbLine
 10
99.87027
 20
136.850006
 30
0.0
 11
99.87027
 21
137.100006
 31
0.0
  0
LINE
  5
4CE
330
1F
100
AcDbEntity
  8
0
 62
     7
100
AcDbLine
 10
96.423859
 20
136.850006
 30
0.0
 11
96.423859
 21
137.100006
 31
0.0
  0
LINE
  5
4CF
330
1F
100
AcDbEntity
  8
0
 62
     7
100
AcDbLine
 10
185.423859
 20
137.100006
 30
0.0
 11
185.423859
 21
136.850006
 31
0.0
  0
LINE
  5
4D0
330
1F
100
AcDbEntity
  8
0
 62
     7
100
AcDbLine
 10
188.87027
 20
137.100006
 30
0.0
 11
188.87027
 21
136.850006
 31
0.0
  0
LINE
  5
4D1
330
1F
100
AcDbEntity
  8
0
 62
     7
100
AcDbLine
 10
78.047066
 20
158.149994
 30
0.0
 11
78.347061
 21
158.149994
 31
0.0
  0
ARC
  5
4D2
330
1F
100
AcDbEntity
  8
0
 62
     7
100
AcDbCircle
 10
242.147064
 20
68.149986
 30
0.0
 40
78.4000015258789
100
AcDbArc
 50
0.000002
 51
87.807034
  0
ARC
  5
4D3
330
1F
100
AcDbEntity
  8
0
 62
     7
100
AcDbCircle
 10
242.147003
 20
68.153824
 30
0.0
 40
78.39616394042969
100
AcDbArc
 50
89.269111
 51
89.999968
  0
ARC
  5
4D4
330
1F
100
AcDbEntity
  8
0
 62
     7
100
AcDbCircle
 10
242.147064
 20
68.149986
 30
0.0
 40
71.5999984741211
100
AcDbArc
 50
0.000002
 51
87.598651
  0
ARC
  5
4D5
330
1F
100
AcDbEntity
  8
0
 62
     7
100
AcDbCircle
 10
242.147003
 20
68.152191
 30
0.0
 40
71.59779357910156
100
AcDbArc
 50
89.199702
 51
89.999962
  0
LINE
  5
4D6
330
1F
100
AcDbEntity
  8
0
 62
     7
100
AcDbLine
 10
240.947052
 20
146.549988
 30
0.0
 11
239.947052
 21
146.549988
 31
0.0
  0
LINE
  5
4D7
330
1F
100
AcDbEntity
  8
0
 62
     7
100
AcDbLine
 10
238.74704
 20
146.549988
 30
0.0
 11
237.74704
 21
146.549988
 31
0.0
  0
LINE
  5
4D8
330
1F
100
AcDbEntity
  8
0
 62
     7
100
AcDbLine
 10
320.547028
 20
58.149994
 30
0.0
 11
320.547028
 21
68.149994
 31
0.0
  0
LINE
  5
4D9
330
1F
100
AcDbEntity
  8
0
 62
     7
100
AcDbLine
 10
240.947052
 20
139.75
 30
0.0
 11
239.947052
 21
139.75
 31
0.0
  0
LINE
  5
4DA
330
1F
100
AcDbEntity
  8
0
 62
     7
100
AcDbLine
 10
238.74704
 20
139.75
 30
0.0
 11
237.74704
 21
139.75
 31
0.0
  0
LINE
  5
4DB
330
1F
100
AcDbEntity
  8
0
 62
     7
100
AcDbLine
 10
313.74704
 20
58.149994
 30
0.0
 11
313.74704
 21
68.149994
 31
0.0
  0
LINE
  5
4DC
330
1F
100
AcDbEntity
  8
0
 62
     7
100
AcDbLine
 10
245.147064
 20
147.399994
 30
0.0
 11
243.147064
 21
147.524994
 31
0.0
  0
LINE
  5
4DD
330
1F
100
AcDbEntity
  8
0
 62
     7
100
AcDbLine
 10
242.147064
 20
147.587494
 30
0.0
 11
240.947052
 21
147.662506
 31
0.0
  0
LINE
  5
4DE
330
1F
100
AcDbEntity
  8
0
 62
     7
100
AcDbLine
 10
239.947052
 20
147.725006
 30
0.0
 11
238.74707
 21
147.799988
 31
0.0
  0
LINE
  5
4DF
330
1F
100
AcDbEntity
  8
0
 62
     7
100
AcDbLine
 10
237.74707
 20
147.862488
 30
0.0
 11
233.147064
 21
148.149994
 31
0.0
  0
LINE
  5
4E0
330
1F
100
AcDbEntity
  8
0
 62
     7
100
AcDbLine
 10
245.147064
 20
138.899994
 30
0.0
 11
243.147064
 21
138.774994
 31
0.0
  0
LINE
  5
4E1
330
1F
100
AcDbEntity
  8
0
 62
     7
100
AcDbLine
 10
242.147064
 20
138.712494
 30
0.0
 11
240.947052
 21
138.637482
 31
0.0
  0
LINE
  5
4E2
330
1F
100
AcDbEntity
  8
0
 62
     7
100
AcDbLine
 10
239.947052
 20
138.574982
 30
0.0
 11
238.74707
 21
138.5
 31
0.0
  0
LINE
  5
4E3
330
1F
100
AcDbEntity
  8
0
 62
     7
100
AcDbLine
 10
237.74707
 20
138.4375
 30
0.0
 11
233.147064
 21
138.149994
 31
0.0
  0
LINE
  5
4E4
330
1F
100
AcDbEntity
  8
0
 62
     7
100
AcDbLine
 10
233.147064
 20
148.149994
 30
0.0
 11
232.147064
 21
148.449982
 31
0.0
  0
LINE
  5
4E5
330
1F
100
AcDbEntity
  8
0
 62
     7
100
AcDbLine
 10
233.147064
 20
138.149994
 30
0.0
 11
232.147064
 21
137.850006
 31
0.0
  0
LINE
  5
4E6
330
1F
100
AcDbEntity
  8
0
 62
     7
100
AcDbLine
 10
232.147064
 20
138.149994
 30
0.0
 11
227.147064
 21
138.149994
 31
0.0
  0
LINE
  5
4E7
330
1F
100
AcDbEntity
  8
0
 62
     7
100
AcDbLine
 10
232.147064
 20
148.149994
 30
0.0
 11
227.147064
 21
148.149994
 31
0.0
  0
ARC
  5
4E8
330
1F
100
AcDbEntity
  8
0
 62
     7
100
AcDbCircle
 10
221.840454
 20
140.049988
 30
0.0
 40
6.000001907348633
100
AcDbArc
 50
327.769058
 51
332.181852
  0
ARC
  5
4E9
330
1F
100
AcDbEntity
  8
0
 62
     7
100
AcDbCircle
 10
221.840454
 20
146.25
 30
0.0
 40
6.000001907348633
100
AcDbArc
 50
27.81814
 51
32.230949
  0
LINE
  5
4EA
330
1F
100
AcDbEntity
  8
0
 62
     7
100
AcDbLine
 10
226.915894
 20
136.850006
 30
0.0
 11
220.147064
 21
136.850006
 31
0.0
  0
LINE
  5
4EB
330
1F
100
AcDbEntity
  8
0
 62
     7
100
AcDbLine
 10
226.915894
 20
149.449982
 30
0.0
 11
220.147064
 21
149.449982
 31
0.0
  0
LINE
  5
4EC
330
1F
100
AcDbEntity
  8
0
 62
     7
100
AcDbLine
 10
220.147064
 20
136.850006
 30
0.0
 11
219.647064
 21
136.350006
 31
0.0
  0
LINE
  5
4ED
330
1F
100
AcDbEntity
  8
0
 62
     7
100
AcDbLine
 10
220.147064
 20
149.449982
 30
0.0
 11
219.647064
 21
149.949982
 31
0.0
  0
LINE
  5
4EE
330
1F
100
AcDbEntity
  8
0
 62
     7
100
AcDbLine
 10
210.147064
 20
136.850006
 30
0.0
 11
209.147064
 21
136.850006
 31
0.0
  0
LINE
  5
4EF
330
1F
100
AcDbEntity
  8
0
 62
     7
100
AcDbLine
 10
210.147064
 20
149.449982
 30
0.0
 11
209.147064
 21
149.449982
 31
0.0
  0
LINE
  5
4F0
330
1F
100
AcDbEntity
  8
0
 62
     7
100
AcDbLine
 10
219.647064
 20
136.350006
 30
0.0
 11
210.647064
 21
136.350006
 31
0.0
  0
LINE
  5
4F1
330
1F
100
AcDbEntity
  8
0
 62
     7
100
AcDbLine
 10
219.647064
 20
149.949982
 30
0.0
 11
210.647064
 21
149.949982
 31
0.0
  0
LINE
  5
4F2
330
1F
100
AcDbEntity
  8
0
 62
     7
100
AcDbLine
 10
210.147064
 20
149.449982
 30
0.0
 11
210.647064
 21
149.949982
 31
0.0
  0
LINE
  5
4F3
330
1F
100
AcDbEntity
  8
0
 62
     7
100
AcDbLine
 10
210.147064
 20
136.850006
 30
0.0
 11
210.647064
 21
136.350006
 31
0.0
  0
LINE
  5
4F4
330
1F
100
AcDbEntity
  8
0
 62
     7
100
AcDbLine
 10
39.952965
 20
160.850006
 30
0.0
 11
39.952965
 21
173.950012
 31
0.0
  0
ARC
  5
4F5
330
1F
100
AcDbEntity
  8
0
 62
     7
100
AcDbCircle
 10
39.152966
 20
160.850006
 30
0.0
 40
0.800000011920929
100
AcDbArc
 50
269.999997
 51
360.0
  0
LINE
  5
4F6
330
1F
100
AcDbEntity
  8
0
 62
     7
100
AcDbLine
 10
39.823677
 20
174.079285
 30
0.0
 11
39.952965
 21
173.950012
 31
0.0
  0
ARC
  5
4F7
330
1F
100
AcDbEntity
  8
0
 62
     7
100
AcDbCircle
 10
37.952965
 20
160.850006
 30
0.0
 40
0.800000011920929
100
AcDbArc
 50
241.044838
 51
269.999997
  0
LINE
  5
4F8
330
1F
100
AcDbEntity
  8
0
 62
     7
100
AcDbLine
 10
39.152966
 20
160.049988
 30
0.0
 11
37.952965
 21
160.049988
 31
0.0
  0
ARC
  5
4F9
330
1F
100
AcDbEntity
  8
0
 62
     7
100
AcDbCircle
 10
39.894386
 20
174.149994
 30
0.0
 40
0.1000000014901161
100
AcDbArc
 50
135.0
 51
225.0
  0
LINE
  5
4FA
330
1F
100
AcDbEntity
  8
0
 62
     7
100
AcDbLine
 10
39.952965
 20
174.350006
 30
0.0
 11
39.823677
 21
174.220703
 31
0.0
  0
LINE
  5
4FB
330
1F
100
AcDbEntity
  8
0
 62
     7
100
AcDbLine
 10
39.952965
 20
174.350006
 30
0.0
 11
39.952965
 21
175.049988
 31
0.0
  0
LINE
  5
4FC
330
1F
100
AcDbEntity
  8
0
 62
     7
100
AcDbLine
 10
39.823677
 20
175.179291
 30
0.0
 11
39.952965
 21
175.049988
 31
0.0
  0
ARC
  5
4FD
330
1F
100
AcDbEntity
  8
0
 62
     7
100
AcDbCircle
 10
39.894386
 20
175.25
 30
0.0
 40
0.1000000014901161
100
AcDbArc
 50
135.0
 51
225.0
  0
LINE
  5
4FE
330
1F
100
AcDbEntity
  8
0
 62
     7
100
AcDbLine
 10
39.952965
 20
175.450012
 30
0.0
 11
39.823677
 21
175.320709
 31
0.0
  0
LINE
  5
4FF
330
1F
100
AcDbEntity
  8
0
 62
     7
100
AcDbLine
 10
39.952965
 20
175.450012
 30
0.0
 11
39.952965
 21
176.149994
 31
0.0
  0
LINE
  5
500
330
1F
100
AcDbEntity
  8
0
 62
     7
100
AcDbLine
 10
39.823677
 20
176.279297
 30
0.0
 11
39.952965
 21
176.149994
 31
0.0
  0
ARC
  5
501
330
1F
100
AcDbEntity
  8
0
 62
     7
100
AcDbCircle
 10
39.894386
 20
176.350006
 30
0.0
 40
0.1000000014901161
100
AcDbArc
 50
135.0
 51
225.0
  0
LINE
  5
502
330
1F
100
AcDbEntity
  8
0
 62
     7
100
AcDbLine
 10
39.952965
 20
176.549988
 30
0.0
 11
39.823677
 21
176.420715
 31
0.0
  0
LINE
  5
503
330
1F
100
AcDbEntity
  8
0
 62
     7
100
AcDbLine
 10
39.952965
 20
176.549988
 30
0.0
 11
39.952965
 21
177.25
 31
0.0
  0
LINE
  5
504
330
1F
100
AcDbEntity
  8
0
 62
     7
100
AcDbLine
 10
39.823677
 20
177.379303
 30
0.0
 11
39.952965
 21
177.25
 31
0.0
  0
ARC
  5
505
330
1F
100
AcDbEntity
  8
0
 62
     7
100
AcDbCircle
 10
39.894386
 20
177.450012
 30
0.0
 40
0.1000000014901161
100
AcDbArc
 50
135.0
 51
225.0
  0
LINE
  5
506
330
1F
100
AcDbEntity
  8
0
 62
     7
100
AcDbLine
 10
39.952965
 20
177.649994
 30
0.0
 11
39.823677
 21
177.520721
 31
0.0
  0
LINE
  5
507
330
1F
100
AcDbEntity
  8
0
 62
     7
100
AcDbLine
 10
39.952965
 20
177.649994
 30
0.0
 11
39.952965
 21
178.350006
 31
0.0
  0
LINE
  5
508
330
1F
100
AcDbEntity
  8
0
 62
     7
100
AcDbLine
 10
39.823677
 20
178.479279
 30
0.0
 11
39.952965
 21
178.350006
 31
0.0
  0
ARC
  5
509
330
1F
100
AcDbEntity
  8
0
 62
     7
100
AcDbCircle
 10
39.894386
 20
178.549988
 30
0.0
 40
0.1000000014901161
100
AcDbArc
 50
135.0
 51
225.0
  0
LINE
  5
50A
330
1F
100
AcDbEntity
  8
0
 62
     7
100
AcDbLine
 10
39.952965
 20
178.75
 30
0.0
 11
39.823677
 21
178.620697
 31
0.0
  0
LINE
  5
50B
330
1F
100
AcDbEntity
  8
0
 62
     7
100
AcDbLine
 10
39.952965
 20
178.75
 30
0.0
 11
39.952965
 21
179.450012
 31
0.0
  0
LINE
  5
50C
330
1F
100
AcDbEntity
  8
0
 62
     7
100
AcDbLine
 10
39.823677
 20
179.579285
 30
0.0
 11
39.952965
 21
179.450012
 31
0.0
  0
ARC
  5
50D
330
1F
100
AcDbEntity
  8
0
 62
     7
100
AcDbCircle
 10
39.894386
 20
179.649994
 30
0.0
 40
0.1000000014901161
100
AcDbArc
 50
135.0
 51
225.0
  0
LINE
  5
50E
330
1F
100
AcDbEntity
  8
0
 62
     7
100
AcDbLine
 10
39.952965
 20
179.850006
 30
0.0
 11
39.823677
 21
179.720703
 31
0.0
  0
LINE
  5
50F
330
1F
100
AcDbEntity
  8
0
 62
     7
100
AcDbLine
 10
39.952965
 20
179.850006
 30
0.0
 11
39.952965
 21
180.549988
 31
0.0
  0
LINE
  5
510
330
1F
100
AcDbEntity
  8
0
 62
     7
100
AcDbLine
 10
39.823677
 20
180.679291
 30
0.0
 11
39.952965
 21
180.549988
 31
0.0
  0
ARC
  5
511
330
1F
100
AcDbEntity
  8
0
 62
     7
100
AcDbCircle
 10
39.894386
 20
180.75
 30
0.0
 40
0.1000000014901161
100
AcDbArc
 50
135.0
 51
225.0
  0
LINE
  5
512
330
1F
100
AcDbEntity
  8
0
 62
     7
100
AcDbLine
 10
39.952965
 20
180.950012
 30
0.0
 11
39.823677
 21
180.820709
 31
0.0
  0
LINE
  5
513
330
1F
100
AcDbEntity
  8
0
 62
     7
100
AcDbLine
 10
39.952965
 20
180.950012
 30
0.0
 11
39.952965
 21
181.649994
 31
0.0
  0
LINE
  5
514
330
1F
100
AcDbEntity
  8
0
 62
     7
100
AcDbLine
 10
39.823677
 20
181.779297
 30
0.0
 11
39.952965
 21
181.649994
 31
0.0
  0
ARC
  5
515
330
1F
100
AcDbEntity
  8
0
 62
     7
100
AcDbCircle
 10
39.894386
 20
181.850006
 30
0.0
 40
0.1000000014901161
100
AcDbArc
 50
135.0
 51
225.0
  0
LINE
  5
516
330
1F
100
AcDbEntity
  8
0
 62
     7
100
AcDbLine
 10
39.952965
 20
182.049988
 30
0.0
 11
39.823677
 21
181.920715
 31
0.0
  0
LINE
  5
517
330
1F
100
AcDbEntity
  8
0
 62
     7
100
AcDbLine
 10
39.952965
 20
182.049988
 30
0.0
 11
39.952965
 21
182.75
 31
0.0
  0
LINE
  5
518
330
1F
100
AcDbEntity
  8
0
 62
     7
100
AcDbLine
 10
39.823677
 20
182.879303
 30
0.0
 11
39.952965
 21
182.75
 31
0.0
  0
ARC
  5
519
330
1F
100
AcDbEntity
  8
0
 62
     7
100
AcDbCircle
 10
39.894386
 20
182.950012
 30
0.0
 40
0.1000000014901161
100
AcDbArc
 50
135.0
 51
225.0
  0
LINE
  5
51A
330
1F
100
AcDbEntity
  8
0
 62
     7
100
AcDbLine
 10
39.952965
 20
183.149994
 30
0.0
 11
39.823677
 21
183.020721
 31
0.0
  0
LINE
  5
51B
330
1F
100
AcDbEntity
  8
0
 62
     7
100
AcDbLine
 10
39.952965
 20
183.149994
 30
0.0
 11
39.952965
 21
187.974274
 31
0.0
  0
LINE
  5
51C
330
1F
100
AcDbEntity
  8
0
 62
     7
100
AcDbLine
 10
39.465099
 20
188.462128
 30
0.0
 11
39.952965
 21
187.974274
 31
0.0
  0
ARC
  5
51D
330
1F
100
AcDbEntity
  8
0
 62
     7
100
AcDbCircle
 10
39.252968
 20
188.25
 30
0.0
 40
0.300000011920929
100
AcDbArc
 50
45.000001
 51
106.874504
  0
LINE
  5
51E
330
1F
100
AcDbEntity
  8
0
 62
     7
100
AcDbLine
 10
39.952965
 20
166.049988
 30
0.0
 11
40.152969
 21
166.049988
 31
0.0
  0
LINE
  5
51F
330
1F
100
AcDbEntity
  8
0
 62
     7
100
AcDbLine
 10
40.152969
 20
165.549988
 30
0.0
 11
40.152969
 21
166.049988
 31
0.0
  0
LINE
  5
520
330
1F
100
AcDbEntity
  8
0
 62
     7
100
AcDbLine
 10
40.152969
 20
165.549988
 30
0.0
 11
40.152969
 21
161.549988
 31
0.0
  0
LINE
  5
521
330
1F
100
AcDbEntity
  8
0
 62
     7
100
AcDbLine
 10
40.152969
 20
161.049988
 30
0.0
 11
40.152969
 21
161.549988
 31
0.0
  0
LINE
  5
522
330
1F
100
AcDbEntity
  8
0
 62
     7
100
AcDbLine
 10
39.952965
 20
161.049988
 30
0.0
 11
40.152969
 21
161.049988
 31
0.0
  0
ARC
  5
523
330
1F
100
AcDbEntity
  8
0
 62
     7
100
AcDbCircle
 10
35.952965
 20
188.350006
 30
0.0
 40
3.0
100
AcDbArc
 50
8.262821
 51
90.000003
  0
LINE
  5
524
330
1F
100
AcDbEntity
  8
0
 62
     7
100
AcDbLine
 10
40.202965
 20
161.549988
 30
0.0
 11
40.202965
 21
161.680359
 31
0.0
  0
LINE
  5
525
330
1F
100
AcDbEntity
  8
0
 62
     7
100
AcDbLine
 10
40.202965
 20
165.180359
 30
0.0
 11
40.202965
 21
161.680359
 31
0.0
  0
LINE
  5
526
330
1F
100
AcDbEntity
  8
0
 62
     7
100
AcDbLine
 10
40.152969
 20
165.449982
 30
0.0
 11
40.202965
 21
165.449982
 31
0.0
  0
LINE
  5
527
330
1F
100
AcDbEntity
  8
0
 62
     7
100
AcDbLine
 10
40.202965
 20
165.180359
 30
0.0
 11
40.202965
 21
165.449982
 31
0.0
  0
LINE
  5
528
330
1F
100
AcDbEntity
  8
0
 62
     7
100
AcDbLine
 10
39.606522
 20
188.096436
 30
0.0
 11
38.764442
 21
188.938507
 31
0.0
  0
ARC
  5
529
330
1F
100
AcDbEntity
  8
0
 62
     7
100
AcDbCircle
 10
39.252968
 20
187.742889
 30
0.0
 40
0.5
100
AcDbArc
 50
0.0
 51
45.000001
  0
LINE
  5
52A
330
1F
100
AcDbEntity
  8
0
 62
     7
100
AcDbLine
 10
39.752968
 20
160.649994
 30
0.0
 11
39.752968
 21
187.742889
 31
0.0
  0
ARC
  5
52B
330
1F
100
AcDbEntity
  8
0
 62
     7
100
AcDbCircle
 10
39.252968
 20
160.649994
 30
0.0
 40
0.5
100
AcDbArc
 50
269.999997
 51
360.0
  0
LINE
  5
52C
330
1F
100
AcDbEntity
  8
0
 62
     7
100
AcDbLine
 10
23.652967
 20
160.149994
 30
0.0
 11
39.252968
 21
160.149994
 31
0.0
  0
ARC
  5
52D
330
1F
100
AcDbEntity
  8
0
 62
     7
100
AcDbCircle
 10
23.652967
 20
160.649994
 30
0.0
 40
0.5
100
AcDbArc
 50
180.000009
 51
269.999997
  0
LINE
  5
52E
330
1F
100
AcDbEntity
  8
0
 62
     7
100
AcDbLine
 10
23.152967
 20
187.742889
 30
0.0
 11
23.152967
 21
160.649994
 31
0.0
  0
LINE
  5
52F
330
1F
100
AcDbEntity
  8
0
 62
     7
100
AcDbLine
 10
22.352966
 20
170.049988
 30
0.0
 11
22.352966
 21
172.049988
 31
0.0
  0
LINE
  5
530
330
1F
100
AcDbEntity
  8
0
 62
     7
100
AcDbLine
 10
22.352966
 20
170.049988
 30
0.0
 11
23.152964
 21
170.049988
 31
0.0
  0
LINE
  5
531
330
1F
100
AcDbEntity
  8
0
 62
     7
100
AcDbLine
 10
35.952965
 20
191.350006
 30
0.0
 11
26.952965
 21
191.350006
 31
0.0
  0
ARC
  5
532
330
1F
100
AcDbEntity
  8
0
 62
     7
100
AcDbCircle
 10
26.952965
 20
188.350006
 30
0.0
 40
3.0
100
AcDbArc
 50
90.000003
 51
171.737184
  0
ARC
  5
533
330
1F
100
AcDbEntity
  8
0
 62
     7
100
AcDbCircle
 10
38.799801
 20
188.973877
 30
0.0
 40
0.0500000007450581
100
AcDbArc
 50
189.204208
 51
225.0
  0
ARC
  5
534
330
1F
100
AcDbEntity
  8
0
 62
     7
100
AcDbCircle
 10
23.652967
 20
187.742889
 30
0.0
 40
0.5
100
AcDbArc
 50
135.0
 51
180.000009
  0
LINE
  5
535
330
1F
100
AcDbEntity
  8
0
 62
     7
100
AcDbLine
 10
22.352966
 20
186.821106
 30
0.0
 11
22.352966
 21
172.049988
 31
0.0
  0
LINE
  5
536
330
1F
100
AcDbEntity
  8
0
 62
     7
100
AcDbLine
 10
22.352966
 20
186.821106
 30
0.0
 11
22.352966
 21
186.863342
 31
0.0
  0
LINE
  5
537
330
1F
100
AcDbEntity
  8
0
 62
     7
100
AcDbLine
 10
22.352966
 20
186.863342
 30
0.0
 11
22.352966
 21
191.350006
 31
0.0
  0
LINE
  5
538
330
1F
100
AcDbEntity
  8
0
 62
     7
100
AcDbLine
 10
22.552967
 20
170.049988
 30
0.0
 11
22.552967
 21
169.549988
 31
0.0
  0
LINE
  5
539
330
1F
100
AcDbEntity
  8
0
 62
     7
100
AcDbLine
 10
23.152966
 20
169.549988
 30
0.0
 11
22.552967
 21
169.549988
 31
0.0
  0
LINE
  5
53A
330
1F
100
AcDbEntity
  8
0
 62
     7
100
AcDbLine
 10
22.552967
 20
160.850006
 30
0.0
 11
22.552967
 21
169.549988
 31
0.0
  0
ARC
  5
53B
330
1F
100
AcDbEntity
  8
0
 62
     7
100
AcDbCircle
 10
23.352966
 20
160.850006
 30
0.0
 40
0.800000011920929
100
AcDbArc
 50
180.000009
 51
269.999997
  0
LINE
  5
53C
330
1F
100
AcDbEntity
  8
0
 62
     7
100
AcDbLine
 10
23.352966
 20
160.049988
 30
0.0
 11
24.552967
 21
160.049988
 31
0.0
  0
ARC
  5
53D
330
1F
100
AcDbEntity
  8
0
 62
     7
100
AcDbCircle
 10
24.552967
 20
160.850006
 30
0.0
 40
0.800000011920929
100
AcDbArc
 50
269.999997
 51
298.955164
  0
LINE
  5
53E
330
1F
100
AcDbEntity
  8
0
 62
     7
100
AcDbLine
 10
24.141489
 20
188.938507
 30
0.0
 11
23.299414
 21
188.096436
 31
0.0
  0
ARC
  5
53F
330
1F
100
AcDbEntity
  8
0
 62
     7
100
AcDbCircle
 10
24.106133
 20
188.973877
 30
0.0
 40
0.0500000007450581
100
AcDbArc
 50
314.999992
 51
350.795784
  0
ARC
  5
540
330
1F
100
AcDbEntity
  8
0
 62
     7
100
AcDbCircle
 10
26.722012
 20
188.549988
 30
0.0
 40
2.599999904632568
100
AcDbArc
 50
90.000003
 51
170.795792
  0
LINE
  5
541
330
1F
100
AcDbEntity
  8
0
 62
     7
100
AcDbLine
 10
36.183922
 20
191.149994
 30
0.0
 11
26.722012
 21
191.149994
 31
0.0
  0
ARC
  5
542
330
1F
100
AcDbEntity
  8
0
 62
     7
100
AcDbCircle
 10
36.183922
 20
188.549988
 30
0.0
 40
2.599999904632568
100
AcDbArc
 50
9.20421
 51
90.000003
  0
CIRCLE
  5
543
330
1F
100
AcDbEntity
  8
0
 62
     7
100
AcDbCircle
 10
31.452965
 20
168.350006
 30
0.0
 40
5.150000095367432
  0
POLYLINE
  5
544
330
1F
100
AcDbEntity
  8
0
 62
     7
100
AcDb2dPolyline
 66
     1
 10
0.0
 20
0.0
 30
0.0
  0
VERTEX
  5
545
330
544
100
AcDbEntity
  8
0
100
AcDbVertex
100
AcDb2dVertex
 10
22.852966
 20
188.260193
 30
0.0
  0
VERTEX
  5
546
330
544
100
AcDbEntity
  8
0
100
AcDbVertex
100
AcDb2dVertex
 10
22.849098
 20
188.162903
 30
0.0
  0
VERTEX
  5
547
330
544
100
AcDbEntity
  8
0
100
AcDbVertex
100
AcDb2dVertex
 10
22.837502
 20
188.059448
 30
0.0
  0
VERTEX
  5
548
330
544
100
AcDbEntity
  8
0
100
AcDbVertex
100
AcDb2dVertex
 10
22.81815
 20
187.950043
 30
0.0
  0
VERTEX
  5
549
330
544
100
AcDbEntity
  8
0
100
AcDbVertex
100
AcDb2dVertex
 10
22.790956
 20
187.834869
 30
0.0
  0
VERTEX
  5
54A
330
544
100
AcDbEntity
  8
0
100
AcDbVertex
100
AcDb2dVertex
 10
22.755764
 20
187.713989
 30
0.0
  0
VERTEX
  5
54B
330
544
100
AcDbEntity
  8
0
100
AcDbVertex
100
AcDb2dVertex
 10
22.712311
 20
187.587341
 30
0.0
  0
VERTEX
  5
54C
330
544
100
AcDbEntity
  8
0
100
AcDbVertex
100
AcDb2dVertex
 10
22.660227
 20
187.454865
 30
0.0
  0
VERTEX
  5
54D
330
544
100
AcDbEntity
  8
0
100
AcDbVertex
100
AcDb2dVertex
 10
22.598999
 20
187.316437
 30
0.0
  0
VERTEX
  5
54E
330
544
100
AcDbEntity
  8
0
100
AcDbVertex
100
AcDb2dVertex
 10
22.527969
 20
187.171814
 30
0.0
  0
VERTEX
  5
54F
330
544
100
AcDbEntity
  8
0
100
AcDbVertex
100
AcDb2dVertex
 10
22.446301
 20
187.020874
 30
0.0
  0
VERTEX
  5
550
330
544
100
AcDbEntity
  8
0
100
AcDbVertex
100
AcDb2dVertex
 10
22.352966
 20
186.863342
 30
0.0
  0
SEQEND
  5
551
330
544
100
AcDbEntity
  8
0
 62
     7
  0
LINE
  5
552
330
1F
100
AcDbEntity
  8
0
 62
     7
100
AcDbLine
 10
22.852966
 20
188.260193
 30
0.0
 11
22.852966
 21
191.850006
 31
0.0
  0
LINE
  5
553
330
1F
100
AcDbEntity
  8
0
 62
     7
100
AcDbLine
 10
23.952967
 20
188.75
 30
0.0
 11
23.952967
 21
191.850006
 31
0.0
  0
CIRCLE
  5
554
330
1F
100
AcDbEntity
  8
0
 62
     7
100
AcDbCircle
 10
31.452965
 20
168.350006
 30
0.0
 40
4.150000095367432
  0
ARC
  5
555
330
1F
100
AcDbEntity
  8
0
 62
     7
100
AcDbCircle
 10
31.452965
 20
168.350006
 30
0.0
 40
3.75
100
AcDbArc
 50
350.018317
 51
9.981683
  0
ARC
  5
556
330
1F
100
AcDbEntity
  8
0
 62
     7
100
AcDbCircle
 10
31.452965
 20
168.350006
 30
0.0
 40
3.75
100
AcDbArc
 50
189.981688
 51
350.018317
  0
ARC
  5
557
330
1F
100
AcDbEntity
  8
0
 62
     7
100
AcDbCircle
 10
31.452965
 20
168.350006
 30
0.0
 40
3.75
100
AcDbArc
 50
170.018312
 51
189.981688
  0
ARC
  5
558
330
1F
100
AcDbEntity
  8
0
 62
     7
100
AcDbCircle
 10
31.452965
 20
168.350006
 30
0.0
 40
3.75
100
AcDbArc
 50
9.981683
 51
170.018312
  0
LINE
  5
559
330
1F
100
AcDbEntity
  8
0
 62
     7
100
AcDbLine
 10
34.942951
 20
167.699982
 30
0.0
 11
35.146202
 21
167.699982
 31
0.0
  0
LINE
  5
55A
330
1F
100
AcDbEntity
  8
0
 62
     7
100
AcDbLine
 10
27.962982
 20
167.699982
 30
0.0
 11
27.759731
 21
167.699982
 31
0.0
  0
LINE
  5
55B
330
1F
100
AcDbEntity
  8
0
 62
     7
100
AcDbLine
 10
34.942951
 20
167.699982
 30
0.0
 11
27.962982
 21
167.699982
 31
0.0
  0
ARC
  5
55C
330
1F
100
AcDbEntity
  8
0
 62
     7
100
AcDbCircle
 10
31.452965
 20
168.350006
 30
0.0
 40
3.549999952316284
100
AcDbArc
 50
190.550301
 51
349.44969
  0
LINE
  5
55D
330
1F
100
AcDbEntity
  8
0
 62
     7
100
AcDbLine
 10
27.962982
 20
169.0
 30
0.0
 11
27.759731
 21
169.0
 31
0.0
  0
LINE
  5
55E
330
1F
100
AcDbEntity
  8
0
 62
     7
100
AcDbLine
 10
34.942951
 20
169.0
 30
0.0
 11
35.146202
 21
169.0
 31
0.0
  0
LINE
  5
55F
330
1F
100
AcDbEntity
  8
0
 62
     7
100
AcDbLine
 10
27.962982
 20
169.0
 30
0.0
 11
34.942951
 21
169.0
 31
0.0
  0
ARC
  5
560
330
1F
100
AcDbEntity
  8
0
 62
     7
100
AcDbCircle
 10
31.452965
 20
168.350006
 30
0.0
 40
3.549999952316284
100
AcDbArc
 50
10.550303
 51
169.449699
  0
LINE
  5
561
330
1F
100
AcDbEntity
  8
0
 62
     7
100
AcDbLine
 10
40.152969
 20
161.549988
 30
0.0
 11
40.202965
 21
161.549988
 31
0.0
  0
LINE
  5
562
330
1F
100
AcDbEntity
  8
0
 62
     7
100
AcDbLine
 10
40.152969
 20
161.549988
 30
0.0
 11
40.202965
 21
161.549988
 31
0.0
  0
LINE
  5
563
330
1F
100
AcDbEntity
  8
0
 62
     7
100
AcDbLine
 10
22.352966
 20
191.350006
 30
0.0
 11
22.852966
 21
191.850006
 31
0.0
  0
LINE
  5
564
330
1F
100
AcDbEntity
  8
0
 62
     7
100
AcDbLine
 10
22.852966
 20
191.850006
 30
0.0
 11
23.952967
 21
191.850006
 31
0.0
  0
LINE
  5
565
330
1F
100
AcDbEntity
  8
0
 62
     7
100
AcDbLine
 10
22.552967
 20
134.449982
 30
0.0
 11
22.552967
 21
157.549988
 31
0.0
  0
LINE
  5
566
330
1F
100
AcDbEntity
  8
0
 62
     7
100
AcDbLine
 10
22.552967
 20
157.549988
 30
0.0
 11
22.552967
 21
158.549988
 31
0.0
  0
LINE
  5
567
330
1F
100
AcDbEntity
  8
0
 62
     7
100
AcDbLine
 10
39.752968
 20
157.549988
 30
0.0
 11
39.752968
 21
134.449982
 31
0.0
  0
LINE
  5
568
330
1F
100
AcDbEntity
  8
0
 62
     7
100
AcDbLine
 10
39.752968
 20
157.549988
 30
0.0
 11
39.752968
 21
158.549988
 31
0.0
  0
LINE
  5
569
330
1F
100
AcDbEntity
  8
0
 62
     7
100
AcDbLine
 10
23.052967
 20
157.549988
 30
0.0
 11
22.699413
 21
157.903534
 31
0.0
  0
ARC
  5
56A
330
1F
100
AcDbEntity
  8
0
 62
     7
100
AcDbCircle
 10
23.052967
 20
157.549988
 30
0.0
 40
0.5
100
AcDbArc
 50
90.000003
 51
180.000009
  0
ARC
  5
56B
330
1F
100
AcDbEntity
  8
0
 62
     7
100
AcDbCircle
 10
23.052967
 20
134.449982
 30
0.0
 40
0.5
100
AcDbArc
 50
180.000009
 51
270.000353
  0
ARC
  5
56C
330
1F
100
AcDbEntity
  8
0
 62
     7
100
AcDbCircle
 10
23.052969
 20
133.949982
 30
0.0
 40
0.5000079870223999
100
AcDbArc
 50
90.000289
 51
149.999055
  0
ARC
  5
56D
330
1F
100
AcDbEntity
  8
0
 62
     7
100
AcDbCircle
 10
23.052967
 20
158.549988
 30
0.0
 40
0.5
100
AcDbArc
 50
90.000003
 51
180.000009
  0
LINE
  5
56E
330
1F
100
AcDbEntity
  8
0
 62
     7
100
AcDbLine
 10
22.352966
 20
152.987701
 30
0.0
 11
22.352966
 21
153.95047
 31
0.0
  0
LINE
  5
56F
330
1F
100
AcDbEntity
  8
0
 62
     7
100
AcDbLine
 10
22.352966
 20
152.987701
 30
0.0
 11
22.352966
 21
141.25
 31
0.0
  0
LINE
  5
570
330
1F
100
AcDbEntity
  8
0
 62
     7
100
AcDbLine
 10
22.352966
 20
138.25
 30
0.0
 11
22.352966
 21
141.25
 31
0.0
  0
LINE
  5
571
330
1F
100
AcDbEntity
  8
0
 62
     7
100
AcDbLine
 10
22.352966
 20
138.25
 30
0.0
 11
22.552967
 21
138.25
 31
0.0
  0
LINE
  5
572
330
1F
100
AcDbEntity
  8
0
 62
     7
100
AcDbLine
 10
22.352966
 20
157.049988
 30
0.0
 11
22.552967
 21
157.049988
 31
0.0
  0
LINE
  5
573
330
1F
100
AcDbEntity
  8
0
 62
     7
100
AcDbLine
 10
22.352966
 20
156.18512
 30
0.0
 11
22.352966
 21
157.049988
 31
0.0
  0
LINE
  5
574
330
1F
100
AcDbEntity
  8
0
 62
     7
100
AcDbLine
 10
27.203281
 20
137.25
 30
0.0
 11
27.386009
 21
137.25
 31
0.0
  0
LINE
  5
575
330
1F
100
AcDbEntity
  8
0
 62
     7
100
AcDbLine
 10
34.919914
 20
137.25
 30
0.0
 11
35.10265
 21
137.25
 31
0.0
  0
ARC
  5
576
330
1F
100
AcDbEntity
  8
0
 62
     7
100
AcDbCircle
 10
39.252968
 20
134.449982
 30
0.0
 40
0.5
100
AcDbArc
 50
269.999997
 51
359.999901
  0
ARC
  5
577
330
1F
100
AcDbEntity
  8
0
 62
     7
100
AcDbCircle
 10
39.252968
 20
157.549988
 30
0.0
 40
0.5
100
AcDbArc
 50
0.0
 51
90.000003
  0
LINE
  5
578
330
1F
100
AcDbEntity
  8
0
 62
     7
100
AcDbLine
 10
39.252968
 20
157.549988
 30
0.0
 11
39.606522
 21
157.903534
 31
0.0
  0
ARC
  5
579
330
1F
100
AcDbEntity
  8
0
 62
     7
100
AcDbCircle
 10
39.252968
 20
133.950012
 30
0.0
 40
0.4999969899654388
100
AcDbArc
 50
29.999605
 51
90.000201
  0
LINE
  5
57A
330
1F
100
AcDbEntity
  8
0
 62
     7
100
AcDbLine
 10
39.752968
 20
156.18512
 30
0.0
 11
39.752968
 21
153.95047
 31
0.0
  0
LINE
  5
57B
330
1F
100
AcDbEntity
  8
0
 62
     7
100
AcDbLine
 10
39.952965
 20
156.18512
 30
0.0
 11
39.952965
 21
157.049988
 31
0.0
  0
LINE
  5
57C
330
1F
100
AcDbEntity
  8
0
 62
     7
100
AcDbLine
 10
39.752968
 20
157.049988
 30
0.0
 11
39.952965
 21
157.049988
 31
0.0
  0
LINE
  5
57D
330
1F
100
AcDbEntity
  8
0
 62
     7
100
AcDbLine
 10
39.752968
 20
138.25
 30
0.0
 11
39.952965
 21
138.25
 31
0.0
  0
LINE
  5
57E
330
1F
100
AcDbEntity
  8
0
 62
     7
100
AcDbLine
 10
39.952965
 20
138.25
 30
0.0
 11
39.952965
 21
141.25
 31
0.0
  0
LINE
  5
57F
330
1F
100
AcDbEntity
  8
0
 62
     7
100
AcDbLine
 10
39.952965
 20
152.987701
 30
0.0
 11
39.952965
 21
141.25
 31
0.0
  0
LINE
  5
580
330
1F
100
AcDbEntity
  8
0
 62
     7
100
AcDbLine
 10
39.952965
 20
152.987701
 30
0.0
 11
39.952965
 21
153.95047
 31
0.0
  0
ARC
  5
581
330
1F
100
AcDbEntity
  8
0
 62
     7
100
AcDbCircle
 10
39.252968
 20
158.549988
 30
0.0
 40
0.5
100
AcDbArc
 50
0.0
 51
90.000003
  0
LINE
  5
582
330
1F
100
AcDbEntity
  8
0
 62
     7
100
AcDbLine
 10
23.052967
 20
134.449982
 30
0.0
 11
30.552967
 21
134.449982
 31
0.0
  0
LINE
  5
583
330
1F
100
AcDbEntity
  8
0
 62
     7
100
AcDbLine
 10
30.552967
 20
135.149994
 30
0.0
 11
30.552967
 21
134.449982
 31
0.0
  0
LINE
  5
584
330
1F
100
AcDbEntity
  8
0
 62
     7
100
AcDbLine
 10
30.552967
 20
135.149994
 30
0.0
 11
31.752968
 21
135.149994
 31
0.0
  0
LINE
  5
585
330
1F
100
AcDbEntity
  8
0
 62
     7
100
AcDbLine
 10
31.752968
 20
135.149994
 30
0.0
 11
31.752968
 21
134.449982
 31
0.0
  0
LINE
  5
586
330
1F
100
AcDbEntity
  8
0
 62
     7
100
AcDbLine
 10
31.752968
 20
134.449982
 30
0.0
 11
39.252968
 21
134.449982
 31
0.0
  0
ARC
  5
587
330
1F
100
AcDbEntity
  8
0
 62
     7
100
AcDbCircle
 10
34.787865
 20
157.549988
 30
0.0
 40
0.5
100
AcDbArc
 50
90.000003
 51
218.583597
  0
ARC
  5
588
330
1F
100
AcDbEntity
  8
0
 62
     7
100
AcDbCircle
 10
31.152966
 20
154.649994
 30
0.0
 40
4.150000095367432
100
AcDbArc
 50
0.0
 51
38.583602
  0
LINE
  5
589
330
1F
100
AcDbEntity
  8
0
 62
     7
100
AcDbLine
 10
35.302967
 20
154.649994
 30
0.0
 11
35.302967
 21
153.649994
 31
0.0
  0
ARC
  5
58A
330
1F
100
AcDbEntity
  8
0
 62
     7
100
AcDbCircle
 10
31.152966
 20
153.649994
 30
0.0
 40
4.150000095367432
100
AcDbArc
 50
327.912246
 51
360.0
  0
POLYLINE
  5
58B
330
1F
100
AcDbEntity
  8
0
 62
     7
100
AcDb2dPolyline
 66
     1
 10
0.0
 20
0.0
 30
0.0
  0
VERTEX
  5
58C
330
58B
100
AcDbEntity
  8
0
100
AcDbVertex
100
AcDb2dVertex
 10
35.079811
 20
149.303833
 30
0.0
  0
VERTEX
  5
58D
330
58B
100
AcDbEntity
  8
0
100
AcDbVertex
100
AcDb2dVertex
 10
35.005516
 20
149.354675
 30
0.0
  0
VERTEX
  5
58E
330
58B
100
AcDbEntity
  8
0
100
AcDbVertex
100
AcDb2dVertex
 10
34.946129
 20
149.400604
 30
0.0
  0
VERTEX
  5
58F
330
58B
100
AcDbEntity
  8
0
100
AcDbVertex
100
AcDb2dVertex
 10
34.88937
 20
149.449554
 30
0.0
  0
VERTEX
  5
590
330
58B
100
AcDbEntity
  8
0
100
AcDbVertex
100
AcDb2dVertex
 10
34.814728
 20
149.522675
 30
0.0
  0
VERTEX
  5
591
330
58B
100
AcDbEntity
  8
0
100
AcDbVertex
100
AcDb2dVertex
 10
34.745811
 20
149.600861
 30
0.0
  0
VERTEX
  5
592
330
58B
100
AcDbEntity
  8
0
100
AcDbVertex
100
AcDb2dVertex
 10
34.682953
 20
149.683624
 30
0.0
  0
VERTEX
  5
593
330
58B
100
AcDbEntity
  8
0
100
AcDbVertex
100
AcDb2dVertex
 10
34.626411
 20
149.770386
 30
0.0
  0
VERTEX
  5
594
330
58B
100
AcDbEntity
  8
0
100
AcDbVertex
100
AcDb2dVertex
 10
34.576363
 20
149.860565
 30
0.0
  0
VERTEX
  5
595
330
58B
100
AcDbEntity
  8
0
100
AcDbVertex
100
AcDb2dVertex
 10
34.53294
 20
149.953583
 30
0.0
  0
VERTEX
  5
596
330
58B
100
AcDbEntity
  8
0
100
AcDbVertex
100
AcDb2dVertex
 10
34.496193
 20
150.04895
 30
0.0
  0
VERTEX
  5
597
330
58B
100
AcDbEntity
  8
0
100
AcDbVertex
100
AcDb2dVertex
 10
34.465057
 20
150.150024
 30
0.0
  0
VERTEX
  5
598
330
58B
100
AcDbEntity
  8
0
100
AcDbVertex
100
AcDb2dVertex
 10
34.441097
 20
150.252472
 30
0.0
  0
VERTEX
  5
599
330
58B
100
AcDbEntity
  8
0
100
AcDbVertex
100
AcDb2dVertex
 10
34.424229
 20
150.355804
 30
0.0
  0
VERTEX
  5
59A
330
58B
100
AcDbEntity
  8
0
100
AcDbVertex
100
AcDb2dVertex
 10
34.41433
 20
150.459503
 30
0.0
  0
VERTEX
  5
59B
330
58B
100
AcDbEntity
  8
0
100
AcDbVertex
100
AcDb2dVertex
 10
34.411247
 20
150.56311
 30
0.0
  0
VERTEX
  5
59C
330
58B
100
AcDbEntity
  8
0
100
AcDbVertex
100
AcDb2dVertex
 10
34.414822
 20
150.666229
 30
0.0
  0
VERTEX
  5
59D
330
58B
100
AcDbEntity
  8
0
100
AcDbVertex
100
AcDb2dVertex
 10
34.424873
 20
150.768463
 30
0.0
  0
VERTEX
  5
59E
330
58B
100
AcDbEntity
  8
0
100
AcDbVertex
100
AcDb2dVertex
 10
34.441624
 20
150.871552
 30
0.0
  0
VERTEX
  5
59F
330
58B
100
AcDbEntity
  8
0
100
AcDbVertex
100
AcDb2dVertex
 10
34.464737
 20
150.973022
 30
0.0
  0
VERTEX
  5
5A0
330
58B
100
AcDbEntity
  8
0
100
AcDbVertex
100
AcDb2dVertex
 10
34.494019
 20
151.072571
 30
0.0
  0
VERTEX
  5
5A1
330
58B
100
AcDbEntity
  8
0
100
AcDbVertex
100
AcDb2dVertex
 10
34.529278
 20
151.169891
 30
0.0
  0
VERTEX
  5
5A2
330
58B
100
AcDbEntity
  8
0
100
AcDbVertex
100
AcDb2dVertex
 10
34.57032
 20
151.264648
 30
0.0
  0
VERTEX
  5
5A3
330
58B
100
AcDbEntity
  8
0
100
AcDbVertex
100
AcDb2dVertex
 10
34.616951
 20
151.356598
 30
0.0
  0
VERTEX
  5
5A4
330
58B
100
AcDbEntity
  8
0
100
AcDbVertex
100
AcDb2dVertex
 10
34.668995
 20
151.445435
 30
0.0
  0
SEQEND
  5
5A5
330
58B
100
AcDbEntity
  8
0
 62
     7
  0
ARC
  5
5A6
330
1F
100
AcDbEntity
  8
0
 62
     7
100
AcDbCircle
 10
31.152966
 20
143.149994
 30
0.0
 40
7.300000190734863
100
AcDbArc
 50
122.542528
 51
57.457471
  0
POLYLINE
  5
5A7
330
1F
100
AcDbEntity
  8
0
 62
     7
100
AcDb2dPolyline
 66
     1
 10
0.0
 20
0.0
 30
0.0
  0
VERTEX
  5
5A8
330
5A7
100
AcDbEntity
  8
0
100
AcDbVertex
100
AcDb2dVertex
 10
27.226112
 20
149.303833
 30
0.0
  0
VERTEX
  5
5A9
330
5A7
100
AcDbEntity
  8
0
100
AcDbVertex
100
AcDb2dVertex
 10
27.305607
 20
149.35849
 30
0.0
  0
VERTEX
  5
5AA
330
5A7
100
AcDbEntity
  8
0
100
AcDbVertex
100
AcDb2dVertex
 10
27.381149
 20
149.418396
 30
0.0
  0
VERTEX
  5
5AB
330
5A7
100
AcDbEntity
  8
0
100
AcDbVertex
100
AcDb2dVertex
 10
27.452351
 20
149.483276
 30
0.0
  0
VERTEX
  5
5AC
330
5A7
100
AcDbEntity
  8
0
100
AcDbVertex
100
AcDb2dVertex
 10
27.518871
 20
149.552704
 30
0.0
  0
VERTEX
  5
5AD
330
5A7
100
AcDbEntity
  8
0
100
AcDbVertex
100
AcDb2dVertex
 10
27.580418
 20
149.626251
 30
0.0
  0
VERTEX
  5
5AE
330
5A7
100
AcDbEntity
  8
0
100
AcDbVertex
100
AcDb2dVertex
 10
27.641987
 20
149.711304
 30
0.0
  0
VERTEX
  5
5AF
330
5A7
100
AcDbEntity
  8
0
100
AcDbVertex
100
AcDb2dVertex
 10
27.697025
 20
149.800232
 30
0.0
  0
VERTEX
  5
5B0
330
5A7
100
AcDbEntity
  8
0
100
AcDbVertex
100
AcDb2dVertex
 10
27.745369
 20
149.892487
 30
0.0
  0
VERTEX
  5
5B1
330
5A7
100
AcDbEntity
  8
0
100
AcDbVertex
100
AcDb2dVertex
 10
27.786915
 20
149.987488
 30
0.0
  0
VERTEX
  5
5B2
330
5A7
100
AcDbEntity
  8
0
100
AcDbVertex
100
AcDb2dVertex
 10
27.821621
 20
150.084656
 30
0.0
  0
VERTEX
  5
5B3
330
5A7
100
AcDbEntity
  8
0
100
AcDbVertex
100
AcDb2dVertex
 10
27.849506
 20
150.183411
 30
0.0
  0
VERTEX
  5
5B4
330
5A7
100
AcDbEntity
  8
0
100
AcDbVertex
100
AcDb2dVertex
 10
27.870625
 20
150.283325
 30
0.0
  0
VERTEX
  5
5B5
330
5A7
100
AcDbEntity
  8
0
100
AcDbVertex
100
AcDb2dVertex
 10
27.88554
 20
150.388184
 30
0.0
  0
VERTEX
  5
5B6
330
5A7
100
AcDbEntity
  8
0
100
AcDbVertex
100
AcDb2dVertex
 10
27.893349
 20
150.493286
 30
0.0
  0
VERTEX
  5
5B7
330
5A7
100
AcDbEntity
  8
0
100
AcDbVertex
100
AcDb2dVertex
 10
27.894211
 20
150.598145
 30
0.0
  0
VERTEX
  5
5B8
330
5A7
100
AcDbEntity
  8
0
100
AcDbVertex
100
AcDb2dVertex
 10
27.888294
 20
150.702393
 30
0.0
  0
VERTEX
  5
5B9
330
5A7
100
AcDbEntity
  8
0
100
AcDbVertex
100
AcDb2dVertex
 10
27.875793
 20
150.805603
 30
0.0
  0
VERTEX
  5
5BA
330
5A7
100
AcDbEntity
  8
0
100
AcDbVertex
100
AcDb2dVertex
 10
27.856895
 20
150.90744
 30
0.0
  0
VERTEX
  5
5BB
330
5A7
100
AcDbEntity
  8
0
100
AcDbVertex
100
AcDb2dVertex
 10
27.831799
 20
151.007538
 30
0.0
  0
VERTEX
  5
5BC
330
5A7
100
AcDbEntity
  8
0
100
AcDbVertex
100
AcDb2dVertex
 10
27.802788
 20
151.099609
 30
0.0
  0
VERTEX
  5
5BD
330
5A7
100
AcDbEntity
  8
0
100
AcDbVertex
100
AcDb2dVertex
 10
27.768646
 20
151.189667
 30
0.0
  0
VERTEX
  5
5BE
330
5A7
100
AcDbEntity
  8
0
100
AcDbVertex
100
AcDb2dVertex
 10
27.729523
 20
151.277466
 30
0.0
  0
VERTEX
  5
5BF
330
5A7
100
AcDbEntity
  8
0
100
AcDbVertex
100
AcDb2dVertex
 10
27.68557
 20
151.362793
 30
0.0
  0
VERTEX
  5
5C0
330
5A7
100
AcDbEntity
  8
0
100
AcDbVertex
100
AcDb2dVertex
 10
27.63694
 20
151.445435
 30
0.0
  0
SEQEND
  5
5C1
330
5A7
100
AcDbEntity
  8
0
 62
     7
  0
ARC
  5
5C2
330
1F
100
AcDbEntity
  8
0
 62
     7
100
AcDbCircle
 10
31.152966
 20
153.649994
 30
0.0
 40
4.150000095367432
100
AcDbArc
 50
180.000009
 51
212.087746
  0
LINE
  5
5C3
330
1F
100
AcDbEntity
  8
0
 62
     7
100
AcDbLine
 10
27.002968
 20
154.649994
 30
0.0
 11
27.002968
 21
153.649994
 31
0.0
  0
ARC
  5
5C4
330
1F
100
AcDbEntity
  8
0
 62
     7
100
AcDbCircle
 10
31.152966
 20
154.649994
 30
0.0
 40
4.150000095367432
100
AcDbArc
 50
141.416403
 51
180.000009
  0
ARC
  5
5C5
330
1F
100
AcDbEntity
  8
0
 62
     7
100
AcDbCircle
 10
27.518066
 20
157.549988
 30
0.0
 40
0.5
100
AcDbArc
 50
321.416408
 51
90.000003
  0
LINE
  5
5C6
330
1F
100
AcDbEntity
  8
0
 62
     7
100
AcDbLine
 10
25.302967
 20
150.350006
 30
0.0
 11
24.902966
 21
150.350006
 31
0.0
  0
ARC
  5
5C7
330
1F
100
AcDbEntity
  8
0
 62
     7
100
AcDbCircle
 10
24.902966
 20
151.699982
 30
0.0
 40
1.350000023841858
100
AcDbArc
 50
90.000003
 51
269.99997
  0
LINE
  5
5C8
330
1F
100
AcDbEntity
  8
0
 62
     7
100
AcDbLine
 10
24.902966
 20
153.049988
 30
0.0
 11
25.302967
 21
153.049988
 31
0.0
  0
ARC
  5
5C9
330
1F
100
AcDbEntity
  8
0
 62
     7
100
AcDbCircle
 10
25.302967
 20
151.699982
 30
0.0
 40
1.350000023841858
100
AcDbArc
 50
269.999997
 51
89.999989
  0
CIRCLE
  5
5CA
330
1F
100
AcDbEntity
  8
0
 62
     7
100
AcDbCircle
 10
37.202965
 20
151.699982
 30
0.0
 40
1.350000023841858
  0
LINE
  5
5CB
330
1F
100
AcDbEntity
  8
0
 62
     7
100
AcDbLine
 10
23.052967
 20
158.049988
 30
0.0
 11
27.518066
 21
158.049988
 31
0.0
  0
LINE
  5
5CC
330
1F
100
AcDbEntity
  8
0
 62
     7
100
AcDbLine
 10
31.752968
 20
134.449982
 30
0.0
 11
31.752968
 21
134.149994
 31
0.0
  0
LINE
  5
5CD
330
1F
100
AcDbEntity
  8
0
 62
     7
100
AcDbLine
 10
30.552967
 20
134.149994
 30
0.0
 11
31.752968
 21
134.149994
 31
0.0
  0
LINE
  5
5CE
330
1F
100
AcDbEntity
  8
0
 62
     7
100
AcDbLine
 10
30.552967
 20
134.449982
 30
0.0
 11
30.552967
 21
134.149994
 31
0.0
  0
LINE
  5
5CF
330
1F
100
AcDbEntity
  8
0
 62
     7
100
AcDbLine
 10
23.052967
 20
133.949982
 30
0.0
 11
39.252968
 21
133.949982
 31
0.0
  0
LINE
  5
5D0
330
1F
100
AcDbEntity
  8
0
 62
     7
100
AcDbLine
 10
29.571033
 20
158.049988
 30
0.0
 11
27.843887
 21
158.049988
 31
0.0
  0
LINE
  5
5D1
330
1F
100
AcDbEntity
  8
0
 62
     7
100
AcDbLine
 10
34.462044
 20
158.049988
 30
0.0
 11
32.734898
 21
158.049988
 31
0.0
  0
LINE
  5
5D2
330
1F
100
AcDbEntity
  8
0
 62
     7
100
AcDbLine
 10
34.462044
 20
158.049988
 30
0.0
 11
34.787865
 21
158.049988
 31
0.0
  0
LINE
  5
5D3
330
1F
100
AcDbEntity
  8
0
 62
     7
100
AcDbLine
 10
34.787865
 20
158.049988
 30
0.0
 11
39.252968
 21
158.049988
 31
0.0
  0
LINE
  5
5D4
330
1F
100
AcDbEntity
  8
0
 62
     7
100
AcDbLine
 10
27.518066
 20
158.049988
 30
0.0
 11
27.843887
 21
158.049988
 31
0.0
  0
LINE
  5
5D5
330
1F
100
AcDbEntity
  8
0
 62
     7
100
AcDbLine
 10
23.052967
 20
159.049988
 30
0.0
 11
39.252968
 21
159.049988
 31
0.0
  0
LINE
  5
5D6
330
1F
100
AcDbEntity
  8
0
 62
     7
100
AcDbLine
 10
22.352966
 20
153.95047
 30
0.0
 11
22.352966
 21
156.18512
 31
0.0
  0
LINE
  5
5D7
330
1F
100
AcDbEntity
  8
0
 62
     7
100
AcDbLine
 10
39.952965
 20
153.95047
 30
0.0
 11
39.952965
 21
156.18512
 31
0.0
  0
LINE
  5
5D8
330
1F
100
AcDbEntity
  8
0
 62
     7
100
AcDbLine
 10
34.611023
 20
151.355591
 30
0.0
 11
34.668995
 21
151.445435
 31
0.0
  0
POLYLINE
  5
5D9
330
1F
100
AcDbEntity
  8
0
 62
     7
100
AcDb2dPolyline
 66
     1
 10
0.0
 20
0.0
 30
0.0
  0
VERTEX
  5
5DA
330
5D9
100
AcDbEntity
  8
0
100
AcDbVertex
100
AcDb2dVertex
 10
34.611023
 20
151.355591
 30
0.0
  0
VERTEX
  5
5DB
330
5D9
100
AcDbEntity
  8
0
100
AcDbVertex
100
AcDb2dVertex
 10
34.555302
 20
151.265656
 30
0.0
  0
VERTEX
  5
5DC
330
5D9
100
AcDbEntity
  8
0
100
AcDbVertex
100
AcDb2dVertex
 10
34.505211
 20
151.172363
 30
0.0
  0
VERTEX
  5
5DD
330
5D9
100
AcDbEntity
  8
0
100
AcDbVertex
100
AcDb2dVertex
 10
34.460949
 20
151.075928
 30
0.0
  0
VERTEX
  5
5DE
330
5D9
100
AcDbEntity
  8
0
100
AcDbVertex
100
AcDb2dVertex
 10
34.422737
 20
150.976685
 30
0.0
  0
VERTEX
  5
5DF
330
5D9
100
AcDbEntity
  8
0
100
AcDbVertex
100
AcDb2dVertex
 10
34.390789
 20
150.874969
 30
0.0
  0
VERTEX
  5
5E0
330
5D9
100
AcDbEntity
  8
0
100
AcDbVertex
100
AcDb2dVertex
 10
34.365326
 20
150.771057
 30
0.0
  0
VERTEX
  5
5E1
330
5D9
100
AcDbEntity
  8
0
100
AcDbVertex
100
AcDb2dVertex
 10
34.346561
 20
150.665344
 30
0.0
  0
VERTEX
  5
5E2
330
5D9
100
AcDbEntity
  8
0
100
AcDbVertex
100
AcDb2dVertex
 10
34.334892
 20
150.560333
 30
0.0
  0
VERTEX
  5
5E3
330
5D9
100
AcDbEntity
  8
0
100
AcDbVertex
100
AcDb2dVertex
 10
34.330078
 20
150.454285
 30
0.0
  0
VERTEX
  5
5E4
330
5D9
100
AcDbEntity
  8
0
100
AcDbVertex
100
AcDb2dVertex
 10
34.332329
 20
150.347595
 30
0.0
  0
VERTEX
  5
5E5
330
5D9
100
AcDbEntity
  8
0
100
AcDbVertex
100
AcDb2dVertex
 10
34.341831
 20
150.240784
 30
0.0
  0
VERTEX
  5
5E6
330
5D9
100
AcDbEntity
  8
0
100
AcDbVertex
100
AcDb2dVertex
 10
34.358753
 20
150.134308
 30
0.0
  0
VERTEX
  5
5E7
330
5D9
100
AcDbEntity
  8
0
100
AcDbVertex
100
AcDb2dVertex
 10
34.383232
 20
150.028717
 30
0.0
  0
VERTEX
  5
5E8
330
5D9
100
AcDbEntity
  8
0
100
AcDbVertex
100
AcDb2dVertex
 10
34.415367
 20
149.924622
 30
0.0
  0
VERTEX
  5
5E9
330
5D9
100
AcDbEntity
  8
0
100
AcDbVertex
100
AcDb2dVertex
 10
34.453384
 20
149.826782
 30
0.0
  0
VERTEX
  5
5EA
330
5D9
100
AcDbEntity
  8
0
100
AcDbVertex
100
AcDb2dVertex
 10
34.498474
 20
149.731476
 30
0.0
  0
VERTEX
  5
5EB
330
5D9
100
AcDbEntity
  8
0
100
AcDbVertex
100
AcDb2dVertex
 10
34.550552
 20
149.639221
 30
0.0
  0
VERTEX
  5
5EC
330
5D9
100
AcDbEntity
  8
0
100
AcDbVertex
100
AcDb2dVertex
 10
34.609474
 20
149.55069
 30
0.0
  0
VERTEX
  5
5ED
330
5D9
100
AcDbEntity
  8
0
100
AcDbVertex
100
AcDb2dVertex
 10
34.641438
 20
149.508026
 30
0.0
  0
VERTEX
  5
5EE
330
5D9
100
AcDbEntity
  8
0
100
AcDbVertex
100
AcDb2dVertex
 10
34.675026
 20
149.466492
 30
0.0
  0
VERTEX
  5
5EF
330
5D9
100
AcDbEntity
  8
0
100
AcDbVertex
100
AcDb2dVertex
 10
34.72226
 20
149.413055
 30
0.0
  0
VERTEX
  5
5F0
330
5D9
100
AcDbEntity
  8
0
100
AcDbVertex
100
AcDb2dVertex
 10
34.772198
 20
149.361969
 30
0.0
  0
VERTEX
  5
5F1
330
5D9
100
AcDbEntity
  8
0
100
AcDbVertex
100
AcDb2dVertex
 10
34.824711
 20
149.313446
 30
0.0
  0
VERTEX
  5
5F2
330
5D9
100
AcDbEntity
  8
0
100
AcDbVertex
100
AcDb2dVertex
 10
34.880074
 20
149.267242
 30
0.0
  0
VERTEX
  5
5F3
330
5D9
100
AcDbEntity
  8
0
100
AcDbVertex
100
AcDb2dVertex
 10
34.937798
 20
149.223907
 30
0.0
  0
VERTEX
  5
5F4
330
5D9
100
AcDbEntity
  8
0
100
AcDbVertex
100
AcDb2dVertex
 10
34.997608
 20
149.183594
 30
0.0
  0
SEQEND
  5
5F5
330
5D9
100
AcDbEntity
  8
0
 62
     7
  0
CIRCLE
  5
5F6
330
1F
100
AcDbEntity
  8
0
 62
     7
100
AcDbCircle
 10
31.152966
 20
143.149994
 30
0.0
 40
7.099999904632568
  0
ARC
  5
5F7
330
1F
100
AcDbEntity
  8
0
 62
     7
100
AcDbCircle
 10
31.152733
 20
143.149597
 30
0.0
 40
7.154872894287109
100
AcDbArc
 50
57.494627
 51
61.351983
  0
ARC
  5
5F8
330
1F
100
AcDbEntity
  8
0
 62
     7
100
AcDbCircle
 10
31.152973
 20
143.149994
 30
0.0
 40
7.154425144195557
100
AcDbArc
 50
61.352113
 51
122.505467
  0
POLYLINE
  5
5F9
330
1F
100
AcDbEntity
  8
0
 62
     7
100
AcDb2dPolyline
 66
     1
 10
0.0
 20
0.0
 30
0.0
  0
VERTEX
  5
5FA
330
5F9
100
AcDbEntity
  8
0
100
AcDbVertex
100
AcDb2dVertex
 10
27.694908
 20
151.355591
 30
0.0
  0
VERTEX
  5
5FB
330
5F9
100
AcDbEntity
  8
0
100
AcDbVertex
100
AcDb2dVertex
 10
27.750629
 20
151.265656
 30
0.0
  0
VERTEX
  5
5FC
330
5F9
100
AcDbEntity
  8
0
100
AcDbVertex
100
AcDb2dVertex
 10
27.800724
 20
151.172363
 30
0.0
  0
VERTEX
  5
5FD
330
5F9
100
AcDbEntity
  8
0
100
AcDbVertex
100
AcDb2dVertex
 10
27.844986
 20
151.075928
 30
0.0
  0
VERTEX
  5
5FE
330
5F9
100
AcDbEntity
  8
0
100
AcDbVertex
100
AcDb2dVertex
 10
27.883198
 20
150.976685
 30
0.0
  0
VERTEX
  5
5FF
330
5F9
100
AcDbEntity
  8
0
100
AcDbVertex
100
AcDb2dVertex
 10
27.915146
 20
150.874969
 30
0.0
  0
VERTEX
  5
600
330
5F9
100
AcDbEntity
  8
0
100
AcDbVertex
100
AcDb2dVertex
 10
27.940609
 20
150.771057
 30
0.0
  0
VERTEX
  5
601
330
5F9
100
AcDbEntity
  8
0
100
AcDbVertex
100
AcDb2dVertex
 10
27.95937
 20
150.665344
 30
0.0
  0
VERTEX
  5
602
330
5F9
100
AcDbEntity
  8
0
100
AcDbVertex
100
AcDb2dVertex
 10
27.971043
 20
150.560333
 30
0.0
  0
VERTEX
  5
603
330
5F9
100
AcDbEntity
  8
0
100
AcDbVertex
100
AcDb2dVertex
 10
27.975853
 20
150.454285
 30
0.0
  0
VERTEX
  5
604
330
5F9
100
AcDbEntity
  8
0
100
AcDbVertex
100
AcDb2dVertex
 10
27.973602
 20
150.347595
 30
0.0
  0
VERTEX
  5
605
330
5F9
100
AcDbEntity
  8
0
100
AcDbVertex
100
AcDb2dVertex
 10
27.964104
 20
150.240784
 30
0.0
  0
VERTEX
  5
606
330
5F9
100
AcDbEntity
  8
0
100
AcDbVertex
100
AcDb2dVertex
 10
27.947182
 20
150.134308
 30
0.0
  0
VERTEX
  5
607
330
5F9
100
AcDbEntity
  8
0
100
AcDbVertex
100
AcDb2dVertex
 10
27.922703
 20
150.028717
 30
0.0
  0
VERTEX
  5
608
330
5F9
100
AcDbEntity
  8
0
100
AcDbVertex
100
AcDb2dVertex
 10
27.890568
 20
149.924622
 30
0.0
  0
VERTEX
  5
609
330
5F9
100
AcDbEntity
  8
0
100
AcDbVertex
100
AcDb2dVertex
 10
27.852547
 20
149.826782
 30
0.0
  0
VERTEX
  5
60A
330
5F9
100
AcDbEntity
  8
0
100
AcDbVertex
100
AcDb2dVertex
 10
27.807461
 20
149.731476
 30
0.0
  0
VERTEX
  5
60B
330
5F9
100
AcDbEntity
  8
0
100
AcDbVertex
100
AcDb2dVertex
 10
27.755383
 20
149.639221
 30
0.0
  0
VERTEX
  5
60C
330
5F9
100
AcDbEntity
  8
0
100
AcDbVertex
100
AcDb2dVertex
 10
27.696457
 20
149.55069
 30
0.0
  0
VERTEX
  5
60D
330
5F9
100
AcDbEntity
  8
0
100
AcDbVertex
100
AcDb2dVertex
 10
27.664494
 20
149.508026
 30
0.0
  0
VERTEX
  5
60E
330
5F9
100
AcDbEntity
  8
0
100
AcDbVertex
100
AcDb2dVertex
 10
27.630909
 20
149.466492
 30
0.0
  0
VERTEX
  5
60F
330
5F9
100
AcDbEntity
  8
0
100
AcDbVertex
100
AcDb2dVertex
 10
27.583675
 20
149.413055
 30
0.0
  0
VERTEX
  5
610
330
5F9
100
AcDbEntity
  8
0
100
AcDbVertex
100
AcDb2dVertex
 10
27.533737
 20
149.361969
 30
0.0
  0
VERTEX
  5
611
330
5F9
100
AcDbEntity
  8
0
100
AcDbVertex
100
AcDb2dVertex
 10
27.48122
 20
149.313446
 30
0.0
  0
VERTEX
  5
612
330
5F9
100
AcDbEntity
  8
0
100
AcDbVertex
100
AcDb2dVertex
 10
27.425861
 20
149.267242
 30
0.0
  0
VERTEX
  5
613
330
5F9
100
AcDbEntity
  8
0
100
AcDbVertex
100
AcDb2dVertex
 10
27.368134
 20
149.223907
 30
0.0
  0
VERTEX
  5
614
330
5F9
100
AcDbEntity
  8
0
100
AcDbVertex
100
AcDb2dVertex
 10
27.308327
 20
149.183594
 30
0.0
  0
SEQEND
  5
615
330
5F9
100
AcDbEntity
  8
0
 62
     7
  0
LINE
  5
616
330
1F
100
AcDbEntity
  8
0
 62
     7
100
AcDbLine
 10
27.63694
 20
151.445435
 30
0.0
 11
27.694908
 21
151.355591
 31
0.0
  0
LINE
  5
617
330
1F
100
AcDbEntity
  8
0
 62
     7
100
AcDbLine
 10
25.302967
 20
150.449982
 30
0.0
 11
24.902966
 21
150.449982
 31
0.0
  0
ARC
  5
618
330
1F
100
AcDbEntity
  8
0
 62
     7
100
AcDbCircle
 10
24.902966
 20
151.699982
 30
0.0
 40
1.25
100
AcDbArc
 50
90.000003
 51
269.999997
  0
LINE
  5
619
330
1F
100
AcDbEntity
  8
0
 62
     7
100
AcDbLine
 10
24.902966
 20
152.949982
 30
0.0
 11
25.302967
 21
152.949982
 31
0.0
  0
ARC
  5
61A
330
1F
100
AcDbEntity
  8
0
 62
     7
100
AcDbCircle
 10
25.302967
 20
151.699982
 30
0.0
 40
1.25
100
AcDbArc
 50
269.999997
 51
90.000003
  0
CIRCLE
  5
61B
330
1F
100
AcDbEntity
  8
0
 62
     7
100
AcDbCircle
 10
37.202965
 20
151.699982
 30
0.0
 40
1.25
  0
ARC
  5
61C
330
1F
100
AcDbEntity
  8
0
 62
     7
100
AcDbCircle
 10
34.462044
 20
157.549988
 30
0.0
 40
0.5
100
AcDbArc
 50
90.000003
 51
221.230582
  0
ARC
  5
61D
330
1F
100
AcDbEntity
  8
0
 62
     7
100
AcDbCircle
 10
27.843887
 20
157.549988
 30
0.0
 40
0.5
100
AcDbArc
 50
318.769437
 51
90.000003
  0
LINE
  5
61E
330
1F
100
AcDbEntity
  8
0
 62
     7
100
AcDbLine
 10
27.052967
 20
160.049988
 30
0.0
 11
27.052967
 21
159.050018
 31
0.0
  0
ARC
  5
61F
330
1F
100
AcDbEntity
  8
0
 62
     7
100
AcDbCircle
 10
25.352966
 20
159.549988
 30
0.0
 40
1.5
100
AcDbArc
 50
340.529081
 51
360.0
  0
LINE
  5
620
330
1F
100
AcDbEntity
  8
0
 62
     7
100
AcDbLine
 10
26.352966
 20
160.049988
 30
0.0
 11
26.352966
 21
160.149994
 31
0.0
  0
ARC
  5
621
330
1F
100
AcDbEntity
  8
0
 62
     7
100
AcDbCircle
 10
25.352966
 20
160.049988
 30
0.0
 40
1.0
100
AcDbArc
 50
269.999997
 51
360.0
  0
LINE
  5
622
330
1F
100
AcDbEntity
  8
0
 62
     7
100
AcDbLine
 10
26.852966
 20
160.149994
 30
0.0
 11
26.852966
 21
159.549988
 31
0.0
  0
LINE
  5
623
330
1F
100
AcDbEntity
  8
0
 62
     7
100
AcDbLine
 10
27.878826
 20
136.850006
 30
0.0
 11
28.101742
 21
136.850006
 31
0.0
  0
LINE
  5
624
330
1F
100
AcDbEntity
  8
0
 62
     7
100
AcDbLine
 10
34.204182
 20
136.850006
 30
0.0
 11
34.427109
 21
136.850006
 31
0.0
  0
LINE
  5
625
330
1F
100
AcDbEntity
  8
0
 62
     7
100
AcDbLine
 10
35.252968
 20
160.149994
 30
0.0
 11
35.252968
 21
160.049957
 31
0.0
  0
LINE
  5
626
330
1F
100
AcDbEntity
  8
0
 62
     7
100
AcDbLine
 10
35.452965
 20
160.149994
 30
0.0
 11
35.452965
 21
159.549988
 31
0.0
  0
ARC
  5
627
330
1F
100
AcDbEntity
  8
0
 62
     7
100
AcDbCircle
 10
36.952965
 20
159.549988
 30
0.0
 40
1.5
100
AcDbArc
 50
180.000009
 51
199.470938
  0
ARC
  5
628
330
1F
100
AcDbEntity
  8
0
 62
     7
100
AcDbCircle
 10
36.952965
 20
160.049988
 30
0.0
 40
1.0
100
AcDbArc
 50
180.000009
 51
269.999997
  0
LINE
  5
629
330
1F
100
AcDbEntity
  8
0
 62
     7
100
AcDbLine
 10
35.952965
 20
160.049988
 30
0.0
 11
35.952965
 21
160.149994
 31
0.0
  0
ARC
  5
62A
330
1F
100
AcDbEntity
  8
0
 62
     7
100
AcDbCircle
 10
31.152966
 20
154.649994
 30
0.0
 40
3.900000095367432
100
AcDbArc
 50
138.769418
 51
41.230577
  0
LINE
  5
62B
330
1F
100
AcDbEntity
  8
0
 62
     7
100
AcDbLine
 10
35.252968
 20
159.050018
 30
0.0
 11
35.252968
 21
160.049988
 31
0.0
  0
LINE
  5
62C
330
1F
100
AcDbEntity
  8
0
 62
     7
100
AcDbLine
 10
27.052967
 20
160.049988
 30
0.0
 11
27.052967
 21
160.150085
 31
0.0
  0
ARC
  5
62D
330
1F
100
AcDbEntity
  8
0
 62
     7
100
AcDbCircle
 10
34.752968
 20
160.049988
 30
0.0
 40
0.5
100
AcDbArc
 50
0.0
 51
11.538233
  0
ARC
  5
62E
330
1F
100
AcDbEntity
  8
0
 62
     7
100
AcDbCircle
 10
31.152966
 20
154.649994
 30
0.0
 40
3.75
100
AcDbArc
 50
80.018316
 51
99.981682
  0
ARC
  5
62F
330
1F
100
AcDbEntity
  8
0
 62
     7
100
AcDbCircle
 10
31.152966
 20
154.649994
 30
0.0
 40
3.75
100
AcDbArc
 50
279.981697
 51
80.018316
  0
ARC
  5
630
330
1F
100
AcDbEntity
  8
0
 62
     7
100
AcDbCircle
 10
31.152966
 20
154.649994
 30
0.0
 40
3.75
100
AcDbArc
 50
260.018304
 51
279.981697
  0
ARC
  5
631
330
1F
100
AcDbEntity
  8
0
 62
     7
100
AcDbCircle
 10
31.152966
 20
154.649994
 30
0.0
 40
3.75
100
AcDbArc
 50
99.981682
 51
260.018304
  0
LINE
  5
632
330
1F
100
AcDbEntity
  8
0
 62
     7
100
AcDbLine
 10
31.802967
 20
158.139984
 30
0.0
 11
31.802967
 21
158.343231
 31
0.0
  0
LINE
  5
633
330
1F
100
AcDbEntity
  8
0
 62
     7
100
AcDbLine
 10
31.802967
 20
151.160004
 30
0.0
 11
31.802967
 21
150.956757
 31
0.0
  0
LINE
  5
634
330
1F
100
AcDbEntity
  8
0
 62
     7
100
AcDbLine
 10
31.802967
 20
158.139984
 30
0.0
 11
31.802967
 21
151.160004
 31
0.0
  0
ARC
  5
635
330
1F
100
AcDbEntity
  8
0
 62
     7
100
AcDbCircle
 10
31.152966
 20
154.649994
 30
0.0
 40
3.549999952316284
100
AcDbArc
 50
280.55029
 51
79.449696
  0
LINE
  5
636
330
1F
100
AcDbEntity
  8
0
 62
     7
100
AcDbLine
 10
30.502968
 20
151.160004
 30
0.0
 11
30.502968
 21
150.956757
 31
0.0
  0
LINE
  5
637
330
1F
100
AcDbEntity
  8
0
 62
     7
100
AcDbLine
 10
30.502968
 20
158.139984
 30
0.0
 11
30.502968
 21
158.343231
 31
0.0
  0
LINE
  5
638
330
1F
100
AcDbEntity
  8
0
 62
     7
100
AcDbLine
 10
30.502968
 20
151.160004
 30
0.0
 11
30.502968
 21
158.139984
 31
0.0
  0
ARC
  5
639
330
1F
100
AcDbEntity
  8
0
 62
     7
100
AcDbCircle
 10
31.152966
 20
154.649994
 30
0.0
 40
3.549999952316284
100
AcDbArc
 50
100.550302
 51
259.449705
  0
CIRCLE
  5
63A
330
1F
100
AcDbEntity
  8
0
 62
     7
100
AcDbCircle
 10
31.152966
 20
143.149994
 30
0.0
 40
7.0
  0
CIRCLE
  5
63B
330
1F
100
AcDbEntity
  8
0
 62
     7
100
AcDbCircle
 10
31.152966
 20
143.149994
 30
0.0
 40
6.900000095367432
  0
LINE
  5
63C
330
1F
100
AcDbEntity
  8
0
 62
     7
100
AcDbLine
 10
33.520103
 20
139.25
 30
0.0
 11
35.714035
 21
143.049988
 31
0.0
  0
ARC
  5
63D
330
1F
100
AcDbEntity
  8
0
 62
     7
100
AcDbCircle
 10
33.346897
 20
139.350006
 30
0.0
 40
0.2000000029802322
100
AcDbArc
 50
269.999997
 51
329.999989
  0
LINE
  5
63E
330
1F
100
AcDbEntity
  8
0
 62
     7
100
AcDbLine
 10
28.959038
 20
139.149994
 30
0.0
 11
33.346897
 21
139.149994
 31
0.0
  0
ARC
  5
63F
330
1F
100
AcDbEntity
  8
0
 62
     7
100
AcDbCircle
 10
28.959038
 20
139.350006
 30
0.0
 40
0.2000000029802322
100
AcDbArc
 50
210.000003
 51
269.999997
  0
LINE
  5
640
330
1F
100
AcDbEntity
  8
0
 62
     7
100
AcDbLine
 10
26.5919
 20
143.049988
 30
0.0
 11
28.785831
 21
139.25
 31
0.0
  0
ARC
  5
641
330
1F
100
AcDbEntity
  8
0
 62
     7
100
AcDbCircle
 10
26.765106
 20
143.149994
 30
0.0
 40
0.2000000029802322
100
AcDbArc
 50
149.999997
 51
210.000003
  0
LINE
  5
642
330
1F
100
AcDbEntity
  8
0
 62
     7
100
AcDbLine
 10
28.785831
 20
147.049988
 30
0.0
 11
26.5919
 21
143.25
 31
0.0
  0
ARC
  5
643
330
1F
100
AcDbEntity
  8
0
 62
     7
100
AcDbCircle
 10
28.959038
 20
146.949982
 30
0.0
 40
0.2000000029802322
100
AcDbArc
 50
90.000003
 51
149.999997
  0
LINE
  5
644
330
1F
100
AcDbEntity
  8
0
 62
     7
100
AcDbLine
 10
33.346897
 20
147.149994
 30
0.0
 11
28.959038
 21
147.149994
 31
0.0
  0
ARC
  5
645
330
1F
100
AcDbEntity
  8
0
 62
     7
100
AcDbCircle
 10
33.346897
 20
146.949982
 30
0.0
 40
0.2000000029802322
100
AcDbArc
 50
30.000001
 51
90.000003
  0
LINE
  5
646
330
1F
100
AcDbEntity
  8
0
 62
     7
100
AcDbLine
 10
35.714035
 20
143.25
 30
0.0
 11
33.520103
 21
147.049988
 31
0.0
  0
ARC
  5
647
330
1F
100
AcDbEntity
  8
0
 62
     7
100
AcDbCircle
 10
35.540829
 20
143.149994
 30
0.0
 40
0.2000000029802322
100
AcDbArc
 50
329.999989
 51
30.000001
  0
ARC
  5
648
330
1F
100
AcDbEntity
  8
0
 62
     7
100
AcDbCircle
 10
31.152966
 20
140.494171
 30
0.0
 40
0.2000000029802322
100
AcDbArc
 50
240.00001
 51
299.999992
  0
LINE
  5
649
330
1F
100
AcDbEntity
  8
0
 62
     7
100
AcDbLine
 10
28.752968
 20
141.648895
 30
0.0
 11
31.052967
 21
140.320984
 31
0.0
  0
ARC
  5
64A
330
1F
100
AcDbEntity
  8
0
 62
     7
100
AcDbCircle
 10
28.852966
 20
141.822083
 30
0.0
 40
0.2000000029802322
100
AcDbArc
 50
179.999991
 51
240.00001
  0
LINE
  5
64B
330
1F
100
AcDbEntity
  8
0
 62
     7
100
AcDbLine
 10
28.652966
 20
144.477905
 30
0.0
 11
28.652966
 21
141.822083
 31
0.0
  0
ARC
  5
64C
330
1F
100
AcDbEntity
  8
0
 62
     7
100
AcDbCircle
 10
28.852966
 20
144.477905
 30
0.0
 40
0.2000000029802322
100
AcDbArc
 50
120.000003
 51
179.999991
  0
LINE
  5
64D
330
1F
100
AcDbEntity
  8
0
 62
     7
100
AcDbLine
 10
31.052967
 20
145.979004
 30
0.0
 11
28.752968
 21
144.651093
 31
0.0
  0
ARC
  5
64E
330
1F
100
AcDbEntity
  8
0
 62
     7
100
AcDbCircle
 10
31.152966
 20
145.805817
 30
0.0
 40
0.2000000029802322
100
AcDbArc
 50
60.000002
 51
120.000003
  0
LINE
  5
64F
330
1F
100
AcDbEntity
  8
0
 62
     7
100
AcDbLine
 10
33.552967
 20
144.651093
 30
0.0
 11
31.252968
 21
145.979004
 31
0.0
  0
ARC
  5
650
330
1F
100
AcDbEntity
  8
0
 62
     7
100
AcDbCircle
 10
33.452965
 20
144.477905
 30
0.0
 40
0.2000000029802322
100
AcDbArc
 50
0.0
 51
60.000002
  0
LINE
  5
651
330
1F
100
AcDbEntity
  8
0
 62
     7
100
AcDbLine
 10
33.652966
 20
141.822083
 30
0.0
 11
33.652966
 21
144.477905
 31
0.0
  0
ARC
  5
652
330
1F
100
AcDbEntity
  8
0
 62
     7
100
AcDbCircle
 10
33.452965
 20
141.822083
 30
0.0
 40
0.2000000029802322
100
AcDbArc
 50
299.999992
 51
360.0
  0
LINE
  5
653
330
1F
100
AcDbEntity
  8
0
 62
     7
100
AcDbLine
 10
31.252968
 20
140.320984
 30
0.0
 11
33.552967
 21
141.648895
 31
0.0
  0
LINE
  5
654
330
1F
100
AcDbEntity
  8
0
 62
     7
100
AcDbLine
 10
34.552967
 20
133.949982
 30
0.0
 11
34.552967
 21
68.149994
 31
0.0
  0
LINE
  5
655
330
1F
100
AcDbEntity
  8
0
 62
     7
100
AcDbLine
 10
27.752968
 20
133.949982
 30
0.0
 11
27.752968
 21
68.149994
 31
0.0
  0
LINE
  5
656
330
1F
100
AcDbEntity
  8
0
 62
     7
100
AcDbLine
 10
34.552967
 20
68.149994
 30
0.0
 11
34.552967
 21
58.149994
 31
0.0
  0
LINE
  5
657
330
1F
100
AcDbEntity
  8
0
 62
     7
100
AcDbLine
 10
27.752968
 20
68.149994
 30
0.0
 11
27.752968
 21
58.149994
 31
0.0
  0
LINE
  5
658
330
1F
100
AcDbEntity
  8
0
 62
     7
100
AcDbLine
 10
34.552967
 20
58.149994
 30
0.0
 11
27.752968
 21
58.149994
 31
0.0
  0
LINE
  5
659
330
1F
100
AcDbEntity
  8
0
 62
     7
100
AcDbLine
 10
39.752945
 20
157.554871
 30
0.0
 11
39.752968
 21
157.549988
 31
0.0
  0
LINE
  5
65A
330
1F
100
AcDbEntity
  8
0
 62
     7
100
AcDbLine
 10
39.751881
 20
157.582916
 30
0.0
 11
39.752968
 21
157.549988
 31
0.0
  0
LINE
  5
65B
330
1F
100
AcDbEntity
  8
0
 62
     7
100
AcDbLine
 10
39.752312
 20
157.575623
 30
0.0
 11
39.752968
 21
157.549988
 31
0.0
  0
POLYLINE
  5
65C
330
1F
100
AcDbEntity
  8
0
 62
     7
100
AcDb2dPolyline
 66
     1
 10
0.0
 20
0.0
 30
0.0
  0
VERTEX
  5
65D
330
65C
100
AcDbEntity
  8
0
100
AcDbVertex
100
AcDb2dVertex
 10
160.660919
 20
69.435509
 30
0.0
  0
VERTEX
  5
65E
330
65C
100
AcDbEntity
  8
0
100
AcDbVertex
100
AcDb2dVertex
 10
160.200912
 20
70.000023
 30
0.0
  0
VERTEX
  5
65F
330
65C
100
AcDbEntity
  8
0
100
AcDbVertex
100
AcDb2dVertex
 10
159.510925
 20
70.241959
 30
0.0
  0
VERTEX
  5
660
330
65C
100
AcDbEntity
  8
0
100
AcDbVertex
100
AcDb2dVertex
 10
158.820923
 20
70.241959
 30
0.0
  0
VERTEX
  5
661
330
65C
100
AcDbEntity
  8
0
100
AcDbVertex
100
AcDb2dVertex
 10
158.13092
 20
70.000023
 30
0.0
  0
VERTEX
  5
662
330
65C
100
AcDbEntity
  8
0
100
AcDbVertex
100
AcDb2dVertex
 10
157.670914
 20
69.354858
 30
0.0
  0
VERTEX
  5
663
330
65C
100
AcDbEntity
  8
0
100
AcDbVertex
100
AcDb2dVertex
 10
157.670914
 20
68.790344
 30
0.0
  0
VERTEX
  5
664
330
65C
100
AcDbEntity
  8
0
100
AcDbVertex
100
AcDb2dVertex
 10
158.073425
 20
68.22583
 30
0.0
  0
SEQEND
  5
665
330
65C
100
AcDbEntity
  8
0
 62
     7
  0
POLYLINE
  5
666
330
1F
100
AcDbEntity
  8
0
 62
     7
100
AcDb2dPolyline
 66
     1
 10
0.0
 20
0.0
 30
0.0
  0
VERTEX
  5
667
330
666
100
AcDbEntity
  8
0
100
AcDbVertex
100
AcDb2dVertex
 10
159.165924
 20
67.822601
 30
0.0
  0
VERTEX
  5
668
330
666
100
AcDbEntity
  8
0
100
AcDbVertex
100
AcDb2dVertex
 10
159.683411
 20
67.661316
 30
0.0
  0
SEQEND
  5
669
330
666
100
AcDbEntity
  8
0
 62
     7
  0
POLYLINE
  5
66A
330
1F
100
AcDbEntity
  8
0
 62
     7
100
AcDb2dPolyline
 66
     1
 10
0.0
 20
0.0
 30
0.0
  0
VERTEX
  5
66B
330
66A
100
AcDbEntity
  8
0
100
AcDbVertex
100
AcDb2dVertex
 10
160.200912
 20
65.403252
 30
0.0
  0
VERTEX
  5
66C
330
66A
100
AcDbEntity
  8
0
100
AcDbVertex
100
AcDb2dVertex
 10
159.510925
 20
65.241959
 30
0.0
  0
VERTEX
  5
66D
330
66A
100
AcDbEntity
  8
0
100
AcDbVertex
100
AcDb2dVertex
 10
158.820923
 20
65.241959
 30
0.0
  0
VERTEX
  5
66E
330
66A
100
AcDbEntity
  8
0
100
AcDbVertex
100
AcDb2dVertex
 10
158.13092
 20
65.564537
 30
0.0
  0
VERTEX
  5
66F
330
66A
100
AcDbEntity
  8
0
100
AcDbVertex
100
AcDb2dVertex
 10
157.670914
 20
66.129059
 30
0.0
  0
SEQEND
  5
670
330
66A
100
AcDbEntity
  8
0
 62
     7
  0
POLYLINE
  5
671
330
1F
100
AcDbEntity
  8
0
 62
     7
100
AcDb2dPolyline
 66
     1
 10
0.0
 20
0.0
 30
0.0
  0
VERTEX
  5
672
330
671
100
AcDbEntity
  8
0
100
AcDbVertex
100
AcDb2dVertex
 10
158.705917
 20
67.903252
 30
0.0
  0
VERTEX
  5
673
330
671
100
AcDbEntity
  8
0
100
AcDbVertex
100
AcDb2dVertex
 10
159.165924
 20
67.822601
 30
0.0
  0
SEQEND
  5
674
330
671
100
AcDbEntity
  8
0
 62
     7
  0
POLYLINE
  5
675
330
1F
100
AcDbEntity
  8
0
 62
     7
100
AcDb2dPolyline
 66
     1
 10
0.0
 20
0.0
 30
0.0
  0
VERTEX
  5
676
330
675
100
AcDbEntity
  8
0
100
AcDbVertex
100
AcDb2dVertex
 10
158.073425
 20
68.22583
 30
0.0
  0
VERTEX
  5
677
330
675
100
AcDbEntity
  8
0
100
AcDbVertex
100
AcDb2dVertex
 10
158.705917
 20
67.903252
 30
0.0
  0
SEQEND
  5
678
330
675
100
AcDbEntity
  8
0
 62
     7
  0
POLYLINE
  5
679
330
1F
100
AcDbEntity
  8
0
 62
     7
100
AcDb2dPolyline
 66
     1
 10
0.0
 20
0.0
 30
0.0
  0
VERTEX
  5
67A
330
679
100
AcDbEntity
  8
0
100
AcDbVertex
100
AcDb2dVertex
 10
160.660919
 20
66.048409
 30
0.0
  0
VERTEX
  5
67B
330
679
100
AcDbEntity
  8
0
100
AcDbVertex
100
AcDb2dVertex
 10
160.200912
 20
65.403252
 30
0.0
  0
SEQEND
  5
67C
330
679
100
AcDbEntity
  8
0
 62
     7
  0
POLYLINE
  5
67D
330
1F
100
AcDbEntity
  8
0
 62
     7
100
AcDb2dPolyline
 66
     1
 10
0.0
 20
0.0
 30
0.0
  0
VERTEX
  5
67E
330
67D
100
AcDbEntity
  8
0
100
AcDbVertex
100
AcDb2dVertex
 10
160.660919
 20
66.774216
 30
0.0
  0
VERTEX
  5
67F
330
67D
100
AcDbEntity
  8
0
100
AcDbVertex
100
AcDb2dVertex
 10
160.660919
 20
66.048409
 30
0.0
  0
SEQEND
  5
680
330
67D
100
AcDbEntity
  8
0
 62
     7
  0
POLYLINE
  5
681
330
1F
100
AcDbEntity
  8
0
 62
     7
100
AcDb2dPolyline
 66
     1
 10
0.0
 20
0.0
 30
0.0
  0
VERTEX
  5
682
330
681
100
AcDbEntity
  8
0
100
AcDbVertex
100
AcDb2dVertex
 10
159.683411
 20
67.661316
 30
0.0
  0
VERTEX
  5
683
330
681
100
AcDbEntity
  8
0
100
AcDbVertex
100
AcDb2dVertex
 10
160.200912
 20
67.33873
 30
0.0
  0
VERTEX
  5
684
330
681
100
AcDbEntity
  8
0
100
AcDbVertex
100
AcDb2dVertex
 10
160.660919
 20
66.774216
 30
0.0
  0
SEQEND
  5
685
330
681
100
AcDbEntity
  8
0
 62
     7
  0
POLYLINE
  5
686
330
1F
100
AcDbEntity
  8
0
 62
     7
100
AcDb2dPolyline
 66
     1
 10
0.0
 20
0.0
 30
0.0
  0
VERTEX
  5
687
330
686
100
AcDbEntity
  8
0
100
AcDbVertex
100
AcDb2dVertex
 10
163.575912
 20
70.241959
 30
0.0
  0
VERTEX
  5
688
330
686
100
AcDbEntity
  8
0
100
AcDbVertex
100
AcDb2dVertex
 10
161.620911
 20
70.241959
 30
0.0
  0
SEQEND
  5
689
330
686
100
AcDbEntity
  8
0
 62
     7
  0
POLYLINE
  5
68A
330
1F
100
AcDbEntity
  8
0
 62
     7
100
AcDb2dPolyline
 66
     1
 10
0.0
 20
0.0
 30
0.0
  0
VERTEX
  5
68B
330
68A
100
AcDbEntity
  8
0
100
AcDbVertex
100
AcDb2dVertex
 10
161.620911
 20
67.822601
 30
0.0
  0
VERTEX
  5
68C
330
68A
100
AcDbEntity
  8
0
100
AcDbVertex
100
AcDb2dVertex
 10
163.690918
 20
67.822601
 30
0.0
  0
SEQEND
  5
68D
330
68A
100
AcDbEntity
  8
0
 62
     7
  0
POLYLINE
  5
68E
330
1F
100
AcDbEntity
  8
0
 62
     7
100
AcDb2dPolyline
 66
     1
 10
0.0
 20
0.0
 30
0.0
  0
VERTEX
  5
68F
330
68E
100
AcDbEntity
  8
0
100
AcDbVertex
100
AcDb2dVertex
 10
161.620911
 20
70.241959
 30
0.0
  0
VERTEX
  5
690
330
68E
100
AcDbEntity
  8
0
100
AcDbVertex
100
AcDb2dVertex
 10
161.620911
 20
65.241959
 30
0.0
  0
SEQEND
  5
691
330
68E
100
AcDbEntity
  8
0
 62
     7
  0
POLYLINE
  5
692
330
1F
100
AcDbEntity
  8
0
 62
     7
100
AcDb2dPolyline
 66
     1
 10
0.0
 20
0.0
 30
0.0
  0
VERTEX
  5
693
330
692
100
AcDbEntity
  8
0
100
AcDbVertex
100
AcDb2dVertex
 10
163.575912
 20
70.241959
 30
0.0
  0
VERTEX
  5
694
330
692
100
AcDbEntity
  8
0
100
AcDbVertex
100
AcDb2dVertex
 10
163.978424
 20
70.000023
 30
0.0
  0
VERTEX
  5
695
330
692
100
AcDbEntity
  8
0
100
AcDbVertex
100
AcDb2dVertex
 10
164.38092
 20
69.435509
 30
0.0
  0
VERTEX
  5
696
330
692
100
AcDbEntity
  8
0
100
AcDbVertex
100
AcDb2dVertex
 10
164.38092
 20
68.629059
 30
0.0
  0
VERTEX
  5
697
330
692
100
AcDbEntity
  8
0
100
AcDbVertex
100
AcDb2dVertex
 10
164.093414
 20
68.145187
 30
0.0
  0
VERTEX
  5
698
330
692
100
AcDbEntity
  8
0
100
AcDbVertex
100
AcDb2dVertex
 10
163.690918
 20
67.822601
 30
0.0
  0
SEQEND
  5
699
330
692
100
AcDbEntity
  8
0
 62
     7
  0
POLYLINE
  5
69A
330
1F
100
AcDbEntity
  8
0
 62
     7
100
AcDb2dPolyline
 66
     1
 10
0.0
 20
0.0
 30
0.0
  0
VERTEX
  5
69B
330
69A
100
AcDbEntity
  8
0
100
AcDbVertex
100
AcDb2dVertex
 10
163.230911
 20
67.822601
 30
0.0
  0
VERTEX
  5
69C
330
69A
100
AcDbEntity
  8
0
100
AcDbVertex
100
AcDb2dVertex
 10
164.38092
 20
65.241959
 30
0.0
  0
SEQEND
  5
69D
330
69A
100
AcDbEntity
  8
0
 62
     7
  0
POLYLINE
  5
69E
330
1F
100
AcDbEntity
  8
0
 62
     7
100
AcDb2dPolyline
 66
     1
 10
0.0
 20
0.0
 30
0.0
  0
VERTEX
  5
69F
330
69E
100
AcDbEntity
  8
0
100
AcDbVertex
100
AcDb2dVertex
 10
168.445923
 20
65.241959
 30
0.0
  0
VERTEX
  5
6A0
330
69E
100
AcDbEntity
  8
0
100
AcDbVertex
100
AcDb2dVertex
 10
165.685913
 20
65.241959
 30
0.0
  0
VERTEX
  5
6A1
330
69E
100
AcDbEntity
  8
0
100
AcDbVertex
100
AcDb2dVertex
 10
167.640915
 20
67.500023
 30
0.0
  0
VERTEX
  5
6A2
330
69E
100
AcDbEntity
  8
0
100
AcDbVertex
100
AcDb2dVertex
 10
168.043411
 20
68.145187
 30
0.0
  0
VERTEX
  5
6A3
330
69E
100
AcDbEntity
  8
0
100
AcDbVertex
100
AcDb2dVertex
 10
168.215912
 20
68.629059
 30
0.0
  0
VERTEX
  5
6A4
330
69E
100
AcDbEntity
  8
0
100
AcDbVertex
100
AcDb2dVertex
 10
168.215912
 20
69.112923
 30
0.0
  0
VERTEX
  5
6A5
330
69E
100
AcDbEntity
  8
0
100
AcDbVertex
100
AcDb2dVertex
 10
168.043411
 20
69.677444
 30
0.0
  0
VERTEX
  5
6A6
330
69E
100
AcDbEntity
  8
0
100
AcDbVertex
100
AcDb2dVertex
 10
167.870911
 20
70.000023
 30
0.0
  0
VERTEX
  5
6A7
330
69E
100
AcDbEntity
  8
0
100
AcDbVertex
100
AcDb2dVertex
 10
167.468414
 20
70.241959
 30
0.0
  0
VERTEX
  5
6A8
330
69E
100
AcDbEntity
  8
0
100
AcDbVertex
100
AcDb2dVertex
 10
166.778412
 20
70.241959
 30
0.0
  0
VERTEX
  5
6A9
330
69E
100
AcDbEntity
  8
0
100
AcDbVertex
100
AcDb2dVertex
 10
166.375916
 20
70.000023
 30
0.0
  0
VERTEX
  5
6AA
330
69E
100
AcDbEntity
  8
0
100
AcDbVertex
100
AcDb2dVertex
 10
166.203415
 20
69.758087
 30
0.0
  0
VERTEX
  5
6AB
330
69E
100
AcDbEntity
  8
0
100
AcDbVertex
100
AcDb2dVertex
 10
165.973419
 20
69.274216
 30
0.0
  0
VERTEX
  5
6AC
330
69E
100
AcDbEntity
  8
0
100
AcDbVertex
100
AcDb2dVertex
 10
165.973419
 20
69.03228
 30
0.0
  0
SEQEND
  5
6AD
330
69E
100
AcDbEntity
  8
0
 62
     7
  0
POLYLINE
  5
6AE
330
1F
100
AcDbEntity
  8
0
 62
     7
100
AcDb2dPolyline
 66
     1
 10
0.0
 20
0.0
 30
0.0
  0
VERTEX
  5
6AF
330
6AE
100
AcDbEntity
  8
0
100
AcDbVertex
100
AcDb2dVertex
 10
172.280914
 20
67.016151
 30
0.0
  0
VERTEX
  5
6B0
330
6AE
100
AcDbEntity
  8
0
100
AcDbVertex
100
AcDb2dVertex
 10
169.635925
 20
67.016151
 30
0.0
  0
VERTEX
  5
6B1
330
6AE
100
AcDbEntity
  8
0
100
AcDbVertex
100
AcDb2dVertex
 10
171.590912
 20
70.241959
 30
0.0
  0
VERTEX
  5
6B2
330
6AE
100
AcDbEntity
  8
0
100
AcDbVertex
100
AcDb2dVertex
 10
171.590912
 20
67.822601
 30
0.0
  0
VERTEX
  5
6B3
330
6AE
100
AcDbEntity
  8
0
100
AcDbVertex
100
AcDb2dVertex
 10
171.590912
 20
65.241959
 30
0.0
  0
SEQEND
  5
6B4
330
6AE
100
AcDbEntity
  8
0
 62
     7
  0
POLYLINE
  5
6B5
330
1F
100
AcDbEntity
  8
0
 62
     7
100
AcDb2dPolyline
 66
     1
 10
0.0
 20
0.0
 30
0.0
  0
VERTEX
  5
6B6
330
6B5
100
AcDbEntity
  8
0
100
AcDbVertex
100
AcDb2dVertex
 10
173.758423
 20
67.258087
 30
0.0
  0
VERTEX
  5
6B7
330
6B5
100
AcDbEntity
  8
0
100
AcDbVertex
100
AcDb2dVertex
 10
176.403412
 20
67.258087
 30
0.0
  0
SEQEND
  5
6B8
330
6B5
100
AcDbEntity
  8
0
 62
     7
  0
POLYLINE
  5
6B9
330
1F
100
AcDbEntity
  8
0
 62
     7
100
AcDb2dPolyline
 66
     1
 10
0.0
 20
0.0
 30
0.0
 70
     1
  0
VERTEX
  5
6BA
330
6B9
100
AcDbEntity
  8
0
100
AcDbVertex
100
AcDb2dVertex
 10
178.685913
 20
70.241959
 30
0.0
  0
VERTEX
  5
6BB
330
6B9
100
AcDbEntity
  8
0
100
AcDbVertex
100
AcDb2dVertex
 10
178.053421
 20
70.000023
 30
0.0
  0
VERTEX
  5
6BC
330
6B9
100
AcDbEntity
  8
0
100
AcDbVertex
100
AcDb2dVertex
 10
177.650909
 20
69.193573
 30
0.0
  0
VERTEX
  5
6BD
330
6B9
100
AcDbEntity
  8
0
100
AcDbVertex
100
AcDb2dVertex
 10
177.478424
 20
68.387123
 30
0.0
  0
VERTEX
  5
6BE
330
6B9
100
AcDbEntity
  8
0
100
AcDbVertex
100
AcDb2dVertex
 10
177.478424
 20
67.33873
 30
0.0
  0
VERTEX
  5
6BF
330
6B9
100
AcDbEntity
  8
0
100
AcDbVertex
100
AcDb2dVertex
 10
177.650909
 20
66.290344
 30
0.0
  0
VERTEX
  5
6C0
330
6B9
100
AcDbEntity
  8
0
100
AcDbVertex
100
AcDb2dVertex
 10
178.053421
 20
65.483894
 30
0.0
  0
VERTEX
  5
6C1
330
6B9
100
AcDbEntity
  8
0
100
AcDbVertex
100
AcDb2dVertex
 10
178.685913
 20
65.241959
 30
0.0
  0
VERTEX
  5
6C2
330
6B9
100
AcDbEntity
  8
0
100
AcDbVertex
100
AcDb2dVertex
 10
179.14592
 20
65.241959
 30
0.0
  0
VERTEX
  5
6C3
330
6B9
100
AcDbEntity
  8
0
100
AcDbVertex
100
AcDb2dVertex
 10
179.778412
 20
65.483894
 30
0.0
  0
VERTEX
  5
6C4
330
6B9
100
AcDbEntity
  8
0
100
AcDbVertex
100
AcDb2dVertex
 10
180.180908
 20
66.290344
 30
0.0
  0
VERTEX
  5
6C5
330
6B9
100
AcDbEntity
  8
0
100
AcDbVertex
100
AcDb2dVertex
 10
180.353424
 20
67.258087
 30
0.0
  0
VERTEX
  5
6C6
330
6B9
100
AcDbEntity
  8
0
100
AcDbVertex
100
AcDb2dVertex
 10
180.353424
 20
68.387123
 30
0.0
  0
VERTEX
  5
6C7
330
6B9
100
AcDbEntity
  8
0
100
AcDbVertex
100
AcDb2dVertex
 10
180.180908
 20
69.193573
 30
0.0
  0
VERTEX
  5
6C8
330
6B9
100
AcDbEntity
  8
0
100
AcDbVertex
100
AcDb2dVertex
 10
179.778412
 20
70.000023
 30
0.0
  0
VERTEX
  5
6C9
330
6B9
100
AcDbEntity
  8
0
100
AcDbVertex
100
AcDb2dVertex
 10
179.14592
 20
70.241959
 30
0.0
  0
SEQEND
  5
6CA
330
6B9
100
AcDbEntity
  8
0
 62
     7
  0
POLYLINE
  5
6CB
330
1F
100
AcDbEntity
  8
0
 62
     7
100
AcDb2dPolyline
 66
     1
 10
0.0
 20
0.0
 30
0.0
  0
VERTEX
  5
6CC
330
6CB
100
AcDbEntity
  8
0
100
AcDbVertex
100
AcDb2dVertex
 10
182.348419
 20
69.596794
 30
0.0
  0
VERTEX
  5
6CD
330
6CB
100
AcDbEntity
  8
0
100
AcDbVertex
100
AcDb2dVertex
 10
182.980911
 20
70.241959
 30
0.0
  0
VERTEX
  5
6CE
330
6CB
100
AcDbEntity
  8
0
100
AcDbVertex
100
AcDb2dVertex
 10
182.980911
 20
65.241959
 30
0.0
  0
SEQEND
  5
6CF
330
6CB
100
AcDbEntity
  8
0
 62
     7
  0
POLYLINE
  5
6D0
330
1F
100
AcDbEntity
  8
0
 62
     7
100
AcDb2dPolyline
 66
     1
 10
0.0
 20
0.0
 30
0.0
  0
VERTEX
  5
6D1
330
6D0
100
AcDbEntity
  8
0
100
AcDbVertex
100
AcDb2dVertex
 10
182.003418
 20
69.354858
 30
0.0
  0
VERTEX
  5
6D2
330
6D0
100
AcDbEntity
  8
0
100
AcDbVertex
100
AcDb2dVertex
 10
182.348419
 20
69.596794
 30
0.0
  0
SEQEND
  5
6D3
330
6D0
100
AcDbEntity
  8
0
 62
     7
  0
POLYLINE
  5
6D4
330
1F
100
AcDbEntity
  8
0
 62
     7
100
AcDb2dPolyline
 66
     1
 10
0.0
 20
0.0
 30
0.0
  0
VERTEX
  5
6D5
330
6D4
100
AcDbEntity
  8
0
100
AcDbVertex
100
AcDb2dVertex
 10
188.195923
 20
65.241959
 30
0.0
  0
VERTEX
  5
6D6
330
6D4
100
AcDbEntity
  8
0
100
AcDbVertex
100
AcDb2dVertex
 10
185.435913
 20
65.241959
 30
0.0
  0
VERTEX
  5
6D7
330
6D4
100
AcDbEntity
  8
0
100
AcDbVertex
100
AcDb2dVertex
 10
187.390915
 20
67.500023
 30
0.0
  0
VERTEX
  5
6D8
330
6D4
100
AcDbEntity
  8
0
100
AcDbVertex
100
AcDb2dVertex
 10
187.793427
 20
68.145187
 30
0.0
  0
VERTEX
  5
6D9
330
6D4
100
AcDbEntity
  8
0
100
AcDbVertex
100
AcDb2dVertex
 10
187.965912
 20
68.629059
 30
0.0
  0
VERTEX
  5
6DA
330
6D4
100
AcDbEntity
  8
0
100
AcDbVertex
100
AcDb2dVertex
 10
187.965912
 20
69.112923
 30
0.0
  0
VERTEX
  5
6DB
330
6D4
100
AcDbEntity
  8
0
100
AcDbVertex
100
AcDb2dVertex
 10
187.793427
 20
69.677444
 30
0.0
  0
VERTEX
  5
6DC
330
6D4
100
AcDbEntity
  8
0
100
AcDbVertex
100
AcDb2dVertex
 10
187.620911
 20
70.000023
 30
0.0
  0
VERTEX
  5
6DD
330
6D4
100
AcDbEntity
  8
0
100
AcDbVertex
100
AcDb2dVertex
 10
187.218414
 20
70.241959
 30
0.0
  0
VERTEX
  5
6DE
330
6D4
100
AcDbEntity
  8
0
100
AcDbVertex
100
AcDb2dVertex
 10
186.528412
 20
70.241959
 30
0.0
  0
VERTEX
  5
6DF
330
6D4
100
AcDbEntity
  8
0
100
AcDbVertex
100
AcDb2dVertex
 10
186.125916
 20
70.000023
 30
0.0
  0
VERTEX
  5
6E0
330
6D4
100
AcDbEntity
  8
0
100
AcDbVertex
100
AcDb2dVertex
 10
185.953415
 20
69.758087
 30
0.0
  0
VERTEX
  5
6E1
330
6D4
100
AcDbEntity
  8
0
100
AcDbVertex
100
AcDb2dVertex
 10
185.723419
 20
69.274216
 30
0.0
  0
VERTEX
  5
6E2
330
6D4
100
AcDbEntity
  8
0
100
AcDbVertex
100
AcDb2dVertex
 10
185.723419
 20
69.03228
 30
0.0
  0
SEQEND
  5
6E3
330
6D4
100
AcDbEntity
  8
0
 62
     7
  0
ENDSEC
  0
SECTION
  2
OBJECTS
  0
DICTIONARY
  5
C
330
0
100
AcDbDictionary
  3
ACAD_GROUP
350
D
  3
ACAD_MLINESTYLE
350
17
  3
ACAD_SCALELIST
350
47
  0
DICTIONARY
  5
D
102
{ACAD_REACTORS
330
C
102
}
330
C
100
AcDbDictionary
  0
DICTIONARY
  5
17
102
{ACAD_REACTORS
330
C
102
}
330
C
100
AcDbDictionary
  3
STANDARD
350
18
  0
DICTIONARY
  5
47
102
{ACAD_REACTORS
330
C
102
}
330
C
100
AcDbDictionary
  0
MLINESTYLE
  5
18
102
{ACAD_REACTORS
330
17
102
}
330
17
100
AcDbMlineStyle
  2
Standard
 70
     0
  3

 62
   256
 51
90.0
 52
90.0
 71
     2
 49
0.5
 62
   256
  6
BYLAYER
 49
-0.5
 62
   256
  6
BYLAYER
  0
ENDSEC
  0
EOF
