  0
SECTION
  2
HEADER
  9
$ACADVER
  1
AC1015
  9
$ACADMAINTVER
 70
     6
  9
$DWGCODEPAGE
  3
ANSI_1252
  9
$INSBASE
 10
0.0
 20
0.0
 30
0.0
  9
$EXTMIN
 10
0.0
 20
0.0
 30
0.0
  9
$EXTMAX
 10
391.50119
 20
227.700012
 30
2.0
  9
$LIMMIN
 10
0.0
 20
0.0
  9
$LIMMAX
 10
420.0
 20
297.0
  9
$ORTHOMODE
 70
     0
  9
$REGENMODE
 70
     1
  9
$FILLMODE
 70
     1
  9
$QTEXTMODE
 70
     0
  9
$MIRRTEXT
 70
     1
  9
$LTSCALE
 40
1.0
  9
$ATTMODE
 70
     1
  9
$TEXTSIZE
 40
2.5
  9
$TRACEWID
 40
1.0
  9
$TEXTSTYLE
  7
Standard
  9
$CLAYER
  8
0
  9
$CELTYPE
  6
ByLayer
  9
$CECOLOR
 62
   256
  9
$CELTSCALE
 40
1.0
  9
$DISPSILH
 70
     0
  9
$DIMSCALE
 40
1.0
  9
$DIMASZ
 40
2.5
  9
$DIMEXO
 40
0.625
  9
$DIMDLI
 40
3.75
  9
$DIMRND
 40
0.0
  9
$DIMDLE
 40
0.0
  9
$DIMEXE
 40
1.25
  9
$DIMTP
 40
0.0
  9
$DIMTM
 40
0.0
  9
$DIMTXT
 40
2.5
  9
$DIMCEN
 40
2.5
  9
$DIMTSZ
 40
0.0
  9
$DIMTOL
 70
     0
  9
$DIMLIM
 70
     0
  9
$DIMTIH
 70
     0
  9
$DIMTOH
 70
     0
  9
$DIMSE1
 70
     0
  9
$DIMSE2
 70
     0
  9
$DIMTAD
 70
     1
  9
$DIMZIN
 70
     8
  9
$DIMBLK
  1

  9
$DIMASO
 70
     1
  9
$DIMSHO
 70
     1
  9
$DIMPOST
  1

  9
$DIMAPOST
  1

  9
$DIMALT
 70
     0
  9
$DIMALTD
 70
     3
  9
$DIMALTF
 40
0.03937
  9
$DIMLFAC
 40
1.0
  9
$DIMTOFL
 70
     1
  9
$DIMTVP
 40
0.0
  9
$DIMTIX
 70
     0
  9
$DIMSOXD
 70
     0
  9
$DIMSAH
 70
     0
  9
$DIMBLK1
  1

  9
$DIMBLK2
  1

  9
$DIMSTYLE
  2
Standard
  9
$DIMCLRD
 70
     0
  9
$DIMCLRE
 70
     0
  9
$DIMCLRT
 70
     0
  9
$DIMTFAC
 40
1.0
  9
$DIMGAP
 40
0.625
  9
$DIMJUST
 70
     0
  9
$DIMSD1
 70
     0
  9
$DIMSD2
 70
     0
  9
$DIMTOLJ
 70
     0
  9
$DIMTZIN
 70
     8
  9
$DIMALTZ
 70
     0
  9
$DIMALTTZ
 70
     0
  9
$DIMUPT
 70
     0
  9
$DIMDEC
 70
     2
  9
$DIMTDEC
 70
     2
  9
$DIMALTU
 70
     2
  9
$DIMALTTD
 70
     3
  9
$DIMTXSTY
  7
Standard
  9
$DIMAUNIT
 70
     0
  9
$DIMADEC
 70
     0
  9
$DIMALTRND
 40
0.0
  9
$DIMAZIN
 70
     0
  9
$DIMDSEP
 70
    44
  9
$DIMATFIT
 70
     0
  9
$DIMFRAC
 70
     0
  9
$DIMLDRBLK
  1

  9
$DIMLUNIT
 70
     2
  9
$DIMLWD
 70
    -2
  9
$DIMLWE
 70
    -2
  9
$DIMTMOVE
 70
     0
  9
$LUNITS
 70
     2
  9
$LUPREC
 70
     4
  9
$SKETCHINC
 40
1.0
  9
$FILLETRAD
 40
2.5
  9
$AUNITS
 70
     0
  9
$AUPREC
 70
     0
  9
$MENU
  1
.
  9
$ELEVATION
 40
0.0
  9
$PELEVATION
 40
0.0
  9
$THICKNESS
 40
0.0
  9
$LIMCHECK
 70
     0
  9
$CHAMFERA
 40
2.5
  9
$CHAMFERB
 40
2.5
  9
$CHAMFERC
 40
0.0
  9
$CHAMFERD
 40
0.0
  9
$SKPOLY
 70
     0
  9
$TDCREATE
 40
2447893.375
  9
$TDUCREATE
 40
0.0
  9
$TDUPDATE
 40
2459564.423845475
  9
$TDUUPDATE
 40
2459564.048845475
  9
$TDINDWG
 40
0.0
  9
$TDUSRTIMER
 40
0.0
  9
$USRTIMER
 70
     1
  9
$ANGBASE
 50
0.0
  9
$ANGDIR
 70
     0
  9
$PDMODE
 70
     0
  9
$PDSIZE
 40
0.0
  9
$PLINEWID
 40
0.0
  9
$SPLFRAME
 70
     0
  9
$SPLINETYPE
 70
     6
  9
$SPLINESEGS
 70
     8
  9
$HANDSEED
  5
2D8
  9
$SURFTAB1
 70
     6
  9
$SURFTAB2
 70
     6
  9
$SURFTYPE
 70
     6
  9
$SURFU
 70
     6
  9
$SURFV
 70
     6
  9
$UCSBASE
  2

  9
$UCSNAME
  2

  9
$UCSORG
 10
0.0
 20
0.0
 30
0.0
  9
$UCSXDIR
 10
1.0
 20
0.0
 30
0.0
  9
$UCSYDIR
 10
0.0
 20
1.0
 30
0.0
  9
$UCSORTHOREF
  2

  9
$UCSORTHOVIEW
 70
     1
  9
$UCSORGTOP
 10
0.0
 20
0.0
 30
0.0
  9
$UCSORGBOTTOM
 10
0.0
 20
0.0
 30
0.0
  9
$UCSORGLEFT
 10
0.0
 20
0.0
 30
0.0
  9
$UCSORGRIGHT
 10
0.0
 20
0.0
 30
0.0
  9
$UCSORGFRONT
 10
0.0
 20
0.0
 30
0.0
  9
$UCSORGBACK
 10
0.0
 20
0.0
 30
0.0
  9
$PUCSBASE
  2

  9
$PUCSNAME
  2

  9
$PUCSORG
 10
0.0
 20
0.0
 30
0.0
  9
$PUCSXDIR
 10
1.0
 20
0.0
 30
0.0
  9
$PUCSYDIR
 10
0.0
 20
1.0
 30
0.0
  9
$PUCSORTHOREF
  2

  9
$PUCSORTHOVIEW
 70
     0
  9
$PUCSORGTOP
 10
0.0
 20
0.0
 30
0.0
  9
$PUCSORGBOTTOM
 10
0.0
 20
0.0
 30
0.0
  9
$PUCSORGLEFT
 10
0.0
 20
0.0
 30
0.0
  9
$PUCSORGRIGHT
 10
0.0
 20
0.0
 30
0.0
  9
$PUCSORGFRONT
 10
0.0
 20
0.0
 30
0.0
  9
$PUCSORGBACK
 10
0.0
 20
0.0
 30
0.0
  9
$USERI1
 70
     0
  9
$USERI2
 70
     0
  9
$USERI3
 70
     0
  9
$USERI4
 70
     0
  9
$USERI5
 70
     0
  9
$USERR1
 40
0.0
  9
$USERR2
 40
0.0
  9
$USERR3
 40
0.0
  9
$USERR4
 40
0.0
  9
$USERR5
 40
0.0
  9
$WORLDVIEW
 70
     1
  9
$SHADEDGE
 70
     3
  9
$SHADEDIF
 70
    70
  9
$TILEMODE
 70
     1
  9
$MAXACTVP
 70
    64
  9
$PINSBASE
 10
0.0
 20
0.0
 30
0.0
  9
$PLIMCHECK
 70
     0
  9
$PEXTMIN
 10
0.0
 20
0.0
 30
0.0
  9
$PEXTMAX
 10
391.50119
 20
227.700012
 30
2.0
  9
$PLIMMIN
 10
0.0
 20
0.0
  9
$PLIMMAX
 10
420.0
 20
297.0
  9
$UNITMODE
 70
     0
  9
$VISRETAIN
 70
     0
  9
$PLINEGEN
 70
     0
  9
$PSLTSCALE
 70
     1
  9
$TREEDEPTH
 70
  3020
  9
$CMLSTYLE
  2
Standard
  9
$CMLJUST
 70
     0
  9
$CMLSCALE
 40
20.0
  9
$PROXYGRAPHICS
 70
     1
  9
$MEASUREMENT
 70
     1
  9
$CELWEIGHT
370
    -1
  9
$ENDCAPS
280
     0
  9
$JOINSTYLE
280
     0
  9
$LWDISPLAY
290
     0
  9
$INSUNITS
 70
     0
  9
$HYPERLINKBASE
  1

  9
$STYLESHEET
  1

  9
$XEDIT
290
     1
  9
$CEPSNTYPE
380
     0
  9
$PSTYLEMODE
290
     0
  9
$FINGERPRINTGUID
  2
{7E9EA05B-7906-493A-B0AE-E05DF572613A}
  9
$VERSIONGUID
  2
{FAEB1C32-E019-11D5-929B-00C0DF256EC4}
  9
$EXTNAMES
290
     1
  9
$PSVPSCALE
 40
0.0
  9
$OLESTARTUP
290
     0
  0
ENDSEC
  0
SECTION
  2
CLASSES
  0
CLASS
  1
ACDBDICTIONARYWDFLT
  2
AcDbDictionaryWithDefault
  3
ObjectDBX Classes
 90
        0
280
     0
281
     0
  0
CLASS
  1
VISUALSTYLE
  2
AcDbVisualStyle
  3
ObjectDBX Classes
 90
     4095
280
     0
281
     0
  0
CLASS
  1
MATERIAL
  2
AcDbMaterial
  3
ObjectDBX Classes
 90
     1153
280
     0
281
     0
  0
CLASS
  1
SCALE
  2
AcDbScale
  3
ObjectDBX Classes
 90
     1153
280
     0
281
     0
  0
CLASS
  1
SUN
  2
AcDbSun
  3
SCENEOE
 90
     1153
280
     0
281
     0
  0
CLASS
  1
ACDBPLACEHOLDER
  2
AcDbPlaceHolder
  3
ObjectDBX Classes
 90
        0
280
     0
281
     0
  0
CLASS
  1
LAYOUT
  2
AcDbLayout
  3
ObjectDBX Classes
 90
        0
280
     0
281
     0
  0
ENDSEC
  0
SECTION
  2
TABLES
  0
TABLE
  2
VPORT
  5
8
330
0
100
AcDbSymbolTable
 70
     1
  0
VPORT
  5
29
330
8
100
AcDbSymbolTableRecord
100
AcDbViewportTableRecord
  2
*Active
 70
     0
 10
0.0
 20
0.0
 11
1.0
 21
1.0
 12
10.429907
 22
4.5
 13
0.0
 23
0.0
 14
0.5
 24
0.5
 15
0.5
 25
0.5
 16
0.0
 26
0.0
 36
1.0
 17
0.0
 27
0.0
 37
0.0
 40
9.0
 41
1.972973
 42
50.0
 43
0.0
 44
0.0
 50
0.0
 51
0.0
 71
     0
 72
   100
 73
     1
 74
     3
 75
     0
 76
     0
 77
     0
 78
     0
281
     0
 65
     1
110
0.0
120
0.0
130
0.0
111
1.0
121
0.0
131
0.0
112
0.0
122
1.0
132
0.0
 79
     0
146
0.0
  0
ENDTAB
  0
TABLE
  2
LTYPE
  5
5
330
0
100
AcDbSymbolTable
 70
     1
  0
LTYPE
  5
14
330
5
100
AcDbSymbolTableRecord
100
AcDbLinetypeTableRecord
  2
ByBlock
 70
     0
  3

 72
    65
 73
     0
 40
0.0
  0
LTYPE
  5
15
330
5
100
AcDbSymbolTableRecord
100
AcDbLinetypeTableRecord
  2
ByLayer
 70
     0
  3

 72
    65
 73
     0
 40
0.0
  0
LTYPE
  5
16
330
5
100
AcDbSymbolTableRecord
100
AcDbLinetypeTableRecord
  2
Continuous
 70
     0
  3
Solid line
 72
    65
 73
     0
 40
0.0
  0
ENDTAB
  0
TABLE
  2
LAYER
  5
2
330
0
100
AcDbSymbolTable
 70
     1
  0
LAYER
  5
10
330
2
100
AcDbSymbolTableRecord
100
AcDbLayerTableRecord
  2
0
 70
     0
 62
     7
  6
Continuous
370
    -3
390
F
  0
ENDTAB
  0
TABLE
  2
STYLE
  5
3
330
0
100
AcDbSymbolTable
 70
     1
  0
STYLE
  5
11
330
3
100
AcDbSymbolTableRecord
100
AcDbTextStyleTableRecord
  2
Standard
 70
     0
 40
0.0
 41
1.0
 50
0.0
 71
     0
 42
2.5
  3
txt
  4

  0
ENDTAB
  0
TABLE
  2
VIEW
  5
6
330
0
100
AcDbSymbolTable
 70
     0
  0
ENDTAB
  0
TABLE
  2
UCS
  5
7
330
0
100
AcDbSymbolTable
 70
     0
  0
ENDTAB
  0
TABLE
  2
APPID
  5
9
330
0
100
AcDbSymbolTable
 70
     1
  0
APPID
  5
12
330
9
100
AcDbSymbolTableRecord
100
AcDbRegAppTableRecord
  2
ACAD
 70
     0
  0
ENDTAB
  0
TABLE
  2
DIMSTYLE
  5
A
330
0
100
AcDbSymbolTable
 70
     1
100
AcDbDimStyleTable
  0
DIMSTYLE
105
27
330
A
100
AcDbSymbolTableRecord
100
AcDbDimStyleTableRecord
  2
Standard
 70
     0
178
     0
340
11
  0
ENDTAB
  0
TABLE
  2
BLOCK_RECORD
  5
1
330
0
100
AcDbSymbolTable
 70
     1
  0
BLOCK_RECORD
  5
1F
330
1
100
AcDbSymbolTableRecord
100
AcDbBlockTableRecord
  2
*Model_Space
340
22
  0
BLOCK_RECORD
  5
1B
330
1
100
AcDbSymbolTableRecord
100
AcDbBlockTableRecord
  2
*Paper_Space
340
1E
  0
BLOCK_RECORD
  5
23
330
1
100
AcDbSymbolTableRecord
100
AcDbBlockTableRecord
  2
*Paper_Space0
340
26
  0
ENDTAB
  0
ENDSEC
  0
SECTION
  2
BLOCKS
  0
BLOCK
  5
20
330
1F
100
AcDbEntity
  8
0
100
AcDbBlockBegin
  2
*Model_Space
 70
     0
 10
0.0
 20
0.0
 30
0.0
  3
*Model_Space
  1
*Model_Space
  0
ENDBLK
  5
21
330
1F
100
AcDbEntity
  8
0
100
AcDbBlockEnd
  0
BLOCK
  5
1C
330
1B
100
AcDbEntity
 67
     1
  8
0
100
AcDbBlockBegin
  2
*Paper_Space
 70
     0
 10
0.0
 20
0.0
 30
0.0
  3
*Paper_Space
  1
*Paper_Space
  0
ENDBLK
  5
1D
330
1B
100
AcDbEntity
 67
     1
  8
0
100
AcDbBlockEnd
  0
BLOCK
  5
24
330
23
100
AcDbEntity
  8
0
100
AcDbBlockBegin
  2
*Paper_Space0
 70
     0
 10
0.0
 20
0.0
 30
0.0
  3
*Paper_Space0
  1
*Paper_Space0
  0
ENDBLK
  5
25
330
23
100
AcDbEntity
  8
0
100
AcDbBlockEnd
  0
ENDSEC
  0
SECTION
  2
ENTITIES
  0
LINE
  5
6A
330
1F
100
AcDbEntity
  8
0
 62
     7
370
    35
100
AcDbLine
 10
227.998795
 20
221.700012
 30
0.0
 11
227.998795
 21
213.700012
 31
0.0
  0
LINE
  5
6B
330
1F
100
AcDbEntity
  8
0
 62
     7
370
    35
100
AcDbLine
 10
207.998795
 20
222.450012
 30
0.0
 11
208.998795
 21
222.450012
 31
0.0
  0
LINE
  5
6C
330
1F
100
AcDbEntity
  8
0
 62
     7
370
    35
100
AcDbLine
 10
207.998795
 20
212.950012
 30
0.0
 11
208.998795
 21
212.950012
 31
0.0
  0
LINE
  5
6D
330
1F
100
AcDbEntity
  8
0
 62
     7
370
    35
100
AcDbLine
 10
208.998779
 20
222.450012
 30
0.0
 11
211.748795
 21
222.341431
 31
0.0
  0
LINE
  5
6E
330
1F
100
AcDbEntity
  8
0
 62
     7
370
    35
100
AcDbLine
 10
208.998795
 20
212.950012
 30
0.0
 11
211.748795
 21
213.058533
 31
0.0
  0
LINE
  5
6F
330
1F
100
AcDbEntity
  8
0
 62
     7
370
    35
100
AcDbLine
 10
356.00119
 20
133.700012
 30
0.0
 11
356.00119
 21
141.699982
 31
0.0
  0
LINE
  5
70
330
1F
100
AcDbEntity
  8
0
 62
     7
370
    35
100
AcDbLine
 10
391.50119
 20
132.700012
 30
0.0
 11
391.50119
 21
142.700012
 31
0.0
  0
LINE
  5
71
330
1F
100
AcDbEntity
  8
0
 62
     7
370
    35
100
AcDbLine
 10
385.301178
 20
131.800018
 30
0.0
 11
385.301178
 21
143.600006
 31
0.0
  0
LINE
  5
72
330
1F
100
AcDbEntity
  8
0
 62
     7
370
    35
100
AcDbLine
 10
342.00119
 20
134.200012
 30
0.0
 11
342.00119
 21
141.200012
 31
0.0
  0
LINE
  5
73
330
1F
100
AcDbEntity
  8
0
 62
     7
370
    35
100
AcDbLine
 10
361.00119
 20
131.200012
 30
0.0
 11
361.00119
 21
144.200012
 31
0.0
  0
LINE
  5
74
330
1F
100
AcDbEntity
  8
0
 62
     7
370
    35
100
AcDbLine
 10
380.50119
 20
131.200012
 30
0.0
 11
380.50119
 21
144.200012
 31
0.0
  0
LINE
  5
75
330
1F
100
AcDbEntity
  8
0
 62
     7
370
    35
100
AcDbLine
 10
380.50119
 20
131.200012
 30
0.0
 11
361.00119
 21
131.200012
 31
0.0
  0
LINE
  5
76
330
1F
100
AcDbEntity
  8
0
 62
     7
370
    35
100
AcDbLine
 10
380.50119
 20
144.200012
 30
0.0
 11
361.00119
 21
144.200012
 31
0.0
  0
LINE
  5
77
330
1F
100
AcDbEntity
  8
0
 62
     7
370
    35
100
AcDbLine
 10
385.301178
 20
131.800018
 30
0.0
 11
380.50119
 21
131.800018
 31
0.0
  0
LINE
  5
78
330
1F
100
AcDbEntity
  8
0
 62
     7
370
    35
100
AcDbLine
 10
385.301178
 20
143.600006
 30
0.0
 11
380.50119
 21
143.600006
 31
0.0
  0
LINE
  5
79
330
1F
100
AcDbEntity
  8
0
 62
     7
370
    35
100
AcDbLine
 10
391.50119
 20
132.700012
 30
0.0
 11
385.301178
 21
132.700012
 31
0.0
  0
LINE
  5
7A
330
1F
100
AcDbEntity
  8
0
 62
     7
370
    35
100
AcDbLine
 10
391.50119
 20
142.700012
 30
0.0
 11
385.301178
 21
142.700012
 31
0.0
  0
LINE
  5
7B
330
1F
100
AcDbEntity
  8
0
 62
     7
370
    35
100
AcDbLine
 10
342.001221
 20
134.199982
 30
0.0
 11
356.001221
 21
133.699982
 31
0.0
  0
LINE
  5
7C
330
1F
100
AcDbEntity
  8
0
 62
     7
370
    35
100
AcDbLine
 10
361.001221
 20
131.799988
 30
0.0
 11
356.001251
 21
133.699982
 31
0.0
  0
LINE
  5
7D
330
1F
100
AcDbEntity
  8
0
 62
     7
370
    35
100
AcDbLine
 10
342.00116
 20
141.199982
 30
0.0
 11
356.00119
 21
141.699982
 31
0.0
  0
LINE
  5
7E
330
1F
100
AcDbEntity
  8
0
 62
     7
370
    35
100
AcDbLine
 10
361.001221
 20
143.599915
 30
0.0
 11
356.001251
 21
141.699921
 31
0.0
  0
LINE
  5
7F
330
1F
100
AcDbEntity
  8
0
 62
     7
370
    35
100
AcDbLine
 10
377.301178
 20
134.450012
 30
0.0
 11
377.301178
 21
140.950012
 31
0.0
  0
LINE
  5
80
330
1F
100
AcDbEntity
  8
0
 62
     7
370
    35
100
AcDbLine
 10
370.801178
 20
134.450012
 30
0.0
 11
370.801178
 21
140.950012
 31
0.0
  0
LINE
  5
81
330
1F
100
AcDbEntity
  8
0
 62
     7
370
    35
100
AcDbLine
 10
377.301178
 20
134.450012
 30
0.0
 11
370.801178
 21
134.450012
 31
0.0
  0
LINE
  5
82
330
1F
100
AcDbEntity
  8
0
 62
     7
370
    35
100
AcDbLine
 10
377.301178
 20
140.950012
 30
0.0
 11
370.801178
 21
140.950012
 31
0.0
  0
LINE
  5
83
330
1F
100
AcDbEntity
  8
0
 62
     7
370
    35
100
AcDbLine
 10
354.964172
 20
139.700012
 30
0.0
 11
355.482697
 21
137.700012
 31
0.0
  0
LINE
  5
84
330
1F
100
AcDbEntity
  8
0
 62
     7
370
    35
100
AcDbLine
 10
354.459869
 20
133.755066
 30
0.0
 11
354.964142
 21
135.700012
 31
0.0
  0
LINE
  5
85
330
1F
100
AcDbEntity
  8
0
 62
     7
370
    35
100
AcDbLine
 10
354.964172
 20
135.700012
 30
0.0
 11
354.445618
 21
137.700012
 31
0.0
  0
LINE
  5
86
330
1F
100
AcDbEntity
  8
0
 62
     7
370
    35
100
AcDbLine
 10
354.445618
 20
137.700012
 30
0.0
 11
353.927124
 21
135.700012
 31
0.0
  0
LINE
  5
87
330
1F
100
AcDbEntity
  8
0
 62
     7
370
    35
100
AcDbLine
 10
353.927094
 20
135.700012
 30
0.0
 11
354.43103
 21
133.756104
 31
0.0
  0
LINE
  5
88
330
1F
100
AcDbEntity
  8
0
 62
     7
370
    35
100
AcDbLine
 10
353.408691
 20
137.700012
 30
0.0
 11
353.927216
 21
139.700012
 31
0.0
  0
LINE
  5
89
330
1F
100
AcDbEntity
  8
0
 62
     7
370
    35
100
AcDbLine
 10
353.927124
 20
139.700012
 30
0.0
 11
353.432404
 21
141.608276
 31
0.0
  0
LINE
  5
8A
330
1F
100
AcDbEntity
  8
0
 62
     7
370
    35
100
AcDbLine
 10
353.384399
 20
141.606537
 30
0.0
 11
352.890106
 21
139.700012
 31
0.0
  0
LINE
  5
8B
330
1F
100
AcDbEntity
  8
0
 62
     7
370
    35
100
AcDbLine
 10
352.890076
 20
139.700012
 30
0.0
 11
353.4086
 21
137.700012
 31
0.0
  0
LINE
  5
8C
330
1F
100
AcDbEntity
  8
0
 62
     7
370
    35
100
AcDbLine
 10
352.404938
 20
133.828461
 30
0.0
 11
352.890167
 21
135.700012
 31
0.0
  0
LINE
  5
8D
330
1F
100
AcDbEntity
  8
0
 62
     7
370
    35
100
AcDbLine
 10
352.890106
 20
135.700012
 30
0.0
 11
352.371582
 21
137.700012
 31
0.0
  0
LINE
  5
8E
330
1F
100
AcDbEntity
  8
0
 62
     7
370
    35
100
AcDbLine
 10
352.371582
 20
137.700012
 30
0.0
 11
351.853058
 21
135.700012
 31
0.0
  0
LINE
  5
8F
330
1F
100
AcDbEntity
  8
0
 62
     7
370
    35
100
AcDbLine
 10
351.853058
 20
135.700012
 30
0.0
 11
352.337646
 21
133.830872
 31
0.0
  0
LINE
  5
90
330
1F
100
AcDbEntity
  8
0
 62
     7
370
    35
100
AcDbLine
 10
351.334503
 20
137.700012
 30
0.0
 11
351.852997
 21
139.700012
 31
0.0
  0
LINE
  5
91
330
1F
100
AcDbEntity
  8
0
 62
     7
370
    35
100
AcDbLine
 10
355.477844
 20
141.681305
 30
0.0
 11
354.964172
 21
139.700012
 31
0.0
  0
LINE
  5
92
330
1F
100
AcDbEntity
  8
0
 62
     7
370
    35
100
AcDbLine
 10
355.482666
 20
137.700012
 30
0.0
 11
356.00119
 21
139.700012
 31
0.0
  0
LINE
  5
93
330
1F
100
AcDbEntity
  8
0
 62
     7
370
    35
100
AcDbLine
 10
356.001282
 20
139.700043
 30
0.0
 11
355.487488
 21
141.681671
 31
0.0
  0
LINE
  5
94
330
1F
100
AcDbEntity
  8
0
 62
     7
370
    35
100
AcDbLine
 10
351.853058
 20
139.700012
 30
0.0
 11
351.37738
 21
141.534882
 31
0.0
  0
LINE
  5
95
330
1F
100
AcDbEntity
  8
0
 62
     7
370
    35
100
AcDbLine
 10
351.290955
 20
141.531799
 30
0.0
 11
350.81604
 21
139.700012
 31
0.0
  0
LINE
  5
96
330
1F
100
AcDbEntity
  8
0
 62
     7
370
    35
100
AcDbLine
 10
350.816071
 20
139.700012
 30
0.0
 11
351.334595
 21
137.700012
 31
0.0
  0
LINE
  5
97
330
1F
100
AcDbEntity
  8
0
 62
     7
370
    35
100
AcDbLine
 10
350.349854
 20
133.901855
 30
0.0
 11
350.816071
 21
135.700012
 31
0.0
  0
LINE
  5
98
330
1F
100
AcDbEntity
  8
0
 62
     7
370
    35
100
AcDbLine
 10
350.81604
 20
135.700043
 30
0.0
 11
350.297516
 21
137.700012
 31
0.0
  0
LINE
  5
99
330
1F
100
AcDbEntity
  8
0
 62
     7
370
    35
100
AcDbLine
 10
350.297516
 20
137.700012
 30
0.0
 11
349.778992
 21
135.700012
 31
0.0
  0
LINE
  5
9A
330
1F
100
AcDbEntity
  8
0
 62
     7
370
    35
100
AcDbLine
 10
349.778961
 20
135.699982
 30
0.0
 11
350.244171
 21
133.905609
 31
0.0
  0
LINE
  5
9B
330
1F
100
AcDbEntity
  8
0
 62
     7
370
    35
100
AcDbLine
 10
349.260468
 20
137.699982
 30
0.0
 11
349.778992
 21
139.699982
 31
0.0
  0
LINE
  5
9C
330
1F
100
AcDbEntity
  8
0
 62
     7
370
    35
100
AcDbLine
 10
349.778992
 20
139.700043
 30
0.0
 11
349.322327
 21
141.461487
 31
0.0
  0
LINE
  5
9D
330
1F
100
AcDbEntity
  8
0
 62
     7
370
    35
100
AcDbLine
 10
349.197418
 20
141.457001
 30
0.0
 11
348.741913
 21
139.700012
 31
0.0
  0
LINE
  5
9E
330
1F
100
AcDbEntity
  8
0
 62
     7
370
    35
100
AcDbLine
 10
348.741974
 20
139.700012
 30
0.0
 11
349.260468
 21
137.700012
 31
0.0
  0
LINE
  5
9F
330
1F
100
AcDbEntity
  8
0
 62
     7
370
    35
100
AcDbLine
 10
348.29483
 20
133.97522
 30
0.0
 11
348.742004
 21
135.700012
 31
0.0
  0
LINE
  5
A0
330
1F
100
AcDbEntity
  8
0
 62
     7
370
    35
100
AcDbLine
 10
311.307068
 20
141.599976
 30
0.0
 11
311.307068
 21
133.799988
 31
0.0
  0
LINE
  5
A1
330
1F
100
AcDbEntity
  8
0
 62
     7
370
    35
100
AcDbLine
 10
301.357056
 20
133.986847
 30
0.0
 11
301.857056
 21
134.002594
 31
0.0
  0
LINE
  5
A2
330
1F
100
AcDbEntity
  8
0
 62
     7
370
    35
100
AcDbLine
 10
301.357056
 20
141.413116
 30
0.0
 11
301.857056
 21
141.397369
 31
0.0
  0
LINE
  5
A3
330
1F
100
AcDbEntity
  8
0
 62
     7
370
    35
100
AcDbLine
 10
302.857056
 20
141.866119
 30
0.0
 11
302.857056
 21
133.533844
 31
0.0
  0
LINE
  5
A4
330
1F
100
AcDbEntity
  8
0
 62
     7
370
    35
100
AcDbLine
 10
301.857056
 20
141.897614
 30
0.0
 11
301.857056
 21
133.50235
 31
0.0
  0
LINE
  5
A5
330
1F
100
AcDbEntity
  8
0
 62
     7
370
    35
100
AcDbLine
 10
300.207062
 20
133.450378
 30
0.0
 11
301.357056
 21
133.486603
 31
0.0
  0
LINE
  5
A6
330
1F
100
AcDbEntity
  8
0
 62
     7
370
    35
100
AcDbLine
 10
301.357056
 20
141.913361
 30
0.0
 11
301.357056
 21
133.486603
 31
0.0
  0
LINE
  5
A7
330
1F
100
AcDbEntity
  8
0
 62
     7
370
    35
100
AcDbLine
 10
300.207062
 20
141.949585
 30
0.0
 11
301.357056
 21
141.913361
 31
0.0
  0
LINE
  5
A8
330
1F
100
AcDbEntity
  8
0
 62
     7
370
    35
100
AcDbLine
 10
303.357056
 20
141.850372
 30
0.0
 11
303.357056
 21
133.549591
 31
0.0
  0
LINE
  5
A9
330
1F
100
AcDbEntity
  8
0
 62
     7
370
    35
100
AcDbLine
 10
304.857056
 20
141.803131
 30
0.0
 11
304.857056
 21
133.596832
 31
0.0
  0
LINE
  5
AA
330
1F
100
AcDbEntity
  8
0
 62
     7
370
    35
100
AcDbLine
 10
304.357056
 20
141.818878
 30
0.0
 11
304.357056
 21
133.581085
 31
0.0
  0
LINE
  5
AB
330
1F
100
AcDbEntity
  8
0
 62
     7
370
    35
100
AcDbLine
 10
305.857056
 20
141.771637
 30
0.0
 11
305.857056
 21
133.628326
 31
0.0
  0
LINE
  5
AC
330
1F
100
AcDbEntity
  8
0
 62
     7
370
    35
100
AcDbLine
 10
306.357056
 20
141.75589
 30
0.0
 11
306.357056
 21
133.644073
 31
0.0
  0
LINE
  5
AD
330
1F
100
AcDbEntity
  8
0
 62
     7
370
    35
100
AcDbLine
 10
307.857056
 20
141.708649
 30
0.0
 11
307.857056
 21
133.691315
 31
0.0
  0
LINE
  5
AE
330
1F
100
AcDbEntity
  8
0
 62
     7
370
    35
100
AcDbLine
 10
307.357056
 20
141.724396
 30
0.0
 11
307.357056
 21
133.675568
 31
0.0
  0
LINE
  5
AF
330
1F
100
AcDbEntity
  8
0
 62
     7
370
    35
100
AcDbLine
 10
307.857056
 20
133.691315
 30
0.0
 11
311.307068
 21
133.799988
 31
0.0
  0
LINE
  5
B0
330
1F
100
AcDbEntity
  8
0
 62
     7
370
    35
100
AcDbLine
 10
306.357056
 20
133.644073
 30
0.0
 11
307.357056
 21
133.675568
 31
0.0
  0
LINE
  5
B1
330
1F
100
AcDbEntity
  8
0
 62
     7
370
    35
100
AcDbLine
 10
304.857056
 20
133.596832
 30
0.0
 11
305.857056
 21
133.628326
 31
0.0
  0
LINE
  5
B2
330
1F
100
AcDbEntity
  8
0
 62
     7
370
    35
100
AcDbLine
 10
303.357056
 20
133.549591
 30
0.0
 11
304.357056
 21
133.581085
 31
0.0
  0
LINE
  5
B3
330
1F
100
AcDbEntity
  8
0
 62
     7
370
    35
100
AcDbLine
 10
301.857056
 20
133.50235
 30
0.0
 11
302.857056
 21
133.533844
 31
0.0
  0
LINE
  5
B4
330
1F
100
AcDbEntity
  8
0
 62
     7
370
    35
100
AcDbLine
 10
301.857056
 20
141.897614
 30
0.0
 11
302.857056
 21
141.866119
 31
0.0
  0
LINE
  5
B5
330
1F
100
AcDbEntity
  8
0
 62
     7
370
    35
100
AcDbLine
 10
303.357056
 20
141.850372
 30
0.0
 11
304.357056
 21
141.818878
 31
0.0
  0
LINE
  5
B6
330
1F
100
AcDbEntity
  8
0
 62
     7
370
    35
100
AcDbLine
 10
304.857056
 20
141.803131
 30
0.0
 11
305.857056
 21
141.771637
 31
0.0
  0
LINE
  5
B7
330
1F
100
AcDbEntity
  8
0
 62
     7
370
    35
100
AcDbLine
 10
306.357056
 20
141.75589
 30
0.0
 11
307.357056
 21
141.724396
 31
0.0
  0
LINE
  5
B8
330
1F
100
AcDbEntity
  8
0
 62
     7
370
    35
100
AcDbLine
 10
307.857056
 20
141.708649
 30
0.0
 11
311.307068
 21
141.599976
 31
0.0
  0
LINE
  5
B9
330
1F
100
AcDbEntity
  8
0
 62
     7
370
    35
100
AcDbLine
 10
348.741913
 20
135.700012
 30
0.0
 11
348.223389
 21
137.700012
 31
0.0
  0
LINE
  5
BA
330
1F
100
AcDbEntity
  8
0
 62
     7
370
    35
100
AcDbLine
 10
348.22345
 20
137.700012
 30
0.0
 11
347.704926
 21
135.700012
 31
0.0
  0
LINE
  5
BB
330
1F
100
AcDbEntity
  8
0
 62
     7
370
    35
100
AcDbLine
 10
347.704895
 20
135.700012
 30
0.0
 11
348.150726
 21
133.980408
 31
0.0
  0
LINE
  5
BC
330
1F
100
AcDbEntity
  8
0
 62
     7
370
    35
100
AcDbLine
 10
347.186401
 20
137.700012
 30
0.0
 11
347.704956
 21
139.700012
 31
0.0
  0
LINE
  5
BD
330
1F
100
AcDbEntity
  8
0
 62
     7
370
    35
100
AcDbLine
 10
347.704865
 20
139.700012
 30
0.0
 11
347.267212
 21
141.388062
 31
0.0
  0
LINE
  5
BE
330
1F
100
AcDbEntity
  8
0
 62
     7
370
    35
100
AcDbLine
 10
347.104004
 20
141.382263
 30
0.0
 11
346.667877
 21
139.700012
 31
0.0
  0
LINE
  5
BF
330
1F
100
AcDbEntity
  8
0
 62
     7
370
    35
100
AcDbLine
 10
346.667847
 20
139.700012
 30
0.0
 11
347.186371
 21
137.700012
 31
0.0
  0
LINE
  5
C0
330
1F
100
AcDbEntity
  8
0
 62
     7
370
    35
100
AcDbLine
 10
346.239716
 20
134.048645
 30
0.0
 11
346.667847
 21
135.700012
 31
0.0
  0
LINE
  5
C1
330
1F
100
AcDbEntity
  8
0
 62
     7
370
    35
100
AcDbLine
 10
346.667816
 20
135.700012
 30
0.0
 11
346.149323
 21
137.700012
 31
0.0
  0
LINE
  5
C2
330
1F
100
AcDbEntity
  8
0
 62
     7
370
    35
100
AcDbLine
 10
346.149353
 20
137.700012
 30
0.0
 11
345.630829
 21
135.700012
 31
0.0
  0
LINE
  5
C3
330
1F
100
AcDbEntity
  8
0
 62
     7
370
    35
100
AcDbLine
 10
345.630859
 20
135.700012
 30
0.0
 11
346.057312
 21
134.055176
 31
0.0
  0
LINE
  5
C4
330
1F
100
AcDbEntity
  8
0
 62
     7
370
    35
100
AcDbLine
 10
345.112305
 20
137.700012
 30
0.0
 11
345.630829
 21
139.700012
 31
0.0
  0
LINE
  5
C5
330
1F
100
AcDbEntity
  8
0
 62
     7
370
    35
100
AcDbLine
 10
345.630859
 20
139.700012
 30
0.0
 11
345.21225
 21
141.314697
 31
0.0
  0
LINE
  5
C6
330
1F
100
AcDbEntity
  8
0
 62
     7
370
    35
100
AcDbLine
 10
345.010529
 20
141.307495
 30
0.0
 11
344.593781
 21
139.700012
 31
0.0
  0
LINE
  5
C7
330
1F
100
AcDbEntity
  8
0
 62
     7
370
    35
100
AcDbLine
 10
344.593811
 20
139.700012
 30
0.0
 11
345.112335
 21
137.700012
 31
0.0
  0
LINE
  5
C8
330
1F
100
AcDbEntity
  8
0
 62
     7
370
    35
100
AcDbLine
 10
344.184692
 20
134.122009
 30
0.0
 11
344.593781
 21
135.700012
 31
0.0
  0
LINE
  5
C9
330
1F
100
AcDbEntity
  8
0
 62
     7
370
    35
100
AcDbLine
 10
344.593811
 20
135.700012
 30
0.0
 11
344.075287
 21
137.700012
 31
0.0
  0
LINE
  5
CA
330
1F
100
AcDbEntity
  8
0
 62
     7
370
    35
100
AcDbLine
 10
344.075256
 20
137.700012
 30
0.0
 11
343.556763
 21
135.700012
 31
0.0
  0
LINE
  5
CB
330
1F
100
AcDbEntity
  8
0
 62
     7
370
    35
100
AcDbLine
 10
343.556702
 20
135.700012
 30
0.0
 11
343.963745
 21
134.129913
 31
0.0
  0
LINE
  5
CC
330
1F
100
AcDbEntity
  8
0
 62
     7
370
    35
100
AcDbLine
 10
343.038269
 20
137.700012
 30
0.0
 11
343.556793
 21
139.699982
 31
0.0
  0
LINE
  5
CD
330
1F
100
AcDbEntity
  8
0
 62
     7
370
    35
100
AcDbLine
 10
343.556793
 20
139.700012
 30
0.0
 11
343.157196
 21
141.241302
 31
0.0
  0
LINE
  5
CE
330
1F
100
AcDbEntity
  8
0
 62
     7
370
    35
100
AcDbLine
 10
342.917114
 20
141.232727
 30
0.0
 11
342.519745
 21
139.700012
 31
0.0
  0
LINE
  5
CF
330
1F
100
AcDbEntity
  8
0
 62
     7
370
    35
100
AcDbLine
 10
342.519775
 20
139.700012
 30
0.0
 11
343.038269
 21
137.700043
 31
0.0
  0
LINE
  5
D0
330
1F
100
AcDbEntity
  8
0
 62
     7
370
    35
100
AcDbLine
 10
365.301178
 20
134.450012
 30
0.0
 11
365.301178
 21
140.950012
 31
0.0
  0
LINE
  5
D1
330
1F
100
AcDbEntity
  8
0
 62
     7
370
    35
100
AcDbLine
 10
366.801178
 20
134.450012
 30
0.0
 11
366.801178
 21
140.950012
 31
0.0
  0
LINE
  5
D2
330
1F
100
AcDbEntity
  8
0
 62
     7
370
    35
100
AcDbLine
 10
367.301178
 20
134.450012
 30
0.0
 11
367.301178
 21
140.950012
 31
0.0
  0
LINE
  5
D3
330
1F
100
AcDbEntity
  8
0
 62
     7
370
    35
100
AcDbLine
 10
368.801178
 20
134.450012
 30
0.0
 11
368.801178
 21
140.950012
 31
0.0
  0
LINE
  5
D4
330
1F
100
AcDbEntity
  8
0
 62
     7
370
    35
100
AcDbLine
 10
369.301178
 20
134.450012
 30
0.0
 11
369.301178
 21
140.950012
 31
0.0
  0
LINE
  5
D5
330
1F
100
AcDbEntity
  8
0
 62
     7
370
    35
100
AcDbLine
 10
364.801178
 20
134.450012
 30
0.0
 11
364.801178
 21
140.950012
 31
0.0
  0
LINE
  5
D6
330
1F
100
AcDbEntity
  8
0
 62
     7
370
    35
100
AcDbLine
 10
369.301178
 20
134.450012
 30
0.0
 11
368.801178
 21
134.450012
 31
0.0
  0
LINE
  5
D7
330
1F
100
AcDbEntity
  8
0
 62
     7
370
    35
100
AcDbLine
 10
369.301178
 20
140.950012
 30
0.0
 11
368.801178
 21
140.950012
 31
0.0
  0
LINE
  5
D8
330
1F
100
AcDbEntity
  8
0
 62
     7
370
    35
100
AcDbLine
 10
367.301178
 20
134.450012
 30
0.0
 11
366.801178
 21
134.450012
 31
0.0
  0
LINE
  5
D9
330
1F
100
AcDbEntity
  8
0
 62
     7
370
    35
100
AcDbLine
 10
367.301178
 20
140.950012
 30
0.0
 11
366.801178
 21
140.950012
 31
0.0
  0
LINE
  5
DA
330
1F
100
AcDbEntity
  8
0
 62
     7
370
    35
100
AcDbLine
 10
365.301178
 20
134.450012
 30
0.0
 11
364.801178
 21
134.450012
 31
0.0
  0
LINE
  5
DB
330
1F
100
AcDbEntity
  8
0
 62
     7
370
    35
100
AcDbLine
 10
365.301178
 20
140.950012
 30
0.0
 11
364.801178
 21
140.950012
 31
0.0
  0
LINE
  5
DC
330
1F
100
AcDbEntity
  8
0
 62
     7
370
    35
100
AcDbLine
 10
376.301208
 20
137.700012
 30
0.0
 11
373.801208
 21
139.950012
 31
0.0
  0
LINE
  5
DD
330
1F
100
AcDbEntity
  8
0
 62
     7
370
    35
100
AcDbLine
 10
371.801178
 20
136.700012
 30
0.0
 11
371.801178
 21
138.700012
 31
0.0
  0
LINE
  5
DE
330
1F
100
AcDbEntity
  8
0
 62
     7
370
    35
100
AcDbLine
 10
373.80127
 20
135.449921
 30
0.0
 11
376.30127
 21
137.699921
 31
0.0
  0
LINE
  5
DF
330
1F
100
AcDbEntity
  8
0
 62
     7
370
    35
100
AcDbLine
 10
373.801178
 20
138.700012
 30
0.0
 11
373.801178
 21
139.950012
 31
0.0
  0
LINE
  5
E0
330
1F
100
AcDbEntity
  8
0
 62
     7
370
    35
100
AcDbLine
 10
373.801178
 20
136.700012
 30
0.0
 11
371.801178
 21
136.700012
 31
0.0
  0
LINE
  5
E1
330
1F
100
AcDbEntity
  8
0
 62
     7
370
    35
100
AcDbLine
 10
373.801178
 20
138.700012
 30
0.0
 11
371.801178
 21
138.700012
 31
0.0
  0
LINE
  5
E2
330
1F
100
AcDbEntity
  8
0
 62
     7
370
    35
100
AcDbLine
 10
373.801178
 20
135.450012
 30
0.0
 11
373.801178
 21
136.700012
 31
0.0
  0
LINE
  5
E3
330
1F
100
AcDbEntity
  8
0
 62
     7
370
    35
100
AcDbLine
 10
196.557068
 20
141.365875
 30
0.0
 11
196.057068
 21
141.350128
 31
0.0
  0
LINE
  5
E4
330
1F
100
AcDbEntity
  8
0
 62
     7
370
    35
100
AcDbLine
 10
195.057068
 20
141.318634
 30
0.0
 11
194.557068
 21
141.302887
 31
0.0
  0
LINE
  5
E5
330
1F
100
AcDbEntity
  8
0
 62
     7
370
    35
100
AcDbLine
 10
193.557068
 20
141.271393
 30
0.0
 11
193.057068
 21
141.255646
 31
0.0
  0
LINE
  5
E6
330
1F
100
AcDbEntity
  8
0
 62
     7
370
    35
100
AcDbLine
 10
192.057068
 20
141.224152
 30
0.0
 11
191.557068
 21
141.208405
 31
0.0
  0
LINE
  5
E7
330
1F
100
AcDbEntity
  8
0
 62
     7
370
    35
100
AcDbLine
 10
196.557068
 20
134.034088
 30
0.0
 11
196.057068
 21
134.049835
 31
0.0
  0
LINE
  5
E8
330
1F
100
AcDbEntity
  8
0
 62
     7
370
    35
100
AcDbLine
 10
195.057068
 20
134.081329
 30
0.0
 11
194.557068
 21
134.097076
 31
0.0
  0
LINE
  5
E9
330
1F
100
AcDbEntity
  8
0
 62
     7
370
    35
100
AcDbLine
 10
193.557068
 20
134.128571
 30
0.0
 11
193.057068
 21
134.144318
 31
0.0
  0
LINE
  5
EA
330
1F
100
AcDbEntity
  8
0
 62
     7
370
    35
100
AcDbLine
 10
192.057068
 20
134.175812
 30
0.0
 11
191.557068
 21
134.191559
 31
0.0
  0
LINE
  5
EB
330
1F
100
AcDbEntity
  8
0
 62
     7
370
    35
100
AcDbLine
 10
191.557068
 20
141.708649
 30
0.0
 11
188.107071
 21
141.599976
 31
0.0
  0
LINE
  5
EC
330
1F
100
AcDbEntity
  8
0
 62
     7
370
    35
100
AcDbLine
 10
193.057068
 20
141.75589
 30
0.0
 11
192.057068
 21
141.724396
 31
0.0
  0
LINE
  5
ED
330
1F
100
AcDbEntity
  8
0
 62
     7
370
    35
100
AcDbLine
 10
194.557068
 20
141.803131
 30
0.0
 11
193.557068
 21
141.771637
 31
0.0
  0
LINE
  5
EE
330
1F
100
AcDbEntity
  8
0
 62
     7
370
    35
100
AcDbLine
 10
196.057068
 20
141.850372
 30
0.0
 11
195.057068
 21
141.818878
 31
0.0
  0
LINE
  5
EF
330
1F
100
AcDbEntity
  8
0
 62
     7
370
    35
100
AcDbLine
 10
197.557068
 20
141.897614
 30
0.0
 11
196.557068
 21
141.866119
 31
0.0
  0
LINE
  5
F0
330
1F
100
AcDbEntity
  8
0
 62
     7
370
    35
100
AcDbLine
 10
197.557068
 20
133.50235
 30
0.0
 11
196.557068
 21
133.533844
 31
0.0
  0
LINE
  5
F1
330
1F
100
AcDbEntity
  8
0
 62
     7
370
    35
100
AcDbLine
 10
196.057068
 20
133.549591
 30
0.0
 11
195.057068
 21
133.581085
 31
0.0
  0
LINE
  5
F2
330
1F
100
AcDbEntity
  8
0
 62
     7
370
    35
100
AcDbLine
 10
194.557068
 20
133.596832
 30
0.0
 11
193.557068
 21
133.628326
 31
0.0
  0
LINE
  5
F3
330
1F
100
AcDbEntity
  8
0
 62
     7
370
    35
100
AcDbLine
 10
193.057068
 20
133.644073
 30
0.0
 11
192.057068
 21
133.675568
 31
0.0
  0
LINE
  5
F4
330
1F
100
AcDbEntity
  8
0
 62
     7
370
    35
100
AcDbLine
 10
191.557068
 20
133.691315
 30
0.0
 11
188.107071
 21
133.799988
 31
0.0
  0
LINE
  5
F5
330
1F
100
AcDbEntity
  8
0
 62
     7
370
    35
100
AcDbLine
 10
192.057068
 20
141.724396
 30
0.0
 11
192.057068
 21
133.675568
 31
0.0
  0
LINE
  5
F6
330
1F
100
AcDbEntity
  8
0
 62
     7
370
    35
100
AcDbLine
 10
191.557068
 20
141.708649
 30
0.0
 11
191.557068
 21
133.691315
 31
0.0
  0
LINE
  5
F7
330
1F
100
AcDbEntity
  8
0
 62
     7
370
    35
100
AcDbLine
 10
193.057068
 20
141.75589
 30
0.0
 11
193.057068
 21
133.644073
 31
0.0
  0
LINE
  5
F8
330
1F
100
AcDbEntity
  8
0
 62
     7
370
    35
100
AcDbLine
 10
193.557068
 20
141.771637
 30
0.0
 11
193.557068
 21
133.628326
 31
0.0
  0
LINE
  5
F9
330
1F
100
AcDbEntity
  8
0
 62
     7
370
    35
100
AcDbLine
 10
195.057068
 20
141.818878
 30
0.0
 11
195.057068
 21
133.581085
 31
0.0
  0
LINE
  5
FA
330
1F
100
AcDbEntity
  8
0
 62
     7
370
    35
100
AcDbLine
 10
194.557068
 20
141.803131
 30
0.0
 11
194.557068
 21
133.596832
 31
0.0
  0
LINE
  5
FB
330
1F
100
AcDbEntity
  8
0
 62
     7
370
    35
100
AcDbLine
 10
196.057068
 20
141.850372
 30
0.0
 11
196.057068
 21
133.549591
 31
0.0
  0
LINE
  5
FC
330
1F
100
AcDbEntity
  8
0
 62
     7
370
    35
100
AcDbLine
 10
199.207077
 20
141.949585
 30
0.0
 11
198.057068
 21
141.913361
 31
0.0
  0
LINE
  5
FD
330
1F
100
AcDbEntity
  8
0
 62
     7
370
    35
100
AcDbLine
 10
198.057068
 20
141.913361
 30
0.0
 11
198.057068
 21
133.486603
 31
0.0
  0
LINE
  5
FE
330
1F
100
AcDbEntity
  8
0
 62
     7
370
    35
100
AcDbLine
 10
199.207077
 20
133.450378
 30
0.0
 11
198.057068
 21
133.486603
 31
0.0
  0
LINE
  5
FF
330
1F
100
AcDbEntity
  8
0
 62
     7
370
    35
100
AcDbLine
 10
197.557068
 20
141.897614
 30
0.0
 11
197.557068
 21
133.50235
 31
0.0
  0
LINE
  5
100
330
1F
100
AcDbEntity
  8
0
 62
     7
370
    35
100
AcDbLine
 10
196.557068
 20
141.866119
 30
0.0
 11
196.557068
 21
133.533844
 31
0.0
  0
LINE
  5
101
330
1F
100
AcDbEntity
  8
0
 62
     7
370
    35
100
AcDbLine
 10
307.357056
 20
134.175812
 30
0.0
 11
307.857056
 21
134.191559
 31
0.0
  0
LINE
  5
102
330
1F
100
AcDbEntity
  8
0
 62
     7
370
    35
100
AcDbLine
 10
198.057068
 20
141.413116
 30
0.0
 11
197.557068
 21
141.397369
 31
0.0
  0
LINE
  5
103
330
1F
100
AcDbEntity
  8
0
 62
     7
370
    35
100
AcDbLine
 10
305.857056
 20
134.128571
 30
0.0
 11
306.357056
 21
134.144318
 31
0.0
  0
LINE
  5
104
330
1F
100
AcDbEntity
  8
0
 62
     7
370
    35
100
AcDbLine
 10
304.357056
 20
134.081329
 30
0.0
 11
304.857056
 21
134.097076
 31
0.0
  0
LINE
  5
105
330
1F
100
AcDbEntity
  8
0
 62
     7
370
    35
100
AcDbLine
 10
302.857056
 20
134.034088
 30
0.0
 11
303.357056
 21
134.049835
 31
0.0
  0
LINE
  5
106
330
1F
100
AcDbEntity
  8
0
 62
     7
370
    35
100
AcDbLine
 10
212.248795
 20
222.321716
 30
0.0
 11
213.248795
 21
222.282227
 31
0.0
  0
LINE
  5
107
330
1F
100
AcDbEntity
  8
0
 62
     7
370
    35
100
AcDbLine
 10
213.748795
 20
222.262512
 30
0.0
 11
214.748795
 21
222.223022
 31
0.0
  0
LINE
  5
108
330
1F
100
AcDbEntity
  8
0
 62
     7
370
    35
100
AcDbLine
 10
215.248795
 20
222.203247
 30
0.0
 11
216.248795
 21
222.163818
 31
0.0
  0
LINE
  5
109
330
1F
100
AcDbEntity
  8
0
 62
     7
370
    35
100
AcDbLine
 10
216.748795
 20
222.144043
 30
0.0
 11
217.748795
 21
222.104614
 31
0.0
  0
LINE
  5
10A
330
1F
100
AcDbEntity
  8
0
 62
     7
370
    35
100
AcDbLine
 10
218.248795
 20
222.084839
 30
0.0
 11
219.248795
 21
222.04541
 31
0.0
  0
LINE
  5
10B
330
1F
100
AcDbEntity
  8
0
 62
     7
370
    35
100
AcDbLine
 10
219.748795
 20
222.025635
 30
0.0
 11
222.248795
 21
221.926941
 31
0.0
  0
LINE
  5
10C
330
1F
100
AcDbEntity
  8
0
 62
     7
370
    35
100
AcDbLine
 10
222.748795
 20
221.907227
 30
0.0
 11
223.748795
 21
221.867737
 31
0.0
  0
LINE
  5
10D
330
1F
100
AcDbEntity
  8
0
 62
     7
370
    35
100
AcDbLine
 10
224.248795
 20
221.848022
 30
0.0
 11
227.998795
 21
221.700012
 31
0.0
  0
LINE
  5
10E
330
1F
100
AcDbEntity
  8
0
 62
     7
370
    35
100
AcDbLine
 10
224.248795
 20
213.551941
 30
0.0
 11
227.998779
 21
213.700012
 31
0.0
  0
LINE
  5
10F
330
1F
100
AcDbEntity
  8
0
 62
     7
370
    35
100
AcDbLine
 10
222.748795
 20
213.492737
 30
0.0
 11
223.748795
 21
213.532227
 31
0.0
  0
LINE
  5
110
330
1F
100
AcDbEntity
  8
0
 62
     7
370
    35
100
AcDbLine
 10
219.748795
 20
213.374329
 30
0.0
 11
222.248795
 21
213.473022
 31
0.0
  0
LINE
  5
111
330
1F
100
AcDbEntity
  8
0
 62
     7
370
    35
100
AcDbLine
 10
218.248795
 20
213.315125
 30
0.0
 11
219.248795
 21
213.354614
 31
0.0
  0
LINE
  5
112
330
1F
100
AcDbEntity
  8
0
 62
     7
370
    35
100
AcDbLine
 10
216.748795
 20
213.25592
 30
0.0
 11
217.748795
 21
213.29541
 31
0.0
  0
LINE
  5
113
330
1F
100
AcDbEntity
  8
0
 62
     7
370
    35
100
AcDbLine
 10
215.248795
 20
213.196716
 30
0.0
 11
216.248795
 21
213.236145
 31
0.0
  0
LINE
  5
114
330
1F
100
AcDbEntity
  8
0
 62
     7
370
    35
100
AcDbLine
 10
213.748795
 20
213.137512
 30
0.0
 11
214.748795
 21
213.176941
 31
0.0
  0
LINE
  5
115
330
1F
100
AcDbEntity
  8
0
 62
     7
370
    35
100
AcDbLine
 10
212.248795
 20
213.078247
 30
0.0
 11
213.248795
 21
213.117737
 31
0.0
  0
LINE
  5
116
330
1F
100
AcDbEntity
  8
0
 62
     7
370
    35
100
AcDbLine
 10
213.248795
 20
221.78186
 30
0.0
 11
213.748795
 21
221.762085
 31
0.0
  0
LINE
  5
117
330
1F
100
AcDbEntity
  8
0
 62
     7
370
    35
100
AcDbLine
 10
214.748795
 20
221.722595
 30
0.0
 11
215.248795
 21
221.702881
 31
0.0
  0
LINE
  5
118
330
1F
100
AcDbEntity
  8
0
 62
     7
370
    35
100
AcDbLine
 10
216.248795
 20
221.663391
 30
0.0
 11
216.748795
 21
221.643677
 31
0.0
  0
LINE
  5
119
330
1F
100
AcDbEntity
  8
0
 62
     7
370
    35
100
AcDbLine
 10
217.748795
 20
221.604187
 30
0.0
 11
218.248795
 21
221.584473
 31
0.0
  0
LINE
  5
11A
330
1F
100
AcDbEntity
  8
0
 62
     7
370
    35
100
AcDbLine
 10
219.248795
 20
221.544983
 30
0.0
 11
219.748795
 21
221.525269
 31
0.0
  0
LINE
  5
11B
330
1F
100
AcDbEntity
  8
0
 62
     7
370
    35
100
AcDbLine
 10
222.248795
 20
221.426575
 30
0.0
 11
222.748795
 21
221.40686
 31
0.0
  0
LINE
  5
11C
330
1F
100
AcDbEntity
  8
0
 62
     7
370
    35
100
AcDbLine
 10
223.748795
 20
221.367371
 30
0.0
 11
224.248795
 21
221.347595
 31
0.0
  0
LINE
  5
11D
330
1F
100
AcDbEntity
  8
0
 62
     7
370
    35
100
AcDbLine
 10
223.748795
 20
214.032593
 30
0.0
 11
224.248795
 21
214.052368
 31
0.0
  0
LINE
  5
11E
330
1F
100
AcDbEntity
  8
0
 62
     7
370
    35
100
AcDbLine
 10
222.248795
 20
213.973389
 30
0.0
 11
222.748795
 21
213.993164
 31
0.0
  0
LINE
  5
11F
330
1F
100
AcDbEntity
  8
0
 62
     7
370
    35
100
AcDbLine
 10
219.248795
 20
213.85498
 30
0.0
 11
219.748795
 21
213.874695
 31
0.0
  0
LINE
  5
120
330
1F
100
AcDbEntity
  8
0
 62
     7
370
    35
100
AcDbLine
 10
217.748795
 20
213.795776
 30
0.0
 11
218.248795
 21
213.815491
 31
0.0
  0
LINE
  5
121
330
1F
100
AcDbEntity
  8
0
 62
     7
370
    35
100
AcDbLine
 10
216.248795
 20
213.736572
 30
0.0
 11
216.748795
 21
213.756287
 31
0.0
  0
LINE
  5
122
330
1F
100
AcDbEntity
  8
0
 62
     7
370
    35
100
AcDbLine
 10
214.748795
 20
213.677368
 30
0.0
 11
215.248795
 21
213.697083
 31
0.0
  0
LINE
  5
123
330
1F
100
AcDbEntity
  8
0
 62
     7
370
    35
100
AcDbLine
 10
213.248795
 20
213.618164
 30
0.0
 11
213.748795
 21
213.637878
 31
0.0
  0
LINE
  5
124
330
1F
100
AcDbEntity
  8
0
 62
     7
370
    35
100
AcDbLine
 10
224.248795
 20
221.347595
 30
0.0
 11
224.248795
 21
213.551941
 31
0.0
  0
LINE
  5
125
330
1F
100
AcDbEntity
  8
0
 62
     7
370
    35
100
AcDbLine
 10
223.748795
 20
221.367371
 30
0.0
 11
223.748795
 21
213.532227
 31
0.0
  0
LINE
  5
126
330
1F
100
AcDbEntity
  8
0
 62
     7
370
    35
100
AcDbLine
 10
222.748795
 20
221.40686
 30
0.0
 11
222.748795
 21
213.492737
 31
0.0
  0
LINE
  5
127
330
1F
100
AcDbEntity
  8
0
 62
     7
370
    35
100
AcDbLine
 10
222.248795
 20
221.426575
 30
0.0
 11
222.248795
 21
213.473022
 31
0.0
  0
LINE
  5
128
330
1F
100
AcDbEntity
  8
0
 62
     7
370
    35
100
AcDbLine
 10
219.748795
 20
221.525269
 30
0.0
 11
219.748795
 21
213.374329
 31
0.0
  0
LINE
  5
129
330
1F
100
AcDbEntity
  8
0
 62
     7
370
    35
100
AcDbLine
 10
219.248795
 20
221.544983
 30
0.0
 11
219.248795
 21
213.354614
 31
0.0
  0
LINE
  5
12A
330
1F
100
AcDbEntity
  8
0
 62
     7
370
    35
100
AcDbLine
 10
218.248795
 20
221.584473
 30
0.0
 11
218.248795
 21
213.315125
 31
0.0
  0
LINE
  5
12B
330
1F
100
AcDbEntity
  8
0
 62
     7
370
    35
100
AcDbLine
 10
217.748795
 20
221.604187
 30
0.0
 11
217.748795
 21
213.29541
 31
0.0
  0
LINE
  5
12C
330
1F
100
AcDbEntity
  8
0
 62
     7
370
    35
100
AcDbLine
 10
216.748795
 20
221.643677
 30
0.0
 11
216.748795
 21
213.25592
 31
0.0
  0
LINE
  5
12D
330
1F
100
AcDbEntity
  8
0
 62
     7
370
    35
100
AcDbLine
 10
216.248795
 20
221.663391
 30
0.0
 11
216.248795
 21
213.236145
 31
0.0
  0
LINE
  5
12E
330
1F
100
AcDbEntity
  8
0
 62
     7
370
    35
100
AcDbLine
 10
215.248795
 20
221.702881
 30
0.0
 11
215.248795
 21
213.196716
 31
0.0
  0
LINE
  5
12F
330
1F
100
AcDbEntity
  8
0
 62
     7
370
    35
100
AcDbLine
 10
214.748795
 20
221.722595
 30
0.0
 11
214.748795
 21
213.176941
 31
0.0
  0
LINE
  5
130
330
1F
100
AcDbEntity
  8
0
 62
     7
370
    35
100
AcDbLine
 10
213.748795
 20
221.762085
 30
0.0
 11
213.748795
 21
213.137512
 31
0.0
  0
LINE
  5
131
330
1F
100
AcDbEntity
  8
0
 62
     7
370
    35
100
AcDbLine
 10
213.248795
 20
221.78186
 30
0.0
 11
213.248795
 21
213.117737
 31
0.0
  0
LINE
  5
132
330
1F
100
AcDbEntity
  8
0
 62
     7
370
    35
100
AcDbLine
 10
212.248795
 20
221.821289
 30
0.0
 11
212.248795
 21
213.078247
 31
0.0
  0
LINE
  5
133
330
1F
100
AcDbEntity
  8
0
 62
     7
370
    35
100
AcDbLine
 10
211.748795
 20
221.841064
 30
0.0
 11
211.748795
 21
213.058533
 31
0.0
  0
LINE
  5
134
330
1F
100
AcDbEntity
  8
0
 62
     7
370
    35
100
AcDbLine
 10
223.748795
 20
221.867737
 30
0.0
 11
223.748795
 21
221.367371
 31
0.0
  0
LINE
  5
135
330
1F
100
AcDbEntity
  8
0
 62
     7
370
    35
100
AcDbLine
 10
224.248795
 20
221.848022
 30
0.0
 11
224.248795
 21
221.347595
 31
0.0
  0
LINE
  5
136
330
1F
100
AcDbEntity
  8
0
 62
     7
370
    35
100
AcDbLine
 10
222.748795
 20
221.907227
 30
0.0
 11
222.748795
 21
221.40686
 31
0.0
  0
LINE
  5
137
330
1F
100
AcDbEntity
  8
0
 62
     7
370
    35
100
AcDbLine
 10
222.248795
 20
221.926941
 30
0.0
 11
222.248795
 21
221.426575
 31
0.0
  0
LINE
  5
138
330
1F
100
AcDbEntity
  8
0
 62
     7
370
    35
100
AcDbLine
 10
219.248795
 20
222.04541
 30
0.0
 11
219.248795
 21
221.544983
 31
0.0
  0
LINE
  5
139
330
1F
100
AcDbEntity
  8
0
 62
     7
370
    35
100
AcDbLine
 10
219.748795
 20
222.025635
 30
0.0
 11
219.748795
 21
221.525269
 31
0.0
  0
LINE
  5
13A
330
1F
100
AcDbEntity
  8
0
 62
     7
370
    35
100
AcDbLine
 10
218.248795
 20
222.084839
 30
0.0
 11
218.248795
 21
221.584473
 31
0.0
  0
LINE
  5
13B
330
1F
100
AcDbEntity
  8
0
 62
     7
370
    35
100
AcDbLine
 10
217.748795
 20
222.104614
 30
0.0
 11
217.748795
 21
221.604187
 31
0.0
  0
LINE
  5
13C
330
1F
100
AcDbEntity
  8
0
 62
     7
370
    35
100
AcDbLine
 10
216.248795
 20
222.163818
 30
0.0
 11
216.248795
 21
221.663391
 31
0.0
  0
LINE
  5
13D
330
1F
100
AcDbEntity
  8
0
 62
     7
370
    35
100
AcDbLine
 10
216.748795
 20
222.144043
 30
0.0
 11
216.748795
 21
221.643677
 31
0.0
  0
LINE
  5
13E
330
1F
100
AcDbEntity
  8
0
 62
     7
370
    35
100
AcDbLine
 10
212.248795
 20
222.321716
 30
0.0
 11
212.248795
 21
221.821289
 31
0.0
  0
LINE
  5
13F
330
1F
100
AcDbEntity
  8
0
 62
     7
370
    35
100
AcDbLine
 10
215.248795
 20
222.203247
 30
0.0
 11
215.248795
 21
221.702881
 31
0.0
  0
LINE
  5
140
330
1F
100
AcDbEntity
  8
0
 62
     7
370
    35
100
AcDbLine
 10
214.748795
 20
222.223022
 30
0.0
 11
214.748795
 21
221.722595
 31
0.0
  0
LINE
  5
141
330
1F
100
AcDbEntity
  8
0
 62
     7
370
    35
100
AcDbLine
 10
213.248795
 20
222.282227
 30
0.0
 11
213.248795
 21
221.78186
 31
0.0
  0
LINE
  5
142
330
1F
100
AcDbEntity
  8
0
 62
     7
370
    35
100
AcDbLine
 10
213.748795
 20
222.262512
 30
0.0
 11
213.748795
 21
221.762085
 31
0.0
  0
LINE
  5
143
330
1F
100
AcDbEntity
  8
0
 62
     7
370
    35
100
AcDbLine
 10
211.748795
 20
222.341431
 30
0.0
 11
211.748795
 21
221.841064
 31
0.0
  0
LINE
  5
144
330
1F
100
AcDbEntity
  8
0
 62
     7
370
    35
100
AcDbLine
 10
211.748795
 20
221.841064
 30
0.0
 11
212.248795
 21
221.821289
 31
0.0
  0
LINE
  5
145
330
1F
100
AcDbEntity
  8
0
 62
     7
370
    35
100
AcDbLine
 10
307.357056
 20
141.224152
 30
0.0
 11
307.857056
 21
141.208405
 31
0.0
  0
LINE
  5
146
330
1F
100
AcDbEntity
  8
0
 62
     7
370
    35
100
AcDbLine
 10
299.402069
 20
150.899994
 30
0.0
 11
300.207062
 21
150.899994
 31
0.0
  0
LINE
  5
147
330
1F
100
AcDbEntity
  8
0
 62
     7
370
    35
100
AcDbLine
 10
299.407043
 20
150.894989
 30
0.0
 11
300.207062
 21
150.894989
 31
0.0
  0
LINE
  5
148
330
1F
100
AcDbEntity
  8
0
 62
     7
370
    35
100
AcDbLine
 10
305.857056
 20
141.271393
 30
0.0
 11
306.357056
 21
141.255646
 31
0.0
  0
LINE
  5
149
330
1F
100
AcDbEntity
  8
0
 62
     7
370
    35
100
AcDbLine
 10
304.357056
 20
141.318634
 30
0.0
 11
304.857056
 21
141.302887
 31
0.0
  0
LINE
  5
14A
330
1F
100
AcDbEntity
  8
0
 62
     7
370
    35
100
AcDbLine
 10
198.057068
 20
133.986847
 30
0.0
 11
197.557068
 21
134.002594
 31
0.0
  0
LINE
  5
14B
330
1F
100
AcDbEntity
  8
0
 62
     7
370
    35
100
AcDbLine
 10
302.857056
 20
141.365875
 30
0.0
 11
303.357056
 21
141.350128
 31
0.0
  0
LINE
  5
14C
330
1F
100
AcDbEntity
  8
0
 62
     7
370
    35
100
AcDbLine
 10
200.01207
 20
151.699982
 30
0.0
 11
299.402069
 21
151.699982
 31
0.0
  0
LINE
  5
14D
330
1F
100
AcDbEntity
  8
0
 62
     7
370
    35
100
AcDbLine
 10
211.748795
 20
213.558899
 30
0.0
 11
212.248795
 21
213.578674
 31
0.0
  0
LINE
  5
14E
330
1F
100
AcDbEntity
  8
0
 62
     7
370
    35
100
AcDbLine
 10
299.402069
 20
151.699982
 30
0.0
 11
300.207062
 21
151.699982
 31
0.0
  0
LINE
  5
14F
330
1F
100
AcDbEntity
  8
0
 62
     7
370
    35
100
AcDbLine
 10
199.207077
 20
151.699982
 30
0.0
 11
200.01207
 21
151.699982
 31
0.0
  0
LINE
  5
150
330
1F
100
AcDbEntity
  8
0
 62
     7
370
    35
100
AcDbLine
 10
299.402069
 20
150.894989
 30
0.0
 11
299.407043
 21
150.894989
 31
0.0
  0
LINE
  5
151
330
1F
100
AcDbEntity
  8
0
 62
     7
370
    35
100
AcDbLine
 10
188.107071
 20
141.599976
 30
0.0
 11
188.107071
 21
133.799988
 31
0.0
  0
LINE
  5
152
330
1F
100
AcDbEntity
  8
0
 62
     7
370
    35
100
AcDbLine
 10
199.207077
 20
150.899994
 30
0.0
 11
200.01207
 21
150.899994
 31
0.0
  0
LINE
  5
153
330
1F
100
AcDbEntity
  8
0
 62
     7
370
    35
100
AcDbLine
 10
299.402069
 20
150.894989
 30
0.0
 11
299.402069
 21
151.699982
 31
0.0
  0
LINE
  5
154
330
1F
100
AcDbEntity
  8
0
 62
     7
370
    35
100
AcDbLine
 10
199.207077
 20
150.899994
 30
0.0
 11
199.207077
 21
151.699982
 31
0.0
  0
LINE
  5
155
330
1F
100
AcDbEntity
  8
0
 62
     7
370
    35
100
AcDbLine
 10
300.207062
 20
150.899994
 30
0.0
 11
300.207062
 21
151.699982
 31
0.0
  0
LINE
  5
156
330
1F
100
AcDbEntity
  8
0
 62
     7
370
    35
100
AcDbLine
 10
199.207077
 20
123.699982
 30
0.0
 11
300.207062
 21
123.699982
 31
0.0
  0
LINE
  5
157
330
1F
100
AcDbEntity
  8
0
 62
     7
370
    35
100
AcDbLine
 10
192.207077
 20
150.894989
 30
0.0
 11
199.207077
 21
150.894989
 31
0.0
  0
LINE
  5
158
330
1F
100
AcDbEntity
  8
0
 62
     7
370
    35
100
AcDbLine
 10
299.402069
 20
124.5
 30
0.0
 11
300.207062
 21
124.5
 31
0.0
  0
LINE
  5
159
330
1F
100
AcDbEntity
  8
0
 62
     7
370
    35
100
AcDbLine
 10
199.207077
 20
150.894989
 30
0.0
 11
199.207077
 21
142.0
 31
0.0
  0
LINE
  5
15A
330
1F
100
AcDbEntity
  8
0
 62
     7
370
    35
100
AcDbLine
 10
199.207077
 20
150.894989
 30
0.0
 11
200.00708
 21
150.894989
 31
0.0
  0
LINE
  5
15B
330
1F
100
AcDbEntity
  8
0
 62
     7
370
    35
100
AcDbLine
 10
309.207062
 20
126.504974
 30
0.0
 11
309.207062
 21
131.399994
 31
0.0
  0
LINE
  5
15C
330
1F
100
AcDbEntity
  8
0
 62
     7
370
    35
100
AcDbLine
 10
199.207077
 20
142.0
 30
0.0
 11
192.207077
 21
142.0
 31
0.0
  0
LINE
  5
15D
330
1F
100
AcDbEntity
  8
0
 62
     7
370
    35
100
AcDbLine
 10
300.207062
 20
133.399994
 30
0.0
 11
300.207062
 21
124.504974
 31
0.0
  0
LINE
  5
15E
330
1F
100
AcDbEntity
  8
0
 62
     7
370
    35
100
AcDbLine
 10
299.407043
 20
124.504974
 30
0.0
 11
300.207062
 21
124.504974
 31
0.0
  0
LINE
  5
15F
330
1F
100
AcDbEntity
  8
0
 62
     7
370
    35
100
AcDbLine
 10
307.207062
 20
124.504974
 30
0.0
 11
300.207062
 21
124.504974
 31
0.0
  0
LINE
  5
160
330
1F
100
AcDbEntity
  8
0
 62
     7
370
    35
100
AcDbLine
 10
307.207062
 20
133.399994
 30
0.0
 11
300.207062
 21
133.399994
 31
0.0
  0
LINE
  5
161
330
1F
100
AcDbEntity
  8
0
 62
     7
370
    35
100
AcDbLine
 10
190.207077
 20
148.894989
 30
0.0
 11
190.207077
 21
144.0
 31
0.0
  0
LINE
  5
162
330
1F
100
AcDbEntity
  8
0
 62
     7
370
    35
100
AcDbLine
 10
300.207062
 20
124.504974
 30
0.0
 11
300.207062
 21
142.0
 31
0.0
  0
LINE
  5
163
330
1F
100
AcDbEntity
  8
0
 62
     7
370
    35
100
AcDbLine
 10
199.207077
 20
133.399994
 30
0.0
 11
199.207077
 21
132.399994
 31
0.0
  0
LINE
  5
164
330
1F
100
AcDbEntity
  8
0
 62
     7
370
    35
100
AcDbLine
 10
199.207077
 20
132.399994
 30
0.0
 11
199.207077
 21
124.504974
 31
0.0
  0
LINE
  5
165
330
1F
100
AcDbEntity
  8
0
 62
     7
370
    35
100
AcDbLine
 10
300.207062
 20
142.0
 30
0.0
 11
300.207062
 21
143.0
 31
0.0
  0
LINE
  5
166
330
1F
100
AcDbEntity
  8
0
 62
     7
370
    35
100
AcDbLine
 10
300.207062
 20
143.0
 30
0.0
 11
300.207062
 21
150.894989
 31
0.0
  0
LINE
  5
167
330
1F
100
AcDbEntity
  8
0
 62
     7
370
    35
100
AcDbLine
 10
299.402069
 20
124.504974
 30
0.0
 11
299.407043
 21
124.504974
 31
0.0
  0
LINE
  5
168
330
1F
100
AcDbEntity
  8
0
 62
     7
370
    35
100
AcDbLine
 10
199.207077
 20
124.5
 30
0.0
 11
200.01207
 21
124.5
 31
0.0
  0
LINE
  5
169
330
1F
100
AcDbEntity
  8
0
 62
     7
370
    35
100
AcDbLine
 10
200.00708
 20
124.504974
 30
0.0
 11
199.207077
 21
124.504974
 31
0.0
  0
LINE
  5
16A
330
1F
100
AcDbEntity
  8
0
 62
     7
370
    35
100
AcDbLine
 10
200.00708
 20
124.504974
 30
0.0
 11
200.01207
 21
124.504974
 31
0.0
  0
LINE
  5
16B
330
1F
100
AcDbEntity
  8
0
 62
     7
370
    35
100
AcDbLine
 10
199.207077
 20
150.894989
 30
0.0
 11
199.207077
 21
133.399994
 31
0.0
  0
LINE
  5
16C
330
1F
100
AcDbEntity
  8
0
 62
     7
370
    35
100
AcDbLine
 10
199.207077
 20
123.699982
 30
0.0
 11
199.207077
 21
124.5
 31
0.0
  0
LINE
  5
16D
330
1F
100
AcDbEntity
  8
0
 62
     7
370
    35
100
AcDbLine
 10
300.207062
 20
123.699982
 30
0.0
 11
300.207062
 21
124.5
 31
0.0
  0
LINE
  5
16E
330
1F
100
AcDbEntity
  8
0
 62
     7
370
    35
100
AcDbLine
 10
299.402069
 20
123.699982
 30
0.0
 11
299.402069
 21
124.504974
 31
0.0
  0
LINE
  5
16F
330
1F
100
AcDbEntity
  8
0
 62
     7
370
    35
100
AcDbLine
 10
200.00708
 20
150.894989
 30
0.0
 11
200.01207
 21
150.894989
 31
0.0
  0
LINE
  5
170
330
1F
100
AcDbEntity
  8
0
 62
     7
370
    35
100
AcDbLine
 10
200.01207
 20
150.894989
 30
0.0
 11
200.01207
 21
151.699982
 31
0.0
  0
LINE
  5
171
330
1F
100
AcDbEntity
  8
0
 62
     7
370
    35
100
AcDbLine
 10
200.01207
 20
123.699982
 30
0.0
 11
200.01207
 21
124.504974
 31
0.0
  0
LINE
  5
172
330
1F
100
AcDbEntity
  8
0
 62
     7
370
    35
100
AcDbLine
 10
356.00119
 20
73.700012
 30
0.0
 11
356.00119
 21
81.699982
 31
0.0
  0
LINE
  5
173
330
1F
100
AcDbEntity
  8
0
 62
     7
370
    35
100
AcDbLine
 10
391.50119
 20
72.700012
 30
0.0
 11
391.50119
 21
82.700012
 31
0.0
  0
LINE
  5
174
330
1F
100
AcDbEntity
  8
0
 62
     7
370
    35
100
AcDbLine
 10
385.301178
 20
71.800018
 30
0.0
 11
385.301178
 21
83.600006
 31
0.0
  0
LINE
  5
175
330
1F
100
AcDbEntity
  8
0
 62
     7
370
    35
100
AcDbLine
 10
342.00119
 20
74.200012
 30
0.0
 11
342.00119
 21
81.200012
 31
0.0
  0
LINE
  5
176
330
1F
100
AcDbEntity
  8
0
 62
     7
370
    35
100
AcDbLine
 10
361.00119
 20
71.200012
 30
0.0
 11
361.00119
 21
84.200012
 31
0.0
  0
LINE
  5
177
330
1F
100
AcDbEntity
  8
0
 62
     7
370
    35
100
AcDbLine
 10
380.50119
 20
71.200012
 30
0.0
 11
380.50119
 21
84.200012
 31
0.0
  0
LINE
  5
178
330
1F
100
AcDbEntity
  8
0
 62
     7
370
    35
100
AcDbLine
 10
380.50119
 20
71.200012
 30
0.0
 11
361.00119
 21
71.200012
 31
0.0
  0
LINE
  5
179
330
1F
100
AcDbEntity
  8
0
 62
     7
370
    35
100
AcDbLine
 10
380.50119
 20
84.200012
 30
0.0
 11
361.00119
 21
84.200012
 31
0.0
  0
LINE
  5
17A
330
1F
100
AcDbEntity
  8
0
 62
     7
370
    35
100
AcDbLine
 10
385.301178
 20
71.800018
 30
0.0
 11
380.50119
 21
71.800018
 31
0.0
  0
LINE
  5
17B
330
1F
100
AcDbEntity
  8
0
 62
     7
370
    35
100
AcDbLine
 10
385.301178
 20
83.600006
 30
0.0
 11
380.50119
 21
83.600006
 31
0.0
  0
LINE
  5
17C
330
1F
100
AcDbEntity
  8
0
 62
     7
370
    35
100
AcDbLine
 10
391.50119
 20
72.700012
 30
0.0
 11
385.301178
 21
72.700012
 31
0.0
  0
LINE
  5
17D
330
1F
100
AcDbEntity
  8
0
 62
     7
370
    35
100
AcDbLine
 10
391.50119
 20
82.700012
 30
0.0
 11
385.301178
 21
82.700012
 31
0.0
  0
LINE
  5
17E
330
1F
100
AcDbEntity
  8
0
 62
     7
370
    35
100
AcDbLine
 10
342.001221
 20
74.199982
 30
0.0
 11
356.001221
 21
73.699982
 31
0.0
  0
LINE
  5
17F
330
1F
100
AcDbEntity
  8
0
 62
     7
370
    35
100
AcDbLine
 10
361.001221
 20
71.799988
 30
0.0
 11
356.001251
 21
73.699982
 31
0.0
  0
LINE
  5
180
330
1F
100
AcDbEntity
  8
0
 62
     7
370
    35
100
AcDbLine
 10
342.00116
 20
81.199982
 30
0.0
 11
356.00119
 21
81.699982
 31
0.0
  0
LINE
  5
181
330
1F
100
AcDbEntity
  8
0
 62
     7
370
    35
100
AcDbLine
 10
361.001221
 20
83.599915
 30
0.0
 11
356.001251
 21
81.699921
 31
0.0
  0
LINE
  5
182
330
1F
100
AcDbEntity
  8
0
 62
     7
370
    35
100
AcDbLine
 10
354.964172
 20
79.700012
 30
0.0
 11
355.482697
 21
77.700012
 31
0.0
  0
LINE
  5
183
330
1F
100
AcDbEntity
  8
0
 62
     7
370
    35
100
AcDbLine
 10
354.459869
 20
73.755066
 30
0.0
 11
354.964142
 21
75.700012
 31
0.0
  0
LINE
  5
184
330
1F
100
AcDbEntity
  8
0
 62
     7
370
    35
100
AcDbLine
 10
354.964172
 20
75.700012
 30
0.0
 11
354.445618
 21
77.700012
 31
0.0
  0
LINE
  5
185
330
1F
100
AcDbEntity
  8
0
 62
     7
370
    35
100
AcDbLine
 10
354.445618
 20
77.700012
 30
0.0
 11
353.927124
 21
75.700012
 31
0.0
  0
LINE
  5
186
330
1F
100
AcDbEntity
  8
0
 62
     7
370
    35
100
AcDbLine
 10
353.927094
 20
75.700012
 30
0.0
 11
354.43103
 21
73.756104
 31
0.0
  0
LINE
  5
187
330
1F
100
AcDbEntity
  8
0
 62
     7
370
    35
100
AcDbLine
 10
353.408691
 20
77.700012
 30
0.0
 11
353.927216
 21
79.700012
 31
0.0
  0
LINE
  5
188
330
1F
100
AcDbEntity
  8
0
 62
     7
370
    35
100
AcDbLine
 10
353.927124
 20
79.700012
 30
0.0
 11
353.432404
 21
81.608276
 31
0.0
  0
LINE
  5
189
330
1F
100
AcDbEntity
  8
0
 62
     7
370
    35
100
AcDbLine
 10
353.384399
 20
81.606537
 30
0.0
 11
352.890106
 21
79.700012
 31
0.0
  0
LINE
  5
18A
330
1F
100
AcDbEntity
  8
0
 62
     7
370
    35
100
AcDbLine
 10
352.890076
 20
79.700012
 30
0.0
 11
353.4086
 21
77.700012
 31
0.0
  0
LINE
  5
18B
330
1F
100
AcDbEntity
  8
0
 62
     7
370
    35
100
AcDbLine
 10
352.404938
 20
73.828461
 30
0.0
 11
352.890167
 21
75.700012
 31
0.0
  0
LINE
  5
18C
330
1F
100
AcDbEntity
  8
0
 62
     7
370
    35
100
AcDbLine
 10
352.890106
 20
75.700012
 30
0.0
 11
352.371582
 21
77.700012
 31
0.0
  0
LINE
  5
18D
330
1F
100
AcDbEntity
  8
0
 62
     7
370
    35
100
AcDbLine
 10
352.371582
 20
77.700012
 30
0.0
 11
351.853058
 21
75.700012
 31
0.0
  0
LINE
  5
18E
330
1F
100
AcDbEntity
  8
0
 62
     7
370
    35
100
AcDbLine
 10
351.853058
 20
75.700012
 30
0.0
 11
352.337646
 21
73.830872
 31
0.0
  0
LINE
  5
18F
330
1F
100
AcDbEntity
  8
0
 62
     7
370
    35
100
AcDbLine
 10
351.334503
 20
77.700012
 30
0.0
 11
351.852997
 21
79.700012
 31
0.0
  0
LINE
  5
190
330
1F
100
AcDbEntity
  8
0
 62
     7
370
    35
100
AcDbLine
 10
355.477844
 20
81.681305
 30
0.0
 11
354.964172
 21
79.700012
 31
0.0
  0
LINE
  5
191
330
1F
100
AcDbEntity
  8
0
 62
     7
370
    35
100
AcDbLine
 10
355.482666
 20
77.700012
 30
0.0
 11
356.00119
 21
79.700012
 31
0.0
  0
LINE
  5
192
330
1F
100
AcDbEntity
  8
0
 62
     7
370
    35
100
AcDbLine
 10
356.001282
 20
79.700043
 30
0.0
 11
355.487488
 21
81.681671
 31
0.0
  0
LINE
  5
193
330
1F
100
AcDbEntity
  8
0
 62
     7
370
    35
100
AcDbLine
 10
351.853058
 20
79.700012
 30
0.0
 11
351.37738
 21
81.534882
 31
0.0
  0
LINE
  5
194
330
1F
100
AcDbEntity
  8
0
 62
     7
370
    35
100
AcDbLine
 10
351.290955
 20
81.531799
 30
0.0
 11
350.81604
 21
79.700012
 31
0.0
  0
LINE
  5
195
330
1F
100
AcDbEntity
  8
0
 62
     7
370
    35
100
AcDbLine
 10
350.816071
 20
79.700012
 30
0.0
 11
351.334595
 21
77.700012
 31
0.0
  0
LINE
  5
196
330
1F
100
AcDbEntity
  8
0
 62
     7
370
    35
100
AcDbLine
 10
350.349854
 20
73.901855
 30
0.0
 11
350.816071
 21
75.700012
 31
0.0
  0
LINE
  5
197
330
1F
100
AcDbEntity
  8
0
 62
     7
370
    35
100
AcDbLine
 10
350.81604
 20
75.700043
 30
0.0
 11
350.297516
 21
77.700012
 31
0.0
  0
LINE
  5
198
330
1F
100
AcDbEntity
  8
0
 62
     7
370
    35
100
AcDbLine
 10
350.297516
 20
77.700012
 30
0.0
 11
349.778992
 21
75.700012
 31
0.0
  0
LINE
  5
199
330
1F
100
AcDbEntity
  8
0
 62
     7
370
    35
100
AcDbLine
 10
349.778961
 20
75.699982
 30
0.0
 11
350.244171
 21
73.905609
 31
0.0
  0
LINE
  5
19A
330
1F
100
AcDbEntity
  8
0
 62
     7
370
    35
100
AcDbLine
 10
349.260468
 20
77.699982
 30
0.0
 11
349.778992
 21
79.699982
 31
0.0
  0
LINE
  5
19B
330
1F
100
AcDbEntity
  8
0
 62
     7
370
    35
100
AcDbLine
 10
349.778992
 20
79.700043
 30
0.0
 11
349.322327
 21
81.461487
 31
0.0
  0
LINE
  5
19C
330
1F
100
AcDbEntity
  8
0
 62
     7
370
    35
100
AcDbLine
 10
349.197418
 20
81.457001
 30
0.0
 11
348.741913
 21
79.700012
 31
0.0
  0
LINE
  5
19D
330
1F
100
AcDbEntity
  8
0
 62
     7
370
    35
100
AcDbLine
 10
348.741974
 20
79.700012
 30
0.0
 11
349.260468
 21
77.700012
 31
0.0
  0
LINE
  5
19E
330
1F
100
AcDbEntity
  8
0
 62
     7
370
    35
100
AcDbLine
 10
348.29483
 20
73.97522
 30
0.0
 11
348.742004
 21
75.700012
 31
0.0
  0
LINE
  5
19F
330
1F
100
AcDbEntity
  8
0
 62
     7
370
    35
100
AcDbLine
 10
311.307068
 20
81.599976
 30
0.0
 11
311.307068
 21
73.799988
 31
0.0
  0
LINE
  5
1A0
330
1F
100
AcDbEntity
  8
0
 62
     7
370
    35
100
AcDbLine
 10
301.357056
 20
73.986847
 30
0.0
 11
301.857056
 21
74.002594
 31
0.0
  0
LINE
  5
1A1
330
1F
100
AcDbEntity
  8
0
 62
     7
370
    35
100
AcDbLine
 10
301.357056
 20
81.413116
 30
0.0
 11
301.857056
 21
81.397369
 31
0.0
  0
LINE
  5
1A2
330
1F
100
AcDbEntity
  8
0
 62
     7
370
    35
100
AcDbLine
 10
302.857056
 20
81.866119
 30
0.0
 11
302.857056
 21
73.533844
 31
0.0
  0
LINE
  5
1A3
330
1F
100
AcDbEntity
  8
0
 62
     7
370
    35
100
AcDbLine
 10
301.857056
 20
81.897614
 30
0.0
 11
301.857056
 21
73.50235
 31
0.0
  0
LINE
  5
1A4
330
1F
100
AcDbEntity
  8
0
 62
     7
370
    35
100
AcDbLine
 10
300.207062
 20
73.450378
 30
0.0
 11
301.357056
 21
73.486603
 31
0.0
  0
LINE
  5
1A5
330
1F
100
AcDbEntity
  8
0
 62
     7
370
    35
100
AcDbLine
 10
301.357056
 20
81.913361
 30
0.0
 11
301.357056
 21
73.486603
 31
0.0
  0
LINE
  5
1A6
330
1F
100
AcDbEntity
  8
0
 62
     7
370
    35
100
AcDbLine
 10
300.207062
 20
81.949585
 30
0.0
 11
301.357056
 21
81.913361
 31
0.0
  0
LINE
  5
1A7
330
1F
100
AcDbEntity
  8
0
 62
     7
370
    35
100
AcDbLine
 10
303.357056
 20
81.850372
 30
0.0
 11
303.357056
 21
73.549591
 31
0.0
  0
LINE
  5
1A8
330
1F
100
AcDbEntity
  8
0
 62
     7
370
    35
100
AcDbLine
 10
304.857056
 20
81.803131
 30
0.0
 11
304.857056
 21
73.596832
 31
0.0
  0
LINE
  5
1A9
330
1F
100
AcDbEntity
  8
0
 62
     7
370
    35
100
AcDbLine
 10
304.357056
 20
81.818878
 30
0.0
 11
304.357056
 21
73.581085
 31
0.0
  0
LINE
  5
1AA
330
1F
100
AcDbEntity
  8
0
 62
     7
370
    35
100
AcDbLine
 10
305.857056
 20
81.771637
 30
0.0
 11
305.857056
 21
73.628326
 31
0.0
  0
LINE
  5
1AB
330
1F
100
AcDbEntity
  8
0
 62
     7
370
    35
100
AcDbLine
 10
306.357056
 20
81.75589
 30
0.0
 11
306.357056
 21
73.644073
 31
0.0
  0
LINE
  5
1AC
330
1F
100
AcDbEntity
  8
0
 62
     7
370
    35
100
AcDbLine
 10
307.857056
 20
81.708649
 30
0.0
 11
307.857056
 21
73.691315
 31
0.0
  0
LINE
  5
1AD
330
1F
100
AcDbEntity
  8
0
 62
     7
370
    35
100
AcDbLine
 10
307.357056
 20
81.724396
 30
0.0
 11
307.357056
 21
73.675568
 31
0.0
  0
LINE
  5
1AE
330
1F
100
AcDbEntity
  8
0
 62
     7
370
    35
100
AcDbLine
 10
307.857056
 20
73.691315
 30
0.0
 11
311.307068
 21
73.799988
 31
0.0
  0
LINE
  5
1AF
330
1F
100
AcDbEntity
  8
0
 62
     7
370
    35
100
AcDbLine
 10
306.357056
 20
73.644073
 30
0.0
 11
307.357056
 21
73.675568
 31
0.0
  0
LINE
  5
1B0
330
1F
100
AcDbEntity
  8
0
 62
     7
370
    35
100
AcDbLine
 10
304.857056
 20
73.596832
 30
0.0
 11
305.857056
 21
73.628326
 31
0.0
  0
LINE
  5
1B1
330
1F
100
AcDbEntity
  8
0
 62
     7
370
    35
100
AcDbLine
 10
303.357056
 20
73.549591
 30
0.0
 11
304.357056
 21
73.581085
 31
0.0
  0
LINE
  5
1B2
330
1F
100
AcDbEntity
  8
0
 62
     7
370
    35
100
AcDbLine
 10
301.857056
 20
73.50235
 30
0.0
 11
302.857056
 21
73.533844
 31
0.0
  0
LINE
  5
1B3
330
1F
100
AcDbEntity
  8
0
 62
     7
370
    35
100
AcDbLine
 10
301.857056
 20
81.897614
 30
0.0
 11
302.857056
 21
81.866119
 31
0.0
  0
LINE
  5
1B4
330
1F
100
AcDbEntity
  8
0
 62
     7
370
    35
100
AcDbLine
 10
303.357056
 20
81.850372
 30
0.0
 11
304.357056
 21
81.818878
 31
0.0
  0
LINE
  5
1B5
330
1F
100
AcDbEntity
  8
0
 62
     7
370
    35
100
AcDbLine
 10
304.857056
 20
81.803131
 30
0.0
 11
305.857056
 21
81.771637
 31
0.0
  0
LINE
  5
1B6
330
1F
100
AcDbEntity
  8
0
 62
     7
370
    35
100
AcDbLine
 10
306.357056
 20
81.75589
 30
0.0
 11
307.357056
 21
81.724396
 31
0.0
  0
LINE
  5
1B7
330
1F
100
AcDbEntity
  8
0
 62
     7
370
    35
100
AcDbLine
 10
307.857056
 20
81.708649
 30
0.0
 11
311.307068
 21
81.599976
 31
0.0
  0
LINE
  5
1B8
330
1F
100
AcDbEntity
  8
0
 62
     7
370
    35
100
AcDbLine
 10
348.741913
 20
75.700012
 30
0.0
 11
348.223389
 21
77.700012
 31
0.0
  0
LINE
  5
1B9
330
1F
100
AcDbEntity
  8
0
 62
     7
370
    35
100
AcDbLine
 10
348.22345
 20
77.700012
 30
0.0
 11
347.704926
 21
75.700012
 31
0.0
  0
LINE
  5
1BA
330
1F
100
AcDbEntity
  8
0
 62
     7
370
    35
100
AcDbLine
 10
347.704895
 20
75.700012
 30
0.0
 11
348.150726
 21
73.980408
 31
0.0
  0
LINE
  5
1BB
330
1F
100
AcDbEntity
  8
0
 62
     7
370
    35
100
AcDbLine
 10
347.186401
 20
77.700012
 30
0.0
 11
347.704956
 21
79.700012
 31
0.0
  0
LINE
  5
1BC
330
1F
100
AcDbEntity
  8
0
 62
     7
370
    35
100
AcDbLine
 10
347.704865
 20
79.700012
 30
0.0
 11
347.267212
 21
81.388062
 31
0.0
  0
LINE
  5
1BD
330
1F
100
AcDbEntity
  8
0
 62
     7
370
    35
100
AcDbLine
 10
347.104004
 20
81.382263
 30
0.0
 11
346.667877
 21
79.700012
 31
0.0
  0
LINE
  5
1BE
330
1F
100
AcDbEntity
  8
0
 62
     7
370
    35
100
AcDbLine
 10
346.667847
 20
79.700012
 30
0.0
 11
347.186371
 21
77.700012
 31
0.0
  0
LINE
  5
1BF
330
1F
100
AcDbEntity
  8
0
 62
     7
370
    35
100
AcDbLine
 10
346.239716
 20
74.048645
 30
0.0
 11
346.667847
 21
75.700012
 31
0.0
  0
LINE
  5
1C0
330
1F
100
AcDbEntity
  8
0
 62
     7
370
    35
100
AcDbLine
 10
346.667816
 20
75.700012
 30
0.0
 11
346.149323
 21
77.700012
 31
0.0
  0
LINE
  5
1C1
330
1F
100
AcDbEntity
  8
0
 62
     7
370
    35
100
AcDbLine
 10
346.149353
 20
77.700012
 30
0.0
 11
345.630829
 21
75.700012
 31
0.0
  0
LINE
  5
1C2
330
1F
100
AcDbEntity
  8
0
 62
     7
370
    35
100
AcDbLine
 10
345.630859
 20
75.700012
 30
0.0
 11
346.057312
 21
74.055176
 31
0.0
  0
LINE
  5
1C3
330
1F
100
AcDbEntity
  8
0
 62
     7
370
    35
100
AcDbLine
 10
345.112305
 20
77.700012
 30
0.0
 11
345.630829
 21
79.700012
 31
0.0
  0
LINE
  5
1C4
330
1F
100
AcDbEntity
  8
0
 62
     7
370
    35
100
AcDbLine
 10
345.630859
 20
79.700012
 30
0.0
 11
345.21225
 21
81.314697
 31
0.0
  0
LINE
  5
1C5
330
1F
100
AcDbEntity
  8
0
 62
     7
370
    35
100
AcDbLine
 10
345.010529
 20
81.307495
 30
0.0
 11
344.593781
 21
79.700012
 31
0.0
  0
LINE
  5
1C6
330
1F
100
AcDbEntity
  8
0
 62
     7
370
    35
100
AcDbLine
 10
344.593811
 20
79.700012
 30
0.0
 11
345.112335
 21
77.700012
 31
0.0
  0
LINE
  5
1C7
330
1F
100
AcDbEntity
  8
0
 62
     7
370
    35
100
AcDbLine
 10
344.184692
 20
74.122009
 30
0.0
 11
344.593781
 21
75.700012
 31
0.0
  0
LINE
  5
1C8
330
1F
100
AcDbEntity
  8
0
 62
     7
370
    35
100
AcDbLine
 10
344.593811
 20
75.700012
 30
0.0
 11
344.075287
 21
77.700012
 31
0.0
  0
LINE
  5
1C9
330
1F
100
AcDbEntity
  8
0
 62
     7
370
    35
100
AcDbLine
 10
344.075256
 20
77.700012
 30
0.0
 11
343.556763
 21
75.700012
 31
0.0
  0
LINE
  5
1CA
330
1F
100
AcDbEntity
  8
0
 62
     7
370
    35
100
AcDbLine
 10
343.556702
 20
75.700012
 30
0.0
 11
343.963745
 21
74.129913
 31
0.0
  0
LINE
  5
1CB
330
1F
100
AcDbEntity
  8
0
 62
     7
370
    35
100
AcDbLine
 10
343.038269
 20
77.700012
 30
0.0
 11
343.556793
 21
79.699982
 31
0.0
  0
LINE
  5
1CC
330
1F
100
AcDbEntity
  8
0
 62
     7
370
    35
100
AcDbLine
 10
343.556793
 20
79.700012
 30
0.0
 11
343.157196
 21
81.241302
 31
0.0
  0
LINE
  5
1CD
330
1F
100
AcDbEntity
  8
0
 62
     7
370
    35
100
AcDbLine
 10
342.917114
 20
81.232727
 30
0.0
 11
342.519745
 21
79.700012
 31
0.0
  0
LINE
  5
1CE
330
1F
100
AcDbEntity
  8
0
 62
     7
370
    35
100
AcDbLine
 10
342.519775
 20
79.700012
 30
0.0
 11
343.038269
 21
77.700043
 31
0.0
  0
LINE
  5
1CF
330
1F
100
AcDbEntity
  8
0
 62
     7
370
    35
100
AcDbLine
 10
361.00119
 20
78.699982
 30
0.0
 11
366.00119
 21
78.699982
 31
0.0
  0
LINE
  5
1D0
330
1F
100
AcDbEntity
  8
0
 62
     7
370
    35
100
AcDbLine
 10
361.00119
 20
76.699982
 30
0.0
 11
366.00119
 21
76.699982
 31
0.0
  0
LINE
  5
1D1
330
1F
100
AcDbEntity
  8
0
 62
     7
370
    35
100
AcDbLine
 10
196.557068
 20
81.365875
 30
0.0
 11
196.057068
 21
81.350128
 31
0.0
  0
LINE
  5
1D2
330
1F
100
AcDbEntity
  8
0
 62
     7
370
    35
100
AcDbLine
 10
195.057068
 20
81.318634
 30
0.0
 11
194.557068
 21
81.302887
 31
0.0
  0
LINE
  5
1D3
330
1F
100
AcDbEntity
  8
0
 62
     7
370
    35
100
AcDbLine
 10
193.557068
 20
81.271393
 30
0.0
 11
193.057068
 21
81.255646
 31
0.0
  0
LINE
  5
1D4
330
1F
100
AcDbEntity
  8
0
 62
     7
370
    35
100
AcDbLine
 10
192.057068
 20
81.224152
 30
0.0
 11
191.557068
 21
81.208405
 31
0.0
  0
LINE
  5
1D5
330
1F
100
AcDbEntity
  8
0
 62
     7
370
    35
100
AcDbLine
 10
196.557068
 20
74.034088
 30
0.0
 11
196.057068
 21
74.049835
 31
0.0
  0
LINE
  5
1D6
330
1F
100
AcDbEntity
  8
0
 62
     7
370
    35
100
AcDbLine
 10
195.057068
 20
74.081329
 30
0.0
 11
194.557068
 21
74.097076
 31
0.0
  0
LINE
  5
1D7
330
1F
100
AcDbEntity
  8
0
 62
     7
370
    35
100
AcDbLine
 10
193.557068
 20
74.128571
 30
0.0
 11
193.057068
 21
74.144318
 31
0.0
  0
LINE
  5
1D8
330
1F
100
AcDbEntity
  8
0
 62
     7
370
    35
100
AcDbLine
 10
192.057068
 20
74.175812
 30
0.0
 11
191.557068
 21
74.191559
 31
0.0
  0
LINE
  5
1D9
330
1F
100
AcDbEntity
  8
0
 62
     7
370
    35
100
AcDbLine
 10
191.557068
 20
81.708649
 30
0.0
 11
188.107071
 21
81.599976
 31
0.0
  0
LINE
  5
1DA
330
1F
100
AcDbEntity
  8
0
 62
     7
370
    35
100
AcDbLine
 10
193.057068
 20
81.75589
 30
0.0
 11
192.057068
 21
81.724396
 31
0.0
  0
LINE
  5
1DB
330
1F
100
AcDbEntity
  8
0
 62
     7
370
    35
100
AcDbLine
 10
194.557068
 20
81.803131
 30
0.0
 11
193.557068
 21
81.771637
 31
0.0
  0
LINE
  5
1DC
330
1F
100
AcDbEntity
  8
0
 62
     7
370
    35
100
AcDbLine
 10
196.057068
 20
81.850372
 30
0.0
 11
195.057068
 21
81.818878
 31
0.0
  0
LINE
  5
1DD
330
1F
100
AcDbEntity
  8
0
 62
     7
370
    35
100
AcDbLine
 10
197.557068
 20
81.897614
 30
0.0
 11
196.557068
 21
81.866119
 31
0.0
  0
LINE
  5
1DE
330
1F
100
AcDbEntity
  8
0
 62
     7
370
    35
100
AcDbLine
 10
197.557068
 20
73.50235
 30
0.0
 11
196.557068
 21
73.533844
 31
0.0
  0
LINE
  5
1DF
330
1F
100
AcDbEntity
  8
0
 62
     7
370
    35
100
AcDbLine
 10
196.057068
 20
73.549591
 30
0.0
 11
195.057068
 21
73.581085
 31
0.0
  0
LINE
  5
1E0
330
1F
100
AcDbEntity
  8
0
 62
     7
370
    35
100
AcDbLine
 10
194.557068
 20
73.596832
 30
0.0
 11
193.557068
 21
73.628326
 31
0.0
  0
LINE
  5
1E1
330
1F
100
AcDbEntity
  8
0
 62
     7
370
    35
100
AcDbLine
 10
193.057068
 20
73.644073
 30
0.0
 11
192.057068
 21
73.675568
 31
0.0
  0
LINE
  5
1E2
330
1F
100
AcDbEntity
  8
0
 62
     7
370
    35
100
AcDbLine
 10
191.557068
 20
73.691315
 30
0.0
 11
188.107071
 21
73.799988
 31
0.0
  0
LINE
  5
1E3
330
1F
100
AcDbEntity
  8
0
 62
     7
370
    35
100
AcDbLine
 10
192.057068
 20
81.724396
 30
0.0
 11
192.057068
 21
73.675568
 31
0.0
  0
LINE
  5
1E4
330
1F
100
AcDbEntity
  8
0
 62
     7
370
    35
100
AcDbLine
 10
191.557068
 20
81.708649
 30
0.0
 11
191.557068
 21
73.691315
 31
0.0
  0
LINE
  5
1E5
330
1F
100
AcDbEntity
  8
0
 62
     7
370
    35
100
AcDbLine
 10
193.057068
 20
81.75589
 30
0.0
 11
193.057068
 21
73.644073
 31
0.0
  0
LINE
  5
1E6
330
1F
100
AcDbEntity
  8
0
 62
     7
370
    35
100
AcDbLine
 10
193.557068
 20
81.771637
 30
0.0
 11
193.557068
 21
73.628326
 31
0.0
  0
LINE
  5
1E7
330
1F
100
AcDbEntity
  8
0
 62
     7
370
    35
100
AcDbLine
 10
195.057068
 20
81.818878
 30
0.0
 11
195.057068
 21
73.581085
 31
0.0
  0
LINE
  5
1E8
330
1F
100
AcDbEntity
  8
0
 62
     7
370
    35
100
AcDbLine
 10
194.557068
 20
81.803131
 30
0.0
 11
194.557068
 21
73.596832
 31
0.0
  0
LINE
  5
1E9
330
1F
100
AcDbEntity
  8
0
 62
     7
370
    35
100
AcDbLine
 10
196.057068
 20
81.850372
 30
0.0
 11
196.057068
 21
73.549591
 31
0.0
  0
LINE
  5
1EA
330
1F
100
AcDbEntity
  8
0
 62
     7
370
    35
100
AcDbLine
 10
199.207077
 20
81.949585
 30
0.0
 11
198.057068
 21
81.913361
 31
0.0
  0
LINE
  5
1EB
330
1F
100
AcDbEntity
  8
0
 62
     7
370
    35
100
AcDbLine
 10
198.057068
 20
81.913361
 30
0.0
 11
198.057068
 21
73.486603
 31
0.0
  0
LINE
  5
1EC
330
1F
100
AcDbEntity
  8
0
 62
     7
370
    35
100
AcDbLine
 10
199.207077
 20
73.450378
 30
0.0
 11
198.057068
 21
73.486603
 31
0.0
  0
LINE
  5
1ED
330
1F
100
AcDbEntity
  8
0
 62
     7
370
    35
100
AcDbLine
 10
197.557068
 20
81.897614
 30
0.0
 11
197.557068
 21
73.50235
 31
0.0
  0
LINE
  5
1EE
330
1F
100
AcDbEntity
  8
0
 62
     7
370
    35
100
AcDbLine
 10
196.557068
 20
81.866119
 30
0.0
 11
196.557068
 21
73.533844
 31
0.0
  0
LINE
  5
1EF
330
1F
100
AcDbEntity
  8
0
 62
     7
370
    35
100
AcDbLine
 10
307.357056
 20
74.175812
 30
0.0
 11
307.857056
 21
74.191559
 31
0.0
  0
LINE
  5
1F0
330
1F
100
AcDbEntity
  8
0
 62
     7
370
    35
100
AcDbLine
 10
198.057068
 20
81.413116
 30
0.0
 11
197.557068
 21
81.397369
 31
0.0
  0
LINE
  5
1F1
330
1F
100
AcDbEntity
  8
0
 62
     7
370
    35
100
AcDbLine
 10
305.857056
 20
74.128571
 30
0.0
 11
306.357056
 21
74.144318
 31
0.0
  0
LINE
  5
1F2
330
1F
100
AcDbEntity
  8
0
 62
     7
370
    35
100
AcDbLine
 10
304.357056
 20
74.081329
 30
0.0
 11
304.857056
 21
74.097076
 31
0.0
  0
LINE
  5
1F3
330
1F
100
AcDbEntity
  8
0
 62
     7
370
    35
100
AcDbLine
 10
302.857056
 20
74.034088
 30
0.0
 11
303.357056
 21
74.049835
 31
0.0
  0
LINE
  5
1F4
330
1F
100
AcDbEntity
  8
0
 62
     7
370
    35
100
AcDbLine
 10
307.357056
 20
81.224152
 30
0.0
 11
307.857056
 21
81.208405
 31
0.0
  0
LINE
  5
1F5
330
1F
100
AcDbEntity
  8
0
 62
     7
370
    35
100
AcDbLine
 10
305.857056
 20
81.271393
 30
0.0
 11
306.357056
 21
81.255646
 31
0.0
  0
LINE
  5
1F6
330
1F
100
AcDbEntity
  8
0
 62
     7
370
    35
100
AcDbLine
 10
304.357056
 20
81.318634
 30
0.0
 11
304.857056
 21
81.302887
 31
0.0
  0
LINE
  5
1F7
330
1F
100
AcDbEntity
  8
0
 62
     7
370
    35
100
AcDbLine
 10
198.057068
 20
73.986847
 30
0.0
 11
197.557068
 21
74.002594
 31
0.0
  0
LINE
  5
1F8
330
1F
100
AcDbEntity
  8
0
 62
     7
370
    35
100
AcDbLine
 10
302.857056
 20
81.365875
 30
0.0
 11
303.357056
 21
81.350128
 31
0.0
  0
LINE
  5
1F9
330
1F
100
AcDbEntity
  8
0
 62
     7
370
    35
100
AcDbLine
 10
188.107071
 20
81.599976
 30
0.0
 11
188.107071
 21
73.799988
 31
0.0
  0
LINE
  5
1FA
330
1F
100
AcDbEntity
  8
0
 62
     7
370
    35
100
AcDbLine
 10
200.00708
 20
70.699982
 30
0.0
 11
200.00708
 21
70.5
 31
0.0
  0
LINE
  5
1FB
330
1F
100
AcDbEntity
  8
0
 62
     7
370
    35
100
AcDbLine
 10
200.00708
 20
90.894989
 30
0.0
 11
200.01207
 21
90.894989
 31
0.0
  0
LINE
  5
1FC
330
1F
100
AcDbEntity
  8
0
 62
     7
370
    35
100
AcDbLine
 10
307.207062
 20
70.5
 30
0.0
 11
309.207062
 21
70.5
 31
0.0
  0
LINE
  5
1FD
330
1F
100
AcDbEntity
  8
0
 62
     7
370
    35
100
AcDbLine
 10
307.207062
 20
69.699982
 30
0.0
 11
309.207062
 21
69.699982
 31
0.0
  0
LINE
  5
1FE
330
1F
100
AcDbEntity
  8
0
 62
     7
370
    35
100
AcDbLine
 10
192.207077
 20
69.699982
 30
0.0
 11
199.207077
 21
69.699982
 31
0.0
  0
LINE
  5
1FF
330
1F
100
AcDbEntity
  8
0
 62
     7
370
    35
100
AcDbLine
 10
190.207077
 20
70.5
 30
0.0
 11
192.207077
 21
70.5
 31
0.0
  0
LINE
  5
200
330
1F
100
AcDbEntity
  8
0
 62
     7
370
    35
100
AcDbLine
 10
300.207062
 20
83.699982
 30
0.0
 11
300.207062
 21
83.694977
 31
0.0
  0
LINE
  5
201
330
1F
100
AcDbEntity
  8
0
 62
     7
370
    35
100
AcDbLine
 10
299.407043
 20
69.699982
 30
0.0
 11
299.407043
 21
70.699982
 31
0.0
  0
LINE
  5
202
330
1F
100
AcDbEntity
  8
0
 62
     7
370
    35
100
AcDbLine
 10
300.207062
 20
70.699982
 30
0.0
 11
300.207062
 21
69.699982
 31
0.0
  0
LINE
  5
203
330
1F
100
AcDbEntity
  8
0
 62
     7
370
    35
100
AcDbLine
 10
299.402069
 20
84.5
 30
0.0
 11
299.407043
 21
84.5
 31
0.0
  0
LINE
  5
204
330
1F
100
AcDbEntity
  8
0
 62
     7
370
    35
100
AcDbLine
 10
299.402069
 20
83.699982
 30
0.0
 11
299.407043
 21
83.699982
 31
0.0
  0
LINE
  5
205
330
1F
100
AcDbEntity
  8
0
 62
     7
370
    35
100
AcDbLine
 10
299.407043
 20
83.694977
 30
0.0
 11
299.407043
 21
83.699982
 31
0.0
  0
LINE
  5
206
330
1F
100
AcDbEntity
  8
0
 62
     7
370
    35
100
AcDbLine
 10
299.407043
 20
69.699982
 30
0.0
 11
300.207062
 21
69.699982
 31
0.0
  0
LINE
  5
207
330
1F
100
AcDbEntity
  8
0
 62
     7
370
    35
100
AcDbLine
 10
199.207077
 20
70.699982
 30
0.0
 11
200.01207
 21
70.699982
 31
0.0
  0
LINE
  5
208
330
1F
100
AcDbEntity
  8
0
 62
     7
370
    35
100
AcDbLine
 10
299.402069
 20
83.699982
 30
0.0
 11
299.402069
 21
84.5
 31
0.0
  0
LINE
  5
209
330
1F
100
AcDbEntity
  8
0
 62
     7
370
    35
100
AcDbLine
 10
299.402069
 20
83.699982
 30
0.0
 11
299.402069
 21
83.694977
 31
0.0
  0
LINE
  5
20A
330
1F
100
AcDbEntity
  8
0
 62
     7
370
    35
100
AcDbLine
 10
200.00708
 20
84.5
 30
0.0
 11
200.01207
 21
84.5
 31
0.0
  0
LINE
  5
20B
330
1F
100
AcDbEntity
  8
0
 62
     7
370
    35
100
AcDbLine
 10
299.402069
 20
84.5
 30
0.0
 11
200.01207
 21
84.5
 31
0.0
  0
LINE
  5
20C
330
1F
100
AcDbEntity
  8
0
 62
     7
370
    35
100
AcDbLine
 10
200.01207
 20
70.699982
 30
0.0
 11
299.402069
 21
70.699982
 31
0.0
  0
LINE
  5
20D
330
1F
100
AcDbEntity
  8
0
 62
     7
370
    35
100
AcDbLine
 10
199.207077
 20
83.694977
 30
0.0
 11
199.207077
 21
70.699982
 31
0.0
  0
LINE
  5
20E
330
1F
100
AcDbEntity
  8
0
 62
     7
370
    35
100
AcDbLine
 10
200.01207
 20
83.699982
 30
0.0
 11
200.01207
 21
84.5
 31
0.0
  0
LINE
  5
20F
330
1F
100
AcDbEntity
  8
0
 62
     7
370
    35
100
AcDbLine
 10
200.01207
 20
83.694977
 30
0.0
 11
199.207077
 21
83.694977
 31
0.0
  0
LINE
  5
210
330
1F
100
AcDbEntity
  8
0
 62
     7
370
    35
100
AcDbLine
 10
200.01207
 20
83.699982
 30
0.0
 11
200.01207
 21
83.694977
 31
0.0
  0
LINE
  5
211
330
1F
100
AcDbEntity
  8
0
 62
     7
370
    35
100
AcDbLine
 10
299.402069
 20
83.694977
 30
0.0
 11
300.207062
 21
83.694977
 31
0.0
  0
LINE
  5
212
330
1F
100
AcDbEntity
  8
0
 62
     7
370
    35
100
AcDbLine
 10
300.207062
 20
83.694977
 30
0.0
 11
300.207062
 21
70.699982
 31
0.0
  0
LINE
  5
213
330
1F
100
AcDbEntity
  8
0
 62
     7
370
    35
100
AcDbLine
 10
299.402069
 20
70.699982
 30
0.0
 11
300.207062
 21
70.699982
 31
0.0
  0
LINE
  5
214
330
1F
100
AcDbEntity
  8
0
 62
     7
370
    35
100
AcDbLine
 10
200.00708
 20
83.699982
 30
0.0
 11
200.01207
 21
83.699982
 31
0.0
  0
LINE
  5
215
330
1F
100
AcDbEntity
  8
0
 62
     7
370
    35
100
AcDbLine
 10
199.207077
 20
70.5
 30
0.0
 11
192.207077
 21
70.5
 31
0.0
  0
LINE
  5
216
330
1F
100
AcDbEntity
  8
0
 62
     7
370
    35
100
AcDbLine
 10
199.207077
 20
83.699982
 30
0.0
 11
199.207077
 21
83.694977
 31
0.0
  0
LINE
  5
217
330
1F
100
AcDbEntity
  8
0
 62
     7
370
    35
100
AcDbLine
 10
199.207077
 20
70.699982
 30
0.0
 11
199.207077
 21
70.5
 31
0.0
  0
LINE
  5
218
330
1F
100
AcDbEntity
  8
0
 62
     7
370
    35
100
AcDbLine
 10
200.00708
 20
69.699982
 30
0.0
 11
199.207077
 21
69.699982
 31
0.0
  0
LINE
  5
219
330
1F
100
AcDbEntity
  8
0
 62
     7
370
    35
100
AcDbLine
 10
200.00708
 20
70.504883
 30
0.0
 11
200.00708
 21
69.699982
 31
0.0
  0
LINE
  5
21A
330
1F
100
AcDbEntity
  8
0
 62
     7
370
    35
100
AcDbLine
 10
190.207077
 20
69.699982
 30
0.0
 11
190.207077
 21
70.5
 31
0.0
  0
LINE
  5
21B
330
1F
100
AcDbEntity
  8
0
 62
     7
370
    35
100
AcDbLine
 10
190.207077
 20
69.699982
 30
0.0
 11
192.207077
 21
69.699982
 31
0.0
  0
LINE
  5
21C
330
1F
100
AcDbEntity
  8
0
 62
     7
370
    35
100
AcDbLine
 10
309.207062
 20
69.699982
 30
0.0
 11
309.207062
 21
70.5
 31
0.0
  0
LINE
  5
21D
330
1F
100
AcDbEntity
  8
0
 62
     7
370
    35
100
AcDbLine
 10
307.207062
 20
70.5
 30
0.0
 11
300.207062
 21
70.5
 31
0.0
  0
LINE
  5
21E
330
1F
100
AcDbEntity
  8
0
 62
     7
370
    35
100
AcDbLine
 10
307.207062
 20
69.699982
 30
0.0
 11
300.207062
 21
69.699982
 31
0.0
  0
LINE
  5
21F
330
1F
100
AcDbEntity
  8
0
 62
     7
370
    35
100
AcDbLine
 10
201.107071
 20
70.699982
 30
0.0
 11
201.107071
 21
70.299988
 31
0.0
  0
LINE
  5
220
330
1F
100
AcDbEntity
  8
0
 62
     7
370
    35
100
AcDbLine
 10
200.107071
 20
70.299988
 30
0.0
 11
200.107071
 21
70.699982
 31
0.0
  0
LINE
  5
221
330
1F
100
AcDbEntity
  8
0
 62
     7
370
    35
100
AcDbLine
 10
201.157074
 20
69.299988
 30
0.0
 11
201.107071
 21
69.299988
 31
0.0
  0
LINE
  5
222
330
1F
100
AcDbEntity
  8
0
 62
     7
370
    35
100
AcDbLine
 10
298.25705
 20
69.299988
 30
0.0
 11
201.157074
 21
69.299988
 31
0.0
  0
LINE
  5
223
330
1F
100
AcDbEntity
  8
0
 62
     7
370
    35
100
AcDbLine
 10
201.157074
 20
69.299988
 30
0.0
 11
201.157074
 21
70.299988
 31
0.0
  0
LINE
  5
224
330
1F
100
AcDbEntity
  8
0
 62
     7
370
    35
100
AcDbLine
 10
201.157074
 20
70.299988
 30
0.0
 11
201.157074
 21
70.699982
 31
0.0
  0
LINE
  5
225
330
1F
100
AcDbEntity
  8
0
 62
     7
370
    35
100
AcDbLine
 10
298.25705
 20
69.299988
 30
0.0
 11
298.307068
 21
69.299988
 31
0.0
  0
LINE
  5
226
330
1F
100
AcDbEntity
  8
0
 62
     7
370
    35
100
AcDbLine
 10
298.25705
 20
70.299988
 30
0.0
 11
298.25705
 21
70.699982
 31
0.0
  0
LINE
  5
227
330
1F
100
AcDbEntity
  8
0
 62
     7
370
    35
100
AcDbLine
 10
298.25705
 20
69.299988
 30
0.0
 11
298.25705
 21
70.299988
 31
0.0
  0
LINE
  5
228
330
1F
100
AcDbEntity
  8
0
 62
     7
370
    35
100
AcDbLine
 10
298.307068
 20
70.299988
 30
0.0
 11
298.307068
 21
70.699982
 31
0.0
  0
LINE
  5
229
330
1F
100
AcDbEntity
  8
0
 62
     7
370
    35
100
AcDbLine
 10
299.307068
 20
70.299988
 30
0.0
 11
299.307068
 21
70.699982
 31
0.0
  0
LINE
  5
22A
330
1F
100
AcDbEntity
  8
0
 62
     7
370
    35
100
AcDbLine
 10
201.157074
 20
70.299988
 30
0.0
 11
201.107071
 21
70.299988
 31
0.0
  0
LINE
  5
22B
330
1F
100
AcDbEntity
  8
0
 62
     7
370
    35
100
AcDbLine
 10
298.307068
 20
70.299988
 30
0.0
 11
298.25705
 21
70.299988
 31
0.0
  0
LINE
  5
22C
330
1F
100
AcDbEntity
  8
0
 62
     7
370
    35
100
AcDbLine
 10
210.287842
 20
73.936371
 30
0.0
 11
210.641388
 21
73.582825
 31
0.0
  0
LINE
  5
22D
330
1F
100
AcDbEntity
  8
0
 62
     7
370
    35
100
AcDbLine
 10
210.570679
 20
74.219238
 30
0.0
 11
210.924225
 21
73.865662
 31
0.0
  0
LINE
  5
22E
330
1F
100
AcDbEntity
  8
0
 62
     7
370
    35
100
AcDbLine
 10
210.287842
 20
72.663605
 30
0.0
 11
210.641388
 21
73.017151
 31
0.0
  0
LINE
  5
22F
330
1F
100
AcDbEntity
  8
0
 62
     7
370
    35
100
AcDbLine
 10
210.570679
 20
72.380737
 30
0.0
 11
210.924225
 21
72.734314
 31
0.0
  0
LINE
  5
230
330
1F
100
AcDbEntity
  8
0
 62
     7
370
    35
100
AcDbLine
 10
211.489914
 20
73.865662
 30
0.0
 11
211.843475
 21
74.219238
 31
0.0
  0
LINE
  5
231
330
1F
100
AcDbEntity
  8
0
 62
     7
370
    35
100
AcDbLine
 10
211.772766
 20
73.582825
 30
0.0
 11
212.126312
 21
73.936371
 31
0.0
  0
LINE
  5
232
330
1F
100
AcDbEntity
  8
0
 62
     7
370
    35
100
AcDbLine
 10
211.772766
 20
73.017151
 30
0.0
 11
212.126312
 21
72.663605
 31
0.0
  0
LINE
  5
233
330
1F
100
AcDbEntity
  8
0
 62
     7
370
    35
100
AcDbLine
 10
211.489914
 20
72.734314
 30
0.0
 11
211.843475
 21
72.380737
 31
0.0
  0
LINE
  5
234
330
1F
100
AcDbEntity
  8
0
 62
     7
370
    35
100
AcDbLine
 10
211.843475
 20
74.219238
 30
0.0
 11
212.126312
 21
73.936371
 31
0.0
  0
LINE
  5
235
330
1F
100
AcDbEntity
  8
0
 62
     7
370
    35
100
AcDbLine
 10
210.287842
 20
72.663605
 30
0.0
 11
210.570679
 21
72.380737
 31
0.0
  0
LINE
  5
236
330
1F
100
AcDbEntity
  8
0
 62
     7
370
    35
100
AcDbLine
 10
210.287842
 20
73.936371
 30
0.0
 11
210.570679
 21
74.219238
 31
0.0
  0
LINE
  5
237
330
1F
100
AcDbEntity
  8
0
 62
     7
370
    35
100
AcDbLine
 10
211.843475
 20
72.380737
 30
0.0
 11
212.126312
 21
72.663605
 31
0.0
  0
LINE
  5
238
330
1F
100
AcDbEntity
  8
0
 62
     7
370
    35
100
AcDbLine
 10
286.570679
 20
74.219238
 30
0.0
 11
286.924225
 21
73.865662
 31
0.0
  0
LINE
  5
239
330
1F
100
AcDbEntity
  8
0
 62
     7
370
    35
100
AcDbLine
 10
286.287811
 20
73.936371
 30
0.0
 11
286.641357
 21
73.582825
 31
0.0
  0
LINE
  5
23A
330
1F
100
AcDbEntity
  8
0
 62
     7
370
    35
100
AcDbLine
 10
286.287811
 20
72.663605
 30
0.0
 11
286.641357
 21
73.017151
 31
0.0
  0
LINE
  5
23B
330
1F
100
AcDbEntity
  8
0
 62
     7
370
    35
100
AcDbLine
 10
286.570679
 20
72.380737
 30
0.0
 11
286.924225
 21
72.734314
 31
0.0
  0
LINE
  5
23C
330
1F
100
AcDbEntity
  8
0
 62
     7
370
    35
100
AcDbLine
 10
287.489899
 20
73.865662
 30
0.0
 11
287.843445
 21
74.219238
 31
0.0
  0
LINE
  5
23D
330
1F
100
AcDbEntity
  8
0
 62
     7
370
    35
100
AcDbLine
 10
287.772736
 20
73.582825
 30
0.0
 11
288.126282
 21
73.936371
 31
0.0
  0
LINE
  5
23E
330
1F
100
AcDbEntity
  8
0
 62
     7
370
    35
100
AcDbLine
 10
287.772736
 20
73.017151
 30
0.0
 11
288.126282
 21
72.663605
 31
0.0
  0
LINE
  5
23F
330
1F
100
AcDbEntity
  8
0
 62
     7
370
    35
100
AcDbLine
 10
287.489899
 20
72.734314
 30
0.0
 11
287.843445
 21
72.380737
 31
0.0
  0
LINE
  5
240
330
1F
100
AcDbEntity
  8
0
 62
     7
370
    35
100
AcDbLine
 10
287.843445
 20
74.219238
 30
0.0
 11
288.126282
 21
73.936371
 31
0.0
  0
LINE
  5
241
330
1F
100
AcDbEntity
  8
0
 62
     7
370
    35
100
AcDbLine
 10
286.287811
 20
72.663605
 30
0.0
 11
286.570679
 21
72.380737
 31
0.0
  0
LINE
  5
242
330
1F
100
AcDbEntity
  8
0
 62
     7
370
    35
100
AcDbLine
 10
286.287811
 20
73.936371
 30
0.0
 11
286.570679
 21
74.219238
 31
0.0
  0
LINE
  5
243
330
1F
100
AcDbEntity
  8
0
 62
     7
370
    35
100
AcDbLine
 10
287.843445
 20
72.380737
 30
0.0
 11
288.126282
 21
72.663605
 31
0.0
  0
LINE
  5
244
330
1F
100
AcDbEntity
  8
0
 62
     7
370
    35
100
AcDbLine
 10
132.748795
 20
227.599976
 30
0.0
 11
132.748795
 21
207.799988
 31
0.0
  0
LINE
  5
245
330
1F
100
AcDbEntity
  8
0
 62
     7
370
    35
100
AcDbLine
 10
124.748795
 20
207.799988
 30
0.0
 11
124.748795
 21
227.599976
 31
0.0
  0
LINE
  5
246
330
1F
100
AcDbEntity
  8
0
 62
     7
370
    35
100
AcDbLine
 10
35.998795
 20
214.700012
 30
0.0
 11
39.998795
 21
214.700012
 31
0.0
  0
LINE
  5
247
330
1F
100
AcDbEntity
  8
0
 62
     7
370
    35
100
AcDbLine
 10
35.998795
 20
215.200012
 30
0.0
 11
39.998795
 21
215.200012
 31
0.0
  0
LINE
  5
248
330
1F
100
AcDbEntity
  8
0
 62
     7
370
    35
100
AcDbLine
 10
35.998795
 20
215.700012
 30
0.0
 11
39.998795
 21
215.700012
 31
0.0
  0
LINE
  5
249
330
1F
100
AcDbEntity
  8
0
 62
     7
370
    35
100
AcDbLine
 10
35.998795
 20
216.200012
 30
0.0
 11
39.998795
 21
216.200012
 31
0.0
  0
LINE
  5
24A
330
1F
100
AcDbEntity
  8
0
 62
     7
370
    35
100
AcDbLine
 10
35.998795
 20
216.700012
 30
0.0
 11
39.998795
 21
216.700012
 31
0.0
  0
LINE
  5
24B
330
1F
100
AcDbEntity
  8
0
 62
     7
370
    35
100
AcDbLine
 10
35.998795
 20
217.200012
 30
0.0
 11
39.998795
 21
217.200012
 31
0.0
  0
LINE
  5
24C
330
1F
100
AcDbEntity
  8
0
 62
     7
370
    35
100
AcDbLine
 10
68.998795
 20
207.700012
 30
0.0
 11
68.998795
 21
227.700012
 31
0.0
  0
LINE
  5
24D
330
1F
100
AcDbEntity
  8
0
 62
     7
370
    35
100
AcDbLine
 10
35.998795
 20
217.700012
 30
0.0
 11
39.998795
 21
217.700012
 31
0.0
  0
LINE
  5
24E
330
1F
100
AcDbEntity
  8
0
 62
     7
370
    35
100
AcDbLine
 10
35.998795
 20
218.200012
 30
0.0
 11
39.998795
 21
218.200012
 31
0.0
  0
LINE
  5
24F
330
1F
100
AcDbEntity
  8
0
 62
     7
370
    35
100
AcDbLine
 10
35.998795
 20
218.700012
 30
0.0
 11
39.998795
 21
218.700012
 31
0.0
  0
LINE
  5
250
330
1F
100
AcDbEntity
  8
0
 62
     7
370
    35
100
AcDbLine
 10
35.998795
 20
219.200012
 30
0.0
 11
39.998795
 21
219.200012
 31
0.0
  0
LINE
  5
251
330
1F
100
AcDbEntity
  8
0
 62
     7
370
    35
100
AcDbLine
 10
35.998795
 20
219.700012
 30
0.0
 11
39.998795
 21
219.700012
 31
0.0
  0
LINE
  5
252
330
1F
100
AcDbEntity
  8
0
 62
     7
370
    35
100
AcDbLine
 10
35.998795
 20
220.200012
 30
0.0
 11
39.998795
 21
220.200012
 31
0.0
  0
LINE
  5
253
330
1F
100
AcDbEntity
  8
0
 62
     7
370
    35
100
AcDbLine
 10
35.998795
 20
220.700012
 30
0.0
 11
39.998795
 21
220.700012
 31
0.0
  0
LINE
  5
254
330
1F
100
AcDbEntity
  8
0
 62
     7
370
    35
100
AcDbLine
 10
35.498795
 20
220.199951
 30
0.0
 11
29.498793
 21
219.199951
 31
0.0
  0
LINE
  5
255
330
1F
100
AcDbEntity
  8
0
 62
     7
370
    35
100
AcDbLine
 10
35.498795
 20
215.200012
 30
0.0
 11
29.498793
 21
216.200012
 31
0.0
  0
LINE
  5
256
330
1F
100
AcDbEntity
  8
0
 62
     7
370
    35
100
AcDbLine
 10
29.498793
 20
219.200012
 30
0.0
 11
29.498793
 21
216.200012
 31
0.0
  0
LINE
  5
257
330
1F
100
AcDbEntity
  8
0
 62
     7
370
    35
100
AcDbLine
 10
39.998795
 20
214.199951
 30
0.0
 11
40.498795
 21
214.699951
 31
0.0
  0
LINE
  5
258
330
1F
100
AcDbEntity
  8
0
 62
     7
370
    35
100
AcDbLine
 10
39.998795
 20
221.200012
 30
0.0
 11
40.498795
 21
220.700012
 31
0.0
  0
LINE
  5
259
330
1F
100
AcDbEntity
  8
0
 62
     7
370
    35
100
AcDbLine
 10
35.498795
 20
220.700012
 30
0.0
 11
35.998795
 21
221.200012
 31
0.0
  0
LINE
  5
25A
330
1F
100
AcDbEntity
  8
0
 62
     7
370
    35
100
AcDbLine
 10
35.498795
 20
214.700012
 30
0.0
 11
35.998795
 21
214.200012
 31
0.0
  0
LINE
  5
25B
330
1F
100
AcDbEntity
  8
0
 62
     7
370
    35
100
AcDbLine
 10
35.998795
 20
221.200012
 30
0.0
 11
35.998795
 21
214.200012
 31
0.0
  0
LINE
  5
25C
330
1F
100
AcDbEntity
  8
0
 62
     7
370
    35
100
AcDbLine
 10
39.998795
 20
221.200012
 30
0.0
 11
39.998795
 21
214.200012
 31
0.0
  0
LINE
  5
25D
330
1F
100
AcDbEntity
  8
0
 62
     7
370
    35
100
AcDbLine
 10
35.998795
 20
214.200012
 30
0.0
 11
39.998795
 21
214.200012
 31
0.0
  0
LINE
  5
25E
330
1F
100
AcDbEntity
  8
0
 62
     7
370
    35
100
AcDbLine
 10
35.998795
 20
221.200012
 30
0.0
 11
39.998795
 21
221.200012
 31
0.0
  0
LINE
  5
25F
330
1F
100
AcDbEntity
  8
0
 62
     7
370
    35
100
AcDbLine
 10
36.073776
 20
221.200012
 30
0.0
 11
39.998795
 21
221.200012
 31
0.0
  0
LINE
  5
260
330
1F
100
AcDbEntity
  8
0
 62
     7
370
    35
100
AcDbLine
 10
35.498795
 20
220.700012
 30
0.0
 11
35.498795
 21
214.700012
 31
0.0
  0
LINE
  5
261
330
1F
100
AcDbEntity
  8
0
 62
     7
370
    35
100
AcDbLine
 10
66.998795
 20
213.200012
 30
0.0
 11
67.998795
 21
212.700012
 31
0.0
  0
LINE
  5
262
330
1F
100
AcDbEntity
  8
0
 62
     7
370
    35
100
AcDbLine
 10
66.998795
 20
222.200012
 30
0.0
 11
67.998795
 21
222.700012
 31
0.0
  0
LINE
  5
263
330
1F
100
AcDbEntity
  8
0
 62
     7
370
    35
100
AcDbLine
 10
66.998795
 20
222.200012
 30
0.0
 11
66.998795
 21
213.200012
 31
0.0
  0
LINE
  5
264
330
1F
100
AcDbEntity
  8
0
 62
     7
370
    35
100
AcDbLine
 10
207.998795
 20
226.200012
 30
0.0
 11
207.998795
 21
209.200012
 31
0.0
  0
LINE
  5
265
330
1F
100
AcDbEntity
  8
0
 62
     7
370
    35
100
AcDbLine
 10
67.998795
 20
226.699951
 30
0.0
 11
67.998795
 21
208.700012
 31
0.0
  0
LINE
  5
266
330
1F
100
AcDbEntity
  8
0
 62
     7
370
    35
100
AcDbLine
 10
67.998795
 20
219.200012
 30
0.0
 11
67.998795
 21
216.200012
 31
0.0
  0
LINE
  5
267
330
1F
100
AcDbEntity
  8
0
 62
     7
370
    35
100
AcDbLine
 10
66.998795
 20
220.700012
 30
0.0
 11
66.998795
 21
214.700012
 31
0.0
  0
LINE
  5
268
330
1F
100
AcDbEntity
  8
0
 62
     7
370
    35
100
AcDbLine
 10
162.248795
 20
227.700012
 30
0.0
 11
162.248795
 21
207.700012
 31
0.0
  0
LINE
  5
269
330
1F
100
AcDbEntity
  8
0
 62
     7
370
    35
100
AcDbLine
 10
162.248795
 20
227.700012
 30
0.0
 11
206.498795
 21
227.700012
 31
0.0
  0
LINE
  5
26A
330
1F
100
AcDbEntity
  8
0
 62
     7
370
    35
100
AcDbLine
 10
162.248795
 20
207.700012
 30
0.0
 11
206.498795
 21
207.700012
 31
0.0
  0
LINE
  5
26B
330
1F
100
AcDbEntity
  8
0
 62
     7
370
    35
100
AcDbLine
 10
207.998795
 20
226.200012
 30
0.0
 11
206.498795
 21
226.762512
 31
0.0
  0
LINE
  5
26C
330
1F
100
AcDbEntity
  8
0
 62
     7
370
    35
100
AcDbLine
 10
207.998795
 20
209.200012
 30
0.0
 11
206.498795
 21
208.637512
 31
0.0
  0
LINE
  5
26D
330
1F
100
AcDbEntity
  8
0
 62
     7
370
    35
100
AcDbLine
 10
206.498795
 20
227.700012
 30
0.0
 11
206.498795
 21
207.700012
 31
0.0
  0
LINE
  5
26E
330
1F
100
AcDbEntity
  8
0
 62
     7
370
    35
100
AcDbLine
 10
132.748795
 20
227.700012
 30
0.0
 11
162.248795
 21
227.700012
 31
0.0
  0
LINE
  5
26F
330
1F
100
AcDbEntity
  8
0
 62
     7
370
    35
100
AcDbLine
 10
132.748795
 20
207.799988
 30
0.0
 11
132.748795
 21
207.700012
 31
0.0
  0
LINE
  5
270
330
1F
100
AcDbEntity
  8
0
 62
     7
370
    35
100
AcDbLine
 10
124.748795
 20
207.799988
 30
0.0
 11
124.748795
 21
207.700012
 31
0.0
  0
LINE
  5
271
330
1F
100
AcDbEntity
  8
0
 62
     7
370
    35
100
AcDbLine
 10
132.748795
 20
207.700012
 30
0.0
 11
162.248795
 21
207.700012
 31
0.0
  0
LINE
  5
272
330
1F
100
AcDbEntity
  8
0
 62
     7
370
    35
100
AcDbLine
 10
124.748795
 20
227.599976
 30
0.0
 11
132.748795
 21
227.599976
 31
0.0
  0
LINE
  5
273
330
1F
100
AcDbEntity
  8
0
 62
     7
370
    35
100
AcDbLine
 10
124.748795
 20
207.799988
 30
0.0
 11
132.748795
 21
207.799988
 31
0.0
  0
LINE
  5
274
330
1F
100
AcDbEntity
  8
0
 62
     7
370
    35
100
AcDbLine
 10
132.748795
 20
227.700012
 30
0.0
 11
132.748795
 21
227.599976
 31
0.0
  0
LINE
  5
275
330
1F
100
AcDbEntity
  8
0
 62
     7
370
    35
100
AcDbLine
 10
124.748795
 20
227.700012
 30
0.0
 11
124.748795
 21
227.599976
 31
0.0
  0
LINE
  5
276
330
1F
100
AcDbEntity
  8
0
 62
     7
370
    35
100
AcDbLine
 10
101.748795
 20
227.700012
 30
0.0
 11
124.748795
 21
227.700012
 31
0.0
  0
LINE
  5
277
330
1F
100
AcDbEntity
  8
0
 62
     7
370
    35
100
AcDbLine
 10
101.748795
 20
207.700012
 30
0.0
 11
124.748795
 21
207.700012
 31
0.0
  0
LINE
  5
278
330
1F
100
AcDbEntity
  8
0
 62
     7
370
    35
100
AcDbLine
 10
67.998795
 20
226.699951
 30
0.0
 11
68.998795
 21
227.699951
 31
0.0
  0
LINE
  5
279
330
1F
100
AcDbEntity
  8
0
 62
     7
370
    35
100
AcDbLine
 10
100.748795
 20
207.799988
 30
0.0
 11
101.748795
 21
207.799988
 31
0.0
  0
LINE
  5
27A
330
1F
100
AcDbEntity
  8
0
 62
     7
370
    35
100
AcDbLine
 10
100.748795
 20
227.599976
 30
0.0
 11
101.748795
 21
227.599976
 31
0.0
  0
LINE
  5
27B
330
1F
100
AcDbEntity
  8
0
 62
     7
370
    35
100
AcDbLine
 10
68.998795
 20
227.700012
 30
0.0
 11
100.748795
 21
227.700012
 31
0.0
  0
LINE
  5
27C
330
1F
100
AcDbEntity
  8
0
 62
     7
370
    35
100
AcDbLine
 10
68.998795
 20
207.700012
 30
0.0
 11
100.748795
 21
207.700012
 31
0.0
  0
LINE
  5
27D
330
1F
100
AcDbEntity
  8
0
 62
     7
370
    35
100
AcDbLine
 10
101.748795
 20
227.700012
 30
0.0
 11
101.748795
 21
210.599976
 31
0.0
  0
LINE
  5
27E
330
1F
100
AcDbEntity
  8
0
 62
     7
370
    35
100
AcDbLine
 10
100.748795
 20
227.700012
 30
0.0
 11
100.748795
 21
227.599976
 31
0.0
  0
LINE
  5
27F
330
1F
100
AcDbEntity
  8
0
 62
     7
370
    35
100
AcDbLine
 10
101.748795
 20
210.599976
 30
0.0
 11
101.748795
 21
207.700012
 31
0.0
  0
LINE
  5
280
330
1F
100
AcDbEntity
  8
0
 62
     7
370
    35
100
AcDbLine
 10
100.748795
 20
227.599976
 30
0.0
 11
100.748795
 21
207.700012
 31
0.0
  0
LINE
  5
281
330
1F
100
AcDbEntity
  8
0
 62
     7
370
    35
100
AcDbLine
 10
67.998795
 20
208.700012
 30
0.0
 11
68.998795
 21
207.700012
 31
0.0
  0
LINE
  5
282
330
1F
100
AcDbEntity
  8
0
 62
     7
370
    35
100
AcDbLine
 10
40.498795
 20
214.699951
 30
0.0
 11
40.498795
 21
220.700012
 31
0.0
  0
LINE
  5
283
330
1F
100
AcDbEntity
  8
0
 62
     7
370
    35
100
AcDbLine
 10
40.498795
 20
220.700012
 30
0.0
 11
66.998795
 21
220.700012
 31
0.0
  0
LINE
  5
284
330
1F
100
AcDbEntity
  8
0
 62
     7
370
    35
100
AcDbLine
 10
40.498795
 20
214.700012
 30
0.0
 11
66.998795
 21
214.700012
 31
0.0
  0
ARC
  5
285
330
1F
100
AcDbEntity
  8
0
 62
     7
370
    35
100
AcDbCircle
 10
388.00119
 20
142.600006
 30
0.0
 40
1.0
100
AcDbArc
 50
5.73902
 51
174.260966
  0
ARC
  5
286
330
1F
100
AcDbEntity
  8
0
 62
     7
370
    35
100
AcDbCircle
 10
388.00119
 20
132.800018
 30
0.0
 40
1.0
100
AcDbArc
 50
185.739048
 51
354.260985
  0
CIRCLE
  5
287
330
1F
100
AcDbEntity
  8
0
 62
     7
370
    35
100
AcDbCircle
 10
304.707062
 20
129.004974
 30
0.0
 40
2.099999904632568
  0
CIRCLE
  5
288
330
1F
100
AcDbEntity
  8
0
 62
     7
370
    35
100
AcDbCircle
 10
194.707077
 20
146.394989
 30
0.0
 40
2.099999904632568
  0
ARC
  5
289
330
1F
100
AcDbEntity
  8
0
 62
     7
370
    35
100
AcDbCircle
 10
192.207077
 20
148.894989
 30
0.0
 40
2.0
100
AcDbArc
 50
90.000003
 51
180.000009
  0
ARC
  5
28A
330
1F
100
AcDbEntity
  8
0
 62
     7
370
    35
100
AcDbCircle
 10
307.207062
 20
126.504974
 30
0.0
 40
2.0
100
AcDbArc
 50
269.999997
 51
360.0
  0
ARC
  5
28B
330
1F
100
AcDbEntity
  8
0
 62
     7
370
    35
100
AcDbCircle
 10
307.207062
 20
131.399994
 30
0.0
 40
2.0
100
AcDbArc
 50
0.0
 51
90.000003
  0
ARC
  5
28C
330
1F
100
AcDbEntity
  8
0
 62
     7
370
    35
100
AcDbCircle
 10
192.207077
 20
144.0
 30
0.0
 40
2.0
100
AcDbArc
 50
180.000009
 51
269.999997
  0
ARC
  5
28D
330
1F
100
AcDbEntity
  8
0
 62
     7
370
    35
100
AcDbCircle
 10
366.00119
 20
77.699982
 30
0.0
 40
1.0
100
AcDbArc
 50
269.999997
 51
90.000003
  0
CIRCLE
  5
28E
330
1F
100
AcDbEntity
  8
0
 62
     7
370
    35
100
AcDbCircle
 10
388.00119
 20
77.699982
 30
0.0
 40
1.0
  0
CIRCLE
  5
28F
330
1F
100
AcDbEntity
  8
0
 62
     7
370
    35
100
AcDbCircle
 10
287.207062
 20
73.299988
 30
0.0
 40
1.950000047683716
  0
ARC
  5
290
330
1F
100
AcDbEntity
  8
0
 62
     7
370
    35
100
AcDbCircle
 10
299.407043
 20
83.699982
 30
0.0
 40
0.800000011920929
100
AcDbArc
 50
0.0
 51
90.000003
  0
CIRCLE
  5
291
330
1F
100
AcDbEntity
  8
0
 62
     7
370
    35
100
AcDbCircle
 10
211.207077
 20
73.299988
 30
0.0
 40
1.950000047683716
  0
ARC
  5
292
330
1F
100
AcDbEntity
  8
0
 62
     7
370
    35
100
AcDbCircle
 10
200.00708
 20
83.699982
 30
0.0
 40
0.800000011920929
100
AcDbArc
 50
90.000003
 51
180.000009
  0
ARC
  5
293
330
1F
100
AcDbEntity
  8
0
 62
     7
370
    35
100
AcDbCircle
 10
199.207077
 20
70.5
 30
0.0
 40
0.800000011920929
100
AcDbArc
 50
269.999997
 51
360.0
  0
ARC
  5
294
330
1F
100
AcDbEntity
  8
0
 62
     7
370
    35
100
AcDbCircle
 10
298.307068
 20
70.299988
 30
0.0
 40
1.0
100
AcDbArc
 50
269.999997
 51
360.0
  0
ARC
  5
295
330
1F
100
AcDbEntity
  8
0
 62
     7
370
    35
100
AcDbCircle
 10
201.107071
 20
70.299988
 30
0.0
 40
1.0
100
AcDbArc
 50
180.000009
 51
269.999997
  0
CIRCLE
  5
296
330
1F
100
AcDbEntity
  8
0
 62
     7
370
    35
100
AcDbCircle
 10
211.207077
 20
73.299988
 30
0.0
 40
2.0
  0
ARC
  5
297
330
1F
100
AcDbEntity
  8
0
 62
     7
370
    35
100
AcDbCircle
 10
212.055603
 20
73.299988
 30
0.0
 40
0.4000000059604645
100
AcDbArc
 50
135.0
 51
224.999986
  0
ARC
  5
298
330
1F
100
AcDbEntity
  8
0
 62
     7
370
    35
100
AcDbCircle
 10
211.207077
 20
74.148529
 30
0.0
 40
0.4000000059604645
100
AcDbArc
 50
225.0
 51
314.999992
  0
ARC
  5
299
330
1F
100
AcDbEntity
  8
0
 62
     7
370
    35
100
AcDbCircle
 10
210.358551
 20
73.299988
 30
0.0
 40
0.4000000059604645
100
AcDbArc
 50
314.999992
 51
44.999998
  0
ARC
  5
29A
330
1F
100
AcDbEntity
  8
0
 62
     7
370
    35
100
AcDbCircle
 10
211.207077
 20
72.451447
 30
0.0
 40
0.4000000059604645
100
AcDbArc
 50
45.000001
 51
135.0
  0
CIRCLE
  5
29B
330
1F
100
AcDbEntity
  8
0
 62
     7
370
    35
100
AcDbCircle
 10
287.207062
 20
73.299988
 30
0.0
 40
2.0
  0
ARC
  5
29C
330
1F
100
AcDbEntity
  8
0
 62
     7
370
    35
100
AcDbCircle
 10
288.055603
 20
73.299988
 30
0.0
 40
0.4000000059604645
100
AcDbArc
 50
135.0
 51
224.999986
  0
ARC
  5
29D
330
1F
100
AcDbEntity
  8
0
 62
     7
370
    35
100
AcDbCircle
 10
287.207062
 20
74.148529
 30
0.0
 40
0.4000000059604645
100
AcDbArc
 50
225.0
 51
314.999992
  0
ARC
  5
29E
330
1F
100
AcDbEntity
  8
0
 62
     7
370
    35
100
AcDbCircle
 10
286.358521
 20
73.299988
 30
0.0
 40
0.4000000059604645
100
AcDbArc
 50
314.999992
 51
44.999998
  0
ARC
  5
29F
330
1F
100
AcDbEntity
  8
0
 62
     7
370
    35
100
AcDbCircle
 10
287.207062
 20
72.451447
 30
0.0
 40
0.4000000059604645
100
AcDbArc
 50
45.000001
 51
135.0
  0
ARC
  5
2A0
330
1F
100
AcDbEntity
  8
0
 62
     7
370
    35
100
AcDbCircle
 10
29.718794
 20
217.700012
 30
0.0
 40
1.220000028610229
100
AcDbArc
 50
100.388843
 51
259.611143
  0
ARC
  5
2A1
330
1F
100
AcDbEntity
  8
0
 62
     7
370
    35
100
AcDbCircle
 10
316.752502
 20
196.470612
 30
0.0
 40
18.96838569641113
100
AcDbArc
 50
278.094864
 51
81.905122
  0
ARC
  5
2A2
330
1F
100
AcDbEntity
  8
0
 62
     7
370
    35
100
AcDbCircle
 10
316.752502
 20
196.470612
 30
0.0
 40
23.67938232421875
100
AcDbArc
 50
269.999997
 51
90.000003
  0
LINE
  5
2A3
330
1F
100
AcDbEntity
  8
0
 62
     7
370
    35
100
AcDbLine
 10
227.998795
 20
215.25
 30
0.0
 11
319.423492
 21
215.25
 31
0.0
  0
LINE
  5
2A4
330
1F
100
AcDbEntity
  8
0
 62
     7
370
    35
100
AcDbLine
 10
227.998795
 20
220.150024
 30
0.0
 11
316.752502
 21
220.150024
 31
0.0
  0
LINE
  5
2A5
330
1F
100
AcDbEntity
  8
0
 62
     7
370
    35
100
AcDbLine
 10
188.107071
 20
141.599976
 30
0.0
 11
188.107071
 21
133.799988
 31
0.0
  0
LINE
  5
2A6
330
1F
100
AcDbEntity
  8
0
 62
     7
370
    35
100
AcDbLine
 10
188.107071
 20
141.599991
 30
0.0
 11
188.107071
 21
133.799973
 31
0.0
  0
LINE
  5
2A7
330
1F
100
AcDbEntity
  8
0
 62
     7
370
    35
100
AcDbLine
 10
188.107071
 20
140.150009
 30
0.0
 11
128.316284
 21
140.150009
 31
0.0
  0
LINE
  5
2A8
330
1F
100
AcDbEntity
  8
0
 62
     7
370
    35
100
AcDbLine
 10
188.107071
 20
135.249985
 30
0.0
 11
128.316284
 21
135.249985
 31
0.0
  0
ARC
  5
2A9
330
1F
100
AcDbEntity
  8
0
 62
     7
370
    35
100
AcDbCircle
 10
128.316284
 20
156.470627
 30
0.0
 40
16.32061004638672
100
AcDbArc
 50
90.000003
 51
269.999997
  0
ARC
  5
2AA
330
1F
100
AcDbEntity
  8
0
 62
     7
370
    35
100
AcDbCircle
 10
128.316284
 20
156.470627
 30
0.0
 40
21.22060203552246
100
AcDbArc
 50
90.000003
 51
269.999997
  0
LINE
  5
2AB
330
1F
100
AcDbEntity
  8
0
 62
     7
370
    35
100
AcDbLine
 10
316.752502
 20
172.791229
 30
0.0
 11
207.116409
 21
172.791229
 31
0.0
  0
ARC
  5
2AC
330
1F
100
AcDbEntity
  8
0
 62
     7
370
    35
100
AcDbCircle
 10
207.830704
 20
176.466217
 30
0.0
 40
1.417995452880859
100
AcDbArc
 50
120.241724
 51
239.758276
  0
ARC
  5
2AD
330
1F
100
AcDbEntity
  8
0
 62
     7
370
    35
100
AcDbCircle
 10
206.402359
 20
176.466217
 30
0.0
 40
1.417995452880859
100
AcDbArc
 50
300.241732
 51
59.758274
  0
ARC
  5
2AE
330
1F
100
AcDbEntity
  8
0
 62
     7
370
    35
100
AcDbCircle
 10
207.830704
 20
174.016174
 30
0.0
 40
1.417995452880859
100
AcDbArc
 50
120.241724
 51
239.752512
  0
LINE
  5
2AF
330
1F
100
AcDbEntity
  8
0
 62
     7
370
    35
100
AcDbLine
 10
319.423492
 20
177.691223
 30
0.0
 11
207.116531
 21
177.691223
 31
0.0
  0
ARC
  5
2B0
330
1F
100
AcDbEntity
  8
0
 62
     7
370
    35
100
AcDbCircle
 10
200.893692
 20
176.466217
 30
0.0
 40
1.417995452880859
100
AcDbArc
 50
300.241732
 51
59.756826
  0
ARC
  5
2B1
330
1F
100
AcDbEntity
  8
0
 62
     7
370
    35
100
AcDbCircle
 10
202.322037
 20
174.016205
 30
0.0
 40
1.417995452880859
100
AcDbArc
 50
120.241724
 51
239.753932
  0
ARC
  5
2B2
330
1F
100
AcDbEntity
  8
0
 62
     7
370
    35
100
AcDbCircle
 10
202.322037
 20
174.016205
 30
0.0
 40
1.417995452880859
100
AcDbArc
 50
120.241724
 51
239.758276
  0
ARC
  5
2B3
330
1F
100
AcDbEntity
  8
0
 62
     7
370
    35
100
AcDbCircle
 10
200.893692
 20
174.016205
 30
0.0
 40
1.417995452880859
100
AcDbArc
 50
300.246049
 51
59.758274
  0
LINE
  5
2B4
330
1F
100
AcDbEntity
  8
0
 62
     7
370
    35
100
AcDbLine
 10
201.607956
 20
172.791229
 30
0.0
 11
128.316284
 21
172.791229
 31
0.0
  0
LINE
  5
2B5
330
1F
100
AcDbEntity
  8
0
 62
     7
370
    35
100
AcDbLine
 10
201.607895
 20
177.691223
 30
0.0
 11
128.316284
 21
177.691223
 31
0.0
  0
LINE
  5
2B6
330
1F
100
AcDbEntity
  8
0
 62
     7
370
    35
100
AcDbLine
 10
342.00119
 20
134.200012
 30
0.0
 11
342.00119
 21
141.200012
 31
0.0
  0
LINE
  5
2B7
330
1F
100
AcDbEntity
  8
0
 62
     7
370
    35
100
AcDbLine
 10
311.307068
 20
141.599976
 30
0.0
 11
311.307068
 21
133.799988
 31
0.0
  0
LINE
  5
2B8
330
1F
100
AcDbEntity
  8
0
 62
     7
370
    35
100
AcDbLine
 10
311.307068
 20
140.150009
 30
0.0
 11
323.502991
 21
140.150009
 31
0.0
  0
LINE
  5
2B9
330
1F
100
AcDbEntity
  8
0
 62
     7
370
    35
100
AcDbLine
 10
311.307068
 20
135.249985
 30
0.0
 11
323.503021
 21
135.249985
 31
0.0
  0
ARC
  5
2BA
330
1F
100
AcDbEntity
  8
0
 62
     7
370
    35
100
AcDbCircle
 10
329.7258
 20
138.925003
 30
0.0
 40
1.417995452880859
100
AcDbArc
 50
120.241724
 51
239.758276
  0
ARC
  5
2BB
330
1F
100
AcDbEntity
  8
0
 62
     7
370
    35
100
AcDbCircle
 10
328.297455
 20
138.925003
 30
0.0
 40
1.417995452880859
100
AcDbArc
 50
300.241732
 51
59.758274
  0
ARC
  5
2BC
330
1F
100
AcDbEntity
  8
0
 62
     7
370
    35
100
AcDbCircle
 10
329.7258
 20
136.47496
 30
0.0
 40
1.417995452880859
100
AcDbArc
 50
120.241724
 51
239.753932
  0
ARC
  5
2BD
330
1F
100
AcDbEntity
  8
0
 62
     7
370
    35
100
AcDbCircle
 10
322.788788
 20
138.925003
 30
0.0
 40
1.417995452880859
100
AcDbArc
 50
300.241732
 51
59.756826
  0
ARC
  5
2BE
330
1F
100
AcDbEntity
  8
0
 62
     7
370
    35
100
AcDbCircle
 10
324.217133
 20
136.474991
 30
0.0
 40
1.417995452880859
100
AcDbArc
 50
120.241724
 51
239.758276
  0
ARC
  5
2BF
330
1F
100
AcDbEntity
  8
0
 62
     7
370
    35
100
AcDbCircle
 10
322.788788
 20
136.474991
 30
0.0
 40
1.417995452880859
100
AcDbArc
 50
300.244622
 51
59.758274
  0
LINE
  5
2C0
330
1F
100
AcDbEntity
  8
0
 62
     7
370
    35
100
AcDbLine
 10
329.011536
 20
135.249985
 30
0.0
 11
342.00119
 21
135.249985
 31
0.0
  0
LINE
  5
2C1
330
1F
100
AcDbEntity
  8
0
 62
     7
370
    35
100
AcDbLine
 10
329.011627
 20
140.150009
 30
0.0
 11
342.00119
 21
140.150009
 31
0.0
  0
LINE
  5
2C2
330
1F
100
AcDbEntity
  8
0
 62
     7
370
    35
100
AcDbLine
 10
342.00119
 20
74.200012
 30
0.0
 11
342.00119
 21
81.200012
 31
0.0
  0
LINE
  5
2C3
330
1F
100
AcDbEntity
  8
0
 62
     7
370
    35
100
AcDbLine
 10
311.307068
 20
81.599976
 30
0.0
 11
311.307068
 21
73.799988
 31
0.0
  0
LINE
  5
2C4
330
1F
100
AcDbEntity
  8
0
 62
     7
370
    35
100
AcDbLine
 10
342.00119
 20
74.200012
 30
0.0
 11
342.00119
 21
81.200012
 31
0.0
  0
LINE
  5
2C5
330
1F
100
AcDbEntity
  8
0
 62
     7
370
    35
100
AcDbLine
 10
311.307068
 20
81.599976
 30
0.0
 11
311.307068
 21
73.799988
 31
0.0
  0
LINE
  5
2C6
330
1F
100
AcDbEntity
  8
0
 62
     7
370
    35
100
AcDbLine
 10
311.307068
 20
80.150009
 30
0.0
 11
323.502991
 21
80.150009
 31
0.0
  0
LINE
  5
2C7
330
1F
100
AcDbEntity
  8
0
 62
     7
370
    35
100
AcDbLine
 10
311.307068
 20
75.249985
 30
0.0
 11
323.503021
 21
75.249985
 31
0.0
  0
ARC
  5
2C8
330
1F
100
AcDbEntity
  8
0
 62
     7
370
    35
100
AcDbCircle
 10
329.7258
 20
78.925003
 30
0.0
 40
1.417995452880859
100
AcDbArc
 50
120.241724
 51
239.758276
  0
ARC
  5
2C9
330
1F
100
AcDbEntity
  8
0
 62
     7
370
    35
100
AcDbCircle
 10
328.297455
 20
78.925003
 30
0.0
 40
1.417995452880859
100
AcDbArc
 50
300.241732
 51
59.758274
  0
ARC
  5
2CA
330
1F
100
AcDbEntity
  8
0
 62
     7
370
    35
100
AcDbCircle
 10
329.7258
 20
76.47496
 30
0.0
 40
1.417995452880859
100
AcDbArc
 50
120.241724
 51
239.753932
  0
ARC
  5
2CB
330
1F
100
AcDbEntity
  8
0
 62
     7
370
    35
100
AcDbCircle
 10
322.788788
 20
78.925003
 30
0.0
 40
1.417995452880859
100
AcDbArc
 50
300.241732
 51
59.756826
  0
ARC
  5
2CC
330
1F
100
AcDbEntity
  8
0
 62
     7
370
    35
100
AcDbCircle
 10
324.217133
 20
76.474991
 30
0.0
 40
1.417995452880859
100
AcDbArc
 50
120.241724
 51
239.758276
  0
ARC
  5
2CD
330
1F
100
AcDbEntity
  8
0
 62
     7
370
    35
100
AcDbCircle
 10
322.788788
 20
76.474991
 30
0.0
 40
1.417995452880859
100
AcDbArc
 50
300.244622
 51
59.758274
  0
LINE
  5
2CE
330
1F
100
AcDbEntity
  8
0
 62
     7
370
    35
100
AcDbLine
 10
329.011536
 20
75.249985
 30
0.0
 11
342.00119
 21
75.249985
 31
0.0
  0
LINE
  5
2CF
330
1F
100
AcDbEntity
  8
0
 62
     7
370
    35
100
AcDbLine
 10
329.011627
 20
80.150009
 30
0.0
 11
342.00119
 21
80.150009
 31
0.0
  0
LINE
  5
2D0
330
1F
100
AcDbEntity
  8
0
 62
     7
370
    35
100
AcDbLine
 10
188.107071
 20
81.599976
 30
0.0
 11
188.107071
 21
73.799988
 31
0.0
  0
LINE
  5
2D1
330
1F
100
AcDbEntity
  8
0
 62
     7
370
    35
100
AcDbLine
 10
188.107071
 20
74.199982
 30
0.0
 11
188.107071
 21
81.199982
 31
0.0
  0
LINE
  5
2D2
330
1F
100
AcDbEntity
  8
0
 62
     7
370
    35
100
AcDbLine
 10
188.107071
 20
74.199982
 30
0.0
 11
188.107071
 21
81.199982
 31
0.0
  0
ARC
  5
2D3
330
1F
100
AcDbEntity
  8
0
 62
     7
370
    35
100
AcDbCircle
 10
175.83168
 20
78.924973
 30
0.0
 40
1.417995452880859
100
AcDbArc
 50
120.241724
 51
239.758276
  0
ARC
  5
2D4
330
1F
100
AcDbEntity
  8
0
 62
     7
370
    35
100
AcDbCircle
 10
174.403336
 20
78.924973
 30
0.0
 40
1.417995452880859
100
AcDbArc
 50
300.241732
 51
59.758274
  0
ARC
  5
2D5
330
1F
100
AcDbEntity
  8
0
 62
     7
370
    35
100
AcDbCircle
 10
175.83168
 20
76.47493
 30
0.0
 40
1.417995452880859
100
AcDbArc
 50
120.241724
 51
239.753932
  0
LINE
  5
2D6
330
1F
100
AcDbEntity
  8
0
 62
     7
370
    35
100
AcDbLine
 10
175.117416
 20
75.249954
 30
0.0
 11
188.107071
 21
75.249954
 31
0.0
  0
LINE
  5
2D7
330
1F
100
AcDbEntity
  8
0
 62
     7
370
    35
100
AcDbLine
 10
175.117508
 20
80.149979
 30
0.0
 11
188.107071
 21
80.149979
 31
0.0
  0
ENDSEC
  0
SECTION
  2
OBJECTS
  0
DICTIONARY
  5
C
330
0
100
AcDbDictionary
281
     1
  3
ACAD_GROUP
350
D
  3
ACAD_LAYOUT
350
1A
  3
ACAD_MLINESTYLE
350
17
  3
ACAD_PLOTSETTINGS
350
19
  3
ACAD_PLOTSTYLENAME
350
E
  3
ACAD_SCALELIST
350
47
  0
DICTIONARY
  5
D
102
{ACAD_REACTORS
330
C
102
}
330
C
100
AcDbDictionary
281
     1
  0
DICTIONARY
  5
1A
102
{ACAD_REACTORS
330
C
102
}
330
C
100
AcDbDictionary
281
     1
  3
Layout1
350
1E
  3
Layout2
350
26
  3
Model
350
22
  0
DICTIONARY
  5
17
102
{ACAD_REACTORS
330
C
102
}
330
C
100
AcDbDictionary
281
     1
  3
Standard
350
18
  0
DICTIONARY
  5
19
102
{ACAD_REACTORS
330
C
102
}
330
C
100
AcDbDictionary
281
     1
  0
ACDBDICTIONARYWDFLT
  5
E
102
{ACAD_REACTORS
330
C
102
}
330
C
100
AcDbDictionary
281
     1
  3
Normal
350
F
100
AcDbDictionaryWithDefault
340
F
  0
DICTIONARY
  5
47
102
{ACAD_REACTORS
330
C
102
}
330
C
100
AcDbDictionary
281
     1
  3
A0
350
48
  3
A1
350
49
  3
A2
350
4A
  3
A3
350
4B
  3
A4
350
4C
  3
A5
350
4D
  3
A6
350
4E
  3
A7
350
4F
  3
A8
350
50
  3
A9
350
51
  3
B0
350
52
  3
B1
350
53
  3
B2
350
54
  3
B3
350
55
  3
B4
350
56
  3
B5
350
57
  3
B6
350
58
  3
B7
350
59
  3
B8
350
5A
  3
B9
350
5B
  3
C0
350
5C
  3
C1
350
5D
  3
C2
350
5E
  3
C3
350
5F
  3
C4
350
60
  3
C5
350
61
  3
C6
350
62
  3
C7
350
63
  3
C8
350
64
  3
C9
350
65
  3
D0
350
66
  3
D1
350
67
  3
D2
350
68
  0
LAYOUT
  5
1E
102
{ACAD_REACTORS
330
1A
102
}
330
1A
100
AcDbPlotSettings
  1

  2
none_device
  4

  6

 40
0.0
 41
0.0
 42
0.0
 43
0.0
 44
0.0
 45
0.0
 46
0.0
 47
0.0
 48
0.0
 49
0.0
140
0.0
141
0.0
142
1.0
143
1.0
 70
  4784
 72
     0
 73
     0
 74
     5
  7

 75
    16
147
1.0
148
0.0
149
0.0
100
AcDbLayout
  1
Layout1
 70
     1
 71
     1
 10
0.0
 20
0.0
 11
420.0
 21
297.0
 12
0.0
 22
0.0
 32
0.0
 14
0.0
 24
0.0
 34
0.0
 15
391.50119
 25
227.700012
 35
2.0
146
0.0
 13
0.0
 23
0.0
 33
0.0
 16
1.0
 26
0.0
 36
0.0
 17
0.0
 27
1.0
 37
0.0
 76
     0
330
1B
  0
LAYOUT
  5
26
102
{ACAD_REACTORS
330
1A
102
}
330
1A
100
AcDbPlotSettings
  1

  2
none_device
  4

  6

 40
0.0
 41
0.0
 42
0.0
 43
0.0
 44
0.0
 45
0.0
 46
0.0
 47
0.0
 48
0.0
 49
0.0
140
0.0
141
0.0
142
1.0
143
1.0
 70
  4784
 72
     0
 73
     0
 74
     5
  7

 75
    16
147
1.0
148
0.0
149
0.0
100
AcDbLayout
  1
Layout2
 70
     1
 71
     2
 10
0.0
 20
0.0
 11
0.0
 21
0.0
 12
0.0
 22
0.0
 32
0.0
 14
0.0
 24
0.0
 34
0.0
 15
0.0
 25
0.0
 35
0.0
146
0.0
 13
0.0
 23
0.0
 33
0.0
 16
1.0
 26
0.0
 36
0.0
 17
0.0
 27
1.0
 37
0.0
 76
     0
330
23
  0
LAYOUT
  5
22
102
{ACAD_REACTORS
330
1A
102
}
330
1A
100
AcDbPlotSettings
  1

  2
none_device
  4
Letter_(8.50_x_11.00_Inches)
  6

 40
6.35
 41
6.35
 42
6.350005
 43
6.350005
 44
215.9
 45
279.4
 46
0.0
 47
0.0
 48
0.0
 49
0.0
140
0.0
141
0.0
142
1.0
143
1.0
 70
  5808
 72
     0
 73
     0
 74
     0
  7

 75
     0
147
1.0
148
0.0
149
0.0
100
AcDbLayout
  1
Model
 70
     1
 71
     0
 10
0.0
 20
0.0
 11
420.0
 21
297.0
 12
0.0
 22
0.0
 32
0.0
 14
0.0
 24
0.0
 34
0.0
 15
391.50119
 25
227.700012
 35
2.0
146
0.0
 13
0.0
 23
0.0
 33
0.0
 16
1.0
 26
0.0
 36
0.0
 17
0.0
 27
1.0
 37
0.0
 76
     0
330
1F
331
29
  0
MLINESTYLE
  5
18
102
{ACAD_REACTORS
330
17
102
}
330
17
100
AcDbMlineStyle
  2
Standard
 70
     0
  3

 62
   256
 51
90.0
 52
90.0
 71
     2
 49
0.5
 62
   256
  6
BYLAYER
 49
-0.5
 62
   256
  6
BYLAYER
  0
ACDBPLACEHOLDER
  5
F
102
{ACAD_REACTORS
330
E
102
}
330
E
  0
SCALE
  5
48
102
{ACAD_REACTORS
330
47
102
}
330
47
100
AcDbScale
 70
     0
300
1:1
140
1.0
141
1.0
290
     1
  0
SCALE
  5
49
102
{ACAD_REACTORS
330
47
102
}
330
47
100
AcDbScale
 70
     0
300
1:2
140
1.0
141
2.0
290
     0
  0
SCALE
  5
4A
102
{ACAD_REACTORS
330
47
102
}
330
47
100
AcDbScale
 70
     0
300
1:4
140
1.0
141
4.0
290
     0
  0
SCALE
  5
4B
102
{ACAD_REACTORS
330
47
102
}
330
47
100
AcDbScale
 70
     0
300
1:5
140
1.0
141
5.0
290
     0
  0
SCALE
  5
4C
102
{ACAD_REACTORS
330
47
102
}
330
47
100
AcDbScale
 70
     0
300
1:8
140
1.0
141
8.0
290
     0
  0
SCALE
  5
4D
102
{ACAD_REACTORS
330
47
102
}
330
47
100
AcDbScale
 70
     0
300
1:10
140
1.0
141
10.0
290
     0
  0
SCALE
  5
4E
102
{ACAD_REACTORS
330
47
102
}
330
47
100
AcDbScale
 70
     0
300
1:16
140
1.0
141
16.0
290
     0
  0
SCALE
  5
4F
102
{ACAD_REACTORS
330
47
102
}
330
47
100
AcDbScale
 70
     0
300
1:20
140
1.0
141
20.0
290
     0
  0
SCALE
  5
50
102
{ACAD_REACTORS
330
47
102
}
330
47
100
AcDbScale
 70
     0
300
1:30
140
1.0
141
30.0
290
     0
  0
SCALE
  5
51
102
{ACAD_REACTORS
330
47
102
}
330
47
100
AcDbScale
 70
     0
300
1:40
140
1.0
141
40.0
290
     0
  0
SCALE
  5
52
102
{ACAD_REACTORS
330
47
102
}
330
47
100
AcDbScale
 70
     0
300
1:50
140
1.0
141
50.0
290
     0
  0
SCALE
  5
53
102
{ACAD_REACTORS
330
47
102
}
330
47
100
AcDbScale
 70
     0
300
1:100
140
1.0
141
100.0
290
     0
  0
SCALE
  5
54
102
{ACAD_REACTORS
330
47
102
}
330
47
100
AcDbScale
 70
     0
300
2:1
140
2.0
141
1.0
290
     0
  0
SCALE
  5
55
102
{ACAD_REACTORS
330
47
102
}
330
47
100
AcDbScale
 70
     0
300
4:1
140
4.0
141
1.0
290
     0
  0
SCALE
  5
56
102
{ACAD_REACTORS
330
47
102
}
330
47
100
AcDbScale
 70
     0
300
8:1
140
8.0
141
1.0
290
     0
  0
SCALE
  5
57
102
{ACAD_REACTORS
330
47
102
}
330
47
100
AcDbScale
 70
     0
300
10:1
140
10.0
141
1.0
290
     0
  0
SCALE
  5
58
102
{ACAD_REACTORS
330
47
102
}
330
47
100
AcDbScale
 70
     0
300
100:1
140
100.0
141
1.0
290
     0
  0
SCALE
  5
59
102
{ACAD_REACTORS
330
47
102
}
330
47
100
AcDbScale
 70
     0
300
1/128" = 1'-0"
140
0.007812
141
12.0
290
     0
  0
SCALE
  5
5A
102
{ACAD_REACTORS
330
47
102
}
330
47
100
AcDbScale
 70
     0
300
1/64" = 1'-0"
140
0.015625
141
12.0
290
     0
  0
SCALE
  5
5B
102
{ACAD_REACTORS
330
47
102
}
330
47
100
AcDbScale
 70
     0
300
1/32" = 1'-0"
140
0.03125
141
12.0
290
     0
  0
SCALE
  5
5C
102
{ACAD_REACTORS
330
47
102
}
330
47
100
AcDbScale
 70
     0
300
1/16" = 1'-0"
140
0.0625
141
12.0
290
     0
  0
SCALE
  5
5D
102
{ACAD_REACTORS
330
47
102
}
330
47
100
AcDbScale
 70
     0
300
3/32" = 1'-0"
140
0.09375
141
12.0
290
     0
  0
SCALE
  5
5E
102
{ACAD_REACTORS
330
47
102
}
330
47
100
AcDbScale
 70
     0
300
1/8" = 1'-0"
140
0.125
141
12.0
290
     0
  0
SCALE
  5
5F
102
{ACAD_REACTORS
330
47
102
}
330
47
100
AcDbScale
 70
     0
300
3/16" = 1'-0"
140
0.1875
141
12.0
290
     0
  0
SCALE
  5
60
102
{ACAD_REACTORS
330
47
102
}
330
47
100
AcDbScale
 70
     0
300
1/4" = 1'-0"
140
0.25
141
12.0
290
     0
  0
SCALE
  5
61
102
{ACAD_REACTORS
330
47
102
}
330
47
100
AcDbScale
 70
     0
300
3/8" = 1'-0"
140
0.375
141
12.0
290
     0
  0
SCALE
  5
62
102
{ACAD_REACTORS
330
47
102
}
330
47
100
AcDbScale
 70
     0
300
1/2" = 1'-0"
140
0.5
141
12.0
290
     0
  0
SCALE
  5
63
102
{ACAD_REACTORS
330
47
102
}
330
47
100
AcDbScale
 70
     0
300
3/4" = 1'-0"
140
0.75
141
12.0
290
     0
  0
SCALE
  5
64
102
{ACAD_REACTORS
330
47
102
}
330
47
100
AcDbScale
 70
     0
300
1" = 1'-0"
140
1.0
141
12.0
290
     0
  0
SCALE
  5
65
102
{ACAD_REACTORS
330
47
102
}
330
47
100
AcDbScale
 70
     0
300
1-1/2" = 1'-0"
140
1.5
141
12.0
290
     0
  0
SCALE
  5
66
102
{ACAD_REACTORS
330
47
102
}
330
47
100
AcDbScale
 70
     0
300
3" = 1'-0"
140
3.0
141
12.0
290
     0
  0
SCALE
  5
67
102
{ACAD_REACTORS
330
47
102
}
330
47
100
AcDbScale
 70
     0
300
6" = 1'-0"
140
6.0
141
12.0
290
     0
  0
SCALE
  5
68
102
{ACAD_REACTORS
330
47
102
}
330
47
100
AcDbScale
 70
     0
300
1'-0" = 1'-0"
140
12.0
141
12.0
290
     0
  0
ENDSEC
  0
EOF
