  0
SECTION
  2
HEADER
  9
$ACADVER
  1
AC1015
  9
$ACADMAINTVER
 70
     6
  9
$DWGCODEPAGE
  3
ANSI_1252
  9
$INSBASE
 10
0.0
 20
0.0
 30
0.0
  9
$EXTMIN
 10
0.0
 20
0.0
 30
0.0
  9
$EXTMAX
 10
329.751221
 20
204.199982
 30
2.0
  9
$LIMMIN
 10
0.0
 20
0.0
  9
$LIMMAX
 10
420.0
 20
297.0
  9
$ORTHOMODE
 70
     0
  9
$REGENMODE
 70
     1
  9
$FILLMODE
 70
     1
  9
$QTEXTMODE
 70
     0
  9
$MIRRTEXT
 70
     1
  9
$LTSCALE
 40
1.0
  9
$ATTMODE
 70
     1
  9
$TEXTSIZE
 40
2.5
  9
$TRACEWID
 40
1.0
  9
$TEXTSTYLE
  7
Standard
  9
$CLAYER
  8
0
  9
$CELTYPE
  6
ByLayer
  9
$CECOLOR
 62
   256
  9
$CELTSCALE
 40
1.0
  9
$DISPSILH
 70
     0
  9
$DIMSCALE
 40
1.0
  9
$DIMASZ
 40
2.5
  9
$DIMEXO
 40
0.625
  9
$DIMDLI
 40
3.75
  9
$DIMRND
 40
0.0
  9
$DIMDLE
 40
0.0
  9
$DIMEXE
 40
1.25
  9
$DIMTP
 40
0.0
  9
$DIMTM
 40
0.0
  9
$DIMTXT
 40
2.5
  9
$DIMCEN
 40
2.5
  9
$DIMTSZ
 40
0.0
  9
$DIMTOL
 70
     0
  9
$DIMLIM
 70
     0
  9
$DIMTIH
 70
     0
  9
$DIMTOH
 70
     0
  9
$DIMSE1
 70
     0
  9
$DIMSE2
 70
     0
  9
$DIMTAD
 70
     1
  9
$DIMZIN
 70
     8
  9
$DIMBLK
  1

  9
$DIMASO
 70
     1
  9
$DIMSHO
 70
     1
  9
$DIMPOST
  1

  9
$DIMAPOST
  1

  9
$DIMALT
 70
     0
  9
$DIMALTD
 70
     3
  9
$DIMALTF
 40
0.03937
  9
$DIMLFAC
 40
1.0
  9
$DIMTOFL
 70
     1
  9
$DIMTVP
 40
0.0
  9
$DIMTIX
 70
     0
  9
$DIMSOXD
 70
     0
  9
$DIMSAH
 70
     0
  9
$DIMBLK1
  1

  9
$DIMBLK2
  1

  9
$DIMSTYLE
  2
Standard
  9
$DIMCLRD
 70
     0
  9
$DIMCLRE
 70
     0
  9
$DIMCLRT
 70
     0
  9
$DIMTFAC
 40
1.0
  9
$DIMGAP
 40
0.625
  9
$DIMJUST
 70
     0
  9
$DIMSD1
 70
     0
  9
$DIMSD2
 70
     0
  9
$DIMTOLJ
 70
     0
  9
$DIMTZIN
 70
     8
  9
$DIMALTZ
 70
     0
  9
$DIMALTTZ
 70
     0
  9
$DIMUPT
 70
     0
  9
$DIMDEC
 70
     2
  9
$DIMTDEC
 70
     2
  9
$DIMALTU
 70
     2
  9
$DIMALTTD
 70
     3
  9
$DIMTXSTY
  7
Standard
  9
$DIMAUNIT
 70
     0
  9
$DIMADEC
 70
     0
  9
$DIMALTRND
 40
0.0
  9
$DIMAZIN
 70
     0
  9
$DIMDSEP
 70
    44
  9
$DIMATFIT
 70
     0
  9
$DIMFRAC
 70
     0
  9
$DIMLDRBLK
  1

  9
$DIMLUNIT
 70
     2
  9
$DIMLWD
 70
    -2
  9
$DIMLWE
 70
    -2
  9
$DIMTMOVE
 70
     0
  9
$LUNITS
 70
     2
  9
$LUPREC
 70
     4
  9
$SKETCHINC
 40
1.0
  9
$FILLETRAD
 40
2.5
  9
$AUNITS
 70
     0
  9
$AUPREC
 70
     0
  9
$MENU
  1
.
  9
$ELEVATION
 40
0.0
  9
$PELEVATION
 40
0.0
  9
$THICKNESS
 40
0.0
  9
$LIMCHECK
 70
     0
  9
$CHAMFERA
 40
2.5
  9
$CHAMFERB
 40
2.5
  9
$CHAMFERC
 40
0.0
  9
$CHAMFERD
 40
0.0
  9
$SKPOLY
 70
     0
  9
$TDCREATE
 40
2447893.375
  9
$TDUCREATE
 40
0.0
  9
$TDUPDATE
 40
2459564.41313397
  9
$TDUUPDATE
 40
2459564.03813397
  9
$TDINDWG
 40
0.0
  9
$TDUSRTIMER
 40
0.0
  9
$USRTIMER
 70
     1
  9
$ANGBASE
 50
0.0
  9
$ANGDIR
 70
     0
  9
$PDMODE
 70
     0
  9
$PDSIZE
 40
0.0
  9
$PLINEWID
 40
0.0
  9
$SPLFRAME
 70
     0
  9
$SPLINETYPE
 70
     6
  9
$SPLINESEGS
 70
     8
  9
$HANDSEED
  5
2D8
  9
$SURFTAB1
 70
     6
  9
$SURFTAB2
 70
     6
  9
$SURFTYPE
 70
     6
  9
$SURFU
 70
     6
  9
$SURFV
 70
     6
  9
$UCSBASE
  2

  9
$UCSNAME
  2

  9
$UCSORG
 10
0.0
 20
0.0
 30
0.0
  9
$UCSXDIR
 10
1.0
 20
0.0
 30
0.0
  9
$UCSYDIR
 10
0.0
 20
1.0
 30
0.0
  9
$UCSORTHOREF
  2

  9
$UCSORTHOVIEW
 70
     1
  9
$UCSORGTOP
 10
0.0
 20
0.0
 30
0.0
  9
$UCSORGBOTTOM
 10
0.0
 20
0.0
 30
0.0
  9
$UCSORGLEFT
 10
0.0
 20
0.0
 30
0.0
  9
$UCSORGRIGHT
 10
0.0
 20
0.0
 30
0.0
  9
$UCSORGFRONT
 10
0.0
 20
0.0
 30
0.0
  9
$UCSORGBACK
 10
0.0
 20
0.0
 30
0.0
  9
$PUCSBASE
  2

  9
$PUCSNAME
  2

  9
$PUCSORG
 10
0.0
 20
0.0
 30
0.0
  9
$PUCSXDIR
 10
1.0
 20
0.0
 30
0.0
  9
$PUCSYDIR
 10
0.0
 20
1.0
 30
0.0
  9
$PUCSORTHOREF
  2

  9
$PUCSORTHOVIEW
 70
     0
  9
$PUCSORGTOP
 10
0.0
 20
0.0
 30
0.0
  9
$PUCSORGBOTTOM
 10
0.0
 20
0.0
 30
0.0
  9
$PUCSORGLEFT
 10
0.0
 20
0.0
 30
0.0
  9
$PUCSORGRIGHT
 10
0.0
 20
0.0
 30
0.0
  9
$PUCSORGFRONT
 10
0.0
 20
0.0
 30
0.0
  9
$PUCSORGBACK
 10
0.0
 20
0.0
 30
0.0
  9
$USERI1
 70
     0
  9
$USERI2
 70
     0
  9
$USERI3
 70
     0
  9
$USERI4
 70
     0
  9
$USERI5
 70
     0
  9
$USERR1
 40
0.0
  9
$USERR2
 40
0.0
  9
$USERR3
 40
0.0
  9
$USERR4
 40
0.0
  9
$USERR5
 40
0.0
  9
$WORLDVIEW
 70
     1
  9
$SHADEDGE
 70
     3
  9
$SHADEDIF
 70
    70
  9
$TILEMODE
 70
     1
  9
$MAXACTVP
 70
    64
  9
$PINSBASE
 10
0.0
 20
0.0
 30
0.0
  9
$PLIMCHECK
 70
     0
  9
$PEXTMIN
 10
0.0
 20
0.0
 30
0.0
  9
$PEXTMAX
 10
329.751221
 20
204.199982
 30
2.0
  9
$PLIMMIN
 10
0.0
 20
0.0
  9
$PLIMMAX
 10
420.0
 20
297.0
  9
$UNITMODE
 70
     0
  9
$VISRETAIN
 70
     0
  9
$PLINEGEN
 70
     0
  9
$PSLTSCALE
 70
     1
  9
$TREEDEPTH
 70
  3020
  9
$CMLSTYLE
  2
Standard
  9
$CMLJUST
 70
     0
  9
$CMLSCALE
 40
20.0
  9
$PROXYGRAPHICS
 70
     1
  9
$MEASUREMENT
 70
     1
  9
$CELWEIGHT
370
    -1
  9
$ENDCAPS
280
     0
  9
$JOINSTYLE
280
     0
  9
$LWDISPLAY
290
     0
  9
$INSUNITS
 70
     0
  9
$HYPERLINKBASE
  1

  9
$STYLESHEET
  1

  9
$XEDIT
290
     1
  9
$CEPSNTYPE
380
     0
  9
$PSTYLEMODE
290
     0
  9
$FINGERPRINTGUID
  2
{FB906948-F62C-43ED-A188-13512E9BAFB0}
  9
$VERSIONGUID
  2
{FAEB1C32-E019-11D5-929B-00C0DF256EC4}
  9
$EXTNAMES
290
     1
  9
$PSVPSCALE
 40
0.0
  9
$OLESTARTUP
290
     0
  0
ENDSEC
  0
SECTION
  2
CLASSES
  0
CLASS
  1
ACDBDICTIONARYWDFLT
  2
AcDbDictionaryWithDefault
  3
ObjectDBX Classes
 90
        0
280
     0
281
     0
  0
CLASS
  1
VISUALSTYLE
  2
AcDbVisualStyle
  3
ObjectDBX Classes
 90
     4095
280
     0
281
     0
  0
CLASS
  1
MATERIAL
  2
AcDbMaterial
  3
ObjectDBX Classes
 90
     1153
280
     0
281
     0
  0
CLASS
  1
SCALE
  2
AcDbScale
  3
ObjectDBX Classes
 90
     1153
280
     0
281
     0
  0
CLASS
  1
SUN
  2
AcDbSun
  3
SCENEOE
 90
     1153
280
     0
281
     0
  0
CLASS
  1
ACDBPLACEHOLDER
  2
AcDbPlaceHolder
  3
ObjectDBX Classes
 90
        0
280
     0
281
     0
  0
CLASS
  1
LAYOUT
  2
AcDbLayout
  3
ObjectDBX Classes
 90
        0
280
     0
281
     0
  0
ENDSEC
  0
SECTION
  2
TABLES
  0
TABLE
  2
VPORT
  5
8
330
0
100
AcDbSymbolTable
 70
     1
  0
VPORT
  5
29
330
8
100
AcDbSymbolTableRecord
100
AcDbViewportTableRecord
  2
*Active
 70
     0
 10
0.0
 20
0.0
 11
1.0
 21
1.0
 12
10.429907
 22
4.5
 13
0.0
 23
0.0
 14
0.5
 24
0.5
 15
0.5
 25
0.5
 16
0.0
 26
0.0
 36
1.0
 17
0.0
 27
0.0
 37
0.0
 40
9.0
 41
1.972973
 42
50.0
 43
0.0
 44
0.0
 50
0.0
 51
0.0
 71
     0
 72
   100
 73
     1
 74
     3
 75
     0
 76
     0
 77
     0
 78
     0
281
     0
 65
     1
110
0.0
120
0.0
130
0.0
111
1.0
121
0.0
131
0.0
112
0.0
122
1.0
132
0.0
 79
     0
146
0.0
  0
ENDTAB
  0
TABLE
  2
LTYPE
  5
5
330
0
100
AcDbSymbolTable
 70
     1
  0
LTYPE
  5
14
330
5
100
AcDbSymbolTableRecord
100
AcDbLinetypeTableRecord
  2
ByBlock
 70
     0
  3

 72
    65
 73
     0
 40
0.0
  0
LTYPE
  5
15
330
5
100
AcDbSymbolTableRecord
100
AcDbLinetypeTableRecord
  2
ByLayer
 70
     0
  3

 72
    65
 73
     0
 40
0.0
  0
LTYPE
  5
16
330
5
100
AcDbSymbolTableRecord
100
AcDbLinetypeTableRecord
  2
Continuous
 70
     0
  3
Solid line
 72
    65
 73
     0
 40
0.0
  0
ENDTAB
  0
TABLE
  2
LAYER
  5
2
330
0
100
AcDbSymbolTable
 70
     1
  0
LAYER
  5
10
330
2
100
AcDbSymbolTableRecord
100
AcDbLayerTableRecord
  2
0
 70
     0
 62
     7
  6
Continuous
370
    -3
390
F
  0
ENDTAB
  0
TABLE
  2
STYLE
  5
3
330
0
100
AcDbSymbolTable
 70
     1
  0
STYLE
  5
11
330
3
100
AcDbSymbolTableRecord
100
AcDbTextStyleTableRecord
  2
Standard
 70
     0
 40
0.0
 41
1.0
 50
0.0
 71
     0
 42
2.5
  3
txt
  4

  0
ENDTAB
  0
TABLE
  2
VIEW
  5
6
330
0
100
AcDbSymbolTable
 70
     0
  0
ENDTAB
  0
TABLE
  2
UCS
  5
7
330
0
100
AcDbSymbolTable
 70
     0
  0
ENDTAB
  0
TABLE
  2
APPID
  5
9
330
0
100
AcDbSymbolTable
 70
     1
  0
APPID
  5
12
330
9
100
AcDbSymbolTableRecord
100
AcDbRegAppTableRecord
  2
ACAD
 70
     0
  0
ENDTAB
  0
TABLE
  2
DIMSTYLE
  5
A
330
0
100
AcDbSymbolTable
 70
     1
100
AcDbDimStyleTable
  0
DIMSTYLE
105
27
330
A
100
AcDbSymbolTableRecord
100
AcDbDimStyleTableRecord
  2
Standard
 70
     0
178
     0
340
11
  0
ENDTAB
  0
TABLE
  2
BLOCK_RECORD
  5
1
330
0
100
AcDbSymbolTable
 70
     1
  0
BLOCK_RECORD
  5
1F
330
1
100
AcDbSymbolTableRecord
100
AcDbBlockTableRecord
  2
*Model_Space
340
22
  0
BLOCK_RECORD
  5
1B
330
1
100
AcDbSymbolTableRecord
100
AcDbBlockTableRecord
  2
*Paper_Space
340
1E
  0
BLOCK_RECORD
  5
23
330
1
100
AcDbSymbolTableRecord
100
AcDbBlockTableRecord
  2
*Paper_Space0
340
26
  0
ENDTAB
  0
ENDSEC
  0
SECTION
  2
BLOCKS
  0
BLOCK
  5
20
330
1F
100
AcDbEntity
  8
0
100
AcDbBlockBegin
  2
*Model_Space
 70
     0
 10
0.0
 20
0.0
 30
0.0
  3
*Model_Space
  1
*Model_Space
  0
ENDBLK
  5
21
330
1F
100
AcDbEntity
  8
0
100
AcDbBlockEnd
  0
BLOCK
  5
1C
330
1B
100
AcDbEntity
 67
     1
  8
0
100
AcDbBlockBegin
  2
*Paper_Space
 70
     0
 10
0.0
 20
0.0
 30
0.0
  3
*Paper_Space
  1
*Paper_Space
  0
ENDBLK
  5
1D
330
1B
100
AcDbEntity
 67
     1
  8
0
100
AcDbBlockEnd
  0
BLOCK
  5
24
330
23
100
AcDbEntity
  8
0
100
AcDbBlockBegin
  2
*Paper_Space0
 70
     0
 10
0.0
 20
0.0
 30
0.0
  3
*Paper_Space0
  1
*Paper_Space0
  0
ENDBLK
  5
25
330
23
100
AcDbEntity
  8
0
100
AcDbBlockEnd
  0
ENDSEC
  0
SECTION
  2
ENTITIES
  0
LINE
  5
6A
330
1F
100
AcDbEntity
  8
0
 62
     7
370
    35
100
AcDbLine
 10
47.74881
 20
191.199982
 30
0.0
 11
42.848053
 21
191.199982
 31
0.0
  0
LINE
  5
6B
330
1F
100
AcDbEntity
  8
0
 62
     7
370
    35
100
AcDbLine
 10
47.74881
 20
197.199982
 30
0.0
 11
42.848053
 21
197.199982
 31
0.0
  0
LINE
  5
6C
330
1F
100
AcDbEntity
  8
0
 62
     7
370
    35
100
AcDbLine
 10
294.251221
 20
110.200043
 30
0.0
 11
294.251221
 21
118.200012
 31
0.0
  0
LINE
  5
6D
330
1F
100
AcDbEntity
  8
0
 62
     7
370
    35
100
AcDbLine
 10
329.751221
 20
109.200043
 30
0.0
 11
329.751221
 21
119.200043
 31
0.0
  0
LINE
  5
6E
330
1F
100
AcDbEntity
  8
0
 62
     7
370
    35
100
AcDbLine
 10
323.551208
 20
108.300049
 30
0.0
 11
323.551208
 21
120.100037
 31
0.0
  0
LINE
  5
6F
330
1F
100
AcDbEntity
  8
0
 62
     7
370
    35
100
AcDbLine
 10
280.251221
 20
110.700043
 30
0.0
 11
280.251221
 21
117.700043
 31
0.0
  0
LINE
  5
70
330
1F
100
AcDbEntity
  8
0
 62
     7
370
    35
100
AcDbLine
 10
299.251221
 20
107.700043
 30
0.0
 11
299.251221
 21
120.700043
 31
0.0
  0
LINE
  5
71
330
1F
100
AcDbEntity
  8
0
 62
     7
370
    35
100
AcDbLine
 10
318.751221
 20
107.700043
 30
0.0
 11
318.751221
 21
120.700043
 31
0.0
  0
LINE
  5
72
330
1F
100
AcDbEntity
  8
0
 62
     7
370
    35
100
AcDbLine
 10
318.751221
 20
107.700043
 30
0.0
 11
299.251221
 21
107.700043
 31
0.0
  0
LINE
  5
73
330
1F
100
AcDbEntity
  8
0
 62
     7
370
    35
100
AcDbLine
 10
318.751221
 20
120.700043
 30
0.0
 11
299.251221
 21
120.700043
 31
0.0
  0
LINE
  5
74
330
1F
100
AcDbEntity
  8
0
 62
     7
370
    35
100
AcDbLine
 10
323.551208
 20
108.300049
 30
0.0
 11
318.751221
 21
108.300049
 31
0.0
  0
LINE
  5
75
330
1F
100
AcDbEntity
  8
0
 62
     7
370
    35
100
AcDbLine
 10
323.551208
 20
120.100037
 30
0.0
 11
318.751221
 21
120.100037
 31
0.0
  0
LINE
  5
76
330
1F
100
AcDbEntity
  8
0
 62
     7
370
    35
100
AcDbLine
 10
329.751221
 20
109.200043
 30
0.0
 11
323.551208
 21
109.200043
 31
0.0
  0
LINE
  5
77
330
1F
100
AcDbEntity
  8
0
 62
     7
370
    35
100
AcDbLine
 10
329.751221
 20
119.200043
 30
0.0
 11
323.551208
 21
119.200043
 31
0.0
  0
LINE
  5
78
330
1F
100
AcDbEntity
  8
0
 62
     7
370
    35
100
AcDbLine
 10
280.251282
 20
110.700012
 30
0.0
 11
294.251282
 21
110.200012
 31
0.0
  0
LINE
  5
79
330
1F
100
AcDbEntity
  8
0
 62
     7
370
    35
100
AcDbLine
 10
299.251282
 20
108.300018
 30
0.0
 11
294.251282
 21
110.200012
 31
0.0
  0
LINE
  5
7A
330
1F
100
AcDbEntity
  8
0
 62
     7
370
    35
100
AcDbLine
 10
280.251221
 20
117.700012
 30
0.0
 11
294.251221
 21
118.200012
 31
0.0
  0
LINE
  5
7B
330
1F
100
AcDbEntity
  8
0
 62
     7
370
    35
100
AcDbLine
 10
299.251282
 20
120.099945
 30
0.0
 11
294.251282
 21
118.199951
 31
0.0
  0
LINE
  5
7C
330
1F
100
AcDbEntity
  8
0
 62
     7
370
    35
100
AcDbLine
 10
315.551208
 20
110.950043
 30
0.0
 11
315.551208
 21
117.450043
 31
0.0
  0
LINE
  5
7D
330
1F
100
AcDbEntity
  8
0
 62
     7
370
    35
100
AcDbLine
 10
309.051208
 20
110.950043
 30
0.0
 11
309.051208
 21
117.450043
 31
0.0
  0
LINE
  5
7E
330
1F
100
AcDbEntity
  8
0
 62
     7
370
    35
100
AcDbLine
 10
315.551208
 20
110.950043
 30
0.0
 11
309.051208
 21
110.950043
 31
0.0
  0
LINE
  5
7F
330
1F
100
AcDbEntity
  8
0
 62
     7
370
    35
100
AcDbLine
 10
315.551208
 20
117.450043
 30
0.0
 11
309.051208
 21
117.450043
 31
0.0
  0
LINE
  5
80
330
1F
100
AcDbEntity
  8
0
 62
     7
370
    35
100
AcDbLine
 10
293.214172
 20
116.200043
 30
0.0
 11
293.732727
 21
114.200043
 31
0.0
  0
LINE
  5
81
330
1F
100
AcDbEntity
  8
0
 62
     7
370
    35
100
AcDbLine
 10
292.7099
 20
110.255066
 30
0.0
 11
293.214111
 21
112.200043
 31
0.0
  0
LINE
  5
82
330
1F
100
AcDbEntity
  8
0
 62
     7
370
    35
100
AcDbLine
 10
293.214172
 20
112.200043
 30
0.0
 11
292.695679
 21
114.200043
 31
0.0
  0
LINE
  5
83
330
1F
100
AcDbEntity
  8
0
 62
     7
370
    35
100
AcDbLine
 10
292.695618
 20
114.200043
 30
0.0
 11
292.177124
 21
112.200043
 31
0.0
  0
LINE
  5
84
330
1F
100
AcDbEntity
  8
0
 62
     7
370
    35
100
AcDbLine
 10
292.177124
 20
112.200043
 30
0.0
 11
292.68103
 21
110.256104
 31
0.0
  0
LINE
  5
85
330
1F
100
AcDbEntity
  8
0
 62
     7
370
    35
100
AcDbLine
 10
291.658691
 20
114.200043
 30
0.0
 11
292.177246
 21
116.200012
 31
0.0
  0
LINE
  5
86
330
1F
100
AcDbEntity
  8
0
 62
     7
370
    35
100
AcDbLine
 10
292.177185
 20
116.200043
 30
0.0
 11
291.682434
 21
118.108307
 31
0.0
  0
LINE
  5
87
330
1F
100
AcDbEntity
  8
0
 62
     7
370
    35
100
AcDbLine
 10
291.634399
 20
118.106567
 30
0.0
 11
291.140137
 21
116.200043
 31
0.0
  0
LINE
  5
88
330
1F
100
AcDbEntity
  8
0
 62
     7
370
    35
100
AcDbLine
 10
291.140137
 20
116.200043
 30
0.0
 11
291.65863
 21
114.200043
 31
0.0
  0
LINE
  5
89
330
1F
100
AcDbEntity
  8
0
 62
     7
370
    35
100
AcDbLine
 10
290.654907
 20
110.328461
 30
0.0
 11
291.140198
 21
112.200043
 31
0.0
  0
LINE
  5
8A
330
1F
100
AcDbEntity
  8
0
 62
     7
370
    35
100
AcDbLine
 10
291.140137
 20
112.200043
 30
0.0
 11
290.621582
 21
114.200043
 31
0.0
  0
LINE
  5
8B
330
1F
100
AcDbEntity
  8
0
 62
     7
370
    35
100
AcDbLine
 10
290.621643
 20
114.200043
 30
0.0
 11
290.103088
 21
112.200043
 31
0.0
  0
LINE
  5
8C
330
1F
100
AcDbEntity
  8
0
 62
     7
370
    35
100
AcDbLine
 10
290.103088
 20
112.200043
 30
0.0
 11
290.587646
 21
110.330902
 31
0.0
  0
LINE
  5
8D
330
1F
100
AcDbEntity
  8
0
 62
     7
370
    35
100
AcDbLine
 10
289.584534
 20
114.200043
 30
0.0
 11
290.103027
 21
116.200043
 31
0.0
  0
LINE
  5
8E
330
1F
100
AcDbEntity
  8
0
 62
     7
370
    35
100
AcDbLine
 10
293.727844
 20
118.181335
 30
0.0
 11
293.214172
 21
116.200043
 31
0.0
  0
LINE
  5
8F
330
1F
100
AcDbEntity
  8
0
 62
     7
370
    35
100
AcDbLine
 10
293.732727
 20
114.200043
 30
0.0
 11
294.251221
 21
116.200043
 31
0.0
  0
LINE
  5
90
330
1F
100
AcDbEntity
  8
0
 62
     7
370
    35
100
AcDbLine
 10
294.251282
 20
116.200043
 30
0.0
 11
293.737549
 21
118.181702
 31
0.0
  0
LINE
  5
91
330
1F
100
AcDbEntity
  8
0
 62
     7
370
    35
100
AcDbLine
 10
290.103088
 20
116.200043
 30
0.0
 11
289.62738
 21
118.034882
 31
0.0
  0
LINE
  5
92
330
1F
100
AcDbEntity
  8
0
 62
     7
370
    35
100
AcDbLine
 10
289.540955
 20
118.03183
 30
0.0
 11
289.066101
 21
116.200043
 31
0.0
  0
LINE
  5
93
330
1F
100
AcDbEntity
  8
0
 62
     7
370
    35
100
AcDbLine
 10
289.066101
 20
116.200043
 30
0.0
 11
289.584656
 21
114.200043
 31
0.0
  0
LINE
  5
94
330
1F
100
AcDbEntity
  8
0
 62
     7
370
    35
100
AcDbLine
 10
288.599854
 20
110.401886
 30
0.0
 11
289.066101
 21
112.200043
 31
0.0
  0
LINE
  5
95
330
1F
100
AcDbEntity
  8
0
 62
     7
370
    35
100
AcDbLine
 10
289.066101
 20
112.200043
 30
0.0
 11
288.547546
 21
114.200043
 31
0.0
  0
LINE
  5
96
330
1F
100
AcDbEntity
  8
0
 62
     7
370
    35
100
AcDbLine
 10
288.547546
 20
114.200043
 30
0.0
 11
288.029053
 21
112.200043
 31
0.0
  0
LINE
  5
97
330
1F
100
AcDbEntity
  8
0
 62
     7
370
    35
100
AcDbLine
 10
288.028992
 20
112.200012
 30
0.0
 11
288.494202
 21
110.40564
 31
0.0
  0
LINE
  5
98
330
1F
100
AcDbEntity
  8
0
 62
     7
370
    35
100
AcDbLine
 10
287.510498
 20
114.200012
 30
0.0
 11
288.029053
 21
116.200012
 31
0.0
  0
LINE
  5
99
330
1F
100
AcDbEntity
  8
0
 62
     7
370
    35
100
AcDbLine
 10
288.029053
 20
116.200043
 30
0.0
 11
287.572388
 21
117.961517
 31
0.0
  0
LINE
  5
9A
330
1F
100
AcDbEntity
  8
0
 62
     7
370
    35
100
AcDbLine
 10
287.447449
 20
117.957031
 30
0.0
 11
286.991943
 21
116.200043
 31
0.0
  0
LINE
  5
9B
330
1F
100
AcDbEntity
  8
0
 62
     7
370
    35
100
AcDbLine
 10
286.992004
 20
116.200043
 30
0.0
 11
287.510498
 21
114.200043
 31
0.0
  0
LINE
  5
9C
330
1F
100
AcDbEntity
  8
0
 62
     7
370
    35
100
AcDbLine
 10
286.544861
 20
110.47525
 30
0.0
 11
286.992004
 21
112.200012
 31
0.0
  0
LINE
  5
9D
330
1F
100
AcDbEntity
  8
0
 62
     7
370
    35
100
AcDbLine
 10
249.557114
 20
118.100006
 30
0.0
 11
249.557114
 21
110.300018
 31
0.0
  0
LINE
  5
9E
330
1F
100
AcDbEntity
  8
0
 62
     7
370
    35
100
AcDbLine
 10
239.607101
 20
110.486877
 30
0.0
 11
240.107101
 21
110.502625
 31
0.0
  0
LINE
  5
9F
330
1F
100
AcDbEntity
  8
0
 62
     7
370
    35
100
AcDbLine
 10
239.607101
 20
117.913147
 30
0.0
 11
240.107101
 21
117.8974
 31
0.0
  0
LINE
  5
A0
330
1F
100
AcDbEntity
  8
0
 62
     7
370
    35
100
AcDbLine
 10
241.107101
 20
118.36615
 30
0.0
 11
241.107101
 21
110.033875
 31
0.0
  0
LINE
  5
A1
330
1F
100
AcDbEntity
  8
0
 62
     7
370
    35
100
AcDbLine
 10
240.107101
 20
118.397644
 30
0.0
 11
240.107101
 21
110.00238
 31
0.0
  0
LINE
  5
A2
330
1F
100
AcDbEntity
  8
0
 62
     7
370
    35
100
AcDbLine
 10
238.457047
 20
109.950409
 30
0.0
 11
239.607101
 21
109.986633
 31
0.0
  0
LINE
  5
A3
330
1F
100
AcDbEntity
  8
0
 62
     7
370
    35
100
AcDbLine
 10
239.607101
 20
118.413391
 30
0.0
 11
239.607101
 21
109.986633
 31
0.0
  0
LINE
  5
A4
330
1F
100
AcDbEntity
  8
0
 62
     7
370
    35
100
AcDbLine
 10
238.457047
 20
118.449615
 30
0.0
 11
239.607101
 21
118.413391
 31
0.0
  0
LINE
  5
A5
330
1F
100
AcDbEntity
  8
0
 62
     7
370
    35
100
AcDbLine
 10
241.607101
 20
118.350403
 30
0.0
 11
241.607101
 21
110.049622
 31
0.0
  0
LINE
  5
A6
330
1F
100
AcDbEntity
  8
0
 62
     7
370
    35
100
AcDbLine
 10
243.107101
 20
118.303162
 30
0.0
 11
243.107101
 21
110.096863
 31
0.0
  0
LINE
  5
A7
330
1F
100
AcDbEntity
  8
0
 62
     7
370
    35
100
AcDbLine
 10
242.607101
 20
118.318909
 30
0.0
 11
242.607101
 21
110.081116
 31
0.0
  0
LINE
  5
A8
330
1F
100
AcDbEntity
  8
0
 62
     7
370
    35
100
AcDbLine
 10
244.107101
 20
118.271667
 30
0.0
 11
244.107101
 21
110.128357
 31
0.0
  0
LINE
  5
A9
330
1F
100
AcDbEntity
  8
0
 62
     7
370
    35
100
AcDbLine
 10
244.607101
 20
118.25592
 30
0.0
 11
244.607101
 21
110.144104
 31
0.0
  0
LINE
  5
AA
330
1F
100
AcDbEntity
  8
0
 62
     7
370
    35
100
AcDbLine
 10
246.107101
 20
118.208679
 30
0.0
 11
246.107101
 21
110.191345
 31
0.0
  0
LINE
  5
AB
330
1F
100
AcDbEntity
  8
0
 62
     7
370
    35
100
AcDbLine
 10
245.607101
 20
118.224426
 30
0.0
 11
245.607101
 21
110.175598
 31
0.0
  0
LINE
  5
AC
330
1F
100
AcDbEntity
  8
0
 62
     7
370
    35
100
AcDbLine
 10
246.107101
 20
110.191345
 30
0.0
 11
249.557114
 21
110.300018
 31
0.0
  0
LINE
  5
AD
330
1F
100
AcDbEntity
  8
0
 62
     7
370
    35
100
AcDbLine
 10
244.607101
 20
110.144104
 30
0.0
 11
245.607101
 21
110.175598
 31
0.0
  0
LINE
  5
AE
330
1F
100
AcDbEntity
  8
0
 62
     7
370
    35
100
AcDbLine
 10
243.107101
 20
110.096863
 30
0.0
 11
244.107101
 21
110.128357
 31
0.0
  0
LINE
  5
AF
330
1F
100
AcDbEntity
  8
0
 62
     7
370
    35
100
AcDbLine
 10
241.607101
 20
110.049622
 30
0.0
 11
242.607101
 21
110.081116
 31
0.0
  0
LINE
  5
B0
330
1F
100
AcDbEntity
  8
0
 62
     7
370
    35
100
AcDbLine
 10
240.107101
 20
110.00238
 30
0.0
 11
241.107101
 21
110.033875
 31
0.0
  0
LINE
  5
B1
330
1F
100
AcDbEntity
  8
0
 62
     7
370
    35
100
AcDbLine
 10
240.107101
 20
118.397644
 30
0.0
 11
241.107101
 21
118.36615
 31
0.0
  0
LINE
  5
B2
330
1F
100
AcDbEntity
  8
0
 62
     7
370
    35
100
AcDbLine
 10
241.607101
 20
118.350403
 30
0.0
 11
242.607101
 21
118.318909
 31
0.0
  0
LINE
  5
B3
330
1F
100
AcDbEntity
  8
0
 62
     7
370
    35
100
AcDbLine
 10
243.107101
 20
118.303162
 30
0.0
 11
244.107101
 21
118.271667
 31
0.0
  0
LINE
  5
B4
330
1F
100
AcDbEntity
  8
0
 62
     7
370
    35
100
AcDbLine
 10
244.607101
 20
118.25592
 30
0.0
 11
245.607101
 21
118.224426
 31
0.0
  0
LINE
  5
B5
330
1F
100
AcDbEntity
  8
0
 62
     7
370
    35
100
AcDbLine
 10
246.107101
 20
118.208679
 30
0.0
 11
249.557114
 21
118.100006
 31
0.0
  0
LINE
  5
B6
330
1F
100
AcDbEntity
  8
0
 62
     7
370
    35
100
AcDbLine
 10
286.991943
 20
112.200043
 30
0.0
 11
286.47345
 21
114.200043
 31
0.0
  0
LINE
  5
B7
330
1F
100
AcDbEntity
  8
0
 62
     7
370
    35
100
AcDbLine
 10
286.473511
 20
114.200043
 30
0.0
 11
285.954956
 21
112.200043
 31
0.0
  0
LINE
  5
B8
330
1F
100
AcDbEntity
  8
0
 62
     7
370
    35
100
AcDbLine
 10
285.954956
 20
112.200043
 30
0.0
 11
286.400757
 21
110.480408
 31
0.0
  0
LINE
  5
B9
330
1F
100
AcDbEntity
  8
0
 62
     7
370
    35
100
AcDbLine
 10
285.436401
 20
114.200043
 30
0.0
 11
285.954956
 21
116.200043
 31
0.0
  0
LINE
  5
BA
330
1F
100
AcDbEntity
  8
0
 62
     7
370
    35
100
AcDbLine
 10
285.954895
 20
116.200043
 30
0.0
 11
285.517273
 21
117.888092
 31
0.0
  0
LINE
  5
BB
330
1F
100
AcDbEntity
  8
0
 62
     7
370
    35
100
AcDbLine
 10
285.354065
 20
117.882294
 30
0.0
 11
284.917908
 21
116.200043
 31
0.0
  0
LINE
  5
BC
330
1F
100
AcDbEntity
  8
0
 62
     7
370
    35
100
AcDbLine
 10
284.917908
 20
116.200043
 30
0.0
 11
285.43634
 21
114.200043
 31
0.0
  0
LINE
  5
BD
330
1F
100
AcDbEntity
  8
0
 62
     7
370
    35
100
AcDbLine
 10
284.489746
 20
110.548676
 30
0.0
 11
284.917847
 21
112.200043
 31
0.0
  0
LINE
  5
BE
330
1F
100
AcDbEntity
  8
0
 62
     7
370
    35
100
AcDbLine
 10
284.917847
 20
112.200043
 30
0.0
 11
284.399353
 21
114.200043
 31
0.0
  0
LINE
  5
BF
330
1F
100
AcDbEntity
  8
0
 62
     7
370
    35
100
AcDbLine
 10
284.399414
 20
114.200043
 30
0.0
 11
283.880859
 21
112.200043
 31
0.0
  0
LINE
  5
C0
330
1F
100
AcDbEntity
  8
0
 62
     7
370
    35
100
AcDbLine
 10
283.880859
 20
112.200043
 30
0.0
 11
284.307312
 21
110.555176
 31
0.0
  0
LINE
  5
C1
330
1F
100
AcDbEntity
  8
0
 62
     7
370
    35
100
AcDbLine
 10
283.362366
 20
114.200043
 30
0.0
 11
283.880859
 21
116.200043
 31
0.0
  0
LINE
  5
C2
330
1F
100
AcDbEntity
  8
0
 62
     7
370
    35
100
AcDbLine
 10
283.880859
 20
116.200043
 30
0.0
 11
283.462219
 21
117.814728
 31
0.0
  0
LINE
  5
C3
330
1F
100
AcDbEntity
  8
0
 62
     7
370
    35
100
AcDbLine
 10
283.260559
 20
117.807495
 30
0.0
 11
282.843811
 21
116.200043
 31
0.0
  0
LINE
  5
C4
330
1F
100
AcDbEntity
  8
0
 62
     7
370
    35
100
AcDbLine
 10
282.843872
 20
116.200043
 30
0.0
 11
283.362366
 21
114.200043
 31
0.0
  0
LINE
  5
C5
330
1F
100
AcDbEntity
  8
0
 62
     7
370
    35
100
AcDbLine
 10
282.434692
 20
110.62204
 30
0.0
 11
282.843811
 21
112.200043
 31
0.0
  0
LINE
  5
C6
330
1F
100
AcDbEntity
  8
0
 62
     7
370
    35
100
AcDbLine
 10
282.843872
 20
112.200043
 30
0.0
 11
282.325317
 21
114.200043
 31
0.0
  0
LINE
  5
C7
330
1F
100
AcDbEntity
  8
0
 62
     7
370
    35
100
AcDbLine
 10
282.325256
 20
114.200043
 30
0.0
 11
281.806763
 21
112.200043
 31
0.0
  0
LINE
  5
C8
330
1F
100
AcDbEntity
  8
0
 62
     7
370
    35
100
AcDbLine
 10
281.806763
 20
112.200043
 30
0.0
 11
282.213806
 21
110.629944
 31
0.0
  0
LINE
  5
C9
330
1F
100
AcDbEntity
  8
0
 62
     7
370
    35
100
AcDbLine
 10
281.28833
 20
114.200012
 30
0.0
 11
281.806824
 21
116.200012
 31
0.0
  0
LINE
  5
CA
330
1F
100
AcDbEntity
  8
0
 62
     7
370
    35
100
AcDbLine
 10
281.806824
 20
116.200043
 30
0.0
 11
281.407227
 21
117.741333
 31
0.0
  0
LINE
  5
CB
330
1F
100
AcDbEntity
  8
0
 62
     7
370
    35
100
AcDbLine
 10
281.167114
 20
117.732758
 30
0.0
 11
280.769714
 21
116.200043
 31
0.0
  0
LINE
  5
CC
330
1F
100
AcDbEntity
  8
0
 62
     7
370
    35
100
AcDbLine
 10
280.769775
 20
116.200043
 30
0.0
 11
281.28833
 21
114.200073
 31
0.0
  0
LINE
  5
CD
330
1F
100
AcDbEntity
  8
0
 62
     7
370
    35
100
AcDbLine
 10
303.551208
 20
110.950043
 30
0.0
 11
303.551208
 21
117.450043
 31
0.0
  0
LINE
  5
CE
330
1F
100
AcDbEntity
  8
0
 62
     7
370
    35
100
AcDbLine
 10
305.051208
 20
110.950043
 30
0.0
 11
305.051208
 21
117.450043
 31
0.0
  0
LINE
  5
CF
330
1F
100
AcDbEntity
  8
0
 62
     7
370
    35
100
AcDbLine
 10
305.551208
 20
110.950043
 30
0.0
 11
305.551208
 21
117.450043
 31
0.0
  0
LINE
  5
D0
330
1F
100
AcDbEntity
  8
0
 62
     7
370
    35
100
AcDbLine
 10
307.051208
 20
110.950043
 30
0.0
 11
307.051208
 21
117.450043
 31
0.0
  0
LINE
  5
D1
330
1F
100
AcDbEntity
  8
0
 62
     7
370
    35
100
AcDbLine
 10
307.551208
 20
110.950043
 30
0.0
 11
307.551208
 21
117.450043
 31
0.0
  0
LINE
  5
D2
330
1F
100
AcDbEntity
  8
0
 62
     7
370
    35
100
AcDbLine
 10
303.051208
 20
110.950043
 30
0.0
 11
303.051208
 21
117.450043
 31
0.0
  0
LINE
  5
D3
330
1F
100
AcDbEntity
  8
0
 62
     7
370
    35
100
AcDbLine
 10
307.551208
 20
110.950043
 30
0.0
 11
307.051208
 21
110.950043
 31
0.0
  0
LINE
  5
D4
330
1F
100
AcDbEntity
  8
0
 62
     7
370
    35
100
AcDbLine
 10
307.551208
 20
117.450043
 30
0.0
 11
307.051208
 21
117.450043
 31
0.0
  0
LINE
  5
D5
330
1F
100
AcDbEntity
  8
0
 62
     7
370
    35
100
AcDbLine
 10
305.551208
 20
110.950043
 30
0.0
 11
305.051208
 21
110.950043
 31
0.0
  0
LINE
  5
D6
330
1F
100
AcDbEntity
  8
0
 62
     7
370
    35
100
AcDbLine
 10
305.551208
 20
117.450043
 30
0.0
 11
305.051208
 21
117.450043
 31
0.0
  0
LINE
  5
D7
330
1F
100
AcDbEntity
  8
0
 62
     7
370
    35
100
AcDbLine
 10
303.551208
 20
110.950043
 30
0.0
 11
303.051208
 21
110.950043
 31
0.0
  0
LINE
  5
D8
330
1F
100
AcDbEntity
  8
0
 62
     7
370
    35
100
AcDbLine
 10
303.551208
 20
117.450043
 30
0.0
 11
303.051208
 21
117.450043
 31
0.0
  0
LINE
  5
D9
330
1F
100
AcDbEntity
  8
0
 62
     7
370
    35
100
AcDbLine
 10
314.551208
 20
114.200043
 30
0.0
 11
312.051208
 21
116.450043
 31
0.0
  0
LINE
  5
DA
330
1F
100
AcDbEntity
  8
0
 62
     7
370
    35
100
AcDbLine
 10
310.051208
 20
113.200043
 30
0.0
 11
310.051208
 21
115.200043
 31
0.0
  0
LINE
  5
DB
330
1F
100
AcDbEntity
  8
0
 62
     7
370
    35
100
AcDbLine
 10
312.05127
 20
111.949951
 30
0.0
 11
314.55127
 21
114.199951
 31
0.0
  0
LINE
  5
DC
330
1F
100
AcDbEntity
  8
0
 62
     7
370
    35
100
AcDbLine
 10
312.051208
 20
115.200043
 30
0.0
 11
312.051208
 21
116.450043
 31
0.0
  0
LINE
  5
DD
330
1F
100
AcDbEntity
  8
0
 62
     7
370
    35
100
AcDbLine
 10
312.051208
 20
113.200043
 30
0.0
 11
310.051208
 21
113.200043
 31
0.0
  0
LINE
  5
DE
330
1F
100
AcDbEntity
  8
0
 62
     7
370
    35
100
AcDbLine
 10
312.051208
 20
115.200043
 30
0.0
 11
310.051208
 21
115.200043
 31
0.0
  0
LINE
  5
DF
330
1F
100
AcDbEntity
  8
0
 62
     7
370
    35
100
AcDbLine
 10
312.051208
 20
111.950043
 30
0.0
 11
312.051208
 21
113.200043
 31
0.0
  0
LINE
  5
E0
330
1F
100
AcDbEntity
  8
0
 62
     7
370
    35
100
AcDbLine
 10
134.807083
 20
117.865906
 30
0.0
 11
134.307083
 21
117.850159
 31
0.0
  0
LINE
  5
E1
330
1F
100
AcDbEntity
  8
0
 62
     7
370
    35
100
AcDbLine
 10
133.307083
 20
117.818665
 30
0.0
 11
132.807083
 21
117.802917
 31
0.0
  0
LINE
  5
E2
330
1F
100
AcDbEntity
  8
0
 62
     7
370
    35
100
AcDbLine
 10
131.807083
 20
117.771423
 30
0.0
 11
131.307083
 21
117.755676
 31
0.0
  0
LINE
  5
E3
330
1F
100
AcDbEntity
  8
0
 62
     7
370
    35
100
AcDbLine
 10
130.307083
 20
117.724182
 30
0.0
 11
129.807083
 21
117.708435
 31
0.0
  0
LINE
  5
E4
330
1F
100
AcDbEntity
  8
0
 62
     7
370
    35
100
AcDbLine
 10
134.807083
 20
110.534119
 30
0.0
 11
134.307083
 21
110.549866
 31
0.0
  0
LINE
  5
E5
330
1F
100
AcDbEntity
  8
0
 62
     7
370
    35
100
AcDbLine
 10
133.307083
 20
110.58136
 30
0.0
 11
132.807083
 21
110.597107
 31
0.0
  0
LINE
  5
E6
330
1F
100
AcDbEntity
  8
0
 62
     7
370
    35
100
AcDbLine
 10
131.807083
 20
110.628601
 30
0.0
 11
131.307083
 21
110.644348
 31
0.0
  0
LINE
  5
E7
330
1F
100
AcDbEntity
  8
0
 62
     7
370
    35
100
AcDbLine
 10
130.307083
 20
110.675842
 30
0.0
 11
129.807083
 21
110.691589
 31
0.0
  0
LINE
  5
E8
330
1F
100
AcDbEntity
  8
0
 62
     7
370
    35
100
AcDbLine
 10
129.807083
 20
118.208679
 30
0.0
 11
126.357086
 21
118.100006
 31
0.0
  0
LINE
  5
E9
330
1F
100
AcDbEntity
  8
0
 62
     7
370
    35
100
AcDbLine
 10
131.307083
 20
118.25592
 30
0.0
 11
130.307083
 21
118.224426
 31
0.0
  0
LINE
  5
EA
330
1F
100
AcDbEntity
  8
0
 62
     7
370
    35
100
AcDbLine
 10
132.807083
 20
118.303162
 30
0.0
 11
131.807083
 21
118.271667
 31
0.0
  0
LINE
  5
EB
330
1F
100
AcDbEntity
  8
0
 62
     7
370
    35
100
AcDbLine
 10
134.307083
 20
118.350403
 30
0.0
 11
133.307083
 21
118.318909
 31
0.0
  0
LINE
  5
EC
330
1F
100
AcDbEntity
  8
0
 62
     7
370
    35
100
AcDbLine
 10
135.807083
 20
118.397644
 30
0.0
 11
134.807083
 21
118.36615
 31
0.0
  0
LINE
  5
ED
330
1F
100
AcDbEntity
  8
0
 62
     7
370
    35
100
AcDbLine
 10
135.807083
 20
110.00238
 30
0.0
 11
134.807083
 21
110.033875
 31
0.0
  0
LINE
  5
EE
330
1F
100
AcDbEntity
  8
0
 62
     7
370
    35
100
AcDbLine
 10
134.307083
 20
110.049622
 30
0.0
 11
133.307083
 21
110.081116
 31
0.0
  0
LINE
  5
EF
330
1F
100
AcDbEntity
  8
0
 62
     7
370
    35
100
AcDbLine
 10
132.807083
 20
110.096863
 30
0.0
 11
131.807083
 21
110.128357
 31
0.0
  0
LINE
  5
F0
330
1F
100
AcDbEntity
  8
0
 62
     7
370
    35
100
AcDbLine
 10
131.307083
 20
110.144104
 30
0.0
 11
130.307083
 21
110.175598
 31
0.0
  0
LINE
  5
F1
330
1F
100
AcDbEntity
  8
0
 62
     7
370
    35
100
AcDbLine
 10
129.807083
 20
110.191345
 30
0.0
 11
126.357086
 21
110.300018
 31
0.0
  0
LINE
  5
F2
330
1F
100
AcDbEntity
  8
0
 62
     7
370
    35
100
AcDbLine
 10
130.307083
 20
118.224426
 30
0.0
 11
130.307083
 21
110.175598
 31
0.0
  0
LINE
  5
F3
330
1F
100
AcDbEntity
  8
0
 62
     7
370
    35
100
AcDbLine
 10
129.807083
 20
118.208679
 30
0.0
 11
129.807083
 21
110.191345
 31
0.0
  0
LINE
  5
F4
330
1F
100
AcDbEntity
  8
0
 62
     7
370
    35
100
AcDbLine
 10
131.307083
 20
118.25592
 30
0.0
 11
131.307083
 21
110.144104
 31
0.0
  0
LINE
  5
F5
330
1F
100
AcDbEntity
  8
0
 62
     7
370
    35
100
AcDbLine
 10
131.807083
 20
118.271667
 30
0.0
 11
131.807083
 21
110.128357
 31
0.0
  0
LINE
  5
F6
330
1F
100
AcDbEntity
  8
0
 62
     7
370
    35
100
AcDbLine
 10
133.307083
 20
118.318909
 30
0.0
 11
133.307083
 21
110.081116
 31
0.0
  0
LINE
  5
F7
330
1F
100
AcDbEntity
  8
0
 62
     7
370
    35
100
AcDbLine
 10
132.807083
 20
118.303162
 30
0.0
 11
132.807083
 21
110.096863
 31
0.0
  0
LINE
  5
F8
330
1F
100
AcDbEntity
  8
0
 62
     7
370
    35
100
AcDbLine
 10
134.307083
 20
118.350403
 30
0.0
 11
134.307083
 21
110.049622
 31
0.0
  0
LINE
  5
F9
330
1F
100
AcDbEntity
  8
0
 62
     7
370
    35
100
AcDbLine
 10
137.457077
 20
118.449615
 30
0.0
 11
136.307083
 21
118.413391
 31
0.0
  0
LINE
  5
FA
330
1F
100
AcDbEntity
  8
0
 62
     7
370
    35
100
AcDbLine
 10
136.307083
 20
118.413391
 30
0.0
 11
136.307083
 21
109.986633
 31
0.0
  0
LINE
  5
FB
330
1F
100
AcDbEntity
  8
0
 62
     7
370
    35
100
AcDbLine
 10
137.457077
 20
109.950409
 30
0.0
 11
136.307083
 21
109.986633
 31
0.0
  0
LINE
  5
FC
330
1F
100
AcDbEntity
  8
0
 62
     7
370
    35
100
AcDbLine
 10
135.807083
 20
118.397644
 30
0.0
 11
135.807083
 21
110.00238
 31
0.0
  0
LINE
  5
FD
330
1F
100
AcDbEntity
  8
0
 62
     7
370
    35
100
AcDbLine
 10
134.807083
 20
118.36615
 30
0.0
 11
134.807083
 21
110.033875
 31
0.0
  0
LINE
  5
FE
330
1F
100
AcDbEntity
  8
0
 62
     7
370
    35
100
AcDbLine
 10
245.607101
 20
110.675842
 30
0.0
 11
246.107101
 21
110.691589
 31
0.0
  0
LINE
  5
FF
330
1F
100
AcDbEntity
  8
0
 62
     7
370
    35
100
AcDbLine
 10
136.307083
 20
117.913147
 30
0.0
 11
135.807083
 21
117.8974
 31
0.0
  0
LINE
  5
100
330
1F
100
AcDbEntity
  8
0
 62
     7
370
    35
100
AcDbLine
 10
244.107101
 20
110.628601
 30
0.0
 11
244.607101
 21
110.644348
 31
0.0
  0
LINE
  5
101
330
1F
100
AcDbEntity
  8
0
 62
     7
370
    35
100
AcDbLine
 10
242.607101
 20
110.58136
 30
0.0
 11
243.107101
 21
110.597107
 31
0.0
  0
LINE
  5
102
330
1F
100
AcDbEntity
  8
0
 62
     7
370
    35
100
AcDbLine
 10
241.107101
 20
110.534119
 30
0.0
 11
241.607101
 21
110.549866
 31
0.0
  0
LINE
  5
103
330
1F
100
AcDbEntity
  8
0
 62
     7
370
    35
100
AcDbLine
 10
245.607101
 20
117.724182
 30
0.0
 11
246.107101
 21
117.708435
 31
0.0
  0
LINE
  5
104
330
1F
100
AcDbEntity
  8
0
 62
     7
370
    35
100
AcDbLine
 10
237.652054
 20
127.400024
 30
0.0
 11
238.457047
 21
127.400024
 31
0.0
  0
LINE
  5
105
330
1F
100
AcDbEntity
  8
0
 62
     7
370
    35
100
AcDbLine
 10
237.657059
 20
127.39502
 30
0.0
 11
238.457047
 21
127.39502
 31
0.0
  0
LINE
  5
106
330
1F
100
AcDbEntity
  8
0
 62
     7
370
    35
100
AcDbLine
 10
244.107101
 20
117.771423
 30
0.0
 11
244.607101
 21
117.755676
 31
0.0
  0
LINE
  5
107
330
1F
100
AcDbEntity
  8
0
 62
     7
370
    35
100
AcDbLine
 10
242.607101
 20
117.818665
 30
0.0
 11
243.107101
 21
117.802917
 31
0.0
  0
LINE
  5
108
330
1F
100
AcDbEntity
  8
0
 62
     7
370
    35
100
AcDbLine
 10
136.307083
 20
110.486877
 30
0.0
 11
135.807083
 21
110.502625
 31
0.0
  0
LINE
  5
109
330
1F
100
AcDbEntity
  8
0
 62
     7
370
    35
100
AcDbLine
 10
241.107101
 20
117.865906
 30
0.0
 11
241.607101
 21
117.850159
 31
0.0
  0
LINE
  5
10A
330
1F
100
AcDbEntity
  8
0
 62
     7
370
    35
100
AcDbLine
 10
138.262085
 20
128.200012
 30
0.0
 11
237.652054
 21
128.200012
 31
0.0
  0
LINE
  5
10B
330
1F
100
AcDbEntity
  8
0
 62
     7
370
    35
100
AcDbLine
 10
237.652054
 20
128.200012
 30
0.0
 11
238.457047
 21
128.200012
 31
0.0
  0
LINE
  5
10C
330
1F
100
AcDbEntity
  8
0
 62
     7
370
    35
100
AcDbLine
 10
137.457077
 20
128.200012
 30
0.0
 11
138.262085
 21
128.200012
 31
0.0
  0
LINE
  5
10D
330
1F
100
AcDbEntity
  8
0
 62
     7
370
    35
100
AcDbLine
 10
237.652054
 20
127.39502
 30
0.0
 11
237.657059
 21
127.39502
 31
0.0
  0
LINE
  5
10E
330
1F
100
AcDbEntity
  8
0
 62
     7
370
    35
100
AcDbLine
 10
126.357086
 20
118.100006
 30
0.0
 11
126.357086
 21
110.300018
 31
0.0
  0
LINE
  5
10F
330
1F
100
AcDbEntity
  8
0
 62
     7
370
    35
100
AcDbLine
 10
137.457077
 20
127.400024
 30
0.0
 11
138.262085
 21
127.400024
 31
0.0
  0
LINE
  5
110
330
1F
100
AcDbEntity
  8
0
 62
     7
370
    35
100
AcDbLine
 10
237.652054
 20
127.39502
 30
0.0
 11
237.652054
 21
128.200012
 31
0.0
  0
LINE
  5
111
330
1F
100
AcDbEntity
  8
0
 62
     7
370
    35
100
AcDbLine
 10
137.457077
 20
127.400024
 30
0.0
 11
137.457077
 21
128.200012
 31
0.0
  0
LINE
  5
112
330
1F
100
AcDbEntity
  8
0
 62
     7
370
    35
100
AcDbLine
 10
238.457047
 20
127.400024
 30
0.0
 11
238.457047
 21
128.200012
 31
0.0
  0
LINE
  5
113
330
1F
100
AcDbEntity
  8
0
 62
     7
370
    35
100
AcDbLine
 10
137.457077
 20
100.200012
 30
0.0
 11
238.457047
 21
100.200012
 31
0.0
  0
LINE
  5
114
330
1F
100
AcDbEntity
  8
0
 62
     7
370
    35
100
AcDbLine
 10
130.457077
 20
127.39502
 30
0.0
 11
137.457077
 21
127.39502
 31
0.0
  0
LINE
  5
115
330
1F
100
AcDbEntity
  8
0
 62
     7
370
    35
100
AcDbLine
 10
237.652054
 20
101.0
 30
0.0
 11
238.457047
 21
101.0
 31
0.0
  0
LINE
  5
116
330
1F
100
AcDbEntity
  8
0
 62
     7
370
    35
100
AcDbLine
 10
137.457077
 20
127.39502
 30
0.0
 11
137.457077
 21
118.5
 31
0.0
  0
LINE
  5
117
330
1F
100
AcDbEntity
  8
0
 62
     7
370
    35
100
AcDbLine
 10
137.457077
 20
127.39502
 30
0.0
 11
138.25708
 21
127.39502
 31
0.0
  0
LINE
  5
118
330
1F
100
AcDbEntity
  8
0
 62
     7
370
    35
100
AcDbLine
 10
247.457047
 20
103.005005
 30
0.0
 11
247.457047
 21
107.900024
 31
0.0
  0
LINE
  5
119
330
1F
100
AcDbEntity
  8
0
 62
     7
370
    35
100
AcDbLine
 10
137.457077
 20
118.5
 30
0.0
 11
130.457077
 21
118.5
 31
0.0
  0
LINE
  5
11A
330
1F
100
AcDbEntity
  8
0
 62
     7
370
    35
100
AcDbLine
 10
238.457047
 20
109.900024
 30
0.0
 11
238.457047
 21
101.005005
 31
0.0
  0
LINE
  5
11B
330
1F
100
AcDbEntity
  8
0
 62
     7
370
    35
100
AcDbLine
 10
237.657059
 20
101.005005
 30
0.0
 11
238.457047
 21
101.005005
 31
0.0
  0
LINE
  5
11C
330
1F
100
AcDbEntity
  8
0
 62
     7
370
    35
100
AcDbLine
 10
245.457047
 20
101.005005
 30
0.0
 11
238.457047
 21
101.005005
 31
0.0
  0
LINE
  5
11D
330
1F
100
AcDbEntity
  8
0
 62
     7
370
    35
100
AcDbLine
 10
245.457047
 20
109.900024
 30
0.0
 11
238.457047
 21
109.900024
 31
0.0
  0
LINE
  5
11E
330
1F
100
AcDbEntity
  8
0
 62
     7
370
    35
100
AcDbLine
 10
128.457077
 20
125.39502
 30
0.0
 11
128.457077
 21
120.5
 31
0.0
  0
LINE
  5
11F
330
1F
100
AcDbEntity
  8
0
 62
     7
370
    35
100
AcDbLine
 10
238.457047
 20
101.005005
 30
0.0
 11
238.457047
 21
118.5
 31
0.0
  0
LINE
  5
120
330
1F
100
AcDbEntity
  8
0
 62
     7
370
    35
100
AcDbLine
 10
137.457077
 20
109.900024
 30
0.0
 11
137.457077
 21
108.900024
 31
0.0
  0
LINE
  5
121
330
1F
100
AcDbEntity
  8
0
 62
     7
370
    35
100
AcDbLine
 10
137.457077
 20
108.900024
 30
0.0
 11
137.457077
 21
101.005005
 31
0.0
  0
LINE
  5
122
330
1F
100
AcDbEntity
  8
0
 62
     7
370
    35
100
AcDbLine
 10
238.457047
 20
118.5
 30
0.0
 11
238.457047
 21
119.5
 31
0.0
  0
LINE
  5
123
330
1F
100
AcDbEntity
  8
0
 62
     7
370
    35
100
AcDbLine
 10
238.457047
 20
119.5
 30
0.0
 11
238.457047
 21
127.39502
 31
0.0
  0
LINE
  5
124
330
1F
100
AcDbEntity
  8
0
 62
     7
370
    35
100
AcDbLine
 10
237.652054
 20
101.005005
 30
0.0
 11
237.657059
 21
101.005005
 31
0.0
  0
LINE
  5
125
330
1F
100
AcDbEntity
  8
0
 62
     7
370
    35
100
AcDbLine
 10
137.457077
 20
101.0
 30
0.0
 11
138.262085
 21
101.0
 31
0.0
  0
LINE
  5
126
330
1F
100
AcDbEntity
  8
0
 62
     7
370
    35
100
AcDbLine
 10
138.25708
 20
101.005005
 30
0.0
 11
137.457077
 21
101.005005
 31
0.0
  0
LINE
  5
127
330
1F
100
AcDbEntity
  8
0
 62
     7
370
    35
100
AcDbLine
 10
138.25708
 20
101.005005
 30
0.0
 11
138.262085
 21
101.005005
 31
0.0
  0
LINE
  5
128
330
1F
100
AcDbEntity
  8
0
 62
     7
370
    35
100
AcDbLine
 10
137.457077
 20
127.39502
 30
0.0
 11
137.457077
 21
109.900024
 31
0.0
  0
LINE
  5
129
330
1F
100
AcDbEntity
  8
0
 62
     7
370
    35
100
AcDbLine
 10
137.457077
 20
100.200012
 30
0.0
 11
137.457077
 21
101.0
 31
0.0
  0
LINE
  5
12A
330
1F
100
AcDbEntity
  8
0
 62
     7
370
    35
100
AcDbLine
 10
238.457047
 20
100.200012
 30
0.0
 11
238.457047
 21
101.0
 31
0.0
  0
LINE
  5
12B
330
1F
100
AcDbEntity
  8
0
 62
     7
370
    35
100
AcDbLine
 10
237.652054
 20
100.200012
 30
0.0
 11
237.652054
 21
101.005005
 31
0.0
  0
LINE
  5
12C
330
1F
100
AcDbEntity
  8
0
 62
     7
370
    35
100
AcDbLine
 10
138.25708
 20
127.39502
 30
0.0
 11
138.262085
 21
127.39502
 31
0.0
  0
LINE
  5
12D
330
1F
100
AcDbEntity
  8
0
 62
     7
370
    35
100
AcDbLine
 10
138.262085
 20
127.39502
 30
0.0
 11
138.262085
 21
128.200012
 31
0.0
  0
LINE
  5
12E
330
1F
100
AcDbEntity
  8
0
 62
     7
370
    35
100
AcDbLine
 10
138.262085
 20
100.200012
 30
0.0
 11
138.262085
 21
101.005005
 31
0.0
  0
LINE
  5
12F
330
1F
100
AcDbEntity
  8
0
 62
     7
370
    35
100
AcDbLine
 10
294.251221
 20
50.200043
 30
0.0
 11
294.251221
 21
58.200012
 31
0.0
  0
LINE
  5
130
330
1F
100
AcDbEntity
  8
0
 62
     7
370
    35
100
AcDbLine
 10
329.751221
 20
49.200043
 30
0.0
 11
329.751221
 21
59.200043
 31
0.0
  0
LINE
  5
131
330
1F
100
AcDbEntity
  8
0
 62
     7
370
    35
100
AcDbLine
 10
323.551208
 20
48.300049
 30
0.0
 11
323.551208
 21
60.100037
 31
0.0
  0
LINE
  5
132
330
1F
100
AcDbEntity
  8
0
 62
     7
370
    35
100
AcDbLine
 10
280.251221
 20
50.700043
 30
0.0
 11
280.251221
 21
57.700043
 31
0.0
  0
LINE
  5
133
330
1F
100
AcDbEntity
  8
0
 62
     7
370
    35
100
AcDbLine
 10
299.251221
 20
47.700043
 30
0.0
 11
299.251221
 21
60.700043
 31
0.0
  0
LINE
  5
134
330
1F
100
AcDbEntity
  8
0
 62
     7
370
    35
100
AcDbLine
 10
318.751221
 20
47.700043
 30
0.0
 11
318.751221
 21
60.700043
 31
0.0
  0
LINE
  5
135
330
1F
100
AcDbEntity
  8
0
 62
     7
370
    35
100
AcDbLine
 10
318.751221
 20
47.700043
 30
0.0
 11
299.251221
 21
47.700043
 31
0.0
  0
LINE
  5
136
330
1F
100
AcDbEntity
  8
0
 62
     7
370
    35
100
AcDbLine
 10
318.751221
 20
60.700043
 30
0.0
 11
299.251221
 21
60.700043
 31
0.0
  0
LINE
  5
137
330
1F
100
AcDbEntity
  8
0
 62
     7
370
    35
100
AcDbLine
 10
323.551208
 20
48.300049
 30
0.0
 11
318.751221
 21
48.300049
 31
0.0
  0
LINE
  5
138
330
1F
100
AcDbEntity
  8
0
 62
     7
370
    35
100
AcDbLine
 10
323.551208
 20
60.100037
 30
0.0
 11
318.751221
 21
60.100037
 31
0.0
  0
LINE
  5
139
330
1F
100
AcDbEntity
  8
0
 62
     7
370
    35
100
AcDbLine
 10
329.751221
 20
49.200043
 30
0.0
 11
323.551208
 21
49.200043
 31
0.0
  0
LINE
  5
13A
330
1F
100
AcDbEntity
  8
0
 62
     7
370
    35
100
AcDbLine
 10
329.751221
 20
59.200043
 30
0.0
 11
323.551208
 21
59.200043
 31
0.0
  0
LINE
  5
13B
330
1F
100
AcDbEntity
  8
0
 62
     7
370
    35
100
AcDbLine
 10
280.251282
 20
50.700012
 30
0.0
 11
294.251282
 21
50.200012
 31
0.0
  0
LINE
  5
13C
330
1F
100
AcDbEntity
  8
0
 62
     7
370
    35
100
AcDbLine
 10
299.251282
 20
48.300018
 30
0.0
 11
294.251282
 21
50.200012
 31
0.0
  0
LINE
  5
13D
330
1F
100
AcDbEntity
  8
0
 62
     7
370
    35
100
AcDbLine
 10
280.251221
 20
57.700012
 30
0.0
 11
294.251221
 21
58.200012
 31
0.0
  0
LINE
  5
13E
330
1F
100
AcDbEntity
  8
0
 62
     7
370
    35
100
AcDbLine
 10
299.251282
 20
60.099945
 30
0.0
 11
294.251282
 21
58.199951
 31
0.0
  0
LINE
  5
13F
330
1F
100
AcDbEntity
  8
0
 62
     7
370
    35
100
AcDbLine
 10
293.214172
 20
56.200043
 30
0.0
 11
293.732727
 21
54.200043
 31
0.0
  0
LINE
  5
140
330
1F
100
AcDbEntity
  8
0
 62
     7
370
    35
100
AcDbLine
 10
292.7099
 20
50.255066
 30
0.0
 11
293.214111
 21
52.200043
 31
0.0
  0
LINE
  5
141
330
1F
100
AcDbEntity
  8
0
 62
     7
370
    35
100
AcDbLine
 10
293.214172
 20
52.200043
 30
0.0
 11
292.695679
 21
54.200043
 31
0.0
  0
LINE
  5
142
330
1F
100
AcDbEntity
  8
0
 62
     7
370
    35
100
AcDbLine
 10
292.695618
 20
54.200043
 30
0.0
 11
292.177124
 21
52.200043
 31
0.0
  0
LINE
  5
143
330
1F
100
AcDbEntity
  8
0
 62
     7
370
    35
100
AcDbLine
 10
292.177124
 20
52.200043
 30
0.0
 11
292.68103
 21
50.256104
 31
0.0
  0
LINE
  5
144
330
1F
100
AcDbEntity
  8
0
 62
     7
370
    35
100
AcDbLine
 10
291.658691
 20
54.200043
 30
0.0
 11
292.177246
 21
56.200012
 31
0.0
  0
LINE
  5
145
330
1F
100
AcDbEntity
  8
0
 62
     7
370
    35
100
AcDbLine
 10
292.177185
 20
56.200043
 30
0.0
 11
291.682434
 21
58.108307
 31
0.0
  0
LINE
  5
146
330
1F
100
AcDbEntity
  8
0
 62
     7
370
    35
100
AcDbLine
 10
291.634399
 20
58.106567
 30
0.0
 11
291.140137
 21
56.200043
 31
0.0
  0
LINE
  5
147
330
1F
100
AcDbEntity
  8
0
 62
     7
370
    35
100
AcDbLine
 10
291.140137
 20
56.200043
 30
0.0
 11
291.65863
 21
54.200043
 31
0.0
  0
LINE
  5
148
330
1F
100
AcDbEntity
  8
0
 62
     7
370
    35
100
AcDbLine
 10
290.654907
 20
50.328461
 30
0.0
 11
291.140198
 21
52.200043
 31
0.0
  0
LINE
  5
149
330
1F
100
AcDbEntity
  8
0
 62
     7
370
    35
100
AcDbLine
 10
291.140137
 20
52.200043
 30
0.0
 11
290.621582
 21
54.200043
 31
0.0
  0
LINE
  5
14A
330
1F
100
AcDbEntity
  8
0
 62
     7
370
    35
100
AcDbLine
 10
290.621643
 20
54.200043
 30
0.0
 11
290.103088
 21
52.200043
 31
0.0
  0
LINE
  5
14B
330
1F
100
AcDbEntity
  8
0
 62
     7
370
    35
100
AcDbLine
 10
290.103088
 20
52.200043
 30
0.0
 11
290.587646
 21
50.330902
 31
0.0
  0
LINE
  5
14C
330
1F
100
AcDbEntity
  8
0
 62
     7
370
    35
100
AcDbLine
 10
289.584534
 20
54.200043
 30
0.0
 11
290.103027
 21
56.200043
 31
0.0
  0
LINE
  5
14D
330
1F
100
AcDbEntity
  8
0
 62
     7
370
    35
100
AcDbLine
 10
293.727844
 20
58.181335
 30
0.0
 11
293.214172
 21
56.200043
 31
0.0
  0
LINE
  5
14E
330
1F
100
AcDbEntity
  8
0
 62
     7
370
    35
100
AcDbLine
 10
293.732727
 20
54.200043
 30
0.0
 11
294.251221
 21
56.200043
 31
0.0
  0
LINE
  5
14F
330
1F
100
AcDbEntity
  8
0
 62
     7
370
    35
100
AcDbLine
 10
294.251282
 20
56.200043
 30
0.0
 11
293.737549
 21
58.181702
 31
0.0
  0
LINE
  5
150
330
1F
100
AcDbEntity
  8
0
 62
     7
370
    35
100
AcDbLine
 10
290.103088
 20
56.200043
 30
0.0
 11
289.62738
 21
58.034882
 31
0.0
  0
LINE
  5
151
330
1F
100
AcDbEntity
  8
0
 62
     7
370
    35
100
AcDbLine
 10
289.540955
 20
58.03183
 30
0.0
 11
289.066101
 21
56.200043
 31
0.0
  0
LINE
  5
152
330
1F
100
AcDbEntity
  8
0
 62
     7
370
    35
100
AcDbLine
 10
289.066101
 20
56.200043
 30
0.0
 11
289.584656
 21
54.200043
 31
0.0
  0
LINE
  5
153
330
1F
100
AcDbEntity
  8
0
 62
     7
370
    35
100
AcDbLine
 10
288.599854
 20
50.401886
 30
0.0
 11
289.066101
 21
52.200043
 31
0.0
  0
LINE
  5
154
330
1F
100
AcDbEntity
  8
0
 62
     7
370
    35
100
AcDbLine
 10
289.066101
 20
52.200043
 30
0.0
 11
288.547546
 21
54.200043
 31
0.0
  0
LINE
  5
155
330
1F
100
AcDbEntity
  8
0
 62
     7
370
    35
100
AcDbLine
 10
288.547546
 20
54.200043
 30
0.0
 11
288.029053
 21
52.200043
 31
0.0
  0
LINE
  5
156
330
1F
100
AcDbEntity
  8
0
 62
     7
370
    35
100
AcDbLine
 10
288.028992
 20
52.200012
 30
0.0
 11
288.494202
 21
50.40564
 31
0.0
  0
LINE
  5
157
330
1F
100
AcDbEntity
  8
0
 62
     7
370
    35
100
AcDbLine
 10
287.510498
 20
54.200012
 30
0.0
 11
288.029053
 21
56.200012
 31
0.0
  0
LINE
  5
158
330
1F
100
AcDbEntity
  8
0
 62
     7
370
    35
100
AcDbLine
 10
288.029053
 20
56.200043
 30
0.0
 11
287.572388
 21
57.961517
 31
0.0
  0
LINE
  5
159
330
1F
100
AcDbEntity
  8
0
 62
     7
370
    35
100
AcDbLine
 10
287.447449
 20
57.957031
 30
0.0
 11
286.991943
 21
56.200043
 31
0.0
  0
LINE
  5
15A
330
1F
100
AcDbEntity
  8
0
 62
     7
370
    35
100
AcDbLine
 10
286.992004
 20
56.200043
 30
0.0
 11
287.510498
 21
54.200043
 31
0.0
  0
LINE
  5
15B
330
1F
100
AcDbEntity
  8
0
 62
     7
370
    35
100
AcDbLine
 10
286.544861
 20
50.47525
 30
0.0
 11
286.992004
 21
52.200012
 31
0.0
  0
LINE
  5
15C
330
1F
100
AcDbEntity
  8
0
 62
     7
370
    35
100
AcDbLine
 10
249.557114
 20
58.100006
 30
0.0
 11
249.557114
 21
50.300018
 31
0.0
  0
LINE
  5
15D
330
1F
100
AcDbEntity
  8
0
 62
     7
370
    35
100
AcDbLine
 10
239.607101
 20
50.486877
 30
0.0
 11
240.107101
 21
50.502625
 31
0.0
  0
LINE
  5
15E
330
1F
100
AcDbEntity
  8
0
 62
     7
370
    35
100
AcDbLine
 10
239.607101
 20
57.913147
 30
0.0
 11
240.107101
 21
57.8974
 31
0.0
  0
LINE
  5
15F
330
1F
100
AcDbEntity
  8
0
 62
     7
370
    35
100
AcDbLine
 10
241.107101
 20
58.36615
 30
0.0
 11
241.107101
 21
50.033875
 31
0.0
  0
LINE
  5
160
330
1F
100
AcDbEntity
  8
0
 62
     7
370
    35
100
AcDbLine
 10
240.107101
 20
58.397644
 30
0.0
 11
240.107101
 21
50.00238
 31
0.0
  0
LINE
  5
161
330
1F
100
AcDbEntity
  8
0
 62
     7
370
    35
100
AcDbLine
 10
238.457047
 20
49.950409
 30
0.0
 11
239.607101
 21
49.986633
 31
0.0
  0
LINE
  5
162
330
1F
100
AcDbEntity
  8
0
 62
     7
370
    35
100
AcDbLine
 10
239.607101
 20
58.413391
 30
0.0
 11
239.607101
 21
49.986633
 31
0.0
  0
LINE
  5
163
330
1F
100
AcDbEntity
  8
0
 62
     7
370
    35
100
AcDbLine
 10
238.457047
 20
58.449615
 30
0.0
 11
239.607101
 21
58.413391
 31
0.0
  0
LINE
  5
164
330
1F
100
AcDbEntity
  8
0
 62
     7
370
    35
100
AcDbLine
 10
241.607101
 20
58.350403
 30
0.0
 11
241.607101
 21
50.049622
 31
0.0
  0
LINE
  5
165
330
1F
100
AcDbEntity
  8
0
 62
     7
370
    35
100
AcDbLine
 10
243.107101
 20
58.303162
 30
0.0
 11
243.107101
 21
50.096863
 31
0.0
  0
LINE
  5
166
330
1F
100
AcDbEntity
  8
0
 62
     7
370
    35
100
AcDbLine
 10
242.607101
 20
58.318909
 30
0.0
 11
242.607101
 21
50.081116
 31
0.0
  0
LINE
  5
167
330
1F
100
AcDbEntity
  8
0
 62
     7
370
    35
100
AcDbLine
 10
244.107101
 20
58.271667
 30
0.0
 11
244.107101
 21
50.128357
 31
0.0
  0
LINE
  5
168
330
1F
100
AcDbEntity
  8
0
 62
     7
370
    35
100
AcDbLine
 10
244.607101
 20
58.25592
 30
0.0
 11
244.607101
 21
50.144104
 31
0.0
  0
LINE
  5
169
330
1F
100
AcDbEntity
  8
0
 62
     7
370
    35
100
AcDbLine
 10
246.107101
 20
58.208679
 30
0.0
 11
246.107101
 21
50.191345
 31
0.0
  0
LINE
  5
16A
330
1F
100
AcDbEntity
  8
0
 62
     7
370
    35
100
AcDbLine
 10
245.607101
 20
58.224426
 30
0.0
 11
245.607101
 21
50.175598
 31
0.0
  0
LINE
  5
16B
330
1F
100
AcDbEntity
  8
0
 62
     7
370
    35
100
AcDbLine
 10
246.107101
 20
50.191345
 30
0.0
 11
249.557114
 21
50.300018
 31
0.0
  0
LINE
  5
16C
330
1F
100
AcDbEntity
  8
0
 62
     7
370
    35
100
AcDbLine
 10
244.607101
 20
50.144104
 30
0.0
 11
245.607101
 21
50.175598
 31
0.0
  0
LINE
  5
16D
330
1F
100
AcDbEntity
  8
0
 62
     7
370
    35
100
AcDbLine
 10
243.107101
 20
50.096863
 30
0.0
 11
244.107101
 21
50.128357
 31
0.0
  0
LINE
  5
16E
330
1F
100
AcDbEntity
  8
0
 62
     7
370
    35
100
AcDbLine
 10
241.607101
 20
50.049622
 30
0.0
 11
242.607101
 21
50.081116
 31
0.0
  0
LINE
  5
16F
330
1F
100
AcDbEntity
  8
0
 62
     7
370
    35
100
AcDbLine
 10
240.107101
 20
50.00238
 30
0.0
 11
241.107101
 21
50.033875
 31
0.0
  0
LINE
  5
170
330
1F
100
AcDbEntity
  8
0
 62
     7
370
    35
100
AcDbLine
 10
240.107101
 20
58.397644
 30
0.0
 11
241.107101
 21
58.36615
 31
0.0
  0
LINE
  5
171
330
1F
100
AcDbEntity
  8
0
 62
     7
370
    35
100
AcDbLine
 10
241.607101
 20
58.350403
 30
0.0
 11
242.607101
 21
58.318909
 31
0.0
  0
LINE
  5
172
330
1F
100
AcDbEntity
  8
0
 62
     7
370
    35
100
AcDbLine
 10
243.107101
 20
58.303162
 30
0.0
 11
244.107101
 21
58.271667
 31
0.0
  0
LINE
  5
173
330
1F
100
AcDbEntity
  8
0
 62
     7
370
    35
100
AcDbLine
 10
244.607101
 20
58.25592
 30
0.0
 11
245.607101
 21
58.224426
 31
0.0
  0
LINE
  5
174
330
1F
100
AcDbEntity
  8
0
 62
     7
370
    35
100
AcDbLine
 10
246.107101
 20
58.208679
 30
0.0
 11
249.557114
 21
58.100006
 31
0.0
  0
LINE
  5
175
330
1F
100
AcDbEntity
  8
0
 62
     7
370
    35
100
AcDbLine
 10
286.991943
 20
52.200043
 30
0.0
 11
286.47345
 21
54.200043
 31
0.0
  0
LINE
  5
176
330
1F
100
AcDbEntity
  8
0
 62
     7
370
    35
100
AcDbLine
 10
286.473511
 20
54.200043
 30
0.0
 11
285.954956
 21
52.200043
 31
0.0
  0
LINE
  5
177
330
1F
100
AcDbEntity
  8
0
 62
     7
370
    35
100
AcDbLine
 10
285.954956
 20
52.200043
 30
0.0
 11
286.400757
 21
50.480408
 31
0.0
  0
LINE
  5
178
330
1F
100
AcDbEntity
  8
0
 62
     7
370
    35
100
AcDbLine
 10
285.436401
 20
54.200043
 30
0.0
 11
285.954956
 21
56.200043
 31
0.0
  0
LINE
  5
179
330
1F
100
AcDbEntity
  8
0
 62
     7
370
    35
100
AcDbLine
 10
285.954895
 20
56.200043
 30
0.0
 11
285.517273
 21
57.888092
 31
0.0
  0
LINE
  5
17A
330
1F
100
AcDbEntity
  8
0
 62
     7
370
    35
100
AcDbLine
 10
285.354065
 20
57.882294
 30
0.0
 11
284.917908
 21
56.200043
 31
0.0
  0
LINE
  5
17B
330
1F
100
AcDbEntity
  8
0
 62
     7
370
    35
100
AcDbLine
 10
284.917908
 20
56.200043
 30
0.0
 11
285.43634
 21
54.200043
 31
0.0
  0
LINE
  5
17C
330
1F
100
AcDbEntity
  8
0
 62
     7
370
    35
100
AcDbLine
 10
284.489746
 20
50.548676
 30
0.0
 11
284.917847
 21
52.200043
 31
0.0
  0
LINE
  5
17D
330
1F
100
AcDbEntity
  8
0
 62
     7
370
    35
100
AcDbLine
 10
284.917847
 20
52.200043
 30
0.0
 11
284.399353
 21
54.200043
 31
0.0
  0
LINE
  5
17E
330
1F
100
AcDbEntity
  8
0
 62
     7
370
    35
100
AcDbLine
 10
284.399414
 20
54.200043
 30
0.0
 11
283.880859
 21
52.200043
 31
0.0
  0
LINE
  5
17F
330
1F
100
AcDbEntity
  8
0
 62
     7
370
    35
100
AcDbLine
 10
283.880859
 20
52.200043
 30
0.0
 11
284.307312
 21
50.555176
 31
0.0
  0
LINE
  5
180
330
1F
100
AcDbEntity
  8
0
 62
     7
370
    35
100
AcDbLine
 10
283.362366
 20
54.200043
 30
0.0
 11
283.880859
 21
56.200043
 31
0.0
  0
LINE
  5
181
330
1F
100
AcDbEntity
  8
0
 62
     7
370
    35
100
AcDbLine
 10
283.880859
 20
56.200043
 30
0.0
 11
283.462219
 21
57.814728
 31
0.0
  0
LINE
  5
182
330
1F
100
AcDbEntity
  8
0
 62
     7
370
    35
100
AcDbLine
 10
283.260559
 20
57.807495
 30
0.0
 11
282.843811
 21
56.200043
 31
0.0
  0
LINE
  5
183
330
1F
100
AcDbEntity
  8
0
 62
     7
370
    35
100
AcDbLine
 10
282.843872
 20
56.200043
 30
0.0
 11
283.362366
 21
54.200043
 31
0.0
  0
LINE
  5
184
330
1F
100
AcDbEntity
  8
0
 62
     7
370
    35
100
AcDbLine
 10
282.434692
 20
50.62204
 30
0.0
 11
282.843811
 21
52.200043
 31
0.0
  0
LINE
  5
185
330
1F
100
AcDbEntity
  8
0
 62
     7
370
    35
100
AcDbLine
 10
282.843872
 20
52.200043
 30
0.0
 11
282.325317
 21
54.200043
 31
0.0
  0
LINE
  5
186
330
1F
100
AcDbEntity
  8
0
 62
     7
370
    35
100
AcDbLine
 10
282.325256
 20
54.200043
 30
0.0
 11
281.806763
 21
52.200043
 31
0.0
  0
LINE
  5
187
330
1F
100
AcDbEntity
  8
0
 62
     7
370
    35
100
AcDbLine
 10
281.806763
 20
52.200043
 30
0.0
 11
282.213806
 21
50.629944
 31
0.0
  0
LINE
  5
188
330
1F
100
AcDbEntity
  8
0
 62
     7
370
    35
100
AcDbLine
 10
281.28833
 20
54.200012
 30
0.0
 11
281.806824
 21
56.200012
 31
0.0
  0
LINE
  5
189
330
1F
100
AcDbEntity
  8
0
 62
     7
370
    35
100
AcDbLine
 10
281.806824
 20
56.200043
 30
0.0
 11
281.407227
 21
57.741333
 31
0.0
  0
LINE
  5
18A
330
1F
100
AcDbEntity
  8
0
 62
     7
370
    35
100
AcDbLine
 10
281.167114
 20
57.732758
 30
0.0
 11
280.769714
 21
56.200043
 31
0.0
  0
LINE
  5
18B
330
1F
100
AcDbEntity
  8
0
 62
     7
370
    35
100
AcDbLine
 10
280.769775
 20
56.200043
 30
0.0
 11
281.28833
 21
54.200073
 31
0.0
  0
LINE
  5
18C
330
1F
100
AcDbEntity
  8
0
 62
     7
370
    35
100
AcDbLine
 10
299.251221
 20
55.200012
 30
0.0
 11
304.251221
 21
55.200012
 31
0.0
  0
LINE
  5
18D
330
1F
100
AcDbEntity
  8
0
 62
     7
370
    35
100
AcDbLine
 10
299.251221
 20
53.200012
 30
0.0
 11
304.251221
 21
53.200012
 31
0.0
  0
LINE
  5
18E
330
1F
100
AcDbEntity
  8
0
 62
     7
370
    35
100
AcDbLine
 10
134.807083
 20
57.865906
 30
0.0
 11
134.307083
 21
57.850159
 31
0.0
  0
LINE
  5
18F
330
1F
100
AcDbEntity
  8
0
 62
     7
370
    35
100
AcDbLine
 10
133.307083
 20
57.818665
 30
0.0
 11
132.807083
 21
57.802917
 31
0.0
  0
LINE
  5
190
330
1F
100
AcDbEntity
  8
0
 62
     7
370
    35
100
AcDbLine
 10
131.807083
 20
57.771423
 30
0.0
 11
131.307083
 21
57.755676
 31
0.0
  0
LINE
  5
191
330
1F
100
AcDbEntity
  8
0
 62
     7
370
    35
100
AcDbLine
 10
130.307083
 20
57.724182
 30
0.0
 11
129.807083
 21
57.708435
 31
0.0
  0
LINE
  5
192
330
1F
100
AcDbEntity
  8
0
 62
     7
370
    35
100
AcDbLine
 10
134.807083
 20
50.534119
 30
0.0
 11
134.307083
 21
50.549866
 31
0.0
  0
LINE
  5
193
330
1F
100
AcDbEntity
  8
0
 62
     7
370
    35
100
AcDbLine
 10
133.307083
 20
50.58136
 30
0.0
 11
132.807083
 21
50.597107
 31
0.0
  0
LINE
  5
194
330
1F
100
AcDbEntity
  8
0
 62
     7
370
    35
100
AcDbLine
 10
131.807083
 20
50.628601
 30
0.0
 11
131.307083
 21
50.644348
 31
0.0
  0
LINE
  5
195
330
1F
100
AcDbEntity
  8
0
 62
     7
370
    35
100
AcDbLine
 10
130.307083
 20
50.675842
 30
0.0
 11
129.807083
 21
50.691589
 31
0.0
  0
LINE
  5
196
330
1F
100
AcDbEntity
  8
0
 62
     7
370
    35
100
AcDbLine
 10
129.807083
 20
58.208679
 30
0.0
 11
126.357086
 21
58.100006
 31
0.0
  0
LINE
  5
197
330
1F
100
AcDbEntity
  8
0
 62
     7
370
    35
100
AcDbLine
 10
131.307083
 20
58.25592
 30
0.0
 11
130.307083
 21
58.224426
 31
0.0
  0
LINE
  5
198
330
1F
100
AcDbEntity
  8
0
 62
     7
370
    35
100
AcDbLine
 10
132.807083
 20
58.303162
 30
0.0
 11
131.807083
 21
58.271667
 31
0.0
  0
LINE
  5
199
330
1F
100
AcDbEntity
  8
0
 62
     7
370
    35
100
AcDbLine
 10
134.307083
 20
58.350403
 30
0.0
 11
133.307083
 21
58.318909
 31
0.0
  0
LINE
  5
19A
330
1F
100
AcDbEntity
  8
0
 62
     7
370
    35
100
AcDbLine
 10
135.807083
 20
58.397644
 30
0.0
 11
134.807083
 21
58.36615
 31
0.0
  0
LINE
  5
19B
330
1F
100
AcDbEntity
  8
0
 62
     7
370
    35
100
AcDbLine
 10
135.807083
 20
50.00238
 30
0.0
 11
134.807083
 21
50.033875
 31
0.0
  0
LINE
  5
19C
330
1F
100
AcDbEntity
  8
0
 62
     7
370
    35
100
AcDbLine
 10
134.307083
 20
50.049622
 30
0.0
 11
133.307083
 21
50.081116
 31
0.0
  0
LINE
  5
19D
330
1F
100
AcDbEntity
  8
0
 62
     7
370
    35
100
AcDbLine
 10
132.807083
 20
50.096863
 30
0.0
 11
131.807083
 21
50.128357
 31
0.0
  0
LINE
  5
19E
330
1F
100
AcDbEntity
  8
0
 62
     7
370
    35
100
AcDbLine
 10
131.307083
 20
50.144104
 30
0.0
 11
130.307083
 21
50.175598
 31
0.0
  0
LINE
  5
19F
330
1F
100
AcDbEntity
  8
0
 62
     7
370
    35
100
AcDbLine
 10
129.807083
 20
50.191345
 30
0.0
 11
126.357086
 21
50.300018
 31
0.0
  0
LINE
  5
1A0
330
1F
100
AcDbEntity
  8
0
 62
     7
370
    35
100
AcDbLine
 10
130.307083
 20
58.224426
 30
0.0
 11
130.307083
 21
50.175598
 31
0.0
  0
LINE
  5
1A1
330
1F
100
AcDbEntity
  8
0
 62
     7
370
    35
100
AcDbLine
 10
129.807083
 20
58.208679
 30
0.0
 11
129.807083
 21
50.191345
 31
0.0
  0
LINE
  5
1A2
330
1F
100
AcDbEntity
  8
0
 62
     7
370
    35
100
AcDbLine
 10
131.307083
 20
58.25592
 30
0.0
 11
131.307083
 21
50.144104
 31
0.0
  0
LINE
  5
1A3
330
1F
100
AcDbEntity
  8
0
 62
     7
370
    35
100
AcDbLine
 10
131.807083
 20
58.271667
 30
0.0
 11
131.807083
 21
50.128357
 31
0.0
  0
LINE
  5
1A4
330
1F
100
AcDbEntity
  8
0
 62
     7
370
    35
100
AcDbLine
 10
133.307083
 20
58.318909
 30
0.0
 11
133.307083
 21
50.081116
 31
0.0
  0
LINE
  5
1A5
330
1F
100
AcDbEntity
  8
0
 62
     7
370
    35
100
AcDbLine
 10
132.807083
 20
58.303162
 30
0.0
 11
132.807083
 21
50.096863
 31
0.0
  0
LINE
  5
1A6
330
1F
100
AcDbEntity
  8
0
 62
     7
370
    35
100
AcDbLine
 10
134.307083
 20
58.350403
 30
0.0
 11
134.307083
 21
50.049622
 31
0.0
  0
LINE
  5
1A7
330
1F
100
AcDbEntity
  8
0
 62
     7
370
    35
100
AcDbLine
 10
137.457077
 20
58.449615
 30
0.0
 11
136.307083
 21
58.413391
 31
0.0
  0
LINE
  5
1A8
330
1F
100
AcDbEntity
  8
0
 62
     7
370
    35
100
AcDbLine
 10
136.307083
 20
58.413391
 30
0.0
 11
136.307083
 21
49.986633
 31
0.0
  0
LINE
  5
1A9
330
1F
100
AcDbEntity
  8
0
 62
     7
370
    35
100
AcDbLine
 10
137.457077
 20
49.950409
 30
0.0
 11
136.307083
 21
49.986633
 31
0.0
  0
LINE
  5
1AA
330
1F
100
AcDbEntity
  8
0
 62
     7
370
    35
100
AcDbLine
 10
135.807083
 20
58.397644
 30
0.0
 11
135.807083
 21
50.00238
 31
0.0
  0
LINE
  5
1AB
330
1F
100
AcDbEntity
  8
0
 62
     7
370
    35
100
AcDbLine
 10
134.807083
 20
58.36615
 30
0.0
 11
134.807083
 21
50.033875
 31
0.0
  0
LINE
  5
1AC
330
1F
100
AcDbEntity
  8
0
 62
     7
370
    35
100
AcDbLine
 10
245.607101
 20
50.675842
 30
0.0
 11
246.107101
 21
50.691589
 31
0.0
  0
LINE
  5
1AD
330
1F
100
AcDbEntity
  8
0
 62
     7
370
    35
100
AcDbLine
 10
136.307083
 20
57.913147
 30
0.0
 11
135.807083
 21
57.8974
 31
0.0
  0
LINE
  5
1AE
330
1F
100
AcDbEntity
  8
0
 62
     7
370
    35
100
AcDbLine
 10
244.107101
 20
50.628601
 30
0.0
 11
244.607101
 21
50.644348
 31
0.0
  0
LINE
  5
1AF
330
1F
100
AcDbEntity
  8
0
 62
     7
370
    35
100
AcDbLine
 10
242.607101
 20
50.58136
 30
0.0
 11
243.107101
 21
50.597107
 31
0.0
  0
LINE
  5
1B0
330
1F
100
AcDbEntity
  8
0
 62
     7
370
    35
100
AcDbLine
 10
241.107101
 20
50.534119
 30
0.0
 11
241.607101
 21
50.549866
 31
0.0
  0
LINE
  5
1B1
330
1F
100
AcDbEntity
  8
0
 62
     7
370
    35
100
AcDbLine
 10
245.607101
 20
57.724182
 30
0.0
 11
246.107101
 21
57.708435
 31
0.0
  0
LINE
  5
1B2
330
1F
100
AcDbEntity
  8
0
 62
     7
370
    35
100
AcDbLine
 10
244.107101
 20
57.771423
 30
0.0
 11
244.607101
 21
57.755676
 31
0.0
  0
LINE
  5
1B3
330
1F
100
AcDbEntity
  8
0
 62
     7
370
    35
100
AcDbLine
 10
242.607101
 20
57.818665
 30
0.0
 11
243.107101
 21
57.802917
 31
0.0
  0
LINE
  5
1B4
330
1F
100
AcDbEntity
  8
0
 62
     7
370
    35
100
AcDbLine
 10
136.307083
 20
50.486877
 30
0.0
 11
135.807083
 21
50.502625
 31
0.0
  0
LINE
  5
1B5
330
1F
100
AcDbEntity
  8
0
 62
     7
370
    35
100
AcDbLine
 10
241.107101
 20
57.865906
 30
0.0
 11
241.607101
 21
57.850159
 31
0.0
  0
LINE
  5
1B6
330
1F
100
AcDbEntity
  8
0
 62
     7
370
    35
100
AcDbLine
 10
126.357086
 20
58.100006
 30
0.0
 11
126.357086
 21
50.300018
 31
0.0
  0
LINE
  5
1B7
330
1F
100
AcDbEntity
  8
0
 62
     7
370
    35
100
AcDbLine
 10
138.25708
 20
47.200012
 30
0.0
 11
138.25708
 21
47.0
 31
0.0
  0
LINE
  5
1B8
330
1F
100
AcDbEntity
  8
0
 62
     7
370
    35
100
AcDbLine
 10
138.25708
 20
67.39502
 30
0.0
 11
138.262085
 21
67.39502
 31
0.0
  0
LINE
  5
1B9
330
1F
100
AcDbEntity
  8
0
 62
     7
370
    35
100
AcDbLine
 10
245.457047
 20
47.0
 30
0.0
 11
247.457047
 21
47.0
 31
0.0
  0
LINE
  5
1BA
330
1F
100
AcDbEntity
  8
0
 62
     7
370
    35
100
AcDbLine
 10
245.457047
 20
46.200012
 30
0.0
 11
247.457047
 21
46.200012
 31
0.0
  0
LINE
  5
1BB
330
1F
100
AcDbEntity
  8
0
 62
     7
370
    35
100
AcDbLine
 10
130.457077
 20
46.200012
 30
0.0
 11
137.457077
 21
46.200012
 31
0.0
  0
LINE
  5
1BC
330
1F
100
AcDbEntity
  8
0
 62
     7
370
    35
100
AcDbLine
 10
128.457077
 20
47.0
 30
0.0
 11
130.457077
 21
47.0
 31
0.0
  0
LINE
  5
1BD
330
1F
100
AcDbEntity
  8
0
 62
     7
370
    35
100
AcDbLine
 10
238.457047
 20
60.200012
 30
0.0
 11
238.457047
 21
60.195007
 31
0.0
  0
LINE
  5
1BE
330
1F
100
AcDbEntity
  8
0
 62
     7
370
    35
100
AcDbLine
 10
237.657059
 20
46.200012
 30
0.0
 11
237.657059
 21
47.200012
 31
0.0
  0
LINE
  5
1BF
330
1F
100
AcDbEntity
  8
0
 62
     7
370
    35
100
AcDbLine
 10
238.457047
 20
47.200012
 30
0.0
 11
238.457047
 21
46.200012
 31
0.0
  0
LINE
  5
1C0
330
1F
100
AcDbEntity
  8
0
 62
     7
370
    35
100
AcDbLine
 10
237.652054
 20
61.0
 30
0.0
 11
237.657059
 21
61.0
 31
0.0
  0
LINE
  5
1C1
330
1F
100
AcDbEntity
  8
0
 62
     7
370
    35
100
AcDbLine
 10
237.652054
 20
60.200012
 30
0.0
 11
237.657059
 21
60.200012
 31
0.0
  0
LINE
  5
1C2
330
1F
100
AcDbEntity
  8
0
 62
     7
370
    35
100
AcDbLine
 10
237.657059
 20
60.195007
 30
0.0
 11
237.657059
 21
60.200012
 31
0.0
  0
LINE
  5
1C3
330
1F
100
AcDbEntity
  8
0
 62
     7
370
    35
100
AcDbLine
 10
237.657059
 20
46.200012
 30
0.0
 11
238.457047
 21
46.200012
 31
0.0
  0
LINE
  5
1C4
330
1F
100
AcDbEntity
  8
0
 62
     7
370
    35
100
AcDbLine
 10
137.457077
 20
47.200012
 30
0.0
 11
138.262085
 21
47.200012
 31
0.0
  0
LINE
  5
1C5
330
1F
100
AcDbEntity
  8
0
 62
     7
370
    35
100
AcDbLine
 10
237.652054
 20
60.200012
 30
0.0
 11
237.652054
 21
61.0
 31
0.0
  0
LINE
  5
1C6
330
1F
100
AcDbEntity
  8
0
 62
     7
370
    35
100
AcDbLine
 10
237.652054
 20
60.200012
 30
0.0
 11
237.652054
 21
60.195007
 31
0.0
  0
LINE
  5
1C7
330
1F
100
AcDbEntity
  8
0
 62
     7
370
    35
100
AcDbLine
 10
138.25708
 20
61.0
 30
0.0
 11
138.262085
 21
61.0
 31
0.0
  0
LINE
  5
1C8
330
1F
100
AcDbEntity
  8
0
 62
     7
370
    35
100
AcDbLine
 10
237.652054
 20
61.0
 30
0.0
 11
138.262085
 21
61.0
 31
0.0
  0
LINE
  5
1C9
330
1F
100
AcDbEntity
  8
0
 62
     7
370
    35
100
AcDbLine
 10
138.262085
 20
47.200012
 30
0.0
 11
237.652054
 21
47.200012
 31
0.0
  0
LINE
  5
1CA
330
1F
100
AcDbEntity
  8
0
 62
     7
370
    35
100
AcDbLine
 10
137.457077
 20
60.195007
 30
0.0
 11
137.457077
 21
47.200012
 31
0.0
  0
LINE
  5
1CB
330
1F
100
AcDbEntity
  8
0
 62
     7
370
    35
100
AcDbLine
 10
138.262085
 20
60.200012
 30
0.0
 11
138.262085
 21
61.0
 31
0.0
  0
LINE
  5
1CC
330
1F
100
AcDbEntity
  8
0
 62
     7
370
    35
100
AcDbLine
 10
138.262085
 20
60.195007
 30
0.0
 11
137.457077
 21
60.195007
 31
0.0
  0
LINE
  5
1CD
330
1F
100
AcDbEntity
  8
0
 62
     7
370
    35
100
AcDbLine
 10
138.262085
 20
60.200012
 30
0.0
 11
138.262085
 21
60.195007
 31
0.0
  0
LINE
  5
1CE
330
1F
100
AcDbEntity
  8
0
 62
     7
370
    35
100
AcDbLine
 10
237.652054
 20
60.195007
 30
0.0
 11
238.457047
 21
60.195007
 31
0.0
  0
LINE
  5
1CF
330
1F
100
AcDbEntity
  8
0
 62
     7
370
    35
100
AcDbLine
 10
238.457047
 20
60.195007
 30
0.0
 11
238.457047
 21
47.200012
 31
0.0
  0
LINE
  5
1D0
330
1F
100
AcDbEntity
  8
0
 62
     7
370
    35
100
AcDbLine
 10
237.652054
 20
47.200012
 30
0.0
 11
238.457047
 21
47.200012
 31
0.0
  0
LINE
  5
1D1
330
1F
100
AcDbEntity
  8
0
 62
     7
370
    35
100
AcDbLine
 10
138.25708
 20
60.200012
 30
0.0
 11
138.262085
 21
60.200012
 31
0.0
  0
LINE
  5
1D2
330
1F
100
AcDbEntity
  8
0
 62
     7
370
    35
100
AcDbLine
 10
137.457077
 20
47.0
 30
0.0
 11
130.457077
 21
47.0
 31
0.0
  0
LINE
  5
1D3
330
1F
100
AcDbEntity
  8
0
 62
     7
370
    35
100
AcDbLine
 10
137.457077
 20
60.200012
 30
0.0
 11
137.457077
 21
60.195007
 31
0.0
  0
LINE
  5
1D4
330
1F
100
AcDbEntity
  8
0
 62
     7
370
    35
100
AcDbLine
 10
137.457077
 20
47.200012
 30
0.0
 11
137.457077
 21
47.0
 31
0.0
  0
LINE
  5
1D5
330
1F
100
AcDbEntity
  8
0
 62
     7
370
    35
100
AcDbLine
 10
138.25708
 20
46.200012
 30
0.0
 11
137.457077
 21
46.200012
 31
0.0
  0
LINE
  5
1D6
330
1F
100
AcDbEntity
  8
0
 62
     7
370
    35
100
AcDbLine
 10
138.25708
 20
47.004913
 30
0.0
 11
138.25708
 21
46.200012
 31
0.0
  0
LINE
  5
1D7
330
1F
100
AcDbEntity
  8
0
 62
     7
370
    35
100
AcDbLine
 10
128.457077
 20
46.200012
 30
0.0
 11
128.457077
 21
47.0
 31
0.0
  0
LINE
  5
1D8
330
1F
100
AcDbEntity
  8
0
 62
     7
370
    35
100
AcDbLine
 10
128.457077
 20
46.200012
 30
0.0
 11
130.457077
 21
46.200012
 31
0.0
  0
LINE
  5
1D9
330
1F
100
AcDbEntity
  8
0
 62
     7
370
    35
100
AcDbLine
 10
247.457047
 20
46.200012
 30
0.0
 11
247.457047
 21
47.0
 31
0.0
  0
LINE
  5
1DA
330
1F
100
AcDbEntity
  8
0
 62
     7
370
    35
100
AcDbLine
 10
245.457047
 20
47.0
 30
0.0
 11
238.457047
 21
47.0
 31
0.0
  0
LINE
  5
1DB
330
1F
100
AcDbEntity
  8
0
 62
     7
370
    35
100
AcDbLine
 10
245.457047
 20
46.200012
 30
0.0
 11
238.457047
 21
46.200012
 31
0.0
  0
LINE
  5
1DC
330
1F
100
AcDbEntity
  8
0
 62
     7
370
    35
100
AcDbLine
 10
139.357086
 20
47.200012
 30
0.0
 11
139.357086
 21
46.800018
 31
0.0
  0
LINE
  5
1DD
330
1F
100
AcDbEntity
  8
0
 62
     7
370
    35
100
AcDbLine
 10
138.357086
 20
46.800018
 30
0.0
 11
138.357086
 21
47.200012
 31
0.0
  0
LINE
  5
1DE
330
1F
100
AcDbEntity
  8
0
 62
     7
370
    35
100
AcDbLine
 10
139.407074
 20
45.800018
 30
0.0
 11
139.357086
 21
45.800018
 31
0.0
  0
LINE
  5
1DF
330
1F
100
AcDbEntity
  8
0
 62
     7
370
    35
100
AcDbLine
 10
236.507065
 20
45.800018
 30
0.0
 11
139.407074
 21
45.800018
 31
0.0
  0
LINE
  5
1E0
330
1F
100
AcDbEntity
  8
0
 62
     7
370
    35
100
AcDbLine
 10
139.407074
 20
45.800018
 30
0.0
 11
139.407074
 21
46.800018
 31
0.0
  0
LINE
  5
1E1
330
1F
100
AcDbEntity
  8
0
 62
     7
370
    35
100
AcDbLine
 10
139.407074
 20
46.800018
 30
0.0
 11
139.407074
 21
47.200012
 31
0.0
  0
LINE
  5
1E2
330
1F
100
AcDbEntity
  8
0
 62
     7
370
    35
100
AcDbLine
 10
236.507065
 20
45.800018
 30
0.0
 11
236.557114
 21
45.800018
 31
0.0
  0
LINE
  5
1E3
330
1F
100
AcDbEntity
  8
0
 62
     7
370
    35
100
AcDbLine
 10
236.507065
 20
46.800018
 30
0.0
 11
236.507065
 21
47.200012
 31
0.0
  0
LINE
  5
1E4
330
1F
100
AcDbEntity
  8
0
 62
     7
370
    35
100
AcDbLine
 10
236.507065
 20
45.800018
 30
0.0
 11
236.507065
 21
46.800018
 31
0.0
  0
LINE
  5
1E5
330
1F
100
AcDbEntity
  8
0
 62
     7
370
    35
100
AcDbLine
 10
236.557114
 20
46.800018
 30
0.0
 11
236.557114
 21
47.200012
 31
0.0
  0
LINE
  5
1E6
330
1F
100
AcDbEntity
  8
0
 62
     7
370
    35
100
AcDbLine
 10
237.557114
 20
46.800018
 30
0.0
 11
237.557114
 21
47.200012
 31
0.0
  0
LINE
  5
1E7
330
1F
100
AcDbEntity
  8
0
 62
     7
370
    35
100
AcDbLine
 10
139.407074
 20
46.800018
 30
0.0
 11
139.357086
 21
46.800018
 31
0.0
  0
LINE
  5
1E8
330
1F
100
AcDbEntity
  8
0
 62
     7
370
    35
100
AcDbLine
 10
236.557114
 20
46.800018
 30
0.0
 11
236.507065
 21
46.800018
 31
0.0
  0
LINE
  5
1E9
330
1F
100
AcDbEntity
  8
0
 62
     7
370
    35
100
AcDbLine
 10
148.537842
 20
50.436401
 30
0.0
 11
148.891388
 21
50.082855
 31
0.0
  0
LINE
  5
1EA
330
1F
100
AcDbEntity
  8
0
 62
     7
370
    35
100
AcDbLine
 10
148.820679
 20
50.719238
 30
0.0
 11
149.17424
 21
50.365692
 31
0.0
  0
LINE
  5
1EB
330
1F
100
AcDbEntity
  8
0
 62
     7
370
    35
100
AcDbLine
 10
148.537842
 20
49.163605
 30
0.0
 11
148.891388
 21
49.517181
 31
0.0
  0
LINE
  5
1EC
330
1F
100
AcDbEntity
  8
0
 62
     7
370
    35
100
AcDbLine
 10
148.820679
 20
48.880768
 30
0.0
 11
149.17424
 21
49.234314
 31
0.0
  0
LINE
  5
1ED
330
1F
100
AcDbEntity
  8
0
 62
     7
370
    35
100
AcDbLine
 10
149.739929
 20
50.365692
 30
0.0
 11
150.093475
 21
50.719238
 31
0.0
  0
LINE
  5
1EE
330
1F
100
AcDbEntity
  8
0
 62
     7
370
    35
100
AcDbLine
 10
150.022766
 20
50.082855
 30
0.0
 11
150.376312
 21
50.436401
 31
0.0
  0
LINE
  5
1EF
330
1F
100
AcDbEntity
  8
0
 62
     7
370
    35
100
AcDbLine
 10
150.022766
 20
49.517181
 30
0.0
 11
150.376312
 21
49.163605
 31
0.0
  0
LINE
  5
1F0
330
1F
100
AcDbEntity
  8
0
 62
     7
370
    35
100
AcDbLine
 10
149.739929
 20
49.234314
 30
0.0
 11
150.093475
 21
48.880768
 31
0.0
  0
LINE
  5
1F1
330
1F
100
AcDbEntity
  8
0
 62
     7
370
    35
100
AcDbLine
 10
150.093475
 20
50.719238
 30
0.0
 11
150.376312
 21
50.436401
 31
0.0
  0
LINE
  5
1F2
330
1F
100
AcDbEntity
  8
0
 62
     7
370
    35
100
AcDbLine
 10
148.537842
 20
49.163605
 30
0.0
 11
148.820679
 21
48.880768
 31
0.0
  0
LINE
  5
1F3
330
1F
100
AcDbEntity
  8
0
 62
     7
370
    35
100
AcDbLine
 10
148.537842
 20
50.436401
 30
0.0
 11
148.820679
 21
50.719238
 31
0.0
  0
LINE
  5
1F4
330
1F
100
AcDbEntity
  8
0
 62
     7
370
    35
100
AcDbLine
 10
150.093475
 20
48.880768
 30
0.0
 11
150.376312
 21
49.163605
 31
0.0
  0
LINE
  5
1F5
330
1F
100
AcDbEntity
  8
0
 62
     7
370
    35
100
AcDbLine
 10
224.820694
 20
50.719238
 30
0.0
 11
225.17421
 21
50.365692
 31
0.0
  0
LINE
  5
1F6
330
1F
100
AcDbEntity
  8
0
 62
     7
370
    35
100
AcDbLine
 10
224.537827
 20
50.436401
 30
0.0
 11
224.891373
 21
50.082855
 31
0.0
  0
LINE
  5
1F7
330
1F
100
AcDbEntity
  8
0
 62
     7
370
    35
100
AcDbLine
 10
224.537827
 20
49.163605
 30
0.0
 11
224.891373
 21
49.517181
 31
0.0
  0
LINE
  5
1F8
330
1F
100
AcDbEntity
  8
0
 62
     7
370
    35
100
AcDbLine
 10
224.820694
 20
48.880768
 30
0.0
 11
225.17421
 21
49.234314
 31
0.0
  0
LINE
  5
1F9
330
1F
100
AcDbEntity
  8
0
 62
     7
370
    35
100
AcDbLine
 10
225.739944
 20
50.365692
 30
0.0
 11
226.093491
 21
50.719238
 31
0.0
  0
LINE
  5
1FA
330
1F
100
AcDbEntity
  8
0
 62
     7
370
    35
100
AcDbLine
 10
226.022751
 20
50.082855
 30
0.0
 11
226.376328
 21
50.436401
 31
0.0
  0
LINE
  5
1FB
330
1F
100
AcDbEntity
  8
0
 62
     7
370
    35
100
AcDbLine
 10
226.022751
 20
49.517181
 30
0.0
 11
226.376328
 21
49.163605
 31
0.0
  0
LINE
  5
1FC
330
1F
100
AcDbEntity
  8
0
 62
     7
370
    35
100
AcDbLine
 10
225.739944
 20
49.234314
 30
0.0
 11
226.093491
 21
48.880768
 31
0.0
  0
LINE
  5
1FD
330
1F
100
AcDbEntity
  8
0
 62
     7
370
    35
100
AcDbLine
 10
226.093491
 20
50.719238
 30
0.0
 11
226.376328
 21
50.436401
 31
0.0
  0
LINE
  5
1FE
330
1F
100
AcDbEntity
  8
0
 62
     7
370
    35
100
AcDbLine
 10
224.537827
 20
49.163605
 30
0.0
 11
224.820694
 21
48.880768
 31
0.0
  0
LINE
  5
1FF
330
1F
100
AcDbEntity
  8
0
 62
     7
370
    35
100
AcDbLine
 10
224.537827
 20
50.436401
 30
0.0
 11
224.820694
 21
50.719238
 31
0.0
  0
LINE
  5
200
330
1F
100
AcDbEntity
  8
0
 62
     7
370
    35
100
AcDbLine
 10
226.093491
 20
48.880768
 30
0.0
 11
226.376328
 21
49.163605
 31
0.0
  0
LINE
  5
201
330
1F
100
AcDbEntity
  8
0
 62
     7
370
    35
100
AcDbLine
 10
68.99881
 20
184.300018
 30
0.0
 11
69.99881
 21
184.300018
 31
0.0
  0
LINE
  5
202
330
1F
100
AcDbEntity
  8
0
 62
     7
370
    35
100
AcDbLine
 10
48.74881
 20
203.199982
 30
0.0
 11
49.74881
 21
204.199982
 31
0.0
  0
LINE
  5
203
330
1F
100
AcDbEntity
  8
0
 62
     7
370
    35
100
AcDbLine
 10
49.74881
 20
204.199982
 30
0.0
 11
68.99881
 21
204.199982
 31
0.0
  0
LINE
  5
204
330
1F
100
AcDbEntity
  8
0
 62
     7
370
    35
100
AcDbLine
 10
48.74881
 20
185.199982
 30
0.0
 11
49.74881
 21
184.199982
 31
0.0
  0
LINE
  5
205
330
1F
100
AcDbEntity
  8
0
 62
     7
370
    35
100
AcDbLine
 10
68.99881
 20
204.199982
 30
0.0
 11
68.99881
 21
184.199982
 31
0.0
  0
LINE
  5
206
330
1F
100
AcDbEntity
  8
0
 62
     7
370
    35
100
AcDbLine
 10
69.99881
 20
204.199982
 30
0.0
 11
69.99881
 21
184.199982
 31
0.0
  0
LINE
  5
207
330
1F
100
AcDbEntity
  8
0
 62
     7
370
    35
100
AcDbLine
 10
49.74881
 20
184.199982
 30
0.0
 11
68.99881
 21
184.199982
 31
0.0
  0
LINE
  5
208
330
1F
100
AcDbEntity
  8
0
 62
     7
370
    35
100
AcDbLine
 10
68.99881
 20
204.100006
 30
0.0
 11
69.99881
 21
204.100006
 31
0.0
  0
LINE
  5
209
330
1F
100
AcDbEntity
  8
0
 62
     7
370
    35
100
AcDbLine
 10
69.99881
 20
184.199982
 30
0.0
 11
82.99881
 21
184.199982
 31
0.0
  0
LINE
  5
20A
330
1F
100
AcDbEntity
  8
0
 62
     7
370
    35
100
AcDbLine
 10
69.99881
 20
204.199982
 30
0.0
 11
82.99881
 21
204.199982
 31
0.0
  0
LINE
  5
20B
330
1F
100
AcDbEntity
  8
0
 62
     7
370
    35
100
AcDbLine
 10
82.99881
 20
184.300018
 30
0.0
 11
90.99881
 21
184.300018
 31
0.0
  0
LINE
  5
20C
330
1F
100
AcDbEntity
  8
0
 62
     7
370
    35
100
AcDbLine
 10
82.99881
 20
204.100006
 30
0.0
 11
90.99881
 21
204.100006
 31
0.0
  0
LINE
  5
20D
330
1F
100
AcDbEntity
  8
0
 62
     7
370
    35
100
AcDbLine
 10
90.99881
 20
184.199982
 30
0.0
 11
115.49881
 21
184.199982
 31
0.0
  0
LINE
  5
20E
330
1F
100
AcDbEntity
  8
0
 62
     7
370
    35
100
AcDbLine
 10
82.99881
 20
204.199982
 30
0.0
 11
82.99881
 21
184.199982
 31
0.0
  0
LINE
  5
20F
330
1F
100
AcDbEntity
  8
0
 62
     7
370
    35
100
AcDbLine
 10
90.99881
 20
204.199982
 30
0.0
 11
90.99881
 21
184.199982
 31
0.0
  0
LINE
  5
210
330
1F
100
AcDbEntity
  8
0
 62
     7
370
    35
100
AcDbLine
 10
90.99881
 20
204.199982
 30
0.0
 11
115.49881
 21
204.199982
 31
0.0
  0
LINE
  5
211
330
1F
100
AcDbEntity
  8
0
 62
     7
370
    35
100
AcDbLine
 10
144.748795
 20
204.199982
 30
0.0
 11
144.748795
 21
184.199982
 31
0.0
  0
LINE
  5
212
330
1F
100
AcDbEntity
  8
0
 62
     7
370
    35
100
AcDbLine
 10
146.248795
 20
202.699982
 30
0.0
 11
146.248795
 21
185.699982
 31
0.0
  0
LINE
  5
213
330
1F
100
AcDbEntity
  8
0
 62
     7
370
    35
100
AcDbLine
 10
146.248795
 20
185.699982
 30
0.0
 11
144.748795
 21
185.137482
 31
0.0
  0
LINE
  5
214
330
1F
100
AcDbEntity
  8
0
 62
     7
370
    35
100
AcDbLine
 10
146.248795
 20
202.700043
 30
0.0
 11
144.748795
 21
203.262543
 31
0.0
  0
LINE
  5
215
330
1F
100
AcDbEntity
  8
0
 62
     7
370
    35
100
AcDbLine
 10
115.49881
 20
184.199982
 30
0.0
 11
144.748795
 21
184.199982
 31
0.0
  0
LINE
  5
216
330
1F
100
AcDbEntity
  8
0
 62
     7
370
    35
100
AcDbLine
 10
115.49881
 20
204.199982
 30
0.0
 11
144.748795
 21
204.199982
 31
0.0
  0
LINE
  5
217
330
1F
100
AcDbEntity
  8
0
 62
     7
370
    35
100
AcDbLine
 10
115.49881
 20
204.199982
 30
0.0
 11
115.49881
 21
184.199982
 31
0.0
  0
LINE
  5
218
330
1F
100
AcDbEntity
  8
0
 62
     7
370
    35
100
AcDbLine
 10
48.74881
 20
203.199982
 30
0.0
 11
48.74881
 21
185.199982
 31
0.0
  0
LINE
  5
219
330
1F
100
AcDbEntity
  8
0
 62
     7
370
    35
100
AcDbLine
 10
146.248795
 20
198.949982
 30
0.0
 11
147.248795
 21
198.949982
 31
0.0
  0
LINE
  5
21A
330
1F
100
AcDbEntity
  8
0
 62
     7
370
    35
100
AcDbLine
 10
146.248795
 20
189.449982
 30
0.0
 11
147.248795
 21
189.449982
 31
0.0
  0
LINE
  5
21B
330
1F
100
AcDbEntity
  8
0
 62
     7
370
    35
100
AcDbLine
 10
166.248795
 20
198.199982
 30
0.0
 11
166.248795
 21
190.199982
 31
0.0
  0
LINE
  5
21C
330
1F
100
AcDbEntity
  8
0
 62
     7
370
    35
100
AcDbLine
 10
147.248795
 20
198.949982
 30
0.0
 11
149.998795
 21
198.841461
 31
0.0
  0
LINE
  5
21D
330
1F
100
AcDbEntity
  8
0
 62
     7
370
    35
100
AcDbLine
 10
147.248795
 20
189.449982
 30
0.0
 11
149.998795
 21
189.558563
 31
0.0
  0
LINE
  5
21E
330
1F
100
AcDbEntity
  8
0
 62
     7
370
    35
100
AcDbLine
 10
47.74881
 20
198.699982
 30
0.0
 11
47.74881
 21
189.699982
 31
0.0
  0
LINE
  5
21F
330
1F
100
AcDbEntity
  8
0
 62
     7
370
    35
100
AcDbLine
 10
47.74881
 20
198.699982
 30
0.0
 11
48.74881
 21
199.199982
 31
0.0
  0
LINE
  5
220
330
1F
100
AcDbEntity
  8
0
 62
     7
370
    35
100
AcDbLine
 10
47.74881
 20
189.699982
 30
0.0
 11
48.74881
 21
189.199982
 31
0.0
  0
LINE
  5
221
330
1F
100
AcDbEntity
  8
0
 62
     7
370
    35
100
AcDbLine
 10
31.248808
 20
197.199982
 30
0.0
 11
31.248808
 21
191.199982
 31
0.0
  0
LINE
  5
222
330
1F
100
AcDbEntity
  8
0
 62
     7
370
    35
100
AcDbLine
 10
31.82379
 20
197.699982
 30
0.0
 11
35.74881
 21
197.699982
 31
0.0
  0
LINE
  5
223
330
1F
100
AcDbEntity
  8
0
 62
     7
370
    35
100
AcDbLine
 10
31.748808
 20
197.699982
 30
0.0
 11
35.74881
 21
197.699982
 31
0.0
  0
LINE
  5
224
330
1F
100
AcDbEntity
  8
0
 62
     7
370
    35
100
AcDbLine
 10
31.748808
 20
190.699982
 30
0.0
 11
35.74881
 21
190.699982
 31
0.0
  0
LINE
  5
225
330
1F
100
AcDbEntity
  8
0
 62
     7
370
    35
100
AcDbLine
 10
35.74881
 20
197.699982
 30
0.0
 11
35.74881
 21
190.699982
 31
0.0
  0
LINE
  5
226
330
1F
100
AcDbEntity
  8
0
 62
     7
370
    35
100
AcDbLine
 10
31.748808
 20
197.699982
 30
0.0
 11
31.748808
 21
190.699982
 31
0.0
  0
LINE
  5
227
330
1F
100
AcDbEntity
  8
0
 62
     7
370
    35
100
AcDbLine
 10
31.248808
 20
191.200043
 30
0.0
 11
31.748808
 21
190.700043
 31
0.0
  0
LINE
  5
228
330
1F
100
AcDbEntity
  8
0
 62
     7
370
    35
100
AcDbLine
 10
31.248808
 20
197.199982
 30
0.0
 11
31.748808
 21
197.699982
 31
0.0
  0
LINE
  5
229
330
1F
100
AcDbEntity
  8
0
 62
     7
370
    35
100
AcDbLine
 10
35.74881
 20
197.699982
 30
0.0
 11
36.24881
 21
197.199982
 31
0.0
  0
LINE
  5
22A
330
1F
100
AcDbEntity
  8
0
 62
     7
370
    35
100
AcDbLine
 10
35.74881
 20
190.699982
 30
0.0
 11
36.24881
 21
191.199982
 31
0.0
  0
LINE
  5
22B
330
1F
100
AcDbEntity
  8
0
 62
     7
370
    35
100
AcDbLine
 10
25.248808
 20
195.699982
 30
0.0
 11
25.248808
 21
192.699982
 31
0.0
  0
LINE
  5
22C
330
1F
100
AcDbEntity
  8
0
 62
     7
370
    35
100
AcDbLine
 10
31.248808
 20
191.699982
 30
0.0
 11
25.248808
 21
192.699982
 31
0.0
  0
LINE
  5
22D
330
1F
100
AcDbEntity
  8
0
 62
     7
370
    35
100
AcDbLine
 10
31.248808
 20
196.699982
 30
0.0
 11
25.248808
 21
195.699982
 31
0.0
  0
LINE
  5
22E
330
1F
100
AcDbEntity
  8
0
 62
     7
370
    35
100
AcDbLine
 10
31.748808
 20
197.199982
 30
0.0
 11
35.74881
 21
197.199982
 31
0.0
  0
LINE
  5
22F
330
1F
100
AcDbEntity
  8
0
 62
     7
370
    35
100
AcDbLine
 10
31.748808
 20
196.699982
 30
0.0
 11
35.74881
 21
196.699982
 31
0.0
  0
LINE
  5
230
330
1F
100
AcDbEntity
  8
0
 62
     7
370
    35
100
AcDbLine
 10
31.748808
 20
196.199982
 30
0.0
 11
35.74881
 21
196.199982
 31
0.0
  0
LINE
  5
231
330
1F
100
AcDbEntity
  8
0
 62
     7
370
    35
100
AcDbLine
 10
31.748808
 20
195.699982
 30
0.0
 11
35.74881
 21
195.699982
 31
0.0
  0
LINE
  5
232
330
1F
100
AcDbEntity
  8
0
 62
     7
370
    35
100
AcDbLine
 10
31.748808
 20
195.199982
 30
0.0
 11
35.74881
 21
195.199982
 31
0.0
  0
LINE
  5
233
330
1F
100
AcDbEntity
  8
0
 62
     7
370
    35
100
AcDbLine
 10
31.748808
 20
194.699982
 30
0.0
 11
35.74881
 21
194.699982
 31
0.0
  0
LINE
  5
234
330
1F
100
AcDbEntity
  8
0
 62
     7
370
    35
100
AcDbLine
 10
31.748808
 20
194.199982
 30
0.0
 11
35.74881
 21
194.199982
 31
0.0
  0
LINE
  5
235
330
1F
100
AcDbEntity
  8
0
 62
     7
370
    35
100
AcDbLine
 10
31.748808
 20
193.699982
 30
0.0
 11
35.74881
 21
193.699982
 31
0.0
  0
LINE
  5
236
330
1F
100
AcDbEntity
  8
0
 62
     7
370
    35
100
AcDbLine
 10
31.748808
 20
193.199982
 30
0.0
 11
35.74881
 21
193.199982
 31
0.0
  0
LINE
  5
237
330
1F
100
AcDbEntity
  8
0
 62
     7
370
    35
100
AcDbLine
 10
31.748808
 20
192.699982
 30
0.0
 11
35.74881
 21
192.699982
 31
0.0
  0
LINE
  5
238
330
1F
100
AcDbEntity
  8
0
 62
     7
370
    35
100
AcDbLine
 10
31.748808
 20
192.199982
 30
0.0
 11
35.74881
 21
192.199982
 31
0.0
  0
LINE
  5
239
330
1F
100
AcDbEntity
  8
0
 62
     7
370
    35
100
AcDbLine
 10
31.748808
 20
191.699982
 30
0.0
 11
35.74881
 21
191.699982
 31
0.0
  0
LINE
  5
23A
330
1F
100
AcDbEntity
  8
0
 62
     7
370
    35
100
AcDbLine
 10
31.748808
 20
191.199982
 30
0.0
 11
35.74881
 21
191.199982
 31
0.0
  0
LINE
  5
23B
330
1F
100
AcDbEntity
  8
0
 62
     7
370
    35
100
AcDbLine
 10
49.74881
 20
184.199982
 30
0.0
 11
49.74881
 21
204.199982
 31
0.0
  0
LINE
  5
23C
330
1F
100
AcDbEntity
  8
0
 62
     7
370
    35
100
AcDbLine
 10
149.998795
 20
198.841461
 30
0.0
 11
149.998795
 21
198.341095
 31
0.0
  0
LINE
  5
23D
330
1F
100
AcDbEntity
  8
0
 62
     7
370
    35
100
AcDbLine
 10
150.498795
 20
198.821747
 30
0.0
 11
150.498795
 21
198.32132
 31
0.0
  0
LINE
  5
23E
330
1F
100
AcDbEntity
  8
0
 62
     7
370
    35
100
AcDbLine
 10
151.998795
 20
198.762482
 30
0.0
 11
151.998795
 21
198.262115
 31
0.0
  0
LINE
  5
23F
330
1F
100
AcDbEntity
  8
0
 62
     7
370
    35
100
AcDbLine
 10
151.498795
 20
198.782257
 30
0.0
 11
151.498795
 21
198.28183
 31
0.0
  0
LINE
  5
240
330
1F
100
AcDbEntity
  8
0
 62
     7
370
    35
100
AcDbLine
 10
152.998795
 20
198.723053
 30
0.0
 11
152.998795
 21
198.222626
 31
0.0
  0
LINE
  5
241
330
1F
100
AcDbEntity
  8
0
 62
     7
370
    35
100
AcDbLine
 10
153.498795
 20
198.703278
 30
0.0
 11
153.498795
 21
198.202911
 31
0.0
  0
LINE
  5
242
330
1F
100
AcDbEntity
  8
0
 62
     7
370
    35
100
AcDbLine
 10
154.998795
 20
198.644073
 30
0.0
 11
154.998795
 21
198.143707
 31
0.0
  0
LINE
  5
243
330
1F
100
AcDbEntity
  8
0
 62
     7
370
    35
100
AcDbLine
 10
154.498795
 20
198.663849
 30
0.0
 11
154.498795
 21
198.163422
 31
0.0
  0
LINE
  5
244
330
1F
100
AcDbEntity
  8
0
 62
     7
370
    35
100
AcDbLine
 10
155.998795
 20
198.604645
 30
0.0
 11
155.998795
 21
198.104218
 31
0.0
  0
LINE
  5
245
330
1F
100
AcDbEntity
  8
0
 62
     7
370
    35
100
AcDbLine
 10
156.498795
 20
198.584869
 30
0.0
 11
156.498795
 21
198.084503
 31
0.0
  0
LINE
  5
246
330
1F
100
AcDbEntity
  8
0
 62
     7
370
    35
100
AcDbLine
 10
157.998795
 20
198.525665
 30
0.0
 11
157.998795
 21
198.025299
 31
0.0
  0
LINE
  5
247
330
1F
100
AcDbEntity
  8
0
 62
     7
370
    35
100
AcDbLine
 10
157.498795
 20
198.54538
 30
0.0
 11
157.498795
 21
198.045013
 31
0.0
  0
LINE
  5
248
330
1F
100
AcDbEntity
  8
0
 62
     7
370
    35
100
AcDbLine
 10
160.498795
 20
198.426971
 30
0.0
 11
160.498795
 21
197.926605
 31
0.0
  0
LINE
  5
249
330
1F
100
AcDbEntity
  8
0
 62
     7
370
    35
100
AcDbLine
 10
160.998795
 20
198.407257
 30
0.0
 11
160.998795
 21
197.90683
 31
0.0
  0
LINE
  5
24A
330
1F
100
AcDbEntity
  8
0
 62
     7
370
    35
100
AcDbLine
 10
162.498795
 20
198.348053
 30
0.0
 11
162.498795
 21
197.847626
 31
0.0
  0
LINE
  5
24B
330
1F
100
AcDbEntity
  8
0
 62
     7
370
    35
100
AcDbLine
 10
161.998795
 20
198.367767
 30
0.0
 11
161.998795
 21
197.867401
 31
0.0
  0
LINE
  5
24C
330
1F
100
AcDbEntity
  8
0
 62
     7
370
    35
100
AcDbLine
 10
149.998795
 20
190.058929
 30
0.0
 11
150.498795
 21
190.078705
 31
0.0
  0
LINE
  5
24D
330
1F
100
AcDbEntity
  8
0
 62
     7
370
    35
100
AcDbLine
 10
149.998795
 20
198.341095
 30
0.0
 11
150.498795
 21
198.32132
 31
0.0
  0
LINE
  5
24E
330
1F
100
AcDbEntity
  8
0
 62
     7
370
    35
100
AcDbLine
 10
149.998795
 20
198.341095
 30
0.0
 11
149.998795
 21
189.558563
 31
0.0
  0
LINE
  5
24F
330
1F
100
AcDbEntity
  8
0
 62
     7
370
    35
100
AcDbLine
 10
150.498795
 20
198.32132
 30
0.0
 11
150.498795
 21
189.578278
 31
0.0
  0
LINE
  5
250
330
1F
100
AcDbEntity
  8
0
 62
     7
370
    35
100
AcDbLine
 10
151.498795
 20
198.28183
 30
0.0
 11
151.498795
 21
189.617767
 31
0.0
  0
LINE
  5
251
330
1F
100
AcDbEntity
  8
0
 62
     7
370
    35
100
AcDbLine
 10
151.998795
 20
198.262115
 30
0.0
 11
151.998795
 21
189.637482
 31
0.0
  0
LINE
  5
252
330
1F
100
AcDbEntity
  8
0
 62
     7
370
    35
100
AcDbLine
 10
152.998795
 20
198.222626
 30
0.0
 11
152.998795
 21
189.676971
 31
0.0
  0
LINE
  5
253
330
1F
100
AcDbEntity
  8
0
 62
     7
370
    35
100
AcDbLine
 10
153.498795
 20
198.202911
 30
0.0
 11
153.498795
 21
189.696747
 31
0.0
  0
LINE
  5
254
330
1F
100
AcDbEntity
  8
0
 62
     7
370
    35
100
AcDbLine
 10
154.498795
 20
198.163422
 30
0.0
 11
154.498795
 21
189.736176
 31
0.0
  0
LINE
  5
255
330
1F
100
AcDbEntity
  8
0
 62
     7
370
    35
100
AcDbLine
 10
154.998795
 20
198.143707
 30
0.0
 11
154.998795
 21
189.755951
 31
0.0
  0
LINE
  5
256
330
1F
100
AcDbEntity
  8
0
 62
     7
370
    35
100
AcDbLine
 10
155.998795
 20
198.104218
 30
0.0
 11
155.998795
 21
189.79538
 31
0.0
  0
LINE
  5
257
330
1F
100
AcDbEntity
  8
0
 62
     7
370
    35
100
AcDbLine
 10
156.498795
 20
198.084503
 30
0.0
 11
156.498795
 21
189.815155
 31
0.0
  0
LINE
  5
258
330
1F
100
AcDbEntity
  8
0
 62
     7
370
    35
100
AcDbLine
 10
157.498795
 20
198.045013
 30
0.0
 11
157.498795
 21
189.854645
 31
0.0
  0
LINE
  5
259
330
1F
100
AcDbEntity
  8
0
 62
     7
370
    35
100
AcDbLine
 10
157.998795
 20
198.025299
 30
0.0
 11
157.998795
 21
189.874359
 31
0.0
  0
LINE
  5
25A
330
1F
100
AcDbEntity
  8
0
 62
     7
370
    35
100
AcDbLine
 10
160.498795
 20
197.926605
 30
0.0
 11
160.498795
 21
189.973053
 31
0.0
  0
LINE
  5
25B
330
1F
100
AcDbEntity
  8
0
 62
     7
370
    35
100
AcDbLine
 10
160.998795
 20
197.90683
 30
0.0
 11
160.998795
 21
189.992767
 31
0.0
  0
LINE
  5
25C
330
1F
100
AcDbEntity
  8
0
 62
     7
370
    35
100
AcDbLine
 10
161.998795
 20
197.867401
 30
0.0
 11
161.998795
 21
190.032257
 31
0.0
  0
LINE
  5
25D
330
1F
100
AcDbEntity
  8
0
 62
     7
370
    35
100
AcDbLine
 10
162.498795
 20
197.847626
 30
0.0
 11
162.498795
 21
190.051971
 31
0.0
  0
LINE
  5
25E
330
1F
100
AcDbEntity
  8
0
 62
     7
370
    35
100
AcDbLine
 10
151.498795
 20
190.118134
 30
0.0
 11
151.998795
 21
190.137909
 31
0.0
  0
LINE
  5
25F
330
1F
100
AcDbEntity
  8
0
 62
     7
370
    35
100
AcDbLine
 10
152.998795
 20
190.177399
 30
0.0
 11
153.498795
 21
190.197113
 31
0.0
  0
LINE
  5
260
330
1F
100
AcDbEntity
  8
0
 62
     7
370
    35
100
AcDbLine
 10
154.498795
 20
190.236603
 30
0.0
 11
154.998795
 21
190.256317
 31
0.0
  0
LINE
  5
261
330
1F
100
AcDbEntity
  8
0
 62
     7
370
    35
100
AcDbLine
 10
155.998795
 20
190.295807
 30
0.0
 11
156.498795
 21
190.315521
 31
0.0
  0
LINE
  5
262
330
1F
100
AcDbEntity
  8
0
 62
     7
370
    35
100
AcDbLine
 10
157.498795
 20
190.355011
 30
0.0
 11
157.998795
 21
190.374725
 31
0.0
  0
LINE
  5
263
330
1F
100
AcDbEntity
  8
0
 62
     7
370
    35
100
AcDbLine
 10
160.498795
 20
190.473419
 30
0.0
 11
160.998795
 21
190.493134
 31
0.0
  0
LINE
  5
264
330
1F
100
AcDbEntity
  8
0
 62
     7
370
    35
100
AcDbLine
 10
161.998795
 20
190.532623
 30
0.0
 11
162.498795
 21
190.552399
 31
0.0
  0
LINE
  5
265
330
1F
100
AcDbEntity
  8
0
 62
     7
370
    35
100
AcDbLine
 10
161.998795
 20
197.867401
 30
0.0
 11
162.498795
 21
197.847626
 31
0.0
  0
LINE
  5
266
330
1F
100
AcDbEntity
  8
0
 62
     7
370
    35
100
AcDbLine
 10
160.498795
 20
197.926605
 30
0.0
 11
160.998795
 21
197.90683
 31
0.0
  0
LINE
  5
267
330
1F
100
AcDbEntity
  8
0
 62
     7
370
    35
100
AcDbLine
 10
157.498795
 20
198.045013
 30
0.0
 11
157.998795
 21
198.025299
 31
0.0
  0
LINE
  5
268
330
1F
100
AcDbEntity
  8
0
 62
     7
370
    35
100
AcDbLine
 10
155.998795
 20
198.104218
 30
0.0
 11
156.498795
 21
198.084503
 31
0.0
  0
LINE
  5
269
330
1F
100
AcDbEntity
  8
0
 62
     7
370
    35
100
AcDbLine
 10
154.498795
 20
198.163422
 30
0.0
 11
154.998795
 21
198.143707
 31
0.0
  0
LINE
  5
26A
330
1F
100
AcDbEntity
  8
0
 62
     7
370
    35
100
AcDbLine
 10
152.998795
 20
198.222626
 30
0.0
 11
153.498795
 21
198.202911
 31
0.0
  0
LINE
  5
26B
330
1F
100
AcDbEntity
  8
0
 62
     7
370
    35
100
AcDbLine
 10
151.498795
 20
198.28183
 30
0.0
 11
151.998795
 21
198.262115
 31
0.0
  0
LINE
  5
26C
330
1F
100
AcDbEntity
  8
0
 62
     7
370
    35
100
AcDbLine
 10
150.498795
 20
189.578278
 30
0.0
 11
151.498795
 21
189.617767
 31
0.0
  0
LINE
  5
26D
330
1F
100
AcDbEntity
  8
0
 62
     7
370
    35
100
AcDbLine
 10
151.998795
 20
189.637482
 30
0.0
 11
152.998795
 21
189.676971
 31
0.0
  0
LINE
  5
26E
330
1F
100
AcDbEntity
  8
0
 62
     7
370
    35
100
AcDbLine
 10
153.498795
 20
189.696747
 30
0.0
 11
154.498795
 21
189.736176
 31
0.0
  0
LINE
  5
26F
330
1F
100
AcDbEntity
  8
0
 62
     7
370
    35
100
AcDbLine
 10
154.998795
 20
189.755951
 30
0.0
 11
155.998795
 21
189.79538
 31
0.0
  0
LINE
  5
270
330
1F
100
AcDbEntity
  8
0
 62
     7
370
    35
100
AcDbLine
 10
156.498795
 20
189.815155
 30
0.0
 11
157.498795
 21
189.854645
 31
0.0
  0
LINE
  5
271
330
1F
100
AcDbEntity
  8
0
 62
     7
370
    35
100
AcDbLine
 10
157.998795
 20
189.874359
 30
0.0
 11
160.498795
 21
189.973053
 31
0.0
  0
LINE
  5
272
330
1F
100
AcDbEntity
  8
0
 62
     7
370
    35
100
AcDbLine
 10
160.998795
 20
189.992767
 30
0.0
 11
161.998795
 21
190.032257
 31
0.0
  0
LINE
  5
273
330
1F
100
AcDbEntity
  8
0
 62
     7
370
    35
100
AcDbLine
 10
162.498795
 20
190.051971
 30
0.0
 11
166.248795
 21
190.199982
 31
0.0
  0
LINE
  5
274
330
1F
100
AcDbEntity
  8
0
 62
     7
370
    35
100
AcDbLine
 10
162.498795
 20
198.348053
 30
0.0
 11
166.248795
 21
198.199982
 31
0.0
  0
LINE
  5
275
330
1F
100
AcDbEntity
  8
0
 62
     7
370
    35
100
AcDbLine
 10
160.998795
 20
198.407257
 30
0.0
 11
161.998795
 21
198.367767
 31
0.0
  0
LINE
  5
276
330
1F
100
AcDbEntity
  8
0
 62
     7
370
    35
100
AcDbLine
 10
157.998795
 20
198.525665
 30
0.0
 11
160.498795
 21
198.426971
 31
0.0
  0
LINE
  5
277
330
1F
100
AcDbEntity
  8
0
 62
     7
370
    35
100
AcDbLine
 10
156.498795
 20
198.584869
 30
0.0
 11
157.498795
 21
198.54538
 31
0.0
  0
LINE
  5
278
330
1F
100
AcDbEntity
  8
0
 62
     7
370
    35
100
AcDbLine
 10
154.998795
 20
198.644073
 30
0.0
 11
155.998795
 21
198.604645
 31
0.0
  0
LINE
  5
279
330
1F
100
AcDbEntity
  8
0
 62
     7
370
    35
100
AcDbLine
 10
153.498795
 20
198.703278
 30
0.0
 11
154.498795
 21
198.663849
 31
0.0
  0
LINE
  5
27A
330
1F
100
AcDbEntity
  8
0
 62
     7
370
    35
100
AcDbLine
 10
151.998795
 20
198.762482
 30
0.0
 11
152.998795
 21
198.723053
 31
0.0
  0
LINE
  5
27B
330
1F
100
AcDbEntity
  8
0
 62
     7
370
    35
100
AcDbLine
 10
150.498795
 20
198.821747
 30
0.0
 11
151.498795
 21
198.782257
 31
0.0
  0
LINE
  5
27C
330
1F
100
AcDbEntity
  8
0
 62
     7
370
    35
100
AcDbLine
 10
36.24881
 20
197.199982
 30
0.0
 11
36.24881
 21
191.199982
 31
0.0
  0
LINE
  5
27D
330
1F
100
AcDbEntity
  8
0
 62
     7
370
    35
100
AcDbLine
 10
36.24881
 20
197.199982
 30
0.0
 11
47.74881
 21
197.199982
 31
0.0
  0
LINE
  5
27E
330
1F
100
AcDbEntity
  8
0
 62
     7
370
    35
100
AcDbLine
 10
36.24881
 20
191.199982
 30
0.0
 11
47.74881
 21
191.199982
 31
0.0
  0
ARC
  5
27F
330
1F
100
AcDbEntity
  8
0
 62
     7
370
    35
100
AcDbCircle
 10
326.251221
 20
119.100037
 30
0.0
 40
1.0
100
AcDbArc
 50
5.73902
 51
174.260966
  0
ARC
  5
280
330
1F
100
AcDbEntity
  8
0
 62
     7
370
    35
100
AcDbCircle
 10
326.251221
 20
109.300049
 30
0.0
 40
1.0
100
AcDbArc
 50
185.739048
 51
354.260985
  0
CIRCLE
  5
281
330
1F
100
AcDbEntity
  8
0
 62
     7
370
    35
100
AcDbCircle
 10
242.957047
 20
105.505005
 30
0.0
 40
2.099999904632568
  0
CIRCLE
  5
282
330
1F
100
AcDbEntity
  8
0
 62
     7
370
    35
100
AcDbCircle
 10
132.957077
 20
122.89502
 30
0.0
 40
2.099999904632568
  0
ARC
  5
283
330
1F
100
AcDbEntity
  8
0
 62
     7
370
    35
100
AcDbCircle
 10
130.457077
 20
125.39502
 30
0.0
 40
2.0
100
AcDbArc
 50
90.000003
 51
180.000009
  0
ARC
  5
284
330
1F
100
AcDbEntity
  8
0
 62
     7
370
    35
100
AcDbCircle
 10
245.457047
 20
103.005005
 30
0.0
 40
2.0
100
AcDbArc
 50
269.999997
 51
360.0
  0
ARC
  5
285
330
1F
100
AcDbEntity
  8
0
 62
     7
370
    35
100
AcDbCircle
 10
245.457047
 20
107.900024
 30
0.0
 40
2.0
100
AcDbArc
 50
0.0
 51
90.000003
  0
ARC
  5
286
330
1F
100
AcDbEntity
  8
0
 62
     7
370
    35
100
AcDbCircle
 10
130.457077
 20
120.5
 30
0.0
 40
2.0
100
AcDbArc
 50
180.000009
 51
269.999997
  0
ARC
  5
287
330
1F
100
AcDbEntity
  8
0
 62
     7
370
    35
100
AcDbCircle
 10
304.251221
 20
54.200012
 30
0.0
 40
1.0
100
AcDbArc
 50
269.999997
 51
90.000003
  0
CIRCLE
  5
288
330
1F
100
AcDbEntity
  8
0
 62
     7
370
    35
100
AcDbCircle
 10
326.251221
 20
54.200012
 30
0.0
 40
1.0
  0
CIRCLE
  5
289
330
1F
100
AcDbEntity
  8
0
 62
     7
370
    35
100
AcDbCircle
 10
225.457047
 20
49.800018
 30
0.0
 40
1.950000047683716
  0
ARC
  5
28A
330
1F
100
AcDbEntity
  8
0
 62
     7
370
    35
100
AcDbCircle
 10
237.657059
 20
60.200012
 30
0.0
 40
0.800000011920929
100
AcDbArc
 50
0.0
 51
90.000003
  0
CIRCLE
  5
28B
330
1F
100
AcDbEntity
  8
0
 62
     7
370
    35
100
AcDbCircle
 10
149.457077
 20
49.800018
 30
0.0
 40
1.950000047683716
  0
ARC
  5
28C
330
1F
100
AcDbEntity
  8
0
 62
     7
370
    35
100
AcDbCircle
 10
138.25708
 20
60.200012
 30
0.0
 40
0.800000011920929
100
AcDbArc
 50
90.000003
 51
180.000009
  0
ARC
  5
28D
330
1F
100
AcDbEntity
  8
0
 62
     7
370
    35
100
AcDbCircle
 10
137.457077
 20
47.0
 30
0.0
 40
0.800000011920929
100
AcDbArc
 50
269.999997
 51
360.0
  0
ARC
  5
28E
330
1F
100
AcDbEntity
  8
0
 62
     7
370
    35
100
AcDbCircle
 10
236.557114
 20
46.800018
 30
0.0
 40
1.0
100
AcDbArc
 50
269.999997
 51
360.0
  0
ARC
  5
28F
330
1F
100
AcDbEntity
  8
0
 62
     7
370
    35
100
AcDbCircle
 10
139.357086
 20
46.800018
 30
0.0
 40
1.0
100
AcDbArc
 50
180.000009
 51
269.999997
  0
CIRCLE
  5
290
330
1F
100
AcDbEntity
  8
0
 62
     7
370
    35
100
AcDbCircle
 10
149.457077
 20
49.800018
 30
0.0
 40
2.0
  0
ARC
  5
291
330
1F
100
AcDbEntity
  8
0
 62
     7
370
    35
100
AcDbCircle
 10
150.305603
 20
49.800018
 30
0.0
 40
0.4000000059604645
100
AcDbArc
 50
135.0
 51
224.999986
  0
ARC
  5
292
330
1F
100
AcDbEntity
  8
0
 62
     7
370
    35
100
AcDbCircle
 10
149.457077
 20
50.648529
 30
0.0
 40
0.4000000059604645
100
AcDbArc
 50
225.0
 51
314.999992
  0
ARC
  5
293
330
1F
100
AcDbEntity
  8
0
 62
     7
370
    35
100
AcDbCircle
 10
148.608551
 20
49.800018
 30
0.0
 40
0.4000000059604645
100
AcDbArc
 50
314.999992
 51
44.999998
  0
ARC
  5
294
330
1F
100
AcDbEntity
  8
0
 62
     7
370
    35
100
AcDbCircle
 10
149.457077
 20
48.951477
 30
0.0
 40
0.4000000059604645
100
AcDbArc
 50
45.000001
 51
135.0
  0
CIRCLE
  5
295
330
1F
100
AcDbEntity
  8
0
 62
     7
370
    35
100
AcDbCircle
 10
225.457047
 20
49.800018
 30
0.0
 40
2.0
  0
ARC
  5
296
330
1F
100
AcDbEntity
  8
0
 62
     7
370
    35
100
AcDbCircle
 10
226.305588
 20
49.800018
 30
0.0
 40
0.4000000059604645
100
AcDbArc
 50
135.0
 51
224.999986
  0
ARC
  5
297
330
1F
100
AcDbEntity
  8
0
 62
     7
370
    35
100
AcDbCircle
 10
225.457047
 20
50.648529
 30
0.0
 40
0.4000000059604645
100
AcDbArc
 50
225.0
 51
314.999992
  0
ARC
  5
298
330
1F
100
AcDbEntity
  8
0
 62
     7
370
    35
100
AcDbCircle
 10
224.608536
 20
49.800018
 30
0.0
 40
0.4000000059604645
100
AcDbArc
 50
314.999992
 51
44.999998
  0
ARC
  5
299
330
1F
100
AcDbEntity
  8
0
 62
     7
370
    35
100
AcDbCircle
 10
225.457047
 20
48.951477
 30
0.0
 40
0.4000000059604645
100
AcDbArc
 50
45.000001
 51
135.0
  0
ARC
  5
29A
330
1F
100
AcDbEntity
  8
0
 62
     7
370
    35
100
AcDbCircle
 10
25.468779
 20
194.199982
 30
0.0
 40
1.220000028610229
100
AcDbArc
 50
100.388843
 51
259.611143
  0
LINE
  5
29B
330
1F
100
AcDbEntity
  8
0
 62
     7
370
    35
100
AcDbLine
 10
166.248795
 20
196.649994
 30
0.0
 11
209.267151
 21
196.649994
 31
0.0
  0
LINE
  5
29C
330
1F
100
AcDbEntity
  8
0
 62
     7
370
    35
100
AcDbLine
 10
166.248795
 20
191.749969
 30
0.0
 11
209.267151
 21
191.749969
 31
0.0
  0
ARC
  5
29D
330
1F
100
AcDbEntity
  8
0
 62
     7
370
    35
100
AcDbCircle
 10
209.267151
 20
173.238968
 30
0.0
 40
18.51100158691406
100
AcDbArc
 50
269.999997
 51
90.000003
  0
ARC
  5
29E
330
1F
100
AcDbEntity
  8
0
 62
     7
370
    35
100
AcDbCircle
 10
209.267151
 20
173.238968
 30
0.0
 40
23.41102600097656
100
AcDbArc
 50
269.999997
 51
90.000003
  0
LINE
  5
29F
330
1F
100
AcDbEntity
  8
0
 62
     7
370
    35
100
AcDbLine
 10
209.267151
 20
154.727966
 30
0.0
 11
140.899796
 21
154.727966
 31
0.0
  0
LINE
  5
2A0
330
1F
100
AcDbEntity
  8
0
 62
     7
370
    35
100
AcDbLine
 10
209.267151
 20
149.827957
 30
0.0
 11
140.899673
 21
149.827957
 31
0.0
  0
ARC
  5
2A1
330
1F
100
AcDbEntity
  8
0
 62
     7
370
    35
100
AcDbCircle
 10
141.613968
 20
153.50293
 30
0.0
 40
1.417995452880859
100
AcDbArc
 50
120.241724
 51
239.758276
  0
ARC
  5
2A2
330
1F
100
AcDbEntity
  8
0
 62
     7
370
    35
100
AcDbCircle
 10
140.185623
 20
153.50293
 30
0.0
 40
1.417995452880859
100
AcDbArc
 50
300.241732
 51
59.758274
  0
ARC
  5
2A3
330
1F
100
AcDbEntity
  8
0
 62
     7
370
    35
100
AcDbCircle
 10
141.613968
 20
151.052917
 30
0.0
 40
1.417995452880859
100
AcDbArc
 50
120.241724
 51
239.752512
  0
ARC
  5
2A4
330
1F
100
AcDbEntity
  8
0
 62
     7
370
    35
100
AcDbCircle
 10
134.676956
 20
153.502991
 30
0.0
 40
1.417995452880859
100
AcDbArc
 50
300.241732
 51
59.756826
  0
ARC
  5
2A5
330
1F
100
AcDbEntity
  8
0
 62
     7
370
    35
100
AcDbCircle
 10
136.105301
 20
151.052917
 30
0.0
 40
1.417995452880859
100
AcDbArc
 50
120.241724
 51
239.753932
  0
ARC
  5
2A6
330
1F
100
AcDbEntity
  8
0
 62
     7
370
    35
100
AcDbCircle
 10
136.105301
 20
151.052917
 30
0.0
 40
1.417995452880859
100
AcDbArc
 50
120.241724
 51
239.758276
  0
ARC
  5
2A7
330
1F
100
AcDbEntity
  8
0
 62
     7
370
    35
100
AcDbCircle
 10
134.676956
 20
151.052917
 30
0.0
 40
1.417995452880859
100
AcDbArc
 50
300.246049
 51
59.758274
  0
ARC
  5
2A8
330
1F
100
AcDbEntity
  8
0
 62
     7
370
    35
100
AcDbCircle
 10
134.676956
 20
153.502991
 30
0.0
 40
1.417995452880859
100
AcDbArc
 50
300.241732
 51
59.756826
  0
ARC
  5
2A9
330
1F
100
AcDbEntity
  8
0
 62
     7
370
    35
100
AcDbCircle
 10
136.105301
 20
151.052917
 30
0.0
 40
1.417995452880859
100
AcDbArc
 50
120.241724
 51
239.753932
  0
ARC
  5
2AA
330
1F
100
AcDbEntity
  8
0
 62
     7
370
    35
100
AcDbCircle
 10
136.105301
 20
151.052917
 30
0.0
 40
1.417995452880859
100
AcDbArc
 50
120.241724
 51
239.758276
  0
ARC
  5
2AB
330
1F
100
AcDbEntity
  8
0
 62
     7
370
    35
100
AcDbCircle
 10
134.676956
 20
151.052917
 30
0.0
 40
1.417995452880859
100
AcDbArc
 50
300.246049
 51
59.758274
  0
LINE
  5
2AC
330
1F
100
AcDbEntity
  8
0
 62
     7
370
    35
100
AcDbLine
 10
126.357086
 20
118.100006
 30
0.0
 11
126.357086
 21
110.300018
 31
0.0
  0
LINE
  5
2AD
330
1F
100
AcDbEntity
  8
0
 62
     7
370
    35
100
AcDbLine
 10
126.357086
 20
110.700012
 30
0.0
 11
126.357086
 21
117.700012
 31
0.0
  0
LINE
  5
2AE
330
1F
100
AcDbEntity
  8
0
 62
     7
370
    35
100
AcDbLine
 10
94.123604
 20
116.650024
 30
0.0
 11
126.357086
 21
116.650024
 31
0.0
  0
LINE
  5
2AF
330
1F
100
AcDbEntity
  8
0
 62
     7
370
    35
100
AcDbLine
 10
96.12542
 20
111.75
 30
0.0
 11
126.357086
 21
111.75
 31
0.0
  0
ARC
  5
2B0
330
1F
100
AcDbEntity
  8
0
 62
     7
370
    35
100
AcDbCircle
 10
96.12542
 20
133.238983
 30
0.0
 40
16.70931053161621
100
AcDbArc
 50
96.880701
 51
263.119292
  0
ARC
  5
2B1
330
1F
100
AcDbEntity
  8
0
 62
     7
370
    35
100
AcDbCircle
 10
96.12542
 20
133.238983
 30
0.0
 40
21.48897552490234
100
AcDbArc
 50
90.000003
 51
269.999997
  0
LINE
  5
2B2
330
1F
100
AcDbEntity
  8
0
 62
     7
370
    35
100
AcDbLine
 10
135.39122
 20
149.827957
 30
0.0
 11
94.123604
 21
149.827957
 31
0.0
  0
LINE
  5
2B3
330
1F
100
AcDbEntity
  8
0
 62
     7
370
    35
100
AcDbLine
 10
135.391159
 20
154.727966
 30
0.0
 11
96.12542
 21
154.727966
 31
0.0
  0
LINE
  5
2B4
330
1F
100
AcDbEntity
  8
0
 62
     7
370
    35
100
AcDbLine
 10
280.251221
 20
110.700043
 30
0.0
 11
280.251221
 21
117.700043
 31
0.0
  0
LINE
  5
2B5
330
1F
100
AcDbEntity
  8
0
 62
     7
370
    35
100
AcDbLine
 10
249.557114
 20
118.100006
 30
0.0
 11
249.557114
 21
110.300018
 31
0.0
  0
LINE
  5
2B6
330
1F
100
AcDbEntity
  8
0
 62
     7
370
    35
100
AcDbLine
 10
281.167114
 20
117.732758
 30
0.0
 11
280.769714
 21
116.200043
 31
0.0
  0
LINE
  5
2B7
330
1F
100
AcDbEntity
  8
0
 62
     7
370
    35
100
AcDbLine
 10
280.769775
 20
116.200043
 30
0.0
 11
281.28833
 21
114.200073
 31
0.0
  0
LINE
  5
2B8
330
1F
100
AcDbEntity
  8
0
 62
     7
370
    35
100
AcDbLine
 10
280.251221
 20
110.700043
 30
0.0
 11
280.251221
 21
117.700043
 31
0.0
  0
LINE
  5
2B9
330
1F
100
AcDbEntity
  8
0
 62
     7
370
    35
100
AcDbLine
 10
249.557114
 20
118.100021
 30
0.0
 11
249.557114
 21
110.300003
 31
0.0
  0
ARC
  5
2BA
330
1F
100
AcDbEntity
  8
0
 62
     7
370
    35
100
AcDbCircle
 10
269.663391
 20
115.425018
 30
0.0
 40
1.417995452880859
100
AcDbArc
 50
120.240317
 51
239.758276
  0
ARC
  5
2BB
330
1F
100
AcDbEntity
  8
0
 62
     7
370
    35
100
AcDbCircle
 10
268.235046
 20
115.425018
 30
0.0
 40
1.417995452880859
100
AcDbArc
 50
300.241732
 51
59.758274
  0
ARC
  5
2BC
330
1F
100
AcDbEntity
  8
0
 62
     7
370
    35
100
AcDbCircle
 10
269.663391
 20
112.974976
 30
0.0
 40
1.417995452880859
100
AcDbArc
 50
120.241724
 51
239.752457
  0
ARC
  5
2BD
330
1F
100
AcDbEntity
  8
0
 62
     7
370
    35
100
AcDbCircle
 10
262.726379
 20
115.425034
 30
0.0
 40
1.417995452880859
100
AcDbArc
 50
300.241732
 51
59.757311
  0
ARC
  5
2BE
330
1F
100
AcDbEntity
  8
0
 62
     7
370
    35
100
AcDbCircle
 10
264.154724
 20
112.975006
 30
0.0
 40
1.417995452880859
100
AcDbArc
 50
120.241724
 51
239.753932
  0
ARC
  5
2BF
330
1F
100
AcDbEntity
  8
0
 62
     7
370
    35
100
AcDbCircle
 10
264.154724
 20
112.975006
 30
0.0
 40
1.417995452880859
100
AcDbArc
 50
120.241724
 51
239.758276
  0
ARC
  5
2C0
330
1F
100
AcDbEntity
  8
0
 62
     7
370
    35
100
AcDbCircle
 10
262.726379
 20
112.975006
 30
0.0
 40
1.417995452880859
100
AcDbArc
 50
300.243966
 51
59.758274
  0
LINE
  5
2C1
330
1F
100
AcDbEntity
  8
0
 62
     7
370
    35
100
AcDbLine
 10
249.557114
 20
116.65004
 30
0.0
 11
263.440552
 21
116.65004
 31
0.0
  0
LINE
  5
2C2
330
1F
100
AcDbEntity
  8
0
 62
     7
370
    35
100
AcDbLine
 10
249.557114
 20
111.750015
 30
0.0
 11
263.440582
 21
111.750015
 31
0.0
  0
LINE
  5
2C3
330
1F
100
AcDbEntity
  8
0
 62
     7
370
    35
100
AcDbLine
 10
268.949097
 20
111.750031
 30
0.0
 11
280.251221
 21
111.750031
 31
0.0
  0
LINE
  5
2C4
330
1F
100
AcDbEntity
  8
0
 62
     7
370
    35
100
AcDbLine
 10
268.949249
 20
116.650055
 30
0.0
 11
280.251221
 21
116.650055
 31
0.0
  0
LINE
  5
2C5
330
1F
100
AcDbEntity
  8
0
 62
     7
370
    35
100
AcDbLine
 10
126.357086
 20
58.100006
 30
0.0
 11
126.357086
 21
50.300018
 31
0.0
  0
ARC
  5
2C6
330
1F
100
AcDbEntity
  8
0
 62
     7
370
    35
100
AcDbCircle
 10
99.663971
 20
55.425003
 30
0.0
 40
1.417995452880859
100
AcDbArc
 50
120.241724
 51
239.758276
  0
ARC
  5
2C7
330
1F
100
AcDbEntity
  8
0
 62
     7
370
    35
100
AcDbCircle
 10
98.235626
 20
55.425003
 30
0.0
 40
1.417995452880859
100
AcDbArc
 50
300.241732
 51
59.758274
  0
ARC
  5
2C8
330
1F
100
AcDbEntity
  8
0
 62
     7
370
    35
100
AcDbCircle
 10
99.663971
 20
52.97496
 30
0.0
 40
1.417995452880859
100
AcDbArc
 50
120.241724
 51
239.753932
  0
LINE
  5
2C9
330
1F
100
AcDbEntity
  8
0
 62
     7
370
    35
100
AcDbLine
 10
98.949799
 20
56.650024
 30
0.0
 11
126.357086
 21
56.650024
 31
0.0
  0
LINE
  5
2CA
330
1F
100
AcDbEntity
  8
0
 62
     7
370
    35
100
AcDbLine
 10
98.949707
 20
51.75
 30
0.0
 11
126.357086
 21
51.75
 31
0.0
  0
LINE
  5
2CB
330
1F
100
AcDbEntity
  8
0
 62
     7
370
    35
100
AcDbLine
 10
280.251221
 20
50.700043
 30
0.0
 11
280.251221
 21
57.700043
 31
0.0
  0
LINE
  5
2CC
330
1F
100
AcDbEntity
  8
0
 62
     7
370
    35
100
AcDbLine
 10
249.557114
 20
58.100006
 30
0.0
 11
249.557114
 21
50.300018
 31
0.0
  0
ARC
  5
2CD
330
1F
100
AcDbEntity
  8
0
 62
     7
370
    35
100
AcDbCircle
 10
269.663391
 20
55.425018
 30
0.0
 40
1.417995452880859
100
AcDbArc
 50
120.240317
 51
239.758276
  0
ARC
  5
2CE
330
1F
100
AcDbEntity
  8
0
 62
     7
370
    35
100
AcDbCircle
 10
268.235046
 20
55.425018
 30
0.0
 40
1.417995452880859
100
AcDbArc
 50
300.241732
 51
59.758274
  0
ARC
  5
2CF
330
1F
100
AcDbEntity
  8
0
 62
     7
370
    35
100
AcDbCircle
 10
269.663391
 20
52.974976
 30
0.0
 40
1.417995452880859
100
AcDbArc
 50
120.241724
 51
239.752457
  0
ARC
  5
2D0
330
1F
100
AcDbEntity
  8
0
 62
     7
370
    35
100
AcDbCircle
 10
262.726379
 20
55.425034
 30
0.0
 40
1.417995452880859
100
AcDbArc
 50
300.241732
 51
59.757311
  0
ARC
  5
2D1
330
1F
100
AcDbEntity
  8
0
 62
     7
370
    35
100
AcDbCircle
 10
264.154724
 20
52.975006
 30
0.0
 40
1.417995452880859
100
AcDbArc
 50
120.241724
 51
239.753932
  0
ARC
  5
2D2
330
1F
100
AcDbEntity
  8
0
 62
     7
370
    35
100
AcDbCircle
 10
264.154724
 20
52.975006
 30
0.0
 40
1.417995452880859
100
AcDbArc
 50
120.241724
 51
239.758276
  0
ARC
  5
2D3
330
1F
100
AcDbEntity
  8
0
 62
     7
370
    35
100
AcDbCircle
 10
262.726379
 20
52.975006
 30
0.0
 40
1.417995452880859
100
AcDbArc
 50
300.243966
 51
59.758274
  0
LINE
  5
2D4
330
1F
100
AcDbEntity
  8
0
 62
     7
370
    35
100
AcDbLine
 10
249.557114
 20
51.750015
 30
0.0
 11
263.440582
 21
51.750015
 31
0.0
  0
LINE
  5
2D5
330
1F
100
AcDbEntity
  8
0
 62
     7
370
    35
100
AcDbLine
 10
249.557114
 20
56.65004
 30
0.0
 11
263.440552
 21
56.65004
 31
0.0
  0
LINE
  5
2D6
330
1F
100
AcDbEntity
  8
0
 62
     7
370
    35
100
AcDbLine
 10
268.949249
 20
56.650055
 30
0.0
 11
280.251221
 21
56.650055
 31
0.0
  0
LINE
  5
2D7
330
1F
100
AcDbEntity
  8
0
 62
     7
370
    35
100
AcDbLine
 10
268.949097
 20
51.750031
 30
0.0
 11
280.251221
 21
51.750031
 31
0.0
  0
ENDSEC
  0
SECTION
  2
OBJECTS
  0
DICTIONARY
  5
C
330
0
100
AcDbDictionary
281
     1
  3
ACAD_GROUP
350
D
  3
ACAD_LAYOUT
350
1A
  3
ACAD_MLINESTYLE
350
17
  3
ACAD_PLOTSETTINGS
350
19
  3
ACAD_PLOTSTYLENAME
350
E
  3
ACAD_SCALELIST
350
47
  0
DICTIONARY
  5
D
102
{ACAD_REACTORS
330
C
102
}
330
C
100
AcDbDictionary
281
     1
  0
DICTIONARY
  5
1A
102
{ACAD_REACTORS
330
C
102
}
330
C
100
AcDbDictionary
281
     1
  3
Layout1
350
1E
  3
Layout2
350
26
  3
Model
350
22
  0
DICTIONARY
  5
17
102
{ACAD_REACTORS
330
C
102
}
330
C
100
AcDbDictionary
281
     1
  3
Standard
350
18
  0
DICTIONARY
  5
19
102
{ACAD_REACTORS
330
C
102
}
330
C
100
AcDbDictionary
281
     1
  0
ACDBDICTIONARYWDFLT
  5
E
102
{ACAD_REACTORS
330
C
102
}
330
C
100
AcDbDictionary
281
     1
  3
Normal
350
F
100
AcDbDictionaryWithDefault
340
F
  0
DICTIONARY
  5
47
102
{ACAD_REACTORS
330
C
102
}
330
C
100
AcDbDictionary
281
     1
  3
A0
350
48
  3
A1
350
49
  3
A2
350
4A
  3
A3
350
4B
  3
A4
350
4C
  3
A5
350
4D
  3
A6
350
4E
  3
A7
350
4F
  3
A8
350
50
  3
A9
350
51
  3
B0
350
52
  3
B1
350
53
  3
B2
350
54
  3
B3
350
55
  3
B4
350
56
  3
B5
350
57
  3
B6
350
58
  3
B7
350
59
  3
B8
350
5A
  3
B9
350
5B
  3
C0
350
5C
  3
C1
350
5D
  3
C2
350
5E
  3
C3
350
5F
  3
C4
350
60
  3
C5
350
61
  3
C6
350
62
  3
C7
350
63
  3
C8
350
64
  3
C9
350
65
  3
D0
350
66
  3
D1
350
67
  3
D2
350
68
  0
LAYOUT
  5
1E
102
{ACAD_REACTORS
330
1A
102
}
330
1A
100
AcDbPlotSettings
  1

  2
none_device
  4

  6

 40
0.0
 41
0.0
 42
0.0
 43
0.0
 44
0.0
 45
0.0
 46
0.0
 47
0.0
 48
0.0
 49
0.0
140
0.0
141
0.0
142
1.0
143
1.0
 70
  4784
 72
     0
 73
     0
 74
     5
  7

 75
    16
147
1.0
148
0.0
149
0.0
100
AcDbLayout
  1
Layout1
 70
     1
 71
     1
 10
0.0
 20
0.0
 11
420.0
 21
297.0
 12
0.0
 22
0.0
 32
0.0
 14
0.0
 24
0.0
 34
0.0
 15
329.751221
 25
204.199982
 35
2.0
146
0.0
 13
0.0
 23
0.0
 33
0.0
 16
1.0
 26
0.0
 36
0.0
 17
0.0
 27
1.0
 37
0.0
 76
     0
330
1B
  0
LAYOUT
  5
26
102
{ACAD_REACTORS
330
1A
102
}
330
1A
100
AcDbPlotSettings
  1

  2
none_device
  4

  6

 40
0.0
 41
0.0
 42
0.0
 43
0.0
 44
0.0
 45
0.0
 46
0.0
 47
0.0
 48
0.0
 49
0.0
140
0.0
141
0.0
142
1.0
143
1.0
 70
  4784
 72
     0
 73
     0
 74
     5
  7

 75
    16
147
1.0
148
0.0
149
0.0
100
AcDbLayout
  1
Layout2
 70
     1
 71
     2
 10
0.0
 20
0.0
 11
0.0
 21
0.0
 12
0.0
 22
0.0
 32
0.0
 14
0.0
 24
0.0
 34
0.0
 15
0.0
 25
0.0
 35
0.0
146
0.0
 13
0.0
 23
0.0
 33
0.0
 16
1.0
 26
0.0
 36
0.0
 17
0.0
 27
1.0
 37
0.0
 76
     0
330
23
  0
LAYOUT
  5
22
102
{ACAD_REACTORS
330
1A
102
}
330
1A
100
AcDbPlotSettings
  1

  2
none_device
  4
Letter_(8.50_x_11.00_Inches)
  6

 40
6.35
 41
6.35
 42
6.350005
 43
6.350005
 44
215.9
 45
279.4
 46
0.0
 47
0.0
 48
0.0
 49
0.0
140
0.0
141
0.0
142
1.0
143
1.0
 70
  5808
 72
     0
 73
     0
 74
     0
  7

 75
     0
147
1.0
148
0.0
149
0.0
100
AcDbLayout
  1
Model
 70
     1
 71
     0
 10
0.0
 20
0.0
 11
420.0
 21
297.0
 12
0.0
 22
0.0
 32
0.0
 14
0.0
 24
0.0
 34
0.0
 15
329.751221
 25
204.199982
 35
2.0
146
0.0
 13
0.0
 23
0.0
 33
0.0
 16
1.0
 26
0.0
 36
0.0
 17
0.0
 27
1.0
 37
0.0
 76
     0
330
1F
331
29
  0
MLINESTYLE
  5
18
102
{ACAD_REACTORS
330
17
102
}
330
17
100
AcDbMlineStyle
  2
Standard
 70
     0
  3

 62
   256
 51
90.0
 52
90.0
 71
     2
 49
0.5
 62
   256
  6
BYLAYER
 49
-0.5
 62
   256
  6
BYLAYER
  0
ACDBPLACEHOLDER
  5
F
102
{ACAD_REACTORS
330
E
102
}
330
E
  0
SCALE
  5
48
102
{ACAD_REACTORS
330
47
102
}
330
47
100
AcDbScale
 70
     0
300
1:1
140
1.0
141
1.0
290
     1
  0
SCALE
  5
49
102
{ACAD_REACTORS
330
47
102
}
330
47
100
AcDbScale
 70
     0
300
1:2
140
1.0
141
2.0
290
     0
  0
SCALE
  5
4A
102
{ACAD_REACTORS
330
47
102
}
330
47
100
AcDbScale
 70
     0
300
1:4
140
1.0
141
4.0
290
     0
  0
SCALE
  5
4B
102
{ACAD_REACTORS
330
47
102
}
330
47
100
AcDbScale
 70
     0
300
1:5
140
1.0
141
5.0
290
     0
  0
SCALE
  5
4C
102
{ACAD_REACTORS
330
47
102
}
330
47
100
AcDbScale
 70
     0
300
1:8
140
1.0
141
8.0
290
     0
  0
SCALE
  5
4D
102
{ACAD_REACTORS
330
47
102
}
330
47
100
AcDbScale
 70
     0
300
1:10
140
1.0
141
10.0
290
     0
  0
SCALE
  5
4E
102
{ACAD_REACTORS
330
47
102
}
330
47
100
AcDbScale
 70
     0
300
1:16
140
1.0
141
16.0
290
     0
  0
SCALE
  5
4F
102
{ACAD_REACTORS
330
47
102
}
330
47
100
AcDbScale
 70
     0
300
1:20
140
1.0
141
20.0
290
     0
  0
SCALE
  5
50
102
{ACAD_REACTORS
330
47
102
}
330
47
100
AcDbScale
 70
     0
300
1:30
140
1.0
141
30.0
290
     0
  0
SCALE
  5
51
102
{ACAD_REACTORS
330
47
102
}
330
47
100
AcDbScale
 70
     0
300
1:40
140
1.0
141
40.0
290
     0
  0
SCALE
  5
52
102
{ACAD_REACTORS
330
47
102
}
330
47
100
AcDbScale
 70
     0
300
1:50
140
1.0
141
50.0
290
     0
  0
SCALE
  5
53
102
{ACAD_REACTORS
330
47
102
}
330
47
100
AcDbScale
 70
     0
300
1:100
140
1.0
141
100.0
290
     0
  0
SCALE
  5
54
102
{ACAD_REACTORS
330
47
102
}
330
47
100
AcDbScale
 70
     0
300
2:1
140
2.0
141
1.0
290
     0
  0
SCALE
  5
55
102
{ACAD_REACTORS
330
47
102
}
330
47
100
AcDbScale
 70
     0
300
4:1
140
4.0
141
1.0
290
     0
  0
SCALE
  5
56
102
{ACAD_REACTORS
330
47
102
}
330
47
100
AcDbScale
 70
     0
300
8:1
140
8.0
141
1.0
290
     0
  0
SCALE
  5
57
102
{ACAD_REACTORS
330
47
102
}
330
47
100
AcDbScale
 70
     0
300
10:1
140
10.0
141
1.0
290
     0
  0
SCALE
  5
58
102
{ACAD_REACTORS
330
47
102
}
330
47
100
AcDbScale
 70
     0
300
100:1
140
100.0
141
1.0
290
     0
  0
SCALE
  5
59
102
{ACAD_REACTORS
330
47
102
}
330
47
100
AcDbScale
 70
     0
300
1/128" = 1'-0"
140
0.007812
141
12.0
290
     0
  0
SCALE
  5
5A
102
{ACAD_REACTORS
330
47
102
}
330
47
100
AcDbScale
 70
     0
300
1/64" = 1'-0"
140
0.015625
141
12.0
290
     0
  0
SCALE
  5
5B
102
{ACAD_REACTORS
330
47
102
}
330
47
100
AcDbScale
 70
     0
300
1/32" = 1'-0"
140
0.03125
141
12.0
290
     0
  0
SCALE
  5
5C
102
{ACAD_REACTORS
330
47
102
}
330
47
100
AcDbScale
 70
     0
300
1/16" = 1'-0"
140
0.0625
141
12.0
290
     0
  0
SCALE
  5
5D
102
{ACAD_REACTORS
330
47
102
}
330
47
100
AcDbScale
 70
     0
300
3/32" = 1'-0"
140
0.09375
141
12.0
290
     0
  0
SCALE
  5
5E
102
{ACAD_REACTORS
330
47
102
}
330
47
100
AcDbScale
 70
     0
300
1/8" = 1'-0"
140
0.125
141
12.0
290
     0
  0
SCALE
  5
5F
102
{ACAD_REACTORS
330
47
102
}
330
47
100
AcDbScale
 70
     0
300
3/16" = 1'-0"
140
0.1875
141
12.0
290
     0
  0
SCALE
  5
60
102
{ACAD_REACTORS
330
47
102
}
330
47
100
AcDbScale
 70
     0
300
1/4" = 1'-0"
140
0.25
141
12.0
290
     0
  0
SCALE
  5
61
102
{ACAD_REACTORS
330
47
102
}
330
47
100
AcDbScale
 70
     0
300
3/8" = 1'-0"
140
0.375
141
12.0
290
     0
  0
SCALE
  5
62
102
{ACAD_REACTORS
330
47
102
}
330
47
100
AcDbScale
 70
     0
300
1/2" = 1'-0"
140
0.5
141
12.0
290
     0
  0
SCALE
  5
63
102
{ACAD_REACTORS
330
47
102
}
330
47
100
AcDbScale
 70
     0
300
3/4" = 1'-0"
140
0.75
141
12.0
290
     0
  0
SCALE
  5
64
102
{ACAD_REACTORS
330
47
102
}
330
47
100
AcDbScale
 70
     0
300
1" = 1'-0"
140
1.0
141
12.0
290
     0
  0
SCALE
  5
65
102
{ACAD_REACTORS
330
47
102
}
330
47
100
AcDbScale
 70
     0
300
1-1/2" = 1'-0"
140
1.5
141
12.0
290
     0
  0
SCALE
  5
66
102
{ACAD_REACTORS
330
47
102
}
330
47
100
AcDbScale
 70
     0
300
3" = 1'-0"
140
3.0
141
12.0
290
     0
  0
SCALE
  5
67
102
{ACAD_REACTORS
330
47
102
}
330
47
100
AcDbScale
 70
     0
300
6" = 1'-0"
140
6.0
141
12.0
290
     0
  0
SCALE
  5
68
102
{ACAD_REACTORS
330
47
102
}
330
47
100
AcDbScale
 70
     0
300
1'-0" = 1'-0"
140
12.0
141
12.0
290
     0
  0
ENDSEC
  0
EOF
