  0
SECTION
  2
HEADER
  9
$ACADVER
  1
AC1009
  9
$INSBASE
 10
0
 20
0
 30
0
  9
$EXTMIN
 10
0
 20
0
  9
$EXTMAX
 10
420.5
 20
297
  9
$LIMMIN
 10
0
 20
0
  9
$LIMMAX
 10
420.5
 20
297
  9
$LTSCALE
 40
0.5
  0
ENDSEC
  0
SECTION
  2
TABLES
  0
TABLE
  2
LTYPE
 70
     9
  0
LTYPE
  2
CONTINUOUS
 70
    64
  3
実線
 72
    65
 73
     0
 40
0.0
  0
LTYPE
  2
DASHED1
 70
    64
  3
--  --  --  --  --  --  --  --  
 72
    65
 73
     2
 40
2.5
 49
1.25
 49
-1.25
  0
LTYPE
  2
DASHED2
 70
    64
  3
----    ----    ----    ----    
 72
    65
 73
     2
 40
5.0
 49
2.5
 49
-2.5
  0
LTYPE
  2
DASHED3
 70
    64
  3
------  ------  ------  ------  
 72
    65
 73
     2
 40
5.0
 49
3.75
 49
-1.25
  0
LTYPE
  2
CENTER1
 70
    64
  3
----- - ----- - ----- - ----- - 
 72
    65
 73
     4
 40
10.0
 49
6.25
 49
-1.25
 49
1.25
 49
-1.25
  0
LTYPE
  2
CENTER2
 70
    64
  3
----------  --  ----------  --  
 72
    65
 73
     4
 40
20.0
 49
12.5
 49
-2.5
 49
2.5
 49
-2.5
  0
LTYPE
  2
PHANTOM1
 70
    64
  3
--- - - --- - - --- - - --- - - 
 72
    65
 73
     6
 40
10.0
 49
3.25
 49
-1.25
 49
1.25
 49
-1.25
 49
1.25
 49
-1.25
  0
LTYPE
  2
PHANTOM2
 70
    64
  3
--------  -  -  --------  -  -  
 72
    65
 73
     6
 40
20.0
 49
10.0
 49
-2.5
 49
1.25
 49
-2.5
 49
1.25
 49
-2.5
  0
LTYPE
  2
DOT
 70
    64
  3
-   -   -   -   -   -   -   -   
 72
    65
 73
     2
 40
2.5
 49
0.625
 49
-1.875
  0
LTYPE
  2
DUMMY
 70
    64
  3
ダミー
 72
    65
 73
     0
 40
0.0
  0
LTYPE
  2
RAND1
 70
    64
  3
ランダム線1
 72
    65
 73
     4
 40
10.0
 49
1.0
 49
-2.0
 49
3.0
 49
-4.0
  0
LTYPE
  2
RAND2
 70
    64
  3
ランダム線2
 72
    65
 73
     4
 40
14.0
 49
2.0
 49
-3.0
 49
4.0
 49
-5.0
  0
LTYPE
  2
RAND3
 70
    64
  3
ランダム線3
 72
    65
 73
     4
 40
18.0
 49
3.0
 49
-4.0
 49
5.0
 49
-6.0
  0
LTYPE
  2
RAND4
 70
    64
  3
ランダム線4
 72
    65
 73
     4
 40
22.0
 49
4.0
 49
-5.0
 49
6.0
 49
-7.0
  0
LTYPE
  2
RAND5
 70
    64
  3
ランダム線5
 72
    65
 73
     4
 40
26.0
 49
5.0
 49
-6.0
 49
7.0
 49
-8.0
  0
LTYPE
  2
LONG1
 70
    64
  3
----------  --  ----------  --  
 72
    65
 73
     4
 40
40.0
 49
32.5
 49
-2.5
 49
2.5
 49
-2.5
  0
LTYPE
  2
LONG2
 70
    64
  3
--------  -  -  --------  -  -  
 72
    65
 73
     6
 40
40.0
 49
30.0
 49
-2.5
 49
1.25
 49
-2.5
 49
1.25
 49
-2.5
  0
LTYPE
  2
LONG3
 70
    64
  3
+++++++++++++++..+++++++++++++++
 72
    65
 73
     2
 40
40.0
 49
37.5
 49
-2.5
  0
LTYPE
  2
LONG4
 70
    64
  3
+++++++++++++++..+++++++++++++++
 72
    65
 73
     2
 40
80.0
 49
75.0
 49
-5.0
  0
LTYPE
  2
LONG5
 70
    64
  3
----------  --  ----------  --  
 72
    65
 73
     4
 40
60.0
 49
37.5
 49
-7.5
 49
7.5
 49
-7.5
  0
LTYPE
  2
dashed
 70
   64
  3
-------   -------------   ------
 72
   65
 73
    2
 40
7.5
 49
6
 49
-1.5
  0
LTYPE
  2
dashed_spaced
 70
   64
  3
----        --------        ----
 72
   65
 73
    2
 40
12
 49
6
 49
-6
  0
LTYPE
  2
long_dashed_dotted
 70
   64
  3
------------- --- --------------
 72
   65
 73
    4
 40
15.25
 49
12
 49
-1.5
 49
0.25
 49
-1.5
  0
LTYPE
  2
long_dashed_double-dotted
 70
   64
  3
----------- --- --- ------------
 72
   65
 73
    6
 40
17
 49
12
 49
-1.5
 49
0.25
 49
-1.5
 49
0.25
 49
-1.5
  0
LTYPE
  2
long_dashed_triplicate-dotted
 70
   64
  3
--------- --- --- --- ----------
 72
   65
 73
    8
 40
18.75
 49
12
 49
-1.5
 49
0.25
 49
-1.5
 49
0.25
 49
-1.5
 49
0.25
 49
-1.5
  0
LTYPE
  2
dotted
 70
   64
  3
   -       -       -       -    
 72
   65
 73
    2
 40
1.75
 49
0.25
 49
-1.5
  0
LTYPE
  2
chain
 70
   64
  3
-------------- -- --------------
 72
   65
 73
    4
 40
18.5
 49
12
 49
-1.5
 49
3.5
 49
-1.5
  0
LTYPE
  2
chain_double_dash
 70
   64
  3
------------ -- -- -------------
 72
   65
 73
    6
 40
23.5
 49
12
 49
-1.5
 49
3.5
 49
-1.5
 49
3.5
 49
-1.5
  0
LTYPE
  2
dashed_dotted
 70
   64
  3
-----------     -     ----------
 72
   65
 73
    4
 40
9.25
 49
6
 49
-1.5
 49
0.25
 49
-1.5
  0
LTYPE
  2
double-dashed_dotted
 70
   64
  3
------   -----------   -   -----
 72
   65
 73
    6
 40
16.75
 49
6
 49
-1.5
 49
6
 49
-1.5
 49
0.25
 49
-1.5
  0
LTYPE
  2
dashed_double-dotted
 70
   64
  3
---------    -    -    ---------
 72
   65
 73
    6
 40
11
 49
6
 49
-1.5
 49
0.25
 49
-1.5
 49
0.25
 49
-1.5
  0
LTYPE
  2
double-dashed_double-dotted
 70
   64
  3
-----   ---------   -   -   ----
 72
   65
 73
    8
 40
18.5
 49
6
 49
-1.5
 49
6
 49
-1.5
 49
0.25
 49
-1.5
 49
0.25
 49
-1.5
  0
LTYPE
  2
dashed_triplicate-dotted
 70
   64
  3
-------    -    -    -    ------
 72
   65
 73
    8
 40
12.75
 49
6
 49
-1.5
 49
0.25
 49
-1.5
 49
0.25
 49
-1.5
 49
0.25
 49
-1.5
  0
LTYPE
  2
double-dashed_triplicate-dotted
 70
   64
  3
-----  ---------  -  -  -  -----
 72
   65
 73
   10
 40
20.25
 49
6
 49
-1.5
 49
6
 49
-1.5
 49
0.25
 49
-1.5
 49
0.25
 49
-1.5
 49
0.25
 49
-1.5
  0
LTYPE
  2
undefined
 70
   64
  3
--------------------------------
 72
   65
 73
    0
 40
0
  0
ENDTAB
  0
TABLE
  2
STYLE
  5
3
100
AcDbSymbolTable
 70
     1
  0
STYLE
  5
10
100
AcDbSymbolTableRecord
100
AcDbTextStyleTableRecord
  2
STANDARD
 70
     0
 40
0.0
 41
1.0
 50
0.0
 71
     0
 42
0.2
  3
txt
  4
bigfont.shx
  0
STYLE
  5
26
100
AcDbSymbolTableRecord
100
AcDbTextStyleTableRecord
  2
TATEGAKI
 70
    68
 40
0.0
 41
1.0
 50
0.0
 71
     0
 42
1.0
  3
txt
  4
bigfont.shx
  0
ENDTAB
  0
TABLE
  2
LAYER
 70
    2
  0
LAYER
  2
_0-0_0
 70
   64
 62
    7
  6
CONTINUOUS
  0
LAYER
  2
ADD_LINE
 70
   64
 62
    7
  6
CONTINUOUS
  0
ENDTAB
  0
ENDSEC
  0
SECTION
  2
BLOCKS
  0
ENDSEC
  0
SECTION
  2
ENTITIES
  0
ARC
  8
_0-0_0
  6
CONTINUOUS
 62
    7
 10
73.813110000000023
 20
214.60000600000001
 40
0.2
 50
269.99999700000001
 51
20.376440000000013
  0
LINE
  8
_0-0_0
  6
CONTINUOUS
 62
    7
 10
74.000580000000042
 20
214.66963200000001
 11
72.700592000000029
 21
218.16963200000001
  0
ARC
  8
_0-0_0
  6
CONTINUOUS
 62
    7
 10
72.513092000000029
 20
218.10000600000001
 40
0.2
 50
20.376439999999999
 51
159.62355600000001
  0
LINE
  8
_0-0_0
  6
CONTINUOUS
 62
    7
 10
71.025620000000032
 20
214.66963200000001
 11
72.325623000000036
 21
218.16963200000001
  0
ARC
  8
_0-0_0
  6
CONTINUOUS
 62
    7
 10
71.213104000000016
 20
214.60000600000001
 40
0.2
 50
159.62355600000001
 51
269.99999700000001
  0
LINE
  8
_0-0_0
  6
CONTINUOUS
 62
    7
 10
71.213104000000016
 20
214.39999399999999
 11
73.813110000000023
 21
214.39999399999999
  0
LINE
  8
_0-0_0
  6
CONTINUOUS
 62
    7
 10
-10.920440999999983
 20
263.589539
 11
-10.920440999999983
 21
263.58853099999999
  0
LINE
  8
_0-0_0
  6
CONTINUOUS
 62
    7
 10
25.013092000000029
 20
222.5
 11
30.013092000000029
 21
222.5
  0
LINE
  8
_0-0_0
  6
CONTINUOUS
 62
    7
 10
30.013092000000029
 20
222.5
 11
31.813095000000033
 21
222.5
  0
LINE
  8
_0-0_0
  6
CONTINUOUS
 62
    7
 10
31.813095000000033
 20
222.5
 11
32.513092000000029
 21
222.5
  0
ARC
  8
_0-0_0
  6
CONTINUOUS
 62
    7
 10
31.813095000000033
 20
222
 40
0.5
 50
0
 51
90.000003000000007
  0
ARC
  8
_0-0_0
  6
CONTINUOUS
 62
    7
 10
25.013092000000029
 20
222
 40
0.5
 50
90.000003000000007
 51
179.99999099999999
  0
ARC
  8
_0-0_0
  6
CONTINUOUS
 62
    7
 10
128.51309200000003
 20
222
 40
0.5
 50
0
 51
90.000003000000007
  0
LINE
  8
_0-0_0
  6
CONTINUOUS
 62
    7
 10
32.513092000000029
 20
222.5
 11
32.513092000000029
 21
221
  0
LINE
  8
_0-0_0
  6
CONTINUOUS
 62
    7
 10
32.513092000000029
 20
223
 11
32.513092000000029
 21
222.5
  0
LINE
  8
_0-0_0
  6
CONTINUOUS
 62
    7
 10
32.513092000000029
 20
223.5
 11
32.513092000000029
 21
223
  0
LINE
  8
_0-0_0
  6
CONTINUOUS
 62
    7
 10
32.513092000000029
 20
224.5
 11
32.513092000000029
 21
223.5
  0
LINE
  8
_0-0_0
  6
CONTINUOUS
 62
    7
 10
36.513092000000029
 20
222.5
 11
37.213104000000044
 21
222.5
  0
LINE
  8
_0-0_0
  6
CONTINUOUS
 62
    7
 10
32.313095000000033
 20
222
 11
32.313095000000033
 21
221
  0
LINE
  8
_0-0_0
  6
CONTINUOUS
 62
    7
 10
35.513092000000029
 20
195.5
 11
35.513092000000029
 21
197.10000600000001
  0
LINE
  8
_0-0_0
  6
CONTINUOUS
 62
    7
 10
35.513092000000029
 20
195.5
 11
30.013092000000029
 21
195.5
  0
LINE
  8
_0-0_0
  6
CONTINUOUS
 62
    7
 10
51.513092000000029
 20
202.199997
 11
93.513092000000029
 21
202.199997
  0
LINE
  8
_0-0_0
  6
CONTINUOUS
 62
    7
 10
51.513092000000029
 20
221.800003
 11
93.513092000000029
 21
221.800003
  0
LINE
  8
_0-0_0
  6
CONTINUOUS
 62
    7
 10
115.01309200000003
 20
195.5
 11
105.51309200000003
 21
195.5
  0
LINE
  8
_0-0_0
  6
CONTINUOUS
 62
    7
 10
105.51309200000003
 20
195.5
 11
105.51309200000003
 21
197.10000600000001
  0
ARC
  8
_0-0_0
  6
CONTINUOUS
 62
    7
 10
105.21310400000002
 20
197.10000600000001
 40
0.2999999999999999
 50
0
 51
90.000003000000007
  0
LINE
  8
_0-0_0
  6
CONTINUOUS
 62
    7
 10
104.51309200000003
 20
197.39999399999999
 11
105.21310400000002
 21
197.39999399999999
  0
LINE
  8
_0-0_0
  6
CONTINUOUS
 62
    7
 10
104.01309200000003
 20
197.800003
 11
104.51309200000003
 21
197.800003
  0
LINE
  8
_0-0_0
  6
CONTINUOUS
 62
    7
 10
90.513092000000029
 20
197.800003
 11
104.01309200000003
 21
197.800003
  0
ARC
  8
_0-0_0
  6
CONTINUOUS
 62
    7
 10
88.013092000000029
 20
197.800003
 40
2.5
 50
0
 51
90.000003000000007
  0
LINE
  8
_0-0_0
  6
CONTINUOUS
 62
    7
 10
57.013092000000029
 20
200.300003
 11
88.013092000000029
 21
200.300003
  0
ARC
  8
_0-0_0
  6
CONTINUOUS
 62
    7
 10
57.013092000000029
 20
197.800003
 40
2.5
 50
90.000003000000007
 51
179.99999099999999
  0
LINE
  8
_0-0_0
  6
CONTINUOUS
 62
    7
 10
37.013092000000029
 20
197.800003
 11
54.513092000000029
 21
197.800003
  0
LINE
  8
_0-0_0
  6
CONTINUOUS
 62
    7
 10
36.513092000000029
 20
197.800003
 11
37.013092000000029
 21
197.800003
  0
LINE
  8
_0-0_0
  6
CONTINUOUS
 62
    7
 10
35.813095000000033
 20
197.39999399999999
 11
36.513092000000029
 21
197.39999399999999
  0
ARC
  8
_0-0_0
  6
CONTINUOUS
 62
    7
 10
35.813095000000033
 20
197.10000600000001
 40
0.2999999999999999
 50
90.000003000000007
 51
179.99999099999999
  0
LINE
  8
_0-0_0
  6
CONTINUOUS
 62
    7
 10
24.513092000000029
 20
220.22485399999999
 11
24.513092000000029
 21
222
  0
LINE
  8
_0-0_0
  6
CONTINUOUS
 62
    7
 10
29.513092000000029
 20
222.5
 11
29.513092000000029
 21
222.89999399999999
  0
LINE
  8
_0-0_0
  6
CONTINUOUS
 62
    7
 10
29.513092000000029
 20
223.39999399999999
 11
29.513092000000029
 21
222.89999399999999
  0
LINE
  8
_0-0_0
  6
CONTINUOUS
 62
    7
 10
129.01309200000003
 20
224.5
 11
129.01309200000003
 21
223
  0
LINE
  8
_0-0_0
  6
CONTINUOUS
 62
    7
 10
129.01309200000003
 20
223
 11
129.01309200000003
 21
222
  0
LINE
  8
_0-0_0
  6
CONTINUOUS
 62
    7
 10
129.01309200000003
 20
221.199997
 11
129.01309200000003
 21
222
  0
LINE
  8
_0-0_0
  6
CONTINUOUS
 62
    7
 10
128.51309200000003
 20
222.5
 11
129.01309200000003
 21
222.5
  0
LINE
  8
_0-0_0
  6
CONTINUOUS
 62
    7
 10
116.01309200000003
 20
222.5
 11
128.51309200000003
 21
222.5
  0
LINE
  8
_0-0_0
  6
CONTINUOUS
 62
    7
 10
129.01309200000003
 20
224.5
 11
129.01309200000003
 21
223.5
  0
LINE
  8
_0-0_0
  6
CONTINUOUS
 62
    7
 10
129.01309200000003
 20
223
 11
129.01309200000003
 21
222.5
  0
LINE
  8
_0-0_0
  6
CONTINUOUS
 62
    7
 10
129.01309200000003
 20
223.5
 11
129.01309200000003
 21
223
  0
ARC
  8
_0-0_0
  6
CONTINUOUS
 62
    7
 10
34.513092000000029
 20
221
 40
2
 50
179.99999099999999
 51
0
  0
LINE
  8
_0-0_0
  6
CONTINUOUS
 62
    7
 10
115.51309200000003
 20
222.5
 11
116.01309200000003
 21
222.5
  0
LINE
  8
_0-0_0
  6
CONTINUOUS
 62
    7
 10
115.51309200000003
 20
222
 11
115.51309200000003
 21
222.5
  0
LINE
  8
_0-0_0
  6
CONTINUOUS
 62
    7
 10
115.51309200000003
 20
221
 11
115.51309200000003
 21
221.199997
  0
ARC
  8
_0-0_0
  6
CONTINUOUS
 62
    7
 10
113.51309200000003
 20
221
 40
2
 50
179.99999099999999
 51
0
  0
LINE
  8
_0-0_0
  6
CONTINUOUS
 62
    7
 10
111.51309200000003
 20
222.5
 11
111.51309200000003
 21
221
  0
LINE
  8
_0-0_0
  6
CONTINUOUS
 62
    7
 10
110.81311000000002
 20
222.5
 11
111.51309200000003
 21
222.5
  0
LINE
  8
_0-0_0
  6
CONTINUOUS
 62
    7
 10
36.513092000000029
 20
221
 11
36.513092000000029
 21
222.5
  0
LINE
  8
_0-0_0
  6
CONTINUOUS
 62
    7
 10
32.513092000000029
 20
223.5
 11
129.01309200000003
 21
223.5
  0
ARC
  8
_0-0_0
  6
CONTINUOUS
 62
    7
 10
37.213104000000044
 20
222
 40
0.5
 50
90.000003000000007
 51
179.99999099999999
  0
ARC
  8
_0-0_0
  6
CONTINUOUS
 62
    7
 10
34.513092000000029
 20
221
 40
2.2000000000000002
 50
179.99999099999999
 51
0
  0
LINE
  8
_0-0_0
  6
CONTINUOUS
 62
    7
 10
36.513092000000029
 20
197.39999399999999
 11
37.013092000000029
 21
197.39999399999999
  0
LINE
  8
_0-0_0
  6
CONTINUOUS
 62
    7
 10
37.013092000000029
 20
197.800003
 11
37.013092000000029
 21
197.39999399999999
  0
LINE
  8
_0-0_0
  6
CONTINUOUS
 62
    7
 10
54.513092000000029
 20
197.800003
 11
90.513092000000029
 21
197.800003
  0
LINE
  8
_0-0_0
  6
CONTINUOUS
 62
    7
 10
104.01309200000003
 20
197.39999399999999
 11
104.51309200000003
 21
197.39999399999999
  0
LINE
  8
_0-0_0
  6
CONTINUOUS
 62
    7
 10
104.01309200000003
 20
197.800003
 11
104.01309200000003
 21
197.39999399999999
  0
LINE
  8
_0-0_0
  6
CONTINUOUS
 62
    7
 10
115.01309200000003
 20
195
 11
106.01309200000003
 21
195
  0
ARC
  8
_0-0_0
  6
CONTINUOUS
 62
    7
 10
106.01309200000003
 20
195.5
 40
0.5
 50
179.99999099999999
 51
269.99999700000001
  0
LINE
  8
_0-0_0
  6
CONTINUOUS
 62
    7
 10
115.01309200000003
 20
195.5
 11
115.51309200000003
 21
195.5
  0
LINE
  8
_0-0_0
  6
CONTINUOUS
 62
    7
 10
115.51309200000003
 20
195.5
 11
115.51309200000003
 21
195.699997
  0
LINE
  8
_0-0_0
  6
CONTINUOUS
 62
    7
 10
120.01309200000003
 20
195.89999399999999
 11
115.71310400000002
 21
195.89999399999999
  0
LINE
  8
_0-0_0
  6
CONTINUOUS
 62
    7
 10
120.51309200000003
 20
196.39999399999999
 11
120.51309200000003
 21
198.17514
  0
ARC
  8
_0-0_0
  6
CONTINUOUS
 62
    7
 10
117.46514900000003
 20
198.11901900000001
 40
3.0490550000000001
 50
1.0548960000000001
 51
14.838094000000002
  0
LINE
  8
_0-0_0
  6
CONTINUOUS
 62
    7
 10
120.01309200000003
 20
199.10000600000001
 11
115.64556900000002
 21
199.10000600000001
  0
LINE
  8
_0-0_0
  6
CONTINUOUS
 62
    7
 10
115.51309200000003
 20
199.24144000000001
 11
115.51309200000003
 21
199.34643600000001
  0
ARC
  8
_0-0_0
  6
CONTINUOUS
 62
    7
 10
113.51309200000003
 20
221
 40
2.2000000000000002
 50
179.99999099999999
 51
303.74900400000001
  0
LINE
  8
_0-0_0
  6
CONTINUOUS
 62
    7
 10
111.31311000000002
 20
222
 11
111.31311000000002
 21
221
  0
LINE
  8
_0-0_0
  6
CONTINUOUS
 62
    7
 10
110.81311000000002
 20
222.5
 11
37.213104000000044
 21
222.5
  0
LINE
  8
_0-0_0
  6
CONTINUOUS
 62
    7
 10
36.713104000000044
 20
221
 11
36.713104000000044
 21
222
  0
LINE
  8
_0-0_0
  6
CONTINUOUS
 62
    7
 10
37.213104000000044
 20
220.800003
 11
37.213104000000044
 21
221
  0
ARC
  8
_0-0_0
  6
CONTINUOUS
 62
    7
 10
38.213104000000044
 20
220.800003
 40
1
 50
90.000003000000007
 51
179.99999099999999
  0
LINE
  8
_0-0_0
  6
CONTINUOUS
 62
    7
 10
38.213104000000044
 20
221.800003
 11
51.513092000000029
 21
221.800003
  0
LINE
  8
_0-0_0
  6
CONTINUOUS
 62
    7
 10
93.513092000000029
 20
221.800003
 11
107.51309200000003
 21
221.800003
  0
ARC
  8
_0-0_0
  6
CONTINUOUS
 62
    7
 10
107.51309200000003
 20
218.800003
 40
3
 50
0
 51
90.000003000000007
  0
LINE
  8
_0-0_0
  6
CONTINUOUS
 62
    7
 10
110.51309200000003
 20
205.199997
 11
110.51309200000003
 21
218.800003
  0
ARC
  8
_0-0_0
  6
CONTINUOUS
 62
    7
 10
107.51309200000003
 20
205.199997
 40
3
 50
269.99999700000001
 51
0
  0
LINE
  8
_0-0_0
  6
CONTINUOUS
 62
    7
 10
107.51309200000003
 20
202.199997
 11
93.513092000000029
 21
202.199997
  0
LINE
  8
_0-0_0
  6
CONTINUOUS
 62
    7
 10
51.513092000000029
 20
202.199997
 11
37.513092000000029
 21
202.199997
  0
ARC
  8
_0-0_0
  6
CONTINUOUS
 62
    7
 10
37.513092000000029
 20
205.199997
 40
3
 50
179.99999099999999
 51
269.99999700000001
  0
LINE
  8
_0-0_0
  6
CONTINUOUS
 62
    7
 10
34.513092000000029
 20
217.43769800000001
 11
34.513092000000029
 21
205.199997
  0
ARC
  8
_0-0_0
  6
CONTINUOUS
 62
    7
 10
35.513092000000029
 20
217.43769800000001
 40
1
 50
105.68034800000001
 51
179.99999100000002
  0
ARC
  8
_0-0_0
  6
CONTINUOUS
 62
    7
 10
27.561066000000039
 20
220.28097500000001
 40
3.0490550000000001
 50
181.05489
 51
194.838089
  0
LINE
  8
_0-0_0
  6
CONTINUOUS
 62
    7
 10
29.380646000000013
 20
219.300003
 11
25.013092000000029
 21
219.300003
  0
LINE
  8
_0-0_0
  6
CONTINUOUS
 62
    7
 10
29.513092000000029
 20
199.24144000000001
 11
29.513092000000029
 21
199.541687
  0
LINE
  8
_0-0_0
  6
CONTINUOUS
 62
    7
 10
29.380646000000013
 20
199.10000600000001
 11
25.013092000000029
 21
199.10000600000001
  0
ARC
  8
_0-0_0
  6
CONTINUOUS
 62
    7
 10
27.562241000000029
 20
198.118347
 40
3.050319
 50
165.15540799999999
 51
178.932897
  0
LINE
  8
_0-0_0
  6
CONTINUOUS
 62
    7
 10
24.513092000000029
 20
196.39999399999999
 11
24.513092000000029
 21
198.17514
  0
LINE
  8
_0-0_0
  6
CONTINUOUS
 62
    7
 10
29.313095000000033
 20
195.89999399999999
 11
25.013092000000029
 21
195.89999399999999
  0
LINE
  8
_0-0_0
  6
CONTINUOUS
 62
    7
 10
29.513092000000029
 20
195.5
 11
29.513092000000029
 21
195.699997
  0
LINE
  8
_0-0_0
  6
CONTINUOUS
 62
    7
 10
29.513092000000029
 20
195.5
 11
30.013092000000029
 21
195.5
  0
LINE
  8
_0-0_0
  6
CONTINUOUS
 62
    7
 10
35.013092000000029
 20
195
 11
30.013092000000029
 21
195
  0
ARC
  8
_0-0_0
  6
CONTINUOUS
 62
    7
 10
35.013092000000029
 20
195.5
 40
0.5
 50
269.99999700000001
 51
0
  0
LINE
  8
_0-0_0
  6
CONTINUOUS
 62
    7
 10
24.831360000000018
 20
219.300003
 11
24.811005000000023
 21
219.30102500000001
  0
LINE
  8
_0-0_0
  6
CONTINUOUS
 62
    7
 10
24.811005000000023
 20
219.30102500000001
 11
24.79060400000003
 21
219.304169
  0
LINE
  8
_0-0_0
  6
CONTINUOUS
 62
    7
 10
24.79060400000003
 20
219.304169
 11
24.763779000000028
 21
219.31175200000001
  0
LINE
  8
_0-0_0
  6
CONTINUOUS
 62
    7
 10
24.763779000000028
 20
219.31175200000001
 11
24.738129000000015
 21
219.32311999999999
  0
LINE
  8
_0-0_0
  6
CONTINUOUS
 62
    7
 10
24.738129000000015
 20
219.32311999999999
 11
24.714325000000031
 21
219.337997
  0
LINE
  8
_0-0_0
  6
CONTINUOUS
 62
    7
 10
24.714325000000031
 20
219.337997
 11
24.697571000000039
 21
219.35150100000001
  0
LINE
  8
_0-0_0
  6
CONTINUOUS
 62
    7
 10
24.697571000000039
 20
219.35150100000001
 11
24.682068000000015
 21
219.36672999999999
  0
LINE
  8
_0-0_0
  6
CONTINUOUS
 62
    7
 10
24.682068000000015
 20
219.36672999999999
 11
24.655182000000025
 21
219.40138200000001
  0
LINE
  8
_0-0_0
  6
CONTINUOUS
 62
    7
 10
24.655182000000025
 20
219.40138200000001
 11
24.634140000000031
 21
219.439728
  0
LINE
  8
_0-0_0
  6
CONTINUOUS
 62
    7
 10
24.634140000000031
 20
219.439728
 11
24.622131000000024
 21
219.46963500000001
  0
LINE
  8
_0-0_0
  6
CONTINUOUS
 62
    7
 10
24.622131000000024
 20
219.46963500000001
 11
24.613098000000036
 21
219.5
  0
LINE
  8
_0-0_0
  6
CONTINUOUS
 62
    7
 10
29.513092000000029
 20
223.39999399999999
 11
29.513092000000029
 21
224.5
  0
LINE
  8
_0-0_0
  6
CONTINUOUS
 62
    7
 10
24.013092000000029
 20
220.85000600000001
 11
24.513092000000029
 21
220.85000600000001
  0
LINE
  8
_0-0_0
  6
CONTINUOUS
 62
    7
 10
24.013092000000029
 20
223.39999399999999
 11
29.513092000000029
 21
223.39999399999999
  0
ARC
  8
_0-0_0
  6
CONTINUOUS
 62
    7
 10
128.51309200000003
 20
221.199997
 40
0.5
 50
269.99999700000001
 51
0
  0
ARC
  8
_0-0_0
  6
CONTINUOUS
 62
    7
 10
116.01309200000003
 20
222
 40
0.5
 50
90.000003000000007
 51
179.99999099999999
  0
LINE
  8
_0-0_0
  6
CONTINUOUS
 62
    7
 10
115.51309200000003
 20
221.199997
 11
115.51309200000003
 21
222
  0
LINE
  8
_0-0_0
  6
CONTINUOUS
 62
    7
 10
35.713104000000044
 20
197.38284300000001
 11
35.713104000000044
 21
195.39999399999999
  0
LINE
  8
_0-0_0
  6
CONTINUOUS
 62
    7
 10
35.713104000000044
 20
195.39999399999999
 11
36.713104000000044
 21
195.39999399999999
  0
LINE
  8
_0-0_0
  6
CONTINUOUS
 62
    7
 10
37.013092000000029
 20
197.39999399999999
 11
104.01309200000003
 21
197.39999399999999
  0
LINE
  8
_0-0_0
  6
CONTINUOUS
 62
    7
 10
36.713104000000044
 20
195.39999399999999
 11
104.31311000000002
 21
195.39999399999999
  0
LINE
  8
_0-0_0
  6
CONTINUOUS
 62
    7
 10
104.31311000000002
 20
195.39999399999999
 11
105.31311000000002
 21
195.39999399999999
  0
LINE
  8
_0-0_0
  6
CONTINUOUS
 62
    7
 10
105.31311000000002
 20
197.38284300000001
 11
105.31311000000002
 21
195.39999399999999
  0
LINE
  8
_0-0_0
  6
CONTINUOUS
 62
    7
 10
115.51309200000003
 20
195.5
 11
115.01309200000003
 21
195
  0
ARC
  8
_0-0_0
  6
CONTINUOUS
 62
    7
 10
115.71310400000002
 20
195.699997
 40
0.2
 50
90.000003000000007
 51
179.99999099999999
  0
ARC
  8
_0-0_0
  6
CONTINUOUS
 62
    7
 10
120.01309200000003
 20
196.39999399999999
 40
0.5
 50
269.99999700000001
 51
0
  0
LINE
  8
_0-0_0
  6
CONTINUOUS
 62
    7
 10
120.19485500000002
 20
199.10000600000001
 11
120.21521000000004
 21
199.098984
  0
LINE
  8
_0-0_0
  6
CONTINUOUS
 62
    7
 10
120.21521000000004
 20
199.098984
 11
120.23559600000002
 21
199.09584000000001
  0
LINE
  8
_0-0_0
  6
CONTINUOUS
 62
    7
 10
120.23559600000002
 20
199.09584000000001
 11
120.26242100000002
 21
199.088257
  0
LINE
  8
_0-0_0
  6
CONTINUOUS
 62
    7
 10
120.26242100000002
 20
199.088257
 11
120.28805500000001
 21
199.076874
  0
LINE
  8
_0-0_0
  6
CONTINUOUS
 62
    7
 10
120.28805500000001
 20
199.076874
 11
120.31185900000003
 21
199.06199599999999
  0
LINE
  8
_0-0_0
  6
CONTINUOUS
 62
    7
 10
120.31185900000003
 20
199.06199599999999
 11
120.32861300000002
 21
199.04849200000001
  0
LINE
  8
_0-0_0
  6
CONTINUOUS
 62
    7
 10
120.32861300000002
 20
199.04849200000001
 11
120.34411600000004
 21
199.033264
  0
LINE
  8
_0-0_0
  6
CONTINUOUS
 62
    7
 10
120.34411600000004
 20
199.033264
 11
120.37103300000004
 21
198.99861100000001
  0
LINE
  8
_0-0_0
  6
CONTINUOUS
 62
    7
 10
120.37103300000004
 20
198.99861100000001
 11
120.39205900000002
 21
198.96028100000001
  0
LINE
  8
_0-0_0
  6
CONTINUOUS
 62
    7
 10
120.39205900000002
 20
198.96028100000001
 11
120.40405300000003
 21
198.93035900000001
  0
LINE
  8
_0-0_0
  6
CONTINUOUS
 62
    7
 10
120.40405300000003
 20
198.93035900000001
 11
120.41311600000003
 21
198.89999399999999
  0
LINE
  8
_0-0_0
  6
CONTINUOUS
 62
    7
 10
120.19485500000002
 20
199.10000600000001
 11
120.01309200000003
 21
199.10000600000001
  0
LINE
  8
_0-0_0
  6
CONTINUOUS
 62
    7
 10
115.51309200000003
 20
200.39999399999999
 11
115.51309200000003
 21
199.34643600000001
  0
LINE
  8
_0-0_0
  6
CONTINUOUS
 62
    7
 10
115.51309200000003
 20
200.39999399999999
 11
115.51309200000003
 21
218
  0
LINE
  8
_0-0_0
  6
CONTINUOUS
 62
    7
 10
115.51309200000003
 20
219.97737100000001
 11
115.51309200000003
 21
218
  0
ARC
  8
_0-0_0
  6
CONTINUOUS
 62
    7
 10
115.01309200000003
 20
218.75500500000001
 40
0.5
 50
0
 51
123.74898500000002
  0
ARC
  8
_0-0_0
  6
CONTINUOUS
 62
    7
 10
115.68338000000003
 20
199.27328499999999
 40
0.1734229999999999
 50
181.12417600000003
 51
270.64883800000007
  0
LINE
  8
_0-0_0
  6
CONTINUOUS
 62
    7
 10
115.50906400000002
 20
199.300003
 11
115.50915500000002
 21
199.269867
  0
ARC
  8
_0-0_0
  6
CONTINUOUS
 62
    7
 10
110.81311000000002
 20
222
 40
0.5
 50
0
 51
90.000003000000007
  0
ARC
  8
_0-0_0
  6
CONTINUOUS
 62
    7
 10
34.513092000000029
 20
221
 40
2.7000000000000002
 50
285.68033600000007
 51
0.0000000000000381
  0
ARC
  8
_0-0_0
  6
CONTINUOUS
 62
    7
 10
51.513092000000029
 20
205.199997
 40
3
 50
269.99999700000001
 51
0
  0
LINE
  8
_0-0_0
  6
CONTINUOUS
 62
    7
 10
54.513092000000029
 20
205.199997
 11
54.513092000000029
 21
218.800003
  0
ARC
  8
_0-0_0
  6
CONTINUOUS
 62
    7
 10
51.513092000000029
 20
218.800003
 40
3
 50
0
 51
90.000003000000007
  0
ARC
  8
_0-0_0
  6
CONTINUOUS
 62
    7
 10
47.013092000000029
 20
214.5
 40
4.5
 50
269.99999700000001
 51
90.000002999999992
  0
LINE
  8
_0-0_0
  6
CONTINUOUS
 62
    7
 10
47.013092000000029
 20
210
 11
42.013092000000029
 21
210
  0
ARC
  8
_0-0_0
  6
CONTINUOUS
 62
    7
 10
42.013092000000029
 20
214.5
 40
4.5
 50
90.000003000000007
 51
269.99999700000006
  0
LINE
  8
_0-0_0
  6
CONTINUOUS
 62
    7
 10
42.013092000000029
 20
219
 11
47.013092000000029
 21
219
  0
ARC
  8
_0-0_0
  6
CONTINUOUS
 62
    7
 10
93.513092000000029
 20
205.199997
 40
3
 50
179.99999099999999
 51
269.99999700000001
  0
LINE
  8
_0-0_0
  6
CONTINUOUS
 62
    7
 10
90.513092000000029
 20
218.800003
 11
90.513092000000029
 21
205.199997
  0
ARC
  8
_0-0_0
  6
CONTINUOUS
 62
    7
 10
93.513092000000029
 20
218.800003
 40
3
 50
90.000003000000007
 51
179.99999099999999
  0
ARC
  8
_0-0_0
  6
CONTINUOUS
 62
    7
 10
103.01309200000003
 20
214.5
 40
4.5
 50
269.99999700000001
 51
90.000002999999992
  0
LINE
  8
_0-0_0
  6
CONTINUOUS
 62
    7
 10
103.01309200000003
 20
210
 11
98.013092000000029
 21
210
  0
ARC
  8
_0-0_0
  6
CONTINUOUS
 62
    7
 10
98.013092000000029
 20
214.5
 40
4.5
 50
90.000003000000007
 51
269.99999700000006
  0
LINE
  8
_0-0_0
  6
CONTINUOUS
 62
    7
 10
98.013092000000029
 20
219
 11
103.01309200000003
 21
219
  0
LINE
  8
_0-0_0
  6
CONTINUOUS
 62
    7
 10
25.013092000000029
 20
219.300003
 11
24.831360000000018
 21
219.300003
  0
LINE
  8
_0-0_0
  6
CONTINUOUS
 62
    7
 10
29.513092000000029
 20
201.199997
 11
29.513092000000029
 21
199.541687
  0
LINE
  8
_0-0_0
  6
CONTINUOUS
 62
    7
 10
29.513092000000029
 20
201.199997
 11
29.513092000000029
 21
217.699997
  0
LINE
  8
_0-0_0
  6
CONTINUOUS
 62
    7
 10
29.513092000000029
 20
219.16629
 11
29.513092000000029
 21
217.699997
  0
ARC
  8
_0-0_0
  6
CONTINUOUS
 62
    7
 10
29.342804000000029
 20
199.27328499999999
 40
0.1734209999999999
 50
269.35085600000002
 51
358.87625300000002
  0
LINE
  8
_0-0_0
  6
CONTINUOUS
 62
    7
 10
29.517136000000022
 20
199.300003
 11
29.517059000000017
 21
199.269867
  0
LINE
  8
_0-0_0
  6
CONTINUOUS
 62
    7
 10
29.517136000000022
 20
219.10000600000001
 11
29.517059000000017
 21
219.13012699999999
  0
ARC
  8
_0-0_0
  6
CONTINUOUS
 62
    7
 10
29.342804000000029
 20
219.12670900000001
 40
0.1734219999999999
 50
1.1236539999999999
 51
90.649110000000007
  0
LINE
  8
_0-0_0
  6
CONTINUOUS
 62
    7
 10
25.013092000000029
 20
199.10000600000001
 11
24.831360000000018
 21
199.10000600000001
  0
LINE
  8
_0-0_0
  6
CONTINUOUS
 62
    7
 10
24.831345000000027
 20
199.10000600000001
 11
24.811005000000023
 21
199.098984
  0
LINE
  8
_0-0_0
  6
CONTINUOUS
 62
    7
 10
24.811005000000023
 20
199.098984
 11
24.790588000000014
 21
199.09582499999999
  0
LINE
  8
_0-0_0
  6
CONTINUOUS
 62
    7
 10
24.790588000000014
 20
199.09582499999999
 11
24.763779000000028
 21
199.088257
  0
LINE
  8
_0-0_0
  6
CONTINUOUS
 62
    7
 10
24.763779000000028
 20
199.088257
 11
24.738129000000015
 21
199.076874
  0
LINE
  8
_0-0_0
  6
CONTINUOUS
 62
    7
 10
24.738129000000015
 20
199.076874
 11
24.714325000000031
 21
199.06199599999999
  0
LINE
  8
_0-0_0
  6
CONTINUOUS
 62
    7
 10
24.714325000000031
 20
199.06199599999999
 11
24.697571000000039
 21
199.04849200000001
  0
LINE
  8
_0-0_0
  6
CONTINUOUS
 62
    7
 10
24.697571000000039
 20
199.04849200000001
 11
24.682068000000015
 21
199.033264
  0
LINE
  8
_0-0_0
  6
CONTINUOUS
 62
    7
 10
24.682068000000015
 20
199.033264
 11
24.655182000000025
 21
198.99861100000001
  0
LINE
  8
_0-0_0
  6
CONTINUOUS
 62
    7
 10
24.655182000000025
 20
198.99861100000001
 11
24.634140000000031
 21
198.96028100000001
  0
LINE
  8
_0-0_0
  6
CONTINUOUS
 62
    7
 10
24.634140000000031
 20
198.96028100000001
 11
24.622131000000024
 21
198.93035900000001
  0
LINE
  8
_0-0_0
  6
CONTINUOUS
 62
    7
 10
24.622131000000024
 20
198.93035900000001
 11
24.613098000000036
 21
198.89999399999999
  0
ARC
  8
_0-0_0
  6
CONTINUOUS
 62
    7
 10
25.013092000000029
 20
196.39999399999999
 40
0.5
 50
179.99999099999999
 51
269.99999700000001
  0
ARC
  8
_0-0_0
  6
CONTINUOUS
 62
    7
 10
29.313095000000033
 20
195.699997
 40
0.2
 50
0
 51
90.000003000000007
  0
LINE
  8
_0-0_0
  6
CONTINUOUS
 62
    7
 10
29.513092000000029
 20
195.5
 11
30.013092000000029
 21
195
  0
LINE
  8
_0-0_0
  6
CONTINUOUS
 62
    7
 10
23.513092000000029
 20
221.34428399999999
 11
23.513092000000029
 21
222.89999399999999
  0
ARC
  8
_0-0_0
  6
CONTINUOUS
 62
    7
 10
24.000000000000028
 20
221.34764100000001
 40
0.4869939999999999
 50
180.39493000000002
 51
203.93946700000001
  0
ARC
  8
_0-0_0
  6
CONTINUOUS
 62
    7
 10
24.013092000000029
 20
221.35000600000001
 40
0.5
 50
203.57823099999999
 51
269.99999700000001
  0
ARC
  8
_0-0_0
  6
CONTINUOUS
 62
    7
 10
24.013092000000029
 20
222.89999399999999
 40
0.5
 50
90.000003000000007
 51
179.99999099999999
  0
LINE
  8
_0-0_0
  6
CONTINUOUS
 62
    7
 10
115.51309200000003
 20
220.699997
 11
116.01309200000003
 21
220.699997
  0
LINE
  8
_0-0_0
  6
CONTINUOUS
 62
    7
 10
116.01309200000003
 20
220.699997
 11
128.51309200000003
 21
220.699997
  0
ARC
  8
_0-0_0
  6
CONTINUOUS
 62
    7
 10
116.01309200000003
 20
221.199997
 40
0.5
 50
179.99999099999999
 51
269.99999700000001
  0
LINE
  8
_0-0_0
  6
CONTINUOUS
 62
    7
 10
115.51309200000003
 20
220.333969
 11
115.51309200000003
 21
220.699997
  0
LINE
  8
_0-0_0
  6
CONTINUOUS
 62
    7
 10
115.51309200000003
 20
220.08348100000001
 11
115.51309200000003
 21
219.97737100000001
  0
LINE
  8
_0-0_0
  6
CONTINUOUS
 62
    7
 10
115.51309200000003
 20
220.333969
 11
115.51309200000003
 21
220.08348100000001
  0
CIRCLE
  8
_0-0_0
  6
CONTINUOUS
 62
    7
 10
34.513092000000029
 20
221
 40
1.4750000000000001
  0
CIRCLE
  8
_0-0_0
  6
CONTINUOUS
 62
    7
 10
113.51309200000003
 20
221
 40
1.4750000000000001
  0
LINE
  8
_0-0_0
  6
CONTINUOUS
 62
    7
 10
23.513092000000029
 20
201.199997
 11
23.513092000000029
 21
198.699997
  0
LINE
  8
_0-0_0
  6
CONTINUOUS
 62
    7
 10
23.513092000000029
 20
201.199997
 11
23.513092000000029
 21
214
  0
LINE
  8
_0-0_0
  6
CONTINUOUS
 62
    7
 10
23.513092000000029
 20
217.5
 11
23.513092000000029
 21
214
  0
LINE
  8
_0-0_0
  6
CONTINUOUS
 62
    7
 10
23.513092000000029
 20
217.5
 11
23.513092000000029
 21
217.85000600000001
  0
LINE
  8
_0-0_0
  6
CONTINUOUS
 62
    7
 10
23.513092000000029
 20
221.34428399999999
 11
23.513092000000029
 21
217.85000600000001
  0
LINE
  8
_0-0_0
  6
CONTINUOUS
 62
    7
 10
23.513092000000029
 20
223.192902
 11
23.513092000000029
 21
222.89999399999999
  0
LINE
  8
_0-0_0
  6
CONTINUOUS
 62
    7
 10
23.513092000000029
 20
223.192902
 11
23.513092000000029
 21
223.25
  0
LINE
  8
_0-0_0
  6
CONTINUOUS
 62
    7
 10
24.513626000000045
 20
198.199997
 11
24.013092000000029
 21
198.199997
  0
LINE
  8
_0-0_0
  6
CONTINUOUS
 62
    7
 10
120.50189200000003
 20
198.39999399999999
 11
127.51309200000003
 21
198.39999399999999
  0
LINE
  8
_0-0_0
  6
CONTINUOUS
 62
    7
 10
127.51309200000003
 20
198.39999399999999
 11
132.18853800000002
 21
198.39999399999999
  0
LINE
  8
_0-0_0
  6
CONTINUOUS
 62
    7
 10
127.51309200000003
 20
198.39999399999999
 11
127.51309200000003
 21
200.39999399999999
  0
LINE
  8
_0-0_0
  6
CONTINUOUS
 62
    7
 10
127.51309200000003
 20
203.89999399999999
 11
127.51309200000003
 21
200.89999399999999
  0
LINE
  8
_0-0_0
  6
CONTINUOUS
 62
    7
 10
127.51309200000003
 20
200.89999399999999
 11
127.51309200000003
 21
200.39999399999999
  0
LINE
  8
_0-0_0
  6
CONTINUOUS
 62
    7
 10
127.51309200000003
 20
203.89999399999999
 11
127.51309200000003
 21
204.39999399999999
  0
ARC
  8
_0-0_0
  6
CONTINUOUS
 62
    7
 10
121.51309200000003
 20
203.70001199999999
 40
0.500016
 50
180.00117
 51
359.995611
  0
LINE
  8
_0-0_0
  6
CONTINUOUS
 62
    7
 10
122.01309200000003
 20
203.699997
 11
122.01309200000003
 21
215.699997
  0
ARC
  8
_0-0_0
  6
CONTINUOUS
 62
    7
 10
121.51309200000003
 20
215.69998200000001
 40
0.500016
 50
0.001164
 51
179.99560600000004
  0
LINE
  8
_0-0_0
  6
CONTINUOUS
 62
    7
 10
121.01309200000003
 20
203.699997
 11
121.01309200000003
 21
215.699997
  0
ARC
  8
_0-0_0
  6
CONTINUOUS
 62
    7
 10
123.01309200000003
 20
203.70001199999999
 40
0.500016
 50
180.00117
 51
359.995611
  0
LINE
  8
_0-0_0
  6
CONTINUOUS
 62
    7
 10
123.51309200000003
 20
203.699997
 11
123.51309200000003
 21
215.699997
  0
ARC
  8
_0-0_0
  6
CONTINUOUS
 62
    7
 10
123.01309200000003
 20
215.69998200000001
 40
0.500016
 50
0.001164
 51
179.99560600000004
  0
LINE
  8
_0-0_0
  6
CONTINUOUS
 62
    7
 10
122.51309200000003
 20
203.699997
 11
122.51309200000003
 21
215.699997
  0
ARC
  8
_0-0_0
  6
CONTINUOUS
 62
    7
 10
124.51309200000003
 20
203.70001199999999
 40
0.500016
 50
180.00117
 51
359.995611
  0
LINE
  8
_0-0_0
  6
CONTINUOUS
 62
    7
 10
125.01309200000003
 20
203.699997
 11
125.01309200000003
 21
215.699997
  0
ARC
  8
_0-0_0
  6
CONTINUOUS
 62
    7
 10
124.51309200000003
 20
215.69998200000001
 40
0.500016
 50
0.001164
 51
179.99560600000004
  0
LINE
  8
_0-0_0
  6
CONTINUOUS
 62
    7
 10
124.01309200000003
 20
203.699997
 11
124.01309200000003
 21
215.699997
  0
ARC
  8
_0-0_0
  6
CONTINUOUS
 62
    7
 10
126.01309200000003
 20
203.70001199999999
 40
0.500016
 50
180.00117
 51
359.995611
  0
LINE
  8
_0-0_0
  6
CONTINUOUS
 62
    7
 10
126.51309200000003
 20
203.699997
 11
126.51309200000003
 21
215.699997
  0
ARC
  8
_0-0_0
  6
CONTINUOUS
 62
    7
 10
126.01309200000003
 20
215.69998200000001
 40
0.500016
 50
0.001164
 51
179.99560600000004
  0
LINE
  8
_0-0_0
  6
CONTINUOUS
 62
    7
 10
125.51309200000003
 20
203.699997
 11
125.51309200000003
 21
215.699997
  0
LINE
  8
_0-0_0
  6
CONTINUOUS
 62
    7
 10
115.51309200000003
 20
220
 11
132.18853800000002
 21
220
  0
LINE
  8
_0-0_0
  6
CONTINUOUS
 62
    7
 10
24.013092000000029
 20
223.75
 11
29.513092000000029
 21
223.75
  0
ARC
  8
_0-0_0
  6
CONTINUOUS
 62
    7
 10
24.013092000000029
 20
223.25
 40
0.5
 50
90.000003000000007
 51
179.99999099999999
  0
ARC
  8
_0-0_0
  6
CONTINUOUS
 62
    7
 10
24.013092000000029
 20
198.699997
 40
0.5
 50
179.99999099999999
 51
269.99999700000001
  0
ARC
  8
_0-0_0
  6
CONTINUOUS
 62
    7
 10
24.013092000000029
 20
214
 40
0.5
 50
90.000003000000007
 51
179.99999099999999
  0
ARC
  8
_0-0_0
  6
CONTINUOUS
 62
    7
 10
132.18853800000002
 20
200.39999399999999
 40
2
 50
269.99999700000001
 51
288.43501300000003
  0
LINE
  8
_0-0_0
  6
CONTINUOUS
 62
    7
 10
127.51309200000003
 20
198.39999399999999
 11
127.51309200000003
 21
198.65005500000001
  0
LINE
  8
_0-0_0
  6
CONTINUOUS
 62
    7
 10
127.51309200000003
 20
203.89999399999999
 11
132.18853800000002
 21
203.89999399999999
  0
LINE
  8
_0-0_0
  6
CONTINUOUS
 62
    7
 10
132.82101400000002
 20
219.897369
 11
132.70150800000002
 21
219.93298300000001
  0
LINE
  8
_0-0_0
  6
CONTINUOUS
 62
    7
 10
132.70150800000002
 20
219.93298300000001
 11
132.57995600000004
 21
219.96086099999999
  0
LINE
  8
_0-0_0
  6
CONTINUOUS
 62
    7
 10
132.57995600000004
 20
219.96086099999999
 11
132.45681800000003
 21
219.98091099999999
  0
LINE
  8
_0-0_0
  6
CONTINUOUS
 62
    7
 10
132.45681800000003
 20
219.98091099999999
 11
132.33258100000003
 21
219.993011
  0
LINE
  8
_0-0_0
  6
CONTINUOUS
 62
    7
 10
132.33258100000003
 20
219.993011
 11
132.20776400000003
 21
219.997162
  0
LINE
  8
_0-0_0
  6
CONTINUOUS
 62
    7
 10
132.20776400000003
 20
219.997162
 11
132.18853800000002
 21
219.997086
  0
ARC
  8
_0-0_0
  6
CONTINUOUS
 62
    7
 10
132.18853800000002
 20
218
 40
2
 50
71.565000999999995
 51
90.000003000000007
  0
LINE
  8
_0-0_0
  6
CONTINUOUS
 62
    7
 10
48.484634000000028
 20
210.39999399999999
 11
40.541565000000048
 21
210.39999399999999
  0
ARC
  8
_0-0_0
  6
CONTINUOUS
 62
    7
 10
40.541565000000048
 20
210.89999399999999
 40
0.5
 50
210.00000299999999
 51
269.99999700000001
  0
LINE
  8
_0-0_0
  6
CONTINUOUS
 62
    7
 10
40.108551000000034
 20
210.64999399999999
 11
38.03009000000003
 21
214.25
  0
ARC
  8
_0-0_0
  6
CONTINUOUS
 62
    7
 10
38.463104000000044
 20
214.5
 40
0.5
 50
149.99999700000001
 51
210.00000299999996
  0
LINE
  8
_0-0_0
  6
CONTINUOUS
 62
    7
 10
38.03009000000003
 20
214.75
 11
40.108551000000034
 21
218.35000600000001
  0
ARC
  8
_0-0_0
  6
CONTINUOUS
 62
    7
 10
40.541565000000048
 20
218.10000600000001
 40
0.5
 50
90.000003000000007
 51
149.99999700000001
  0
LINE
  8
_0-0_0
  6
CONTINUOUS
 62
    7
 10
40.541565000000048
 20
218.60000600000001
 11
48.484634000000028
 21
218.60000600000001
  0
ARC
  8
_0-0_0
  6
CONTINUOUS
 62
    7
 10
48.484634000000028
 20
218.10000600000001
 40
0.5
 50
30.000001000000001
 51
90.000003000000007
  0
LINE
  8
_0-0_0
  6
CONTINUOUS
 62
    7
 10
48.917648000000042
 20
218.35000600000001
 11
50.996109000000047
 21
214.75
  0
ARC
  8
_0-0_0
  6
CONTINUOUS
 62
    7
 10
50.563095000000033
 20
214.5
 40
0.5
 50
329.99998900000003
 51
30.000000999999983
  0
LINE
  8
_0-0_0
  6
CONTINUOUS
 62
    7
 10
50.996109000000047
 20
214.25
 11
48.917648000000042
 21
210.64999399999999
  0
ARC
  8
_0-0_0
  6
CONTINUOUS
 62
    7
 10
48.484634000000028
 20
210.89999399999999
 40
0.5
 50
269.99999700000001
 51
329.99998900000003
  0
ARC
  8
_0-0_0
  6
CONTINUOUS
 62
    7
 10
96.483826000000022
 20
211
 40
0.5
 50
210.00000299999999
 51
269.99999700000001
  0
LINE
  8
_0-0_0
  6
CONTINUOUS
 62
    7
 10
96.050812000000036
 20
210.75
 11
94.03009000000003
 21
214.25
  0
ARC
  8
_0-0_0
  6
CONTINUOUS
 62
    7
 10
94.463104000000016
 20
214.5
 40
0.5
 50
149.99999700000001
 51
210.00000299999996
  0
LINE
  8
_0-0_0
  6
CONTINUOUS
 62
    7
 10
94.03009000000003
 20
214.75
 11
96.050812000000036
 21
218.25
  0
ARC
  8
_0-0_0
  6
CONTINUOUS
 62
    7
 10
96.483826000000022
 20
218
 40
0.5
 50
90.000003000000007
 51
149.99999700000001
  0
LINE
  8
_0-0_0
  6
CONTINUOUS
 62
    7
 10
96.483826000000022
 20
218.5
 11
104.54238900000001
 21
218.5
  0
ARC
  8
_0-0_0
  6
CONTINUOUS
 62
    7
 10
104.54238900000001
 20
218
 40
0.5
 50
30.000001000000001
 51
90.000003000000007
  0
LINE
  8
_0-0_0
  6
CONTINUOUS
 62
    7
 10
104.97540300000003
 20
218.25
 11
106.99612400000004
 21
214.75
  0
ARC
  8
_0-0_0
  6
CONTINUOUS
 62
    7
 10
106.56311000000002
 20
214.5
 40
0.5
 50
329.99998900000003
 51
30.000000999999983
  0
LINE
  8
_0-0_0
  6
CONTINUOUS
 62
    7
 10
106.99612400000004
 20
214.25
 11
104.97540300000003
 21
210.75
  0
ARC
  8
_0-0_0
  6
CONTINUOUS
 62
    7
 10
104.54238900000001
 20
211
 40
0.5
 50
269.99999700000001
 51
329.99998900000003
  0
LINE
  8
_0-0_0
  6
CONTINUOUS
 62
    7
 10
104.54238900000001
 20
210.5
 11
96.483826000000022
 21
210.5
  0
LINE
  8
_0-0_0
  6
CONTINUOUS
 62
    7
 10
26.513092000000029
 20
219.13043200000001
 11
26.513092000000029
 21
218.30419900000001
  0
LINE
  8
_0-0_0
  6
CONTINUOUS
 62
    7
 10
24.013092000000029
 20
214.5
 11
26.213089000000025
 21
214.5
  0
LINE
  8
_0-0_0
  6
CONTINUOUS
 62
    7
 10
26.513092000000029
 20
214.800003
 11
26.513092000000029
 21
217.02830499999999
  0
LINE
  8
_0-0_0
  6
CONTINUOUS
 62
    7
 10
26.513092000000029
 20
219.29968299999999
 11
26.513092000000029
 21
219.13043200000001
  0
LINE
  8
_0-0_0
  6
CONTINUOUS
 62
    7
 10
34.713104000000044
 20
219.89999399999999
 11
34.313095000000033
 21
219.89999399999999
  0
LINE
  8
_0-0_0
  6
CONTINUOUS
 62
    7
 10
34.713104000000044
 20
219.89999399999999
 11
34.713104000000044
 21
220.550003
  0
ARC
  8
_0-0_0
  6
CONTINUOUS
 62
    7
 10
34.963104000000044
 20
220.550003
 40
0.25
 50
90.000003000000007
 51
179.99999099999999
  0
LINE
  8
_0-0_0
  6
CONTINUOUS
 62
    7
 10
34.963104000000044
 20
220.800003
 11
35.613098000000036
 21
220.800003
  0
LINE
  8
_0-0_0
  6
CONTINUOUS
 62
    7
 10
35.613098000000036
 20
220.800003
 11
35.613098000000036
 21
221.199997
  0
LINE
  8
_0-0_0
  6
CONTINUOUS
 62
    7
 10
34.963104000000044
 20
221.199997
 11
35.613098000000036
 21
221.199997
  0
ARC
  8
_0-0_0
  6
CONTINUOUS
 62
    7
 10
34.963104000000044
 20
221.449997
 40
0.25
 50
179.99999099999999
 51
269.99999700000001
  0
LINE
  8
_0-0_0
  6
CONTINUOUS
 62
    7
 10
34.713104000000044
 20
222.10000600000001
 11
34.713104000000044
 21
221.449997
  0
LINE
  8
_0-0_0
  6
CONTINUOUS
 62
    7
 10
34.713104000000044
 20
222.10000600000001
 11
34.313095000000033
 21
222.10000600000001
  0
LINE
  8
_0-0_0
  6
CONTINUOUS
 62
    7
 10
34.313095000000033
 20
222.10000600000001
 11
34.313095000000033
 21
221.449997
  0
ARC
  8
_0-0_0
  6
CONTINUOUS
 62
    7
 10
34.063095000000033
 20
221.449997
 40
0.25
 50
269.99999700000001
 51
0
  0
LINE
  8
_0-0_0
  6
CONTINUOUS
 62
    7
 10
34.063095000000033
 20
221.199997
 11
33.41310100000004
 21
221.199997
  0
LINE
  8
_0-0_0
  6
CONTINUOUS
 62
    7
 10
33.41310100000004
 20
220.800003
 11
33.41310100000004
 21
221.199997
  0
LINE
  8
_0-0_0
  6
CONTINUOUS
 62
    7
 10
34.063095000000033
 20
220.800003
 11
33.41310100000004
 21
220.800003
  0
ARC
  8
_0-0_0
  6
CONTINUOUS
 62
    7
 10
34.063095000000033
 20
220.550003
 40
0.25
 50
0
 51
90.000003000000007
  0
LINE
  8
_0-0_0
  6
CONTINUOUS
 62
    7
 10
34.313095000000033
 20
219.89999399999999
 11
34.313095000000033
 21
220.550003
  0
LINE
  8
_0-0_0
  6
CONTINUOUS
 62
    7
 10
113.71310400000002
 20
219.89999399999999
 11
113.31311000000002
 21
219.89999399999999
  0
LINE
  8
_0-0_0
  6
CONTINUOUS
 62
    7
 10
113.71310400000002
 20
219.89999399999999
 11
113.71310400000002
 21
220.550003
  0
ARC
  8
_0-0_0
  6
CONTINUOUS
 62
    7
 10
113.96310400000002
 20
220.550003
 40
0.25
 50
90.000003000000007
 51
179.99999099999999
  0
LINE
  8
_0-0_0
  6
CONTINUOUS
 62
    7
 10
113.96310400000002
 20
220.800003
 11
114.61309800000004
 21
220.800003
  0
LINE
  8
_0-0_0
  6
CONTINUOUS
 62
    7
 10
114.61309800000004
 20
220.800003
 11
114.61309800000004
 21
221.199997
  0
LINE
  8
_0-0_0
  6
CONTINUOUS
 62
    7
 10
113.96310400000002
 20
221.199997
 11
114.61309800000004
 21
221.199997
  0
ARC
  8
_0-0_0
  6
CONTINUOUS
 62
    7
 10
113.96310400000002
 20
221.449997
 40
0.25
 50
179.99999099999999
 51
269.99999700000001
  0
LINE
  8
_0-0_0
  6
CONTINUOUS
 62
    7
 10
113.71310400000002
 20
222.10000600000001
 11
113.71310400000002
 21
221.449997
  0
LINE
  8
_0-0_0
  6
CONTINUOUS
 62
    7
 10
113.71310400000002
 20
222.10000600000001
 11
113.31311000000002
 21
222.10000600000001
  0
LINE
  8
_0-0_0
  6
CONTINUOUS
 62
    7
 10
113.31311000000002
 20
222.10000600000001
 11
113.31311000000002
 21
221.449997
  0
ARC
  8
_0-0_0
  6
CONTINUOUS
 62
    7
 10
113.06311000000002
 20
221.449997
 40
0.25
 50
269.99999700000001
 51
0
  0
LINE
  8
_0-0_0
  6
CONTINUOUS
 62
    7
 10
113.06311000000002
 20
221.199997
 11
112.41311600000003
 21
221.199997
  0
LINE
  8
_0-0_0
  6
CONTINUOUS
 62
    7
 10
112.41311600000003
 20
220.800003
 11
112.41311600000003
 21
221.199997
  0
LINE
  8
_0-0_0
  6
CONTINUOUS
 62
    7
 10
113.06311000000002
 20
220.800003
 11
112.41311600000003
 21
220.800003
  0
ARC
  8
_0-0_0
  6
CONTINUOUS
 62
    7
 10
113.06311000000002
 20
220.550003
 40
0.25
 50
0
 51
90.000003000000007
  0
LINE
  8
_0-0_0
  6
CONTINUOUS
 62
    7
 10
113.31311000000002
 20
219.89999399999999
 11
113.31311000000002
 21
220.550003
  0
LINE
  8
_0-0_0
  6
CONTINUOUS
 62
    7
 10
133.26309200000003
 20
198.64999399999999
 11
132.82101400000002
 21
198.50264000000001
  0
LINE
  8
_0-0_0
  6
CONTINUOUS
 62
    7
 10
136.98745700000003
 20
203.89999399999999
 11
137.68081700000002
 21
203.89999399999999
  0
LINE
  8
_0-0_0
  6
CONTINUOUS
 62
    7
 10
136.98745700000003
 20
203.89999399999999
 11
132.66290300000003
 21
203.89999399999999
  0
LINE
  8
_0-0_0
  6
CONTINUOUS
 62
    7
 10
132.18853800000002
 20
203.89999399999999
 11
132.66290300000003
 21
203.89999399999999
  0
LINE
  8
_0-0_0
  6
CONTINUOUS
 62
    7
 10
137.14556900000002
 20
218.45584099999999
 11
132.82101400000002
 21
219.897369
  0
LINE
  8
_0-0_0
  6
CONTINUOUS
 62
    7
 10
26.513092000000029
 20
218.30418399999999
 11
26.513092000000029
 21
217.02830499999999
  0
ARC
  8
_0-0_0
  6
CONTINUOUS
 62
    7
 10
26.213089000000025
 20
214.800003
 40
0.2999999999999999
 50
269.99999700000001
 51
0
  0
LINE
  8
_0-0_0
  6
CONTINUOUS
 62
    7
 10
24.057434000000029
 20
218.57870500000001
 11
24.057434000000029
 21
215.25
  0
LINE
  8
_0-0_0
  6
CONTINUOUS
 62
    7
 10
24.057434000000029
 20
219.75
 11
24.057434000000029
 21
218.57870500000001
  0
LINE
  8
_0-0_0
  6
CONTINUOUS
 62
    7
 10
138.51309200000003
 20
203.14996300000001
 11
138.51309200000003
 21
204.27098100000001
  0
LINE
  8
_0-0_0
  6
CONTINUOUS
 62
    7
 10
138.51309200000003
 20
205.192307
 11
138.51309200000003
 21
204.27098100000001
  0
LINE
  8
_0-0_0
  6
CONTINUOUS
 62
    7
 10
138.21310400000002
 20
206.98800700000001
 11
138.27191200000001
 21
206.74118000000001
  0
LINE
  8
_0-0_0
  6
CONTINUOUS
 62
    7
 10
138.27191200000001
 20
206.74118000000001
 11
138.32165500000002
 21
206.54882799999999
  0
LINE
  8
_0-0_0
  6
CONTINUOUS
 62
    7
 10
138.32165500000002
 20
206.54882799999999
 11
138.39279200000001
 21
206.28303500000001
  0
LINE
  8
_0-0_0
  6
CONTINUOUS
 62
    7
 10
138.39279200000001
 20
206.28303500000001
 11
138.42575100000002
 21
206.15632600000001
  0
LINE
  8
_0-0_0
  6
CONTINUOUS
 62
    7
 10
138.42575100000002
 20
206.15632600000001
 11
138.45101900000003
 21
206.05290199999999
  0
LINE
  8
_0-0_0
  6
CONTINUOUS
 62
    7
 10
138.45101900000003
 20
206.05290199999999
 11
138.47305300000002
 21
205.952957
  0
LINE
  8
_0-0_0
  6
CONTINUOUS
 62
    7
 10
138.47305300000002
 20
205.952957
 11
138.49441500000003
 21
205.835251
  0
LINE
  8
_0-0_0
  6
CONTINUOUS
 62
    7
 10
138.49441500000003
 20
205.835251
 11
138.50299100000004
 21
205.773132
  0
LINE
  8
_0-0_0
  6
CONTINUOUS
 62
    7
 10
138.50299100000004
 20
205.773132
 11
138.50906400000002
 21
205.712524
  0
LINE
  8
_0-0_0
  6
CONTINUOUS
 62
    7
 10
138.50906400000002
 20
205.712524
 11
138.51208500000004
 21
205.663284
  0
LINE
  8
_0-0_0
  6
CONTINUOUS
 62
    7
 10
138.51208500000004
 20
205.663284
 11
138.51309200000003
 21
205.61505099999999
  0
LINE
  8
_0-0_0
  6
CONTINUOUS
 62
    7
 10
138.21310400000002
 20
211.41201799999999
 11
138.12963900000003
 21
211.03334000000001
  0
LINE
  8
_0-0_0
  6
CONTINUOUS
 62
    7
 10
138.12963900000003
 20
211.03334000000001
 11
138.08953900000003
 21
210.841812
  0
LINE
  8
_0-0_0
  6
CONTINUOUS
 62
    7
 10
138.08953900000003
 20
210.841812
 11
138.03347800000003
 21
210.55178799999999
  0
LINE
  8
_0-0_0
  6
CONTINUOUS
 62
    7
 10
138.03347800000003
 20
210.55178799999999
 11
137.99588000000003
 21
210.332199
  0
LINE
  8
_0-0_0
  6
CONTINUOUS
 62
    7
 10
137.99588000000003
 20
210.332199
 11
137.96322600000002
 21
210.11094700000001
  0
LINE
  8
_0-0_0
  6
CONTINUOUS
 62
    7
 10
137.96322600000002
 20
210.11094700000001
 11
137.93606600000004
 21
209.88415499999999
  0
LINE
  8
_0-0_0
  6
CONTINUOUS
 62
    7
 10
137.93606600000004
 20
209.88415499999999
 11
137.91598500000003
 21
209.656769
  0
LINE
  8
_0-0_0
  6
CONTINUOUS
 62
    7
 10
137.91598500000003
 20
209.656769
 11
137.90884400000002
 21
209.54302999999999
  0
LINE
  8
_0-0_0
  6
CONTINUOUS
 62
    7
 10
137.90884400000002
 20
209.54302999999999
 11
137.90368700000002
 21
209.42935199999999
  0
LINE
  8
_0-0_0
  6
CONTINUOUS
 62
    7
 10
137.90368700000002
 20
209.42935199999999
 11
137.89996300000004
 21
209.27792400000001
  0
LINE
  8
_0-0_0
  6
CONTINUOUS
 62
    7
 10
137.89996300000004
 20
209.27792400000001
 11
137.89990200000003
 21
209.12666300000001
  0
LINE
  8
_0-0_0
  6
CONTINUOUS
 62
    7
 10
137.89990200000003
 20
209.12666300000001
 11
137.90347300000002
 21
208.97560100000001
  0
LINE
  8
_0-0_0
  6
CONTINUOUS
 62
    7
 10
137.90347300000002
 20
208.97560100000001
 11
137.91299400000003
 21
208.78706399999999
  0
LINE
  8
_0-0_0
  6
CONTINUOUS
 62
    7
 10
137.91299400000003
 20
208.78706399999999
 11
137.92785600000002
 21
208.598816
  0
LINE
  8
_0-0_0
  6
CONTINUOUS
 62
    7
 10
137.92785600000002
 20
208.598816
 11
137.94778400000004
 21
208.41087300000001
  0
LINE
  8
_0-0_0
  6
CONTINUOUS
 62
    7
 10
137.94778400000004
 20
208.41087300000001
 11
137.96417200000002
 21
208.28199799999999
  0
LINE
  8
_0-0_0
  6
CONTINUOUS
 62
    7
 10
137.96417200000002
 20
208.28199799999999
 11
137.98257500000003
 21
208.153336
  0
LINE
  8
_0-0_0
  6
CONTINUOUS
 62
    7
 10
137.98257500000003
 20
208.153336
 11
138.00674400000003
 21
208.00140400000001
  0
LINE
  8
_0-0_0
  6
CONTINUOUS
 62
    7
 10
138.00674400000003
 20
208.00140400000001
 11
138.03314200000003
 21
207.850067
  0
LINE
  8
_0-0_0
  6
CONTINUOUS
 62
    7
 10
138.03314200000003
 20
207.850067
 11
138.08929400000002
 21
207.559448
  0
LINE
  8
_0-0_0
  6
CONTINUOUS
 62
    7
 10
138.08929400000002
 20
207.559448
 11
138.12945600000003
 21
207.367493
  0
LINE
  8
_0-0_0
  6
CONTINUOUS
 62
    7
 10
138.12945600000003
 20
207.367493
 11
138.21310400000002
 21
206.98800700000001
  0
LINE
  8
_0-0_0
  6
CONTINUOUS
 62
    7
 10
138.21310400000002
 20
211.41201799999999
 11
138.27191200000001
 21
211.65887499999999
  0
LINE
  8
_0-0_0
  6
CONTINUOUS
 62
    7
 10
138.27191200000001
 20
211.65887499999999
 11
138.32165500000002
 21
211.85119599999999
  0
LINE
  8
_0-0_0
  6
CONTINUOUS
 62
    7
 10
138.32165500000002
 20
211.85119599999999
 11
138.39279200000001
 21
212.11694299999999
  0
LINE
  8
_0-0_0
  6
CONTINUOUS
 62
    7
 10
138.39279200000001
 20
212.11694299999999
 11
138.42575100000002
 21
212.24363700000001
  0
LINE
  8
_0-0_0
  6
CONTINUOUS
 62
    7
 10
138.42575100000002
 20
212.24363700000001
 11
138.45101900000003
 21
212.34707599999999
  0
LINE
  8
_0-0_0
  6
CONTINUOUS
 62
    7
 10
138.45101900000003
 20
212.34707599999999
 11
138.47305300000002
 21
212.44705200000001
  0
LINE
  8
_0-0_0
  6
CONTINUOUS
 62
    7
 10
138.47305300000002
 20
212.44705200000001
 11
138.49441500000003
 21
212.56475800000001
  0
LINE
  8
_0-0_0
  6
CONTINUOUS
 62
    7
 10
138.49441500000003
 20
212.56475800000001
 11
138.50299100000004
 21
212.62687700000001
  0
LINE
  8
_0-0_0
  6
CONTINUOUS
 62
    7
 10
138.50299100000004
 20
212.62687700000001
 11
138.50906400000002
 21
212.68748500000001
  0
LINE
  8
_0-0_0
  6
CONTINUOUS
 62
    7
 10
138.50906400000002
 20
212.68748500000001
 11
138.51208500000004
 21
212.73672500000001
  0
LINE
  8
_0-0_0
  6
CONTINUOUS
 62
    7
 10
138.51208500000004
 20
212.73672500000001
 11
138.51309200000003
 21
212.784943
  0
LINE
  8
_0-0_0
  6
CONTINUOUS
 62
    7
 10
138.51309200000003
 20
216.55847199999999
 11
138.51309200000003
 21
213.20768699999999
  0
ARC
  8
_0-0_0
  6
CONTINUOUS
 62
    7
 10
136.51309200000003
 20
216.55847199999999
 40
2
 50
0
 51
71.565000999999995
  0
CIRCLE
  8
_0-0_0
  6
CONTINUOUS
 62
    7
 10
44.513092000000029
 20
214.5
 40
2.5
  0
CIRCLE
  8
_0-0_0
  6
CONTINUOUS
 62
    7
 10
100.51309200000003
 20
214.5
 40
2.5
  0
LINE
  8
_0-0_0
  6
CONTINUOUS
 62
    7
 10
23.91310100000004
 20
218.45884699999999
 11
23.91310100000004
 21
215.5
  0
LINE
  8
_0-0_0
  6
CONTINUOUS
 62
    7
 10
23.91310100000004
 20
219.5
 11
23.91310100000004
 21
218.45884699999999
  0
LINE
  8
_0-0_0
  6
CONTINUOUS
 62
    7
 10
153.51309200000003
 20
199.67456100000001
 11
153.51309200000003
 21
199.82128900000001
  0
LINE
  8
_0-0_0
  6
CONTINUOUS
 62
    7
 10
153.51309200000003
 20
199.484039
 11
153.51309200000003
 21
199.67456100000001
  0
LINE
  8
_0-0_0
  6
CONTINUOUS
 62
    7
 10
153.51309200000003
 20
199.309021
 11
153.51309200000003
 21
199.484039
  0
LINE
  8
_0-0_0
  6
CONTINUOUS
 62
    7
 10
153.51309200000003
 20
199.15142800000001
 11
153.51309200000003
 21
199.309021
  0
LINE
  8
_0-0_0
  6
CONTINUOUS
 62
    7
 10
153.51309200000003
 20
199.01298499999999
 11
153.51309200000003
 21
199.15142800000001
  0
LINE
  8
_0-0_0
  6
CONTINUOUS
 62
    7
 10
153.51309200000003
 20
198.89523299999999
 11
153.51309200000003
 21
199.01298499999999
  0
LINE
  8
_0-0_0
  6
CONTINUOUS
 62
    7
 10
153.51309200000003
 20
198.799454
 11
153.51309200000003
 21
198.89523299999999
  0
LINE
  8
_0-0_0
  6
CONTINUOUS
 62
    7
 10
153.51309200000003
 20
198.72666899999999
 11
153.51309200000003
 21
198.799454
  0
LINE
  8
_0-0_0
  6
CONTINUOUS
 62
    7
 10
153.51309200000003
 20
198.64999399999999
 11
153.51309200000003
 21
198.72666899999999
  0
LINE
  8
_0-0_0
  6
CONTINUOUS
 62
    7
 10
153.51309200000003
 20
198.653076
 11
153.51309200000003
 21
198.67770400000001
  0
LINE
  8
_0-0_0
  6
CONTINUOUS
 62
    7
 10
153.51309200000003
 20
198.64999399999999
 11
153.51309200000003
 21
198.653076
  0
LINE
  8
_0-0_0
  6
CONTINUOUS
 62
    7
 10
153.51309200000003
 20
203.14691199999999
 11
153.51309200000003
 21
203.14999399999999
  0
LINE
  8
_0-0_0
  6
CONTINUOUS
 62
    7
 10
153.51309200000003
 20
203.122299
 11
153.51309200000003
 21
203.14691199999999
  0
LINE
  8
_0-0_0
  6
CONTINUOUS
 62
    7
 10
153.51309200000003
 20
203.07333399999999
 11
153.51309200000003
 21
203.14999399999999
  0
LINE
  8
_0-0_0
  6
CONTINUOUS
 62
    7
 10
153.51309200000003
 20
203.00054900000001
 11
153.51309200000003
 21
203.07333399999999
  0
LINE
  8
_0-0_0
  6
CONTINUOUS
 62
    7
 10
153.51309200000003
 20
202.90475499999999
 11
153.51309200000003
 21
203.00054900000001
  0
LINE
  8
_0-0_0
  6
CONTINUOUS
 62
    7
 10
153.51309200000003
 20
202.87455700000001
 11
153.51309200000003
 21
202.90475499999999
  0
LINE
  8
_0-0_0
  6
CONTINUOUS
 62
    7
 10
153.51309200000003
 20
202.78701799999999
 11
153.51309200000003
 21
202.87455700000001
  0
LINE
  8
_0-0_0
  6
CONTINUOUS
 62
    7
 10
153.51309200000003
 20
202.64857499999999
 11
153.51309200000003
 21
202.78701799999999
  0
LINE
  8
_0-0_0
  6
CONTINUOUS
 62
    7
 10
153.51309200000003
 20
202.49099699999999
 11
153.51309200000003
 21
202.64857499999999
  0
LINE
  8
_0-0_0
  6
CONTINUOUS
 62
    7
 10
153.51309200000003
 20
202.315979
 11
153.51309200000003
 21
202.49099699999999
  0
LINE
  8
_0-0_0
  6
CONTINUOUS
 62
    7
 10
153.51309200000003
 20
202.125427
 11
153.51309200000003
 21
202.315979
  0
LINE
  8
_0-0_0
  6
CONTINUOUS
 62
    7
 10
153.51309200000003
 20
201.92147800000001
 11
153.51309200000003
 21
202.125427
  0
LINE
  8
_0-0_0
  6
CONTINUOUS
 62
    7
 10
153.51309200000003
 20
201.70632900000001
 11
153.51309200000003
 21
201.92147800000001
  0
LINE
  8
_0-0_0
  6
CONTINUOUS
 62
    7
 10
153.51309200000003
 20
201.48234600000001
 11
153.51309200000003
 21
201.70632900000001
  0
LINE
  8
_0-0_0
  6
CONTINUOUS
 62
    7
 10
153.51309200000003
 20
201.25198399999999
 11
153.51309200000003
 21
201.48234600000001
  0
LINE
  8
_0-0_0
  6
CONTINUOUS
 62
    7
 10
153.51309200000003
 20
201.01776100000001
 11
153.51309200000003
 21
201.25198399999999
  0
LINE
  8
_0-0_0
  6
CONTINUOUS
 62
    7
 10
153.51309200000003
 20
200.782242
 11
153.51309200000003
 21
201.01776100000001
  0
LINE
  8
_0-0_0
  6
CONTINUOUS
 62
    7
 10
153.51309200000003
 20
200.54801900000001
 11
153.51309200000003
 21
200.782242
  0
LINE
  8
_0-0_0
  6
CONTINUOUS
 62
    7
 10
153.51309200000003
 20
200.317657
 11
153.51309200000003
 21
200.54801900000001
  0
LINE
  8
_0-0_0
  6
CONTINUOUS
 62
    7
 10
153.51309200000003
 20
200.09367399999999
 11
153.51309200000003
 21
200.317657
  0
LINE
  8
_0-0_0
  6
CONTINUOUS
 62
    7
 10
153.51309200000003
 20
199.878525
 11
153.51309200000003
 21
200.09367399999999
  0
LINE
  8
_0-0_0
  6
CONTINUOUS
 62
    7
 10
153.51309200000003
 20
199.82128900000001
 11
153.51309200000003
 21
199.878525
  0
LINE
  8
_0-0_0
  6
CONTINUOUS
 62
    7
 10
138.51309200000003
 20
207.63795500000001
 11
138.51309200000003
 21
206.59229999999999
  0
LINE
  8
_0-0_0
  6
CONTINUOUS
 62
    7
 10
138.51309200000003
 20
205.307693
 11
138.51309200000003
 21
206.59229999999999
  0
LINE
  8
_0-0_0
  6
CONTINUOUS
 62
    7
 10
138.51309200000003
 20
205.192307
 11
138.51309200000003
 21
205.307693
  0
LINE
  8
_0-0_0
  6
CONTINUOUS
 62
    7
 10
138.51309200000003
 20
207.63795500000001
 11
138.51309200000003
 21
210.76205400000001
  0
LINE
  8
_0-0_0
  6
CONTINUOUS
 62
    7
 10
138.51309200000003
 20
213.20768699999999
 11
138.51309200000003
 21
213.09229999999999
  0
LINE
  8
_0-0_0
  6
CONTINUOUS
 62
    7
 10
138.51309200000003
 20
211.807693
 11
138.51309200000003
 21
213.09229999999999
  0
LINE
  8
_0-0_0
  6
CONTINUOUS
 62
    7
 10
138.51309200000003
 20
211.807693
 11
138.51309200000003
 21
210.76205400000001
  0
LINE
  8
_0-0_0
  6
CONTINUOUS
 62
    7
 10
138.51309200000003
 20
213.09229999999999
 11
148.22091700000001
 21
213.09229999999999
  0
LINE
  8
_0-0_0
  6
CONTINUOUS
 62
    7
 10
148.22091700000001
 20
215.699997
 11
148.27542100000002
 21
215.630066
  0
LINE
  8
_0-0_0
  6
CONTINUOUS
 62
    7
 10
148.27542100000002
 20
215.630066
 11
148.32650800000002
 21
215.561249
  0
LINE
  8
_0-0_0
  6
CONTINUOUS
 62
    7
 10
148.32650800000002
 20
215.561249
 11
148.37414600000002
 21
215.493729
  0
LINE
  8
_0-0_0
  6
CONTINUOUS
 62
    7
 10
148.37414600000002
 20
215.493729
 11
148.41864000000004
 21
215.42718500000001
  0
LINE
  8
_0-0_0
  6
CONTINUOUS
 62
    7
 10
148.41864000000004
 20
215.42718500000001
 11
148.47335800000002
 21
215.33964499999999
  0
LINE
  8
_0-0_0
  6
CONTINUOUS
 62
    7
 10
148.47335800000002
 20
215.33964499999999
 11
148.52288800000002
 21
215.25353999999999
  0
LINE
  8
_0-0_0
  6
CONTINUOUS
 62
    7
 10
148.52288800000002
 20
215.25353999999999
 11
148.56735200000003
 21
215.168701
  0
LINE
  8
_0-0_0
  6
CONTINUOUS
 62
    7
 10
148.56735200000003
 20
215.168701
 11
148.61431900000002
 21
215.06838999999999
  0
LINE
  8
_0-0_0
  6
CONTINUOUS
 62
    7
 10
148.61431900000002
 20
215.06838999999999
 11
148.65451100000004
 21
214.96946700000001
  0
LINE
  8
_0-0_0
  6
CONTINUOUS
 62
    7
 10
148.65451100000004
 20
214.96946700000001
 11
148.68817100000004
 21
214.87170399999999
  0
LINE
  8
_0-0_0
  6
CONTINUOUS
 62
    7
 10
148.68817100000004
 20
214.87170399999999
 11
148.71548500000003
 21
214.774902
  0
LINE
  8
_0-0_0
  6
CONTINUOUS
 62
    7
 10
148.71548500000003
 20
214.774902
 11
148.73651100000004
 21
214.67884799999999
  0
LINE
  8
_0-0_0
  6
CONTINUOUS
 62
    7
 10
148.73651100000004
 20
214.67884799999999
 11
148.75244100000003
 21
214.574997
  0
LINE
  8
_0-0_0
  6
CONTINUOUS
 62
    7
 10
148.75244100000003
 20
214.574997
 11
148.76120000000003
 21
214.47157300000001
  0
LINE
  8
_0-0_0
  6
CONTINUOUS
 62
    7
 10
148.76120000000003
 20
214.47157300000001
 11
148.76284800000002
 21
214.36833200000001
  0
LINE
  8
_0-0_0
  6
CONTINUOUS
 62
    7
 10
148.76284800000002
 20
214.36833200000001
 11
148.75738500000003
 21
214.26504499999999
  0
LINE
  8
_0-0_0
  6
CONTINUOUS
 62
    7
 10
148.75738500000003
 20
214.26504499999999
 11
148.74475100000004
 21
214.16145299999999
  0
LINE
  8
_0-0_0
  6
CONTINUOUS
 62
    7
 10
148.74475100000004
 20
214.16145299999999
 11
148.72494500000002
 21
214.05729700000001
  0
LINE
  8
_0-0_0
  6
CONTINUOUS
 62
    7
 10
148.72494500000002
 20
214.05729700000001
 11
148.69781500000002
 21
213.952347
  0
LINE
  8
_0-0_0
  6
CONTINUOUS
 62
    7
 10
148.69781500000002
 20
213.952347
 11
148.66314700000004
 21
213.84631300000001
  0
LINE
  8
_0-0_0
  6
CONTINUOUS
 62
    7
 10
148.66314700000004
 20
213.84631300000001
 11
148.62081900000004
 21
213.73893699999999
  0
LINE
  8
_0-0_0
  6
CONTINUOUS
 62
    7
 10
148.62081900000004
 20
213.73893699999999
 11
148.57049600000002
 21
213.629929
  0
LINE
  8
_0-0_0
  6
CONTINUOUS
 62
    7
 10
148.57049600000002
 20
213.629929
 11
148.51623500000002
 21
213.526794
  0
LINE
  8
_0-0_0
  6
CONTINUOUS
 62
    7
 10
148.51623500000002
 20
213.526794
 11
148.45452900000004
 21
213.421738
  0
LINE
  8
_0-0_0
  6
CONTINUOUS
 62
    7
 10
148.45452900000004
 20
213.421738
 11
148.38501000000002
 21
213.31449900000001
  0
LINE
  8
_0-0_0
  6
CONTINUOUS
 62
    7
 10
148.38501000000002
 20
213.31449900000001
 11
148.30731200000002
 21
213.204803
  0
LINE
  8
_0-0_0
  6
CONTINUOUS
 62
    7
 10
148.30731200000002
 20
213.204803
 11
148.22091700000001
 21
213.09229999999999
  0
LINE
  8
_0-0_0
  6
CONTINUOUS
 62
    7
 10
138.51309200000003
 20
215.699997
 11
148.22091700000001
 21
215.699997
  0
LINE
  8
_0-0_0
  6
CONTINUOUS
 62
    7
 10
148.26309200000003
 20
215.699997
 11
148.22091700000001
 21
215.699997
  0
LINE
  8
_0-0_0
  6
CONTINUOUS
 62
    7
 10
138.51309200000003
 20
205.307693
 11
148.22091700000001
 21
205.307693
  0
LINE
  8
_0-0_0
  6
CONTINUOUS
 62
    7
 10
148.22091700000001
 20
205.307693
 11
148.27542100000002
 21
205.237762
  0
LINE
  8
_0-0_0
  6
CONTINUOUS
 62
    7
 10
148.27542100000002
 20
205.237762
 11
148.32650800000002
 21
205.16892999999999
  0
LINE
  8
_0-0_0
  6
CONTINUOUS
 62
    7
 10
148.32650800000002
 20
205.16892999999999
 11
148.37414600000002
 21
205.10142500000001
  0
LINE
  8
_0-0_0
  6
CONTINUOUS
 62
    7
 10
148.37414600000002
 20
205.10142500000001
 11
148.41864000000004
 21
205.03488200000001
  0
LINE
  8
_0-0_0
  6
CONTINUOUS
 62
    7
 10
148.41864000000004
 20
205.03488200000001
 11
148.47335800000002
 21
204.94734199999999
  0
LINE
  8
_0-0_0
  6
CONTINUOUS
 62
    7
 10
148.47335800000002
 20
204.94734199999999
 11
148.52288800000002
 21
204.86123699999999
  0
LINE
  8
_0-0_0
  6
CONTINUOUS
 62
    7
 10
148.52288800000002
 20
204.86123699999999
 11
148.56735200000003
 21
204.776398
  0
LINE
  8
_0-0_0
  6
CONTINUOUS
 62
    7
 10
148.56735200000003
 20
204.776398
 11
148.61431900000002
 21
204.676086
  0
LINE
  8
_0-0_0
  6
CONTINUOUS
 62
    7
 10
148.61431900000002
 20
204.676086
 11
148.65451100000004
 21
204.57716400000001
  0
LINE
  8
_0-0_0
  6
CONTINUOUS
 62
    7
 10
148.65451100000004
 20
204.57716400000001
 11
148.68817100000004
 21
204.479401
  0
LINE
  8
_0-0_0
  6
CONTINUOUS
 62
    7
 10
148.68817100000004
 20
204.479401
 11
148.71548500000003
 21
204.382599
  0
LINE
  8
_0-0_0
  6
CONTINUOUS
 62
    7
 10
148.71548500000003
 20
204.382599
 11
148.73651100000004
 21
204.28654499999999
  0
LINE
  8
_0-0_0
  6
CONTINUOUS
 62
    7
 10
148.73651100000004
 20
204.28654499999999
 11
148.75244100000003
 21
204.182693
  0
LINE
  8
_0-0_0
  6
CONTINUOUS
 62
    7
 10
148.75244100000003
 20
204.182693
 11
148.76120000000003
 21
204.07925399999999
  0
LINE
  8
_0-0_0
  6
CONTINUOUS
 62
    7
 10
148.76120000000003
 20
204.07925399999999
 11
148.76284800000002
 21
203.97602800000001
  0
LINE
  8
_0-0_0
  6
CONTINUOUS
 62
    7
 10
148.76284800000002
 20
203.97602800000001
 11
148.75738500000003
 21
203.87274199999999
  0
LINE
  8
_0-0_0
  6
CONTINUOUS
 62
    7
 10
148.75738500000003
 20
203.87274199999999
 11
148.74475100000004
 21
203.76913500000001
  0
LINE
  8
_0-0_0
  6
CONTINUOUS
 62
    7
 10
148.74475100000004
 20
203.76913500000001
 11
148.72494500000002
 21
203.665009
  0
LINE
  8
_0-0_0
  6
CONTINUOUS
 62
    7
 10
148.72494500000002
 20
203.665009
 11
148.69781500000002
 21
203.56002799999999
  0
LINE
  8
_0-0_0
  6
CONTINUOUS
 62
    7
 10
148.69781500000002
 20
203.56002799999999
 11
148.66314700000004
 21
203.45401000000001
  0
LINE
  8
_0-0_0
  6
CONTINUOUS
 62
    7
 10
148.66314700000004
 20
203.45401000000001
 11
148.62081900000004
 21
203.346619
  0
LINE
  8
_0-0_0
  6
CONTINUOUS
 62
    7
 10
148.62081900000004
 20
203.346619
 11
148.57049600000002
 21
203.23762500000001
  0
LINE
  8
_0-0_0
  6
CONTINUOUS
 62
    7
 10
148.57049600000002
 20
203.23762500000001
 11
148.52481100000003
 21
203.149979
  0
LINE
  8
_0-0_0
  6
CONTINUOUS
 62
    7
 10
153.51309200000003
 20
199.67456100000001
 11
153.76309200000003
 21
199.64999399999999
  0
LINE
  8
_0-0_0
  6
CONTINUOUS
 62
    7
 10
153.51309200000003
 20
199.878525
 11
153.76309200000003
 21
199.64999399999999
  0
LINE
  8
_0-0_0
  6
CONTINUOUS
 62
    7
 10
153.51309200000003
 20
199.484039
 11
153.76309200000003
 21
199.430542
  0
LINE
  8
_0-0_0
  6
CONTINUOUS
 62
    7
 10
153.51309200000003
 20
199.67456100000001
 11
153.76309200000003
 21
199.430542
  0
LINE
  8
_0-0_0
  6
CONTINUOUS
 62
    7
 10
153.51309200000003
 20
199.309021
 11
153.76309200000003
 21
199.22717299999999
  0
LINE
  8
_0-0_0
  6
CONTINUOUS
 62
    7
 10
153.51309200000003
 20
199.484039
 11
153.76309200000003
 21
199.22717299999999
  0
LINE
  8
_0-0_0
  6
CONTINUOUS
 62
    7
 10
153.51309200000003
 20
199.15142800000001
 11
153.76309200000003
 21
199.042145
  0
LINE
  8
_0-0_0
  6
CONTINUOUS
 62
    7
 10
153.51309200000003
 20
199.309021
 11
153.76309200000003
 21
199.042145
  0
LINE
  8
_0-0_0
  6
CONTINUOUS
 62
    7
 10
153.51309200000003
 20
199.01298499999999
 11
153.76309200000003
 21
198.87745699999999
  0
LINE
  8
_0-0_0
  6
CONTINUOUS
 62
    7
 10
153.51309200000003
 20
199.15142800000001
 11
153.76309200000003
 21
198.87745699999999
  0
LINE
  8
_0-0_0
  6
CONTINUOUS
 62
    7
 10
153.51309200000003
 20
198.89523299999999
 11
153.76309200000003
 21
198.73493999999999
  0
LINE
  8
_0-0_0
  6
CONTINUOUS
 62
    7
 10
153.51309200000003
 20
199.01298499999999
 11
153.76309200000003
 21
198.73493999999999
  0
LINE
  8
_0-0_0
  6
CONTINUOUS
 62
    7
 10
153.51309200000003
 20
198.799454
 11
153.76309200000003
 21
198.61613500000001
  0
LINE
  8
_0-0_0
  6
CONTINUOUS
 62
    7
 10
153.51309200000003
 20
198.89523299999999
 11
153.76309200000003
 21
198.61613500000001
  0
LINE
  8
_0-0_0
  6
CONTINUOUS
 62
    7
 10
153.51309200000003
 20
198.72666899999999
 11
153.76309200000003
 21
198.52235400000001
  0
LINE
  8
_0-0_0
  6
CONTINUOUS
 62
    7
 10
153.51309200000003
 20
198.799454
 11
153.76309200000003
 21
198.52235400000001
  0
LINE
  8
_0-0_0
  6
CONTINUOUS
 62
    7
 10
153.51309200000003
 20
198.67770400000001
 11
153.76309200000003
 21
198.45462000000001
  0
LINE
  8
_0-0_0
  6
CONTINUOUS
 62
    7
 10
153.51309200000003
 20
198.72666899999999
 11
153.76309200000003
 21
198.45462000000001
  0
LINE
  8
_0-0_0
  6
CONTINUOUS
 62
    7
 10
153.51309200000003
 20
198.653076
 11
153.76309200000003
 21
198.41369599999999
  0
LINE
  8
_0-0_0
  6
CONTINUOUS
 62
    7
 10
153.51309200000003
 20
198.67770400000001
 11
153.76309200000003
 21
198.41369599999999
  0
LINE
  8
_0-0_0
  6
CONTINUOUS
 62
    7
 10
153.51309200000003
 20
198.653076
 11
153.76309200000003
 21
198.39999399999999
  0
LINE
  8
_0-0_0
  6
CONTINUOUS
 62
    7
 10
153.51309200000003
 20
203.14691199999999
 11
153.76309200000003
 21
203.39999399999999
  0
LINE
  8
_0-0_0
  6
CONTINUOUS
 62
    7
 10
153.51309200000003
 20
203.122299
 11
153.76309200000003
 21
203.38630699999999
  0
LINE
  8
_0-0_0
  6
CONTINUOUS
 62
    7
 10
153.51309200000003
 20
203.14691199999999
 11
153.76309200000003
 21
203.38630699999999
  0
LINE
  8
_0-0_0
  6
CONTINUOUS
 62
    7
 10
153.51309200000003
 20
203.07333399999999
 11
153.76309200000003
 21
203.34536700000001
  0
LINE
  8
_0-0_0
  6
CONTINUOUS
 62
    7
 10
153.51309200000003
 20
203.122299
 11
153.76309200000003
 21
203.34536700000001
  0
LINE
  8
_0-0_0
  6
CONTINUOUS
 62
    7
 10
153.51309200000003
 20
203.00054900000001
 11
153.76309200000003
 21
203.277649
  0
LINE
  8
_0-0_0
  6
CONTINUOUS
 62
    7
 10
153.51309200000003
 20
203.07333399999999
 11
153.76309200000003
 21
203.277649
  0
LINE
  8
_0-0_0
  6
CONTINUOUS
 62
    7
 10
153.51309200000003
 20
202.90475499999999
 11
153.76309200000003
 21
203.18386799999999
  0
LINE
  8
_0-0_0
  6
CONTINUOUS
 62
    7
 10
153.51309200000003
 20
203.00054900000001
 11
153.76309200000003
 21
203.18386799999999
  0
LINE
  8
_0-0_0
  6
CONTINUOUS
 62
    7
 10
153.51309200000003
 20
202.90475499999999
 11
153.64306600000003
 21
202.988617
  0
LINE
  8
_0-0_0
  6
CONTINUOUS
 62
    7
 10
153.51309200000003
 20
202.78701799999999
 11
153.76309200000003
 21
203.06506300000001
  0
LINE
  8
_0-0_0
  6
CONTINUOUS
 62
    7
 10
153.64306600000003
 20
202.988617
 11
153.76309200000003
 21
203.06506300000001
  0
LINE
  8
_0-0_0
  6
CONTINUOUS
 62
    7
 10
153.51309200000003
 20
202.64857499999999
 11
153.76309200000003
 21
202.92254600000001
  0
LINE
  8
_0-0_0
  6
CONTINUOUS
 62
    7
 10
153.51309200000003
 20
202.78701799999999
 11
153.76309200000003
 21
202.92254600000001
  0
LINE
  8
_0-0_0
  6
CONTINUOUS
 62
    7
 10
153.51309200000003
 20
202.49099699999999
 11
153.76309200000003
 21
202.757858
  0
LINE
  8
_0-0_0
  6
CONTINUOUS
 62
    7
 10
153.51309200000003
 20
202.64857499999999
 11
153.76309200000003
 21
202.757858
  0
LINE
  8
_0-0_0
  6
CONTINUOUS
 62
    7
 10
153.51309200000003
 20
202.315979
 11
153.76309200000003
 21
202.57283000000001
  0
LINE
  8
_0-0_0
  6
CONTINUOUS
 62
    7
 10
153.51309200000003
 20
202.49099699999999
 11
153.76309200000003
 21
202.57283000000001
  0
LINE
  8
_0-0_0
  6
CONTINUOUS
 62
    7
 10
153.51309200000003
 20
202.125427
 11
153.76309200000003
 21
202.369461
  0
LINE
  8
_0-0_0
  6
CONTINUOUS
 62
    7
 10
153.51309200000003
 20
202.315979
 11
153.76309200000003
 21
202.369461
  0
LINE
  8
_0-0_0
  6
CONTINUOUS
 62
    7
 10
153.51309200000003
 20
201.92147800000001
 11
153.76309200000003
 21
202.14999399999999
  0
LINE
  8
_0-0_0
  6
CONTINUOUS
 62
    7
 10
153.51309200000003
 20
202.125427
 11
153.76309200000003
 21
202.14999399999999
  0
LINE
  8
_0-0_0
  6
CONTINUOUS
 62
    7
 10
153.51309200000003
 20
201.70632900000001
 11
153.76309200000003
 21
201.91684000000001
  0
LINE
  8
_0-0_0
  6
CONTINUOUS
 62
    7
 10
153.51309200000003
 20
201.92147800000001
 11
153.76309200000003
 21
201.91684000000001
  0
LINE
  8
_0-0_0
  6
CONTINUOUS
 62
    7
 10
153.51309200000003
 20
201.48234600000001
 11
153.76309200000003
 21
201.67254600000001
  0
LINE
  8
_0-0_0
  6
CONTINUOUS
 62
    7
 10
153.51309200000003
 20
201.70632900000001
 11
153.76309200000003
 21
201.67254600000001
  0
LINE
  8
_0-0_0
  6
CONTINUOUS
 62
    7
 10
153.51309200000003
 20
201.25198399999999
 11
153.76309200000003
 21
201.419769
  0
LINE
  8
_0-0_0
  6
CONTINUOUS
 62
    7
 10
153.51309200000003
 20
201.48234600000001
 11
153.76309200000003
 21
201.419769
  0
LINE
  8
_0-0_0
  6
CONTINUOUS
 62
    7
 10
153.51309200000003
 20
201.01776100000001
 11
153.76309200000003
 21
201.161316
  0
LINE
  8
_0-0_0
  6
CONTINUOUS
 62
    7
 10
153.51309200000003
 20
201.25198399999999
 11
153.76309200000003
 21
201.161316
  0
LINE
  8
_0-0_0
  6
CONTINUOUS
 62
    7
 10
153.51309200000003
 20
200.782242
 11
153.76309200000003
 21
200.89999399999999
  0
LINE
  8
_0-0_0
  6
CONTINUOUS
 62
    7
 10
153.51309200000003
 20
201.01776100000001
 11
153.76309200000003
 21
200.89999399999999
  0
LINE
  8
_0-0_0
  6
CONTINUOUS
 62
    7
 10
153.51309200000003
 20
200.54801900000001
 11
153.76309200000003
 21
200.63867200000001
  0
LINE
  8
_0-0_0
  6
CONTINUOUS
 62
    7
 10
153.51309200000003
 20
200.782242
 11
153.76309200000003
 21
200.63867200000001
  0
LINE
  8
_0-0_0
  6
CONTINUOUS
 62
    7
 10
153.51309200000003
 20
200.317657
 11
153.76309200000003
 21
200.38021900000001
  0
LINE
  8
_0-0_0
  6
CONTINUOUS
 62
    7
 10
153.51309200000003
 20
200.54801900000001
 11
153.76309200000003
 21
200.38021900000001
  0
LINE
  8
_0-0_0
  6
CONTINUOUS
 62
    7
 10
153.51309200000003
 20
200.09367399999999
 11
153.76309200000003
 21
200.12745699999999
  0
LINE
  8
_0-0_0
  6
CONTINUOUS
 62
    7
 10
153.51309200000003
 20
200.317657
 11
153.76309200000003
 21
200.12745699999999
  0
LINE
  8
_0-0_0
  6
CONTINUOUS
 62
    7
 10
153.51309200000003
 20
199.878525
 11
153.76309200000003
 21
199.88314800000001
  0
LINE
  8
_0-0_0
  6
CONTINUOUS
 62
    7
 10
153.51309200000003
 20
200.09367399999999
 11
153.76309200000003
 21
199.88314800000001
  0
LINE
  8
_0-0_0
  6
CONTINUOUS
 62
    7
 10
138.51309200000003
 20
206.59229999999999
 11
148.22091700000001
 21
206.59229999999999
  0
LINE
  8
_0-0_0
  6
CONTINUOUS
 62
    7
 10
148.22091700000001
 20
206.59229999999999
 11
148.31524700000003
 21
206.83892800000001
  0
LINE
  8
_0-0_0
  6
CONTINUOUS
 62
    7
 10
148.31524700000003
 20
206.83892800000001
 11
148.39920000000004
 21
207.07888800000001
  0
LINE
  8
_0-0_0
  6
CONTINUOUS
 62
    7
 10
148.39920000000004
 20
207.07888800000001
 11
148.47335800000002
 21
207.313019
  0
LINE
  8
_0-0_0
  6
CONTINUOUS
 62
    7
 10
148.47335800000002
 20
207.313019
 11
148.53823900000003
 21
207.54205300000001
  0
LINE
  8
_0-0_0
  6
CONTINUOUS
 62
    7
 10
148.53823900000003
 20
207.54205300000001
 11
148.59429900000003
 21
207.76672400000001
  0
LINE
  8
_0-0_0
  6
CONTINUOUS
 62
    7
 10
148.59429900000003
 20
207.76672400000001
 11
148.64184600000002
 21
207.98770099999999
  0
LINE
  8
_0-0_0
  6
CONTINUOUS
 62
    7
 10
148.64184600000002
 20
207.98770099999999
 11
148.68124400000002
 21
208.20562699999999
  0
LINE
  8
_0-0_0
  6
CONTINUOUS
 62
    7
 10
148.68124400000002
 20
208.20562699999999
 11
148.71273800000003
 21
208.421066
  0
LINE
  8
_0-0_0
  6
CONTINUOUS
 62
    7
 10
148.71273800000003
 20
208.421066
 11
148.73651100000004
 21
208.63459800000001
  0
LINE
  8
_0-0_0
  6
CONTINUOUS
 62
    7
 10
148.73651100000004
 20
208.63459800000001
 11
148.75244100000003
 21
208.84231600000001
  0
LINE
  8
_0-0_0
  6
CONTINUOUS
 62
    7
 10
148.75244100000003
 20
208.84231600000001
 11
148.76120000000003
 21
209.04916399999999
  0
LINE
  8
_0-0_0
  6
CONTINUOUS
 62
    7
 10
148.76120000000003
 20
209.04916399999999
 11
148.76284800000002
 21
209.25564600000001
  0
LINE
  8
_0-0_0
  6
CONTINUOUS
 62
    7
 10
148.76284800000002
 20
209.25564600000001
 11
148.75738500000003
 21
209.462219
  0
LINE
  8
_0-0_0
  6
CONTINUOUS
 62
    7
 10
148.75738500000003
 20
209.462219
 11
148.74475100000004
 21
209.66940299999999
  0
LINE
  8
_0-0_0
  6
CONTINUOUS
 62
    7
 10
148.74475100000004
 20
209.66940299999999
 11
148.72494500000002
 21
209.877701
  0
LINE
  8
_0-0_0
  6
CONTINUOUS
 62
    7
 10
148.72494500000002
 20
209.877701
 11
148.69781500000002
 21
210.087616
  0
LINE
  8
_0-0_0
  6
CONTINUOUS
 62
    7
 10
148.69781500000002
 20
210.087616
 11
148.66314700000004
 21
210.29968299999999
  0
LINE
  8
_0-0_0
  6
CONTINUOUS
 62
    7
 10
148.66314700000004
 20
210.29968299999999
 11
148.62081900000004
 21
210.51443499999999
  0
LINE
  8
_0-0_0
  6
CONTINUOUS
 62
    7
 10
148.62081900000004
 20
210.51443499999999
 11
148.57049600000002
 21
210.73245199999999
  0
LINE
  8
_0-0_0
  6
CONTINUOUS
 62
    7
 10
148.57049600000002
 20
210.73245199999999
 11
148.51623500000002
 21
210.93872099999999
  0
LINE
  8
_0-0_0
  6
CONTINUOUS
 62
    7
 10
148.51623500000002
 20
210.93872099999999
 11
148.45452900000004
 21
211.14883399999999
  0
LINE
  8
_0-0_0
  6
CONTINUOUS
 62
    7
 10
148.45452900000004
 20
211.14883399999999
 11
148.38501000000002
 21
211.36331200000001
  0
LINE
  8
_0-0_0
  6
CONTINUOUS
 62
    7
 10
148.38501000000002
 20
211.36331200000001
 11
148.30731200000002
 21
211.582718
  0
LINE
  8
_0-0_0
  6
CONTINUOUS
 62
    7
 10
148.30731200000002
 20
211.582718
 11
148.22091700000001
 21
211.807693
  0
LINE
  8
_0-0_0
  6
CONTINUOUS
 62
    7
 10
138.51309200000003
 20
211.807693
 11
148.22091700000001
 21
211.807693
  0
ARC
  8
_0-0_0
  6
CONTINUOUS
 62
    7
 10
143.34936500000003
 20
205.949997
 40
4.9136889999999998
 50
352.48898799999995
 51
7.5110139999999577
  0
ARC
  8
_0-0_0
  6
CONTINUOUS
 62
    7
 10
143.33920300000003
 20
212.45088200000001
 40
4.9238749999999998
 50
352.49423299999995
 51
1.5359699999999901
  0
ARC
  8
_0-0_0
  6
CONTINUOUS
 62
    7
 10
143.30117800000002
 20
212.44593800000001
 40
4.9620009999999999
 50
1.5813010000000001
 51
7.4847919999999997
  0
LINE
  8
_0-0_0
  6
CONTINUOUS
 62
    7
 10
149.51309200000003
 20
211.93154899999999
 11
149.51309200000003
 21
214.449997
  0
LINE
  8
_0-0_0
  6
CONTINUOUS
 62
    7
 10
149.51309200000003
 20
203.949997
 11
149.51309200000003
 21
211.93154899999999
  0
LINE
  8
_0-0_0
  6
CONTINUOUS
 62
    7
 10
163.26309200000003
 20
199.67456100000001
 11
163.01309200000003
 21
199.64999399999999
  0
LINE
  8
_0-0_0
  6
CONTINUOUS
 62
    7
 10
163.01309200000003
 20
199.64999399999999
 11
153.76309200000003
 21
199.64999399999999
  0
LINE
  8
_0-0_0
  6
CONTINUOUS
 62
    7
 10
163.26309200000003
 20
199.878525
 11
163.01309200000003
 21
199.64999399999999
  0
LINE
  8
_0-0_0
  6
CONTINUOUS
 62
    7
 10
163.26309200000003
 20
199.878525
 11
153.51309200000003
 21
199.878525
  0
LINE
  8
_0-0_0
  6
CONTINUOUS
 62
    7
 10
163.26309200000003
 20
199.484039
 11
163.01309200000003
 21
199.430542
  0
LINE
  8
_0-0_0
  6
CONTINUOUS
 62
    7
 10
163.01309200000003
 20
199.430542
 11
153.76309200000003
 21
199.430542
  0
LINE
  8
_0-0_0
  6
CONTINUOUS
 62
    7
 10
163.26309200000003
 20
199.67456100000001
 11
163.01309200000003
 21
199.430542
  0
LINE
  8
_0-0_0
  6
CONTINUOUS
 62
    7
 10
163.26309200000003
 20
199.309021
 11
163.01309200000003
 21
199.22717299999999
  0
LINE
  8
_0-0_0
  6
CONTINUOUS
 62
    7
 10
163.01309200000003
 20
199.22717299999999
 11
153.76309200000003
 21
199.22717299999999
  0
LINE
  8
_0-0_0
  6
CONTINUOUS
 62
    7
 10
163.26309200000003
 20
199.484039
 11
163.01309200000003
 21
199.22717299999999
  0
LINE
  8
_0-0_0
  6
CONTINUOUS
 62
    7
 10
163.26309200000003
 20
199.15142800000001
 11
163.01309200000003
 21
199.042145
  0
LINE
  8
_0-0_0
  6
CONTINUOUS
 62
    7
 10
163.01309200000003
 20
199.042145
 11
153.76309200000003
 21
199.042145
  0
LINE
  8
_0-0_0
  6
CONTINUOUS
 62
    7
 10
163.26309200000003
 20
199.309021
 11
163.01309200000003
 21
199.042145
  0
LINE
  8
_0-0_0
  6
CONTINUOUS
 62
    7
 10
163.26309200000003
 20
199.01298499999999
 11
163.01309200000003
 21
198.87745699999999
  0
LINE
  8
_0-0_0
  6
CONTINUOUS
 62
    7
 10
163.01309200000003
 20
198.87745699999999
 11
153.76309200000003
 21
198.87745699999999
  0
LINE
  8
_0-0_0
  6
CONTINUOUS
 62
    7
 10
163.26309200000003
 20
199.15142800000001
 11
163.01309200000003
 21
198.87745699999999
  0
LINE
  8
_0-0_0
  6
CONTINUOUS
 62
    7
 10
163.26309200000003
 20
198.89523299999999
 11
163.01309200000003
 21
198.73493999999999
  0
LINE
  8
_0-0_0
  6
CONTINUOUS
 62
    7
 10
163.01309200000003
 20
198.73493999999999
 11
153.76309200000003
 21
198.73493999999999
  0
LINE
  8
_0-0_0
  6
CONTINUOUS
 62
    7
 10
163.26309200000003
 20
199.01298499999999
 11
163.01309200000003
 21
198.73493999999999
  0
LINE
  8
_0-0_0
  6
CONTINUOUS
 62
    7
 10
163.26309200000003
 20
198.799454
 11
163.01309200000003
 21
198.61613500000001
  0
LINE
  8
_0-0_0
  6
CONTINUOUS
 62
    7
 10
163.01309200000003
 20
198.61613500000001
 11
153.76309200000003
 21
198.61613500000001
  0
LINE
  8
_0-0_0
  6
CONTINUOUS
 62
    7
 10
163.26309200000003
 20
198.89523299999999
 11
163.01309200000003
 21
198.61613500000001
  0
LINE
  8
_0-0_0
  6
CONTINUOUS
 62
    7
 10
163.26309200000003
 20
198.72666899999999
 11
163.01309200000003
 21
198.52235400000001
  0
LINE
  8
_0-0_0
  6
CONTINUOUS
 62
    7
 10
163.01309200000003
 20
198.52235400000001
 11
153.76309200000003
 21
198.52235400000001
  0
LINE
  8
_0-0_0
  6
CONTINUOUS
 62
    7
 10
163.26309200000003
 20
198.799454
 11
163.01309200000003
 21
198.52235400000001
  0
LINE
  8
_0-0_0
  6
CONTINUOUS
 62
    7
 10
163.26309200000003
 20
198.67770400000001
 11
163.01309200000003
 21
198.45462000000001
  0
LINE
  8
_0-0_0
  6
CONTINUOUS
 62
    7
 10
163.01309200000003
 20
198.45462000000001
 11
153.76309200000003
 21
198.45462000000001
  0
LINE
  8
_0-0_0
  6
CONTINUOUS
 62
    7
 10
163.26309200000003
 20
198.72666899999999
 11
163.01309200000003
 21
198.45462000000001
  0
LINE
  8
_0-0_0
  6
CONTINUOUS
 62
    7
 10
163.26309200000003
 20
198.653076
 11
163.01309200000003
 21
198.41369599999999
  0
LINE
  8
_0-0_0
  6
CONTINUOUS
 62
    7
 10
163.01309200000003
 20
198.41369599999999
 11
153.76309200000003
 21
198.41369599999999
  0
LINE
  8
_0-0_0
  6
CONTINUOUS
 62
    7
 10
163.26309200000003
 20
198.67770400000001
 11
163.01309200000003
 21
198.41369599999999
  0
LINE
  8
_0-0_0
  6
CONTINUOUS
 62
    7
 10
163.01309200000003
 20
198.39999399999999
 11
153.76309200000003
 21
198.39999399999999
  0
LINE
  8
_0-0_0
  6
CONTINUOUS
 62
    7
 10
163.26309200000003
 20
198.653076
 11
163.01309200000003
 21
198.39999399999999
  0
LINE
  8
_0-0_0
  6
CONTINUOUS
 62
    7
 10
163.26309200000003
 20
203.14691199999999
 11
163.01309200000003
 21
203.39999399999999
  0
LINE
  8
_0-0_0
  6
CONTINUOUS
 62
    7
 10
163.01309200000003
 20
203.39999399999999
 11
153.76309200000003
 21
203.39999399999999
  0
LINE
  8
_0-0_0
  6
CONTINUOUS
 62
    7
 10
163.26309200000003
 20
203.122299
 11
163.01309200000003
 21
203.38630699999999
  0
LINE
  8
_0-0_0
  6
CONTINUOUS
 62
    7
 10
163.01309200000003
 20
203.38630699999999
 11
153.76309200000003
 21
203.38630699999999
  0
LINE
  8
_0-0_0
  6
CONTINUOUS
 62
    7
 10
163.26309200000003
 20
203.14691199999999
 11
163.01309200000003
 21
203.38630699999999
  0
LINE
  8
_0-0_0
  6
CONTINUOUS
 62
    7
 10
163.26309200000003
 20
203.07333399999999
 11
163.01309200000003
 21
203.34536700000001
  0
LINE
  8
_0-0_0
  6
CONTINUOUS
 62
    7
 10
163.01309200000003
 20
203.34536700000001
 11
153.76309200000003
 21
203.34536700000001
  0
LINE
  8
_0-0_0
  6
CONTINUOUS
 62
    7
 10
163.26309200000003
 20
203.122299
 11
163.01309200000003
 21
203.34536700000001
  0
LINE
  8
_0-0_0
  6
CONTINUOUS
 62
    7
 10
163.26309200000003
 20
203.00054900000001
 11
163.01309200000003
 21
203.277649
  0
LINE
  8
_0-0_0
  6
CONTINUOUS
 62
    7
 10
163.01309200000003
 20
203.277649
 11
153.76309200000003
 21
203.277649
  0
LINE
  8
_0-0_0
  6
CONTINUOUS
 62
    7
 10
163.26309200000003
 20
203.07333399999999
 11
163.01309200000003
 21
203.277649
  0
LINE
  8
_0-0_0
  6
CONTINUOUS
 62
    7
 10
163.26309200000003
 20
202.90475499999999
 11
163.01309200000003
 21
203.18386799999999
  0
LINE
  8
_0-0_0
  6
CONTINUOUS
 62
    7
 10
163.01309200000003
 20
203.18386799999999
 11
153.76309200000003
 21
203.18386799999999
  0
LINE
  8
_0-0_0
  6
CONTINUOUS
 62
    7
 10
163.26309200000003
 20
203.00054900000001
 11
163.01309200000003
 21
203.18386799999999
  0
LINE
  8
_0-0_0
  6
CONTINUOUS
 62
    7
 10
163.01309200000003
 20
203.06506300000001
 11
153.76309200000003
 21
203.06506300000001
  0
LINE
  8
_0-0_0
  6
CONTINUOUS
 62
    7
 10
163.13314800000003
 20
202.988617
 11
163.01309200000003
 21
203.06506300000001
  0
LINE
  8
_0-0_0
  6
CONTINUOUS
 62
    7
 10
163.26309200000003
 20
202.90475499999999
 11
163.13314800000003
 21
202.988617
  0
LINE
  8
_0-0_0
  6
CONTINUOUS
 62
    7
 10
163.26309200000003
 20
202.78701799999999
 11
163.01309200000003
 21
203.06506300000001
  0
LINE
  8
_0-0_0
  6
CONTINUOUS
 62
    7
 10
163.26309200000003
 20
202.64857499999999
 11
163.01309200000003
 21
202.92254600000001
  0
LINE
  8
_0-0_0
  6
CONTINUOUS
 62
    7
 10
163.01309200000003
 20
202.92254600000001
 11
153.76309200000003
 21
202.92254600000001
  0
LINE
  8
_0-0_0
  6
CONTINUOUS
 62
    7
 10
163.26309200000003
 20
202.78701799999999
 11
163.01309200000003
 21
202.92254600000001
  0
LINE
  8
_0-0_0
  6
CONTINUOUS
 62
    7
 10
163.26309200000003
 20
202.49099699999999
 11
163.01309200000003
 21
202.757858
  0
LINE
  8
_0-0_0
  6
CONTINUOUS
 62
    7
 10
163.01309200000003
 20
202.757858
 11
153.76309200000003
 21
202.757858
  0
LINE
  8
_0-0_0
  6
CONTINUOUS
 62
    7
 10
163.26309200000003
 20
202.64857499999999
 11
163.01309200000003
 21
202.757858
  0
LINE
  8
_0-0_0
  6
CONTINUOUS
 62
    7
 10
163.26309200000003
 20
202.315979
 11
163.01309200000003
 21
202.57283000000001
  0
LINE
  8
_0-0_0
  6
CONTINUOUS
 62
    7
 10
163.01309200000003
 20
202.57283000000001
 11
153.76309200000003
 21
202.57283000000001
  0
LINE
  8
_0-0_0
  6
CONTINUOUS
 62
    7
 10
163.26309200000003
 20
202.49099699999999
 11
163.01309200000003
 21
202.57283000000001
  0
LINE
  8
_0-0_0
  6
CONTINUOUS
 62
    7
 10
163.26309200000003
 20
202.125427
 11
163.01309200000003
 21
202.369461
  0
LINE
  8
_0-0_0
  6
CONTINUOUS
 62
    7
 10
163.01309200000003
 20
202.369461
 11
153.76309200000003
 21
202.369461
  0
LINE
  8
_0-0_0
  6
CONTINUOUS
 62
    7
 10
163.26309200000003
 20
202.315979
 11
163.01309200000003
 21
202.369461
  0
LINE
  8
_0-0_0
  6
CONTINUOUS
 62
    7
 10
163.26309200000003
 20
201.92147800000001
 11
163.01309200000003
 21
202.14999399999999
  0
LINE
  8
_0-0_0
  6
CONTINUOUS
 62
    7
 10
163.01309200000003
 20
202.14999399999999
 11
153.76309200000003
 21
202.14999399999999
  0
LINE
  8
_0-0_0
  6
CONTINUOUS
 62
    7
 10
163.26309200000003
 20
201.92147800000001
 11
153.51309200000003
 21
201.92147800000001
  0
LINE
  8
_0-0_0
  6
CONTINUOUS
 62
    7
 10
163.26309200000003
 20
202.125427
 11
163.01309200000003
 21
202.14999399999999
  0
LINE
  8
_0-0_0
  6
CONTINUOUS
 62
    7
 10
163.26309200000003
 20
201.70632900000001
 11
163.01309200000003
 21
201.91684000000001
  0
LINE
  8
_0-0_0
  6
CONTINUOUS
 62
    7
 10
163.01309200000003
 20
201.91684000000001
 11
153.76309200000003
 21
201.91684000000001
  0
LINE
  8
_0-0_0
  6
CONTINUOUS
 62
    7
 10
163.26309200000003
 20
201.70632900000001
 11
153.51309200000003
 21
201.70632900000001
  0
LINE
  8
_0-0_0
  6
CONTINUOUS
 62
    7
 10
163.26309200000003
 20
201.92147800000001
 11
163.01309200000003
 21
201.91684000000001
  0
LINE
  8
_0-0_0
  6
CONTINUOUS
 62
    7
 10
163.26309200000003
 20
201.48234600000001
 11
163.01309200000003
 21
201.67254600000001
  0
LINE
  8
_0-0_0
  6
CONTINUOUS
 62
    7
 10
163.01309200000003
 20
201.67254600000001
 11
153.76309200000003
 21
201.67254600000001
  0
LINE
  8
_0-0_0
  6
CONTINUOUS
 62
    7
 10
163.26309200000003
 20
201.48234600000001
 11
153.51309200000003
 21
201.48234600000001
  0
LINE
  8
_0-0_0
  6
CONTINUOUS
 62
    7
 10
163.26309200000003
 20
201.70632900000001
 11
163.01309200000003
 21
201.67254600000001
  0
LINE
  8
_0-0_0
  6
CONTINUOUS
 62
    7
 10
163.26309200000003
 20
201.25198399999999
 11
163.01309200000003
 21
201.419769
  0
LINE
  8
_0-0_0
  6
CONTINUOUS
 62
    7
 10
163.01309200000003
 20
201.419769
 11
153.76309200000003
 21
201.419769
  0
LINE
  8
_0-0_0
  6
CONTINUOUS
 62
    7
 10
163.26309200000003
 20
201.25198399999999
 11
153.51309200000003
 21
201.25198399999999
  0
LINE
  8
_0-0_0
  6
CONTINUOUS
 62
    7
 10
163.26309200000003
 20
201.48234600000001
 11
163.01309200000003
 21
201.419769
  0
LINE
  8
_0-0_0
  6
CONTINUOUS
 62
    7
 10
163.26309200000003
 20
201.01776100000001
 11
163.01309200000003
 21
201.161316
  0
LINE
  8
_0-0_0
  6
CONTINUOUS
 62
    7
 10
163.01309200000003
 20
201.161316
 11
153.76309200000003
 21
201.161316
  0
LINE
  8
_0-0_0
  6
CONTINUOUS
 62
    7
 10
163.26309200000003
 20
201.01776100000001
 11
153.51309200000003
 21
201.01776100000001
  0
LINE
  8
_0-0_0
  6
CONTINUOUS
 62
    7
 10
163.26309200000003
 20
201.25198399999999
 11
163.01309200000003
 21
201.161316
  0
LINE
  8
_0-0_0
  6
CONTINUOUS
 62
    7
 10
163.26309200000003
 20
200.782242
 11
163.01309200000003
 21
200.89999399999999
  0
LINE
  8
_0-0_0
  6
CONTINUOUS
 62
    7
 10
163.01309200000003
 20
200.89999399999999
 11
153.76309200000003
 21
200.89999399999999
  0
LINE
  8
_0-0_0
  6
CONTINUOUS
 62
    7
 10
163.26309200000003
 20
200.782242
 11
153.51309200000003
 21
200.782242
  0
LINE
  8
_0-0_0
  6
CONTINUOUS
 62
    7
 10
163.26309200000003
 20
201.01776100000001
 11
163.01309200000003
 21
200.89999399999999
  0
LINE
  8
_0-0_0
  6
CONTINUOUS
 62
    7
 10
163.26309200000003
 20
200.54801900000001
 11
163.01309200000003
 21
200.63867200000001
  0
LINE
  8
_0-0_0
  6
CONTINUOUS
 62
    7
 10
163.01309200000003
 20
200.63867200000001
 11
153.76309200000003
 21
200.63867200000001
  0
LINE
  8
_0-0_0
  6
CONTINUOUS
 62
    7
 10
163.26309200000003
 20
200.54801900000001
 11
153.51309200000003
 21
200.54801900000001
  0
LINE
  8
_0-0_0
  6
CONTINUOUS
 62
    7
 10
163.26309200000003
 20
200.782242
 11
163.01309200000003
 21
200.63867200000001
  0
LINE
  8
_0-0_0
  6
CONTINUOUS
 62
    7
 10
163.26309200000003
 20
200.317657
 11
163.01309200000003
 21
200.38021900000001
  0
LINE
  8
_0-0_0
  6
CONTINUOUS
 62
    7
 10
163.01309200000003
 20
200.38021900000001
 11
153.76309200000003
 21
200.38021900000001
  0
LINE
  8
_0-0_0
  6
CONTINUOUS
 62
    7
 10
163.26309200000003
 20
200.317657
 11
153.51309200000003
 21
200.317657
  0
LINE
  8
_0-0_0
  6
CONTINUOUS
 62
    7
 10
163.26309200000003
 20
200.54801900000001
 11
163.01309200000003
 21
200.38021900000001
  0
LINE
  8
_0-0_0
  6
CONTINUOUS
 62
    7
 10
163.26309200000003
 20
200.09367399999999
 11
163.01309200000003
 21
200.12745699999999
  0
LINE
  8
_0-0_0
  6
CONTINUOUS
 62
    7
 10
163.01309200000003
 20
200.12745699999999
 11
153.76309200000003
 21
200.12745699999999
  0
LINE
  8
_0-0_0
  6
CONTINUOUS
 62
    7
 10
163.26309200000003
 20
200.09367399999999
 11
153.51309200000003
 21
200.09367399999999
  0
LINE
  8
_0-0_0
  6
CONTINUOUS
 62
    7
 10
163.26309200000003
 20
200.317657
 11
163.01309200000003
 21
200.12745699999999
  0
LINE
  8
_0-0_0
  6
CONTINUOUS
 62
    7
 10
163.26309200000003
 20
199.878525
 11
163.01309200000003
 21
199.88314800000001
  0
LINE
  8
_0-0_0
  6
CONTINUOUS
 62
    7
 10
163.01309200000003
 20
199.88314800000001
 11
153.76309200000003
 21
199.88314800000001
  0
LINE
  8
_0-0_0
  6
CONTINUOUS
 62
    7
 10
163.26309200000003
 20
200.09367399999999
 11
163.01309200000003
 21
199.88314800000001
  0
LINE
  8
_0-0_0
  6
CONTINUOUS
 62
    7
 10
163.51309200000003
 20
198.89999399999999
 11
163.51309200000003
 21
202.65516700000001
  0
LINE
  8
_0-0_0
  6
CONTINUOUS
 62
    7
 10
163.51309200000003
 20
202.65516700000001
 11
163.51309200000003
 21
202.89999399999999
  0
LINE
  8
_0-0_0
  6
CONTINUOUS
 62
    7
 10
149.91308600000002
 20
204.199997
 11
149.91308600000002
 21
206.699997
  0
LINE
  8
_0-0_0
  6
CONTINUOUS
 62
    7
 10
149.91308600000002
 20
206.699997
 11
149.91308600000002
 21
214.199997
  0
LINE
  8
_0-0_0
  6
CONTINUOUS
 62
    7
 10
150.71310400000002
 20
204.66188
 11
150.71310400000002
 21
206.930939
  0
LINE
  8
_0-0_0
  6
CONTINUOUS
 62
    7
 10
150.71310400000002
 20
206.930939
 11
150.71310400000002
 21
213.73812899999999
  0
LINE
  8
_0-0_0
  6
CONTINUOUS
 62
    7
 10
208.71310400000004
 20
205.199997
 11
208.71310400000004
 21
205.20135500000001
  0
LINE
  8
_0-0_0
  6
CONTINUOUS
 62
    7
 10
208.71310400000004
 20
205.20135500000001
 11
208.71310400000004
 21
213.199997
  0
LINE
  8
_0-0_0
  6
CONTINUOUS
 62
    7
 10
153.51309200000003
 20
219.74691799999999
 11
153.51309200000003
 21
219.75
  0
LINE
  8
_0-0_0
  6
CONTINUOUS
 62
    7
 10
153.51309200000003
 20
219.72228999999999
 11
153.51309200000003
 21
219.74691799999999
  0
LINE
  8
_0-0_0
  6
CONTINUOUS
 62
    7
 10
153.51309200000003
 20
219.67334
 11
153.51309200000003
 21
219.72228999999999
  0
LINE
  8
_0-0_0
  6
CONTINUOUS
 62
    7
 10
153.51309200000003
 20
219.60055500000001
 11
153.51309200000003
 21
219.67334
  0
LINE
  8
_0-0_0
  6
CONTINUOUS
 62
    7
 10
153.51309200000003
 20
219.504761
 11
153.51309200000003
 21
219.60055500000001
  0
LINE
  8
_0-0_0
  6
CONTINUOUS
 62
    7
 10
153.51309200000003
 20
219.47456399999999
 11
153.51309200000003
 21
219.504761
  0
LINE
  8
_0-0_0
  6
CONTINUOUS
 62
    7
 10
153.51309200000003
 20
219.38700900000001
 11
153.51309200000003
 21
219.47456399999999
  0
LINE
  8
_0-0_0
  6
CONTINUOUS
 62
    7
 10
153.51309200000003
 20
219.248581
 11
153.51309200000003
 21
219.38700900000001
  0
LINE
  8
_0-0_0
  6
CONTINUOUS
 62
    7
 10
153.51309200000003
 20
219.09098800000001
 11
153.51309200000003
 21
219.248581
  0
LINE
  8
_0-0_0
  6
CONTINUOUS
 62
    7
 10
153.51309200000003
 20
218.91596999999999
 11
153.51309200000003
 21
219.09098800000001
  0
LINE
  8
_0-0_0
  6
CONTINUOUS
 62
    7
 10
153.51309200000003
 20
218.72543300000001
 11
153.51309200000003
 21
218.91596999999999
  0
LINE
  8
_0-0_0
  6
CONTINUOUS
 62
    7
 10
153.51309200000003
 20
218.52148399999999
 11
153.51309200000003
 21
218.72543300000001
  0
LINE
  8
_0-0_0
  6
CONTINUOUS
 62
    7
 10
153.51309200000003
 20
218.30633499999999
 11
153.51309200000003
 21
218.52148399999999
  0
LINE
  8
_0-0_0
  6
CONTINUOUS
 62
    7
 10
153.51309200000003
 20
218.082336
 11
153.51309200000003
 21
218.30633499999999
  0
LINE
  8
_0-0_0
  6
CONTINUOUS
 62
    7
 10
153.51309200000003
 20
217.85197400000001
 11
153.51309200000003
 21
218.082336
  0
LINE
  8
_0-0_0
  6
CONTINUOUS
 62
    7
 10
153.51309200000003
 20
217.617752
 11
153.51309200000003
 21
217.85197400000001
  0
LINE
  8
_0-0_0
  6
CONTINUOUS
 62
    7
 10
153.51309200000003
 20
217.382248
 11
153.51309200000003
 21
217.617752
  0
LINE
  8
_0-0_0
  6
CONTINUOUS
 62
    7
 10
153.51309200000003
 20
217.14802599999999
 11
153.51309200000003
 21
217.382248
  0
LINE
  8
_0-0_0
  6
CONTINUOUS
 62
    7
 10
153.51309200000003
 20
216.917664
 11
153.51309200000003
 21
217.14802599999999
  0
LINE
  8
_0-0_0
  6
CONTINUOUS
 62
    7
 10
153.51309200000003
 20
216.69366500000001
 11
153.51309200000003
 21
216.917664
  0
LINE
  8
_0-0_0
  6
CONTINUOUS
 62
    7
 10
153.51309200000003
 20
216.47851600000001
 11
153.51309200000003
 21
216.69366500000001
  0
LINE
  8
_0-0_0
  6
CONTINUOUS
 62
    7
 10
153.51309200000003
 20
216.42129499999999
 11
153.51309200000003
 21
216.47851600000001
  0
LINE
  8
_0-0_0
  6
CONTINUOUS
 62
    7
 10
153.51309200000003
 20
219.74691799999999
 11
153.76309200000003
 21
220
  0
LINE
  8
_0-0_0
  6
CONTINUOUS
 62
    7
 10
153.51309200000003
 20
219.72228999999999
 11
153.76309200000003
 21
219.98629800000001
  0
LINE
  8
_0-0_0
  6
CONTINUOUS
 62
    7
 10
153.51309200000003
 20
219.74691799999999
 11
153.76309200000003
 21
219.98629800000001
  0
LINE
  8
_0-0_0
  6
CONTINUOUS
 62
    7
 10
153.51309200000003
 20
219.67334
 11
153.76309200000003
 21
219.94537399999999
  0
LINE
  8
_0-0_0
  6
CONTINUOUS
 62
    7
 10
153.51309200000003
 20
219.72228999999999
 11
153.54412800000003
 21
219.75
  0
LINE
  8
_0-0_0
  6
CONTINUOUS
 62
    7
 10
153.51309200000003
 20
219.60055500000001
 11
153.76309200000003
 21
219.87764000000001
  0
LINE
  8
_0-0_0
  6
CONTINUOUS
 62
    7
 10
153.51309200000003
 20
219.67334
 11
153.76309200000003
 21
219.87764000000001
  0
LINE
  8
_0-0_0
  6
CONTINUOUS
 62
    7
 10
153.51309200000003
 20
219.504761
 11
153.76309200000003
 21
219.78385900000001
  0
LINE
  8
_0-0_0
  6
CONTINUOUS
 62
    7
 10
153.51309200000003
 20
219.60055500000001
 11
153.76309200000003
 21
219.78385900000001
  0
LINE
  8
_0-0_0
  6
CONTINUOUS
 62
    7
 10
153.51309200000003
 20
219.504761
 11
153.64306600000003
 21
219.58862300000001
  0
LINE
  8
_0-0_0
  6
CONTINUOUS
 62
    7
 10
153.51309200000003
 20
219.38700900000001
 11
153.76309200000003
 21
219.66506999999999
  0
LINE
  8
_0-0_0
  6
CONTINUOUS
 62
    7
 10
153.64306600000003
 20
219.58862300000001
 11
153.76309200000003
 21
219.66506999999999
  0
LINE
  8
_0-0_0
  6
CONTINUOUS
 62
    7
 10
153.51309200000003
 20
219.248581
 11
153.76309200000003
 21
219.522537
  0
LINE
  8
_0-0_0
  6
CONTINUOUS
 62
    7
 10
153.51309200000003
 20
219.38700900000001
 11
153.76309200000003
 21
219.522537
  0
LINE
  8
_0-0_0
  6
CONTINUOUS
 62
    7
 10
153.51309200000003
 20
219.09098800000001
 11
153.76309200000003
 21
219.35786400000001
  0
LINE
  8
_0-0_0
  6
CONTINUOUS
 62
    7
 10
153.51309200000003
 20
219.248581
 11
153.76309200000003
 21
219.35786400000001
  0
LINE
  8
_0-0_0
  6
CONTINUOUS
 62
    7
 10
153.51309200000003
 20
218.91596999999999
 11
153.76309200000003
 21
219.172821
  0
LINE
  8
_0-0_0
  6
CONTINUOUS
 62
    7
 10
153.51309200000003
 20
219.09098800000001
 11
153.76309200000003
 21
219.172821
  0
LINE
  8
_0-0_0
  6
CONTINUOUS
 62
    7
 10
153.51309200000003
 20
218.72543300000001
 11
153.76309200000003
 21
218.96946700000001
  0
LINE
  8
_0-0_0
  6
CONTINUOUS
 62
    7
 10
153.51309200000003
 20
218.91596999999999
 11
153.76309200000003
 21
218.96946700000001
  0
LINE
  8
_0-0_0
  6
CONTINUOUS
 62
    7
 10
153.51309200000003
 20
218.52148399999999
 11
153.76309200000003
 21
218.75
  0
LINE
  8
_0-0_0
  6
CONTINUOUS
 62
    7
 10
153.51309200000003
 20
218.72543300000001
 11
153.76309200000003
 21
218.75
  0
LINE
  8
_0-0_0
  6
CONTINUOUS
 62
    7
 10
153.51309200000003
 20
218.30633499999999
 11
153.76309200000003
 21
218.51684599999999
  0
LINE
  8
_0-0_0
  6
CONTINUOUS
 62
    7
 10
153.51309200000003
 20
218.52148399999999
 11
153.76309200000003
 21
218.51684599999999
  0
LINE
  8
_0-0_0
  6
CONTINUOUS
 62
    7
 10
153.51309200000003
 20
218.082336
 11
153.76309200000003
 21
218.272537
  0
LINE
  8
_0-0_0
  6
CONTINUOUS
 62
    7
 10
153.51309200000003
 20
218.30633499999999
 11
153.76309200000003
 21
218.272537
  0
LINE
  8
_0-0_0
  6
CONTINUOUS
 62
    7
 10
153.51309200000003
 20
217.85197400000001
 11
153.76309200000003
 21
218.01977500000001
  0
LINE
  8
_0-0_0
  6
CONTINUOUS
 62
    7
 10
153.51309200000003
 20
218.082336
 11
153.76309200000003
 21
218.01977500000001
  0
LINE
  8
_0-0_0
  6
CONTINUOUS
 62
    7
 10
153.51309200000003
 20
217.617752
 11
153.76309200000003
 21
217.76132200000001
  0
LINE
  8
_0-0_0
  6
CONTINUOUS
 62
    7
 10
153.51309200000003
 20
217.85197400000001
 11
153.76309200000003
 21
217.76132200000001
  0
LINE
  8
_0-0_0
  6
CONTINUOUS
 62
    7
 10
153.51309200000003
 20
217.382248
 11
153.76309200000003
 21
217.5
  0
LINE
  8
_0-0_0
  6
CONTINUOUS
 62
    7
 10
153.51309200000003
 20
217.617752
 11
153.76309200000003
 21
217.5
  0
LINE
  8
_0-0_0
  6
CONTINUOUS
 62
    7
 10
153.51309200000003
 20
217.14802599999999
 11
153.76309200000003
 21
217.23867799999999
  0
LINE
  8
_0-0_0
  6
CONTINUOUS
 62
    7
 10
153.51309200000003
 20
217.382248
 11
153.76309200000003
 21
217.23867799999999
  0
LINE
  8
_0-0_0
  6
CONTINUOUS
 62
    7
 10
153.51309200000003
 20
216.917664
 11
153.76309200000003
 21
216.98022499999999
  0
LINE
  8
_0-0_0
  6
CONTINUOUS
 62
    7
 10
153.51309200000003
 20
217.14802599999999
 11
153.76309200000003
 21
216.98022499999999
  0
LINE
  8
_0-0_0
  6
CONTINUOUS
 62
    7
 10
153.51309200000003
 20
216.69366500000001
 11
153.76309200000003
 21
216.727463
  0
LINE
  8
_0-0_0
  6
CONTINUOUS
 62
    7
 10
153.51309200000003
 20
216.917664
 11
153.76309200000003
 21
216.727463
  0
LINE
  8
_0-0_0
  6
CONTINUOUS
 62
    7
 10
153.51309200000003
 20
216.47851600000001
 11
153.76309200000003
 21
216.48315400000001
  0
LINE
  8
_0-0_0
  6
CONTINUOUS
 62
    7
 10
153.51309200000003
 20
216.69366500000001
 11
153.76309200000003
 21
216.48315400000001
  0
LINE
  8
_0-0_0
  6
CONTINUOUS
 62
    7
 10
153.51309200000003
 20
216.27456699999999
 11
153.51309200000003
 21
216.42129499999999
  0
LINE
  8
_0-0_0
  6
CONTINUOUS
 62
    7
 10
153.51309200000003
 20
216.27456699999999
 11
153.76309200000003
 21
216.25
  0
LINE
  8
_0-0_0
  6
CONTINUOUS
 62
    7
 10
153.51309200000003
 20
216.47851600000001
 11
153.76309200000003
 21
216.25
  0
LINE
  8
_0-0_0
  6
CONTINUOUS
 62
    7
 10
153.51309200000003
 20
216.08403000000001
 11
153.51309200000003
 21
216.27456699999999
  0
LINE
  8
_0-0_0
  6
CONTINUOUS
 62
    7
 10
153.51309200000003
 20
215.90901199999999
 11
153.51309200000003
 21
216.08403000000001
  0
LINE
  8
_0-0_0
  6
CONTINUOUS
 62
    7
 10
153.51309200000003
 20
215.751419
 11
153.51309200000003
 21
215.90901199999999
  0
LINE
  8
_0-0_0
  6
CONTINUOUS
 62
    7
 10
153.51309200000003
 20
215.61299099999999
 11
153.51309200000003
 21
215.751419
  0
LINE
  8
_0-0_0
  6
CONTINUOUS
 62
    7
 10
153.51309200000003
 20
215.495239
 11
153.51309200000003
 21
215.61299099999999
  0
LINE
  8
_0-0_0
  6
CONTINUOUS
 62
    7
 10
153.51309200000003
 20
215.39944499999999
 11
153.51309200000003
 21
215.495239
  0
LINE
  8
_0-0_0
  6
CONTINUOUS
 62
    7
 10
153.51309200000003
 20
215.25
 11
153.51309200000003
 21
215.39944499999999
  0
LINE
  8
_0-0_0
  6
CONTINUOUS
 62
    7
 10
153.51309200000003
 20
215.27771000000001
 11
153.51309200000003
 21
215.32666
  0
LINE
  8
_0-0_0
  6
CONTINUOUS
 62
    7
 10
153.51309200000003
 20
215.25308200000001
 11
153.51309200000003
 21
215.27771000000001
  0
LINE
  8
_0-0_0
  6
CONTINUOUS
 62
    7
 10
153.51309200000003
 20
215.25
 11
153.51309200000003
 21
215.25308200000001
  0
LINE
  8
_0-0_0
  6
CONTINUOUS
 62
    7
 10
163.26309200000003
 20
219.74691799999999
 11
163.01309200000003
 21
220
  0
LINE
  8
_0-0_0
  6
CONTINUOUS
 62
    7
 10
163.01309200000003
 20
220
 11
153.76309200000003
 21
220
  0
LINE
  8
_0-0_0
  6
CONTINUOUS
 62
    7
 10
163.26309200000003
 20
219.72228999999999
 11
163.01309200000003
 21
219.98629800000001
  0
LINE
  8
_0-0_0
  6
CONTINUOUS
 62
    7
 10
163.01309200000003
 20
219.98629800000001
 11
153.76309200000003
 21
219.98629800000001
  0
LINE
  8
_0-0_0
  6
CONTINUOUS
 62
    7
 10
163.26309200000003
 20
219.74691799999999
 11
163.01309200000003
 21
219.98629800000001
  0
LINE
  8
_0-0_0
  6
CONTINUOUS
 62
    7
 10
163.26309200000003
 20
219.67334
 11
163.01309200000003
 21
219.94537399999999
  0
LINE
  8
_0-0_0
  6
CONTINUOUS
 62
    7
 10
163.01309200000003
 20
219.94537399999999
 11
153.76309200000003
 21
219.94537399999999
  0
LINE
  8
_0-0_0
  6
CONTINUOUS
 62
    7
 10
163.26309200000003
 20
219.72228999999999
 11
163.01309200000003
 21
219.94537399999999
  0
LINE
  8
_0-0_0
  6
CONTINUOUS
 62
    7
 10
163.26309200000003
 20
219.60055500000001
 11
163.01309200000003
 21
219.87764000000001
  0
LINE
  8
_0-0_0
  6
CONTINUOUS
 62
    7
 10
163.01309200000003
 20
219.87764000000001
 11
153.76309200000003
 21
219.87764000000001
  0
LINE
  8
_0-0_0
  6
CONTINUOUS
 62
    7
 10
163.26309200000003
 20
219.67334
 11
163.01309200000003
 21
219.87764000000001
  0
LINE
  8
_0-0_0
  6
CONTINUOUS
 62
    7
 10
163.26309200000003
 20
219.504761
 11
163.01309200000003
 21
219.78385900000001
  0
LINE
  8
_0-0_0
  6
CONTINUOUS
 62
    7
 10
163.01309200000003
 20
219.78385900000001
 11
153.76309200000003
 21
219.78385900000001
  0
LINE
  8
_0-0_0
  6
CONTINUOUS
 62
    7
 10
163.26309200000003
 20
219.60055500000001
 11
163.01309200000003
 21
219.78385900000001
  0
LINE
  8
_0-0_0
  6
CONTINUOUS
 62
    7
 10
163.01309200000003
 20
219.66506999999999
 11
153.76309200000003
 21
219.66506999999999
  0
LINE
  8
_0-0_0
  6
CONTINUOUS
 62
    7
 10
163.13314800000003
 20
219.58862300000001
 11
163.01309200000003
 21
219.66506999999999
  0
LINE
  8
_0-0_0
  6
CONTINUOUS
 62
    7
 10
163.26309200000003
 20
219.504761
 11
163.13314800000003
 21
219.58862300000001
  0
LINE
  8
_0-0_0
  6
CONTINUOUS
 62
    7
 10
163.26309200000003
 20
219.38700900000001
 11
163.01309200000003
 21
219.66506999999999
  0
LINE
  8
_0-0_0
  6
CONTINUOUS
 62
    7
 10
163.26309200000003
 20
219.248581
 11
163.01309200000003
 21
219.522537
  0
LINE
  8
_0-0_0
  6
CONTINUOUS
 62
    7
 10
163.01309200000003
 20
219.522537
 11
153.76309200000003
 21
219.522537
  0
LINE
  8
_0-0_0
  6
CONTINUOUS
 62
    7
 10
163.26309200000003
 20
219.38700900000001
 11
163.01309200000003
 21
219.522537
  0
LINE
  8
_0-0_0
  6
CONTINUOUS
 62
    7
 10
163.26309200000003
 20
219.09098800000001
 11
163.01309200000003
 21
219.35786400000001
  0
LINE
  8
_0-0_0
  6
CONTINUOUS
 62
    7
 10
163.01309200000003
 20
219.35786400000001
 11
153.76309200000003
 21
219.35786400000001
  0
LINE
  8
_0-0_0
  6
CONTINUOUS
 62
    7
 10
163.26309200000003
 20
219.248581
 11
163.01309200000003
 21
219.35786400000001
  0
LINE
  8
_0-0_0
  6
CONTINUOUS
 62
    7
 10
163.26309200000003
 20
218.91596999999999
 11
163.01309200000003
 21
219.172821
  0
LINE
  8
_0-0_0
  6
CONTINUOUS
 62
    7
 10
163.01309200000003
 20
219.172821
 11
153.76309200000003
 21
219.172821
  0
LINE
  8
_0-0_0
  6
CONTINUOUS
 62
    7
 10
163.26309200000003
 20
219.09098800000001
 11
163.01309200000003
 21
219.172821
  0
LINE
  8
_0-0_0
  6
CONTINUOUS
 62
    7
 10
163.26309200000003
 20
218.72543300000001
 11
163.01309200000003
 21
218.96946700000001
  0
LINE
  8
_0-0_0
  6
CONTINUOUS
 62
    7
 10
163.01309200000003
 20
218.96946700000001
 11
153.76309200000003
 21
218.96946700000001
  0
LINE
  8
_0-0_0
  6
CONTINUOUS
 62
    7
 10
163.26309200000003
 20
218.91596999999999
 11
163.01309200000003
 21
218.96946700000001
  0
LINE
  8
_0-0_0
  6
CONTINUOUS
 62
    7
 10
163.26309200000003
 20
218.52148399999999
 11
163.01309200000003
 21
218.75
  0
LINE
  8
_0-0_0
  6
CONTINUOUS
 62
    7
 10
163.01309200000003
 20
218.75
 11
153.76309200000003
 21
218.75
  0
LINE
  8
_0-0_0
  6
CONTINUOUS
 62
    7
 10
163.26309200000003
 20
218.52148399999999
 11
153.51309200000003
 21
218.52148399999999
  0
LINE
  8
_0-0_0
  6
CONTINUOUS
 62
    7
 10
163.26309200000003
 20
218.72543300000001
 11
163.01309200000003
 21
218.75
  0
LINE
  8
_0-0_0
  6
CONTINUOUS
 62
    7
 10
163.26309200000003
 20
218.30633499999999
 11
163.01309200000003
 21
218.51684599999999
  0
LINE
  8
_0-0_0
  6
CONTINUOUS
 62
    7
 10
163.01309200000003
 20
218.51684599999999
 11
153.76309200000003
 21
218.51684599999999
  0
LINE
  8
_0-0_0
  6
CONTINUOUS
 62
    7
 10
163.26309200000003
 20
218.30633499999999
 11
153.51309200000003
 21
218.30633499999999
  0
LINE
  8
_0-0_0
  6
CONTINUOUS
 62
    7
 10
163.26309200000003
 20
218.52148399999999
 11
163.01309200000003
 21
218.51684599999999
  0
LINE
  8
_0-0_0
  6
CONTINUOUS
 62
    7
 10
163.26309200000003
 20
218.082336
 11
163.01309200000003
 21
218.272537
  0
LINE
  8
_0-0_0
  6
CONTINUOUS
 62
    7
 10
163.01309200000003
 20
218.272537
 11
153.76309200000003
 21
218.272537
  0
LINE
  8
_0-0_0
  6
CONTINUOUS
 62
    7
 10
163.26309200000003
 20
218.082336
 11
153.51309200000003
 21
218.082336
  0
LINE
  8
_0-0_0
  6
CONTINUOUS
 62
    7
 10
163.26309200000003
 20
218.30633499999999
 11
163.01309200000003
 21
218.272537
  0
LINE
  8
_0-0_0
  6
CONTINUOUS
 62
    7
 10
163.26309200000003
 20
217.85197400000001
 11
163.01309200000003
 21
218.01977500000001
  0
LINE
  8
_0-0_0
  6
CONTINUOUS
 62
    7
 10
163.01309200000003
 20
218.01977500000001
 11
153.76309200000003
 21
218.01977500000001
  0
LINE
  8
_0-0_0
  6
CONTINUOUS
 62
    7
 10
163.26309200000003
 20
217.85197400000001
 11
153.51309200000003
 21
217.85197400000001
  0
LINE
  8
_0-0_0
  6
CONTINUOUS
 62
    7
 10
163.26309200000003
 20
218.082336
 11
163.01309200000003
 21
218.01977500000001
  0
LINE
  8
_0-0_0
  6
CONTINUOUS
 62
    7
 10
163.26309200000003
 20
217.617752
 11
163.01309200000003
 21
217.76132200000001
  0
LINE
  8
_0-0_0
  6
CONTINUOUS
 62
    7
 10
163.01309200000003
 20
217.76132200000001
 11
153.76309200000003
 21
217.76132200000001
  0
LINE
  8
_0-0_0
  6
CONTINUOUS
 62
    7
 10
163.26309200000003
 20
217.617752
 11
153.51309200000003
 21
217.617752
  0
LINE
  8
_0-0_0
  6
CONTINUOUS
 62
    7
 10
163.26309200000003
 20
217.85197400000001
 11
163.01309200000003
 21
217.76132200000001
  0
LINE
  8
_0-0_0
  6
CONTINUOUS
 62
    7
 10
163.26309200000003
 20
217.382248
 11
163.01309200000003
 21
217.5
  0
LINE
  8
_0-0_0
  6
CONTINUOUS
 62
    7
 10
163.01309200000003
 20
217.5
 11
153.76309200000003
 21
217.5
  0
LINE
  8
_0-0_0
  6
CONTINUOUS
 62
    7
 10
163.26309200000003
 20
217.382248
 11
153.51309200000003
 21
217.382248
  0
LINE
  8
_0-0_0
  6
CONTINUOUS
 62
    7
 10
163.26309200000003
 20
217.617752
 11
163.01309200000003
 21
217.5
  0
LINE
  8
_0-0_0
  6
CONTINUOUS
 62
    7
 10
163.26309200000003
 20
217.14802599999999
 11
163.01309200000003
 21
217.23867799999999
  0
LINE
  8
_0-0_0
  6
CONTINUOUS
 62
    7
 10
163.01309200000003
 20
217.23867799999999
 11
153.76309200000003
 21
217.23867799999999
  0
LINE
  8
_0-0_0
  6
CONTINUOUS
 62
    7
 10
163.26309200000003
 20
217.14802599999999
 11
153.51309200000003
 21
217.14802599999999
  0
LINE
  8
_0-0_0
  6
CONTINUOUS
 62
    7
 10
163.26309200000003
 20
217.382248
 11
163.01309200000003
 21
217.23867799999999
  0
LINE
  8
_0-0_0
  6
CONTINUOUS
 62
    7
 10
163.26309200000003
 20
216.917664
 11
163.01309200000003
 21
216.98022499999999
  0
LINE
  8
_0-0_0
  6
CONTINUOUS
 62
    7
 10
163.01309200000003
 20
216.98022499999999
 11
153.76309200000003
 21
216.98022499999999
  0
LINE
  8
_0-0_0
  6
CONTINUOUS
 62
    7
 10
163.26309200000003
 20
216.917664
 11
153.51309200000003
 21
216.917664
  0
LINE
  8
_0-0_0
  6
CONTINUOUS
 62
    7
 10
163.26309200000003
 20
217.14802599999999
 11
163.01309200000003
 21
216.98022499999999
  0
LINE
  8
_0-0_0
  6
CONTINUOUS
 62
    7
 10
163.26309200000003
 20
216.69366500000001
 11
163.01309200000003
 21
216.727463
  0
LINE
  8
_0-0_0
  6
CONTINUOUS
 62
    7
 10
163.01309200000003
 20
216.727463
 11
153.76309200000003
 21
216.727463
  0
LINE
  8
_0-0_0
  6
CONTINUOUS
 62
    7
 10
163.26309200000003
 20
216.69366500000001
 11
153.51309200000003
 21
216.69366500000001
  0
LINE
  8
_0-0_0
  6
CONTINUOUS
 62
    7
 10
163.26309200000003
 20
216.917664
 11
163.01309200000003
 21
216.727463
  0
LINE
  8
_0-0_0
  6
CONTINUOUS
 62
    7
 10
163.26309200000003
 20
216.47851600000001
 11
163.01309200000003
 21
216.48315400000001
  0
LINE
  8
_0-0_0
  6
CONTINUOUS
 62
    7
 10
163.01309200000003
 20
216.48315400000001
 11
153.76309200000003
 21
216.48315400000001
  0
LINE
  8
_0-0_0
  6
CONTINUOUS
 62
    7
 10
163.26309200000003
 20
216.47851600000001
 11
153.51309200000003
 21
216.47851600000001
  0
LINE
  8
_0-0_0
  6
CONTINUOUS
 62
    7
 10
163.26309200000003
 20
216.69366500000001
 11
163.01309200000003
 21
216.48315400000001
  0
LINE
  8
_0-0_0
  6
CONTINUOUS
 62
    7
 10
163.26309200000003
 20
216.27456699999999
 11
163.01309200000003
 21
216.25
  0
LINE
  8
_0-0_0
  6
CONTINUOUS
 62
    7
 10
163.01309200000003
 20
216.25
 11
153.76309200000003
 21
216.25
  0
LINE
  8
_0-0_0
  6
CONTINUOUS
 62
    7
 10
163.26309200000003
 20
216.47851600000001
 11
163.01309200000003
 21
216.25
  0
LINE
  8
_0-0_0
  6
CONTINUOUS
 62
    7
 10
153.51309200000003
 20
216.08403000000001
 11
153.76309200000003
 21
216.03053299999999
  0
LINE
  8
_0-0_0
  6
CONTINUOUS
 62
    7
 10
153.51309200000003
 20
216.27456699999999
 11
153.76309200000003
 21
216.03053299999999
  0
LINE
  8
_0-0_0
  6
CONTINUOUS
 62
    7
 10
153.51309200000003
 20
215.90901199999999
 11
153.76309200000003
 21
215.827179
  0
LINE
  8
_0-0_0
  6
CONTINUOUS
 62
    7
 10
153.51309200000003
 20
216.08403000000001
 11
153.76309200000003
 21
215.827179
  0
LINE
  8
_0-0_0
  6
CONTINUOUS
 62
    7
 10
153.51309200000003
 20
215.751419
 11
153.76309200000003
 21
215.64213599999999
  0
LINE
  8
_0-0_0
  6
CONTINUOUS
 62
    7
 10
153.51309200000003
 20
215.90901199999999
 11
153.76309200000003
 21
215.64213599999999
  0
LINE
  8
_0-0_0
  6
CONTINUOUS
 62
    7
 10
153.51309200000003
 20
215.61299099999999
 11
153.76309200000003
 21
215.477463
  0
LINE
  8
_0-0_0
  6
CONTINUOUS
 62
    7
 10
153.51309200000003
 20
215.751419
 11
153.76309200000003
 21
215.477463
  0
LINE
  8
_0-0_0
  6
CONTINUOUS
 62
    7
 10
153.51309200000003
 20
215.495239
 11
153.76309200000003
 21
215.33493000000001
  0
LINE
  8
_0-0_0
  6
CONTINUOUS
 62
    7
 10
153.51309200000003
 20
215.61299099999999
 11
153.76309200000003
 21
215.33493000000001
  0
LINE
  8
_0-0_0
  6
CONTINUOUS
 62
    7
 10
153.51309200000003
 20
215.39944499999999
 11
153.76309200000003
 21
215.21614099999999
  0
LINE
  8
_0-0_0
  6
CONTINUOUS
 62
    7
 10
153.51309200000003
 20
215.495239
 11
153.76309200000003
 21
215.21614099999999
  0
LINE
  8
_0-0_0
  6
CONTINUOUS
 62
    7
 10
153.51309200000003
 20
215.32666
 11
153.76309200000003
 21
215.12235999999999
  0
LINE
  8
_0-0_0
  6
CONTINUOUS
 62
    7
 10
153.51309200000003
 20
215.39944499999999
 11
153.76309200000003
 21
215.12235999999999
  0
LINE
  8
_0-0_0
  6
CONTINUOUS
 62
    7
 10
153.51309200000003
 20
215.27771000000001
 11
153.76309200000003
 21
215.05462600000001
  0
LINE
  8
_0-0_0
  6
CONTINUOUS
 62
    7
 10
153.51309200000003
 20
215.32666
 11
153.76309200000003
 21
215.05462600000001
  0
LINE
  8
_0-0_0
  6
CONTINUOUS
 62
    7
 10
153.51309200000003
 20
215.25308200000001
 11
153.76309200000003
 21
215.01370199999999
  0
LINE
  8
_0-0_0
  6
CONTINUOUS
 62
    7
 10
153.51309200000003
 20
215.27771000000001
 11
153.76309200000003
 21
215.01370199999999
  0
LINE
  8
_0-0_0
  6
CONTINUOUS
 62
    7
 10
153.51309200000003
 20
215.25308200000001
 11
153.76309200000003
 21
215
  0
LINE
  8
_0-0_0
  6
CONTINUOUS
 62
    7
 10
163.51309200000003
 20
219.255157
 11
163.51309200000003
 21
219.5
  0
LINE
  8
_0-0_0
  6
CONTINUOUS
 62
    7
 10
163.26309200000003
 20
216.27456699999999
 11
163.01309200000003
 21
216.03053299999999
  0
LINE
  8
_0-0_0
  6
CONTINUOUS
 62
    7
 10
163.26309200000003
 20
216.08403000000001
 11
163.01309200000003
 21
216.03053299999999
  0
LINE
  8
_0-0_0
  6
CONTINUOUS
 62
    7
 10
163.26309200000003
 20
216.08403000000001
 11
163.01309200000003
 21
215.827179
  0
LINE
  8
_0-0_0
  6
CONTINUOUS
 62
    7
 10
163.26309200000003
 20
215.90901199999999
 11
163.01309200000003
 21
215.827179
  0
LINE
  8
_0-0_0
  6
CONTINUOUS
 62
    7
 10
163.26309200000003
 20
215.90901199999999
 11
163.01309200000003
 21
215.64213599999999
  0
LINE
  8
_0-0_0
  6
CONTINUOUS
 62
    7
 10
163.26309200000003
 20
215.751419
 11
163.01309200000003
 21
215.64213599999999
  0
LINE
  8
_0-0_0
  6
CONTINUOUS
 62
    7
 10
163.26309200000003
 20
215.751419
 11
163.01309200000003
 21
215.477463
  0
LINE
  8
_0-0_0
  6
CONTINUOUS
 62
    7
 10
163.26309200000003
 20
215.61299099999999
 11
163.01309200000003
 21
215.477463
  0
LINE
  8
_0-0_0
  6
CONTINUOUS
 62
    7
 10
163.26309200000003
 20
215.61299099999999
 11
163.01309200000003
 21
215.33493000000001
  0
LINE
  8
_0-0_0
  6
CONTINUOUS
 62
    7
 10
163.26309200000003
 20
215.495239
 11
163.01309200000003
 21
215.33493000000001
  0
LINE
  8
_0-0_0
  6
CONTINUOUS
 62
    7
 10
163.26309200000003
 20
215.495239
 11
163.01309200000003
 21
215.21614099999999
  0
LINE
  8
_0-0_0
  6
CONTINUOUS
 62
    7
 10
163.26309200000003
 20
215.39944499999999
 11
163.01309200000003
 21
215.21614099999999
  0
LINE
  8
_0-0_0
  6
CONTINUOUS
 62
    7
 10
163.26309200000003
 20
215.39944499999999
 11
163.01309200000003
 21
215.12235999999999
  0
LINE
  8
_0-0_0
  6
CONTINUOUS
 62
    7
 10
163.26309200000003
 20
215.32666
 11
163.01309200000003
 21
215.12235999999999
  0
LINE
  8
_0-0_0
  6
CONTINUOUS
 62
    7
 10
163.26309200000003
 20
215.32666
 11
163.01309200000003
 21
215.05462600000001
  0
LINE
  8
_0-0_0
  6
CONTINUOUS
 62
    7
 10
163.26309200000003
 20
215.27771000000001
 11
163.01309200000003
 21
215.05462600000001
  0
LINE
  8
_0-0_0
  6
CONTINUOUS
 62
    7
 10
163.26309200000003
 20
215.27771000000001
 11
163.01309200000003
 21
215.01370199999999
  0
LINE
  8
_0-0_0
  6
CONTINUOUS
 62
    7
 10
163.26309200000003
 20
215.25308200000001
 11
163.01309200000003
 21
215.01370199999999
  0
LINE
  8
_0-0_0
  6
CONTINUOUS
 62
    7
 10
163.26309200000003
 20
215.25308200000001
 11
163.01309200000003
 21
215
  0
LINE
  8
_0-0_0
  6
CONTINUOUS
 62
    7
 10
163.51309200000003
 20
215.5
 11
163.51309200000003
 21
219.255157
  0
LINE
  8
_0-0_0
  6
CONTINUOUS
 62
    7
 10
163.01309200000003
 20
216.03053299999999
 11
153.76309200000003
 21
216.03053299999999
  0
LINE
  8
_0-0_0
  6
CONTINUOUS
 62
    7
 10
163.01309200000003
 20
215.827179
 11
153.76309200000003
 21
215.827179
  0
LINE
  8
_0-0_0
  6
CONTINUOUS
 62
    7
 10
163.01309200000003
 20
215.64213599999999
 11
153.76309200000003
 21
215.64213599999999
  0
LINE
  8
_0-0_0
  6
CONTINUOUS
 62
    7
 10
163.01309200000003
 20
215.477463
 11
153.76309200000003
 21
215.477463
  0
LINE
  8
_0-0_0
  6
CONTINUOUS
 62
    7
 10
163.01309200000003
 20
215.33493000000001
 11
153.76309200000003
 21
215.33493000000001
  0
LINE
  8
_0-0_0
  6
CONTINUOUS
 62
    7
 10
163.01309200000003
 20
215.21614099999999
 11
153.76309200000003
 21
215.21614099999999
  0
LINE
  8
_0-0_0
  6
CONTINUOUS
 62
    7
 10
163.01309200000003
 20
215.12235999999999
 11
153.76309200000003
 21
215.12235999999999
  0
LINE
  8
_0-0_0
  6
CONTINUOUS
 62
    7
 10
163.01309200000003
 20
215.05462600000001
 11
153.76309200000003
 21
215.05462600000001
  0
LINE
  8
_0-0_0
  6
CONTINUOUS
 62
    7
 10
163.01309200000003
 20
215.01370199999999
 11
153.76309200000003
 21
215.01370199999999
  0
LINE
  8
_0-0_0
  6
CONTINUOUS
 62
    7
 10
163.01309200000003
 20
215
 11
153.76309200000003
 21
215
  0
LINE
  8
_0-0_0
  6
CONTINUOUS
 62
    7
 10
26.513092000000029
 20
215.25
 11
24.057434000000029
 21
215.25
  0
LINE
  8
_0-0_0
  6
CONTINUOUS
 62
    7
 10
24.558502000000033
 20
219.75
 11
24.057434000000029
 21
219.75
  0
LINE
  8
_0-0_0
  6
CONTINUOUS
 62
    7
 10
23.91310100000004
 20
215.5
 11
24.057434000000029
 21
215.25
  0
LINE
  8
_0-0_0
  6
CONTINUOUS
 62
    7
 10
23.91310100000004
 20
219.5
 11
24.057434000000029
 21
219.75
  0
LINE
  8
_0-0_0
  6
CONTINUOUS
 62
    7
 10
127.51309200000003
 20
198.64999399999999
 11
153.51309200000003
 21
198.64999399999999
  0
LINE
  8
_0-0_0
  6
CONTINUOUS
 62
    7
 10
127.51309200000003
 20
203.14999399999999
 11
153.51309200000003
 21
203.14999399999999
  0
LINE
  8
_0-0_0
  6
CONTINUOUS
 62
    7
 10
153.51309200000003
 20
198.64999399999999
 11
153.76309200000003
 21
198.39999399999999
  0
LINE
  8
_0-0_0
  6
CONTINUOUS
 62
    7
 10
153.51309200000003
 20
203.14999399999999
 11
153.76309200000003
 21
203.39999399999999
  0
LINE
  8
_0-0_0
  6
CONTINUOUS
 62
    7
 10
149.51309200000003
 20
214.449997
 11
148.26309200000003
 21
215.699997
  0
LINE
  8
_0-0_0
  6
CONTINUOUS
 62
    7
 10
149.51309200000003
 20
203.949997
 11
148.71310400000002
 21
203.14999399999999
  0
LINE
  8
_0-0_0
  6
CONTINUOUS
 62
    7
 10
163.51309200000003
 20
198.89999399999999
 11
163.01327500000002
 21
198.40016199999999
  0
LINE
  8
_0-0_0
  6
CONTINUOUS
 62
    7
 10
163.51309200000003
 20
202.89999399999999
 11
163.01327500000002
 21
203.39984100000001
  0
LINE
  8
_0-0_0
  6
CONTINUOUS
 62
    7
 10
149.51309200000003
 20
204.199997
 11
149.91308600000002
 21
204.199997
  0
LINE
  8
_0-0_0
  6
CONTINUOUS
 62
    7
 10
149.51309200000003
 20
214.199997
 11
149.91308600000002
 21
214.199997
  0
LINE
  8
_0-0_0
  6
CONTINUOUS
 62
    7
 10
150.71310400000002
 20
204.66188
 11
149.91308600000002
 21
204.199997
  0
LINE
  8
_0-0_0
  6
CONTINUOUS
 62
    7
 10
150.71310400000002
 20
213.73812899999999
 11
149.91308600000002
 21
214.199997
  0
LINE
  8
_0-0_0
  6
CONTINUOUS
 62
    7
 10
150.71310400000002
 20
205.199997
 11
208.71310400000004
 21
205.199997
  0
LINE
  8
_0-0_0
  6
CONTINUOUS
 62
    7
 10
150.71310400000002
 20
213.199997
 11
208.71310400000004
 21
213.199997
  0
LINE
  8
_0-0_0
  6
CONTINUOUS
 62
    7
 10
133.26306200000002
 20
219.75
 11
153.51309200000003
 21
219.75
  0
LINE
  8
_0-0_0
  6
CONTINUOUS
 62
    7
 10
153.51309200000003
 20
219.75
 11
153.76309200000003
 21
220
  0
LINE
  8
_0-0_0
  6
CONTINUOUS
 62
    7
 10
148.71310400000002
 20
215.25
 11
153.51309200000003
 21
215.25
  0
LINE
  8
_0-0_0
  6
CONTINUOUS
 62
    7
 10
153.51309200000003
 20
215.25
 11
153.76309200000003
 21
215
  0
LINE
  8
_0-0_0
  6
CONTINUOUS
 62
    7
 10
163.51309200000003
 20
219.5
 11
163.01327500000002
 21
219.99984699999999
  0
LINE
  8
_0-0_0
  6
CONTINUOUS
 62
    7
 10
163.51309200000003
 20
215.5
 11
163.01327500000002
 21
215.00015300000001
  0
LINE
  8
_0-0_0
  6
CONTINUOUS
 62
    7
 10
491.51309199999997
 20
251.39999399999999
 11
491.51309199999997
 21
238.39999399999999
  0
LINE
  8
_0-0_0
  6
CONTINUOUS
 62
    7
 10
18.513092000000029
 20
251.39999399999999
 11
18.513092000000029
 21
238.39999399999999
  0
LINE
  8
_0-0_0
  6
CONTINUOUS
 62
    7
 10
18.513092000000029
 20
251.39999399999999
 11
491.51309199999997
 21
251.39999399999999
  0
LINE
  8
_0-0_0
  6
CONTINUOUS
 62
    7
 10
18.513092000000029
 20
251.39999399999999
 11
18.513092000000029
 21
270
  0
LINE
  8
_0-0_0
  6
CONTINUOUS
 62
    7
 10
18.513092000000029
 20
272.5
 11
18.513092000000029
 21
270
  0
LINE
  8
_0-0_0
  6
CONTINUOUS
 62
    7
 10
18.513092000000029
 20
273
 11
18.513092000000029
 21
272.5
  0
LINE
  8
_0-0_0
  6
CONTINUOUS
 62
    7
 10
18.513092000000029
 20
225
 11
18.513092000000029
 21
224.5
  0
LINE
  8
_0-0_0
  6
CONTINUOUS
 62
    7
 10
18.513092000000029
 20
230
 11
18.513092000000029
 21
225
  0
LINE
  8
_0-0_0
  6
CONTINUOUS
 62
    7
 10
18.513092000000029
 20
230.5
 11
18.513092000000029
 21
230
  0
LINE
  8
_0-0_0
  6
CONTINUOUS
 62
    7
 10
18.513092000000029
 20
231
 11
18.513092000000029
 21
230.5
  0
LINE
  8
_0-0_0
  6
CONTINUOUS
 62
    7
 10
18.513092000000029
 20
234.199997
 11
18.513092000000029
 21
231
  0
LINE
  8
_0-0_0
  6
CONTINUOUS
 62
    7
 10
18.513092000000029
 20
234.199997
 11
18.513092000000029
 21
238.39999399999999
  0
LINE
  8
_0-0_0
  6
CONTINUOUS
 62
    7
 10
18.513092000000029
 20
238.39999399999999
 11
491.51309199999997
 21
238.39999399999999
  0
LINE
  8
_0-0_0
  6
CONTINUOUS
 62
    7
 10
491.51309199999997
 20
234.199997
 11
491.51309199999997
 21
238.39999399999999
  0
LINE
  8
_0-0_0
  6
CONTINUOUS
 62
    7
 10
491.51309199999997
 20
231
 11
491.51309199999997
 21
234.199997
  0
LINE
  8
_0-0_0
  6
CONTINUOUS
 62
    7
 10
491.51309199999997
 20
231
 11
491.51309199999997
 21
230.5
  0
LINE
  8
_0-0_0
  6
CONTINUOUS
 62
    7
 10
491.51309199999997
 20
230.5
 11
491.51309199999997
 21
230
  0
LINE
  8
_0-0_0
  6
CONTINUOUS
 62
    7
 10
491.51309199999997
 20
230
 11
491.51309199999997
 21
225
  0
LINE
  8
_0-0_0
  6
CONTINUOUS
 62
    7
 10
491.51309199999997
 20
225
 11
491.51309199999997
 21
224.5
  0
LINE
  8
_0-0_0
  6
CONTINUOUS
 62
    7
 10
491.51309199999997
 20
273
 11
491.51309199999997
 21
272.5
  0
LINE
  8
_0-0_0
  6
CONTINUOUS
 62
    7
 10
491.51309199999997
 20
270
 11
491.51309199999997
 21
272.5
  0
LINE
  8
_0-0_0
  6
CONTINUOUS
 62
    7
 10
491.51309199999997
 20
251.39999399999999
 11
491.51309199999997
 21
270
  0
CIRCLE
  8
_0-0_0
  6
CONTINUOUS
 62
    7
 10
455.01309199999997
 20
260.5
 40
6
  0
CIRCLE
  8
_0-0_0
  6
CONTINUOUS
 62
    7
 10
355.01312300000001
 20
260.5
 40
6
  0
CIRCLE
  8
_0-0_0
  6
CONTINUOUS
 62
    7
 10
255.01312300000001
 20
260.5
 40
6
  0
CIRCLE
  8
_0-0_0
  6
CONTINUOUS
 62
    7
 10
155.01309200000003
 20
260.5
 40
6
  0
CIRCLE
  8
_0-0_0
  6
CONTINUOUS
 62
    7
 10
55.013092000000029
 20
260.5
 40
6
  0
LINE
  8
_0-0_0
  6
CONTINUOUS
 62
    7
 10
18.513092000000029
 20
270
 11
491.51309199999997
 21
270
  0
LINE
  8
_0-0_0
  6
CONTINUOUS
 62
    7
 10
18.513092000000029
 20
273
 11
491.51309199999997
 21
273
  0
LINE
  8
_0-0_0
  6
CONTINUOUS
 62
    7
 10
18.513092000000029
 20
272.5
 11
16.013092000000029
 21
272.5
  0
LINE
  8
_0-0_0
  6
CONTINUOUS
 62
    7
 10
16.013092000000029
 20
272.5
 11
16.013092000000029
 21
272
  0
LINE
  8
_0-0_0
  6
CONTINUOUS
 62
    7
 10
16.013092000000029
 20
272
 11
16.013092000000029
 21
231.5
  0
LINE
  8
_0-0_0
  6
CONTINUOUS
 62
    7
 10
18.513092000000029
 20
231
 11
16.013092000000029
 21
231
  0
LINE
  8
_0-0_0
  6
CONTINUOUS
 62
    7
 10
16.013092000000029
 20
231.5
 11
16.013092000000029
 21
231
  0
LINE
  8
_0-0_0
  6
CONTINUOUS
 62
    7
 10
16.013092000000029
 20
231
 11
16.013092000000029
 21
230
  0
LINE
  8
_0-0_0
  6
CONTINUOUS
 62
    7
 10
16.013092000000029
 20
230
 11
16.013092000000029
 21
225.5
  0
LINE
  8
_0-0_0
  6
CONTINUOUS
 62
    7
 10
18.513092000000029
 20
225
 11
16.013092000000029
 21
225
  0
LINE
  8
_0-0_0
  6
CONTINUOUS
 62
    7
 10
16.013092000000029
 20
225.5
 11
16.013092000000029
 21
225
  0
LINE
  8
_0-0_0
  6
CONTINUOUS
 62
    7
 10
18.513092000000029
 20
224.5
 11
491.51309199999997
 21
224.5
  0
LINE
  8
_0-0_0
  6
CONTINUOUS
 62
    7
 10
18.513092000000029
 20
230.5
 11
491.51309199999997
 21
230.5
  0
LINE
  8
_0-0_0
  6
CONTINUOUS
 62
    7
 10
18.513092000000029
 20
234.199997
 11
491.51309199999997
 21
234.199997
  0
LINE
  8
_0-0_0
  6
CONTINUOUS
 62
    7
 10
491.51309199999997
 20
272.5
 11
494.01309199999997
 21
272.5
  0
LINE
  8
_0-0_0
  6
CONTINUOUS
 62
    7
 10
494.01309199999997
 20
272.5
 11
494.01309199999997
 21
272
  0
LINE
  8
_0-0_0
  6
CONTINUOUS
 62
    7
 10
494.01309199999997
 20
272
 11
494.01309199999997
 21
231.5
  0
LINE
  8
_0-0_0
  6
CONTINUOUS
 62
    7
 10
491.51309199999997
 20
231
 11
494.01309199999997
 21
231
  0
LINE
  8
_0-0_0
  6
CONTINUOUS
 62
    7
 10
494.01309199999997
 20
231.5
 11
494.01309199999997
 21
231
  0
LINE
  8
_0-0_0
  6
CONTINUOUS
 62
    7
 10
494.01309199999997
 20
231
 11
494.01309199999997
 21
230
  0
LINE
  8
_0-0_0
  6
CONTINUOUS
 62
    7
 10
494.01309199999997
 20
230
 11
494.01309199999997
 21
225.5
  0
LINE
  8
_0-0_0
  6
CONTINUOUS
 62
    7
 10
491.51309199999997
 20
225
 11
494.01309199999997
 21
225
  0
LINE
  8
_0-0_0
  6
CONTINUOUS
 62
    7
 10
494.01309199999997
 20
225.5
 11
494.01309199999997
 21
225
  0
ARC
  8
_0-0_0
  6
CONTINUOUS
 62
    7
 10
76.013092000000029
 20
225.5
 40
0.5
 50
269.99999700000001
 51
0
  0
LINE
  8
_0-0_0
  6
CONTINUOUS
 62
    7
 10
76.013092000000029
 20
225
 11
69.013092000000029
 21
225
  0
ARC
  8
_0-0_0
  6
CONTINUOUS
 62
    7
 10
69.013092000000029
 20
225.5
 40
0.5
 50
179.99999099999999
 51
269.99999700000001
  0
LINE
  8
_0-0_0
  6
CONTINUOUS
 62
    7
 10
68.513092000000029
 20
229.5
 11
68.513092000000029
 21
225.5
  0
ARC
  8
_0-0_0
  6
CONTINUOUS
 62
    7
 10
69.013092000000029
 20
229.5
 40
0.5
 50
90.000003000000007
 51
179.99999099999999
  0
ARC
  8
_0-0_0
  6
CONTINUOUS
 62
    7
 10
76.013092000000029
 20
229.5
 40
0.5
 50
0
 51
90.000003000000007
  0
LINE
  8
_0-0_0
  6
CONTINUOUS
 62
    7
 10
69.013092000000029
 20
230
 11
76.013092000000029
 21
230
  0
LINE
  8
_0-0_0
  6
CONTINUOUS
 62
    7
 10
491.51309199999997
 20
273
 11
491.51309199999997
 21
272.699997
  0
LINE
  8
_0-0_0
  6
CONTINUOUS
 62
    7
 10
491.51309199999997
 20
272.699997
 11
491.51309199999997
 21
272.5
  0
CIRCLE
  8
_0-0_0
  6
CONTINUOUS
 62
    7
 10
455.01309199999997
 20
260.5
 40
5.5
  0
CIRCLE
  8
_0-0_0
  6
CONTINUOUS
 62
    7
 10
355.01312300000001
 20
260.5
 40
5.5
  0
CIRCLE
  8
_0-0_0
  6
CONTINUOUS
 62
    7
 10
255.01312300000001
 20
260.5
 40
5.5
  0
CIRCLE
  8
_0-0_0
  6
CONTINUOUS
 62
    7
 10
155.01309200000003
 20
260.5
 40
5.5
  0
CIRCLE
  8
_0-0_0
  6
CONTINUOUS
 62
    7
 10
55.013092000000029
 20
260.5
 40
5.5
  0
LINE
  8
_0-0_0
  6
CONTINUOUS
 62
    7
 10
76.513092000000029
 20
225.5
 11
76.513092000000029
 21
229.5
  0
CIRCLE
  8
_0-0_0
  6
CONTINUOUS
 62
    7
 10
455.01309199999997
 20
260.5
 40
3.5
  0
CIRCLE
  8
_0-0_0
  6
CONTINUOUS
 62
    7
 10
355.01312300000001
 20
260.5
 40
3.5
  0
CIRCLE
  8
_0-0_0
  6
CONTINUOUS
 62
    7
 10
255.01312300000001
 20
260.5
 40
3.5
  0
CIRCLE
  8
_0-0_0
  6
CONTINUOUS
 62
    7
 10
155.01309200000003
 20
260.5
 40
3.5
  0
CIRCLE
  8
_0-0_0
  6
CONTINUOUS
 62
    7
 10
55.013092000000029
 20
260.5
 40
3.5
  0
ARC
  8
_0-0_0
  6
CONTINUOUS
 62
    7
 10
73.813110000000023
 20
229.199997
 40
0.2
 50
339.62356199999999
 51
90.000002999999978
  0
LINE
  8
_0-0_0
  6
CONTINUOUS
 62
    7
 10
74.000580000000042
 20
229.130371
 11
72.700592000000029
 21
225.630371
  0
ARC
  8
_0-0_0
  6
CONTINUOUS
 62
    7
 10
72.513092000000029
 20
225.699997
 40
0.2
 50
200.37643
 51
339.62356199999999
  0
LINE
  8
_0-0_0
  6
CONTINUOUS
 62
    7
 10
71.025620000000032
 20
229.130371
 11
72.325623000000036
 21
225.630371
  0
ARC
  8
_0-0_0
  6
CONTINUOUS
 62
    7
 10
71.213104000000016
 20
229.199997
 40
0.2
 50
90.000003000000007
 51
200.37643
  0
LINE
  8
_0-0_0
  6
CONTINUOUS
 62
    7
 10
71.213104000000016
 20
229.39999399999999
 11
73.813110000000023
 21
229.39999399999999
  0
ARC
  8
_0-0_0
  6
CONTINUOUS
 62
    7
 10
411.21313500000002
 20
229.199997
 40
0.2
 50
90.000003000000007
 51
200.37643
  0
LINE
  8
_0-0_0
  6
CONTINUOUS
 62
    7
 10
411.21313500000002
 20
229.39999399999999
 11
413.81311000000005
 21
229.39999399999999
  0
ARC
  8
_0-0_0
  6
CONTINUOUS
 62
    7
 10
409.01312300000001
 20
229.5
 40
0.5
 50
90.000003000000007
 51
179.99999099999999
  0
LINE
  8
_0-0_0
  6
CONTINUOUS
 62
    7
 10
408.51312300000001
 20
229.5
 11
408.51312300000001
 21
225.5
  0
ARC
  8
_0-0_0
  6
CONTINUOUS
 62
    7
 10
409.01312300000001
 20
225.5
 40
0.5
 50
179.99999099999999
 51
269.99999700000001
  0
LINE
  8
_0-0_0
  6
CONTINUOUS
 62
    7
 10
416.01312300000001
 20
225
 11
409.01312300000001
 21
225
  0
ARC
  8
_0-0_0
  6
CONTINUOUS
 62
    7
 10
416.01312300000001
 20
225.5
 40
0.5
 50
269.99999700000001
 51
0
  0
LINE
  8
_0-0_0
  6
CONTINUOUS
 62
    7
 10
416.51312300000001
 20
225.5
 11
416.51312300000001
 21
229.5
  0
ARC
  8
_0-0_0
  6
CONTINUOUS
 62
    7
 10
416.01312300000001
 20
229.5
 40
0.5
 50
0
 51
90.000003000000007
  0
LINE
  8
_0-0_0
  6
CONTINUOUS
 62
    7
 10
409.01312300000001
 20
230
 11
416.01312300000001
 21
230
  0
LINE
  8
_0-0_0
  6
CONTINUOUS
 62
    7
 10
411.02563500000002
 20
229.130371
 11
412.32562300000001
 21
225.630371
  0
ARC
  8
_0-0_0
  6
CONTINUOUS
 62
    7
 10
412.51312300000001
 20
225.699997
 40
0.2
 50
200.37643
 51
339.62356199999999
  0
LINE
  8
_0-0_0
  6
CONTINUOUS
 62
    7
 10
414.00061000000005
 20
229.130371
 11
412.70062300000001
 21
225.630371
  0
ARC
  8
_0-0_0
  6
CONTINUOUS
 62
    7
 10
413.81311000000005
 20
229.199997
 40
0.2
 50
339.62356199999999
 51
90.000002999999978
  0
LINE
  8
_0-0_0
  6
CONTINUOUS
 62
    7
 10
-41.339271999999966
 20
222.5
 11
-41.239276999999959
 21
222.5
  0
LINE
  8
_0-0_0
  6
CONTINUOUS
 62
    7
 10
-25.539271999999983
 20
222.5
 11
-26.239276999999959
 21
222.5
  0
LINE
  8
_0-0_0
  6
CONTINUOUS
 62
    7
 10
-25.539271999999983
 20
222.5
 11
-24.339271999999966
 21
222.5
  0
ARC
  8
_0-0_0
  6
CONTINUOUS
 62
    7
 10
-24.339271999999966
 20
222
 40
0.5
 50
0
 51
90.000003000000007
  0
ARC
  8
_0-0_0
  6
CONTINUOUS
 62
    7
 10
-25.539271999999983
 20
222
 40
0.5
 50
90.000003000000007
 51
179.99999099999999
  0
ARC
  8
_0-0_0
  6
CONTINUOUS
 62
    7
 10
-41.339271999999966
 20
222
 40
0.5
 50
90.000003000000007
 51
179.99999099999999
  0
ARC
  8
_0-0_0
  6
CONTINUOUS
 62
    7
 10
-39.839271999999966
 20
223
 40
0.5
 50
90.000003000000007
 51
126.868797
  0
LINE
  8
_0-0_0
  6
CONTINUOUS
 62
    7
 10
-38.339271999999966
 20
223.5
 11
-39.839271999999966
 21
223.5
  0
ARC
  8
_0-0_0
  6
CONTINUOUS
 62
    7
 10
-38.339271999999966
 20
224.5
 40
1
 50
269.99999700000001
 51
0
  0
LINE
  8
_0-0_0
  6
CONTINUOUS
 62
    7
 10
-37.339271999999966
 20
225
 11
-37.339271999999966
 21
224.5
  0
LINE
  8
_0-0_0
  6
CONTINUOUS
 62
    7
 10
-36.839271999999966
 20
225
 11
-36.839271999999966
 21
224
  0
ARC
  8
_0-0_0
  6
CONTINUOUS
 62
    7
 10
-38.339271999999966
 20
224
 40
1.5
 50
336.42205899999999
 51
0
  0
ARC
  8
_0-0_0
  6
CONTINUOUS
 62
    7
 10
-26.739272999999969
 20
224
 40
1.5
 50
179.99999099999999
 51
203.57793100000001
  0
LINE
  8
_0-0_0
  6
CONTINUOUS
 62
    7
 10
-24.739272999999969
 20
223
 11
-24.739272999999969
 21
222.5
  0
ARC
  8
_0-0_0
  6
CONTINUOUS
 62
    7
 10
-25.239272999999969
 20
223
 40
0.5
 50
0
 51
90.000003000000007
  0
LINE
  8
_0-0_0
  6
CONTINUOUS
 62
    7
 10
-26.739272999999969
 20
223.5
 11
-25.239272999999969
 21
223.5
  0
ARC
  8
_0-0_0
  6
CONTINUOUS
 62
    7
 10
-26.739272999999969
 20
224.5
 40
1
 50
179.99999099999999
 51
269.99999700000001
  0
LINE
  8
_0-0_0
  6
CONTINUOUS
 62
    7
 10
-27.739272999999969
 20
225
 11
-27.739272999999969
 21
224.5
  0
LINE
  8
_0-0_0
  6
CONTINUOUS
 62
    7
 10
-28.239272999999969
 20
225
 11
-28.239272999999969
 21
224
  0
LINE
  8
_0-0_0
  6
CONTINUOUS
 62
    7
 10
-23.839271999999966
 20
195.5
 11
-23.839271999999966
 21
196.39999399999999
  0
LINE
  8
_0-0_0
  6
CONTINUOUS
 62
    7
 10
-23.839271999999966
 20
196.39999399999999
 11
-23.839271999999966
 21
198.89999399999999
  0
LINE
  8
_0-0_0
  6
CONTINUOUS
 62
    7
 10
-23.839271999999966
 20
198.89999399999999
 11
-23.839271999999966
 21
219.5
  0
LINE
  8
_0-0_0
  6
CONTINUOUS
 62
    7
 10
-23.839271999999966
 20
219.5
 11
-23.839271999999966
 21
222
  0
LINE
  8
_0-0_0
  6
CONTINUOUS
 62
    7
 10
-26.039271999999983
 20
222
 11
-26.039271999999983
 21
220.75500500000001
  0
LINE
  8
_0-0_0
  6
CONTINUOUS
 62
    7
 10
-28.439273999999955
 20
223.40000900000001
 11
-28.439273999999955
 21
224.800003
  0
ARC
  8
_0-0_0
  6
CONTINUOUS
 62
    7
 10
-28.939273999999955
 20
224.800003
 40
0.5
 50
0
 51
23.579369
  0
LINE
  8
_0-0_0
  6
CONTINUOUS
 62
    7
 10
-36.639270999999979
 20
223.40000900000001
 11
-36.639270999999979
 21
224.800003
  0
ARC
  8
_0-0_0
  6
CONTINUOUS
 62
    7
 10
-36.139270999999979
 20
224.800003
 40
0.5
 50
156.420635
 51
179.99999099999999
  0
LINE
  8
_0-0_0
  6
CONTINUOUS
 62
    7
 10
-41.839271999999966
 20
195.5
 11
-41.839271999999966
 21
205.699997
  0
LINE
  8
_0-0_0
  6
CONTINUOUS
 62
    7
 10
-41.839271999999966
 20
205.699997
 11
-41.839271999999966
 21
206.699997
  0
LINE
  8
_0-0_0
  6
CONTINUOUS
 62
    7
 10
-41.839271999999966
 20
206.699997
 11
-41.839271999999966
 21
211.699997
  0
LINE
  8
_0-0_0
  6
CONTINUOUS
 62
    7
 10
-41.839271999999966
 20
211.699997
 11
-41.839271999999966
 21
212.699997
  0
LINE
  8
_0-0_0
  6
CONTINUOUS
 62
    7
 10
-41.839271999999966
 20
222
 11
-41.839271999999966
 21
212.699997
  0
ARC
  8
_0-0_0
  6
CONTINUOUS
 62
    7
 10
-40.739272999999969
 20
211.699997
 40
0.5
 50
0
 51
90.000003000000007
  0
LINE
  8
_0-0_0
  6
CONTINUOUS
 62
    7
 10
-40.639270999999979
 20
212.64999399999999
 11
-40.739272999999969
 21
212.64999399999999
  0
ARC
  8
_0-0_0
  6
CONTINUOUS
 62
    7
 10
-40.639270999999979
 20
212.14999399999999
 40
0.5
 50
0
 51
90.000003000000007
  0
LINE
  8
_0-0_0
  6
CONTINUOUS
 62
    7
 10
-40.239272999999969
 20
211.699997
 11
-40.239272999999969
 21
206.699997
  0
ARC
  8
_0-0_0
  6
CONTINUOUS
 62
    7
 10
-40.739272999999969
 20
206.699997
 40
0.5
 50
269.99999700000001
 51
0
  0
ARC
  8
_0-0_0
  6
CONTINUOUS
 62
    7
 10
-40.639270999999979
 20
206.60000600000001
 40
0.5
 50
269.99999700000001
 51
0
  0
LINE
  8
_0-0_0
  6
CONTINUOUS
 62
    7
 10
-40.739272999999969
 20
206.10000600000001
 11
-40.639270999999979
 21
206.10000600000001
  0
LINE
  8
_0-0_0
  6
CONTINUOUS
 62
    7
 10
-23.039271999999983
 20
221
 11
-23.839271999999966
 21
221
  0
LINE
  8
_0-0_0
  6
CONTINUOUS
 62
    7
 10
-23.039271999999983
 20
221.800003
 11
-23.839271999999966
 21
221.800003
  0
LINE
  8
_0-0_0
  6
CONTINUOUS
 62
    7
 10
-23.039271999999983
 20
220.800003
 11
-23.039271999999983
 21
221.800003
  0
LINE
  8
_0-0_0
  6
CONTINUOUS
 62
    7
 10
-23.039271999999983
 20
202.199997
 11
-23.839271999999966
 21
202.199997
  0
LINE
  8
_0-0_0
  6
CONTINUOUS
 62
    7
 10
-23.039271999999983
 20
202.199997
 11
-23.039271999999983
 21
205.199997
  0
LINE
  8
_0-0_0
  6
CONTINUOUS
 62
    7
 10
-23.039271999999983
 20
217.43769800000001
 11
-23.039271999999983
 21
205.199997
  0
LINE
  8
_0-0_0
  6
CONTINUOUS
 62
    7
 10
-23.039271999999983
 20
217.43769800000001
 11
-23.039271999999983
 21
218.40048200000001
  0
LINE
  8
_0-0_0
  6
CONTINUOUS
 62
    7
 10
-23.839271999999966
 20
218.40048200000001
 11
-23.839271999999966
 21
221
  0
ARC
  8
_0-0_0
  6
CONTINUOUS
 62
    7
 10
-29.454196999999965
 20
217.68203700000001
 40
5.7120379999999997
 50
18.558475999999999
 51
26.433648000000002
  0
ARC
  8
_0-0_0
  6
CONTINUOUS
 62
    7
 10
-24.039271999999983
 20
219.5
 40
0.2
 50
269.99999700000001
 51
0
  0
ARC
  8
_0-0_0
  6
CONTINUOUS
 62
    7
 10
-24.039271999999983
 20
198.89999399999999
 40
0.2
 50
0
 51
90.000003000000007
  0
ARC
  8
_0-0_0
  6
CONTINUOUS
 62
    7
 10
-29.454081999999971
 20
200.71804800000001
 40
5.711964
 50
333.565022
 51
341.44031000000001
  0
ARC
  8
_0-0_0
  6
CONTINUOUS
 62
    7
 10
-24.339271999999966
 20
196.39999399999999
 40
0.5
 50
269.99999700000001
 51
0
  0
LINE
  8
_0-0_0
  6
CONTINUOUS
 62
    7
 10
-24.339271999999966
 20
195.5
 11
-23.839271999999966
 21
195.5
  0
LINE
  8
_0-0_0
  6
CONTINUOUS
 62
    7
 10
-23.839271999999966
 20
195.5
 11
-24.339271999999966
 21
195
  0
ARC
  8
_0-0_0
  6
CONTINUOUS
 62
    7
 10
-26.039271999999983
 20
218
 40
2.2999999999999998
 50
34.417387999999995
 51
79.713437000000013
  0
LINE
  8
_0-0_0
  6
CONTINUOUS
 62
    7
 10
-24.100589999999954
 20
219.300003
 11
-24.141902999999957
 21
219.300003
  0
LINE
  8
_0-0_0
  6
CONTINUOUS
 62
    7
 10
-24.100589999999954
 20
219.300003
 11
-24.091029999999989
 21
219.30102500000001
  0
LINE
  8
_0-0_0
  6
CONTINUOUS
 62
    7
 10
-24.091029999999989
 20
219.30102500000001
 11
-24.081538999999964
 21
219.30422999999999
  0
LINE
  8
_0-0_0
  6
CONTINUOUS
 62
    7
 10
-24.081538999999964
 20
219.30422999999999
 11
-24.072284999999965
 21
219.30961600000001
  0
LINE
  8
_0-0_0
  6
CONTINUOUS
 62
    7
 10
-24.072284999999965
 20
219.30961600000001
 11
-24.063487999999978
 21
219.31712300000001
  0
LINE
  8
_0-0_0
  6
CONTINUOUS
 62
    7
 10
-24.063487999999978
 20
219.31712300000001
 11
-24.048087999999979
 21
219.33776900000001
  0
LINE
  8
_0-0_0
  6
CONTINUOUS
 62
    7
 10
-24.048087999999979
 20
219.33776900000001
 11
-24.036311999999981
 21
219.36505099999999
  0
LINE
  8
_0-0_0
  6
CONTINUOUS
 62
    7
 10
-24.036311999999981
 20
219.36505099999999
 11
-24.029132999999973
 21
219.397186
  0
LINE
  8
_0-0_0
  6
CONTINUOUS
 62
    7
 10
-24.029132999999973
 20
219.397186
 11
-24.027240999999975
 21
219.43223599999999
  0
LINE
  8
_0-0_0
  6
CONTINUOUS
 62
    7
 10
-24.027240999999975
 20
219.43223599999999
 11
-24.031085999999959
 21
219.46839900000001
  0
LINE
  8
_0-0_0
  6
CONTINUOUS
 62
    7
 10
-24.031085999999959
 20
219.46839900000001
 11
-24.039271999999983
 21
219.5
  0
ARC
  8
_0-0_0
  6
CONTINUOUS
 62
    7
 10
-25.539271999999983
 20
220.75500500000001
 40
0.5
 50
179.99999099999999
 51
259.71343899999994
  0
LINE
  8
_0-0_0
  6
CONTINUOUS
 62
    7
 10
-26.239272999999969
 20
220.85000600000001
 11
-26.239272999999969
 21
220.55658
  0
LINE
  8
_0-0_0
  6
CONTINUOUS
 62
    7
 10
-26.239272999999969
 20
220.85000600000001
 11
-26.239272999999969
 21
222.89999399999999
  0
ARC
  8
_0-0_0
  6
CONTINUOUS
 62
    7
 10
-26.739272999999969
 20
222.89999399999999
 40
0.5
 50
0
 51
90.000003000000007
  0
LINE
  8
_0-0_0
  6
CONTINUOUS
 62
    7
 10
-26.739272999999969
 20
223.39999399999999
 11
-29.482165999999978
 21
223.39999399999999
  0
ARC
  8
_0-0_0
  6
CONTINUOUS
 62
    7
 10
-40.739272999999969
 20
213.14999399999999
 40
0.5
 50
179.99999099999999
 51
269.99999700000001
  0
LINE
  8
_0-0_0
  6
CONTINUOUS
 62
    7
 10
-41.239272999999969
 20
222.89999399999999
 11
-41.239272999999969
 21
213.14999399999999
  0
LINE
  8
_0-0_0
  6
CONTINUOUS
 62
    7
 10
-35.596377999999959
 20
223.39999399999999
 11
-40.739272999999969
 21
223.39999399999999
  0
ARC
  8
_0-0_0
  6
CONTINUOUS
 62
    7
 10
-40.739272999999969
 20
222.89999399999999
 40
0.5
 50
90.000003000000007
 51
179.99999099999999
  0
LINE
  8
_0-0_0
  6
CONTINUOUS
 62
    7
 10
-42.039271999999983
 20
221
 11
-41.839271999999966
 21
221
  0
LINE
  8
_0-0_0
  6
CONTINUOUS
 62
    7
 10
-42.039271999999983
 20
221.800003
 11
-41.839271999999966
 21
221.800003
  0
LINE
  8
_0-0_0
  6
CONTINUOUS
 62
    7
 10
-42.039271999999983
 20
221.800003
 11
-42.039271999999983
 21
221.000122
  0
LINE
  8
_0-0_0
  6
CONTINUOUS
 62
    7
 10
-42.039271999999983
 20
202.199997
 11
-41.839271999999966
 21
202.199997
  0
LINE
  8
_0-0_0
  6
CONTINUOUS
 62
    7
 10
-42.039271999999983
 20
205.199997
 11
-42.039271999999983
 21
202.199997
  0
LINE
  8
_0-0_0
  6
CONTINUOUS
 62
    7
 10
-42.039271999999983
 20
217.43769800000001
 11
-42.039271999999983
 21
205.199997
  0
LINE
  8
_0-0_0
  6
CONTINUOUS
 62
    7
 10
-42.039271999999983
 20
218.40048200000001
 11
-42.039271999999983
 21
217.43769800000001
  0
ARC
  8
_0-0_0
  6
CONTINUOUS
 62
    7
 10
-41.339271999999966
 20
211.699997
 40
0.5
 50
90.000003000000007
 51
179.99999099999999
  0
ARC
  8
_0-0_0
  6
CONTINUOUS
 62
    7
 10
-41.339271999999966
 20
206.699997
 40
0.5
 50
179.99999099999999
 51
269.99999700000001
  0
LINE
  8
_0-0_0
  6
CONTINUOUS
 62
    7
 10
-41.839271999999966
 20
195.5
 11
-41.339271999999966
 21
195.5
  0
LINE
  8
_0-0_0
  6
CONTINUOUS
 62
    7
 10
-41.839271999999966
 20
195.5
 11
-41.339271999999966
 21
195
  0
LINE
  8
_0-0_0
  6
CONTINUOUS
 62
    7
 10
-40.739272999999969
 20
212.199997
 11
-41.339271999999966
 21
212.199997
  0
LINE
  8
_0-0_0
  6
CONTINUOUS
 62
    7
 10
-40.139270999999979
 20
212.14999399999999
 11
-40.139270999999979
 21
206.60000600000001
  0
LINE
  8
_0-0_0
  6
CONTINUOUS
 62
    7
 10
-24.339271999999966
 20
195.5
 11
-41.339271999999966
 21
195.5
  0
LINE
  8
_0-0_0
  6
CONTINUOUS
 62
    7
 10
-41.339271999999966
 20
206.199997
 11
-40.739272999999969
 21
206.199997
  0
ARC
  8
_0-0_0
  6
CONTINUOUS
 62
    7
 10
-40.739272999999969
 20
205.60000600000001
 40
0.5
 50
90.000003000000007
 51
179.99999099999999
  0
LINE
  8
_0-0_0
  6
CONTINUOUS
 62
    7
 10
-23.039271999999983
 20
218.40048200000001
 11
-23.039271999999983
 21
221
  0
LINE
  8
_0-0_0
  6
CONTINUOUS
 62
    7
 10
-24.039271999999983
 20
219.300003
 11
-24.100589999999954
 21
219.300003
  0
LINE
  8
_0-0_0
  6
CONTINUOUS
 62
    7
 10
-24.141902999999957
 20
219.300003
 11
-24.144130999999959
 21
219.300003
  0
LINE
  8
_0-0_0
  6
CONTINUOUS
 62
    7
 10
-24.275805999999989
 20
199.300003
 11
-24.238879999999966
 21
199.22976700000001
  0
LINE
  8
_0-0_0
  6
CONTINUOUS
 62
    7
 10
-24.238879999999966
 20
199.22976700000001
 11
-24.219275999999979
 21
199.19528199999999
  0
LINE
  8
_0-0_0
  6
CONTINUOUS
 62
    7
 10
-24.219275999999979
 20
199.19528199999999
 11
-24.193190999999956
 21
199.153458
  0
LINE
  8
_0-0_0
  6
CONTINUOUS
 62
    7
 10
-24.193190999999956
 20
199.153458
 11
-24.179881999999964
 21
199.13441499999999
  0
LINE
  8
_0-0_0
  6
CONTINUOUS
 62
    7
 10
-24.179881999999964
 20
199.13441499999999
 11
-24.161525999999981
 21
199.11203
  0
LINE
  8
_0-0_0
  6
CONTINUOUS
 62
    7
 10
-24.161525999999981
 20
199.11203
 11
-24.14873099999997
 21
199.101395
  0
LINE
  8
_0-0_0
  6
CONTINUOUS
 62
    7
 10
-24.14873099999997
 20
199.101395
 11
-24.144130999999959
 21
199.10000600000001
  0
LINE
  8
_0-0_0
  6
CONTINUOUS
 62
    7
 10
-24.141902999999957
 20
199.10000600000001
 11
-24.144130999999959
 21
199.10000600000001
  0
LINE
  8
_0-0_0
  6
CONTINUOUS
 62
    7
 10
-24.275805999999989
 20
219.10000600000001
 11
-24.238879999999966
 21
219.17022700000001
  0
LINE
  8
_0-0_0
  6
CONTINUOUS
 62
    7
 10
-24.238879999999966
 20
219.17022700000001
 11
-24.219272999999987
 21
219.204712
  0
LINE
  8
_0-0_0
  6
CONTINUOUS
 62
    7
 10
-24.219272999999987
 20
219.204712
 11
-24.193190999999956
 21
219.24655200000001
  0
LINE
  8
_0-0_0
  6
CONTINUOUS
 62
    7
 10
-24.193190999999956
 20
219.24655200000001
 11
-24.179881999999964
 21
219.26559399999999
  0
LINE
  8
_0-0_0
  6
CONTINUOUS
 62
    7
 10
-24.179881999999964
 20
219.26559399999999
 11
-24.161525999999981
 21
219.28797900000001
  0
LINE
  8
_0-0_0
  6
CONTINUOUS
 62
    7
 10
-24.161525999999981
 20
219.28797900000001
 11
-24.14873099999997
 21
219.298599
  0
LINE
  8
_0-0_0
  6
CONTINUOUS
 62
    7
 10
-24.14873099999997
 20
219.298599
 11
-24.144130999999959
 21
219.300003
  0
LINE
  8
_0-0_0
  6
CONTINUOUS
 62
    7
 10
-24.141902999999957
 20
199.10000600000001
 11
-24.100589999999954
 21
199.10000600000001
  0
LINE
  8
_0-0_0
  6
CONTINUOUS
 62
    7
 10
-24.039271999999983
 20
199.10000600000001
 11
-24.100589999999954
 21
199.10000600000001
  0
LINE
  8
_0-0_0
  6
CONTINUOUS
 62
    7
 10
-24.100589999999954
 20
199.10000600000001
 11
-24.091029999999989
 21
199.09896900000001
  0
LINE
  8
_0-0_0
  6
CONTINUOUS
 62
    7
 10
-24.091029999999989
 20
199.09896900000001
 11
-24.081538999999964
 21
199.095764
  0
LINE
  8
_0-0_0
  6
CONTINUOUS
 62
    7
 10
-24.081538999999964
 20
199.095764
 11
-24.072284999999965
 21
199.09037799999999
  0
LINE
  8
_0-0_0
  6
CONTINUOUS
 62
    7
 10
-24.072284999999965
 20
199.09037799999999
 11
-24.063487999999978
 21
199.082886
  0
LINE
  8
_0-0_0
  6
CONTINUOUS
 62
    7
 10
-24.063487999999978
 20
199.082886
 11
-24.048087999999979
 21
199.06222500000001
  0
LINE
  8
_0-0_0
  6
CONTINUOUS
 62
    7
 10
-24.048087999999979
 20
199.06222500000001
 11
-24.036311999999981
 21
199.03495799999999
  0
LINE
  8
_0-0_0
  6
CONTINUOUS
 62
    7
 10
-24.036311999999981
 20
199.03495799999999
 11
-24.029132999999973
 21
199.00282300000001
  0
LINE
  8
_0-0_0
  6
CONTINUOUS
 62
    7
 10
-24.029132999999973
 20
199.00282300000001
 11
-24.027240999999975
 21
198.967758
  0
LINE
  8
_0-0_0
  6
CONTINUOUS
 62
    7
 10
-24.027240999999975
 20
198.967758
 11
-24.031085999999959
 21
198.93159499999999
  0
LINE
  8
_0-0_0
  6
CONTINUOUS
 62
    7
 10
-24.031085999999959
 20
198.93159499999999
 11
-24.039271999999983
 21
198.89999399999999
  0
ARC
  8
_0-0_0
  6
CONTINUOUS
 62
    7
 10
-26.039271999999983
 20
200.39999399999999
 40
2.2999999999999998
 50
280.28656300000006
 51
325.58260500000006
  0
LINE
  8
_0-0_0
  6
CONTINUOUS
 62
    7
 10
-24.339271999999966
 20
195.89999399999999
 11
-25.539271999999983
 21
195.89999399999999
  0
LINE
  8
_0-0_0
  6
CONTINUOUS
 62
    7
 10
-24.339271999999966
 20
195
 11
-41.339271999999966
 21
195
  0
LINE
  8
_0-0_0
  6
CONTINUOUS
 62
    7
 10
-26.239272999999969
 20
220.55658
 11
-26.239001999999971
 21
220.54014599999999
  0
ARC
  8
_0-0_0
  6
CONTINUOUS
 62
    7
 10
-25.739272999999969
 20
220.55658
 40
0.5
 50
181.88290099999998
 51
260.07179799999994
  0
LINE
  8
_0-0_0
  6
CONTINUOUS
 62
    7
 10
-26.739272999999969
 20
221.34428399999999
 11
-26.539271999999983
 21
221.14999399999999
  0
LINE
  8
_0-0_0
  6
CONTINUOUS
 62
    7
 10
-26.539271999999983
 20
221.14999399999999
 11
-26.239272999999969
 21
220.85000600000001
  0
LINE
  8
_0-0_0
  6
CONTINUOUS
 62
    7
 10
-26.239272999999969
 20
220.85000600000001
 11
-26.539271999999983
 21
220.85000600000001
  0
ARC
  8
_0-0_0
  6
CONTINUOUS
 62
    7
 10
-29.482165999999978
 20
223.89999399999999
 40
0.5
 50
225
 51
269.99999700000001
  0
ARC
  8
_0-0_0
  6
CONTINUOUS
 62
    7
 10
-35.596377999999959
 20
223.89999399999999
 40
0.5
 50
269.99999700000001
 51
314.99999200000002
  0
LINE
  8
_0-0_0
  6
CONTINUOUS
 62
    7
 10
-42.039271999999983
 20
221
 11
-42.039271999999983
 21
218.40048200000001
  0
LINE
  8
_0-0_0
  6
CONTINUOUS
 62
    7
 10
-23.839271999999966
 20
221.800049
 11
-23.839271999999966
 21
222
  0
CIRCLE
  8
_0-0_0
  6
CONTINUOUS
 62
    7
 10
-32.539271999999983
 20
221
 40
2.25
  0
ARC
  8
_0-0_0
  6
CONTINUOUS
 62
    7
 10
-32.539271999999983
 20
200.89999399999999
 40
1.75
 50
179.99999099999999
 51
359.99998299999993
  0
LINE
  8
_0-0_0
  6
CONTINUOUS
 62
    7
 10
-34.289271999999983
 20
201.14999399999999
 11
-34.289271999999983
 21
200.89999399999999
  0
ARC
  8
_0-0_0
  6
CONTINUOUS
 62
    7
 10
-32.539271999999983
 20
201.14999399999999
 40
1.75
 50
0
 51
179.99999099999999
  0
LINE
  8
_0-0_0
  6
CONTINUOUS
 62
    7
 10
-30.789271999999983
 20
200.89999399999999
 11
-30.789271999999983
 21
201.14999399999999
  0
ARC
  8
_0-0_0
  6
CONTINUOUS
 62
    7
 10
-26.839271999999966
 20
201.199997
 40
3
 50
269.99999700000001
 51
0
  0
LINE
  8
_0-0_0
  6
CONTINUOUS
 62
    7
 10
-41.239272999999969
 20
205.60000600000001
 11
-41.239272999999969
 21
204.75
  0
LINE
  8
_0-0_0
  6
CONTINUOUS
 62
    7
 10
-41.239272999999969
 20
198.699997
 11
-41.239272999999969
 21
204.75
  0
ARC
  8
_0-0_0
  6
CONTINUOUS
 62
    7
 10
-26.239272999999969
 20
217.699997
 40
2.3999999999999999
 50
0
 51
80.071809999999985
  0
LINE
  8
_0-0_0
  6
CONTINUOUS
 62
    7
 10
-23.839271999999966
 20
201.199997
 11
-23.839271999999966
 21
214
  0
LINE
  8
_0-0_0
  6
CONTINUOUS
 62
    7
 10
-23.839271999999966
 20
214
 11
-23.839271999999966
 21
217.699997
  0
ARC
  8
_0-0_0
  6
CONTINUOUS
 62
    7
 10
-25.539271999999983
 20
197.645004
 40
0.5
 50
100.28656100000001
 51
179.99999099999999
  0
LINE
  8
_0-0_0
  6
CONTINUOUS
 62
    7
 10
-26.039271999999983
 20
196.39999399999999
 11
-26.039271999999983
 21
197.645004
  0
ARC
  8
_0-0_0
  6
CONTINUOUS
 62
    7
 10
-25.539271999999983
 20
196.39999399999999
 40
0.5
 50
179.99999099999999
 51
269.99999700000001
  0
LINE
  8
_0-0_0
  6
CONTINUOUS
 62
    7
 10
-35.242824999999982
 20
223.546448
 11
-35.18571799999998
 21
223.60354599999999
  0
ARC
  8
_0-0_0
  6
CONTINUOUS
 62
    7
 10
-34.832164999999975
 20
223.25
 40
0.5
 50
90.000003000000007
 51
135
  0
LINE
  8
_0-0_0
  6
CONTINUOUS
 62
    7
 10
-30.246379999999988
 20
223.75
 11
-34.832164999999975
 21
223.75
  0
ARC
  8
_0-0_0
  6
CONTINUOUS
 62
    7
 10
-30.246379999999988
 20
223.25
 40
0.5
 50
45.00000099999999
 51
90.000002999999992
  0
LINE
  8
_0-0_0
  6
CONTINUOUS
 62
    7
 10
-29.835719999999981
 20
223.546448
 11
-29.892825999999957
 21
223.60354599999999
  0
ARC
  8
_0-0_0
  6
CONTINUOUS
 62
    7
 10
-26.539271999999983
 20
217.85000600000001
 40
3
 50
90.000003000000007
 51
179.99999099999999
  0
LINE
  8
_0-0_0
  6
CONTINUOUS
 62
    7
 10
-38.539271999999983
 20
204.25
 11
-40.739272999999969
 21
204.25
  0
ARC
  8
_0-0_0
  6
CONTINUOUS
 62
    7
 10
-38.539271999999983
 20
201.25
 40
3
 50
0
 51
90.000003000000007
  0
LINE
  8
_0-0_0
  6
CONTINUOUS
 62
    7
 10
-35.539271999999983
 20
201.25
 11
-35.539271999999983
 21
198.699997
  0
LINE
  8
_0-0_0
  6
CONTINUOUS
 62
    7
 10
-35.039271999999983
 20
198.199997
 11
-26.839271999999966
 21
198.199997
  0
LINE
  8
_0-0_0
  6
CONTINUOUS
 62
    7
 10
-26.539271999999983
 20
214.5
 11
-24.339271999999966
 21
214.5
  0
ARC
  8
_0-0_0
  6
CONTINUOUS
 62
    7
 10
-26.539271999999983
 20
217.5
 40
3
 50
179.99999099999999
 51
269.99999700000001
  0
LINE
  8
_0-0_0
  6
CONTINUOUS
 62
    7
 10
-29.539271999999983
 20
217.5
 11
-29.539271999999983
 21
217.85000600000001
  0
CIRCLE
  8
_0-0_0
  6
CONTINUOUS
 62
    7
 10
-32.539271999999983
 20
221
 40
2.0499999999999998
  0
ARC
  8
_0-0_0
  6
CONTINUOUS
 62
    7
 10
-32.539271999999983
 20
200.89999399999999
 40
1.55
 50
179.99999099999999
 51
0
  0
LINE
  8
_0-0_0
  6
CONTINUOUS
 62
    7
 10
-34.089271999999966
 20
201.14999399999999
 11
-34.089271999999966
 21
200.89999399999999
  0
ARC
  8
_0-0_0
  6
CONTINUOUS
 62
    7
 10
-32.539271999999983
 20
201.14999399999999
 40
1.55
 50
0
 51
179.99999099999999
  0
LINE
  8
_0-0_0
  6
CONTINUOUS
 62
    7
 10
-30.989272999999969
 20
200.89999399999999
 11
-30.989272999999969
 21
201.14999399999999
  0
LINE
  8
_0-0_0
  6
CONTINUOUS
 62
    7
 10
-40.739272999999969
 20
198.199997
 11
-35.039271999999983
 21
198.199997
  0
ARC
  8
_0-0_0
  6
CONTINUOUS
 62
    7
 10
-40.739272999999969
 20
198.699997
 40
0.5
 50
179.99999099999999
 51
269.99999700000001
  0
ARC
  8
_0-0_0
  6
CONTINUOUS
 62
    7
 10
-40.739272999999969
 20
204.75
 40
0.5
 50
179.99999099999999
 51
269.99999700000001
  0
ARC
  8
_0-0_0
  6
CONTINUOUS
 62
    7
 10
-24.339271999999966
 20
214
 40
0.5
 50
0
 51
90.000003000000007
  0
ARC
  8
_0-0_0
  6
CONTINUOUS
 62
    7
 10
-35.039271999999983
 20
198.699997
 40
0.5
 50
179.99999099999999
 51
269.99999700000001
  0
CIRCLE
  8
_0-0_0
  6
CONTINUOUS
 62
    7
 10
-26.539271999999983
 20
217.5
 40
2.25
  0
CIRCLE
  8
_0-0_0
  6
CONTINUOUS
 62
    7
 10
-38.539271999999983
 20
200.89999399999999
 40
2.25
  0
CIRCLE
  8
_0-0_0
  6
CONTINUOUS
 62
    7
 10
-26.539271999999983
 20
217.5
 40
2
  0
CIRCLE
  8
_0-0_0
  6
CONTINUOUS
 62
    7
 10
-38.539271999999983
 20
200.89999399999999
 40
2
  0
LINE
  8
_0-0_0
  6
CONTINUOUS
 62
    7
 10
-27.689273999999955
 20
217.5
 11
-27.121379999999988
 21
218.5
  0
LINE
  8
_0-0_0
  6
CONTINUOUS
 62
    7
 10
-27.121379999999988
 20
216.5
 11
-27.689273999999955
 21
217.5
  0
LINE
  8
_0-0_0
  6
CONTINUOUS
 62
    7
 10
-25.957164999999975
 20
216.5
 11
-27.121379999999988
 21
216.5
  0
LINE
  8
_0-0_0
  6
CONTINUOUS
 62
    7
 10
-25.389270999999979
 20
217.5
 11
-25.957164999999975
 21
216.5
  0
LINE
  8
_0-0_0
  6
CONTINUOUS
 62
    7
 10
-25.957164999999975
 20
218.5
 11
-25.389270999999979
 21
217.5
  0
LINE
  8
_0-0_0
  6
CONTINUOUS
 62
    7
 10
-27.121379999999988
 20
218.5
 11
-25.957164999999975
 21
218.5
  0
LINE
  8
_0-0_0
  6
CONTINUOUS
 62
    7
 10
-39.689273999999955
 20
200.89999399999999
 11
-39.121379999999988
 21
201.89999399999999
  0
LINE
  8
_0-0_0
  6
CONTINUOUS
 62
    7
 10
-39.121379999999988
 20
199.89999399999999
 11
-39.689273999999955
 21
200.89999399999999
  0
LINE
  8
_0-0_0
  6
CONTINUOUS
 62
    7
 10
-37.957164999999975
 20
199.89999399999999
 11
-39.121379999999988
 21
199.89999399999999
  0
LINE
  8
_0-0_0
  6
CONTINUOUS
 62
    7
 10
-37.389270999999979
 20
200.89999399999999
 11
-37.957164999999975
 21
199.89999399999999
  0
LINE
  8
_0-0_0
  6
CONTINUOUS
 62
    7
 10
-37.957164999999975
 20
201.89999399999999
 11
-37.389270999999979
 21
200.89999399999999
  0
LINE
  8
_0-0_0
  6
CONTINUOUS
 62
    7
 10
-39.121379999999988
 20
201.89999399999999
 11
-37.957164999999975
 21
201.89999399999999
  0
LINE
  8
_0-0_0
  6
CONTINUOUS
 62
    7
 10
-23.839274999999986
 20
218.300308
 11
-23.839271999999966
 21
218.30628999999999
  0
LINE
  8
_0-0_0
  6
CONTINUOUS
 62
    7
 10
-23.839271999999966
 20
219.5
 11
-23.839641999999969
 21
219.48788500000001
  0
LINE
  8
_0-0_0
  6
CONTINUOUS
 62
    7
 10
-23.839641999999969
 20
198.91210899999999
 11
-23.839271999999966
 21
198.89999399999999
  0
LINE
  8
_0-0_0
  6
CONTINUOUS
 62
    7
 10
-23.839988999999974
 20
214.02673300000001
 11
-23.839271999999966
 21
214
  0
LINE
  8
_0-0_0
  6
CONTINUOUS
 62
    7
 10
-18.339271999999966
 20
251.39999399999999
 11
-18.339271999999966
 21
238.39999399999999
  0
LINE
  8
_0-0_0
  6
CONTINUOUS
 62
    7
 10
-18.139270999999979
 20
251.39999399999999
 11
-18.339271999999966
 21
251.39999399999999
  0
LINE
  8
_0-0_0
  6
CONTINUOUS
 62
    7
 10
-18.139270999999979
 20
238.39999399999999
 11
-18.339271999999966
 21
238.39999399999999
  0
LINE
  8
_0-0_0
  6
CONTINUOUS
 62
    7
 10
-18.139270999999979
 20
251.39999399999999
 11
-18.139270999999979
 21
270
  0
LINE
  8
_0-0_0
  6
CONTINUOUS
 62
    7
 10
-18.039271999999983
 20
270
 11
-18.139270999999979
 21
270
  0
LINE
  8
_0-0_0
  6
CONTINUOUS
 62
    7
 10
-18.039271999999983
 20
272.5
 11
-18.039271999999983
 21
270
  0
ARC
  8
_0-0_0
  6
CONTINUOUS
 62
    7
 10
-18.539271999999983
 20
272.5
 40
0.5
 50
0
 51
90.000003000000007
  0
LINE
  8
_0-0_0
  6
CONTINUOUS
 62
    7
 10
-18.539271999999983
 20
273
 11
-21.539271999999983
 21
273
  0
ARC
  8
_0-0_0
  6
CONTINUOUS
 62
    7
 10
-21.539271999999983
 20
272.5
 40
0.5
 50
90.000003000000007
 51
179.99999099999999
  0
ARC
  8
_0-0_0
  6
CONTINUOUS
 62
    7
 10
-26.039271999999983
 20
225
 40
0.5
 50
179.99999099999999
 51
269.99999700000001
  0
LINE
  8
_0-0_0
  6
CONTINUOUS
 62
    7
 10
-23.539271999999983
 20
224.5
 11
-26.039271999999983
 21
224.5
  0
ARC
  8
_0-0_0
  6
CONTINUOUS
 62
    7
 10
-23.539271999999983
 20
225
 40
0.5
 50
269.99999700000001
 51
0
  0
LINE
  8
_0-0_0
  6
CONTINUOUS
 62
    7
 10
-23.039271999999983
 20
230
 11
-23.039271999999983
 21
225
  0
ARC
  8
_0-0_0
  6
CONTINUOUS
 62
    7
 10
-22.539271999999983
 20
230
 40
0.5
 50
90.000003000000007
 51
179.99999099999999
  0
LINE
  8
_0-0_0
  6
CONTINUOUS
 62
    7
 10
-18.539271999999983
 20
230.5
 11
-22.539271999999983
 21
230.5
  0
ARC
  8
_0-0_0
  6
CONTINUOUS
 62
    7
 10
-18.539271999999983
 20
231
 40
0.5
 50
269.99999700000001
 51
0
  0
LINE
  8
_0-0_0
  6
CONTINUOUS
 62
    7
 10
-18.039271999999983
 20
234.199997
 11
-18.039271999999983
 21
231
  0
LINE
  8
_0-0_0
  6
CONTINUOUS
 62
    7
 10
-18.139270999999979
 20
234.199997
 11
-18.039271999999983
 21
234.199997
  0
LINE
  8
_0-0_0
  6
CONTINUOUS
 62
    7
 10
-18.139270999999979
 20
234.199997
 11
-18.139270999999979
 21
238.39999399999999
  0
LINE
  8
_0-0_0
  6
CONTINUOUS
 62
    7
 10
-19.039271999999983
 20
272.5
 11
-36.839271999999966
 21
272.5
  0
ARC
  8
_0-0_0
  6
CONTINUOUS
 62
    7
 10
-19.039271999999983
 20
272
 40
0.5
 50
0
 51
90.000003000000007
  0
LINE
  8
_0-0_0
  6
CONTINUOUS
 62
    7
 10
-18.539271999999983
 20
272
 11
-18.539271999999983
 21
231.5
  0
ARC
  8
_0-0_0
  6
CONTINUOUS
 62
    7
 10
-19.039271999999983
 20
231.5
 40
0.5
 50
269.99999700000001
 51
0
  0
LINE
  8
_0-0_0
  6
CONTINUOUS
 62
    7
 10
-22.539271999999983
 20
231
 11
-19.039271999999983
 21
231
  0
ARC
  8
_0-0_0
  6
CONTINUOUS
 62
    7
 10
-22.539271999999983
 20
230
 40
1
 50
90.000003000000007
 51
179.99999099999999
  0
LINE
  8
_0-0_0
  6
CONTINUOUS
 62
    7
 10
-23.539271999999983
 20
230
 11
-23.539271999999983
 21
225.5
  0
ARC
  8
_0-0_0
  6
CONTINUOUS
 62
    7
 10
-24.039271999999983
 20
225.5
 40
0.5
 50
269.99999700000001
 51
0
  0
LINE
  8
_0-0_0
  6
CONTINUOUS
 62
    7
 10
-41.039271999999983
 20
225
 11
-24.039271999999983
 21
225
  0
LINE
  8
_0-0_0
  6
CONTINUOUS
 62
    7
 10
-22.539271999999983
 20
272.699997
 11
-22.539271999999983
 21
272.5
  0
ARC
  8
_0-0_0
  6
CONTINUOUS
 62
    7
 10
-22.839271999999966
 20
272.699997
 40
0.2999999999999999
 50
0
 51
90.000003000000007
  0
LINE
  8
_0-0_0
  6
CONTINUOUS
 62
    7
 10
-22.839271999999966
 20
273
 11
-37.539271999999983
 21
273
  0
ARC
  8
_0-0_0
  6
CONTINUOUS
 62
    7
 10
-37.539271999999983
 20
272.699997
 40
0.2999999999999999
 50
90.000003000000007
 51
179.99999099999999
  0
LINE
  8
_0-0_0
  6
CONTINUOUS
 62
    7
 10
-37.839271999999966
 20
272.699997
 11
-37.839271999999966
 21
269.5
  0
LINE
  8
_0-0_0
  6
CONTINUOUS
 62
    7
 10
-37.839271999999966
 20
269.5
 11
-43.539271999999983
 21
269.5
  0
LINE
  8
_0-0_0
  6
CONTINUOUS
 62
    7
 10
-43.539271999999983
 20
269.5
 11
-44.339271999999966
 21
268.699997
  0
ARC
  8
_0-0_0
  6
CONTINUOUS
 62
    7
 10
-36.839271999999966
 20
272
 40
0.5
 50
90.000003000000007
 51
179.99999099999999
  0
LINE
  8
_0-0_0
  6
CONTINUOUS
 62
    7
 10
-37.339271999999966
 20
272
 11
-37.339271999999966
 21
269.199997
  0
ARC
  8
_0-0_0
  6
CONTINUOUS
 62
    7
 10
-37.839271999999966
 20
269.199997
 40
0.5
 50
269.99999700000001
 51
0
  0
LINE
  8
_0-0_0
  6
CONTINUOUS
 62
    7
 10
-37.839271999999966
 20
268.699997
 11
-46.039271999999983
 21
268.699997
  0
ARC
  8
_0-0_0
  6
CONTINUOUS
 62
    7
 10
-46.039271999999983
 20
268.199997
 40
0.5
 50
90.000003000000007
 51
179.99999099999999
  0
LINE
  8
_0-0_0
  6
CONTINUOUS
 62
    7
 10
-46.539271999999983
 20
231.5
 11
-46.539271999999983
 21
268.199997
  0
ARC
  8
_0-0_0
  6
CONTINUOUS
 62
    7
 10
-46.039271999999983
 20
231.5
 40
0.5
 50
179.99999099999999
 51
269.99999700000001
  0
LINE
  8
_0-0_0
  6
CONTINUOUS
 62
    7
 10
-46.039271999999983
 20
231
 11
-42.539271999999983
 21
231
  0
ARC
  8
_0-0_0
  6
CONTINUOUS
 62
    7
 10
-42.539271999999983
 20
230
 40
1
 50
0
 51
90.000003000000007
  0
LINE
  8
_0-0_0
  6
CONTINUOUS
 62
    7
 10
-41.539271999999983
 20
225.5
 11
-41.539271999999983
 21
230
  0
ARC
  8
_0-0_0
  6
CONTINUOUS
 62
    7
 10
-41.039271999999983
 20
225.5
 40
0.5
 50
179.99999099999999
 51
269.99999700000001
  0
CIRCLE
  8
_0-0_0
  6
CONTINUOUS
 62
    7
 10
-32.539271999999983
 20
234
 40
2.0670000000000002
  0
LINE
  8
_0-0_0
  6
CONTINUOUS
 62
    7
 10
-44.539271999999983
 20
269
 11
-44.539271999999983
 21
268.699997
  0
LINE
  8
_0-0_0
  6
CONTINUOUS
 62
    7
 10
-44.539271999999983
 20
269
 11
-46.539271999999983
 21
269
  0
ARC
  8
_0-0_0
  6
CONTINUOUS
 62
    7
 10
-46.539271999999983
 20
268.5
 40
0.5
 50
90.000003000000007
 51
179.99999099999999
  0
LINE
  8
_0-0_0
  6
CONTINUOUS
 62
    7
 10
-47.039271999999983
 20
268.5
 11
-47.039271999999983
 21
231
  0
ARC
  8
_0-0_0
  6
CONTINUOUS
 62
    7
 10
-46.539271999999983
 20
231
 40
0.5
 50
179.99999099999999
 51
269.99999700000001
  0
LINE
  8
_0-0_0
  6
CONTINUOUS
 62
    7
 10
-42.539271999999983
 20
230.5
 11
-46.539271999999983
 21
230.5
  0
ARC
  8
_0-0_0
  6
CONTINUOUS
 62
    7
 10
-42.539271999999983
 20
230
 40
0.5
 50
0
 51
90.000003000000007
  0
LINE
  8
_0-0_0
  6
CONTINUOUS
 62
    7
 10
-42.039271999999983
 20
225
 11
-42.039271999999983
 21
230
  0
ARC
  8
_0-0_0
  6
CONTINUOUS
 62
    7
 10
-41.539271999999983
 20
225
 40
0.5
 50
179.99999099999999
 51
269.99999700000001
  0
LINE
  8
_0-0_0
  6
CONTINUOUS
 62
    7
 10
-41.539271999999983
 20
224.5
 11
-39.039271999999983
 21
224.5
  0
ARC
  8
_0-0_0
  6
CONTINUOUS
 62
    7
 10
-39.039271999999983
 20
225
 40
0.5
 50
269.99999700000001
 51
0
  0
LINE
  8
_0-0_0
  6
CONTINUOUS
 62
    7
 10
-23.039271999999983
 20
225
 11
-22.939273999999955
 21
225
  0
LINE
  8
_0-0_0
  6
CONTINUOUS
 62
    7
 10
-22.939273999999955
 20
225
 11
-22.939273999999955
 21
225.5
  0
LINE
  8
_0-0_0
  6
CONTINUOUS
 62
    7
 10
-22.939273999999955
 20
229.5
 11
-22.939273999999955
 21
225.5
  0
LINE
  8
_0-0_0
  6
CONTINUOUS
 62
    7
 10
-23.039271999999983
 20
230
 11
-22.939273999999955
 21
230
  0
LINE
  8
_0-0_0
  6
CONTINUOUS
 62
    7
 10
-22.939273999999955
 20
229.5
 11
-22.939273999999955
 21
230
  0
LINE
  8
_0-0_0
  6
CONTINUOUS
 62
    7
 10
-22.839271999999966
 20
225.5
 11
-22.839271999999966
 21
225.630371
  0
LINE
  8
_0-0_0
  6
CONTINUOUS
 62
    7
 10
-22.839271999999966
 20
229.130371
 11
-22.839271999999966
 21
225.630371
  0
LINE
  8
_0-0_0
  6
CONTINUOUS
 62
    7
 10
-22.939273999999955
 20
229.39999399999999
 11
-22.839271999999966
 21
229.39999399999999
  0
LINE
  8
_0-0_0
  6
CONTINUOUS
 62
    7
 10
-22.839271999999966
 20
229.130371
 11
-22.839271999999966
 21
229.39999399999999
  0
LINE
  8
_0-0_0
  6
CONTINUOUS
 62
    7
 10
-22.939273999999955
 20
225.5
 11
-22.839271999999966
 21
225.5
  0
LINE
  8
_0-0_0
  6
CONTINUOUS
 62
    7
 10
-22.939273999999955
 20
225.5
 11
-22.839271999999966
 21
225.5
  0
ENDSEC
  0
EOF
