  0
SECTION
  2
HEADER
  9
$ACADVER
  1
AC1015
  9
$ACADMAINTVER
 70
     6
  9
$DWGCODEPAGE
  3
ANSI_1252
  9
$INSBASE
 10
0.0
 20
0.0
 30
0.0
  9
$EXTMIN
 10
0.0
 20
0.0
 30
0.0
  9
$EXTMAX
 10
530.306946
 20
276.849976
 30
2.0
  9
$LIMMIN
 10
0.0
 20
0.0
  9
$LIMMAX
 10
420.0
 20
297.0
  9
$ORTHOMODE
 70
     0
  9
$REGENMODE
 70
     1
  9
$FILLMODE
 70
     1
  9
$QTEXTMODE
 70
     0
  9
$MIRRTEXT
 70
     1
  9
$LTSCALE
 40
1.0
  9
$ATTMODE
 70
     1
  9
$TEXTSIZE
 40
2.5
  9
$TRACEWID
 40
1.0
  9
$TEXTSTYLE
  7
Standard
  9
$CLAYER
  8
0
  9
$CELTYPE
  6
ByLayer
  9
$CECOLOR
 62
   256
  9
$CELTSCALE
 40
1.0
  9
$DISPSILH
 70
     0
  9
$DIMSCALE
 40
1.0
  9
$DIMASZ
 40
2.5
  9
$DIMEXO
 40
0.625
  9
$DIMDLI
 40
3.75
  9
$DIMRND
 40
0.0
  9
$DIMDLE
 40
0.0
  9
$DIMEXE
 40
1.25
  9
$DIMTP
 40
0.0
  9
$DIMTM
 40
0.0
  9
$DIMTXT
 40
2.5
  9
$DIMCEN
 40
2.5
  9
$DIMTSZ
 40
0.0
  9
$DIMTOL
 70
     0
  9
$DIMLIM
 70
     0
  9
$DIMTIH
 70
     0
  9
$DIMTOH
 70
     0
  9
$DIMSE1
 70
     0
  9
$DIMSE2
 70
     0
  9
$DIMTAD
 70
     1
  9
$DIMZIN
 70
     8
  9
$DIMBLK
  1

  9
$DIMASO
 70
     1
  9
$DIMSHO
 70
     1
  9
$DIMPOST
  1

  9
$DIMAPOST
  1

  9
$DIMALT
 70
     0
  9
$DIMALTD
 70
     3
  9
$DIMALTF
 40
0.03937
  9
$DIMLFAC
 40
1.0
  9
$DIMTOFL
 70
     1
  9
$DIMTVP
 40
0.0
  9
$DIMTIX
 70
     0
  9
$DIMSOXD
 70
     0
  9
$DIMSAH
 70
     0
  9
$DIMBLK1
  1

  9
$DIMBLK2
  1

  9
$DIMSTYLE
  2

  9
$DIMCLRD
 70
     0
  9
$DIMCLRE
 70
     0
  9
$DIMCLRT
 70
     0
  9
$DIMTFAC
 40
1.0
  9
$DIMGAP
 40
0.625
  9
$DIMJUST
 70
     0
  9
$DIMSD1
 70
     0
  9
$DIMSD2
 70
     0
  9
$DIMTOLJ
 70
     0
  9
$DIMTZIN
 70
     8
  9
$DIMALTZ
 70
     0
  9
$DIMALTTZ
 70
     0
  9
$DIMUPT
 70
     0
  9
$DIMDEC
 70
     2
  9
$DIMTDEC
 70
     2
  9
$DIMALTU
 70
     2
  9
$DIMALTTD
 70
     3
  9
$DIMTXSTY
  7
Standard
  9
$DIMAUNIT
 70
     0
  9
$DIMADEC
 70
     0
  9
$DIMALTRND
 40
0.0
  9
$DIMAZIN
 70
     0
  9
$DIMDSEP
 70
    44
  9
$DIMATFIT
 70
     0
  9
$DIMFRAC
 70
     0
  9
$DIMLDRBLK
  1

  9
$DIMLUNIT
 70
     2
  9
$DIMLWD
 70
    -2
  9
$DIMLWE
 70
    -2
  9
$DIMTMOVE
 70
     0
  9
$LUNITS
 70
     2
  9
$LUPREC
 70
     4
  9
$SKETCHINC
 40
1.0
  9
$FILLETRAD
 40
2.5
  9
$AUNITS
 70
     0
  9
$AUPREC
 70
     0
  9
$MENU
  1
.
  9
$ELEVATION
 40
0.0
  9
$PELEVATION
 40
0.0
  9
$THICKNESS
 40
0.0
  9
$LIMCHECK
 70
     0
  9
$CHAMFERA
 40
2.5
  9
$CHAMFERB
 40
2.5
  9
$CHAMFERC
 40
0.0
  9
$CHAMFERD
 40
0.0
  9
$SKPOLY
 70
     0
  9
$TDCREATE
 40
0.000000000
  9
$TDUCREATE
 40
0.000000000
  9
$TDUPDATE
 40
0.000000000
  9
$TDUUPDATE
 40
0.000000000
  9
$TDINDWG
 40
0.0000000000
  9
$TDUSRTIMER
 40
0.0000000000
  9
$USRTIMER
 70
     1
  9
$ANGBASE
 50
0.0
  9
$ANGDIR
 70
     0
  9
$PDMODE
 70
     0
  9
$PDSIZE
 40
0.0
  9
$PLINEWID
 40
0.0
  9
$SPLFRAME
 70
     0
  9
$SPLINETYPE
 70
     6
  9
$SPLINESEGS
 70
     8
  9
$HANDSEED
  5
6AC
  9
$SURFTAB1
 70
     6
  9
$SURFTAB2
 70
     6
  9
$SURFTYPE
 70
     6
  9
$SURFU
 70
     6
  9
$SURFV
 70
     6
  9
$UCSBASE
  2

  9
$UCSNAME
  2

  9
$UCSORG
 10
0.0
 20
0.0
 30
0.0
  9
$UCSXDIR
 10
1.0
 20
0.0
 30
0.0
  9
$UCSYDIR
 10
0.0
 20
1.0
 30
0.0
  9
$UCSORTHOREF
  2

  9
$UCSORTHOVIEW
 70
     1
  9
$UCSORGTOP
 10
0.0
 20
0.0
 30
0.0
  9
$UCSORGBOTTOM
 10
0.0
 20
0.0
 30
0.0
  9
$UCSORGLEFT
 10
0.0
 20
0.0
 30
0.0
  9
$UCSORGRIGHT
 10
0.0
 20
0.0
 30
0.0
  9
$UCSORGFRONT
 10
0.0
 20
0.0
 30
0.0
  9
$UCSORGBACK
 10
0.0
 20
0.0
 30
0.0
  9
$PUCSBASE
  2

  9
$PUCSNAME
  2

  9
$PUCSORG
 10
0.0
 20
0.0
 30
0.0
  9
$PUCSXDIR
 10
1.0
 20
0.0
 30
0.0
  9
$PUCSYDIR
 10
0.0
 20
1.0
 30
0.0
  9
$PUCSORTHOREF
  2

  9
$PUCSORTHOVIEW
 70
     0
  9
$PUCSORGTOP
 10
0.0
 20
0.0
 30
0.0
  9
$PUCSORGBOTTOM
 10
0.0
 20
0.0
 30
0.0
  9
$PUCSORGLEFT
 10
0.0
 20
0.0
 30
0.0
  9
$PUCSORGRIGHT
 10
0.0
 20
0.0
 30
0.0
  9
$PUCSORGFRONT
 10
0.0
 20
0.0
 30
0.0
  9
$PUCSORGBACK
 10
0.0
 20
0.0
 30
0.0
  9
$USERI1
 70
     0
  9
$USERI2
 70
     0
  9
$USERI3
 70
     0
  9
$USERI4
 70
     0
  9
$USERI5
 70
     0
  9
$USERR1
 40
0.0
  9
$USERR2
 40
0.0
  9
$USERR3
 40
0.0
  9
$USERR4
 40
0.0
  9
$USERR5
 40
0.0
  9
$WORLDVIEW
 70
     1
  9
$SHADEDGE
 70
     3
  9
$SHADEDIF
 70
    70
  9
$TILEMODE
 70
     1
  9
$MAXACTVP
 70
    48
  9
$PINSBASE
 10
0.0
 20
0.0
 30
0.0
  9
$PLIMCHECK
 70
     0
  9
$PEXTMIN
 10
0.0
 20
0.0
 30
0.0
  9
$PEXTMAX
 10
530.306946
 20
276.849976
 30
2.0
  9
$PLIMMIN
 10
0.0
 20
0.0
  9
$PLIMMAX
 10
420.0
 20
297.0
  9
$UNITMODE
 70
     0
  9
$VISRETAIN
 70
     0
  9
$PLINEGEN
 70
     0
  9
$PSLTSCALE
 70
     1
  9
$TREEDEPTH
 70
  3020
  9
$CMLSTYLE
  2
Standard
  9
$CMLJUST
 70
     0
  9
$CMLSCALE
 40
20.0
  9
$PROXYGRAPHICS
 70
     1
  9
$MEASUREMENT
 70
     1
  9
$CELWEIGHT
370
    -1
  9
$ENDCAPS
280
     0
  9
$JOINSTYLE
280
     0
  9
$LWDISPLAY
290
     0
  9
$INSUNITS
 70
     0
  9
$HYPERLINKBASE
  1

  9
$STYLESHEET
  1

  9
$XEDIT
290
     1
  9
$CEPSNTYPE
380
     0
  9
$PSTYLEMODE
290
     0
  9
$FINGERPRINTGUID
  2

  9
$VERSIONGUID
  2

  9
$EXTNAMES
290
     0
  9
$PSVPSCALE
 40
0.0
  0
ENDSEC
  0
SECTION
  2
CLASSES
  0
CLASS
  1
LWPOLYLINE
  2
AcDbPolyline
  3
AutoCAD 2000
 90
        0
280
     0
281
     1
  0
CLASS
  1
IMAGE
  2
AcDbRasterImage
  3
ISM
 90
      127
280
     0
281
     1
  0
CLASS
  1
OLE2FRAME
  2
AcDbOle2Frame
  3
AutoCAD 2000
 90
        0
280
     0
281
     1
  0
CLASS
  1
HATCH
  2
AcDbHatch
  3
AutoCAD 2000
 90
        0
280
     0
281
     1
  0
CLASS
  1
DICTIONARYVAR
  2
AcDbDictionaryVar
  3
AutoCAD 2000
 90
        0
280
     0
281
     0
  0
CLASS
  1
RASTERVARIABLES
  2
AcDbRasterVariables
  3
ISM
 90
        0
280
     0
281
     0
  0
CLASS
  1
IMAGEDEF
  2
AcDbRasterImageDef
  3
ISM
 90
        0
280
     0
281
     0
  0
CLASS
  1
IMAGEDEF_REACTOR
  2
AcDbRasterImageDefReactor
  3
ISM
 90
        1
280
     0
281
     0
  0
CLASS
  1
IDBUFFER
  2
AcDbIdBuffer
  3
AutoCAD 2000
 90
        0
280
     0
281
     0
  0
CLASS
  1
SPATIAL_FILTER
  2
AcDbSpatialFilter
  3
AutoCAD 2000
 90
        0
280
     0
281
     0
  0
CLASS
  1
XRECORD
  2
AcDbXrecord
  3
AutoCAD 2000
 90
        0
280
     0
281
     0
  0
CLASS
  1
SORTENTSTABLE
  2
AcDbSortentsTable
  3
AutoCAD 2000
 90
        0
280
     0
281
     0
  0
CLASS
  1
LAYER_INDEX
  2
AcDbLayerIndex
  3
AutoCAD 2000
 90
        0
280
     0
281
     0
  0
CLASS
  1
SPATIAL_INDEX
  2
AcDbSpatialIndex
  3
AutoCAD 2000
 90
        0
280
     0
281
     0
  0
CLASS
  1
OBJECT_PTR
  2
CAseDLPNTableRecord
  3
"ASE-LPNTableRecord"
 90
        1
280
     0
281
     0
  0
CLASS
  1
LAYOUT
  2
AcDbLayout
  3
AutoCAD 2000
 90
        0
280
     0
281
     0
  0
CLASS
  1
PLOTSETTINGS
  2
AcDbPlotSettings
  3
AutoCAD 2000
 90
        0
280
     0
281
     0
  0
CLASS
  1
ACDBDICTIONARYWDFLT
  2
AcDbDictionaryWithDefault
  3
AutoCAD 2000
 90
        0
280
     0
281
     0
  0
CLASS
  1
ACDBPLACEHOLDER
  2
AcDbPlaceHolder
  3
AutoCAD 2000
 90
        0
280
     0
281
     0
  0
CLASS
  1
VBA_PROJECT
  2
AcDbVbaProject
  3
acadvba
 90
        0
280
     0
281
     0
  0
CLASS
  1
WIPEOUT
  2
AcDbWipeout
  3
WipeOut|AutoCAD Express Tool|expresstools@autodesk.com
 90
      127
280
     0
281
     1
  0
CLASS
  1
WIPEOUTVARIABLES
  2
AcDbWipeoutVariables
  3
WipeOut|AutoCAD Express Tool|expresstools@autodesk.com
 90
        0
280
     0
281
     0
  0
CLASS
  1
RTEXT
  2
RText
  3
RText|AutoCAD Express Tool|expresstools@autodesk.com
 90
        0
280
     0
281
     1
  0
CLASS
  1
ARCALIGNEDTEXT
  2
AcDbArcAlignedText
  3
ATEXT|AutoCAD Express Tool|expresstools@autodesk.com
 90
        0
280
     0
281
     1
  0
ENDSEC
  0
SECTION
  2
TABLES
  0
TABLE
  2
VPORT
  5
7
100
AcDbSymbolTable
 70
     1
  0
VPORT
  5
15
100
AcDbSymbolTableRecord
100
AcDbViewportTableRecord
  2
*ACTIVE
 70
     0
 10
0.0
 20
0.0
 11
1.0
 21
1.0
 12
6.591288
 22
4.579184
 13
0.0
 23
0.0
 14
1.0
 24
1.0
 15
0.0
 25
0.0
 16
0.0
 26
0.0
 36
1.0
 17
0.0
 27
0.0
 37
0.0
 40
9.158369
 41
0.688564
 42
50.0
 43
0.0
 44
0.0
 50
0.0
 51
0.0
 71
     0
 72
   100
 73
     1
 74
     1
 75
     0
 76
     0
 77
     0
 78
     0
281
     0
 65
     0
110
0.0
120
0.0
130
0.0
111
1.0
121
0.0
131
0.0
112
0.0
122
1.0
132
0.0
345
0
346
0
 79
     0
146
0.0
  0
ENDTAB
  0
TABLE
  2
LTYPE
  5
4
100
AcDbSymbolTable
 70
     3
  0
LTYPE
  5
11
100
AcDbSymbolTableRecord
100
AcDbLinetypeTableRecord
  2
ByBlock
 70
    64
  3

 72
    65
 73
     0
 40
0.0
  0
LTYPE
  5
12
100
AcDbSymbolTableRecord
100
AcDbLinetypeTableRecord
  2
ByLayer
 70
    64
  3

 72
    65
 73
     0
 40
0.0
  0
LTYPE
  5
13
100
AcDbSymbolTableRecord
100
AcDbLinetypeTableRecord
  2
Continuous
 70
    64
  3
Solid line
 72
    65
 73
     0
 40
0.0
  0
ENDTAB
  0
TABLE
  2
LAYER
  5
2
100
AcDbSymbolTable
 70
     1
  0
LAYER
  5
14
100
AcDbSymbolTableRecord
100
AcDbLayerTableRecord
  2
0
 70
     0
 62
     7
  6
Continuous
290
     1
370
    -3
390
1D
  0
ENDTAB
  0
TABLE
  2
STYLE
  5
3
100
AcDbSymbolTable
 70
     1
  0
STYLE
  5
17
100
AcDbSymbolTableRecord
100
AcDbTextStyleTableRecord
  2
Standard
 70
     0
 40
0.0
 41
1.0
 50
0.0
 71
     0
 42
0.0
  3
txt
  4

  0
ENDTAB
  0
TABLE
  2
VIEW
  5
5
100
AcDbSymbolTable
 70
     0
  0
ENDTAB
  0
TABLE
  2
UCS
  5
6
100
AcDbSymbolTable
 70
     0
  0
ENDTAB
  0
TABLE
  2
APPID
  5
8
100
AcDbSymbolTable
 70
     1
  0
APPID
  5
16
100
AcDbSymbolTableRecord
100
AcDbRegAppTableRecord
  2
ACAD
 70
     0
  0
ENDTAB
  0
TABLE
  2
DIMSTYLE
  5
9
100
AcDbSymbolTable
 70
     1
100
AcDbDimStyleTable
 71
     0
  0
DIMSTYLE
105
18
100
AcDbSymbolTableRecord
100
AcDbDimStyleTableRecord
  2
Standard
 70
     0
  3

  4

 40
1.0
 41
0.18
 42
0.0625
 43
0.38
 44
0.18
 45
0.0
 46
0.0
 47
0.0
 48
0.0
 71
     0
 72
     0
 73
     1
 74
     1
 75
     0
 76
     0
 77
     0
 78
     0
 79
     0
140
0.18
141
0.09
142
0.0
143
25.4
144
1.0
145
0.0
146
1.0
147
0.09
148
0.0
170
     0
171
     2
172
     0
173
     0
174
     0
175
     0
176
     0
177
     0
178
     0
179
     0
271
     4
272
     4
273
     2
274
     2
275
     0
276
     0
277
     2
278
    46
279
     0
280
     0
281
     0
282
     0
283
     1
284
     0
285
     0
286
     0
288
     0
289
     3
340
17
341
0
342
0
343
0
344
0
371
    -2
372
    -2
  0
ENDTAB
  0
TABLE
  2
BLOCK_RECORD
  5
1
100
AcDbSymbolTable
 70
     0
  0
BLOCK_RECORD
  5
A
100
AcDbSymbolTableRecord
100
AcDbBlockTableRecord
  2
*MODEL_SPACE
340
20
  0
BLOCK_RECORD
  5
B
100
AcDbSymbolTableRecord
100
AcDbBlockTableRecord
  2
*PAPER_SPACE
340
21
  0
ENDTAB
  0
ENDSEC
  0
SECTION
  2
BLOCKS
  0
BLOCK
  5
D
100
AcDbEntity
  8
0
390
0
100
AcDbBlockBegin
  2
*MODEL_SPACE
 70
     0
 10
0.0
 20
0.0
 30
0.0
  3
*MODEL_SPACE
  1

  0
ENDBLK
  5
E
100
AcDbEntity
  8
0
390
0
100
AcDbBlockEnd
  0
BLOCK
  5
F
100
AcDbEntity
 67
     1
  8
0
390
0
100
AcDbBlockBegin
  2
*PAPER_SPACE
 70
     0
 10
0.0
 20
0.0
 30
0.0
  3
*PAPER_SPACE
  1

  0
ENDBLK
  5
10
100
AcDbEntity
 67
     1
  8
0
390
0
100
AcDbBlockEnd
  0
ENDSEC
  0
SECTION
  2
ENTITIES
  0
VIEWPORT
  5
6AB
100
AcDbEntity
 67
     1
  8
0
370
     0
390
0
 62
     0
 48
0.0
100
AcDbViewport
 10
0.0
 20
0.0
 30
0.0
 40
1000.0
 41
1000.0
 68
     1
 69
     1
 12
0.0
 22
0.0
 13
0.0
 23
0.0
 14
1.0
 24
1.0
 15
1.0
 25
1.0
 16
0.0
 26
0.0
 36
1.0
 17
0.0
 27
0.0
 37
0.0
 42
50.0
 43
0.0
 44
0.0
 45
1000.0
 50
0.0
 51
0.0
 72
   100
 90
        0
340
0
  1

281
     0
 71
     0
 74
     1
110
0.0
120
0.0
130
0.0
111
1.0
121
0.0
131
0.0
112
0.0
122
1.0
132
0.0
345
0
346
0
 79
     0
146
0.0
  0
POLYLINE
  5
24
100
AcDbEntity
  8
0
370
    13
390
0
 62
     7
100
AcDb2dPolyline
 66
     1
 10
0.0
 20
0.0
 30
0.0
 71
     8
  0
VERTEX
  5
25
100
AcDbEntity
  8
0
370
     0
390
0
100
AcDbVertex
100
AcDb2dVertex
 10
267.531494
 20
152.003204
 30
0.0
  0
VERTEX
  5
26
100
AcDbEntity
  8
0
370
     0
390
0
100
AcDbVertex
100
AcDb2dVertex
 10
267.070831
 20
152.567734
 30
0.0
  0
VERTEX
  5
27
100
AcDbEntity
  8
0
370
     0
390
0
100
AcDbVertex
100
AcDb2dVertex
 10
266.379883
 20
152.809662
 30
0.0
  0
VERTEX
  5
28
100
AcDbEntity
  8
0
370
     0
390
0
100
AcDbVertex
100
AcDb2dVertex
 10
265.688904
 20
152.809662
 30
0.0
  0
VERTEX
  5
29
100
AcDbEntity
  8
0
370
     0
390
0
100
AcDbVertex
100
AcDb2dVertex
 10
264.997925
 20
152.567734
 30
0.0
  0
VERTEX
  5
2A
100
AcDbEntity
  8
0
370
     0
390
0
100
AcDbVertex
100
AcDb2dVertex
 10
264.537292
 20
151.922562
 30
0.0
  0
VERTEX
  5
2B
100
AcDbEntity
  8
0
370
     0
390
0
100
AcDbVertex
100
AcDb2dVertex
 10
264.537292
 20
151.358047
 30
0.0
  0
VERTEX
  5
2C
100
AcDbEntity
  8
0
370
     0
390
0
100
AcDbVertex
100
AcDb2dVertex
 10
264.940369
 20
150.793533
 30
0.0
  0
SEQEND
  5
2D
100
AcDbEntity
  8
0
370
     0
390
0
  0
LINE
  5
2E
100
AcDbEntity
  8
0
370
    13
390
0
 62
     7
 48
0.013568
100
AcDbLine
 10
266.034393
 20
150.390305
 30
0.0
 11
266.552612
 21
150.229019
 31
0.0
210
0.0
220
0.0
230
1.0
  0
POLYLINE
  5
2F
100
AcDbEntity
  8
0
370
    13
390
0
 62
     7
100
AcDb2dPolyline
 66
     1
 10
0.0
 20
0.0
 30
0.0
 71
     5
  0
VERTEX
  5
30
100
AcDbEntity
  8
0
370
     0
390
0
100
AcDbVertex
100
AcDb2dVertex
 10
267.070831
 20
147.970947
 30
0.0
  0
VERTEX
  5
31
100
AcDbEntity
  8
0
370
     0
390
0
100
AcDbVertex
100
AcDb2dVertex
 10
266.379883
 20
147.809662
 30
0.0
  0
VERTEX
  5
32
100
AcDbEntity
  8
0
370
     0
390
0
100
AcDbVertex
100
AcDb2dVertex
 10
265.688904
 20
147.809662
 30
0.0
  0
VERTEX
  5
33
100
AcDbEntity
  8
0
370
     0
390
0
100
AcDbVertex
100
AcDb2dVertex
 10
264.997925
 20
148.132248
 30
0.0
  0
VERTEX
  5
34
100
AcDbEntity
  8
0
370
     0
390
0
100
AcDbVertex
100
AcDb2dVertex
 10
264.537292
 20
148.696762
 30
0.0
  0
SEQEND
  5
35
100
AcDbEntity
  8
0
370
     0
390
0
  0
LINE
  5
36
100
AcDbEntity
  8
0
370
    13
390
0
 62
     7
 48
0.011692
100
AcDbLine
 10
265.57373
 20
150.470947
 30
0.0
 11
266.034393
 21
150.390305
 31
0.0
210
0.0
220
0.0
230
1.0
  0
LINE
  5
37
100
AcDbEntity
  8
0
370
    13
390
0
 62
     7
 48
0.01777
100
AcDbLine
 10
264.940369
 20
150.793533
 30
0.0
 11
265.57373
 21
150.470947
 31
0.0
210
0.0
220
0.0
230
1.0
  0
LINE
  5
38
100
AcDbEntity
  8
0
370
    13
390
0
 62
     7
 48
0.019819
100
AcDbLine
 10
267.531494
 20
148.616119
 30
0.0
 11
267.070831
 21
147.970947
 31
0.0
210
0.0
220
0.0
230
1.0
  0
LINE
  5
39
100
AcDbEntity
  8
0
370
    13
390
0
 62
     7
 48
0.018145
100
AcDbLine
 10
267.531494
 20
149.341919
 30
0.0
 11
267.531494
 21
148.616119
 31
0.0
210
0.0
220
0.0
230
1.0
  0
POLYLINE
  5
3A
100
AcDbEntity
  8
0
370
    13
390
0
 62
     7
100
AcDb2dPolyline
 66
     1
 10
0.0
 20
0.0
 30
0.0
 71
     3
  0
VERTEX
  5
3B
100
AcDbEntity
  8
0
370
     0
390
0
100
AcDbVertex
100
AcDb2dVertex
 10
266.552612
 20
150.229019
 30
0.0
  0
VERTEX
  5
3C
100
AcDbEntity
  8
0
370
     0
390
0
100
AcDbVertex
100
AcDb2dVertex
 10
267.070831
 20
149.906433
 30
0.0
  0
VERTEX
  5
3D
100
AcDbEntity
  8
0
370
     0
390
0
100
AcDbVertex
100
AcDb2dVertex
 10
267.531494
 20
149.341919
 30
0.0
  0
SEQEND
  5
3E
100
AcDbEntity
  8
0
370
     0
390
0
  0
LINE
  5
3F
100
AcDbEntity
  8
0
370
    13
390
0
 62
     7
 48
0.048943
100
AcDbLine
 10
270.44986
 20
152.809662
 30
0.0
 11
268.492126
 21
152.809662
 31
0.0
210
0.0
220
0.0
230
1.0
  0
LINE
  5
40
100
AcDbEntity
  8
0
370
    13
390
0
 62
     7
 48
0.051823
100
AcDbLine
 10
268.492126
 20
150.390305
 30
0.0
 11
270.565033
 21
150.390305
 31
0.0
210
0.0
220
0.0
230
1.0
  0
LINE
  5
41
100
AcDbEntity
  8
0
370
    13
390
0
 62
     7
 48
0.125
100
AcDbLine
 10
268.492126
 20
152.809662
 30
0.0
 11
268.492126
 21
147.809662
 31
0.0
210
0.0
220
0.0
230
1.0
  0
POLYLINE
  5
42
100
AcDbEntity
  8
0
370
    13
390
0
 62
     7
100
AcDb2dPolyline
 66
     1
 10
0.0
 20
0.0
 30
0.0
 71
     6
  0
VERTEX
  5
43
100
AcDbEntity
  8
0
370
     0
390
0
100
AcDbVertex
100
AcDb2dVertex
 10
270.44986
 20
152.809662
 30
0.0
  0
VERTEX
  5
44
100
AcDbEntity
  8
0
370
     0
390
0
100
AcDbVertex
100
AcDb2dVertex
 10
270.852936
 20
152.567734
 30
0.0
  0
VERTEX
  5
45
100
AcDbEntity
  8
0
370
     0
390
0
100
AcDbVertex
100
AcDb2dVertex
 10
271.256012
 20
152.003204
 30
0.0
  0
VERTEX
  5
46
100
AcDbEntity
  8
0
370
     0
390
0
100
AcDbVertex
100
AcDb2dVertex
 10
271.256012
 20
151.196762
 30
0.0
  0
VERTEX
  5
47
100
AcDbEntity
  8
0
370
     0
390
0
100
AcDbVertex
100
AcDb2dVertex
 10
270.968109
 20
150.712891
 30
0.0
  0
VERTEX
  5
48
100
AcDbEntity
  8
0
370
     0
390
0
100
AcDbVertex
100
AcDb2dVertex
 10
270.565033
 20
150.390305
 30
0.0
  0
SEQEND
  5
49
100
AcDbEntity
  8
0
370
     0
390
0
  0
LINE
  5
4A
100
AcDbEntity
  8
0
370
    13
390
0
 62
     7
 48
0.070648
100
AcDbLine
 10
270.104401
 20
150.390305
 30
0.0
 11
271.256012
 21
147.809662
 31
0.0
210
0.0
220
0.0
230
1.0
  0
POLYLINE
  5
4B
100
AcDbEntity
  8
0
370
    13
390
0
 62
     7
100
AcDb2dPolyline
 66
     1
 10
0.0
 20
0.0
 30
0.0
 71
    14
  0
VERTEX
  5
4C
100
AcDbEntity
  8
0
370
     0
390
0
100
AcDbVertex
100
AcDb2dVertex
 10
275.325989
 20
147.809662
 30
0.0
  0
VERTEX
  5
4D
100
AcDbEntity
  8
0
370
     0
390
0
100
AcDbVertex
100
AcDb2dVertex
 10
272.562134
 20
147.809662
 30
0.0
  0
VERTEX
  5
4E
100
AcDbEntity
  8
0
370
     0
390
0
100
AcDbVertex
100
AcDb2dVertex
 10
274.519867
 20
150.067734
 30
0.0
  0
VERTEX
  5
4F
100
AcDbEntity
  8
0
370
     0
390
0
100
AcDbVertex
100
AcDb2dVertex
 10
274.922943
 20
150.712891
 30
0.0
  0
VERTEX
  5
50
100
AcDbEntity
  8
0
370
     0
390
0
100
AcDbVertex
100
AcDb2dVertex
 10
275.095673
 20
151.196762
 30
0.0
  0
VERTEX
  5
51
100
AcDbEntity
  8
0
370
     0
390
0
100
AcDbVertex
100
AcDb2dVertex
 10
275.095673
 20
151.680634
 30
0.0
  0
VERTEX
  5
52
100
AcDbEntity
  8
0
370
     0
390
0
100
AcDbVertex
100
AcDb2dVertex
 10
274.922943
 20
152.245148
 30
0.0
  0
VERTEX
  5
53
100
AcDbEntity
  8
0
370
     0
390
0
100
AcDbVertex
100
AcDb2dVertex
 10
274.750183
 20
152.567734
 30
0.0
  0
VERTEX
  5
54
100
AcDbEntity
  8
0
370
     0
390
0
100
AcDbVertex
100
AcDb2dVertex
 10
274.347137
 20
152.809662
 30
0.0
  0
VERTEX
  5
55
100
AcDbEntity
  8
0
370
     0
390
0
100
AcDbVertex
100
AcDb2dVertex
 10
273.656158
 20
152.809662
 30
0.0
  0
VERTEX
  5
56
100
AcDbEntity
  8
0
370
     0
390
0
100
AcDbVertex
100
AcDb2dVertex
 10
273.253082
 20
152.567734
 30
0.0
  0
VERTEX
  5
57
100
AcDbEntity
  8
0
370
     0
390
0
100
AcDbVertex
100
AcDb2dVertex
 10
273.080353
 20
152.32579
 30
0.0
  0
VERTEX
  5
58
100
AcDbEntity
  8
0
370
     0
390
0
100
AcDbVertex
100
AcDb2dVertex
 10
272.850037
 20
151.841919
 30
0.0
  0
VERTEX
  5
59
100
AcDbEntity
  8
0
370
     0
390
0
100
AcDbVertex
100
AcDb2dVertex
 10
272.850037
 20
151.599991
 30
0.0
  0
SEQEND
  5
5A
100
AcDbEntity
  8
0
370
     0
390
0
  0
POLYLINE
  5
5B
100
AcDbEntity
  8
0
370
    13
390
0
 62
     7
100
AcDb2dPolyline
 66
     1
 10
0.0
 20
0.0
 30
0.0
 71
     3
  0
VERTEX
  5
5C
100
AcDbEntity
  8
0
370
     0
390
0
100
AcDbVertex
100
AcDb2dVertex
 10
276.516968
 20
152.809662
 30
0.0
  0
VERTEX
  5
5D
100
AcDbEntity
  8
0
370
     0
390
0
100
AcDbVertex
100
AcDb2dVertex
 10
279.280853
 20
152.809662
 30
0.0
  0
VERTEX
  5
5E
100
AcDbEntity
  8
0
370
     0
390
0
100
AcDbVertex
100
AcDb2dVertex
 10
277.207947
 20
147.809662
 30
0.0
  0
SEQEND
  5
5F
100
AcDbEntity
  8
0
370
     0
390
0
  0
POLYLINE
  5
60
100
AcDbEntity
  8
0
370
    13
390
0
 62
     7
100
AcDb2dPolyline
 66
     1
 10
0.0
 20
0.0
 30
0.0
 71
     3
  0
VERTEX
  5
61
100
AcDbEntity
  8
0
370
     0
390
0
100
AcDbVertex
100
AcDb2dVertex
 10
280.299072
 20
147.809662
 30
0.0
  0
VERTEX
  5
62
100
AcDbEntity
  8
0
370
     0
390
0
100
AcDbVertex
100
AcDb2dVertex
 10
281.853729
 20
152.809662
 30
0.0
  0
VERTEX
  5
63
100
AcDbEntity
  8
0
370
     0
390
0
100
AcDbVertex
100
AcDb2dVertex
 10
283.408417
 20
147.809662
 30
0.0
  0
SEQEND
  5
64
100
AcDbEntity
  8
0
370
     0
390
0
  0
LINE
  5
65
100
AcDbEntity
  8
0
370
    13
390
0
 62
     7
 48
0.051823
100
AcDbLine
 10
280.817291
 20
149.503204
 30
0.0
 11
282.890198
 21
149.503204
 31
0.0
210
0.0
220
0.0
230
1.0
  0
LINE
  5
66
100
AcDbEntity
  8
0
370
    13
390
0
 62
     7
 48
0.066218
100
AcDbLine
 10
284.599396
 20
149.82579
 30
0.0
 11
287.248108
 21
149.82579
 31
0.0
210
0.0
220
0.0
230
1.0
  0
POLYLINE
  5
67
100
AcDbEntity
  8
0
370
    13
390
0
 62
     7
100
AcDb2dPolyline
 66
     1
 10
0.0
 20
0.0
 30
0.0
 70
     1
 71
    16
  0
VERTEX
  5
68
100
AcDbEntity
  8
0
370
     0
390
0
100
AcDbVertex
100
AcDb2dVertex
 10
289.533081
 20
152.809662
 30
0.0
  0
VERTEX
  5
69
100
AcDbEntity
  8
0
370
     0
390
0
100
AcDbVertex
100
AcDb2dVertex
 10
288.899719
 20
152.567734
 30
0.0
  0
VERTEX
  5
6A
100
AcDbEntity
  8
0
370
     0
390
0
100
AcDbVertex
100
AcDb2dVertex
 10
288.496643
 20
151.761276
 30
0.0
  0
VERTEX
  5
6B
100
AcDbEntity
  8
0
370
     0
390
0
100
AcDbVertex
100
AcDb2dVertex
 10
288.323914
 20
150.954834
 30
0.0
  0
VERTEX
  5
6C
100
AcDbEntity
  8
0
370
     0
390
0
100
AcDbVertex
100
AcDb2dVertex
 10
288.323914
 20
149.906433
 30
0.0
  0
VERTEX
  5
6D
100
AcDbEntity
  8
0
370
     0
390
0
100
AcDbVertex
100
AcDb2dVertex
 10
288.496643
 20
148.858047
 30
0.0
  0
VERTEX
  5
6E
100
AcDbEntity
  8
0
370
     0
390
0
100
AcDbVertex
100
AcDb2dVertex
 10
288.899719
 20
148.051605
 30
0.0
  0
VERTEX
  5
6F
100
AcDbEntity
  8
0
370
     0
390
0
100
AcDbVertex
100
AcDb2dVertex
 10
289.533112
 20
147.809662
 30
0.0
  0
VERTEX
  5
70
100
AcDbEntity
  8
0
370
     0
390
0
100
AcDbVertex
100
AcDb2dVertex
 10
289.993744
 20
147.809662
 30
0.0
  0
VERTEX
  5
71
100
AcDbEntity
  8
0
370
     0
390
0
100
AcDbVertex
100
AcDb2dVertex
 10
290.627136
 20
148.051605
 30
0.0
  0
VERTEX
  5
72
100
AcDbEntity
  8
0
370
     0
390
0
100
AcDbVertex
100
AcDb2dVertex
 10
291.030182
 20
148.858047
 30
0.0
  0
VERTEX
  5
73
100
AcDbEntity
  8
0
370
     0
390
0
100
AcDbVertex
100
AcDb2dVertex
 10
291.202942
 20
149.82579
 30
0.0
  0
VERTEX
  5
74
100
AcDbEntity
  8
0
370
     0
390
0
100
AcDbVertex
100
AcDb2dVertex
 10
291.202942
 20
150.954834
 30
0.0
  0
VERTEX
  5
75
100
AcDbEntity
  8
0
370
     0
390
0
100
AcDbVertex
100
AcDb2dVertex
 10
291.030182
 20
151.761276
 30
0.0
  0
VERTEX
  5
76
100
AcDbEntity
  8
0
370
     0
390
0
100
AcDbVertex
100
AcDb2dVertex
 10
290.627136
 20
152.567734
 30
0.0
  0
VERTEX
  5
77
100
AcDbEntity
  8
0
370
     0
390
0
100
AcDbVertex
100
AcDb2dVertex
 10
289.993744
 20
152.809662
 30
0.0
  0
SEQEND
  5
78
100
AcDbEntity
  8
0
370
     0
390
0
  0
POLYLINE
  5
79
100
AcDbEntity
  8
0
370
    13
390
0
 62
     7
100
AcDb2dPolyline
 66
     1
 10
0.0
 20
0.0
 30
0.0
 71
     3
  0
VERTEX
  5
7A
100
AcDbEntity
  8
0
370
     0
390
0
100
AcDbVertex
100
AcDb2dVertex
 10
293.200043
 20
152.164505
 30
0.0
  0
VERTEX
  5
7B
100
AcDbEntity
  8
0
370
     0
390
0
100
AcDbVertex
100
AcDb2dVertex
 10
293.833405
 20
152.809662
 30
0.0
  0
VERTEX
  5
7C
100
AcDbEntity
  8
0
370
     0
390
0
100
AcDbVertex
100
AcDb2dVertex
 10
293.833405
 20
147.809662
 30
0.0
  0
SEQEND
  5
7D
100
AcDbEntity
  8
0
370
     0
390
0
  0
LINE
  5
7E
100
AcDbEntity
  8
0
370
    13
390
0
 62
     7
 48
0.010545
100
AcDbLine
 10
292.854553
 20
151.922562
 30
0.0
 11
293.200043
 21
152.164505
 31
0.0
210
0.0
220
0.0
230
1.0
  0
POLYLINE
  5
7F
100
AcDbEntity
  8
0
370
    13
390
0
 62
     7
100
AcDb2dPolyline
 66
     1
 10
0.0
 20
0.0
 30
0.0
 71
     3
  0
VERTEX
  5
80
100
AcDbEntity
  8
0
370
     0
390
0
100
AcDbVertex
100
AcDb2dVertex
 10
296.291168
 20
152.809662
 30
0.0
  0
VERTEX
  5
81
100
AcDbEntity
  8
0
370
     0
390
0
100
AcDbVertex
100
AcDb2dVertex
 10
299.055023
 20
152.809662
 30
0.0
  0
VERTEX
  5
82
100
AcDbEntity
  8
0
370
     0
390
0
100
AcDbVertex
100
AcDb2dVertex
 10
296.982117
 20
147.809662
 30
0.0
  0
SEQEND
  5
83
100
AcDbEntity
  8
0
370
     0
390
0
  0
LINE
  5
84
100
AcDbEntity
  8
0
370
    35
390
0
 62
     7
 48
0.3275
100
AcDbLine
 10
527.806946
 20
245.849991
 30
0.0
 11
527.806946
 21
258.949982
 31
0.0
210
0.0
220
0.0
230
1.0
  0
LINE
  5
85
100
AcDbEntity
  8
0
370
    35
390
0
 62
     7
 48
0.057967
100
AcDbLine
 10
527.806946
 20
258.949982
 30
0.0
 11
525.488281
 21
258.949982
 31
0.0
210
0.0
220
0.0
230
1.0
  0
ARC
  5
86
100
AcDbEntity
  8
0
370
    35
390
0
 62
     7
100
AcDbCircle
 10
518.806946
 20
263.349976
 30
0.0
 40
8.0
210
0.0
220
0.0
230
1.0
100
AcDbArc
 50
213.367013
 51
326.632979
  0
LINE
  5
87
100
AcDbEntity
  8
0
370
    35
390
0
 62
     7
100
AcDbLine
 10
512.125671
 20
258.949982
 30
0.0
 11
453.45697
 21
258.949982
 31
0.0
210
0.0
220
0.0
230
1.0
  0
LINE
  5
88
100
AcDbEntity
  8
0
370
    35
390
0
 62
     7
 48
0.0975
100
AcDbLine
 10
453.45697
 20
255.049988
 30
0.0
 11
453.45697
 21
258.949982
 31
0.0
210
0.0
220
0.0
230
1.0
  0
ARC
  5
89
100
AcDbEntity
  8
0
370
    35
390
0
 62
     7
100
AcDbCircle
 10
452.95697
 20
255.049988
 30
0.0
 40
0.5
210
0.0
220
0.0
230
1.0
100
AcDbArc
 50
180.000009
 51
360.0
  0
LINE
  5
8A
100
AcDbEntity
  8
0
370
    35
390
0
 62
     7
 48
0.0975
100
AcDbLine
 10
452.45697
 20
258.949982
 30
0.0
 11
452.45697
 21
255.049988
 31
0.0
210
0.0
220
0.0
230
1.0
  0
LINE
  5
8B
100
AcDbEntity
  8
0
370
    35
390
0
 62
     7
 48
0.0575
100
AcDbLine
 10
452.45697
 20
258.949982
 30
0.0
 11
450.156982
 21
258.949982
 31
0.0
210
0.0
220
0.0
230
1.0
  0
LINE
  5
8C
100
AcDbEntity
  8
0
370
    35
390
0
 62
     7
 48
0.0975
100
AcDbLine
 10
450.156982
 20
255.049988
 30
0.0
 11
450.156982
 21
258.949982
 31
0.0
210
0.0
220
0.0
230
1.0
  0
ARC
  5
8D
100
AcDbEntity
  8
0
370
    35
390
0
 62
     7
100
AcDbCircle
 10
449.656982
 20
255.049988
 30
0.0
 40
0.5
210
0.0
220
0.0
230
1.0
100
AcDbArc
 50
180.000009
 51
360.0
  0
LINE
  5
8E
100
AcDbEntity
  8
0
370
    35
390
0
 62
     7
 48
0.0975
100
AcDbLine
 10
449.156982
 20
258.949982
 30
0.0
 11
449.156982
 21
255.049988
 31
0.0
210
0.0
220
0.0
230
1.0
  0
LINE
  5
8F
100
AcDbEntity
  8
0
370
    35
390
0
 62
     7
100
AcDbLine
 10
449.156982
 20
258.949982
 30
0.0
 11
303.45697
 21
258.949982
 31
0.0
210
0.0
220
0.0
230
1.0
  0
LINE
  5
90
100
AcDbEntity
  8
0
370
    35
390
0
 62
     7
 48
0.0975
100
AcDbLine
 10
303.45697
 20
255.049988
 30
0.0
 11
303.45697
 21
258.949982
 31
0.0
210
0.0
220
0.0
230
1.0
  0
ARC
  5
91
100
AcDbEntity
  8
0
370
    35
390
0
 62
     7
100
AcDbCircle
 10
302.95697
 20
255.049988
 30
0.0
 40
0.5
210
0.0
220
0.0
230
1.0
100
AcDbArc
 50
180.000009
 51
360.0
  0
LINE
  5
92
100
AcDbEntity
  8
0
370
    35
390
0
 62
     7
 48
0.0975
100
AcDbLine
 10
302.45697
 20
258.949982
 30
0.0
 11
302.45697
 21
255.049988
 31
0.0
210
0.0
220
0.0
230
1.0
  0
LINE
  5
93
100
AcDbEntity
  8
0
370
    35
390
0
 62
     7
 48
0.0575
100
AcDbLine
 10
302.45697
 20
258.949982
 30
0.0
 11
300.156982
 21
258.949982
 31
0.0
210
0.0
220
0.0
230
1.0
  0
LINE
  5
94
100
AcDbEntity
  8
0
370
    35
390
0
 62
     7
 48
0.0975
100
AcDbLine
 10
300.156982
 20
255.049988
 30
0.0
 11
300.156982
 21
258.949982
 31
0.0
210
0.0
220
0.0
230
1.0
  0
ARC
  5
95
100
AcDbEntity
  8
0
370
    35
390
0
 62
     7
100
AcDbCircle
 10
299.656982
 20
255.049988
 30
0.0
 40
0.5
210
0.0
220
0.0
230
1.0
100
AcDbArc
 50
180.000009
 51
360.0
  0
LINE
  5
96
100
AcDbEntity
  8
0
370
    35
390
0
 62
     7
 48
0.0975
100
AcDbLine
 10
299.156982
 20
258.949982
 30
0.0
 11
299.156982
 21
255.049988
 31
0.0
210
0.0
220
0.0
230
1.0
  0
LINE
  5
97
100
AcDbEntity
  8
0
370
    35
390
0
 62
     7
100
AcDbLine
 10
299.156982
 20
258.949982
 30
0.0
 11
240.488281
 21
258.949982
 31
0.0
210
0.0
220
0.0
230
1.0
  0
ARC
  5
98
100
AcDbEntity
  8
0
370
    35
390
0
 62
     7
100
AcDbCircle
 10
233.806976
 20
263.349976
 30
0.0
 40
8.0
210
0.0
220
0.0
230
1.0
100
AcDbArc
 50
213.367013
 51
326.632979
  0
LINE
  5
99
100
AcDbEntity
  8
0
370
    35
390
0
 62
     7
 48
0.057967
100
AcDbLine
 10
227.125641
 20
258.949982
 30
0.0
 11
224.806976
 21
258.949982
 31
0.0
210
0.0
220
0.0
230
1.0
  0
LINE
  5
9A
100
AcDbEntity
  8
0
370
    35
390
0
 62
     7
 48
0.3275
100
AcDbLine
 10
224.806976
 20
245.849991
 30
0.0
 11
224.806976
 21
258.949982
 31
0.0
210
0.0
220
0.0
230
1.0
  0
LINE
  5
9B
100
AcDbEntity
  8
0
370
    35
390
0
 62
     7
 48
0.02
100
AcDbLine
 10
527.806946
 20
245.049988
 30
0.0
 11
527.806946
 21
245.849991
 31
0.0
210
0.0
220
0.0
230
1.0
  0
LINE
  5
9C
100
AcDbEntity
  8
0
370
    35
390
0
 62
     7
 48
0.02
100
AcDbLine
 10
224.806976
 20
245.849991
 30
0.0
 11
224.806976
 21
245.049988
 31
0.0
210
0.0
220
0.0
230
1.0
  0
LINE
  5
9D
100
AcDbEntity
  8
0
370
    35
390
0
 62
     7
100
AcDbLine
 10
224.806976
 20
245.049988
 30
0.0
 11
527.806946
 21
245.049988
 31
0.0
210
0.0
220
0.0
230
1.0
  0
LINE
  5
9E
100
AcDbEntity
  8
0
370
    35
390
0
 62
     7
 48
0.003233
100
AcDbLine
 10
527.806946
 20
259.079285
 30
0.0
 11
527.806946
 21
258.949982
 31
0.0
210
0.0
220
0.0
230
1.0
  0
LINE
  5
9F
100
AcDbEntity
  8
0
370
    35
390
0
 62
     7
 48
0.003535
100
AcDbLine
 10
527.806946
 20
259.079285
 30
0.0
 11
527.806946
 21
259.220703
 31
0.0
210
0.0
220
0.0
230
1.0
  0
LINE
  5
A0
100
AcDbEntity
  8
0
370
    35
390
0
 62
     7
 48
0.003232
100
AcDbLine
 10
527.806946
 20
259.349976
 30
0.0
 11
527.806946
 21
259.220703
 31
0.0
210
0.0
220
0.0
230
1.0
  0
LINE
  5
A1
100
AcDbEntity
  8
0
370
    35
390
0
 62
     7
 48
0.0175
100
AcDbLine
 10
527.806946
 20
259.349976
 30
0.0
 11
527.806946
 21
260.049988
 31
0.0
210
0.0
220
0.0
230
1.0
  0
LINE
  5
A2
100
AcDbEntity
  8
0
370
    35
390
0
 62
     7
 48
0.003232
100
AcDbLine
 10
527.806946
 20
260.17926
 30
0.0
 11
527.806946
 21
260.049988
 31
0.0
210
0.0
220
0.0
230
1.0
  0
LINE
  5
A3
100
AcDbEntity
  8
0
370
    35
390
0
 62
     7
 48
0.003535
100
AcDbLine
 10
527.806946
 20
260.17926
 30
0.0
 11
527.806946
 21
260.320679
 31
0.0
210
0.0
220
0.0
230
1.0
  0
LINE
  5
A4
100
AcDbEntity
  8
0
370
    35
390
0
 62
     7
 48
0.003233
100
AcDbLine
 10
527.806946
 20
260.450012
 30
0.0
 11
527.806946
 21
260.320679
 31
0.0
210
0.0
220
0.0
230
1.0
  0
LINE
  5
A5
100
AcDbEntity
  8
0
370
    35
390
0
 62
     7
 48
0.0175
100
AcDbLine
 10
527.806946
 20
260.450012
 30
0.0
 11
527.806946
 21
261.149994
 31
0.0
210
0.0
220
0.0
230
1.0
  0
LINE
  5
A6
100
AcDbEntity
  8
0
370
    35
390
0
 62
     7
 48
0.003233
100
AcDbLine
 10
527.806946
 20
261.279297
 30
0.0
 11
527.806946
 21
261.149994
 31
0.0
210
0.0
220
0.0
230
1.0
  0
LINE
  5
A7
100
AcDbEntity
  8
0
370
    35
390
0
 62
     7
 48
0.003535
100
AcDbLine
 10
527.806946
 20
261.279297
 30
0.0
 11
527.806946
 21
261.420715
 31
0.0
210
0.0
220
0.0
230
1.0
  0
LINE
  5
A8
100
AcDbEntity
  8
0
370
    35
390
0
 62
     7
 48
0.003232
100
AcDbLine
 10
527.806946
 20
261.549988
 30
0.0
 11
527.806946
 21
261.420715
 31
0.0
210
0.0
220
0.0
230
1.0
  0
LINE
  5
A9
100
AcDbEntity
  8
0
370
    35
390
0
 62
     7
 48
0.0175
100
AcDbLine
 10
527.806946
 20
261.549988
 30
0.0
 11
527.806946
 21
262.25
 31
0.0
210
0.0
220
0.0
230
1.0
  0
LINE
  5
AA
100
AcDbEntity
  8
0
370
    35
390
0
 62
     7
 48
0.003232
100
AcDbLine
 10
527.806946
 20
262.379272
 30
0.0
 11
527.806946
 21
262.25
 31
0.0
210
0.0
220
0.0
230
1.0
  0
LINE
  5
AB
100
AcDbEntity
  8
0
370
    35
390
0
 62
     7
 48
0.003535
100
AcDbLine
 10
527.806946
 20
262.379272
 30
0.0
 11
527.806946
 21
262.520691
 31
0.0
210
0.0
220
0.0
230
1.0
  0
LINE
  5
AC
100
AcDbEntity
  8
0
370
    35
390
0
 62
     7
 48
0.003233
100
AcDbLine
 10
527.806946
 20
262.649994
 30
0.0
 11
527.806946
 21
262.520691
 31
0.0
210
0.0
220
0.0
230
1.0
  0
LINE
  5
AD
100
AcDbEntity
  8
0
370
    35
390
0
 62
     7
 48
0.0175
100
AcDbLine
 10
527.806946
 20
262.649994
 30
0.0
 11
527.806946
 21
263.349976
 31
0.0
210
0.0
220
0.0
230
1.0
  0
LINE
  5
AE
100
AcDbEntity
  8
0
370
    35
390
0
 62
     7
 48
0.003233
100
AcDbLine
 10
527.806946
 20
263.479279
 30
0.0
 11
527.806946
 21
263.349976
 31
0.0
210
0.0
220
0.0
230
1.0
  0
LINE
  5
AF
100
AcDbEntity
  8
0
370
    35
390
0
 62
     7
 48
0.003535
100
AcDbLine
 10
527.806946
 20
263.479279
 30
0.0
 11
527.806946
 21
263.620697
 31
0.0
210
0.0
220
0.0
230
1.0
  0
LINE
  5
B0
100
AcDbEntity
  8
0
370
    35
390
0
 62
     7
 48
0.003233
100
AcDbLine
 10
527.806946
 20
263.75
 30
0.0
 11
527.806946
 21
263.620697
 31
0.0
210
0.0
220
0.0
230
1.0
  0
LINE
  5
B1
100
AcDbEntity
  8
0
370
    35
390
0
 62
     7
 48
0.0175
100
AcDbLine
 10
527.806946
 20
263.75
 30
0.0
 11
527.806946
 21
264.450012
 31
0.0
210
0.0
220
0.0
230
1.0
  0
LINE
  5
B2
100
AcDbEntity
  8
0
370
    35
390
0
 62
     7
 48
0.003232
100
AcDbLine
 10
527.806946
 20
264.579285
 30
0.0
 11
527.806946
 21
264.450012
 31
0.0
210
0.0
220
0.0
230
1.0
  0
LINE
  5
B3
100
AcDbEntity
  8
0
370
    35
390
0
 62
     7
 48
0.003535
100
AcDbLine
 10
527.806946
 20
264.579285
 30
0.0
 11
527.806946
 21
264.720703
 31
0.0
210
0.0
220
0.0
230
1.0
  0
LINE
  5
B4
100
AcDbEntity
  8
0
370
    35
390
0
 62
     7
 48
0.003232
100
AcDbLine
 10
527.806946
 20
264.849976
 30
0.0
 11
527.806946
 21
264.720703
 31
0.0
210
0.0
220
0.0
230
1.0
  0
LINE
  5
B5
100
AcDbEntity
  8
0
370
    35
390
0
 62
     7
 48
0.0175
100
AcDbLine
 10
527.806946
 20
264.849976
 30
0.0
 11
527.806946
 21
265.549988
 31
0.0
210
0.0
220
0.0
230
1.0
  0
LINE
  5
B6
100
AcDbEntity
  8
0
370
    35
390
0
 62
     7
 48
0.003232
100
AcDbLine
 10
527.806946
 20
265.67926
 30
0.0
 11
527.806946
 21
265.549988
 31
0.0
210
0.0
220
0.0
230
1.0
  0
LINE
  5
B7
100
AcDbEntity
  8
0
370
    35
390
0
 62
     7
 48
0.003535
100
AcDbLine
 10
527.806946
 20
265.67926
 30
0.0
 11
527.806946
 21
265.820679
 31
0.0
210
0.0
220
0.0
230
1.0
  0
LINE
  5
B8
100
AcDbEntity
  8
0
370
    35
390
0
 62
     7
 48
0.003233
100
AcDbLine
 10
527.806946
 20
265.950012
 30
0.0
 11
527.806946
 21
265.820679
 31
0.0
210
0.0
220
0.0
230
1.0
  0
LINE
  5
B9
100
AcDbEntity
  8
0
370
    35
390
0
 62
     7
 48
0.0175
100
AcDbLine
 10
527.806946
 20
265.950012
 30
0.0
 11
527.806946
 21
266.649994
 31
0.0
210
0.0
220
0.0
230
1.0
  0
LINE
  5
BA
100
AcDbEntity
  8
0
370
    35
390
0
 62
     7
 48
0.003233
100
AcDbLine
 10
527.806946
 20
266.779297
 30
0.0
 11
527.806946
 21
266.649994
 31
0.0
210
0.0
220
0.0
230
1.0
  0
LINE
  5
BB
100
AcDbEntity
  8
0
370
    35
390
0
 62
     7
 48
0.003535
100
AcDbLine
 10
527.806946
 20
266.779297
 30
0.0
 11
527.806946
 21
266.920715
 31
0.0
210
0.0
220
0.0
230
1.0
  0
LINE
  5
BC
100
AcDbEntity
  8
0
370
    35
390
0
 62
     7
 48
0.003232
100
AcDbLine
 10
527.806946
 20
267.049988
 30
0.0
 11
527.806946
 21
266.920715
 31
0.0
210
0.0
220
0.0
230
1.0
  0
LINE
  5
BD
100
AcDbEntity
  8
0
370
    35
390
0
 62
     7
 48
0.0175
100
AcDbLine
 10
527.806946
 20
267.049988
 30
0.0
 11
527.806946
 21
267.75
 31
0.0
210
0.0
220
0.0
230
1.0
  0
LINE
  5
BE
100
AcDbEntity
  8
0
370
    35
390
0
 62
     7
 48
0.003232
100
AcDbLine
 10
527.806946
 20
267.879272
 30
0.0
 11
527.806946
 21
267.75
 31
0.0
210
0.0
220
0.0
230
1.0
  0
LINE
  5
BF
100
AcDbEntity
  8
0
370
    35
390
0
 62
     7
 48
0.003535
100
AcDbLine
 10
527.806946
 20
267.879272
 30
0.0
 11
527.806946
 21
268.020691
 31
0.0
210
0.0
220
0.0
230
1.0
  0
LINE
  5
C0
100
AcDbEntity
  8
0
370
    35
390
0
 62
     7
 48
0.003233
100
AcDbLine
 10
527.806946
 20
268.149994
 30
0.0
 11
527.806946
 21
268.020691
 31
0.0
210
0.0
220
0.0
230
1.0
  0
LINE
  5
C1
100
AcDbEntity
  8
0
370
    35
390
0
 62
     7
 48
0.120606
100
AcDbLine
 10
527.806946
 20
268.149994
 30
0.0
 11
527.806946
 21
272.974243
 31
0.0
210
0.0
220
0.0
230
1.0
  0
LINE
  5
C2
100
AcDbEntity
  8
0
370
    35
390
0
 62
     7
 48
0.012197
100
AcDbLine
 10
527.806946
 20
273.462128
 30
0.0
 11
527.806946
 21
272.974243
 31
0.0
210
0.0
220
0.0
230
1.0
  0
LINE
  5
C3
100
AcDbEntity
  8
0
370
    35
390
0
 62
     7
 48
0.002197
100
AcDbLine
 10
527.806946
 20
273.462128
 30
0.0
 11
527.806946
 21
273.549988
 31
0.0
210
0.0
220
0.0
230
1.0
  0
LINE
  5
C4
100
AcDbEntity
  8
0
370
    35
390
0
 62
     7
 48
0.003846
100
AcDbLine
 10
525.488281
 20
258.949982
 30
0.0
 11
525.571655
 21
259.079285
 31
0.0
210
0.0
220
0.0
230
1.0
  0
ARC
  5
C5
100
AcDbEntity
  8
0
370
    35
390
0
 62
     7
100
AcDbCircle
 10
518.806946
 20
263.349976
 30
0.0
 40
8.0
210
0.0
220
0.0
230
1.0
100
AcDbArc
 50
354.980203
 51
360.0
  0
LINE
  5
C6
100
AcDbEntity
  8
0
370
    35
390
0
 62
     7
 48
0.003248
100
AcDbLine
 10
526.763855
 20
262.520691
 30
0.0
 11
526.776306
 21
262.649994
 31
0.0
210
0.0
220
0.0
230
1.0
  0
LINE
  5
C7
100
AcDbEntity
  8
0
370
    35
390
0
 62
     7
 48
0.003558
100
AcDbLine
 10
526.747864
 20
262.379272
 30
0.0
 11
526.763855
 21
262.520691
 31
0.0
210
0.0
220
0.0
230
1.0
  0
LINE
  5
C8
100
AcDbEntity
  8
0
370
    35
390
0
 62
     7
 48
0.003259
100
AcDbLine
 10
526.730957
 20
262.25
 30
0.0
 11
526.747864
 21
262.379272
 31
0.0
210
0.0
220
0.0
230
1.0
  0
ARC
  5
C9
100
AcDbEntity
  8
0
370
    35
390
0
 62
     7
100
AcDbCircle
 10
518.806946
 20
263.349976
 30
0.0
 40
8.0
210
0.0
220
0.0
230
1.0
100
AcDbArc
 50
346.997132
 51
352.096798
  0
LINE
  5
CA
100
AcDbEntity
  8
0
370
    35
390
0
 62
     7
 48
0.003323
100
AcDbLine
 10
526.570862
 20
261.420715
 30
0.0
 11
526.601807
 21
261.549988
 31
0.0
210
0.0
220
0.0
230
1.0
  0
LINE
  5
CB
100
AcDbEntity
  8
0
370
    35
390
0
 62
     7
 48
0.003652
100
AcDbLine
 10
526.534302
 20
261.279297
 30
0.0
 11
526.570862
 21
261.420715
 31
0.0
210
0.0
220
0.0
230
1.0
  0
LINE
  5
CC
100
AcDbEntity
  8
0
370
    35
390
0
 62
     7
 48
0.003354
100
AcDbLine
 10
526.498535
 20
261.149994
 30
0.0
 11
526.534302
 21
261.279297
 31
0.0
210
0.0
220
0.0
230
1.0
  0
ARC
  5
CD
100
AcDbEntity
  8
0
370
    35
390
0
 62
     7
100
AcDbCircle
 10
518.806946
 20
263.349976
 30
0.0
 40
8.0
210
0.0
220
0.0
230
1.0
100
AcDbArc
 50
338.746183
 51
344.037995
  0
LINE
  5
CE
100
AcDbEntity
  8
0
370
    35
390
0
 62
     7
 48
0.003481
100
AcDbLine
 10
526.211243
 20
260.320679
 30
0.0
 11
526.262817
 21
260.450012
 31
0.0
210
0.0
220
0.0
230
1.0
  0
LINE
  5
CF
100
AcDbEntity
  8
0
370
    35
390
0
 62
     7
 48
0.003835
100
AcDbLine
 10
526.151794
 20
260.17926
 30
0.0
 11
526.211243
 21
260.320679
 31
0.0
210
0.0
220
0.0
230
1.0
  0
LINE
  5
D0
100
AcDbEntity
  8
0
370
    35
390
0
 62
     7
 48
0.003534
100
AcDbLine
 10
526.094604
 20
260.049988
 30
0.0
 11
526.151794
 21
260.17926
 31
0.0
210
0.0
220
0.0
230
1.0
  0
ARC
  5
D1
100
AcDbEntity
  8
0
370
    35
390
0
 62
     7
100
AcDbCircle
 10
518.806946
 20
263.349976
 30
0.0
 40
8.0
210
0.0
220
0.0
230
1.0
100
AcDbArc
 50
329.999989
 51
335.63801
  0
LINE
  5
D2
100
AcDbEntity
  8
0
370
    35
390
0
 62
     7
 48
0.003753
100
AcDbLine
 10
525.658875
 20
259.220703
 30
0.0
 11
525.735168
 21
259.349976
 31
0.0
210
0.0
220
0.0
230
1.0
  0
LINE
  5
D3
100
AcDbEntity
  8
0
370
    35
390
0
 62
     7
 48
0.004154
100
AcDbLine
 10
525.571655
 20
259.079285
 30
0.0
 11
525.658875
 21
259.220703
 31
0.0
210
0.0
220
0.0
230
1.0
  0
LINE
  5
D4
100
AcDbEntity
  8
0
370
    35
390
0
 62
     7
 48
0.003846
100
AcDbLine
 10
512.125671
 20
258.949982
 30
0.0
 11
512.042297
 21
259.079285
 31
0.0
210
0.0
220
0.0
230
1.0
  0
LINE
  5
D5
100
AcDbEntity
  8
0
370
    35
390
0
 62
     7
 48
0.004154
100
AcDbLine
 10
512.042297
 20
259.079285
 30
0.0
 11
511.955048
 21
259.220703
 31
0.0
210
0.0
220
0.0
230
1.0
  0
LINE
  5
D6
100
AcDbEntity
  8
0
370
    35
390
0
 62
     7
 48
0.003752
100
AcDbLine
 10
511.955048
 20
259.220703
 30
0.0
 11
511.878784
 21
259.349976
 31
0.0
210
0.0
220
0.0
230
1.0
  0
ARC
  5
D7
100
AcDbEntity
  8
0
370
    35
390
0
 62
     7
100
AcDbCircle
 10
518.806946
 20
263.349976
 30
0.0
 40
8.0
210
0.0
220
0.0
230
1.0
100
AcDbArc
 50
204.361982
 51
210.000003
  0
LINE
  5
D8
100
AcDbEntity
  8
0
370
    35
390
0
 62
     7
 48
0.003534
100
AcDbLine
 10
511.519318
 20
260.049988
 30
0.0
 11
511.462128
 21
260.17926
 31
0.0
210
0.0
220
0.0
230
1.0
  0
LINE
  5
D9
100
AcDbEntity
  8
0
370
    35
390
0
 62
     7
 48
0.003835
100
AcDbLine
 10
511.462128
 20
260.17926
 30
0.0
 11
511.402679
 21
260.320679
 31
0.0
210
0.0
220
0.0
230
1.0
  0
LINE
  5
DA
100
AcDbEntity
  8
0
370
    35
390
0
 62
     7
 48
0.003481
100
AcDbLine
 10
511.402679
 20
260.320679
 30
0.0
 11
511.351105
 21
260.450012
 31
0.0
210
0.0
220
0.0
230
1.0
  0
ARC
  5
DB
100
AcDbEntity
  8
0
370
    35
390
0
 62
     7
100
AcDbCircle
 10
518.806946
 20
263.349976
 30
0.0
 40
8.0
210
0.0
220
0.0
230
1.0
100
AcDbArc
 50
195.96201
 51
201.253809
  0
LINE
  5
DC
100
AcDbEntity
  8
0
370
    35
390
0
 62
     7
 48
0.003354
100
AcDbLine
 10
511.115417
 20
261.149994
 30
0.0
 11
511.07962
 21
261.279297
 31
0.0
210
0.0
220
0.0
230
1.0
  0
LINE
  5
DD
100
AcDbEntity
  8
0
370
    35
390
0
 62
     7
 48
0.003652
100
AcDbLine
 10
511.07962
 20
261.279297
 30
0.0
 11
511.043091
 21
261.420715
 31
0.0
210
0.0
220
0.0
230
1.0
  0
LINE
  5
DE
100
AcDbEntity
  8
0
370
    35
390
0
 62
     7
 48
0.003323
100
AcDbLine
 10
511.043091
 20
261.420715
 30
0.0
 11
511.012115
 21
261.549988
 31
0.0
210
0.0
220
0.0
230
1.0
  0
ARC
  5
DF
100
AcDbEntity
  8
0
370
    35
390
0
 62
     7
100
AcDbCircle
 10
518.806946
 20
263.349976
 30
0.0
 40
8.0
210
0.0
220
0.0
230
1.0
100
AcDbArc
 50
187.903207
 51
193.002872
  0
LINE
  5
E0
100
AcDbEntity
  8
0
370
    35
390
0
 62
     7
 48
0.003259
100
AcDbLine
 10
510.882965
 20
262.25
 30
0.0
 11
510.866089
 21
262.379272
 31
0.0
210
0.0
220
0.0
230
1.0
  0
LINE
  5
E1
100
AcDbEntity
  8
0
370
    35
390
0
 62
     7
 48
0.003558
100
AcDbLine
 10
510.866089
 20
262.379272
 30
0.0
 11
510.850067
 21
262.520691
 31
0.0
210
0.0
220
0.0
230
1.0
  0
LINE
  5
E2
100
AcDbEntity
  8
0
370
    35
390
0
 62
     7
 48
0.003247
100
AcDbLine
 10
510.850067
 20
262.520691
 30
0.0
 11
510.837646
 21
262.649994
 31
0.0
210
0.0
220
0.0
230
1.0
  0
ARC
  5
E3
100
AcDbEntity
  8
0
370
    35
390
0
 62
     7
100
AcDbCircle
 10
518.806946
 20
263.349976
 30
0.0
 40
8.0
210
0.0
220
0.0
230
1.0
100
AcDbArc
 50
180.000009
 51
185.019802
  0
LINE
  5
E4
100
AcDbEntity
  8
0
370
    35
390
0
 62
     7
 48
0.003233
100
AcDbLine
 10
453.45697
 20
259.079285
 30
0.0
 11
453.45697
 21
258.949982
 31
0.0
210
0.0
220
0.0
230
1.0
  0
LINE
  5
E5
100
AcDbEntity
  8
0
370
    35
390
0
 62
     7
 48
0.003232
100
AcDbLine
 10
453.45697
 20
259.220703
 30
0.0
 11
453.45697
 21
259.349976
 31
0.0
210
0.0
220
0.0
230
1.0
  0
LINE
  5
E6
100
AcDbEntity
  8
0
370
    35
390
0
 62
     7
 48
0.003535
100
AcDbLine
 10
453.45697
 20
259.220703
 30
0.0
 11
453.45697
 21
259.079285
 31
0.0
210
0.0
220
0.0
230
1.0
  0
LINE
  5
E7
100
AcDbEntity
  8
0
370
    35
390
0
 62
     7
 48
0.009999
100
AcDbLine
 10
453.45697
 20
265.950012
 30
0.0
 11
453.45697
 21
266.349976
 31
0.0
210
0.0
220
0.0
230
1.0
  0
LINE
  5
E8
100
AcDbEntity
  8
0
370
    35
390
0
 62
     7
 48
0.003233
100
AcDbLine
 10
453.45697
 20
265.820679
 30
0.0
 11
453.45697
 21
265.950012
 31
0.0
210
0.0
220
0.0
230
1.0
  0
LINE
  5
E9
100
AcDbEntity
  8
0
370
    35
390
0
 62
     7
 48
0.003535
100
AcDbLine
 10
453.45697
 20
265.820679
 30
0.0
 11
453.45697
 21
265.67926
 31
0.0
210
0.0
220
0.0
230
1.0
  0
LINE
  5
EA
100
AcDbEntity
  8
0
370
    35
390
0
 62
     7
 48
0.003232
100
AcDbLine
 10
453.45697
 20
265.67926
 30
0.0
 11
453.45697
 21
265.549988
 31
0.0
210
0.0
220
0.0
230
1.0
  0
LINE
  5
EB
100
AcDbEntity
  8
0
370
    35
390
0
 62
     7
 48
0.0175
100
AcDbLine
 10
453.45697
 20
264.849976
 30
0.0
 11
453.45697
 21
265.549988
 31
0.0
210
0.0
220
0.0
230
1.0
  0
LINE
  5
EC
100
AcDbEntity
  8
0
370
    35
390
0
 62
     7
 48
0.003232
100
AcDbLine
 10
453.45697
 20
264.720703
 30
0.0
 11
453.45697
 21
264.849976
 31
0.0
210
0.0
220
0.0
230
1.0
  0
LINE
  5
ED
100
AcDbEntity
  8
0
370
    35
390
0
 62
     7
 48
0.003535
100
AcDbLine
 10
453.45697
 20
264.720703
 30
0.0
 11
453.45697
 21
264.579285
 31
0.0
210
0.0
220
0.0
230
1.0
  0
LINE
  5
EE
100
AcDbEntity
  8
0
370
    35
390
0
 62
     7
 48
0.003232
100
AcDbLine
 10
453.45697
 20
264.579285
 30
0.0
 11
453.45697
 21
264.450012
 31
0.0
210
0.0
220
0.0
230
1.0
  0
LINE
  5
EF
100
AcDbEntity
  8
0
370
    35
390
0
 62
     7
 48
0.0175
100
AcDbLine
 10
453.45697
 20
263.75
 30
0.0
 11
453.45697
 21
264.450012
 31
0.0
210
0.0
220
0.0
230
1.0
  0
LINE
  5
F0
100
AcDbEntity
  8
0
370
    35
390
0
 62
     7
 48
0.003233
100
AcDbLine
 10
453.45697
 20
263.620697
 30
0.0
 11
453.45697
 21
263.75
 31
0.0
210
0.0
220
0.0
230
1.0
  0
LINE
  5
F1
100
AcDbEntity
  8
0
370
    35
390
0
 62
     7
 48
0.003535
100
AcDbLine
 10
453.45697
 20
263.620697
 30
0.0
 11
453.45697
 21
263.479279
 31
0.0
210
0.0
220
0.0
230
1.0
  0
LINE
  5
F2
100
AcDbEntity
  8
0
370
    35
390
0
 62
     7
 48
0.003233
100
AcDbLine
 10
453.45697
 20
263.479279
 30
0.0
 11
453.45697
 21
263.349976
 31
0.0
210
0.0
220
0.0
230
1.0
  0
LINE
  5
F3
100
AcDbEntity
  8
0
370
    35
390
0
 62
     7
 48
0.0175
100
AcDbLine
 10
453.45697
 20
262.649994
 30
0.0
 11
453.45697
 21
263.349976
 31
0.0
210
0.0
220
0.0
230
1.0
  0
LINE
  5
F4
100
AcDbEntity
  8
0
370
    35
390
0
 62
     7
 48
0.003233
100
AcDbLine
 10
453.45697
 20
262.520691
 30
0.0
 11
453.45697
 21
262.649994
 31
0.0
210
0.0
220
0.0
230
1.0
  0
LINE
  5
F5
100
AcDbEntity
  8
0
370
    35
390
0
 62
     7
 48
0.003535
100
AcDbLine
 10
453.45697
 20
262.520691
 30
0.0
 11
453.45697
 21
262.379272
 31
0.0
210
0.0
220
0.0
230
1.0
  0
LINE
  5
F6
100
AcDbEntity
  8
0
370
    35
390
0
 62
     7
 48
0.003232
100
AcDbLine
 10
453.45697
 20
262.379272
 30
0.0
 11
453.45697
 21
262.25
 31
0.0
210
0.0
220
0.0
230
1.0
  0
LINE
  5
F7
100
AcDbEntity
  8
0
370
    35
390
0
 62
     7
 48
0.0175
100
AcDbLine
 10
453.45697
 20
261.549988
 30
0.0
 11
453.45697
 21
262.25
 31
0.0
210
0.0
220
0.0
230
1.0
  0
LINE
  5
F8
100
AcDbEntity
  8
0
370
    35
390
0
 62
     7
 48
0.003232
100
AcDbLine
 10
453.45697
 20
261.420715
 30
0.0
 11
453.45697
 21
261.549988
 31
0.0
210
0.0
220
0.0
230
1.0
  0
LINE
  5
F9
100
AcDbEntity
  8
0
370
    35
390
0
 62
     7
 48
0.003535
100
AcDbLine
 10
453.45697
 20
261.420715
 30
0.0
 11
453.45697
 21
261.279297
 31
0.0
210
0.0
220
0.0
230
1.0
  0
LINE
  5
FA
100
AcDbEntity
  8
0
370
    35
390
0
 62
     7
 48
0.003233
100
AcDbLine
 10
453.45697
 20
261.279297
 30
0.0
 11
453.45697
 21
261.149994
 31
0.0
210
0.0
220
0.0
230
1.0
  0
LINE
  5
FB
100
AcDbEntity
  8
0
370
    35
390
0
 62
     7
 48
0.0175
100
AcDbLine
 10
453.45697
 20
260.450012
 30
0.0
 11
453.45697
 21
261.149994
 31
0.0
210
0.0
220
0.0
230
1.0
  0
LINE
  5
FC
100
AcDbEntity
  8
0
370
    35
390
0
 62
     7
 48
0.003233
100
AcDbLine
 10
453.45697
 20
260.320679
 30
0.0
 11
453.45697
 21
260.450012
 31
0.0
210
0.0
220
0.0
230
1.0
  0
LINE
  5
FD
100
AcDbEntity
  8
0
370
    35
390
0
 62
     7
 48
0.003535
100
AcDbLine
 10
453.45697
 20
260.320679
 30
0.0
 11
453.45697
 21
260.17926
 31
0.0
210
0.0
220
0.0
230
1.0
  0
LINE
  5
FE
100
AcDbEntity
  8
0
370
    35
390
0
 62
     7
 48
0.003232
100
AcDbLine
 10
453.45697
 20
260.17926
 30
0.0
 11
453.45697
 21
260.049988
 31
0.0
210
0.0
220
0.0
230
1.0
  0
LINE
  5
FF
100
AcDbEntity
  8
0
370
    35
390
0
 62
     7
 48
0.0175
100
AcDbLine
 10
453.45697
 20
259.349976
 30
0.0
 11
453.45697
 21
260.049988
 31
0.0
210
0.0
220
0.0
230
1.0
  0
LINE
  5
100
100
AcDbEntity
  8
0
370
    35
390
0
 62
     7
 48
0.0175
100
AcDbLine
 10
452.45697
 20
266.649994
 30
0.0
 11
452.45697
 21
265.950012
 31
0.0
210
0.0
220
0.0
230
1.0
  0
LINE
  5
101
100
AcDbEntity
  8
0
370
    35
390
0
 62
     7
 48
0.003233
100
AcDbLine
 10
452.45697
 20
266.779297
 30
0.0
 11
452.45697
 21
266.649994
 31
0.0
210
0.0
220
0.0
230
1.0
  0
LINE
  5
102
100
AcDbEntity
  8
0
370
    35
390
0
 62
     7
 48
0.001767
100
AcDbLine
 10
452.45697
 20
266.779297
 30
0.0
 11
452.45697
 21
266.849976
 31
0.0
210
0.0
220
0.0
230
1.0
  0
LINE
  5
103
100
AcDbEntity
  8
0
370
    35
390
0
 62
     7
 48
0.003233
100
AcDbLine
 10
452.45697
 20
259.079285
 30
0.0
 11
452.45697
 21
258.949982
 31
0.0
210
0.0
220
0.0
230
1.0
  0
LINE
  5
104
100
AcDbEntity
  8
0
370
    35
390
0
 62
     7
 48
0.003535
100
AcDbLine
 10
452.45697
 20
259.079285
 30
0.0
 11
452.45697
 21
259.220703
 31
0.0
210
0.0
220
0.0
230
1.0
  0
LINE
  5
105
100
AcDbEntity
  8
0
370
    35
390
0
 62
     7
 48
0.003232
100
AcDbLine
 10
452.45697
 20
259.220703
 30
0.0
 11
452.45697
 21
259.349976
 31
0.0
210
0.0
220
0.0
230
1.0
  0
LINE
  5
106
100
AcDbEntity
  8
0
370
    35
390
0
 62
     7
 48
0.0175
100
AcDbLine
 10
452.45697
 20
260.049988
 30
0.0
 11
452.45697
 21
259.349976
 31
0.0
210
0.0
220
0.0
230
1.0
  0
LINE
  5
107
100
AcDbEntity
  8
0
370
    35
390
0
 62
     7
 48
0.003232
100
AcDbLine
 10
452.45697
 20
260.17926
 30
0.0
 11
452.45697
 21
260.049988
 31
0.0
210
0.0
220
0.0
230
1.0
  0
LINE
  5
108
100
AcDbEntity
  8
0
370
    35
390
0
 62
     7
 48
0.003535
100
AcDbLine
 10
452.45697
 20
260.17926
 30
0.0
 11
452.45697
 21
260.320679
 31
0.0
210
0.0
220
0.0
230
1.0
  0
LINE
  5
109
100
AcDbEntity
  8
0
370
    35
390
0
 62
     7
 48
0.003233
100
AcDbLine
 10
452.45697
 20
260.320679
 30
0.0
 11
452.45697
 21
260.450012
 31
0.0
210
0.0
220
0.0
230
1.0
  0
LINE
  5
10A
100
AcDbEntity
  8
0
370
    35
390
0
 62
     7
 48
0.0175
100
AcDbLine
 10
452.45697
 20
261.149994
 30
0.0
 11
452.45697
 21
260.450012
 31
0.0
210
0.0
220
0.0
230
1.0
  0
LINE
  5
10B
100
AcDbEntity
  8
0
370
    35
390
0
 62
     7
 48
0.003233
100
AcDbLine
 10
452.45697
 20
261.279297
 30
0.0
 11
452.45697
 21
261.149994
 31
0.0
210
0.0
220
0.0
230
1.0
  0
LINE
  5
10C
100
AcDbEntity
  8
0
370
    35
390
0
 62
     7
 48
0.003535
100
AcDbLine
 10
452.45697
 20
261.279297
 30
0.0
 11
452.45697
 21
261.420715
 31
0.0
210
0.0
220
0.0
230
1.0
  0
LINE
  5
10D
100
AcDbEntity
  8
0
370
    35
390
0
 62
     7
 48
0.003232
100
AcDbLine
 10
452.45697
 20
261.420715
 30
0.0
 11
452.45697
 21
261.549988
 31
0.0
210
0.0
220
0.0
230
1.0
  0
LINE
  5
10E
100
AcDbEntity
  8
0
370
    35
390
0
 62
     7
 48
0.0175
100
AcDbLine
 10
452.45697
 20
262.25
 30
0.0
 11
452.45697
 21
261.549988
 31
0.0
210
0.0
220
0.0
230
1.0
  0
LINE
  5
10F
100
AcDbEntity
  8
0
370
    35
390
0
 62
     7
 48
0.003232
100
AcDbLine
 10
452.45697
 20
262.379272
 30
0.0
 11
452.45697
 21
262.25
 31
0.0
210
0.0
220
0.0
230
1.0
  0
LINE
  5
110
100
AcDbEntity
  8
0
370
    35
390
0
 62
     7
 48
0.003535
100
AcDbLine
 10
452.45697
 20
262.379272
 30
0.0
 11
452.45697
 21
262.520691
 31
0.0
210
0.0
220
0.0
230
1.0
  0
LINE
  5
111
100
AcDbEntity
  8
0
370
    35
390
0
 62
     7
 48
0.003233
100
AcDbLine
 10
452.45697
 20
262.520691
 30
0.0
 11
452.45697
 21
262.649994
 31
0.0
210
0.0
220
0.0
230
1.0
  0
LINE
  5
112
100
AcDbEntity
  8
0
370
    35
390
0
 62
     7
 48
0.0175
100
AcDbLine
 10
452.45697
 20
263.349976
 30
0.0
 11
452.45697
 21
262.649994
 31
0.0
210
0.0
220
0.0
230
1.0
  0
LINE
  5
113
100
AcDbEntity
  8
0
370
    35
390
0
 62
     7
 48
0.003233
100
AcDbLine
 10
452.45697
 20
263.479279
 30
0.0
 11
452.45697
 21
263.349976
 31
0.0
210
0.0
220
0.0
230
1.0
  0
LINE
  5
114
100
AcDbEntity
  8
0
370
    35
390
0
 62
     7
 48
0.003535
100
AcDbLine
 10
452.45697
 20
263.479279
 30
0.0
 11
452.45697
 21
263.620697
 31
0.0
210
0.0
220
0.0
230
1.0
  0
LINE
  5
115
100
AcDbEntity
  8
0
370
    35
390
0
 62
     7
 48
0.003233
100
AcDbLine
 10
452.45697
 20
263.620697
 30
0.0
 11
452.45697
 21
263.75
 31
0.0
210
0.0
220
0.0
230
1.0
  0
LINE
  5
116
100
AcDbEntity
  8
0
370
    35
390
0
 62
     7
 48
0.0175
100
AcDbLine
 10
452.45697
 20
264.450012
 30
0.0
 11
452.45697
 21
263.75
 31
0.0
210
0.0
220
0.0
230
1.0
  0
LINE
  5
117
100
AcDbEntity
  8
0
370
    35
390
0
 62
     7
 48
0.003232
100
AcDbLine
 10
452.45697
 20
264.579285
 30
0.0
 11
452.45697
 21
264.450012
 31
0.0
210
0.0
220
0.0
230
1.0
  0
LINE
  5
118
100
AcDbEntity
  8
0
370
    35
390
0
 62
     7
 48
0.003535
100
AcDbLine
 10
452.45697
 20
264.579285
 30
0.0
 11
452.45697
 21
264.720703
 31
0.0
210
0.0
220
0.0
230
1.0
  0
LINE
  5
119
100
AcDbEntity
  8
0
370
    35
390
0
 62
     7
 48
0.003232
100
AcDbLine
 10
452.45697
 20
264.720703
 30
0.0
 11
452.45697
 21
264.849976
 31
0.0
210
0.0
220
0.0
230
1.0
  0
LINE
  5
11A
100
AcDbEntity
  8
0
370
    35
390
0
 62
     7
 48
0.0175
100
AcDbLine
 10
452.45697
 20
265.549988
 30
0.0
 11
452.45697
 21
264.849976
 31
0.0
210
0.0
220
0.0
230
1.0
  0
LINE
  5
11B
100
AcDbEntity
  8
0
370
    35
390
0
 62
     7
 48
0.003232
100
AcDbLine
 10
452.45697
 20
265.67926
 30
0.0
 11
452.45697
 21
265.549988
 31
0.0
210
0.0
220
0.0
230
1.0
  0
LINE
  5
11C
100
AcDbEntity
  8
0
370
    35
390
0
 62
     7
 48
0.003535
100
AcDbLine
 10
452.45697
 20
265.67926
 30
0.0
 11
452.45697
 21
265.820679
 31
0.0
210
0.0
220
0.0
230
1.0
  0
LINE
  5
11D
100
AcDbEntity
  8
0
370
    35
390
0
 62
     7
 48
0.003233
100
AcDbLine
 10
452.45697
 20
265.820679
 30
0.0
 11
452.45697
 21
265.950012
 31
0.0
210
0.0
220
0.0
230
1.0
  0
LINE
  5
11E
100
AcDbEntity
  8
0
370
    35
390
0
 62
     7
 48
0.003233
100
AcDbLine
 10
450.156982
 20
259.079285
 30
0.0
 11
450.156982
 21
258.949982
 31
0.0
210
0.0
220
0.0
230
1.0
  0
LINE
  5
11F
100
AcDbEntity
  8
0
370
    35
390
0
 62
     7
 48
0.003232
100
AcDbLine
 10
450.156982
 20
259.220703
 30
0.0
 11
450.156982
 21
259.349976
 31
0.0
210
0.0
220
0.0
230
1.0
  0
LINE
  5
120
100
AcDbEntity
  8
0
370
    35
390
0
 62
     7
 48
0.003535
100
AcDbLine
 10
450.156982
 20
259.220703
 30
0.0
 11
450.156982
 21
259.079285
 31
0.0
210
0.0
220
0.0
230
1.0
  0
LINE
  5
121
100
AcDbEntity
  8
0
370
    35
390
0
 62
     7
 48
0.001767
100
AcDbLine
 10
450.156982
 20
266.849976
 30
0.0
 11
450.156982
 21
266.779297
 31
0.0
210
0.0
220
0.0
230
1.0
  0
LINE
  5
122
100
AcDbEntity
  8
0
370
    35
390
0
 62
     7
 48
0.003233
100
AcDbLine
 10
450.156982
 20
266.779297
 30
0.0
 11
450.156982
 21
266.649994
 31
0.0
210
0.0
220
0.0
230
1.0
  0
LINE
  5
123
100
AcDbEntity
  8
0
370
    35
390
0
 62
     7
 48
0.0175
100
AcDbLine
 10
450.156982
 20
265.950012
 30
0.0
 11
450.156982
 21
266.649994
 31
0.0
210
0.0
220
0.0
230
1.0
  0
LINE
  5
124
100
AcDbEntity
  8
0
370
    35
390
0
 62
     7
 48
0.003233
100
AcDbLine
 10
450.156982
 20
265.820679
 30
0.0
 11
450.156982
 21
265.950012
 31
0.0
210
0.0
220
0.0
230
1.0
  0
LINE
  5
125
100
AcDbEntity
  8
0
370
    35
390
0
 62
     7
 48
0.003535
100
AcDbLine
 10
450.156982
 20
265.820679
 30
0.0
 11
450.156982
 21
265.67926
 31
0.0
210
0.0
220
0.0
230
1.0
  0
LINE
  5
126
100
AcDbEntity
  8
0
370
    35
390
0
 62
     7
 48
0.003232
100
AcDbLine
 10
450.156982
 20
265.67926
 30
0.0
 11
450.156982
 21
265.549988
 31
0.0
210
0.0
220
0.0
230
1.0
  0
LINE
  5
127
100
AcDbEntity
  8
0
370
    35
390
0
 62
     7
 48
0.0175
100
AcDbLine
 10
450.156982
 20
264.849976
 30
0.0
 11
450.156982
 21
265.549988
 31
0.0
210
0.0
220
0.0
230
1.0
  0
LINE
  5
128
100
AcDbEntity
  8
0
370
    35
390
0
 62
     7
 48
0.003232
100
AcDbLine
 10
450.156982
 20
264.720703
 30
0.0
 11
450.156982
 21
264.849976
 31
0.0
210
0.0
220
0.0
230
1.0
  0
LINE
  5
129
100
AcDbEntity
  8
0
370
    35
390
0
 62
     7
 48
0.003535
100
AcDbLine
 10
450.156982
 20
264.720703
 30
0.0
 11
450.156982
 21
264.579285
 31
0.0
210
0.0
220
0.0
230
1.0
  0
LINE
  5
12A
100
AcDbEntity
  8
0
370
    35
390
0
 62
     7
 48
0.003232
100
AcDbLine
 10
450.156982
 20
264.579285
 30
0.0
 11
450.156982
 21
264.450012
 31
0.0
210
0.0
220
0.0
230
1.0
  0
LINE
  5
12B
100
AcDbEntity
  8
0
370
    35
390
0
 62
     7
 48
0.0175
100
AcDbLine
 10
450.156982
 20
263.75
 30
0.0
 11
450.156982
 21
264.450012
 31
0.0
210
0.0
220
0.0
230
1.0
  0
LINE
  5
12C
100
AcDbEntity
  8
0
370
    35
390
0
 62
     7
 48
0.003233
100
AcDbLine
 10
450.156982
 20
263.620697
 30
0.0
 11
450.156982
 21
263.75
 31
0.0
210
0.0
220
0.0
230
1.0
  0
LINE
  5
12D
100
AcDbEntity
  8
0
370
    35
390
0
 62
     7
 48
0.003535
100
AcDbLine
 10
450.156982
 20
263.620697
 30
0.0
 11
450.156982
 21
263.479279
 31
0.0
210
0.0
220
0.0
230
1.0
  0
LINE
  5
12E
100
AcDbEntity
  8
0
370
    35
390
0
 62
     7
 48
0.003233
100
AcDbLine
 10
450.156982
 20
263.479279
 30
0.0
 11
450.156982
 21
263.349976
 31
0.0
210
0.0
220
0.0
230
1.0
  0
LINE
  5
12F
100
AcDbEntity
  8
0
370
    35
390
0
 62
     7
 48
0.0175
100
AcDbLine
 10
450.156982
 20
262.649994
 30
0.0
 11
450.156982
 21
263.349976
 31
0.0
210
0.0
220
0.0
230
1.0
  0
LINE
  5
130
100
AcDbEntity
  8
0
370
    35
390
0
 62
     7
 48
0.003233
100
AcDbLine
 10
450.156982
 20
262.520691
 30
0.0
 11
450.156982
 21
262.649994
 31
0.0
210
0.0
220
0.0
230
1.0
  0
LINE
  5
131
100
AcDbEntity
  8
0
370
    35
390
0
 62
     7
 48
0.003535
100
AcDbLine
 10
450.156982
 20
262.520691
 30
0.0
 11
450.156982
 21
262.379272
 31
0.0
210
0.0
220
0.0
230
1.0
  0
LINE
  5
132
100
AcDbEntity
  8
0
370
    35
390
0
 62
     7
 48
0.003232
100
AcDbLine
 10
450.156982
 20
262.379272
 30
0.0
 11
450.156982
 21
262.25
 31
0.0
210
0.0
220
0.0
230
1.0
  0
LINE
  5
133
100
AcDbEntity
  8
0
370
    35
390
0
 62
     7
 48
0.0175
100
AcDbLine
 10
450.156982
 20
261.549988
 30
0.0
 11
450.156982
 21
262.25
 31
0.0
210
0.0
220
0.0
230
1.0
  0
LINE
  5
134
100
AcDbEntity
  8
0
370
    35
390
0
 62
     7
 48
0.003232
100
AcDbLine
 10
450.156982
 20
261.420715
 30
0.0
 11
450.156982
 21
261.549988
 31
0.0
210
0.0
220
0.0
230
1.0
  0
LINE
  5
135
100
AcDbEntity
  8
0
370
    35
390
0
 62
     7
 48
0.003535
100
AcDbLine
 10
450.156982
 20
261.420715
 30
0.0
 11
450.156982
 21
261.279297
 31
0.0
210
0.0
220
0.0
230
1.0
  0
LINE
  5
136
100
AcDbEntity
  8
0
370
    35
390
0
 62
     7
 48
0.003233
100
AcDbLine
 10
450.156982
 20
261.279297
 30
0.0
 11
450.156982
 21
261.149994
 31
0.0
210
0.0
220
0.0
230
1.0
  0
LINE
  5
137
100
AcDbEntity
  8
0
370
    35
390
0
 62
     7
 48
0.0175
100
AcDbLine
 10
450.156982
 20
260.450012
 30
0.0
 11
450.156982
 21
261.149994
 31
0.0
210
0.0
220
0.0
230
1.0
  0
LINE
  5
138
100
AcDbEntity
  8
0
370
    35
390
0
 62
     7
 48
0.003233
100
AcDbLine
 10
450.156982
 20
260.320679
 30
0.0
 11
450.156982
 21
260.450012
 31
0.0
210
0.0
220
0.0
230
1.0
  0
LINE
  5
139
100
AcDbEntity
  8
0
370
    35
390
0
 62
     7
 48
0.003535
100
AcDbLine
 10
450.156982
 20
260.320679
 30
0.0
 11
450.156982
 21
260.17926
 31
0.0
210
0.0
220
0.0
230
1.0
  0
LINE
  5
13A
100
AcDbEntity
  8
0
370
    35
390
0
 62
     7
 48
0.003232
100
AcDbLine
 10
450.156982
 20
260.17926
 30
0.0
 11
450.156982
 21
260.049988
 31
0.0
210
0.0
220
0.0
230
1.0
  0
LINE
  5
13B
100
AcDbEntity
  8
0
370
    35
390
0
 62
     7
 48
0.0175
100
AcDbLine
 10
450.156982
 20
259.349976
 30
0.0
 11
450.156982
 21
260.049988
 31
0.0
210
0.0
220
0.0
230
1.0
  0
LINE
  5
13C
100
AcDbEntity
  8
0
370
    35
390
0
 62
     7
 48
0.003232
100
AcDbLine
 10
449.156982
 20
265.67926
 30
0.0
 11
449.156982
 21
265.549988
 31
0.0
210
0.0
220
0.0
230
1.0
  0
LINE
  5
13D
100
AcDbEntity
  8
0
370
    35
390
0
 62
     7
 48
0.003535
100
AcDbLine
 10
449.156982
 20
265.67926
 30
0.0
 11
449.156982
 21
265.820679
 31
0.0
210
0.0
220
0.0
230
1.0
  0
LINE
  5
13E
100
AcDbEntity
  8
0
370
    35
390
0
 62
     7
 48
0.003233
100
AcDbLine
 10
449.156982
 20
265.820679
 30
0.0
 11
449.156982
 21
265.950012
 31
0.0
210
0.0
220
0.0
230
1.0
  0
LINE
  5
13F
100
AcDbEntity
  8
0
370
    35
390
0
 62
     7
 48
0.009999
100
AcDbLine
 10
449.156982
 20
266.349976
 30
0.0
 11
449.156982
 21
265.950012
 31
0.0
210
0.0
220
0.0
230
1.0
  0
LINE
  5
140
100
AcDbEntity
  8
0
370
    35
390
0
 62
     7
 48
0.003233
100
AcDbLine
 10
449.156982
 20
259.079285
 30
0.0
 11
449.156982
 21
258.949982
 31
0.0
210
0.0
220
0.0
230
1.0
  0
LINE
  5
141
100
AcDbEntity
  8
0
370
    35
390
0
 62
     7
 48
0.003535
100
AcDbLine
 10
449.156982
 20
259.079285
 30
0.0
 11
449.156982
 21
259.220703
 31
0.0
210
0.0
220
0.0
230
1.0
  0
LINE
  5
142
100
AcDbEntity
  8
0
370
    35
390
0
 62
     7
 48
0.003232
100
AcDbLine
 10
449.156982
 20
259.220703
 30
0.0
 11
449.156982
 21
259.349976
 31
0.0
210
0.0
220
0.0
230
1.0
  0
LINE
  5
143
100
AcDbEntity
  8
0
370
    35
390
0
 62
     7
 48
0.0175
100
AcDbLine
 10
449.156982
 20
260.049988
 30
0.0
 11
449.156982
 21
259.349976
 31
0.0
210
0.0
220
0.0
230
1.0
  0
LINE
  5
144
100
AcDbEntity
  8
0
370
    35
390
0
 62
     7
 48
0.003232
100
AcDbLine
 10
449.156982
 20
260.17926
 30
0.0
 11
449.156982
 21
260.049988
 31
0.0
210
0.0
220
0.0
230
1.0
  0
LINE
  5
145
100
AcDbEntity
  8
0
370
    35
390
0
 62
     7
 48
0.003535
100
AcDbLine
 10
449.156982
 20
260.17926
 30
0.0
 11
449.156982
 21
260.320679
 31
0.0
210
0.0
220
0.0
230
1.0
  0
LINE
  5
146
100
AcDbEntity
  8
0
370
    35
390
0
 62
     7
 48
0.003233
100
AcDbLine
 10
449.156982
 20
260.320679
 30
0.0
 11
449.156982
 21
260.450012
 31
0.0
210
0.0
220
0.0
230
1.0
  0
LINE
  5
147
100
AcDbEntity
  8
0
370
    35
390
0
 62
     7
 48
0.0175
100
AcDbLine
 10
449.156982
 20
261.149994
 30
0.0
 11
449.156982
 21
260.450012
 31
0.0
210
0.0
220
0.0
230
1.0
  0
LINE
  5
148
100
AcDbEntity
  8
0
370
    35
390
0
 62
     7
 48
0.003233
100
AcDbLine
 10
449.156982
 20
261.279297
 30
0.0
 11
449.156982
 21
261.149994
 31
0.0
210
0.0
220
0.0
230
1.0
  0
LINE
  5
149
100
AcDbEntity
  8
0
370
    35
390
0
 62
     7
 48
0.003535
100
AcDbLine
 10
449.156982
 20
261.279297
 30
0.0
 11
449.156982
 21
261.420715
 31
0.0
210
0.0
220
0.0
230
1.0
  0
LINE
  5
14A
100
AcDbEntity
  8
0
370
    35
390
0
 62
     7
 48
0.003232
100
AcDbLine
 10
449.156982
 20
261.420715
 30
0.0
 11
449.156982
 21
261.549988
 31
0.0
210
0.0
220
0.0
230
1.0
  0
LINE
  5
14B
100
AcDbEntity
  8
0
370
    35
390
0
 62
     7
 48
0.0175
100
AcDbLine
 10
449.156982
 20
262.25
 30
0.0
 11
449.156982
 21
261.549988
 31
0.0
210
0.0
220
0.0
230
1.0
  0
LINE
  5
14C
100
AcDbEntity
  8
0
370
    35
390
0
 62
     7
 48
0.003232
100
AcDbLine
 10
449.156982
 20
262.379272
 30
0.0
 11
449.156982
 21
262.25
 31
0.0
210
0.0
220
0.0
230
1.0
  0
LINE
  5
14D
100
AcDbEntity
  8
0
370
    35
390
0
 62
     7
 48
0.003535
100
AcDbLine
 10
449.156982
 20
262.379272
 30
0.0
 11
449.156982
 21
262.520691
 31
0.0
210
0.0
220
0.0
230
1.0
  0
LINE
  5
14E
100
AcDbEntity
  8
0
370
    35
390
0
 62
     7
 48
0.003233
100
AcDbLine
 10
449.156982
 20
262.520691
 30
0.0
 11
449.156982
 21
262.649994
 31
0.0
210
0.0
220
0.0
230
1.0
  0
LINE
  5
14F
100
AcDbEntity
  8
0
370
    35
390
0
 62
     7
 48
0.0175
100
AcDbLine
 10
449.156982
 20
263.349976
 30
0.0
 11
449.156982
 21
262.649994
 31
0.0
210
0.0
220
0.0
230
1.0
  0
LINE
  5
150
100
AcDbEntity
  8
0
370
    35
390
0
 62
     7
 48
0.003233
100
AcDbLine
 10
449.156982
 20
263.479279
 30
0.0
 11
449.156982
 21
263.349976
 31
0.0
210
0.0
220
0.0
230
1.0
  0
LINE
  5
151
100
AcDbEntity
  8
0
370
    35
390
0
 62
     7
 48
0.003535
100
AcDbLine
 10
449.156982
 20
263.479279
 30
0.0
 11
449.156982
 21
263.620697
 31
0.0
210
0.0
220
0.0
230
1.0
  0
LINE
  5
152
100
AcDbEntity
  8
0
370
    35
390
0
 62
     7
 48
0.003233
100
AcDbLine
 10
449.156982
 20
263.620697
 30
0.0
 11
449.156982
 21
263.75
 31
0.0
210
0.0
220
0.0
230
1.0
  0
LINE
  5
153
100
AcDbEntity
  8
0
370
    35
390
0
 62
     7
 48
0.0175
100
AcDbLine
 10
449.156982
 20
264.450012
 30
0.0
 11
449.156982
 21
263.75
 31
0.0
210
0.0
220
0.0
230
1.0
  0
LINE
  5
154
100
AcDbEntity
  8
0
370
    35
390
0
 62
     7
 48
0.003232
100
AcDbLine
 10
449.156982
 20
264.579285
 30
0.0
 11
449.156982
 21
264.450012
 31
0.0
210
0.0
220
0.0
230
1.0
  0
LINE
  5
155
100
AcDbEntity
  8
0
370
    35
390
0
 62
     7
 48
0.003535
100
AcDbLine
 10
449.156982
 20
264.579285
 30
0.0
 11
449.156982
 21
264.720703
 31
0.0
210
0.0
220
0.0
230
1.0
  0
LINE
  5
156
100
AcDbEntity
  8
0
370
    35
390
0
 62
     7
 48
0.003232
100
AcDbLine
 10
449.156982
 20
264.720703
 30
0.0
 11
449.156982
 21
264.849976
 31
0.0
210
0.0
220
0.0
230
1.0
  0
LINE
  5
157
100
AcDbEntity
  8
0
370
    35
390
0
 62
     7
 48
0.0175
100
AcDbLine
 10
449.156982
 20
265.549988
 30
0.0
 11
449.156982
 21
264.849976
 31
0.0
210
0.0
220
0.0
230
1.0
  0
LINE
  5
158
100
AcDbEntity
  8
0
370
    35
390
0
 62
     7
 48
0.003233
100
AcDbLine
 10
303.45697
 20
259.079285
 30
0.0
 11
303.45697
 21
258.949982
 31
0.0
210
0.0
220
0.0
230
1.0
  0
LINE
  5
159
100
AcDbEntity
  8
0
370
    35
390
0
 62
     7
 48
0.003232
100
AcDbLine
 10
303.45697
 20
259.220703
 30
0.0
 11
303.45697
 21
259.349976
 31
0.0
210
0.0
220
0.0
230
1.0
  0
LINE
  5
15A
100
AcDbEntity
  8
0
370
    35
390
0
 62
     7
 48
0.003535
100
AcDbLine
 10
303.45697
 20
259.220703
 30
0.0
 11
303.45697
 21
259.079285
 31
0.0
210
0.0
220
0.0
230
1.0
  0
LINE
  5
15B
100
AcDbEntity
  8
0
370
    35
390
0
 62
     7
 48
0.009999
100
AcDbLine
 10
303.45697
 20
265.950012
 30
0.0
 11
303.45697
 21
266.349976
 31
0.0
210
0.0
220
0.0
230
1.0
  0
LINE
  5
15C
100
AcDbEntity
  8
0
370
    35
390
0
 62
     7
 48
0.003233
100
AcDbLine
 10
303.45697
 20
265.820679
 30
0.0
 11
303.45697
 21
265.950012
 31
0.0
210
0.0
220
0.0
230
1.0
  0
LINE
  5
15D
100
AcDbEntity
  8
0
370
    35
390
0
 62
     7
 48
0.003535
100
AcDbLine
 10
303.45697
 20
265.820679
 30
0.0
 11
303.45697
 21
265.67926
 31
0.0
210
0.0
220
0.0
230
1.0
  0
LINE
  5
15E
100
AcDbEntity
  8
0
370
    35
390
0
 62
     7
 48
0.003232
100
AcDbLine
 10
303.45697
 20
265.67926
 30
0.0
 11
303.45697
 21
265.549988
 31
0.0
210
0.0
220
0.0
230
1.0
  0
LINE
  5
15F
100
AcDbEntity
  8
0
370
    35
390
0
 62
     7
 48
0.0175
100
AcDbLine
 10
303.45697
 20
264.849976
 30
0.0
 11
303.45697
 21
265.549988
 31
0.0
210
0.0
220
0.0
230
1.0
  0
LINE
  5
160
100
AcDbEntity
  8
0
370
    35
390
0
 62
     7
 48
0.003232
100
AcDbLine
 10
303.45697
 20
264.720703
 30
0.0
 11
303.45697
 21
264.849976
 31
0.0
210
0.0
220
0.0
230
1.0
  0
LINE
  5
161
100
AcDbEntity
  8
0
370
    35
390
0
 62
     7
 48
0.003535
100
AcDbLine
 10
303.45697
 20
264.720703
 30
0.0
 11
303.45697
 21
264.579285
 31
0.0
210
0.0
220
0.0
230
1.0
  0
LINE
  5
162
100
AcDbEntity
  8
0
370
    35
390
0
 62
     7
 48
0.003232
100
AcDbLine
 10
303.45697
 20
264.579285
 30
0.0
 11
303.45697
 21
264.450012
 31
0.0
210
0.0
220
0.0
230
1.0
  0
LINE
  5
163
100
AcDbEntity
  8
0
370
    35
390
0
 62
     7
 48
0.0175
100
AcDbLine
 10
303.45697
 20
263.75
 30
0.0
 11
303.45697
 21
264.450012
 31
0.0
210
0.0
220
0.0
230
1.0
  0
LINE
  5
164
100
AcDbEntity
  8
0
370
    35
390
0
 62
     7
 48
0.003233
100
AcDbLine
 10
303.45697
 20
263.620697
 30
0.0
 11
303.45697
 21
263.75
 31
0.0
210
0.0
220
0.0
230
1.0
  0
LINE
  5
165
100
AcDbEntity
  8
0
370
    35
390
0
 62
     7
 48
0.003535
100
AcDbLine
 10
303.45697
 20
263.620697
 30
0.0
 11
303.45697
 21
263.479279
 31
0.0
210
0.0
220
0.0
230
1.0
  0
LINE
  5
166
100
AcDbEntity
  8
0
370
    35
390
0
 62
     7
 48
0.003233
100
AcDbLine
 10
303.45697
 20
263.479279
 30
0.0
 11
303.45697
 21
263.349976
 31
0.0
210
0.0
220
0.0
230
1.0
  0
LINE
  5
167
100
AcDbEntity
  8
0
370
    35
390
0
 62
     7
 48
0.0175
100
AcDbLine
 10
303.45697
 20
262.649994
 30
0.0
 11
303.45697
 21
263.349976
 31
0.0
210
0.0
220
0.0
230
1.0
  0
LINE
  5
168
100
AcDbEntity
  8
0
370
    35
390
0
 62
     7
 48
0.003233
100
AcDbLine
 10
303.45697
 20
262.520691
 30
0.0
 11
303.45697
 21
262.649994
 31
0.0
210
0.0
220
0.0
230
1.0
  0
LINE
  5
169
100
AcDbEntity
  8
0
370
    35
390
0
 62
     7
 48
0.003535
100
AcDbLine
 10
303.45697
 20
262.520691
 30
0.0
 11
303.45697
 21
262.379272
 31
0.0
210
0.0
220
0.0
230
1.0
  0
LINE
  5
16A
100
AcDbEntity
  8
0
370
    35
390
0
 62
     7
 48
0.003232
100
AcDbLine
 10
303.45697
 20
262.379272
 30
0.0
 11
303.45697
 21
262.25
 31
0.0
210
0.0
220
0.0
230
1.0
  0
LINE
  5
16B
100
AcDbEntity
  8
0
370
    35
390
0
 62
     7
 48
0.0175
100
AcDbLine
 10
303.45697
 20
261.549988
 30
0.0
 11
303.45697
 21
262.25
 31
0.0
210
0.0
220
0.0
230
1.0
  0
LINE
  5
16C
100
AcDbEntity
  8
0
370
    35
390
0
 62
     7
 48
0.003232
100
AcDbLine
 10
303.45697
 20
261.420715
 30
0.0
 11
303.45697
 21
261.549988
 31
0.0
210
0.0
220
0.0
230
1.0
  0
LINE
  5
16D
100
AcDbEntity
  8
0
370
    35
390
0
 62
     7
 48
0.003535
100
AcDbLine
 10
303.45697
 20
261.420715
 30
0.0
 11
303.45697
 21
261.279297
 31
0.0
210
0.0
220
0.0
230
1.0
  0
LINE
  5
16E
100
AcDbEntity
  8
0
370
    35
390
0
 62
     7
 48
0.003233
100
AcDbLine
 10
303.45697
 20
261.279297
 30
0.0
 11
303.45697
 21
261.149994
 31
0.0
210
0.0
220
0.0
230
1.0
  0
LINE
  5
16F
100
AcDbEntity
  8
0
370
    35
390
0
 62
     7
 48
0.0175
100
AcDbLine
 10
303.45697
 20
260.450012
 30
0.0
 11
303.45697
 21
261.149994
 31
0.0
210
0.0
220
0.0
230
1.0
  0
LINE
  5
170
100
AcDbEntity
  8
0
370
    35
390
0
 62
     7
 48
0.003233
100
AcDbLine
 10
303.45697
 20
260.320679
 30
0.0
 11
303.45697
 21
260.450012
 31
0.0
210
0.0
220
0.0
230
1.0
  0
LINE
  5
171
100
AcDbEntity
  8
0
370
    35
390
0
 62
     7
 48
0.003535
100
AcDbLine
 10
303.45697
 20
260.320679
 30
0.0
 11
303.45697
 21
260.17926
 31
0.0
210
0.0
220
0.0
230
1.0
  0
LINE
  5
172
100
AcDbEntity
  8
0
370
    35
390
0
 62
     7
 48
0.003232
100
AcDbLine
 10
303.45697
 20
260.17926
 30
0.0
 11
303.45697
 21
260.049988
 31
0.0
210
0.0
220
0.0
230
1.0
  0
LINE
  5
173
100
AcDbEntity
  8
0
370
    35
390
0
 62
     7
 48
0.0175
100
AcDbLine
 10
303.45697
 20
259.349976
 30
0.0
 11
303.45697
 21
260.049988
 31
0.0
210
0.0
220
0.0
230
1.0
  0
LINE
  5
174
100
AcDbEntity
  8
0
370
    35
390
0
 62
     7
 48
0.0175
100
AcDbLine
 10
302.45697
 20
266.649994
 30
0.0
 11
302.45697
 21
265.950012
 31
0.0
210
0.0
220
0.0
230
1.0
  0
LINE
  5
175
100
AcDbEntity
  8
0
370
    35
390
0
 62
     7
 48
0.003233
100
AcDbLine
 10
302.45697
 20
266.779297
 30
0.0
 11
302.45697
 21
266.649994
 31
0.0
210
0.0
220
0.0
230
1.0
  0
LINE
  5
176
100
AcDbEntity
  8
0
370
    35
390
0
 62
     7
 48
0.001767
100
AcDbLine
 10
302.45697
 20
266.779297
 30
0.0
 11
302.45697
 21
266.849976
 31
0.0
210
0.0
220
0.0
230
1.0
  0
LINE
  5
177
100
AcDbEntity
  8
0
370
    35
390
0
 62
     7
 48
0.003233
100
AcDbLine
 10
302.45697
 20
259.079285
 30
0.0
 11
302.45697
 21
258.949982
 31
0.0
210
0.0
220
0.0
230
1.0
  0
LINE
  5
178
100
AcDbEntity
  8
0
370
    35
390
0
 62
     7
 48
0.003535
100
AcDbLine
 10
302.45697
 20
259.079285
 30
0.0
 11
302.45697
 21
259.220703
 31
0.0
210
0.0
220
0.0
230
1.0
  0
LINE
  5
179
100
AcDbEntity
  8
0
370
    35
390
0
 62
     7
 48
0.003232
100
AcDbLine
 10
302.45697
 20
259.220703
 30
0.0
 11
302.45697
 21
259.349976
 31
0.0
210
0.0
220
0.0
230
1.0
  0
LINE
  5
17A
100
AcDbEntity
  8
0
370
    35
390
0
 62
     7
 48
0.0175
100
AcDbLine
 10
302.45697
 20
260.049988
 30
0.0
 11
302.45697
 21
259.349976
 31
0.0
210
0.0
220
0.0
230
1.0
  0
LINE
  5
17B
100
AcDbEntity
  8
0
370
    35
390
0
 62
     7
 48
0.003232
100
AcDbLine
 10
302.45697
 20
260.17926
 30
0.0
 11
302.45697
 21
260.049988
 31
0.0
210
0.0
220
0.0
230
1.0
  0
LINE
  5
17C
100
AcDbEntity
  8
0
370
    35
390
0
 62
     7
 48
0.003535
100
AcDbLine
 10
302.45697
 20
260.17926
 30
0.0
 11
302.45697
 21
260.320679
 31
0.0
210
0.0
220
0.0
230
1.0
  0
LINE
  5
17D
100
AcDbEntity
  8
0
370
    35
390
0
 62
     7
 48
0.003233
100
AcDbLine
 10
302.45697
 20
260.320679
 30
0.0
 11
302.45697
 21
260.450012
 31
0.0
210
0.0
220
0.0
230
1.0
  0
LINE
  5
17E
100
AcDbEntity
  8
0
370
    35
390
0
 62
     7
 48
0.0175
100
AcDbLine
 10
302.45697
 20
261.149994
 30
0.0
 11
302.45697
 21
260.450012
 31
0.0
210
0.0
220
0.0
230
1.0
  0
LINE
  5
17F
100
AcDbEntity
  8
0
370
    35
390
0
 62
     7
 48
0.003233
100
AcDbLine
 10
302.45697
 20
261.279297
 30
0.0
 11
302.45697
 21
261.149994
 31
0.0
210
0.0
220
0.0
230
1.0
  0
LINE
  5
180
100
AcDbEntity
  8
0
370
    35
390
0
 62
     7
 48
0.003535
100
AcDbLine
 10
302.45697
 20
261.279297
 30
0.0
 11
302.45697
 21
261.420715
 31
0.0
210
0.0
220
0.0
230
1.0
  0
LINE
  5
181
100
AcDbEntity
  8
0
370
    35
390
0
 62
     7
 48
0.003232
100
AcDbLine
 10
302.45697
 20
261.420715
 30
0.0
 11
302.45697
 21
261.549988
 31
0.0
210
0.0
220
0.0
230
1.0
  0
LINE
  5
182
100
AcDbEntity
  8
0
370
    35
390
0
 62
     7
 48
0.0175
100
AcDbLine
 10
302.45697
 20
262.25
 30
0.0
 11
302.45697
 21
261.549988
 31
0.0
210
0.0
220
0.0
230
1.0
  0
LINE
  5
183
100
AcDbEntity
  8
0
370
    35
390
0
 62
     7
 48
0.003232
100
AcDbLine
 10
302.45697
 20
262.379272
 30
0.0
 11
302.45697
 21
262.25
 31
0.0
210
0.0
220
0.0
230
1.0
  0
LINE
  5
184
100
AcDbEntity
  8
0
370
    35
390
0
 62
     7
 48
0.003535
100
AcDbLine
 10
302.45697
 20
262.379272
 30
0.0
 11
302.45697
 21
262.520691
 31
0.0
210
0.0
220
0.0
230
1.0
  0
LINE
  5
185
100
AcDbEntity
  8
0
370
    35
390
0
 62
     7
 48
0.003233
100
AcDbLine
 10
302.45697
 20
262.520691
 30
0.0
 11
302.45697
 21
262.649994
 31
0.0
210
0.0
220
0.0
230
1.0
  0
LINE
  5
186
100
AcDbEntity
  8
0
370
    35
390
0
 62
     7
 48
0.0175
100
AcDbLine
 10
302.45697
 20
263.349976
 30
0.0
 11
302.45697
 21
262.649994
 31
0.0
210
0.0
220
0.0
230
1.0
  0
LINE
  5
187
100
AcDbEntity
  8
0
370
    35
390
0
 62
     7
 48
0.003233
100
AcDbLine
 10
302.45697
 20
263.479279
 30
0.0
 11
302.45697
 21
263.349976
 31
0.0
210
0.0
220
0.0
230
1.0
  0
LINE
  5
188
100
AcDbEntity
  8
0
370
    35
390
0
 62
     7
 48
0.003535
100
AcDbLine
 10
302.45697
 20
263.479279
 30
0.0
 11
302.45697
 21
263.620697
 31
0.0
210
0.0
220
0.0
230
1.0
  0
LINE
  5
189
100
AcDbEntity
  8
0
370
    35
390
0
 62
     7
 48
0.003233
100
AcDbLine
 10
302.45697
 20
263.620697
 30
0.0
 11
302.45697
 21
263.75
 31
0.0
210
0.0
220
0.0
230
1.0
  0
LINE
  5
18A
100
AcDbEntity
  8
0
370
    35
390
0
 62
     7
 48
0.0175
100
AcDbLine
 10
302.45697
 20
264.450012
 30
0.0
 11
302.45697
 21
263.75
 31
0.0
210
0.0
220
0.0
230
1.0
  0
LINE
  5
18B
100
AcDbEntity
  8
0
370
    35
390
0
 62
     7
 48
0.003232
100
AcDbLine
 10
302.45697
 20
264.579285
 30
0.0
 11
302.45697
 21
264.450012
 31
0.0
210
0.0
220
0.0
230
1.0
  0
LINE
  5
18C
100
AcDbEntity
  8
0
370
    35
390
0
 62
     7
 48
0.003535
100
AcDbLine
 10
302.45697
 20
264.579285
 30
0.0
 11
302.45697
 21
264.720703
 31
0.0
210
0.0
220
0.0
230
1.0
  0
LINE
  5
18D
100
AcDbEntity
  8
0
370
    35
390
0
 62
     7
 48
0.003232
100
AcDbLine
 10
302.45697
 20
264.720703
 30
0.0
 11
302.45697
 21
264.849976
 31
0.0
210
0.0
220
0.0
230
1.0
  0
LINE
  5
18E
100
AcDbEntity
  8
0
370
    35
390
0
 62
     7
 48
0.0175
100
AcDbLine
 10
302.45697
 20
265.549988
 30
0.0
 11
302.45697
 21
264.849976
 31
0.0
210
0.0
220
0.0
230
1.0
  0
LINE
  5
18F
100
AcDbEntity
  8
0
370
    35
390
0
 62
     7
 48
0.003232
100
AcDbLine
 10
302.45697
 20
265.67926
 30
0.0
 11
302.45697
 21
265.549988
 31
0.0
210
0.0
220
0.0
230
1.0
  0
LINE
  5
190
100
AcDbEntity
  8
0
370
    35
390
0
 62
     7
 48
0.003535
100
AcDbLine
 10
302.45697
 20
265.67926
 30
0.0
 11
302.45697
 21
265.820679
 31
0.0
210
0.0
220
0.0
230
1.0
  0
LINE
  5
191
100
AcDbEntity
  8
0
370
    35
390
0
 62
     7
 48
0.003233
100
AcDbLine
 10
302.45697
 20
265.820679
 30
0.0
 11
302.45697
 21
265.950012
 31
0.0
210
0.0
220
0.0
230
1.0
  0
LINE
  5
192
100
AcDbEntity
  8
0
370
    35
390
0
 62
     7
 48
0.003233
100
AcDbLine
 10
300.156982
 20
259.079285
 30
0.0
 11
300.156982
 21
258.949982
 31
0.0
210
0.0
220
0.0
230
1.0
  0
LINE
  5
193
100
AcDbEntity
  8
0
370
    35
390
0
 62
     7
 48
0.003232
100
AcDbLine
 10
300.156982
 20
259.220703
 30
0.0
 11
300.156982
 21
259.349976
 31
0.0
210
0.0
220
0.0
230
1.0
  0
LINE
  5
194
100
AcDbEntity
  8
0
370
    35
390
0
 62
     7
 48
0.003535
100
AcDbLine
 10
300.156982
 20
259.220703
 30
0.0
 11
300.156982
 21
259.079285
 31
0.0
210
0.0
220
0.0
230
1.0
  0
LINE
  5
195
100
AcDbEntity
  8
0
370
    35
390
0
 62
     7
 48
0.001767
100
AcDbLine
 10
300.156982
 20
266.849976
 30
0.0
 11
300.156982
 21
266.779297
 31
0.0
210
0.0
220
0.0
230
1.0
  0
LINE
  5
196
100
AcDbEntity
  8
0
370
    35
390
0
 62
     7
 48
0.003233
100
AcDbLine
 10
300.156982
 20
266.779297
 30
0.0
 11
300.156982
 21
266.649994
 31
0.0
210
0.0
220
0.0
230
1.0
  0
LINE
  5
197
100
AcDbEntity
  8
0
370
    35
390
0
 62
     7
 48
0.0175
100
AcDbLine
 10
300.156982
 20
265.950012
 30
0.0
 11
300.156982
 21
266.649994
 31
0.0
210
0.0
220
0.0
230
1.0
  0
LINE
  5
198
100
AcDbEntity
  8
0
370
    35
390
0
 62
     7
 48
0.003233
100
AcDbLine
 10
300.156982
 20
265.820679
 30
0.0
 11
300.156982
 21
265.950012
 31
0.0
210
0.0
220
0.0
230
1.0
  0
LINE
  5
199
100
AcDbEntity
  8
0
370
    35
390
0
 62
     7
 48
0.003535
100
AcDbLine
 10
300.156982
 20
265.820679
 30
0.0
 11
300.156982
 21
265.67926
 31
0.0
210
0.0
220
0.0
230
1.0
  0
LINE
  5
19A
100
AcDbEntity
  8
0
370
    35
390
0
 62
     7
 48
0.003232
100
AcDbLine
 10
300.156982
 20
265.67926
 30
0.0
 11
300.156982
 21
265.549988
 31
0.0
210
0.0
220
0.0
230
1.0
  0
LINE
  5
19B
100
AcDbEntity
  8
0
370
    35
390
0
 62
     7
 48
0.0175
100
AcDbLine
 10
300.156982
 20
264.849976
 30
0.0
 11
300.156982
 21
265.549988
 31
0.0
210
0.0
220
0.0
230
1.0
  0
LINE
  5
19C
100
AcDbEntity
  8
0
370
    35
390
0
 62
     7
 48
0.003232
100
AcDbLine
 10
300.156982
 20
264.720703
 30
0.0
 11
300.156982
 21
264.849976
 31
0.0
210
0.0
220
0.0
230
1.0
  0
LINE
  5
19D
100
AcDbEntity
  8
0
370
    35
390
0
 62
     7
 48
0.003535
100
AcDbLine
 10
300.156982
 20
264.720703
 30
0.0
 11
300.156982
 21
264.579285
 31
0.0
210
0.0
220
0.0
230
1.0
  0
LINE
  5
19E
100
AcDbEntity
  8
0
370
    35
390
0
 62
     7
 48
0.003232
100
AcDbLine
 10
300.156982
 20
264.579285
 30
0.0
 11
300.156982
 21
264.450012
 31
0.0
210
0.0
220
0.0
230
1.0
  0
LINE
  5
19F
100
AcDbEntity
  8
0
370
    35
390
0
 62
     7
 48
0.0175
100
AcDbLine
 10
300.156982
 20
263.75
 30
0.0
 11
300.156982
 21
264.450012
 31
0.0
210
0.0
220
0.0
230
1.0
  0
LINE
  5
1A0
100
AcDbEntity
  8
0
370
    35
390
0
 62
     7
 48
0.003233
100
AcDbLine
 10
300.156982
 20
263.620697
 30
0.0
 11
300.156982
 21
263.75
 31
0.0
210
0.0
220
0.0
230
1.0
  0
LINE
  5
1A1
100
AcDbEntity
  8
0
370
    35
390
0
 62
     7
 48
0.003535
100
AcDbLine
 10
300.156982
 20
263.620697
 30
0.0
 11
300.156982
 21
263.479279
 31
0.0
210
0.0
220
0.0
230
1.0
  0
LINE
  5
1A2
100
AcDbEntity
  8
0
370
    35
390
0
 62
     7
 48
0.003233
100
AcDbLine
 10
300.156982
 20
263.479279
 30
0.0
 11
300.156982
 21
263.349976
 31
0.0
210
0.0
220
0.0
230
1.0
  0
LINE
  5
1A3
100
AcDbEntity
  8
0
370
    35
390
0
 62
     7
 48
0.0175
100
AcDbLine
 10
300.156982
 20
262.649994
 30
0.0
 11
300.156982
 21
263.349976
 31
0.0
210
0.0
220
0.0
230
1.0
  0
LINE
  5
1A4
100
AcDbEntity
  8
0
370
    35
390
0
 62
     7
 48
0.003233
100
AcDbLine
 10
300.156982
 20
262.520691
 30
0.0
 11
300.156982
 21
262.649994
 31
0.0
210
0.0
220
0.0
230
1.0
  0
LINE
  5
1A5
100
AcDbEntity
  8
0
370
    35
390
0
 62
     7
 48
0.003535
100
AcDbLine
 10
300.156982
 20
262.520691
 30
0.0
 11
300.156982
 21
262.379272
 31
0.0
210
0.0
220
0.0
230
1.0
  0
LINE
  5
1A6
100
AcDbEntity
  8
0
370
    35
390
0
 62
     7
 48
0.003232
100
AcDbLine
 10
300.156982
 20
262.379272
 30
0.0
 11
300.156982
 21
262.25
 31
0.0
210
0.0
220
0.0
230
1.0
  0
LINE
  5
1A7
100
AcDbEntity
  8
0
370
    35
390
0
 62
     7
 48
0.0175
100
AcDbLine
 10
300.156982
 20
261.549988
 30
0.0
 11
300.156982
 21
262.25
 31
0.0
210
0.0
220
0.0
230
1.0
  0
LINE
  5
1A8
100
AcDbEntity
  8
0
370
    35
390
0
 62
     7
 48
0.003232
100
AcDbLine
 10
300.156982
 20
261.420715
 30
0.0
 11
300.156982
 21
261.549988
 31
0.0
210
0.0
220
0.0
230
1.0
  0
LINE
  5
1A9
100
AcDbEntity
  8
0
370
    35
390
0
 62
     7
 48
0.003535
100
AcDbLine
 10
300.156982
 20
261.420715
 30
0.0
 11
300.156982
 21
261.279297
 31
0.0
210
0.0
220
0.0
230
1.0
  0
LINE
  5
1AA
100
AcDbEntity
  8
0
370
    35
390
0
 62
     7
 48
0.003233
100
AcDbLine
 10
300.156982
 20
261.279297
 30
0.0
 11
300.156982
 21
261.149994
 31
0.0
210
0.0
220
0.0
230
1.0
  0
LINE
  5
1AB
100
AcDbEntity
  8
0
370
    35
390
0
 62
     7
 48
0.0175
100
AcDbLine
 10
300.156982
 20
260.450012
 30
0.0
 11
300.156982
 21
261.149994
 31
0.0
210
0.0
220
0.0
230
1.0
  0
LINE
  5
1AC
100
AcDbEntity
  8
0
370
    35
390
0
 62
     7
 48
0.003233
100
AcDbLine
 10
300.156982
 20
260.320679
 30
0.0
 11
300.156982
 21
260.450012
 31
0.0
210
0.0
220
0.0
230
1.0
  0
LINE
  5
1AD
100
AcDbEntity
  8
0
370
    35
390
0
 62
     7
 48
0.003535
100
AcDbLine
 10
300.156982
 20
260.320679
 30
0.0
 11
300.156982
 21
260.17926
 31
0.0
210
0.0
220
0.0
230
1.0
  0
LINE
  5
1AE
100
AcDbEntity
  8
0
370
    35
390
0
 62
     7
 48
0.003232
100
AcDbLine
 10
300.156982
 20
260.17926
 30
0.0
 11
300.156982
 21
260.049988
 31
0.0
210
0.0
220
0.0
230
1.0
  0
LINE
  5
1AF
100
AcDbEntity
  8
0
370
    35
390
0
 62
     7
 48
0.0175
100
AcDbLine
 10
300.156982
 20
259.349976
 30
0.0
 11
300.156982
 21
260.049988
 31
0.0
210
0.0
220
0.0
230
1.0
  0
LINE
  5
1B0
100
AcDbEntity
  8
0
370
    35
390
0
 62
     7
 48
0.003232
100
AcDbLine
 10
299.156982
 20
265.67926
 30
0.0
 11
299.156982
 21
265.549988
 31
0.0
210
0.0
220
0.0
230
1.0
  0
LINE
  5
1B1
100
AcDbEntity
  8
0
370
    35
390
0
 62
     7
 48
0.003535
100
AcDbLine
 10
299.156982
 20
265.67926
 30
0.0
 11
299.156982
 21
265.820679
 31
0.0
210
0.0
220
0.0
230
1.0
  0
LINE
  5
1B2
100
AcDbEntity
  8
0
370
    35
390
0
 62
     7
 48
0.003233
100
AcDbLine
 10
299.156982
 20
265.820679
 30
0.0
 11
299.156982
 21
265.950012
 31
0.0
210
0.0
220
0.0
230
1.0
  0
LINE
  5
1B3
100
AcDbEntity
  8
0
370
    35
390
0
 62
     7
 48
0.009999
100
AcDbLine
 10
299.156982
 20
266.349976
 30
0.0
 11
299.156982
 21
265.950012
 31
0.0
210
0.0
220
0.0
230
1.0
  0
LINE
  5
1B4
100
AcDbEntity
  8
0
370
    35
390
0
 62
     7
 48
0.003233
100
AcDbLine
 10
299.156982
 20
259.079285
 30
0.0
 11
299.156982
 21
258.949982
 31
0.0
210
0.0
220
0.0
230
1.0
  0
LINE
  5
1B5
100
AcDbEntity
  8
0
370
    35
390
0
 62
     7
 48
0.003535
100
AcDbLine
 10
299.156982
 20
259.079285
 30
0.0
 11
299.156982
 21
259.220703
 31
0.0
210
0.0
220
0.0
230
1.0
  0
LINE
  5
1B6
100
AcDbEntity
  8
0
370
    35
390
0
 62
     7
 48
0.003232
100
AcDbLine
 10
299.156982
 20
259.220703
 30
0.0
 11
299.156982
 21
259.349976
 31
0.0
210
0.0
220
0.0
230
1.0
  0
LINE
  5
1B7
100
AcDbEntity
  8
0
370
    35
390
0
 62
     7
 48
0.0175
100
AcDbLine
 10
299.156982
 20
260.049988
 30
0.0
 11
299.156982
 21
259.349976
 31
0.0
210
0.0
220
0.0
230
1.0
  0
LINE
  5
1B8
100
AcDbEntity
  8
0
370
    35
390
0
 62
     7
 48
0.003232
100
AcDbLine
 10
299.156982
 20
260.17926
 30
0.0
 11
299.156982
 21
260.049988
 31
0.0
210
0.0
220
0.0
230
1.0
  0
LINE
  5
1B9
100
AcDbEntity
  8
0
370
    35
390
0
 62
     7
 48
0.003535
100
AcDbLine
 10
299.156982
 20
260.17926
 30
0.0
 11
299.156982
 21
260.320679
 31
0.0
210
0.0
220
0.0
230
1.0
  0
LINE
  5
1BA
100
AcDbEntity
  8
0
370
    35
390
0
 62
     7
 48
0.003233
100
AcDbLine
 10
299.156982
 20
260.320679
 30
0.0
 11
299.156982
 21
260.450012
 31
0.0
210
0.0
220
0.0
230
1.0
  0
LINE
  5
1BB
100
AcDbEntity
  8
0
370
    35
390
0
 62
     7
 48
0.0175
100
AcDbLine
 10
299.156982
 20
261.149994
 30
0.0
 11
299.156982
 21
260.450012
 31
0.0
210
0.0
220
0.0
230
1.0
  0
LINE
  5
1BC
100
AcDbEntity
  8
0
370
    35
390
0
 62
     7
 48
0.003233
100
AcDbLine
 10
299.156982
 20
261.279297
 30
0.0
 11
299.156982
 21
261.149994
 31
0.0
210
0.0
220
0.0
230
1.0
  0
LINE
  5
1BD
100
AcDbEntity
  8
0
370
    35
390
0
 62
     7
 48
0.003535
100
AcDbLine
 10
299.156982
 20
261.279297
 30
0.0
 11
299.156982
 21
261.420715
 31
0.0
210
0.0
220
0.0
230
1.0
  0
LINE
  5
1BE
100
AcDbEntity
  8
0
370
    35
390
0
 62
     7
 48
0.003232
100
AcDbLine
 10
299.156982
 20
261.420715
 30
0.0
 11
299.156982
 21
261.549988
 31
0.0
210
0.0
220
0.0
230
1.0
  0
LINE
  5
1BF
100
AcDbEntity
  8
0
370
    35
390
0
 62
     7
 48
0.0175
100
AcDbLine
 10
299.156982
 20
262.25
 30
0.0
 11
299.156982
 21
261.549988
 31
0.0
210
0.0
220
0.0
230
1.0
  0
LINE
  5
1C0
100
AcDbEntity
  8
0
370
    35
390
0
 62
     7
 48
0.003232
100
AcDbLine
 10
299.156982
 20
262.379272
 30
0.0
 11
299.156982
 21
262.25
 31
0.0
210
0.0
220
0.0
230
1.0
  0
LINE
  5
1C1
100
AcDbEntity
  8
0
370
    35
390
0
 62
     7
 48
0.003535
100
AcDbLine
 10
299.156982
 20
262.379272
 30
0.0
 11
299.156982
 21
262.520691
 31
0.0
210
0.0
220
0.0
230
1.0
  0
LINE
  5
1C2
100
AcDbEntity
  8
0
370
    35
390
0
 62
     7
 48
0.003233
100
AcDbLine
 10
299.156982
 20
262.520691
 30
0.0
 11
299.156982
 21
262.649994
 31
0.0
210
0.0
220
0.0
230
1.0
  0
LINE
  5
1C3
100
AcDbEntity
  8
0
370
    35
390
0
 62
     7
 48
0.0175
100
AcDbLine
 10
299.156982
 20
263.349976
 30
0.0
 11
299.156982
 21
262.649994
 31
0.0
210
0.0
220
0.0
230
1.0
  0
LINE
  5
1C4
100
AcDbEntity
  8
0
370
    35
390
0
 62
     7
 48
0.003233
100
AcDbLine
 10
299.156982
 20
263.479279
 30
0.0
 11
299.156982
 21
263.349976
 31
0.0
210
0.0
220
0.0
230
1.0
  0
LINE
  5
1C5
100
AcDbEntity
  8
0
370
    35
390
0
 62
     7
 48
0.003535
100
AcDbLine
 10
299.156982
 20
263.479279
 30
0.0
 11
299.156982
 21
263.620697
 31
0.0
210
0.0
220
0.0
230
1.0
  0
LINE
  5
1C6
100
AcDbEntity
  8
0
370
    35
390
0
 62
     7
 48
0.003233
100
AcDbLine
 10
299.156982
 20
263.620697
 30
0.0
 11
299.156982
 21
263.75
 31
0.0
210
0.0
220
0.0
230
1.0
  0
LINE
  5
1C7
100
AcDbEntity
  8
0
370
    35
390
0
 62
     7
 48
0.0175
100
AcDbLine
 10
299.156982
 20
264.450012
 30
0.0
 11
299.156982
 21
263.75
 31
0.0
210
0.0
220
0.0
230
1.0
  0
LINE
  5
1C8
100
AcDbEntity
  8
0
370
    35
390
0
 62
     7
 48
0.003232
100
AcDbLine
 10
299.156982
 20
264.579285
 30
0.0
 11
299.156982
 21
264.450012
 31
0.0
210
0.0
220
0.0
230
1.0
  0
LINE
  5
1C9
100
AcDbEntity
  8
0
370
    35
390
0
 62
     7
 48
0.003535
100
AcDbLine
 10
299.156982
 20
264.579285
 30
0.0
 11
299.156982
 21
264.720703
 31
0.0
210
0.0
220
0.0
230
1.0
  0
LINE
  5
1CA
100
AcDbEntity
  8
0
370
    35
390
0
 62
     7
 48
0.003232
100
AcDbLine
 10
299.156982
 20
264.720703
 30
0.0
 11
299.156982
 21
264.849976
 31
0.0
210
0.0
220
0.0
230
1.0
  0
LINE
  5
1CB
100
AcDbEntity
  8
0
370
    35
390
0
 62
     7
 48
0.0175
100
AcDbLine
 10
299.156982
 20
265.549988
 30
0.0
 11
299.156982
 21
264.849976
 31
0.0
210
0.0
220
0.0
230
1.0
  0
LINE
  5
1CC
100
AcDbEntity
  8
0
370
    35
390
0
 62
     7
 48
0.003846
100
AcDbLine
 10
240.488281
 20
258.949982
 30
0.0
 11
240.571655
 21
259.079285
 31
0.0
210
0.0
220
0.0
230
1.0
  0
ARC
  5
1CD
100
AcDbEntity
  8
0
370
    35
390
0
 62
     7
100
AcDbCircle
 10
233.806976
 20
263.349976
 30
0.0
 40
8.0
210
0.0
220
0.0
230
1.0
100
AcDbArc
 50
354.980203
 51
360.0
  0
LINE
  5
1CE
100
AcDbEntity
  8
0
370
    35
390
0
 62
     7
 48
0.003247
100
AcDbLine
 10
241.763855
 20
262.520691
 30
0.0
 11
241.776276
 21
262.649994
 31
0.0
210
0.0
220
0.0
230
1.0
  0
LINE
  5
1CF
100
AcDbEntity
  8
0
370
    35
390
0
 62
     7
 48
0.003558
100
AcDbLine
 10
241.747864
 20
262.379272
 30
0.0
 11
241.763855
 21
262.520691
 31
0.0
210
0.0
220
0.0
230
1.0
  0
LINE
  5
1D0
100
AcDbEntity
  8
0
370
    35
390
0
 62
     7
 48
0.003259
100
AcDbLine
 10
241.730988
 20
262.25
 30
0.0
 11
241.747864
 21
262.379272
 31
0.0
210
0.0
220
0.0
230
1.0
  0
ARC
  5
1D1
100
AcDbEntity
  8
0
370
    35
390
0
 62
     7
100
AcDbCircle
 10
233.806976
 20
263.349976
 30
0.0
 40
8.0
210
0.0
220
0.0
230
1.0
100
AcDbArc
 50
346.997132
 51
352.096798
  0
LINE
  5
1D2
100
AcDbEntity
  8
0
370
    35
390
0
 62
     7
 48
0.003323
100
AcDbLine
 10
241.570862
 20
261.420715
 30
0.0
 11
241.601837
 21
261.549988
 31
0.0
210
0.0
220
0.0
230
1.0
  0
LINE
  5
1D3
100
AcDbEntity
  8
0
370
    35
390
0
 62
     7
 48
0.003652
100
AcDbLine
 10
241.534332
 20
261.279297
 30
0.0
 11
241.570862
 21
261.420715
 31
0.0
210
0.0
220
0.0
230
1.0
  0
LINE
  5
1D4
100
AcDbEntity
  8
0
370
    35
390
0
 62
     7
 48
0.003354
100
AcDbLine
 10
241.498535
 20
261.149994
 30
0.0
 11
241.534332
 21
261.279297
 31
0.0
210
0.0
220
0.0
230
1.0
  0
ARC
  5
1D5
100
AcDbEntity
  8
0
370
    35
390
0
 62
     7
100
AcDbCircle
 10
233.806976
 20
263.349976
 30
0.0
 40
8.0
210
0.0
220
0.0
230
1.0
100
AcDbArc
 50
338.746183
 51
344.037995
  0
LINE
  5
1D6
100
AcDbEntity
  8
0
370
    35
390
0
 62
     7
 48
0.003481
100
AcDbLine
 10
241.211243
 20
260.320679
 30
0.0
 11
241.262848
 21
260.450012
 31
0.0
210
0.0
220
0.0
230
1.0
  0
LINE
  5
1D7
100
AcDbEntity
  8
0
370
    35
390
0
 62
     7
 48
0.003835
100
AcDbLine
 10
241.151794
 20
260.17926
 30
0.0
 11
241.211243
 21
260.320679
 31
0.0
210
0.0
220
0.0
230
1.0
  0
LINE
  5
1D8
100
AcDbEntity
  8
0
370
    35
390
0
 62
     7
 48
0.003534
100
AcDbLine
 10
241.094635
 20
260.049988
 30
0.0
 11
241.151794
 21
260.17926
 31
0.0
210
0.0
220
0.0
230
1.0
  0
ARC
  5
1D9
100
AcDbEntity
  8
0
370
    35
390
0
 62
     7
100
AcDbCircle
 10
233.806976
 20
263.349976
 30
0.0
 40
8.0
210
0.0
220
0.0
230
1.0
100
AcDbArc
 50
329.999989
 51
335.63801
  0
LINE
  5
1DA
100
AcDbEntity
  8
0
370
    35
390
0
 62
     7
 48
0.003752
100
AcDbLine
 10
240.658905
 20
259.220703
 30
0.0
 11
240.735168
 21
259.349976
 31
0.0
210
0.0
220
0.0
230
1.0
  0
LINE
  5
1DB
100
AcDbEntity
  8
0
370
    35
390
0
 62
     7
 48
0.004154
100
AcDbLine
 10
240.571655
 20
259.079285
 30
0.0
 11
240.658905
 21
259.220703
 31
0.0
210
0.0
220
0.0
230
1.0
  0
LINE
  5
1DC
100
AcDbEntity
  8
0
370
    35
390
0
 62
     7
 48
0.003846
100
AcDbLine
 10
227.125641
 20
258.949982
 30
0.0
 11
227.042267
 21
259.079285
 31
0.0
210
0.0
220
0.0
230
1.0
  0
LINE
  5
1DD
100
AcDbEntity
  8
0
370
    35
390
0
 62
     7
 48
0.004154
100
AcDbLine
 10
227.042267
 20
259.079285
 30
0.0
 11
226.955048
 21
259.220703
 31
0.0
210
0.0
220
0.0
230
1.0
  0
LINE
  5
1DE
100
AcDbEntity
  8
0
370
    35
390
0
 62
     7
 48
0.003753
100
AcDbLine
 10
226.955048
 20
259.220703
 30
0.0
 11
226.878754
 21
259.349976
 31
0.0
210
0.0
220
0.0
230
1.0
  0
ARC
  5
1DF
100
AcDbEntity
  8
0
370
    35
390
0
 62
     7
100
AcDbCircle
 10
233.806976
 20
263.349976
 30
0.0
 40
8.0
210
0.0
220
0.0
230
1.0
100
AcDbArc
 50
204.361982
 51
210.000003
  0
LINE
  5
1E0
100
AcDbEntity
  8
0
370
    35
390
0
 62
     7
 48
0.003534
100
AcDbLine
 10
226.519318
 20
260.049988
 30
0.0
 11
226.462128
 21
260.17926
 31
0.0
210
0.0
220
0.0
230
1.0
  0
LINE
  5
1E1
100
AcDbEntity
  8
0
370
    35
390
0
 62
     7
 48
0.003835
100
AcDbLine
 10
226.462128
 20
260.17926
 30
0.0
 11
226.402679
 21
260.320679
 31
0.0
210
0.0
220
0.0
230
1.0
  0
LINE
  5
1E2
100
AcDbEntity
  8
0
370
    35
390
0
 62
     7
 48
0.003481
100
AcDbLine
 10
226.402679
 20
260.320679
 30
0.0
 11
226.351105
 21
260.450012
 31
0.0
210
0.0
220
0.0
230
1.0
  0
ARC
  5
1E3
100
AcDbEntity
  8
0
370
    35
390
0
 62
     7
100
AcDbCircle
 10
233.806976
 20
263.349976
 30
0.0
 40
8.0
210
0.0
220
0.0
230
1.0
100
AcDbArc
 50
195.96201
 51
201.253809
  0
LINE
  5
1E4
100
AcDbEntity
  8
0
370
    35
390
0
 62
     7
 48
0.003354
100
AcDbLine
 10
226.115417
 20
261.149994
 30
0.0
 11
226.07959
 21
261.279297
 31
0.0
210
0.0
220
0.0
230
1.0
  0
LINE
  5
1E5
100
AcDbEntity
  8
0
370
    35
390
0
 62
     7
 48
0.003651
100
AcDbLine
 10
226.07959
 20
261.279297
 30
0.0
 11
226.043091
 21
261.420715
 31
0.0
210
0.0
220
0.0
230
1.0
  0
LINE
  5
1E6
100
AcDbEntity
  8
0
370
    35
390
0
 62
     7
 48
0.003323
100
AcDbLine
 10
226.043091
 20
261.420715
 30
0.0
 11
226.012085
 21
261.549988
 31
0.0
210
0.0
220
0.0
230
1.0
  0
ARC
  5
1E7
100
AcDbEntity
  8
0
370
    35
390
0
 62
     7
100
AcDbCircle
 10
233.806976
 20
263.349976
 30
0.0
 40
8.0
210
0.0
220
0.0
230
1.0
100
AcDbArc
 50
187.903207
 51
193.002872
  0
LINE
  5
1E8
100
AcDbEntity
  8
0
370
    35
390
0
 62
     7
 48
0.003259
100
AcDbLine
 10
225.882965
 20
262.25
 30
0.0
 11
225.866089
 21
262.379272
 31
0.0
210
0.0
220
0.0
230
1.0
  0
LINE
  5
1E9
100
AcDbEntity
  8
0
370
    35
390
0
 62
     7
 48
0.003558
100
AcDbLine
 10
225.866089
 20
262.379272
 30
0.0
 11
225.850067
 21
262.520691
 31
0.0
210
0.0
220
0.0
230
1.0
  0
LINE
  5
1EA
100
AcDbEntity
  8
0
370
    35
390
0
 62
     7
 48
0.003247
100
AcDbLine
 10
225.850067
 20
262.520691
 30
0.0
 11
225.837646
 21
262.649994
 31
0.0
210
0.0
220
0.0
230
1.0
  0
ARC
  5
1EB
100
AcDbEntity
  8
0
370
    35
390
0
 62
     7
100
AcDbCircle
 10
233.806976
 20
263.349976
 30
0.0
 40
8.0
210
0.0
220
0.0
230
1.0
100
AcDbArc
 50
180.000009
 51
185.019802
  0
LINE
  5
1EC
100
AcDbEntity
  8
0
370
    35
390
0
 62
     7
 48
0.003233
100
AcDbLine
 10
224.806976
 20
259.079285
 30
0.0
 11
224.806976
 21
258.949982
 31
0.0
210
0.0
220
0.0
230
1.0
  0
LINE
  5
1ED
100
AcDbEntity
  8
0
370
    35
390
0
 62
     7
 48
0.003535
100
AcDbLine
 10
224.806976
 20
259.220703
 30
0.0
 11
224.806976
 21
259.079285
 31
0.0
210
0.0
220
0.0
230
1.0
  0
LINE
  5
1EE
100
AcDbEntity
  8
0
370
    35
390
0
 62
     7
 48
0.003232
100
AcDbLine
 10
224.806976
 20
259.349976
 30
0.0
 11
224.806976
 21
259.220703
 31
0.0
210
0.0
220
0.0
230
1.0
  0
LINE
  5
1EF
100
AcDbEntity
  8
0
370
    35
390
0
 62
     7
 48
0.0175
100
AcDbLine
 10
224.806976
 20
259.349976
 30
0.0
 11
224.806976
 21
260.049988
 31
0.0
210
0.0
220
0.0
230
1.0
  0
LINE
  5
1F0
100
AcDbEntity
  8
0
370
    35
390
0
 62
     7
 48
0.003232
100
AcDbLine
 10
224.806976
 20
260.17926
 30
0.0
 11
224.806976
 21
260.049988
 31
0.0
210
0.0
220
0.0
230
1.0
  0
LINE
  5
1F1
100
AcDbEntity
  8
0
370
    35
390
0
 62
     7
 48
0.003535
100
AcDbLine
 10
224.806976
 20
260.320679
 30
0.0
 11
224.806976
 21
260.17926
 31
0.0
210
0.0
220
0.0
230
1.0
  0
LINE
  5
1F2
100
AcDbEntity
  8
0
370
    35
390
0
 62
     7
 48
0.003233
100
AcDbLine
 10
224.806976
 20
260.450012
 30
0.0
 11
224.806976
 21
260.320679
 31
0.0
210
0.0
220
0.0
230
1.0
  0
LINE
  5
1F3
100
AcDbEntity
  8
0
370
    35
390
0
 62
     7
 48
0.0175
100
AcDbLine
 10
224.806976
 20
260.450012
 30
0.0
 11
224.806976
 21
261.149994
 31
0.0
210
0.0
220
0.0
230
1.0
  0
LINE
  5
1F4
100
AcDbEntity
  8
0
370
    35
390
0
 62
     7
 48
0.003233
100
AcDbLine
 10
224.806976
 20
261.279297
 30
0.0
 11
224.806976
 21
261.149994
 31
0.0
210
0.0
220
0.0
230
1.0
  0
LINE
  5
1F5
100
AcDbEntity
  8
0
370
    35
390
0
 62
     7
 48
0.003535
100
AcDbLine
 10
224.806976
 20
261.420715
 30
0.0
 11
224.806976
 21
261.279297
 31
0.0
210
0.0
220
0.0
230
1.0
  0
LINE
  5
1F6
100
AcDbEntity
  8
0
370
    35
390
0
 62
     7
 48
0.003232
100
AcDbLine
 10
224.806976
 20
261.549988
 30
0.0
 11
224.806976
 21
261.420715
 31
0.0
210
0.0
220
0.0
230
1.0
  0
LINE
  5
1F7
100
AcDbEntity
  8
0
370
    35
390
0
 62
     7
 48
0.0175
100
AcDbLine
 10
224.806976
 20
261.549988
 30
0.0
 11
224.806976
 21
262.25
 31
0.0
210
0.0
220
0.0
230
1.0
  0
LINE
  5
1F8
100
AcDbEntity
  8
0
370
    35
390
0
 62
     7
 48
0.003232
100
AcDbLine
 10
224.806976
 20
262.379272
 30
0.0
 11
224.806976
 21
262.25
 31
0.0
210
0.0
220
0.0
230
1.0
  0
LINE
  5
1F9
100
AcDbEntity
  8
0
370
    35
390
0
 62
     7
 48
0.003535
100
AcDbLine
 10
224.806976
 20
262.520691
 30
0.0
 11
224.806976
 21
262.379272
 31
0.0
210
0.0
220
0.0
230
1.0
  0
LINE
  5
1FA
100
AcDbEntity
  8
0
370
    35
390
0
 62
     7
 48
0.003233
100
AcDbLine
 10
224.806976
 20
262.649994
 30
0.0
 11
224.806976
 21
262.520691
 31
0.0
210
0.0
220
0.0
230
1.0
  0
LINE
  5
1FB
100
AcDbEntity
  8
0
370
    35
390
0
 62
     7
 48
0.0175
100
AcDbLine
 10
224.806976
 20
262.649994
 30
0.0
 11
224.806976
 21
263.349976
 31
0.0
210
0.0
220
0.0
230
1.0
  0
LINE
  5
1FC
100
AcDbEntity
  8
0
370
    35
390
0
 62
     7
 48
0.003233
100
AcDbLine
 10
224.806976
 20
263.479279
 30
0.0
 11
224.806976
 21
263.349976
 31
0.0
210
0.0
220
0.0
230
1.0
  0
LINE
  5
1FD
100
AcDbEntity
  8
0
370
    35
390
0
 62
     7
 48
0.003535
100
AcDbLine
 10
224.806976
 20
263.620697
 30
0.0
 11
224.806976
 21
263.479279
 31
0.0
210
0.0
220
0.0
230
1.0
  0
LINE
  5
1FE
100
AcDbEntity
  8
0
370
    35
390
0
 62
     7
 48
0.003233
100
AcDbLine
 10
224.806976
 20
263.75
 30
0.0
 11
224.806976
 21
263.620697
 31
0.0
210
0.0
220
0.0
230
1.0
  0
LINE
  5
1FF
100
AcDbEntity
  8
0
370
    35
390
0
 62
     7
 48
0.0175
100
AcDbLine
 10
224.806976
 20
263.75
 30
0.0
 11
224.806976
 21
264.450012
 31
0.0
210
0.0
220
0.0
230
1.0
  0
LINE
  5
200
100
AcDbEntity
  8
0
370
    35
390
0
 62
     7
 48
0.003232
100
AcDbLine
 10
224.806976
 20
264.579285
 30
0.0
 11
224.806976
 21
264.450012
 31
0.0
210
0.0
220
0.0
230
1.0
  0
LINE
  5
201
100
AcDbEntity
  8
0
370
    35
390
0
 62
     7
 48
0.003535
100
AcDbLine
 10
224.806976
 20
264.720703
 30
0.0
 11
224.806976
 21
264.579285
 31
0.0
210
0.0
220
0.0
230
1.0
  0
LINE
  5
202
100
AcDbEntity
  8
0
370
    35
390
0
 62
     7
 48
0.003232
100
AcDbLine
 10
224.806976
 20
264.849976
 30
0.0
 11
224.806976
 21
264.720703
 31
0.0
210
0.0
220
0.0
230
1.0
  0
LINE
  5
203
100
AcDbEntity
  8
0
370
    35
390
0
 62
     7
 48
0.0175
100
AcDbLine
 10
224.806976
 20
264.849976
 30
0.0
 11
224.806976
 21
265.549988
 31
0.0
210
0.0
220
0.0
230
1.0
  0
LINE
  5
204
100
AcDbEntity
  8
0
370
    35
390
0
 62
     7
 48
0.003232
100
AcDbLine
 10
224.806976
 20
265.67926
 30
0.0
 11
224.806976
 21
265.549988
 31
0.0
210
0.0
220
0.0
230
1.0
  0
LINE
  5
205
100
AcDbEntity
  8
0
370
    35
390
0
 62
     7
 48
0.003535
100
AcDbLine
 10
224.806976
 20
265.820679
 30
0.0
 11
224.806976
 21
265.67926
 31
0.0
210
0.0
220
0.0
230
1.0
  0
LINE
  5
206
100
AcDbEntity
  8
0
370
    35
390
0
 62
     7
 48
0.003233
100
AcDbLine
 10
224.806976
 20
265.950012
 30
0.0
 11
224.806976
 21
265.820679
 31
0.0
210
0.0
220
0.0
230
1.0
  0
LINE
  5
207
100
AcDbEntity
  8
0
370
    35
390
0
 62
     7
 48
0.0175
100
AcDbLine
 10
224.806976
 20
265.950012
 30
0.0
 11
224.806976
 21
266.649994
 31
0.0
210
0.0
220
0.0
230
1.0
  0
LINE
  5
208
100
AcDbEntity
  8
0
370
    35
390
0
 62
     7
 48
0.003233
100
AcDbLine
 10
224.806976
 20
266.779297
 30
0.0
 11
224.806976
 21
266.649994
 31
0.0
210
0.0
220
0.0
230
1.0
  0
LINE
  5
209
100
AcDbEntity
  8
0
370
    35
390
0
 62
     7
 48
0.003535
100
AcDbLine
 10
224.806976
 20
266.920715
 30
0.0
 11
224.806976
 21
266.779297
 31
0.0
210
0.0
220
0.0
230
1.0
  0
LINE
  5
20A
100
AcDbEntity
  8
0
370
    35
390
0
 62
     7
 48
0.003232
100
AcDbLine
 10
224.806976
 20
267.049988
 30
0.0
 11
224.806976
 21
266.920715
 31
0.0
210
0.0
220
0.0
230
1.0
  0
LINE
  5
20B
100
AcDbEntity
  8
0
370
    35
390
0
 62
     7
 48
0.0175
100
AcDbLine
 10
224.806976
 20
267.049988
 30
0.0
 11
224.806976
 21
267.75
 31
0.0
210
0.0
220
0.0
230
1.0
  0
LINE
  5
20C
100
AcDbEntity
  8
0
370
    35
390
0
 62
     7
 48
0.003232
100
AcDbLine
 10
224.806976
 20
267.879272
 30
0.0
 11
224.806976
 21
267.75
 31
0.0
210
0.0
220
0.0
230
1.0
  0
LINE
  5
20D
100
AcDbEntity
  8
0
370
    35
390
0
 62
     7
 48
0.003535
100
AcDbLine
 10
224.806976
 20
268.020691
 30
0.0
 11
224.806976
 21
267.879272
 31
0.0
210
0.0
220
0.0
230
1.0
  0
LINE
  5
20E
100
AcDbEntity
  8
0
370
    35
390
0
 62
     7
 48
0.003233
100
AcDbLine
 10
224.806976
 20
268.149994
 30
0.0
 11
224.806976
 21
268.020691
 31
0.0
210
0.0
220
0.0
230
1.0
  0
LINE
  5
20F
100
AcDbEntity
  8
0
370
    35
390
0
 62
     7
 48
0.120606
100
AcDbLine
 10
224.806976
 20
268.149994
 30
0.0
 11
224.806976
 21
272.974243
 31
0.0
210
0.0
220
0.0
230
1.0
  0
LINE
  5
210
100
AcDbEntity
  8
0
370
    35
390
0
 62
     7
 48
0.012197
100
AcDbLine
 10
224.806976
 20
273.462128
 30
0.0
 11
224.806976
 21
272.974243
 31
0.0
210
0.0
220
0.0
230
1.0
  0
LINE
  5
211
100
AcDbEntity
  8
0
370
    35
390
0
 62
     7
 48
0.002197
100
AcDbLine
 10
224.806976
 20
273.549988
 30
0.0
 11
224.806976
 21
273.462128
 31
0.0
210
0.0
220
0.0
230
1.0
  0
ARC
  5
212
100
AcDbEntity
  8
0
370
    35
390
0
 62
     7
100
AcDbCircle
 10
452.306976
 20
250.549988
 30
0.0
 40
0.5
210
0.0
220
0.0
230
1.0
100
AcDbArc
 50
0.0
 51
90.000003
  0
LINE
  5
213
100
AcDbEntity
  8
0
370
    35
390
0
 62
     7
 48
0.175
100
AcDbLine
 10
452.306976
 20
251.049988
 30
0.0
 11
445.306976
 21
251.049988
 31
0.0
210
0.0
220
0.0
230
1.0
  0
ARC
  5
214
100
AcDbEntity
  8
0
370
    35
390
0
 62
     7
100
AcDbCircle
 10
445.306976
 20
250.549988
 30
0.0
 40
0.5
210
0.0
220
0.0
230
1.0
100
AcDbArc
 50
90.000003
 51
180.000009
  0
LINE
  5
215
100
AcDbEntity
  8
0
370
    35
390
0
 62
     7
 48
0.1
100
AcDbLine
 10
444.806976
 20
250.549988
 30
0.0
 11
444.806976
 21
246.549988
 31
0.0
210
0.0
220
0.0
230
1.0
  0
ARC
  5
216
100
AcDbEntity
  8
0
370
    35
390
0
 62
     7
100
AcDbCircle
 10
445.306976
 20
246.549988
 30
0.0
 40
0.5
210
0.0
220
0.0
230
1.0
100
AcDbArc
 50
180.000009
 51
269.999997
  0
LINE
  5
217
100
AcDbEntity
  8
0
370
    35
390
0
 62
     7
 48
0.175
100
AcDbLine
 10
445.306976
 20
246.049988
 30
0.0
 11
452.306976
 21
246.049988
 31
0.0
210
0.0
220
0.0
230
1.0
  0
ARC
  5
218
100
AcDbEntity
  8
0
370
    35
390
0
 62
     7
100
AcDbCircle
 10
452.306976
 20
246.549988
 30
0.0
 40
0.5
210
0.0
220
0.0
230
1.0
100
AcDbArc
 50
269.999997
 51
360.0
  0
LINE
  5
219
100
AcDbEntity
  8
0
370
    35
390
0
 62
     7
 48
0.1
100
AcDbLine
 10
452.806976
 20
246.549988
 30
0.0
 11
452.806976
 21
250.549988
 31
0.0
210
0.0
220
0.0
230
1.0
  0
ARC
  5
21A
100
AcDbEntity
  8
0
370
    35
390
0
 62
     7
100
AcDbCircle
 10
282.306976
 20
250.549988
 30
0.0
 40
0.5
210
0.0
220
0.0
230
1.0
100
AcDbArc
 50
0.0
 51
90.000003
  0
LINE
  5
21B
100
AcDbEntity
  8
0
370
    35
390
0
 62
     7
 48
0.175
100
AcDbLine
 10
282.306976
 20
251.049988
 30
0.0
 11
275.306976
 21
251.049988
 31
0.0
210
0.0
220
0.0
230
1.0
  0
ARC
  5
21C
100
AcDbEntity
  8
0
370
    35
390
0
 62
     7
100
AcDbCircle
 10
275.306976
 20
250.549988
 30
0.0
 40
0.5
210
0.0
220
0.0
230
1.0
100
AcDbArc
 50
90.000003
 51
180.000009
  0
LINE
  5
21D
100
AcDbEntity
  8
0
370
    35
390
0
 62
     7
 48
0.1
100
AcDbLine
 10
274.806976
 20
250.549988
 30
0.0
 11
274.806976
 21
246.549988
 31
0.0
210
0.0
220
0.0
230
1.0
  0
ARC
  5
21E
100
AcDbEntity
  8
0
370
    35
390
0
 62
     7
100
AcDbCircle
 10
275.306976
 20
246.549988
 30
0.0
 40
0.5
210
0.0
220
0.0
230
1.0
100
AcDbArc
 50
180.000009
 51
269.999997
  0
LINE
  5
21F
100
AcDbEntity
  8
0
370
    35
390
0
 62
     7
 48
0.175
100
AcDbLine
 10
275.306976
 20
246.049988
 30
0.0
 11
282.306976
 21
246.049988
 31
0.0
210
0.0
220
0.0
230
1.0
  0
ARC
  5
220
100
AcDbEntity
  8
0
370
    35
390
0
 62
     7
100
AcDbCircle
 10
282.306976
 20
246.549988
 30
0.0
 40
0.5
210
0.0
220
0.0
230
1.0
100
AcDbArc
 50
269.999997
 51
360.0
  0
LINE
  5
221
100
AcDbEntity
  8
0
370
    35
390
0
 62
     7
 48
0.1
100
AcDbLine
 10
282.806976
 20
246.549988
 30
0.0
 11
282.806976
 21
250.549988
 31
0.0
210
0.0
220
0.0
230
1.0
  0
LINE
  5
222
100
AcDbEntity
  8
0
370
    35
390
0
 62
     7
 48
0.0125
100
AcDbLine
 10
528.306946
 20
251.349991
 30
0.0
 11
527.806946
 21
251.349991
 31
0.0
210
0.0
220
0.0
230
1.0
  0
LINE
  5
223
100
AcDbEntity
  8
0
370
    35
390
0
 62
     7
 48
0.0125
100
AcDbLine
 10
527.806946
 20
253.649994
 30
0.0
 11
528.306946
 21
253.649994
 31
0.0
210
0.0
220
0.0
230
1.0
  0
LINE
  5
224
100
AcDbEntity
  8
0
370
    35
390
0
 62
     7
 48
0.0125
100
AcDbLine
 10
224.306976
 20
253.649994
 30
0.0
 11
224.806976
 21
253.649994
 31
0.0
210
0.0
220
0.0
230
1.0
  0
LINE
  5
225
100
AcDbEntity
  8
0
370
    35
390
0
 62
     7
 48
0.002197
100
AcDbLine
 10
455.306976
 20
273.462128
 30
0.0
 11
455.306976
 21
273.549988
 31
0.0
210
0.0
220
0.0
230
1.0
  0
LINE
  5
226
100
AcDbEntity
  8
0
370
    35
390
0
 62
     7
 48
0.012197
100
AcDbLine
 10
455.306976
 20
273.462128
 30
0.0
 11
455.306976
 21
272.974243
 31
0.0
210
0.0
220
0.0
230
1.0
  0
LINE
  5
227
100
AcDbEntity
  8
0
370
    35
390
0
 62
     7
100
AcDbLine
 10
527.806946
 20
272.974243
 30
0.0
 11
455.306976
 21
272.974243
 31
0.0
210
0.0
220
0.0
230
1.0
  0
ARC
  5
228
100
AcDbEntity
  8
0
370
    35
390
0
 62
     7
100
AcDbCircle
 10
518.806946
 20
263.349976
 30
0.0
 40
8.0
210
0.0
220
0.0
230
1.0
100
AcDbArc
 50
36.869897
 51
143.130097
  0
LINE
  5
229
100
AcDbEntity
  8
0
370
    35
390
0
 62
     7
 48
0.064999
100
AcDbLine
 10
527.806946
 20
268.149994
 30
0.0
 11
525.20697
 21
268.149994
 31
0.0
210
0.0
220
0.0
230
1.0
  0
LINE
  5
22A
100
AcDbEntity
  8
0
370
    35
390
0
 62
     7
 48
0.120606
100
AcDbLine
 10
455.306976
 20
268.149994
 30
0.0
 11
455.306976
 21
272.974243
 31
0.0
210
0.0
220
0.0
230
1.0
  0
LINE
  5
22B
100
AcDbEntity
  8
0
370
    35
390
0
 62
     7
100
AcDbLine
 10
512.406982
 20
268.149994
 30
0.0
 11
455.306976
 21
268.149994
 31
0.0
210
0.0
220
0.0
230
1.0
  0
LINE
  5
22C
100
AcDbEntity
  8
0
370
    35
390
0
 62
     7
 48
0.004011
100
AcDbLine
 10
525.20697
 20
268.149994
 30
0.0
 11
525.301941
 21
268.020691
 31
0.0
210
0.0
220
0.0
230
1.0
  0
LINE
  5
22D
100
AcDbEntity
  8
0
370
    35
390
0
 62
     7
 48
0.004321
100
AcDbLine
 10
525.301941
 20
268.020691
 30
0.0
 11
525.401306
 21
267.879272
 31
0.0
210
0.0
220
0.0
230
1.0
  0
LINE
  5
22E
100
AcDbEntity
  8
0
370
    35
390
0
 62
     7
 48
0.003895
100
AcDbLine
 10
525.401306
 20
267.879272
 30
0.0
 11
525.488281
 21
267.75
 31
0.0
210
0.0
220
0.0
230
1.0
  0
LINE
  5
22F
100
AcDbEntity
  8
0
370
    35
390
0
 62
     7
 48
0.057967
100
AcDbLine
 10
527.806946
 20
267.75
 30
0.0
 11
525.488281
 21
267.75
 31
0.0
210
0.0
220
0.0
230
1.0
  0
ARC
  5
230
100
AcDbEntity
  8
0
370
    35
390
0
 62
     7
100
AcDbCircle
 10
518.806946
 20
263.349976
 30
0.0
 40
8.0
210
0.0
220
0.0
230
1.0
100
AcDbArc
 50
27.548547
 51
33.367014
  0
LINE
  5
231
100
AcDbEntity
  8
0
370
    35
390
0
 62
     7
 48
0.047676
100
AcDbLine
 10
527.806946
 20
267.049988
 30
0.0
 11
525.899902
 21
267.049988
 31
0.0
210
0.0
220
0.0
230
1.0
  0
LINE
  5
232
100
AcDbEntity
  8
0
370
    35
390
0
 62
     7
 48
0.003628
100
AcDbLine
 10
525.899902
 20
267.049988
 30
0.0
 11
525.965881
 21
266.920715
 31
0.0
210
0.0
220
0.0
230
1.0
  0
LINE
  5
233
100
AcDbEntity
  8
0
370
    35
390
0
 62
     7
 48
0.003932
100
AcDbLine
 10
525.965881
 20
266.920715
 30
0.0
 11
526.034668
 21
266.779297
 31
0.0
210
0.0
220
0.0
230
1.0
  0
LINE
  5
234
100
AcDbEntity
  8
0
370
    35
390
0
 62
     7
 48
0.003563
100
AcDbLine
 10
526.034668
 20
266.779297
 30
0.0
 11
526.094604
 21
266.649994
 31
0.0
210
0.0
220
0.0
230
1.0
  0
LINE
  5
235
100
AcDbEntity
  8
0
370
    35
390
0
 62
     7
 48
0.042809
100
AcDbLine
 10
527.806946
 20
266.649994
 30
0.0
 11
526.094604
 21
266.649994
 31
0.0
210
0.0
220
0.0
230
1.0
  0
ARC
  5
236
100
AcDbEntity
  8
0
370
    35
390
0
 62
     7
100
AcDbCircle
 10
518.806946
 20
263.349976
 30
0.0
 40
8.0
210
0.0
220
0.0
230
1.0
100
AcDbArc
 50
18.965574
 51
24.361978
  0
LINE
  5
237
100
AcDbEntity
  8
0
370
    35
390
0
 62
     7
 48
0.035857
100
AcDbLine
 10
527.806946
 20
265.950012
 30
0.0
 11
526.372681
 21
265.950012
 31
0.0
210
0.0
220
0.0
230
1.0
  0
LINE
  5
238
100
AcDbEntity
  8
0
370
    35
390
0
 62
     7
 48
0.003409
100
AcDbLine
 10
526.372681
 20
265.950012
 30
0.0
 11
526.415894
 21
265.820679
 31
0.0
210
0.0
220
0.0
230
1.0
  0
LINE
  5
239
100
AcDbEntity
  8
0
370
    35
390
0
 62
     7
 48
0.003706
100
AcDbLine
 10
526.415894
 20
265.820679
 30
0.0
 11
526.460327
 21
265.67926
 31
0.0
210
0.0
220
0.0
230
1.0
  0
LINE
  5
23A
100
AcDbEntity
  8
0
370
    35
390
0
 62
     7
 48
0.00337
100
AcDbLine
 10
526.460327
 20
265.67926
 30
0.0
 11
526.498535
 21
265.549988
 31
0.0
210
0.0
220
0.0
230
1.0
  0
LINE
  5
23B
100
AcDbEntity
  8
0
370
    35
390
0
 62
     7
 48
0.03271
100
AcDbLine
 10
527.806946
 20
265.549988
 30
0.0
 11
526.498535
 21
265.549988
 31
0.0
210
0.0
220
0.0
230
1.0
  0
ARC
  5
23C
100
AcDbEntity
  8
0
370
    35
390
0
 62
     7
100
AcDbCircle
 10
518.806946
 20
263.349976
 30
0.0
 40
8.0
210
0.0
220
0.0
230
1.0
100
AcDbArc
 50
10.806924
 51
15.962017
  0
LINE
  5
23D
100
AcDbEntity
  8
0
370
    35
390
0
 62
     7
 48
0.028546
100
AcDbLine
 10
527.806946
 20
264.849976
 30
0.0
 11
526.6651
 21
264.849976
 31
0.0
210
0.0
220
0.0
230
1.0
  0
LINE
  5
23E
100
AcDbEntity
  8
0
370
    35
390
0
 62
     7
 48
0.003285
100
AcDbLine
 10
526.6651
 20
264.849976
 30
0.0
 11
526.68866
 21
264.720703
 31
0.0
210
0.0
220
0.0
230
1.0
  0
LINE
  5
23F
100
AcDbEntity
  8
0
370
    35
390
0
 62
     7
 48
0.003583
100
AcDbLine
 10
526.68866
 20
264.720703
 30
0.0
 11
526.711975
 21
264.579285
 31
0.0
210
0.0
220
0.0
230
1.0
  0
LINE
  5
240
100
AcDbEntity
  8
0
370
    35
390
0
 62
     7
 48
0.003266
100
AcDbLine
 10
526.711975
 20
264.579285
 30
0.0
 11
526.730957
 21
264.450012
 31
0.0
210
0.0
220
0.0
230
1.0
  0
LINE
  5
241
100
AcDbEntity
  8
0
370
    35
390
0
 62
     7
 48
0.0269
100
AcDbLine
 10
527.806946
 20
264.450012
 30
0.0
 11
526.730957
 21
264.450012
 31
0.0
210
0.0
220
0.0
230
1.0
  0
ARC
  5
242
100
AcDbEntity
  8
0
370
    35
390
0
 62
     7
100
AcDbCircle
 10
518.806946
 20
263.349976
 30
0.0
 40
8.0
210
0.0
220
0.0
230
1.0
100
AcDbArc
 50
2.865984
 51
7.903208
  0
LINE
  5
243
100
AcDbEntity
  8
0
370
    35
390
0
 62
     7
 48
0.02525
100
AcDbLine
 10
527.806946
 20
263.75
 30
0.0
 11
526.796936
 21
263.75
 31
0.0
210
0.0
220
0.0
230
1.0
  0
LINE
  5
244
100
AcDbEntity
  8
0
370
    35
390
0
 62
     7
 48
0.003235
100
AcDbLine
 10
526.796936
 20
263.75
 30
0.0
 11
526.802368
 21
263.620697
 31
0.0
210
0.0
220
0.0
230
1.0
  0
LINE
  5
245
100
AcDbEntity
  8
0
370
    35
390
0
 62
     7
 48
0.003537
100
AcDbLine
 10
526.802368
 20
263.620697
 30
0.0
 11
526.805908
 21
263.479279
 31
0.0
210
0.0
220
0.0
230
1.0
  0
LINE
  5
246
100
AcDbEntity
  8
0
370
    35
390
0
 62
     7
 48
0.003233
100
AcDbLine
 10
526.805908
 20
263.479279
 30
0.0
 11
526.806946
 21
263.349976
 31
0.0
210
0.0
220
0.0
230
1.0
  0
LINE
  5
247
100
AcDbEntity
  8
0
370
    35
390
0
 62
     7
 48
0.025
100
AcDbLine
 10
527.806946
 20
263.349976
 30
0.0
 11
526.806946
 21
263.349976
 31
0.0
210
0.0
220
0.0
230
1.0
  0
LINE
  5
248
100
AcDbEntity
  8
0
370
    35
390
0
 62
     7
 48
0.025766
100
AcDbLine
 10
527.806946
 20
262.649994
 30
0.0
 11
526.776306
 21
262.649994
 31
0.0
210
0.0
220
0.0
230
1.0
  0
LINE
  5
249
100
AcDbEntity
  8
0
370
    35
390
0
 62
     7
 48
0.0269
100
AcDbLine
 10
527.806946
 20
262.25
 30
0.0
 11
526.730957
 21
262.25
 31
0.0
210
0.0
220
0.0
230
1.0
  0
LINE
  5
24A
100
AcDbEntity
  8
0
370
    35
390
0
 62
     7
 48
0.030128
100
AcDbLine
 10
527.806946
 20
261.549988
 30
0.0
 11
526.601807
 21
261.549988
 31
0.0
210
0.0
220
0.0
230
1.0
  0
LINE
  5
24B
100
AcDbEntity
  8
0
370
    35
390
0
 62
     7
 48
0.03271
100
AcDbLine
 10
527.806946
 20
261.149994
 30
0.0
 11
526.498535
 21
261.149994
 31
0.0
210
0.0
220
0.0
230
1.0
  0
LINE
  5
24C
100
AcDbEntity
  8
0
370
    35
390
0
 62
     7
 48
0.038603
100
AcDbLine
 10
527.806946
 20
260.450012
 30
0.0
 11
526.262817
 21
260.450012
 31
0.0
210
0.0
220
0.0
230
1.0
  0
LINE
  5
24D
100
AcDbEntity
  8
0
370
    35
390
0
 62
     7
 48
0.042809
100
AcDbLine
 10
527.806946
 20
260.049988
 30
0.0
 11
526.094604
 21
260.049988
 31
0.0
210
0.0
220
0.0
230
1.0
  0
LINE
  5
24E
100
AcDbEntity
  8
0
370
    35
390
0
 62
     7
 48
0.051794
100
AcDbLine
 10
527.806946
 20
259.349976
 30
0.0
 11
525.735168
 21
259.349976
 31
0.0
210
0.0
220
0.0
230
1.0
  0
LINE
  5
24F
100
AcDbEntity
  8
0
370
    35
390
0
 62
     7
100
AcDbLine
 10
511.878784
 20
259.349976
 30
0.0
 11
453.45697
 21
259.349976
 31
0.0
210
0.0
220
0.0
230
1.0
  0
LINE
  5
250
100
AcDbEntity
  8
0
370
    35
390
0
 62
     7
100
AcDbLine
 10
511.519318
 20
260.049988
 30
0.0
 11
453.45697
 21
260.049988
 31
0.0
210
0.0
220
0.0
230
1.0
  0
LINE
  5
251
100
AcDbEntity
  8
0
370
    35
390
0
 62
     7
100
AcDbLine
 10
511.351105
 20
260.450012
 30
0.0
 11
453.45697
 21
260.450012
 31
0.0
210
0.0
220
0.0
230
1.0
  0
LINE
  5
252
100
AcDbEntity
  8
0
370
    35
390
0
 62
     7
100
AcDbLine
 10
511.115417
 20
261.149994
 30
0.0
 11
453.45697
 21
261.149994
 31
0.0
210
0.0
220
0.0
230
1.0
  0
LINE
  5
253
100
AcDbEntity
  8
0
370
    35
390
0
 62
     7
100
AcDbLine
 10
511.012115
 20
261.549988
 30
0.0
 11
453.45697
 21
261.549988
 31
0.0
210
0.0
220
0.0
230
1.0
  0
LINE
  5
254
100
AcDbEntity
  8
0
370
    35
390
0
 62
     7
100
AcDbLine
 10
510.882965
 20
262.25
 30
0.0
 11
453.45697
 21
262.25
 31
0.0
210
0.0
220
0.0
230
1.0
  0
LINE
  5
255
100
AcDbEntity
  8
0
370
    35
390
0
 62
     7
100
AcDbLine
 10
510.837646
 20
262.649994
 30
0.0
 11
453.45697
 21
262.649994
 31
0.0
210
0.0
220
0.0
230
1.0
  0
LINE
  5
256
100
AcDbEntity
  8
0
370
    35
390
0
 62
     7
100
AcDbLine
 10
510.806976
 20
263.349976
 30
0.0
 11
453.45697
 21
263.349976
 31
0.0
210
0.0
220
0.0
230
1.0
  0
LINE
  5
257
100
AcDbEntity
  8
0
370
    35
390
0
 62
     7
 48
0.003233
100
AcDbLine
 10
510.808014
 20
263.479279
 30
0.0
 11
510.806976
 21
263.349976
 31
0.0
210
0.0
220
0.0
230
1.0
  0
LINE
  5
258
100
AcDbEntity
  8
0
370
    35
390
0
 62
     7
 48
0.003537
100
AcDbLine
 10
510.811554
 20
263.620697
 30
0.0
 11
510.808014
 21
263.479279
 31
0.0
210
0.0
220
0.0
230
1.0
  0
LINE
  5
259
100
AcDbEntity
  8
0
370
    35
390
0
 62
     7
 48
0.003235
100
AcDbLine
 10
510.816986
 20
263.75
 30
0.0
 11
510.811554
 21
263.620697
 31
0.0
210
0.0
220
0.0
230
1.0
  0
ARC
  5
25A
100
AcDbEntity
  8
0
370
    35
390
0
 62
     7
100
AcDbCircle
 10
518.806946
 20
263.349976
 30
0.0
 40
8.0
210
0.0
220
0.0
230
1.0
100
AcDbArc
 50
172.096793
 51
177.134017
  0
LINE
  5
25B
100
AcDbEntity
  8
0
370
    35
390
0
 62
     7
 48
0.003267
100
AcDbLine
 10
510.901978
 20
264.579285
 30
0.0
 11
510.882965
 21
264.450012
 31
0.0
210
0.0
220
0.0
230
1.0
  0
LINE
  5
25C
100
AcDbEntity
  8
0
370
    35
390
0
 62
     7
 48
0.003583
100
AcDbLine
 10
510.925293
 20
264.720703
 30
0.0
 11
510.901978
 21
264.579285
 31
0.0
210
0.0
220
0.0
230
1.0
  0
LINE
  5
25D
100
AcDbEntity
  8
0
370
    35
390
0
 62
     7
 48
0.003285
100
AcDbLine
 10
510.948853
 20
264.849976
 30
0.0
 11
510.925293
 21
264.720703
 31
0.0
210
0.0
220
0.0
230
1.0
  0
ARC
  5
25E
100
AcDbEntity
  8
0
370
    35
390
0
 62
     7
100
AcDbCircle
 10
518.806946
 20
263.349976
 30
0.0
 40
8.0
210
0.0
220
0.0
230
1.0
100
AcDbArc
 50
164.03799
 51
169.193075
  0
LINE
  5
25F
100
AcDbEntity
  8
0
370
    35
390
0
 62
     7
 48
0.00337
100
AcDbLine
 10
511.153595
 20
265.67926
 30
0.0
 11
511.115417
 21
265.549988
 31
0.0
210
0.0
220
0.0
230
1.0
  0
LINE
  5
260
100
AcDbEntity
  8
0
370
    35
390
0
 62
     7
 48
0.003706
100
AcDbLine
 10
511.198059
 20
265.820679
 30
0.0
 11
511.153595
 21
265.67926
 31
0.0
210
0.0
220
0.0
230
1.0
  0
LINE
  5
261
100
AcDbEntity
  8
0
370
    35
390
0
 62
     7
 48
0.003409
100
AcDbLine
 10
511.241272
 20
265.950012
 30
0.0
 11
511.198059
 21
265.820679
 31
0.0
210
0.0
220
0.0
230
1.0
  0
ARC
  5
262
100
AcDbEntity
  8
0
370
    35
390
0
 62
     7
100
AcDbCircle
 10
518.806946
 20
263.349976
 30
0.0
 40
8.0
210
0.0
220
0.0
230
1.0
100
AcDbArc
 50
155.638018
 51
161.034427
  0
LINE
  5
263
100
AcDbEntity
  8
0
370
    35
390
0
 62
     7
 48
0.003563
100
AcDbLine
 10
511.579254
 20
266.779297
 30
0.0
 11
511.519318
 21
266.649994
 31
0.0
210
0.0
220
0.0
230
1.0
  0
LINE
  5
264
100
AcDbEntity
  8
0
370
    35
390
0
 62
     7
 48
0.003932
100
AcDbLine
 10
511.648071
 20
266.920715
 30
0.0
 11
511.579254
 21
266.779297
 31
0.0
210
0.0
220
0.0
230
1.0
  0
LINE
  5
265
100
AcDbEntity
  8
0
370
    35
390
0
 62
     7
 48
0.003628
100
AcDbLine
 10
511.71402
 20
267.049988
 30
0.0
 11
511.648071
 21
266.920715
 31
0.0
210
0.0
220
0.0
230
1.0
  0
ARC
  5
266
100
AcDbEntity
  8
0
370
    35
390
0
 62
     7
100
AcDbCircle
 10
518.806946
 20
263.349976
 30
0.0
 40
8.0
210
0.0
220
0.0
230
1.0
100
AcDbArc
 50
146.632987
 51
152.451448
  0
LINE
  5
267
100
AcDbEntity
  8
0
370
    35
390
0
 62
     7
 48
0.003894
100
AcDbLine
 10
512.212585
 20
267.879272
 30
0.0
 11
512.125671
 21
267.75
 31
0.0
210
0.0
220
0.0
230
1.0
  0
LINE
  5
268
100
AcDbEntity
  8
0
370
    35
390
0
 62
     7
 48
0.004322
100
AcDbLine
 10
512.312012
 20
268.020691
 30
0.0
 11
512.212585
 21
267.879272
 31
0.0
210
0.0
220
0.0
230
1.0
  0
LINE
  5
269
100
AcDbEntity
  8
0
370
    35
390
0
 62
     7
 48
0.004011
100
AcDbLine
 10
512.406982
 20
268.149994
 30
0.0
 11
512.312012
 21
268.020691
 31
0.0
210
0.0
220
0.0
230
1.0
  0
CIRCLE
  5
26A
100
AcDbEntity
  8
0
370
    35
390
0
 62
     7
100
AcDbCircle
 10
518.806946
 20
263.349976
 30
0.0
 40
7.5
210
0.0
220
0.0
230
1.0
  0
LINE
  5
26B
100
AcDbEntity
  8
0
370
    35
390
0
 62
     7
 48
0.00875
100
AcDbLine
 10
453.806976
 20
266.349976
 30
0.0
 11
453.45697
 21
266.349976
 31
0.0
210
0.0
220
0.0
230
1.0
  0
LINE
  5
26C
100
AcDbEntity
  8
0
370
    35
390
0
 62
     7
100
AcDbLine
 10
511.519318
 20
266.649994
 30
0.0
 11
454.70697
 21
266.649994
 31
0.0
210
0.0
220
0.0
230
1.0
  0
ARC
  5
26D
100
AcDbEntity
  8
0
370
    35
390
0
 62
     7
100
AcDbCircle
 10
453.806976
 20
267.849976
 30
0.0
 40
1.5
210
0.0
220
0.0
230
1.0
100
AcDbArc
 50
269.999997
 51
314.454478
  0
LINE
  5
26E
100
AcDbEntity
  8
0
370
    35
390
0
 62
     7
100
AcDbLine
 10
511.241272
 20
265.950012
 30
0.0
 11
453.45697
 21
265.950012
 31
0.0
210
0.0
220
0.0
230
1.0
  0
LINE
  5
26F
100
AcDbEntity
  8
0
370
    35
390
0
 62
     7
100
AcDbLine
 10
511.115417
 20
265.549988
 30
0.0
 11
453.45697
 21
265.549988
 31
0.0
210
0.0
220
0.0
230
1.0
  0
LINE
  5
270
100
AcDbEntity
  8
0
370
    35
390
0
 62
     7
100
AcDbLine
 10
510.948853
 20
264.849976
 30
0.0
 11
453.45697
 21
264.849976
 31
0.0
210
0.0
220
0.0
230
1.0
  0
LINE
  5
271
100
AcDbEntity
  8
0
370
    35
390
0
 62
     7
100
AcDbLine
 10
510.882965
 20
264.450012
 30
0.0
 11
453.45697
 21
264.450012
 31
0.0
210
0.0
220
0.0
230
1.0
  0
LINE
  5
272
100
AcDbEntity
  8
0
370
    35
390
0
 62
     7
100
AcDbLine
 10
510.816986
 20
263.75
 30
0.0
 11
453.45697
 21
263.75
 31
0.0
210
0.0
220
0.0
230
1.0
  0
LINE
  5
273
100
AcDbEntity
  8
0
370
    35
390
0
 62
     7
 48
0.0575
100
AcDbLine
 10
452.45697
 20
266.649994
 30
0.0
 11
450.156982
 21
266.649994
 31
0.0
210
0.0
220
0.0
230
1.0
  0
LINE
  5
274
100
AcDbEntity
  8
0
370
    35
390
0
 62
     7
 48
0.0575
100
AcDbLine
 10
452.45697
 20
265.950012
 30
0.0
 11
450.156982
 21
265.950012
 31
0.0
210
0.0
220
0.0
230
1.0
  0
ARC
  5
275
100
AcDbEntity
  8
0
370
    35
390
0
 62
     7
100
AcDbCircle
 10
449.656982
 20
266.849976
 30
0.0
 40
0.5
210
0.0
220
0.0
230
1.0
100
AcDbArc
 50
0.0
 51
8.130103
  0
ARC
  5
276
100
AcDbEntity
  8
0
370
    35
390
0
 62
     7
100
AcDbCircle
 10
452.95697
 20
266.849976
 30
0.0
 40
0.5
210
0.0
220
0.0
230
1.0
100
AcDbArc
 50
171.869894
 51
180.000009
  0
ARC
  5
277
100
AcDbEntity
  8
0
370
    35
390
0
 62
     7
100
AcDbCircle
 10
452.95697
 20
266.849976
 30
0.0
 40
0.5
210
0.0
220
0.0
230
1.0
100
AcDbArc
 50
90.000003
 51
171.869894
  0
LINE
  5
278
100
AcDbEntity
  8
0
370
    35
390
0
 62
     7
 48
0.0575
100
AcDbLine
 10
452.45697
 20
259.349976
 30
0.0
 11
450.156982
 21
259.349976
 31
0.0
210
0.0
220
0.0
230
1.0
  0
LINE
  5
279
100
AcDbEntity
  8
0
370
    35
390
0
 62
     7
 48
0.0575
100
AcDbLine
 10
452.45697
 20
260.049988
 30
0.0
 11
450.156982
 21
260.049988
 31
0.0
210
0.0
220
0.0
230
1.0
  0
LINE
  5
27A
100
AcDbEntity
  8
0
370
    35
390
0
 62
     7
 48
0.0575
100
AcDbLine
 10
452.45697
 20
260.450012
 30
0.0
 11
450.156982
 21
260.450012
 31
0.0
210
0.0
220
0.0
230
1.0
  0
LINE
  5
27B
100
AcDbEntity
  8
0
370
    35
390
0
 62
     7
 48
0.0575
100
AcDbLine
 10
452.45697
 20
261.149994
 30
0.0
 11
450.156982
 21
261.149994
 31
0.0
210
0.0
220
0.0
230
1.0
  0
LINE
  5
27C
100
AcDbEntity
  8
0
370
    35
390
0
 62
     7
 48
0.0575
100
AcDbLine
 10
452.45697
 20
261.549988
 30
0.0
 11
450.156982
 21
261.549988
 31
0.0
210
0.0
220
0.0
230
1.0
  0
LINE
  5
27D
100
AcDbEntity
  8
0
370
    35
390
0
 62
     7
 48
0.0575
100
AcDbLine
 10
452.45697
 20
262.25
 30
0.0
 11
450.156982
 21
262.25
 31
0.0
210
0.0
220
0.0
230
1.0
  0
LINE
  5
27E
100
AcDbEntity
  8
0
370
    35
390
0
 62
     7
 48
0.0575
100
AcDbLine
 10
452.45697
 20
262.649994
 30
0.0
 11
450.156982
 21
262.649994
 31
0.0
210
0.0
220
0.0
230
1.0
  0
LINE
  5
27F
100
AcDbEntity
  8
0
370
    35
390
0
 62
     7
 48
0.0575
100
AcDbLine
 10
452.45697
 20
263.349976
 30
0.0
 11
450.156982
 21
263.349976
 31
0.0
210
0.0
220
0.0
230
1.0
  0
LINE
  5
280
100
AcDbEntity
  8
0
370
    35
390
0
 62
     7
 48
0.0575
100
AcDbLine
 10
452.45697
 20
263.75
 30
0.0
 11
450.156982
 21
263.75
 31
0.0
210
0.0
220
0.0
230
1.0
  0
LINE
  5
281
100
AcDbEntity
  8
0
370
    35
390
0
 62
     7
 48
0.0575
100
AcDbLine
 10
452.45697
 20
264.450012
 30
0.0
 11
450.156982
 21
264.450012
 31
0.0
210
0.0
220
0.0
230
1.0
  0
LINE
  5
282
100
AcDbEntity
  8
0
370
    35
390
0
 62
     7
 48
0.0575
100
AcDbLine
 10
452.45697
 20
264.849976
 30
0.0
 11
450.156982
 21
264.849976
 31
0.0
210
0.0
220
0.0
230
1.0
  0
LINE
  5
283
100
AcDbEntity
  8
0
370
    35
390
0
 62
     7
 48
0.0575
100
AcDbLine
 10
452.45697
 20
265.549988
 30
0.0
 11
450.156982
 21
265.549988
 31
0.0
210
0.0
220
0.0
230
1.0
  0
ARC
  5
284
100
AcDbEntity
  8
0
370
    35
390
0
 62
     7
100
AcDbCircle
 10
449.656982
 20
266.849976
 30
0.0
 40
0.5
210
0.0
220
0.0
230
1.0
100
AcDbArc
 50
8.130103
 51
90.000003
  0
LINE
  5
285
100
AcDbEntity
  8
0
370
    35
390
0
 62
     7
100
AcDbLine
 10
449.156982
 20
265.549988
 30
0.0
 11
303.45697
 21
265.549988
 31
0.0
210
0.0
220
0.0
230
1.0
  0
LINE
  5
286
100
AcDbEntity
  8
0
370
    35
390
0
 62
     7
100
AcDbLine
 10
449.156982
 20
265.950012
 30
0.0
 11
303.45697
 21
265.950012
 31
0.0
210
0.0
220
0.0
230
1.0
  0
LINE
  5
287
100
AcDbEntity
  8
0
370
    35
390
0
 62
     7
 48
0.00875
100
AcDbLine
 10
449.156982
 20
266.349976
 30
0.0
 11
448.806976
 21
266.349976
 31
0.0
210
0.0
220
0.0
230
1.0
  0
ARC
  5
288
100
AcDbEntity
  8
0
370
    35
390
0
 62
     7
100
AcDbCircle
 10
448.806976
 20
267.849976
 30
0.0
 40
1.5
210
0.0
220
0.0
230
1.0
100
AcDbArc
 50
212.230947
 51
269.999997
  0
LINE
  5
289
100
AcDbEntity
  8
0
370
    35
390
0
 62
     7
100
AcDbLine
 10
447.906982
 20
266.649994
 30
0.0
 11
304.70697
 21
266.649994
 31
0.0
210
0.0
220
0.0
230
1.0
  0
ARC
  5
28A
100
AcDbEntity
  8
0
370
    35
390
0
 62
     7
100
AcDbCircle
 10
303.806976
 20
267.849976
 30
0.0
 40
1.5
210
0.0
220
0.0
230
1.0
100
AcDbArc
 50
269.999997
 51
314.454478
  0
LINE
  5
28B
100
AcDbEntity
  8
0
370
    35
390
0
 62
     7
 48
0.00875
100
AcDbLine
 10
303.806976
 20
266.349976
 30
0.0
 11
303.45697
 21
266.349976
 31
0.0
210
0.0
220
0.0
230
1.0
  0
LINE
  5
28C
100
AcDbEntity
  8
0
370
    35
390
0
 62
     7
100
AcDbLine
 10
449.156982
 20
259.349976
 30
0.0
 11
303.45697
 21
259.349976
 31
0.0
210
0.0
220
0.0
230
1.0
  0
LINE
  5
28D
100
AcDbEntity
  8
0
370
    35
390
0
 62
     7
100
AcDbLine
 10
449.156982
 20
260.049988
 30
0.0
 11
303.45697
 21
260.049988
 31
0.0
210
0.0
220
0.0
230
1.0
  0
LINE
  5
28E
100
AcDbEntity
  8
0
370
    35
390
0
 62
     7
100
AcDbLine
 10
449.156982
 20
260.450012
 30
0.0
 11
303.45697
 21
260.450012
 31
0.0
210
0.0
220
0.0
230
1.0
  0
LINE
  5
28F
100
AcDbEntity
  8
0
370
    35
390
0
 62
     7
100
AcDbLine
 10
449.156982
 20
261.149994
 30
0.0
 11
303.45697
 21
261.149994
 31
0.0
210
0.0
220
0.0
230
1.0
  0
LINE
  5
290
100
AcDbEntity
  8
0
370
    35
390
0
 62
     7
100
AcDbLine
 10
449.156982
 20
261.549988
 30
0.0
 11
303.45697
 21
261.549988
 31
0.0
210
0.0
220
0.0
230
1.0
  0
LINE
  5
291
100
AcDbEntity
  8
0
370
    35
390
0
 62
     7
100
AcDbLine
 10
449.156982
 20
262.25
 30
0.0
 11
303.45697
 21
262.25
 31
0.0
210
0.0
220
0.0
230
1.0
  0
LINE
  5
292
100
AcDbEntity
  8
0
370
    35
390
0
 62
     7
100
AcDbLine
 10
449.156982
 20
262.649994
 30
0.0
 11
303.45697
 21
262.649994
 31
0.0
210
0.0
220
0.0
230
1.0
  0
LINE
  5
293
100
AcDbEntity
  8
0
370
    35
390
0
 62
     7
100
AcDbLine
 10
449.156982
 20
263.349976
 30
0.0
 11
303.45697
 21
263.349976
 31
0.0
210
0.0
220
0.0
230
1.0
  0
LINE
  5
294
100
AcDbEntity
  8
0
370
    35
390
0
 62
     7
100
AcDbLine
 10
449.156982
 20
263.75
 30
0.0
 11
303.45697
 21
263.75
 31
0.0
210
0.0
220
0.0
230
1.0
  0
LINE
  5
295
100
AcDbEntity
  8
0
370
    35
390
0
 62
     7
100
AcDbLine
 10
449.156982
 20
264.450012
 30
0.0
 11
303.45697
 21
264.450012
 31
0.0
210
0.0
220
0.0
230
1.0
  0
LINE
  5
296
100
AcDbEntity
  8
0
370
    35
390
0
 62
     7
100
AcDbLine
 10
449.156982
 20
264.849976
 30
0.0
 11
303.45697
 21
264.849976
 31
0.0
210
0.0
220
0.0
230
1.0
  0
LINE
  5
297
100
AcDbEntity
  8
0
370
    35
390
0
 62
     7
 48
0.0575
100
AcDbLine
 10
302.45697
 20
265.950012
 30
0.0
 11
300.156982
 21
265.950012
 31
0.0
210
0.0
220
0.0
230
1.0
  0
LINE
  5
298
100
AcDbEntity
  8
0
370
    35
390
0
 62
     7
 48
0.0575
100
AcDbLine
 10
302.45697
 20
266.649994
 30
0.0
 11
300.156982
 21
266.649994
 31
0.0
210
0.0
220
0.0
230
1.0
  0
ARC
  5
299
100
AcDbEntity
  8
0
370
    35
390
0
 62
     7
100
AcDbCircle
 10
302.95697
 20
266.849976
 30
0.0
 40
0.5
210
0.0
220
0.0
230
1.0
100
AcDbArc
 50
171.869894
 51
180.000009
  0
ARC
  5
29A
100
AcDbEntity
  8
0
370
    35
390
0
 62
     7
100
AcDbCircle
 10
299.656982
 20
266.849976
 30
0.0
 40
0.5
210
0.0
220
0.0
230
1.0
100
AcDbArc
 50
0.0
 51
8.130103
  0
ARC
  5
29B
100
AcDbEntity
  8
0
370
    35
390
0
 62
     7
100
AcDbCircle
 10
302.95697
 20
266.849976
 30
0.0
 40
0.5
210
0.0
220
0.0
230
1.0
100
AcDbArc
 50
90.000003
 51
171.869894
  0
LINE
  5
29C
100
AcDbEntity
  8
0
370
    35
390
0
 62
     7
 48
0.0575
100
AcDbLine
 10
302.45697
 20
259.349976
 30
0.0
 11
300.156982
 21
259.349976
 31
0.0
210
0.0
220
0.0
230
1.0
  0
LINE
  5
29D
100
AcDbEntity
  8
0
370
    35
390
0
 62
     7
 48
0.0575
100
AcDbLine
 10
302.45697
 20
260.049988
 30
0.0
 11
300.156982
 21
260.049988
 31
0.0
210
0.0
220
0.0
230
1.0
  0
LINE
  5
29E
100
AcDbEntity
  8
0
370
    35
390
0
 62
     7
 48
0.0575
100
AcDbLine
 10
302.45697
 20
260.450012
 30
0.0
 11
300.156982
 21
260.450012
 31
0.0
210
0.0
220
0.0
230
1.0
  0
LINE
  5
29F
100
AcDbEntity
  8
0
370
    35
390
0
 62
     7
 48
0.0575
100
AcDbLine
 10
302.45697
 20
261.149994
 30
0.0
 11
300.156982
 21
261.149994
 31
0.0
210
0.0
220
0.0
230
1.0
  0
LINE
  5
2A0
100
AcDbEntity
  8
0
370
    35
390
0
 62
     7
 48
0.0575
100
AcDbLine
 10
302.45697
 20
261.549988
 30
0.0
 11
300.156982
 21
261.549988
 31
0.0
210
0.0
220
0.0
230
1.0
  0
LINE
  5
2A1
100
AcDbEntity
  8
0
370
    35
390
0
 62
     7
 48
0.0575
100
AcDbLine
 10
302.45697
 20
262.25
 30
0.0
 11
300.156982
 21
262.25
 31
0.0
210
0.0
220
0.0
230
1.0
  0
LINE
  5
2A2
100
AcDbEntity
  8
0
370
    35
390
0
 62
     7
 48
0.0575
100
AcDbLine
 10
302.45697
 20
262.649994
 30
0.0
 11
300.156982
 21
262.649994
 31
0.0
210
0.0
220
0.0
230
1.0
  0
LINE
  5
2A3
100
AcDbEntity
  8
0
370
    35
390
0
 62
     7
 48
0.0575
100
AcDbLine
 10
302.45697
 20
263.349976
 30
0.0
 11
300.156982
 21
263.349976
 31
0.0
210
0.0
220
0.0
230
1.0
  0
LINE
  5
2A4
100
AcDbEntity
  8
0
370
    35
390
0
 62
     7
 48
0.0575
100
AcDbLine
 10
302.45697
 20
263.75
 30
0.0
 11
300.156982
 21
263.75
 31
0.0
210
0.0
220
0.0
230
1.0
  0
LINE
  5
2A5
100
AcDbEntity
  8
0
370
    35
390
0
 62
     7
 48
0.0575
100
AcDbLine
 10
302.45697
 20
264.450012
 30
0.0
 11
300.156982
 21
264.450012
 31
0.0
210
0.0
220
0.0
230
1.0
  0
LINE
  5
2A6
100
AcDbEntity
  8
0
370
    35
390
0
 62
     7
 48
0.0575
100
AcDbLine
 10
302.45697
 20
264.849976
 30
0.0
 11
300.156982
 21
264.849976
 31
0.0
210
0.0
220
0.0
230
1.0
  0
LINE
  5
2A7
100
AcDbEntity
  8
0
370
    35
390
0
 62
     7
 48
0.0575
100
AcDbLine
 10
302.45697
 20
265.549988
 30
0.0
 11
300.156982
 21
265.549988
 31
0.0
210
0.0
220
0.0
230
1.0
  0
ARC
  5
2A8
100
AcDbEntity
  8
0
370
    35
390
0
 62
     7
100
AcDbCircle
 10
299.656982
 20
266.849976
 30
0.0
 40
0.5
210
0.0
220
0.0
230
1.0
100
AcDbArc
 50
8.130103
 51
90.000003
  0
LINE
  5
2A9
100
AcDbEntity
  8
0
370
    35
390
0
 62
     7
 48
0.00337
100
AcDbLine
 10
241.460358
 20
265.67926
 30
0.0
 11
241.498535
 21
265.549988
 31
0.0
210
0.0
220
0.0
230
1.0
  0
LINE
  5
2AA
100
AcDbEntity
  8
0
370
    35
390
0
 62
     7
100
AcDbLine
 10
299.156982
 20
265.549988
 30
0.0
 11
241.498535
 21
265.549988
 31
0.0
210
0.0
220
0.0
230
1.0
  0
LINE
  5
2AB
100
AcDbEntity
  8
0
370
    35
390
0
 62
     7
 48
0.003706
100
AcDbLine
 10
241.415894
 20
265.820679
 30
0.0
 11
241.460358
 21
265.67926
 31
0.0
210
0.0
220
0.0
230
1.0
  0
LINE
  5
2AC
100
AcDbEntity
  8
0
370
    35
390
0
 62
     7
 48
0.003409
100
AcDbLine
 10
241.372681
 20
265.950012
 30
0.0
 11
241.415894
 21
265.820679
 31
0.0
210
0.0
220
0.0
230
1.0
  0
LINE
  5
2AD
100
AcDbEntity
  8
0
370
    35
390
0
 62
     7
100
AcDbLine
 10
299.156982
 20
265.950012
 30
0.0
 11
241.372681
 21
265.950012
 31
0.0
210
0.0
220
0.0
230
1.0
  0
ARC
  5
2AE
100
AcDbEntity
  8
0
370
    35
390
0
 62
     7
100
AcDbCircle
 10
233.806976
 20
263.349976
 30
0.0
 40
8.0
210
0.0
220
0.0
230
1.0
100
AcDbArc
 50
18.965574
 51
24.361978
  0
LINE
  5
2AF
100
AcDbEntity
  8
0
370
    35
390
0
 62
     7
 48
0.00875
100
AcDbLine
 10
299.156982
 20
266.349976
 30
0.0
 11
298.806976
 21
266.349976
 31
0.0
210
0.0
220
0.0
230
1.0
  0
ARC
  5
2B0
100
AcDbEntity
  8
0
370
    35
390
0
 62
     7
100
AcDbCircle
 10
298.806976
 20
267.849976
 30
0.0
 40
1.5
210
0.0
220
0.0
230
1.0
100
AcDbArc
 50
212.230947
 51
269.999997
  0
LINE
  5
2B1
100
AcDbEntity
  8
0
370
    35
390
0
 62
     7
100
AcDbLine
 10
297.906982
 20
266.649994
 30
0.0
 11
241.094635
 21
266.649994
 31
0.0
210
0.0
220
0.0
230
1.0
  0
LINE
  5
2B2
100
AcDbEntity
  8
0
370
    35
390
0
 62
     7
100
AcDbLine
 10
299.156982
 20
259.349976
 30
0.0
 11
240.735168
 21
259.349976
 31
0.0
210
0.0
220
0.0
230
1.0
  0
LINE
  5
2B3
100
AcDbEntity
  8
0
370
    35
390
0
 62
     7
100
AcDbLine
 10
299.156982
 20
260.049988
 30
0.0
 11
241.094635
 21
260.049988
 31
0.0
210
0.0
220
0.0
230
1.0
  0
LINE
  5
2B4
100
AcDbEntity
  8
0
370
    35
390
0
 62
     7
100
AcDbLine
 10
299.156982
 20
260.450012
 30
0.0
 11
241.262848
 21
260.450012
 31
0.0
210
0.0
220
0.0
230
1.0
  0
LINE
  5
2B5
100
AcDbEntity
  8
0
370
    35
390
0
 62
     7
100
AcDbLine
 10
299.156982
 20
261.149994
 30
0.0
 11
241.498535
 21
261.149994
 31
0.0
210
0.0
220
0.0
230
1.0
  0
LINE
  5
2B6
100
AcDbEntity
  8
0
370
    35
390
0
 62
     7
100
AcDbLine
 10
299.156982
 20
261.549988
 30
0.0
 11
241.601837
 21
261.549988
 31
0.0
210
0.0
220
0.0
230
1.0
  0
LINE
  5
2B7
100
AcDbEntity
  8
0
370
    35
390
0
 62
     7
100
AcDbLine
 10
299.156982
 20
262.25
 30
0.0
 11
241.730988
 21
262.25
 31
0.0
210
0.0
220
0.0
230
1.0
  0
LINE
  5
2B8
100
AcDbEntity
  8
0
370
    35
390
0
 62
     7
100
AcDbLine
 10
299.156982
 20
262.649994
 30
0.0
 11
241.776276
 21
262.649994
 31
0.0
210
0.0
220
0.0
230
1.0
  0
LINE
  5
2B9
100
AcDbEntity
  8
0
370
    35
390
0
 62
     7
100
AcDbLine
 10
299.156982
 20
263.349976
 30
0.0
 11
241.806976
 21
263.349976
 31
0.0
210
0.0
220
0.0
230
1.0
  0
LINE
  5
2BA
100
AcDbEntity
  8
0
370
    35
390
0
 62
     7
 48
0.003233
100
AcDbLine
 10
241.805908
 20
263.479279
 30
0.0
 11
241.806976
 21
263.349976
 31
0.0
210
0.0
220
0.0
230
1.0
  0
LINE
  5
2BB
100
AcDbEntity
  8
0
370
    35
390
0
 62
     7
 48
0.003537
100
AcDbLine
 10
241.802399
 20
263.620697
 30
0.0
 11
241.805908
 21
263.479279
 31
0.0
210
0.0
220
0.0
230
1.0
  0
LINE
  5
2BC
100
AcDbEntity
  8
0
370
    35
390
0
 62
     7
 48
0.003235
100
AcDbLine
 10
241.796967
 20
263.75
 30
0.0
 11
241.802399
 21
263.620697
 31
0.0
210
0.0
220
0.0
230
1.0
  0
LINE
  5
2BD
100
AcDbEntity
  8
0
370
    35
390
0
 62
     7
100
AcDbLine
 10
299.156982
 20
263.75
 30
0.0
 11
241.796967
 21
263.75
 31
0.0
210
0.0
220
0.0
230
1.0
  0
ARC
  5
2BE
100
AcDbEntity
  8
0
370
    35
390
0
 62
     7
100
AcDbCircle
 10
233.806976
 20
263.349976
 30
0.0
 40
8.0
210
0.0
220
0.0
230
1.0
100
AcDbArc
 50
2.865984
 51
7.903208
  0
LINE
  5
2BF
100
AcDbEntity
  8
0
370
    35
390
0
 62
     7
100
AcDbLine
 10
299.156982
 20
264.450012
 30
0.0
 11
241.730988
 21
264.450012
 31
0.0
210
0.0
220
0.0
230
1.0
  0
LINE
  5
2C0
100
AcDbEntity
  8
0
370
    35
390
0
 62
     7
 48
0.003267
100
AcDbLine
 10
241.711945
 20
264.579285
 30
0.0
 11
241.730988
 21
264.450012
 31
0.0
210
0.0
220
0.0
230
1.0
  0
LINE
  5
2C1
100
AcDbEntity
  8
0
370
    35
390
0
 62
     7
 48
0.003583
100
AcDbLine
 10
241.68866
 20
264.720703
 30
0.0
 11
241.711945
 21
264.579285
 31
0.0
210
0.0
220
0.0
230
1.0
  0
LINE
  5
2C2
100
AcDbEntity
  8
0
370
    35
390
0
 62
     7
 48
0.003285
100
AcDbLine
 10
241.66507
 20
264.849976
 30
0.0
 11
241.68866
 21
264.720703
 31
0.0
210
0.0
220
0.0
230
1.0
  0
LINE
  5
2C3
100
AcDbEntity
  8
0
370
    35
390
0
 62
     7
100
AcDbLine
 10
299.156982
 20
264.849976
 30
0.0
 11
241.66507
 21
264.849976
 31
0.0
210
0.0
220
0.0
230
1.0
  0
ARC
  5
2C4
100
AcDbEntity
  8
0
370
    35
390
0
 62
     7
100
AcDbCircle
 10
233.806976
 20
263.349976
 30
0.0
 40
8.0
210
0.0
220
0.0
230
1.0
100
AcDbArc
 50
10.806924
 51
15.962017
  0
LINE
  5
2C5
100
AcDbEntity
  8
0
370
    35
390
0
 62
     7
 48
0.051794
100
AcDbLine
 10
226.878754
 20
259.349976
 30
0.0
 11
224.806976
 21
259.349976
 31
0.0
210
0.0
220
0.0
230
1.0
  0
LINE
  5
2C6
100
AcDbEntity
  8
0
370
    35
390
0
 62
     7
 48
0.042809
100
AcDbLine
 10
226.519318
 20
260.049988
 30
0.0
 11
224.806976
 21
260.049988
 31
0.0
210
0.0
220
0.0
230
1.0
  0
LINE
  5
2C7
100
AcDbEntity
  8
0
370
    35
390
0
 62
     7
 48
0.038603
100
AcDbLine
 10
226.351105
 20
260.450012
 30
0.0
 11
224.806976
 21
260.450012
 31
0.0
210
0.0
220
0.0
230
1.0
  0
LINE
  5
2C8
100
AcDbEntity
  8
0
370
    35
390
0
 62
     7
 48
0.032711
100
AcDbLine
 10
226.115417
 20
261.149994
 30
0.0
 11
224.806976
 21
261.149994
 31
0.0
210
0.0
220
0.0
230
1.0
  0
LINE
  5
2C9
100
AcDbEntity
  8
0
370
    35
390
0
 62
     7
 48
0.030128
100
AcDbLine
 10
226.012085
 20
261.549988
 30
0.0
 11
224.806976
 21
261.549988
 31
0.0
210
0.0
220
0.0
230
1.0
  0
LINE
  5
2CA
100
AcDbEntity
  8
0
370
    35
390
0
 62
     7
 48
0.0269
100
AcDbLine
 10
225.882965
 20
262.25
 30
0.0
 11
224.806976
 21
262.25
 31
0.0
210
0.0
220
0.0
230
1.0
  0
LINE
  5
2CB
100
AcDbEntity
  8
0
370
    35
390
0
 62
     7
 48
0.025767
100
AcDbLine
 10
225.837646
 20
262.649994
 30
0.0
 11
224.806976
 21
262.649994
 31
0.0
210
0.0
220
0.0
230
1.0
  0
LINE
  5
2CC
100
AcDbEntity
  8
0
370
    35
390
0
 62
     7
 48
0.025
100
AcDbLine
 10
225.806976
 20
263.349976
 30
0.0
 11
224.806976
 21
263.349976
 31
0.0
210
0.0
220
0.0
230
1.0
  0
LINE
  5
2CD
100
AcDbEntity
  8
0
370
    35
390
0
 62
     7
 48
0.003233
100
AcDbLine
 10
225.808014
 20
263.479279
 30
0.0
 11
225.806976
 21
263.349976
 31
0.0
210
0.0
220
0.0
230
1.0
  0
LINE
  5
2CE
100
AcDbEntity
  8
0
370
    35
390
0
 62
     7
 48
0.003537
100
AcDbLine
 10
225.811554
 20
263.620697
 30
0.0
 11
225.808014
 21
263.479279
 31
0.0
210
0.0
220
0.0
230
1.0
  0
LINE
  5
2CF
100
AcDbEntity
  8
0
370
    35
390
0
 62
     7
 48
0.003235
100
AcDbLine
 10
225.816986
 20
263.75
 30
0.0
 11
225.811554
 21
263.620697
 31
0.0
210
0.0
220
0.0
230
1.0
  0
ARC
  5
2D0
100
AcDbEntity
  8
0
370
    35
390
0
 62
     7
100
AcDbCircle
 10
233.806976
 20
263.349976
 30
0.0
 40
8.0
210
0.0
220
0.0
230
1.0
100
AcDbArc
 50
172.096793
 51
177.134017
  0
LINE
  5
2D1
100
AcDbEntity
  8
0
370
    35
390
0
 62
     7
 48
0.003267
100
AcDbLine
 10
225.901978
 20
264.579285
 30
0.0
 11
225.882965
 21
264.450012
 31
0.0
210
0.0
220
0.0
230
1.0
  0
LINE
  5
2D2
100
AcDbEntity
  8
0
370
    35
390
0
 62
     7
 48
0.003583
100
AcDbLine
 10
225.925262
 20
264.720703
 30
0.0
 11
225.901978
 21
264.579285
 31
0.0
210
0.0
220
0.0
230
1.0
  0
LINE
  5
2D3
100
AcDbEntity
  8
0
370
    35
390
0
 62
     7
 48
0.003285
100
AcDbLine
 10
225.948853
 20
264.849976
 30
0.0
 11
225.925262
 21
264.720703
 31
0.0
210
0.0
220
0.0
230
1.0
  0
ARC
  5
2D4
100
AcDbEntity
  8
0
370
    35
390
0
 62
     7
100
AcDbCircle
 10
233.806976
 20
263.349976
 30
0.0
 40
8.0
210
0.0
220
0.0
230
1.0
100
AcDbArc
 50
164.03799
 51
169.193075
  0
LINE
  5
2D5
100
AcDbEntity
  8
0
370
    35
390
0
 62
     7
 48
0.00337
100
AcDbLine
 10
226.153564
 20
265.67926
 30
0.0
 11
226.115417
 21
265.549988
 31
0.0
210
0.0
220
0.0
230
1.0
  0
LINE
  5
2D6
100
AcDbEntity
  8
0
370
    35
390
0
 62
     7
 48
0.003706
100
AcDbLine
 10
226.198059
 20
265.820679
 30
0.0
 11
226.153564
 21
265.67926
 31
0.0
210
0.0
220
0.0
230
1.0
  0
LINE
  5
2D7
100
AcDbEntity
  8
0
370
    35
390
0
 62
     7
 48
0.003409
100
AcDbLine
 10
226.241241
 20
265.950012
 30
0.0
 11
226.198059
 21
265.820679
 31
0.0
210
0.0
220
0.0
230
1.0
  0
ARC
  5
2D8
100
AcDbEntity
  8
0
370
    35
390
0
 62
     7
100
AcDbCircle
 10
233.806976
 20
263.349976
 30
0.0
 40
8.0
210
0.0
220
0.0
230
1.0
100
AcDbArc
 50
155.638018
 51
161.034427
  0
LINE
  5
2D9
100
AcDbEntity
  8
0
370
    35
390
0
 62
     7
 48
0.003563
100
AcDbLine
 10
226.579254
 20
266.779297
 30
0.0
 11
226.519318
 21
266.649994
 31
0.0
210
0.0
220
0.0
230
1.0
  0
LINE
  5
2DA
100
AcDbEntity
  8
0
370
    35
390
0
 62
     7
 48
0.003932
100
AcDbLine
 10
226.648071
 20
266.920715
 30
0.0
 11
226.579254
 21
266.779297
 31
0.0
210
0.0
220
0.0
230
1.0
  0
LINE
  5
2DB
100
AcDbEntity
  8
0
370
    35
390
0
 62
     7
 48
0.003628
100
AcDbLine
 10
226.71402
 20
267.049988
 30
0.0
 11
226.648071
 21
266.920715
 31
0.0
210
0.0
220
0.0
230
1.0
  0
ARC
  5
2DC
100
AcDbEntity
  8
0
370
    35
390
0
 62
     7
100
AcDbCircle
 10
233.806976
 20
263.349976
 30
0.0
 40
8.0
210
0.0
220
0.0
230
1.0
100
AcDbArc
 50
146.632987
 51
152.451448
  0
LINE
  5
2DD
100
AcDbEntity
  8
0
370
    35
390
0
 62
     7
 48
0.003895
100
AcDbLine
 10
227.212616
 20
267.879272
 30
0.0
 11
227.125641
 21
267.75
 31
0.0
210
0.0
220
0.0
230
1.0
  0
LINE
  5
2DE
100
AcDbEntity
  8
0
370
    35
390
0
 62
     7
 48
0.004321
100
AcDbLine
 10
227.312012
 20
268.020691
 30
0.0
 11
227.212616
 21
267.879272
 31
0.0
210
0.0
220
0.0
230
1.0
  0
LINE
  5
2DF
100
AcDbEntity
  8
0
370
    35
390
0
 62
     7
 48
0.004011
100
AcDbLine
 10
227.406982
 20
268.149994
 30
0.0
 11
227.312012
 21
268.020691
 31
0.0
210
0.0
220
0.0
230
1.0
  0
ARC
  5
2E0
100
AcDbEntity
  8
0
370
    35
390
0
 62
     7
100
AcDbCircle
 10
233.806976
 20
263.349976
 30
0.0
 40
8.0
210
0.0
220
0.0
230
1.0
100
AcDbArc
 50
36.869897
 51
143.130097
  0
LINE
  5
2E1
100
AcDbEntity
  8
0
370
    35
390
0
 62
     7
 48
0.00401
100
AcDbLine
 10
240.20697
 20
268.149994
 30
0.0
 11
240.30191
 21
268.020691
 31
0.0
210
0.0
220
0.0
230
1.0
  0
LINE
  5
2E2
100
AcDbEntity
  8
0
370
    35
390
0
 62
     7
 48
0.004322
100
AcDbLine
 10
240.30191
 20
268.020691
 30
0.0
 11
240.401337
 21
267.879272
 31
0.0
210
0.0
220
0.0
230
1.0
  0
LINE
  5
2E3
100
AcDbEntity
  8
0
370
    35
390
0
 62
     7
 48
0.003895
100
AcDbLine
 10
240.401337
 20
267.879272
 30
0.0
 11
240.488281
 21
267.75
 31
0.0
210
0.0
220
0.0
230
1.0
  0
ARC
  5
2E4
100
AcDbEntity
  8
0
370
    35
390
0
 62
     7
100
AcDbCircle
 10
233.806976
 20
263.349976
 30
0.0
 40
8.0
210
0.0
220
0.0
230
1.0
100
AcDbArc
 50
27.548547
 51
33.367014
  0
LINE
  5
2E5
100
AcDbEntity
  8
0
370
    35
390
0
 62
     7
 48
0.003628
100
AcDbLine
 10
240.899933
 20
267.049988
 30
0.0
 11
240.965881
 21
266.920715
 31
0.0
210
0.0
220
0.0
230
1.0
  0
LINE
  5
2E6
100
AcDbEntity
  8
0
370
    35
390
0
 62
     7
 48
0.003932
100
AcDbLine
 10
240.965881
 20
266.920715
 30
0.0
 11
241.034698
 21
266.779297
 31
0.0
210
0.0
220
0.0
230
1.0
  0
LINE
  5
2E7
100
AcDbEntity
  8
0
370
    35
390
0
 62
     7
 48
0.003563
100
AcDbLine
 10
241.034698
 20
266.779297
 30
0.0
 11
241.094635
 21
266.649994
 31
0.0
210
0.0
220
0.0
230
1.0
  0
CIRCLE
  5
2E8
100
AcDbEntity
  8
0
370
    35
390
0
 62
     7
100
AcDbCircle
 10
233.806976
 20
263.349976
 30
0.0
 40
7.5
210
0.0
220
0.0
230
1.0
  0
LINE
  5
2E9
100
AcDbEntity
  8
0
370
    35
390
0
 62
     7
 48
0.0125
100
AcDbLine
 10
224.306976
 20
251.349991
 30
0.0
 11
224.806976
 21
251.349991
 31
0.0
210
0.0
220
0.0
230
1.0
  0
LINE
  5
2EA
100
AcDbEntity
  8
0
370
    35
390
0
 62
     7
 48
0.02525
100
AcDbLine
 10
225.816986
 20
263.75
 30
0.0
 11
224.806976
 21
263.75
 31
0.0
210
0.0
220
0.0
230
1.0
  0
LINE
  5
2EB
100
AcDbEntity
  8
0
370
    35
390
0
 62
     7
 48
0.0269
100
AcDbLine
 10
225.882965
 20
264.450012
 30
0.0
 11
224.806976
 21
264.450012
 31
0.0
210
0.0
220
0.0
230
1.0
  0
LINE
  5
2EC
100
AcDbEntity
  8
0
370
    35
390
0
 62
     7
 48
0.028547
100
AcDbLine
 10
225.948853
 20
264.849976
 30
0.0
 11
224.806976
 21
264.849976
 31
0.0
210
0.0
220
0.0
230
1.0
  0
LINE
  5
2ED
100
AcDbEntity
  8
0
370
    35
390
0
 62
     7
 48
0.032711
100
AcDbLine
 10
226.115417
 20
265.549988
 30
0.0
 11
224.806976
 21
265.549988
 31
0.0
210
0.0
220
0.0
230
1.0
  0
LINE
  5
2EE
100
AcDbEntity
  8
0
370
    35
390
0
 62
     7
 48
0.035857
100
AcDbLine
 10
226.241241
 20
265.950012
 30
0.0
 11
224.806976
 21
265.950012
 31
0.0
210
0.0
220
0.0
230
1.0
  0
LINE
  5
2EF
100
AcDbEntity
  8
0
370
    35
390
0
 62
     7
 48
0.042809
100
AcDbLine
 10
226.519318
 20
266.649994
 30
0.0
 11
224.806976
 21
266.649994
 31
0.0
210
0.0
220
0.0
230
1.0
  0
LINE
  5
2F0
100
AcDbEntity
  8
0
370
    35
390
0
 62
     7
 48
0.047676
100
AcDbLine
 10
226.71402
 20
267.049988
 30
0.0
 11
224.806976
 21
267.049988
 31
0.0
210
0.0
220
0.0
230
1.0
  0
LINE
  5
2F1
100
AcDbEntity
  8
0
370
    35
390
0
 62
     7
 48
0.057967
100
AcDbLine
 10
227.125641
 20
267.75
 30
0.0
 11
224.806976
 21
267.75
 31
0.0
210
0.0
220
0.0
230
1.0
  0
LINE
  5
2F2
100
AcDbEntity
  8
0
370
    35
390
0
 62
     7
 48
0.065
100
AcDbLine
 10
227.406982
 20
268.149994
 30
0.0
 11
224.806976
 21
268.149994
 31
0.0
210
0.0
220
0.0
230
1.0
  0
LINE
  5
2F3
100
AcDbEntity
  8
0
370
    35
390
0
 62
     7
100
AcDbLine
 10
297.306976
 20
268.149994
 30
0.0
 11
240.20697
 21
268.149994
 31
0.0
210
0.0
220
0.0
230
1.0
  0
LINE
  5
2F4
100
AcDbEntity
  8
0
370
    35
390
0
 62
     7
 48
0.120606
100
AcDbLine
 10
297.306976
 20
268.149994
 30
0.0
 11
297.306976
 21
272.974243
 31
0.0
210
0.0
220
0.0
230
1.0
  0
LINE
  5
2F5
100
AcDbEntity
  8
0
370
    35
390
0
 62
     7
100
AcDbLine
 10
297.306976
 20
272.974243
 30
0.0
 11
224.806976
 21
272.974243
 31
0.0
210
0.0
220
0.0
230
1.0
  0
LINE
  5
2F6
100
AcDbEntity
  8
0
370
    35
390
0
 62
     7
 48
0.012197
100
AcDbLine
 10
297.306976
 20
273.462128
 30
0.0
 11
297.306976
 21
272.974243
 31
0.0
210
0.0
220
0.0
230
1.0
  0
LINE
  5
2F7
100
AcDbEntity
  8
0
370
    35
390
0
 62
     7
 48
0.002197
100
AcDbLine
 10
297.306976
 20
273.549988
 30
0.0
 11
297.306976
 21
273.462128
 31
0.0
210
0.0
220
0.0
230
1.0
  0
LINE
  5
2F8
100
AcDbEntity
  8
0
370
    35
390
0
 62
     7
 48
0.0125
100
AcDbLine
 10
528.306946
 20
245.649994
 30
0.0
 11
528.306946
 21
245.149994
 31
0.0
210
0.0
220
0.0
230
1.0
  0
LINE
  5
2F9
100
AcDbEntity
  8
0
370
    35
390
0
 62
     7
100
AcDbLine
 10
528.306946
 20
272.742889
 30
0.0
 11
528.306946
 21
245.649994
 31
0.0
210
0.0
220
0.0
230
1.0
  0
LINE
  5
2FA
100
AcDbEntity
  8
0
370
    35
390
0
 62
     7
 48
0.008839
100
AcDbLine
 10
528.306946
 20
273.096436
 30
0.0
 11
528.306946
 21
272.742889
 31
0.0
210
0.0
220
0.0
230
1.0
  0
LINE
  5
2FB
100
AcDbEntity
  8
0
370
    35
390
0
 62
     7
 48
0.017117
100
AcDbLine
 10
528.306946
 20
273.781128
 30
0.0
 11
528.306946
 21
273.096436
 31
0.0
210
0.0
220
0.0
230
1.0
  0
LINE
  5
2FC
100
AcDbEntity
  8
0
370
    35
390
0
 62
     7
 48
0.003233
100
AcDbLine
 10
455.306976
 20
268.020691
 30
0.0
 11
455.306976
 21
268.149994
 31
0.0
210
0.0
220
0.0
230
1.0
  0
LINE
  5
2FD
100
AcDbEntity
  8
0
370
    35
390
0
 62
     7
 48
0.003535
100
AcDbLine
 10
455.306976
 20
267.879272
 30
0.0
 11
455.306976
 21
268.020691
 31
0.0
210
0.0
220
0.0
230
1.0
  0
LINE
  5
2FE
100
AcDbEntity
  8
0
370
    35
390
0
 62
     7
 48
0.000732
100
AcDbLine
 10
455.306976
 20
267.879272
 30
0.0
 11
455.306976
 21
267.849976
 31
0.0
210
0.0
220
0.0
230
1.0
  0
ARC
  5
2FF
100
AcDbEntity
  8
0
370
    35
390
0
 62
     7
100
AcDbCircle
 10
453.806976
 20
267.849976
 30
0.0
 40
1.5
210
0.0
220
0.0
230
1.0
100
AcDbArc
 50
314.454478
 51
356.177454
  0
LINE
  5
300
100
AcDbEntity
  8
0
370
    35
390
0
 62
     7
 48
0.002501
100
AcDbLine
 10
455.303619
 20
267.75
 30
0.0
 11
455.306976
 21
267.849976
 31
0.0
210
0.0
220
0.0
230
1.0
  0
LINE
  5
301
100
AcDbEntity
  8
0
370
    35
390
0
 62
     7
 48
0.02125
100
AcDbLine
 10
452.95697
 20
267.349976
 30
0.0
 11
453.806976
 21
267.349976
 31
0.0
210
0.0
220
0.0
230
1.0
  0
ARC
  5
302
100
AcDbEntity
  8
0
370
    35
390
0
 62
     7
100
AcDbCircle
 10
453.806976
 20
267.849976
 30
0.0
 40
0.5
210
0.0
220
0.0
230
1.0
100
AcDbArc
 50
269.999997
 51
360.0
  0
LINE
  5
303
100
AcDbEntity
  8
0
370
    35
390
0
 62
     7
 48
0.120606
100
AcDbLine
 10
454.306976
 20
268.149994
 30
0.0
 11
454.306976
 21
272.974243
 31
0.0
210
0.0
220
0.0
230
1.0
  0
LINE
  5
304
100
AcDbEntity
  8
0
370
    35
390
0
 62
     7
 48
0.012197
100
AcDbLine
 10
454.306976
 20
273.462128
 30
0.0
 11
454.306976
 21
272.974243
 31
0.0
210
0.0
220
0.0
230
1.0
  0
LINE
  5
305
100
AcDbEntity
  8
0
370
    35
390
0
 62
     7
 48
0.002197
100
AcDbLine
 10
454.306976
 20
273.549988
 30
0.0
 11
454.306976
 21
273.462128
 31
0.0
210
0.0
220
0.0
230
1.0
  0
LINE
  5
306
100
AcDbEntity
  8
0
370
    35
390
0
 62
     7
 48
0.000732
100
AcDbLine
 10
454.306976
 20
267.879272
 30
0.0
 11
454.306976
 21
267.849976
 31
0.0
210
0.0
220
0.0
230
1.0
  0
LINE
  5
307
100
AcDbEntity
  8
0
370
    35
390
0
 62
     7
 48
0.003535
100
AcDbLine
 10
454.306976
 20
268.020691
 30
0.0
 11
454.306976
 21
267.879272
 31
0.0
210
0.0
220
0.0
230
1.0
  0
LINE
  5
308
100
AcDbEntity
  8
0
370
    35
390
0
 62
     7
 48
0.003233
100
AcDbLine
 10
454.306976
 20
268.020691
 30
0.0
 11
454.306976
 21
268.149994
 31
0.0
210
0.0
220
0.0
230
1.0
  0
LINE
  5
309
100
AcDbEntity
  8
0
370
    35
390
0
 62
     7
 48
0.002197
100
AcDbLine
 10
448.306976
 20
273.462128
 30
0.0
 11
448.306976
 21
273.549988
 31
0.0
210
0.0
220
0.0
230
1.0
  0
LINE
  5
30A
100
AcDbEntity
  8
0
370
    35
390
0
 62
     7
 48
0.012197
100
AcDbLine
 10
448.306976
 20
273.462128
 30
0.0
 11
448.306976
 21
272.974243
 31
0.0
210
0.0
220
0.0
230
1.0
  0
LINE
  5
30B
100
AcDbEntity
  8
0
370
    35
390
0
 62
     7
 48
0.120606
100
AcDbLine
 10
448.306976
 20
268.149994
 30
0.0
 11
448.306976
 21
272.974243
 31
0.0
210
0.0
220
0.0
230
1.0
  0
LINE
  5
30C
100
AcDbEntity
  8
0
370
    35
390
0
 62
     7
 48
0.003233
100
AcDbLine
 10
448.306976
 20
268.020691
 30
0.0
 11
448.306976
 21
268.149994
 31
0.0
210
0.0
220
0.0
230
1.0
  0
LINE
  5
30D
100
AcDbEntity
  8
0
370
    35
390
0
 62
     7
 48
0.003535
100
AcDbLine
 10
448.306976
 20
267.879272
 30
0.0
 11
448.306976
 21
268.020691
 31
0.0
210
0.0
220
0.0
230
1.0
  0
LINE
  5
30E
100
AcDbEntity
  8
0
370
    35
390
0
 62
     7
 48
0.000732
100
AcDbLine
 10
448.306976
 20
267.879272
 30
0.0
 11
448.306976
 21
267.849976
 31
0.0
210
0.0
220
0.0
230
1.0
  0
ARC
  5
30F
100
AcDbEntity
  8
0
370
    35
390
0
 62
     7
100
AcDbCircle
 10
448.806976
 20
267.849976
 30
0.0
 40
0.5
210
0.0
220
0.0
230
1.0
100
AcDbArc
 50
180.000009
 51
269.999997
  0
LINE
  5
310
100
AcDbEntity
  8
0
370
    35
390
0
 62
     7
 48
0.02125
100
AcDbLine
 10
448.806976
 20
267.349976
 30
0.0
 11
449.656982
 21
267.349976
 31
0.0
210
0.0
220
0.0
230
1.0
  0
ARC
  5
311
100
AcDbEntity
  8
0
370
    35
390
0
 62
     7
100
AcDbCircle
 10
448.806976
 20
267.849976
 30
0.0
 40
1.5
210
0.0
220
0.0
230
1.0
100
AcDbArc
 50
183.822551
 51
212.230947
  0
LINE
  5
312
100
AcDbEntity
  8
0
370
    35
390
0
 62
     7
 48
0.002501
100
AcDbLine
 10
447.310303
 20
267.75
 30
0.0
 11
447.306976
 21
267.849976
 31
0.0
210
0.0
220
0.0
230
1.0
  0
LINE
  5
313
100
AcDbEntity
  8
0
370
    35
390
0
 62
     7
 48
0.120606
100
AcDbLine
 10
447.306976
 20
268.149994
 30
0.0
 11
447.306976
 21
272.974243
 31
0.0
210
0.0
220
0.0
230
1.0
  0
LINE
  5
314
100
AcDbEntity
  8
0
370
    35
390
0
 62
     7
 48
0.012197
100
AcDbLine
 10
447.306976
 20
273.462128
 30
0.0
 11
447.306976
 21
272.974243
 31
0.0
210
0.0
220
0.0
230
1.0
  0
LINE
  5
315
100
AcDbEntity
  8
0
370
    35
390
0
 62
     7
 48
0.002197
100
AcDbLine
 10
447.306976
 20
273.549988
 30
0.0
 11
447.306976
 21
273.462128
 31
0.0
210
0.0
220
0.0
230
1.0
  0
LINE
  5
316
100
AcDbEntity
  8
0
370
    35
390
0
 62
     7
 48
0.000732
100
AcDbLine
 10
447.306976
 20
267.879272
 30
0.0
 11
447.306976
 21
267.849976
 31
0.0
210
0.0
220
0.0
230
1.0
  0
LINE
  5
317
100
AcDbEntity
  8
0
370
    35
390
0
 62
     7
 48
0.003535
100
AcDbLine
 10
447.306976
 20
268.020691
 30
0.0
 11
447.306976
 21
267.879272
 31
0.0
210
0.0
220
0.0
230
1.0
  0
LINE
  5
318
100
AcDbEntity
  8
0
370
    35
390
0
 62
     7
 48
0.003233
100
AcDbLine
 10
447.306976
 20
268.020691
 30
0.0
 11
447.306976
 21
268.149994
 31
0.0
210
0.0
220
0.0
230
1.0
  0
LINE
  5
319
100
AcDbEntity
  8
0
370
    35
390
0
 62
     7
 48
0.002197
100
AcDbLine
 10
305.306976
 20
273.462128
 30
0.0
 11
305.306976
 21
273.549988
 31
0.0
210
0.0
220
0.0
230
1.0
  0
LINE
  5
31A
100
AcDbEntity
  8
0
370
    35
390
0
 62
     7
 48
0.012197
100
AcDbLine
 10
305.306976
 20
273.462128
 30
0.0
 11
305.306976
 21
272.974243
 31
0.0
210
0.0
220
0.0
230
1.0
  0
LINE
  5
31B
100
AcDbEntity
  8
0
370
    35
390
0
 62
     7
 48
0.120606
100
AcDbLine
 10
305.306976
 20
268.149994
 30
0.0
 11
305.306976
 21
272.974243
 31
0.0
210
0.0
220
0.0
230
1.0
  0
LINE
  5
31C
100
AcDbEntity
  8
0
370
    35
390
0
 62
     7
 48
0.003233
100
AcDbLine
 10
305.306976
 20
268.020691
 30
0.0
 11
305.306976
 21
268.149994
 31
0.0
210
0.0
220
0.0
230
1.0
  0
LINE
  5
31D
100
AcDbEntity
  8
0
370
    35
390
0
 62
     7
 48
0.003535
100
AcDbLine
 10
305.306976
 20
267.879272
 30
0.0
 11
305.306976
 21
268.020691
 31
0.0
210
0.0
220
0.0
230
1.0
  0
LINE
  5
31E
100
AcDbEntity
  8
0
370
    35
390
0
 62
     7
 48
0.000732
100
AcDbLine
 10
305.306976
 20
267.879272
 30
0.0
 11
305.306976
 21
267.849976
 31
0.0
210
0.0
220
0.0
230
1.0
  0
ARC
  5
31F
100
AcDbEntity
  8
0
370
    35
390
0
 62
     7
100
AcDbCircle
 10
303.806976
 20
267.849976
 30
0.0
 40
1.5
210
0.0
220
0.0
230
1.0
100
AcDbArc
 50
314.454478
 51
356.177454
  0
LINE
  5
320
100
AcDbEntity
  8
0
370
    35
390
0
 62
     7
 48
0.002501
100
AcDbLine
 10
305.30365
 20
267.75
 30
0.0
 11
305.306976
 21
267.849976
 31
0.0
210
0.0
220
0.0
230
1.0
  0
LINE
  5
321
100
AcDbEntity
  8
0
370
    35
390
0
 62
     7
 48
0.02125
100
AcDbLine
 10
302.95697
 20
267.349976
 30
0.0
 11
303.806976
 21
267.349976
 31
0.0
210
0.0
220
0.0
230
1.0
  0
ARC
  5
322
100
AcDbEntity
  8
0
370
    35
390
0
 62
     7
100
AcDbCircle
 10
303.806976
 20
267.849976
 30
0.0
 40
0.5
210
0.0
220
0.0
230
1.0
100
AcDbArc
 50
269.999997
 51
360.0
  0
LINE
  5
323
100
AcDbEntity
  8
0
370
    35
390
0
 62
     7
 48
0.120606
100
AcDbLine
 10
304.306976
 20
268.149994
 30
0.0
 11
304.306976
 21
272.974243
 31
0.0
210
0.0
220
0.0
230
1.0
  0
LINE
  5
324
100
AcDbEntity
  8
0
370
    35
390
0
 62
     7
 48
0.012197
100
AcDbLine
 10
304.306976
 20
273.462128
 30
0.0
 11
304.306976
 21
272.974243
 31
0.0
210
0.0
220
0.0
230
1.0
  0
LINE
  5
325
100
AcDbEntity
  8
0
370
    35
390
0
 62
     7
 48
0.002197
100
AcDbLine
 10
304.306976
 20
273.549988
 30
0.0
 11
304.306976
 21
273.462128
 31
0.0
210
0.0
220
0.0
230
1.0
  0
LINE
  5
326
100
AcDbEntity
  8
0
370
    35
390
0
 62
     7
 48
0.000732
100
AcDbLine
 10
304.306976
 20
267.879272
 30
0.0
 11
304.306976
 21
267.849976
 31
0.0
210
0.0
220
0.0
230
1.0
  0
LINE
  5
327
100
AcDbEntity
  8
0
370
    35
390
0
 62
     7
 48
0.003535
100
AcDbLine
 10
304.306976
 20
268.020691
 30
0.0
 11
304.306976
 21
267.879272
 31
0.0
210
0.0
220
0.0
230
1.0
  0
LINE
  5
328
100
AcDbEntity
  8
0
370
    35
390
0
 62
     7
 48
0.003233
100
AcDbLine
 10
304.306976
 20
268.020691
 30
0.0
 11
304.306976
 21
268.149994
 31
0.0
210
0.0
220
0.0
230
1.0
  0
LINE
  5
329
100
AcDbEntity
  8
0
370
    35
390
0
 62
     7
 48
0.002197
100
AcDbLine
 10
298.306976
 20
273.462128
 30
0.0
 11
298.306976
 21
273.549988
 31
0.0
210
0.0
220
0.0
230
1.0
  0
LINE
  5
32A
100
AcDbEntity
  8
0
370
    35
390
0
 62
     7
 48
0.012197
100
AcDbLine
 10
298.306976
 20
273.462128
 30
0.0
 11
298.306976
 21
272.974243
 31
0.0
210
0.0
220
0.0
230
1.0
  0
LINE
  5
32B
100
AcDbEntity
  8
0
370
    35
390
0
 62
     7
 48
0.120606
100
AcDbLine
 10
298.306976
 20
268.149994
 30
0.0
 11
298.306976
 21
272.974243
 31
0.0
210
0.0
220
0.0
230
1.0
  0
LINE
  5
32C
100
AcDbEntity
  8
0
370
    35
390
0
 62
     7
 48
0.003233
100
AcDbLine
 10
298.306976
 20
268.020691
 30
0.0
 11
298.306976
 21
268.149994
 31
0.0
210
0.0
220
0.0
230
1.0
  0
LINE
  5
32D
100
AcDbEntity
  8
0
370
    35
390
0
 62
     7
 48
0.003535
100
AcDbLine
 10
298.306976
 20
267.879272
 30
0.0
 11
298.306976
 21
268.020691
 31
0.0
210
0.0
220
0.0
230
1.0
  0
LINE
  5
32E
100
AcDbEntity
  8
0
370
    35
390
0
 62
     7
 48
0.000732
100
AcDbLine
 10
298.306976
 20
267.879272
 30
0.0
 11
298.306976
 21
267.849976
 31
0.0
210
0.0
220
0.0
230
1.0
  0
ARC
  5
32F
100
AcDbEntity
  8
0
370
    35
390
0
 62
     7
100
AcDbCircle
 10
298.806976
 20
267.849976
 30
0.0
 40
0.5
210
0.0
220
0.0
230
1.0
100
AcDbArc
 50
180.000009
 51
269.999997
  0
LINE
  5
330
100
AcDbEntity
  8
0
370
    35
390
0
 62
     7
 48
0.02125
100
AcDbLine
 10
298.806976
 20
267.349976
 30
0.0
 11
299.656982
 21
267.349976
 31
0.0
210
0.0
220
0.0
230
1.0
  0
ARC
  5
331
100
AcDbEntity
  8
0
370
    35
390
0
 62
     7
100
AcDbCircle
 10
298.806976
 20
267.849976
 30
0.0
 40
1.5
210
0.0
220
0.0
230
1.0
100
AcDbArc
 50
183.822551
 51
212.230947
  0
LINE
  5
332
100
AcDbEntity
  8
0
370
    35
390
0
 62
     7
 48
0.002501
100
AcDbLine
 10
297.310303
 20
267.75
 30
0.0
 11
297.306976
 21
267.849976
 31
0.0
210
0.0
220
0.0
230
1.0
  0
LINE
  5
333
100
AcDbEntity
  8
0
370
    35
390
0
 62
     7
 48
0.000732
100
AcDbLine
 10
297.306976
 20
267.879272
 30
0.0
 11
297.306976
 21
267.849976
 31
0.0
210
0.0
220
0.0
230
1.0
  0
LINE
  5
334
100
AcDbEntity
  8
0
370
    35
390
0
 62
     7
 48
0.003535
100
AcDbLine
 10
297.306976
 20
268.020691
 30
0.0
 11
297.306976
 21
267.879272
 31
0.0
210
0.0
220
0.0
230
1.0
  0
LINE
  5
335
100
AcDbEntity
  8
0
370
    35
390
0
 62
     7
 48
0.003233
100
AcDbLine
 10
297.306976
 20
268.020691
 30
0.0
 11
297.306976
 21
268.149994
 31
0.0
210
0.0
220
0.0
230
1.0
  0
LINE
  5
336
100
AcDbEntity
  8
0
370
    35
390
0
 62
     7
 48
0.017117
100
AcDbLine
 10
224.306976
 20
273.096436
 30
0.0
 11
224.306976
 21
273.781128
 31
0.0
210
0.0
220
0.0
230
1.0
  0
LINE
  5
337
100
AcDbEntity
  8
0
370
    35
390
0
 62
     7
 48
0.008839
100
AcDbLine
 10
224.306976
 20
272.742889
 30
0.0
 11
224.306976
 21
273.096436
 31
0.0
210
0.0
220
0.0
230
1.0
  0
LINE
  5
338
100
AcDbEntity
  8
0
370
    35
390
0
 62
     7
100
AcDbLine
 10
224.306976
 20
245.649994
 30
0.0
 11
224.306976
 21
272.742889
 31
0.0
210
0.0
220
0.0
230
1.0
  0
LINE
  5
339
100
AcDbEntity
  8
0
370
    35
390
0
 62
     7
 48
0.0125
100
AcDbLine
 10
224.306976
 20
245.149994
 30
0.0
 11
224.306976
 21
245.649994
 31
0.0
210
0.0
220
0.0
230
1.0
  0
LINE
  5
33A
100
AcDbEntity
  8
0
370
    35
390
0
 62
     7
 48
0.064221
100
AcDbLine
 10
528.306946
 20
276.349976
 30
0.0
 11
528.306946
 21
273.781128
 31
0.0
210
0.0
220
0.0
230
1.0
  0
LINE
  5
33B
100
AcDbEntity
  8
0
370
    35
390
0
 62
     7
100
AcDbLine
 10
224.306976
 20
276.349976
 30
0.0
 11
528.306946
 21
276.349976
 31
0.0
210
0.0
220
0.0
230
1.0
  0
LINE
  5
33C
100
AcDbEntity
  8
0
370
    35
390
0
 62
     7
 48
0.064221
100
AcDbLine
 10
224.306976
 20
276.349976
 30
0.0
 11
224.306976
 21
273.781128
 31
0.0
210
0.0
220
0.0
230
1.0
  0
LINE
  5
33D
100
AcDbEntity
  8
0
370
    35
390
0
 62
     7
 48
0.0125
100
AcDbLine
 10
528.306946
 20
246.849991
 30
0.0
 11
527.806946
 21
246.849991
 31
0.0
210
0.0
220
0.0
230
1.0
  0
LINE
  5
33E
100
AcDbEntity
  8
0
370
    35
390
0
 62
     7
100
AcDbLine
 10
511.71402
 20
267.049988
 30
0.0
 11
455.075836
 21
267.049988
 31
0.0
210
0.0
220
0.0
230
1.0
  0
LINE
  5
33F
100
AcDbEntity
  8
0
370
    35
390
0
 62
     7
100
AcDbLine
 10
512.125671
 20
267.75
 30
0.0
 11
455.303619
 21
267.75
 31
0.0
210
0.0
220
0.0
230
1.0
  0
LINE
  5
340
100
AcDbEntity
  8
0
370
    35
390
0
 62
     7
 48
0.059587
100
AcDbLine
 10
452.498718
 20
267.049988
 30
0.0
 11
450.115234
 21
267.049988
 31
0.0
210
0.0
220
0.0
230
1.0
  0
LINE
  5
341
100
AcDbEntity
  8
0
370
    35
390
0
 62
     7
 48
0.052387
100
AcDbLine
 10
454.296875
 20
267.75
 30
0.0
 11
452.201385
 21
267.75
 31
0.0
210
0.0
220
0.0
230
1.0
  0
ARC
  5
342
100
AcDbEntity
  8
0
370
    35
390
0
 62
     7
100
AcDbCircle
 10
451.306976
 20
269.649994
 30
0.0
 40
2.1
210
0.0
220
0.0
230
1.0
100
AcDbArc
 50
237.479124
 51
295.208757
  0
LINE
  5
343
100
AcDbEntity
  8
0
370
    35
390
0
 62
     7
 48
0.052386
100
AcDbLine
 10
450.412537
 20
267.75
 30
0.0
 11
448.317078
 21
267.75
 31
0.0
210
0.0
220
0.0
230
1.0
  0
LINE
  5
344
100
AcDbEntity
  8
0
370
    35
390
0
 62
     7
 48
0.059587
100
AcDbLine
 10
302.498718
 20
267.049988
 30
0.0
 11
300.115234
 21
267.049988
 31
0.0
210
0.0
220
0.0
230
1.0
  0
LINE
  5
345
100
AcDbEntity
  8
0
370
    35
390
0
 62
     7
 48
0.052387
100
AcDbLine
 10
304.296875
 20
267.75
 30
0.0
 11
302.201385
 21
267.75
 31
0.0
210
0.0
220
0.0
230
1.0
  0
ARC
  5
346
100
AcDbEntity
  8
0
370
    35
390
0
 62
     7
100
AcDbCircle
 10
301.306976
 20
269.649994
 30
0.0
 40
2.1
210
0.0
220
0.0
230
1.0
100
AcDbArc
 50
237.479124
 51
295.208757
  0
LINE
  5
347
100
AcDbEntity
  8
0
370
    35
390
0
 62
     7
 48
0.052386
100
AcDbLine
 10
300.412537
 20
267.75
 30
0.0
 11
298.317078
 21
267.75
 31
0.0
210
0.0
220
0.0
230
1.0
  0
LINE
  5
348
100
AcDbEntity
  8
0
370
    35
390
0
 62
     7
100
AcDbLine
 10
297.310303
 20
267.75
 30
0.0
 11
240.488281
 21
267.75
 31
0.0
210
0.0
220
0.0
230
1.0
  0
LINE
  5
349
100
AcDbEntity
  8
0
370
    35
390
0
 62
     7
100
AcDbLine
 10
297.538116
 20
267.049988
 30
0.0
 11
240.899933
 21
267.049988
 31
0.0
210
0.0
220
0.0
230
1.0
  0
LINE
  5
34A
100
AcDbEntity
  8
0
370
    35
390
0
 62
     7
 48
0.0125
100
AcDbLine
 10
224.306976
 20
246.849991
 30
0.0
 11
224.806976
 21
246.849991
 31
0.0
210
0.0
220
0.0
230
1.0
  0
LINE
  5
34B
100
AcDbEntity
  8
0
370
    35
390
0
 62
     7
 48
0.093341
100
AcDbLine
 10
448.994446
 20
246.680359
 30
0.0
 11
450.294464
 21
250.180359
 31
0.0
210
0.0
220
0.0
230
1.0
  0
ARC
  5
34C
100
AcDbEntity
  8
0
370
    35
390
0
 62
     7
100
AcDbCircle
 10
448.806976
 20
246.75
 30
0.0
 40
0.2
210
0.0
220
0.0
230
1.0
100
AcDbArc
 50
200.37643
 51
339.623562
  0
LINE
  5
34D
100
AcDbEntity
  8
0
370
    35
390
0
 62
     7
 48
0.093341
100
AcDbLine
 10
447.319489
 20
250.180359
 30
0.0
 11
448.619476
 21
246.680359
 31
0.0
210
0.0
220
0.0
230
1.0
  0
ARC
  5
34E
100
AcDbEntity
  8
0
370
    35
390
0
 62
     7
100
AcDbCircle
 10
447.506958
 20
250.25
 30
0.0
 40
0.2
210
0.0
220
0.0
230
1.0
100
AcDbArc
 50
90.000003
 51
200.37643
  0
LINE
  5
34F
100
AcDbEntity
  8
0
370
    35
390
0
 62
     7
 48
0.065
100
AcDbLine
 10
450.106964
 20
250.449982
 30
0.0
 11
447.506958
 21
250.449982
 31
0.0
210
0.0
220
0.0
230
1.0
  0
ARC
  5
350
100
AcDbEntity
  8
0
370
    35
390
0
 62
     7
100
AcDbCircle
 10
450.106964
 20
250.25
 30
0.0
 40
0.2
210
0.0
220
0.0
230
1.0
100
AcDbArc
 50
339.623562
 51
90.000003
  0
LINE
  5
351
100
AcDbEntity
  8
0
370
    35
390
0
 62
     7
 48
0.093341
100
AcDbLine
 10
278.994446
 20
246.680359
 30
0.0
 11
280.294464
 21
250.180359
 31
0.0
210
0.0
220
0.0
230
1.0
  0
ARC
  5
352
100
AcDbEntity
  8
0
370
    35
390
0
 62
     7
100
AcDbCircle
 10
278.806976
 20
246.75
 30
0.0
 40
0.2
210
0.0
220
0.0
230
1.0
100
AcDbArc
 50
200.37643
 51
339.623562
  0
LINE
  5
353
100
AcDbEntity
  8
0
370
    35
390
0
 62
     7
 48
0.093341
100
AcDbLine
 10
277.319489
 20
250.180359
 30
0.0
 11
278.619476
 21
246.680359
 31
0.0
210
0.0
220
0.0
230
1.0
  0
ARC
  5
354
100
AcDbEntity
  8
0
370
    35
390
0
 62
     7
100
AcDbCircle
 10
277.506958
 20
250.25
 30
0.0
 40
0.2
210
0.0
220
0.0
230
1.0
100
AcDbArc
 50
90.000003
 51
200.37643
  0
LINE
  5
355
100
AcDbEntity
  8
0
370
    35
390
0
 62
     7
 48
0.065
100
AcDbLine
 10
280.106964
 20
250.449982
 30
0.0
 11
277.506958
 21
250.449982
 31
0.0
210
0.0
220
0.0
230
1.0
  0
ARC
  5
356
100
AcDbEntity
  8
0
370
    35
390
0
 62
     7
100
AcDbCircle
 10
280.106964
 20
250.25
 30
0.0
 40
0.2
210
0.0
220
0.0
230
1.0
100
AcDbArc
 50
339.623562
 51
90.000003
  0
LINE
  5
357
100
AcDbEntity
  8
0
370
    35
390
0
 62
     7
 48
0.025
100
AcDbLine
 10
529.306946
 20
245.149994
 30
0.0
 11
528.306946
 21
245.149994
 31
0.0
210
0.0
220
0.0
230
1.0
  0
LINE
  5
358
100
AcDbEntity
  8
0
370
    35
390
0
 62
     7
 48
0.0125
100
AcDbLine
 10
527.806946
 20
245.349991
 30
0.0
 11
528.306946
 21
245.349991
 31
0.0
210
0.0
220
0.0
230
1.0
  0
LINE
  5
359
100
AcDbEntity
  8
0
370
    35
390
0
 62
     7
 48
0.003151
100
AcDbLine
 10
452.201385
 20
267.75
 30
0.0
 11
452.313751
 21
267.807068
 31
0.0
210
0.0
220
0.0
230
1.0
  0
ARC
  5
35A
100
AcDbEntity
  8
0
370
    35
390
0
 62
     7
100
AcDbCircle
 10
451.306976
 20
269.649994
 30
0.0
 40
2.1
210
0.0
220
0.0
230
1.0
100
AcDbArc
 50
298.647887
 51
314.415304
  0
LINE
  5
35B
100
AcDbEntity
  8
0
370
    35
390
0
 62
     7
 48
0.038258
100
AcDbLine
 10
449.83728
 20
268.149994
 30
0.0
 11
448.306976
 21
268.149994
 31
0.0
210
0.0
220
0.0
230
1.0
  0
ARC
  5
35C
100
AcDbEntity
  8
0
370
    35
390
0
 62
     7
100
AcDbCircle
 10
451.306976
 20
269.649994
 30
0.0
 40
2.1
210
0.0
220
0.0
230
1.0
100
AcDbArc
 50
314.415304
 51
237.479124
  0
LINE
  5
35D
100
AcDbEntity
  8
0
370
    35
390
0
 62
     7
 48
0.038258
100
AcDbLine
 10
454.306976
 20
268.149994
 30
0.0
 11
452.776672
 21
268.149994
 31
0.0
210
0.0
220
0.0
230
1.0
  0
LINE
  5
35E
100
AcDbEntity
  8
0
370
    35
390
0
 62
     7
 48
0.15
100
AcDbLine
 10
454.306976
 20
272.974243
 30
0.0
 11
448.306976
 21
272.974243
 31
0.0
210
0.0
220
0.0
230
1.0
  0
LINE
  5
35F
100
AcDbEntity
  8
0
370
    35
390
0
 62
     7
100
AcDbLine
 10
447.538116
 20
267.049988
 30
0.0
 11
305.075836
 21
267.049988
 31
0.0
210
0.0
220
0.0
230
1.0
  0
LINE
  5
360
100
AcDbEntity
  8
0
370
    35
390
0
 62
     7
100
AcDbLine
 10
447.310303
 20
267.75
 30
0.0
 11
305.30365
 21
267.75
 31
0.0
210
0.0
220
0.0
230
1.0
  0
LINE
  5
361
100
AcDbEntity
  8
0
370
    35
390
0
 62
     7
100
AcDbLine
 10
447.306976
 20
268.149994
 30
0.0
 11
305.306976
 21
268.149994
 31
0.0
210
0.0
220
0.0
230
1.0
  0
LINE
  5
362
100
AcDbEntity
  8
0
370
    35
390
0
 62
     7
100
AcDbLine
 10
447.306976
 20
272.974243
 30
0.0
 11
305.306976
 21
272.974243
 31
0.0
210
0.0
220
0.0
230
1.0
  0
LINE
  5
363
100
AcDbEntity
  8
0
370
    35
390
0
 62
     7
 48
0.003151
100
AcDbLine
 10
302.201385
 20
267.75
 30
0.0
 11
302.313751
 21
267.807068
 31
0.0
210
0.0
220
0.0
230
1.0
  0
ARC
  5
364
100
AcDbEntity
  8
0
370
    35
390
0
 62
     7
100
AcDbCircle
 10
301.306976
 20
269.649994
 30
0.0
 40
2.1
210
0.0
220
0.0
230
1.0
100
AcDbArc
 50
298.647887
 51
314.415304
  0
ARC
  5
365
100
AcDbEntity
  8
0
370
    35
390
0
 62
     7
100
AcDbCircle
 10
301.306976
 20
269.649994
 30
0.0
 40
2.1
210
0.0
220
0.0
230
1.0
100
AcDbArc
 50
314.415304
 51
237.479124
  0
LINE
  5
366
100
AcDbEntity
  8
0
370
    35
390
0
 62
     7
 48
0.038258
100
AcDbLine
 10
304.306976
 20
268.149994
 30
0.0
 11
302.776672
 21
268.149994
 31
0.0
210
0.0
220
0.0
230
1.0
  0
LINE
  5
367
100
AcDbEntity
  8
0
370
    35
390
0
 62
     7
 48
0.15
100
AcDbLine
 10
304.306976
 20
272.974243
 30
0.0
 11
298.306976
 21
272.974243
 31
0.0
210
0.0
220
0.0
230
1.0
  0
LINE
  5
368
100
AcDbEntity
  8
0
370
    35
390
0
 62
     7
 48
0.038258
100
AcDbLine
 10
299.83728
 20
268.149994
 30
0.0
 11
298.306976
 21
268.149994
 31
0.0
210
0.0
220
0.0
230
1.0
  0
LINE
  5
369
100
AcDbEntity
  8
0
370
    35
390
0
 62
     7
 48
0.025
100
AcDbLine
 10
223.306976
 20
245.149994
 30
0.0
 11
224.306976
 21
245.149994
 31
0.0
210
0.0
220
0.0
230
1.0
  0
LINE
  5
36A
100
AcDbEntity
  8
0
370
    35
390
0
 62
     7
 48
0.0125
100
AcDbLine
 10
224.306976
 20
245.349991
 30
0.0
 11
224.806976
 21
245.349991
 31
0.0
210
0.0
220
0.0
230
1.0
  0
CIRCLE
  5
36B
100
AcDbEntity
  8
0
370
    35
390
0
 62
     7
100
AcDbCircle
 10
518.806946
 20
263.349976
 30
0.0
 40
4.5
210
0.0
220
0.0
230
1.0
  0
CIRCLE
  5
36C
100
AcDbEntity
  8
0
370
    35
390
0
 62
     7
100
AcDbCircle
 10
233.806976
 20
263.349976
 30
0.0
 40
4.5
210
0.0
220
0.0
230
1.0
  0
ARC
  5
36D
100
AcDbEntity
  8
0
370
    35
390
0
 62
     7
100
AcDbCircle
 10
529.306946
 20
246.149994
 30
0.0
 40
1.0
210
0.0
220
0.0
230
1.0
100
AcDbArc
 50
269.999997
 51
360.0
  0
LINE
  5
36E
100
AcDbEntity
  8
0
370
    35
390
0
 62
     7
100
AcDbLine
 10
530.306946
 20
272.535767
 30
0.0
 11
530.306946
 21
246.149994
 31
0.0
210
0.0
220
0.0
230
1.0
  0
LINE
  5
36F
100
AcDbEntity
  8
0
370
    35
390
0
 62
     7
 48
0.01739
100
AcDbLine
 10
530.306946
 20
273.231384
 30
0.0
 11
530.306946
 21
272.535767
 31
0.0
210
0.0
220
0.0
230
1.0
  0
LINE
  5
370
100
AcDbEntity
  8
0
370
    35
390
0
 62
     7
 48
0.01739
100
AcDbLine
 10
222.306976
 20
272.535767
 30
0.0
 11
222.306976
 21
273.231384
 31
0.0
210
0.0
220
0.0
230
1.0
  0
LINE
  5
371
100
AcDbEntity
  8
0
370
    35
390
0
 62
     7
100
AcDbLine
 10
222.306976
 20
246.149994
 30
0.0
 11
222.306976
 21
272.535767
 31
0.0
210
0.0
220
0.0
230
1.0
  0
ARC
  5
372
100
AcDbEntity
  8
0
370
    35
390
0
 62
     7
100
AcDbCircle
 10
223.306976
 20
246.149994
 30
0.0
 40
1.0
210
0.0
220
0.0
230
1.0
100
AcDbArc
 50
180.000009
 51
269.999997
  0
LINE
  5
373
100
AcDbEntity
  8
0
370
    35
390
0
 62
     7
 48
0.025
100
AcDbLine
 10
529.306946
 20
276.149994
 30
0.0
 11
528.306946
 21
276.149994
 31
0.0
210
0.0
220
0.0
230
1.0
  0
LINE
  5
374
100
AcDbEntity
  8
0
370
    35
390
0
 62
     7
 48
0.025
100
AcDbLine
 10
223.306976
 20
276.149994
 30
0.0
 11
224.306976
 21
276.149994
 31
0.0
210
0.0
220
0.0
230
1.0
  0
LINE
  5
375
100
AcDbEntity
  8
0
370
    35
390
0
 62
     7
 48
0.014363
100
AcDbLine
 10
530.306946
 20
273.805908
 30
0.0
 11
530.306946
 21
273.231384
 31
0.0
210
0.0
220
0.0
230
1.0
  0
LINE
  5
376
100
AcDbEntity
  8
0
370
    35
390
0
 62
     7
 48
0.033602
100
AcDbLine
 10
530.306946
 20
275.149994
 30
0.0
 11
530.306946
 21
273.805908
 31
0.0
210
0.0
220
0.0
230
1.0
  0
LINE
  5
377
100
AcDbEntity
  8
0
370
    35
390
0
 62
     7
 48
0.014363
100
AcDbLine
 10
222.306976
 20
273.231384
 30
0.0
 11
222.306976
 21
273.805908
 31
0.0
210
0.0
220
0.0
230
1.0
  0
LINE
  5
378
100
AcDbEntity
  8
0
370
    35
390
0
 62
     7
 48
0.033602
100
AcDbLine
 10
222.306976
 20
273.805908
 30
0.0
 11
222.306976
 21
275.149994
 31
0.0
210
0.0
220
0.0
230
1.0
  0
ARC
  5
379
100
AcDbEntity
  8
0
370
    35
390
0
 62
     7
100
AcDbCircle
 10
518.806946
 20
264.049988
 30
0.0
 40
12.8
210
0.0
220
0.0
230
1.0
100
AcDbArc
 50
73.932611
 51
106.067387
  0
ARC
  5
37A
100
AcDbEntity
  8
0
370
    35
390
0
 62
     7
100
AcDbCircle
 10
233.806976
 20
264.049988
 30
0.0
 40
12.8
210
0.0
220
0.0
230
1.0
100
AcDbArc
 50
73.932611
 51
106.067387
  0
ARC
  5
37B
100
AcDbEntity
  8
0
370
    35
390
0
 62
     7
100
AcDbCircle
 10
529.306946
 20
275.149994
 30
0.0
 40
1.0
210
0.0
220
0.0
230
1.0
100
AcDbArc
 50
0.0
 51
90.000003
  0
ARC
  5
37C
100
AcDbEntity
  8
0
370
    35
390
0
 62
     7
100
AcDbCircle
 10
223.306976
 20
275.149994
 30
0.0
 40
1.0
210
0.0
220
0.0
230
1.0
100
AcDbArc
 50
90.000003
 51
180.000009
  0
CIRCLE
  5
37D
100
AcDbEntity
  8
0
370
    35
390
0
 62
     7
100
AcDbCircle
 10
451.306976
 20
269.649994
 30
0.0
 40
2.0
210
0.0
220
0.0
230
1.0
  0
CIRCLE
  5
37E
100
AcDbEntity
  8
0
370
    35
390
0
 62
     7
100
AcDbCircle
 10
301.306976
 20
269.649994
 30
0.0
 40
2.0
210
0.0
220
0.0
230
1.0
  0
LINE
  5
37F
100
AcDbEntity
  8
0
370
    35
390
0
 62
     7
 48
0.0125
100
AcDbLine
 10
451.506958
 20
270.349976
 30
0.0
 11
451.506958
 21
270.849976
 31
0.0
210
0.0
220
0.0
230
1.0
  0
LINE
  5
380
100
AcDbEntity
  8
0
370
    35
390
0
 62
     7
 48
0.01
100
AcDbLine
 10
451.506958
 20
270.849976
 30
0.0
 11
451.106964
 21
270.849976
 31
0.0
210
0.0
220
0.0
230
1.0
  0
LINE
  5
381
100
AcDbEntity
  8
0
370
    35
390
0
 62
     7
 48
0.0125
100
AcDbLine
 10
451.106964
 20
270.849976
 30
0.0
 11
451.106964
 21
270.349976
 31
0.0
210
0.0
220
0.0
230
1.0
  0
ARC
  5
382
100
AcDbEntity
  8
0
370
    35
390
0
 62
     7
100
AcDbCircle
 10
450.606964
 20
270.349976
 30
0.0
 40
0.5
210
0.0
220
0.0
230
1.0
100
AcDbArc
 50
269.999997
 51
360.0
  0
LINE
  5
383
100
AcDbEntity
  8
0
370
    35
390
0
 62
     7
 48
0.0125
100
AcDbLine
 10
450.606964
 20
269.849976
 30
0.0
 11
450.106964
 21
269.849976
 31
0.0
210
0.0
220
0.0
230
1.0
  0
LINE
  5
384
100
AcDbEntity
  8
0
370
    35
390
0
 62
     7
 48
0.009999
100
AcDbLine
 10
450.106964
 20
269.849976
 30
0.0
 11
450.106964
 21
269.450012
 31
0.0
210
0.0
220
0.0
230
1.0
  0
LINE
  5
385
100
AcDbEntity
  8
0
370
    35
390
0
 62
     7
 48
0.0125
100
AcDbLine
 10
450.106964
 20
269.450012
 30
0.0
 11
450.606964
 21
269.450012
 31
0.0
210
0.0
220
0.0
230
1.0
  0
ARC
  5
386
100
AcDbEntity
  8
0
370
    35
390
0
 62
     7
100
AcDbCircle
 10
450.606964
 20
268.950012
 30
0.0
 40
0.5
210
0.0
220
0.0
230
1.0
100
AcDbArc
 50
0.0
 51
90.000003
  0
LINE
  5
387
100
AcDbEntity
  8
0
370
    35
390
0
 62
     7
 48
0.0125
100
AcDbLine
 10
451.106964
 20
268.950012
 30
0.0
 11
451.106964
 21
268.450012
 31
0.0
210
0.0
220
0.0
230
1.0
  0
LINE
  5
388
100
AcDbEntity
  8
0
370
    35
390
0
 62
     7
 48
0.01
100
AcDbLine
 10
451.106964
 20
268.450012
 30
0.0
 11
451.506958
 21
268.450012
 31
0.0
210
0.0
220
0.0
230
1.0
  0
LINE
  5
389
100
AcDbEntity
  8
0
370
    35
390
0
 62
     7
 48
0.0125
100
AcDbLine
 10
451.506958
 20
268.450012
 30
0.0
 11
451.506958
 21
268.950012
 31
0.0
210
0.0
220
0.0
230
1.0
  0
ARC
  5
38A
100
AcDbEntity
  8
0
370
    35
390
0
 62
     7
100
AcDbCircle
 10
452.006958
 20
268.950012
 30
0.0
 40
0.5
210
0.0
220
0.0
230
1.0
100
AcDbArc
 50
90.000003
 51
180.000009
  0
LINE
  5
38B
100
AcDbEntity
  8
0
370
    35
390
0
 62
     7
 48
0.0125
100
AcDbLine
 10
452.006958
 20
269.450012
 30
0.0
 11
452.506958
 21
269.450012
 31
0.0
210
0.0
220
0.0
230
1.0
  0
LINE
  5
38C
100
AcDbEntity
  8
0
370
    35
390
0
 62
     7
 48
0.009999
100
AcDbLine
 10
452.506958
 20
269.450012
 30
0.0
 11
452.506958
 21
269.849976
 31
0.0
210
0.0
220
0.0
230
1.0
  0
LINE
  5
38D
100
AcDbEntity
  8
0
370
    35
390
0
 62
     7
 48
0.0125
100
AcDbLine
 10
452.506958
 20
269.849976
 30
0.0
 11
452.006958
 21
269.849976
 31
0.0
210
0.0
220
0.0
230
1.0
  0
ARC
  5
38E
100
AcDbEntity
  8
0
370
    35
390
0
 62
     7
100
AcDbCircle
 10
452.006958
 20
270.349976
 30
0.0
 40
0.5
210
0.0
220
0.0
230
1.0
100
AcDbArc
 50
180.000009
 51
269.999997
  0
LINE
  5
38F
100
AcDbEntity
  8
0
370
    35
390
0
 62
     7
 48
0.0125
100
AcDbLine
 10
301.506958
 20
270.349976
 30
0.0
 11
301.506958
 21
270.849976
 31
0.0
210
0.0
220
0.0
230
1.0
  0
LINE
  5
390
100
AcDbEntity
  8
0
370
    35
390
0
 62
     7
 48
0.01
100
AcDbLine
 10
301.506958
 20
270.849976
 30
0.0
 11
301.106964
 21
270.849976
 31
0.0
210
0.0
220
0.0
230
1.0
  0
LINE
  5
391
100
AcDbEntity
  8
0
370
    35
390
0
 62
     7
 48
0.0125
100
AcDbLine
 10
301.106964
 20
270.849976
 30
0.0
 11
301.106964
 21
270.349976
 31
0.0
210
0.0
220
0.0
230
1.0
  0
ARC
  5
392
100
AcDbEntity
  8
0
370
    35
390
0
 62
     7
100
AcDbCircle
 10
300.606964
 20
270.349976
 30
0.0
 40
0.5
210
0.0
220
0.0
230
1.0
100
AcDbArc
 50
269.999997
 51
360.0
  0
LINE
  5
393
100
AcDbEntity
  8
0
370
    35
390
0
 62
     7
 48
0.0125
100
AcDbLine
 10
300.606964
 20
269.849976
 30
0.0
 11
300.106964
 21
269.849976
 31
0.0
210
0.0
220
0.0
230
1.0
  0
LINE
  5
394
100
AcDbEntity
  8
0
370
    35
390
0
 62
     7
 48
0.009999
100
AcDbLine
 10
300.106964
 20
269.849976
 30
0.0
 11
300.106964
 21
269.450012
 31
0.0
210
0.0
220
0.0
230
1.0
  0
LINE
  5
395
100
AcDbEntity
  8
0
370
    35
390
0
 62
     7
 48
0.0125
100
AcDbLine
 10
300.106964
 20
269.450012
 30
0.0
 11
300.606964
 21
269.450012
 31
0.0
210
0.0
220
0.0
230
1.0
  0
ARC
  5
396
100
AcDbEntity
  8
0
370
    35
390
0
 62
     7
100
AcDbCircle
 10
300.606964
 20
268.950012
 30
0.0
 40
0.5
210
0.0
220
0.0
230
1.0
100
AcDbArc
 50
0.0
 51
90.000003
  0
LINE
  5
397
100
AcDbEntity
  8
0
370
    35
390
0
 62
     7
 48
0.0125
100
AcDbLine
 10
301.106964
 20
268.950012
 30
0.0
 11
301.106964
 21
268.450012
 31
0.0
210
0.0
220
0.0
230
1.0
  0
LINE
  5
398
100
AcDbEntity
  8
0
370
    35
390
0
 62
     7
 48
0.01
100
AcDbLine
 10
301.106964
 20
268.450012
 30
0.0
 11
301.506958
 21
268.450012
 31
0.0
210
0.0
220
0.0
230
1.0
  0
LINE
  5
399
100
AcDbEntity
  8
0
370
    35
390
0
 62
     7
 48
0.0125
100
AcDbLine
 10
301.506958
 20
268.450012
 30
0.0
 11
301.506958
 21
268.950012
 31
0.0
210
0.0
220
0.0
230
1.0
  0
ARC
  5
39A
100
AcDbEntity
  8
0
370
    35
390
0
 62
     7
100
AcDbCircle
 10
302.006958
 20
268.950012
 30
0.0
 40
0.5
210
0.0
220
0.0
230
1.0
100
AcDbArc
 50
90.000003
 51
180.000009
  0
LINE
  5
39B
100
AcDbEntity
  8
0
370
    35
390
0
 62
     7
 48
0.0125
100
AcDbLine
 10
302.006958
 20
269.450012
 30
0.0
 11
302.506958
 21
269.450012
 31
0.0
210
0.0
220
0.0
230
1.0
  0
LINE
  5
39C
100
AcDbEntity
  8
0
370
    35
390
0
 62
     7
 48
0.009999
100
AcDbLine
 10
302.506958
 20
269.450012
 30
0.0
 11
302.506958
 21
269.849976
 31
0.0
210
0.0
220
0.0
230
1.0
  0
LINE
  5
39D
100
AcDbEntity
  8
0
370
    35
390
0
 62
     7
 48
0.0125
100
AcDbLine
 10
302.506958
 20
269.849976
 30
0.0
 11
302.006958
 21
269.849976
 31
0.0
210
0.0
220
0.0
230
1.0
  0
ARC
  5
39E
100
AcDbEntity
  8
0
370
    35
390
0
 62
     7
100
AcDbCircle
 10
302.006958
 20
270.349976
 30
0.0
 40
0.5
210
0.0
220
0.0
230
1.0
100
AcDbArc
 50
180.000009
 51
269.999997
  0
LINE
  5
39F
100
AcDbEntity
  8
0
370
    35
390
0
 62
     7
 48
0.0725
100
AcDbLine
 10
530.306946
 20
249.799988
 30
0.0
 11
530.306946
 21
252.699982
 31
0.0
210
0.0
220
0.0
230
1.0
  0
LINE
  5
3A0
100
AcDbEntity
  8
0
370
    35
390
0
 62
     7
 48
0.0725
100
AcDbLine
 10
530.306946
 20
254.0
 30
0.0
 11
530.306946
 21
256.899994
 31
0.0
210
0.0
220
0.0
230
1.0
  0
LINE
  5
3A1
100
AcDbEntity
  8
0
370
    35
390
0
 62
     7
100
AcDbLine
 10
455.306976
 20
273.549988
 30
0.0
 11
527.806946
 21
273.549988
 31
0.0
210
0.0
220
0.0
230
1.0
  0
LINE
  5
3A2
100
AcDbEntity
  8
0
370
    35
390
0
 62
     7
100
AcDbLine
 10
224.806976
 20
273.549988
 30
0.0
 11
297.306976
 21
273.549988
 31
0.0
210
0.0
220
0.0
230
1.0
  0
LINE
  5
3A3
100
AcDbEntity
  8
0
370
    35
390
0
 62
     7
 48
0.15
100
AcDbLine
 10
448.306976
 20
273.549988
 30
0.0
 11
454.306976
 21
273.549988
 31
0.0
210
0.0
220
0.0
230
1.0
  0
LINE
  5
3A4
100
AcDbEntity
  8
0
370
    35
390
0
 62
     7
100
AcDbLine
 10
305.306976
 20
273.549988
 30
0.0
 11
447.306976
 21
273.549988
 31
0.0
210
0.0
220
0.0
230
1.0
  0
LINE
  5
3A5
100
AcDbEntity
  8
0
370
    35
390
0
 62
     7
 48
0.15
100
AcDbLine
 10
298.306976
 20
273.549988
 30
0.0
 11
304.306976
 21
273.549988
 31
0.0
210
0.0
220
0.0
230
1.0
  0
LINE
  5
3A6
100
AcDbEntity
  8
0
370
    35
390
0
 62
     7
 48
0.007253
100
AcDbLine
 10
357.70697
 20
242.849869
 30
0.0
 11
357.70697
 21
243.139984
 31
0.0
210
0.0
220
0.0
230
1.0
  0
LINE
  5
3A7
100
AcDbEntity
  8
0
370
    35
390
0
 62
     7
 48
0.007129
100
AcDbLine
 10
357.70697
 20
243.139984
 30
0.0
 11
357.506958
 21
243.343231
 31
0.0
210
0.0
220
0.0
230
1.0
  0
LINE
  5
3A8
100
AcDbEntity
  8
0
370
    35
390
0
 62
     7
 48
0.008351
100
AcDbLine
 10
357.506958
 20
243.009201
 30
0.0
 11
357.506958
 21
243.343231
 31
0.0
210
0.0
220
0.0
230
1.0
  0
LINE
  5
3A9
100
AcDbEntity
  8
0
370
    35
390
0
 62
     7
 48
0.025
100
AcDbLine
 10
357.506958
 20
243.343231
 30
0.0
 11
356.506958
 21
243.343231
 31
0.0
210
0.0
220
0.0
230
1.0
  0
LINE
  5
3AA
100
AcDbEntity
  8
0
370
    35
390
0
 62
     7
 48
0.001419
100
AcDbLine
 10
356.506958
 20
243.343231
 30
0.0
 11
356.506958
 21
243.399994
 31
0.0
210
0.0
220
0.0
230
1.0
  0
LINE
  5
3AB
100
AcDbEntity
  8
0
370
    35
390
0
 62
     7
 48
0.014999
100
AcDbLine
 10
355.906982
 20
243.399994
 30
0.0
 11
356.506958
 21
243.399994
 31
0.0
210
0.0
220
0.0
230
1.0
  0
LINE
  5
3AC
100
AcDbEntity
  8
0
370
    35
390
0
 62
     7
 48
0.008752
100
AcDbLine
 10
355.906982
 20
243.049927
 30
0.0
 11
355.906982
 21
243.399994
 31
0.0
210
0.0
220
0.0
230
1.0
  0
LINE
  5
3AD
100
AcDbEntity
  8
0
370
    35
390
0
 62
     7
 48
0.025
100
AcDbLine
 10
357.506958
 20
243.343231
 30
0.0
 11
356.506958
 21
243.343231
 31
0.0
210
0.0
220
0.0
230
1.0
  0
LINE
  5
3AE
100
AcDbEntity
  8
0
370
    35
390
0
 62
     7
 48
0.007129
100
AcDbLine
 10
357.70697
 20
243.139984
 30
0.0
 11
357.506958
 21
243.343231
 31
0.0
210
0.0
220
0.0
230
1.0
  0
LINE
  5
3AF
100
AcDbEntity
  8
0
370
    35
390
0
 62
     7
 48
0.007253
100
AcDbLine
 10
224.906982
 20
243.139984
 30
0.0
 11
224.906982
 21
242.849869
 31
0.0
210
0.0
220
0.0
230
1.0
  0
LINE
  5
3B0
100
AcDbEntity
  8
0
370
    35
390
0
 62
     7
 48
0.008351
100
AcDbLine
 10
225.106964
 20
243.343231
 30
0.0
 11
225.106964
 21
243.009201
 31
0.0
210
0.0
220
0.0
230
1.0
  0
LINE
  5
3B1
100
AcDbEntity
  8
0
370
    35
390
0
 62
     7
 48
0.007128
100
AcDbLine
 10
224.906982
 20
243.139984
 30
0.0
 11
225.106964
 21
243.343231
 31
0.0
210
0.0
220
0.0
230
1.0
  0
LINE
  5
3B2
100
AcDbEntity
  8
0
370
    35
390
0
 62
     7
 48
0.025
100
AcDbLine
 10
225.106964
 20
243.343231
 30
0.0
 11
226.106964
 21
243.343231
 31
0.0
210
0.0
220
0.0
230
1.0
  0
LINE
  5
3B3
100
AcDbEntity
  8
0
370
    35
390
0
 62
     7
 48
0.001419
100
AcDbLine
 10
226.106964
 20
243.399994
 30
0.0
 11
226.106964
 21
243.343231
 31
0.0
210
0.0
220
0.0
230
1.0
  0
LINE
  5
3B4
100
AcDbEntity
  8
0
370
    35
390
0
 62
     7
 48
0.008752
100
AcDbLine
 10
226.70697
 20
243.399994
 30
0.0
 11
226.70697
 21
243.049927
 31
0.0
210
0.0
220
0.0
230
1.0
  0
LINE
  5
3B5
100
AcDbEntity
  8
0
370
    35
390
0
 62
     7
 48
0.015
100
AcDbLine
 10
226.70697
 20
243.399994
 30
0.0
 11
226.106964
 21
243.399994
 31
0.0
210
0.0
220
0.0
230
1.0
  0
LINE
  5
3B6
100
AcDbEntity
  8
0
370
    35
390
0
 62
     7
 48
0.025
100
AcDbLine
 10
225.106964
 20
243.343231
 30
0.0
 11
226.106964
 21
243.343231
 31
0.0
210
0.0
220
0.0
230
1.0
  0
LINE
  5
3B7
100
AcDbEntity
  8
0
370
    35
390
0
 62
     7
 48
0.0025
100
AcDbLine
 10
227.006958
 20
243.049988
 30
0.0
 11
227.006958
 21
243.149994
 31
0.0
210
0.0
220
0.0
230
1.0
  0
LINE
  5
3B8
100
AcDbEntity
  8
0
370
    35
390
0
 62
     7
 48
0.05
100
AcDbLine
 10
227.306976
 20
243.049988
 30
0.0
 11
225.306976
 21
243.049988
 31
0.0
210
0.0
220
0.0
230
1.0
  0
ARC
  5
3B9
100
AcDbEntity
  8
0
370
    35
390
0
 62
     7
100
AcDbCircle
 10
225.306976
 20
242.549988
 30
0.0
 40
0.5
210
0.0
220
0.0
230
1.0
100
AcDbArc
 50
90.000003
 51
179.999554
  0
LINE
  5
3BA
100
AcDbEntity
  8
0
370
    35
390
0
 62
     7
 48
0.0125
100
AcDbLine
 10
225.306976
 20
242.549988
 30
0.0
 11
224.95343
 21
242.903534
 31
0.0
210
0.0
220
0.0
230
1.0
  0
ARC
  5
3BB
100
AcDbEntity
  8
0
370
    35
390
0
 62
     7
100
AcDbCircle
 10
227.306976
 20
243.549988
 30
0.0
 40
0.5
210
0.0
220
0.0
230
1.0
100
AcDbArc
 50
269.999997
 51
360.0
  0
LINE
  5
3BC
100
AcDbEntity
  8
0
370
    35
390
0
 62
     7
100
AcDbLine
 10
224.806976
 20
242.549988
 30
0.0
 11
224.806976
 21
219.449982
 31
0.0
210
0.0
220
0.0
230
1.0
  0
LINE
  5
3BD
100
AcDbEntity
  8
0
370
    35
390
0
 62
     7
 48
0.008839
100
AcDbLine
 10
225.306976
 20
219.449982
 30
0.0
 11
225.056976
 21
219.199982
 31
0.0
210
0.0
220
0.0
230
1.0
  0
LINE
  5
3BE
100
AcDbEntity
  8
0
370
    35
390
0
 62
     7
 48
0.008839
100
AcDbLine
 10
224.806976
 20
219.449982
 30
0.0
 11
225.056976
 21
219.199982
 31
0.0
210
0.0
220
0.0
230
1.0
  0
ARC
  5
3BF
100
AcDbEntity
  8
0
370
    35
390
0
 62
     7
100
AcDbCircle
 10
228.306976
 20
243.549988
 30
0.0
 40
0.5
210
0.0
220
0.0
230
1.0
100
AcDbArc
 50
90.000003
 51
180.000009
  0
LINE
  5
3C0
100
AcDbEntity
  8
0
370
    35
390
0
 62
     7
 48
0.008839
100
AcDbLine
 10
225.056976
 20
219.199982
 30
0.0
 11
225.306976
 21
218.949982
 31
0.0
210
0.0
220
0.0
230
1.0
  0
LINE
  5
3C1
100
AcDbEntity
  8
0
370
    35
390
0
 62
     7
 48
0.175
100
AcDbLine
 10
232.306976
 20
218.949982
 30
0.0
 11
225.306976
 21
218.949982
 31
0.0
210
0.0
220
0.0
230
1.0
  0
LINE
  5
3C2
100
AcDbEntity
  8
0
370
    35
390
0
 62
     7
 48
0.2125
100
AcDbLine
 10
236.806976
 20
244.049988
 30
0.0
 11
228.306976
 21
244.049988
 31
0.0
210
0.0
220
0.0
230
1.0
  0
LINE
  5
3C3
100
AcDbEntity
  8
0
370
    35
390
0
 62
     7
 48
0.0125
100
AcDbLine
 10
238.306976
 20
243.049988
 30
0.0
 11
237.806976
 21
243.049988
 31
0.0
210
0.0
220
0.0
230
1.0
  0
LINE
  5
3C4
100
AcDbEntity
  8
0
370
    35
390
0
 62
     7
 48
0.03
100
AcDbLine
 10
238.606964
 20
242.75
 30
0.0
 11
238.606964
 21
241.549988
 31
0.0
210
0.0
220
0.0
230
1.0
  0
ARC
  5
3C5
100
AcDbEntity
  8
0
370
    35
390
0
 62
     7
100
AcDbCircle
 10
240.806976
 20
241.549988
 30
0.0
 40
2.2
210
0.0
220
0.0
230
1.0
100
AcDbArc
 50
180.000009
 51
360.0
  0
ARC
  5
3C6
100
AcDbEntity
  8
0
370
    35
390
0
 62
     7
100
AcDbCircle
 10
241.806976
 20
237.987686
 30
0.0
 40
1.0
210
0.0
220
0.0
230
1.0
100
AcDbArc
 50
105.680348
 51
180.000009
  0
LINE
  5
3C7
100
AcDbEntity
  8
0
370
    35
390
0
 62
     7
 48
0.293442
100
AcDbLine
 10
240.806976
 20
237.987686
 30
0.0
 11
240.806976
 21
226.25
 31
0.0
210
0.0
220
0.0
230
1.0
  0
ARC
  5
3C8
100
AcDbEntity
  8
0
370
    35
390
0
 62
     7
100
AcDbCircle
 10
243.806976
 20
226.25
 30
0.0
 40
3.0
210
0.0
220
0.0
230
1.0
100
AcDbArc
 50
180.000009
 51
269.999997
  0
LINE
  5
3C9
100
AcDbEntity
  8
0
370
    35
390
0
 62
     7
 48
0.35
100
AcDbLine
 10
257.806976
 20
223.25
 30
0.0
 11
243.806976
 21
223.25
 31
0.0
210
0.0
220
0.0
230
1.0
  0
ARC
  5
3CA
100
AcDbEntity
  8
0
370
    35
390
0
 62
     7
100
AcDbCircle
 10
257.806976
 20
226.25
 30
0.0
 40
3.0
210
0.0
220
0.0
230
1.0
100
AcDbArc
 50
269.999997
 51
360.0
  0
LINE
  5
3CB
100
AcDbEntity
  8
0
370
    35
390
0
 62
     7
 48
0.32
100
AcDbLine
 10
260.806976
 20
226.25
 30
0.0
 11
260.806976
 21
239.049988
 31
0.0
210
0.0
220
0.0
230
1.0
  0
ARC
  5
3CC
100
AcDbEntity
  8
0
370
    35
390
0
 62
     7
100
AcDbCircle
 10
257.806976
 20
239.049988
 30
0.0
 40
3.0
210
0.0
220
0.0
230
1.0
100
AcDbArc
 50
0.0
 51
90.000003
  0
LINE
  5
3CD
100
AcDbEntity
  8
0
370
    35
390
0
 62
     7
 48
0.333349
100
AcDbLine
 10
244.473022
 20
242.049988
 30
0.0
 11
257.806976
 21
242.049988
 31
0.0
210
0.0
220
0.0
230
1.0
  0
ARC
  5
3CE
100
AcDbEntity
  8
0
370
    35
390
0
 62
     7
100
AcDbCircle
 10
244.473022
 20
241.049988
 30
0.0
 40
1.0
210
0.0
220
0.0
230
1.0
100
AcDbArc
 50
90.000003
 51
172.233561
  0
LINE
  5
3CF
100
AcDbEntity
  8
0
370
    35
390
0
 62
     7
 48
0.03
100
AcDbLine
 10
243.006958
 20
241.549988
 30
0.0
 11
243.006958
 21
242.75
 31
0.0
210
0.0
220
0.0
230
1.0
  0
LINE
  5
3D0
100
AcDbEntity
  8
0
370
    35
390
0
 62
     7
100
AcDbLine
 10
317.306976
 20
243.049988
 30
0.0
 11
243.306976
 21
243.049988
 31
0.0
210
0.0
220
0.0
230
1.0
  0
LINE
  5
3D1
100
AcDbEntity
  8
0
370
    35
390
0
 62
     7
 48
0.03
100
AcDbLine
 10
317.606964
 20
242.75
 30
0.0
 11
317.606964
 21
241.549988
 31
0.0
210
0.0
220
0.0
230
1.0
  0
ARC
  5
3D2
100
AcDbEntity
  8
0
370
    35
390
0
 62
     7
100
AcDbCircle
 10
319.806976
 20
241.549988
 30
0.0
 40
2.2
210
0.0
220
0.0
230
1.0
100
AcDbArc
 50
180.000009
 51
360.0
  0
LINE
  5
3D3
100
AcDbEntity
  8
0
370
    35
390
0
 62
     7
 48
0.03
100
AcDbLine
 10
322.006958
 20
241.549988
 30
0.0
 11
322.006958
 21
242.75
 31
0.0
210
0.0
220
0.0
230
1.0
  0
LINE
  5
3D4
100
AcDbEntity
  8
0
370
    35
390
0
 62
     7
 48
0.35
100
AcDbLine
 10
336.306976
 20
243.049988
 30
0.0
 11
322.306976
 21
243.049988
 31
0.0
210
0.0
220
0.0
230
1.0
  0
LINE
  5
3D5
100
AcDbEntity
  8
0
370
    35
390
0
 62
     7
 48
0.425
100
AcDbLine
 10
354.306976
 20
244.049988
 30
0.0
 11
337.306976
 21
244.049988
 31
0.0
210
0.0
220
0.0
230
1.0
  0
LINE
  5
3D6
100
AcDbEntity
  8
0
370
    35
390
0
 62
     7
 48
0.05
100
AcDbLine
 10
357.306976
 20
243.049988
 30
0.0
 11
355.306976
 21
243.049988
 31
0.0
210
0.0
220
0.0
230
1.0
  0
LINE
  5
3D7
100
AcDbEntity
  8
0
370
    35
390
0
 62
     7
 48
0.0125
100
AcDbLine
 10
357.306976
 20
242.549988
 30
0.0
 11
357.660522
 21
242.903534
 31
0.0
210
0.0
220
0.0
230
1.0
  0
ARC
  5
3D8
100
AcDbEntity
  8
0
370
    35
390
0
 62
     7
100
AcDbCircle
 10
357.306976
 20
242.549988
 30
0.0
 40
0.5
210
0.0
220
0.0
230
1.0
100
AcDbArc
 50
0.0
 51
89.999559
  0
LINE
  5
3D9
100
AcDbEntity
  8
0
370
    35
390
0
 62
     7
100
AcDbLine
 10
357.806976
 20
219.449982
 30
0.0
 11
357.806976
 21
242.549988
 31
0.0
210
0.0
220
0.0
230
1.0
  0
LINE
  5
3DA
100
AcDbEntity
  8
0
370
    35
390
0
 62
     7
 48
0.008839
100
AcDbLine
 10
357.306976
 20
219.449982
 30
0.0
 11
357.556976
 21
219.199982
 31
0.0
210
0.0
220
0.0
230
1.0
  0
LINE
  5
3DB
100
AcDbEntity
  8
0
370
    35
390
0
 62
     7
 48
0.008839
100
AcDbLine
 10
357.556976
 20
219.199982
 30
0.0
 11
357.806976
 21
219.449982
 31
0.0
210
0.0
220
0.0
230
1.0
  0
LINE
  5
3DC
100
AcDbEntity
  8
0
370
    35
390
0
 62
     7
 48
0.175
100
AcDbLine
 10
357.306976
 20
218.949982
 30
0.0
 11
350.306976
 21
218.949982
 31
0.0
210
0.0
220
0.0
230
1.0
  0
LINE
  5
3DD
100
AcDbEntity
  8
0
370
    35
390
0
 62
     7
 48
0.008839
100
AcDbLine
 10
357.306976
 20
218.949982
 30
0.0
 11
357.556976
 21
219.199982
 31
0.0
210
0.0
220
0.0
230
1.0
  0
LINE
  5
3DE
100
AcDbEntity
  8
0
370
    35
390
0
 62
     7
 48
0.07
100
AcDbLine
 10
349.806976
 20
219.449982
 30
0.0
 11
349.806976
 21
222.25
 31
0.0
210
0.0
220
0.0
230
1.0
  0
LINE
  5
3DF
100
AcDbEntity
  8
0
370
    35
390
0
 62
     7
100
AcDbLine
 10
350.306976
 20
222.25
 30
0.0
 11
232.306976
 21
222.25
 31
0.0
210
0.0
220
0.0
230
1.0
  0
LINE
  5
3E0
100
AcDbEntity
  8
0
370
    35
390
0
 62
     7
 48
0.07
100
AcDbLine
 10
232.806976
 20
219.449982
 30
0.0
 11
232.806976
 21
222.25
 31
0.0
210
0.0
220
0.0
230
1.0
  0
LINE
  5
3E1
100
AcDbEntity
  8
0
370
    35
390
0
 62
     7
 48
0.35
100
AcDbLine
 10
299.806976
 20
242.049988
 30
0.0
 11
313.806976
 21
242.049988
 31
0.0
210
0.0
220
0.0
230
1.0
  0
ARC
  5
3E2
100
AcDbEntity
  8
0
370
    35
390
0
 62
     7
100
AcDbCircle
 10
313.806976
 20
239.049988
 30
0.0
 40
3.0
210
0.0
220
0.0
230
1.0
100
AcDbArc
 50
0.0
 51
90.000003
  0
LINE
  5
3E3
100
AcDbEntity
  8
0
370
    35
390
0
 62
     7
 48
0.32
100
AcDbLine
 10
316.806976
 20
226.25
 30
0.0
 11
316.806976
 21
239.049988
 31
0.0
210
0.0
220
0.0
230
1.0
  0
ARC
  5
3E4
100
AcDbEntity
  8
0
370
    35
390
0
 62
     7
100
AcDbCircle
 10
313.806976
 20
226.25
 30
0.0
 40
3.0
210
0.0
220
0.0
230
1.0
100
AcDbArc
 50
269.999997
 51
360.0
  0
LINE
  5
3E5
100
AcDbEntity
  8
0
370
    35
390
0
 62
     7
 48
0.35
100
AcDbLine
 10
313.806976
 20
223.25
 30
0.0
 11
299.806976
 21
223.25
 31
0.0
210
0.0
220
0.0
230
1.0
  0
ARC
  5
3E6
100
AcDbEntity
  8
0
370
    35
390
0
 62
     7
100
AcDbCircle
 10
299.806976
 20
226.25
 30
0.0
 40
3.0
210
0.0
220
0.0
230
1.0
100
AcDbArc
 50
180.000009
 51
269.999997
  0
LINE
  5
3E7
100
AcDbEntity
  8
0
370
    35
390
0
 62
     7
 48
0.32
100
AcDbLine
 10
296.806976
 20
239.049988
 30
0.0
 11
296.806976
 21
226.25
 31
0.0
210
0.0
220
0.0
230
1.0
  0
ARC
  5
3E8
100
AcDbEntity
  8
0
370
    35
390
0
 62
     7
100
AcDbCircle
 10
299.806976
 20
239.049988
 30
0.0
 40
3.0
210
0.0
220
0.0
230
1.0
100
AcDbArc
 50
90.000003
 51
180.000009
  0
LINE
  5
3E9
100
AcDbEntity
  8
0
370
    35
390
0
 62
     7
 48
0.025
100
AcDbLine
 10
237.806976
 20
244.049988
 30
0.0
 11
236.806976
 21
244.049988
 31
0.0
210
0.0
220
0.0
230
1.0
  0
LINE
  5
3EA
100
AcDbEntity
  8
0
370
    35
390
0
 62
     7
 48
0.025
100
AcDbLine
 10
238.806976
 20
244.049988
 30
0.0
 11
237.806976
 21
244.049988
 31
0.0
210
0.0
220
0.0
230
1.0
  0
ARC
  5
3EB
100
AcDbEntity
  8
0
370
    35
390
0
 62
     7
100
AcDbCircle
 10
232.306976
 20
219.449982
 30
0.0
 40
0.5
210
0.0
220
0.0
230
1.0
100
AcDbArc
 50
269.999997
 51
360.0
  0
ARC
  5
3EC
100
AcDbEntity
  8
0
370
    35
390
0
 62
     7
100
AcDbCircle
 10
236.806976
 20
243.549988
 30
0.0
 40
0.5
210
0.0
220
0.0
230
1.0
100
AcDbArc
 50
0.0
 51
90.000003
  0
ARC
  5
3ED
100
AcDbEntity
  8
0
370
    35
390
0
 62
     7
100
AcDbCircle
 10
237.806976
 20
243.549988
 30
0.0
 40
0.5
210
0.0
220
0.0
230
1.0
100
AcDbArc
 50
180.000009
 51
269.999997
  0
LINE
  5
3EE
100
AcDbEntity
  8
0
370
    35
390
0
 62
     7
 48
0.01
100
AcDbLine
 10
238.70697
 20
243.049988
 30
0.0
 11
238.306976
 21
243.049988
 31
0.0
210
0.0
220
0.0
230
1.0
  0
LINE
  5
3EF
100
AcDbEntity
  8
0
370
    35
390
0
 62
     7
 48
0.0025
100
AcDbLine
 10
238.70697
 20
243.049988
 30
0.0
 11
238.806976
 21
243.049988
 31
0.0
210
0.0
220
0.0
230
1.0
  0
ARC
  5
3F0
100
AcDbEntity
  8
0
370
    35
390
0
 62
     7
100
AcDbCircle
 10
238.306976
 20
242.75
 30
0.0
 40
0.3
210
0.0
220
0.0
230
1.0
100
AcDbArc
 50
0.0
 51
90.000003
  0
ARC
  5
3F1
100
AcDbEntity
  8
0
370
    35
390
0
 62
     7
100
AcDbCircle
 10
240.806976
 20
241.549988
 30
0.0
 40
2.7
210
0.0
220
0.0
230
1.0
100
AcDbArc
 50
285.680336
 51
352.233566
  0
CIRCLE
  5
3F2
100
AcDbEntity
  8
0
370
    35
390
0
 62
     7
100
AcDbCircle
 10
250.806976
 20
234.649994
 30
0.0
 40
4.5
210
0.0
220
0.0
230
1.0
  0
ARC
  5
3F3
100
AcDbEntity
  8
0
370
    35
390
0
 62
     7
100
AcDbCircle
 10
243.306976
 20
242.75
 30
0.0
 40
0.3
210
0.0
220
0.0
230
1.0
100
AcDbArc
 50
90.000003
 51
180.000009
  0
ARC
  5
3F4
100
AcDbEntity
  8
0
370
    35
390
0
 62
     7
100
AcDbCircle
 10
317.306976
 20
242.75
 30
0.0
 40
0.3
210
0.0
220
0.0
230
1.0
100
AcDbArc
 50
0.0
 51
90.000003
  0
ARC
  5
3F5
100
AcDbEntity
  8
0
370
    35
390
0
 62
     7
100
AcDbCircle
 10
322.306976
 20
242.75
 30
0.0
 40
0.3
210
0.0
220
0.0
230
1.0
100
AcDbArc
 50
90.000003
 51
180.000009
  0
ARC
  5
3F6
100
AcDbEntity
  8
0
370
    35
390
0
 62
     7
100
AcDbCircle
 10
336.306976
 20
243.549988
 30
0.0
 40
0.5
210
0.0
220
0.0
230
1.0
100
AcDbArc
 50
269.999997
 51
360.0
  0
ARC
  5
3F7
100
AcDbEntity
  8
0
370
    35
390
0
 62
     7
100
AcDbCircle
 10
337.306976
 20
243.549988
 30
0.0
 40
0.5
210
0.0
220
0.0
230
1.0
100
AcDbArc
 50
90.000003
 51
180.000009
  0
LINE
  5
3F8
100
AcDbEntity
  8
0
370
    35
390
0
 62
     7
 48
0.025
100
AcDbLine
 10
335.306976
 20
244.049988
 30
0.0
 11
336.306976
 21
244.049988
 31
0.0
210
0.0
220
0.0
230
1.0
  0
LINE
  5
3F9
100
AcDbEntity
  8
0
370
    35
390
0
 62
     7
 48
0.025
100
AcDbLine
 10
337.306976
 20
244.049988
 30
0.0
 11
336.306976
 21
244.049988
 31
0.0
210
0.0
220
0.0
230
1.0
  0
ARC
  5
3FA
100
AcDbEntity
  8
0
370
    35
390
0
 62
     7
100
AcDbCircle
 10
354.306976
 20
243.549988
 30
0.0
 40
0.5
210
0.0
220
0.0
230
1.0
100
AcDbArc
 50
0.0
 51
90.000003
  0
ARC
  5
3FB
100
AcDbEntity
  8
0
370
    35
390
0
 62
     7
100
AcDbCircle
 10
355.306976
 20
243.549988
 30
0.0
 40
0.5
210
0.0
220
0.0
230
1.0
100
AcDbArc
 50
180.000009
 51
269.999997
  0
ARC
  5
3FC
100
AcDbEntity
  8
0
370
    35
390
0
 62
     7
100
AcDbCircle
 10
350.306976
 20
219.449982
 30
0.0
 40
0.5
210
0.0
220
0.0
230
1.0
100
AcDbArc
 50
180.000009
 51
269.999997
  0
LINE
  5
3FD
100
AcDbEntity
  8
0
370
    35
390
0
 62
     7
 48
0.01
100
AcDbLine
 10
234.056976
 20
221.849991
 30
0.0
 11
234.056976
 21
222.25
 31
0.0
210
0.0
220
0.0
230
1.0
  0
LINE
  5
3FE
100
AcDbEntity
  8
0
370
    35
390
0
 62
     7
 48
0.01
100
AcDbLine
 10
348.556976
 20
221.849991
 30
0.0
 11
348.556976
 21
222.25
 31
0.0
210
0.0
220
0.0
230
1.0
  0
LINE
  5
3FF
100
AcDbEntity
  8
0
370
    35
390
0
 62
     7
 48
0.005
100
AcDbLine
 10
248.530182
 20
222.099991
 30
0.0
 11
248.33017
 21
222.099991
 31
0.0
210
0.0
220
0.0
230
1.0
  0
LINE
  5
400
100
AcDbEntity
  8
0
370
    35
390
0
 62
     7
 48
0.07616
100
AcDbLine
 10
245.283752
 20
222.099991
 30
0.0
 11
248.33017
 21
222.099991
 31
0.0
210
0.0
220
0.0
230
1.0
  0
LINE
  5
401
100
AcDbEntity
  8
0
370
    35
390
0
 62
     7
 48
0.005
100
AcDbLine
 10
245.283752
 20
222.099991
 30
0.0
 11
245.083771
 21
222.099991
 31
0.0
210
0.0
220
0.0
230
1.0
  0
LINE
  5
402
100
AcDbEntity
  8
0
370
    35
390
0
 62
     7
 48
0.005
100
AcDbLine
 10
334.283752
 20
222.099991
 30
0.0
 11
334.083771
 21
222.099991
 31
0.0
210
0.0
220
0.0
230
1.0
  0
LINE
  5
403
100
AcDbEntity
  8
0
370
    35
390
0
 62
     7
 48
0.005
100
AcDbLine
 10
337.530182
 20
222.099991
 30
0.0
 11
337.33017
 21
222.099991
 31
0.0
210
0.0
220
0.0
230
1.0
  0
LINE
  5
404
100
AcDbEntity
  8
0
370
    35
390
0
 62
     7
 48
0.07616
100
AcDbLine
 10
334.283752
 20
222.099991
 30
0.0
 11
337.33017
 21
222.099991
 31
0.0
210
0.0
220
0.0
230
1.0
  0
CIRCLE
  5
405
100
AcDbEntity
  8
0
370
    35
390
0
 62
     7
100
AcDbCircle
 10
306.806976
 20
234.649994
 30
0.0
 40
4.5
210
0.0
220
0.0
230
1.0
  0
LINE
  5
406
100
AcDbEntity
  8
0
370
    35
390
0
 62
     7
 48
0.05
100
AcDbLine
 10
238.806976
 20
241.549988
 30
0.0
 11
238.806976
 21
243.549988
 31
0.0
210
0.0
220
0.0
230
1.0
  0
LINE
  5
407
100
AcDbEntity
  8
0
370
    35
390
0
 62
     7
 48
0.0125
100
AcDbLine
 10
238.806976
 20
244.049988
 30
0.0
 11
238.806976
 21
243.549988
 31
0.0
210
0.0
220
0.0
230
1.0
  0
LINE
  5
408
100
AcDbEntity
  8
0
370
    35
390
0
 62
     7
 48
0.025
100
AcDbLine
 10
238.806976
 20
245.049988
 30
0.0
 11
238.806976
 21
244.049988
 31
0.0
210
0.0
220
0.0
230
1.0
  0
LINE
  5
409
100
AcDbEntity
  8
0
370
    35
390
0
 62
     7
 48
0.0125
100
AcDbLine
 10
335.306976
 20
243.049988
 30
0.0
 11
335.306976
 21
243.549988
 31
0.0
210
0.0
220
0.0
230
1.0
  0
LINE
  5
40A
100
AcDbEntity
  8
0
370
    35
390
0
 62
     7
 48
0.0125
100
AcDbLine
 10
335.306976
 20
244.049988
 30
0.0
 11
335.306976
 21
243.549988
 31
0.0
210
0.0
220
0.0
230
1.0
  0
LINE
  5
40B
100
AcDbEntity
  8
0
370
    35
390
0
 62
     7
 48
0.025
100
AcDbLine
 10
335.306976
 20
245.049988
 30
0.0
 11
335.306976
 21
244.049988
 31
0.0
210
0.0
220
0.0
230
1.0
  0
ARC
  5
40C
100
AcDbEntity
  8
0
370
    35
390
0
 62
     7
100
AcDbCircle
 10
240.806976
 20
241.549988
 30
0.0
 40
2.0
210
0.0
220
0.0
230
1.0
100
AcDbArc
 50
180.000009
 51
360.0
  0
LINE
  5
40D
100
AcDbEntity
  8
0
370
    35
390
0
 62
     7
 48
0.0375
100
AcDbLine
 10
242.806976
 20
241.549988
 30
0.0
 11
242.806976
 21
243.049988
 31
0.0
210
0.0
220
0.0
230
1.0
  0
LINE
  5
40E
100
AcDbEntity
  8
0
370
    35
390
0
 62
     7
 48
0.0125
100
AcDbLine
 10
243.306976
 20
243.049988
 30
0.0
 11
242.806976
 21
243.049988
 31
0.0
210
0.0
220
0.0
230
1.0
  0
LINE
  5
40F
100
AcDbEntity
  8
0
370
    35
390
0
 62
     7
 48
0.0125
100
AcDbLine
 10
317.806976
 20
243.049988
 30
0.0
 11
317.306976
 21
243.049988
 31
0.0
210
0.0
220
0.0
230
1.0
  0
LINE
  5
410
100
AcDbEntity
  8
0
370
    35
390
0
 62
     7
 48
0.0375
100
AcDbLine
 10
317.806976
 20
241.549988
 30
0.0
 11
317.806976
 21
243.049988
 31
0.0
210
0.0
220
0.0
230
1.0
  0
ARC
  5
411
100
AcDbEntity
  8
0
370
    35
390
0
 62
     7
100
AcDbCircle
 10
319.806976
 20
241.549988
 30
0.0
 40
2.0
210
0.0
220
0.0
230
1.0
100
AcDbArc
 50
180.000009
 51
360.0
  0
LINE
  5
412
100
AcDbEntity
  8
0
370
    35
390
0
 62
     7
 48
0.0375
100
AcDbLine
 10
321.806976
 20
241.549988
 30
0.0
 11
321.806976
 21
243.049988
 31
0.0
210
0.0
220
0.0
230
1.0
  0
LINE
  5
413
100
AcDbEntity
  8
0
370
    35
390
0
 62
     7
 48
0.0125
100
AcDbLine
 10
322.306976
 20
243.049988
 30
0.0
 11
321.806976
 21
243.049988
 31
0.0
210
0.0
220
0.0
230
1.0
  0
LINE
  5
414
100
AcDbEntity
  8
0
370
    35
390
0
 62
     7
 48
0.0025
100
AcDbLine
 10
355.606964
 20
243.049988
 30
0.0
 11
355.606964
 21
243.149994
 31
0.0
210
0.0
220
0.0
230
1.0
  0
LINE
  5
415
100
AcDbEntity
  8
0
370
    35
390
0
 62
     7
 48
0.025
100
AcDbLine
 10
348.756958
 20
221.849991
 30
0.0
 11
349.756958
 21
221.849991
 31
0.0
210
0.0
220
0.0
230
1.0
  0
LINE
  5
416
100
AcDbEntity
  8
0
370
    35
390
0
 62
     7
 48
0.28567
100
AcDbLine
 10
348.756958
 20
221.849991
 30
0.0
 11
337.33017
 21
221.849991
 31
0.0
210
0.0
220
0.0
230
1.0
  0
LINE
  5
417
100
AcDbEntity
  8
0
370
    35
390
0
 62
     7
100
AcDbLine
 10
334.283752
 20
221.849991
 30
0.0
 11
248.33017
 21
221.849991
 31
0.0
210
0.0
220
0.0
230
1.0
  0
LINE
  5
418
100
AcDbEntity
  8
0
370
    35
390
0
 62
     7
 48
0.28567
100
AcDbLine
 10
245.283752
 20
221.849991
 30
0.0
 11
233.856964
 21
221.849991
 31
0.0
210
0.0
220
0.0
230
1.0
  0
LINE
  5
419
100
AcDbEntity
  8
0
370
    35
390
0
 62
     7
 48
0.025
100
AcDbLine
 10
232.856964
 20
221.849991
 30
0.0
 11
233.856964
 21
221.849991
 31
0.0
210
0.0
220
0.0
230
1.0
  0
LINE
  5
41A
100
AcDbEntity
  8
0
370
    35
390
0
 62
     7
100
AcDbLine
 10
348.756958
 20
219.349991
 30
0.0
 11
233.856964
 21
219.349991
 31
0.0
210
0.0
220
0.0
230
1.0
  0
LINE
  5
41B
100
AcDbEntity
  8
0
370
    35
390
0
 62
     7
100
AcDbLine
 10
335.306976
 20
244.049988
 30
0.0
 11
238.806976
 21
244.049988
 31
0.0
210
0.0
220
0.0
230
1.0
  0
CIRCLE
  5
41C
100
AcDbEntity
  8
0
370
    35
390
0
 62
     7
100
AcDbCircle
 10
250.806976
 20
234.649994
 30
0.0
 40
4.0
210
0.0
220
0.0
230
1.0
  0
LINE
  5
41D
100
AcDbEntity
  8
0
370
    35
390
0
 62
     7
 48
0.0625
100
AcDbLine
 10
232.856964
 20
219.349991
 30
0.0
 11
232.856964
 21
221.849991
 31
0.0
210
0.0
220
0.0
230
1.0
  0
LINE
  5
41E
100
AcDbEntity
  8
0
370
    35
390
0
 62
     7
 48
0.0625
100
AcDbLine
 10
349.756958
 20
219.349991
 30
0.0
 11
349.756958
 21
221.849991
 31
0.0
210
0.0
220
0.0
230
1.0
  0
LINE
  5
41F
100
AcDbEntity
  8
0
370
    35
390
0
 62
     7
 48
0.025
100
AcDbLine
 10
348.756958
 20
219.349991
 30
0.0
 11
349.756958
 21
219.349991
 31
0.0
210
0.0
220
0.0
230
1.0
  0
LINE
  5
420
100
AcDbEntity
  8
0
370
    35
390
0
 62
     7
 48
0.025
100
AcDbLine
 10
232.856964
 20
219.349991
 30
0.0
 11
233.856964
 21
219.349991
 31
0.0
210
0.0
220
0.0
230
1.0
  0
CIRCLE
  5
421
100
AcDbEntity
  8
0
370
    35
390
0
 62
     7
100
AcDbCircle
 10
306.806976
 20
234.649994
 30
0.0
 40
4.0
210
0.0
220
0.0
230
1.0
  0
CIRCLE
  5
422
100
AcDbEntity
  8
0
370
    35
390
0
 62
     7
100
AcDbCircle
 10
319.806976
 20
241.549988
 30
0.0
 40
1.475
210
0.0
220
0.0
230
1.0
  0
CIRCLE
  5
423
100
AcDbEntity
  8
0
370
    35
390
0
 62
     7
100
AcDbCircle
 10
240.806976
 20
241.549988
 30
0.0
 40
1.475
210
0.0
220
0.0
230
1.0
  0
CIRCLE
  5
424
100
AcDbEntity
  8
0
370
    35
390
0
 62
     7
100
AcDbCircle
 10
250.806976
 20
234.649994
 30
0.0
 40
2.55
210
0.0
220
0.0
230
1.0
  0
CIRCLE
  5
425
100
AcDbEntity
  8
0
370
    35
390
0
 62
     7
100
AcDbCircle
 10
306.806976
 20
234.649994
 30
0.0
 40
2.55
210
0.0
220
0.0
230
1.0
  0
LINE
  5
426
100
AcDbEntity
  8
0
370
    35
390
0
 62
     7
 48
0.01
100
AcDbLine
 10
319.606964
 20
242.649994
 30
0.0
 11
320.006958
 21
242.649994
 31
0.0
210
0.0
220
0.0
230
1.0
  0
LINE
  5
427
100
AcDbEntity
  8
0
370
    35
390
0
 62
     7
 48
0.01625
100
AcDbLine
 10
319.606964
 20
242.649994
 30
0.0
 11
319.606964
 21
242.0
 31
0.0
210
0.0
220
0.0
230
1.0
  0
ARC
  5
428
100
AcDbEntity
  8
0
370
    35
390
0
 62
     7
100
AcDbCircle
 10
319.356964
 20
242.0
 30
0.0
 40
0.25
210
0.0
220
0.0
230
1.0
100
AcDbArc
 50
269.999997
 51
360.0
  0
LINE
  5
429
100
AcDbEntity
  8
0
370
    35
390
0
 62
     7
 48
0.01625
100
AcDbLine
 10
319.356964
 20
241.75
 30
0.0
 11
318.70697
 21
241.75
 31
0.0
210
0.0
220
0.0
230
1.0
  0
LINE
  5
42A
100
AcDbEntity
  8
0
370
    35
390
0
 62
     7
 48
0.01
100
AcDbLine
 10
318.70697
 20
241.75
 30
0.0
 11
318.70697
 21
241.349991
 31
0.0
210
0.0
220
0.0
230
1.0
  0
LINE
  5
42B
100
AcDbEntity
  8
0
370
    35
390
0
 62
     7
 48
0.01625
100
AcDbLine
 10
319.356964
 20
241.349991
 30
0.0
 11
318.70697
 21
241.349991
 31
0.0
210
0.0
220
0.0
230
1.0
  0
ARC
  5
42C
100
AcDbEntity
  8
0
370
    35
390
0
 62
     7
100
AcDbCircle
 10
319.356964
 20
241.099991
 30
0.0
 40
0.25
210
0.0
220
0.0
230
1.0
100
AcDbArc
 50
0.0
 51
90.000003
  0
LINE
  5
42D
100
AcDbEntity
  8
0
370
    35
390
0
 62
     7
 48
0.01625
100
AcDbLine
 10
319.606964
 20
240.449982
 30
0.0
 11
319.606964
 21
241.099991
 31
0.0
210
0.0
220
0.0
230
1.0
  0
LINE
  5
42E
100
AcDbEntity
  8
0
370
    35
390
0
 62
     7
 48
0.01
100
AcDbLine
 10
319.606964
 20
240.449982
 30
0.0
 11
320.006958
 21
240.449982
 31
0.0
210
0.0
220
0.0
230
1.0
  0
LINE
  5
42F
100
AcDbEntity
  8
0
370
    35
390
0
 62
     7
 48
0.01625
100
AcDbLine
 10
320.006958
 20
240.449982
 30
0.0
 11
320.006958
 21
241.099991
 31
0.0
210
0.0
220
0.0
230
1.0
  0
ARC
  5
430
100
AcDbEntity
  8
0
370
    35
390
0
 62
     7
100
AcDbCircle
 10
320.256958
 20
241.099991
 30
0.0
 40
0.25
210
0.0
220
0.0
230
1.0
100
AcDbArc
 50
90.000003
 51
180.000009
  0
LINE
  5
431
100
AcDbEntity
  8
0
370
    35
390
0
 62
     7
 48
0.016251
100
AcDbLine
 10
320.256958
 20
241.349991
 30
0.0
 11
320.906982
 21
241.349991
 31
0.0
210
0.0
220
0.0
230
1.0
  0
LINE
  5
432
100
AcDbEntity
  8
0
370
    35
390
0
 62
     7
 48
0.01
100
AcDbLine
 10
320.906982
 20
241.75
 30
0.0
 11
320.906982
 21
241.349991
 31
0.0
210
0.0
220
0.0
230
1.0
  0
LINE
  5
433
100
AcDbEntity
  8
0
370
    35
390
0
 62
     7
 48
0.016251
100
AcDbLine
 10
320.256958
 20
241.75
 30
0.0
 11
320.906982
 21
241.75
 31
0.0
210
0.0
220
0.0
230
1.0
  0
ARC
  5
434
100
AcDbEntity
  8
0
370
    35
390
0
 62
     7
100
AcDbCircle
 10
320.256958
 20
242.0
 30
0.0
 40
0.25
210
0.0
220
0.0
230
1.0
100
AcDbArc
 50
180.000009
 51
269.999997
  0
LINE
  5
435
100
AcDbEntity
  8
0
370
    35
390
0
 62
     7
 48
0.01625
100
AcDbLine
 10
320.006958
 20
242.649994
 30
0.0
 11
320.006958
 21
242.0
 31
0.0
210
0.0
220
0.0
230
1.0
  0
LINE
  5
436
100
AcDbEntity
  8
0
370
    35
390
0
 62
     7
 48
0.01
100
AcDbLine
 10
240.606964
 20
242.649994
 30
0.0
 11
241.006958
 21
242.649994
 31
0.0
210
0.0
220
0.0
230
1.0
  0
LINE
  5
437
100
AcDbEntity
  8
0
370
    35
390
0
 62
     7
 48
0.01625
100
AcDbLine
 10
240.606964
 20
242.649994
 30
0.0
 11
240.606964
 21
242.0
 31
0.0
210
0.0
220
0.0
230
1.0
  0
ARC
  5
438
100
AcDbEntity
  8
0
370
    35
390
0
 62
     7
100
AcDbCircle
 10
240.356964
 20
242.0
 30
0.0
 40
0.25
210
0.0
220
0.0
230
1.0
100
AcDbArc
 50
269.999997
 51
360.0
  0
LINE
  5
439
100
AcDbEntity
  8
0
370
    35
390
0
 62
     7
 48
0.01625
100
AcDbLine
 10
240.356964
 20
241.75
 30
0.0
 11
239.70697
 21
241.75
 31
0.0
210
0.0
220
0.0
230
1.0
  0
LINE
  5
43A
100
AcDbEntity
  8
0
370
    35
390
0
 62
     7
 48
0.01
100
AcDbLine
 10
239.70697
 20
241.75
 30
0.0
 11
239.70697
 21
241.349991
 31
0.0
210
0.0
220
0.0
230
1.0
  0
LINE
  5
43B
100
AcDbEntity
  8
0
370
    35
390
0
 62
     7
 48
0.01625
100
AcDbLine
 10
240.356964
 20
241.349991
 30
0.0
 11
239.70697
 21
241.349991
 31
0.0
210
0.0
220
0.0
230
1.0
  0
ARC
  5
43C
100
AcDbEntity
  8
0
370
    35
390
0
 62
     7
100
AcDbCircle
 10
240.356964
 20
241.099991
 30
0.0
 40
0.25
210
0.0
220
0.0
230
1.0
100
AcDbArc
 50
0.0
 51
90.000003
  0
LINE
  5
43D
100
AcDbEntity
  8
0
370
    35
390
0
 62
     7
 48
0.01625
100
AcDbLine
 10
240.606964
 20
240.449982
 30
0.0
 11
240.606964
 21
241.099991
 31
0.0
210
0.0
220
0.0
230
1.0
  0
LINE
  5
43E
100
AcDbEntity
  8
0
370
    35
390
0
 62
     7
 48
0.01
100
AcDbLine
 10
240.606964
 20
240.449982
 30
0.0
 11
241.006958
 21
240.449982
 31
0.0
210
0.0
220
0.0
230
1.0
  0
LINE
  5
43F
100
AcDbEntity
  8
0
370
    35
390
0
 62
     7
 48
0.01625
100
AcDbLine
 10
241.006958
 20
240.449982
 30
0.0
 11
241.006958
 21
241.099991
 31
0.0
210
0.0
220
0.0
230
1.0
  0
ARC
  5
440
100
AcDbEntity
  8
0
370
    35
390
0
 62
     7
100
AcDbCircle
 10
241.256958
 20
241.099991
 30
0.0
 40
0.25
210
0.0
220
0.0
230
1.0
100
AcDbArc
 50
90.000003
 51
180.000009
  0
LINE
  5
441
100
AcDbEntity
  8
0
370
    35
390
0
 62
     7
 48
0.016251
100
AcDbLine
 10
241.256958
 20
241.349991
 30
0.0
 11
241.906982
 21
241.349991
 31
0.0
210
0.0
220
0.0
230
1.0
  0
LINE
  5
442
100
AcDbEntity
  8
0
370
    35
390
0
 62
     7
 48
0.01
100
AcDbLine
 10
241.906982
 20
241.75
 30
0.0
 11
241.906982
 21
241.349991
 31
0.0
210
0.0
220
0.0
230
1.0
  0
LINE
  5
443
100
AcDbEntity
  8
0
370
    35
390
0
 62
     7
 48
0.016251
100
AcDbLine
 10
241.256958
 20
241.75
 30
0.0
 11
241.906982
 21
241.75
 31
0.0
210
0.0
220
0.0
230
1.0
  0
ARC
  5
444
100
AcDbEntity
  8
0
370
    35
390
0
 62
     7
100
AcDbCircle
 10
241.256958
 20
242.0
 30
0.0
 40
0.25
210
0.0
220
0.0
230
1.0
100
AcDbArc
 50
180.000009
 51
269.999997
  0
LINE
  5
445
100
AcDbEntity
  8
0
370
    35
390
0
 62
     7
 48
0.01625
100
AcDbLine
 10
241.006958
 20
242.649994
 30
0.0
 11
241.006958
 21
242.0
 31
0.0
210
0.0
220
0.0
230
1.0
  0
LINE
  5
446
100
AcDbEntity
  8
0
370
    35
390
0
 62
     7
 48
0.105001
100
AcDbLine
 10
280.456818
 20
237.107971
 30
0.0
 11
278.994446
 21
241.045212
 31
0.0
210
0.0
220
0.0
230
1.0
  0
ARC
  5
447
100
AcDbEntity
  8
0
370
    35
390
0
 62
     7
100
AcDbCircle
 10
280.269348
 20
237.03833
 30
0.0
 40
0.2
210
0.0
220
0.0
230
1.0
100
AcDbArc
 50
269.999997
 51
20.376
  0
LINE
  5
448
100
AcDbEntity
  8
0
370
    35
390
0
 62
     7
 48
0.073119
100
AcDbLine
 10
277.344604
 20
236.838348
 30
0.0
 11
280.269348
 21
236.838348
 31
0.0
210
0.0
220
0.0
230
1.0
  0
ARC
  5
449
100
AcDbEntity
  8
0
370
    35
390
0
 62
     7
100
AcDbCircle
 10
277.344604
 20
237.03833
 30
0.0
 40
0.2
210
0.0
220
0.0
230
1.0
100
AcDbArc
 50
159.624007
 51
269.999997
  0
LINE
  5
44A
100
AcDbEntity
  8
0
370
    35
390
0
 62
     7
 48
0.105001
100
AcDbLine
 10
278.619476
 20
241.045212
 30
0.0
 11
277.157104
 21
237.107971
 31
0.0
210
0.0
220
0.0
230
1.0
  0
ARC
  5
44B
100
AcDbEntity
  8
0
370
    35
390
0
 62
     7
100
AcDbCircle
 10
278.806976
 20
240.975571
 30
0.0
 40
0.2
210
0.0
220
0.0
230
1.0
100
AcDbArc
 50
20.376
 51
159.624007
  0
LINE
  5
44C
100
AcDbEntity
  8
0
370
    35
390
0
 62
     7
 48
0.0075
100
AcDbLine
 10
226.70697
 20
243.149994
 30
0.0
 11
227.006958
 21
243.149994
 31
0.0
210
0.0
220
0.0
230
1.0
  0
LINE
  5
44D
100
AcDbEntity
  8
0
370
    35
390
0
 62
     7
 48
0.000906
100
AcDbLine
 10
228.255737
 20
242.575607
 30
0.0
 11
228.281342
 21
242.601227
 31
0.0
210
0.0
220
0.0
230
1.0
  0
POLYLINE
  5
44E
100
AcDbEntity
  8
0
370
    35
390
0
 62
     7
100
AcDb2dPolyline
 66
     1
 10
0.0
 20
0.0
 30
0.0
 71
    23
  0
VERTEX
  5
44F
100
AcDbEntity
  8
0
370
     0
390
0
100
AcDbVertex
100
AcDb2dVertex
 10
243.493805
 20
242.582916
 30
0.0
  0
VERTEX
  5
450
100
AcDbEntity
  8
0
370
     0
390
0
100
AcDbVertex
100
AcDb2dVertex
 10
243.497009
 20
242.57312
 30
0.0
  0
VERTEX
  5
451
100
AcDbEntity
  8
0
370
     0
390
0
100
AcDbVertex
100
AcDb2dVertex
 10
243.50412
 20
242.556976
 30
0.0
  0
VERTEX
  5
452
100
AcDbEntity
  8
0
370
     0
390
0
100
AcDbVertex
100
AcDb2dVertex
 10
243.507416
 20
242.550507
 30
0.0
  0
VERTEX
  5
453
100
AcDbEntity
  8
0
370
     0
390
0
100
AcDbVertex
100
AcDb2dVertex
 10
243.508057
 20
242.549042
 30
0.0
  0
VERTEX
  5
454
100
AcDbEntity
  8
0
370
     0
390
0
100
AcDbVertex
100
AcDb2dVertex
 10
243.490906
 20
242.570526
 30
0.0
  0
VERTEX
  5
455
100
AcDbEntity
  8
0
370
     0
390
0
100
AcDbVertex
100
AcDb2dVertex
 10
243.487396
 20
242.575684
 30
0.0
  0
VERTEX
  5
456
100
AcDbEntity
  8
0
370
     0
390
0
100
AcDbVertex
100
AcDb2dVertex
 10
243.489197
 20
242.574432
 30
0.0
  0
VERTEX
  5
457
100
AcDbEntity
  8
0
370
     0
390
0
100
AcDbVertex
100
AcDb2dVertex
 10
243.497955
 20
242.564178
 30
0.0
  0
VERTEX
  5
458
100
AcDbEntity
  8
0
370
     0
390
0
100
AcDbVertex
100
AcDb2dVertex
 10
243.506531
 20
242.552353
 30
0.0
  0
VERTEX
  5
459
100
AcDbEntity
  8
0
370
     0
390
0
100
AcDbVertex
100
AcDb2dVertex
 10
243.507294
 20
242.55072
 30
0.0
  0
VERTEX
  5
45A
100
AcDbEntity
  8
0
370
     0
390
0
100
AcDbVertex
100
AcDb2dVertex
 10
243.507202
 20
242.54953
 30
0.0
  0
VERTEX
  5
45B
100
AcDbEntity
  8
0
370
     0
390
0
100
AcDbVertex
100
AcDb2dVertex
 10
243.504608
 20
242.55043
 30
0.0
  0
VERTEX
  5
45C
100
AcDbEntity
  8
0
370
     0
390
0
100
AcDbVertex
100
AcDb2dVertex
 10
243.492767
 20
242.55899
 30
0.0
  0
VERTEX
  5
45D
100
AcDbEntity
  8
0
370
     0
390
0
100
AcDbVertex
100
AcDb2dVertex
 10
243.482544
 20
242.567749
 30
0.0
  0
VERTEX
  5
45E
100
AcDbEntity
  8
0
370
     0
390
0
100
AcDbVertex
100
AcDb2dVertex
 10
243.480896
 20
242.569366
 30
0.0
  0
VERTEX
  5
45F
100
AcDbEntity
  8
0
370
     0
390
0
100
AcDbVertex
100
AcDb2dVertex
 10
243.48642
 20
242.56604
 30
0.0
  0
VERTEX
  5
460
100
AcDbEntity
  8
0
370
     0
390
0
100
AcDbVertex
100
AcDb2dVertex
 10
243.507446
 20
242.549713
 30
0.0
  0
VERTEX
  5
461
100
AcDbEntity
  8
0
370
     0
390
0
100
AcDbVertex
100
AcDb2dVertex
 10
243.508148
 20
242.54892
 30
0.0
  0
VERTEX
  5
462
100
AcDbEntity
  8
0
370
     0
390
0
100
AcDbVertex
100
AcDb2dVertex
 10
243.506439
 20
242.549561
 30
0.0
  0
VERTEX
  5
463
100
AcDbEntity
  8
0
370
     0
390
0
100
AcDbVertex
100
AcDb2dVertex
 10
243.499969
 20
242.552826
 30
0.0
  0
VERTEX
  5
464
100
AcDbEntity
  8
0
370
     0
390
0
100
AcDbVertex
100
AcDb2dVertex
 10
243.483826
 20
242.559967
 30
0.0
  0
VERTEX
  5
465
100
AcDbEntity
  8
0
370
     0
390
0
100
AcDbVertex
100
AcDb2dVertex
 10
243.47406
 20
242.563156
 30
0.0
  0
SEQEND
  5
466
100
AcDbEntity
  8
0
370
     0
390
0
  0
POLYLINE
  5
467
100
AcDbEntity
  8
0
370
    35
390
0
 62
     7
100
AcDb2dPolyline
 66
     1
 10
0.0
 20
0.0
 30
0.0
 71
    24
  0
VERTEX
  5
468
100
AcDbEntity
  8
0
370
     0
390
0
100
AcDbVertex
100
AcDb2dVertex
 10
322.493805
 20
242.582916
 30
0.0
  0
VERTEX
  5
469
100
AcDbEntity
  8
0
370
     0
390
0
100
AcDbVertex
100
AcDb2dVertex
 10
322.497009
 20
242.57312
 30
0.0
  0
VERTEX
  5
46A
100
AcDbEntity
  8
0
370
     0
390
0
100
AcDbVertex
100
AcDb2dVertex
 10
322.50412
 20
242.556976
 30
0.0
  0
VERTEX
  5
46B
100
AcDbEntity
  8
0
370
     0
390
0
100
AcDbVertex
100
AcDb2dVertex
 10
322.507416
 20
242.550507
 30
0.0
  0
VERTEX
  5
46C
100
AcDbEntity
  8
0
370
     0
390
0
100
AcDbVertex
100
AcDb2dVertex
 10
322.508057
 20
242.549042
 30
0.0
  0
VERTEX
  5
46D
100
AcDbEntity
  8
0
370
     0
390
0
100
AcDbVertex
100
AcDb2dVertex
 10
322.490906
 20
242.570526
 30
0.0
  0
VERTEX
  5
46E
100
AcDbEntity
  8
0
370
     0
390
0
100
AcDbVertex
100
AcDb2dVertex
 10
322.487396
 20
242.575684
 30
0.0
  0
VERTEX
  5
46F
100
AcDbEntity
  8
0
370
     0
390
0
100
AcDbVertex
100
AcDb2dVertex
 10
322.489227
 20
242.574432
 30
0.0
  0
VERTEX
  5
470
100
AcDbEntity
  8
0
370
     0
390
0
100
AcDbVertex
100
AcDb2dVertex
 10
322.497955
 20
242.564178
 30
0.0
  0
VERTEX
  5
471
100
AcDbEntity
  8
0
370
     0
390
0
100
AcDbVertex
100
AcDb2dVertex
 10
322.506531
 20
242.552353
 30
0.0
  0
VERTEX
  5
472
100
AcDbEntity
  8
0
370
     0
390
0
100
AcDbVertex
100
AcDb2dVertex
 10
322.507324
 20
242.55072
 30
0.0
  0
VERTEX
  5
473
100
AcDbEntity
  8
0
370
     0
390
0
100
AcDbVertex
100
AcDb2dVertex
 10
322.507233
 20
242.54953
 30
0.0
  0
VERTEX
  5
474
100
AcDbEntity
  8
0
370
     0
390
0
100
AcDbVertex
100
AcDb2dVertex
 10
322.506226
 20
242.549652
 30
0.0
  0
VERTEX
  5
475
100
AcDbEntity
  8
0
370
     0
390
0
100
AcDbVertex
100
AcDb2dVertex
 10
322.504608
 20
242.55043
 30
0.0
  0
VERTEX
  5
476
100
AcDbEntity
  8
0
370
     0
390
0
100
AcDbVertex
100
AcDb2dVertex
 10
322.492798
 20
242.55899
 30
0.0
  0
VERTEX
  5
477
100
AcDbEntity
  8
0
370
     0
390
0
100
AcDbVertex
100
AcDb2dVertex
 10
322.482544
 20
242.567749
 30
0.0
  0
VERTEX
  5
478
100
AcDbEntity
  8
0
370
     0
390
0
100
AcDbVertex
100
AcDb2dVertex
 10
322.480927
 20
242.569366
 30
0.0
  0
VERTEX
  5
479
100
AcDbEntity
  8
0
370
     0
390
0
100
AcDbVertex
100
AcDb2dVertex
 10
322.48642
 20
242.56604
 30
0.0
  0
VERTEX
  5
47A
100
AcDbEntity
  8
0
370
     0
390
0
100
AcDbVertex
100
AcDb2dVertex
 10
322.507477
 20
242.549713
 30
0.0
  0
VERTEX
  5
47B
100
AcDbEntity
  8
0
370
     0
390
0
100
AcDbVertex
100
AcDb2dVertex
 10
322.508148
 20
242.54892
 30
0.0
  0
VERTEX
  5
47C
100
AcDbEntity
  8
0
370
     0
390
0
100
AcDbVertex
100
AcDb2dVertex
 10
322.50647
 20
242.549561
 30
0.0
  0
VERTEX
  5
47D
100
AcDbEntity
  8
0
370
     0
390
0
100
AcDbVertex
100
AcDb2dVertex
 10
322.499969
 20
242.552826
 30
0.0
  0
VERTEX
  5
47E
100
AcDbEntity
  8
0
370
     0
390
0
100
AcDbVertex
100
AcDb2dVertex
 10
322.483826
 20
242.559967
 30
0.0
  0
VERTEX
  5
47F
100
AcDbEntity
  8
0
370
     0
390
0
100
AcDbVertex
100
AcDb2dVertex
 10
322.47406
 20
242.563156
 30
0.0
  0
SEQEND
  5
480
100
AcDbEntity
  8
0
370
     0
390
0
  0
LINE
  5
481
100
AcDbEntity
  8
0
370
    35
390
0
 62
     7
 48
0.000906
100
AcDbLine
 10
337.255737
 20
242.575607
 30
0.0
 11
337.281342
 21
242.601227
 31
0.0
210
0.0
220
0.0
230
1.0
  0
LINE
  5
482
100
AcDbEntity
  8
0
370
    35
390
0
 62
     7
 48
0.00433
100
AcDbLine
 10
248.443573
 20
222.25
 30
0.0
 11
248.530182
 21
222.099991
 31
0.0
210
0.0
220
0.0
230
1.0
  0
LINE
  5
483
100
AcDbEntity
  8
0
370
    35
390
0
 62
     7
 48
0.00433
100
AcDbLine
 10
245.17038
 20
222.25
 30
0.0
 11
245.083771
 21
222.099991
 31
0.0
210
0.0
220
0.0
230
1.0
  0
LINE
  5
484
100
AcDbEntity
  8
0
370
    35
390
0
 62
     7
 48
0.00433
100
AcDbLine
 10
334.17038
 20
222.25
 30
0.0
 11
334.083771
 21
222.099991
 31
0.0
210
0.0
220
0.0
230
1.0
  0
LINE
  5
485
100
AcDbEntity
  8
0
370
    35
390
0
 62
     7
 48
0.00433
100
AcDbLine
 10
337.443573
 20
222.25
 30
0.0
 11
337.530182
 21
222.099991
 31
0.0
210
0.0
220
0.0
230
1.0
  0
LINE
  5
486
100
AcDbEntity
  8
0
370
    35
390
0
 62
     7
 48
0.00625
100
AcDbLine
 10
248.530182
 20
221.849991
 30
0.0
 11
248.530182
 21
222.099991
 31
0.0
210
0.0
220
0.0
230
1.0
  0
LINE
  5
487
100
AcDbEntity
  8
0
370
    35
390
0
 62
     7
 48
0.00625
100
AcDbLine
 10
245.083771
 20
221.849991
 30
0.0
 11
245.083771
 21
222.099991
 31
0.0
210
0.0
220
0.0
230
1.0
  0
LINE
  5
488
100
AcDbEntity
  8
0
370
    35
390
0
 62
     7
 48
0.00625
100
AcDbLine
 10
334.083771
 20
222.099991
 30
0.0
 11
334.083771
 21
221.849991
 31
0.0
210
0.0
220
0.0
230
1.0
  0
LINE
  5
489
100
AcDbEntity
  8
0
370
    35
390
0
 62
     7
 48
0.00625
100
AcDbLine
 10
337.530182
 20
222.099991
 30
0.0
 11
337.530182
 21
221.849991
 31
0.0
210
0.0
220
0.0
230
1.0
  0
LINE
  5
48A
100
AcDbEntity
  8
0
370
    35
390
0
 62
     7
 48
0.0075
100
AcDbLine
 10
355.606964
 20
243.149994
 30
0.0
 11
355.906982
 21
243.149994
 31
0.0
210
0.0
220
0.0
230
1.0
  0
LINE
  5
48B
100
AcDbEntity
  8
0
370
    35
390
0
 62
     7
 48
0.085
100
AcDbLine
 10
116.806969
 20
143.149994
 30
0.0
 11
113.406967
 21
143.149994
 31
0.0
210
0.0
220
0.0
230
1.0
  0
LINE
  5
48C
100
AcDbEntity
  8
0
370
    35
390
0
 62
     7
 48
0.085
100
AcDbLine
 10
120.20697
 20
143.149994
 30
0.0
 11
116.806969
 21
143.149994
 31
0.0
210
0.0
220
0.0
230
1.0
  0
LINE
  5
48D
100
AcDbEntity
  8
0
370
    35
390
0
 62
     7
 48
0.003751
100
AcDbLine
 10
195.20697
 20
224.750015
 30
0.0
 11
195.20697
 21
224.599991
 31
0.0
210
0.0
220
0.0
230
1.0
  0
LINE
  5
48E
100
AcDbEntity
  8
0
370
    35
390
0
 62
     7
 48
0.003751
100
AcDbLine
 10
193.006958
 20
224.750015
 30
0.0
 11
193.006958
 21
224.599991
 31
0.0
210
0.0
220
0.0
230
1.0
  0
LINE
  5
48F
100
AcDbEntity
  8
0
370
    35
390
0
 62
     7
 48
0.003576
100
AcDbLine
 10
190.806976
 20
224.743011
 30
0.0
 11
190.806976
 21
224.599991
 31
0.0
210
0.0
220
0.0
230
1.0
  0
LINE
  5
490
100
AcDbEntity
  8
0
370
    35
390
0
 62
     7
 48
0.014422
100
AcDbLine
 10
196.20697
 20
232.285599
 30
0.0
 11
196.20697
 21
232.862488
 31
0.0
210
0.0
220
0.0
230
1.0
  0
LINE
  5
491
100
AcDbEntity
  8
0
370
    35
390
0
 62
     7
 48
0.07839
100
AcDbLine
 10
196.20697
 20
229.149994
 30
0.0
 11
196.20697
 21
232.285599
 31
0.0
210
0.0
220
0.0
230
1.0
  0
LINE
  5
492
100
AcDbEntity
  8
0
370
    35
390
0
 62
     7
 48
0.025
100
AcDbLine
 10
195.20697
 20
229.149994
 30
0.0
 11
196.20697
 21
229.149994
 31
0.0
210
0.0
220
0.0
230
1.0
  0
LINE
  5
493
100
AcDbEntity
  8
0
370
    35
390
0
 62
     7
 48
0.077019
100
AcDbLine
 10
195.20697
 20
232.230743
 30
0.0
 11
195.20697
 21
229.149994
 31
0.0
210
0.0
220
0.0
230
1.0
  0
LINE
  5
494
100
AcDbEntity
  8
0
370
    35
390
0
 62
     7
 48
0.014231
100
AcDbLine
 10
195.20697
 20
232.799988
 30
0.0
 11
195.20697
 21
232.230743
 31
0.0
210
0.0
220
0.0
230
1.0
  0
LINE
  5
495
100
AcDbEntity
  8
0
370
    35
390
0
 62
     7
 48
0.014001
100
AcDbLine
 10
194.006958
 20
232.164932
 30
0.0
 11
194.006958
 21
232.724991
 31
0.0
210
0.0
220
0.0
230
1.0
  0
LINE
  5
496
100
AcDbEntity
  8
0
370
    35
390
0
 62
     7
 48
0.075373
100
AcDbLine
 10
194.006958
 20
229.149994
 30
0.0
 11
194.006958
 21
232.164932
 31
0.0
210
0.0
220
0.0
230
1.0
  0
LINE
  5
497
100
AcDbEntity
  8
0
370
    35
390
0
 62
     7
 48
0.025
100
AcDbLine
 10
193.006958
 20
229.149994
 30
0.0
 11
194.006958
 21
229.149994
 31
0.0
210
0.0
220
0.0
230
1.0
  0
LINE
  5
498
100
AcDbEntity
  8
0
370
    35
390
0
 62
     7
 48
0.074002
100
AcDbLine
 10
193.006958
 20
232.110077
 30
0.0
 11
193.006958
 21
229.149994
 31
0.0
210
0.0
220
0.0
230
1.0
  0
LINE
  5
499
100
AcDbEntity
  8
0
370
    35
390
0
 62
     7
 48
0.01381
100
AcDbLine
 10
193.006958
 20
232.662491
 30
0.0
 11
193.006958
 21
232.110077
 31
0.0
210
0.0
220
0.0
230
1.0
  0
LINE
  5
49A
100
AcDbEntity
  8
0
370
    35
390
0
 62
     7
 48
0.013581
100
AcDbLine
 10
191.806976
 20
232.044266
 30
0.0
 11
191.806976
 21
232.587494
 31
0.0
210
0.0
220
0.0
230
1.0
  0
LINE
  5
49B
100
AcDbEntity
  8
0
370
    35
390
0
 62
     7
 48
0.072357
100
AcDbLine
 10
191.806976
 20
229.149994
 30
0.0
 11
191.806976
 21
232.044266
 31
0.0
210
0.0
220
0.0
230
1.0
  0
LINE
  5
49C
100
AcDbEntity
  8
0
370
    35
390
0
 62
     7
 48
0.025
100
AcDbLine
 10
190.806976
 20
229.149994
 30
0.0
 11
191.806976
 21
229.149994
 31
0.0
210
0.0
220
0.0
230
1.0
  0
LINE
  5
49D
100
AcDbEntity
  8
0
370
    35
390
0
 62
     7
 48
0.070985
100
AcDbLine
 10
190.806976
 20
231.98941
 30
0.0
 11
190.806976
 21
229.149994
 31
0.0
210
0.0
220
0.0
230
1.0
  0
LINE
  5
49E
100
AcDbEntity
  8
0
370
    35
390
0
 62
     7
 48
0.01339
100
AcDbLine
 10
190.806976
 20
232.524994
 30
0.0
 11
190.806976
 21
231.98941
 31
0.0
210
0.0
220
0.0
230
1.0
  0
LINE
  5
49F
100
AcDbEntity
  8
0
370
    35
390
0
 62
     7
 48
0.199493
100
AcDbLine
 10
188.806976
 20
223.899994
 30
0.0
 11
188.806976
 21
231.879715
 31
0.0
210
0.0
220
0.0
230
1.0
  0
LINE
  5
4A0
100
AcDbEntity
  8
0
370
    35
390
0
 62
     7
 48
0.013007
100
AcDbLine
 10
188.806976
 20
231.879715
 30
0.0
 11
188.806976
 21
232.399994
 31
0.0
210
0.0
220
0.0
230
1.0
  0
LINE
  5
4A1
100
AcDbEntity
  8
0
370
    35
390
0
 62
     7
 48
0.084375
100
AcDbLine
 10
190.806976
 20
227.149994
 30
0.0
 11
190.806976
 21
223.774994
 31
0.0
210
0.0
220
0.0
230
1.0
  0
LINE
  5
4A2
100
AcDbEntity
  8
0
370
    35
390
0
 62
     7
 48
0.025
100
AcDbLine
 10
190.806976
 20
227.149994
 30
0.0
 11
191.806976
 21
227.149994
 31
0.0
210
0.0
220
0.0
230
1.0
  0
LINE
  5
4A3
100
AcDbEntity
  8
0
370
    35
390
0
 62
     7
 48
0.085938
100
AcDbLine
 10
191.806976
 20
223.712494
 30
0.0
 11
191.806976
 21
227.149994
 31
0.0
210
0.0
220
0.0
230
1.0
  0
LINE
  5
4A4
100
AcDbEntity
  8
0
370
    35
390
0
 62
     7
 48
0.087813
100
AcDbLine
 10
193.006958
 20
227.149994
 30
0.0
 11
193.006958
 21
223.637482
 31
0.0
210
0.0
220
0.0
230
1.0
  0
LINE
  5
4A5
100
AcDbEntity
  8
0
370
    35
390
0
 62
     7
 48
0.025
100
AcDbLine
 10
193.006958
 20
227.149994
 30
0.0
 11
194.006958
 21
227.149994
 31
0.0
210
0.0
220
0.0
230
1.0
  0
LINE
  5
4A6
100
AcDbEntity
  8
0
370
    35
390
0
 62
     7
 48
0.089375
100
AcDbLine
 10
194.006958
 20
223.574982
 30
0.0
 11
194.006958
 21
227.149994
 31
0.0
210
0.0
220
0.0
230
1.0
  0
LINE
  5
4A7
100
AcDbEntity
  8
0
370
    35
390
0
 62
     7
 48
0.09125
100
AcDbLine
 10
195.20697
 20
227.149994
 30
0.0
 11
195.20697
 21
223.5
 31
0.0
210
0.0
220
0.0
230
1.0
  0
LINE
  5
4A8
100
AcDbEntity
  8
0
370
    35
390
0
 62
     7
 48
0.025
100
AcDbLine
 10
195.20697
 20
227.149994
 30
0.0
 11
196.20697
 21
227.149994
 31
0.0
210
0.0
220
0.0
230
1.0
  0
LINE
  5
4A9
100
AcDbEntity
  8
0
370
    35
390
0
 62
     7
 48
0.092812
100
AcDbLine
 10
196.20697
 20
223.4375
 30
0.0
 11
196.20697
 21
227.149994
 31
0.0
210
0.0
220
0.0
230
1.0
  0
LINE
  5
4AA
100
AcDbEntity
  8
0
370
    35
390
0
 62
     7
 48
0.015302
100
AcDbLine
 10
200.806976
 20
232.537903
 30
0.0
 11
200.806976
 21
233.149994
 31
0.0
210
0.0
220
0.0
230
1.0
  0
LINE
  5
4AB
100
AcDbEntity
  8
0
370
    35
390
0
 62
     7
 48
0.234698
100
AcDbLine
 10
200.806976
 20
223.149994
 30
0.0
 11
200.806976
 21
232.537903
 31
0.0
210
0.0
220
0.0
230
1.0
  0
LINE
  5
4AC
100
AcDbEntity
  8
0
370
    35
390
0
 62
     7
 48
0.01622
100
AcDbLine
 10
201.806976
 20
232.801178
 30
0.0
 11
201.806976
 21
233.449982
 31
0.0
210
0.0
220
0.0
230
1.0
  0
LINE
  5
4AD
100
AcDbEntity
  8
0
370
    35
390
0
 62
     7
 48
0.24878
100
AcDbLine
 10
201.806976
 20
222.849991
 30
0.0
 11
201.806976
 21
232.801178
 31
0.0
210
0.0
220
0.0
230
1.0
  0
LINE
  5
4AE
100
AcDbEntity
  8
0
370
    35
390
0
 62
     7
 48
0.070605
100
AcDbLine
 10
223.806976
 20
229.780548
 30
0.0
 11
223.806976
 21
232.604767
 31
0.0
210
0.0
220
0.0
230
1.0
  0
LINE
  5
4AF
100
AcDbEntity
  8
0
370
    35
390
0
 62
     7
 48
0.005367
100
AcDbLine
 10
223.806976
 20
234.235321
 30
0.0
 11
223.806976
 21
234.449982
 31
0.0
210
0.0
220
0.0
230
1.0
  0
LINE
  5
4B0
100
AcDbEntity
  8
0
370
    35
390
0
 62
     7
 48
0.25
100
AcDbLine
 10
213.806976
 20
229.780548
 30
0.0
 11
223.806976
 21
229.780548
 31
0.0
210
0.0
220
0.0
230
1.0
  0
LINE
  5
4B1
100
AcDbEntity
  8
0
370
    35
390
0
 62
     7
 48
0.081528
100
AcDbLine
 10
213.806976
 20
229.780548
 30
0.0
 11
213.806976
 21
226.51944
 31
0.0
210
0.0
220
0.0
230
1.0
  0
LINE
  5
4B2
100
AcDbEntity
  8
0
370
    35
390
0
 62
     7
 48
0.25
100
AcDbLine
 10
213.806976
 20
226.51944
 30
0.0
 11
223.806976
 21
226.51944
 31
0.0
210
0.0
220
0.0
230
1.0
  0
LINE
  5
4B3
100
AcDbEntity
  8
0
370
    35
390
0
 62
     7
 48
0.070605
100
AcDbLine
 10
223.806976
 20
223.695221
 30
0.0
 11
223.806976
 21
226.51944
 31
0.0
210
0.0
220
0.0
230
1.0
  0
LINE
  5
4B4
100
AcDbEntity
  8
0
370
    35
390
0
 62
     7
 48
0.040764
100
AcDbLine
 10
213.806976
 20
223.695221
 30
0.0
 11
213.806976
 21
222.064667
 31
0.0
210
0.0
220
0.0
230
1.0
  0
LINE
  5
4B5
100
AcDbEntity
  8
0
370
    35
390
0
 62
     7
 48
0.25
100
AcDbLine
 10
213.806976
 20
222.064667
 30
0.0
 11
223.806976
 21
222.064667
 31
0.0
210
0.0
220
0.0
230
1.0
  0
LINE
  5
4B6
100
AcDbEntity
  8
0
370
    35
390
0
 62
     7
 48
0.005367
100
AcDbLine
 10
223.806976
 20
221.849991
 30
0.0
 11
223.806976
 21
222.064667
 31
0.0
210
0.0
220
0.0
230
1.0
  0
LINE
  5
4B7
100
AcDbEntity
  8
0
370
    35
390
0
 62
     7
 48
0.040764
100
AcDbLine
 10
213.806976
 20
234.235321
 30
0.0
 11
213.806976
 21
232.604767
 31
0.0
210
0.0
220
0.0
230
1.0
  0
LINE
  5
4B8
100
AcDbEntity
  8
0
370
    35
390
0
 62
     7
 48
0.25
100
AcDbLine
 10
213.806976
 20
234.235321
 30
0.0
 11
223.806976
 21
234.235321
 31
0.0
210
0.0
220
0.0
230
1.0
  0
LINE
  5
4B9
100
AcDbEntity
  8
0
370
    35
390
0
 62
     7
 48
0.013034
100
AcDbLine
 10
223.806976
 20
232.604767
 30
0.0
 11
223.306976
 21
232.752411
 31
0.0
210
0.0
220
0.0
230
1.0
  0
LINE
  5
4BA
100
AcDbEntity
  8
0
370
    35
390
0
 62
     7
 48
0.064212
100
AcDbLine
 10
223.306976
 20
230.183914
 30
0.0
 11
223.306976
 21
232.752411
 31
0.0
210
0.0
220
0.0
230
1.0
  0
LINE
  5
4BB
100
AcDbEntity
  8
0
370
    35
390
0
 62
     7
 48
0.016061
100
AcDbLine
 10
223.806976
 20
229.780548
 30
0.0
 11
223.306976
 21
230.183914
 31
0.0
210
0.0
220
0.0
230
1.0
  0
LINE
  5
4BC
100
AcDbEntity
  8
0
370
    35
390
0
 62
     7
 48
0.004091
100
AcDbLine
 10
223.306976
 20
234.786331
 30
0.0
 11
223.306976
 21
234.949982
 31
0.0
210
0.0
220
0.0
230
1.0
  0
ARC
  5
4BD
100
AcDbEntity
  8
0
370
    35
390
0
 62
     7
100
AcDbCircle
 10
175.496216
 20
190.896088
 30
0.0
 40
64.901611
210
0.0
220
0.0
230
1.0
100
AcDbArc
 50
41.895052
 51
42.551911
  0
LINE
  5
4BE
100
AcDbEntity
  8
0
370
    35
390
0
 62
     7
 48
0.225
100
AcDbLine
 10
214.306976
 20
230.183914
 30
0.0
 11
223.306976
 21
230.183914
 31
0.0
210
0.0
220
0.0
230
1.0
  0
LINE
  5
4BF
100
AcDbEntity
  8
0
370
    35
390
0
 62
     7
 48
0.016061
100
AcDbLine
 10
213.806976
 20
229.780548
 30
0.0
 11
214.306976
 21
230.183914
 31
0.0
210
0.0
220
0.0
230
1.0
  0
LINE
  5
4C0
100
AcDbEntity
  8
0
370
    35
390
0
 62
     7
 48
0.007259
100
AcDbLine
 10
213.806976
 20
226.51944
 30
0.0
 11
213.806976
 21
226.229065
 31
0.0
210
0.0
220
0.0
230
1.0
  0
LINE
  5
4C1
100
AcDbEntity
  8
0
370
    35
390
0
 62
     7
 48
0.007259
100
AcDbLine
 10
213.806976
 20
229.780548
 30
0.0
 11
213.806976
 21
230.070923
 31
0.0
210
0.0
220
0.0
230
1.0
  0
LINE
  5
4C2
100
AcDbEntity
  8
0
370
    35
390
0
 62
     7
 48
0.016061
100
AcDbLine
 10
213.806976
 20
226.51944
 30
0.0
 11
214.306976
 21
226.116074
 31
0.0
210
0.0
220
0.0
230
1.0
  0
LINE
  5
4C3
100
AcDbEntity
  8
0
370
    35
390
0
 62
     7
 48
0.225
100
AcDbLine
 10
214.306976
 20
226.116074
 30
0.0
 11
223.306976
 21
226.116074
 31
0.0
210
0.0
220
0.0
230
1.0
  0
LINE
  5
4C4
100
AcDbEntity
  8
0
370
    35
390
0
 62
     7
 48
0.016061
100
AcDbLine
 10
223.806976
 20
226.51944
 30
0.0
 11
223.306976
 21
226.116074
 31
0.0
210
0.0
220
0.0
230
1.0
  0
LINE
  5
4C5
100
AcDbEntity
  8
0
370
    35
390
0
 62
     7
 48
0.064212
100
AcDbLine
 10
223.306976
 20
223.547577
 30
0.0
 11
223.306976
 21
226.116074
 31
0.0
210
0.0
220
0.0
230
1.0
  0
LINE
  5
4C6
100
AcDbEntity
  8
0
370
    35
390
0
 62
     7
 48
0.013034
100
AcDbLine
 10
223.806976
 20
223.695221
 30
0.0
 11
223.306976
 21
223.547577
 31
0.0
210
0.0
220
0.0
230
1.0
  0
LINE
  5
4C7
100
AcDbEntity
  8
0
370
    35
390
0
 62
     7
 48
0.225
100
AcDbLine
 10
214.306976
 20
223.547577
 30
0.0
 11
223.306976
 21
223.547577
 31
0.0
210
0.0
220
0.0
230
1.0
  0
LINE
  5
4C8
100
AcDbEntity
  8
0
370
    35
390
0
 62
     7
 48
0.013034
100
AcDbLine
 10
213.806976
 20
223.695221
 30
0.0
 11
214.306976
 21
223.547577
 31
0.0
210
0.0
220
0.0
230
1.0
  0
LINE
  5
4C9
100
AcDbEntity
  8
0
370
    35
390
0
 62
     7
 48
0.001782
100
AcDbLine
 10
213.806976
 20
222.064667
 30
0.0
 11
213.806976
 21
221.993378
 31
0.0
210
0.0
220
0.0
230
1.0
  0
LINE
  5
4CA
100
AcDbEntity
  8
0
370
    35
390
0
 62
     7
 48
0.005477
100
AcDbLine
 10
213.806976
 20
223.914307
 30
0.0
 11
213.806976
 21
223.695221
 31
0.0
210
0.0
220
0.0
230
1.0
  0
ARC
  5
4CB
100
AcDbEntity
  8
0
370
    35
390
0
 62
     7
100
AcDbCircle
 10
262.117706
 20
265.40387
 30
0.0
 40
64.901611
210
0.0
220
0.0
230
1.0
100
AcDbArc
 50
221.89505
 51
222.55191
  0
LINE
  5
4CC
100
AcDbEntity
  8
0
370
    35
390
0
 62
     7
 48
0.225
100
AcDbLine
 10
214.306976
 20
221.513657
 30
0.0
 11
223.306976
 21
221.513657
 31
0.0
210
0.0
220
0.0
230
1.0
  0
ARC
  5
4CD
100
AcDbEntity
  8
0
370
    35
390
0
 62
     7
100
AcDbCircle
 10
175.496216
 20
265.40387
 30
0.0
 40
64.901611
210
0.0
220
0.0
230
1.0
100
AcDbArc
 50
317.448096
 51
318.104941
  0
LINE
  5
4CE
100
AcDbEntity
  8
0
370
    35
390
0
 62
     7
 48
0.004092
100
AcDbLine
 10
223.306976
 20
221.349991
 30
0.0
 11
223.306976
 21
221.513657
 31
0.0
210
0.0
220
0.0
230
1.0
  0
LINE
  5
4CF
100
AcDbEntity
  8
0
370
    35
390
0
 62
     7
 48
0.005477
100
AcDbLine
 10
213.806976
 20
232.385681
 30
0.0
 11
213.806976
 21
232.604767
 31
0.0
210
0.0
220
0.0
230
1.0
  0
LINE
  5
4D0
100
AcDbEntity
  8
0
370
    35
390
0
 62
     7
 48
0.001782
100
AcDbLine
 10
213.806976
 20
234.30661
 30
0.0
 11
213.806976
 21
234.235321
 31
0.0
210
0.0
220
0.0
230
1.0
  0
LINE
  5
4D1
100
AcDbEntity
  8
0
370
    35
390
0
 62
     7
 48
0.013034
100
AcDbLine
 10
213.806976
 20
232.604767
 30
0.0
 11
214.306976
 21
232.752411
 31
0.0
210
0.0
220
0.0
230
1.0
  0
LINE
  5
4D2
100
AcDbEntity
  8
0
370
    35
390
0
 62
     7
 48
0.225
100
AcDbLine
 10
214.306976
 20
232.752411
 30
0.0
 11
223.306976
 21
232.752411
 31
0.0
210
0.0
220
0.0
230
1.0
  0
LINE
  5
4D3
100
AcDbEntity
  8
0
370
    35
390
0
 62
     7
 48
0.225
100
AcDbLine
 10
214.306976
 20
234.786331
 30
0.0
 11
223.306976
 21
234.786331
 31
0.0
210
0.0
220
0.0
230
1.0
  0
ARC
  5
4D4
100
AcDbEntity
  8
0
370
    35
390
0
 62
     7
100
AcDbCircle
 10
262.117706
 20
190.896088
 30
0.0
 40
64.901611
210
0.0
220
0.0
230
1.0
100
AcDbArc
 50
137.44809
 51
138.10495
  0
LINE
  5
4D5
100
AcDbEntity
  8
0
370
    35
390
0
 62
     7
 48
0.064212
100
AcDbLine
 10
214.306976
 20
230.183914
 30
0.0
 11
214.306976
 21
232.752411
 31
0.0
210
0.0
220
0.0
230
1.0
  0
LINE
  5
4D6
100
AcDbEntity
  8
0
370
    35
390
0
 62
     7
 48
0.003584
100
AcDbLine
 10
213.806976
 20
234.30661
 30
0.0
 11
213.806976
 21
234.449982
 31
0.0
210
0.0
220
0.0
230
1.0
  0
LINE
  5
4D7
100
AcDbEntity
  8
0
370
    35
390
0
 62
     7
 48
0.004091
100
AcDbLine
 10
214.306976
 20
234.786331
 30
0.0
 11
214.306976
 21
234.949982
 31
0.0
210
0.0
220
0.0
230
1.0
  0
LINE
  5
4D8
100
AcDbEntity
  8
0
370
    35
390
0
 62
     7
 48
0.057869
100
AcDbLine
 10
213.806976
 20
230.070923
 30
0.0
 11
213.806976
 21
232.385681
 31
0.0
210
0.0
220
0.0
230
1.0
  0
LINE
  5
4D9
100
AcDbEntity
  8
0
370
    35
390
0
 62
     7
 48
0.057869
100
AcDbLine
 10
213.806976
 20
223.914307
 30
0.0
 11
213.806976
 21
226.229065
 31
0.0
210
0.0
220
0.0
230
1.0
  0
LINE
  5
4DA
100
AcDbEntity
  8
0
370
    35
390
0
 62
     7
 48
0.064212
100
AcDbLine
 10
214.306976
 20
223.547577
 30
0.0
 11
214.306976
 21
226.116074
 31
0.0
210
0.0
220
0.0
230
1.0
  0
LINE
  5
4DB
100
AcDbEntity
  8
0
370
    35
390
0
 62
     7
 48
0.169221
100
AcDbLine
 10
207.038147
 20
230.070923
 30
0.0
 11
213.806976
 21
230.070923
 31
0.0
210
0.0
220
0.0
230
1.0
  0
LINE
  5
4DC
100
AcDbEntity
  8
0
370
    35
390
0
 62
     7
 48
0.169221
100
AcDbLine
 10
207.038147
 20
226.229065
 30
0.0
 11
213.806976
 21
226.229065
 31
0.0
210
0.0
220
0.0
230
1.0
  0
ARC
  5
4DD
100
AcDbEntity
  8
0
370
    35
390
0
 62
     7
100
AcDbCircle
 10
217.364471
 20
228.149994
 30
0.0
 40
10.504192
210
0.0
220
0.0
230
1.0
100
AcDbArc
 50
169.462089
 51
190.537884
  0
LINE
  5
4DE
100
AcDbEntity
  8
0
370
    35
390
0
 62
     7
 48
0.169221
100
AcDbLine
 10
207.038147
 20
223.914307
 30
0.0
 11
213.806976
 21
223.914307
 31
0.0
210
0.0
220
0.0
230
1.0
  0
LINE
  5
4DF
100
AcDbEntity
  8
0
370
    35
390
0
 62
     7
 48
0.169221
100
AcDbLine
 10
207.038147
 20
221.993378
 30
0.0
 11
213.806976
 21
221.993378
 31
0.0
210
0.0
220
0.0
230
1.0
  0
ARC
  5
4E0
100
AcDbEntity
  8
0
370
    35
390
0
 62
     7
100
AcDbCircle
 10
209.552551
 20
222.953842
 30
0.0
 40
2.691781
210
0.0
220
0.0
230
1.0
100
AcDbArc
 50
159.093943
 51
200.906016
  0
LINE
  5
4E1
100
AcDbEntity
  8
0
370
    35
390
0
 62
     7
 48
0.003585
100
AcDbLine
 10
213.806976
 20
221.849991
 30
0.0
 11
213.806976
 21
221.993378
 31
0.0
210
0.0
220
0.0
230
1.0
  0
LINE
  5
4E2
100
AcDbEntity
  8
0
370
    35
390
0
 62
     7
 48
0.004092
100
AcDbLine
 10
214.306976
 20
221.349991
 30
0.0
 11
214.306976
 21
221.513657
 31
0.0
210
0.0
220
0.0
230
1.0
  0
LINE
  5
4E3
100
AcDbEntity
  8
0
370
    35
390
0
 62
     7
 48
0.169221
100
AcDbLine
 10
207.038147
 20
234.30661
 30
0.0
 11
213.806976
 21
234.30661
 31
0.0
210
0.0
220
0.0
230
1.0
  0
LINE
  5
4E4
100
AcDbEntity
  8
0
370
    35
390
0
 62
     7
 48
0.169221
100
AcDbLine
 10
207.038147
 20
232.385681
 30
0.0
 11
213.806976
 21
232.385681
 31
0.0
210
0.0
220
0.0
230
1.0
  0
ARC
  5
4E5
100
AcDbEntity
  8
0
370
    35
390
0
 62
     7
100
AcDbCircle
 10
209.552551
 20
233.346146
 30
0.0
 40
2.691781
210
0.0
220
0.0
230
1.0
100
AcDbArc
 50
159.093943
 51
200.906016
  0
LINE
  5
4E6
100
AcDbEntity
  8
0
370
    35
390
0
 62
     7
 48
0.003584
100
AcDbLine
 10
207.038147
 20
234.30661
 30
0.0
 11
207.038147
 21
234.449982
 31
0.0
210
0.0
220
0.0
230
1.0
  0
LINE
  5
4E7
100
AcDbEntity
  8
0
370
    35
390
0
 62
     7
 48
0.218215
100
AcDbLine
 10
206.806976
 20
225.321381
 30
0.0
 11
206.806976
 21
234.049988
 31
0.0
210
0.0
220
0.0
230
1.0
  0
LINE
  5
4E8
100
AcDbEntity
  8
0
370
    35
390
0
 62
     7
 48
0.027486
100
AcDbLine
 10
207.038147
 20
225.129608
 30
0.0
 11
207.038147
 21
226.229065
 31
0.0
210
0.0
220
0.0
230
1.0
  0
LINE
  5
4E9
100
AcDbEntity
  8
0
370
    35
390
0
 62
     7
 48
0.057869
100
AcDbLine
 10
207.038147
 20
230.070923
 30
0.0
 11
207.038147
 21
232.385681
 31
0.0
210
0.0
220
0.0
230
1.0
  0
LINE
  5
4EA
100
AcDbEntity
  8
0
370
    35
390
0
 62
     7
 48
0.030383
100
AcDbLine
 10
207.038147
 20
225.129608
 30
0.0
 11
207.038147
 21
223.914307
 31
0.0
210
0.0
220
0.0
230
1.0
  0
LINE
  5
4EB
100
AcDbEntity
  8
0
370
    35
390
0
 62
     7
 48
0.003585
100
AcDbLine
 10
207.038147
 20
221.849991
 30
0.0
 11
207.038147
 21
221.993378
 31
0.0
210
0.0
220
0.0
230
1.0
  0
LINE
  5
4EC
100
AcDbEntity
  8
0
370
    35
390
0
 62
     7
 48
0.076785
100
AcDbLine
 10
206.806976
 20
222.25
 30
0.0
 11
206.806976
 21
225.321381
 31
0.0
210
0.0
220
0.0
230
1.0
  0
ARC
  5
4ED
100
AcDbEntity
  8
0
370
    35
390
0
 62
     7
100
AcDbCircle
 10
191.806976
 20
153.149994
 30
0.0
 40
78.400002
210
0.0
220
0.0
230
1.0
100
AcDbArc
 50
92.192971
 51
179.999991
  0
ARC
  5
4EE
100
AcDbEntity
  8
0
370
    35
390
0
 62
     7
100
AcDbCircle
 10
191.807007
 20
153.153824
 30
0.0
 40
78.396164
210
0.0
220
0.0
230
1.0
100
AcDbArc
 50
90.00003
 51
90.730894
  0
ARC
  5
4EF
100
AcDbEntity
  8
0
370
    35
390
0
 62
     7
100
AcDbCircle
 10
191.806976
 20
153.149994
 30
0.0
 40
71.599998
210
0.0
220
0.0
230
1.0
100
AcDbArc
 50
92.401354
 51
180.000009
  0
ARC
  5
4F0
100
AcDbEntity
  8
0
370
    35
390
0
 62
     7
100
AcDbCircle
 10
191.807007
 20
153.152191
 30
0.0
 40
71.597794
210
0.0
220
0.0
230
1.0
100
AcDbArc
 50
90.000037
 51
90.800303
  0
LINE
  5
4F1
100
AcDbEntity
  8
0
370
    35
390
0
 62
     7
 48
0.025
100
AcDbLine
 10
193.006958
 20
231.549988
 30
0.0
 11
194.006958
 21
231.549988
 31
0.0
210
0.0
220
0.0
230
1.0
  0
LINE
  5
4F2
100
AcDbEntity
  8
0
370
    35
390
0
 62
     7
 48
0.025
100
AcDbLine
 10
195.20697
 20
231.549988
 30
0.0
 11
196.20697
 21
231.549988
 31
0.0
210
0.0
220
0.0
230
1.0
  0
LINE
  5
4F3
100
AcDbEntity
  8
0
370
    35
390
0
 62
     7
 48
0.25
100
AcDbLine
 10
113.406967
 20
143.149994
 30
0.0
 11
113.406967
 21
153.149994
 31
0.0
210
0.0
220
0.0
230
1.0
  0
LINE
  5
4F4
100
AcDbEntity
  8
0
370
    35
390
0
 62
     7
 48
0.025
100
AcDbLine
 10
193.006958
 20
224.75
 30
0.0
 11
194.006958
 21
224.75
 31
0.0
210
0.0
220
0.0
230
1.0
  0
LINE
  5
4F5
100
AcDbEntity
  8
0
370
    35
390
0
 62
     7
 48
0.025
100
AcDbLine
 10
195.20697
 20
224.75
 30
0.0
 11
196.20697
 21
224.75
 31
0.0
210
0.0
220
0.0
230
1.0
  0
LINE
  5
4F6
100
AcDbEntity
  8
0
370
    35
390
0
 62
     7
 48
0.25
100
AcDbLine
 10
120.20697
 20
143.149994
 30
0.0
 11
120.20697
 21
153.149994
 31
0.0
210
0.0
220
0.0
230
1.0
  0
LINE
  5
4F7
100
AcDbEntity
  8
0
370
    35
390
0
 62
     7
 48
0.050098
100
AcDbLine
 10
188.806976
 20
232.399994
 30
0.0
 11
190.806976
 21
232.524994
 31
0.0
210
0.0
220
0.0
230
1.0
  0
LINE
  5
4F8
100
AcDbEntity
  8
0
370
    35
390
0
 62
     7
 48
0.030058
100
AcDbLine
 10
191.806976
 20
232.587494
 30
0.0
 11
193.006958
 21
232.662491
 31
0.0
210
0.0
220
0.0
230
1.0
  0
LINE
  5
4F9
100
AcDbEntity
  8
0
370
    35
390
0
 62
     7
 48
0.030059
100
AcDbLine
 10
194.006958
 20
232.724991
 30
0.0
 11
195.20697
 21
232.799988
 31
0.0
210
0.0
220
0.0
230
1.0
  0
LINE
  5
4FA
100
AcDbEntity
  8
0
370
    35
390
0
 62
     7
 48
0.115225
100
AcDbLine
 10
196.20697
 20
232.862488
 30
0.0
 11
200.806976
 21
233.149994
 31
0.0
210
0.0
220
0.0
230
1.0
  0
LINE
  5
4FB
100
AcDbEntity
  8
0
370
    35
390
0
 62
     7
 48
0.050098
100
AcDbLine
 10
188.806976
 20
223.899994
 30
0.0
 11
190.806976
 21
223.774994
 31
0.0
210
0.0
220
0.0
230
1.0
  0
LINE
  5
4FC
100
AcDbEntity
  8
0
370
    35
390
0
 62
     7
 48
0.030058
100
AcDbLine
 10
191.806976
 20
223.712494
 30
0.0
 11
193.006958
 21
223.637482
 31
0.0
210
0.0
220
0.0
230
1.0
  0
LINE
  5
4FD
100
AcDbEntity
  8
0
370
    35
390
0
 62
     7
 48
0.030059
100
AcDbLine
 10
194.006958
 20
223.574982
 30
0.0
 11
195.20697
 21
223.5
 31
0.0
210
0.0
220
0.0
230
1.0
  0
LINE
  5
4FE
100
AcDbEntity
  8
0
370
    35
390
0
 62
     7
 48
0.115225
100
AcDbLine
 10
196.20697
 20
223.4375
 30
0.0
 11
200.806976
 21
223.149994
 31
0.0
210
0.0
220
0.0
230
1.0
  0
LINE
  5
4FF
100
AcDbEntity
  8
0
370
    35
390
0
 62
     7
 48
0.026101
100
AcDbLine
 10
200.806976
 20
233.149994
 30
0.0
 11
201.806976
 21
233.449982
 31
0.0
210
0.0
220
0.0
230
1.0
  0
LINE
  5
500
100
AcDbEntity
  8
0
370
    35
390
0
 62
     7
 48
0.026101
100
AcDbLine
 10
200.806976
 20
223.149994
 30
0.0
 11
201.806976
 21
222.849991
 31
0.0
210
0.0
220
0.0
230
1.0
  0
LINE
  5
501
100
AcDbEntity
  8
0
370
    35
390
0
 62
     7
 48
0.125
100
AcDbLine
 10
201.806976
 20
223.149994
 30
0.0
 11
206.806976
 21
223.149994
 31
0.0
210
0.0
220
0.0
230
1.0
  0
LINE
  5
502
100
AcDbEntity
  8
0
370
    35
390
0
 62
     7
 48
0.125
100
AcDbLine
 10
201.806976
 20
233.149994
 30
0.0
 11
206.806976
 21
233.149994
 31
0.0
210
0.0
220
0.0
230
1.0
  0
LINE
  5
503
100
AcDbEntity
  8
0
370
    35
390
0
 62
     7
 48
0.025
100
AcDbLine
 10
223.806976
 20
221.849991
 30
0.0
 11
224.806976
 21
221.849991
 31
0.0
210
0.0
220
0.0
230
1.0
  0
LINE
  5
504
100
AcDbEntity
  8
0
370
    35
390
0
 62
     7
 48
0.025
100
AcDbLine
 10
223.806976
 20
234.449982
 30
0.0
 11
224.806976
 21
234.449982
 31
0.0
210
0.0
220
0.0
230
1.0
  0
LINE
  5
505
100
AcDbEntity
  8
0
370
    35
390
0
 62
     7
 48
0.017678
100
AcDbLine
 10
223.806976
 20
234.449982
 30
0.0
 11
223.306976
 21
234.949982
 31
0.0
210
0.0
220
0.0
230
1.0
  0
LINE
  5
506
100
AcDbEntity
  8
0
370
    35
390
0
 62
     7
 48
0.017678
100
AcDbLine
 10
223.806976
 20
221.849991
 30
0.0
 11
223.306976
 21
221.349991
 31
0.0
210
0.0
220
0.0
230
1.0
  0
LINE
  5
507
100
AcDbEntity
  8
0
370
    35
390
0
 62
     7
 48
0.017678
100
AcDbLine
 10
213.806976
 20
234.449982
 30
0.0
 11
214.306976
 21
234.949982
 31
0.0
210
0.0
220
0.0
230
1.0
  0
LINE
  5
508
100
AcDbEntity
  8
0
370
    35
390
0
 62
     7
 48
0.225
100
AcDbLine
 10
214.306976
 20
234.949982
 30
0.0
 11
223.306976
 21
234.949982
 31
0.0
210
0.0
220
0.0
230
1.0
  0
LINE
  5
509
100
AcDbEntity
  8
0
370
    35
390
0
 62
     7
 48
0.017678
100
AcDbLine
 10
213.806976
 20
221.849991
 30
0.0
 11
214.306976
 21
221.349991
 31
0.0
210
0.0
220
0.0
230
1.0
  0
LINE
  5
50A
100
AcDbEntity
  8
0
370
    35
390
0
 62
     7
 48
0.225
100
AcDbLine
 10
214.306976
 20
221.349991
 30
0.0
 11
223.306976
 21
221.349991
 31
0.0
210
0.0
220
0.0
230
1.0
  0
LINE
  5
50B
100
AcDbEntity
  8
0
370
    35
390
0
 62
     7
 48
0.169221
100
AcDbLine
 10
207.038147
 20
234.449982
 30
0.0
 11
213.806976
 21
234.449982
 31
0.0
210
0.0
220
0.0
230
1.0
  0
ARC
  5
50C
100
AcDbEntity
  8
0
370
    35
390
0
 62
     7
100
AcDbCircle
 10
212.113556
 20
231.25
 30
0.0
 40
6.000002
210
0.0
220
0.0
230
1.0
100
AcDbArc
 50
147.769053
 51
152.18186
  0
LINE
  5
50D
100
AcDbEntity
  8
0
370
    35
390
0
 62
     7
 48
0.169221
100
AcDbLine
 10
207.038147
 20
221.849991
 30
0.0
 11
213.806976
 21
221.849991
 31
0.0
210
0.0
220
0.0
230
1.0
  0
ARC
  5
50E
100
AcDbEntity
  8
0
370
    35
390
0
 62
     7
100
AcDbCircle
 10
212.113556
 20
225.049988
 30
0.0
 40
6.000002
210
0.0
220
0.0
230
1.0
100
AcDbArc
 50
207.81814
 51
212.230947
  0
LINE
  5
50F
100
AcDbEntity
  8
0
370
    35
390
0
 62
     7
 48
0.3275
100
AcDbLine
 10
81.293037
 20
245.849991
 30
0.0
 11
81.293037
 21
258.949982
 31
0.0
210
0.0
220
0.0
230
1.0
  0
ARC
  5
510
100
AcDbEntity
  8
0
370
    35
390
0
 62
     7
100
AcDbCircle
 10
80.493034
 20
245.849991
 30
0.0
 40
0.8
210
0.0
220
0.0
230
1.0
100
AcDbArc
 50
269.999997
 51
360.0
  0
LINE
  5
511
100
AcDbEntity
  8
0
370
    35
390
0
 62
     7
 48
0.004571
100
AcDbLine
 10
81.163742
 20
259.079285
 30
0.0
 11
81.293037
 21
258.949982
 31
0.0
210
0.0
220
0.0
230
1.0
  0
ARC
  5
512
100
AcDbEntity
  8
0
370
    35
390
0
 62
     7
100
AcDbCircle
 10
79.293037
 20
245.849991
 30
0.0
 40
0.8
210
0.0
220
0.0
230
1.0
100
AcDbArc
 50
241.044838
 51
269.999997
  0
LINE
  5
513
100
AcDbEntity
  8
0
370
    35
390
0
 62
     7
 48
0.03
100
AcDbLine
 10
80.493034
 20
245.049988
 30
0.0
 11
79.293037
 21
245.049988
 31
0.0
210
0.0
220
0.0
230
1.0
  0
ARC
  5
514
100
AcDbEntity
  8
0
370
    35
390
0
 62
     7
100
AcDbCircle
 10
81.234459
 20
259.149994
 30
0.0
 40
0.1
210
0.0
220
0.0
230
1.0
100
AcDbArc
 50
135.0
 51
225.0
  0
LINE
  5
515
100
AcDbEntity
  8
0
370
    35
390
0
 62
     7
 48
0.004571
100
AcDbLine
 10
81.293037
 20
259.349976
 30
0.0
 11
81.163742
 21
259.220703
 31
0.0
210
0.0
220
0.0
230
1.0
  0
LINE
  5
516
100
AcDbEntity
  8
0
370
    35
390
0
 62
     7
 48
0.0175
100
AcDbLine
 10
81.293037
 20
259.349976
 30
0.0
 11
81.293037
 21
260.049988
 31
0.0
210
0.0
220
0.0
230
1.0
  0
LINE
  5
517
100
AcDbEntity
  8
0
370
    35
390
0
 62
     7
 48
0.004571
100
AcDbLine
 10
81.163742
 20
260.17926
 30
0.0
 11
81.293037
 21
260.049988
 31
0.0
210
0.0
220
0.0
230
1.0
  0
ARC
  5
518
100
AcDbEntity
  8
0
370
    35
390
0
 62
     7
100
AcDbCircle
 10
81.234459
 20
260.25
 30
0.0
 40
0.1
210
0.0
220
0.0
230
1.0
100
AcDbArc
 50
135.0
 51
225.0
  0
LINE
  5
519
100
AcDbEntity
  8
0
370
    35
390
0
 62
     7
 48
0.004571
100
AcDbLine
 10
81.293037
 20
260.450012
 30
0.0
 11
81.163742
 21
260.320709
 31
0.0
210
0.0
220
0.0
230
1.0
  0
LINE
  5
51A
100
AcDbEntity
  8
0
370
    35
390
0
 62
     7
 48
0.0175
100
AcDbLine
 10
81.293037
 20
260.450012
 30
0.0
 11
81.293037
 21
261.149994
 31
0.0
210
0.0
220
0.0
230
1.0
  0
LINE
  5
51B
100
AcDbEntity
  8
0
370
    35
390
0
 62
     7
 48
0.004571
100
AcDbLine
 10
81.163742
 20
261.279297
 30
0.0
 11
81.293037
 21
261.149994
 31
0.0
210
0.0
220
0.0
230
1.0
  0
ARC
  5
51C
100
AcDbEntity
  8
0
370
    35
390
0
 62
     7
100
AcDbCircle
 10
81.234459
 20
261.349976
 30
0.0
 40
0.1
210
0.0
220
0.0
230
1.0
100
AcDbArc
 50
135.0
 51
225.0
  0
LINE
  5
51D
100
AcDbEntity
  8
0
370
    35
390
0
 62
     7
 48
0.004571
100
AcDbLine
 10
81.293037
 20
261.549988
 30
0.0
 11
81.163742
 21
261.420715
 31
0.0
210
0.0
220
0.0
230
1.0
  0
LINE
  5
51E
100
AcDbEntity
  8
0
370
    35
390
0
 62
     7
 48
0.0175
100
AcDbLine
 10
81.293037
 20
261.549988
 30
0.0
 11
81.293037
 21
262.25
 31
0.0
210
0.0
220
0.0
230
1.0
  0
LINE
  5
51F
100
AcDbEntity
  8
0
370
    35
390
0
 62
     7
 48
0.004571
100
AcDbLine
 10
81.163742
 20
262.379272
 30
0.0
 11
81.293037
 21
262.25
 31
0.0
210
0.0
220
0.0
230
1.0
  0
ARC
  5
520
100
AcDbEntity
  8
0
370
    35
390
0
 62
     7
100
AcDbCircle
 10
81.234459
 20
262.450012
 30
0.0
 40
0.1
210
0.0
220
0.0
230
1.0
100
AcDbArc
 50
135.0
 51
225.0
  0
LINE
  5
521
100
AcDbEntity
  8
0
370
    35
390
0
 62
     7
 48
0.004571
100
AcDbLine
 10
81.293037
 20
262.649994
 30
0.0
 11
81.163742
 21
262.520691
 31
0.0
210
0.0
220
0.0
230
1.0
  0
LINE
  5
522
100
AcDbEntity
  8
0
370
    35
390
0
 62
     7
 48
0.0175
100
AcDbLine
 10
81.293037
 20
262.649994
 30
0.0
 11
81.293037
 21
263.349976
 31
0.0
210
0.0
220
0.0
230
1.0
  0
LINE
  5
523
100
AcDbEntity
  8
0
370
    35
390
0
 62
     7
 48
0.004571
100
AcDbLine
 10
81.163742
 20
263.479279
 30
0.0
 11
81.293037
 21
263.349976
 31
0.0
210
0.0
220
0.0
230
1.0
  0
ARC
  5
524
100
AcDbEntity
  8
0
370
    35
390
0
 62
     7
100
AcDbCircle
 10
81.234459
 20
263.549988
 30
0.0
 40
0.1
210
0.0
220
0.0
230
1.0
100
AcDbArc
 50
135.0
 51
225.0
  0
LINE
  5
525
100
AcDbEntity
  8
0
370
    35
390
0
 62
     7
 48
0.004571
100
AcDbLine
 10
81.293037
 20
263.75
 30
0.0
 11
81.163742
 21
263.620697
 31
0.0
210
0.0
220
0.0
230
1.0
  0
LINE
  5
526
100
AcDbEntity
  8
0
370
    35
390
0
 62
     7
 48
0.0175
100
AcDbLine
 10
81.293037
 20
263.75
 30
0.0
 11
81.293037
 21
264.450012
 31
0.0
210
0.0
220
0.0
230
1.0
  0
LINE
  5
527
100
AcDbEntity
  8
0
370
    35
390
0
 62
     7
 48
0.004571
100
AcDbLine
 10
81.163742
 20
264.579285
 30
0.0
 11
81.293037
 21
264.450012
 31
0.0
210
0.0
220
0.0
230
1.0
  0
ARC
  5
528
100
AcDbEntity
  8
0
370
    35
390
0
 62
     7
100
AcDbCircle
 10
81.234459
 20
264.649994
 30
0.0
 40
0.1
210
0.0
220
0.0
230
1.0
100
AcDbArc
 50
135.0
 51
225.0
  0
LINE
  5
529
100
AcDbEntity
  8
0
370
    35
390
0
 62
     7
 48
0.004571
100
AcDbLine
 10
81.293037
 20
264.849976
 30
0.0
 11
81.163742
 21
264.720703
 31
0.0
210
0.0
220
0.0
230
1.0
  0
LINE
  5
52A
100
AcDbEntity
  8
0
370
    35
390
0
 62
     7
 48
0.0175
100
AcDbLine
 10
81.293037
 20
264.849976
 30
0.0
 11
81.293037
 21
265.549988
 31
0.0
210
0.0
220
0.0
230
1.0
  0
LINE
  5
52B
100
AcDbEntity
  8
0
370
    35
390
0
 62
     7
 48
0.004571
100
AcDbLine
 10
81.163742
 20
265.67926
 30
0.0
 11
81.293037
 21
265.549988
 31
0.0
210
0.0
220
0.0
230
1.0
  0
ARC
  5
52C
100
AcDbEntity
  8
0
370
    35
390
0
 62
     7
100
AcDbCircle
 10
81.234459
 20
265.75
 30
0.0
 40
0.1
210
0.0
220
0.0
230
1.0
100
AcDbArc
 50
135.0
 51
225.0
  0
LINE
  5
52D
100
AcDbEntity
  8
0
370
    35
390
0
 62
     7
 48
0.004571
100
AcDbLine
 10
81.293037
 20
265.950012
 30
0.0
 11
81.163742
 21
265.820709
 31
0.0
210
0.0
220
0.0
230
1.0
  0
LINE
  5
52E
100
AcDbEntity
  8
0
370
    35
390
0
 62
     7
 48
0.0175
100
AcDbLine
 10
81.293037
 20
265.950012
 30
0.0
 11
81.293037
 21
266.649994
 31
0.0
210
0.0
220
0.0
230
1.0
  0
LINE
  5
52F
100
AcDbEntity
  8
0
370
    35
390
0
 62
     7
 48
0.004571
100
AcDbLine
 10
81.163742
 20
266.779297
 30
0.0
 11
81.293037
 21
266.649994
 31
0.0
210
0.0
220
0.0
230
1.0
  0
ARC
  5
530
100
AcDbEntity
  8
0
370
    35
390
0
 62
     7
100
AcDbCircle
 10
81.234459
 20
266.849976
 30
0.0
 40
0.1
210
0.0
220
0.0
230
1.0
100
AcDbArc
 50
135.0
 51
225.0
  0
LINE
  5
531
100
AcDbEntity
  8
0
370
    35
390
0
 62
     7
 48
0.004571
100
AcDbLine
 10
81.293037
 20
267.049988
 30
0.0
 11
81.163742
 21
266.920715
 31
0.0
210
0.0
220
0.0
230
1.0
  0
LINE
  5
532
100
AcDbEntity
  8
0
370
    35
390
0
 62
     7
 48
0.0175
100
AcDbLine
 10
81.293037
 20
267.049988
 30
0.0
 11
81.293037
 21
267.75
 31
0.0
210
0.0
220
0.0
230
1.0
  0
LINE
  5
533
100
AcDbEntity
  8
0
370
    35
390
0
 62
     7
 48
0.004571
100
AcDbLine
 10
81.163742
 20
267.879272
 30
0.0
 11
81.293037
 21
267.75
 31
0.0
210
0.0
220
0.0
230
1.0
  0
ARC
  5
534
100
AcDbEntity
  8
0
370
    35
390
0
 62
     7
100
AcDbCircle
 10
81.234459
 20
267.950012
 30
0.0
 40
0.1
210
0.0
220
0.0
230
1.0
100
AcDbArc
 50
135.0
 51
225.0
  0
LINE
  5
535
100
AcDbEntity
  8
0
370
    35
390
0
 62
     7
 48
0.004571
100
AcDbLine
 10
81.293037
 20
268.149994
 30
0.0
 11
81.163742
 21
268.020691
 31
0.0
210
0.0
220
0.0
230
1.0
  0
LINE
  5
536
100
AcDbEntity
  8
0
370
    35
390
0
 62
     7
 48
0.120606
100
AcDbLine
 10
81.293037
 20
268.149994
 30
0.0
 11
81.293037
 21
272.974243
 31
0.0
210
0.0
220
0.0
230
1.0
  0
LINE
  5
537
100
AcDbEntity
  8
0
370
    35
390
0
 62
     7
 48
0.017249
100
AcDbLine
 10
80.805168
 20
273.462128
 30
0.0
 11
81.293037
 21
272.974243
 31
0.0
210
0.0
220
0.0
230
1.0
  0
ARC
  5
538
100
AcDbEntity
  8
0
370
    35
390
0
 62
     7
100
AcDbCircle
 10
80.593033
 20
273.25
 30
0.0
 40
0.3
210
0.0
220
0.0
230
1.0
100
AcDbArc
 50
45.000001
 51
106.874504
  0
LINE
  5
539
100
AcDbEntity
  8
0
370
    35
390
0
 62
     7
 48
0.005
100
AcDbLine
 10
81.293037
 20
251.049988
 30
0.0
 11
81.493034
 21
251.049988
 31
0.0
210
0.0
220
0.0
230
1.0
  0
LINE
  5
53A
100
AcDbEntity
  8
0
370
    35
390
0
 62
     7
 48
0.0125
100
AcDbLine
 10
81.493034
 20
250.549988
 30
0.0
 11
81.493034
 21
251.049988
 31
0.0
210
0.0
220
0.0
230
1.0
  0
LINE
  5
53B
100
AcDbEntity
  8
0
370
    35
390
0
 62
     7
 48
0.1
100
AcDbLine
 10
81.493034
 20
250.549988
 30
0.0
 11
81.493034
 21
246.549988
 31
0.0
210
0.0
220
0.0
230
1.0
  0
LINE
  5
53C
100
AcDbEntity
  8
0
370
    35
390
0
 62
     7
 48
0.0125
100
AcDbLine
 10
81.493034
 20
246.049988
 30
0.0
 11
81.493034
 21
246.549988
 31
0.0
210
0.0
220
0.0
230
1.0
  0
LINE
  5
53D
100
AcDbEntity
  8
0
370
    35
390
0
 62
     7
 48
0.005
100
AcDbLine
 10
81.293037
 20
246.049988
 30
0.0
 11
81.493034
 21
246.049988
 31
0.0
210
0.0
220
0.0
230
1.0
  0
ARC
  5
53E
100
AcDbEntity
  8
0
370
    35
390
0
 62
     7
100
AcDbCircle
 10
77.293037
 20
273.349976
 30
0.0
 40
3.0
210
0.0
220
0.0
230
1.0
100
AcDbArc
 50
8.262821
 51
90.000003
  0
LINE
  5
53F
100
AcDbEntity
  8
0
370
    35
390
0
 62
     7
 48
0.003259
100
AcDbLine
 10
81.543037
 20
246.549988
 30
0.0
 11
81.543037
 21
246.680359
 31
0.0
210
0.0
220
0.0
230
1.0
  0
LINE
  5
540
100
AcDbEntity
  8
0
370
    35
390
0
 62
     7
 48
0.0875
100
AcDbLine
 10
81.543037
 20
250.180359
 30
0.0
 11
81.543037
 21
246.680359
 31
0.0
210
0.0
220
0.0
230
1.0
  0
LINE
  5
541
100
AcDbEntity
  8
0
370
    35
390
0
 62
     7
 48
0.00125
100
AcDbLine
 10
81.493034
 20
250.449982
 30
0.0
 11
81.543037
 21
250.449982
 31
0.0
210
0.0
220
0.0
230
1.0
  0
LINE
  5
542
100
AcDbEntity
  8
0
370
    35
390
0
 62
     7
 48
0.006741
100
AcDbLine
 10
81.543037
 20
250.180359
 30
0.0
 11
81.543037
 21
250.449982
 31
0.0
210
0.0
220
0.0
230
1.0
  0
LINE
  5
543
100
AcDbEntity
  8
0
370
    35
390
0
 62
     7
 48
0.029772
100
AcDbLine
 10
80.946587
 20
273.096436
 30
0.0
 11
80.104515
 21
273.938507
 31
0.0
210
0.0
220
0.0
230
1.0
  0
ARC
  5
544
100
AcDbEntity
  8
0
370
    35
390
0
 62
     7
100
AcDbCircle
 10
80.593033
 20
272.742889
 30
0.0
 40
0.5
210
0.0
220
0.0
230
1.0
100
AcDbArc
 50
0.0
 51
45.000001
  0
LINE
  5
545
100
AcDbEntity
  8
0
370
    35
390
0
 62
     7
100
AcDbLine
 10
81.093033
 20
245.649994
 30
0.0
 11
81.093033
 21
272.742889
 31
0.0
210
0.0
220
0.0
230
1.0
  0
ARC
  5
546
100
AcDbEntity
  8
0
370
    35
390
0
 62
     7
100
AcDbCircle
 10
80.593033
 20
245.649994
 30
0.0
 40
0.5
210
0.0
220
0.0
230
1.0
100
AcDbArc
 50
269.999997
 51
360.0
  0
LINE
  5
547
100
AcDbEntity
  8
0
370
    35
390
0
 62
     7
 48
0.39
100
AcDbLine
 10
64.993034
 20
245.149994
 30
0.0
 11
80.593033
 21
245.149994
 31
0.0
210
0.0
220
0.0
230
1.0
  0
ARC
  5
548
100
AcDbEntity
  8
0
370
    35
390
0
 62
     7
100
AcDbCircle
 10
64.993034
 20
245.649994
 30
0.0
 40
0.5
210
0.0
220
0.0
230
1.0
100
AcDbArc
 50
180.000009
 51
269.999997
  0
LINE
  5
549
100
AcDbEntity
  8
0
370
    35
390
0
 62
     7
100
AcDbLine
 10
64.493034
 20
272.742889
 30
0.0
 11
64.493034
 21
245.649994
 31
0.0
210
0.0
220
0.0
230
1.0
  0
LINE
  5
54A
100
AcDbEntity
  8
0
370
    35
390
0
 62
     7
 48
0.05
100
AcDbLine
 10
63.693035
 20
255.049988
 30
0.0
 11
63.693035
 21
257.049988
 31
0.0
210
0.0
220
0.0
230
1.0
  0
LINE
  5
54B
100
AcDbEntity
  8
0
370
    35
390
0
 62
     7
 48
0.02
100
AcDbLine
 10
63.693035
 20
255.049988
 30
0.0
 11
64.493034
 21
255.049988
 31
0.0
210
0.0
220
0.0
230
1.0
  0
LINE
  5
54C
100
AcDbEntity
  8
0
370
    35
390
0
 62
     7
 48
0.225
100
AcDbLine
 10
77.293037
 20
276.349976
 30
0.0
 11
68.293037
 21
276.349976
 31
0.0
210
0.0
220
0.0
230
1.0
  0
ARC
  5
54D
100
AcDbEntity
  8
0
370
    35
390
0
 62
     7
100
AcDbCircle
 10
68.293037
 20
273.349976
 30
0.0
 40
3.0
210
0.0
220
0.0
230
1.0
100
AcDbArc
 50
90.000003
 51
171.737184
  0
ARC
  5
54E
100
AcDbEntity
  8
0
370
    35
390
0
 62
     7
100
AcDbCircle
 10
80.13987
 20
273.973877
 30
0.0
 40
0.05
210
0.0
220
0.0
230
1.0
100
AcDbArc
 50
189.204208
 51
225.0
  0
ARC
  5
54F
100
AcDbEntity
  8
0
370
    35
390
0
 62
     7
100
AcDbCircle
 10
64.993034
 20
272.742889
 30
0.0
 40
0.5
210
0.0
220
0.0
230
1.0
100
AcDbArc
 50
135.0
 51
180.000009
  0
LINE
  5
550
100
AcDbEntity
  8
0
370
    35
390
0
 62
     7
 48
0.369278
100
AcDbLine
 10
63.693035
 20
271.821106
 30
0.0
 11
63.693035
 21
257.049988
 31
0.0
210
0.0
220
0.0
230
1.0
  0
LINE
  5
551
100
AcDbEntity
  8
0
370
    35
390
0
 62
     7
 48
0.001056
100
AcDbLine
 10
63.693035
 20
271.821106
 30
0.0
 11
63.693035
 21
271.863342
 31
0.0
210
0.0
220
0.0
230
1.0
  0
LINE
  5
552
100
AcDbEntity
  8
0
370
    35
390
0
 62
     7
 48
0.112166
100
AcDbLine
 10
63.693035
 20
271.863342
 30
0.0
 11
63.693035
 21
276.349976
 31
0.0
210
0.0
220
0.0
230
1.0
  0
LINE
  5
553
100
AcDbEntity
  8
0
370
    35
390
0
 62
     7
 48
0.0125
100
AcDbLine
 10
63.893036
 20
255.049988
 30
0.0
 11
63.893036
 21
254.549988
 31
0.0
210
0.0
220
0.0
230
1.0
  0
LINE
  5
554
100
AcDbEntity
  8
0
370
    35
390
0
 62
     7
 48
0.015
100
AcDbLine
 10
64.493034
 20
254.549988
 30
0.0
 11
63.893036
 21
254.549988
 31
0.0
210
0.0
220
0.0
230
1.0
  0
LINE
  5
555
100
AcDbEntity
  8
0
370
    35
390
0
 62
     7
 48
0.2175
100
AcDbLine
 10
63.893036
 20
245.849991
 30
0.0
 11
63.893036
 21
254.549988
 31
0.0
210
0.0
220
0.0
230
1.0
  0
ARC
  5
556
100
AcDbEntity
  8
0
370
    35
390
0
 62
     7
100
AcDbCircle
 10
64.693039
 20
245.849991
 30
0.0
 40
0.8
210
0.0
220
0.0
230
1.0
100
AcDbArc
 50
180.000009
 51
269.999997
  0
LINE
  5
557
100
AcDbEntity
  8
0
370
    35
390
0
 62
     7
 48
0.03
100
AcDbLine
 10
64.693039
 20
245.049988
 30
0.0
 11
65.893036
 21
245.049988
 31
0.0
210
0.0
220
0.0
230
1.0
  0
ARC
  5
558
100
AcDbEntity
  8
0
370
    35
390
0
 62
     7
100
AcDbCircle
 10
65.893036
 20
245.849991
 30
0.0
 40
0.8
210
0.0
220
0.0
230
1.0
100
AcDbArc
 50
269.999997
 51
298.955164
  0
LINE
  5
559
100
AcDbEntity
  8
0
370
    35
390
0
 62
     7
 48
0.029772
100
AcDbLine
 10
65.48156
 20
273.938507
 30
0.0
 11
64.639481
 21
273.096436
 31
0.0
210
0.0
220
0.0
230
1.0
  0
ARC
  5
55A
100
AcDbEntity
  8
0
370
    35
390
0
 62
     7
100
AcDbCircle
 10
65.446198
 20
273.973877
 30
0.0
 40
0.05
210
0.0
220
0.0
230
1.0
100
AcDbArc
 50
314.999992
 51
350.795784
  0
ARC
  5
55B
100
AcDbEntity
  8
0
370
    35
390
0
 62
     7
100
AcDbCircle
 10
68.06208
 20
273.549988
 30
0.0
 40
2.6
210
0.0
220
0.0
230
1.0
100
AcDbArc
 50
90.000003
 51
170.795792
  0
LINE
  5
55C
100
AcDbEntity
  8
0
370
    35
390
0
 62
     7
 48
0.236548
100
AcDbLine
 10
77.523987
 20
276.149994
 30
0.0
 11
68.06208
 21
276.149994
 31
0.0
210
0.0
220
0.0
230
1.0
  0
ARC
  5
55D
100
AcDbEntity
  8
0
370
    35
390
0
 62
     7
100
AcDbCircle
 10
77.523987
 20
273.549988
 30
0.0
 40
2.6
210
0.0
220
0.0
230
1.0
100
AcDbArc
 50
9.204209
 51
90.000003
  0
CIRCLE
  5
55E
100
AcDbEntity
  8
0
370
    35
390
0
 62
     7
100
AcDbCircle
 10
72.793037
 20
253.349991
 30
0.0
 40
5.15
210
0.0
220
0.0
230
1.0
  0
POLYLINE
  5
55F
100
AcDbEntity
  8
0
370
    35
390
0
 62
     7
100
AcDb2dPolyline
 66
     1
 10
0.0
 20
0.0
 30
0.0
 71
    12
  0
VERTEX
  5
560
100
AcDbEntity
  8
0
370
     0
390
0
100
AcDbVertex
100
AcDb2dVertex
 10
64.193039
 20
273.260193
 30
0.0
  0
VERTEX
  5
561
100
AcDbEntity
  8
0
370
     0
390
0
100
AcDbVertex
100
AcDb2dVertex
 10
64.189163
 20
273.162903
 30
0.0
  0
VERTEX
  5
562
100
AcDbEntity
  8
0
370
     0
390
0
100
AcDbVertex
100
AcDb2dVertex
 10
64.177567
 20
273.059448
 30
0.0
  0
VERTEX
  5
563
100
AcDbEntity
  8
0
370
     0
390
0
100
AcDbVertex
100
AcDb2dVertex
 10
64.158218
 20
272.950043
 30
0.0
  0
VERTEX
  5
564
100
AcDbEntity
  8
0
370
     0
390
0
100
AcDbVertex
100
AcDb2dVertex
 10
64.131027
 20
272.834869
 30
0.0
  0
VERTEX
  5
565
100
AcDbEntity
  8
0
370
     0
390
0
100
AcDbVertex
100
AcDb2dVertex
 10
64.095833
 20
272.713989
 30
0.0
  0
VERTEX
  5
566
100
AcDbEntity
  8
0
370
     0
390
0
100
AcDbVertex
100
AcDb2dVertex
 10
64.052383
 20
272.587341
 30
0.0
  0
VERTEX
  5
567
100
AcDbEntity
  8
0
370
     0
390
0
100
AcDbVertex
100
AcDb2dVertex
 10
64.000298
 20
272.454865
 30
0.0
  0
VERTEX
  5
568
100
AcDbEntity
  8
0
370
     0
390
0
100
AcDbVertex
100
AcDb2dVertex
 10
63.939068
 20
272.316406
 30
0.0
  0
VERTEX
  5
569
100
AcDbEntity
  8
0
370
     0
390
0
100
AcDbVertex
100
AcDb2dVertex
 10
63.868038
 20
272.171814
 30
0.0
  0
VERTEX
  5
56A
100
AcDbEntity
  8
0
370
     0
390
0
100
AcDbVertex
100
AcDb2dVertex
 10
63.786369
 20
272.020874
 30
0.0
  0
VERTEX
  5
56B
100
AcDbEntity
  8
0
370
     0
390
0
100
AcDbVertex
100
AcDb2dVertex
 10
63.693035
 20
271.863342
 30
0.0
  0
SEQEND
  5
56C
100
AcDbEntity
  8
0
370
     0
390
0
  0
LINE
  5
56D
100
AcDbEntity
  8
0
370
    35
390
0
 62
     7
 48
0.089745
100
AcDbLine
 10
64.193039
 20
273.260193
 30
0.0
 11
64.193039
 21
276.849976
 31
0.0
210
0.0
220
0.0
230
1.0
  0
LINE
  5
56E
100
AcDbEntity
  8
0
370
    35
390
0
 62
     7
 48
0.077499
100
AcDbLine
 10
65.293037
 20
273.75
 30
0.0
 11
65.293037
 21
276.849976
 31
0.0
210
0.0
220
0.0
230
1.0
  0
CIRCLE
  5
56F
100
AcDbEntity
  8
0
370
    35
390
0
 62
     7
100
AcDbCircle
 10
72.793037
 20
253.349991
 30
0.0
 40
4.15
210
0.0
220
0.0
230
1.0
  0
ARC
  5
570
100
AcDbEntity
  8
0
370
    35
390
0
 62
     7
100
AcDbCircle
 10
72.793037
 20
253.349991
 30
0.0
 40
3.75
210
0.0
220
0.0
230
1.0
100
AcDbArc
 50
350.018317
 51
9.981683
  0
ARC
  5
571
100
AcDbEntity
  8
0
370
    35
390
0
 62
     7
100
AcDbCircle
 10
72.793037
 20
253.349991
 30
0.0
 40
3.75
210
0.0
220
0.0
230
1.0
100
AcDbArc
 50
189.981688
 51
350.018317
  0
ARC
  5
572
100
AcDbEntity
  8
0
370
    35
390
0
 62
     7
100
AcDbCircle
 10
72.793037
 20
253.349991
 30
0.0
 40
3.75
210
0.0
220
0.0
230
1.0
100
AcDbArc
 50
170.018312
 51
189.981688
  0
ARC
  5
573
100
AcDbEntity
  8
0
370
    35
390
0
 62
     7
100
AcDbCircle
 10
72.793037
 20
253.349991
 30
0.0
 40
3.75
210
0.0
220
0.0
230
1.0
100
AcDbArc
 50
9.981683
 51
170.018312
  0
LINE
  5
574
100
AcDbEntity
  8
0
370
    35
390
0
 62
     7
 48
0.005081
100
AcDbLine
 10
76.28302
 20
252.699982
 30
0.0
 11
76.486275
 21
252.699982
 31
0.0
210
0.0
220
0.0
230
1.0
  0
LINE
  5
575
100
AcDbEntity
  8
0
370
    35
390
0
 62
     7
 48
0.005081
100
AcDbLine
 10
69.303055
 20
252.699982
 30
0.0
 11
69.0998
 21
252.699982
 31
0.0
210
0.0
220
0.0
230
1.0
  0
LINE
  5
576
100
AcDbEntity
  8
0
370
    35
390
0
 62
     7
 48
0.174499
100
AcDbLine
 10
76.28302
 20
252.699982
 30
0.0
 11
69.303055
 21
252.699982
 31
0.0
210
0.0
220
0.0
230
1.0
  0
ARC
  5
577
100
AcDbEntity
  8
0
370
    35
390
0
 62
     7
100
AcDbCircle
 10
72.793037
 20
253.349991
 30
0.0
 40
3.55
210
0.0
220
0.0
230
1.0
100
AcDbArc
 50
190.550301
 51
349.44969
  0
LINE
  5
578
100
AcDbEntity
  8
0
370
    35
390
0
 62
     7
 48
0.005081
100
AcDbLine
 10
69.303055
 20
254.0
 30
0.0
 11
69.0998
 21
254.0
 31
0.0
210
0.0
220
0.0
230
1.0
  0
LINE
  5
579
100
AcDbEntity
  8
0
370
    35
390
0
 62
     7
 48
0.005081
100
AcDbLine
 10
76.28302
 20
254.0
 30
0.0
 11
76.486275
 21
254.0
 31
0.0
210
0.0
220
0.0
230
1.0
  0
LINE
  5
57A
100
AcDbEntity
  8
0
370
    35
390
0
 62
     7
 48
0.174499
100
AcDbLine
 10
69.303055
 20
254.0
 30
0.0
 11
76.28302
 21
254.0
 31
0.0
210
0.0
220
0.0
230
1.0
  0
ARC
  5
57B
100
AcDbEntity
  8
0
370
    35
390
0
 62
     7
100
AcDbCircle
 10
72.793037
 20
253.349991
 30
0.0
 40
3.55
210
0.0
220
0.0
230
1.0
100
AcDbArc
 50
10.550303
 51
169.449699
  0
LINE
  5
57C
100
AcDbEntity
  8
0
370
    35
390
0
 62
     7
 48
0.00125
100
AcDbLine
 10
81.493034
 20
246.549988
 30
0.0
 11
81.543037
 21
246.549988
 31
0.0
210
0.0
220
0.0
230
1.0
  0
LINE
  5
57D
100
AcDbEntity
  8
0
370
    35
390
0
 62
     7
 48
0.00125
100
AcDbLine
 10
81.493034
 20
246.549988
 30
0.0
 11
81.543037
 21
246.549988
 31
0.0
210
0.0
220
0.0
230
1.0
  0
LINE
  5
57E
100
AcDbEntity
  8
0
370
    35
390
0
 62
     7
 48
0.017678
100
AcDbLine
 10
63.693035
 20
276.349976
 30
0.0
 11
64.193039
 21
276.849976
 31
0.0
210
0.0
220
0.0
230
1.0
  0
LINE
  5
57F
100
AcDbEntity
  8
0
370
    35
390
0
 62
     7
 48
0.0275
100
AcDbLine
 10
64.193039
 20
276.849976
 30
0.0
 11
65.293037
 21
276.849976
 31
0.0
210
0.0
220
0.0
230
1.0
  0
ARC
  5
580
100
AcDbEntity
  8
0
370
    35
390
0
 62
     7
100
AcDbCircle
 10
72.493034
 20
239.649994
 30
0.0
 40
3.55
210
0.0
220
0.0
230
1.0
100
AcDbArc
 50
280.55029
 51
79.449696
  0
LINE
  5
581
100
AcDbEntity
  8
0
370
    35
390
0
 62
     7
 48
0.005081
100
AcDbLine
 10
73.143036
 20
236.160004
 30
0.0
 11
73.143036
 21
235.956757
 31
0.0
210
0.0
220
0.0
230
1.0
  0
ARC
  5
582
100
AcDbEntity
  8
0
370
    35
390
0
 62
     7
100
AcDbCircle
 10
72.493034
 20
239.649994
 30
0.0
 40
3.75
210
0.0
220
0.0
230
1.0
100
AcDbArc
 50
279.981697
 51
80.018316
  0
LINE
  5
583
100
AcDbEntity
  8
0
370
    35
390
0
 62
     7
 48
0.005081
100
AcDbLine
 10
73.143036
 20
243.139984
 30
0.0
 11
73.143036
 21
243.343231
 31
0.0
210
0.0
220
0.0
230
1.0
  0
LINE
  5
584
100
AcDbEntity
  8
0
370
    35
390
0
 62
     7
 48
0.1745
100
AcDbLine
 10
73.143036
 20
243.139984
 30
0.0
 11
73.143036
 21
236.160004
 31
0.0
210
0.0
220
0.0
230
1.0
  0
ARC
  5
585
100
AcDbEntity
  8
0
370
    35
390
0
 62
     7
100
AcDbCircle
 10
72.493034
 20
239.649994
 30
0.0
 40
3.75
210
0.0
220
0.0
230
1.0
100
AcDbArc
 50
80.018316
 51
99.981682
  0
ARC
  5
586
100
AcDbEntity
  8
0
370
    35
390
0
 62
     7
100
AcDbCircle
 10
72.493034
 20
239.649994
 30
0.0
 40
3.75
210
0.0
220
0.0
230
1.0
100
AcDbArc
 50
260.018304
 51
279.981697
  0
ARC
  5
587
100
AcDbEntity
  8
0
370
    35
390
0
 62
     7
100
AcDbCircle
 10
72.493034
 20
239.649994
 30
0.0
 40
3.75
210
0.0
220
0.0
230
1.0
100
AcDbArc
 50
99.981682
 51
260.018304
  0
LINE
  5
588
100
AcDbEntity
  8
0
370
    35
390
0
 62
     7
 48
0.005081
100
AcDbLine
 10
71.843033
 20
236.160004
 30
0.0
 11
71.843033
 21
235.956757
 31
0.0
210
0.0
220
0.0
230
1.0
  0
LINE
  5
589
100
AcDbEntity
  8
0
370
    35
390
0
 62
     7
 48
0.005081
100
AcDbLine
 10
71.843033
 20
243.139984
 30
0.0
 11
71.843033
 21
243.343231
 31
0.0
210
0.0
220
0.0
230
1.0
  0
LINE
  5
58A
100
AcDbEntity
  8
0
370
    35
390
0
 62
     7
 48
0.1745
100
AcDbLine
 10
71.843033
 20
236.160004
 30
0.0
 11
71.843033
 21
243.139984
 31
0.0
210
0.0
220
0.0
230
1.0
  0
ARC
  5
58B
100
AcDbEntity
  8
0
370
    35
390
0
 62
     7
100
AcDbCircle
 10
72.493034
 20
239.649994
 30
0.0
 40
3.55
210
0.0
220
0.0
230
1.0
100
AcDbArc
 50
100.550302
 51
259.449705
  0
LINE
  5
58C
100
AcDbEntity
  8
0
370
    35
390
0
 62
     7
 48
0.043179
100
AcDbLine
 10
70.911102
 20
243.049988
 30
0.0
 11
69.18396
 21
243.049988
 31
0.0
210
0.0
220
0.0
230
1.0
  0
LINE
  5
58D
100
AcDbEntity
  8
0
370
    35
390
0
 62
     7
 48
0.043179
100
AcDbLine
 10
75.802109
 20
243.049988
 30
0.0
 11
74.074966
 21
243.049988
 31
0.0
210
0.0
220
0.0
230
1.0
  0
LINE
  5
58E
100
AcDbEntity
  8
0
370
    35
390
0
 62
     7
 48
0.008146
100
AcDbLine
 10
75.802109
 20
243.049988
 30
0.0
 11
76.127937
 21
243.049988
 31
0.0
210
0.0
220
0.0
230
1.0
  0
LINE
  5
58F
100
AcDbEntity
  8
0
370
    35
390
0
 62
     7
 48
0.111627
100
AcDbLine
 10
76.127937
 20
243.049988
 30
0.0
 11
80.593033
 21
243.049988
 31
0.0
210
0.0
220
0.0
230
1.0
  0
LINE
  5
590
100
AcDbEntity
  8
0
370
    35
390
0
 62
     7
 48
0.111628
100
AcDbLine
 10
64.393036
 20
243.049988
 30
0.0
 11
68.858139
 21
243.049988
 31
0.0
210
0.0
220
0.0
230
1.0
  0
LINE
  5
591
100
AcDbEntity
  8
0
370
    35
390
0
 62
     7
 48
0.008146
100
AcDbLine
 10
68.858139
 20
243.049988
 30
0.0
 11
69.18396
 21
243.049988
 31
0.0
210
0.0
220
0.0
230
1.0
  0
ARC
  5
592
100
AcDbEntity
  8
0
370
    35
390
0
 62
     7
100
AcDbCircle
 10
69.18396
 20
242.549988
 30
0.0
 40
0.5
210
0.0
220
0.0
230
1.0
100
AcDbArc
 50
318.769437
 51
90.000003
  0
ARC
  5
593
100
AcDbEntity
  8
0
370
    35
390
0
 62
     7
100
AcDbCircle
 10
72.493034
 20
239.649994
 30
0.0
 40
3.9
210
0.0
220
0.0
230
1.0
100
AcDbArc
 50
138.769418
 51
41.230577
  0
ARC
  5
594
100
AcDbEntity
  8
0
370
    35
390
0
 62
     7
100
AcDbCircle
 10
75.802109
 20
242.549988
 30
0.0
 40
0.5
210
0.0
220
0.0
230
1.0
100
AcDbArc
 50
90.000003
 51
221.230582
  0
ARC
  5
595
100
AcDbEntity
  8
0
370
    35
390
0
 62
     7
100
AcDbCircle
 10
76.127937
 20
242.549988
 30
0.0
 40
0.5
210
0.0
220
0.0
230
1.0
100
AcDbArc
 50
90.000003
 51
218.583597
  0
LINE
  5
596
100
AcDbEntity
  8
0
370
    35
390
0
 62
     7
 48
0.0125
100
AcDbLine
 10
80.593033
 20
242.549988
 30
0.0
 11
80.946587
 21
242.903534
 31
0.0
210
0.0
220
0.0
230
1.0
  0
ARC
  5
597
100
AcDbEntity
  8
0
370
    35
390
0
 62
     7
100
AcDbCircle
 10
80.593033
 20
242.549988
 30
0.0
 40
0.5
210
0.0
220
0.0
230
1.0
100
AcDbArc
 50
0.0
 51
90.000003
  0
ARC
  5
598
100
AcDbEntity
  8
0
370
    35
390
0
 62
     7
100
AcDbCircle
 10
64.393036
 20
242.549988
 30
0.0
 40
0.5
210
0.0
220
0.0
230
1.0
100
AcDbArc
 50
90.000003
 51
180.000009
  0
ARC
  5
599
100
AcDbEntity
  8
0
370
    35
390
0
 62
     7
100
AcDbCircle
 10
68.858139
 20
242.549988
 30
0.0
 40
0.5
210
0.0
220
0.0
230
1.0
100
AcDbArc
 50
321.416408
 51
90.000003
  0
LINE
  5
59A
100
AcDbEntity
  8
0
370
    35
390
0
 62
     7
 48
0.0125
100
AcDbLine
 10
64.393036
 20
242.549988
 30
0.0
 11
64.039482
 21
242.903534
 31
0.0
210
0.0
220
0.0
230
1.0
  0
POLYLINE
  5
59B
100
AcDbEntity
  8
0
370
    35
390
0
 62
     7
100
AcDb2dPolyline
 66
     1
 10
0.0
 20
0.0
 30
0.0
 71
    27
  0
VERTEX
  5
59C
100
AcDbEntity
  8
0
370
     0
390
0
100
AcDbVertex
100
AcDb2dVertex
 10
69.034973
 20
236.355576
 30
0.0
  0
VERTEX
  5
59D
100
AcDbEntity
  8
0
370
     0
390
0
100
AcDbVertex
100
AcDb2dVertex
 10
69.090698
 20
236.265656
 30
0.0
  0
VERTEX
  5
59E
100
AcDbEntity
  8
0
370
     0
390
0
100
AcDbVertex
100
AcDb2dVertex
 10
69.140793
 20
236.172348
 30
0.0
  0
VERTEX
  5
59F
100
AcDbEntity
  8
0
370
     0
390
0
100
AcDbVertex
100
AcDb2dVertex
 10
69.185051
 20
236.075928
 30
0.0
  0
VERTEX
  5
5A0
100
AcDbEntity
  8
0
370
     0
390
0
100
AcDbVertex
100
AcDb2dVertex
 10
69.223267
 20
235.976685
 30
0.0
  0
VERTEX
  5
5A1
100
AcDbEntity
  8
0
370
     0
390
0
100
AcDbVertex
100
AcDb2dVertex
 10
69.255211
 20
235.874954
 30
0.0
  0
VERTEX
  5
5A2
100
AcDbEntity
  8
0
370
     0
390
0
100
AcDbVertex
100
AcDb2dVertex
 10
69.280678
 20
235.771057
 30
0.0
  0
VERTEX
  5
5A3
100
AcDbEntity
  8
0
370
     0
390
0
100
AcDbVertex
100
AcDb2dVertex
 10
69.299438
 20
235.665344
 30
0.0
  0
VERTEX
  5
5A4
100
AcDbEntity
  8
0
370
     0
390
0
100
AcDbVertex
100
AcDb2dVertex
 10
69.311111
 20
235.560318
 30
0.0
  0
VERTEX
  5
5A5
100
AcDbEntity
  8
0
370
     0
390
0
100
AcDbVertex
100
AcDb2dVertex
 10
69.315926
 20
235.454269
 30
0.0
  0
VERTEX
  5
5A6
100
AcDbEntity
  8
0
370
     0
390
0
100
AcDbVertex
100
AcDb2dVertex
 10
69.313675
 20
235.347595
 30
0.0
  0
VERTEX
  5
5A7
100
AcDbEntity
  8
0
370
     0
390
0
100
AcDbVertex
100
AcDb2dVertex
 10
69.304169
 20
235.240768
 30
0.0
  0
VERTEX
  5
5A8
100
AcDbEntity
  8
0
370
     0
390
0
100
AcDbVertex
100
AcDb2dVertex
 10
69.287247
 20
235.134308
 30
0.0
  0
VERTEX
  5
5A9
100
AcDbEntity
  8
0
370
     0
390
0
100
AcDbVertex
100
AcDb2dVertex
 10
69.262772
 20
235.028717
 30
0.0
  0
VERTEX
  5
5AA
100
AcDbEntity
  8
0
370
     0
390
0
100
AcDbVertex
100
AcDb2dVertex
 10
69.230637
 20
234.924606
 30
0.0
  0
VERTEX
  5
5AB
100
AcDbEntity
  8
0
370
     0
390
0
100
AcDbVertex
100
AcDb2dVertex
 10
69.192612
 20
234.826782
 30
0.0
  0
VERTEX
  5
5AC
100
AcDbEntity
  8
0
370
     0
390
0
100
AcDbVertex
100
AcDb2dVertex
 10
69.14753
 20
234.731461
 30
0.0
  0
VERTEX
  5
5AD
100
AcDbEntity
  8
0
370
     0
390
0
100
AcDbVertex
100
AcDb2dVertex
 10
69.095451
 20
234.639221
 30
0.0
  0
VERTEX
  5
5AE
100
AcDbEntity
  8
0
370
     0
390
0
100
AcDbVertex
100
AcDb2dVertex
 10
69.03653
 20
234.55069
 30
0.0
  0
VERTEX
  5
5AF
100
AcDbEntity
  8
0
370
     0
390
0
100
AcDbVertex
100
AcDb2dVertex
 10
69.004562
 20
234.508011
 30
0.0
  0
VERTEX
  5
5B0
100
AcDbEntity
  8
0
370
     0
390
0
100
AcDbVertex
100
AcDb2dVertex
 10
68.970978
 20
234.466492
 30
0.0
  0
VERTEX
  5
5B1
100
AcDbEntity
  8
0
370
     0
390
0
100
AcDbVertex
100
AcDb2dVertex
 10
68.923744
 20
234.41304
 30
0.0
  0
VERTEX
  5
5B2
100
AcDbEntity
  8
0
370
     0
390
0
100
AcDbVertex
100
AcDb2dVertex
 10
68.87381
 20
234.361969
 30
0.0
  0
VERTEX
  5
5B3
100
AcDbEntity
  8
0
370
     0
390
0
100
AcDbVertex
100
AcDb2dVertex
 10
68.821289
 20
234.313431
 30
0.0
  0
VERTEX
  5
5B4
100
AcDbEntity
  8
0
370
     0
390
0
100
AcDbVertex
100
AcDb2dVertex
 10
68.76593
 20
234.267242
 30
0.0
  0
VERTEX
  5
5B5
100
AcDbEntity
  8
0
370
     0
390
0
100
AcDbVertex
100
AcDb2dVertex
 10
68.708206
 20
234.223892
 30
0.0
  0
VERTEX
  5
5B6
100
AcDbEntity
  8
0
370
     0
390
0
100
AcDbVertex
100
AcDb2dVertex
 10
68.648392
 20
234.183594
 30
0.0
  0
SEQEND
  5
5B7
100
AcDbEntity
  8
0
370
     0
390
0
  0
ARC
  5
5B8
100
AcDbEntity
  8
0
370
    35
390
0
 62
     7
100
AcDbCircle
 10
72.493042
 20
228.149979
 30
0.0
 40
7.154425
210
0.0
220
0.0
230
1.0
100
AcDbArc
 50
57.494627
 51
122.50533
  0
POLYLINE
  5
5B9
100
AcDbEntity
  8
0
370
    35
390
0
 62
     7
100
AcDb2dPolyline
 66
     1
 10
0.0
 20
0.0
 30
0.0
 71
    27
  0
VERTEX
  5
5BA
100
AcDbEntity
  8
0
370
     0
390
0
100
AcDbVertex
100
AcDb2dVertex
 10
75.951096
 20
236.355576
 30
0.0
  0
VERTEX
  5
5BB
100
AcDbEntity
  8
0
370
     0
390
0
100
AcDbVertex
100
AcDb2dVertex
 10
75.89537
 20
236.265656
 30
0.0
  0
VERTEX
  5
5BC
100
AcDbEntity
  8
0
370
     0
390
0
100
AcDbVertex
100
AcDb2dVertex
 10
75.845276
 20
236.172348
 30
0.0
  0
VERTEX
  5
5BD
100
AcDbEntity
  8
0
370
     0
390
0
100
AcDbVertex
100
AcDb2dVertex
 10
75.801018
 20
236.075928
 30
0.0
  0
VERTEX
  5
5BE
100
AcDbEntity
  8
0
370
     0
390
0
100
AcDbVertex
100
AcDb2dVertex
 10
75.762802
 20
235.976685
 30
0.0
  0
VERTEX
  5
5BF
100
AcDbEntity
  8
0
370
     0
390
0
100
AcDbVertex
100
AcDb2dVertex
 10
75.730858
 20
235.874954
 30
0.0
  0
VERTEX
  5
5C0
100
AcDbEntity
  8
0
370
     0
390
0
100
AcDbVertex
100
AcDb2dVertex
 10
75.705391
 20
235.771057
 30
0.0
  0
VERTEX
  5
5C1
100
AcDbEntity
  8
0
370
     0
390
0
100
AcDbVertex
100
AcDb2dVertex
 10
75.68663
 20
235.665344
 30
0.0
  0
VERTEX
  5
5C2
100
AcDbEntity
  8
0
370
     0
390
0
100
AcDbVertex
100
AcDb2dVertex
 10
75.674957
 20
235.560318
 30
0.0
  0
VERTEX
  5
5C3
100
AcDbEntity
  8
0
370
     0
390
0
100
AcDbVertex
100
AcDb2dVertex
 10
75.670151
 20
235.454269
 30
0.0
  0
VERTEX
  5
5C4
100
AcDbEntity
  8
0
370
     0
390
0
100
AcDbVertex
100
AcDb2dVertex
 10
75.672394
 20
235.347595
 30
0.0
  0
VERTEX
  5
5C5
100
AcDbEntity
  8
0
370
     0
390
0
100
AcDbVertex
100
AcDb2dVertex
 10
75.6819
 20
235.240768
 30
0.0
  0
VERTEX
  5
5C6
100
AcDbEntity
  8
0
370
     0
390
0
100
AcDbVertex
100
AcDb2dVertex
 10
75.698822
 20
235.134308
 30
0.0
  0
VERTEX
  5
5C7
100
AcDbEntity
  8
0
370
     0
390
0
100
AcDbVertex
100
AcDb2dVertex
 10
75.723297
 20
235.028717
 30
0.0
  0
VERTEX
  5
5C8
100
AcDbEntity
  8
0
370
     0
390
0
100
AcDbVertex
100
AcDb2dVertex
 10
75.755432
 20
234.924606
 30
0.0
  0
VERTEX
  5
5C9
100
AcDbEntity
  8
0
370
     0
390
0
100
AcDbVertex
100
AcDb2dVertex
 10
75.793457
 20
234.826782
 30
0.0
  0
VERTEX
  5
5CA
100
AcDbEntity
  8
0
370
     0
390
0
100
AcDbVertex
100
AcDb2dVertex
 10
75.838547
 20
234.731461
 30
0.0
  0
VERTEX
  5
5CB
100
AcDbEntity
  8
0
370
     0
390
0
100
AcDbVertex
100
AcDb2dVertex
 10
75.890625
 20
234.639221
 30
0.0
  0
VERTEX
  5
5CC
100
AcDbEntity
  8
0
370
     0
390
0
100
AcDbVertex
100
AcDb2dVertex
 10
75.949539
 20
234.55069
 30
0.0
  0
VERTEX
  5
5CD
100
AcDbEntity
  8
0
370
     0
390
0
100
AcDbVertex
100
AcDb2dVertex
 10
75.981506
 20
234.508011
 30
0.0
  0
VERTEX
  5
5CE
100
AcDbEntity
  8
0
370
     0
390
0
100
AcDbVertex
100
AcDb2dVertex
 10
76.015091
 20
234.466492
 30
0.0
  0
VERTEX
  5
5CF
100
AcDbEntity
  8
0
370
     0
390
0
100
AcDbVertex
100
AcDb2dVertex
 10
76.062332
 20
234.41304
 30
0.0
  0
VERTEX
  5
5D0
100
AcDbEntity
  8
0
370
     0
390
0
100
AcDbVertex
100
AcDb2dVertex
 10
76.112267
 20
234.361969
 30
0.0
  0
VERTEX
  5
5D1
100
AcDbEntity
  8
0
370
     0
390
0
100
AcDbVertex
100
AcDb2dVertex
 10
76.16478
 20
234.313431
 30
0.0
  0
VERTEX
  5
5D2
100
AcDbEntity
  8
0
370
     0
390
0
100
AcDbVertex
100
AcDb2dVertex
 10
76.220139
 20
234.267242
 30
0.0
  0
VERTEX
  5
5D3
100
AcDbEntity
  8
0
370
     0
390
0
100
AcDbVertex
100
AcDb2dVertex
 10
76.277863
 20
234.223892
 30
0.0
  0
VERTEX
  5
5D4
100
AcDbEntity
  8
0
370
     0
390
0
100
AcDbVertex
100
AcDb2dVertex
 10
76.337677
 20
234.183594
 30
0.0
  0
SEQEND
  5
5D5
100
AcDbEntity
  8
0
370
     0
390
0
  0
ARC
  5
5D6
100
AcDbEntity
  8
0
370
    35
390
0
 62
     7
100
AcDbCircle
 10
72.493034
 20
239.649994
 30
0.0
 40
4.15
210
0.0
220
0.0
230
1.0
100
AcDbArc
 50
0.0
 51
38.583602
  0
LINE
  5
5D7
100
AcDbEntity
  8
0
370
    35
390
0
 62
     7
 48
0.117499
100
AcDbLine
 10
64.393036
 20
219.449982
 30
0.0
 11
69.092987
 21
219.449982
 31
0.0
210
0.0
220
0.0
230
1.0
  0
LINE
  5
5D8
100
AcDbEntity
  8
0
370
    35
390
0
 62
     7
 48
0.117501
100
AcDbLine
 10
75.89299
 20
219.449982
 30
0.0
 11
80.593033
 21
219.449982
 31
0.0
210
0.0
220
0.0
230
1.0
  0
LINE
  5
5D9
100
AcDbEntity
  8
0
370
    35
390
0
 62
     7
 48
0.025
100
AcDbLine
 10
76.643036
 20
239.649994
 30
0.0
 11
76.643036
 21
238.649994
 31
0.0
210
0.0
220
0.0
230
1.0
  0
ARC
  5
5DA
100
AcDbEntity
  8
0
370
    35
390
0
 62
     7
100
AcDbCircle
 10
72.493034
 20
238.649994
 30
0.0
 40
4.15
210
0.0
220
0.0
230
1.0
100
AcDbArc
 50
327.912246
 51
360.0
  0
POLYLINE
  5
5DB
100
AcDbEntity
  8
0
370
    35
390
0
 62
     7
100
AcDb2dPolyline
 66
     1
 10
0.0
 20
0.0
 30
0.0
 71
    25
  0
VERTEX
  5
5DC
100
AcDbEntity
  8
0
370
     0
390
0
100
AcDbVertex
100
AcDb2dVertex
 10
76.419876
 20
234.303818
 30
0.0
  0
VERTEX
  5
5DD
100
AcDbEntity
  8
0
370
     0
390
0
100
AcDbVertex
100
AcDb2dVertex
 10
76.345581
 20
234.354675
 30
0.0
  0
VERTEX
  5
5DE
100
AcDbEntity
  8
0
370
     0
390
0
100
AcDbVertex
100
AcDb2dVertex
 10
76.286201
 20
234.400604
 30
0.0
  0
VERTEX
  5
5DF
100
AcDbEntity
  8
0
370
     0
390
0
100
AcDbVertex
100
AcDb2dVertex
 10
76.229439
 20
234.449554
 30
0.0
  0
VERTEX
  5
5E0
100
AcDbEntity
  8
0
370
     0
390
0
100
AcDbVertex
100
AcDb2dVertex
 10
76.1548
 20
234.522659
 30
0.0
  0
VERTEX
  5
5E1
100
AcDbEntity
  8
0
370
     0
390
0
100
AcDbVertex
100
AcDb2dVertex
 10
76.085876
 20
234.600861
 30
0.0
  0
VERTEX
  5
5E2
100
AcDbEntity
  8
0
370
     0
390
0
100
AcDbVertex
100
AcDb2dVertex
 10
76.023026
 20
234.683624
 30
0.0
  0
VERTEX
  5
5E3
100
AcDbEntity
  8
0
370
     0
390
0
100
AcDbVertex
100
AcDb2dVertex
 10
75.966476
 20
234.770386
 30
0.0
  0
VERTEX
  5
5E4
100
AcDbEntity
  8
0
370
     0
390
0
100
AcDbVertex
100
AcDb2dVertex
 10
75.916435
 20
234.86055
 30
0.0
  0
VERTEX
  5
5E5
100
AcDbEntity
  8
0
370
     0
390
0
100
AcDbVertex
100
AcDb2dVertex
 10
75.873009
 20
234.953583
 30
0.0
  0
VERTEX
  5
5E6
100
AcDbEntity
  8
0
370
     0
390
0
100
AcDbVertex
100
AcDb2dVertex
 10
75.836266
 20
235.048935
 30
0.0
  0
VERTEX
  5
5E7
100
AcDbEntity
  8
0
370
     0
390
0
100
AcDbVertex
100
AcDb2dVertex
 10
75.80513
 20
235.150009
 30
0.0
  0
VERTEX
  5
5E8
100
AcDbEntity
  8
0
370
     0
390
0
100
AcDbVertex
100
AcDb2dVertex
 10
75.781166
 20
235.252472
 30
0.0
  0
VERTEX
  5
5E9
100
AcDbEntity
  8
0
370
     0
390
0
100
AcDbVertex
100
AcDb2dVertex
 10
75.764297
 20
235.355804
 30
0.0
  0
VERTEX
  5
5EA
100
AcDbEntity
  8
0
370
     0
390
0
100
AcDbVertex
100
AcDb2dVertex
 10
75.754395
 20
235.459488
 30
0.0
  0
VERTEX
  5
5EB
100
AcDbEntity
  8
0
370
     0
390
0
100
AcDbVertex
100
AcDb2dVertex
 10
75.751312
 20
235.56311
 30
0.0
  0
VERTEX
  5
5EC
100
AcDbEntity
  8
0
370
     0
390
0
100
AcDbVertex
100
AcDb2dVertex
 10
75.75489
 20
235.666214
 30
0.0
  0
VERTEX
  5
5ED
100
AcDbEntity
  8
0
370
     0
390
0
100
AcDbVertex
100
AcDb2dVertex
 10
75.764938
 20
235.768448
 30
0.0
  0
VERTEX
  5
5EE
100
AcDbEntity
  8
0
370
     0
390
0
100
AcDbVertex
100
AcDb2dVertex
 10
75.781693
 20
235.871552
 30
0.0
  0
VERTEX
  5
5EF
100
AcDbEntity
  8
0
370
     0
390
0
100
AcDbVertex
100
AcDb2dVertex
 10
75.80481
 20
235.973022
 30
0.0
  0
VERTEX
  5
5F0
100
AcDbEntity
  8
0
370
     0
390
0
100
AcDbVertex
100
AcDb2dVertex
 10
75.834091
 20
236.072571
 30
0.0
  0
VERTEX
  5
5F1
100
AcDbEntity
  8
0
370
     0
390
0
100
AcDbVertex
100
AcDb2dVertex
 10
75.869347
 20
236.169876
 30
0.0
  0
VERTEX
  5
5F2
100
AcDbEntity
  8
0
370
     0
390
0
100
AcDbVertex
100
AcDb2dVertex
 10
75.910385
 20
236.264648
 30
0.0
  0
VERTEX
  5
5F3
100
AcDbEntity
  8
0
370
     0
390
0
100
AcDbVertex
100
AcDb2dVertex
 10
75.957016
 20
236.356583
 30
0.0
  0
VERTEX
  5
5F4
100
AcDbEntity
  8
0
370
     0
390
0
100
AcDbVertex
100
AcDb2dVertex
 10
76.009064
 20
236.445435
 30
0.0
  0
SEQEND
  5
5F5
100
AcDbEntity
  8
0
370
     0
390
0
  0
ARC
  5
5F6
100
AcDbEntity
  8
0
370
    35
390
0
 62
     7
100
AcDbCircle
 10
72.493034
 20
228.149994
 30
0.0
 40
7.3
210
0.0
220
0.0
230
1.0
100
AcDbArc
 50
297.758952
 51
57.457471
  0
LINE
  5
5F7
100
AcDbEntity
  8
0
370
    35
390
0
 62
     7
 48
0.002832
100
AcDbLine
 10
68.993225
 20
221.743637
 30
0.0
 11
69.09304
 21
221.690109
 31
0.0
210
0.0
220
0.0
230
1.0
  0
ARC
  5
5F8
100
AcDbEntity
  8
0
370
    35
390
0
 62
     7
100
AcDbCircle
 10
72.493034
 20
228.149994
 30
0.0
 40
7.3
210
0.0
220
0.0
230
1.0
100
AcDbArc
 50
122.542528
 51
241.352115
  0
POLYLINE
  5
5F9
100
AcDbEntity
  8
0
370
    35
390
0
 62
     7
100
AcDb2dPolyline
 66
     1
 10
0.0
 20
0.0
 30
0.0
 71
    25
  0
VERTEX
  5
5FA
100
AcDbEntity
  8
0
370
     0
390
0
100
AcDbVertex
100
AcDb2dVertex
 10
68.566177
 20
234.303833
 30
0.0
  0
VERTEX
  5
5FB
100
AcDbEntity
  8
0
370
     0
390
0
100
AcDbVertex
100
AcDb2dVertex
 10
68.645676
 20
234.358475
 30
0.0
  0
VERTEX
  5
5FC
100
AcDbEntity
  8
0
370
     0
390
0
100
AcDbVertex
100
AcDb2dVertex
 10
68.721222
 20
234.418396
 30
0.0
  0
VERTEX
  5
5FD
100
AcDbEntity
  8
0
370
     0
390
0
100
AcDbVertex
100
AcDb2dVertex
 10
68.792419
 20
234.483261
 30
0.0
  0
VERTEX
  5
5FE
100
AcDbEntity
  8
0
370
     0
390
0
100
AcDbVertex
100
AcDb2dVertex
 10
68.85894
 20
234.552689
 30
0.0
  0
VERTEX
  5
5FF
100
AcDbEntity
  8
0
370
     0
390
0
100
AcDbVertex
100
AcDb2dVertex
 10
68.920486
 20
234.626251
 30
0.0
  0
VERTEX
  5
600
100
AcDbEntity
  8
0
370
     0
390
0
100
AcDbVertex
100
AcDb2dVertex
 10
68.982056
 20
234.711304
 30
0.0
  0
VERTEX
  5
601
100
AcDbEntity
  8
0
370
     0
390
0
100
AcDbVertex
100
AcDb2dVertex
 10
69.037094
 20
234.800232
 30
0.0
  0
VERTEX
  5
602
100
AcDbEntity
  8
0
370
     0
390
0
100
AcDbVertex
100
AcDb2dVertex
 10
69.085434
 20
234.892487
 30
0.0
  0
VERTEX
  5
603
100
AcDbEntity
  8
0
370
     0
390
0
100
AcDbVertex
100
AcDb2dVertex
 10
69.126984
 20
234.987488
 30
0.0
  0
VERTEX
  5
604
100
AcDbEntity
  8
0
370
     0
390
0
100
AcDbVertex
100
AcDb2dVertex
 10
69.16169
 20
235.084641
 30
0.0
  0
VERTEX
  5
605
100
AcDbEntity
  8
0
370
     0
390
0
100
AcDbVertex
100
AcDb2dVertex
 10
69.189575
 20
235.183411
 30
0.0
  0
VERTEX
  5
606
100
AcDbEntity
  8
0
370
     0
390
0
100
AcDbVertex
100
AcDb2dVertex
 10
69.210693
 20
235.283325
 30
0.0
  0
VERTEX
  5
607
100
AcDbEntity
  8
0
370
     0
390
0
100
AcDbVertex
100
AcDb2dVertex
 10
69.225609
 20
235.388184
 30
0.0
  0
VERTEX
  5
608
100
AcDbEntity
  8
0
370
     0
390
0
100
AcDbVertex
100
AcDb2dVertex
 10
69.233421
 20
235.493271
 30
0.0
  0
VERTEX
  5
609
100
AcDbEntity
  8
0
370
     0
390
0
100
AcDbVertex
100
AcDb2dVertex
 10
69.234283
 20
235.598145
 30
0.0
  0
VERTEX
  5
60A
100
AcDbEntity
  8
0
370
     0
390
0
100
AcDbVertex
100
AcDb2dVertex
 10
69.228363
 20
235.702393
 30
0.0
  0
VERTEX
  5
60B
100
AcDbEntity
  8
0
370
     0
390
0
100
AcDbVertex
100
AcDb2dVertex
 10
69.215866
 20
235.805603
 30
0.0
  0
VERTEX
  5
60C
100
AcDbEntity
  8
0
370
     0
390
0
100
AcDbVertex
100
AcDb2dVertex
 10
69.196968
 20
235.90744
 30
0.0
  0
VERTEX
  5
60D
100
AcDbEntity
  8
0
370
     0
390
0
100
AcDbVertex
100
AcDb2dVertex
 10
69.171867
 20
236.007538
 30
0.0
  0
VERTEX
  5
60E
100
AcDbEntity
  8
0
370
     0
390
0
100
AcDbVertex
100
AcDb2dVertex
 10
69.14286
 20
236.099609
 30
0.0
  0
VERTEX
  5
60F
100
AcDbEntity
  8
0
370
     0
390
0
100
AcDbVertex
100
AcDb2dVertex
 10
69.108719
 20
236.189667
 30
0.0
  0
VERTEX
  5
610
100
AcDbEntity
  8
0
370
     0
390
0
100
AcDbVertex
100
AcDb2dVertex
 10
69.069595
 20
236.277466
 30
0.0
  0
VERTEX
  5
611
100
AcDbEntity
  8
0
370
     0
390
0
100
AcDbVertex
100
AcDb2dVertex
 10
69.025642
 20
236.362793
 30
0.0
  0
VERTEX
  5
612
100
AcDbEntity
  8
0
370
     0
390
0
100
AcDbVertex
100
AcDb2dVertex
 10
68.977005
 20
236.445435
 30
0.0
  0
SEQEND
  5
613
100
AcDbEntity
  8
0
370
     0
390
0
  0
ARC
  5
614
100
AcDbEntity
  8
0
370
    35
390
0
 62
     7
100
AcDbCircle
 10
72.493034
 20
238.649994
 30
0.0
 40
4.15
210
0.0
220
0.0
230
1.0
100
AcDbArc
 50
180.000009
 51
212.087746
  0
LINE
  5
615
100
AcDbEntity
  8
0
370
    35
390
0
 62
     7
 48
0.025
100
AcDbLine
 10
68.343033
 20
239.649994
 30
0.0
 11
68.343033
 21
238.649994
 31
0.0
210
0.0
220
0.0
230
1.0
  0
ARC
  5
616
100
AcDbEntity
  8
0
370
    35
390
0
 62
     7
100
AcDbCircle
 10
72.493034
 20
239.649994
 30
0.0
 40
4.15
210
0.0
220
0.0
230
1.0
100
AcDbArc
 50
141.416403
 51
180.000009
  0
LINE
  5
617
100
AcDbEntity
  8
0
370
    35
390
0
 62
     7
 48
0.01
100
AcDbLine
 10
66.643036
 20
235.349991
 30
0.0
 11
66.243034
 21
235.349991
 31
0.0
210
0.0
220
0.0
230
1.0
  0
ARC
  5
618
100
AcDbEntity
  8
0
370
    35
390
0
 62
     7
100
AcDbCircle
 10
66.243034
 20
236.699982
 30
0.0
 40
1.35
210
0.0
220
0.0
230
1.0
100
AcDbArc
 50
90.000003
 51
269.99997
  0
LINE
  5
619
100
AcDbEntity
  8
0
370
    35
390
0
 62
     7
 48
0.01
100
AcDbLine
 10
66.243034
 20
238.049988
 30
0.0
 11
66.643036
 21
238.049988
 31
0.0
210
0.0
220
0.0
230
1.0
  0
ARC
  5
61A
100
AcDbEntity
  8
0
370
    35
390
0
 62
     7
100
AcDbCircle
 10
66.643036
 20
236.699982
 30
0.0
 40
1.35
210
0.0
220
0.0
230
1.0
100
AcDbArc
 50
269.999997
 51
89.999989
  0
CIRCLE
  5
61B
100
AcDbEntity
  8
0
370
    35
390
0
 62
     7
100
AcDbCircle
 10
78.543037
 20
236.699982
 30
0.0
 40
1.35
210
0.0
220
0.0
230
1.0
  0
ARC
  5
61C
100
AcDbEntity
  8
0
370
    35
390
0
 62
     7
100
AcDbCircle
 10
80.593033
 20
219.449982
 30
0.0
 40
0.5
210
0.0
220
0.0
230
1.0
100
AcDbArc
 50
269.999997
 51
359.999901
  0
LINE
  5
61D
100
AcDbEntity
  8
0
370
    35
390
0
 62
     7
100
AcDbLine
 10
81.093033
 20
242.549988
 30
0.0
 11
81.093033
 21
219.449982
 31
0.0
210
0.0
220
0.0
230
1.0
  0
ARC
  5
61E
100
AcDbEntity
  8
0
370
    35
390
0
 62
     7
100
AcDbCircle
 10
80.593033
 20
218.949997
 30
0.0
 40
0.499997
210
0.0
220
0.0
230
1.0
100
AcDbArc
 50
29.999605
 51
90.000201
  0
LINE
  5
61F
100
AcDbEntity
  8
0
370
    35
390
0
 62
     7
 48
0.405
100
AcDbLine
 10
64.393036
 20
244.049988
 30
0.0
 11
80.593033
 21
244.049988
 31
0.0
210
0.0
220
0.0
230
1.0
  0
LINE
  5
620
100
AcDbEntity
  8
0
370
    35
390
0
 62
     7
100
AcDbLine
 10
63.893036
 20
219.449982
 30
0.0
 11
63.893036
 21
242.549988
 31
0.0
210
0.0
220
0.0
230
1.0
  0
LINE
  5
621
100
AcDbEntity
  8
0
370
    35
390
0
 62
     7
 48
0.025
100
AcDbLine
 10
63.893036
 20
242.549988
 30
0.0
 11
63.893036
 21
243.549988
 31
0.0
210
0.0
220
0.0
230
1.0
  0
ARC
  5
622
100
AcDbEntity
  8
0
370
    35
390
0
 62
     7
100
AcDbCircle
 10
64.393036
 20
219.449982
 30
0.0
 40
0.5
210
0.0
220
0.0
230
1.0
100
AcDbArc
 50
180.000009
 51
270.000353
  0
ARC
  5
623
100
AcDbEntity
  8
0
370
    35
390
0
 62
     7
100
AcDbCircle
 10
64.393036
 20
218.949982
 30
0.0
 40
0.500008
210
0.0
220
0.0
230
1.0
100
AcDbArc
 50
90.000289
 51
149.999055
  0
LINE
  5
624
100
AcDbEntity
  8
0
370
    35
390
0
 62
     7
 48
0.002673
100
AcDbLine
 10
68.977005
 20
236.445435
 30
0.0
 11
69.034973
 21
236.355576
 31
0.0
210
0.0
220
0.0
230
1.0
  0
ARC
  5
625
100
AcDbEntity
  8
0
370
    35
390
0
 62
     7
100
AcDbCircle
 10
72.493034
 20
228.149994
 30
0.0
 40
7.1
210
0.0
220
0.0
230
1.0
100
AcDbArc
 50
0.0
 51
241.352115
  0
ARC
  5
626
100
AcDbEntity
  8
0
370
    35
390
0
 62
     7
100
AcDbCircle
 10
72.493034
 20
228.149994
 30
0.0
 40
7.1
210
0.0
220
0.0
230
1.0
100
AcDbArc
 50
298.611797
 51
360.0
  0
LINE
  5
627
100
AcDbEntity
  8
0
370
    35
390
0
 62
     7
 48
0.002673
100
AcDbLine
 10
75.951096
 20
236.355576
 30
0.0
 11
76.009064
 21
236.445435
 31
0.0
210
0.0
220
0.0
230
1.0
  0
LINE
  5
628
100
AcDbEntity
  8
0
370
    35
390
0
 62
     7
 48
0.117499
100
AcDbLine
 10
64.393036
 20
218.949982
 30
0.0
 11
69.092987
 21
218.949982
 31
0.0
210
0.0
220
0.0
230
1.0
  0
LINE
  5
629
100
AcDbEntity
  8
0
370
    35
390
0
 62
     7
 48
0.117501
100
AcDbLine
 10
75.892982
 20
218.949982
 30
0.0
 11
80.593033
 21
218.949982
 31
0.0
210
0.0
220
0.0
230
1.0
  0
LINE
  5
62A
100
AcDbEntity
  8
0
370
    35
390
0
 62
     7
 48
0.01
100
AcDbLine
 10
66.643036
 20
235.449982
 30
0.0
 11
66.243034
 21
235.449982
 31
0.0
210
0.0
220
0.0
230
1.0
  0
ARC
  5
62B
100
AcDbEntity
  8
0
370
    35
390
0
 62
     7
100
AcDbCircle
 10
66.243034
 20
236.699982
 30
0.0
 40
1.25
210
0.0
220
0.0
230
1.0
100
AcDbArc
 50
90.000003
 51
269.999997
  0
LINE
  5
62C
100
AcDbEntity
  8
0
370
    35
390
0
 62
     7
 48
0.01
100
AcDbLine
 10
66.243034
 20
237.949982
 30
0.0
 11
66.643036
 21
237.949982
 31
0.0
210
0.0
220
0.0
230
1.0
  0
ARC
  5
62D
100
AcDbEntity
  8
0
370
    35
390
0
 62
     7
100
AcDbCircle
 10
66.643036
 20
236.699982
 30
0.0
 40
1.25
210
0.0
220
0.0
230
1.0
100
AcDbArc
 50
269.999997
 51
90.000003
  0
CIRCLE
  5
62E
100
AcDbEntity
  8
0
370
    35
390
0
 62
     7
100
AcDbCircle
 10
78.543037
 20
236.699982
 30
0.0
 40
1.25
210
0.0
220
0.0
230
1.0
  0
LINE
  5
62F
100
AcDbEntity
  8
0
370
    35
390
0
 62
     7
 48
0.025
100
AcDbLine
 10
81.093033
 20
242.549988
 30
0.0
 11
81.093033
 21
243.549988
 31
0.0
210
0.0
220
0.0
230
1.0
  0
ARC
  5
630
100
AcDbEntity
  8
0
370
    35
390
0
 62
     7
100
AcDbCircle
 10
80.593033
 20
243.549988
 30
0.0
 40
0.5
210
0.0
220
0.0
230
1.0
100
AcDbArc
 50
0.0
 51
90.000003
  0
LINE
  5
631
100
AcDbEntity
  8
0
370
    35
390
0
 62
     7
 48
0.055866
100
AcDbLine
 10
81.093033
 20
241.18512
 30
0.0
 11
81.093033
 21
238.95047
 31
0.0
210
0.0
220
0.0
230
1.0
  0
LINE
  5
632
100
AcDbEntity
  8
0
370
    35
390
0
 62
     7
 48
0.02407
100
AcDbLine
 10
81.293037
 20
237.987686
 30
0.0
 11
81.293037
 21
238.95047
 31
0.0
210
0.0
220
0.0
230
1.0
  0
LINE
  5
633
100
AcDbEntity
  8
0
370
    35
390
0
 62
     7
 48
0.293442
100
AcDbLine
 10
81.293037
 20
237.987686
 30
0.0
 11
81.293037
 21
226.25
 31
0.0
210
0.0
220
0.0
230
1.0
  0
LINE
  5
634
100
AcDbEntity
  8
0
370
    35
390
0
 62
     7
 48
0.075
100
AcDbLine
 10
81.293037
 20
223.25
 30
0.0
 11
81.293037
 21
226.25
 31
0.0
210
0.0
220
0.0
230
1.0
  0
LINE
  5
635
100
AcDbEntity
  8
0
370
    35
390
0
 62
     7
 48
0.005
100
AcDbLine
 10
81.093033
 20
223.25
 30
0.0
 11
81.293037
 21
223.25
 31
0.0
210
0.0
220
0.0
230
1.0
  0
LINE
  5
636
100
AcDbEntity
  8
0
370
    35
390
0
 62
     7
 48
0.005
100
AcDbLine
 10
81.093033
 20
242.049988
 30
0.0
 11
81.293037
 21
242.049988
 31
0.0
210
0.0
220
0.0
230
1.0
  0
LINE
  5
637
100
AcDbEntity
  8
0
370
    35
390
0
 62
     7
 48
0.021622
100
AcDbLine
 10
81.293037
 20
241.18512
 30
0.0
 11
81.293037
 21
242.049988
 31
0.0
210
0.0
220
0.0
230
1.0
  0
LINE
  5
638
100
AcDbEntity
  8
0
370
    35
390
0
 62
     7
 48
0.004568
100
AcDbLine
 10
68.54335
 20
222.25
 30
0.0
 11
68.726074
 21
222.25
 31
0.0
210
0.0
220
0.0
230
1.0
  0
LINE
  5
639
100
AcDbEntity
  8
0
370
    35
390
0
 62
     7
 48
0.004568
100
AcDbLine
 10
76.259987
 20
222.25
 30
0.0
 11
76.442719
 21
222.25
 31
0.0
210
0.0
220
0.0
230
1.0
  0
ARC
  5
63A
100
AcDbEntity
  8
0
370
    35
390
0
 62
     7
100
AcDbCircle
 10
64.393036
 20
243.549988
 30
0.0
 40
0.5
210
0.0
220
0.0
230
1.0
100
AcDbArc
 50
90.000003
 51
180.000009
  0
LINE
  5
63B
100
AcDbEntity
  8
0
370
    35
390
0
 62
     7
 48
0.005
100
AcDbLine
 10
63.693035
 20
242.049988
 30
0.0
 11
63.893036
 21
242.049988
 31
0.0
210
0.0
220
0.0
230
1.0
  0
LINE
  5
63C
100
AcDbEntity
  8
0
370
    35
390
0
 62
     7
 48
0.021622
100
AcDbLine
 10
63.693035
 20
241.18512
 30
0.0
 11
63.693035
 21
242.049988
 31
0.0
210
0.0
220
0.0
230
1.0
  0
LINE
  5
63D
100
AcDbEntity
  8
0
370
    35
390
0
 62
     7
 48
0.005
100
AcDbLine
 10
63.693035
 20
223.25
 30
0.0
 11
63.893036
 21
223.25
 31
0.0
210
0.0
220
0.0
230
1.0
  0
LINE
  5
63E
100
AcDbEntity
  8
0
370
    35
390
0
 62
     7
 48
0.075
100
AcDbLine
 10
63.693035
 20
223.25
 30
0.0
 11
63.693035
 21
226.25
 31
0.0
210
0.0
220
0.0
230
1.0
  0
LINE
  5
63F
100
AcDbEntity
  8
0
370
    35
390
0
 62
     7
 48
0.293442
100
AcDbLine
 10
63.693035
 20
237.987686
 30
0.0
 11
63.693035
 21
226.25
 31
0.0
210
0.0
220
0.0
230
1.0
  0
LINE
  5
640
100
AcDbEntity
  8
0
370
    35
390
0
 62
     7
 48
0.02407
100
AcDbLine
 10
63.693035
 20
237.987686
 30
0.0
 11
63.693035
 21
238.95047
 31
0.0
210
0.0
220
0.0
230
1.0
  0
LINE
  5
641
100
AcDbEntity
  8
0
370
    35
390
0
 62
     7
 48
0.055866
100
AcDbLine
 10
81.293037
 20
238.95047
 30
0.0
 11
81.293037
 21
241.18512
 31
0.0
210
0.0
220
0.0
230
1.0
  0
LINE
  5
642
100
AcDbEntity
  8
0
370
    35
390
0
 62
     7
 48
0.025
100
AcDbLine
 10
68.393036
 20
245.049988
 30
0.0
 11
68.393036
 21
244.050003
 31
0.0
210
0.0
220
0.0
230
1.0
  0
LINE
  5
643
100
AcDbEntity
  8
0
370
    35
390
0
 62
     7
 48
0.055866
100
AcDbLine
 10
63.693035
 20
238.95047
 30
0.0
 11
63.693035
 21
241.18512
 31
0.0
210
0.0
220
0.0
230
1.0
  0
LINE
  5
644
100
AcDbEntity
  8
0
370
    35
390
0
 62
     7
 48
0.015
100
AcDbLine
 10
76.793037
 20
245.149994
 30
0.0
 11
76.793037
 21
244.549988
 31
0.0
210
0.0
220
0.0
230
1.0
  0
ARC
  5
645
100
AcDbEntity
  8
0
370
    35
390
0
 62
     7
100
AcDbCircle
 10
78.293037
 20
244.549988
 30
0.0
 40
1.5
210
0.0
220
0.0
230
1.0
100
AcDbArc
 50
180.000009
 51
199.470938
  0
ARC
  5
646
100
AcDbEntity
  8
0
370
    35
390
0
 62
     7
100
AcDbCircle
 10
78.293037
 20
245.049988
 30
0.0
 40
1.0
210
0.0
220
0.0
230
1.0
100
AcDbArc
 50
180.000009
 51
269.999997
  0
LINE
  5
647
100
AcDbEntity
  8
0
370
    35
390
0
 62
     7
 48
0.0025
100
AcDbLine
 10
77.293037
 20
245.049988
 30
0.0
 11
77.293037
 21
245.149994
 31
0.0
210
0.0
220
0.0
230
1.0
  0
LINE
  5
648
100
AcDbEntity
  8
0
370
    35
390
0
 62
     7
 48
0.025
100
AcDbLine
 10
76.593033
 20
244.050003
 30
0.0
 11
76.593033
 21
245.049988
 31
0.0
210
0.0
220
0.0
230
1.0
  0
LINE
  5
649
100
AcDbEntity
  8
0
370
    35
390
0
 62
     7
 48
0.002502
100
AcDbLine
 10
68.393036
 20
245.049988
 30
0.0
 11
68.393036
 21
245.15007
 31
0.0
210
0.0
220
0.0
230
1.0
  0
ARC
  5
64A
100
AcDbEntity
  8
0
370
    35
390
0
 62
     7
100
AcDbCircle
 10
66.693039
 20
244.549988
 30
0.0
 40
1.5
210
0.0
220
0.0
230
1.0
100
AcDbArc
 50
340.529081
 51
360.0
  0
LINE
  5
64B
100
AcDbEntity
  8
0
370
    35
390
0
 62
     7
 48
0.0025
100
AcDbLine
 10
67.693039
 20
245.049988
 30
0.0
 11
67.693039
 21
245.149994
 31
0.0
210
0.0
220
0.0
230
1.0
  0
ARC
  5
64C
100
AcDbEntity
  8
0
370
    35
390
0
 62
     7
100
AcDbCircle
 10
66.693039
 20
245.049988
 30
0.0
 40
1.0
210
0.0
220
0.0
230
1.0
100
AcDbArc
 50
269.999997
 51
360.0
  0
LINE
  5
64D
100
AcDbEntity
  8
0
370
    35
390
0
 62
     7
 48
0.015
100
AcDbLine
 10
68.193039
 20
245.149994
 30
0.0
 11
68.193039
 21
244.549988
 31
0.0
210
0.0
220
0.0
230
1.0
  0
LINE
  5
64E
100
AcDbEntity
  8
0
370
    35
390
0
 62
     7
 48
0.002501
100
AcDbLine
 10
76.593033
 20
245.149994
 30
0.0
 11
76.593033
 21
245.049942
 31
0.0
210
0.0
220
0.0
230
1.0
  0
ARC
  5
64F
100
AcDbEntity
  8
0
370
    35
390
0
 62
     7
100
AcDbCircle
 10
76.093033
 20
245.049988
 30
0.0
 40
0.5
210
0.0
220
0.0
230
1.0
100
AcDbArc
 50
0.0
 51
11.538233
  0
ARC
  5
650
100
AcDbEntity
  8
0
370
    35
390
0
 62
     7
100
AcDbCircle
 10
72.493034
 20
228.149994
 30
0.0
 40
7.0
210
0.0
220
0.0
230
1.0
100
AcDbArc
 50
299.059263
 51
240.940746
  0
ARC
  5
651
100
AcDbEntity
  8
0
370
    35
390
0
 62
     7
100
AcDbCircle
 10
72.493034
 20
228.149994
 30
0.0
 40
6.9
210
0.0
220
0.0
230
1.0
100
AcDbArc
 50
299.52166
 51
240.478287
  0
LINE
  5
652
100
AcDbEntity
  8
0
370
    35
390
0
 62
     7
 48
0.000641
100
AcDbLine
 10
81.092377
 20
242.575607
 30
0.0
 11
81.093033
 21
242.549988
 31
0.0
210
0.0
220
0.0
230
1.0
  0
LINE
  5
653
100
AcDbEntity
  8
0
370
    35
390
0
 62
     7
 48
0.000824
100
AcDbLine
 10
81.091949
 20
242.582916
 30
0.0
 11
81.093033
 21
242.549988
 31
0.0
210
0.0
220
0.0
230
1.0
  0
LINE
  5
654
100
AcDbEntity
  8
0
370
    35
390
0
 62
     7
 48
0.000122
100
AcDbLine
 10
81.093018
 20
242.554871
 30
0.0
 11
81.093033
 21
242.549988
 31
0.0
210
0.0
220
0.0
230
1.0
  0
LINE
  5
655
100
AcDbEntity
  8
0
370
    35
390
0
 62
     7
100
AcDbLine
 10
69.093033
 20
153.149994
 30
0.0
 11
69.093033
 21
228.149994
 31
0.0
210
0.0
220
0.0
230
1.0
  0
ARC
  5
656
100
AcDbEntity
  8
0
370
    35
390
0
 62
     7
100
AcDbCircle
 10
72.493034
 20
228.149994
 30
0.0
 40
3.4
210
0.0
220
0.0
230
1.0
100
AcDbArc
 50
0.0
 51
180.000009
  0
LINE
  5
657
100
AcDbEntity
  8
0
370
    35
390
0
 62
     7
100
AcDbLine
 10
75.893036
 20
153.149994
 30
0.0
 11
75.893036
 21
228.149994
 31
0.0
210
0.0
220
0.0
230
1.0
  0
LINE
  5
658
100
AcDbEntity
  8
0
370
    35
390
0
 62
     7
 48
0.25
100
AcDbLine
 10
69.093033
 20
153.149994
 30
0.0
 11
69.093033
 21
143.149994
 31
0.0
210
0.0
220
0.0
230
1.0
  0
LINE
  5
659
100
AcDbEntity
  8
0
370
    35
390
0
 62
     7
 48
0.25
100
AcDbLine
 10
75.893036
 20
153.149994
 30
0.0
 11
75.893036
 21
143.149994
 31
0.0
210
0.0
220
0.0
230
1.0
  0
LINE
  5
65A
100
AcDbEntity
  8
0
370
    35
390
0
 62
     7
 48
0.17
100
AcDbLine
 10
75.893036
 20
143.149994
 30
0.0
 11
69.093033
 21
143.149994
 31
0.0
210
0.0
220
0.0
230
1.0
  0
ARC
  5
65B
100
AcDbEntity
  8
0
370
    35
390
0
 62
     7
100
AcDbCircle
 10
72.493034
 20
228.149994
 30
0.0
 40
3.55
210
0.0
220
0.0
230
1.0
100
AcDbArc
 50
344.596894
 51
195.402372
  0
ARC
  5
65C
100
AcDbEntity
  8
0
370
    35
390
0
 62
     7
100
AcDbCircle
 10
72.493034
 20
228.149994
 30
0.0
 40
4.7125
210
0.0
220
0.0
230
1.0
100
AcDbArc
 50
12.251403
 51
167.748599
  0
LINE
  5
65D
100
AcDbEntity
  8
0
370
    35
390
0
 62
     7
 48
0.001599
100
AcDbLine
 10
77.034241
 20
229.149994
 30
0.0
 11
77.098213
 21
229.149994
 31
0.0
210
0.0
220
0.0
230
1.0
  0
ARC
  5
65E
100
AcDbEntity
  8
0
370
    35
390
0
 62
     7
100
AcDbCircle
 10
72.493034
 20
228.149994
 30
0.0
 40
4.65
210
0.0
220
0.0
230
1.0
100
AcDbArc
 50
12.418682
 51
167.581314
  0
ARC
  5
65F
100
AcDbEntity
  8
0
370
    35
390
0
 62
     7
100
AcDbCircle
 10
72.493034
 20
228.149994
 30
0.0
 40
4.575
210
0.0
220
0.0
230
1.0
100
AcDbArc
 50
12.625598
 51
167.3744
  0
LINE
  5
660
100
AcDbEntity
  8
0
370
    35
390
0
 62
     7
 48
0.001602
100
AcDbLine
 10
76.893341
 20
229.149994
 30
0.0
 11
76.957413
 21
229.149994
 31
0.0
210
0.0
220
0.0
230
1.0
  0
ARC
  5
661
100
AcDbEntity
  8
0
370
    35
390
0
 62
     7
100
AcDbCircle
 10
72.493034
 20
228.149994
 30
0.0
 40
4.5125
210
0.0
220
0.0
230
1.0
100
AcDbArc
 50
12.803415
 51
167.196583
  0
ARC
  5
662
100
AcDbEntity
  8
0
370
    35
390
0
 62
     7
100
AcDbCircle
 10
72.493034
 20
228.149994
 30
0.0
 40
4.4375
210
0.0
220
0.0
230
1.0
100
AcDbArc
 50
13.023584
 51
166.976419
  0
LINE
  5
663
100
AcDbEntity
  8
0
370
    35
390
0
 62
     7
 48
0.001604
100
AcDbLine
 10
76.752213
 20
229.149994
 30
0.0
 11
76.816391
 21
229.149994
 31
0.0
210
0.0
220
0.0
230
1.0
  0
ARC
  5
664
100
AcDbEntity
  8
0
370
    35
390
0
 62
     7
100
AcDbCircle
 10
72.493034
 20
228.149994
 30
0.0
 40
4.375
210
0.0
220
0.0
230
1.0
100
AcDbArc
 50
13.21298
 51
166.787018
  0
ARC
  5
665
100
AcDbEntity
  8
0
370
    35
390
0
 62
     7
100
AcDbCircle
 10
72.493034
 20
228.149994
 30
0.0
 40
4.25
210
0.0
220
0.0
230
1.0
100
AcDbArc
 50
323.12972
 51
216.870258
  0
ARC
  5
666
100
AcDbEntity
  8
0
370
    35
390
0
 62
     7
100
AcDbCircle
 10
72.493034
 20
228.149994
 30
0.0
 40
4.375
210
0.0
220
0.0
230
1.0
100
AcDbArc
 50
320.999384
 51
346.787008
  0
ARC
  5
667
100
AcDbEntity
  8
0
370
    35
390
0
 62
     7
100
AcDbCircle
 10
72.493034
 20
228.149994
 30
0.0
 40
4.375
210
0.0
220
0.0
230
1.0
100
AcDbArc
 50
193.212982
 51
219.000594
  0
LINE
  5
668
100
AcDbEntity
  8
0
370
    35
390
0
 62
     7
 48
0.001604
100
AcDbLine
 10
76.752213
 20
227.149994
 30
0.0
 11
76.816391
 21
227.149994
 31
0.0
210
0.0
220
0.0
230
1.0
  0
ARC
  5
669
100
AcDbEntity
  8
0
370
    35
390
0
 62
     7
100
AcDbCircle
 10
72.493034
 20
228.149994
 30
0.0
 40
4.4375
210
0.0
220
0.0
230
1.0
100
AcDbArc
 50
193.023581
 51
219.986545
  0
ARC
  5
66A
100
AcDbEntity
  8
0
370
    35
390
0
 62
     7
100
AcDbCircle
 10
72.493034
 20
228.149994
 30
0.0
 40
4.4375
210
0.0
220
0.0
230
1.0
100
AcDbArc
 50
320.013433
 51
346.976424
  0
ARC
  5
66B
100
AcDbEntity
  8
0
370
    35
390
0
 62
     7
100
AcDbCircle
 10
72.493034
 20
228.149994
 30
0.0
 40
4.5125
210
0.0
220
0.0
230
1.0
100
AcDbArc
 50
318.891096
 51
347.196575
  0
ARC
  5
66C
100
AcDbEntity
  8
0
370
    35
390
0
 62
     7
100
AcDbCircle
 10
72.493034
 20
228.149994
 30
0.0
 40
4.5125
210
0.0
220
0.0
230
1.0
100
AcDbArc
 50
192.803417
 51
221.108896
  0
LINE
  5
66D
100
AcDbEntity
  8
0
370
    35
390
0
 62
     7
 48
0.001602
100
AcDbLine
 10
76.893341
 20
227.149994
 30
0.0
 11
76.957413
 21
227.149994
 31
0.0
210
0.0
220
0.0
230
1.0
  0
ARC
  5
66E
100
AcDbEntity
  8
0
370
    35
390
0
 62
     7
100
AcDbCircle
 10
72.493034
 20
228.149994
 30
0.0
 40
4.575
210
0.0
220
0.0
230
1.0
100
AcDbArc
 50
192.6256
 51
221.997954
  0
ARC
  5
66F
100
AcDbEntity
  8
0
370
    35
390
0
 62
     7
100
AcDbCircle
 10
72.493034
 20
228.149994
 30
0.0
 40
4.575
210
0.0
220
0.0
230
1.0
100
AcDbArc
 50
318.002024
 51
347.374406
  0
ARC
  5
670
100
AcDbEntity
  8
0
370
    35
390
0
 62
     7
100
AcDbCircle
 10
72.493034
 20
228.149994
 30
0.0
 40
4.65
210
0.0
220
0.0
230
1.0
100
AcDbArc
 50
316.985583
 51
347.581305
  0
ARC
  5
671
100
AcDbEntity
  8
0
370
    35
390
0
 62
     7
100
AcDbCircle
 10
72.493034
 20
228.149994
 30
0.0
 40
4.65
210
0.0
220
0.0
230
1.0
100
AcDbArc
 50
192.418686
 51
223.014354
  0
LINE
  5
672
100
AcDbEntity
  8
0
370
    35
390
0
 62
     7
 48
0.001599
100
AcDbLine
 10
77.034241
 20
227.149994
 30
0.0
 11
77.098213
 21
227.149994
 31
0.0
210
0.0
220
0.0
230
1.0
  0
ARC
  5
673
100
AcDbEntity
  8
0
370
    35
390
0
 62
     7
100
AcDbCircle
 10
72.493034
 20
228.149994
 30
0.0
 40
4.7125
210
0.0
220
0.0
230
1.0
100
AcDbArc
 50
192.251401
 51
223.822666
  0
ARC
  5
674
100
AcDbEntity
  8
0
370
    35
390
0
 62
     7
100
AcDbCircle
 10
72.493034
 20
228.149994
 30
0.0
 40
4.7125
210
0.0
220
0.0
230
1.0
100
AcDbArc
 50
316.177161
 51
347.748591
  0
LINE
  5
675
100
AcDbEntity
  8
0
370
    35
390
0
 62
     7
 48
0.001602
100
AcDbLine
 10
68.092735
 20
227.149994
 30
0.0
 11
68.028664
 21
227.149994
 31
0.0
210
0.0
220
0.0
230
1.0
  0
LINE
  5
676
100
AcDbEntity
  8
0
370
    35
390
0
 62
     7
 48
0.001604
100
AcDbLine
 10
68.233856
 20
227.149994
 30
0.0
 11
68.169678
 21
227.149994
 31
0.0
210
0.0
220
0.0
230
1.0
  0
LINE
  5
677
100
AcDbEntity
  8
0
370
    35
390
0
 62
     7
 48
0.001604
100
AcDbLine
 10
68.233856
 20
229.149994
 30
0.0
 11
68.169678
 21
229.149994
 31
0.0
210
0.0
220
0.0
230
1.0
  0
LINE
  5
678
100
AcDbEntity
  8
0
370
    35
390
0
 62
     7
 48
0.001602
100
AcDbLine
 10
68.092735
 20
229.149994
 30
0.0
 11
68.028664
 21
229.149994
 31
0.0
210
0.0
220
0.0
230
1.0
  0
LINE
  5
679
100
AcDbEntity
  8
0
370
    35
390
0
 62
     7
 48
0.001599
100
AcDbLine
 10
67.951836
 20
229.149994
 30
0.0
 11
67.887863
 21
229.149994
 31
0.0
210
0.0
220
0.0
230
1.0
  0
LINE
  5
67A
100
AcDbEntity
  8
0
370
    35
390
0
 62
     7
 48
0.001599
100
AcDbLine
 10
67.951836
 20
227.149994
 30
0.0
 11
67.887863
 21
227.149994
 31
0.0
210
0.0
220
0.0
230
1.0
  0
ARC
  5
67B
100
AcDbEntity
  8
0
370
    35
390
0
 62
     7
100
AcDbCircle
 10
72.493034
 20
228.149994
 30
0.0
 40
5.0
210
0.0
220
0.0
230
1.0
100
AcDbArc
 50
312.843537
 51
227.156454
  0
ARC
  5
67C
100
AcDbEntity
  8
0
370
    35
390
0
 62
     7
100
AcDbCircle
 10
72.493034
 20
228.149994
 30
0.0
 40
5.3
210
0.0
220
0.0
230
1.0
100
AcDbArc
 50
309.904343
 51
230.095662
  0
ARC
  5
67D
100
AcDbEntity
  8
0
370
    35
390
0
 62
     7
100
AcDbCircle
 10
72.493034
 20
228.149994
 30
0.0
 40
7.0
210
0.0
220
0.0
230
1.0
100
AcDbArc
 50
299.059263
 51
240.940746
  0
ARC
  5
67E
100
AcDbEntity
  8
0
370
    35
390
0
 62
     7
100
AcDbCircle
 10
72.493034
 20
228.149994
 30
0.0
 40
6.9
210
0.0
220
0.0
230
1.0
100
AcDbArc
 50
299.52166
 51
240.478287
  0
ARC
  5
67F
100
AcDbEntity
  8
0
370
    35
390
0
 62
     7
100
AcDbCircle
 10
72.493034
 20
228.149994
 30
0.0
 40
6.3
210
0.0
220
0.0
230
1.0
100
AcDbArc
 50
105.0
 51
135.0
  0
ARC
  5
680
100
AcDbEntity
  8
0
370
    35
390
0
 62
     7
100
AcDbCircle
 10
72.493034
 20
228.149994
 30
0.0
 40
6.3
210
0.0
220
0.0
230
1.0
100
AcDbArc
 50
345.000012
 51
15.0
  0
ARC
  5
681
100
AcDbEntity
  8
0
370
    35
390
0
 62
     7
100
AcDbCircle
 10
72.493034
 20
228.149994
 30
0.0
 40
6.3
210
0.0
220
0.0
230
1.0
100
AcDbArc
 50
302.661962
 51
314.999992
  0
ARC
  5
682
100
AcDbEntity
  8
0
370
    35
390
0
 62
     7
100
AcDbCircle
 10
72.493034
 20
228.149994
 30
0.0
 40
6.3
210
0.0
220
0.0
230
1.0
100
AcDbArc
 50
225.0
 51
237.338012
  0
ARC
  5
683
100
AcDbEntity
  8
0
370
    35
390
0
 62
     7
100
AcDbCircle
 10
72.493034
 20
228.149994
 30
0.0
 40
6.3
210
0.0
220
0.0
230
1.0
100
AcDbArc
 50
164.999994
 51
195.000006
  0
ARC
  5
684
100
AcDbEntity
  8
0
370
    35
390
0
 62
     7
100
AcDbCircle
 10
72.493034
 20
228.149994
 30
0.0
 40
6.3
210
0.0
220
0.0
230
1.0
100
AcDbArc
 50
45.000001
 51
74.999999
  0
ARC
  5
685
100
AcDbEntity
  8
0
370
    35
390
0
 62
     7
100
AcDbCircle
 10
72.493034
 20
228.149994
 30
0.0
 40
6.3
210
0.0
220
0.0
230
1.0
100
AcDbArc
 50
102.247215
 51
105.0
  0
ARC
  5
686
100
AcDbEntity
  8
0
370
    35
390
0
 62
     7
100
AcDbCircle
 10
72.493034
 20
228.149994
 30
0.0
 40
6.3
210
0.0
220
0.0
230
1.0
100
AcDbArc
 50
135.0
 51
137.752785
  0
LINE
  5
687
100
AcDbEntity
  8
0
370
    35
390
0
 62
     7
 48
0.014261
100
AcDbLine
 10
70.862473
 20
234.235321
 30
0.0
 11
71.010117
 21
234.786331
 31
0.0
210
0.0
220
0.0
230
1.0
  0
LINE
  5
688
100
AcDbEntity
  8
0
370
    35
390
0
 62
     7
 48
0.014261
100
AcDbLine
 10
78.578369
 20
229.780548
 30
0.0
 11
78.981735
 21
230.183914
 31
0.0
210
0.0
220
0.0
230
1.0
  0
ARC
  5
689
100
AcDbEntity
  8
0
370
    35
390
0
 62
     7
100
AcDbCircle
 10
72.493034
 20
228.149994
 30
0.0
 40
6.3
210
0.0
220
0.0
230
1.0
100
AcDbArc
 50
342.247199
 51
345.000012
  0
ARC
  5
68A
100
AcDbEntity
  8
0
370
    35
390
0
 62
     7
100
AcDbCircle
 10
72.493034
 20
228.149994
 30
0.0
 40
6.3
210
0.0
220
0.0
230
1.0
100
AcDbArc
 50
15.0
 51
17.75279
  0
LINE
  5
68B
100
AcDbEntity
  8
0
370
    35
390
0
 62
     7
 48
0.014261
100
AcDbLine
 10
78.578369
 20
226.51944
 30
0.0
 11
78.981735
 21
226.116074
 31
0.0
210
0.0
220
0.0
230
1.0
  0
LINE
  5
68C
100
AcDbEntity
  8
0
370
    35
390
0
 62
     7
 48
0.014261
100
AcDbLine
 10
76.947807
 20
223.695221
 30
0.0
 11
77.49881
 21
223.547577
 31
0.0
210
0.0
220
0.0
230
1.0
  0
ARC
  5
68D
100
AcDbEntity
  8
0
370
    35
390
0
 62
     7
100
AcDbCircle
 10
72.493034
 20
228.149994
 30
0.0
 40
6.3
210
0.0
220
0.0
230
1.0
100
AcDbArc
 50
314.999992
 51
317.752777
  0
ARC
  5
68E
100
AcDbEntity
  8
0
370
    35
390
0
 62
     7
100
AcDbCircle
 10
72.493034
 20
228.149994
 30
0.0
 40
6.3
210
0.0
220
0.0
230
1.0
100
AcDbArc
 50
222.247215
 51
225.0
  0
LINE
  5
68F
100
AcDbEntity
  8
0
370
    35
390
0
 62
     7
 48
0.014261
100
AcDbLine
 10
68.038261
 20
223.695221
 30
0.0
 11
67.487259
 21
223.547577
 31
0.0
210
0.0
220
0.0
230
1.0
  0
LINE
  5
690
100
AcDbEntity
  8
0
370
    35
390
0
 62
     7
 48
0.014261
100
AcDbLine
 10
66.4077
 20
226.51944
 30
0.0
 11
66.004341
 21
226.116074
 31
0.0
210
0.0
220
0.0
230
1.0
  0
ARC
  5
691
100
AcDbEntity
  8
0
370
    35
390
0
 62
     7
100
AcDbCircle
 10
72.493034
 20
228.149994
 30
0.0
 40
6.3
210
0.0
220
0.0
230
1.0
100
AcDbArc
 50
162.24721
 51
164.999994
  0
ARC
  5
692
100
AcDbEntity
  8
0
370
    35
390
0
 62
     7
100
AcDbCircle
 10
72.493034
 20
228.149994
 30
0.0
 40
6.3
210
0.0
220
0.0
230
1.0
100
AcDbArc
 50
195.000006
 51
197.75279
  0
LINE
  5
693
100
AcDbEntity
  8
0
370
    35
390
0
 62
     7
 48
0.014261
100
AcDbLine
 10
66.4077
 20
229.780548
 30
0.0
 11
66.004341
 21
230.183914
 31
0.0
210
0.0
220
0.0
230
1.0
  0
LINE
  5
694
100
AcDbEntity
  8
0
370
    35
390
0
 62
     7
 48
0.014261
100
AcDbLine
 10
68.038261
 20
232.604767
 30
0.0
 11
67.487259
 21
232.752411
 31
0.0
210
0.0
220
0.0
230
1.0
  0
ARC
  5
695
100
AcDbEntity
  8
0
370
    35
390
0
 62
     7
100
AcDbCircle
 10
72.493034
 20
228.149994
 30
0.0
 40
6.3
210
0.0
220
0.0
230
1.0
100
AcDbArc
 50
42.24721
 51
45.000001
  0
ARC
  5
696
100
AcDbEntity
  8
0
370
    35
390
0
 62
     7
100
AcDbCircle
 10
72.493034
 20
228.149994
 30
0.0
 40
6.3
210
0.0
220
0.0
230
1.0
100
AcDbArc
 50
74.999999
 51
77.75279
  0
LINE
  5
697
100
AcDbEntity
  8
0
370
    35
390
0
 62
     7
 48
0.014261
100
AcDbLine
 10
76.947807
 20
232.604767
 30
0.0
 11
77.49881
 21
232.752411
 31
0.0
210
0.0
220
0.0
230
1.0
  0
LINE
  5
698
100
AcDbEntity
  8
0
370
    35
390
0
 62
     7
 48
0.014261
100
AcDbLine
 10
74.123596
 20
234.235321
 30
0.0
 11
73.975952
 21
234.786331
 31
0.0
210
0.0
220
0.0
230
1.0
  0
ARC
  5
699
100
AcDbEntity
  8
0
370
    35
390
0
 62
     7
100
AcDbCircle
 10
72.493034
 20
228.149994
 30
0.0
 40
6.8
210
0.0
220
0.0
230
1.0
100
AcDbArc
 50
17.403926
 51
42.596075
  0
ARC
  5
69A
100
AcDbEntity
  8
0
370
    35
390
0
 62
     7
100
AcDbCircle
 10
72.493034
 20
228.149994
 30
0.0
 40
6.8
210
0.0
220
0.0
230
1.0
100
AcDbArc
 50
77.403925
 51
102.596073
  0
ARC
  5
69B
100
AcDbEntity
  8
0
370
    35
390
0
 62
     7
100
AcDbCircle
 10
72.493034
 20
228.149994
 30
0.0
 40
6.8
210
0.0
220
0.0
230
1.0
100
AcDbArc
 50
137.403926
 51
162.596068
  0
LINE
  5
69C
100
AcDbEntity
  8
0
370
    35
390
0
 62
     7
 48
0.096047
100
AcDbLine
 10
71.156616
 20
234.30661
 30
0.0
 11
67.829453
 21
232.385681
 31
0.0
210
0.0
220
0.0
230
1.0
  0
ARC
  5
69D
100
AcDbEntity
  8
0
370
    35
390
0
 62
     7
100
AcDbCircle
 10
72.493034
 20
228.149994
 30
0.0
 40
6.8
210
0.0
220
0.0
230
1.0
100
AcDbArc
 50
317.403918
 51
342.596085
  0
LINE
  5
69E
100
AcDbEntity
  8
0
370
    35
390
0
 62
     7
 48
0.096047
100
AcDbLine
 10
78.493034
 20
226.22905
 30
0.0
 11
78.493034
 21
230.070923
 31
0.0
210
0.0
220
0.0
230
1.0
  0
LINE
  5
69F
100
AcDbEntity
  8
0
370
    35
390
0
 62
     7
 48
0.036474
100
AcDbLine
 10
75.893112
 20
223.18483
 30
0.0
 11
77.156616
 21
223.914307
 31
0.0
210
0.0
220
0.0
230
1.0
  0
ARC
  5
6A0
100
AcDbEntity
  8
0
370
    35
390
0
 62
     7
100
AcDbCircle
 10
72.493034
 20
228.149994
 30
0.0
 40
6.8
210
0.0
220
0.0
230
1.0
100
AcDbArc
 50
197.403932
 51
222.596074
  0
LINE
  5
6A1
100
AcDbEntity
  8
0
370
    35
390
0
 62
     7
 48
0.036474
100
AcDbLine
 10
67.829453
 20
223.914307
 30
0.0
 11
69.092957
 21
223.18483
 31
0.0
210
0.0
220
0.0
230
1.0
  0
LINE
  5
6A2
100
AcDbEntity
  8
0
370
    35
390
0
 62
     7
 48
0.096047
100
AcDbLine
 10
66.493034
 20
230.070923
 30
0.0
 11
66.493034
 21
226.22905
 31
0.0
210
0.0
220
0.0
230
1.0
  0
LINE
  5
6A3
100
AcDbEntity
  8
0
370
    35
390
0
 62
     7
 48
0.096047
100
AcDbLine
 10
77.156616
 20
232.385681
 30
0.0
 11
73.829453
 21
234.30661
 31
0.0
210
0.0
220
0.0
230
1.0
  0
ARC
  5
6A4
100
AcDbEntity
  8
0
370
    35
390
0
 62
     7
100
AcDbCircle
 10
72.493034
 20
228.149994
 30
0.0
 40
6.3
210
0.0
220
0.0
230
1.0
100
AcDbArc
 50
77.75279
 51
102.247215
  0
ARC
  5
6A5
100
AcDbEntity
  8
0
370
    35
390
0
 62
     7
100
AcDbCircle
 10
72.493034
 20
228.149994
 30
0.0
 40
6.3
210
0.0
220
0.0
230
1.0
100
AcDbArc
 50
137.752785
 51
162.24721
  0
ARC
  5
6A6
100
AcDbEntity
  8
0
370
    35
390
0
 62
     7
100
AcDbCircle
 10
72.493034
 20
228.149994
 30
0.0
 40
5.9
210
0.0
220
0.0
230
1.0
100
AcDbArc
 50
305.188613
 51
234.811389
  0
ARC
  5
6A7
100
AcDbEntity
  8
0
370
    35
390
0
 62
     7
100
AcDbCircle
 10
72.493034
 20
228.149994
 30
0.0
 40
6.3
210
0.0
220
0.0
230
1.0
100
AcDbArc
 50
317.752777
 51
342.247199
  0
ARC
  5
6A8
100
AcDbEntity
  8
0
370
    35
390
0
 62
     7
100
AcDbCircle
 10
72.493034
 20
228.149994
 30
0.0
 40
6.3
210
0.0
220
0.0
230
1.0
100
AcDbArc
 50
17.75279
 51
42.24721
  0
ARC
  5
6A9
100
AcDbEntity
  8
0
370
    35
390
0
 62
     7
100
AcDbCircle
 10
72.493034
 20
228.149994
 30
0.0
 40
6.3
210
0.0
220
0.0
230
1.0
100
AcDbArc
 50
197.75279
 51
222.247215
  0
ARC
  5
6AA
100
AcDbEntity
  8
0
370
    35
390
0
 62
     7
100
AcDbCircle
 10
72.493034
 20
228.149994
 30
0.0
 40
7.0
210
0.0
220
0.0
230
1.0
100
AcDbArc
 50
299.059263
 51
61.352113
  0
ENDSEC
  0
SECTION
  2
OBJECTS
  0
DICTIONARY
  5
19
100
AcDbDictionary
280
     0
281
     1
  3
ACAD_GROUP
350
1A
  3
ACAD_MLINESTYLE
350
1B
  3
ACAD_LAYOUT
350
1E
  3
ACAD_PLOTSETTINGS
350
22
  3
ACAD_PLOTSTYLENAME
350
1F
  3
ACAD_WIPEOUT_VARS
350
23
  0
DICTIONARY
  5
1A
102
{ACAD_REACTORS
330
19
102
}
100
AcDbDictionary
280
     0
281
     1
  0
DICTIONARY
  5
1B
102
{ACAD_REACTORS
330
19
102
}
100
AcDbDictionary
280
     0
281
     1
  3
Standard
350
1C
  0
MLINESTYLE
  5
1C
102
{ACAD_REACTORS
330
1B
102
}
100
AcDbMlineStyle
  2
Standard
 70
     0
  3

 62
     0
 51
90.0
 52
90.0
 71
     2
 49
0.5
 62
   256
  6
ByLayer
 49
-0.5
 62
   256
  6
ByLayer
  0
ACDBDICTIONARYWDFLT
  5
1F
102
{ACAD_REACTORS
330
19
102
}
100
AcDbDictionary
281
     1
  3
Normal
350
1D
100
AcDbDictionaryWithDefault
340
1D
  0
ACDBPLACEHOLDER
  5
1D
102
{ACAD_REACTORS
330
1F
102
}
  0
LAYOUT
  5
20
102
{ACAD_REACTORS
330
1E
102
}
100
AcDbPlotSettings
  1

  2

  4

  6

 40
0.0
 41
0.0
 42
0.0
 43
0.0
 44
0.0
 45
0.0
 46
0.0
 47
0.0
 48
0.0
 49
0.0
140
0.0
141
0.0
142
1.0
143
1.0
 70
  1024
 72
     0
 73
     0
 74
     0
  7

 75
     0
147
1.0
148
0.0
149
0.0
100
AcDbLayout
  1
Model
 70
     0
 71
     0
 10
0.0
 20
0.0
 11
0.0
 21
0.0
 12
0.0
 22
0.0
 32
0.0
 14
0.0
 24
0.0
 34
0.0
 15
0.0
 25
0.0
 35
0.0
146
0.0
 13
0.0
 23
0.0
 33
0.0
 16
0.0
 26
0.0
 36
0.0
 17
0.0
 27
0.0
 37
0.0
 76
     0
330
A
331
0
345
0
346
0
  0
LAYOUT
  5
21
102
{ACAD_REACTORS
330
1E
102
}
100
AcDbPlotSettings
  1

  2

  4

  6

 40
0.0
 41
0.0
 42
0.0
 43
0.0
 44
0.0
 45
0.0
 46
0.0
 47
0.0
 48
0.0
 49
0.0
140
0.0
141
0.0
142
1.0
143
1.0
 70
     0
 72
     0
 73
     0
 74
     0
  7

 75
     0
147
1.0
148
0.0
149
0.0
100
AcDbLayout
  1
Layout1
 70
     0
 71
     0
 10
0.0
 20
0.0
 11
0.0
 21
0.0
 12
0.0
 22
0.0
 32
0.0
 14
0.0
 24
0.0
 34
0.0
 15
0.0
 25
0.0
 35
0.0
146
0.0
 13
0.0
 23
0.0
 33
0.0
 16
0.0
 26
0.0
 36
0.0
 17
0.0
 27
0.0
 37
0.0
 76
     0
330
B
331
0
345
0
346
0
  0
DICTIONARY
  5
1E
102
{ACAD_REACTORS
330
19
102
}
100
AcDbDictionary
280
     0
281
     1
  3
Layout1
350
21
  3
Model
350
20
  0
DICTIONARY
  5
22
102
{ACAD_REACTORS
330
19
102
}
100
AcDbDictionary
280
     0
281
     1
  0
WIPEOUTVARIABLES
  5
23
100
AcDbWipeoutVariables
 70
     1
  0
ENDSEC
  0
EOF
