  0
SECTION
  2
HEADER
  9
$ACADVER
  1
AC1014
  9
$ACADMAINTVER
 70
     9
  9
$DWGCODEPAGE
  3
ANSI_1252
  9
$INSBASE
 10
0.0
 20
0.0
 30
0.0
  9
$EXTMIN
 10
0.0
 20
0.0
 30
0.0
  9
$EXTMAX
 10
1149.147095
 20
491.099976
 30
2.0
  9
$LIMMIN
 10
0.0
 20
0.0
  9
$LIMMAX
 10
420.0
 20
297.0
  9
$ORTHOMODE
 70
     0
  9
$REGENMODE
 70
     1
  9
$FILLMODE
 70
     1
  9
$QTEXTMODE
 70
     0
  9
$MIRRTEXT
 70
     1
  9
$DRAGMODE
 70
     2
  9
$LTSCALE
 40
1.0
  9
$OSMODE
 70
     0
  9
$ATTMODE
 70
     1
  9
$TEXTSIZE
 40
2.5
  9
$TRACEWID
 40
1.0
  9
$TEXTSTYLE
  7
STANDARD
  9
$CLAYER
  8
0
  9
$CELTYPE
  6
BYLAYER
  9
$CECOLOR
 62
   256
  9
$CELTSCALE
 40
1.0
  9
$DELOBJ
 70
     1
  9
$DISPSILH
 70
     0
  9
$DIMSCALE
 40
1.0
  9
$DIMASZ
 40
2.5
  9
$DIMEXO
 40
0.625
  9
$DIMDLI
 40
3.75
  9
$DIMRND
 40
0.0
  9
$DIMDLE
 40
0.0
  9
$DIMEXE
 40
1.25
  9
$DIMTP
 40
0.0
  9
$DIMTM
 40
0.0
  9
$DIMTXT
 40
2.5
  9
$DIMCEN
 40
2.5
  9
$DIMTSZ
 40
0.0
  9
$DIMTOL
 70
     0
  9
$DIMLIM
 70
     0
  9
$DIMTIH
 70
     0
  9
$DIMTOH
 70
     0
  9
$DIMSE1
 70
     0
  9
$DIMSE2
 70
     0
  9
$DIMTAD
 70
     1
  9
$DIMZIN
 70
     8
  9
$DIMBLK
  1

  9
$DIMASO
 70
     1
  9
$DIMSHO
 70
     1
  9
$DIMPOST
  1

  9
$DIMAPOST
  1

  9
$DIMALT
 70
     0
  9
$DIMALTD
 70
     3
  9
$DIMALTF
 40
0.03937
  9
$DIMLFAC
 40
1.0
  9
$DIMTOFL
 70
     1
  9
$DIMTVP
 40
0.0
  9
$DIMTIX
 70
     0
  9
$DIMSOXD
 70
     0
  9
$DIMSAH
 70
     0
  9
$DIMBLK1
  1

  9
$DIMBLK2
  1

  9
$DIMSTYLE
  2
STANDARD
  9
$DIMCLRD
 70
     0
  9
$DIMCLRE
 70
     0
  9
$DIMCLRT
 70
     0
  9
$DIMTFAC
 40
1.0
  9
$DIMGAP
 40
0.625
  9
$DIMJUST
 70
     0
  9
$DIMSD1
 70
     0
  9
$DIMSD2
 70
     0
  9
$DIMTOLJ
 70
     0
  9
$DIMTZIN
 70
     8
  9
$DIMALTZ
 70
     0
  9
$DIMALTTZ
 70
     0
  9
$DIMFIT
 70
     0
  9
$DIMUPT
 70
     0
  9
$DIMUNIT
 70
     2
  9
$DIMDEC
 70
     2
  9
$DIMTDEC
 70
     2
  9
$DIMALTU
 70
     2
  9
$DIMALTTD
 70
     3
  9
$DIMTXSTY
  7
STANDARD
  9
$DIMAUNIT
 70
     0
  9
$LUNITS
 70
     2
  9
$LUPREC
 70
     4
  9
$SKETCHINC
 40
1.0
  9
$FILLETRAD
 40
2.5
  9
$AUNITS
 70
     0
  9
$AUPREC
 70
     0
  9
$MENU
  1
.
  9
$ELEVATION
 40
0.0
  9
$PELEVATION
 40
0.0
  9
$THICKNESS
 40
0.0
  9
$LIMCHECK
 70
     0
  9
$BLIPMODE
 70
     1
  9
$CHAMFERA
 40
2.5
  9
$CHAMFERB
 40
2.5
  9
$CHAMFERC
 40
0.0
  9
$CHAMFERD
 40
0.0
  9
$SKPOLY
 70
     0
  9
$TDCREATE
 40
2447893.375
  9
$TDUPDATE
 40
2460350.64699456
  9
$TDINDWG
 40
0.0
  9
$TDUSRTIMER
 40
0.0
  9
$USRTIMER
 70
     1
  9
$ANGBASE
 50
0.0
  9
$ANGDIR
 70
     0
  9
$PDMODE
 70
     0
  9
$PDSIZE
 40
0.0
  9
$PLINEWID
 40
0.0
  9
$COORDS
 70
     0
  9
$SPLFRAME
 70
     0
  9
$SPLINETYPE
 70
     6
  9
$SPLINESEGS
 70
     8
  9
$ATTDIA
 70
     0
  9
$ATTREQ
 70
     1
  9
$HANDLING
 70
     1
  9
$HANDSEED
  5
8C4
  9
$SURFTAB1
 70
     6
  9
$SURFTAB2
 70
     6
  9
$SURFTYPE
 70
     6
  9
$SURFU
 70
     6
  9
$SURFV
 70
     6
  9
$UCSNAME
  2

  9
$UCSORG
 10
0.0
 20
0.0
 30
0.0
  9
$UCSXDIR
 10
1.0
 20
0.0
 30
0.0
  9
$UCSYDIR
 10
0.0
 20
1.0
 30
0.0
  9
$PUCSNAME
  2

  9
$PUCSORG
 10
0.0
 20
0.0
 30
0.0
  9
$PUCSXDIR
 10
1.0
 20
0.0
 30
0.0
  9
$PUCSYDIR
 10
0.0
 20
1.0
 30
0.0
  9
$USERI1
 70
     0
  9
$USERI2
 70
     0
  9
$USERI3
 70
     0
  9
$USERI4
 70
     0
  9
$USERI5
 70
     0
  9
$USERR1
 40
0.0
  9
$USERR2
 40
0.0
  9
$USERR3
 40
0.0
  9
$USERR4
 40
0.0
  9
$USERR5
 40
0.0
  9
$WORLDVIEW
 70
     1
  9
$SHADEDGE
 70
     3
  9
$SHADEDIF
 70
    70
  9
$TILEMODE
 70
     1
  9
$MAXACTVP
 70
    64
  9
$PINSBASE
 10
0.0
 20
0.0
 30
0.0
  9
$PLIMCHECK
 70
     0
  9
$PEXTMIN
 10
0.0
 20
0.0
 30
0.0
  9
$PEXTMAX
 10
1149.147095
 20
491.099976
 30
2.0
  9
$PLIMMIN
 10
0.0
 20
0.0
  9
$PLIMMAX
 10
420.0
 20
297.0
  9
$UNITMODE
 70
     0
  9
$VISRETAIN
 70
     0
  9
$PLINEGEN
 70
     0
  9
$PSLTSCALE
 70
     1
  9
$TREEDEPTH
 70
  3020
  9
$PICKSTYLE
 70
     1
  9
$CMLSTYLE
  2
STANDARD
  9
$CMLJUST
 70
     0
  9
$CMLSCALE
 40
20.0
  9
$PROXYGRAPHICS
 70
     1
  9
$MEASUREMENT
 70
     1
  0
ENDSEC
  0
SECTION
  2
CLASSES
  0
CLASS
  1
ACDBDICTIONARYWDFLT
  2
AcDbDictionaryWithDefault
  3
ObjectDBX Classes
 90
        0
280
     0
281
     0
  0
CLASS
  1
VISUALSTYLE
  2
AcDbVisualStyle
  3
ObjectDBX Classes
 90
     4095
280
     0
281
     0
  0
CLASS
  1
MATERIAL
  2
AcDbMaterial
  3
ObjectDBX Classes
 90
     1153
280
     0
281
     0
  0
CLASS
  1
SCALE
  2
AcDbScale
  3
ObjectDBX Classes
 90
     1153
280
     0
281
     0
  0
CLASS
  1
SUN
  2
AcDbSun
  3
SCENEOE
 90
     1153
280
     0
281
     0
  0
CLASS
  1
XRECORD
  2
AcDbXrecord
  3
ObjectDBX Classes
 90
        0
280
     0
281
     0
  0
CLASS
  1
LWPOLYLINE
  2
AcDbPolyline
  3
ObjectDBX Classes
 90
        0
280
     0
281
     1
  0
CLASS
  1
HATCH
  2
AcDbHatch
  3
ObjectDBX Classes
 90
        0
280
     0
281
     1
  0
ENDSEC
  0
SECTION
  2
TABLES
  0
TABLE
  2
VPORT
  5
8
330
0
100
AcDbSymbolTable
 70
     1
  0
VPORT
  5
29
330
8
100
AcDbSymbolTableRecord
100
AcDbViewportTableRecord
  2
*ACTIVE
 70
     0
 10
0.0
 20
0.0
 11
1.0
 21
1.0
 12
10.429907
 22
4.5
 13
0.0
 23
0.0
 14
0.5
 24
0.5
 15
0.5
 25
0.5
 16
0.0
 26
0.0
 36
1.0
 17
0.0
 27
0.0
 37
0.0
 40
9.0
 41
1.972973
 42
50.0
 43
0.0
 44
0.0
 50
0.0
 51
0.0
 71
     0
 72
   100
 73
     1
 74
     3
 75
     0
 76
     0
 77
     0
 78
     0
  0
ENDTAB
  0
TABLE
  2
LTYPE
  5
5
330
0
100
AcDbSymbolTable
 70
     1
  0
LTYPE
  5
14
330
5
100
AcDbSymbolTableRecord
100
AcDbLinetypeTableRecord
  2
BYBLOCK
 70
     0
  3

 72
    65
 73
     0
 40
0.0
  0
LTYPE
  5
15
330
5
100
AcDbSymbolTableRecord
100
AcDbLinetypeTableRecord
  2
BYLAYER
 70
     0
  3

 72
    65
 73
     0
 40
0.0
  0
LTYPE
  5
16
330
5
100
AcDbSymbolTableRecord
100
AcDbLinetypeTableRecord
  2
CONTINUOUS
 70
     0
  3
Solid line
 72
    65
 73
     0
 40
0.0
  0
ENDTAB
  0
TABLE
  2
LAYER
  5
2
330
0
100
AcDbSymbolTable
 70
     1
  0
LAYER
  5
10
330
2
100
AcDbSymbolTableRecord
100
AcDbLayerTableRecord
  2
0
 70
     0
 62
     7
  6
CONTINUOUS
  0
ENDTAB
  0
TABLE
  2
STYLE
  5
3
330
0
100
AcDbSymbolTable
 70
     1
  0
STYLE
  5
11
330
3
100
AcDbSymbolTableRecord
100
AcDbTextStyleTableRecord
  2
STANDARD
 70
     0
 40
0.0
 41
1.0
 50
0.0
 71
     0
 42
2.5
  3
txt
  4

  0
ENDTAB
  0
TABLE
  2
VIEW
  5
6
330
0
100
AcDbSymbolTable
 70
     0
  0
ENDTAB
  0
TABLE
  2
UCS
  5
7
330
0
100
AcDbSymbolTable
 70
     0
  0
ENDTAB
  0
TABLE
  2
APPID
  5
9
330
0
100
AcDbSymbolTable
 70
     1
  0
APPID
  5
12
330
9
100
AcDbSymbolTableRecord
100
AcDbRegAppTableRecord
  2
ACAD
 70
     0
  0
ENDTAB
  0
TABLE
  2
DIMSTYLE
  5
A
330
0
100
AcDbSymbolTable
 70
     1
  0
DIMSTYLE
105
27
330
A
100
AcDbSymbolTableRecord
100
AcDbDimStyleTableRecord
  2
STANDARD
 70
     0
  3

  4

  5

  6

  7

 40
1.0
 41
0.18
 42
0.0625
 43
0.38
 44
0.18
 45
0.0
 46
0.0
 47
0.0
 48
0.0
140
0.18
141
0.09
142
0.0
143
25.4
144
1.0
145
0.0
146
1.0
147
0.09
 71
     0
 72
     0
 73
     1
 74
     1
 75
     0
 76
     0
 77
     0
 78
     0
170
     0
171
     2
172
     0
173
     0
174
     0
175
     0
176
     0
177
     0
178
     0
270
     2
271
     4
272
     4
273
     2
274
     2
340
11
275
     0
280
     0
281
     0
282
     0
283
     1
284
     0
285
     0
286
     0
287
     3
288
     0
  0
ENDTAB
  0
TABLE
  2
BLOCK_RECORD
  5
1
330
0
100
AcDbSymbolTable
 70
     1
  0
BLOCK_RECORD
  5
1F
330
1
100
AcDbSymbolTableRecord
100
AcDbBlockTableRecord
  2
*MODEL_SPACE
  0
BLOCK_RECORD
  5
1B
330
1
100
AcDbSymbolTableRecord
100
AcDbBlockTableRecord
  2
*PAPER_SPACE
  0
BLOCK_RECORD
  5
23
330
1
100
AcDbSymbolTableRecord
100
AcDbBlockTableRecord
  2
*PAPER_SPACE0
  0
ENDTAB
  0
ENDSEC
  0
SECTION
  2
BLOCKS
  0
BLOCK
  5
20
330
1F
100
AcDbEntity
  8
0
100
AcDbBlockBegin
  2
*MODEL_SPACE
 70
     0
 10
0.0
 20
0.0
 30
0.0
  3
*MODEL_SPACE
  1

  0
ENDBLK
  5
21
330
1F
100
AcDbEntity
  8
0
100
AcDbBlockEnd
  0
BLOCK
  5
1C
330
1B
100
AcDbEntity
 67
     1
  8
0
100
AcDbBlockBegin
  2
*PAPER_SPACE
 70
     0
 10
0.0
 20
0.0
 30
0.0
  3
*PAPER_SPACE
  1

  0
ENDBLK
  5
1D
330
1B
100
AcDbEntity
 67
     1
  8
0
100
AcDbBlockEnd
  0
BLOCK
  5
24
330
23
100
AcDbEntity
  8
0
100
AcDbBlockBegin
  2
*PAPER_SPACE0
 70
     0
 10
0.0
 20
0.0
 30
0.0
  3
*PAPER_SPACE0
  1
*PAPER_SPACE0
  0
ENDBLK
  5
25
330
23
100
AcDbEntity
  8
0
100
AcDbBlockEnd
  0
ENDSEC
  0
SECTION
  2
ENTITIES
  0
LINE
  5
6A
330
1F
100
AcDbEntity
  8
0
 62
     7
100
AcDbLine
 10
1146.647095
 20
452.599976
 30
0.0
 11
1146.647095
 21
465.700012
 31
0.0
  0
LINE
  5
6B
330
1F
100
AcDbEntity
  8
0
 62
     7
100
AcDbLine
 10
1146.647095
 20
465.700012
 30
0.0
 11
1144.328369
 21
465.700012
 31
0.0
  0
ARC
  5
6C
330
1F
100
AcDbEntity
  8
0
 62
     7
100
AcDbCircle
 10
1137.647095
 20
470.099976
 30
0.0
 40
8.0
100
AcDbArc
 50
213.367013
 51
326.632979
  0
LINE
  5
6D
330
1F
100
AcDbEntity
  8
0
 62
     7
100
AcDbLine
 10
1130.96582
 20
465.700012
 30
0.0
 11
1072.297119
 21
465.700012
 31
0.0
  0
LINE
  5
6E
330
1F
100
AcDbEntity
  8
0
 62
     7
100
AcDbLine
 10
1072.297119
 20
461.799988
 30
0.0
 11
1072.297119
 21
465.700012
 31
0.0
  0
ARC
  5
6F
330
1F
100
AcDbEntity
  8
0
 62
     7
100
AcDbCircle
 10
1071.797119
 20
461.799988
 30
0.0
 40
0.5
100
AcDbArc
 50
180.000009
 51
0.00001
  0
LINE
  5
70
330
1F
100
AcDbEntity
  8
0
 62
     7
100
AcDbLine
 10
1071.297119
 20
465.700012
 30
0.0
 11
1071.297119
 21
461.799988
 31
0.0
  0
LINE
  5
71
330
1F
100
AcDbEntity
  8
0
 62
     7
100
AcDbLine
 10
1071.297119
 20
465.700012
 30
0.0
 11
1068.99707
 21
465.700012
 31
0.0
  0
LINE
  5
72
330
1F
100
AcDbEntity
  8
0
 62
     7
100
AcDbLine
 10
1068.99707
 20
461.799988
 30
0.0
 11
1068.99707
 21
465.700012
 31
0.0
  0
ARC
  5
73
330
1F
100
AcDbEntity
  8
0
 62
     7
100
AcDbCircle
 10
1068.49707
 20
461.799988
 30
0.0
 40
0.5
100
AcDbArc
 50
180.000009
 51
0.00001
  0
LINE
  5
74
330
1F
100
AcDbEntity
  8
0
 62
     7
100
AcDbLine
 10
1067.99707
 20
465.700012
 30
0.0
 11
1067.99707
 21
461.799988
 31
0.0
  0
LINE
  5
75
330
1F
100
AcDbEntity
  8
0
 62
     7
100
AcDbLine
 10
1067.99707
 20
465.700012
 30
0.0
 11
772.297058
 21
465.700012
 31
0.0
  0
LINE
  5
76
330
1F
100
AcDbEntity
  8
0
 62
     7
100
AcDbLine
 10
772.297058
 20
461.799988
 30
0.0
 11
772.297058
 21
465.700012
 31
0.0
  0
ARC
  5
77
330
1F
100
AcDbEntity
  8
0
 62
     7
100
AcDbCircle
 10
771.797058
 20
461.799988
 30
0.0
 40
0.5
100
AcDbArc
 50
180.000009
 51
0.00001
  0
LINE
  5
78
330
1F
100
AcDbEntity
  8
0
 62
     7
100
AcDbLine
 10
771.297058
 20
465.700012
 30
0.0
 11
771.297058
 21
461.799988
 31
0.0
  0
LINE
  5
79
330
1F
100
AcDbEntity
  8
0
 62
     7
100
AcDbLine
 10
771.297058
 20
465.700012
 30
0.0
 11
768.997009
 21
465.700012
 31
0.0
  0
LINE
  5
7A
330
1F
100
AcDbEntity
  8
0
 62
     7
100
AcDbLine
 10
768.997009
 20
461.799988
 30
0.0
 11
768.997009
 21
465.700012
 31
0.0
  0
ARC
  5
7B
330
1F
100
AcDbEntity
  8
0
 62
     7
100
AcDbCircle
 10
768.497009
 20
461.799988
 30
0.0
 40
0.5
100
AcDbArc
 50
180.000009
 51
0.00001
  0
LINE
  5
7C
330
1F
100
AcDbEntity
  8
0
 62
     7
100
AcDbLine
 10
767.997009
 20
465.700012
 30
0.0
 11
767.997009
 21
461.799988
 31
0.0
  0
LINE
  5
7D
330
1F
100
AcDbEntity
  8
0
 62
     7
100
AcDbLine
 10
767.997009
 20
465.700012
 30
0.0
 11
472.296997
 21
465.700012
 31
0.0
  0
LINE
  5
7E
330
1F
100
AcDbEntity
  8
0
 62
     7
100
AcDbLine
 10
472.296997
 20
461.799988
 30
0.0
 11
472.296997
 21
465.700012
 31
0.0
  0
ARC
  5
7F
330
1F
100
AcDbEntity
  8
0
 62
     7
100
AcDbCircle
 10
471.796997
 20
461.799988
 30
0.0
 40
0.5
100
AcDbArc
 50
180.000009
 51
0.00001
  0
LINE
  5
80
330
1F
100
AcDbEntity
  8
0
 62
     7
100
AcDbLine
 10
471.296997
 20
465.700012
 30
0.0
 11
471.296997
 21
461.799988
 31
0.0
  0
LINE
  5
81
330
1F
100
AcDbEntity
  8
0
 62
     7
100
AcDbLine
 10
471.296997
 20
465.700012
 30
0.0
 11
468.997009
 21
465.700012
 31
0.0
  0
LINE
  5
82
330
1F
100
AcDbEntity
  8
0
 62
     7
100
AcDbLine
 10
468.997009
 20
461.799988
 30
0.0
 11
468.997009
 21
465.700012
 31
0.0
  0
ARC
  5
83
330
1F
100
AcDbEntity
  8
0
 62
     7
100
AcDbCircle
 10
468.497009
 20
461.799988
 30
0.0
 40
0.5
100
AcDbArc
 50
180.000009
 51
0.00001
  0
LINE
  5
84
330
1F
100
AcDbEntity
  8
0
 62
     7
100
AcDbLine
 10
467.997009
 20
465.700012
 30
0.0
 11
467.997009
 21
461.799988
 31
0.0
  0
LINE
  5
85
330
1F
100
AcDbEntity
  8
0
 62
     7
100
AcDbLine
 10
467.997009
 20
465.700012
 30
0.0
 11
172.296997
 21
465.700012
 31
0.0
  0
LINE
  5
86
330
1F
100
AcDbEntity
  8
0
 62
     7
100
AcDbLine
 10
172.296997
 20
461.799988
 30
0.0
 11
172.296997
 21
465.700012
 31
0.0
  0
ARC
  5
87
330
1F
100
AcDbEntity
  8
0
 62
     7
100
AcDbCircle
 10
171.796997
 20
461.799988
 30
0.0
 40
0.5
100
AcDbArc
 50
180.000009
 51
0.00001
  0
LINE
  5
88
330
1F
100
AcDbEntity
  8
0
 62
     7
100
AcDbLine
 10
171.296997
 20
465.700012
 30
0.0
 11
171.296997
 21
461.799988
 31
0.0
  0
LINE
  5
89
330
1F
100
AcDbEntity
  8
0
 62
     7
100
AcDbLine
 10
171.296997
 20
465.700012
 30
0.0
 11
168.996979
 21
465.700012
 31
0.0
  0
LINE
  5
8A
330
1F
100
AcDbEntity
  8
0
 62
     7
100
AcDbLine
 10
168.996979
 20
461.799988
 30
0.0
 11
168.996979
 21
465.700012
 31
0.0
  0
ARC
  5
8B
330
1F
100
AcDbEntity
  8
0
 62
     7
100
AcDbCircle
 10
168.496979
 20
461.799988
 30
0.0
 40
0.5
100
AcDbArc
 50
180.000009
 51
0.00001
  0
LINE
  5
8C
330
1F
100
AcDbEntity
  8
0
 62
     7
100
AcDbLine
 10
167.996979
 20
465.700012
 30
0.0
 11
167.996979
 21
461.799988
 31
0.0
  0
LINE
  5
8D
330
1F
100
AcDbEntity
  8
0
 62
     7
100
AcDbLine
 10
167.996979
 20
465.700012
 30
0.0
 11
109.328308
 21
465.700012
 31
0.0
  0
ARC
  5
8E
330
1F
100
AcDbEntity
  8
0
 62
     7
100
AcDbCircle
 10
102.647003
 20
470.099976
 30
0.0
 40
8.0
100
AcDbArc
 50
213.367013
 51
326.632979
  0
LINE
  5
8F
330
1F
100
AcDbEntity
  8
0
 62
     7
100
AcDbLine
 10
95.965683
 20
465.700012
 30
0.0
 11
93.647003
 21
465.700012
 31
0.0
  0
LINE
  5
90
330
1F
100
AcDbEntity
  8
0
 62
     7
100
AcDbLine
 10
93.647003
 20
452.599976
 30
0.0
 11
93.647003
 21
465.700012
 31
0.0
  0
LINE
  5
91
330
1F
100
AcDbEntity
  8
0
 62
     7
100
AcDbLine
 10
1146.647095
 20
451.799988
 30
0.0
 11
1146.647095
 21
452.599976
 31
0.0
  0
LINE
  5
92
330
1F
100
AcDbEntity
  8
0
 62
     7
100
AcDbLine
 10
93.647003
 20
452.599976
 30
0.0
 11
93.647003
 21
451.799988
 31
0.0
  0
LINE
  5
93
330
1F
100
AcDbEntity
  8
0
 62
     7
100
AcDbLine
 10
93.647003
 20
451.799988
 30
0.0
 11
1146.647095
 21
451.799988
 31
0.0
  0
LINE
  5
94
330
1F
100
AcDbEntity
  8
0
 62
     7
100
AcDbLine
 10
1146.647095
 20
465.829285
 30
0.0
 11
1146.647095
 21
465.700012
 31
0.0
  0
LINE
  5
95
330
1F
100
AcDbEntity
  8
0
 62
     7
100
AcDbLine
 10
1146.647095
 20
465.829285
 30
0.0
 11
1146.647095
 21
465.970703
 31
0.0
  0
LINE
  5
96
330
1F
100
AcDbEntity
  8
0
 62
     7
100
AcDbLine
 10
1146.647095
 20
466.099976
 30
0.0
 11
1146.647095
 21
465.970703
 31
0.0
  0
LINE
  5
97
330
1F
100
AcDbEntity
  8
0
 62
     7
100
AcDbLine
 10
1146.647095
 20
466.099976
 30
0.0
 11
1146.647095
 21
466.799988
 31
0.0
  0
LINE
  5
98
330
1F
100
AcDbEntity
  8
0
 62
     7
100
AcDbLine
 10
1146.647095
 20
466.92926
 30
0.0
 11
1146.647095
 21
466.799988
 31
0.0
  0
LINE
  5
99
330
1F
100
AcDbEntity
  8
0
 62
     7
100
AcDbLine
 10
1146.647095
 20
466.92926
 30
0.0
 11
1146.647095
 21
467.070679
 31
0.0
  0
LINE
  5
9A
330
1F
100
AcDbEntity
  8
0
 62
     7
100
AcDbLine
 10
1146.647095
 20
467.200012
 30
0.0
 11
1146.647095
 21
467.070679
 31
0.0
  0
LINE
  5
9B
330
1F
100
AcDbEntity
  8
0
 62
     7
100
AcDbLine
 10
1146.647095
 20
467.200012
 30
0.0
 11
1146.647095
 21
467.900024
 31
0.0
  0
LINE
  5
9C
330
1F
100
AcDbEntity
  8
0
 62
     7
100
AcDbLine
 10
1146.647095
 20
468.029297
 30
0.0
 11
1146.647095
 21
467.900024
 31
0.0
  0
LINE
  5
9D
330
1F
100
AcDbEntity
  8
0
 62
     7
100
AcDbLine
 10
1146.647095
 20
468.029297
 30
0.0
 11
1146.647095
 21
468.170715
 31
0.0
  0
LINE
  5
9E
330
1F
100
AcDbEntity
  8
0
 62
     7
100
AcDbLine
 10
1146.647095
 20
468.299988
 30
0.0
 11
1146.647095
 21
468.170715
 31
0.0
  0
LINE
  5
9F
330
1F
100
AcDbEntity
  8
0
 62
     7
100
AcDbLine
 10
1146.647095
 20
468.299988
 30
0.0
 11
1146.647095
 21
469.0
 31
0.0
  0
LINE
  5
A0
330
1F
100
AcDbEntity
  8
0
 62
     7
100
AcDbLine
 10
1146.647095
 20
469.129272
 30
0.0
 11
1146.647095
 21
469.0
 31
0.0
  0
LINE
  5
A1
330
1F
100
AcDbEntity
  8
0
 62
     7
100
AcDbLine
 10
1146.647095
 20
469.129272
 30
0.0
 11
1146.647095
 21
469.270691
 31
0.0
  0
LINE
  5
A2
330
1F
100
AcDbEntity
  8
0
 62
     7
100
AcDbLine
 10
1146.647095
 20
469.400024
 30
0.0
 11
1146.647095
 21
469.270691
 31
0.0
  0
LINE
  5
A3
330
1F
100
AcDbEntity
  8
0
 62
     7
100
AcDbLine
 10
1146.647095
 20
469.400024
 30
0.0
 11
1146.647095
 21
470.099976
 31
0.0
  0
LINE
  5
A4
330
1F
100
AcDbEntity
  8
0
 62
     7
100
AcDbLine
 10
1146.647095
 20
470.229309
 30
0.0
 11
1146.647095
 21
470.099976
 31
0.0
  0
LINE
  5
A5
330
1F
100
AcDbEntity
  8
0
 62
     7
100
AcDbLine
 10
1146.647095
 20
470.229309
 30
0.0
 11
1146.647095
 21
470.370728
 31
0.0
  0
LINE
  5
A6
330
1F
100
AcDbEntity
  8
0
 62
     7
100
AcDbLine
 10
1146.647095
 20
470.5
 30
0.0
 11
1146.647095
 21
470.370728
 31
0.0
  0
LINE
  5
A7
330
1F
100
AcDbEntity
  8
0
 62
     7
100
AcDbLine
 10
1146.647095
 20
470.5
 30
0.0
 11
1146.647095
 21
471.200012
 31
0.0
  0
LINE
  5
A8
330
1F
100
AcDbEntity
  8
0
 62
     7
100
AcDbLine
 10
1146.647095
 20
471.329285
 30
0.0
 11
1146.647095
 21
471.200012
 31
0.0
  0
LINE
  5
A9
330
1F
100
AcDbEntity
  8
0
 62
     7
100
AcDbLine
 10
1146.647095
 20
471.329285
 30
0.0
 11
1146.647095
 21
471.470703
 31
0.0
  0
LINE
  5
AA
330
1F
100
AcDbEntity
  8
0
 62
     7
100
AcDbLine
 10
1146.647095
 20
471.599976
 30
0.0
 11
1146.647095
 21
471.470703
 31
0.0
  0
LINE
  5
AB
330
1F
100
AcDbEntity
  8
0
 62
     7
100
AcDbLine
 10
1146.647095
 20
471.599976
 30
0.0
 11
1146.647095
 21
472.299988
 31
0.0
  0
LINE
  5
AC
330
1F
100
AcDbEntity
  8
0
 62
     7
100
AcDbLine
 10
1146.647095
 20
472.42926
 30
0.0
 11
1146.647095
 21
472.299988
 31
0.0
  0
LINE
  5
AD
330
1F
100
AcDbEntity
  8
0
 62
     7
100
AcDbLine
 10
1146.647095
 20
472.42926
 30
0.0
 11
1146.647095
 21
472.570679
 31
0.0
  0
LINE
  5
AE
330
1F
100
AcDbEntity
  8
0
 62
     7
100
AcDbLine
 10
1146.647095
 20
472.700012
 30
0.0
 11
1146.647095
 21
472.570679
 31
0.0
  0
LINE
  5
AF
330
1F
100
AcDbEntity
  8
0
 62
     7
100
AcDbLine
 10
1146.647095
 20
472.700012
 30
0.0
 11
1146.647095
 21
473.400024
 31
0.0
  0
LINE
  5
B0
330
1F
100
AcDbEntity
  8
0
 62
     7
100
AcDbLine
 10
1146.647095
 20
473.529297
 30
0.0
 11
1146.647095
 21
473.400024
 31
0.0
  0
LINE
  5
B1
330
1F
100
AcDbEntity
  8
0
 62
     7
100
AcDbLine
 10
1146.647095
 20
473.529297
 30
0.0
 11
1146.647095
 21
473.670715
 31
0.0
  0
LINE
  5
B2
330
1F
100
AcDbEntity
  8
0
 62
     7
100
AcDbLine
 10
1146.647095
 20
473.799988
 30
0.0
 11
1146.647095
 21
473.670715
 31
0.0
  0
LINE
  5
B3
330
1F
100
AcDbEntity
  8
0
 62
     7
100
AcDbLine
 10
1146.647095
 20
473.799988
 30
0.0
 11
1146.647095
 21
474.5
 31
0.0
  0
LINE
  5
B4
330
1F
100
AcDbEntity
  8
0
 62
     7
100
AcDbLine
 10
1146.647095
 20
474.629272
 30
0.0
 11
1146.647095
 21
474.5
 31
0.0
  0
LINE
  5
B5
330
1F
100
AcDbEntity
  8
0
 62
     7
100
AcDbLine
 10
1146.647095
 20
474.629272
 30
0.0
 11
1146.647095
 21
474.770691
 31
0.0
  0
LINE
  5
B6
330
1F
100
AcDbEntity
  8
0
 62
     7
100
AcDbLine
 10
1146.647095
 20
474.900024
 30
0.0
 11
1146.647095
 21
474.770691
 31
0.0
  0
LINE
  5
B7
330
1F
100
AcDbEntity
  8
0
 62
     7
100
AcDbLine
 10
1146.647095
 20
474.900024
 30
0.0
 11
1146.647095
 21
479.724243
 31
0.0
  0
LINE
  5
B8
330
1F
100
AcDbEntity
  8
0
 62
     7
100
AcDbLine
 10
1146.647095
 20
480.212158
 30
0.0
 11
1146.647095
 21
479.724243
 31
0.0
  0
LINE
  5
B9
330
1F
100
AcDbEntity
  8
0
 62
     7
100
AcDbLine
 10
1146.647095
 20
480.212158
 30
0.0
 11
1146.647095
 21
480.299988
 31
0.0
  0
LINE
  5
BA
330
1F
100
AcDbEntity
  8
0
 62
     7
100
AcDbLine
 10
1144.328369
 20
465.700012
 30
0.0
 11
1144.411743
 21
465.829285
 31
0.0
  0
ARC
  5
BB
330
1F
100
AcDbEntity
  8
0
 62
     7
100
AcDbCircle
 10
1137.647095
 20
470.099976
 30
0.0
 40
8.0
100
AcDbArc
 50
354.980203
 51
0.00001
  0
LINE
  5
BC
330
1F
100
AcDbEntity
  8
0
 62
     7
100
AcDbLine
 10
1145.604004
 20
469.270691
 30
0.0
 11
1145.616455
 21
469.400024
 31
0.0
  0
LINE
  5
BD
330
1F
100
AcDbEntity
  8
0
 62
     7
100
AcDbLine
 10
1145.588013
 20
469.129272
 30
0.0
 11
1145.604004
 21
469.270691
 31
0.0
  0
LINE
  5
BE
330
1F
100
AcDbEntity
  8
0
 62
     7
100
AcDbLine
 10
1145.571167
 20
469.0
 30
0.0
 11
1145.588013
 21
469.129272
 31
0.0
  0
ARC
  5
BF
330
1F
100
AcDbEntity
  8
0
 62
     7
100
AcDbCircle
 10
1137.647095
 20
470.099976
 30
0.0
 40
8.0
100
AcDbArc
 50
346.997132
 51
352.096798
  0
LINE
  5
C0
330
1F
100
AcDbEntity
  8
0
 62
     7
100
AcDbLine
 10
1145.411011
 20
468.170715
 30
0.0
 11
1145.442017
 21
468.299988
 31
0.0
  0
LINE
  5
C1
330
1F
100
AcDbEntity
  8
0
 62
     7
100
AcDbLine
 10
1145.374512
 20
468.029297
 30
0.0
 11
1145.411011
 21
468.170715
 31
0.0
  0
LINE
  5
C2
330
1F
100
AcDbEntity
  8
0
 62
     7
100
AcDbLine
 10
1145.338623
 20
467.900024
 30
0.0
 11
1145.374512
 21
468.029297
 31
0.0
  0
ARC
  5
C3
330
1F
100
AcDbEntity
  8
0
 62
     7
100
AcDbCircle
 10
1137.647095
 20
470.099976
 30
0.0
 40
8.0
100
AcDbArc
 50
338.746183
 51
344.037995
  0
LINE
  5
C4
330
1F
100
AcDbEntity
  8
0
 62
     7
100
AcDbLine
 10
1145.051392
 20
467.070679
 30
0.0
 11
1145.102905
 21
467.200012
 31
0.0
  0
LINE
  5
C5
330
1F
100
AcDbEntity
  8
0
 62
     7
100
AcDbLine
 10
1144.991943
 20
466.92926
 30
0.0
 11
1145.051392
 21
467.070679
 31
0.0
  0
LINE
  5
C6
330
1F
100
AcDbEntity
  8
0
 62
     7
100
AcDbLine
 10
1144.934814
 20
466.799988
 30
0.0
 11
1144.991943
 21
466.92926
 31
0.0
  0
ARC
  5
C7
330
1F
100
AcDbEntity
  8
0
 62
     7
100
AcDbCircle
 10
1137.647095
 20
470.099976
 30
0.0
 40
8.0
100
AcDbArc
 50
329.999989
 51
335.63801
  0
LINE
  5
C8
330
1F
100
AcDbEntity
  8
0
 62
     7
100
AcDbLine
 10
1144.499023
 20
465.970703
 30
0.0
 11
1144.575317
 21
466.099976
 31
0.0
  0
LINE
  5
C9
330
1F
100
AcDbEntity
  8
0
 62
     7
100
AcDbLine
 10
1144.411743
 20
465.829285
 30
0.0
 11
1144.499023
 21
465.970703
 31
0.0
  0
LINE
  5
CA
330
1F
100
AcDbEntity
  8
0
 62
     7
100
AcDbLine
 10
1130.96582
 20
465.700012
 30
0.0
 11
1130.882446
 21
465.829285
 31
0.0
  0
LINE
  5
CB
330
1F
100
AcDbEntity
  8
0
 62
     7
100
AcDbLine
 10
1130.882446
 20
465.829285
 30
0.0
 11
1130.795166
 21
465.970703
 31
0.0
  0
LINE
  5
CC
330
1F
100
AcDbEntity
  8
0
 62
     7
100
AcDbLine
 10
1130.795166
 20
465.970703
 30
0.0
 11
1130.718872
 21
466.099976
 31
0.0
  0
ARC
  5
CD
330
1F
100
AcDbEntity
  8
0
 62
     7
100
AcDbCircle
 10
1137.647095
 20
470.099976
 30
0.0
 40
8.0
100
AcDbArc
 50
204.361982
 51
210.000003
  0
LINE
  5
CE
330
1F
100
AcDbEntity
  8
0
 62
     7
100
AcDbLine
 10
1130.359375
 20
466.799988
 30
0.0
 11
1130.302246
 21
466.92926
 31
0.0
  0
LINE
  5
CF
330
1F
100
AcDbEntity
  8
0
 62
     7
100
AcDbLine
 10
1130.302246
 20
466.92926
 30
0.0
 11
1130.242798
 21
467.070679
 31
0.0
  0
LINE
  5
D0
330
1F
100
AcDbEntity
  8
0
 62
     7
100
AcDbLine
 10
1130.242798
 20
467.070679
 30
0.0
 11
1130.191284
 21
467.200012
 31
0.0
  0
ARC
  5
D1
330
1F
100
AcDbEntity
  8
0
 62
     7
100
AcDbCircle
 10
1137.647095
 20
470.099976
 30
0.0
 40
8.0
100
AcDbArc
 50
195.96201
 51
201.253809
  0
LINE
  5
D2
330
1F
100
AcDbEntity
  8
0
 62
     7
100
AcDbLine
 10
1129.955566
 20
467.900024
 30
0.0
 11
1129.919678
 21
468.029297
 31
0.0
  0
LINE
  5
D3
330
1F
100
AcDbEntity
  8
0
 62
     7
100
AcDbLine
 10
1129.919678
 20
468.029297
 30
0.0
 11
1129.883179
 21
468.170715
 31
0.0
  0
LINE
  5
D4
330
1F
100
AcDbEntity
  8
0
 62
     7
100
AcDbLine
 10
1129.883179
 20
468.170715
 30
0.0
 11
1129.852173
 21
468.299988
 31
0.0
  0
ARC
  5
D5
330
1F
100
AcDbEntity
  8
0
 62
     7
100
AcDbCircle
 10
1137.647095
 20
470.099976
 30
0.0
 40
8.0
100
AcDbArc
 50
187.903207
 51
193.002872
  0
LINE
  5
D6
330
1F
100
AcDbEntity
  8
0
 62
     7
100
AcDbLine
 10
1129.723022
 20
469.0
 30
0.0
 11
1129.706177
 21
469.129272
 31
0.0
  0
LINE
  5
D7
330
1F
100
AcDbEntity
  8
0
 62
     7
100
AcDbLine
 10
1129.706177
 20
469.129272
 30
0.0
 11
1129.690186
 21
469.270691
 31
0.0
  0
LINE
  5
D8
330
1F
100
AcDbEntity
  8
0
 62
     7
100
AcDbLine
 10
1129.690186
 20
469.270691
 30
0.0
 11
1129.677734
 21
469.400024
 31
0.0
  0
ARC
  5
D9
330
1F
100
AcDbEntity
  8
0
 62
     7
100
AcDbCircle
 10
1137.647095
 20
470.099976
 30
0.0
 40
8.0
100
AcDbArc
 50
180.000009
 51
185.019802
  0
LINE
  5
DA
330
1F
100
AcDbEntity
  8
0
 62
     7
100
AcDbLine
 10
1072.297119
 20
465.829285
 30
0.0
 11
1072.297119
 21
465.700012
 31
0.0
  0
LINE
  5
DB
330
1F
100
AcDbEntity
  8
0
 62
     7
100
AcDbLine
 10
1072.297119
 20
465.970703
 30
0.0
 11
1072.297119
 21
466.099976
 31
0.0
  0
LINE
  5
DC
330
1F
100
AcDbEntity
  8
0
 62
     7
100
AcDbLine
 10
1072.297119
 20
465.970703
 30
0.0
 11
1072.297119
 21
465.829285
 31
0.0
  0
LINE
  5
DD
330
1F
100
AcDbEntity
  8
0
 62
     7
100
AcDbLine
 10
1072.297119
 20
472.700012
 30
0.0
 11
1072.297119
 21
473.099976
 31
0.0
  0
LINE
  5
DE
330
1F
100
AcDbEntity
  8
0
 62
     7
100
AcDbLine
 10
1072.297119
 20
472.570679
 30
0.0
 11
1072.297119
 21
472.700012
 31
0.0
  0
LINE
  5
DF
330
1F
100
AcDbEntity
  8
0
 62
     7
100
AcDbLine
 10
1072.297119
 20
472.570679
 30
0.0
 11
1072.297119
 21
472.42926
 31
0.0
  0
LINE
  5
E0
330
1F
100
AcDbEntity
  8
0
 62
     7
100
AcDbLine
 10
1072.297119
 20
472.42926
 30
0.0
 11
1072.297119
 21
472.299988
 31
0.0
  0
LINE
  5
E1
330
1F
100
AcDbEntity
  8
0
 62
     7
100
AcDbLine
 10
1072.297119
 20
471.599976
 30
0.0
 11
1072.297119
 21
472.299988
 31
0.0
  0
LINE
  5
E2
330
1F
100
AcDbEntity
  8
0
 62
     7
100
AcDbLine
 10
1072.297119
 20
471.470703
 30
0.0
 11
1072.297119
 21
471.599976
 31
0.0
  0
LINE
  5
E3
330
1F
100
AcDbEntity
  8
0
 62
     7
100
AcDbLine
 10
1072.297119
 20
471.470703
 30
0.0
 11
1072.297119
 21
471.329285
 31
0.0
  0
LINE
  5
E4
330
1F
100
AcDbEntity
  8
0
 62
     7
100
AcDbLine
 10
1072.297119
 20
471.329285
 30
0.0
 11
1072.297119
 21
471.200012
 31
0.0
  0
LINE
  5
E5
330
1F
100
AcDbEntity
  8
0
 62
     7
100
AcDbLine
 10
1072.297119
 20
470.5
 30
0.0
 11
1072.297119
 21
471.200012
 31
0.0
  0
LINE
  5
E6
330
1F
100
AcDbEntity
  8
0
 62
     7
100
AcDbLine
 10
1072.297119
 20
470.370728
 30
0.0
 11
1072.297119
 21
470.5
 31
0.0
  0
LINE
  5
E7
330
1F
100
AcDbEntity
  8
0
 62
     7
100
AcDbLine
 10
1072.297119
 20
470.370728
 30
0.0
 11
1072.297119
 21
470.229309
 31
0.0
  0
LINE
  5
E8
330
1F
100
AcDbEntity
  8
0
 62
     7
100
AcDbLine
 10
1072.297119
 20
470.229309
 30
0.0
 11
1072.297119
 21
470.099976
 31
0.0
  0
LINE
  5
E9
330
1F
100
AcDbEntity
  8
0
 62
     7
100
AcDbLine
 10
1072.297119
 20
469.400024
 30
0.0
 11
1072.297119
 21
470.099976
 31
0.0
  0
LINE
  5
EA
330
1F
100
AcDbEntity
  8
0
 62
     7
100
AcDbLine
 10
1072.297119
 20
469.270691
 30
0.0
 11
1072.297119
 21
469.400024
 31
0.0
  0
LINE
  5
EB
330
1F
100
AcDbEntity
  8
0
 62
     7
100
AcDbLine
 10
1072.297119
 20
469.270691
 30
0.0
 11
1072.297119
 21
469.129272
 31
0.0
  0
LINE
  5
EC
330
1F
100
AcDbEntity
  8
0
 62
     7
100
AcDbLine
 10
1072.297119
 20
469.129272
 30
0.0
 11
1072.297119
 21
469.0
 31
0.0
  0
LINE
  5
ED
330
1F
100
AcDbEntity
  8
0
 62
     7
100
AcDbLine
 10
1072.297119
 20
468.299988
 30
0.0
 11
1072.297119
 21
469.0
 31
0.0
  0
LINE
  5
EE
330
1F
100
AcDbEntity
  8
0
 62
     7
100
AcDbLine
 10
1072.297119
 20
468.170715
 30
0.0
 11
1072.297119
 21
468.299988
 31
0.0
  0
LINE
  5
EF
330
1F
100
AcDbEntity
  8
0
 62
     7
100
AcDbLine
 10
1072.297119
 20
468.170715
 30
0.0
 11
1072.297119
 21
468.029297
 31
0.0
  0
LINE
  5
F0
330
1F
100
AcDbEntity
  8
0
 62
     7
100
AcDbLine
 10
1072.297119
 20
468.029297
 30
0.0
 11
1072.297119
 21
467.900024
 31
0.0
  0
LINE
  5
F1
330
1F
100
AcDbEntity
  8
0
 62
     7
100
AcDbLine
 10
1072.297119
 20
467.200012
 30
0.0
 11
1072.297119
 21
467.900024
 31
0.0
  0
LINE
  5
F2
330
1F
100
AcDbEntity
  8
0
 62
     7
100
AcDbLine
 10
1072.297119
 20
467.070679
 30
0.0
 11
1072.297119
 21
467.200012
 31
0.0
  0
LINE
  5
F3
330
1F
100
AcDbEntity
  8
0
 62
     7
100
AcDbLine
 10
1072.297119
 20
467.070679
 30
0.0
 11
1072.297119
 21
466.92926
 31
0.0
  0
LINE
  5
F4
330
1F
100
AcDbEntity
  8
0
 62
     7
100
AcDbLine
 10
1072.297119
 20
466.92926
 30
0.0
 11
1072.297119
 21
466.799988
 31
0.0
  0
LINE
  5
F5
330
1F
100
AcDbEntity
  8
0
 62
     7
100
AcDbLine
 10
1072.297119
 20
466.099976
 30
0.0
 11
1072.297119
 21
466.799988
 31
0.0
  0
LINE
  5
F6
330
1F
100
AcDbEntity
  8
0
 62
     7
100
AcDbLine
 10
1071.297119
 20
473.400024
 30
0.0
 11
1071.297119
 21
472.700012
 31
0.0
  0
LINE
  5
F7
330
1F
100
AcDbEntity
  8
0
 62
     7
100
AcDbLine
 10
1071.297119
 20
473.529297
 30
0.0
 11
1071.297119
 21
473.400024
 31
0.0
  0
LINE
  5
F8
330
1F
100
AcDbEntity
  8
0
 62
     7
100
AcDbLine
 10
1071.297119
 20
473.529297
 30
0.0
 11
1071.297119
 21
473.599976
 31
0.0
  0
LINE
  5
F9
330
1F
100
AcDbEntity
  8
0
 62
     7
100
AcDbLine
 10
1071.297119
 20
465.829285
 30
0.0
 11
1071.297119
 21
465.700012
 31
0.0
  0
LINE
  5
FA
330
1F
100
AcDbEntity
  8
0
 62
     7
100
AcDbLine
 10
1071.297119
 20
465.829285
 30
0.0
 11
1071.297119
 21
465.970703
 31
0.0
  0
LINE
  5
FB
330
1F
100
AcDbEntity
  8
0
 62
     7
100
AcDbLine
 10
1071.297119
 20
465.970703
 30
0.0
 11
1071.297119
 21
466.099976
 31
0.0
  0
LINE
  5
FC
330
1F
100
AcDbEntity
  8
0
 62
     7
100
AcDbLine
 10
1071.297119
 20
466.799988
 30
0.0
 11
1071.297119
 21
466.099976
 31
0.0
  0
LINE
  5
FD
330
1F
100
AcDbEntity
  8
0
 62
     7
100
AcDbLine
 10
1071.297119
 20
466.92926
 30
0.0
 11
1071.297119
 21
466.799988
 31
0.0
  0
LINE
  5
FE
330
1F
100
AcDbEntity
  8
0
 62
     7
100
AcDbLine
 10
1071.297119
 20
466.92926
 30
0.0
 11
1071.297119
 21
467.070679
 31
0.0
  0
LINE
  5
FF
330
1F
100
AcDbEntity
  8
0
 62
     7
100
AcDbLine
 10
1071.297119
 20
467.070679
 30
0.0
 11
1071.297119
 21
467.200012
 31
0.0
  0
LINE
  5
100
330
1F
100
AcDbEntity
  8
0
 62
     7
100
AcDbLine
 10
1071.297119
 20
467.900024
 30
0.0
 11
1071.297119
 21
467.200012
 31
0.0
  0
LINE
  5
101
330
1F
100
AcDbEntity
  8
0
 62
     7
100
AcDbLine
 10
1071.297119
 20
468.029297
 30
0.0
 11
1071.297119
 21
467.900024
 31
0.0
  0
LINE
  5
102
330
1F
100
AcDbEntity
  8
0
 62
     7
100
AcDbLine
 10
1071.297119
 20
468.029297
 30
0.0
 11
1071.297119
 21
468.170715
 31
0.0
  0
LINE
  5
103
330
1F
100
AcDbEntity
  8
0
 62
     7
100
AcDbLine
 10
1071.297119
 20
468.170715
 30
0.0
 11
1071.297119
 21
468.299988
 31
0.0
  0
LINE
  5
104
330
1F
100
AcDbEntity
  8
0
 62
     7
100
AcDbLine
 10
1071.297119
 20
469.0
 30
0.0
 11
1071.297119
 21
468.299988
 31
0.0
  0
LINE
  5
105
330
1F
100
AcDbEntity
  8
0
 62
     7
100
AcDbLine
 10
1071.297119
 20
469.129272
 30
0.0
 11
1071.297119
 21
469.0
 31
0.0
  0
LINE
  5
106
330
1F
100
AcDbEntity
  8
0
 62
     7
100
AcDbLine
 10
1071.297119
 20
469.129272
 30
0.0
 11
1071.297119
 21
469.270691
 31
0.0
  0
LINE
  5
107
330
1F
100
AcDbEntity
  8
0
 62
     7
100
AcDbLine
 10
1071.297119
 20
469.270691
 30
0.0
 11
1071.297119
 21
469.400024
 31
0.0
  0
LINE
  5
108
330
1F
100
AcDbEntity
  8
0
 62
     7
100
AcDbLine
 10
1071.297119
 20
470.099976
 30
0.0
 11
1071.297119
 21
469.400024
 31
0.0
  0
LINE
  5
109
330
1F
100
AcDbEntity
  8
0
 62
     7
100
AcDbLine
 10
1071.297119
 20
470.229309
 30
0.0
 11
1071.297119
 21
470.099976
 31
0.0
  0
LINE
  5
10A
330
1F
100
AcDbEntity
  8
0
 62
     7
100
AcDbLine
 10
1071.297119
 20
470.229309
 30
0.0
 11
1071.297119
 21
470.370728
 31
0.0
  0
LINE
  5
10B
330
1F
100
AcDbEntity
  8
0
 62
     7
100
AcDbLine
 10
1071.297119
 20
470.370728
 30
0.0
 11
1071.297119
 21
470.5
 31
0.0
  0
LINE
  5
10C
330
1F
100
AcDbEntity
  8
0
 62
     7
100
AcDbLine
 10
1071.297119
 20
471.200012
 30
0.0
 11
1071.297119
 21
470.5
 31
0.0
  0
LINE
  5
10D
330
1F
100
AcDbEntity
  8
0
 62
     7
100
AcDbLine
 10
1071.297119
 20
471.329285
 30
0.0
 11
1071.297119
 21
471.200012
 31
0.0
  0
LINE
  5
10E
330
1F
100
AcDbEntity
  8
0
 62
     7
100
AcDbLine
 10
1071.297119
 20
471.329285
 30
0.0
 11
1071.297119
 21
471.470703
 31
0.0
  0
LINE
  5
10F
330
1F
100
AcDbEntity
  8
0
 62
     7
100
AcDbLine
 10
1071.297119
 20
471.470703
 30
0.0
 11
1071.297119
 21
471.599976
 31
0.0
  0
LINE
  5
110
330
1F
100
AcDbEntity
  8
0
 62
     7
100
AcDbLine
 10
1071.297119
 20
472.299988
 30
0.0
 11
1071.297119
 21
471.599976
 31
0.0
  0
LINE
  5
111
330
1F
100
AcDbEntity
  8
0
 62
     7
100
AcDbLine
 10
1071.297119
 20
472.42926
 30
0.0
 11
1071.297119
 21
472.299988
 31
0.0
  0
LINE
  5
112
330
1F
100
AcDbEntity
  8
0
 62
     7
100
AcDbLine
 10
1071.297119
 20
472.42926
 30
0.0
 11
1071.297119
 21
472.570679
 31
0.0
  0
LINE
  5
113
330
1F
100
AcDbEntity
  8
0
 62
     7
100
AcDbLine
 10
1071.297119
 20
472.570679
 30
0.0
 11
1071.297119
 21
472.700012
 31
0.0
  0
LINE
  5
114
330
1F
100
AcDbEntity
  8
0
 62
     7
100
AcDbLine
 10
1068.99707
 20
465.829285
 30
0.0
 11
1068.99707
 21
465.700012
 31
0.0
  0
LINE
  5
115
330
1F
100
AcDbEntity
  8
0
 62
     7
100
AcDbLine
 10
1068.99707
 20
465.970703
 30
0.0
 11
1068.99707
 21
466.099976
 31
0.0
  0
LINE
  5
116
330
1F
100
AcDbEntity
  8
0
 62
     7
100
AcDbLine
 10
1068.99707
 20
465.970703
 30
0.0
 11
1068.99707
 21
465.829285
 31
0.0
  0
LINE
  5
117
330
1F
100
AcDbEntity
  8
0
 62
     7
100
AcDbLine
 10
1068.99707
 20
473.599976
 30
0.0
 11
1068.99707
 21
473.529297
 31
0.0
  0
LINE
  5
118
330
1F
100
AcDbEntity
  8
0
 62
     7
100
AcDbLine
 10
1068.99707
 20
473.529297
 30
0.0
 11
1068.99707
 21
473.400024
 31
0.0
  0
LINE
  5
119
330
1F
100
AcDbEntity
  8
0
 62
     7
100
AcDbLine
 10
1068.99707
 20
472.700012
 30
0.0
 11
1068.99707
 21
473.400024
 31
0.0
  0
LINE
  5
11A
330
1F
100
AcDbEntity
  8
0
 62
     7
100
AcDbLine
 10
1068.99707
 20
472.570679
 30
0.0
 11
1068.99707
 21
472.700012
 31
0.0
  0
LINE
  5
11B
330
1F
100
AcDbEntity
  8
0
 62
     7
100
AcDbLine
 10
1068.99707
 20
472.570679
 30
0.0
 11
1068.99707
 21
472.42926
 31
0.0
  0
LINE
  5
11C
330
1F
100
AcDbEntity
  8
0
 62
     7
100
AcDbLine
 10
1068.99707
 20
472.42926
 30
0.0
 11
1068.99707
 21
472.299988
 31
0.0
  0
LINE
  5
11D
330
1F
100
AcDbEntity
  8
0
 62
     7
100
AcDbLine
 10
1068.99707
 20
471.599976
 30
0.0
 11
1068.99707
 21
472.299988
 31
0.0
  0
LINE
  5
11E
330
1F
100
AcDbEntity
  8
0
 62
     7
100
AcDbLine
 10
1068.99707
 20
471.470703
 30
0.0
 11
1068.99707
 21
471.599976
 31
0.0
  0
LINE
  5
11F
330
1F
100
AcDbEntity
  8
0
 62
     7
100
AcDbLine
 10
1068.99707
 20
471.470703
 30
0.0
 11
1068.99707
 21
471.329285
 31
0.0
  0
LINE
  5
120
330
1F
100
AcDbEntity
  8
0
 62
     7
100
AcDbLine
 10
1068.99707
 20
471.329285
 30
0.0
 11
1068.99707
 21
471.200012
 31
0.0
  0
LINE
  5
121
330
1F
100
AcDbEntity
  8
0
 62
     7
100
AcDbLine
 10
1068.99707
 20
470.5
 30
0.0
 11
1068.99707
 21
471.200012
 31
0.0
  0
LINE
  5
122
330
1F
100
AcDbEntity
  8
0
 62
     7
100
AcDbLine
 10
1068.99707
 20
470.370728
 30
0.0
 11
1068.99707
 21
470.5
 31
0.0
  0
LINE
  5
123
330
1F
100
AcDbEntity
  8
0
 62
     7
100
AcDbLine
 10
1068.99707
 20
470.370728
 30
0.0
 11
1068.99707
 21
470.229309
 31
0.0
  0
LINE
  5
124
330
1F
100
AcDbEntity
  8
0
 62
     7
100
AcDbLine
 10
1068.99707
 20
470.229309
 30
0.0
 11
1068.99707
 21
470.099976
 31
0.0
  0
LINE
  5
125
330
1F
100
AcDbEntity
  8
0
 62
     7
100
AcDbLine
 10
1068.99707
 20
469.400024
 30
0.0
 11
1068.99707
 21
470.099976
 31
0.0
  0
LINE
  5
126
330
1F
100
AcDbEntity
  8
0
 62
     7
100
AcDbLine
 10
1068.99707
 20
469.270691
 30
0.0
 11
1068.99707
 21
469.400024
 31
0.0
  0
LINE
  5
127
330
1F
100
AcDbEntity
  8
0
 62
     7
100
AcDbLine
 10
1068.99707
 20
469.270691
 30
0.0
 11
1068.99707
 21
469.129272
 31
0.0
  0
LINE
  5
128
330
1F
100
AcDbEntity
  8
0
 62
     7
100
AcDbLine
 10
1068.99707
 20
469.129272
 30
0.0
 11
1068.99707
 21
469.0
 31
0.0
  0
LINE
  5
129
330
1F
100
AcDbEntity
  8
0
 62
     7
100
AcDbLine
 10
1068.99707
 20
468.299988
 30
0.0
 11
1068.99707
 21
469.0
 31
0.0
  0
LINE
  5
12A
330
1F
100
AcDbEntity
  8
0
 62
     7
100
AcDbLine
 10
1068.99707
 20
468.170715
 30
0.0
 11
1068.99707
 21
468.299988
 31
0.0
  0
LINE
  5
12B
330
1F
100
AcDbEntity
  8
0
 62
     7
100
AcDbLine
 10
1068.99707
 20
468.170715
 30
0.0
 11
1068.99707
 21
468.029297
 31
0.0
  0
LINE
  5
12C
330
1F
100
AcDbEntity
  8
0
 62
     7
100
AcDbLine
 10
1068.99707
 20
468.029297
 30
0.0
 11
1068.99707
 21
467.900024
 31
0.0
  0
LINE
  5
12D
330
1F
100
AcDbEntity
  8
0
 62
     7
100
AcDbLine
 10
1068.99707
 20
467.200012
 30
0.0
 11
1068.99707
 21
467.900024
 31
0.0
  0
LINE
  5
12E
330
1F
100
AcDbEntity
  8
0
 62
     7
100
AcDbLine
 10
1068.99707
 20
467.070679
 30
0.0
 11
1068.99707
 21
467.200012
 31
0.0
  0
LINE
  5
12F
330
1F
100
AcDbEntity
  8
0
 62
     7
100
AcDbLine
 10
1068.99707
 20
467.070679
 30
0.0
 11
1068.99707
 21
466.92926
 31
0.0
  0
LINE
  5
130
330
1F
100
AcDbEntity
  8
0
 62
     7
100
AcDbLine
 10
1068.99707
 20
466.92926
 30
0.0
 11
1068.99707
 21
466.799988
 31
0.0
  0
LINE
  5
131
330
1F
100
AcDbEntity
  8
0
 62
     7
100
AcDbLine
 10
1068.99707
 20
466.099976
 30
0.0
 11
1068.99707
 21
466.799988
 31
0.0
  0
LINE
  5
132
330
1F
100
AcDbEntity
  8
0
 62
     7
100
AcDbLine
 10
1067.99707
 20
472.42926
 30
0.0
 11
1067.99707
 21
472.299988
 31
0.0
  0
LINE
  5
133
330
1F
100
AcDbEntity
  8
0
 62
     7
100
AcDbLine
 10
1067.99707
 20
472.42926
 30
0.0
 11
1067.99707
 21
472.570679
 31
0.0
  0
LINE
  5
134
330
1F
100
AcDbEntity
  8
0
 62
     7
100
AcDbLine
 10
1067.99707
 20
472.570679
 30
0.0
 11
1067.99707
 21
472.700012
 31
0.0
  0
LINE
  5
135
330
1F
100
AcDbEntity
  8
0
 62
     7
100
AcDbLine
 10
1067.99707
 20
473.099976
 30
0.0
 11
1067.99707
 21
472.700012
 31
0.0
  0
LINE
  5
136
330
1F
100
AcDbEntity
  8
0
 62
     7
100
AcDbLine
 10
1067.99707
 20
465.829285
 30
0.0
 11
1067.99707
 21
465.700012
 31
0.0
  0
LINE
  5
137
330
1F
100
AcDbEntity
  8
0
 62
     7
100
AcDbLine
 10
1067.99707
 20
465.829285
 30
0.0
 11
1067.99707
 21
465.970703
 31
0.0
  0
LINE
  5
138
330
1F
100
AcDbEntity
  8
0
 62
     7
100
AcDbLine
 10
1067.99707
 20
465.970703
 30
0.0
 11
1067.99707
 21
466.099976
 31
0.0
  0
LINE
  5
139
330
1F
100
AcDbEntity
  8
0
 62
     7
100
AcDbLine
 10
1067.99707
 20
466.799988
 30
0.0
 11
1067.99707
 21
466.099976
 31
0.0
  0
LINE
  5
13A
330
1F
100
AcDbEntity
  8
0
 62
     7
100
AcDbLine
 10
1067.99707
 20
466.92926
 30
0.0
 11
1067.99707
 21
466.799988
 31
0.0
  0
LINE
  5
13B
330
1F
100
AcDbEntity
  8
0
 62
     7
100
AcDbLine
 10
1067.99707
 20
466.92926
 30
0.0
 11
1067.99707
 21
467.070679
 31
0.0
  0
LINE
  5
13C
330
1F
100
AcDbEntity
  8
0
 62
     7
100
AcDbLine
 10
1067.99707
 20
467.070679
 30
0.0
 11
1067.99707
 21
467.200012
 31
0.0
  0
LINE
  5
13D
330
1F
100
AcDbEntity
  8
0
 62
     7
100
AcDbLine
 10
1067.99707
 20
467.900024
 30
0.0
 11
1067.99707
 21
467.200012
 31
0.0
  0
LINE
  5
13E
330
1F
100
AcDbEntity
  8
0
 62
     7
100
AcDbLine
 10
1067.99707
 20
468.029297
 30
0.0
 11
1067.99707
 21
467.900024
 31
0.0
  0
LINE
  5
13F
330
1F
100
AcDbEntity
  8
0
 62
     7
100
AcDbLine
 10
1067.99707
 20
468.029297
 30
0.0
 11
1067.99707
 21
468.170715
 31
0.0
  0
LINE
  5
140
330
1F
100
AcDbEntity
  8
0
 62
     7
100
AcDbLine
 10
1067.99707
 20
468.170715
 30
0.0
 11
1067.99707
 21
468.299988
 31
0.0
  0
LINE
  5
141
330
1F
100
AcDbEntity
  8
0
 62
     7
100
AcDbLine
 10
1067.99707
 20
469.0
 30
0.0
 11
1067.99707
 21
468.299988
 31
0.0
  0
LINE
  5
142
330
1F
100
AcDbEntity
  8
0
 62
     7
100
AcDbLine
 10
1067.99707
 20
469.129272
 30
0.0
 11
1067.99707
 21
469.0
 31
0.0
  0
LINE
  5
143
330
1F
100
AcDbEntity
  8
0
 62
     7
100
AcDbLine
 10
1067.99707
 20
469.129272
 30
0.0
 11
1067.99707
 21
469.270691
 31
0.0
  0
LINE
  5
144
330
1F
100
AcDbEntity
  8
0
 62
     7
100
AcDbLine
 10
1067.99707
 20
469.270691
 30
0.0
 11
1067.99707
 21
469.400024
 31
0.0
  0
LINE
  5
145
330
1F
100
AcDbEntity
  8
0
 62
     7
100
AcDbLine
 10
1067.99707
 20
470.099976
 30
0.0
 11
1067.99707
 21
469.400024
 31
0.0
  0
LINE
  5
146
330
1F
100
AcDbEntity
  8
0
 62
     7
100
AcDbLine
 10
1067.99707
 20
470.229309
 30
0.0
 11
1067.99707
 21
470.099976
 31
0.0
  0
LINE
  5
147
330
1F
100
AcDbEntity
  8
0
 62
     7
100
AcDbLine
 10
1067.99707
 20
470.229309
 30
0.0
 11
1067.99707
 21
470.370728
 31
0.0
  0
LINE
  5
148
330
1F
100
AcDbEntity
  8
0
 62
     7
100
AcDbLine
 10
1067.99707
 20
470.370728
 30
0.0
 11
1067.99707
 21
470.5
 31
0.0
  0
LINE
  5
149
330
1F
100
AcDbEntity
  8
0
 62
     7
100
AcDbLine
 10
1067.99707
 20
471.200012
 30
0.0
 11
1067.99707
 21
470.5
 31
0.0
  0
LINE
  5
14A
330
1F
100
AcDbEntity
  8
0
 62
     7
100
AcDbLine
 10
1067.99707
 20
471.329285
 30
0.0
 11
1067.99707
 21
471.200012
 31
0.0
  0
LINE
  5
14B
330
1F
100
AcDbEntity
  8
0
 62
     7
100
AcDbLine
 10
1067.99707
 20
471.329285
 30
0.0
 11
1067.99707
 21
471.470703
 31
0.0
  0
LINE
  5
14C
330
1F
100
AcDbEntity
  8
0
 62
     7
100
AcDbLine
 10
1067.99707
 20
471.470703
 30
0.0
 11
1067.99707
 21
471.599976
 31
0.0
  0
LINE
  5
14D
330
1F
100
AcDbEntity
  8
0
 62
     7
100
AcDbLine
 10
1067.99707
 20
472.299988
 30
0.0
 11
1067.99707
 21
471.599976
 31
0.0
  0
LINE
  5
14E
330
1F
100
AcDbEntity
  8
0
 62
     7
100
AcDbLine
 10
772.297058
 20
465.829285
 30
0.0
 11
772.297058
 21
465.700012
 31
0.0
  0
LINE
  5
14F
330
1F
100
AcDbEntity
  8
0
 62
     7
100
AcDbLine
 10
772.297058
 20
465.970703
 30
0.0
 11
772.297058
 21
466.099976
 31
0.0
  0
LINE
  5
150
330
1F
100
AcDbEntity
  8
0
 62
     7
100
AcDbLine
 10
772.297058
 20
465.970703
 30
0.0
 11
772.297058
 21
465.829285
 31
0.0
  0
LINE
  5
151
330
1F
100
AcDbEntity
  8
0
 62
     7
100
AcDbLine
 10
772.297058
 20
472.700012
 30
0.0
 11
772.297058
 21
473.099976
 31
0.0
  0
LINE
  5
152
330
1F
100
AcDbEntity
  8
0
 62
     7
100
AcDbLine
 10
772.297058
 20
472.570679
 30
0.0
 11
772.297058
 21
472.700012
 31
0.0
  0
LINE
  5
153
330
1F
100
AcDbEntity
  8
0
 62
     7
100
AcDbLine
 10
772.297058
 20
472.570679
 30
0.0
 11
772.297058
 21
472.42926
 31
0.0
  0
LINE
  5
154
330
1F
100
AcDbEntity
  8
0
 62
     7
100
AcDbLine
 10
772.297058
 20
472.42926
 30
0.0
 11
772.297058
 21
472.299988
 31
0.0
  0
LINE
  5
155
330
1F
100
AcDbEntity
  8
0
 62
     7
100
AcDbLine
 10
772.297058
 20
471.599976
 30
0.0
 11
772.297058
 21
472.299988
 31
0.0
  0
LINE
  5
156
330
1F
100
AcDbEntity
  8
0
 62
     7
100
AcDbLine
 10
772.297058
 20
471.470703
 30
0.0
 11
772.297058
 21
471.599976
 31
0.0
  0
LINE
  5
157
330
1F
100
AcDbEntity
  8
0
 62
     7
100
AcDbLine
 10
772.297058
 20
471.470703
 30
0.0
 11
772.297058
 21
471.329285
 31
0.0
  0
LINE
  5
158
330
1F
100
AcDbEntity
  8
0
 62
     7
100
AcDbLine
 10
772.297058
 20
471.329285
 30
0.0
 11
772.297058
 21
471.200012
 31
0.0
  0
LINE
  5
159
330
1F
100
AcDbEntity
  8
0
 62
     7
100
AcDbLine
 10
772.297058
 20
470.5
 30
0.0
 11
772.297058
 21
471.200012
 31
0.0
  0
LINE
  5
15A
330
1F
100
AcDbEntity
  8
0
 62
     7
100
AcDbLine
 10
772.297058
 20
470.370728
 30
0.0
 11
772.297058
 21
470.5
 31
0.0
  0
LINE
  5
15B
330
1F
100
AcDbEntity
  8
0
 62
     7
100
AcDbLine
 10
772.297058
 20
470.370728
 30
0.0
 11
772.297058
 21
470.229309
 31
0.0
  0
LINE
  5
15C
330
1F
100
AcDbEntity
  8
0
 62
     7
100
AcDbLine
 10
772.297058
 20
470.229309
 30
0.0
 11
772.297058
 21
470.099976
 31
0.0
  0
LINE
  5
15D
330
1F
100
AcDbEntity
  8
0
 62
     7
100
AcDbLine
 10
772.297058
 20
469.400024
 30
0.0
 11
772.297058
 21
470.099976
 31
0.0
  0
LINE
  5
15E
330
1F
100
AcDbEntity
  8
0
 62
     7
100
AcDbLine
 10
772.297058
 20
469.270691
 30
0.0
 11
772.297058
 21
469.400024
 31
0.0
  0
LINE
  5
15F
330
1F
100
AcDbEntity
  8
0
 62
     7
100
AcDbLine
 10
772.297058
 20
469.270691
 30
0.0
 11
772.297058
 21
469.129272
 31
0.0
  0
LINE
  5
160
330
1F
100
AcDbEntity
  8
0
 62
     7
100
AcDbLine
 10
772.297058
 20
469.129272
 30
0.0
 11
772.297058
 21
469.0
 31
0.0
  0
LINE
  5
161
330
1F
100
AcDbEntity
  8
0
 62
     7
100
AcDbLine
 10
772.297058
 20
468.299988
 30
0.0
 11
772.297058
 21
469.0
 31
0.0
  0
LINE
  5
162
330
1F
100
AcDbEntity
  8
0
 62
     7
100
AcDbLine
 10
772.297058
 20
468.170715
 30
0.0
 11
772.297058
 21
468.299988
 31
0.0
  0
LINE
  5
163
330
1F
100
AcDbEntity
  8
0
 62
     7
100
AcDbLine
 10
772.297058
 20
468.170715
 30
0.0
 11
772.297058
 21
468.029297
 31
0.0
  0
LINE
  5
164
330
1F
100
AcDbEntity
  8
0
 62
     7
100
AcDbLine
 10
772.297058
 20
468.029297
 30
0.0
 11
772.297058
 21
467.900024
 31
0.0
  0
LINE
  5
165
330
1F
100
AcDbEntity
  8
0
 62
     7
100
AcDbLine
 10
772.297058
 20
467.200012
 30
0.0
 11
772.297058
 21
467.900024
 31
0.0
  0
LINE
  5
166
330
1F
100
AcDbEntity
  8
0
 62
     7
100
AcDbLine
 10
772.297058
 20
467.070679
 30
0.0
 11
772.297058
 21
467.200012
 31
0.0
  0
LINE
  5
167
330
1F
100
AcDbEntity
  8
0
 62
     7
100
AcDbLine
 10
772.297058
 20
467.070679
 30
0.0
 11
772.297058
 21
466.92926
 31
0.0
  0
LINE
  5
168
330
1F
100
AcDbEntity
  8
0
 62
     7
100
AcDbLine
 10
772.297058
 20
466.92926
 30
0.0
 11
772.297058
 21
466.799988
 31
0.0
  0
LINE
  5
169
330
1F
100
AcDbEntity
  8
0
 62
     7
100
AcDbLine
 10
772.297058
 20
466.099976
 30
0.0
 11
772.297058
 21
466.799988
 31
0.0
  0
LINE
  5
16A
330
1F
100
AcDbEntity
  8
0
 62
     7
100
AcDbLine
 10
771.297058
 20
473.400024
 30
0.0
 11
771.297058
 21
472.700012
 31
0.0
  0
LINE
  5
16B
330
1F
100
AcDbEntity
  8
0
 62
     7
100
AcDbLine
 10
771.297058
 20
473.529297
 30
0.0
 11
771.297058
 21
473.400024
 31
0.0
  0
LINE
  5
16C
330
1F
100
AcDbEntity
  8
0
 62
     7
100
AcDbLine
 10
771.297058
 20
473.529297
 30
0.0
 11
771.297058
 21
473.599976
 31
0.0
  0
LINE
  5
16D
330
1F
100
AcDbEntity
  8
0
 62
     7
100
AcDbLine
 10
771.297058
 20
465.829285
 30
0.0
 11
771.297058
 21
465.700012
 31
0.0
  0
LINE
  5
16E
330
1F
100
AcDbEntity
  8
0
 62
     7
100
AcDbLine
 10
771.297058
 20
465.829285
 30
0.0
 11
771.297058
 21
465.970703
 31
0.0
  0
LINE
  5
16F
330
1F
100
AcDbEntity
  8
0
 62
     7
100
AcDbLine
 10
771.297058
 20
465.970703
 30
0.0
 11
771.297058
 21
466.099976
 31
0.0
  0
LINE
  5
170
330
1F
100
AcDbEntity
  8
0
 62
     7
100
AcDbLine
 10
771.297058
 20
466.799988
 30
0.0
 11
771.297058
 21
466.099976
 31
0.0
  0
LINE
  5
171
330
1F
100
AcDbEntity
  8
0
 62
     7
100
AcDbLine
 10
771.297058
 20
466.92926
 30
0.0
 11
771.297058
 21
466.799988
 31
0.0
  0
LINE
  5
172
330
1F
100
AcDbEntity
  8
0
 62
     7
100
AcDbLine
 10
771.297058
 20
466.92926
 30
0.0
 11
771.297058
 21
467.070679
 31
0.0
  0
LINE
  5
173
330
1F
100
AcDbEntity
  8
0
 62
     7
100
AcDbLine
 10
771.297058
 20
467.070679
 30
0.0
 11
771.297058
 21
467.200012
 31
0.0
  0
LINE
  5
174
330
1F
100
AcDbEntity
  8
0
 62
     7
100
AcDbLine
 10
771.297058
 20
467.900024
 30
0.0
 11
771.297058
 21
467.200012
 31
0.0
  0
LINE
  5
175
330
1F
100
AcDbEntity
  8
0
 62
     7
100
AcDbLine
 10
771.297058
 20
468.029297
 30
0.0
 11
771.297058
 21
467.900024
 31
0.0
  0
LINE
  5
176
330
1F
100
AcDbEntity
  8
0
 62
     7
100
AcDbLine
 10
771.297058
 20
468.029297
 30
0.0
 11
771.297058
 21
468.170715
 31
0.0
  0
LINE
  5
177
330
1F
100
AcDbEntity
  8
0
 62
     7
100
AcDbLine
 10
771.297058
 20
468.170715
 30
0.0
 11
771.297058
 21
468.299988
 31
0.0
  0
LINE
  5
178
330
1F
100
AcDbEntity
  8
0
 62
     7
100
AcDbLine
 10
771.297058
 20
469.0
 30
0.0
 11
771.297058
 21
468.299988
 31
0.0
  0
LINE
  5
179
330
1F
100
AcDbEntity
  8
0
 62
     7
100
AcDbLine
 10
771.297058
 20
469.129272
 30
0.0
 11
771.297058
 21
469.0
 31
0.0
  0
LINE
  5
17A
330
1F
100
AcDbEntity
  8
0
 62
     7
100
AcDbLine
 10
771.297058
 20
469.129272
 30
0.0
 11
771.297058
 21
469.270691
 31
0.0
  0
LINE
  5
17B
330
1F
100
AcDbEntity
  8
0
 62
     7
100
AcDbLine
 10
771.297058
 20
469.270691
 30
0.0
 11
771.297058
 21
469.400024
 31
0.0
  0
LINE
  5
17C
330
1F
100
AcDbEntity
  8
0
 62
     7
100
AcDbLine
 10
771.297058
 20
470.099976
 30
0.0
 11
771.297058
 21
469.400024
 31
0.0
  0
LINE
  5
17D
330
1F
100
AcDbEntity
  8
0
 62
     7
100
AcDbLine
 10
771.297058
 20
470.229309
 30
0.0
 11
771.297058
 21
470.099976
 31
0.0
  0
LINE
  5
17E
330
1F
100
AcDbEntity
  8
0
 62
     7
100
AcDbLine
 10
771.297058
 20
470.229309
 30
0.0
 11
771.297058
 21
470.370728
 31
0.0
  0
LINE
  5
17F
330
1F
100
AcDbEntity
  8
0
 62
     7
100
AcDbLine
 10
771.297058
 20
470.370728
 30
0.0
 11
771.297058
 21
470.5
 31
0.0
  0
LINE
  5
180
330
1F
100
AcDbEntity
  8
0
 62
     7
100
AcDbLine
 10
771.297058
 20
471.200012
 30
0.0
 11
771.297058
 21
470.5
 31
0.0
  0
LINE
  5
181
330
1F
100
AcDbEntity
  8
0
 62
     7
100
AcDbLine
 10
771.297058
 20
471.329285
 30
0.0
 11
771.297058
 21
471.200012
 31
0.0
  0
LINE
  5
182
330
1F
100
AcDbEntity
  8
0
 62
     7
100
AcDbLine
 10
771.297058
 20
471.329285
 30
0.0
 11
771.297058
 21
471.470703
 31
0.0
  0
LINE
  5
183
330
1F
100
AcDbEntity
  8
0
 62
     7
100
AcDbLine
 10
771.297058
 20
471.470703
 30
0.0
 11
771.297058
 21
471.599976
 31
0.0
  0
LINE
  5
184
330
1F
100
AcDbEntity
  8
0
 62
     7
100
AcDbLine
 10
771.297058
 20
472.299988
 30
0.0
 11
771.297058
 21
471.599976
 31
0.0
  0
LINE
  5
185
330
1F
100
AcDbEntity
  8
0
 62
     7
100
AcDbLine
 10
771.297058
 20
472.42926
 30
0.0
 11
771.297058
 21
472.299988
 31
0.0
  0
LINE
  5
186
330
1F
100
AcDbEntity
  8
0
 62
     7
100
AcDbLine
 10
771.297058
 20
472.42926
 30
0.0
 11
771.297058
 21
472.570679
 31
0.0
  0
LINE
  5
187
330
1F
100
AcDbEntity
  8
0
 62
     7
100
AcDbLine
 10
771.297058
 20
472.570679
 30
0.0
 11
771.297058
 21
472.700012
 31
0.0
  0
LINE
  5
188
330
1F
100
AcDbEntity
  8
0
 62
     7
100
AcDbLine
 10
768.997009
 20
465.829285
 30
0.0
 11
768.997009
 21
465.700012
 31
0.0
  0
LINE
  5
189
330
1F
100
AcDbEntity
  8
0
 62
     7
100
AcDbLine
 10
768.997009
 20
465.970703
 30
0.0
 11
768.997009
 21
466.099976
 31
0.0
  0
LINE
  5
18A
330
1F
100
AcDbEntity
  8
0
 62
     7
100
AcDbLine
 10
768.997009
 20
465.970703
 30
0.0
 11
768.997009
 21
465.829285
 31
0.0
  0
LINE
  5
18B
330
1F
100
AcDbEntity
  8
0
 62
     7
100
AcDbLine
 10
768.997009
 20
473.599976
 30
0.0
 11
768.997009
 21
473.529297
 31
0.0
  0
LINE
  5
18C
330
1F
100
AcDbEntity
  8
0
 62
     7
100
AcDbLine
 10
768.997009
 20
473.529297
 30
0.0
 11
768.997009
 21
473.400024
 31
0.0
  0
LINE
  5
18D
330
1F
100
AcDbEntity
  8
0
 62
     7
100
AcDbLine
 10
768.997009
 20
472.700012
 30
0.0
 11
768.997009
 21
473.400024
 31
0.0
  0
LINE
  5
18E
330
1F
100
AcDbEntity
  8
0
 62
     7
100
AcDbLine
 10
768.997009
 20
472.570679
 30
0.0
 11
768.997009
 21
472.700012
 31
0.0
  0
LINE
  5
18F
330
1F
100
AcDbEntity
  8
0
 62
     7
100
AcDbLine
 10
768.997009
 20
472.570679
 30
0.0
 11
768.997009
 21
472.42926
 31
0.0
  0
LINE
  5
190
330
1F
100
AcDbEntity
  8
0
 62
     7
100
AcDbLine
 10
768.997009
 20
472.42926
 30
0.0
 11
768.997009
 21
472.299988
 31
0.0
  0
LINE
  5
191
330
1F
100
AcDbEntity
  8
0
 62
     7
100
AcDbLine
 10
768.997009
 20
471.599976
 30
0.0
 11
768.997009
 21
472.299988
 31
0.0
  0
LINE
  5
192
330
1F
100
AcDbEntity
  8
0
 62
     7
100
AcDbLine
 10
768.997009
 20
471.470703
 30
0.0
 11
768.997009
 21
471.599976
 31
0.0
  0
LINE
  5
193
330
1F
100
AcDbEntity
  8
0
 62
     7
100
AcDbLine
 10
768.997009
 20
471.470703
 30
0.0
 11
768.997009
 21
471.329285
 31
0.0
  0
LINE
  5
194
330
1F
100
AcDbEntity
  8
0
 62
     7
100
AcDbLine
 10
768.997009
 20
471.329285
 30
0.0
 11
768.997009
 21
471.200012
 31
0.0
  0
LINE
  5
195
330
1F
100
AcDbEntity
  8
0
 62
     7
100
AcDbLine
 10
768.997009
 20
470.5
 30
0.0
 11
768.997009
 21
471.200012
 31
0.0
  0
LINE
  5
196
330
1F
100
AcDbEntity
  8
0
 62
     7
100
AcDbLine
 10
768.997009
 20
470.370728
 30
0.0
 11
768.997009
 21
470.5
 31
0.0
  0
LINE
  5
197
330
1F
100
AcDbEntity
  8
0
 62
     7
100
AcDbLine
 10
768.997009
 20
470.370728
 30
0.0
 11
768.997009
 21
470.229309
 31
0.0
  0
LINE
  5
198
330
1F
100
AcDbEntity
  8
0
 62
     7
100
AcDbLine
 10
768.997009
 20
470.229309
 30
0.0
 11
768.997009
 21
470.099976
 31
0.0
  0
LINE
  5
199
330
1F
100
AcDbEntity
  8
0
 62
     7
100
AcDbLine
 10
768.997009
 20
469.400024
 30
0.0
 11
768.997009
 21
470.099976
 31
0.0
  0
LINE
  5
19A
330
1F
100
AcDbEntity
  8
0
 62
     7
100
AcDbLine
 10
768.997009
 20
469.270691
 30
0.0
 11
768.997009
 21
469.400024
 31
0.0
  0
LINE
  5
19B
330
1F
100
AcDbEntity
  8
0
 62
     7
100
AcDbLine
 10
768.997009
 20
469.270691
 30
0.0
 11
768.997009
 21
469.129272
 31
0.0
  0
LINE
  5
19C
330
1F
100
AcDbEntity
  8
0
 62
     7
100
AcDbLine
 10
768.997009
 20
469.129272
 30
0.0
 11
768.997009
 21
469.0
 31
0.0
  0
LINE
  5
19D
330
1F
100
AcDbEntity
  8
0
 62
     7
100
AcDbLine
 10
768.997009
 20
468.299988
 30
0.0
 11
768.997009
 21
469.0
 31
0.0
  0
LINE
  5
19E
330
1F
100
AcDbEntity
  8
0
 62
     7
100
AcDbLine
 10
768.997009
 20
468.170715
 30
0.0
 11
768.997009
 21
468.299988
 31
0.0
  0
LINE
  5
19F
330
1F
100
AcDbEntity
  8
0
 62
     7
100
AcDbLine
 10
768.997009
 20
468.170715
 30
0.0
 11
768.997009
 21
468.029297
 31
0.0
  0
LINE
  5
1A0
330
1F
100
AcDbEntity
  8
0
 62
     7
100
AcDbLine
 10
768.997009
 20
468.029297
 30
0.0
 11
768.997009
 21
467.900024
 31
0.0
  0
LINE
  5
1A1
330
1F
100
AcDbEntity
  8
0
 62
     7
100
AcDbLine
 10
768.997009
 20
467.200012
 30
0.0
 11
768.997009
 21
467.900024
 31
0.0
  0
LINE
  5
1A2
330
1F
100
AcDbEntity
  8
0
 62
     7
100
AcDbLine
 10
768.997009
 20
467.070679
 30
0.0
 11
768.997009
 21
467.200012
 31
0.0
  0
LINE
  5
1A3
330
1F
100
AcDbEntity
  8
0
 62
     7
100
AcDbLine
 10
768.997009
 20
467.070679
 30
0.0
 11
768.997009
 21
466.92926
 31
0.0
  0
LINE
  5
1A4
330
1F
100
AcDbEntity
  8
0
 62
     7
100
AcDbLine
 10
768.997009
 20
466.92926
 30
0.0
 11
768.997009
 21
466.799988
 31
0.0
  0
LINE
  5
1A5
330
1F
100
AcDbEntity
  8
0
 62
     7
100
AcDbLine
 10
768.997009
 20
466.099976
 30
0.0
 11
768.997009
 21
466.799988
 31
0.0
  0
LINE
  5
1A6
330
1F
100
AcDbEntity
  8
0
 62
     7
100
AcDbLine
 10
767.997009
 20
472.42926
 30
0.0
 11
767.997009
 21
472.299988
 31
0.0
  0
LINE
  5
1A7
330
1F
100
AcDbEntity
  8
0
 62
     7
100
AcDbLine
 10
767.997009
 20
472.42926
 30
0.0
 11
767.997009
 21
472.570679
 31
0.0
  0
LINE
  5
1A8
330
1F
100
AcDbEntity
  8
0
 62
     7
100
AcDbLine
 10
767.997009
 20
472.570679
 30
0.0
 11
767.997009
 21
472.700012
 31
0.0
  0
LINE
  5
1A9
330
1F
100
AcDbEntity
  8
0
 62
     7
100
AcDbLine
 10
767.997009
 20
473.099976
 30
0.0
 11
767.997009
 21
472.700012
 31
0.0
  0
LINE
  5
1AA
330
1F
100
AcDbEntity
  8
0
 62
     7
100
AcDbLine
 10
767.997009
 20
465.829285
 30
0.0
 11
767.997009
 21
465.700012
 31
0.0
  0
LINE
  5
1AB
330
1F
100
AcDbEntity
  8
0
 62
     7
100
AcDbLine
 10
767.997009
 20
465.829285
 30
0.0
 11
767.997009
 21
465.970703
 31
0.0
  0
LINE
  5
1AC
330
1F
100
AcDbEntity
  8
0
 62
     7
100
AcDbLine
 10
767.997009
 20
465.970703
 30
0.0
 11
767.997009
 21
466.099976
 31
0.0
  0
LINE
  5
1AD
330
1F
100
AcDbEntity
  8
0
 62
     7
100
AcDbLine
 10
767.997009
 20
466.799988
 30
0.0
 11
767.997009
 21
466.099976
 31
0.0
  0
LINE
  5
1AE
330
1F
100
AcDbEntity
  8
0
 62
     7
100
AcDbLine
 10
767.997009
 20
466.92926
 30
0.0
 11
767.997009
 21
466.799988
 31
0.0
  0
LINE
  5
1AF
330
1F
100
AcDbEntity
  8
0
 62
     7
100
AcDbLine
 10
767.997009
 20
466.92926
 30
0.0
 11
767.997009
 21
467.070679
 31
0.0
  0
LINE
  5
1B0
330
1F
100
AcDbEntity
  8
0
 62
     7
100
AcDbLine
 10
767.997009
 20
467.070679
 30
0.0
 11
767.997009
 21
467.200012
 31
0.0
  0
LINE
  5
1B1
330
1F
100
AcDbEntity
  8
0
 62
     7
100
AcDbLine
 10
767.997009
 20
467.900024
 30
0.0
 11
767.997009
 21
467.200012
 31
0.0
  0
LINE
  5
1B2
330
1F
100
AcDbEntity
  8
0
 62
     7
100
AcDbLine
 10
767.997009
 20
468.029297
 30
0.0
 11
767.997009
 21
467.900024
 31
0.0
  0
LINE
  5
1B3
330
1F
100
AcDbEntity
  8
0
 62
     7
100
AcDbLine
 10
767.997009
 20
468.029297
 30
0.0
 11
767.997009
 21
468.170715
 31
0.0
  0
LINE
  5
1B4
330
1F
100
AcDbEntity
  8
0
 62
     7
100
AcDbLine
 10
767.997009
 20
468.170715
 30
0.0
 11
767.997009
 21
468.299988
 31
0.0
  0
LINE
  5
1B5
330
1F
100
AcDbEntity
  8
0
 62
     7
100
AcDbLine
 10
767.997009
 20
469.0
 30
0.0
 11
767.997009
 21
468.299988
 31
0.0
  0
LINE
  5
1B6
330
1F
100
AcDbEntity
  8
0
 62
     7
100
AcDbLine
 10
767.997009
 20
469.129272
 30
0.0
 11
767.997009
 21
469.0
 31
0.0
  0
LINE
  5
1B7
330
1F
100
AcDbEntity
  8
0
 62
     7
100
AcDbLine
 10
767.997009
 20
469.129272
 30
0.0
 11
767.997009
 21
469.270691
 31
0.0
  0
LINE
  5
1B8
330
1F
100
AcDbEntity
  8
0
 62
     7
100
AcDbLine
 10
767.997009
 20
469.270691
 30
0.0
 11
767.997009
 21
469.400024
 31
0.0
  0
LINE
  5
1B9
330
1F
100
AcDbEntity
  8
0
 62
     7
100
AcDbLine
 10
767.997009
 20
470.099976
 30
0.0
 11
767.997009
 21
469.400024
 31
0.0
  0
LINE
  5
1BA
330
1F
100
AcDbEntity
  8
0
 62
     7
100
AcDbLine
 10
767.997009
 20
470.229309
 30
0.0
 11
767.997009
 21
470.099976
 31
0.0
  0
LINE
  5
1BB
330
1F
100
AcDbEntity
  8
0
 62
     7
100
AcDbLine
 10
767.997009
 20
470.229309
 30
0.0
 11
767.997009
 21
470.370728
 31
0.0
  0
LINE
  5
1BC
330
1F
100
AcDbEntity
  8
0
 62
     7
100
AcDbLine
 10
767.997009
 20
470.370728
 30
0.0
 11
767.997009
 21
470.5
 31
0.0
  0
LINE
  5
1BD
330
1F
100
AcDbEntity
  8
0
 62
     7
100
AcDbLine
 10
767.997009
 20
471.200012
 30
0.0
 11
767.997009
 21
470.5
 31
0.0
  0
LINE
  5
1BE
330
1F
100
AcDbEntity
  8
0
 62
     7
100
AcDbLine
 10
767.997009
 20
471.329285
 30
0.0
 11
767.997009
 21
471.200012
 31
0.0
  0
LINE
  5
1BF
330
1F
100
AcDbEntity
  8
0
 62
     7
100
AcDbLine
 10
767.997009
 20
471.329285
 30
0.0
 11
767.997009
 21
471.470703
 31
0.0
  0
LINE
  5
1C0
330
1F
100
AcDbEntity
  8
0
 62
     7
100
AcDbLine
 10
767.997009
 20
471.470703
 30
0.0
 11
767.997009
 21
471.599976
 31
0.0
  0
LINE
  5
1C1
330
1F
100
AcDbEntity
  8
0
 62
     7
100
AcDbLine
 10
767.997009
 20
472.299988
 30
0.0
 11
767.997009
 21
471.599976
 31
0.0
  0
LINE
  5
1C2
330
1F
100
AcDbEntity
  8
0
 62
     7
100
AcDbLine
 10
472.296997
 20
465.829285
 30
0.0
 11
472.296997
 21
465.700012
 31
0.0
  0
LINE
  5
1C3
330
1F
100
AcDbEntity
  8
0
 62
     7
100
AcDbLine
 10
472.296997
 20
465.970703
 30
0.0
 11
472.296997
 21
466.099976
 31
0.0
  0
LINE
  5
1C4
330
1F
100
AcDbEntity
  8
0
 62
     7
100
AcDbLine
 10
472.296997
 20
465.970703
 30
0.0
 11
472.296997
 21
465.829285
 31
0.0
  0
LINE
  5
1C5
330
1F
100
AcDbEntity
  8
0
 62
     7
100
AcDbLine
 10
472.296997
 20
472.700012
 30
0.0
 11
472.296997
 21
473.099976
 31
0.0
  0
LINE
  5
1C6
330
1F
100
AcDbEntity
  8
0
 62
     7
100
AcDbLine
 10
472.296997
 20
472.570679
 30
0.0
 11
472.296997
 21
472.700012
 31
0.0
  0
LINE
  5
1C7
330
1F
100
AcDbEntity
  8
0
 62
     7
100
AcDbLine
 10
472.296997
 20
472.570679
 30
0.0
 11
472.296997
 21
472.42926
 31
0.0
  0
LINE
  5
1C8
330
1F
100
AcDbEntity
  8
0
 62
     7
100
AcDbLine
 10
472.296997
 20
472.42926
 30
0.0
 11
472.296997
 21
472.299988
 31
0.0
  0
LINE
  5
1C9
330
1F
100
AcDbEntity
  8
0
 62
     7
100
AcDbLine
 10
472.296997
 20
471.599976
 30
0.0
 11
472.296997
 21
472.299988
 31
0.0
  0
LINE
  5
1CA
330
1F
100
AcDbEntity
  8
0
 62
     7
100
AcDbLine
 10
472.296997
 20
471.470703
 30
0.0
 11
472.296997
 21
471.599976
 31
0.0
  0
LINE
  5
1CB
330
1F
100
AcDbEntity
  8
0
 62
     7
100
AcDbLine
 10
472.296997
 20
471.470703
 30
0.0
 11
472.296997
 21
471.329285
 31
0.0
  0
LINE
  5
1CC
330
1F
100
AcDbEntity
  8
0
 62
     7
100
AcDbLine
 10
472.296997
 20
471.329285
 30
0.0
 11
472.296997
 21
471.200012
 31
0.0
  0
LINE
  5
1CD
330
1F
100
AcDbEntity
  8
0
 62
     7
100
AcDbLine
 10
472.296997
 20
470.5
 30
0.0
 11
472.296997
 21
471.200012
 31
0.0
  0
LINE
  5
1CE
330
1F
100
AcDbEntity
  8
0
 62
     7
100
AcDbLine
 10
472.296997
 20
470.370728
 30
0.0
 11
472.296997
 21
470.5
 31
0.0
  0
LINE
  5
1CF
330
1F
100
AcDbEntity
  8
0
 62
     7
100
AcDbLine
 10
472.296997
 20
470.370728
 30
0.0
 11
472.296997
 21
470.229309
 31
0.0
  0
LINE
  5
1D0
330
1F
100
AcDbEntity
  8
0
 62
     7
100
AcDbLine
 10
472.296997
 20
470.229309
 30
0.0
 11
472.296997
 21
470.099976
 31
0.0
  0
LINE
  5
1D1
330
1F
100
AcDbEntity
  8
0
 62
     7
100
AcDbLine
 10
472.296997
 20
469.400024
 30
0.0
 11
472.296997
 21
470.099976
 31
0.0
  0
LINE
  5
1D2
330
1F
100
AcDbEntity
  8
0
 62
     7
100
AcDbLine
 10
472.296997
 20
469.270691
 30
0.0
 11
472.296997
 21
469.400024
 31
0.0
  0
LINE
  5
1D3
330
1F
100
AcDbEntity
  8
0
 62
     7
100
AcDbLine
 10
472.296997
 20
469.270691
 30
0.0
 11
472.296997
 21
469.129272
 31
0.0
  0
LINE
  5
1D4
330
1F
100
AcDbEntity
  8
0
 62
     7
100
AcDbLine
 10
472.296997
 20
469.129272
 30
0.0
 11
472.296997
 21
469.0
 31
0.0
  0
LINE
  5
1D5
330
1F
100
AcDbEntity
  8
0
 62
     7
100
AcDbLine
 10
472.296997
 20
468.299988
 30
0.0
 11
472.296997
 21
469.0
 31
0.0
  0
LINE
  5
1D6
330
1F
100
AcDbEntity
  8
0
 62
     7
100
AcDbLine
 10
472.296997
 20
468.170715
 30
0.0
 11
472.296997
 21
468.299988
 31
0.0
  0
LINE
  5
1D7
330
1F
100
AcDbEntity
  8
0
 62
     7
100
AcDbLine
 10
472.296997
 20
468.170715
 30
0.0
 11
472.296997
 21
468.029297
 31
0.0
  0
LINE
  5
1D8
330
1F
100
AcDbEntity
  8
0
 62
     7
100
AcDbLine
 10
472.296997
 20
468.029297
 30
0.0
 11
472.296997
 21
467.900024
 31
0.0
  0
LINE
  5
1D9
330
1F
100
AcDbEntity
  8
0
 62
     7
100
AcDbLine
 10
472.296997
 20
467.200012
 30
0.0
 11
472.296997
 21
467.900024
 31
0.0
  0
LINE
  5
1DA
330
1F
100
AcDbEntity
  8
0
 62
     7
100
AcDbLine
 10
472.296997
 20
467.070679
 30
0.0
 11
472.296997
 21
467.200012
 31
0.0
  0
LINE
  5
1DB
330
1F
100
AcDbEntity
  8
0
 62
     7
100
AcDbLine
 10
472.296997
 20
467.070679
 30
0.0
 11
472.296997
 21
466.92926
 31
0.0
  0
LINE
  5
1DC
330
1F
100
AcDbEntity
  8
0
 62
     7
100
AcDbLine
 10
472.296997
 20
466.92926
 30
0.0
 11
472.296997
 21
466.799988
 31
0.0
  0
LINE
  5
1DD
330
1F
100
AcDbEntity
  8
0
 62
     7
100
AcDbLine
 10
472.296997
 20
466.099976
 30
0.0
 11
472.296997
 21
466.799988
 31
0.0
  0
LINE
  5
1DE
330
1F
100
AcDbEntity
  8
0
 62
     7
100
AcDbLine
 10
471.296997
 20
473.400024
 30
0.0
 11
471.296997
 21
472.700012
 31
0.0
  0
LINE
  5
1DF
330
1F
100
AcDbEntity
  8
0
 62
     7
100
AcDbLine
 10
471.296997
 20
473.529297
 30
0.0
 11
471.296997
 21
473.400024
 31
0.0
  0
LINE
  5
1E0
330
1F
100
AcDbEntity
  8
0
 62
     7
100
AcDbLine
 10
471.296997
 20
473.529297
 30
0.0
 11
471.296997
 21
473.599976
 31
0.0
  0
LINE
  5
1E1
330
1F
100
AcDbEntity
  8
0
 62
     7
100
AcDbLine
 10
471.296997
 20
465.829285
 30
0.0
 11
471.296997
 21
465.700012
 31
0.0
  0
LINE
  5
1E2
330
1F
100
AcDbEntity
  8
0
 62
     7
100
AcDbLine
 10
471.296997
 20
465.829285
 30
0.0
 11
471.296997
 21
465.970703
 31
0.0
  0
LINE
  5
1E3
330
1F
100
AcDbEntity
  8
0
 62
     7
100
AcDbLine
 10
471.296997
 20
465.970703
 30
0.0
 11
471.296997
 21
466.099976
 31
0.0
  0
LINE
  5
1E4
330
1F
100
AcDbEntity
  8
0
 62
     7
100
AcDbLine
 10
471.296997
 20
466.799988
 30
0.0
 11
471.296997
 21
466.099976
 31
0.0
  0
LINE
  5
1E5
330
1F
100
AcDbEntity
  8
0
 62
     7
100
AcDbLine
 10
471.296997
 20
466.92926
 30
0.0
 11
471.296997
 21
466.799988
 31
0.0
  0
LINE
  5
1E6
330
1F
100
AcDbEntity
  8
0
 62
     7
100
AcDbLine
 10
471.296997
 20
466.92926
 30
0.0
 11
471.296997
 21
467.070679
 31
0.0
  0
LINE
  5
1E7
330
1F
100
AcDbEntity
  8
0
 62
     7
100
AcDbLine
 10
471.296997
 20
467.070679
 30
0.0
 11
471.296997
 21
467.200012
 31
0.0
  0
LINE
  5
1E8
330
1F
100
AcDbEntity
  8
0
 62
     7
100
AcDbLine
 10
471.296997
 20
467.900024
 30
0.0
 11
471.296997
 21
467.200012
 31
0.0
  0
LINE
  5
1E9
330
1F
100
AcDbEntity
  8
0
 62
     7
100
AcDbLine
 10
471.296997
 20
468.029297
 30
0.0
 11
471.296997
 21
467.900024
 31
0.0
  0
LINE
  5
1EA
330
1F
100
AcDbEntity
  8
0
 62
     7
100
AcDbLine
 10
471.296997
 20
468.029297
 30
0.0
 11
471.296997
 21
468.170715
 31
0.0
  0
LINE
  5
1EB
330
1F
100
AcDbEntity
  8
0
 62
     7
100
AcDbLine
 10
471.296997
 20
468.170715
 30
0.0
 11
471.296997
 21
468.299988
 31
0.0
  0
LINE
  5
1EC
330
1F
100
AcDbEntity
  8
0
 62
     7
100
AcDbLine
 10
471.296997
 20
469.0
 30
0.0
 11
471.296997
 21
468.299988
 31
0.0
  0
LINE
  5
1ED
330
1F
100
AcDbEntity
  8
0
 62
     7
100
AcDbLine
 10
471.296997
 20
469.129272
 30
0.0
 11
471.296997
 21
469.0
 31
0.0
  0
LINE
  5
1EE
330
1F
100
AcDbEntity
  8
0
 62
     7
100
AcDbLine
 10
471.296997
 20
469.129272
 30
0.0
 11
471.296997
 21
469.270691
 31
0.0
  0
LINE
  5
1EF
330
1F
100
AcDbEntity
  8
0
 62
     7
100
AcDbLine
 10
471.296997
 20
469.270691
 30
0.0
 11
471.296997
 21
469.400024
 31
0.0
  0
LINE
  5
1F0
330
1F
100
AcDbEntity
  8
0
 62
     7
100
AcDbLine
 10
471.296997
 20
470.099976
 30
0.0
 11
471.296997
 21
469.400024
 31
0.0
  0
LINE
  5
1F1
330
1F
100
AcDbEntity
  8
0
 62
     7
100
AcDbLine
 10
471.296997
 20
470.229309
 30
0.0
 11
471.296997
 21
470.099976
 31
0.0
  0
LINE
  5
1F2
330
1F
100
AcDbEntity
  8
0
 62
     7
100
AcDbLine
 10
471.296997
 20
470.229309
 30
0.0
 11
471.296997
 21
470.370728
 31
0.0
  0
LINE
  5
1F3
330
1F
100
AcDbEntity
  8
0
 62
     7
100
AcDbLine
 10
471.296997
 20
470.370728
 30
0.0
 11
471.296997
 21
470.5
 31
0.0
  0
LINE
  5
1F4
330
1F
100
AcDbEntity
  8
0
 62
     7
100
AcDbLine
 10
471.296997
 20
471.200012
 30
0.0
 11
471.296997
 21
470.5
 31
0.0
  0
LINE
  5
1F5
330
1F
100
AcDbEntity
  8
0
 62
     7
100
AcDbLine
 10
471.296997
 20
471.329285
 30
0.0
 11
471.296997
 21
471.200012
 31
0.0
  0
LINE
  5
1F6
330
1F
100
AcDbEntity
  8
0
 62
     7
100
AcDbLine
 10
471.296997
 20
471.329285
 30
0.0
 11
471.296997
 21
471.470703
 31
0.0
  0
LINE
  5
1F7
330
1F
100
AcDbEntity
  8
0
 62
     7
100
AcDbLine
 10
471.296997
 20
471.470703
 30
0.0
 11
471.296997
 21
471.599976
 31
0.0
  0
LINE
  5
1F8
330
1F
100
AcDbEntity
  8
0
 62
     7
100
AcDbLine
 10
471.296997
 20
472.299988
 30
0.0
 11
471.296997
 21
471.599976
 31
0.0
  0
LINE
  5
1F9
330
1F
100
AcDbEntity
  8
0
 62
     7
100
AcDbLine
 10
471.296997
 20
472.42926
 30
0.0
 11
471.296997
 21
472.299988
 31
0.0
  0
LINE
  5
1FA
330
1F
100
AcDbEntity
  8
0
 62
     7
100
AcDbLine
 10
471.296997
 20
472.42926
 30
0.0
 11
471.296997
 21
472.570679
 31
0.0
  0
LINE
  5
1FB
330
1F
100
AcDbEntity
  8
0
 62
     7
100
AcDbLine
 10
471.296997
 20
472.570679
 30
0.0
 11
471.296997
 21
472.700012
 31
0.0
  0
LINE
  5
1FC
330
1F
100
AcDbEntity
  8
0
 62
     7
100
AcDbLine
 10
468.997009
 20
465.829285
 30
0.0
 11
468.997009
 21
465.700012
 31
0.0
  0
LINE
  5
1FD
330
1F
100
AcDbEntity
  8
0
 62
     7
100
AcDbLine
 10
468.997009
 20
465.970703
 30
0.0
 11
468.997009
 21
466.099976
 31
0.0
  0
LINE
  5
1FE
330
1F
100
AcDbEntity
  8
0
 62
     7
100
AcDbLine
 10
468.997009
 20
465.970703
 30
0.0
 11
468.997009
 21
465.829285
 31
0.0
  0
LINE
  5
1FF
330
1F
100
AcDbEntity
  8
0
 62
     7
100
AcDbLine
 10
468.997009
 20
473.599976
 30
0.0
 11
468.997009
 21
473.529297
 31
0.0
  0
LINE
  5
200
330
1F
100
AcDbEntity
  8
0
 62
     7
100
AcDbLine
 10
468.997009
 20
473.529297
 30
0.0
 11
468.997009
 21
473.400024
 31
0.0
  0
LINE
  5
201
330
1F
100
AcDbEntity
  8
0
 62
     7
100
AcDbLine
 10
468.997009
 20
472.700012
 30
0.0
 11
468.997009
 21
473.400024
 31
0.0
  0
LINE
  5
202
330
1F
100
AcDbEntity
  8
0
 62
     7
100
AcDbLine
 10
468.997009
 20
472.570679
 30
0.0
 11
468.997009
 21
472.700012
 31
0.0
  0
LINE
  5
203
330
1F
100
AcDbEntity
  8
0
 62
     7
100
AcDbLine
 10
468.997009
 20
472.570679
 30
0.0
 11
468.997009
 21
472.42926
 31
0.0
  0
LINE
  5
204
330
1F
100
AcDbEntity
  8
0
 62
     7
100
AcDbLine
 10
468.997009
 20
472.42926
 30
0.0
 11
468.997009
 21
472.299988
 31
0.0
  0
LINE
  5
205
330
1F
100
AcDbEntity
  8
0
 62
     7
100
AcDbLine
 10
468.997009
 20
471.599976
 30
0.0
 11
468.997009
 21
472.299988
 31
0.0
  0
LINE
  5
206
330
1F
100
AcDbEntity
  8
0
 62
     7
100
AcDbLine
 10
468.997009
 20
471.470703
 30
0.0
 11
468.997009
 21
471.599976
 31
0.0
  0
LINE
  5
207
330
1F
100
AcDbEntity
  8
0
 62
     7
100
AcDbLine
 10
468.997009
 20
471.470703
 30
0.0
 11
468.997009
 21
471.329285
 31
0.0
  0
LINE
  5
208
330
1F
100
AcDbEntity
  8
0
 62
     7
100
AcDbLine
 10
468.997009
 20
471.329285
 30
0.0
 11
468.997009
 21
471.200012
 31
0.0
  0
LINE
  5
209
330
1F
100
AcDbEntity
  8
0
 62
     7
100
AcDbLine
 10
468.997009
 20
470.5
 30
0.0
 11
468.997009
 21
471.200012
 31
0.0
  0
LINE
  5
20A
330
1F
100
AcDbEntity
  8
0
 62
     7
100
AcDbLine
 10
468.997009
 20
470.370728
 30
0.0
 11
468.997009
 21
470.5
 31
0.0
  0
LINE
  5
20B
330
1F
100
AcDbEntity
  8
0
 62
     7
100
AcDbLine
 10
468.997009
 20
470.370728
 30
0.0
 11
468.997009
 21
470.229309
 31
0.0
  0
LINE
  5
20C
330
1F
100
AcDbEntity
  8
0
 62
     7
100
AcDbLine
 10
468.997009
 20
470.229309
 30
0.0
 11
468.997009
 21
470.099976
 31
0.0
  0
LINE
  5
20D
330
1F
100
AcDbEntity
  8
0
 62
     7
100
AcDbLine
 10
468.997009
 20
469.400024
 30
0.0
 11
468.997009
 21
470.099976
 31
0.0
  0
LINE
  5
20E
330
1F
100
AcDbEntity
  8
0
 62
     7
100
AcDbLine
 10
468.997009
 20
469.270691
 30
0.0
 11
468.997009
 21
469.400024
 31
0.0
  0
LINE
  5
20F
330
1F
100
AcDbEntity
  8
0
 62
     7
100
AcDbLine
 10
468.997009
 20
469.270691
 30
0.0
 11
468.997009
 21
469.129272
 31
0.0
  0
LINE
  5
210
330
1F
100
AcDbEntity
  8
0
 62
     7
100
AcDbLine
 10
468.997009
 20
469.129272
 30
0.0
 11
468.997009
 21
469.0
 31
0.0
  0
LINE
  5
211
330
1F
100
AcDbEntity
  8
0
 62
     7
100
AcDbLine
 10
468.997009
 20
468.299988
 30
0.0
 11
468.997009
 21
469.0
 31
0.0
  0
LINE
  5
212
330
1F
100
AcDbEntity
  8
0
 62
     7
100
AcDbLine
 10
468.997009
 20
468.170715
 30
0.0
 11
468.997009
 21
468.299988
 31
0.0
  0
LINE
  5
213
330
1F
100
AcDbEntity
  8
0
 62
     7
100
AcDbLine
 10
468.997009
 20
468.170715
 30
0.0
 11
468.997009
 21
468.029297
 31
0.0
  0
LINE
  5
214
330
1F
100
AcDbEntity
  8
0
 62
     7
100
AcDbLine
 10
468.997009
 20
468.029297
 30
0.0
 11
468.997009
 21
467.900024
 31
0.0
  0
LINE
  5
215
330
1F
100
AcDbEntity
  8
0
 62
     7
100
AcDbLine
 10
468.997009
 20
467.200012
 30
0.0
 11
468.997009
 21
467.900024
 31
0.0
  0
LINE
  5
216
330
1F
100
AcDbEntity
  8
0
 62
     7
100
AcDbLine
 10
468.997009
 20
467.070679
 30
0.0
 11
468.997009
 21
467.200012
 31
0.0
  0
LINE
  5
217
330
1F
100
AcDbEntity
  8
0
 62
     7
100
AcDbLine
 10
468.997009
 20
467.070679
 30
0.0
 11
468.997009
 21
466.92926
 31
0.0
  0
LINE
  5
218
330
1F
100
AcDbEntity
  8
0
 62
     7
100
AcDbLine
 10
468.997009
 20
466.92926
 30
0.0
 11
468.997009
 21
466.799988
 31
0.0
  0
LINE
  5
219
330
1F
100
AcDbEntity
  8
0
 62
     7
100
AcDbLine
 10
468.997009
 20
466.099976
 30
0.0
 11
468.997009
 21
466.799988
 31
0.0
  0
LINE
  5
21A
330
1F
100
AcDbEntity
  8
0
 62
     7
100
AcDbLine
 10
467.997009
 20
472.42926
 30
0.0
 11
467.997009
 21
472.299988
 31
0.0
  0
LINE
  5
21B
330
1F
100
AcDbEntity
  8
0
 62
     7
100
AcDbLine
 10
467.997009
 20
472.42926
 30
0.0
 11
467.997009
 21
472.570679
 31
0.0
  0
LINE
  5
21C
330
1F
100
AcDbEntity
  8
0
 62
     7
100
AcDbLine
 10
467.997009
 20
472.570679
 30
0.0
 11
467.997009
 21
472.700012
 31
0.0
  0
LINE
  5
21D
330
1F
100
AcDbEntity
  8
0
 62
     7
100
AcDbLine
 10
467.997009
 20
473.099976
 30
0.0
 11
467.997009
 21
472.700012
 31
0.0
  0
LINE
  5
21E
330
1F
100
AcDbEntity
  8
0
 62
     7
100
AcDbLine
 10
467.997009
 20
465.829285
 30
0.0
 11
467.997009
 21
465.700012
 31
0.0
  0
LINE
  5
21F
330
1F
100
AcDbEntity
  8
0
 62
     7
100
AcDbLine
 10
467.997009
 20
465.829285
 30
0.0
 11
467.997009
 21
465.970703
 31
0.0
  0
LINE
  5
220
330
1F
100
AcDbEntity
  8
0
 62
     7
100
AcDbLine
 10
467.997009
 20
465.970703
 30
0.0
 11
467.997009
 21
466.099976
 31
0.0
  0
LINE
  5
221
330
1F
100
AcDbEntity
  8
0
 62
     7
100
AcDbLine
 10
467.997009
 20
466.799988
 30
0.0
 11
467.997009
 21
466.099976
 31
0.0
  0
LINE
  5
222
330
1F
100
AcDbEntity
  8
0
 62
     7
100
AcDbLine
 10
467.997009
 20
466.92926
 30
0.0
 11
467.997009
 21
466.799988
 31
0.0
  0
LINE
  5
223
330
1F
100
AcDbEntity
  8
0
 62
     7
100
AcDbLine
 10
467.997009
 20
466.92926
 30
0.0
 11
467.997009
 21
467.070679
 31
0.0
  0
LINE
  5
224
330
1F
100
AcDbEntity
  8
0
 62
     7
100
AcDbLine
 10
467.997009
 20
467.070679
 30
0.0
 11
467.997009
 21
467.200012
 31
0.0
  0
LINE
  5
225
330
1F
100
AcDbEntity
  8
0
 62
     7
100
AcDbLine
 10
467.997009
 20
467.900024
 30
0.0
 11
467.997009
 21
467.200012
 31
0.0
  0
LINE
  5
226
330
1F
100
AcDbEntity
  8
0
 62
     7
100
AcDbLine
 10
467.997009
 20
468.029297
 30
0.0
 11
467.997009
 21
467.900024
 31
0.0
  0
LINE
  5
227
330
1F
100
AcDbEntity
  8
0
 62
     7
100
AcDbLine
 10
467.997009
 20
468.029297
 30
0.0
 11
467.997009
 21
468.170715
 31
0.0
  0
LINE
  5
228
330
1F
100
AcDbEntity
  8
0
 62
     7
100
AcDbLine
 10
467.997009
 20
468.170715
 30
0.0
 11
467.997009
 21
468.299988
 31
0.0
  0
LINE
  5
229
330
1F
100
AcDbEntity
  8
0
 62
     7
100
AcDbLine
 10
467.997009
 20
469.0
 30
0.0
 11
467.997009
 21
468.299988
 31
0.0
  0
LINE
  5
22A
330
1F
100
AcDbEntity
  8
0
 62
     7
100
AcDbLine
 10
467.997009
 20
469.129272
 30
0.0
 11
467.997009
 21
469.0
 31
0.0
  0
LINE
  5
22B
330
1F
100
AcDbEntity
  8
0
 62
     7
100
AcDbLine
 10
467.997009
 20
469.129272
 30
0.0
 11
467.997009
 21
469.270691
 31
0.0
  0
LINE
  5
22C
330
1F
100
AcDbEntity
  8
0
 62
     7
100
AcDbLine
 10
467.997009
 20
469.270691
 30
0.0
 11
467.997009
 21
469.400024
 31
0.0
  0
LINE
  5
22D
330
1F
100
AcDbEntity
  8
0
 62
     7
100
AcDbLine
 10
467.997009
 20
470.099976
 30
0.0
 11
467.997009
 21
469.400024
 31
0.0
  0
LINE
  5
22E
330
1F
100
AcDbEntity
  8
0
 62
     7
100
AcDbLine
 10
467.997009
 20
470.229309
 30
0.0
 11
467.997009
 21
470.099976
 31
0.0
  0
LINE
  5
22F
330
1F
100
AcDbEntity
  8
0
 62
     7
100
AcDbLine
 10
467.997009
 20
470.229309
 30
0.0
 11
467.997009
 21
470.370728
 31
0.0
  0
LINE
  5
230
330
1F
100
AcDbEntity
  8
0
 62
     7
100
AcDbLine
 10
467.997009
 20
470.370728
 30
0.0
 11
467.997009
 21
470.5
 31
0.0
  0
LINE
  5
231
330
1F
100
AcDbEntity
  8
0
 62
     7
100
AcDbLine
 10
467.997009
 20
471.200012
 30
0.0
 11
467.997009
 21
470.5
 31
0.0
  0
LINE
  5
232
330
1F
100
AcDbEntity
  8
0
 62
     7
100
AcDbLine
 10
467.997009
 20
471.329285
 30
0.0
 11
467.997009
 21
471.200012
 31
0.0
  0
LINE
  5
233
330
1F
100
AcDbEntity
  8
0
 62
     7
100
AcDbLine
 10
467.997009
 20
471.329285
 30
0.0
 11
467.997009
 21
471.470703
 31
0.0
  0
LINE
  5
234
330
1F
100
AcDbEntity
  8
0
 62
     7
100
AcDbLine
 10
467.997009
 20
471.470703
 30
0.0
 11
467.997009
 21
471.599976
 31
0.0
  0
LINE
  5
235
330
1F
100
AcDbEntity
  8
0
 62
     7
100
AcDbLine
 10
467.997009
 20
472.299988
 30
0.0
 11
467.997009
 21
471.599976
 31
0.0
  0
LINE
  5
236
330
1F
100
AcDbEntity
  8
0
 62
     7
100
AcDbLine
 10
172.296997
 20
465.829285
 30
0.0
 11
172.296997
 21
465.700012
 31
0.0
  0
LINE
  5
237
330
1F
100
AcDbEntity
  8
0
 62
     7
100
AcDbLine
 10
172.296997
 20
465.970703
 30
0.0
 11
172.296997
 21
466.099976
 31
0.0
  0
LINE
  5
238
330
1F
100
AcDbEntity
  8
0
 62
     7
100
AcDbLine
 10
172.296997
 20
465.970703
 30
0.0
 11
172.296997
 21
465.829285
 31
0.0
  0
LINE
  5
239
330
1F
100
AcDbEntity
  8
0
 62
     7
100
AcDbLine
 10
172.296997
 20
472.700012
 30
0.0
 11
172.296997
 21
473.099976
 31
0.0
  0
LINE
  5
23A
330
1F
100
AcDbEntity
  8
0
 62
     7
100
AcDbLine
 10
172.296997
 20
472.570679
 30
0.0
 11
172.296997
 21
472.700012
 31
0.0
  0
LINE
  5
23B
330
1F
100
AcDbEntity
  8
0
 62
     7
100
AcDbLine
 10
172.296997
 20
472.570679
 30
0.0
 11
172.296997
 21
472.42926
 31
0.0
  0
LINE
  5
23C
330
1F
100
AcDbEntity
  8
0
 62
     7
100
AcDbLine
 10
172.296997
 20
472.42926
 30
0.0
 11
172.296997
 21
472.299988
 31
0.0
  0
LINE
  5
23D
330
1F
100
AcDbEntity
  8
0
 62
     7
100
AcDbLine
 10
172.296997
 20
471.599976
 30
0.0
 11
172.296997
 21
472.299988
 31
0.0
  0
LINE
  5
23E
330
1F
100
AcDbEntity
  8
0
 62
     7
100
AcDbLine
 10
172.296997
 20
471.470703
 30
0.0
 11
172.296997
 21
471.599976
 31
0.0
  0
LINE
  5
23F
330
1F
100
AcDbEntity
  8
0
 62
     7
100
AcDbLine
 10
172.296997
 20
471.470703
 30
0.0
 11
172.296997
 21
471.329285
 31
0.0
  0
LINE
  5
240
330
1F
100
AcDbEntity
  8
0
 62
     7
100
AcDbLine
 10
172.296997
 20
471.329285
 30
0.0
 11
172.296997
 21
471.200012
 31
0.0
  0
LINE
  5
241
330
1F
100
AcDbEntity
  8
0
 62
     7
100
AcDbLine
 10
172.296997
 20
470.5
 30
0.0
 11
172.296997
 21
471.200012
 31
0.0
  0
LINE
  5
242
330
1F
100
AcDbEntity
  8
0
 62
     7
100
AcDbLine
 10
172.296997
 20
470.370728
 30
0.0
 11
172.296997
 21
470.5
 31
0.0
  0
LINE
  5
243
330
1F
100
AcDbEntity
  8
0
 62
     7
100
AcDbLine
 10
172.296997
 20
470.370728
 30
0.0
 11
172.296997
 21
470.229309
 31
0.0
  0
LINE
  5
244
330
1F
100
AcDbEntity
  8
0
 62
     7
100
AcDbLine
 10
172.296997
 20
470.229309
 30
0.0
 11
172.296997
 21
470.099976
 31
0.0
  0
LINE
  5
245
330
1F
100
AcDbEntity
  8
0
 62
     7
100
AcDbLine
 10
172.296997
 20
469.400024
 30
0.0
 11
172.296997
 21
470.099976
 31
0.0
  0
LINE
  5
246
330
1F
100
AcDbEntity
  8
0
 62
     7
100
AcDbLine
 10
172.296997
 20
469.270691
 30
0.0
 11
172.296997
 21
469.400024
 31
0.0
  0
LINE
  5
247
330
1F
100
AcDbEntity
  8
0
 62
     7
100
AcDbLine
 10
172.296997
 20
469.270691
 30
0.0
 11
172.296997
 21
469.129272
 31
0.0
  0
LINE
  5
248
330
1F
100
AcDbEntity
  8
0
 62
     7
100
AcDbLine
 10
172.296997
 20
469.129272
 30
0.0
 11
172.296997
 21
469.0
 31
0.0
  0
LINE
  5
249
330
1F
100
AcDbEntity
  8
0
 62
     7
100
AcDbLine
 10
172.296997
 20
468.299988
 30
0.0
 11
172.296997
 21
469.0
 31
0.0
  0
LINE
  5
24A
330
1F
100
AcDbEntity
  8
0
 62
     7
100
AcDbLine
 10
172.296997
 20
468.170715
 30
0.0
 11
172.296997
 21
468.299988
 31
0.0
  0
LINE
  5
24B
330
1F
100
AcDbEntity
  8
0
 62
     7
100
AcDbLine
 10
172.296997
 20
468.170715
 30
0.0
 11
172.296997
 21
468.029297
 31
0.0
  0
LINE
  5
24C
330
1F
100
AcDbEntity
  8
0
 62
     7
100
AcDbLine
 10
172.296997
 20
468.029297
 30
0.0
 11
172.296997
 21
467.900024
 31
0.0
  0
LINE
  5
24D
330
1F
100
AcDbEntity
  8
0
 62
     7
100
AcDbLine
 10
172.296997
 20
467.200012
 30
0.0
 11
172.296997
 21
467.900024
 31
0.0
  0
LINE
  5
24E
330
1F
100
AcDbEntity
  8
0
 62
     7
100
AcDbLine
 10
172.296997
 20
467.070679
 30
0.0
 11
172.296997
 21
467.200012
 31
0.0
  0
LINE
  5
24F
330
1F
100
AcDbEntity
  8
0
 62
     7
100
AcDbLine
 10
172.296997
 20
467.070679
 30
0.0
 11
172.296997
 21
466.92926
 31
0.0
  0
LINE
  5
250
330
1F
100
AcDbEntity
  8
0
 62
     7
100
AcDbLine
 10
172.296997
 20
466.92926
 30
0.0
 11
172.296997
 21
466.799988
 31
0.0
  0
LINE
  5
251
330
1F
100
AcDbEntity
  8
0
 62
     7
100
AcDbLine
 10
172.296997
 20
466.099976
 30
0.0
 11
172.296997
 21
466.799988
 31
0.0
  0
LINE
  5
252
330
1F
100
AcDbEntity
  8
0
 62
     7
100
AcDbLine
 10
171.296997
 20
473.400024
 30
0.0
 11
171.296997
 21
472.700012
 31
0.0
  0
LINE
  5
253
330
1F
100
AcDbEntity
  8
0
 62
     7
100
AcDbLine
 10
171.296997
 20
473.529297
 30
0.0
 11
171.296997
 21
473.400024
 31
0.0
  0
LINE
  5
254
330
1F
100
AcDbEntity
  8
0
 62
     7
100
AcDbLine
 10
171.296997
 20
473.529297
 30
0.0
 11
171.296997
 21
473.599976
 31
0.0
  0
LINE
  5
255
330
1F
100
AcDbEntity
  8
0
 62
     7
100
AcDbLine
 10
171.296997
 20
465.829285
 30
0.0
 11
171.296997
 21
465.700012
 31
0.0
  0
LINE
  5
256
330
1F
100
AcDbEntity
  8
0
 62
     7
100
AcDbLine
 10
171.296997
 20
465.829285
 30
0.0
 11
171.296997
 21
465.970703
 31
0.0
  0
LINE
  5
257
330
1F
100
AcDbEntity
  8
0
 62
     7
100
AcDbLine
 10
171.296997
 20
465.970703
 30
0.0
 11
171.296997
 21
466.099976
 31
0.0
  0
LINE
  5
258
330
1F
100
AcDbEntity
  8
0
 62
     7
100
AcDbLine
 10
171.296997
 20
466.799988
 30
0.0
 11
171.296997
 21
466.099976
 31
0.0
  0
LINE
  5
259
330
1F
100
AcDbEntity
  8
0
 62
     7
100
AcDbLine
 10
171.296997
 20
466.92926
 30
0.0
 11
171.296997
 21
466.799988
 31
0.0
  0
LINE
  5
25A
330
1F
100
AcDbEntity
  8
0
 62
     7
100
AcDbLine
 10
171.296997
 20
466.92926
 30
0.0
 11
171.296997
 21
467.070679
 31
0.0
  0
LINE
  5
25B
330
1F
100
AcDbEntity
  8
0
 62
     7
100
AcDbLine
 10
171.296997
 20
467.070679
 30
0.0
 11
171.296997
 21
467.200012
 31
0.0
  0
LINE
  5
25C
330
1F
100
AcDbEntity
  8
0
 62
     7
100
AcDbLine
 10
171.296997
 20
467.900024
 30
0.0
 11
171.296997
 21
467.200012
 31
0.0
  0
LINE
  5
25D
330
1F
100
AcDbEntity
  8
0
 62
     7
100
AcDbLine
 10
171.296997
 20
468.029297
 30
0.0
 11
171.296997
 21
467.900024
 31
0.0
  0
LINE
  5
25E
330
1F
100
AcDbEntity
  8
0
 62
     7
100
AcDbLine
 10
171.296997
 20
468.029297
 30
0.0
 11
171.296997
 21
468.170715
 31
0.0
  0
LINE
  5
25F
330
1F
100
AcDbEntity
  8
0
 62
     7
100
AcDbLine
 10
171.296997
 20
468.170715
 30
0.0
 11
171.296997
 21
468.299988
 31
0.0
  0
LINE
  5
260
330
1F
100
AcDbEntity
  8
0
 62
     7
100
AcDbLine
 10
171.296997
 20
469.0
 30
0.0
 11
171.296997
 21
468.299988
 31
0.0
  0
LINE
  5
261
330
1F
100
AcDbEntity
  8
0
 62
     7
100
AcDbLine
 10
171.296997
 20
469.129272
 30
0.0
 11
171.296997
 21
469.0
 31
0.0
  0
LINE
  5
262
330
1F
100
AcDbEntity
  8
0
 62
     7
100
AcDbLine
 10
171.296997
 20
469.129272
 30
0.0
 11
171.296997
 21
469.270691
 31
0.0
  0
LINE
  5
263
330
1F
100
AcDbEntity
  8
0
 62
     7
100
AcDbLine
 10
171.296997
 20
469.270691
 30
0.0
 11
171.296997
 21
469.400024
 31
0.0
  0
LINE
  5
264
330
1F
100
AcDbEntity
  8
0
 62
     7
100
AcDbLine
 10
171.296997
 20
470.099976
 30
0.0
 11
171.296997
 21
469.400024
 31
0.0
  0
LINE
  5
265
330
1F
100
AcDbEntity
  8
0
 62
     7
100
AcDbLine
 10
171.296997
 20
470.229309
 30
0.0
 11
171.296997
 21
470.099976
 31
0.0
  0
LINE
  5
266
330
1F
100
AcDbEntity
  8
0
 62
     7
100
AcDbLine
 10
171.296997
 20
470.229309
 30
0.0
 11
171.296997
 21
470.370728
 31
0.0
  0
LINE
  5
267
330
1F
100
AcDbEntity
  8
0
 62
     7
100
AcDbLine
 10
171.296997
 20
470.370728
 30
0.0
 11
171.296997
 21
470.5
 31
0.0
  0
LINE
  5
268
330
1F
100
AcDbEntity
  8
0
 62
     7
100
AcDbLine
 10
171.296997
 20
471.200012
 30
0.0
 11
171.296997
 21
470.5
 31
0.0
  0
LINE
  5
269
330
1F
100
AcDbEntity
  8
0
 62
     7
100
AcDbLine
 10
171.296997
 20
471.329285
 30
0.0
 11
171.296997
 21
471.200012
 31
0.0
  0
LINE
  5
26A
330
1F
100
AcDbEntity
  8
0
 62
     7
100
AcDbLine
 10
171.296997
 20
471.329285
 30
0.0
 11
171.296997
 21
471.470703
 31
0.0
  0
LINE
  5
26B
330
1F
100
AcDbEntity
  8
0
 62
     7
100
AcDbLine
 10
171.296997
 20
471.470703
 30
0.0
 11
171.296997
 21
471.599976
 31
0.0
  0
LINE
  5
26C
330
1F
100
AcDbEntity
  8
0
 62
     7
100
AcDbLine
 10
171.296997
 20
472.299988
 30
0.0
 11
171.296997
 21
471.599976
 31
0.0
  0
LINE
  5
26D
330
1F
100
AcDbEntity
  8
0
 62
     7
100
AcDbLine
 10
171.296997
 20
472.42926
 30
0.0
 11
171.296997
 21
472.299988
 31
0.0
  0
LINE
  5
26E
330
1F
100
AcDbEntity
  8
0
 62
     7
100
AcDbLine
 10
171.296997
 20
472.42926
 30
0.0
 11
171.296997
 21
472.570679
 31
0.0
  0
LINE
  5
26F
330
1F
100
AcDbEntity
  8
0
 62
     7
100
AcDbLine
 10
171.296997
 20
472.570679
 30
0.0
 11
171.296997
 21
472.700012
 31
0.0
  0
LINE
  5
270
330
1F
100
AcDbEntity
  8
0
 62
     7
100
AcDbLine
 10
168.996979
 20
465.829285
 30
0.0
 11
168.996979
 21
465.700012
 31
0.0
  0
LINE
  5
271
330
1F
100
AcDbEntity
  8
0
 62
     7
100
AcDbLine
 10
168.996979
 20
465.970703
 30
0.0
 11
168.996979
 21
466.099976
 31
0.0
  0
LINE
  5
272
330
1F
100
AcDbEntity
  8
0
 62
     7
100
AcDbLine
 10
168.996979
 20
465.970703
 30
0.0
 11
168.996979
 21
465.829285
 31
0.0
  0
LINE
  5
273
330
1F
100
AcDbEntity
  8
0
 62
     7
100
AcDbLine
 10
168.996979
 20
473.599976
 30
0.0
 11
168.996979
 21
473.529297
 31
0.0
  0
LINE
  5
274
330
1F
100
AcDbEntity
  8
0
 62
     7
100
AcDbLine
 10
168.996979
 20
473.529297
 30
0.0
 11
168.996979
 21
473.400024
 31
0.0
  0
LINE
  5
275
330
1F
100
AcDbEntity
  8
0
 62
     7
100
AcDbLine
 10
168.996979
 20
472.700012
 30
0.0
 11
168.996979
 21
473.400024
 31
0.0
  0
LINE
  5
276
330
1F
100
AcDbEntity
  8
0
 62
     7
100
AcDbLine
 10
168.996979
 20
472.570679
 30
0.0
 11
168.996979
 21
472.700012
 31
0.0
  0
LINE
  5
277
330
1F
100
AcDbEntity
  8
0
 62
     7
100
AcDbLine
 10
168.996979
 20
472.570679
 30
0.0
 11
168.996979
 21
472.42926
 31
0.0
  0
LINE
  5
278
330
1F
100
AcDbEntity
  8
0
 62
     7
100
AcDbLine
 10
168.996979
 20
472.42926
 30
0.0
 11
168.996979
 21
472.299988
 31
0.0
  0
LINE
  5
279
330
1F
100
AcDbEntity
  8
0
 62
     7
100
AcDbLine
 10
168.996979
 20
471.599976
 30
0.0
 11
168.996979
 21
472.299988
 31
0.0
  0
LINE
  5
27A
330
1F
100
AcDbEntity
  8
0
 62
     7
100
AcDbLine
 10
168.996979
 20
471.470703
 30
0.0
 11
168.996979
 21
471.599976
 31
0.0
  0
LINE
  5
27B
330
1F
100
AcDbEntity
  8
0
 62
     7
100
AcDbLine
 10
168.996979
 20
471.470703
 30
0.0
 11
168.996979
 21
471.329285
 31
0.0
  0
LINE
  5
27C
330
1F
100
AcDbEntity
  8
0
 62
     7
100
AcDbLine
 10
168.996979
 20
471.329285
 30
0.0
 11
168.996979
 21
471.200012
 31
0.0
  0
LINE
  5
27D
330
1F
100
AcDbEntity
  8
0
 62
     7
100
AcDbLine
 10
168.996979
 20
470.5
 30
0.0
 11
168.996979
 21
471.200012
 31
0.0
  0
LINE
  5
27E
330
1F
100
AcDbEntity
  8
0
 62
     7
100
AcDbLine
 10
168.996979
 20
470.370728
 30
0.0
 11
168.996979
 21
470.5
 31
0.0
  0
LINE
  5
27F
330
1F
100
AcDbEntity
  8
0
 62
     7
100
AcDbLine
 10
168.996979
 20
470.370728
 30
0.0
 11
168.996979
 21
470.229309
 31
0.0
  0
LINE
  5
280
330
1F
100
AcDbEntity
  8
0
 62
     7
100
AcDbLine
 10
168.996979
 20
470.229309
 30
0.0
 11
168.996979
 21
470.099976
 31
0.0
  0
LINE
  5
281
330
1F
100
AcDbEntity
  8
0
 62
     7
100
AcDbLine
 10
168.996979
 20
469.400024
 30
0.0
 11
168.996979
 21
470.099976
 31
0.0
  0
LINE
  5
282
330
1F
100
AcDbEntity
  8
0
 62
     7
100
AcDbLine
 10
168.996979
 20
469.270691
 30
0.0
 11
168.996979
 21
469.400024
 31
0.0
  0
LINE
  5
283
330
1F
100
AcDbEntity
  8
0
 62
     7
100
AcDbLine
 10
168.996979
 20
469.270691
 30
0.0
 11
168.996979
 21
469.129272
 31
0.0
  0
LINE
  5
284
330
1F
100
AcDbEntity
  8
0
 62
     7
100
AcDbLine
 10
168.996979
 20
469.129272
 30
0.0
 11
168.996979
 21
469.0
 31
0.0
  0
LINE
  5
285
330
1F
100
AcDbEntity
  8
0
 62
     7
100
AcDbLine
 10
168.996979
 20
468.299988
 30
0.0
 11
168.996979
 21
469.0
 31
0.0
  0
LINE
  5
286
330
1F
100
AcDbEntity
  8
0
 62
     7
100
AcDbLine
 10
168.996979
 20
468.170715
 30
0.0
 11
168.996979
 21
468.299988
 31
0.0
  0
LINE
  5
287
330
1F
100
AcDbEntity
  8
0
 62
     7
100
AcDbLine
 10
168.996979
 20
468.170715
 30
0.0
 11
168.996979
 21
468.029297
 31
0.0
  0
LINE
  5
288
330
1F
100
AcDbEntity
  8
0
 62
     7
100
AcDbLine
 10
168.996979
 20
468.029297
 30
0.0
 11
168.996979
 21
467.900024
 31
0.0
  0
LINE
  5
289
330
1F
100
AcDbEntity
  8
0
 62
     7
100
AcDbLine
 10
168.996979
 20
467.200012
 30
0.0
 11
168.996979
 21
467.900024
 31
0.0
  0
LINE
  5
28A
330
1F
100
AcDbEntity
  8
0
 62
     7
100
AcDbLine
 10
168.996979
 20
467.070679
 30
0.0
 11
168.996979
 21
467.200012
 31
0.0
  0
LINE
  5
28B
330
1F
100
AcDbEntity
  8
0
 62
     7
100
AcDbLine
 10
168.996979
 20
467.070679
 30
0.0
 11
168.996979
 21
466.92926
 31
0.0
  0
LINE
  5
28C
330
1F
100
AcDbEntity
  8
0
 62
     7
100
AcDbLine
 10
168.996979
 20
466.92926
 30
0.0
 11
168.996979
 21
466.799988
 31
0.0
  0
LINE
  5
28D
330
1F
100
AcDbEntity
  8
0
 62
     7
100
AcDbLine
 10
168.996979
 20
466.099976
 30
0.0
 11
168.996979
 21
466.799988
 31
0.0
  0
LINE
  5
28E
330
1F
100
AcDbEntity
  8
0
 62
     7
100
AcDbLine
 10
167.996979
 20
472.42926
 30
0.0
 11
167.996979
 21
472.299988
 31
0.0
  0
LINE
  5
28F
330
1F
100
AcDbEntity
  8
0
 62
     7
100
AcDbLine
 10
167.996979
 20
472.42926
 30
0.0
 11
167.996979
 21
472.570679
 31
0.0
  0
LINE
  5
290
330
1F
100
AcDbEntity
  8
0
 62
     7
100
AcDbLine
 10
167.996979
 20
472.570679
 30
0.0
 11
167.996979
 21
472.700012
 31
0.0
  0
LINE
  5
291
330
1F
100
AcDbEntity
  8
0
 62
     7
100
AcDbLine
 10
167.996979
 20
473.099976
 30
0.0
 11
167.996979
 21
472.700012
 31
0.0
  0
LINE
  5
292
330
1F
100
AcDbEntity
  8
0
 62
     7
100
AcDbLine
 10
167.996979
 20
465.829285
 30
0.0
 11
167.996979
 21
465.700012
 31
0.0
  0
LINE
  5
293
330
1F
100
AcDbEntity
  8
0
 62
     7
100
AcDbLine
 10
167.996979
 20
465.829285
 30
0.0
 11
167.996979
 21
465.970703
 31
0.0
  0
LINE
  5
294
330
1F
100
AcDbEntity
  8
0
 62
     7
100
AcDbLine
 10
167.996979
 20
465.970703
 30
0.0
 11
167.996979
 21
466.099976
 31
0.0
  0
LINE
  5
295
330
1F
100
AcDbEntity
  8
0
 62
     7
100
AcDbLine
 10
167.996979
 20
466.799988
 30
0.0
 11
167.996979
 21
466.099976
 31
0.0
  0
LINE
  5
296
330
1F
100
AcDbEntity
  8
0
 62
     7
100
AcDbLine
 10
167.996979
 20
466.92926
 30
0.0
 11
167.996979
 21
466.799988
 31
0.0
  0
LINE
  5
297
330
1F
100
AcDbEntity
  8
0
 62
     7
100
AcDbLine
 10
167.996979
 20
466.92926
 30
0.0
 11
167.996979
 21
467.070679
 31
0.0
  0
LINE
  5
298
330
1F
100
AcDbEntity
  8
0
 62
     7
100
AcDbLine
 10
167.996979
 20
467.070679
 30
0.0
 11
167.996979
 21
467.200012
 31
0.0
  0
LINE
  5
299
330
1F
100
AcDbEntity
  8
0
 62
     7
100
AcDbLine
 10
167.996979
 20
467.900024
 30
0.0
 11
167.996979
 21
467.200012
 31
0.0
  0
LINE
  5
29A
330
1F
100
AcDbEntity
  8
0
 62
     7
100
AcDbLine
 10
167.996979
 20
468.029297
 30
0.0
 11
167.996979
 21
467.900024
 31
0.0
  0
LINE
  5
29B
330
1F
100
AcDbEntity
  8
0
 62
     7
100
AcDbLine
 10
167.996979
 20
468.029297
 30
0.0
 11
167.996979
 21
468.170715
 31
0.0
  0
LINE
  5
29C
330
1F
100
AcDbEntity
  8
0
 62
     7
100
AcDbLine
 10
167.996979
 20
468.170715
 30
0.0
 11
167.996979
 21
468.299988
 31
0.0
  0
LINE
  5
29D
330
1F
100
AcDbEntity
  8
0
 62
     7
100
AcDbLine
 10
167.996979
 20
469.0
 30
0.0
 11
167.996979
 21
468.299988
 31
0.0
  0
LINE
  5
29E
330
1F
100
AcDbEntity
  8
0
 62
     7
100
AcDbLine
 10
167.996979
 20
469.129272
 30
0.0
 11
167.996979
 21
469.0
 31
0.0
  0
LINE
  5
29F
330
1F
100
AcDbEntity
  8
0
 62
     7
100
AcDbLine
 10
167.996979
 20
469.129272
 30
0.0
 11
167.996979
 21
469.270691
 31
0.0
  0
LINE
  5
2A0
330
1F
100
AcDbEntity
  8
0
 62
     7
100
AcDbLine
 10
167.996979
 20
469.270691
 30
0.0
 11
167.996979
 21
469.400024
 31
0.0
  0
LINE
  5
2A1
330
1F
100
AcDbEntity
  8
0
 62
     7
100
AcDbLine
 10
167.996979
 20
470.099976
 30
0.0
 11
167.996979
 21
469.400024
 31
0.0
  0
LINE
  5
2A2
330
1F
100
AcDbEntity
  8
0
 62
     7
100
AcDbLine
 10
167.996979
 20
470.229309
 30
0.0
 11
167.996979
 21
470.099976
 31
0.0
  0
LINE
  5
2A3
330
1F
100
AcDbEntity
  8
0
 62
     7
100
AcDbLine
 10
167.996979
 20
470.229309
 30
0.0
 11
167.996979
 21
470.370728
 31
0.0
  0
LINE
  5
2A4
330
1F
100
AcDbEntity
  8
0
 62
     7
100
AcDbLine
 10
167.996979
 20
470.370728
 30
0.0
 11
167.996979
 21
470.5
 31
0.0
  0
LINE
  5
2A5
330
1F
100
AcDbEntity
  8
0
 62
     7
100
AcDbLine
 10
167.996979
 20
471.200012
 30
0.0
 11
167.996979
 21
470.5
 31
0.0
  0
LINE
  5
2A6
330
1F
100
AcDbEntity
  8
0
 62
     7
100
AcDbLine
 10
167.996979
 20
471.329285
 30
0.0
 11
167.996979
 21
471.200012
 31
0.0
  0
LINE
  5
2A7
330
1F
100
AcDbEntity
  8
0
 62
     7
100
AcDbLine
 10
167.996979
 20
471.329285
 30
0.0
 11
167.996979
 21
471.470703
 31
0.0
  0
LINE
  5
2A8
330
1F
100
AcDbEntity
  8
0
 62
     7
100
AcDbLine
 10
167.996979
 20
471.470703
 30
0.0
 11
167.996979
 21
471.599976
 31
0.0
  0
LINE
  5
2A9
330
1F
100
AcDbEntity
  8
0
 62
     7
100
AcDbLine
 10
167.996979
 20
472.299988
 30
0.0
 11
167.996979
 21
471.599976
 31
0.0
  0
LINE
  5
2AA
330
1F
100
AcDbEntity
  8
0
 62
     7
100
AcDbLine
 10
109.328308
 20
465.700012
 30
0.0
 11
109.411682
 21
465.829285
 31
0.0
  0
ARC
  5
2AB
330
1F
100
AcDbEntity
  8
0
 62
     7
100
AcDbCircle
 10
102.647003
 20
470.099976
 30
0.0
 40
8.0
100
AcDbArc
 50
354.980203
 51
0.00001
  0
LINE
  5
2AC
330
1F
100
AcDbEntity
  8
0
 62
     7
100
AcDbLine
 10
110.603897
 20
469.270691
 30
0.0
 11
110.616318
 21
469.400024
 31
0.0
  0
LINE
  5
2AD
330
1F
100
AcDbEntity
  8
0
 62
     7
100
AcDbLine
 10
110.587891
 20
469.129272
 30
0.0
 11
110.603897
 21
469.270691
 31
0.0
  0
LINE
  5
2AE
330
1F
100
AcDbEntity
  8
0
 62
     7
100
AcDbLine
 10
110.571014
 20
469.0
 30
0.0
 11
110.587891
 21
469.129272
 31
0.0
  0
ARC
  5
2AF
330
1F
100
AcDbEntity
  8
0
 62
     7
100
AcDbCircle
 10
102.647003
 20
470.099976
 30
0.0
 40
8.0
100
AcDbArc
 50
346.997132
 51
352.096798
  0
LINE
  5
2B0
330
1F
100
AcDbEntity
  8
0
 62
     7
100
AcDbLine
 10
110.410873
 20
468.170715
 30
0.0
 11
110.441864
 21
468.299988
 31
0.0
  0
LINE
  5
2B1
330
1F
100
AcDbEntity
  8
0
 62
     7
100
AcDbLine
 10
110.374359
 20
468.029297
 30
0.0
 11
110.410873
 21
468.170715
 31
0.0
  0
LINE
  5
2B2
330
1F
100
AcDbEntity
  8
0
 62
     7
100
AcDbLine
 10
110.338547
 20
467.900024
 30
0.0
 11
110.374359
 21
468.029297
 31
0.0
  0
ARC
  5
2B3
330
1F
100
AcDbEntity
  8
0
 62
     7
100
AcDbCircle
 10
102.647003
 20
470.099976
 30
0.0
 40
8.0
100
AcDbArc
 50
338.746183
 51
344.037995
  0
LINE
  5
2B4
330
1F
100
AcDbEntity
  8
0
 62
     7
100
AcDbLine
 10
110.051285
 20
467.070679
 30
0.0
 11
110.102875
 21
467.200012
 31
0.0
  0
LINE
  5
2B5
330
1F
100
AcDbEntity
  8
0
 62
     7
100
AcDbLine
 10
109.991837
 20
466.92926
 30
0.0
 11
110.051285
 21
467.070679
 31
0.0
  0
LINE
  5
2B6
330
1F
100
AcDbEntity
  8
0
 62
     7
100
AcDbLine
 10
109.934662
 20
466.799988
 30
0.0
 11
109.991837
 21
466.92926
 31
0.0
  0
ARC
  5
2B7
330
1F
100
AcDbEntity
  8
0
 62
     7
100
AcDbCircle
 10
102.647003
 20
470.099976
 30
0.0
 40
8.0
100
AcDbArc
 50
329.999989
 51
335.63801
  0
LINE
  5
2B8
330
1F
100
AcDbEntity
  8
0
 62
     7
100
AcDbLine
 10
109.498932
 20
465.970703
 30
0.0
 11
109.575195
 21
466.099976
 31
0.0
  0
LINE
  5
2B9
330
1F
100
AcDbEntity
  8
0
 62
     7
100
AcDbLine
 10
109.411682
 20
465.829285
 30
0.0
 11
109.498932
 21
465.970703
 31
0.0
  0
LINE
  5
2BA
330
1F
100
AcDbEntity
  8
0
 62
     7
100
AcDbLine
 10
95.965683
 20
465.700012
 30
0.0
 11
95.882309
 21
465.829285
 31
0.0
  0
LINE
  5
2BB
330
1F
100
AcDbEntity
  8
0
 62
     7
100
AcDbLine
 10
95.882309
 20
465.829285
 30
0.0
 11
95.795074
 21
465.970703
 31
0.0
  0
LINE
  5
2BC
330
1F
100
AcDbEntity
  8
0
 62
     7
100
AcDbLine
 10
95.795074
 20
465.970703
 30
0.0
 11
95.718796
 21
466.099976
 31
0.0
  0
ARC
  5
2BD
330
1F
100
AcDbEntity
  8
0
 62
     7
100
AcDbCircle
 10
102.647003
 20
470.099976
 30
0.0
 40
8.0
100
AcDbArc
 50
204.361982
 51
210.000003
  0
LINE
  5
2BE
330
1F
100
AcDbEntity
  8
0
 62
     7
100
AcDbLine
 10
95.359344
 20
466.799988
 30
0.0
 11
95.30217
 21
466.92926
 31
0.0
  0
LINE
  5
2BF
330
1F
100
AcDbEntity
  8
0
 62
     7
100
AcDbLine
 10
95.30217
 20
466.92926
 30
0.0
 11
95.242722
 21
467.070679
 31
0.0
  0
LINE
  5
2C0
330
1F
100
AcDbEntity
  8
0
 62
     7
100
AcDbLine
 10
95.242722
 20
467.070679
 30
0.0
 11
95.191132
 21
467.200012
 31
0.0
  0
ARC
  5
2C1
330
1F
100
AcDbEntity
  8
0
 62
     7
100
AcDbCircle
 10
102.647003
 20
470.099976
 30
0.0
 40
8.0
100
AcDbArc
 50
195.96201
 51
201.253809
  0
LINE
  5
2C2
330
1F
100
AcDbEntity
  8
0
 62
     7
100
AcDbLine
 10
94.955444
 20
467.900024
 30
0.0
 11
94.919632
 21
468.029297
 31
0.0
  0
LINE
  5
2C3
330
1F
100
AcDbEntity
  8
0
 62
     7
100
AcDbLine
 10
94.919632
 20
468.029297
 30
0.0
 11
94.883118
 21
468.170715
 31
0.0
  0
LINE
  5
2C4
330
1F
100
AcDbEntity
  8
0
 62
     7
100
AcDbLine
 10
94.883118
 20
468.170715
 30
0.0
 11
94.852127
 21
468.299988
 31
0.0
  0
ARC
  5
2C5
330
1F
100
AcDbEntity
  8
0
 62
     7
100
AcDbCircle
 10
102.647003
 20
470.099976
 30
0.0
 40
8.0
100
AcDbArc
 50
187.903207
 51
193.002872
  0
LINE
  5
2C6
330
1F
100
AcDbEntity
  8
0
 62
     7
100
AcDbLine
 10
94.722992
 20
469.0
 30
0.0
 11
94.706116
 21
469.129272
 31
0.0
  0
LINE
  5
2C7
330
1F
100
AcDbEntity
  8
0
 62
     7
100
AcDbLine
 10
94.706116
 20
469.129272
 30
0.0
 11
94.690094
 21
469.270691
 31
0.0
  0
LINE
  5
2C8
330
1F
100
AcDbEntity
  8
0
 62
     7
100
AcDbLine
 10
94.690094
 20
469.270691
 30
0.0
 11
94.677689
 21
469.400024
 31
0.0
  0
ARC
  5
2C9
330
1F
100
AcDbEntity
  8
0
 62
     7
100
AcDbCircle
 10
102.647003
 20
470.099976
 30
0.0
 40
8.0
100
AcDbArc
 50
180.000009
 51
185.019802
  0
LINE
  5
2CA
330
1F
100
AcDbEntity
  8
0
 62
     7
100
AcDbLine
 10
93.647003
 20
465.829285
 30
0.0
 11
93.647003
 21
465.700012
 31
0.0
  0
LINE
  5
2CB
330
1F
100
AcDbEntity
  8
0
 62
     7
100
AcDbLine
 10
93.647003
 20
465.970703
 30
0.0
 11
93.647003
 21
465.829285
 31
0.0
  0
LINE
  5
2CC
330
1F
100
AcDbEntity
  8
0
 62
     7
100
AcDbLine
 10
93.647003
 20
466.099976
 30
0.0
 11
93.647003
 21
465.970703
 31
0.0
  0
LINE
  5
2CD
330
1F
100
AcDbEntity
  8
0
 62
     7
100
AcDbLine
 10
93.647003
 20
466.099976
 30
0.0
 11
93.647003
 21
466.799988
 31
0.0
  0
LINE
  5
2CE
330
1F
100
AcDbEntity
  8
0
 62
     7
100
AcDbLine
 10
93.647003
 20
466.92926
 30
0.0
 11
93.647003
 21
466.799988
 31
0.0
  0
LINE
  5
2CF
330
1F
100
AcDbEntity
  8
0
 62
     7
100
AcDbLine
 10
93.647003
 20
467.070679
 30
0.0
 11
93.647003
 21
466.92926
 31
0.0
  0
LINE
  5
2D0
330
1F
100
AcDbEntity
  8
0
 62
     7
100
AcDbLine
 10
93.647003
 20
467.200012
 30
0.0
 11
93.647003
 21
467.070679
 31
0.0
  0
LINE
  5
2D1
330
1F
100
AcDbEntity
  8
0
 62
     7
100
AcDbLine
 10
93.647003
 20
467.200012
 30
0.0
 11
93.647003
 21
467.900024
 31
0.0
  0
LINE
  5
2D2
330
1F
100
AcDbEntity
  8
0
 62
     7
100
AcDbLine
 10
93.647003
 20
468.029297
 30
0.0
 11
93.647003
 21
467.900024
 31
0.0
  0
LINE
  5
2D3
330
1F
100
AcDbEntity
  8
0
 62
     7
100
AcDbLine
 10
93.647003
 20
468.170715
 30
0.0
 11
93.647003
 21
468.029297
 31
0.0
  0
LINE
  5
2D4
330
1F
100
AcDbEntity
  8
0
 62
     7
100
AcDbLine
 10
93.647003
 20
468.299988
 30
0.0
 11
93.647003
 21
468.170715
 31
0.0
  0
LINE
  5
2D5
330
1F
100
AcDbEntity
  8
0
 62
     7
100
AcDbLine
 10
93.647003
 20
468.299988
 30
0.0
 11
93.647003
 21
469.0
 31
0.0
  0
LINE
  5
2D6
330
1F
100
AcDbEntity
  8
0
 62
     7
100
AcDbLine
 10
93.647003
 20
469.129272
 30
0.0
 11
93.647003
 21
469.0
 31
0.0
  0
LINE
  5
2D7
330
1F
100
AcDbEntity
  8
0
 62
     7
100
AcDbLine
 10
93.647003
 20
469.270691
 30
0.0
 11
93.647003
 21
469.129272
 31
0.0
  0
LINE
  5
2D8
330
1F
100
AcDbEntity
  8
0
 62
     7
100
AcDbLine
 10
93.647003
 20
469.400024
 30
0.0
 11
93.647003
 21
469.270691
 31
0.0
  0
LINE
  5
2D9
330
1F
100
AcDbEntity
  8
0
 62
     7
100
AcDbLine
 10
93.647003
 20
469.400024
 30
0.0
 11
93.647003
 21
470.099976
 31
0.0
  0
LINE
  5
2DA
330
1F
100
AcDbEntity
  8
0
 62
     7
100
AcDbLine
 10
93.647003
 20
470.229309
 30
0.0
 11
93.647003
 21
470.099976
 31
0.0
  0
LINE
  5
2DB
330
1F
100
AcDbEntity
  8
0
 62
     7
100
AcDbLine
 10
93.647003
 20
470.370728
 30
0.0
 11
93.647003
 21
470.229309
 31
0.0
  0
LINE
  5
2DC
330
1F
100
AcDbEntity
  8
0
 62
     7
100
AcDbLine
 10
93.647003
 20
470.5
 30
0.0
 11
93.647003
 21
470.370728
 31
0.0
  0
LINE
  5
2DD
330
1F
100
AcDbEntity
  8
0
 62
     7
100
AcDbLine
 10
93.647003
 20
470.5
 30
0.0
 11
93.647003
 21
471.200012
 31
0.0
  0
LINE
  5
2DE
330
1F
100
AcDbEntity
  8
0
 62
     7
100
AcDbLine
 10
93.647003
 20
471.329285
 30
0.0
 11
93.647003
 21
471.200012
 31
0.0
  0
LINE
  5
2DF
330
1F
100
AcDbEntity
  8
0
 62
     7
100
AcDbLine
 10
93.647003
 20
471.470703
 30
0.0
 11
93.647003
 21
471.329285
 31
0.0
  0
LINE
  5
2E0
330
1F
100
AcDbEntity
  8
0
 62
     7
100
AcDbLine
 10
93.647003
 20
471.599976
 30
0.0
 11
93.647003
 21
471.470703
 31
0.0
  0
LINE
  5
2E1
330
1F
100
AcDbEntity
  8
0
 62
     7
100
AcDbLine
 10
93.647003
 20
471.599976
 30
0.0
 11
93.647003
 21
472.299988
 31
0.0
  0
LINE
  5
2E2
330
1F
100
AcDbEntity
  8
0
 62
     7
100
AcDbLine
 10
93.647003
 20
472.42926
 30
0.0
 11
93.647003
 21
472.299988
 31
0.0
  0
LINE
  5
2E3
330
1F
100
AcDbEntity
  8
0
 62
     7
100
AcDbLine
 10
93.647003
 20
472.570679
 30
0.0
 11
93.647003
 21
472.42926
 31
0.0
  0
LINE
  5
2E4
330
1F
100
AcDbEntity
  8
0
 62
     7
100
AcDbLine
 10
93.647003
 20
472.700012
 30
0.0
 11
93.647003
 21
472.570679
 31
0.0
  0
LINE
  5
2E5
330
1F
100
AcDbEntity
  8
0
 62
     7
100
AcDbLine
 10
93.647003
 20
472.700012
 30
0.0
 11
93.647003
 21
473.400024
 31
0.0
  0
LINE
  5
2E6
330
1F
100
AcDbEntity
  8
0
 62
     7
100
AcDbLine
 10
93.647003
 20
473.529297
 30
0.0
 11
93.647003
 21
473.400024
 31
0.0
  0
LINE
  5
2E7
330
1F
100
AcDbEntity
  8
0
 62
     7
100
AcDbLine
 10
93.647003
 20
473.670715
 30
0.0
 11
93.647003
 21
473.529297
 31
0.0
  0
LINE
  5
2E8
330
1F
100
AcDbEntity
  8
0
 62
     7
100
AcDbLine
 10
93.647003
 20
473.799988
 30
0.0
 11
93.647003
 21
473.670715
 31
0.0
  0
LINE
  5
2E9
330
1F
100
AcDbEntity
  8
0
 62
     7
100
AcDbLine
 10
93.647003
 20
473.799988
 30
0.0
 11
93.647003
 21
474.5
 31
0.0
  0
LINE
  5
2EA
330
1F
100
AcDbEntity
  8
0
 62
     7
100
AcDbLine
 10
93.647003
 20
474.629272
 30
0.0
 11
93.647003
 21
474.5
 31
0.0
  0
LINE
  5
2EB
330
1F
100
AcDbEntity
  8
0
 62
     7
100
AcDbLine
 10
93.647003
 20
474.770691
 30
0.0
 11
93.647003
 21
474.629272
 31
0.0
  0
LINE
  5
2EC
330
1F
100
AcDbEntity
  8
0
 62
     7
100
AcDbLine
 10
93.647003
 20
474.900024
 30
0.0
 11
93.647003
 21
474.770691
 31
0.0
  0
LINE
  5
2ED
330
1F
100
AcDbEntity
  8
0
 62
     7
100
AcDbLine
 10
93.647003
 20
474.900024
 30
0.0
 11
93.647003
 21
479.724243
 31
0.0
  0
LINE
  5
2EE
330
1F
100
AcDbEntity
  8
0
 62
     7
100
AcDbLine
 10
93.647003
 20
480.212158
 30
0.0
 11
93.647003
 21
479.724243
 31
0.0
  0
LINE
  5
2EF
330
1F
100
AcDbEntity
  8
0
 62
     7
100
AcDbLine
 10
93.647003
 20
480.299988
 30
0.0
 11
93.647003
 21
480.212158
 31
0.0
  0
ARC
  5
2F0
330
1F
100
AcDbEntity
  8
0
 62
     7
100
AcDbCircle
 10
1071.147095
 20
457.299988
 30
0.0
 40
0.5
100
AcDbArc
 50
0.00001
 51
90.000003
  0
LINE
  5
2F1
330
1F
100
AcDbEntity
  8
0
 62
     7
100
AcDbLine
 10
1071.147095
 20
457.799988
 30
0.0
 11
1064.147095
 21
457.799988
 31
0.0
  0
ARC
  5
2F2
330
1F
100
AcDbEntity
  8
0
 62
     7
100
AcDbCircle
 10
1064.147095
 20
457.299988
 30
0.0
 40
0.5
100
AcDbArc
 50
90.000003
 51
180.000009
  0
LINE
  5
2F3
330
1F
100
AcDbEntity
  8
0
 62
     7
100
AcDbLine
 10
1063.647095
 20
457.299988
 30
0.0
 11
1063.647095
 21
453.299988
 31
0.0
  0
ARC
  5
2F4
330
1F
100
AcDbEntity
  8
0
 62
     7
100
AcDbCircle
 10
1064.147095
 20
453.299988
 30
0.0
 40
0.5
100
AcDbArc
 50
180.000009
 51
269.999997
  0
LINE
  5
2F5
330
1F
100
AcDbEntity
  8
0
 62
     7
100
AcDbLine
 10
1064.147095
 20
452.799988
 30
0.0
 11
1071.147095
 21
452.799988
 31
0.0
  0
ARC
  5
2F6
330
1F
100
AcDbEntity
  8
0
 62
     7
100
AcDbCircle
 10
1071.147095
 20
453.299988
 30
0.0
 40
0.5
100
AcDbArc
 50
269.999997
 51
0.00001
  0
LINE
  5
2F7
330
1F
100
AcDbEntity
  8
0
 62
     7
100
AcDbLine
 10
1071.647095
 20
453.299988
 30
0.0
 11
1071.647095
 21
457.299988
 31
0.0
  0
ARC
  5
2F8
330
1F
100
AcDbEntity
  8
0
 62
     7
100
AcDbCircle
 10
151.147003
 20
457.299988
 30
0.0
 40
0.5
100
AcDbArc
 50
0.00001
 51
90.000003
  0
LINE
  5
2F9
330
1F
100
AcDbEntity
  8
0
 62
     7
100
AcDbLine
 10
151.147003
 20
457.799988
 30
0.0
 11
144.147003
 21
457.799988
 31
0.0
  0
ARC
  5
2FA
330
1F
100
AcDbEntity
  8
0
 62
     7
100
AcDbCircle
 10
144.147003
 20
457.299988
 30
0.0
 40
0.5
100
AcDbArc
 50
90.000003
 51
180.000009
  0
LINE
  5
2FB
330
1F
100
AcDbEntity
  8
0
 62
     7
100
AcDbLine
 10
143.647003
 20
457.299988
 30
0.0
 11
143.647003
 21
453.299988
 31
0.0
  0
ARC
  5
2FC
330
1F
100
AcDbEntity
  8
0
 62
     7
100
AcDbCircle
 10
144.147003
 20
453.299988
 30
0.0
 40
0.5
100
AcDbArc
 50
180.000009
 51
269.999997
  0
LINE
  5
2FD
330
1F
100
AcDbEntity
  8
0
 62
     7
100
AcDbLine
 10
144.147003
 20
452.799988
 30
0.0
 11
151.147003
 21
452.799988
 31
0.0
  0
ARC
  5
2FE
330
1F
100
AcDbEntity
  8
0
 62
     7
100
AcDbCircle
 10
151.147003
 20
453.299988
 30
0.0
 40
0.5
100
AcDbArc
 50
269.999997
 51
0.00001
  0
LINE
  5
2FF
330
1F
100
AcDbEntity
  8
0
 62
     7
100
AcDbLine
 10
151.647003
 20
453.299988
 30
0.0
 11
151.647003
 21
457.299988
 31
0.0
  0
LINE
  5
300
330
1F
100
AcDbEntity
  8
0
 62
     7
100
AcDbLine
 10
1147.147095
 20
458.099976
 30
0.0
 11
1146.647095
 21
458.099976
 31
0.0
  0
LINE
  5
301
330
1F
100
AcDbEntity
  8
0
 62
     7
100
AcDbLine
 10
1146.647095
 20
460.399963
 30
0.0
 11
1147.147095
 21
460.399963
 31
0.0
  0
LINE
  5
302
330
1F
100
AcDbEntity
  8
0
 62
     7
100
AcDbLine
 10
93.147003
 20
460.400024
 30
0.0
 11
93.647003
 21
460.399963
 31
0.0
  0
LINE
  5
303
330
1F
100
AcDbEntity
  8
0
 62
     7
100
AcDbLine
 10
1074.147095
 20
480.212158
 30
0.0
 11
1074.147095
 21
480.299988
 31
0.0
  0
LINE
  5
304
330
1F
100
AcDbEntity
  8
0
 62
     7
100
AcDbLine
 10
1074.147095
 20
480.212158
 30
0.0
 11
1074.147095
 21
479.724243
 31
0.0
  0
LINE
  5
305
330
1F
100
AcDbEntity
  8
0
 62
     7
100
AcDbLine
 10
1146.647095
 20
479.724243
 30
0.0
 11
1074.147095
 21
479.724243
 31
0.0
  0
ARC
  5
306
330
1F
100
AcDbEntity
  8
0
 62
     7
100
AcDbCircle
 10
1137.647095
 20
470.099976
 30
0.0
 40
8.0
100
AcDbArc
 50
36.869897
 51
143.130097
  0
LINE
  5
307
330
1F
100
AcDbEntity
  8
0
 62
     7
100
AcDbLine
 10
1146.647095
 20
474.900024
 30
0.0
 11
1144.047119
 21
474.900024
 31
0.0
  0
LINE
  5
308
330
1F
100
AcDbEntity
  8
0
 62
     7
100
AcDbLine
 10
1074.147095
 20
474.900024
 30
0.0
 11
1074.147095
 21
479.724243
 31
0.0
  0
LINE
  5
309
330
1F
100
AcDbEntity
  8
0
 62
     7
100
AcDbLine
 10
1131.24707
 20
474.900024
 30
0.0
 11
1074.147095
 21
474.900024
 31
0.0
  0
LINE
  5
30A
330
1F
100
AcDbEntity
  8
0
 62
     7
100
AcDbLine
 10
1144.047119
 20
474.900024
 30
0.0
 11
1144.14209
 21
474.770691
 31
0.0
  0
LINE
  5
30B
330
1F
100
AcDbEntity
  8
0
 62
     7
100
AcDbLine
 10
1144.14209
 20
474.770691
 30
0.0
 11
1144.241455
 21
474.629272
 31
0.0
  0
LINE
  5
30C
330
1F
100
AcDbEntity
  8
0
 62
     7
100
AcDbLine
 10
1144.241455
 20
474.629272
 30
0.0
 11
1144.328369
 21
474.5
 31
0.0
  0
LINE
  5
30D
330
1F
100
AcDbEntity
  8
0
 62
     7
100
AcDbLine
 10
1146.647095
 20
474.5
 30
0.0
 11
1144.328369
 21
474.5
 31
0.0
  0
ARC
  5
30E
330
1F
100
AcDbEntity
  8
0
 62
     7
100
AcDbCircle
 10
1137.647095
 20
470.099976
 30
0.0
 40
8.0
100
AcDbArc
 50
27.548547
 51
33.367014
  0
LINE
  5
30F
330
1F
100
AcDbEntity
  8
0
 62
     7
100
AcDbLine
 10
1146.647095
 20
473.799988
 30
0.0
 11
1144.73999
 21
473.799988
 31
0.0
  0
LINE
  5
310
330
1F
100
AcDbEntity
  8
0
 62
     7
100
AcDbLine
 10
1144.73999
 20
473.799988
 30
0.0
 11
1144.80603
 21
473.670715
 31
0.0
  0
LINE
  5
311
330
1F
100
AcDbEntity
  8
0
 62
     7
100
AcDbLine
 10
1144.80603
 20
473.670715
 30
0.0
 11
1144.874878
 21
473.529297
 31
0.0
  0
LINE
  5
312
330
1F
100
AcDbEntity
  8
0
 62
     7
100
AcDbLine
 10
1144.874878
 20
473.529297
 30
0.0
 11
1144.934814
 21
473.400024
 31
0.0
  0
LINE
  5
313
330
1F
100
AcDbEntity
  8
0
 62
     7
100
AcDbLine
 10
1146.647095
 20
473.400024
 30
0.0
 11
1144.934814
 21
473.400024
 31
0.0
  0
ARC
  5
314
330
1F
100
AcDbEntity
  8
0
 62
     7
100
AcDbCircle
 10
1137.647095
 20
470.099976
 30
0.0
 40
8.0
100
AcDbArc
 50
18.965574
 51
24.361978
  0
LINE
  5
315
330
1F
100
AcDbEntity
  8
0
 62
     7
100
AcDbLine
 10
1146.647095
 20
472.700012
 30
0.0
 11
1145.212769
 21
472.700012
 31
0.0
  0
LINE
  5
316
330
1F
100
AcDbEntity
  8
0
 62
     7
100
AcDbLine
 10
1145.212769
 20
472.700012
 30
0.0
 11
1145.255981
 21
472.570679
 31
0.0
  0
LINE
  5
317
330
1F
100
AcDbEntity
  8
0
 62
     7
100
AcDbLine
 10
1145.255981
 20
472.570679
 30
0.0
 11
1145.300537
 21
472.42926
 31
0.0
  0
LINE
  5
318
330
1F
100
AcDbEntity
  8
0
 62
     7
100
AcDbLine
 10
1145.300537
 20
472.42926
 30
0.0
 11
1145.338623
 21
472.299988
 31
0.0
  0
LINE
  5
319
330
1F
100
AcDbEntity
  8
0
 62
     7
100
AcDbLine
 10
1146.647095
 20
472.299988
 30
0.0
 11
1145.338623
 21
472.299988
 31
0.0
  0
ARC
  5
31A
330
1F
100
AcDbEntity
  8
0
 62
     7
100
AcDbCircle
 10
1137.647095
 20
470.099976
 30
0.0
 40
8.0
100
AcDbArc
 50
10.806926
 51
15.962019
  0
LINE
  5
31B
330
1F
100
AcDbEntity
  8
0
 62
     7
100
AcDbLine
 10
1146.647095
 20
471.599976
 30
0.0
 11
1145.505249
 21
471.599976
 31
0.0
  0
LINE
  5
31C
330
1F
100
AcDbEntity
  8
0
 62
     7
100
AcDbLine
 10
1145.505249
 20
471.599976
 30
0.0
 11
1145.528809
 21
471.470703
 31
0.0
  0
LINE
  5
31D
330
1F
100
AcDbEntity
  8
0
 62
     7
100
AcDbLine
 10
1145.528809
 20
471.470703
 30
0.0
 11
1145.552124
 21
471.329285
 31
0.0
  0
LINE
  5
31E
330
1F
100
AcDbEntity
  8
0
 62
     7
100
AcDbLine
 10
1145.552124
 20
471.329285
 30
0.0
 11
1145.571167
 21
471.200012
 31
0.0
  0
LINE
  5
31F
330
1F
100
AcDbEntity
  8
0
 62
     7
100
AcDbLine
 10
1146.647095
 20
471.200012
 30
0.0
 11
1145.571167
 21
471.200012
 31
0.0
  0
ARC
  5
320
330
1F
100
AcDbEntity
  8
0
 62
     7
100
AcDbCircle
 10
1137.647095
 20
470.099976
 30
0.0
 40
8.0
100
AcDbArc
 50
2.865984
 51
7.903208
  0
LINE
  5
321
330
1F
100
AcDbEntity
  8
0
 62
     7
100
AcDbLine
 10
1146.647095
 20
470.5
 30
0.0
 11
1145.637085
 21
470.5
 31
0.0
  0
LINE
  5
322
330
1F
100
AcDbEntity
  8
0
 62
     7
100
AcDbLine
 10
1145.637085
 20
470.5
 30
0.0
 11
1145.642456
 21
470.370728
 31
0.0
  0
LINE
  5
323
330
1F
100
AcDbEntity
  8
0
 62
     7
100
AcDbLine
 10
1145.642456
 20
470.370728
 30
0.0
 11
1145.645996
 21
470.229309
 31
0.0
  0
LINE
  5
324
330
1F
100
AcDbEntity
  8
0
 62
     7
100
AcDbLine
 10
1145.645996
 20
470.229309
 30
0.0
 11
1145.647095
 21
470.099976
 31
0.0
  0
LINE
  5
325
330
1F
100
AcDbEntity
  8
0
 62
     7
100
AcDbLine
 10
1146.647095
 20
470.099976
 30
0.0
 11
1145.647095
 21
470.099976
 31
0.0
  0
LINE
  5
326
330
1F
100
AcDbEntity
  8
0
 62
     7
100
AcDbLine
 10
1146.647095
 20
469.400024
 30
0.0
 11
1145.616455
 21
469.400024
 31
0.0
  0
LINE
  5
327
330
1F
100
AcDbEntity
  8
0
 62
     7
100
AcDbLine
 10
1146.647095
 20
469.0
 30
0.0
 11
1145.571167
 21
469.0
 31
0.0
  0
LINE
  5
328
330
1F
100
AcDbEntity
  8
0
 62
     7
100
AcDbLine
 10
1146.647095
 20
468.299988
 30
0.0
 11
1145.442017
 21
468.299988
 31
0.0
  0
LINE
  5
329
330
1F
100
AcDbEntity
  8
0
 62
     7
100
AcDbLine
 10
1146.647095
 20
467.900024
 30
0.0
 11
1145.338623
 21
467.900024
 31
0.0
  0
LINE
  5
32A
330
1F
100
AcDbEntity
  8
0
 62
     7
100
AcDbLine
 10
1146.647095
 20
467.200012
 30
0.0
 11
1145.102905
 21
467.200012
 31
0.0
  0
LINE
  5
32B
330
1F
100
AcDbEntity
  8
0
 62
     7
100
AcDbLine
 10
1146.647095
 20
466.799988
 30
0.0
 11
1144.934814
 21
466.799988
 31
0.0
  0
LINE
  5
32C
330
1F
100
AcDbEntity
  8
0
 62
     7
100
AcDbLine
 10
1146.647095
 20
466.099976
 30
0.0
 11
1144.575317
 21
466.099976
 31
0.0
  0
LINE
  5
32D
330
1F
100
AcDbEntity
  8
0
 62
     7
100
AcDbLine
 10
1130.718872
 20
466.099976
 30
0.0
 11
1072.297119
 21
466.099976
 31
0.0
  0
LINE
  5
32E
330
1F
100
AcDbEntity
  8
0
 62
     7
100
AcDbLine
 10
1130.359375
 20
466.799988
 30
0.0
 11
1072.297119
 21
466.799988
 31
0.0
  0
LINE
  5
32F
330
1F
100
AcDbEntity
  8
0
 62
     7
100
AcDbLine
 10
1130.191284
 20
467.200012
 30
0.0
 11
1072.297119
 21
467.200012
 31
0.0
  0
LINE
  5
330
330
1F
100
AcDbEntity
  8
0
 62
     7
100
AcDbLine
 10
1129.955566
 20
467.900024
 30
0.0
 11
1072.297119
 21
467.900024
 31
0.0
  0
LINE
  5
331
330
1F
100
AcDbEntity
  8
0
 62
     7
100
AcDbLine
 10
1129.852173
 20
468.299988
 30
0.0
 11
1072.297119
 21
468.299988
 31
0.0
  0
LINE
  5
332
330
1F
100
AcDbEntity
  8
0
 62
     7
100
AcDbLine
 10
1129.723022
 20
469.0
 30
0.0
 11
1072.297119
 21
469.0
 31
0.0
  0
LINE
  5
333
330
1F
100
AcDbEntity
  8
0
 62
     7
100
AcDbLine
 10
1129.677734
 20
469.400024
 30
0.0
 11
1072.297119
 21
469.400024
 31
0.0
  0
LINE
  5
334
330
1F
100
AcDbEntity
  8
0
 62
     7
100
AcDbLine
 10
1129.647095
 20
470.099976
 30
0.0
 11
1072.297119
 21
470.099976
 31
0.0
  0
LINE
  5
335
330
1F
100
AcDbEntity
  8
0
 62
     7
100
AcDbLine
 10
1129.648193
 20
470.229309
 30
0.0
 11
1129.647095
 21
470.099976
 31
0.0
  0
LINE
  5
336
330
1F
100
AcDbEntity
  8
0
 62
     7
100
AcDbLine
 10
1129.651733
 20
470.370728
 30
0.0
 11
1129.648193
 21
470.229309
 31
0.0
  0
LINE
  5
337
330
1F
100
AcDbEntity
  8
0
 62
     7
100
AcDbLine
 10
1129.657104
 20
470.5
 30
0.0
 11
1129.651733
 21
470.370728
 31
0.0
  0
ARC
  5
338
330
1F
100
AcDbEntity
  8
0
 62
     7
100
AcDbCircle
 10
1137.647095
 20
470.099976
 30
0.0
 40
8.0
100
AcDbArc
 50
172.096793
 51
177.134017
  0
LINE
  5
339
330
1F
100
AcDbEntity
  8
0
 62
     7
100
AcDbLine
 10
1129.742065
 20
471.329285
 30
0.0
 11
1129.723022
 21
471.200012
 31
0.0
  0
LINE
  5
33A
330
1F
100
AcDbEntity
  8
0
 62
     7
100
AcDbLine
 10
1129.765381
 20
471.470703
 30
0.0
 11
1129.742065
 21
471.329285
 31
0.0
  0
LINE
  5
33B
330
1F
100
AcDbEntity
  8
0
 62
     7
100
AcDbLine
 10
1129.78894
 20
471.599976
 30
0.0
 11
1129.765381
 21
471.470703
 31
0.0
  0
ARC
  5
33C
330
1F
100
AcDbEntity
  8
0
 62
     7
100
AcDbCircle
 10
1137.647095
 20
470.099976
 30
0.0
 40
8.0
100
AcDbArc
 50
164.03799
 51
169.193075
  0
LINE
  5
33D
330
1F
100
AcDbEntity
  8
0
 62
     7
100
AcDbLine
 10
1129.993652
 20
472.42926
 30
0.0
 11
1129.955566
 21
472.299988
 31
0.0
  0
LINE
  5
33E
330
1F
100
AcDbEntity
  8
0
 62
     7
100
AcDbLine
 10
1130.038208
 20
472.570679
 30
0.0
 11
1129.993652
 21
472.42926
 31
0.0
  0
LINE
  5
33F
330
1F
100
AcDbEntity
  8
0
 62
     7
100
AcDbLine
 10
1130.081421
 20
472.700012
 30
0.0
 11
1130.038208
 21
472.570679
 31
0.0
  0
ARC
  5
340
330
1F
100
AcDbEntity
  8
0
 62
     7
100
AcDbCircle
 10
1137.647095
 20
470.099976
 30
0.0
 40
8.0
100
AcDbArc
 50
155.638018
 51
161.034427
  0
LINE
  5
341
330
1F
100
AcDbEntity
  8
0
 62
     7
100
AcDbLine
 10
1130.419312
 20
473.529297
 30
0.0
 11
1130.359375
 21
473.400024
 31
0.0
  0
LINE
  5
342
330
1F
100
AcDbEntity
  8
0
 62
     7
100
AcDbLine
 10
1130.488159
 20
473.670715
 30
0.0
 11
1130.419312
 21
473.529297
 31
0.0
  0
LINE
  5
343
330
1F
100
AcDbEntity
  8
0
 62
     7
100
AcDbLine
 10
1130.554199
 20
473.799988
 30
0.0
 11
1130.488159
 21
473.670715
 31
0.0
  0
ARC
  5
344
330
1F
100
AcDbEntity
  8
0
 62
     7
100
AcDbCircle
 10
1137.647095
 20
470.099976
 30
0.0
 40
8.0
100
AcDbArc
 50
146.632987
 51
152.451448
  0
LINE
  5
345
330
1F
100
AcDbEntity
  8
0
 62
     7
100
AcDbLine
 10
1131.052734
 20
474.629272
 30
0.0
 11
1130.96582
 21
474.5
 31
0.0
  0
LINE
  5
346
330
1F
100
AcDbEntity
  8
0
 62
     7
100
AcDbLine
 10
1131.1521
 20
474.770691
 30
0.0
 11
1131.052734
 21
474.629272
 31
0.0
  0
LINE
  5
347
330
1F
100
AcDbEntity
  8
0
 62
     7
100
AcDbLine
 10
1131.24707
 20
474.900024
 30
0.0
 11
1131.1521
 21
474.770691
 31
0.0
  0
CIRCLE
  5
348
330
1F
100
AcDbEntity
  8
0
 62
     7
100
AcDbCircle
 10
1137.647095
 20
470.099976
 30
0.0
 40
7.5
  0
LINE
  5
349
330
1F
100
AcDbEntity
  8
0
 62
     7
100
AcDbLine
 10
1072.647095
 20
473.099976
 30
0.0
 11
1072.297119
 21
473.099976
 31
0.0
  0
LINE
  5
34A
330
1F
100
AcDbEntity
  8
0
 62
     7
100
AcDbLine
 10
1130.359375
 20
473.400024
 30
0.0
 11
1073.547119
 21
473.400024
 31
0.0
  0
ARC
  5
34B
330
1F
100
AcDbEntity
  8
0
 62
     7
100
AcDbCircle
 10
1072.647095
 20
474.599976
 30
0.0
 40
1.5
100
AcDbArc
 50
269.999997
 51
314.454478
  0
LINE
  5
34C
330
1F
100
AcDbEntity
  8
0
 62
     7
100
AcDbLine
 10
1130.081421
 20
472.700012
 30
0.0
 11
1072.297119
 21
472.700012
 31
0.0
  0
LINE
  5
34D
330
1F
100
AcDbEntity
  8
0
 62
     7
100
AcDbLine
 10
1129.955566
 20
472.299988
 30
0.0
 11
1072.297119
 21
472.299988
 31
0.0
  0
LINE
  5
34E
330
1F
100
AcDbEntity
  8
0
 62
     7
100
AcDbLine
 10
1129.78894
 20
471.599976
 30
0.0
 11
1072.297119
 21
471.599976
 31
0.0
  0
LINE
  5
34F
330
1F
100
AcDbEntity
  8
0
 62
     7
100
AcDbLine
 10
1129.723022
 20
471.200012
 30
0.0
 11
1072.297119
 21
471.200012
 31
0.0
  0
LINE
  5
350
330
1F
100
AcDbEntity
  8
0
 62
     7
100
AcDbLine
 10
1129.657104
 20
470.5
 30
0.0
 11
1072.297119
 21
470.5
 31
0.0
  0
LINE
  5
351
330
1F
100
AcDbEntity
  8
0
 62
     7
100
AcDbLine
 10
1071.297119
 20
473.400024
 30
0.0
 11
1068.99707
 21
473.400024
 31
0.0
  0
LINE
  5
352
330
1F
100
AcDbEntity
  8
0
 62
     7
100
AcDbLine
 10
1071.297119
 20
472.700012
 30
0.0
 11
1068.99707
 21
472.700012
 31
0.0
  0
ARC
  5
353
330
1F
100
AcDbEntity
  8
0
 62
     7
100
AcDbCircle
 10
1068.49707
 20
473.599976
 30
0.0
 40
0.5
100
AcDbArc
 50
0.00001
 51
8.130103
  0
ARC
  5
354
330
1F
100
AcDbEntity
  8
0
 62
     7
100
AcDbCircle
 10
1071.797119
 20
473.599976
 30
0.0
 40
0.5
100
AcDbArc
 50
171.869894
 51
180.000009
  0
ARC
  5
355
330
1F
100
AcDbEntity
  8
0
 62
     7
100
AcDbCircle
 10
1071.797119
 20
473.599976
 30
0.0
 40
0.5
100
AcDbArc
 50
90.000003
 51
171.869894
  0
LINE
  5
356
330
1F
100
AcDbEntity
  8
0
 62
     7
100
AcDbLine
 10
1071.297119
 20
466.099976
 30
0.0
 11
1068.99707
 21
466.099976
 31
0.0
  0
LINE
  5
357
330
1F
100
AcDbEntity
  8
0
 62
     7
100
AcDbLine
 10
1071.297119
 20
466.799988
 30
0.0
 11
1068.99707
 21
466.799988
 31
0.0
  0
LINE
  5
358
330
1F
100
AcDbEntity
  8
0
 62
     7
100
AcDbLine
 10
1071.297119
 20
467.200012
 30
0.0
 11
1068.99707
 21
467.200012
 31
0.0
  0
LINE
  5
359
330
1F
100
AcDbEntity
  8
0
 62
     7
100
AcDbLine
 10
1071.297119
 20
467.900024
 30
0.0
 11
1068.99707
 21
467.900024
 31
0.0
  0
LINE
  5
35A
330
1F
100
AcDbEntity
  8
0
 62
     7
100
AcDbLine
 10
1071.297119
 20
468.299988
 30
0.0
 11
1068.99707
 21
468.299988
 31
0.0
  0
LINE
  5
35B
330
1F
100
AcDbEntity
  8
0
 62
     7
100
AcDbLine
 10
1071.297119
 20
469.0
 30
0.0
 11
1068.99707
 21
469.0
 31
0.0
  0
LINE
  5
35C
330
1F
100
AcDbEntity
  8
0
 62
     7
100
AcDbLine
 10
1071.297119
 20
469.400024
 30
0.0
 11
1068.99707
 21
469.400024
 31
0.0
  0
LINE
  5
35D
330
1F
100
AcDbEntity
  8
0
 62
     7
100
AcDbLine
 10
1071.297119
 20
470.099976
 30
0.0
 11
1068.99707
 21
470.099976
 31
0.0
  0
LINE
  5
35E
330
1F
100
AcDbEntity
  8
0
 62
     7
100
AcDbLine
 10
1071.297119
 20
470.5
 30
0.0
 11
1068.99707
 21
470.5
 31
0.0
  0
LINE
  5
35F
330
1F
100
AcDbEntity
  8
0
 62
     7
100
AcDbLine
 10
1071.297119
 20
471.200012
 30
0.0
 11
1068.99707
 21
471.200012
 31
0.0
  0
LINE
  5
360
330
1F
100
AcDbEntity
  8
0
 62
     7
100
AcDbLine
 10
1071.297119
 20
471.599976
 30
0.0
 11
1068.99707
 21
471.599976
 31
0.0
  0
LINE
  5
361
330
1F
100
AcDbEntity
  8
0
 62
     7
100
AcDbLine
 10
1071.297119
 20
472.299988
 30
0.0
 11
1068.99707
 21
472.299988
 31
0.0
  0
ARC
  5
362
330
1F
100
AcDbEntity
  8
0
 62
     7
100
AcDbCircle
 10
1068.49707
 20
473.599976
 30
0.0
 40
0.5
100
AcDbArc
 50
8.130103
 51
90.000003
  0
LINE
  5
363
330
1F
100
AcDbEntity
  8
0
 62
     7
100
AcDbLine
 10
1067.99707
 20
472.299988
 30
0.0
 11
772.297058
 21
472.299988
 31
0.0
  0
LINE
  5
364
330
1F
100
AcDbEntity
  8
0
 62
     7
100
AcDbLine
 10
1067.99707
 20
472.700012
 30
0.0
 11
772.297058
 21
472.700012
 31
0.0
  0
LINE
  5
365
330
1F
100
AcDbEntity
  8
0
 62
     7
100
AcDbLine
 10
1066.74707
 20
473.400024
 30
0.0
 11
773.547058
 21
473.400024
 31
0.0
  0
ARC
  5
366
330
1F
100
AcDbEntity
  8
0
 62
     7
100
AcDbCircle
 10
772.647034
 20
474.599976
 30
0.0
 40
1.5
100
AcDbArc
 50
269.999997
 51
314.454478
  0
LINE
  5
367
330
1F
100
AcDbEntity
  8
0
 62
     7
100
AcDbLine
 10
772.647034
 20
473.099976
 30
0.0
 11
772.297058
 21
473.099976
 31
0.0
  0
LINE
  5
368
330
1F
100
AcDbEntity
  8
0
 62
     7
100
AcDbLine
 10
1067.99707
 20
473.099976
 30
0.0
 11
1067.647095
 21
473.099976
 31
0.0
  0
ARC
  5
369
330
1F
100
AcDbEntity
  8
0
 62
     7
100
AcDbCircle
 10
1067.647095
 20
474.599976
 30
0.0
 40
1.5
100
AcDbArc
 50
212.230947
 51
269.999997
  0
LINE
  5
36A
330
1F
100
AcDbEntity
  8
0
 62
     7
100
AcDbLine
 10
1067.99707
 20
466.099976
 30
0.0
 11
772.297058
 21
466.099976
 31
0.0
  0
LINE
  5
36B
330
1F
100
AcDbEntity
  8
0
 62
     7
100
AcDbLine
 10
1067.99707
 20
466.799988
 30
0.0
 11
772.297058
 21
466.799988
 31
0.0
  0
LINE
  5
36C
330
1F
100
AcDbEntity
  8
0
 62
     7
100
AcDbLine
 10
1067.99707
 20
467.200012
 30
0.0
 11
772.297058
 21
467.200012
 31
0.0
  0
LINE
  5
36D
330
1F
100
AcDbEntity
  8
0
 62
     7
100
AcDbLine
 10
1067.99707
 20
467.900024
 30
0.0
 11
772.297058
 21
467.900024
 31
0.0
  0
LINE
  5
36E
330
1F
100
AcDbEntity
  8
0
 62
     7
100
AcDbLine
 10
1067.99707
 20
468.299988
 30
0.0
 11
772.297058
 21
468.299988
 31
0.0
  0
LINE
  5
36F
330
1F
100
AcDbEntity
  8
0
 62
     7
100
AcDbLine
 10
1067.99707
 20
469.0
 30
0.0
 11
772.297058
 21
469.0
 31
0.0
  0
LINE
  5
370
330
1F
100
AcDbEntity
  8
0
 62
     7
100
AcDbLine
 10
1067.99707
 20
469.400024
 30
0.0
 11
772.297058
 21
469.400024
 31
0.0
  0
LINE
  5
371
330
1F
100
AcDbEntity
  8
0
 62
     7
100
AcDbLine
 10
1067.99707
 20
470.099976
 30
0.0
 11
772.297058
 21
470.099976
 31
0.0
  0
LINE
  5
372
330
1F
100
AcDbEntity
  8
0
 62
     7
100
AcDbLine
 10
1067.99707
 20
470.5
 30
0.0
 11
772.297058
 21
470.5
 31
0.0
  0
LINE
  5
373
330
1F
100
AcDbEntity
  8
0
 62
     7
100
AcDbLine
 10
1067.99707
 20
471.200012
 30
0.0
 11
772.297058
 21
471.200012
 31
0.0
  0
LINE
  5
374
330
1F
100
AcDbEntity
  8
0
 62
     7
100
AcDbLine
 10
1067.99707
 20
471.599976
 30
0.0
 11
772.297058
 21
471.599976
 31
0.0
  0
LINE
  5
375
330
1F
100
AcDbEntity
  8
0
 62
     7
100
AcDbLine
 10
771.297058
 20
473.400024
 30
0.0
 11
768.997009
 21
473.400024
 31
0.0
  0
LINE
  5
376
330
1F
100
AcDbEntity
  8
0
 62
     7
100
AcDbLine
 10
771.297058
 20
472.700012
 30
0.0
 11
768.997009
 21
472.700012
 31
0.0
  0
ARC
  5
377
330
1F
100
AcDbEntity
  8
0
 62
     7
100
AcDbCircle
 10
771.797058
 20
473.599976
 30
0.0
 40
0.5
100
AcDbArc
 50
171.869894
 51
180.000009
  0
ARC
  5
378
330
1F
100
AcDbEntity
  8
0
 62
     7
100
AcDbCircle
 10
768.497009
 20
473.599976
 30
0.0
 40
0.5
100
AcDbArc
 50
0.00001
 51
8.130103
  0
ARC
  5
379
330
1F
100
AcDbEntity
  8
0
 62
     7
100
AcDbCircle
 10
771.797058
 20
473.599976
 30
0.0
 40
0.5
100
AcDbArc
 50
90.000003
 51
171.869894
  0
LINE
  5
37A
330
1F
100
AcDbEntity
  8
0
 62
     7
100
AcDbLine
 10
771.297058
 20
466.099976
 30
0.0
 11
768.997009
 21
466.099976
 31
0.0
  0
LINE
  5
37B
330
1F
100
AcDbEntity
  8
0
 62
     7
100
AcDbLine
 10
771.297058
 20
466.799988
 30
0.0
 11
768.997009
 21
466.799988
 31
0.0
  0
LINE
  5
37C
330
1F
100
AcDbEntity
  8
0
 62
     7
100
AcDbLine
 10
771.297058
 20
467.200012
 30
0.0
 11
768.997009
 21
467.200012
 31
0.0
  0
LINE
  5
37D
330
1F
100
AcDbEntity
  8
0
 62
     7
100
AcDbLine
 10
771.297058
 20
467.900024
 30
0.0
 11
768.997009
 21
467.900024
 31
0.0
  0
LINE
  5
37E
330
1F
100
AcDbEntity
  8
0
 62
     7
100
AcDbLine
 10
771.297058
 20
468.299988
 30
0.0
 11
768.997009
 21
468.299988
 31
0.0
  0
LINE
  5
37F
330
1F
100
AcDbEntity
  8
0
 62
     7
100
AcDbLine
 10
771.297058
 20
469.0
 30
0.0
 11
768.997009
 21
469.0
 31
0.0
  0
LINE
  5
380
330
1F
100
AcDbEntity
  8
0
 62
     7
100
AcDbLine
 10
771.297058
 20
469.400024
 30
0.0
 11
768.997009
 21
469.400024
 31
0.0
  0
LINE
  5
381
330
1F
100
AcDbEntity
  8
0
 62
     7
100
AcDbLine
 10
771.297058
 20
470.099976
 30
0.0
 11
768.997009
 21
470.099976
 31
0.0
  0
LINE
  5
382
330
1F
100
AcDbEntity
  8
0
 62
     7
100
AcDbLine
 10
771.297058
 20
470.5
 30
0.0
 11
768.997009
 21
470.5
 31
0.0
  0
LINE
  5
383
330
1F
100
AcDbEntity
  8
0
 62
     7
100
AcDbLine
 10
771.297058
 20
471.200012
 30
0.0
 11
768.997009
 21
471.200012
 31
0.0
  0
LINE
  5
384
330
1F
100
AcDbEntity
  8
0
 62
     7
100
AcDbLine
 10
771.297058
 20
471.599976
 30
0.0
 11
768.997009
 21
471.599976
 31
0.0
  0
LINE
  5
385
330
1F
100
AcDbEntity
  8
0
 62
     7
100
AcDbLine
 10
771.297058
 20
472.299988
 30
0.0
 11
768.997009
 21
472.299988
 31
0.0
  0
ARC
  5
386
330
1F
100
AcDbEntity
  8
0
 62
     7
100
AcDbCircle
 10
768.497009
 20
473.599976
 30
0.0
 40
0.5
100
AcDbArc
 50
8.130103
 51
90.000003
  0
LINE
  5
387
330
1F
100
AcDbEntity
  8
0
 62
     7
100
AcDbLine
 10
767.997009
 20
472.299988
 30
0.0
 11
472.296997
 21
472.299988
 31
0.0
  0
LINE
  5
388
330
1F
100
AcDbEntity
  8
0
 62
     7
100
AcDbLine
 10
767.997009
 20
472.700012
 30
0.0
 11
472.296997
 21
472.700012
 31
0.0
  0
LINE
  5
389
330
1F
100
AcDbEntity
  8
0
 62
     7
100
AcDbLine
 10
767.997009
 20
473.099976
 30
0.0
 11
767.647034
 21
473.099976
 31
0.0
  0
ARC
  5
38A
330
1F
100
AcDbEntity
  8
0
 62
     7
100
AcDbCircle
 10
767.647034
 20
474.599976
 30
0.0
 40
1.5
100
AcDbArc
 50
212.230947
 51
269.999997
  0
LINE
  5
38B
330
1F
100
AcDbEntity
  8
0
 62
     7
100
AcDbLine
 10
766.747009
 20
473.400024
 30
0.0
 11
473.546997
 21
473.400024
 31
0.0
  0
ARC
  5
38C
330
1F
100
AcDbEntity
  8
0
 62
     7
100
AcDbCircle
 10
472.647003
 20
474.599976
 30
0.0
 40
1.5
100
AcDbArc
 50
269.999997
 51
314.454478
  0
LINE
  5
38D
330
1F
100
AcDbEntity
  8
0
 62
     7
100
AcDbLine
 10
472.647003
 20
473.099976
 30
0.0
 11
472.296997
 21
473.099976
 31
0.0
  0
LINE
  5
38E
330
1F
100
AcDbEntity
  8
0
 62
     7
100
AcDbLine
 10
767.997009
 20
466.099976
 30
0.0
 11
472.296997
 21
466.099976
 31
0.0
  0
LINE
  5
38F
330
1F
100
AcDbEntity
  8
0
 62
     7
100
AcDbLine
 10
767.997009
 20
466.799988
 30
0.0
 11
472.296997
 21
466.799988
 31
0.0
  0
LINE
  5
390
330
1F
100
AcDbEntity
  8
0
 62
     7
100
AcDbLine
 10
767.997009
 20
467.200012
 30
0.0
 11
472.296997
 21
467.200012
 31
0.0
  0
LINE
  5
391
330
1F
100
AcDbEntity
  8
0
 62
     7
100
AcDbLine
 10
767.997009
 20
467.900024
 30
0.0
 11
472.296997
 21
467.900024
 31
0.0
  0
LINE
  5
392
330
1F
100
AcDbEntity
  8
0
 62
     7
100
AcDbLine
 10
767.997009
 20
468.299988
 30
0.0
 11
472.296997
 21
468.299988
 31
0.0
  0
LINE
  5
393
330
1F
100
AcDbEntity
  8
0
 62
     7
100
AcDbLine
 10
767.997009
 20
469.0
 30
0.0
 11
472.296997
 21
469.0
 31
0.0
  0
LINE
  5
394
330
1F
100
AcDbEntity
  8
0
 62
     7
100
AcDbLine
 10
767.997009
 20
469.400024
 30
0.0
 11
472.296997
 21
469.400024
 31
0.0
  0
LINE
  5
395
330
1F
100
AcDbEntity
  8
0
 62
     7
100
AcDbLine
 10
767.997009
 20
470.099976
 30
0.0
 11
472.296997
 21
470.099976
 31
0.0
  0
LINE
  5
396
330
1F
100
AcDbEntity
  8
0
 62
     7
100
AcDbLine
 10
767.997009
 20
470.5
 30
0.0
 11
472.296997
 21
470.5
 31
0.0
  0
LINE
  5
397
330
1F
100
AcDbEntity
  8
0
 62
     7
100
AcDbLine
 10
767.997009
 20
471.200012
 30
0.0
 11
472.296997
 21
471.200012
 31
0.0
  0
LINE
  5
398
330
1F
100
AcDbEntity
  8
0
 62
     7
100
AcDbLine
 10
767.997009
 20
471.599976
 30
0.0
 11
472.296997
 21
471.599976
 31
0.0
  0
LINE
  5
399
330
1F
100
AcDbEntity
  8
0
 62
     7
100
AcDbLine
 10
471.296997
 20
472.700012
 30
0.0
 11
468.997009
 21
472.700012
 31
0.0
  0
LINE
  5
39A
330
1F
100
AcDbEntity
  8
0
 62
     7
100
AcDbLine
 10
471.296997
 20
473.400024
 30
0.0
 11
468.997009
 21
473.400024
 31
0.0
  0
ARC
  5
39B
330
1F
100
AcDbEntity
  8
0
 62
     7
100
AcDbCircle
 10
471.796997
 20
473.599976
 30
0.0
 40
0.5
100
AcDbArc
 50
171.869894
 51
180.000009
  0
ARC
  5
39C
330
1F
100
AcDbEntity
  8
0
 62
     7
100
AcDbCircle
 10
468.497009
 20
473.599976
 30
0.0
 40
0.5
100
AcDbArc
 50
0.00001
 51
8.130103
  0
ARC
  5
39D
330
1F
100
AcDbEntity
  8
0
 62
     7
100
AcDbCircle
 10
471.796997
 20
473.599976
 30
0.0
 40
0.5
100
AcDbArc
 50
90.000003
 51
171.869894
  0
LINE
  5
39E
330
1F
100
AcDbEntity
  8
0
 62
     7
100
AcDbLine
 10
471.296997
 20
466.099976
 30
0.0
 11
468.997009
 21
466.099976
 31
0.0
  0
LINE
  5
39F
330
1F
100
AcDbEntity
  8
0
 62
     7
100
AcDbLine
 10
471.296997
 20
466.799988
 30
0.0
 11
468.997009
 21
466.799988
 31
0.0
  0
LINE
  5
3A0
330
1F
100
AcDbEntity
  8
0
 62
     7
100
AcDbLine
 10
471.296997
 20
467.200012
 30
0.0
 11
468.997009
 21
467.200012
 31
0.0
  0
LINE
  5
3A1
330
1F
100
AcDbEntity
  8
0
 62
     7
100
AcDbLine
 10
471.296997
 20
467.900024
 30
0.0
 11
468.997009
 21
467.900024
 31
0.0
  0
LINE
  5
3A2
330
1F
100
AcDbEntity
  8
0
 62
     7
100
AcDbLine
 10
471.296997
 20
468.299988
 30
0.0
 11
468.997009
 21
468.299988
 31
0.0
  0
LINE
  5
3A3
330
1F
100
AcDbEntity
  8
0
 62
     7
100
AcDbLine
 10
471.296997
 20
469.0
 30
0.0
 11
468.997009
 21
469.0
 31
0.0
  0
LINE
  5
3A4
330
1F
100
AcDbEntity
  8
0
 62
     7
100
AcDbLine
 10
471.296997
 20
469.400024
 30
0.0
 11
468.997009
 21
469.400024
 31
0.0
  0
LINE
  5
3A5
330
1F
100
AcDbEntity
  8
0
 62
     7
100
AcDbLine
 10
471.296997
 20
470.099976
 30
0.0
 11
468.997009
 21
470.099976
 31
0.0
  0
LINE
  5
3A6
330
1F
100
AcDbEntity
  8
0
 62
     7
100
AcDbLine
 10
471.296997
 20
470.5
 30
0.0
 11
468.997009
 21
470.5
 31
0.0
  0
LINE
  5
3A7
330
1F
100
AcDbEntity
  8
0
 62
     7
100
AcDbLine
 10
471.296997
 20
471.200012
 30
0.0
 11
468.997009
 21
471.200012
 31
0.0
  0
LINE
  5
3A8
330
1F
100
AcDbEntity
  8
0
 62
     7
100
AcDbLine
 10
471.296997
 20
471.599976
 30
0.0
 11
468.997009
 21
471.599976
 31
0.0
  0
LINE
  5
3A9
330
1F
100
AcDbEntity
  8
0
 62
     7
100
AcDbLine
 10
471.296997
 20
472.299988
 30
0.0
 11
468.997009
 21
472.299988
 31
0.0
  0
ARC
  5
3AA
330
1F
100
AcDbEntity
  8
0
 62
     7
100
AcDbCircle
 10
468.497009
 20
473.599976
 30
0.0
 40
0.5
100
AcDbArc
 50
8.130103
 51
90.000003
  0
LINE
  5
3AB
330
1F
100
AcDbEntity
  8
0
 62
     7
100
AcDbLine
 10
467.997009
 20
472.299988
 30
0.0
 11
172.296997
 21
472.299988
 31
0.0
  0
LINE
  5
3AC
330
1F
100
AcDbEntity
  8
0
 62
     7
100
AcDbLine
 10
467.997009
 20
472.700012
 30
0.0
 11
172.296997
 21
472.700012
 31
0.0
  0
LINE
  5
3AD
330
1F
100
AcDbEntity
  8
0
 62
     7
100
AcDbLine
 10
466.747009
 20
473.400024
 30
0.0
 11
173.546997
 21
473.400024
 31
0.0
  0
ARC
  5
3AE
330
1F
100
AcDbEntity
  8
0
 62
     7
100
AcDbCircle
 10
172.647003
 20
474.599976
 30
0.0
 40
1.5
100
AcDbArc
 50
269.999997
 51
314.454478
  0
LINE
  5
3AF
330
1F
100
AcDbEntity
  8
0
 62
     7
100
AcDbLine
 10
172.647003
 20
473.099976
 30
0.0
 11
172.296997
 21
473.099976
 31
0.0
  0
LINE
  5
3B0
330
1F
100
AcDbEntity
  8
0
 62
     7
100
AcDbLine
 10
467.997009
 20
473.099976
 30
0.0
 11
467.647003
 21
473.099976
 31
0.0
  0
ARC
  5
3B1
330
1F
100
AcDbEntity
  8
0
 62
     7
100
AcDbCircle
 10
467.647003
 20
474.599976
 30
0.0
 40
1.5
100
AcDbArc
 50
212.230947
 51
269.999997
  0
LINE
  5
3B2
330
1F
100
AcDbEntity
  8
0
 62
     7
100
AcDbLine
 10
467.997009
 20
466.099976
 30
0.0
 11
172.296997
 21
466.099976
 31
0.0
  0
LINE
  5
3B3
330
1F
100
AcDbEntity
  8
0
 62
     7
100
AcDbLine
 10
467.997009
 20
466.799988
 30
0.0
 11
172.296997
 21
466.799988
 31
0.0
  0
LINE
  5
3B4
330
1F
100
AcDbEntity
  8
0
 62
     7
100
AcDbLine
 10
467.997009
 20
467.200012
 30
0.0
 11
172.296997
 21
467.200012
 31
0.0
  0
LINE
  5
3B5
330
1F
100
AcDbEntity
  8
0
 62
     7
100
AcDbLine
 10
467.997009
 20
467.900024
 30
0.0
 11
172.296997
 21
467.900024
 31
0.0
  0
LINE
  5
3B6
330
1F
100
AcDbEntity
  8
0
 62
     7
100
AcDbLine
 10
467.997009
 20
468.299988
 30
0.0
 11
172.296997
 21
468.299988
 31
0.0
  0
LINE
  5
3B7
330
1F
100
AcDbEntity
  8
0
 62
     7
100
AcDbLine
 10
467.997009
 20
469.0
 30
0.0
 11
172.296997
 21
469.0
 31
0.0
  0
LINE
  5
3B8
330
1F
100
AcDbEntity
  8
0
 62
     7
100
AcDbLine
 10
467.997009
 20
469.400024
 30
0.0
 11
172.296997
 21
469.400024
 31
0.0
  0
LINE
  5
3B9
330
1F
100
AcDbEntity
  8
0
 62
     7
100
AcDbLine
 10
467.997009
 20
470.099976
 30
0.0
 11
172.296997
 21
470.099976
 31
0.0
  0
LINE
  5
3BA
330
1F
100
AcDbEntity
  8
0
 62
     7
100
AcDbLine
 10
467.997009
 20
470.5
 30
0.0
 11
172.296997
 21
470.5
 31
0.0
  0
LINE
  5
3BB
330
1F
100
AcDbEntity
  8
0
 62
     7
100
AcDbLine
 10
467.997009
 20
471.200012
 30
0.0
 11
172.296997
 21
471.200012
 31
0.0
  0
LINE
  5
3BC
330
1F
100
AcDbEntity
  8
0
 62
     7
100
AcDbLine
 10
467.997009
 20
471.599976
 30
0.0
 11
172.296997
 21
471.599976
 31
0.0
  0
LINE
  5
3BD
330
1F
100
AcDbEntity
  8
0
 62
     7
100
AcDbLine
 10
171.296997
 20
472.700012
 30
0.0
 11
168.996979
 21
472.700012
 31
0.0
  0
LINE
  5
3BE
330
1F
100
AcDbEntity
  8
0
 62
     7
100
AcDbLine
 10
171.296997
 20
473.400024
 30
0.0
 11
168.996979
 21
473.400024
 31
0.0
  0
ARC
  5
3BF
330
1F
100
AcDbEntity
  8
0
 62
     7
100
AcDbCircle
 10
171.796997
 20
473.599976
 30
0.0
 40
0.5
100
AcDbArc
 50
171.869894
 51
180.000009
  0
ARC
  5
3C0
330
1F
100
AcDbEntity
  8
0
 62
     7
100
AcDbCircle
 10
168.496979
 20
473.599976
 30
0.0
 40
0.5
100
AcDbArc
 50
0.00001
 51
8.130103
  0
ARC
  5
3C1
330
1F
100
AcDbEntity
  8
0
 62
     7
100
AcDbCircle
 10
171.796997
 20
473.599976
 30
0.0
 40
0.5
100
AcDbArc
 50
90.000003
 51
171.869894
  0
LINE
  5
3C2
330
1F
100
AcDbEntity
  8
0
 62
     7
100
AcDbLine
 10
171.296997
 20
466.099976
 30
0.0
 11
168.996979
 21
466.099976
 31
0.0
  0
LINE
  5
3C3
330
1F
100
AcDbEntity
  8
0
 62
     7
100
AcDbLine
 10
171.296997
 20
466.799988
 30
0.0
 11
168.996979
 21
466.799988
 31
0.0
  0
LINE
  5
3C4
330
1F
100
AcDbEntity
  8
0
 62
     7
100
AcDbLine
 10
171.296997
 20
467.200012
 30
0.0
 11
168.996979
 21
467.200012
 31
0.0
  0
LINE
  5
3C5
330
1F
100
AcDbEntity
  8
0
 62
     7
100
AcDbLine
 10
171.296997
 20
467.900024
 30
0.0
 11
168.996979
 21
467.900024
 31
0.0
  0
LINE
  5
3C6
330
1F
100
AcDbEntity
  8
0
 62
     7
100
AcDbLine
 10
171.296997
 20
468.299988
 30
0.0
 11
168.996979
 21
468.299988
 31
0.0
  0
LINE
  5
3C7
330
1F
100
AcDbEntity
  8
0
 62
     7
100
AcDbLine
 10
171.296997
 20
469.0
 30
0.0
 11
168.996979
 21
469.0
 31
0.0
  0
LINE
  5
3C8
330
1F
100
AcDbEntity
  8
0
 62
     7
100
AcDbLine
 10
171.296997
 20
469.400024
 30
0.0
 11
168.996979
 21
469.400024
 31
0.0
  0
LINE
  5
3C9
330
1F
100
AcDbEntity
  8
0
 62
     7
100
AcDbLine
 10
171.296997
 20
470.099976
 30
0.0
 11
168.996979
 21
470.099976
 31
0.0
  0
LINE
  5
3CA
330
1F
100
AcDbEntity
  8
0
 62
     7
100
AcDbLine
 10
171.296997
 20
470.5
 30
0.0
 11
168.996979
 21
470.5
 31
0.0
  0
LINE
  5
3CB
330
1F
100
AcDbEntity
  8
0
 62
     7
100
AcDbLine
 10
171.296997
 20
471.200012
 30
0.0
 11
168.996979
 21
471.200012
 31
0.0
  0
LINE
  5
3CC
330
1F
100
AcDbEntity
  8
0
 62
     7
100
AcDbLine
 10
171.296997
 20
471.599976
 30
0.0
 11
168.996979
 21
471.599976
 31
0.0
  0
LINE
  5
3CD
330
1F
100
AcDbEntity
  8
0
 62
     7
100
AcDbLine
 10
171.296997
 20
472.299988
 30
0.0
 11
168.996979
 21
472.299988
 31
0.0
  0
ARC
  5
3CE
330
1F
100
AcDbEntity
  8
0
 62
     7
100
AcDbCircle
 10
168.496979
 20
473.599976
 30
0.0
 40
0.5
100
AcDbArc
 50
8.130103
 51
90.000003
  0
LINE
  5
3CF
330
1F
100
AcDbEntity
  8
0
 62
     7
100
AcDbLine
 10
110.300385
 20
472.42926
 30
0.0
 11
110.338547
 21
472.299988
 31
0.0
  0
LINE
  5
3D0
330
1F
100
AcDbEntity
  8
0
 62
     7
100
AcDbLine
 10
167.996979
 20
472.299988
 30
0.0
 11
110.338547
 21
472.299988
 31
0.0
  0
LINE
  5
3D1
330
1F
100
AcDbEntity
  8
0
 62
     7
100
AcDbLine
 10
110.25592
 20
472.570679
 30
0.0
 11
110.300385
 21
472.42926
 31
0.0
  0
LINE
  5
3D2
330
1F
100
AcDbEntity
  8
0
 62
     7
100
AcDbLine
 10
110.212708
 20
472.700012
 30
0.0
 11
110.25592
 21
472.570679
 31
0.0
  0
LINE
  5
3D3
330
1F
100
AcDbEntity
  8
0
 62
     7
100
AcDbLine
 10
167.996979
 20
472.700012
 30
0.0
 11
110.212708
 21
472.700012
 31
0.0
  0
ARC
  5
3D4
330
1F
100
AcDbEntity
  8
0
 62
     7
100
AcDbCircle
 10
102.647003
 20
470.099976
 30
0.0
 40
8.0
100
AcDbArc
 50
18.965574
 51
24.361978
  0
LINE
  5
3D5
330
1F
100
AcDbEntity
  8
0
 62
     7
100
AcDbLine
 10
167.996979
 20
473.099976
 30
0.0
 11
167.647003
 21
473.099976
 31
0.0
  0
ARC
  5
3D6
330
1F
100
AcDbEntity
  8
0
 62
     7
100
AcDbCircle
 10
167.647003
 20
474.599976
 30
0.0
 40
1.5
100
AcDbArc
 50
212.230947
 51
269.999997
  0
LINE
  5
3D7
330
1F
100
AcDbEntity
  8
0
 62
     7
100
AcDbLine
 10
166.746979
 20
473.400024
 30
0.0
 11
109.934662
 21
473.400024
 31
0.0
  0
LINE
  5
3D8
330
1F
100
AcDbEntity
  8
0
 62
     7
100
AcDbLine
 10
167.996979
 20
466.099976
 30
0.0
 11
109.575195
 21
466.099976
 31
0.0
  0
LINE
  5
3D9
330
1F
100
AcDbEntity
  8
0
 62
     7
100
AcDbLine
 10
167.996979
 20
466.799988
 30
0.0
 11
109.934662
 21
466.799988
 31
0.0
  0
LINE
  5
3DA
330
1F
100
AcDbEntity
  8
0
 62
     7
100
AcDbLine
 10
167.996979
 20
467.200012
 30
0.0
 11
110.102875
 21
467.200012
 31
0.0
  0
LINE
  5
3DB
330
1F
100
AcDbEntity
  8
0
 62
     7
100
AcDbLine
 10
167.996979
 20
467.900024
 30
0.0
 11
110.338547
 21
467.900024
 31
0.0
  0
LINE
  5
3DC
330
1F
100
AcDbEntity
  8
0
 62
     7
100
AcDbLine
 10
167.996979
 20
468.299988
 30
0.0
 11
110.441864
 21
468.299988
 31
0.0
  0
LINE
  5
3DD
330
1F
100
AcDbEntity
  8
0
 62
     7
100
AcDbLine
 10
167.996979
 20
469.0
 30
0.0
 11
110.571014
 21
469.0
 31
0.0
  0
LINE
  5
3DE
330
1F
100
AcDbEntity
  8
0
 62
     7
100
AcDbLine
 10
167.996979
 20
469.400024
 30
0.0
 11
110.616318
 21
469.400024
 31
0.0
  0
LINE
  5
3DF
330
1F
100
AcDbEntity
  8
0
 62
     7
100
AcDbLine
 10
167.996979
 20
470.099976
 30
0.0
 11
110.647003
 21
470.099976
 31
0.0
  0
LINE
  5
3E0
330
1F
100
AcDbEntity
  8
0
 62
     7
100
AcDbLine
 10
110.64595
 20
470.229309
 30
0.0
 11
110.647003
 21
470.099976
 31
0.0
  0
LINE
  5
3E1
330
1F
100
AcDbEntity
  8
0
 62
     7
100
AcDbLine
 10
110.64241
 20
470.370728
 30
0.0
 11
110.64595
 21
470.229309
 31
0.0
  0
LINE
  5
3E2
330
1F
100
AcDbEntity
  8
0
 62
     7
100
AcDbLine
 10
110.636993
 20
470.5
 30
0.0
 11
110.64241
 21
470.370728
 31
0.0
  0
LINE
  5
3E3
330
1F
100
AcDbEntity
  8
0
 62
     7
100
AcDbLine
 10
167.996979
 20
470.5
 30
0.0
 11
110.636993
 21
470.5
 31
0.0
  0
ARC
  5
3E4
330
1F
100
AcDbEntity
  8
0
 62
     7
100
AcDbCircle
 10
102.647003
 20
470.099976
 30
0.0
 40
8.0
100
AcDbArc
 50
2.865984
 51
7.903208
  0
LINE
  5
3E5
330
1F
100
AcDbEntity
  8
0
 62
     7
100
AcDbLine
 10
167.996979
 20
471.200012
 30
0.0
 11
110.571014
 21
471.200012
 31
0.0
  0
LINE
  5
3E6
330
1F
100
AcDbEntity
  8
0
 62
     7
100
AcDbLine
 10
110.551987
 20
471.329285
 30
0.0
 11
110.571014
 21
471.200012
 31
0.0
  0
LINE
  5
3E7
330
1F
100
AcDbEntity
  8
0
 62
     7
100
AcDbLine
 10
110.528702
 20
471.470703
 30
0.0
 11
110.551987
 21
471.329285
 31
0.0
  0
LINE
  5
3E8
330
1F
100
AcDbEntity
  8
0
 62
     7
100
AcDbLine
 10
110.505112
 20
471.599976
 30
0.0
 11
110.528702
 21
471.470703
 31
0.0
  0
LINE
  5
3E9
330
1F
100
AcDbEntity
  8
0
 62
     7
100
AcDbLine
 10
167.996979
 20
471.599976
 30
0.0
 11
110.505112
 21
471.599976
 31
0.0
  0
ARC
  5
3EA
330
1F
100
AcDbEntity
  8
0
 62
     7
100
AcDbCircle
 10
102.647003
 20
470.099976
 30
0.0
 40
8.0
100
AcDbArc
 50
10.806926
 51
15.962019
  0
LINE
  5
3EB
330
1F
100
AcDbEntity
  8
0
 62
     7
100
AcDbLine
 10
95.718796
 20
466.099976
 30
0.0
 11
93.647003
 21
466.099976
 31
0.0
  0
LINE
  5
3EC
330
1F
100
AcDbEntity
  8
0
 62
     7
100
AcDbLine
 10
95.359344
 20
466.799988
 30
0.0
 11
93.647003
 21
466.799988
 31
0.0
  0
LINE
  5
3ED
330
1F
100
AcDbEntity
  8
0
 62
     7
100
AcDbLine
 10
95.191132
 20
467.200012
 30
0.0
 11
93.647003
 21
467.200012
 31
0.0
  0
LINE
  5
3EE
330
1F
100
AcDbEntity
  8
0
 62
     7
100
AcDbLine
 10
94.955444
 20
467.900024
 30
0.0
 11
93.647003
 21
467.900024
 31
0.0
  0
LINE
  5
3EF
330
1F
100
AcDbEntity
  8
0
 62
     7
100
AcDbLine
 10
94.852127
 20
468.299988
 30
0.0
 11
93.647003
 21
468.299988
 31
0.0
  0
LINE
  5
3F0
330
1F
100
AcDbEntity
  8
0
 62
     7
100
AcDbLine
 10
94.722992
 20
469.0
 30
0.0
 11
93.647003
 21
469.0
 31
0.0
  0
LINE
  5
3F1
330
1F
100
AcDbEntity
  8
0
 62
     7
100
AcDbLine
 10
94.677689
 20
469.400024
 30
0.0
 11
93.647003
 21
469.400024
 31
0.0
  0
LINE
  5
3F2
330
1F
100
AcDbEntity
  8
0
 62
     7
100
AcDbLine
 10
94.647003
 20
470.099976
 30
0.0
 11
93.647003
 21
470.099976
 31
0.0
  0
LINE
  5
3F3
330
1F
100
AcDbEntity
  8
0
 62
     7
100
AcDbLine
 10
94.648041
 20
470.229309
 30
0.0
 11
94.647003
 21
470.099976
 31
0.0
  0
LINE
  5
3F4
330
1F
100
AcDbEntity
  8
0
 62
     7
100
AcDbLine
 10
94.651581
 20
470.370728
 30
0.0
 11
94.648041
 21
470.229309
 31
0.0
  0
LINE
  5
3F5
330
1F
100
AcDbEntity
  8
0
 62
     7
100
AcDbLine
 10
94.657013
 20
470.5
 30
0.0
 11
94.651581
 21
470.370728
 31
0.0
  0
ARC
  5
3F6
330
1F
100
AcDbEntity
  8
0
 62
     7
100
AcDbCircle
 10
102.647003
 20
470.099976
 30
0.0
 40
8.0
100
AcDbArc
 50
172.096793
 51
177.134017
  0
LINE
  5
3F7
330
1F
100
AcDbEntity
  8
0
 62
     7
100
AcDbLine
 10
94.742004
 20
471.329285
 30
0.0
 11
94.722992
 21
471.200012
 31
0.0
  0
LINE
  5
3F8
330
1F
100
AcDbEntity
  8
0
 62
     7
100
AcDbLine
 10
94.765305
 20
471.470703
 30
0.0
 11
94.742004
 21
471.329285
 31
0.0
  0
LINE
  5
3F9
330
1F
100
AcDbEntity
  8
0
 62
     7
100
AcDbLine
 10
94.788879
 20
471.599976
 30
0.0
 11
94.765305
 21
471.470703
 31
0.0
  0
ARC
  5
3FA
330
1F
100
AcDbEntity
  8
0
 62
     7
100
AcDbCircle
 10
102.647003
 20
470.099976
 30
0.0
 40
8.0
100
AcDbArc
 50
164.03799
 51
169.193075
  0
LINE
  5
3FB
330
1F
100
AcDbEntity
  8
0
 62
     7
100
AcDbLine
 10
94.993607
 20
472.42926
 30
0.0
 11
94.955444
 21
472.299988
 31
0.0
  0
LINE
  5
3FC
330
1F
100
AcDbEntity
  8
0
 62
     7
100
AcDbLine
 10
95.038086
 20
472.570679
 30
0.0
 11
94.993607
 21
472.42926
 31
0.0
  0
LINE
  5
3FD
330
1F
100
AcDbEntity
  8
0
 62
     7
100
AcDbLine
 10
95.081284
 20
472.700012
 30
0.0
 11
95.038086
 21
472.570679
 31
0.0
  0
ARC
  5
3FE
330
1F
100
AcDbEntity
  8
0
 62
     7
100
AcDbCircle
 10
102.647003
 20
470.099976
 30
0.0
 40
8.0
100
AcDbArc
 50
155.638018
 51
161.034427
  0
LINE
  5
3FF
330
1F
100
AcDbEntity
  8
0
 62
     7
100
AcDbLine
 10
95.419281
 20
473.529297
 30
0.0
 11
95.359344
 21
473.400024
 31
0.0
  0
LINE
  5
400
330
1F
100
AcDbEntity
  8
0
 62
     7
100
AcDbLine
 10
95.488083
 20
473.670715
 30
0.0
 11
95.419281
 21
473.529297
 31
0.0
  0
LINE
  5
401
330
1F
100
AcDbEntity
  8
0
 62
     7
100
AcDbLine
 10
95.554047
 20
473.799988
 30
0.0
 11
95.488083
 21
473.670715
 31
0.0
  0
ARC
  5
402
330
1F
100
AcDbEntity
  8
0
 62
     7
100
AcDbCircle
 10
102.647003
 20
470.099976
 30
0.0
 40
8.0
100
AcDbArc
 50
146.632987
 51
152.451448
  0
LINE
  5
403
330
1F
100
AcDbEntity
  8
0
 62
     7
100
AcDbLine
 10
96.052643
 20
474.629272
 30
0.0
 11
95.965683
 21
474.5
 31
0.0
  0
LINE
  5
404
330
1F
100
AcDbEntity
  8
0
 62
     7
100
AcDbLine
 10
96.152039
 20
474.770691
 30
0.0
 11
96.052643
 21
474.629272
 31
0.0
  0
LINE
  5
405
330
1F
100
AcDbEntity
  8
0
 62
     7
100
AcDbLine
 10
96.246994
 20
474.900024
 30
0.0
 11
96.152039
 21
474.770691
 31
0.0
  0
ARC
  5
406
330
1F
100
AcDbEntity
  8
0
 62
     7
100
AcDbCircle
 10
102.647003
 20
470.099976
 30
0.0
 40
8.0
100
AcDbArc
 50
36.869897
 51
143.130097
  0
LINE
  5
407
330
1F
100
AcDbEntity
  8
0
 62
     7
100
AcDbLine
 10
109.046997
 20
474.900024
 30
0.0
 11
109.141953
 21
474.770691
 31
0.0
  0
LINE
  5
408
330
1F
100
AcDbEntity
  8
0
 62
     7
100
AcDbLine
 10
109.141953
 20
474.770691
 30
0.0
 11
109.241348
 21
474.629272
 31
0.0
  0
LINE
  5
409
330
1F
100
AcDbEntity
  8
0
 62
     7
100
AcDbLine
 10
109.241348
 20
474.629272
 30
0.0
 11
109.328308
 21
474.5
 31
0.0
  0
ARC
  5
40A
330
1F
100
AcDbEntity
  8
0
 62
     7
100
AcDbCircle
 10
102.647003
 20
470.099976
 30
0.0
 40
8.0
100
AcDbArc
 50
27.548547
 51
33.367014
  0
LINE
  5
40B
330
1F
100
AcDbEntity
  8
0
 62
     7
100
AcDbLine
 10
109.73996
 20
473.799988
 30
0.0
 11
109.805908
 21
473.670715
 31
0.0
  0
LINE
  5
40C
330
1F
100
AcDbEntity
  8
0
 62
     7
100
AcDbLine
 10
109.805908
 20
473.670715
 30
0.0
 11
109.874725
 21
473.529297
 31
0.0
  0
LINE
  5
40D
330
1F
100
AcDbEntity
  8
0
 62
     7
100
AcDbLine
 10
109.874725
 20
473.529297
 30
0.0
 11
109.934662
 21
473.400024
 31
0.0
  0
CIRCLE
  5
40E
330
1F
100
AcDbEntity
  8
0
 62
     7
100
AcDbCircle
 10
102.647003
 20
470.099976
 30
0.0
 40
7.5
  0
LINE
  5
40F
330
1F
100
AcDbEntity
  8
0
 62
     7
100
AcDbLine
 10
93.147003
 20
458.099976
 30
0.0
 11
93.647003
 21
458.099976
 31
0.0
  0
LINE
  5
410
330
1F
100
AcDbEntity
  8
0
 62
     7
100
AcDbLine
 10
94.657013
 20
470.5
 30
0.0
 11
93.647003
 21
470.5
 31
0.0
  0
LINE
  5
411
330
1F
100
AcDbEntity
  8
0
 62
     7
100
AcDbLine
 10
94.722992
 20
471.200012
 30
0.0
 11
93.647003
 21
471.200012
 31
0.0
  0
LINE
  5
412
330
1F
100
AcDbEntity
  8
0
 62
     7
100
AcDbLine
 10
94.788879
 20
471.599976
 30
0.0
 11
93.647003
 21
471.599976
 31
0.0
  0
LINE
  5
413
330
1F
100
AcDbEntity
  8
0
 62
     7
100
AcDbLine
 10
94.955444
 20
472.299988
 30
0.0
 11
93.647003
 21
472.299988
 31
0.0
  0
LINE
  5
414
330
1F
100
AcDbEntity
  8
0
 62
     7
100
AcDbLine
 10
95.081284
 20
472.700012
 30
0.0
 11
93.647003
 21
472.700012
 31
0.0
  0
LINE
  5
415
330
1F
100
AcDbEntity
  8
0
 62
     7
100
AcDbLine
 10
95.359344
 20
473.400024
 30
0.0
 11
93.647003
 21
473.400024
 31
0.0
  0
LINE
  5
416
330
1F
100
AcDbEntity
  8
0
 62
     7
100
AcDbLine
 10
95.554047
 20
473.799988
 30
0.0
 11
93.647003
 21
473.799988
 31
0.0
  0
LINE
  5
417
330
1F
100
AcDbEntity
  8
0
 62
     7
100
AcDbLine
 10
95.965683
 20
474.5
 30
0.0
 11
93.647003
 21
474.5
 31
0.0
  0
LINE
  5
418
330
1F
100
AcDbEntity
  8
0
 62
     7
100
AcDbLine
 10
96.246994
 20
474.900024
 30
0.0
 11
93.647003
 21
474.900024
 31
0.0
  0
LINE
  5
419
330
1F
100
AcDbEntity
  8
0
 62
     7
100
AcDbLine
 10
166.147003
 20
474.900024
 30
0.0
 11
109.046997
 21
474.900024
 31
0.0
  0
LINE
  5
41A
330
1F
100
AcDbEntity
  8
0
 62
     7
100
AcDbLine
 10
166.147003
 20
474.900024
 30
0.0
 11
166.147003
 21
479.724243
 31
0.0
  0
LINE
  5
41B
330
1F
100
AcDbEntity
  8
0
 62
     7
100
AcDbLine
 10
166.147003
 20
479.724243
 30
0.0
 11
93.647003
 21
479.724243
 31
0.0
  0
LINE
  5
41C
330
1F
100
AcDbEntity
  8
0
 62
     7
100
AcDbLine
 10
166.147003
 20
480.212158
 30
0.0
 11
166.147003
 21
479.724243
 31
0.0
  0
LINE
  5
41D
330
1F
100
AcDbEntity
  8
0
 62
     7
100
AcDbLine
 10
166.147003
 20
480.299988
 30
0.0
 11
166.147003
 21
480.212158
 31
0.0
  0
LINE
  5
41E
330
1F
100
AcDbEntity
  8
0
 62
     7
100
AcDbLine
 10
1147.147095
 20
452.399963
 30
0.0
 11
1147.147095
 21
451.899963
 31
0.0
  0
LINE
  5
41F
330
1F
100
AcDbEntity
  8
0
 62
     7
100
AcDbLine
 10
1147.147095
 20
479.49292
 30
0.0
 11
1147.147095
 21
452.399963
 31
0.0
  0
LINE
  5
420
330
1F
100
AcDbEntity
  8
0
 62
     7
100
AcDbLine
 10
1147.147095
 20
479.846436
 30
0.0
 11
1147.147095
 21
479.49292
 31
0.0
  0
LINE
  5
421
330
1F
100
AcDbEntity
  8
0
 62
     7
100
AcDbLine
 10
1147.147095
 20
480.531128
 30
0.0
 11
1147.147095
 21
479.846436
 31
0.0
  0
LINE
  5
422
330
1F
100
AcDbEntity
  8
0
 62
     7
100
AcDbLine
 10
1074.147095
 20
474.770691
 30
0.0
 11
1074.147095
 21
474.900024
 31
0.0
  0
LINE
  5
423
330
1F
100
AcDbEntity
  8
0
 62
     7
100
AcDbLine
 10
1074.147095
 20
474.629272
 30
0.0
 11
1074.147095
 21
474.770691
 31
0.0
  0
LINE
  5
424
330
1F
100
AcDbEntity
  8
0
 62
     7
100
AcDbLine
 10
1074.147095
 20
474.629272
 30
0.0
 11
1074.147095
 21
474.599976
 31
0.0
  0
ARC
  5
425
330
1F
100
AcDbEntity
  8
0
 62
     7
100
AcDbCircle
 10
1072.647095
 20
474.599976
 30
0.0
 40
1.5
100
AcDbArc
 50
314.454478
 51
356.177454
  0
LINE
  5
426
330
1F
100
AcDbEntity
  8
0
 62
     7
100
AcDbLine
 10
1074.143677
 20
474.5
 30
0.0
 11
1074.147095
 21
474.599976
 31
0.0
  0
LINE
  5
427
330
1F
100
AcDbEntity
  8
0
 62
     7
100
AcDbLine
 10
1071.797119
 20
474.099976
 30
0.0
 11
1072.647095
 21
474.099976
 31
0.0
  0
ARC
  5
428
330
1F
100
AcDbEntity
  8
0
 62
     7
100
AcDbCircle
 10
1072.647095
 20
474.599976
 30
0.0
 40
0.5
100
AcDbArc
 50
269.999997
 51
360.0
  0
LINE
  5
429
330
1F
100
AcDbEntity
  8
0
 62
     7
100
AcDbLine
 10
1073.147095
 20
474.900024
 30
0.0
 11
1073.147095
 21
479.724243
 31
0.0
  0
LINE
  5
42A
330
1F
100
AcDbEntity
  8
0
 62
     7
100
AcDbLine
 10
1073.147095
 20
480.212158
 30
0.0
 11
1073.147095
 21
479.724243
 31
0.0
  0
LINE
  5
42B
330
1F
100
AcDbEntity
  8
0
 62
     7
100
AcDbLine
 10
1073.147095
 20
480.299988
 30
0.0
 11
1073.147095
 21
480.212158
 31
0.0
  0
LINE
  5
42C
330
1F
100
AcDbEntity
  8
0
 62
     7
100
AcDbLine
 10
1073.147095
 20
474.629272
 30
0.0
 11
1073.147095
 21
474.599976
 31
0.0
  0
LINE
  5
42D
330
1F
100
AcDbEntity
  8
0
 62
     7
100
AcDbLine
 10
1073.147095
 20
474.770691
 30
0.0
 11
1073.147095
 21
474.629272
 31
0.0
  0
LINE
  5
42E
330
1F
100
AcDbEntity
  8
0
 62
     7
100
AcDbLine
 10
1073.147095
 20
474.770691
 30
0.0
 11
1073.147095
 21
474.900024
 31
0.0
  0
LINE
  5
42F
330
1F
100
AcDbEntity
  8
0
 62
     7
100
AcDbLine
 10
1067.147095
 20
480.212158
 30
0.0
 11
1067.147095
 21
480.299988
 31
0.0
  0
LINE
  5
430
330
1F
100
AcDbEntity
  8
0
 62
     7
100
AcDbLine
 10
1067.147095
 20
480.212158
 30
0.0
 11
1067.147095
 21
479.724243
 31
0.0
  0
LINE
  5
431
330
1F
100
AcDbEntity
  8
0
 62
     7
100
AcDbLine
 10
1067.147095
 20
474.900024
 30
0.0
 11
1067.147095
 21
479.724243
 31
0.0
  0
LINE
  5
432
330
1F
100
AcDbEntity
  8
0
 62
     7
100
AcDbLine
 10
1067.147095
 20
474.770691
 30
0.0
 11
1067.147095
 21
474.900024
 31
0.0
  0
LINE
  5
433
330
1F
100
AcDbEntity
  8
0
 62
     7
100
AcDbLine
 10
1067.147095
 20
474.629272
 30
0.0
 11
1067.147095
 21
474.770691
 31
0.0
  0
LINE
  5
434
330
1F
100
AcDbEntity
  8
0
 62
     7
100
AcDbLine
 10
1067.147095
 20
474.629272
 30
0.0
 11
1067.147095
 21
474.599976
 31
0.0
  0
ARC
  5
435
330
1F
100
AcDbEntity
  8
0
 62
     7
100
AcDbCircle
 10
1067.647095
 20
474.599976
 30
0.0
 40
0.5
100
AcDbArc
 50
180.000009
 51
269.999997
  0
LINE
  5
436
330
1F
100
AcDbEntity
  8
0
 62
     7
100
AcDbLine
 10
1067.647095
 20
474.099976
 30
0.0
 11
1068.49707
 21
474.099976
 31
0.0
  0
ARC
  5
437
330
1F
100
AcDbEntity
  8
0
 62
     7
100
AcDbCircle
 10
1067.647095
 20
474.599976
 30
0.0
 40
1.5
100
AcDbArc
 50
183.822551
 51
212.230947
  0
LINE
  5
438
330
1F
100
AcDbEntity
  8
0
 62
     7
100
AcDbLine
 10
1066.150391
 20
474.5
 30
0.0
 11
1066.147095
 21
474.599976
 31
0.0
  0
LINE
  5
439
330
1F
100
AcDbEntity
  8
0
 62
     7
100
AcDbLine
 10
1066.147095
 20
474.900024
 30
0.0
 11
1066.147095
 21
479.724243
 31
0.0
  0
LINE
  5
43A
330
1F
100
AcDbEntity
  8
0
 62
     7
100
AcDbLine
 10
1066.147095
 20
480.212158
 30
0.0
 11
1066.147095
 21
479.724243
 31
0.0
  0
LINE
  5
43B
330
1F
100
AcDbEntity
  8
0
 62
     7
100
AcDbLine
 10
1066.147095
 20
480.299988
 30
0.0
 11
1066.147095
 21
480.212158
 31
0.0
  0
LINE
  5
43C
330
1F
100
AcDbEntity
  8
0
 62
     7
100
AcDbLine
 10
1066.147095
 20
474.629272
 30
0.0
 11
1066.147095
 21
474.599976
 31
0.0
  0
LINE
  5
43D
330
1F
100
AcDbEntity
  8
0
 62
     7
100
AcDbLine
 10
1066.147095
 20
474.770691
 30
0.0
 11
1066.147095
 21
474.629272
 31
0.0
  0
LINE
  5
43E
330
1F
100
AcDbEntity
  8
0
 62
     7
100
AcDbLine
 10
1066.147095
 20
474.770691
 30
0.0
 11
1066.147095
 21
474.900024
 31
0.0
  0
LINE
  5
43F
330
1F
100
AcDbEntity
  8
0
 62
     7
100
AcDbLine
 10
774.147034
 20
480.212158
 30
0.0
 11
774.147034
 21
480.299988
 31
0.0
  0
LINE
  5
440
330
1F
100
AcDbEntity
  8
0
 62
     7
100
AcDbLine
 10
774.147034
 20
480.212158
 30
0.0
 11
774.147034
 21
479.724243
 31
0.0
  0
LINE
  5
441
330
1F
100
AcDbEntity
  8
0
 62
     7
100
AcDbLine
 10
774.147034
 20
474.900024
 30
0.0
 11
774.147034
 21
479.724243
 31
0.0
  0
LINE
  5
442
330
1F
100
AcDbEntity
  8
0
 62
     7
100
AcDbLine
 10
774.147034
 20
474.770691
 30
0.0
 11
774.147034
 21
474.900024
 31
0.0
  0
LINE
  5
443
330
1F
100
AcDbEntity
  8
0
 62
     7
100
AcDbLine
 10
774.147034
 20
474.629272
 30
0.0
 11
774.147034
 21
474.770691
 31
0.0
  0
LINE
  5
444
330
1F
100
AcDbEntity
  8
0
 62
     7
100
AcDbLine
 10
774.147034
 20
474.629272
 30
0.0
 11
774.147034
 21
474.599976
 31
0.0
  0
ARC
  5
445
330
1F
100
AcDbEntity
  8
0
 62
     7
100
AcDbCircle
 10
772.647034
 20
474.599976
 30
0.0
 40
1.5
100
AcDbArc
 50
314.454478
 51
356.177454
  0
LINE
  5
446
330
1F
100
AcDbEntity
  8
0
 62
     7
100
AcDbLine
 10
774.143677
 20
474.5
 30
0.0
 11
774.147034
 21
474.599976
 31
0.0
  0
LINE
  5
447
330
1F
100
AcDbEntity
  8
0
 62
     7
100
AcDbLine
 10
771.797058
 20
474.099976
 30
0.0
 11
772.647034
 21
474.099976
 31
0.0
  0
ARC
  5
448
330
1F
100
AcDbEntity
  8
0
 62
     7
100
AcDbCircle
 10
772.647034
 20
474.599976
 30
0.0
 40
0.5
100
AcDbArc
 50
269.999997
 51
360.0
  0
LINE
  5
449
330
1F
100
AcDbEntity
  8
0
 62
     7
100
AcDbLine
 10
773.147034
 20
474.900024
 30
0.0
 11
773.147034
 21
479.724243
 31
0.0
  0
LINE
  5
44A
330
1F
100
AcDbEntity
  8
0
 62
     7
100
AcDbLine
 10
773.147034
 20
480.212158
 30
0.0
 11
773.147034
 21
479.724243
 31
0.0
  0
LINE
  5
44B
330
1F
100
AcDbEntity
  8
0
 62
     7
100
AcDbLine
 10
773.147034
 20
480.299988
 30
0.0
 11
773.147034
 21
480.212158
 31
0.0
  0
LINE
  5
44C
330
1F
100
AcDbEntity
  8
0
 62
     7
100
AcDbLine
 10
773.147034
 20
474.629272
 30
0.0
 11
773.147034
 21
474.599976
 31
0.0
  0
LINE
  5
44D
330
1F
100
AcDbEntity
  8
0
 62
     7
100
AcDbLine
 10
773.147034
 20
474.770691
 30
0.0
 11
773.147034
 21
474.629272
 31
0.0
  0
LINE
  5
44E
330
1F
100
AcDbEntity
  8
0
 62
     7
100
AcDbLine
 10
773.147034
 20
474.770691
 30
0.0
 11
773.147034
 21
474.900024
 31
0.0
  0
LINE
  5
44F
330
1F
100
AcDbEntity
  8
0
 62
     7
100
AcDbLine
 10
767.147034
 20
480.212158
 30
0.0
 11
767.147034
 21
480.299988
 31
0.0
  0
LINE
  5
450
330
1F
100
AcDbEntity
  8
0
 62
     7
100
AcDbLine
 10
767.147034
 20
480.212158
 30
0.0
 11
767.147034
 21
479.724243
 31
0.0
  0
LINE
  5
451
330
1F
100
AcDbEntity
  8
0
 62
     7
100
AcDbLine
 10
767.147034
 20
474.900024
 30
0.0
 11
767.147034
 21
479.724243
 31
0.0
  0
LINE
  5
452
330
1F
100
AcDbEntity
  8
0
 62
     7
100
AcDbLine
 10
767.147034
 20
474.770691
 30
0.0
 11
767.147034
 21
474.900024
 31
0.0
  0
LINE
  5
453
330
1F
100
AcDbEntity
  8
0
 62
     7
100
AcDbLine
 10
767.147034
 20
474.629272
 30
0.0
 11
767.147034
 21
474.770691
 31
0.0
  0
LINE
  5
454
330
1F
100
AcDbEntity
  8
0
 62
     7
100
AcDbLine
 10
767.147034
 20
474.629272
 30
0.0
 11
767.147034
 21
474.599976
 31
0.0
  0
ARC
  5
455
330
1F
100
AcDbEntity
  8
0
 62
     7
100
AcDbCircle
 10
767.647034
 20
474.599976
 30
0.0
 40
0.5
100
AcDbArc
 50
180.000009
 51
269.999997
  0
LINE
  5
456
330
1F
100
AcDbEntity
  8
0
 62
     7
100
AcDbLine
 10
767.647034
 20
474.099976
 30
0.0
 11
768.497009
 21
474.099976
 31
0.0
  0
ARC
  5
457
330
1F
100
AcDbEntity
  8
0
 62
     7
100
AcDbCircle
 10
767.647034
 20
474.599976
 30
0.0
 40
1.5
100
AcDbArc
 50
183.822551
 51
212.230947
  0
LINE
  5
458
330
1F
100
AcDbEntity
  8
0
 62
     7
100
AcDbLine
 10
766.150391
 20
474.5
 30
0.0
 11
766.147034
 21
474.599976
 31
0.0
  0
LINE
  5
459
330
1F
100
AcDbEntity
  8
0
 62
     7
100
AcDbLine
 10
766.147034
 20
474.900024
 30
0.0
 11
766.147034
 21
479.724243
 31
0.0
  0
LINE
  5
45A
330
1F
100
AcDbEntity
  8
0
 62
     7
100
AcDbLine
 10
766.147034
 20
480.212158
 30
0.0
 11
766.147034
 21
479.724243
 31
0.0
  0
LINE
  5
45B
330
1F
100
AcDbEntity
  8
0
 62
     7
100
AcDbLine
 10
766.147034
 20
480.299988
 30
0.0
 11
766.147034
 21
480.212158
 31
0.0
  0
LINE
  5
45C
330
1F
100
AcDbEntity
  8
0
 62
     7
100
AcDbLine
 10
766.147034
 20
474.629272
 30
0.0
 11
766.147034
 21
474.599976
 31
0.0
  0
LINE
  5
45D
330
1F
100
AcDbEntity
  8
0
 62
     7
100
AcDbLine
 10
766.147034
 20
474.770691
 30
0.0
 11
766.147034
 21
474.629272
 31
0.0
  0
LINE
  5
45E
330
1F
100
AcDbEntity
  8
0
 62
     7
100
AcDbLine
 10
766.147034
 20
474.770691
 30
0.0
 11
766.147034
 21
474.900024
 31
0.0
  0
LINE
  5
45F
330
1F
100
AcDbEntity
  8
0
 62
     7
100
AcDbLine
 10
474.147003
 20
480.212158
 30
0.0
 11
474.147003
 21
480.299988
 31
0.0
  0
LINE
  5
460
330
1F
100
AcDbEntity
  8
0
 62
     7
100
AcDbLine
 10
474.147003
 20
480.212158
 30
0.0
 11
474.147003
 21
479.724243
 31
0.0
  0
LINE
  5
461
330
1F
100
AcDbEntity
  8
0
 62
     7
100
AcDbLine
 10
474.147003
 20
474.900024
 30
0.0
 11
474.147003
 21
479.724243
 31
0.0
  0
LINE
  5
462
330
1F
100
AcDbEntity
  8
0
 62
     7
100
AcDbLine
 10
474.147003
 20
474.770691
 30
0.0
 11
474.147003
 21
474.900024
 31
0.0
  0
LINE
  5
463
330
1F
100
AcDbEntity
  8
0
 62
     7
100
AcDbLine
 10
474.147003
 20
474.629272
 30
0.0
 11
474.147003
 21
474.770691
 31
0.0
  0
LINE
  5
464
330
1F
100
AcDbEntity
  8
0
 62
     7
100
AcDbLine
 10
474.147003
 20
474.629272
 30
0.0
 11
474.147003
 21
474.599976
 31
0.0
  0
ARC
  5
465
330
1F
100
AcDbEntity
  8
0
 62
     7
100
AcDbCircle
 10
472.647003
 20
474.599976
 30
0.0
 40
1.5
100
AcDbArc
 50
314.454478
 51
356.177454
  0
LINE
  5
466
330
1F
100
AcDbEntity
  8
0
 62
     7
100
AcDbLine
 10
474.143677
 20
474.5
 30
0.0
 11
474.147003
 21
474.599976
 31
0.0
  0
LINE
  5
467
330
1F
100
AcDbEntity
  8
0
 62
     7
100
AcDbLine
 10
471.796997
 20
474.099976
 30
0.0
 11
472.647003
 21
474.099976
 31
0.0
  0
ARC
  5
468
330
1F
100
AcDbEntity
  8
0
 62
     7
100
AcDbCircle
 10
472.647003
 20
474.599976
 30
0.0
 40
0.5
100
AcDbArc
 50
269.999997
 51
360.0
  0
LINE
  5
469
330
1F
100
AcDbEntity
  8
0
 62
     7
100
AcDbLine
 10
473.147003
 20
474.900024
 30
0.0
 11
473.147003
 21
479.724243
 31
0.0
  0
LINE
  5
46A
330
1F
100
AcDbEntity
  8
0
 62
     7
100
AcDbLine
 10
473.147003
 20
480.212158
 30
0.0
 11
473.147003
 21
479.724243
 31
0.0
  0
LINE
  5
46B
330
1F
100
AcDbEntity
  8
0
 62
     7
100
AcDbLine
 10
473.147003
 20
480.299988
 30
0.0
 11
473.147003
 21
480.212158
 31
0.0
  0
LINE
  5
46C
330
1F
100
AcDbEntity
  8
0
 62
     7
100
AcDbLine
 10
473.147003
 20
474.629272
 30
0.0
 11
473.147003
 21
474.599976
 31
0.0
  0
LINE
  5
46D
330
1F
100
AcDbEntity
  8
0
 62
     7
100
AcDbLine
 10
473.147003
 20
474.770691
 30
0.0
 11
473.147003
 21
474.629272
 31
0.0
  0
LINE
  5
46E
330
1F
100
AcDbEntity
  8
0
 62
     7
100
AcDbLine
 10
473.147003
 20
474.770691
 30
0.0
 11
473.147003
 21
474.900024
 31
0.0
  0
LINE
  5
46F
330
1F
100
AcDbEntity
  8
0
 62
     7
100
AcDbLine
 10
467.147003
 20
480.212158
 30
0.0
 11
467.147003
 21
480.299988
 31
0.0
  0
LINE
  5
470
330
1F
100
AcDbEntity
  8
0
 62
     7
100
AcDbLine
 10
467.147003
 20
480.212158
 30
0.0
 11
467.147003
 21
479.724243
 31
0.0
  0
LINE
  5
471
330
1F
100
AcDbEntity
  8
0
 62
     7
100
AcDbLine
 10
467.147003
 20
474.900024
 30
0.0
 11
467.147003
 21
479.724243
 31
0.0
  0
LINE
  5
472
330
1F
100
AcDbEntity
  8
0
 62
     7
100
AcDbLine
 10
467.147003
 20
474.770691
 30
0.0
 11
467.147003
 21
474.900024
 31
0.0
  0
LINE
  5
473
330
1F
100
AcDbEntity
  8
0
 62
     7
100
AcDbLine
 10
467.147003
 20
474.629272
 30
0.0
 11
467.147003
 21
474.770691
 31
0.0
  0
LINE
  5
474
330
1F
100
AcDbEntity
  8
0
 62
     7
100
AcDbLine
 10
467.147003
 20
474.629272
 30
0.0
 11
467.147003
 21
474.599976
 31
0.0
  0
ARC
  5
475
330
1F
100
AcDbEntity
  8
0
 62
     7
100
AcDbCircle
 10
467.647003
 20
474.599976
 30
0.0
 40
0.5
100
AcDbArc
 50
180.000009
 51
269.999997
  0
LINE
  5
476
330
1F
100
AcDbEntity
  8
0
 62
     7
100
AcDbLine
 10
467.647003
 20
474.099976
 30
0.0
 11
468.497009
 21
474.099976
 31
0.0
  0
ARC
  5
477
330
1F
100
AcDbEntity
  8
0
 62
     7
100
AcDbCircle
 10
467.647003
 20
474.599976
 30
0.0
 40
1.5
100
AcDbArc
 50
183.822551
 51
212.230947
  0
LINE
  5
478
330
1F
100
AcDbEntity
  8
0
 62
     7
100
AcDbLine
 10
466.15033
 20
474.5
 30
0.0
 11
466.147003
 21
474.599976
 31
0.0
  0
LINE
  5
479
330
1F
100
AcDbEntity
  8
0
 62
     7
100
AcDbLine
 10
466.147003
 20
474.900024
 30
0.0
 11
466.147003
 21
479.724243
 31
0.0
  0
LINE
  5
47A
330
1F
100
AcDbEntity
  8
0
 62
     7
100
AcDbLine
 10
466.147003
 20
480.212158
 30
0.0
 11
466.147003
 21
479.724243
 31
0.0
  0
LINE
  5
47B
330
1F
100
AcDbEntity
  8
0
 62
     7
100
AcDbLine
 10
466.147003
 20
480.299988
 30
0.0
 11
466.147003
 21
480.212158
 31
0.0
  0
LINE
  5
47C
330
1F
100
AcDbEntity
  8
0
 62
     7
100
AcDbLine
 10
466.147003
 20
474.629272
 30
0.0
 11
466.147003
 21
474.599976
 31
0.0
  0
LINE
  5
47D
330
1F
100
AcDbEntity
  8
0
 62
     7
100
AcDbLine
 10
466.147003
 20
474.770691
 30
0.0
 11
466.147003
 21
474.629272
 31
0.0
  0
LINE
  5
47E
330
1F
100
AcDbEntity
  8
0
 62
     7
100
AcDbLine
 10
466.147003
 20
474.770691
 30
0.0
 11
466.147003
 21
474.900024
 31
0.0
  0
LINE
  5
47F
330
1F
100
AcDbEntity
  8
0
 62
     7
100
AcDbLine
 10
174.147003
 20
480.212158
 30
0.0
 11
174.147003
 21
480.299988
 31
0.0
  0
LINE
  5
480
330
1F
100
AcDbEntity
  8
0
 62
     7
100
AcDbLine
 10
174.147003
 20
480.212158
 30
0.0
 11
174.147003
 21
479.724243
 31
0.0
  0
LINE
  5
481
330
1F
100
AcDbEntity
  8
0
 62
     7
100
AcDbLine
 10
174.147003
 20
474.900024
 30
0.0
 11
174.147003
 21
479.724243
 31
0.0
  0
LINE
  5
482
330
1F
100
AcDbEntity
  8
0
 62
     7
100
AcDbLine
 10
174.147003
 20
474.770691
 30
0.0
 11
174.147003
 21
474.900024
 31
0.0
  0
LINE
  5
483
330
1F
100
AcDbEntity
  8
0
 62
     7
100
AcDbLine
 10
174.147003
 20
474.629272
 30
0.0
 11
174.147003
 21
474.770691
 31
0.0
  0
LINE
  5
484
330
1F
100
AcDbEntity
  8
0
 62
     7
100
AcDbLine
 10
174.147003
 20
474.629272
 30
0.0
 11
174.147003
 21
474.599976
 31
0.0
  0
ARC
  5
485
330
1F
100
AcDbEntity
  8
0
 62
     7
100
AcDbCircle
 10
172.647003
 20
474.599976
 30
0.0
 40
1.5
100
AcDbArc
 50
314.454478
 51
356.177454
  0
LINE
  5
486
330
1F
100
AcDbEntity
  8
0
 62
     7
100
AcDbLine
 10
174.143646
 20
474.5
 30
0.0
 11
174.147003
 21
474.599976
 31
0.0
  0
LINE
  5
487
330
1F
100
AcDbEntity
  8
0
 62
     7
100
AcDbLine
 10
171.796997
 20
474.099976
 30
0.0
 11
172.647003
 21
474.099976
 31
0.0
  0
ARC
  5
488
330
1F
100
AcDbEntity
  8
0
 62
     7
100
AcDbCircle
 10
172.647003
 20
474.599976
 30
0.0
 40
0.5
100
AcDbArc
 50
269.999997
 51
0.00001
  0
LINE
  5
489
330
1F
100
AcDbEntity
  8
0
 62
     7
100
AcDbLine
 10
173.147003
 20
474.900024
 30
0.0
 11
173.147003
 21
479.724243
 31
0.0
  0
LINE
  5
48A
330
1F
100
AcDbEntity
  8
0
 62
     7
100
AcDbLine
 10
173.147003
 20
480.212158
 30
0.0
 11
173.147003
 21
479.724243
 31
0.0
  0
LINE
  5
48B
330
1F
100
AcDbEntity
  8
0
 62
     7
100
AcDbLine
 10
173.147003
 20
480.299988
 30
0.0
 11
173.147003
 21
480.212158
 31
0.0
  0
LINE
  5
48C
330
1F
100
AcDbEntity
  8
0
 62
     7
100
AcDbLine
 10
173.147003
 20
474.629272
 30
0.0
 11
173.147003
 21
474.599976
 31
0.0
  0
LINE
  5
48D
330
1F
100
AcDbEntity
  8
0
 62
     7
100
AcDbLine
 10
173.147003
 20
474.770691
 30
0.0
 11
173.147003
 21
474.629272
 31
0.0
  0
LINE
  5
48E
330
1F
100
AcDbEntity
  8
0
 62
     7
100
AcDbLine
 10
173.147003
 20
474.770691
 30
0.0
 11
173.147003
 21
474.900024
 31
0.0
  0
LINE
  5
48F
330
1F
100
AcDbEntity
  8
0
 62
     7
100
AcDbLine
 10
167.147003
 20
480.212158
 30
0.0
 11
167.147003
 21
480.299988
 31
0.0
  0
LINE
  5
490
330
1F
100
AcDbEntity
  8
0
 62
     7
100
AcDbLine
 10
167.147003
 20
480.212158
 30
0.0
 11
167.147003
 21
479.724243
 31
0.0
  0
LINE
  5
491
330
1F
100
AcDbEntity
  8
0
 62
     7
100
AcDbLine
 10
167.147003
 20
474.900024
 30
0.0
 11
167.147003
 21
479.724243
 31
0.0
  0
LINE
  5
492
330
1F
100
AcDbEntity
  8
0
 62
     7
100
AcDbLine
 10
167.147003
 20
474.770691
 30
0.0
 11
167.147003
 21
474.900024
 31
0.0
  0
LINE
  5
493
330
1F
100
AcDbEntity
  8
0
 62
     7
100
AcDbLine
 10
167.147003
 20
474.629272
 30
0.0
 11
167.147003
 21
474.770691
 31
0.0
  0
LINE
  5
494
330
1F
100
AcDbEntity
  8
0
 62
     7
100
AcDbLine
 10
167.147003
 20
474.629272
 30
0.0
 11
167.147003
 21
474.599976
 31
0.0
  0
ARC
  5
495
330
1F
100
AcDbEntity
  8
0
 62
     7
100
AcDbCircle
 10
167.647003
 20
474.599976
 30
0.0
 40
0.5
100
AcDbArc
 50
180.000009
 51
269.999997
  0
LINE
  5
496
330
1F
100
AcDbEntity
  8
0
 62
     7
100
AcDbLine
 10
167.647003
 20
474.099976
 30
0.0
 11
168.496979
 21
474.099976
 31
0.0
  0
ARC
  5
497
330
1F
100
AcDbEntity
  8
0
 62
     7
100
AcDbCircle
 10
167.647003
 20
474.599976
 30
0.0
 40
1.5
100
AcDbArc
 50
183.822551
 51
212.230947
  0
LINE
  5
498
330
1F
100
AcDbEntity
  8
0
 62
     7
100
AcDbLine
 10
166.15033
 20
474.5
 30
0.0
 11
166.147003
 21
474.599976
 31
0.0
  0
LINE
  5
499
330
1F
100
AcDbEntity
  8
0
 62
     7
100
AcDbLine
 10
166.147003
 20
474.629272
 30
0.0
 11
166.147003
 21
474.599976
 31
0.0
  0
LINE
  5
49A
330
1F
100
AcDbEntity
  8
0
 62
     7
100
AcDbLine
 10
166.147003
 20
474.770691
 30
0.0
 11
166.147003
 21
474.629272
 31
0.0
  0
LINE
  5
49B
330
1F
100
AcDbEntity
  8
0
 62
     7
100
AcDbLine
 10
166.147003
 20
474.770691
 30
0.0
 11
166.147003
 21
474.900024
 31
0.0
  0
LINE
  5
49C
330
1F
100
AcDbEntity
  8
0
 62
     7
100
AcDbLine
 10
93.147003
 20
479.846436
 30
0.0
 11
93.147003
 21
480.531128
 31
0.0
  0
LINE
  5
49D
330
1F
100
AcDbEntity
  8
0
 62
     7
100
AcDbLine
 10
93.147003
 20
479.49292
 30
0.0
 11
93.147003
 21
479.846436
 31
0.0
  0
LINE
  5
49E
330
1F
100
AcDbEntity
  8
0
 62
     7
100
AcDbLine
 10
93.147003
 20
452.400024
 30
0.0
 11
93.147003
 21
479.49292
 31
0.0
  0
LINE
  5
49F
330
1F
100
AcDbEntity
  8
0
 62
     7
100
AcDbLine
 10
93.147003
 20
451.900024
 30
0.0
 11
93.147003
 21
452.400024
 31
0.0
  0
LINE
  5
4A0
330
1F
100
AcDbEntity
  8
0
 62
     7
100
AcDbLine
 10
1147.147095
 20
483.099976
 30
0.0
 11
1147.147095
 21
480.531128
 31
0.0
  0
LINE
  5
4A1
330
1F
100
AcDbEntity
  8
0
 62
     7
100
AcDbLine
 10
93.147003
 20
483.099976
 30
0.0
 11
1147.147095
 21
483.099976
 31
0.0
  0
LINE
  5
4A2
330
1F
100
AcDbEntity
  8
0
 62
     7
100
AcDbLine
 10
93.147003
 20
483.099976
 30
0.0
 11
93.147003
 21
480.531128
 31
0.0
  0
LINE
  5
4A3
330
1F
100
AcDbEntity
  8
0
 62
     7
100
AcDbLine
 10
1147.147095
 20
453.599976
 30
0.0
 11
1146.647095
 21
453.599976
 31
0.0
  0
LINE
  5
4A4
330
1F
100
AcDbEntity
  8
0
 62
     7
100
AcDbLine
 10
1130.554199
 20
473.799988
 30
0.0
 11
1073.915894
 21
473.799988
 31
0.0
  0
LINE
  5
4A5
330
1F
100
AcDbEntity
  8
0
 62
     7
100
AcDbLine
 10
1130.96582
 20
474.5
 30
0.0
 11
1074.143677
 21
474.5
 31
0.0
  0
LINE
  5
4A6
330
1F
100
AcDbEntity
  8
0
 62
     7
100
AcDbLine
 10
1071.338867
 20
473.799988
 30
0.0
 11
1068.955322
 21
473.799988
 31
0.0
  0
LINE
  5
4A7
330
1F
100
AcDbEntity
  8
0
 62
     7
100
AcDbLine
 10
1073.136963
 20
474.5
 30
0.0
 11
1071.041504
 21
474.5
 31
0.0
  0
ARC
  5
4A8
330
1F
100
AcDbEntity
  8
0
 62
     7
100
AcDbCircle
 10
1070.147095
 20
476.400024
 30
0.0
 40
2.099999904632568
100
AcDbArc
 50
237.479124
 51
295.208757
  0
LINE
  5
4A9
330
1F
100
AcDbEntity
  8
0
 62
     7
100
AcDbLine
 10
1069.252686
 20
474.5
 30
0.0
 11
1067.157227
 21
474.5
 31
0.0
  0
LINE
  5
4AA
330
1F
100
AcDbEntity
  8
0
 62
     7
100
AcDbLine
 10
771.338806
 20
473.799988
 30
0.0
 11
768.955261
 21
473.799988
 31
0.0
  0
LINE
  5
4AB
330
1F
100
AcDbEntity
  8
0
 62
     7
100
AcDbLine
 10
773.136902
 20
474.5
 30
0.0
 11
771.041443
 21
474.5
 31
0.0
  0
ARC
  5
4AC
330
1F
100
AcDbEntity
  8
0
 62
     7
100
AcDbCircle
 10
770.147034
 20
476.400024
 30
0.0
 40
2.099999904632568
100
AcDbArc
 50
237.479124
 51
295.208757
  0
LINE
  5
4AD
330
1F
100
AcDbEntity
  8
0
 62
     7
100
AcDbLine
 10
769.252625
 20
474.5
 30
0.0
 11
767.157166
 21
474.5
 31
0.0
  0
LINE
  5
4AE
330
1F
100
AcDbEntity
  8
0
 62
     7
100
AcDbLine
 10
471.338745
 20
473.799988
 30
0.0
 11
468.955261
 21
473.799988
 31
0.0
  0
LINE
  5
4AF
330
1F
100
AcDbEntity
  8
0
 62
     7
100
AcDbLine
 10
473.136902
 20
474.5
 30
0.0
 11
471.041443
 21
474.5
 31
0.0
  0
ARC
  5
4B0
330
1F
100
AcDbEntity
  8
0
 62
     7
100
AcDbCircle
 10
470.147003
 20
476.400024
 30
0.0
 40
2.099999904632568
100
AcDbArc
 50
237.479124
 51
295.208757
  0
LINE
  5
4B1
330
1F
100
AcDbEntity
  8
0
 62
     7
100
AcDbLine
 10
469.252563
 20
474.5
 30
0.0
 11
467.157104
 21
474.5
 31
0.0
  0
LINE
  5
4B2
330
1F
100
AcDbEntity
  8
0
 62
     7
100
AcDbLine
 10
171.338745
 20
473.799988
 30
0.0
 11
168.955261
 21
473.799988
 31
0.0
  0
LINE
  5
4B3
330
1F
100
AcDbEntity
  8
0
 62
     7
100
AcDbLine
 10
173.136902
 20
474.5
 30
0.0
 11
171.041412
 21
474.5
 31
0.0
  0
ARC
  5
4B4
330
1F
100
AcDbEntity
  8
0
 62
     7
100
AcDbCircle
 10
170.147003
 20
476.400024
 30
0.0
 40
2.099999904632568
100
AcDbArc
 50
237.479124
 51
295.208757
  0
LINE
  5
4B5
330
1F
100
AcDbEntity
  8
0
 62
     7
100
AcDbLine
 10
169.252563
 20
474.5
 30
0.0
 11
167.157104
 21
474.5
 31
0.0
  0
LINE
  5
4B6
330
1F
100
AcDbEntity
  8
0
 62
     7
100
AcDbLine
 10
166.15033
 20
474.5
 30
0.0
 11
109.328308
 21
474.5
 31
0.0
  0
LINE
  5
4B7
330
1F
100
AcDbEntity
  8
0
 62
     7
100
AcDbLine
 10
166.378143
 20
473.799988
 30
0.0
 11
109.73996
 21
473.799988
 31
0.0
  0
LINE
  5
4B8
330
1F
100
AcDbEntity
  8
0
 62
     7
100
AcDbLine
 10
93.147003
 20
453.599976
 30
0.0
 11
93.647003
 21
453.599976
 31
0.0
  0
LINE
  5
4B9
330
1F
100
AcDbEntity
  8
0
 62
     7
100
AcDbLine
 10
1067.834595
 20
453.430359
 30
0.0
 11
1069.134521
 21
456.930359
 31
0.0
  0
ARC
  5
4BA
330
1F
100
AcDbEntity
  8
0
 62
     7
100
AcDbCircle
 10
1067.647095
 20
453.5
 30
0.0
 40
0.2000000029802322
100
AcDbArc
 50
200.37643
 51
339.623562
  0
LINE
  5
4BB
330
1F
100
AcDbEntity
  8
0
 62
     7
100
AcDbLine
 10
1066.159546
 20
456.930359
 30
0.0
 11
1067.459595
 21
453.430359
 31
0.0
  0
ARC
  5
4BC
330
1F
100
AcDbEntity
  8
0
 62
     7
100
AcDbCircle
 10
1066.347046
 20
457.0
 30
0.0
 40
0.2000000029802322
100
AcDbArc
 50
90.000003
 51
200.37643
  0
LINE
  5
4BD
330
1F
100
AcDbEntity
  8
0
 62
     7
100
AcDbLine
 10
1068.947021
 20
457.200012
 30
0.0
 11
1066.347046
 21
457.200012
 31
0.0
  0
ARC
  5
4BE
330
1F
100
AcDbEntity
  8
0
 62
     7
100
AcDbCircle
 10
1068.947021
 20
457.0
 30
0.0
 40
0.2000000029802322
100
AcDbArc
 50
339.623562
 51
90.000003
  0
LINE
  5
4BF
330
1F
100
AcDbEntity
  8
0
 62
     7
100
AcDbLine
 10
147.834473
 20
453.430359
 30
0.0
 11
149.134491
 21
456.930359
 31
0.0
  0
ARC
  5
4C0
330
1F
100
AcDbEntity
  8
0
 62
     7
100
AcDbCircle
 10
147.647003
 20
453.5
 30
0.0
 40
0.2000000029802322
100
AcDbArc
 50
200.37643
 51
339.623562
  0
LINE
  5
4C1
330
1F
100
AcDbEntity
  8
0
 62
     7
100
AcDbLine
 10
146.159515
 20
456.930359
 30
0.0
 11
147.459503
 21
453.430359
 31
0.0
  0
ARC
  5
4C2
330
1F
100
AcDbEntity
  8
0
 62
     7
100
AcDbCircle
 10
146.346985
 20
457.0
 30
0.0
 40
0.2000000029802322
100
AcDbArc
 50
90.000003
 51
200.37643
  0
LINE
  5
4C3
330
1F
100
AcDbEntity
  8
0
 62
     7
100
AcDbLine
 10
148.946991
 20
457.200012
 30
0.0
 11
146.346985
 21
457.200012
 31
0.0
  0
ARC
  5
4C4
330
1F
100
AcDbEntity
  8
0
 62
     7
100
AcDbCircle
 10
148.946991
 20
457.0
 30
0.0
 40
0.2000000029802322
100
AcDbArc
 50
339.623562
 51
90.000003
  0
LINE
  5
4C5
330
1F
100
AcDbEntity
  8
0
 62
     7
100
AcDbLine
 10
1148.147095
 20
451.899963
 30
0.0
 11
1147.147095
 21
451.899963
 31
0.0
  0
LINE
  5
4C6
330
1F
100
AcDbEntity
  8
0
 62
     7
100
AcDbLine
 10
1146.647095
 20
452.099976
 30
0.0
 11
1147.147095
 21
452.099976
 31
0.0
  0
LINE
  5
4C7
330
1F
100
AcDbEntity
  8
0
 62
     7
100
AcDbLine
 10
1071.041504
 20
474.5
 30
0.0
 11
1071.153809
 21
474.557068
 31
0.0
  0
ARC
  5
4C8
330
1F
100
AcDbEntity
  8
0
 62
     7
100
AcDbCircle
 10
1070.147095
 20
476.400024
 30
0.0
 40
2.099999904632568
100
AcDbArc
 50
298.647887
 51
314.415304
  0
ARC
  5
4C9
330
1F
100
AcDbEntity
  8
0
 62
     7
100
AcDbCircle
 10
1070.147095
 20
476.400024
 30
0.0
 40
2.099999904632568
100
AcDbArc
 50
314.415304
 51
237.479124
  0
LINE
  5
4CA
330
1F
100
AcDbEntity
  8
0
 62
     7
100
AcDbLine
 10
1073.147095
 20
474.900024
 30
0.0
 11
1071.616699
 21
474.900024
 31
0.0
  0
LINE
  5
4CB
330
1F
100
AcDbEntity
  8
0
 62
     7
100
AcDbLine
 10
1073.147095
 20
479.724243
 30
0.0
 11
1067.147095
 21
479.724243
 31
0.0
  0
LINE
  5
4CC
330
1F
100
AcDbEntity
  8
0
 62
     7
100
AcDbLine
 10
1068.677368
 20
474.900024
 30
0.0
 11
1067.147095
 21
474.900024
 31
0.0
  0
LINE
  5
4CD
330
1F
100
AcDbEntity
  8
0
 62
     7
100
AcDbLine
 10
1066.378174
 20
473.799988
 30
0.0
 11
773.915894
 21
473.799988
 31
0.0
  0
LINE
  5
4CE
330
1F
100
AcDbEntity
  8
0
 62
     7
100
AcDbLine
 10
1066.150391
 20
474.5
 30
0.0
 11
774.143677
 21
474.5
 31
0.0
  0
LINE
  5
4CF
330
1F
100
AcDbEntity
  8
0
 62
     7
100
AcDbLine
 10
1066.147095
 20
474.900024
 30
0.0
 11
774.147034
 21
474.900024
 31
0.0
  0
LINE
  5
4D0
330
1F
100
AcDbEntity
  8
0
 62
     7
100
AcDbLine
 10
1066.147095
 20
479.724243
 30
0.0
 11
774.147034
 21
479.724243
 31
0.0
  0
LINE
  5
4D1
330
1F
100
AcDbEntity
  8
0
 62
     7
100
AcDbLine
 10
771.041443
 20
474.5
 30
0.0
 11
771.153809
 21
474.557068
 31
0.0
  0
ARC
  5
4D2
330
1F
100
AcDbEntity
  8
0
 62
     7
100
AcDbCircle
 10
770.147034
 20
476.400024
 30
0.0
 40
2.099999904632568
100
AcDbArc
 50
298.647887
 51
314.415304
  0
LINE
  5
4D3
330
1F
100
AcDbEntity
  8
0
 62
     7
100
AcDbLine
 10
773.147034
 20
474.900024
 30
0.0
 11
771.616699
 21
474.900024
 31
0.0
  0
LINE
  5
4D4
330
1F
100
AcDbEntity
  8
0
 62
     7
100
AcDbLine
 10
773.147034
 20
479.724243
 30
0.0
 11
767.147034
 21
479.724243
 31
0.0
  0
LINE
  5
4D5
330
1F
100
AcDbEntity
  8
0
 62
     7
100
AcDbLine
 10
768.677368
 20
474.900024
 30
0.0
 11
767.147034
 21
474.900024
 31
0.0
  0
ARC
  5
4D6
330
1F
100
AcDbEntity
  8
0
 62
     7
100
AcDbCircle
 10
770.147034
 20
476.400024
 30
0.0
 40
2.099999904632568
100
AcDbArc
 50
314.415304
 51
237.479124
  0
LINE
  5
4D7
330
1F
100
AcDbEntity
  8
0
 62
     7
100
AcDbLine
 10
766.378174
 20
473.799988
 30
0.0
 11
473.915863
 21
473.799988
 31
0.0
  0
LINE
  5
4D8
330
1F
100
AcDbEntity
  8
0
 62
     7
100
AcDbLine
 10
766.150391
 20
474.5
 30
0.0
 11
474.143677
 21
474.5
 31
0.0
  0
LINE
  5
4D9
330
1F
100
AcDbEntity
  8
0
 62
     7
100
AcDbLine
 10
766.147034
 20
474.900024
 30
0.0
 11
474.147003
 21
474.900024
 31
0.0
  0
LINE
  5
4DA
330
1F
100
AcDbEntity
  8
0
 62
     7
100
AcDbLine
 10
766.147034
 20
479.724243
 30
0.0
 11
474.147003
 21
479.724243
 31
0.0
  0
LINE
  5
4DB
330
1F
100
AcDbEntity
  8
0
 62
     7
100
AcDbLine
 10
471.041443
 20
474.5
 30
0.0
 11
471.153809
 21
474.557068
 31
0.0
  0
ARC
  5
4DC
330
1F
100
AcDbEntity
  8
0
 62
     7
100
AcDbCircle
 10
470.147003
 20
476.400024
 30
0.0
 40
2.099999904632568
100
AcDbArc
 50
298.647887
 51
314.415304
  0
ARC
  5
4DD
330
1F
100
AcDbEntity
  8
0
 62
     7
100
AcDbCircle
 10
470.147003
 20
476.400024
 30
0.0
 40
2.099999904632568
100
AcDbArc
 50
314.415304
 51
237.479124
  0
LINE
  5
4DE
330
1F
100
AcDbEntity
  8
0
 62
     7
100
AcDbLine
 10
473.147003
 20
474.900024
 30
0.0
 11
471.616699
 21
474.900024
 31
0.0
  0
LINE
  5
4DF
330
1F
100
AcDbEntity
  8
0
 62
     7
100
AcDbLine
 10
473.147003
 20
479.724243
 30
0.0
 11
467.147003
 21
479.724243
 31
0.0
  0
LINE
  5
4E0
330
1F
100
AcDbEntity
  8
0
 62
     7
100
AcDbLine
 10
468.677307
 20
474.900024
 30
0.0
 11
467.147003
 21
474.900024
 31
0.0
  0
LINE
  5
4E1
330
1F
100
AcDbEntity
  8
0
 62
     7
100
AcDbLine
 10
466.15033
 20
474.5
 30
0.0
 11
174.143646
 21
474.5
 31
0.0
  0
LINE
  5
4E2
330
1F
100
AcDbEntity
  8
0
 62
     7
100
AcDbLine
 10
466.378143
 20
473.799988
 30
0.0
 11
173.915863
 21
473.799988
 31
0.0
  0
LINE
  5
4E3
330
1F
100
AcDbEntity
  8
0
 62
     7
100
AcDbLine
 10
466.147003
 20
474.900024
 30
0.0
 11
174.147003
 21
474.900024
 31
0.0
  0
LINE
  5
4E4
330
1F
100
AcDbEntity
  8
0
 62
     7
100
AcDbLine
 10
466.147003
 20
479.724243
 30
0.0
 11
174.147003
 21
479.724243
 31
0.0
  0
LINE
  5
4E5
330
1F
100
AcDbEntity
  8
0
 62
     7
100
AcDbLine
 10
171.041412
 20
474.5
 30
0.0
 11
171.153778
 21
474.557068
 31
0.0
  0
ARC
  5
4E6
330
1F
100
AcDbEntity
  8
0
 62
     7
100
AcDbCircle
 10
170.147003
 20
476.400024
 30
0.0
 40
2.099999904632568
100
AcDbArc
 50
298.647887
 51
314.415304
  0
LINE
  5
4E7
330
1F
100
AcDbEntity
  8
0
 62
     7
100
AcDbLine
 10
168.677307
 20
474.900024
 30
0.0
 11
167.147003
 21
474.900024
 31
0.0
  0
ARC
  5
4E8
330
1F
100
AcDbEntity
  8
0
 62
     7
100
AcDbCircle
 10
170.147003
 20
476.400024
 30
0.0
 40
2.099999904632568
100
AcDbArc
 50
314.415304
 51
237.479124
  0
LINE
  5
4E9
330
1F
100
AcDbEntity
  8
0
 62
     7
100
AcDbLine
 10
173.147003
 20
474.900024
 30
0.0
 11
171.616699
 21
474.900024
 31
0.0
  0
LINE
  5
4EA
330
1F
100
AcDbEntity
  8
0
 62
     7
100
AcDbLine
 10
173.147003
 20
479.724243
 30
0.0
 11
167.147003
 21
479.724243
 31
0.0
  0
LINE
  5
4EB
330
1F
100
AcDbEntity
  8
0
 62
     7
100
AcDbLine
 10
92.147003
 20
451.900024
 30
0.0
 11
93.147003
 21
451.900024
 31
0.0
  0
LINE
  5
4EC
330
1F
100
AcDbEntity
  8
0
 62
     7
100
AcDbLine
 10
93.147003
 20
452.099976
 30
0.0
 11
93.647003
 21
452.099976
 31
0.0
  0
CIRCLE
  5
4ED
330
1F
100
AcDbEntity
  8
0
 62
     7
100
AcDbCircle
 10
1137.647095
 20
470.099976
 30
0.0
 40
4.5
  0
CIRCLE
  5
4EE
330
1F
100
AcDbEntity
  8
0
 62
     7
100
AcDbCircle
 10
102.647003
 20
470.099976
 30
0.0
 40
4.5
  0
ARC
  5
4EF
330
1F
100
AcDbEntity
  8
0
 62
     7
100
AcDbCircle
 10
1148.147095
 20
452.899963
 30
0.0
 40
1.0
100
AcDbArc
 50
269.999997
 51
0.00001
  0
LINE
  5
4F0
330
1F
100
AcDbEntity
  8
0
 62
     7
100
AcDbLine
 10
1149.147095
 20
479.285767
 30
0.0
 11
1149.147095
 21
452.899963
 31
0.0
  0
LINE
  5
4F1
330
1F
100
AcDbEntity
  8
0
 62
     7
100
AcDbLine
 10
1149.147095
 20
479.981384
 30
0.0
 11
1149.147095
 21
479.285767
 31
0.0
  0
LINE
  5
4F2
330
1F
100
AcDbEntity
  8
0
 62
     7
100
AcDbLine
 10
91.147003
 20
479.285767
 30
0.0
 11
91.147003
 21
479.981384
 31
0.0
  0
LINE
  5
4F3
330
1F
100
AcDbEntity
  8
0
 62
     7
100
AcDbLine
 10
91.147003
 20
452.900024
 30
0.0
 11
91.147003
 21
479.285767
 31
0.0
  0
ARC
  5
4F4
330
1F
100
AcDbEntity
  8
0
 62
     7
100
AcDbCircle
 10
92.147003
 20
452.900024
 30
0.0
 40
1.0
100
AcDbArc
 50
180.000009
 51
269.999997
  0
LINE
  5
4F5
330
1F
100
AcDbEntity
  8
0
 62
     7
100
AcDbLine
 10
1148.147095
 20
482.900024
 30
0.0
 11
1147.147095
 21
482.900024
 31
0.0
  0
LINE
  5
4F6
330
1F
100
AcDbEntity
  8
0
 62
     7
100
AcDbLine
 10
92.147003
 20
482.900024
 30
0.0
 11
93.147003
 21
482.900024
 31
0.0
  0
LINE
  5
4F7
330
1F
100
AcDbEntity
  8
0
 62
     7
100
AcDbLine
 10
1149.147095
 20
480.555908
 30
0.0
 11
1149.147095
 21
479.981384
 31
0.0
  0
LINE
  5
4F8
330
1F
100
AcDbEntity
  8
0
 62
     7
100
AcDbLine
 10
1149.147095
 20
481.900024
 30
0.0
 11
1149.147095
 21
480.555908
 31
0.0
  0
LINE
  5
4F9
330
1F
100
AcDbEntity
  8
0
 62
     7
100
AcDbLine
 10
91.147003
 20
479.981384
 30
0.0
 11
91.147003
 21
480.555908
 31
0.0
  0
LINE
  5
4FA
330
1F
100
AcDbEntity
  8
0
 62
     7
100
AcDbLine
 10
91.147003
 20
480.555908
 30
0.0
 11
91.147003
 21
481.900024
 31
0.0
  0
ARC
  5
4FB
330
1F
100
AcDbEntity
  8
0
 62
     7
100
AcDbCircle
 10
1137.647095
 20
470.799988
 30
0.0
 40
12.80000019073486
100
AcDbArc
 50
73.932611
 51
106.067387
  0
LINE
  5
4FC
330
1F
100
AcDbEntity
  8
0
 62
     7
100
AcDbLine
 10
610.647034
 20
483.099976
 30
0.0
 11
610.647034
 21
488.739868
 31
0.0
  0
ARC
  5
4FD
330
1F
100
AcDbEntity
  8
0
 62
     7
100
AcDbCircle
 10
620.147034
 20
470.799988
 30
0.0
 40
20.29999923706055
100
AcDbArc
 50
62.096726
 51
117.903272
  0
LINE
  5
4FE
330
1F
100
AcDbEntity
  8
0
 62
     7
100
AcDbLine
 10
629.647034
 20
488.739868
 30
0.0
 11
629.647034
 21
483.099976
 31
0.0
  0
CIRCLE
  5
4FF
330
1F
100
AcDbEntity
  8
0
 62
     7
100
AcDbCircle
 10
620.147034
 20
487.099976
 30
0.0
 40
2.5
  0
ARC
  5
500
330
1F
100
AcDbEntity
  8
0
 62
     7
100
AcDbCircle
 10
102.647003
 20
470.799988
 30
0.0
 40
12.80000019073486
100
AcDbArc
 50
73.932611
 51
106.067387
  0
ARC
  5
501
330
1F
100
AcDbEntity
  8
0
 62
     7
100
AcDbCircle
 10
1148.147095
 20
481.900024
 30
0.0
 40
1.0
100
AcDbArc
 50
0.00001
 51
90.000003
  0
ARC
  5
502
330
1F
100
AcDbEntity
  8
0
 62
     7
100
AcDbCircle
 10
92.147003
 20
481.900024
 30
0.0
 40
1.0
100
AcDbArc
 50
90.000003
 51
180.000009
  0
CIRCLE
  5
503
330
1F
100
AcDbEntity
  8
0
 62
     7
100
AcDbCircle
 10
1070.147095
 20
476.400024
 30
0.0
 40
2.0
  0
CIRCLE
  5
504
330
1F
100
AcDbEntity
  8
0
 62
     7
100
AcDbCircle
 10
770.147034
 20
476.400024
 30
0.0
 40
2.0
  0
CIRCLE
  5
505
330
1F
100
AcDbEntity
  8
0
 62
     7
100
AcDbCircle
 10
470.147003
 20
476.400024
 30
0.0
 40
2.0
  0
CIRCLE
  5
506
330
1F
100
AcDbEntity
  8
0
 62
     7
100
AcDbCircle
 10
170.147003
 20
476.400024
 30
0.0
 40
2.0
  0
LINE
  5
507
330
1F
100
AcDbEntity
  8
0
 62
     7
100
AcDbLine
 10
1070.347046
 20
477.099976
 30
0.0
 11
1070.347046
 21
477.599976
 31
0.0
  0
LINE
  5
508
330
1F
100
AcDbEntity
  8
0
 62
     7
100
AcDbLine
 10
1070.347046
 20
477.599976
 30
0.0
 11
1069.947021
 21
477.599976
 31
0.0
  0
LINE
  5
509
330
1F
100
AcDbEntity
  8
0
 62
     7
100
AcDbLine
 10
1069.947021
 20
477.599976
 30
0.0
 11
1069.947021
 21
477.099976
 31
0.0
  0
ARC
  5
50A
330
1F
100
AcDbEntity
  8
0
 62
     7
100
AcDbCircle
 10
1069.447021
 20
477.099976
 30
0.0
 40
0.5
100
AcDbArc
 50
269.999997
 51
0.00001
  0
LINE
  5
50B
330
1F
100
AcDbEntity
  8
0
 62
     7
100
AcDbLine
 10
1069.447021
 20
476.599976
 30
0.0
 11
1068.947021
 21
476.599976
 31
0.0
  0
LINE
  5
50C
330
1F
100
AcDbEntity
  8
0
 62
     7
100
AcDbLine
 10
1068.947021
 20
476.599976
 30
0.0
 11
1068.947021
 21
476.200012
 31
0.0
  0
LINE
  5
50D
330
1F
100
AcDbEntity
  8
0
 62
     7
100
AcDbLine
 10
1068.947021
 20
476.200012
 30
0.0
 11
1069.447021
 21
476.200012
 31
0.0
  0
ARC
  5
50E
330
1F
100
AcDbEntity
  8
0
 62
     7
100
AcDbCircle
 10
1069.447021
 20
475.700012
 30
0.0
 40
0.5
100
AcDbArc
 50
0.00001
 51
90.000003
  0
LINE
  5
50F
330
1F
100
AcDbEntity
  8
0
 62
     7
100
AcDbLine
 10
1069.947021
 20
475.700012
 30
0.0
 11
1069.947021
 21
475.200012
 31
0.0
  0
LINE
  5
510
330
1F
100
AcDbEntity
  8
0
 62
     7
100
AcDbLine
 10
1069.947021
 20
475.200012
 30
0.0
 11
1070.347046
 21
475.200012
 31
0.0
  0
LINE
  5
511
330
1F
100
AcDbEntity
  8
0
 62
     7
100
AcDbLine
 10
1070.347046
 20
475.200012
 30
0.0
 11
1070.347046
 21
475.700012
 31
0.0
  0
ARC
  5
512
330
1F
100
AcDbEntity
  8
0
 62
     7
100
AcDbCircle
 10
1070.847046
 20
475.700012
 30
0.0
 40
0.5
100
AcDbArc
 50
90.000003
 51
180.000009
  0
LINE
  5
513
330
1F
100
AcDbEntity
  8
0
 62
     7
100
AcDbLine
 10
1070.847046
 20
476.200012
 30
0.0
 11
1071.347046
 21
476.200012
 31
0.0
  0
LINE
  5
514
330
1F
100
AcDbEntity
  8
0
 62
     7
100
AcDbLine
 10
1071.347046
 20
476.200012
 30
0.0
 11
1071.347046
 21
476.599976
 31
0.0
  0
LINE
  5
515
330
1F
100
AcDbEntity
  8
0
 62
     7
100
AcDbLine
 10
1071.347046
 20
476.599976
 30
0.0
 11
1070.847046
 21
476.599976
 31
0.0
  0
ARC
  5
516
330
1F
100
AcDbEntity
  8
0
 62
     7
100
AcDbCircle
 10
1070.847046
 20
477.099976
 30
0.0
 40
0.5
100
AcDbArc
 50
180.000009
 51
269.999997
  0
LINE
  5
517
330
1F
100
AcDbEntity
  8
0
 62
     7
100
AcDbLine
 10
770.347046
 20
477.099976
 30
0.0
 11
770.347046
 21
477.599976
 31
0.0
  0
LINE
  5
518
330
1F
100
AcDbEntity
  8
0
 62
     7
100
AcDbLine
 10
770.347046
 20
477.599976
 30
0.0
 11
769.947021
 21
477.599976
 31
0.0
  0
LINE
  5
519
330
1F
100
AcDbEntity
  8
0
 62
     7
100
AcDbLine
 10
769.947021
 20
477.599976
 30
0.0
 11
769.947021
 21
477.099976
 31
0.0
  0
ARC
  5
51A
330
1F
100
AcDbEntity
  8
0
 62
     7
100
AcDbCircle
 10
769.447021
 20
477.099976
 30
0.0
 40
0.5
100
AcDbArc
 50
269.999997
 51
0.00001
  0
LINE
  5
51B
330
1F
100
AcDbEntity
  8
0
 62
     7
100
AcDbLine
 10
769.447021
 20
476.599976
 30
0.0
 11
768.947021
 21
476.599976
 31
0.0
  0
LINE
  5
51C
330
1F
100
AcDbEntity
  8
0
 62
     7
100
AcDbLine
 10
768.947021
 20
476.599976
 30
0.0
 11
768.947021
 21
476.200012
 31
0.0
  0
LINE
  5
51D
330
1F
100
AcDbEntity
  8
0
 62
     7
100
AcDbLine
 10
768.947021
 20
476.200012
 30
0.0
 11
769.447021
 21
476.200012
 31
0.0
  0
ARC
  5
51E
330
1F
100
AcDbEntity
  8
0
 62
     7
100
AcDbCircle
 10
769.447021
 20
475.700012
 30
0.0
 40
0.5
100
AcDbArc
 50
0.00001
 51
90.000003
  0
LINE
  5
51F
330
1F
100
AcDbEntity
  8
0
 62
     7
100
AcDbLine
 10
769.947021
 20
475.700012
 30
0.0
 11
769.947021
 21
475.200012
 31
0.0
  0
LINE
  5
520
330
1F
100
AcDbEntity
  8
0
 62
     7
100
AcDbLine
 10
769.947021
 20
475.200012
 30
0.0
 11
770.347046
 21
475.200012
 31
0.0
  0
LINE
  5
521
330
1F
100
AcDbEntity
  8
0
 62
     7
100
AcDbLine
 10
770.347046
 20
475.200012
 30
0.0
 11
770.347046
 21
475.700012
 31
0.0
  0
ARC
  5
522
330
1F
100
AcDbEntity
  8
0
 62
     7
100
AcDbCircle
 10
770.847046
 20
475.700012
 30
0.0
 40
0.5
100
AcDbArc
 50
90.000003
 51
180.000009
  0
LINE
  5
523
330
1F
100
AcDbEntity
  8
0
 62
     7
100
AcDbLine
 10
770.847046
 20
476.200012
 30
0.0
 11
771.347046
 21
476.200012
 31
0.0
  0
LINE
  5
524
330
1F
100
AcDbEntity
  8
0
 62
     7
100
AcDbLine
 10
771.347046
 20
476.200012
 30
0.0
 11
771.347046
 21
476.599976
 31
0.0
  0
LINE
  5
525
330
1F
100
AcDbEntity
  8
0
 62
     7
100
AcDbLine
 10
771.347046
 20
476.599976
 30
0.0
 11
770.847046
 21
476.599976
 31
0.0
  0
ARC
  5
526
330
1F
100
AcDbEntity
  8
0
 62
     7
100
AcDbCircle
 10
770.847046
 20
477.099976
 30
0.0
 40
0.5
100
AcDbArc
 50
180.000009
 51
269.999997
  0
LINE
  5
527
330
1F
100
AcDbEntity
  8
0
 62
     7
100
AcDbLine
 10
470.347015
 20
477.099976
 30
0.0
 11
470.347015
 21
477.599976
 31
0.0
  0
LINE
  5
528
330
1F
100
AcDbEntity
  8
0
 62
     7
100
AcDbLine
 10
470.347015
 20
477.599976
 30
0.0
 11
469.946991
 21
477.599976
 31
0.0
  0
LINE
  5
529
330
1F
100
AcDbEntity
  8
0
 62
     7
100
AcDbLine
 10
469.946991
 20
477.599976
 30
0.0
 11
469.946991
 21
477.099976
 31
0.0
  0
ARC
  5
52A
330
1F
100
AcDbEntity
  8
0
 62
     7
100
AcDbCircle
 10
469.446991
 20
477.099976
 30
0.0
 40
0.5
100
AcDbArc
 50
269.999997
 51
0.00001
  0
LINE
  5
52B
330
1F
100
AcDbEntity
  8
0
 62
     7
100
AcDbLine
 10
469.446991
 20
476.599976
 30
0.0
 11
468.946991
 21
476.599976
 31
0.0
  0
LINE
  5
52C
330
1F
100
AcDbEntity
  8
0
 62
     7
100
AcDbLine
 10
468.946991
 20
476.599976
 30
0.0
 11
468.946991
 21
476.200012
 31
0.0
  0
LINE
  5
52D
330
1F
100
AcDbEntity
  8
0
 62
     7
100
AcDbLine
 10
468.946991
 20
476.200012
 30
0.0
 11
469.446991
 21
476.200012
 31
0.0
  0
ARC
  5
52E
330
1F
100
AcDbEntity
  8
0
 62
     7
100
AcDbCircle
 10
469.446991
 20
475.700012
 30
0.0
 40
0.5
100
AcDbArc
 50
0.00001
 51
90.000003
  0
LINE
  5
52F
330
1F
100
AcDbEntity
  8
0
 62
     7
100
AcDbLine
 10
469.946991
 20
475.700012
 30
0.0
 11
469.946991
 21
475.200012
 31
0.0
  0
LINE
  5
530
330
1F
100
AcDbEntity
  8
0
 62
     7
100
AcDbLine
 10
469.946991
 20
475.200012
 30
0.0
 11
470.347015
 21
475.200012
 31
0.0
  0
LINE
  5
531
330
1F
100
AcDbEntity
  8
0
 62
     7
100
AcDbLine
 10
470.347015
 20
475.200012
 30
0.0
 11
470.347015
 21
475.700012
 31
0.0
  0
ARC
  5
532
330
1F
100
AcDbEntity
  8
0
 62
     7
100
AcDbCircle
 10
470.847015
 20
475.700012
 30
0.0
 40
0.5
100
AcDbArc
 50
90.000003
 51
180.000009
  0
LINE
  5
533
330
1F
100
AcDbEntity
  8
0
 62
     7
100
AcDbLine
 10
470.847015
 20
476.200012
 30
0.0
 11
471.347015
 21
476.200012
 31
0.0
  0
LINE
  5
534
330
1F
100
AcDbEntity
  8
0
 62
     7
100
AcDbLine
 10
471.347015
 20
476.200012
 30
0.0
 11
471.347015
 21
476.599976
 31
0.0
  0
LINE
  5
535
330
1F
100
AcDbEntity
  8
0
 62
     7
100
AcDbLine
 10
471.347015
 20
476.599976
 30
0.0
 11
470.847015
 21
476.599976
 31
0.0
  0
ARC
  5
536
330
1F
100
AcDbEntity
  8
0
 62
     7
100
AcDbCircle
 10
470.847015
 20
477.099976
 30
0.0
 40
0.5
100
AcDbArc
 50
180.000009
 51
269.999997
  0
LINE
  5
537
330
1F
100
AcDbEntity
  8
0
 62
     7
100
AcDbLine
 10
170.346985
 20
477.099976
 30
0.0
 11
170.346985
 21
477.599976
 31
0.0
  0
LINE
  5
538
330
1F
100
AcDbEntity
  8
0
 62
     7
100
AcDbLine
 10
170.346985
 20
477.599976
 30
0.0
 11
169.946991
 21
477.599976
 31
0.0
  0
LINE
  5
539
330
1F
100
AcDbEntity
  8
0
 62
     7
100
AcDbLine
 10
169.946991
 20
477.599976
 30
0.0
 11
169.946991
 21
477.099976
 31
0.0
  0
ARC
  5
53A
330
1F
100
AcDbEntity
  8
0
 62
     7
100
AcDbCircle
 10
169.446991
 20
477.099976
 30
0.0
 40
0.5
100
AcDbArc
 50
269.999997
 51
0.00001
  0
LINE
  5
53B
330
1F
100
AcDbEntity
  8
0
 62
     7
100
AcDbLine
 10
169.446991
 20
476.599976
 30
0.0
 11
168.946991
 21
476.599976
 31
0.0
  0
LINE
  5
53C
330
1F
100
AcDbEntity
  8
0
 62
     7
100
AcDbLine
 10
168.946991
 20
476.599976
 30
0.0
 11
168.946991
 21
476.200012
 31
0.0
  0
LINE
  5
53D
330
1F
100
AcDbEntity
  8
0
 62
     7
100
AcDbLine
 10
168.946991
 20
476.200012
 30
0.0
 11
169.446991
 21
476.200012
 31
0.0
  0
ARC
  5
53E
330
1F
100
AcDbEntity
  8
0
 62
     7
100
AcDbCircle
 10
169.446991
 20
475.700012
 30
0.0
 40
0.5
100
AcDbArc
 50
0.00001
 51
90.000003
  0
LINE
  5
53F
330
1F
100
AcDbEntity
  8
0
 62
     7
100
AcDbLine
 10
169.946991
 20
475.700012
 30
0.0
 11
169.946991
 21
475.200012
 31
0.0
  0
LINE
  5
540
330
1F
100
AcDbEntity
  8
0
 62
     7
100
AcDbLine
 10
169.946991
 20
475.200012
 30
0.0
 11
170.346985
 21
475.200012
 31
0.0
  0
LINE
  5
541
330
1F
100
AcDbEntity
  8
0
 62
     7
100
AcDbLine
 10
170.346985
 20
475.200012
 30
0.0
 11
170.346985
 21
475.700012
 31
0.0
  0
ARC
  5
542
330
1F
100
AcDbEntity
  8
0
 62
     7
100
AcDbCircle
 10
170.846985
 20
475.700012
 30
0.0
 40
0.5
100
AcDbArc
 50
90.000003
 51
180.000009
  0
LINE
  5
543
330
1F
100
AcDbEntity
  8
0
 62
     7
100
AcDbLine
 10
170.846985
 20
476.200012
 30
0.0
 11
171.346985
 21
476.200012
 31
0.0
  0
LINE
  5
544
330
1F
100
AcDbEntity
  8
0
 62
     7
100
AcDbLine
 10
171.346985
 20
476.200012
 30
0.0
 11
171.346985
 21
476.599976
 31
0.0
  0
LINE
  5
545
330
1F
100
AcDbEntity
  8
0
 62
     7
100
AcDbLine
 10
171.346985
 20
476.599976
 30
0.0
 11
170.846985
 21
476.599976
 31
0.0
  0
ARC
  5
546
330
1F
100
AcDbEntity
  8
0
 62
     7
100
AcDbCircle
 10
170.846985
 20
477.099976
 30
0.0
 40
0.5
100
AcDbArc
 50
180.000009
 51
269.999997
  0
LINE
  5
547
330
1F
100
AcDbEntity
  8
0
 62
     7
100
AcDbLine
 10
1149.147095
 20
456.549988
 30
0.0
 11
1149.147095
 21
459.450012
 31
0.0
  0
LINE
  5
548
330
1F
100
AcDbEntity
  8
0
 62
     7
100
AcDbLine
 10
1149.147095
 20
460.75
 30
0.0
 11
1149.147095
 21
463.650024
 31
0.0
  0
LINE
  5
549
330
1F
100
AcDbEntity
  8
0
 62
     7
100
AcDbLine
 10
1074.147095
 20
480.299988
 30
0.0
 11
1146.647095
 21
480.299988
 31
0.0
  0
LINE
  5
54A
330
1F
100
AcDbEntity
  8
0
 62
     7
100
AcDbLine
 10
93.647003
 20
480.299988
 30
0.0
 11
166.147003
 21
480.299988
 31
0.0
  0
LINE
  5
54B
330
1F
100
AcDbEntity
  8
0
 62
     7
100
AcDbLine
 10
1067.147095
 20
480.299988
 30
0.0
 11
1073.147095
 21
480.299988
 31
0.0
  0
LINE
  5
54C
330
1F
100
AcDbEntity
  8
0
 62
     7
100
AcDbLine
 10
774.147034
 20
480.299988
 30
0.0
 11
1066.147095
 21
480.299988
 31
0.0
  0
LINE
  5
54D
330
1F
100
AcDbEntity
  8
0
 62
     7
100
AcDbLine
 10
767.147034
 20
480.299988
 30
0.0
 11
773.147034
 21
480.299988
 31
0.0
  0
LINE
  5
54E
330
1F
100
AcDbEntity
  8
0
 62
     7
100
AcDbLine
 10
474.147003
 20
480.299988
 30
0.0
 11
766.147034
 21
480.299988
 31
0.0
  0
LINE
  5
54F
330
1F
100
AcDbEntity
  8
0
 62
     7
100
AcDbLine
 10
467.147003
 20
480.299988
 30
0.0
 11
473.147003
 21
480.299988
 31
0.0
  0
LINE
  5
550
330
1F
100
AcDbEntity
  8
0
 62
     7
100
AcDbLine
 10
174.147003
 20
480.299988
 30
0.0
 11
466.147003
 21
480.299988
 31
0.0
  0
LINE
  5
551
330
1F
100
AcDbEntity
  8
0
 62
     7
100
AcDbLine
 10
167.147003
 20
480.299988
 30
0.0
 11
173.147003
 21
480.299988
 31
0.0
  0
LINE
  5
552
330
1F
100
AcDbEntity
  8
0
 62
     7
100
AcDbLine
 10
226.546997
 20
449.599854
 30
0.0
 11
226.546997
 21
449.889954
 31
0.0
  0
LINE
  5
553
330
1F
100
AcDbEntity
  8
0
 62
     7
100
AcDbLine
 10
226.546997
 20
449.889954
 30
0.0
 11
226.346985
 21
450.093201
 31
0.0
  0
LINE
  5
554
330
1F
100
AcDbEntity
  8
0
 62
     7
100
AcDbLine
 10
226.346985
 20
449.759216
 30
0.0
 11
226.346985
 21
450.093201
 31
0.0
  0
LINE
  5
555
330
1F
100
AcDbEntity
  8
0
 62
     7
100
AcDbLine
 10
226.346985
 20
450.093201
 30
0.0
 11
225.346985
 21
450.093201
 31
0.0
  0
LINE
  5
556
330
1F
100
AcDbEntity
  8
0
 62
     7
100
AcDbLine
 10
225.346985
 20
450.093201
 30
0.0
 11
225.346985
 21
450.149963
 31
0.0
  0
LINE
  5
557
330
1F
100
AcDbEntity
  8
0
 62
     7
100
AcDbLine
 10
224.747009
 20
450.149963
 30
0.0
 11
225.346985
 21
450.149963
 31
0.0
  0
LINE
  5
558
330
1F
100
AcDbEntity
  8
0
 62
     7
100
AcDbLine
 10
224.747009
 20
449.799927
 30
0.0
 11
224.747009
 21
450.149963
 31
0.0
  0
LINE
  5
559
330
1F
100
AcDbEntity
  8
0
 62
     7
100
AcDbLine
 10
226.346985
 20
450.093201
 30
0.0
 11
225.346985
 21
450.093201
 31
0.0
  0
LINE
  5
55A
330
1F
100
AcDbEntity
  8
0
 62
     7
100
AcDbLine
 10
226.546997
 20
449.889954
 30
0.0
 11
226.346985
 21
450.093201
 31
0.0
  0
LINE
  5
55B
330
1F
100
AcDbEntity
  8
0
 62
     7
100
AcDbLine
 10
224.446991
 20
449.799988
 30
0.0
 11
224.446991
 21
449.899963
 31
0.0
  0
LINE
  5
55C
330
1F
100
AcDbEntity
  8
0
 62
     7
100
AcDbLine
 10
226.147003
 20
449.799988
 30
0.0
 11
224.147003
 21
449.799988
 31
0.0
  0
ARC
  5
55D
330
1F
100
AcDbEntity
  8
0
 62
     7
100
AcDbCircle
 10
224.147003
 20
450.299988
 30
0.0
 40
0.5
100
AcDbArc
 50
180.000009
 51
269.999997
  0
LINE
  5
55E
330
1F
100
AcDbEntity
  8
0
 62
     7
100
AcDbLine
 10
226.147003
 20
449.299988
 30
0.0
 11
226.500549
 21
449.653564
 31
0.0
  0
ARC
  5
55F
330
1F
100
AcDbEntity
  8
0
 62
     7
100
AcDbCircle
 10
226.147003
 20
449.299988
 30
0.0
 40
0.5
100
AcDbArc
 50
0.00001
 51
89.999559
  0
LINE
  5
560
330
1F
100
AcDbEntity
  8
0
 62
     7
100
AcDbLine
 10
226.647003
 20
426.200012
 30
0.0
 11
226.647003
 21
449.299988
 31
0.0
  0
ARC
  5
561
330
1F
100
AcDbEntity
  8
0
 62
     7
100
AcDbCircle
 10
223.147003
 20
450.299988
 30
0.0
 40
0.5
100
AcDbArc
 50
0.00001
 51
90.000003
  0
LINE
  5
562
330
1F
100
AcDbEntity
  8
0
 62
     7
100
AcDbLine
 10
219.147003
 20
429.0
 30
0.0
 11
101.147003
 21
429.0
 31
0.0
  0
LINE
  5
563
330
1F
100
AcDbEntity
  8
0
 62
     7
100
AcDbLine
 10
149.296844
 20
443.857971
 30
0.0
 11
147.834473
 21
447.795227
 31
0.0
  0
ARC
  5
564
330
1F
100
AcDbEntity
  8
0
 62
     7
100
AcDbCircle
 10
149.109375
 20
443.78833
 30
0.0
 40
0.2000000029802322
100
AcDbArc
 50
269.999997
 51
20.376
  0
LINE
  5
565
330
1F
100
AcDbEntity
  8
0
 62
     7
100
AcDbLine
 10
146.184631
 20
443.588318
 30
0.0
 11
149.109375
 21
443.588318
 31
0.0
  0
ARC
  5
566
330
1F
100
AcDbEntity
  8
0
 62
     7
100
AcDbCircle
 10
146.184631
 20
443.78833
 30
0.0
 40
0.2000000029802322
100
AcDbArc
 50
159.624007
 51
269.999997
  0
LINE
  5
567
330
1F
100
AcDbEntity
  8
0
 62
     7
100
AcDbLine
 10
147.459503
 20
447.795227
 30
0.0
 11
145.997131
 21
443.857971
 31
0.0
  0
ARC
  5
568
330
1F
100
AcDbEntity
  8
0
 62
     7
100
AcDbCircle
 10
147.647003
 20
447.725586
 30
0.0
 40
0.2000000029802322
100
AcDbArc
 50
20.376
 51
159.624007
  0
LINE
  5
569
330
1F
100
AcDbEntity
  8
0
 62
     7
100
AcDbLine
 10
226.147003
 20
426.200012
 30
0.0
 11
226.397003
 21
425.950012
 31
0.0
  0
LINE
  5
56A
330
1F
100
AcDbEntity
  8
0
 62
     7
100
AcDbLine
 10
226.397003
 20
425.950012
 30
0.0
 11
226.647003
 21
426.200012
 31
0.0
  0
LINE
  5
56B
330
1F
100
AcDbEntity
  8
0
 62
     7
100
AcDbLine
 10
226.147003
 20
425.700012
 30
0.0
 11
226.397003
 21
425.950012
 31
0.0
  0
LINE
  5
56C
330
1F
100
AcDbEntity
  8
0
 62
     7
100
AcDbLine
 10
204.147003
 20
450.799988
 30
0.0
 11
205.147003
 21
450.799988
 31
0.0
  0
LINE
  5
56D
330
1F
100
AcDbEntity
  8
0
 62
     7
100
AcDbLine
 10
206.147003
 20
450.799988
 30
0.0
 11
205.147003
 21
450.799988
 31
0.0
  0
LINE
  5
56E
330
1F
100
AcDbEntity
  8
0
 62
     7
100
AcDbLine
 10
223.147003
 20
450.799988
 30
0.0
 11
206.147003
 21
450.799988
 31
0.0
  0
LINE
  5
56F
330
1F
100
AcDbEntity
  8
0
 62
     7
100
AcDbLine
 10
94.147003
 20
426.200012
 30
0.0
 11
93.897003
 21
425.950012
 31
0.0
  0
LINE
  5
570
330
1F
100
AcDbEntity
  8
0
 62
     7
100
AcDbLine
 10
94.147003
 20
449.299988
 30
0.0
 11
93.793442
 21
449.653564
 31
0.0
  0
ARC
  5
571
330
1F
100
AcDbEntity
  8
0
 62
     7
100
AcDbCircle
 10
94.147003
 20
449.299988
 30
0.0
 40
0.5
100
AcDbArc
 50
90.000003
 51
179.999554
  0
LINE
  5
572
330
1F
100
AcDbEntity
  8
0
 62
     7
100
AcDbLine
 10
93.647003
 20
449.299988
 30
0.0
 11
93.647003
 21
426.200012
 31
0.0
  0
LINE
  5
573
330
1F
100
AcDbEntity
  8
0
 62
     7
100
AcDbLine
 10
93.647003
 20
426.200012
 30
0.0
 11
93.897003
 21
425.950012
 31
0.0
  0
LINE
  5
574
330
1F
100
AcDbEntity
  8
0
 62
     7
100
AcDbLine
 10
101.147003
 20
425.700012
 30
0.0
 11
94.147003
 21
425.700012
 31
0.0
  0
LINE
  5
575
330
1F
100
AcDbEntity
  8
0
 62
     7
100
AcDbLine
 10
93.897003
 20
425.950012
 30
0.0
 11
94.147003
 21
425.700012
 31
0.0
  0
LINE
  5
576
330
1F
100
AcDbEntity
  8
0
 62
     7
100
AcDbLine
 10
101.647003
 20
426.200012
 30
0.0
 11
101.647003
 21
429.0
 31
0.0
  0
LINE
  5
577
330
1F
100
AcDbEntity
  8
0
 62
     7
100
AcDbLine
 10
218.647003
 20
426.200012
 30
0.0
 11
218.647003
 21
429.0
 31
0.0
  0
LINE
  5
578
330
1F
100
AcDbEntity
  8
0
 62
     7
100
AcDbLine
 10
226.147003
 20
425.700012
 30
0.0
 11
219.147003
 21
425.700012
 31
0.0
  0
LINE
  5
579
330
1F
100
AcDbEntity
  8
0
 62
     7
100
AcDbLine
 10
205.147003
 20
449.799988
 30
0.0
 11
191.147003
 21
449.799988
 31
0.0
  0
LINE
  5
57A
330
1F
100
AcDbEntity
  8
0
 62
     7
100
AcDbLine
 10
190.846985
 20
448.299988
 30
0.0
 11
190.846985
 21
449.5
 31
0.0
  0
ARC
  5
57B
330
1F
100
AcDbEntity
  8
0
 62
     7
100
AcDbCircle
 10
188.647003
 20
448.299988
 30
0.0
 40
2.200000047683716
100
AcDbArc
 50
180.000009
 51
0.00001
  0
LINE
  5
57C
330
1F
100
AcDbEntity
  8
0
 62
     7
100
AcDbLine
 10
186.446991
 20
449.5
 30
0.0
 11
186.446991
 21
448.299988
 31
0.0
  0
LINE
  5
57D
330
1F
100
AcDbEntity
  8
0
 62
     7
100
AcDbLine
 10
186.147003
 20
449.799988
 30
0.0
 11
112.147003
 21
449.799988
 31
0.0
  0
LINE
  5
57E
330
1F
100
AcDbEntity
  8
0
 62
     7
100
AcDbLine
 10
111.847
 20
448.299988
 30
0.0
 11
111.847
 21
449.5
 31
0.0
  0
ARC
  5
57F
330
1F
100
AcDbEntity
  8
0
 62
     7
100
AcDbCircle
 10
109.647003
 20
448.299988
 30
0.0
 40
2.200000047683716
100
AcDbArc
 50
180.000009
 51
0.00001
  0
ARC
  5
580
330
1F
100
AcDbEntity
  8
0
 62
     7
100
AcDbCircle
 10
113.313065
 20
447.799988
 30
0.0
 40
1.0
100
AcDbArc
 50
90.000003
 51
172.233561
  0
LINE
  5
581
330
1F
100
AcDbEntity
  8
0
 62
     7
100
AcDbLine
 10
113.313065
 20
448.799988
 30
0.0
 11
126.647003
 21
448.799988
 31
0.0
  0
ARC
  5
582
330
1F
100
AcDbEntity
  8
0
 62
     7
100
AcDbCircle
 10
126.647003
 20
445.799988
 30
0.0
 40
3.0
100
AcDbArc
 50
0.00001
 51
90.000003
  0
LINE
  5
583
330
1F
100
AcDbEntity
  8
0
 62
     7
100
AcDbLine
 10
129.647003
 20
433.0
 30
0.0
 11
129.647003
 21
445.799988
 31
0.0
  0
ARC
  5
584
330
1F
100
AcDbEntity
  8
0
 62
     7
100
AcDbCircle
 10
126.647003
 20
433.0
 30
0.0
 40
3.0
100
AcDbArc
 50
269.999997
 51
0.00001
  0
LINE
  5
585
330
1F
100
AcDbEntity
  8
0
 62
     7
100
AcDbLine
 10
126.647003
 20
430.0
 30
0.0
 11
112.647003
 21
430.0
 31
0.0
  0
ARC
  5
586
330
1F
100
AcDbEntity
  8
0
 62
     7
100
AcDbCircle
 10
112.647003
 20
433.0
 30
0.0
 40
3.0
100
AcDbArc
 50
180.000009
 51
269.999997
  0
LINE
  5
587
330
1F
100
AcDbEntity
  8
0
 62
     7
100
AcDbLine
 10
109.647003
 20
444.737671
 30
0.0
 11
109.647003
 21
433.0
 31
0.0
  0
ARC
  5
588
330
1F
100
AcDbEntity
  8
0
 62
     7
100
AcDbCircle
 10
110.647003
 20
444.737671
 30
0.0
 40
1.0
100
AcDbArc
 50
105.680348
 51
180.000009
  0
LINE
  5
589
330
1F
100
AcDbEntity
  8
0
 62
     7
100
AcDbLine
 10
107.447006
 20
449.5
 30
0.0
 11
107.447006
 21
448.299988
 31
0.0
  0
LINE
  5
58A
330
1F
100
AcDbEntity
  8
0
 62
     7
100
AcDbLine
 10
107.147003
 20
449.799988
 30
0.0
 11
106.647003
 21
449.799988
 31
0.0
  0
LINE
  5
58B
330
1F
100
AcDbEntity
  8
0
 62
     7
100
AcDbLine
 10
105.647003
 20
450.799988
 30
0.0
 11
97.147003
 21
450.799988
 31
0.0
  0
LINE
  5
58C
330
1F
100
AcDbEntity
  8
0
 62
     7
100
AcDbLine
 10
96.147003
 20
449.799988
 30
0.0
 11
94.147003
 21
449.799988
 31
0.0
  0
LINE
  5
58D
330
1F
100
AcDbEntity
  8
0
 62
     7
100
AcDbLine
 10
168.647003
 20
448.799988
 30
0.0
 11
182.647003
 21
448.799988
 31
0.0
  0
ARC
  5
58E
330
1F
100
AcDbEntity
  8
0
 62
     7
100
AcDbCircle
 10
182.647003
 20
445.799988
 30
0.0
 40
3.0
100
AcDbArc
 50
0.00001
 51
90.000003
  0
LINE
  5
58F
330
1F
100
AcDbEntity
  8
0
 62
     7
100
AcDbLine
 10
185.647003
 20
433.0
 30
0.0
 11
185.647003
 21
445.799988
 31
0.0
  0
ARC
  5
590
330
1F
100
AcDbEntity
  8
0
 62
     7
100
AcDbCircle
 10
182.647003
 20
433.0
 30
0.0
 40
3.0
100
AcDbArc
 50
269.999997
 51
0.00001
  0
LINE
  5
591
330
1F
100
AcDbEntity
  8
0
 62
     7
100
AcDbLine
 10
182.647003
 20
430.0
 30
0.0
 11
168.647003
 21
430.0
 31
0.0
  0
ARC
  5
592
330
1F
100
AcDbEntity
  8
0
 62
     7
100
AcDbCircle
 10
168.647003
 20
433.0
 30
0.0
 40
3.0
100
AcDbArc
 50
180.000009
 51
269.999997
  0
LINE
  5
593
330
1F
100
AcDbEntity
  8
0
 62
     7
100
AcDbLine
 10
165.647003
 20
445.799988
 30
0.0
 11
165.647003
 21
433.0
 31
0.0
  0
ARC
  5
594
330
1F
100
AcDbEntity
  8
0
 62
     7
100
AcDbCircle
 10
168.647003
 20
445.799988
 30
0.0
 40
3.0
100
AcDbArc
 50
90.000003
 51
180.000009
  0
LINE
  5
595
330
1F
100
AcDbEntity
  8
0
 62
     7
100
AcDbLine
 10
106.647003
 20
450.799988
 30
0.0
 11
105.647003
 21
450.799988
 31
0.0
  0
LINE
  5
596
330
1F
100
AcDbEntity
  8
0
 62
     7
100
AcDbLine
 10
107.647003
 20
450.799988
 30
0.0
 11
106.647003
 21
450.799988
 31
0.0
  0
LINE
  5
597
330
1F
100
AcDbEntity
  8
0
 62
     7
100
AcDbLine
 10
102.897003
 20
428.599976
 30
0.0
 11
102.897003
 21
429.0
 31
0.0
  0
LINE
  5
598
330
1F
100
AcDbEntity
  8
0
 62
     7
100
AcDbLine
 10
217.397003
 20
428.599976
 30
0.0
 11
217.397003
 21
429.0
 31
0.0
  0
LINE
  5
599
330
1F
100
AcDbEntity
  8
0
 62
     7
100
AcDbLine
 10
117.370209
 20
428.849976
 30
0.0
 11
117.170197
 21
428.849976
 31
0.0
  0
LINE
  5
59A
330
1F
100
AcDbEntity
  8
0
 62
     7
100
AcDbLine
 10
114.123795
 20
428.849976
 30
0.0
 11
117.170197
 21
428.849976
 31
0.0
  0
LINE
  5
59B
330
1F
100
AcDbEntity
  8
0
 62
     7
100
AcDbLine
 10
114.123795
 20
428.849976
 30
0.0
 11
113.923798
 21
428.849976
 31
0.0
  0
LINE
  5
59C
330
1F
100
AcDbEntity
  8
0
 62
     7
100
AcDbLine
 10
203.123779
 20
428.849976
 30
0.0
 11
202.923798
 21
428.849976
 31
0.0
  0
LINE
  5
59D
330
1F
100
AcDbEntity
  8
0
 62
     7
100
AcDbLine
 10
206.370209
 20
428.849976
 30
0.0
 11
206.170197
 21
428.849976
 31
0.0
  0
LINE
  5
59E
330
1F
100
AcDbEntity
  8
0
 62
     7
100
AcDbLine
 10
203.123779
 20
428.849976
 30
0.0
 11
206.170197
 21
428.849976
 31
0.0
  0
ARC
  5
59F
330
1F
100
AcDbEntity
  8
0
 62
     7
100
AcDbCircle
 10
206.147003
 20
450.299988
 30
0.0
 40
0.5
100
AcDbArc
 50
90.000003
 51
180.000009
  0
ARC
  5
5A0
330
1F
100
AcDbEntity
  8
0
 62
     7
100
AcDbCircle
 10
101.147003
 20
426.200012
 30
0.0
 40
0.5
100
AcDbArc
 50
269.999997
 51
0.00001
  0
ARC
  5
5A1
330
1F
100
AcDbEntity
  8
0
 62
     7
100
AcDbCircle
 10
219.147003
 20
426.200012
 30
0.0
 40
0.5
100
AcDbArc
 50
180.000009
 51
269.999997
  0
ARC
  5
5A2
330
1F
100
AcDbEntity
  8
0
 62
     7
100
AcDbCircle
 10
205.147003
 20
450.299988
 30
0.0
 40
0.5
100
AcDbArc
 50
269.999997
 51
0.00001
  0
LINE
  5
5A3
330
1F
100
AcDbEntity
  8
0
 62
     7
100
AcDbLine
 10
107.546997
 20
449.799988
 30
0.0
 11
107.147003
 21
449.799988
 31
0.0
  0
LINE
  5
5A4
330
1F
100
AcDbEntity
  8
0
 62
     7
100
AcDbLine
 10
107.546997
 20
449.799988
 30
0.0
 11
107.647003
 21
449.799988
 31
0.0
  0
ARC
  5
5A5
330
1F
100
AcDbEntity
  8
0
 62
     7
100
AcDbCircle
 10
191.147003
 20
449.5
 30
0.0
 40
0.300000011920929
100
AcDbArc
 50
90.000003
 51
180.000009
  0
ARC
  5
5A6
330
1F
100
AcDbEntity
  8
0
 62
     7
100
AcDbCircle
 10
186.147003
 20
449.5
 30
0.0
 40
0.300000011920929
100
AcDbArc
 50
0.00001
 51
90.000003
  0
ARC
  5
5A7
330
1F
100
AcDbEntity
  8
0
 62
     7
100
AcDbCircle
 10
112.147003
 20
449.5
 30
0.0
 40
0.300000011920929
100
AcDbArc
 50
90.000003
 51
180.000009
  0
ARC
  5
5A8
330
1F
100
AcDbEntity
  8
0
 62
     7
100
AcDbCircle
 10
109.647003
 20
448.299988
 30
0.0
 40
2.700000047683716
100
AcDbArc
 50
285.680336
 51
352.233566
  0
CIRCLE
  5
5A9
330
1F
100
AcDbEntity
  8
0
 62
     7
100
AcDbCircle
 10
119.647003
 20
441.399963
 30
0.0
 40
4.5
  0
ARC
  5
5AA
330
1F
100
AcDbEntity
  8
0
 62
     7
100
AcDbCircle
 10
107.147003
 20
449.5
 30
0.0
 40
0.300000011920929
100
AcDbArc
 50
0.00001
 51
90.000003
  0
ARC
  5
5AB
330
1F
100
AcDbEntity
  8
0
 62
     7
100
AcDbCircle
 10
106.647003
 20
450.299988
 30
0.0
 40
0.5
100
AcDbArc
 50
180.000009
 51
269.999997
  0
ARC
  5
5AC
330
1F
100
AcDbEntity
  8
0
 62
     7
100
AcDbCircle
 10
105.647003
 20
450.299988
 30
0.0
 40
0.5
100
AcDbArc
 50
0.00001
 51
90.000003
  0
ARC
  5
5AD
330
1F
100
AcDbEntity
  8
0
 62
     7
100
AcDbCircle
 10
97.147003
 20
450.299988
 30
0.0
 40
0.5
100
AcDbArc
 50
90.000003
 51
180.000009
  0
ARC
  5
5AE
330
1F
100
AcDbEntity
  8
0
 62
     7
100
AcDbCircle
 10
96.147003
 20
450.299988
 30
0.0
 40
0.5
100
AcDbArc
 50
269.999997
 51
0.00001
  0
CIRCLE
  5
5AF
330
1F
100
AcDbEntity
  8
0
 62
     7
100
AcDbCircle
 10
175.647003
 20
441.399963
 30
0.0
 40
4.5
  0
LINE
  5
5B0
330
1F
100
AcDbEntity
  8
0
 62
     7
100
AcDbLine
 10
95.847
 20
449.799988
 30
0.0
 11
95.847
 21
449.899963
 31
0.0
  0
LINE
  5
5B1
330
1F
100
AcDbEntity
  8
0
 62
     7
100
AcDbLine
 10
217.596985
 20
428.599976
 30
0.0
 11
218.596985
 21
428.599976
 31
0.0
  0
LINE
  5
5B2
330
1F
100
AcDbEntity
  8
0
 62
     7
100
AcDbLine
 10
217.596985
 20
428.599976
 30
0.0
 11
206.170197
 21
428.599976
 31
0.0
  0
LINE
  5
5B3
330
1F
100
AcDbEntity
  8
0
 62
     7
100
AcDbLine
 10
203.123779
 20
428.599976
 30
0.0
 11
117.170197
 21
428.599976
 31
0.0
  0
LINE
  5
5B4
330
1F
100
AcDbEntity
  8
0
 62
     7
100
AcDbLine
 10
114.123795
 20
428.599976
 30
0.0
 11
102.697006
 21
428.599976
 31
0.0
  0
LINE
  5
5B5
330
1F
100
AcDbEntity
  8
0
 62
     7
100
AcDbLine
 10
101.697006
 20
428.599976
 30
0.0
 11
102.697006
 21
428.599976
 31
0.0
  0
LINE
  5
5B6
330
1F
100
AcDbEntity
  8
0
 62
     7
100
AcDbLine
 10
217.596985
 20
426.099976
 30
0.0
 11
102.697006
 21
426.099976
 31
0.0
  0
LINE
  5
5B7
330
1F
100
AcDbEntity
  8
0
 62
     7
100
AcDbLine
 10
107.647003
 20
448.299988
 30
0.0
 11
107.647003
 21
450.299988
 31
0.0
  0
LINE
  5
5B8
330
1F
100
AcDbEntity
  8
0
 62
     7
100
AcDbLine
 10
107.647003
 20
450.799988
 30
0.0
 11
107.647003
 21
450.299988
 31
0.0
  0
LINE
  5
5B9
330
1F
100
AcDbEntity
  8
0
 62
     7
100
AcDbLine
 10
107.647003
 20
451.799988
 30
0.0
 11
107.647003
 21
450.799988
 31
0.0
  0
LINE
  5
5BA
330
1F
100
AcDbEntity
  8
0
 62
     7
100
AcDbLine
 10
204.147003
 20
449.799988
 30
0.0
 11
204.147003
 21
450.299988
 31
0.0
  0
LINE
  5
5BB
330
1F
100
AcDbEntity
  8
0
 62
     7
100
AcDbLine
 10
204.147003
 20
450.799988
 30
0.0
 11
204.147003
 21
450.299988
 31
0.0
  0
LINE
  5
5BC
330
1F
100
AcDbEntity
  8
0
 62
     7
100
AcDbLine
 10
204.147003
 20
451.799988
 30
0.0
 11
204.147003
 21
450.799988
 31
0.0
  0
ARC
  5
5BD
330
1F
100
AcDbEntity
  8
0
 62
     7
100
AcDbCircle
 10
109.647003
 20
448.299988
 30
0.0
 40
2.0
100
AcDbArc
 50
180.000009
 51
0.00001
  0
LINE
  5
5BE
330
1F
100
AcDbEntity
  8
0
 62
     7
100
AcDbLine
 10
111.647003
 20
448.299988
 30
0.0
 11
111.647003
 21
449.799988
 31
0.0
  0
LINE
  5
5BF
330
1F
100
AcDbEntity
  8
0
 62
     7
100
AcDbLine
 10
112.147003
 20
449.799988
 30
0.0
 11
111.647003
 21
449.799988
 31
0.0
  0
LINE
  5
5C0
330
1F
100
AcDbEntity
  8
0
 62
     7
100
AcDbLine
 10
186.647003
 20
449.799988
 30
0.0
 11
186.147003
 21
449.799988
 31
0.0
  0
LINE
  5
5C1
330
1F
100
AcDbEntity
  8
0
 62
     7
100
AcDbLine
 10
186.647003
 20
448.299988
 30
0.0
 11
186.647003
 21
449.799988
 31
0.0
  0
ARC
  5
5C2
330
1F
100
AcDbEntity
  8
0
 62
     7
100
AcDbCircle
 10
188.647003
 20
448.299988
 30
0.0
 40
2.0
100
AcDbArc
 50
180.000009
 51
0.00001
  0
LINE
  5
5C3
330
1F
100
AcDbEntity
  8
0
 62
     7
100
AcDbLine
 10
190.647003
 20
448.299988
 30
0.0
 11
190.647003
 21
449.799988
 31
0.0
  0
LINE
  5
5C4
330
1F
100
AcDbEntity
  8
0
 62
     7
100
AcDbLine
 10
191.147003
 20
449.799988
 30
0.0
 11
190.647003
 21
449.799988
 31
0.0
  0
LINE
  5
5C5
330
1F
100
AcDbEntity
  8
0
 62
     7
100
AcDbLine
 10
101.697006
 20
426.099976
 30
0.0
 11
101.697006
 21
428.599976
 31
0.0
  0
LINE
  5
5C6
330
1F
100
AcDbEntity
  8
0
 62
     7
100
AcDbLine
 10
218.596985
 20
426.099976
 30
0.0
 11
218.596985
 21
428.599976
 31
0.0
  0
LINE
  5
5C7
330
1F
100
AcDbEntity
  8
0
 62
     7
100
AcDbLine
 10
217.596985
 20
426.099976
 30
0.0
 11
218.596985
 21
426.099976
 31
0.0
  0
LINE
  5
5C8
330
1F
100
AcDbEntity
  8
0
 62
     7
100
AcDbLine
 10
101.697006
 20
426.099976
 30
0.0
 11
102.697006
 21
426.099976
 31
0.0
  0
LINE
  5
5C9
330
1F
100
AcDbEntity
  8
0
 62
     7
100
AcDbLine
 10
204.147003
 20
450.799988
 30
0.0
 11
107.647003
 21
450.799988
 31
0.0
  0
CIRCLE
  5
5CA
330
1F
100
AcDbEntity
  8
0
 62
     7
100
AcDbCircle
 10
119.647003
 20
441.399963
 30
0.0
 40
4.0
  0
CIRCLE
  5
5CB
330
1F
100
AcDbEntity
  8
0
 62
     7
100
AcDbCircle
 10
175.647003
 20
441.399963
 30
0.0
 40
4.0
  0
LINE
  5
5CC
330
1F
100
AcDbEntity
  8
0
 62
     7
100
AcDbLine
 10
95.546997
 20
450.149963
 30
0.0
 11
95.546997
 21
449.799927
 31
0.0
  0
CIRCLE
  5
5CD
330
1F
100
AcDbEntity
  8
0
 62
     7
100
AcDbCircle
 10
188.647003
 20
448.299988
 30
0.0
 40
1.475000023841858
  0
CIRCLE
  5
5CE
330
1F
100
AcDbEntity
  8
0
 62
     7
100
AcDbCircle
 10
109.647003
 20
448.299988
 30
0.0
 40
1.475000023841858
  0
LINE
  5
5CF
330
1F
100
AcDbEntity
  8
0
 62
     7
100
AcDbLine
 10
94.947006
 20
450.149963
 30
0.0
 11
94.947006
 21
450.093201
 31
0.0
  0
LINE
  5
5D0
330
1F
100
AcDbEntity
  8
0
 62
     7
100
AcDbLine
 10
93.947006
 20
450.093201
 30
0.0
 11
94.947006
 21
450.093201
 31
0.0
  0
LINE
  5
5D1
330
1F
100
AcDbEntity
  8
0
 62
     7
100
AcDbLine
 10
93.947006
 20
450.093201
 30
0.0
 11
93.947006
 21
449.759216
 31
0.0
  0
LINE
  5
5D2
330
1F
100
AcDbEntity
  8
0
 62
     7
100
AcDbLine
 10
95.546997
 20
450.149963
 30
0.0
 11
94.947006
 21
450.149963
 31
0.0
  0
LINE
  5
5D3
330
1F
100
AcDbEntity
  8
0
 62
     7
100
AcDbLine
 10
93.947006
 20
450.093201
 30
0.0
 11
94.947006
 21
450.093201
 31
0.0
  0
CIRCLE
  5
5D4
330
1F
100
AcDbEntity
  8
0
 62
     7
100
AcDbCircle
 10
119.647003
 20
441.399963
 30
0.0
 40
2.549999952316284
  0
CIRCLE
  5
5D5
330
1F
100
AcDbEntity
  8
0
 62
     7
100
AcDbCircle
 10
175.647003
 20
441.399963
 30
0.0
 40
2.549999952316284
  0
LINE
  5
5D6
330
1F
100
AcDbEntity
  8
0
 62
     7
100
AcDbLine
 10
93.746994
 20
449.889954
 30
0.0
 11
93.947006
 21
450.093201
 31
0.0
  0
LINE
  5
5D7
330
1F
100
AcDbEntity
  8
0
 62
     7
100
AcDbLine
 10
93.746994
 20
449.889954
 30
0.0
 11
93.746994
 21
449.599854
 31
0.0
  0
LINE
  5
5D8
330
1F
100
AcDbEntity
  8
0
 62
     7
100
AcDbLine
 10
188.446991
 20
449.399963
 30
0.0
 11
188.846985
 21
449.399963
 31
0.0
  0
LINE
  5
5D9
330
1F
100
AcDbEntity
  8
0
 62
     7
100
AcDbLine
 10
188.446991
 20
449.399963
 30
0.0
 11
188.446991
 21
448.75
 31
0.0
  0
ARC
  5
5DA
330
1F
100
AcDbEntity
  8
0
 62
     7
100
AcDbCircle
 10
188.196991
 20
448.75
 30
0.0
 40
0.25
100
AcDbArc
 50
269.999997
 51
0.00001
  0
LINE
  5
5DB
330
1F
100
AcDbEntity
  8
0
 62
     7
100
AcDbLine
 10
188.196991
 20
448.5
 30
0.0
 11
187.546997
 21
448.5
 31
0.0
  0
LINE
  5
5DC
330
1F
100
AcDbEntity
  8
0
 62
     7
100
AcDbLine
 10
187.546997
 20
448.5
 30
0.0
 11
187.546997
 21
448.099976
 31
0.0
  0
LINE
  5
5DD
330
1F
100
AcDbEntity
  8
0
 62
     7
100
AcDbLine
 10
188.196991
 20
448.099976
 30
0.0
 11
187.546997
 21
448.099976
 31
0.0
  0
ARC
  5
5DE
330
1F
100
AcDbEntity
  8
0
 62
     7
100
AcDbCircle
 10
188.196991
 20
447.849976
 30
0.0
 40
0.25
100
AcDbArc
 50
0.00001
 51
90.000003
  0
LINE
  5
5DF
330
1F
100
AcDbEntity
  8
0
 62
     7
100
AcDbLine
 10
188.446991
 20
447.200012
 30
0.0
 11
188.446991
 21
447.849976
 31
0.0
  0
LINE
  5
5E0
330
1F
100
AcDbEntity
  8
0
 62
     7
100
AcDbLine
 10
188.446991
 20
447.200012
 30
0.0
 11
188.846985
 21
447.200012
 31
0.0
  0
LINE
  5
5E1
330
1F
100
AcDbEntity
  8
0
 62
     7
100
AcDbLine
 10
188.846985
 20
447.200012
 30
0.0
 11
188.846985
 21
447.849976
 31
0.0
  0
ARC
  5
5E2
330
1F
100
AcDbEntity
  8
0
 62
     7
100
AcDbCircle
 10
189.096985
 20
447.849976
 30
0.0
 40
0.25
100
AcDbArc
 50
90.000003
 51
180.000009
  0
LINE
  5
5E3
330
1F
100
AcDbEntity
  8
0
 62
     7
100
AcDbLine
 10
189.096985
 20
448.099976
 30
0.0
 11
189.746979
 21
448.099976
 31
0.0
  0
LINE
  5
5E4
330
1F
100
AcDbEntity
  8
0
 62
     7
100
AcDbLine
 10
189.746979
 20
448.5
 30
0.0
 11
189.746979
 21
448.099976
 31
0.0
  0
LINE
  5
5E5
330
1F
100
AcDbEntity
  8
0
 62
     7
100
AcDbLine
 10
189.096985
 20
448.5
 30
0.0
 11
189.746979
 21
448.5
 31
0.0
  0
ARC
  5
5E6
330
1F
100
AcDbEntity
  8
0
 62
     7
100
AcDbCircle
 10
189.096985
 20
448.75
 30
0.0
 40
0.25
100
AcDbArc
 50
180.000009
 51
269.999997
  0
LINE
  5
5E7
330
1F
100
AcDbEntity
  8
0
 62
     7
100
AcDbLine
 10
188.846985
 20
449.399963
 30
0.0
 11
188.846985
 21
448.75
 31
0.0
  0
LINE
  5
5E8
330
1F
100
AcDbEntity
  8
0
 62
     7
100
AcDbLine
 10
109.446991
 20
449.399963
 30
0.0
 11
109.847
 21
449.399963
 31
0.0
  0
LINE
  5
5E9
330
1F
100
AcDbEntity
  8
0
 62
     7
100
AcDbLine
 10
109.446991
 20
449.399963
 30
0.0
 11
109.446991
 21
448.75
 31
0.0
  0
ARC
  5
5EA
330
1F
100
AcDbEntity
  8
0
 62
     7
100
AcDbCircle
 10
109.196991
 20
448.75
 30
0.0
 40
0.25
100
AcDbArc
 50
269.999997
 51
0.00001
  0
LINE
  5
5EB
330
1F
100
AcDbEntity
  8
0
 62
     7
100
AcDbLine
 10
109.196991
 20
448.5
 30
0.0
 11
108.546997
 21
448.5
 31
0.0
  0
LINE
  5
5EC
330
1F
100
AcDbEntity
  8
0
 62
     7
100
AcDbLine
 10
108.546997
 20
448.5
 30
0.0
 11
108.546997
 21
448.099976
 31
0.0
  0
LINE
  5
5ED
330
1F
100
AcDbEntity
  8
0
 62
     7
100
AcDbLine
 10
109.196991
 20
448.099976
 30
0.0
 11
108.546997
 21
448.099976
 31
0.0
  0
ARC
  5
5EE
330
1F
100
AcDbEntity
  8
0
 62
     7
100
AcDbCircle
 10
109.196991
 20
447.849976
 30
0.0
 40
0.25
100
AcDbArc
 50
0.00001
 51
90.000003
  0
LINE
  5
5EF
330
1F
100
AcDbEntity
  8
0
 62
     7
100
AcDbLine
 10
109.446991
 20
447.200012
 30
0.0
 11
109.446991
 21
447.849976
 31
0.0
  0
LINE
  5
5F0
330
1F
100
AcDbEntity
  8
0
 62
     7
100
AcDbLine
 10
109.446991
 20
447.200012
 30
0.0
 11
109.847
 21
447.200012
 31
0.0
  0
LINE
  5
5F1
330
1F
100
AcDbEntity
  8
0
 62
     7
100
AcDbLine
 10
109.847
 20
447.200012
 30
0.0
 11
109.847
 21
447.849976
 31
0.0
  0
ARC
  5
5F2
330
1F
100
AcDbEntity
  8
0
 62
     7
100
AcDbCircle
 10
110.097
 20
447.849976
 30
0.0
 40
0.25
100
AcDbArc
 50
90.000003
 51
180.000009
  0
LINE
  5
5F3
330
1F
100
AcDbEntity
  8
0
 62
     7
100
AcDbLine
 10
110.097
 20
448.099976
 30
0.0
 11
110.746994
 21
448.099976
 31
0.0
  0
LINE
  5
5F4
330
1F
100
AcDbEntity
  8
0
 62
     7
100
AcDbLine
 10
110.746994
 20
448.5
 30
0.0
 11
110.746994
 21
448.099976
 31
0.0
  0
LINE
  5
5F5
330
1F
100
AcDbEntity
  8
0
 62
     7
100
AcDbLine
 10
110.097
 20
448.5
 30
0.0
 11
110.746994
 21
448.5
 31
0.0
  0
ARC
  5
5F6
330
1F
100
AcDbEntity
  8
0
 62
     7
100
AcDbCircle
 10
110.097
 20
448.75
 30
0.0
 40
0.25
100
AcDbArc
 50
180.000009
 51
269.999997
  0
LINE
  5
5F7
330
1F
100
AcDbEntity
  8
0
 62
     7
100
AcDbLine
 10
109.847
 20
449.399963
 30
0.0
 11
109.847
 21
448.75
 31
0.0
  0
LINE
  5
5F8
330
1F
100
AcDbEntity
  8
0
 62
     7
100
AcDbLine
 10
338.046997
 20
349.900024
 30
0.0
 11
334.647003
 21
349.900024
 31
0.0
  0
LINE
  5
5F9
330
1F
100
AcDbEntity
  8
0
 62
     7
100
AcDbLine
 10
334.647003
 20
349.900024
 30
0.0
 11
331.247009
 21
349.900024
 31
0.0
  0
LINE
  5
5FA
330
1F
100
AcDbEntity
  8
0
 62
     7
100
AcDbLine
 10
255.247009
 20
438.450012
 30
0.0
 11
255.247009
 21
438.299988
 31
0.0
  0
LINE
  5
5FB
330
1F
100
AcDbEntity
  8
0
 62
     7
100
AcDbLine
 10
257.447021
 20
438.450012
 30
0.0
 11
257.447021
 21
438.299988
 31
0.0
  0
LINE
  5
5FC
330
1F
100
AcDbEntity
  8
0
 62
     7
100
AcDbLine
 10
259.647034
 20
438.450012
 30
0.0
 11
259.647034
 21
438.299988
 31
0.0
  0
LINE
  5
5FD
330
1F
100
AcDbEntity
  8
0
 62
     7
100
AcDbLine
 10
255.247009
 20
433.899963
 30
0.0
 11
255.247009
 21
430.764404
 31
0.0
  0
LINE
  5
5FE
330
1F
100
AcDbEntity
  8
0
 62
     7
100
AcDbLine
 10
255.247009
 20
430.764404
 30
0.0
 11
255.247009
 21
430.1875
 31
0.0
  0
LINE
  5
5FF
330
1F
100
AcDbEntity
  8
0
 62
     7
100
AcDbLine
 10
256.24704
 20
430.25
 30
0.0
 11
256.24704
 21
430.819214
 31
0.0
  0
LINE
  5
600
330
1F
100
AcDbEntity
  8
0
 62
     7
100
AcDbLine
 10
256.24704
 20
430.819214
 30
0.0
 11
256.24704
 21
433.899963
 31
0.0
  0
LINE
  5
601
330
1F
100
AcDbEntity
  8
0
 62
     7
100
AcDbLine
 10
257.447021
 20
433.899963
 30
0.0
 11
257.447021
 21
430.885071
 31
0.0
  0
LINE
  5
602
330
1F
100
AcDbEntity
  8
0
 62
     7
100
AcDbLine
 10
257.447021
 20
430.885071
 30
0.0
 11
257.447021
 21
430.325012
 31
0.0
  0
LINE
  5
603
330
1F
100
AcDbEntity
  8
0
 62
     7
100
AcDbLine
 10
258.447021
 20
430.387512
 30
0.0
 11
258.447021
 21
430.93988
 31
0.0
  0
LINE
  5
604
330
1F
100
AcDbEntity
  8
0
 62
     7
100
AcDbLine
 10
258.447021
 20
430.93988
 30
0.0
 11
258.447021
 21
433.899963
 31
0.0
  0
LINE
  5
605
330
1F
100
AcDbEntity
  8
0
 62
     7
100
AcDbLine
 10
259.647034
 20
433.899963
 30
0.0
 11
259.647034
 21
431.005737
 31
0.0
  0
LINE
  5
606
330
1F
100
AcDbEntity
  8
0
 62
     7
100
AcDbLine
 10
259.647034
 20
431.005737
 30
0.0
 11
259.647034
 21
430.462463
 31
0.0
  0
LINE
  5
607
330
1F
100
AcDbEntity
  8
0
 62
     7
100
AcDbLine
 10
260.647034
 20
430.524963
 30
0.0
 11
260.647034
 21
431.060547
 31
0.0
  0
LINE
  5
608
330
1F
100
AcDbEntity
  8
0
 62
     7
100
AcDbLine
 10
260.647034
 20
431.060547
 30
0.0
 11
260.647034
 21
433.899963
 31
0.0
  0
LINE
  5
609
330
1F
100
AcDbEntity
  8
0
 62
     7
100
AcDbLine
 10
262.647034
 20
431.170288
 30
0.0
 11
262.647034
 21
430.649963
 31
0.0
  0
LINE
  5
60A
330
1F
100
AcDbEntity
  8
0
 62
     7
100
AcDbLine
 10
262.647034
 20
439.149963
 30
0.0
 11
262.647034
 21
431.170288
 31
0.0
  0
LINE
  5
60B
330
1F
100
AcDbEntity
  8
0
 62
     7
100
AcDbLine
 10
260.647034
 20
435.899963
 30
0.0
 11
260.647034
 21
439.274963
 31
0.0
  0
LINE
  5
60C
330
1F
100
AcDbEntity
  8
0
 62
     7
100
AcDbLine
 10
259.647034
 20
439.337463
 30
0.0
 11
259.647034
 21
435.899963
 31
0.0
  0
LINE
  5
60D
330
1F
100
AcDbEntity
  8
0
 62
     7
100
AcDbLine
 10
258.447021
 20
435.899963
 30
0.0
 11
258.447021
 21
439.412476
 31
0.0
  0
LINE
  5
60E
330
1F
100
AcDbEntity
  8
0
 62
     7
100
AcDbLine
 10
257.447021
 20
439.474976
 30
0.0
 11
257.447021
 21
435.899963
 31
0.0
  0
LINE
  5
60F
330
1F
100
AcDbEntity
  8
0
 62
     7
100
AcDbLine
 10
256.24704
 20
435.899963
 30
0.0
 11
256.24704
 21
439.549988
 31
0.0
  0
LINE
  5
610
330
1F
100
AcDbEntity
  8
0
 62
     7
100
AcDbLine
 10
255.247009
 20
439.612488
 30
0.0
 11
255.247009
 21
435.899963
 31
0.0
  0
LINE
  5
611
330
1F
100
AcDbEntity
  8
0
 62
     7
100
AcDbLine
 10
256.24704
 20
433.899963
 30
0.0
 11
255.247009
 21
433.899963
 31
0.0
  0
LINE
  5
612
330
1F
100
AcDbEntity
  8
0
 62
     7
100
AcDbLine
 10
256.24704
 20
435.899963
 30
0.0
 11
255.247009
 21
435.899963
 31
0.0
  0
LINE
  5
613
330
1F
100
AcDbEntity
  8
0
 62
     7
100
AcDbLine
 10
258.447021
 20
435.899963
 30
0.0
 11
257.447021
 21
435.899963
 31
0.0
  0
LINE
  5
614
330
1F
100
AcDbEntity
  8
0
 62
     7
100
AcDbLine
 10
260.647034
 20
435.899963
 30
0.0
 11
259.647034
 21
435.899963
 31
0.0
  0
LINE
  5
615
330
1F
100
AcDbEntity
  8
0
 62
     7
100
AcDbLine
 10
260.647034
 20
433.899963
 30
0.0
 11
259.647034
 21
433.899963
 31
0.0
  0
LINE
  5
616
330
1F
100
AcDbEntity
  8
0
 62
     7
100
AcDbLine
 10
258.447021
 20
433.899963
 30
0.0
 11
257.447021
 21
433.899963
 31
0.0
  0
LINE
  5
617
330
1F
100
AcDbEntity
  8
0
 62
     7
100
AcDbLine
 10
250.647003
 20
439.899963
 30
0.0
 11
250.647003
 21
430.512085
 31
0.0
  0
LINE
  5
618
330
1F
100
AcDbEntity
  8
0
 62
     7
100
AcDbLine
 10
250.647003
 20
430.512085
 30
0.0
 11
250.647003
 21
429.899963
 31
0.0
  0
LINE
  5
619
330
1F
100
AcDbEntity
  8
0
 62
     7
100
AcDbLine
 10
249.647003
 20
440.200012
 30
0.0
 11
249.647003
 21
430.248779
 31
0.0
  0
LINE
  5
61A
330
1F
100
AcDbEntity
  8
0
 62
     7
100
AcDbLine
 10
249.647003
 20
430.248779
 30
0.0
 11
249.647003
 21
429.599976
 31
0.0
  0
LINE
  5
61B
330
1F
100
AcDbEntity
  8
0
 62
     7
100
AcDbLine
 10
244.647003
 20
437.728577
 30
0.0
 11
244.647003
 21
429.0
 31
0.0
  0
LINE
  5
61C
330
1F
100
AcDbEntity
  8
0
 62
     7
100
AcDbLine
 10
244.647003
 20
440.799988
 30
0.0
 11
244.647003
 21
437.728577
 31
0.0
  0
LINE
  5
61D
330
1F
100
AcDbEntity
  8
0
 62
     7
100
AcDbLine
 10
244.415833
 20
437.920349
 30
0.0
 11
244.415833
 21
436.820923
 31
0.0
  0
ARC
  5
61E
330
1F
100
AcDbEntity
  8
0
 62
     7
100
AcDbCircle
 10
234.089508
 20
434.900024
 30
0.0
 40
10.50419235229492
100
AcDbArc
 50
349.462094
 51
10.537886
  0
LINE
  5
61F
330
1F
100
AcDbEntity
  8
0
 62
     7
100
AcDbLine
 10
244.415833
 20
432.979065
 30
0.0
 11
244.415833
 21
430.664307
 31
0.0
  0
ARC
  5
620
330
1F
100
AcDbEntity
  8
0
 62
     7
100
AcDbCircle
 10
241.901398
 20
429.703857
 30
0.0
 40
2.691781044006348
100
AcDbArc
 50
339.093949
 51
20.906017
  0
LINE
  5
621
330
1F
100
AcDbEntity
  8
0
 62
     7
100
AcDbLine
 10
244.415833
 20
428.743347
 30
0.0
 11
244.415833
 21
428.599976
 31
0.0
  0
LINE
  5
622
330
1F
100
AcDbEntity
  8
0
 62
     7
100
AcDbLine
 10
244.415833
 20
441.200012
 30
0.0
 11
244.415833
 21
441.056641
 31
0.0
  0
ARC
  5
623
330
1F
100
AcDbEntity
  8
0
 62
     7
100
AcDbCircle
 10
241.901398
 20
440.09613
 30
0.0
 40
2.691781044006348
100
AcDbArc
 50
339.093949
 51
20.906017
  0
LINE
  5
624
330
1F
100
AcDbEntity
  8
0
 62
     7
100
AcDbLine
 10
244.415833
 20
437.920349
 30
0.0
 11
244.415833
 21
439.135681
 31
0.0
  0
LINE
  5
625
330
1F
100
AcDbEntity
  8
0
 62
     7
100
AcDbLine
 10
244.415833
 20
439.135681
 30
0.0
 11
237.647003
 21
439.135681
 31
0.0
  0
LINE
  5
626
330
1F
100
AcDbEntity
  8
0
 62
     7
100
AcDbLine
 10
237.647003
 20
439.135681
 30
0.0
 11
237.647003
 21
436.820923
 31
0.0
  0
LINE
  5
627
330
1F
100
AcDbEntity
  8
0
 62
     7
100
AcDbLine
 10
244.415833
 20
436.820923
 30
0.0
 11
237.647003
 21
436.820923
 31
0.0
  0
LINE
  5
628
330
1F
100
AcDbEntity
  8
0
 62
     7
100
AcDbLine
 10
237.647003
 20
432.979065
 30
0.0
 11
244.415833
 21
432.979065
 31
0.0
  0
LINE
  5
629
330
1F
100
AcDbEntity
  8
0
 62
     7
100
AcDbLine
 10
237.647003
 20
432.979065
 30
0.0
 11
237.647003
 21
430.664307
 31
0.0
  0
LINE
  5
62A
330
1F
100
AcDbEntity
  8
0
 62
     7
100
AcDbLine
 10
244.415833
 20
430.664307
 30
0.0
 11
237.647003
 21
430.664307
 31
0.0
  0
LINE
  5
62B
330
1F
100
AcDbEntity
  8
0
 62
     7
100
AcDbLine
 10
237.647003
 20
428.743347
 30
0.0
 11
244.415833
 21
428.743347
 31
0.0
  0
LINE
  5
62C
330
1F
100
AcDbEntity
  8
0
 62
     7
100
AcDbLine
 10
237.647003
 20
428.743347
 30
0.0
 11
237.647003
 21
428.599976
 31
0.0
  0
LINE
  5
62D
330
1F
100
AcDbEntity
  8
0
 62
     7
100
AcDbLine
 10
237.647003
 20
441.200012
 30
0.0
 11
237.647003
 21
441.056641
 31
0.0
  0
LINE
  5
62E
330
1F
100
AcDbEntity
  8
0
 62
     7
100
AcDbLine
 10
244.415833
 20
441.056641
 30
0.0
 11
237.647003
 21
441.056641
 31
0.0
  0
LINE
  5
62F
330
1F
100
AcDbEntity
  8
0
 62
     7
100
AcDbLine
 10
237.147003
 20
439.50238
 30
0.0
 11
237.147003
 21
436.933899
 31
0.0
  0
LINE
  5
630
330
1F
100
AcDbEntity
  8
0
 62
     7
100
AcDbLine
 10
237.647003
 20
436.530579
 30
0.0
 11
237.147003
 21
436.933899
 31
0.0
  0
LINE
  5
631
330
1F
100
AcDbEntity
  8
0
 62
     7
100
AcDbLine
 10
237.647003
 20
436.530579
 30
0.0
 11
237.647003
 21
436.820923
 31
0.0
  0
LINE
  5
632
330
1F
100
AcDbEntity
  8
0
 62
     7
100
AcDbLine
 10
237.647003
 20
439.135681
 30
0.0
 11
237.647003
 21
439.354736
 31
0.0
  0
LINE
  5
633
330
1F
100
AcDbEntity
  8
0
 62
     7
100
AcDbLine
 10
237.647003
 20
439.354736
 30
0.0
 11
237.147003
 21
439.50238
 31
0.0
  0
LINE
  5
634
330
1F
100
AcDbEntity
  8
0
 62
     7
100
AcDbLine
 10
237.647003
 20
433.269409
 30
0.0
 11
237.647003
 21
436.530579
 31
0.0
  0
LINE
  5
635
330
1F
100
AcDbEntity
  8
0
 62
     7
100
AcDbLine
 10
237.647003
 20
432.979065
 30
0.0
 11
237.647003
 21
433.269409
 31
0.0
  0
LINE
  5
636
330
1F
100
AcDbEntity
  8
0
 62
     7
100
AcDbLine
 10
237.647003
 20
433.269409
 30
0.0
 11
237.147003
 21
432.866089
 31
0.0
  0
LINE
  5
637
330
1F
100
AcDbEntity
  8
0
 62
     7
100
AcDbLine
 10
237.147003
 20
432.866089
 30
0.0
 11
237.147003
 21
430.297607
 31
0.0
  0
LINE
  5
638
330
1F
100
AcDbEntity
  8
0
 62
     7
100
AcDbLine
 10
237.647003
 20
430.44519
 30
0.0
 11
237.147003
 21
430.297607
 31
0.0
  0
LINE
  5
639
330
1F
100
AcDbEntity
  8
0
 62
     7
100
AcDbLine
 10
237.647003
 20
430.44519
 30
0.0
 11
237.647003
 21
430.664307
 31
0.0
  0
LINE
  5
63A
330
1F
100
AcDbEntity
  8
0
 62
     7
100
AcDbLine
 10
237.647003
 20
428.814636
 30
0.0
 11
237.647003
 21
430.44519
 31
0.0
  0
LINE
  5
63B
330
1F
100
AcDbEntity
  8
0
 62
     7
100
AcDbLine
 10
237.647003
 20
428.743347
 30
0.0
 11
237.647003
 21
428.814636
 31
0.0
  0
ARC
  5
63C
330
1F
100
AcDbEntity
  8
0
 62
     7
100
AcDbCircle
 10
189.336243
 20
472.15387
 30
0.0
 40
64.901611328125
100
AcDbArc
 50
317.448096
 51
318.104941
  0
LINE
  5
63D
330
1F
100
AcDbEntity
  8
0
 62
     7
100
AcDbLine
 10
237.147003
 20
428.263672
 30
0.0
 11
237.147003
 21
428.099976
 31
0.0
  0
LINE
  5
63E
330
1F
100
AcDbEntity
  8
0
 62
     7
100
AcDbLine
 10
237.647003
 20
440.985352
 30
0.0
 11
237.647003
 21
441.056641
 31
0.0
  0
LINE
  5
63F
330
1F
100
AcDbEntity
  8
0
 62
     7
100
AcDbLine
 10
237.147003
 20
441.700012
 30
0.0
 11
237.147003
 21
441.536316
 31
0.0
  0
ARC
  5
640
330
1F
100
AcDbEntity
  8
0
 62
     7
100
AcDbCircle
 10
189.336243
 20
397.646118
 30
0.0
 40
64.901611328125
100
AcDbArc
 50
41.895052
 51
42.551911
  0
LINE
  5
641
330
1F
100
AcDbEntity
  8
0
 62
     7
100
AcDbLine
 10
237.647003
 20
439.354736
 30
0.0
 11
237.647003
 21
440.985352
 31
0.0
  0
LINE
  5
642
330
1F
100
AcDbEntity
  8
0
 62
     7
100
AcDbLine
 10
228.147003
 20
439.50238
 30
0.0
 11
228.147003
 21
436.933899
 31
0.0
  0
LINE
  5
643
330
1F
100
AcDbEntity
  8
0
 62
     7
100
AcDbLine
 10
237.147003
 20
436.933899
 30
0.0
 11
228.147003
 21
436.933899
 31
0.0
  0
LINE
  5
644
330
1F
100
AcDbEntity
  8
0
 62
     7
100
AcDbLine
 10
237.147003
 20
439.50238
 30
0.0
 11
228.147003
 21
439.50238
 31
0.0
  0
LINE
  5
645
330
1F
100
AcDbEntity
  8
0
 62
     7
100
AcDbLine
 10
227.647003
 20
436.530579
 30
0.0
 11
228.147003
 21
436.933899
 31
0.0
  0
LINE
  5
646
330
1F
100
AcDbEntity
  8
0
 62
     7
100
AcDbLine
 10
237.647003
 20
436.530579
 30
0.0
 11
227.647003
 21
436.530579
 31
0.0
  0
LINE
  5
647
330
1F
100
AcDbEntity
  8
0
 62
     7
100
AcDbLine
 10
227.647003
 20
439.354736
 30
0.0
 11
228.147003
 21
439.50238
 31
0.0
  0
LINE
  5
648
330
1F
100
AcDbEntity
  8
0
 62
     7
100
AcDbLine
 10
237.647003
 20
440.985352
 30
0.0
 11
227.647003
 21
440.985352
 31
0.0
  0
LINE
  5
649
330
1F
100
AcDbEntity
  8
0
 62
     7
100
AcDbLine
 10
227.647003
 20
441.200012
 30
0.0
 11
227.647003
 21
440.985352
 31
0.0
  0
LINE
  5
64A
330
1F
100
AcDbEntity
  8
0
 62
     7
100
AcDbLine
 10
227.647003
 20
428.814636
 30
0.0
 11
227.647003
 21
428.599976
 31
0.0
  0
LINE
  5
64B
330
1F
100
AcDbEntity
  8
0
 62
     7
100
AcDbLine
 10
237.647003
 20
428.814636
 30
0.0
 11
227.647003
 21
428.814636
 31
0.0
  0
LINE
  5
64C
330
1F
100
AcDbEntity
  8
0
 62
     7
100
AcDbLine
 10
227.647003
 20
433.269409
 30
0.0
 11
227.647003
 21
430.44519
 31
0.0
  0
LINE
  5
64D
330
1F
100
AcDbEntity
  8
0
 62
     7
100
AcDbLine
 10
237.647003
 20
433.269409
 30
0.0
 11
227.647003
 21
433.269409
 31
0.0
  0
LINE
  5
64E
330
1F
100
AcDbEntity
  8
0
 62
     7
100
AcDbLine
 10
227.647003
 20
439.354736
 30
0.0
 11
227.647003
 21
436.530579
 31
0.0
  0
LINE
  5
64F
330
1F
100
AcDbEntity
  8
0
 62
     7
100
AcDbLine
 10
227.647003
 20
433.269409
 30
0.0
 11
228.147003
 21
432.866089
 31
0.0
  0
LINE
  5
650
330
1F
100
AcDbEntity
  8
0
 62
     7
100
AcDbLine
 10
237.147003
 20
432.866089
 30
0.0
 11
228.147003
 21
432.866089
 31
0.0
  0
LINE
  5
651
330
1F
100
AcDbEntity
  8
0
 62
     7
100
AcDbLine
 10
228.147003
 20
432.866089
 30
0.0
 11
228.147003
 21
430.297607
 31
0.0
  0
LINE
  5
652
330
1F
100
AcDbEntity
  8
0
 62
     7
100
AcDbLine
 10
237.147003
 20
430.297607
 30
0.0
 11
228.147003
 21
430.297607
 31
0.0
  0
LINE
  5
653
330
1F
100
AcDbEntity
  8
0
 62
     7
100
AcDbLine
 10
227.647003
 20
430.44519
 30
0.0
 11
228.147003
 21
430.297607
 31
0.0
  0
ARC
  5
654
330
1F
100
AcDbEntity
  8
0
 62
     7
100
AcDbCircle
 10
275.957764
 20
472.15387
 30
0.0
 40
64.901611328125
100
AcDbArc
 50
221.89505
 51
222.55191
  0
LINE
  5
655
330
1F
100
AcDbEntity
  8
0
 62
     7
100
AcDbLine
 10
237.147003
 20
428.263672
 30
0.0
 11
228.147003
 21
428.263672
 31
0.0
  0
LINE
  5
656
330
1F
100
AcDbEntity
  8
0
 62
     7
100
AcDbLine
 10
228.147003
 20
428.263672
 30
0.0
 11
228.147003
 21
428.099976
 31
0.0
  0
LINE
  5
657
330
1F
100
AcDbEntity
  8
0
 62
     7
100
AcDbLine
 10
228.147003
 20
441.700012
 30
0.0
 11
228.147003
 21
441.536316
 31
0.0
  0
LINE
  5
658
330
1F
100
AcDbEntity
  8
0
 62
     7
100
AcDbLine
 10
237.147003
 20
441.536316
 30
0.0
 11
228.147003
 21
441.536316
 31
0.0
  0
ARC
  5
659
330
1F
100
AcDbEntity
  8
0
 62
     7
100
AcDbCircle
 10
275.957764
 20
397.646118
 30
0.0
 40
64.901611328125
100
AcDbArc
 50
137.44809
 51
138.10495
  0
LINE
  5
65A
330
1F
100
AcDbEntity
  8
0
 62
     7
100
AcDbLine
 10
224.446991
 20
449.899963
 30
0.0
 11
224.747009
 21
449.899963
 31
0.0
  0
LINE
  5
65B
330
1F
100
AcDbEntity
  8
0
 62
     7
100
AcDbLine
 10
117.2836
 20
429.0
 30
0.0
 11
117.370209
 21
428.849976
 31
0.0
  0
LINE
  5
65C
330
1F
100
AcDbEntity
  8
0
 62
     7
100
AcDbLine
 10
114.010391
 20
429.0
 30
0.0
 11
113.923798
 21
428.849976
 31
0.0
  0
LINE
  5
65D
330
1F
100
AcDbEntity
  8
0
 62
     7
100
AcDbLine
 10
203.010376
 20
429.0
 30
0.0
 11
202.923798
 21
428.849976
 31
0.0
  0
LINE
  5
65E
330
1F
100
AcDbEntity
  8
0
 62
     7
100
AcDbLine
 10
206.2836
 20
429.0
 30
0.0
 11
206.370209
 21
428.849976
 31
0.0
  0
LINE
  5
65F
330
1F
100
AcDbEntity
  8
0
 62
     7
100
AcDbLine
 10
206.095764
 20
449.325623
 30
0.0
 11
206.121368
 21
449.351257
 31
0.0
  0
POLYLINE
  5
660
330
1F
100
AcDbEntity
  8
0
 62
     7
100
AcDb2dPolyline
 66
     1
 10
0.0
 20
0.0
 30
0.0
  0
VERTEX
  5
661
330
660
100
AcDbEntity
  8
0
100
AcDbVertex
100
AcDb2dVertex
 10
191.333832
 20
449.332886
 30
0.0
  0
VERTEX
  5
662
330
660
100
AcDbEntity
  8
0
100
AcDbVertex
100
AcDb2dVertex
 10
191.337036
 20
449.32312
 30
0.0
  0
VERTEX
  5
663
330
660
100
AcDbEntity
  8
0
100
AcDbVertex
100
AcDb2dVertex
 10
191.344147
 20
449.307007
 30
0.0
  0
VERTEX
  5
664
330
660
100
AcDbEntity
  8
0
100
AcDbVertex
100
AcDb2dVertex
 10
191.347412
 20
449.300537
 30
0.0
  0
VERTEX
  5
665
330
660
100
AcDbEntity
  8
0
100
AcDbVertex
100
AcDb2dVertex
 10
191.348083
 20
449.299011
 30
0.0
  0
VERTEX
  5
666
330
660
100
AcDbEntity
  8
0
100
AcDbVertex
100
AcDb2dVertex
 10
191.330933
 20
449.320557
 30
0.0
  0
VERTEX
  5
667
330
660
100
AcDbEntity
  8
0
100
AcDbVertex
100
AcDb2dVertex
 10
191.327423
 20
449.325684
 30
0.0
  0
VERTEX
  5
668
330
660
100
AcDbEntity
  8
0
100
AcDbVertex
100
AcDb2dVertex
 10
191.329224
 20
449.324402
 30
0.0
  0
VERTEX
  5
669
330
660
100
AcDbEntity
  8
0
100
AcDbVertex
100
AcDb2dVertex
 10
191.337982
 20
449.314209
 30
0.0
  0
VERTEX
  5
66A
330
660
100
AcDbEntity
  8
0
100
AcDbVertex
100
AcDb2dVertex
 10
191.346558
 20
449.302368
 30
0.0
  0
VERTEX
  5
66B
330
660
100
AcDbEntity
  8
0
100
AcDbVertex
100
AcDb2dVertex
 10
191.347321
 20
449.30072
 30
0.0
  0
VERTEX
  5
66C
330
660
100
AcDbEntity
  8
0
100
AcDbVertex
100
AcDb2dVertex
 10
191.347229
 20
449.2995
 30
0.0
  0
VERTEX
  5
66D
330
660
100
AcDbEntity
  8
0
100
AcDbVertex
100
AcDb2dVertex
 10
191.344635
 20
449.300415
 30
0.0
  0
VERTEX
  5
66E
330
660
100
AcDbEntity
  8
0
100
AcDbVertex
100
AcDb2dVertex
 10
191.332794
 20
449.309021
 30
0.0
  0
VERTEX
  5
66F
330
660
100
AcDbEntity
  8
0
100
AcDbVertex
100
AcDb2dVertex
 10
191.32254
 20
449.317749
 30
0.0
  0
VERTEX
  5
670
330
660
100
AcDbEntity
  8
0
100
AcDbVertex
100
AcDb2dVertex
 10
191.320923
 20
449.319336
 30
0.0
  0
VERTEX
  5
671
330
660
100
AcDbEntity
  8
0
100
AcDbVertex
100
AcDb2dVertex
 10
191.326447
 20
449.31604
 30
0.0
  0
VERTEX
  5
672
330
660
100
AcDbEntity
  8
0
100
AcDbVertex
100
AcDb2dVertex
 10
191.347473
 20
449.299744
 30
0.0
  0
VERTEX
  5
673
330
660
100
AcDbEntity
  8
0
100
AcDbVertex
100
AcDb2dVertex
 10
191.348175
 20
449.29895
 30
0.0
  0
VERTEX
  5
674
330
660
100
AcDbEntity
  8
0
100
AcDbVertex
100
AcDb2dVertex
 10
191.346466
 20
449.299561
 30
0.0
  0
VERTEX
  5
675
330
660
100
AcDbEntity
  8
0
100
AcDbVertex
100
AcDb2dVertex
 10
191.339996
 20
449.302856
 30
0.0
  0
VERTEX
  5
676
330
660
100
AcDbEntity
  8
0
100
AcDbVertex
100
AcDb2dVertex
 10
191.323853
 20
449.309937
 30
0.0
  0
VERTEX
  5
677
330
660
100
AcDbEntity
  8
0
100
AcDbVertex
100
AcDb2dVertex
 10
191.314087
 20
449.313171
 30
0.0
  0
SEQEND
  5
678
330
660
100
AcDbEntity
  8
0
 62
     7
  0
POLYLINE
  5
679
330
1F
100
AcDbEntity
  8
0
 62
     7
100
AcDb2dPolyline
 66
     1
 10
0.0
 20
0.0
 30
0.0
  0
VERTEX
  5
67A
330
679
100
AcDbEntity
  8
0
100
AcDbVertex
100
AcDb2dVertex
 10
112.333832
 20
449.332886
 30
0.0
  0
VERTEX
  5
67B
330
679
100
AcDbEntity
  8
0
100
AcDbVertex
100
AcDb2dVertex
 10
112.337036
 20
449.32312
 30
0.0
  0
VERTEX
  5
67C
330
679
100
AcDbEntity
  8
0
100
AcDbVertex
100
AcDb2dVertex
 10
112.344147
 20
449.307007
 30
0.0
  0
VERTEX
  5
67D
330
679
100
AcDbEntity
  8
0
100
AcDbVertex
100
AcDb2dVertex
 10
112.347427
 20
449.300537
 30
0.0
  0
VERTEX
  5
67E
330
679
100
AcDbEntity
  8
0
100
AcDbVertex
100
AcDb2dVertex
 10
112.348068
 20
449.299011
 30
0.0
  0
VERTEX
  5
67F
330
679
100
AcDbEntity
  8
0
100
AcDbVertex
100
AcDb2dVertex
 10
112.330948
 20
449.320557
 30
0.0
  0
VERTEX
  5
680
330
679
100
AcDbEntity
  8
0
100
AcDbVertex
100
AcDb2dVertex
 10
112.327423
 20
449.325684
 30
0.0
  0
VERTEX
  5
681
330
679
100
AcDbEntity
  8
0
100
AcDbVertex
100
AcDb2dVertex
 10
112.329239
 20
449.324402
 30
0.0
  0
VERTEX
  5
682
330
679
100
AcDbEntity
  8
0
100
AcDbVertex
100
AcDb2dVertex
 10
112.337982
 20
449.314209
 30
0.0
  0
VERTEX
  5
683
330
679
100
AcDbEntity
  8
0
100
AcDbVertex
100
AcDb2dVertex
 10
112.346558
 20
449.302368
 30
0.0
  0
VERTEX
  5
684
330
679
100
AcDbEntity
  8
0
100
AcDbVertex
100
AcDb2dVertex
 10
112.347336
 20
449.30072
 30
0.0
  0
VERTEX
  5
685
330
679
100
AcDbEntity
  8
0
100
AcDbVertex
100
AcDb2dVertex
 10
112.347244
 20
449.2995
 30
0.0
  0
VERTEX
  5
686
330
679
100
AcDbEntity
  8
0
100
AcDbVertex
100
AcDb2dVertex
 10
112.346252
 20
449.299683
 30
0.0
  0
VERTEX
  5
687
330
679
100
AcDbEntity
  8
0
100
AcDbVertex
100
AcDb2dVertex
 10
112.344635
 20
449.300415
 30
0.0
  0
VERTEX
  5
688
330
679
100
AcDbEntity
  8
0
100
AcDbVertex
100
AcDb2dVertex
 10
112.332809
 20
449.309021
 30
0.0
  0
VERTEX
  5
689
330
679
100
AcDbEntity
  8
0
100
AcDbVertex
100
AcDb2dVertex
 10
112.322556
 20
449.317749
 30
0.0
  0
VERTEX
  5
68A
330
679
100
AcDbEntity
  8
0
100
AcDbVertex
100
AcDb2dVertex
 10
112.320938
 20
449.319336
 30
0.0
  0
VERTEX
  5
68B
330
679
100
AcDbEntity
  8
0
100
AcDbVertex
100
AcDb2dVertex
 10
112.326447
 20
449.31604
 30
0.0
  0
VERTEX
  5
68C
330
679
100
AcDbEntity
  8
0
100
AcDbVertex
100
AcDb2dVertex
 10
112.347488
 20
449.299744
 30
0.0
  0
VERTEX
  5
68D
330
679
100
AcDbEntity
  8
0
100
AcDbVertex
100
AcDb2dVertex
 10
112.348175
 20
449.29895
 30
0.0
  0
VERTEX
  5
68E
330
679
100
AcDbEntity
  8
0
100
AcDbVertex
100
AcDb2dVertex
 10
112.346481
 20
449.299561
 30
0.0
  0
VERTEX
  5
68F
330
679
100
AcDbEntity
  8
0
100
AcDbVertex
100
AcDb2dVertex
 10
112.339996
 20
449.302856
 30
0.0
  0
VERTEX
  5
690
330
679
100
AcDbEntity
  8
0
100
AcDbVertex
100
AcDb2dVertex
 10
112.323853
 20
449.309937
 30
0.0
  0
VERTEX
  5
691
330
679
100
AcDbEntity
  8
0
100
AcDbVertex
100
AcDb2dVertex
 10
112.314087
 20
449.313171
 30
0.0
  0
SEQEND
  5
692
330
679
100
AcDbEntity
  8
0
 62
     7
  0
LINE
  5
693
330
1F
100
AcDbEntity
  8
0
 62
     7
100
AcDbLine
 10
97.095764
 20
449.325623
 30
0.0
 11
97.121384
 21
449.351257
 31
0.0
  0
LINE
  5
694
330
1F
100
AcDbEntity
  8
0
 62
     7
100
AcDbLine
 10
117.370209
 20
428.599976
 30
0.0
 11
117.370209
 21
428.849976
 31
0.0
  0
LINE
  5
695
330
1F
100
AcDbEntity
  8
0
 62
     7
100
AcDbLine
 10
113.923798
 20
428.599976
 30
0.0
 11
113.923798
 21
428.849976
 31
0.0
  0
LINE
  5
696
330
1F
100
AcDbEntity
  8
0
 62
     7
100
AcDbLine
 10
202.923798
 20
428.849976
 30
0.0
 11
202.923798
 21
428.599976
 31
0.0
  0
LINE
  5
697
330
1F
100
AcDbEntity
  8
0
 62
     7
100
AcDbLine
 10
206.370209
 20
428.849976
 30
0.0
 11
206.370209
 21
428.599976
 31
0.0
  0
LINE
  5
698
330
1F
100
AcDbEntity
  8
0
 62
     7
100
AcDbLine
 10
95.546997
 20
449.899963
 30
0.0
 11
95.847
 21
449.899963
 31
0.0
  0
ARC
  5
699
330
1F
100
AcDbEntity
  8
0
 62
     7
100
AcDbCircle
 10
259.647034
 20
359.899963
 30
0.0
 40
78.4000015258789
100
AcDbArc
 50
0.000002
 51
87.807034
  0
ARC
  5
69A
330
1F
100
AcDbEntity
  8
0
 62
     7
100
AcDbCircle
 10
259.646973
 20
359.903809
 30
0.0
 40
78.39616394042969
100
AcDbArc
 50
89.269111
 51
89.999968
  0
ARC
  5
69B
330
1F
100
AcDbEntity
  8
0
 62
     7
100
AcDbCircle
 10
259.647034
 20
359.899963
 30
0.0
 40
71.5999984741211
100
AcDbArc
 50
0.000002
 51
87.598651
  0
ARC
  5
69C
330
1F
100
AcDbEntity
  8
0
 62
     7
100
AcDbCircle
 10
259.646973
 20
359.902222
 30
0.0
 40
71.59779357910156
100
AcDbArc
 50
89.199702
 51
89.999962
  0
LINE
  5
69D
330
1F
100
AcDbEntity
  8
0
 62
     7
100
AcDbLine
 10
258.447021
 20
438.299988
 30
0.0
 11
257.447021
 21
438.299988
 31
0.0
  0
LINE
  5
69E
330
1F
100
AcDbEntity
  8
0
 62
     7
100
AcDbLine
 10
256.247009
 20
438.299988
 30
0.0
 11
255.246979
 21
438.299988
 31
0.0
  0
LINE
  5
69F
330
1F
100
AcDbEntity
  8
0
 62
     7
100
AcDbLine
 10
338.046997
 20
349.900024
 30
0.0
 11
338.046997
 21
359.900024
 31
0.0
  0
LINE
  5
6A0
330
1F
100
AcDbEntity
  8
0
 62
     7
100
AcDbLine
 10
258.447021
 20
431.5
 30
0.0
 11
257.447021
 21
431.5
 31
0.0
  0
LINE
  5
6A1
330
1F
100
AcDbEntity
  8
0
 62
     7
100
AcDbLine
 10
256.247009
 20
431.5
 30
0.0
 11
255.246979
 21
431.5
 31
0.0
  0
LINE
  5
6A2
330
1F
100
AcDbEntity
  8
0
 62
     7
100
AcDbLine
 10
331.247009
 20
349.900024
 30
0.0
 11
331.247009
 21
359.900024
 31
0.0
  0
LINE
  5
6A3
330
1F
100
AcDbEntity
  8
0
 62
     7
100
AcDbLine
 10
262.647034
 20
439.149963
 30
0.0
 11
260.647034
 21
439.274963
 31
0.0
  0
LINE
  5
6A4
330
1F
100
AcDbEntity
  8
0
 62
     7
100
AcDbLine
 10
259.647034
 20
439.337463
 30
0.0
 11
258.447021
 21
439.412476
 31
0.0
  0
LINE
  5
6A5
330
1F
100
AcDbEntity
  8
0
 62
     7
100
AcDbLine
 10
257.447021
 20
439.474976
 30
0.0
 11
256.24704
 21
439.549988
 31
0.0
  0
LINE
  5
6A6
330
1F
100
AcDbEntity
  8
0
 62
     7
100
AcDbLine
 10
255.247009
 20
439.612488
 30
0.0
 11
250.647003
 21
439.899963
 31
0.0
  0
LINE
  5
6A7
330
1F
100
AcDbEntity
  8
0
 62
     7
100
AcDbLine
 10
262.647034
 20
430.649963
 30
0.0
 11
260.647034
 21
430.524963
 31
0.0
  0
LINE
  5
6A8
330
1F
100
AcDbEntity
  8
0
 62
     7
100
AcDbLine
 10
259.647034
 20
430.462463
 30
0.0
 11
258.447021
 21
430.387512
 31
0.0
  0
LINE
  5
6A9
330
1F
100
AcDbEntity
  8
0
 62
     7
100
AcDbLine
 10
257.447021
 20
430.325012
 30
0.0
 11
256.24704
 21
430.25
 31
0.0
  0
LINE
  5
6AA
330
1F
100
AcDbEntity
  8
0
 62
     7
100
AcDbLine
 10
255.247009
 20
430.1875
 30
0.0
 11
250.647003
 21
429.899963
 31
0.0
  0
LINE
  5
6AB
330
1F
100
AcDbEntity
  8
0
 62
     7
100
AcDbLine
 10
250.647003
 20
439.899963
 30
0.0
 11
249.647003
 21
440.200012
 31
0.0
  0
LINE
  5
6AC
330
1F
100
AcDbEntity
  8
0
 62
     7
100
AcDbLine
 10
250.647003
 20
429.899963
 30
0.0
 11
249.647003
 21
429.599976
 31
0.0
  0
LINE
  5
6AD
330
1F
100
AcDbEntity
  8
0
 62
     7
100
AcDbLine
 10
249.647003
 20
429.899963
 30
0.0
 11
244.647003
 21
429.899963
 31
0.0
  0
LINE
  5
6AE
330
1F
100
AcDbEntity
  8
0
 62
     7
100
AcDbLine
 10
249.647003
 20
439.899963
 30
0.0
 11
244.647003
 21
439.899963
 31
0.0
  0
ARC
  5
6AF
330
1F
100
AcDbEntity
  8
0
 62
     7
100
AcDbCircle
 10
239.340393
 20
431.799988
 30
0.0
 40
6.000001907348633
100
AcDbArc
 50
327.769058
 51
332.181852
  0
ARC
  5
6B0
330
1F
100
AcDbEntity
  8
0
 62
     7
100
AcDbCircle
 10
239.340393
 20
438.0
 30
0.0
 40
6.000001907348633
100
AcDbArc
 50
27.81814
 51
32.230949
  0
LINE
  5
6B1
330
1F
100
AcDbEntity
  8
0
 62
     7
100
AcDbLine
 10
244.415833
 20
428.599976
 30
0.0
 11
237.647003
 21
428.599976
 31
0.0
  0
LINE
  5
6B2
330
1F
100
AcDbEntity
  8
0
 62
     7
100
AcDbLine
 10
244.415833
 20
441.200012
 30
0.0
 11
237.647003
 21
441.200012
 31
0.0
  0
LINE
  5
6B3
330
1F
100
AcDbEntity
  8
0
 62
     7
100
AcDbLine
 10
237.647003
 20
428.599976
 30
0.0
 11
237.147003
 21
428.099976
 31
0.0
  0
LINE
  5
6B4
330
1F
100
AcDbEntity
  8
0
 62
     7
100
AcDbLine
 10
237.647003
 20
441.200012
 30
0.0
 11
237.147003
 21
441.700012
 31
0.0
  0
LINE
  5
6B5
330
1F
100
AcDbEntity
  8
0
 62
     7
100
AcDbLine
 10
227.647003
 20
428.599976
 30
0.0
 11
226.647003
 21
428.599976
 31
0.0
  0
LINE
  5
6B6
330
1F
100
AcDbEntity
  8
0
 62
     7
100
AcDbLine
 10
227.647003
 20
441.200012
 30
0.0
 11
226.647003
 21
441.200012
 31
0.0
  0
LINE
  5
6B7
330
1F
100
AcDbEntity
  8
0
 62
     7
100
AcDbLine
 10
237.147003
 20
428.099976
 30
0.0
 11
228.147003
 21
428.099976
 31
0.0
  0
LINE
  5
6B8
330
1F
100
AcDbEntity
  8
0
 62
     7
100
AcDbLine
 10
237.147003
 20
441.700012
 30
0.0
 11
228.147003
 21
441.700012
 31
0.0
  0
LINE
  5
6B9
330
1F
100
AcDbEntity
  8
0
 62
     7
100
AcDbLine
 10
227.647003
 20
441.200012
 30
0.0
 11
228.147003
 21
441.700012
 31
0.0
  0
LINE
  5
6BA
330
1F
100
AcDbEntity
  8
0
 62
     7
100
AcDbLine
 10
227.647003
 20
428.599976
 30
0.0
 11
228.147003
 21
428.099976
 31
0.0
  0
LINE
  5
6BB
330
1F
100
AcDbEntity
  8
0
 62
     7
100
AcDbLine
 10
57.452904
 20
452.599976
 30
0.0
 11
57.452904
 21
465.700012
 31
0.0
  0
ARC
  5
6BC
330
1F
100
AcDbEntity
  8
0
 62
     7
100
AcDbCircle
 10
56.652905
 20
452.599976
 30
0.0
 40
0.800000011920929
100
AcDbArc
 50
269.999997
 51
360.0
  0
LINE
  5
6BD
330
1F
100
AcDbEntity
  8
0
 62
     7
100
AcDbLine
 10
57.323616
 20
465.829285
 30
0.0
 11
57.452904
 21
465.700012
 31
0.0
  0
ARC
  5
6BE
330
1F
100
AcDbEntity
  8
0
 62
     7
100
AcDbCircle
 10
55.452904
 20
452.599976
 30
0.0
 40
0.800000011920929
100
AcDbArc
 50
241.044838
 51
269.999997
  0
LINE
  5
6BF
330
1F
100
AcDbEntity
  8
0
 62
     7
100
AcDbLine
 10
56.652905
 20
451.799988
 30
0.0
 11
55.452904
 21
451.799988
 31
0.0
  0
ARC
  5
6C0
330
1F
100
AcDbEntity
  8
0
 62
     7
100
AcDbCircle
 10
57.394325
 20
465.900024
 30
0.0
 40
0.1000000014901161
100
AcDbArc
 50
135.0
 51
225.0
  0
LINE
  5
6C1
330
1F
100
AcDbEntity
  8
0
 62
     7
100
AcDbLine
 10
57.452904
 20
466.099976
 30
0.0
 11
57.323616
 21
465.970703
 31
0.0
  0
LINE
  5
6C2
330
1F
100
AcDbEntity
  8
0
 62
     7
100
AcDbLine
 10
57.452904
 20
466.099976
 30
0.0
 11
57.452904
 21
466.799988
 31
0.0
  0
LINE
  5
6C3
330
1F
100
AcDbEntity
  8
0
 62
     7
100
AcDbLine
 10
57.323616
 20
466.92926
 30
0.0
 11
57.452904
 21
466.799988
 31
0.0
  0
ARC
  5
6C4
330
1F
100
AcDbEntity
  8
0
 62
     7
100
AcDbCircle
 10
57.394325
 20
467.0
 30
0.0
 40
0.1000000014901161
100
AcDbArc
 50
135.0
 51
225.0
  0
LINE
  5
6C5
330
1F
100
AcDbEntity
  8
0
 62
     7
100
AcDbLine
 10
57.452904
 20
467.200012
 30
0.0
 11
57.323616
 21
467.070679
 31
0.0
  0
LINE
  5
6C6
330
1F
100
AcDbEntity
  8
0
 62
     7
100
AcDbLine
 10
57.452904
 20
467.200012
 30
0.0
 11
57.452904
 21
467.900024
 31
0.0
  0
LINE
  5
6C7
330
1F
100
AcDbEntity
  8
0
 62
     7
100
AcDbLine
 10
57.323616
 20
468.029297
 30
0.0
 11
57.452904
 21
467.900024
 31
0.0
  0
ARC
  5
6C8
330
1F
100
AcDbEntity
  8
0
 62
     7
100
AcDbCircle
 10
57.394325
 20
468.099976
 30
0.0
 40
0.1000000014901161
100
AcDbArc
 50
135.0
 51
225.0
  0
LINE
  5
6C9
330
1F
100
AcDbEntity
  8
0
 62
     7
100
AcDbLine
 10
57.452904
 20
468.299988
 30
0.0
 11
57.323616
 21
468.170715
 31
0.0
  0
LINE
  5
6CA
330
1F
100
AcDbEntity
  8
0
 62
     7
100
AcDbLine
 10
57.452904
 20
468.299988
 30
0.0
 11
57.452904
 21
469.0
 31
0.0
  0
LINE
  5
6CB
330
1F
100
AcDbEntity
  8
0
 62
     7
100
AcDbLine
 10
57.323616
 20
469.129272
 30
0.0
 11
57.452904
 21
469.0
 31
0.0
  0
ARC
  5
6CC
330
1F
100
AcDbEntity
  8
0
 62
     7
100
AcDbCircle
 10
57.394325
 20
469.200012
 30
0.0
 40
0.1000000014901161
100
AcDbArc
 50
135.0
 51
225.0
  0
LINE
  5
6CD
330
1F
100
AcDbEntity
  8
0
 62
     7
100
AcDbLine
 10
57.452904
 20
469.400024
 30
0.0
 11
57.323616
 21
469.270691
 31
0.0
  0
LINE
  5
6CE
330
1F
100
AcDbEntity
  8
0
 62
     7
100
AcDbLine
 10
57.452904
 20
469.400024
 30
0.0
 11
57.452904
 21
470.099976
 31
0.0
  0
LINE
  5
6CF
330
1F
100
AcDbEntity
  8
0
 62
     7
100
AcDbLine
 10
57.323616
 20
470.229309
 30
0.0
 11
57.452904
 21
470.099976
 31
0.0
  0
ARC
  5
6D0
330
1F
100
AcDbEntity
  8
0
 62
     7
100
AcDbCircle
 10
57.394325
 20
470.299988
 30
0.0
 40
0.1000000014901161
100
AcDbArc
 50
135.0
 51
225.0
  0
LINE
  5
6D1
330
1F
100
AcDbEntity
  8
0
 62
     7
100
AcDbLine
 10
57.452904
 20
470.5
 30
0.0
 11
57.323616
 21
470.370728
 31
0.0
  0
LINE
  5
6D2
330
1F
100
AcDbEntity
  8
0
 62
     7
100
AcDbLine
 10
57.452904
 20
470.5
 30
0.0
 11
57.452904
 21
471.200012
 31
0.0
  0
LINE
  5
6D3
330
1F
100
AcDbEntity
  8
0
 62
     7
100
AcDbLine
 10
57.323616
 20
471.329285
 30
0.0
 11
57.452904
 21
471.200012
 31
0.0
  0
ARC
  5
6D4
330
1F
100
AcDbEntity
  8
0
 62
     7
100
AcDbCircle
 10
57.394325
 20
471.400024
 30
0.0
 40
0.1000000014901161
100
AcDbArc
 50
135.0
 51
225.0
  0
LINE
  5
6D5
330
1F
100
AcDbEntity
  8
0
 62
     7
100
AcDbLine
 10
57.452904
 20
471.599976
 30
0.0
 11
57.323616
 21
471.470703
 31
0.0
  0
LINE
  5
6D6
330
1F
100
AcDbEntity
  8
0
 62
     7
100
AcDbLine
 10
57.452904
 20
471.599976
 30
0.0
 11
57.452904
 21
472.299988
 31
0.0
  0
LINE
  5
6D7
330
1F
100
AcDbEntity
  8
0
 62
     7
100
AcDbLine
 10
57.323616
 20
472.42926
 30
0.0
 11
57.452904
 21
472.299988
 31
0.0
  0
ARC
  5
6D8
330
1F
100
AcDbEntity
  8
0
 62
     7
100
AcDbCircle
 10
57.394325
 20
472.5
 30
0.0
 40
0.1000000014901161
100
AcDbArc
 50
135.0
 51
225.0
  0
LINE
  5
6D9
330
1F
100
AcDbEntity
  8
0
 62
     7
100
AcDbLine
 10
57.452904
 20
472.700012
 30
0.0
 11
57.323616
 21
472.570679
 31
0.0
  0
LINE
  5
6DA
330
1F
100
AcDbEntity
  8
0
 62
     7
100
AcDbLine
 10
57.452904
 20
472.700012
 30
0.0
 11
57.452904
 21
473.400024
 31
0.0
  0
LINE
  5
6DB
330
1F
100
AcDbEntity
  8
0
 62
     7
100
AcDbLine
 10
57.323616
 20
473.529297
 30
0.0
 11
57.452904
 21
473.400024
 31
0.0
  0
ARC
  5
6DC
330
1F
100
AcDbEntity
  8
0
 62
     7
100
AcDbCircle
 10
57.394325
 20
473.599976
 30
0.0
 40
0.1000000014901161
100
AcDbArc
 50
135.0
 51
225.0
  0
LINE
  5
6DD
330
1F
100
AcDbEntity
  8
0
 62
     7
100
AcDbLine
 10
57.452904
 20
473.799988
 30
0.0
 11
57.323616
 21
473.670715
 31
0.0
  0
LINE
  5
6DE
330
1F
100
AcDbEntity
  8
0
 62
     7
100
AcDbLine
 10
57.452904
 20
473.799988
 30
0.0
 11
57.452904
 21
474.5
 31
0.0
  0
LINE
  5
6DF
330
1F
100
AcDbEntity
  8
0
 62
     7
100
AcDbLine
 10
57.323616
 20
474.629272
 30
0.0
 11
57.452904
 21
474.5
 31
0.0
  0
ARC
  5
6E0
330
1F
100
AcDbEntity
  8
0
 62
     7
100
AcDbCircle
 10
57.394325
 20
474.700012
 30
0.0
 40
0.1000000014901161
100
AcDbArc
 50
135.0
 51
225.0
  0
LINE
  5
6E1
330
1F
100
AcDbEntity
  8
0
 62
     7
100
AcDbLine
 10
57.452904
 20
474.900024
 30
0.0
 11
57.323616
 21
474.770691
 31
0.0
  0
LINE
  5
6E2
330
1F
100
AcDbEntity
  8
0
 62
     7
100
AcDbLine
 10
57.452904
 20
474.900024
 30
0.0
 11
57.452904
 21
479.724243
 31
0.0
  0
LINE
  5
6E3
330
1F
100
AcDbEntity
  8
0
 62
     7
100
AcDbLine
 10
56.965038
 20
480.212158
 30
0.0
 11
57.452904
 21
479.724243
 31
0.0
  0
ARC
  5
6E4
330
1F
100
AcDbEntity
  8
0
 62
     7
100
AcDbCircle
 10
56.752907
 20
480.0
 30
0.0
 40
0.300000011920929
100
AcDbArc
 50
45.000001
 51
106.874504
  0
LINE
  5
6E5
330
1F
100
AcDbEntity
  8
0
 62
     7
100
AcDbLine
 10
57.452904
 20
457.799988
 30
0.0
 11
57.652908
 21
457.799988
 31
0.0
  0
LINE
  5
6E6
330
1F
100
AcDbEntity
  8
0
 62
     7
100
AcDbLine
 10
57.652908
 20
457.299988
 30
0.0
 11
57.652908
 21
457.799988
 31
0.0
  0
LINE
  5
6E7
330
1F
100
AcDbEntity
  8
0
 62
     7
100
AcDbLine
 10
57.652908
 20
457.299988
 30
0.0
 11
57.652908
 21
453.299988
 31
0.0
  0
LINE
  5
6E8
330
1F
100
AcDbEntity
  8
0
 62
     7
100
AcDbLine
 10
57.652908
 20
452.799988
 30
0.0
 11
57.652908
 21
453.299988
 31
0.0
  0
LINE
  5
6E9
330
1F
100
AcDbEntity
  8
0
 62
     7
100
AcDbLine
 10
57.452904
 20
452.799988
 30
0.0
 11
57.652908
 21
452.799988
 31
0.0
  0
ARC
  5
6EA
330
1F
100
AcDbEntity
  8
0
 62
     7
100
AcDbCircle
 10
53.452904
 20
480.099976
 30
0.0
 40
3.0
100
AcDbArc
 50
8.262821
 51
90.000003
  0
LINE
  5
6EB
330
1F
100
AcDbEntity
  8
0
 62
     7
100
AcDbLine
 10
57.702904
 20
453.299988
 30
0.0
 11
57.702904
 21
453.430359
 31
0.0
  0
LINE
  5
6EC
330
1F
100
AcDbEntity
  8
0
 62
     7
100
AcDbLine
 10
57.702904
 20
456.930359
 30
0.0
 11
57.702904
 21
453.430359
 31
0.0
  0
LINE
  5
6ED
330
1F
100
AcDbEntity
  8
0
 62
     7
100
AcDbLine
 10
57.652908
 20
457.200012
 30
0.0
 11
57.702904
 21
457.200012
 31
0.0
  0
LINE
  5
6EE
330
1F
100
AcDbEntity
  8
0
 62
     7
100
AcDbLine
 10
57.702904
 20
456.930359
 30
0.0
 11
57.702904
 21
457.200012
 31
0.0
  0
LINE
  5
6EF
330
1F
100
AcDbEntity
  8
0
 62
     7
100
AcDbLine
 10
57.106461
 20
479.846436
 30
0.0
 11
56.264381
 21
480.688538
 31
0.0
  0
ARC
  5
6F0
330
1F
100
AcDbEntity
  8
0
 62
     7
100
AcDbCircle
 10
56.752907
 20
479.49292
 30
0.0
 40
0.5
100
AcDbArc
 50
0.0
 51
45.000001
  0
LINE
  5
6F1
330
1F
100
AcDbEntity
  8
0
 62
     7
100
AcDbLine
 10
57.252907
 20
452.400024
 30
0.0
 11
57.252907
 21
479.49292
 31
0.0
  0
ARC
  5
6F2
330
1F
100
AcDbEntity
  8
0
 62
     7
100
AcDbCircle
 10
56.752907
 20
452.400024
 30
0.0
 40
0.5
100
AcDbArc
 50
269.999997
 51
360.0
  0
LINE
  5
6F3
330
1F
100
AcDbEntity
  8
0
 62
     7
100
AcDbLine
 10
41.152908
 20
451.900024
 30
0.0
 11
56.752907
 21
451.900024
 31
0.0
  0
ARC
  5
6F4
330
1F
100
AcDbEntity
  8
0
 62
     7
100
AcDbCircle
 10
41.152908
 20
452.400024
 30
0.0
 40
0.5
100
AcDbArc
 50
180.000009
 51
269.999997
  0
LINE
  5
6F5
330
1F
100
AcDbEntity
  8
0
 62
     7
100
AcDbLine
 10
40.652908
 20
479.49292
 30
0.0
 11
40.652908
 21
452.400024
 31
0.0
  0
LINE
  5
6F6
330
1F
100
AcDbEntity
  8
0
 62
     7
100
AcDbLine
 10
39.852905
 20
461.799988
 30
0.0
 11
39.852905
 21
463.799988
 31
0.0
  0
LINE
  5
6F7
330
1F
100
AcDbEntity
  8
0
 62
     7
100
AcDbLine
 10
39.852905
 20
461.799988
 30
0.0
 11
40.652901
 21
461.799988
 31
0.0
  0
LINE
  5
6F8
330
1F
100
AcDbEntity
  8
0
 62
     7
100
AcDbLine
 10
53.452904
 20
483.099976
 30
0.0
 11
44.452904
 21
483.099976
 31
0.0
  0
ARC
  5
6F9
330
1F
100
AcDbEntity
  8
0
 62
     7
100
AcDbCircle
 10
44.452904
 20
480.099976
 30
0.0
 40
3.0
100
AcDbArc
 50
90.000003
 51
171.737184
  0
ARC
  5
6FA
330
1F
100
AcDbEntity
  8
0
 62
     7
100
AcDbCircle
 10
56.29974
 20
480.723877
 30
0.0
 40
0.0500000007450581
100
AcDbArc
 50
189.204208
 51
225.0
  0
ARC
  5
6FB
330
1F
100
AcDbEntity
  8
0
 62
     7
100
AcDbCircle
 10
41.152908
 20
479.49292
 30
0.0
 40
0.5
100
AcDbArc
 50
135.0
 51
180.000009
  0
LINE
  5
6FC
330
1F
100
AcDbEntity
  8
0
 62
     7
100
AcDbLine
 10
39.852905
 20
478.571106
 30
0.0
 11
39.852905
 21
463.799988
 31
0.0
  0
LINE
  5
6FD
330
1F
100
AcDbEntity
  8
0
 62
     7
100
AcDbLine
 10
39.852905
 20
478.571106
 30
0.0
 11
39.852905
 21
478.613342
 31
0.0
  0
LINE
  5
6FE
330
1F
100
AcDbEntity
  8
0
 62
     7
100
AcDbLine
 10
39.852905
 20
478.613342
 30
0.0
 11
39.852905
 21
483.099976
 31
0.0
  0
LINE
  5
6FF
330
1F
100
AcDbEntity
  8
0
 62
     7
100
AcDbLine
 10
40.052906
 20
461.799988
 30
0.0
 11
40.052906
 21
461.299988
 31
0.0
  0
LINE
  5
700
330
1F
100
AcDbEntity
  8
0
 62
     7
100
AcDbLine
 10
40.652905
 20
461.299988
 30
0.0
 11
40.052906
 21
461.299988
 31
0.0
  0
LINE
  5
701
330
1F
100
AcDbEntity
  8
0
 62
     7
100
AcDbLine
 10
40.052906
 20
452.599976
 30
0.0
 11
40.052906
 21
461.299988
 31
0.0
  0
ARC
  5
702
330
1F
100
AcDbEntity
  8
0
 62
     7
100
AcDbCircle
 10
40.852905
 20
452.599976
 30
0.0
 40
0.800000011920929
100
AcDbArc
 50
180.000009
 51
269.999997
  0
LINE
  5
703
330
1F
100
AcDbEntity
  8
0
 62
     7
100
AcDbLine
 10
40.852905
 20
451.799988
 30
0.0
 11
42.052906
 21
451.799988
 31
0.0
  0
ARC
  5
704
330
1F
100
AcDbEntity
  8
0
 62
     7
100
AcDbCircle
 10
42.052906
 20
452.599976
 30
0.0
 40
0.800000011920929
100
AcDbArc
 50
269.999997
 51
298.955164
  0
LINE
  5
705
330
1F
100
AcDbEntity
  8
0
 62
     7
100
AcDbLine
 10
41.641426
 20
480.688538
 30
0.0
 11
40.799355
 21
479.846436
 31
0.0
  0
ARC
  5
706
330
1F
100
AcDbEntity
  8
0
 62
     7
100
AcDbCircle
 10
41.606071
 20
480.723877
 30
0.0
 40
0.0500000007450581
100
AcDbArc
 50
314.999992
 51
350.795784
  0
ARC
  5
707
330
1F
100
AcDbEntity
  8
0
 62
     7
100
AcDbCircle
 10
44.221951
 20
480.299988
 30
0.0
 40
2.599999904632568
100
AcDbArc
 50
90.000003
 51
170.795792
  0
LINE
  5
708
330
1F
100
AcDbEntity
  8
0
 62
     7
100
AcDbLine
 10
53.683861
 20
482.900024
 30
0.0
 11
44.221951
 21
482.900024
 31
0.0
  0
ARC
  5
709
330
1F
100
AcDbEntity
  8
0
 62
     7
100
AcDbCircle
 10
53.683861
 20
480.299988
 30
0.0
 40
2.599999904632568
100
AcDbArc
 50
9.20421
 51
90.000003
  0
CIRCLE
  5
70A
330
1F
100
AcDbEntity
  8
0
 62
     7
100
AcDbCircle
 10
48.952904
 20
460.099976
 30
0.0
 40
5.150000095367432
  0
POLYLINE
  5
70B
330
1F
100
AcDbEntity
  8
0
 62
     7
100
AcDb2dPolyline
 66
     1
 10
0.0
 20
0.0
 30
0.0
  0
VERTEX
  5
70C
330
70B
100
AcDbEntity
  8
0
100
AcDbVertex
100
AcDb2dVertex
 10
40.352905
 20
480.010193
 30
0.0
  0
VERTEX
  5
70D
330
70B
100
AcDbEntity
  8
0
100
AcDbVertex
100
AcDb2dVertex
 10
40.349037
 20
479.912903
 30
0.0
  0
VERTEX
  5
70E
330
70B
100
AcDbEntity
  8
0
100
AcDbVertex
100
AcDb2dVertex
 10
40.33744
 20
479.809448
 30
0.0
  0
VERTEX
  5
70F
330
70B
100
AcDbEntity
  8
0
100
AcDbVertex
100
AcDb2dVertex
 10
40.318089
 20
479.700073
 30
0.0
  0
VERTEX
  5
710
330
70B
100
AcDbEntity
  8
0
100
AcDbVertex
100
AcDb2dVertex
 10
40.290894
 20
479.5849
 30
0.0
  0
VERTEX
  5
711
330
70B
100
AcDbEntity
  8
0
100
AcDbVertex
100
AcDb2dVertex
 10
40.255703
 20
479.463989
 30
0.0
  0
VERTEX
  5
712
330
70B
100
AcDbEntity
  8
0
100
AcDbVertex
100
AcDb2dVertex
 10
40.21225
 20
479.337341
 30
0.0
  0
VERTEX
  5
713
330
70B
100
AcDbEntity
  8
0
100
AcDbVertex
100
AcDb2dVertex
 10
40.160164
 20
479.204895
 30
0.0
  0
VERTEX
  5
714
330
70B
100
AcDbEntity
  8
0
100
AcDbVertex
100
AcDb2dVertex
 10
40.098938
 20
479.066406
 30
0.0
  0
VERTEX
  5
715
330
70B
100
AcDbEntity
  8
0
100
AcDbVertex
100
AcDb2dVertex
 10
40.027908
 20
478.921814
 30
0.0
  0
VERTEX
  5
716
330
70B
100
AcDbEntity
  8
0
100
AcDbVertex
100
AcDb2dVertex
 10
39.946239
 20
478.770874
 30
0.0
  0
VERTEX
  5
717
330
70B
100
AcDbEntity
  8
0
100
AcDbVertex
100
AcDb2dVertex
 10
39.852905
 20
478.613342
 30
0.0
  0
SEQEND
  5
718
330
70B
100
AcDbEntity
  8
0
 62
     7
  0
LINE
  5
719
330
1F
100
AcDbEntity
  8
0
 62
     7
100
AcDbLine
 10
40.352905
 20
480.010193
 30
0.0
 11
40.352905
 21
483.599976
 31
0.0
  0
LINE
  5
71A
330
1F
100
AcDbEntity
  8
0
 62
     7
100
AcDbLine
 10
41.452904
 20
483.600342
 30
0.0
 11
41.452904
 21
488.739868
 31
0.0
  0
LINE
  5
71B
330
1F
100
AcDbEntity
  8
0
 62
     7
100
AcDbLine
 10
41.452904
 20
491.099976
 30
0.0
 11
41.452904
 21
488.739868
 31
0.0
  0
LINE
  5
71C
330
1F
100
AcDbEntity
  8
0
 62
     7
100
AcDbLine
 10
41.452904
 20
480.5
 30
0.0
 11
41.452904
 21
483.599976
 31
0.0
  0
CIRCLE
  5
71D
330
1F
100
AcDbEntity
  8
0
 62
     7
100
AcDbCircle
 10
48.952904
 20
460.099976
 30
0.0
 40
4.150000095367432
  0
LINE
  5
71E
330
1F
100
AcDbEntity
  8
0
 62
     7
100
AcDbLine
 10
40.352905
 20
488.739868
 30
0.0
 11
41.452904
 21
488.739868
 31
0.0
  0
LINE
  5
71F
330
1F
100
AcDbEntity
  8
0
 62
     7
100
AcDbLine
 10
39.852905
 20
483.100708
 30
0.0
 11
39.852905
 21
488.172119
 31
0.0
  0
LINE
  5
720
330
1F
100
AcDbEntity
  8
0
 62
     7
100
AcDbLine
 10
40.352905
 20
488.739868
 30
0.0
 11
39.852905
 21
488.172119
 31
0.0
  0
LINE
  5
721
330
1F
100
AcDbEntity
  8
0
 62
     7
100
AcDbLine
 10
40.352905
 20
491.099976
 30
0.0
 11
40.352905
 21
488.739868
 31
0.0
  0
LINE
  5
722
330
1F
100
AcDbEntity
  8
0
 62
     7
100
AcDbLine
 10
39.852905
 20
490.599976
 30
0.0
 11
39.852905
 21
488.172119
 31
0.0
  0
ARC
  5
723
330
1F
100
AcDbEntity
  8
0
 62
     7
100
AcDbCircle
 10
48.952904
 20
460.099976
 30
0.0
 40
3.75
100
AcDbArc
 50
350.018317
 51
9.981683
  0
ARC
  5
724
330
1F
100
AcDbEntity
  8
0
 62
     7
100
AcDbCircle
 10
48.952904
 20
460.099976
 30
0.0
 40
3.75
100
AcDbArc
 50
189.981688
 51
350.018317
  0
ARC
  5
725
330
1F
100
AcDbEntity
  8
0
 62
     7
100
AcDbCircle
 10
48.952904
 20
460.099976
 30
0.0
 40
3.75
100
AcDbArc
 50
170.018312
 51
189.981688
  0
ARC
  5
726
330
1F
100
AcDbEntity
  8
0
 62
     7
100
AcDbCircle
 10
48.952904
 20
460.099976
 30
0.0
 40
3.75
100
AcDbArc
 50
9.981683
 51
170.018312
  0
LINE
  5
727
330
1F
100
AcDbEntity
  8
0
 62
     7
100
AcDbLine
 10
52.44289
 20
459.450012
 30
0.0
 11
52.646141
 21
459.450012
 31
0.0
  0
LINE
  5
728
330
1F
100
AcDbEntity
  8
0
 62
     7
100
AcDbLine
 10
45.462921
 20
459.450012
 30
0.0
 11
45.25967
 21
459.450012
 31
0.0
  0
LINE
  5
729
330
1F
100
AcDbEntity
  8
0
 62
     7
100
AcDbLine
 10
52.44289
 20
459.450012
 30
0.0
 11
45.462921
 21
459.450012
 31
0.0
  0
ARC
  5
72A
330
1F
100
AcDbEntity
  8
0
 62
     7
100
AcDbCircle
 10
48.952904
 20
460.099976
 30
0.0
 40
3.549999952316284
100
AcDbArc
 50
190.550301
 51
349.44969
  0
LINE
  5
72B
330
1F
100
AcDbEntity
  8
0
 62
     7
100
AcDbLine
 10
45.462921
 20
460.75
 30
0.0
 11
45.25967
 21
460.75
 31
0.0
  0
LINE
  5
72C
330
1F
100
AcDbEntity
  8
0
 62
     7
100
AcDbLine
 10
52.44289
 20
460.75
 30
0.0
 11
52.646141
 21
460.75
 31
0.0
  0
LINE
  5
72D
330
1F
100
AcDbEntity
  8
0
 62
     7
100
AcDbLine
 10
45.462921
 20
460.75
 30
0.0
 11
52.44289
 21
460.75
 31
0.0
  0
ARC
  5
72E
330
1F
100
AcDbEntity
  8
0
 62
     7
100
AcDbCircle
 10
48.952904
 20
460.099976
 30
0.0
 40
3.549999952316284
100
AcDbArc
 50
10.550303
 51
169.449699
  0
LINE
  5
72F
330
1F
100
AcDbEntity
  8
0
 62
     7
100
AcDbLine
 10
57.652908
 20
453.299988
 30
0.0
 11
57.702904
 21
453.299988
 31
0.0
  0
LINE
  5
730
330
1F
100
AcDbEntity
  8
0
 62
     7
100
AcDbLine
 10
57.652908
 20
453.299988
 30
0.0
 11
57.702904
 21
453.299988
 31
0.0
  0
LINE
  5
731
330
1F
100
AcDbEntity
  8
0
 62
     7
100
AcDbLine
 10
39.852905
 20
483.099976
 30
0.0
 11
40.352905
 21
483.599976
 31
0.0
  0
LINE
  5
732
330
1F
100
AcDbEntity
  8
0
 62
     7
100
AcDbLine
 10
40.352905
 20
483.599976
 30
0.0
 11
41.452904
 21
483.599976
 31
0.0
  0
LINE
  5
733
330
1F
100
AcDbEntity
  8
0
 62
     7
100
AcDbLine
 10
41.452904
 20
491.099976
 30
0.0
 11
40.352905
 21
491.099976
 31
0.0
  0
LINE
  5
734
330
1F
100
AcDbEntity
  8
0
 62
     7
100
AcDbLine
 10
39.852905
 20
490.599976
 30
0.0
 11
40.352905
 21
491.099976
 31
0.0
  0
LINE
  5
735
330
1F
100
AcDbEntity
  8
0
 62
     7
100
AcDbLine
 10
40.052906
 20
426.200012
 30
0.0
 11
40.052906
 21
449.299988
 31
0.0
  0
LINE
  5
736
330
1F
100
AcDbEntity
  8
0
 62
     7
100
AcDbLine
 10
40.052906
 20
449.299988
 30
0.0
 11
40.052906
 21
450.299988
 31
0.0
  0
LINE
  5
737
330
1F
100
AcDbEntity
  8
0
 62
     7
100
AcDbLine
 10
57.252907
 20
449.299988
 30
0.0
 11
57.252907
 21
426.200012
 31
0.0
  0
LINE
  5
738
330
1F
100
AcDbEntity
  8
0
 62
     7
100
AcDbLine
 10
57.252907
 20
449.299988
 30
0.0
 11
57.252907
 21
450.299988
 31
0.0
  0
LINE
  5
739
330
1F
100
AcDbEntity
  8
0
 62
     7
100
AcDbLine
 10
40.552906
 20
449.299988
 30
0.0
 11
40.199352
 21
449.653564
 31
0.0
  0
ARC
  5
73A
330
1F
100
AcDbEntity
  8
0
 62
     7
100
AcDbCircle
 10
40.552906
 20
449.299988
 30
0.0
 40
0.5
100
AcDbArc
 50
90.000003
 51
180.000009
  0
ARC
  5
73B
330
1F
100
AcDbEntity
  8
0
 62
     7
100
AcDbCircle
 10
40.552906
 20
426.200012
 30
0.0
 40
0.5
100
AcDbArc
 50
180.000009
 51
270.000353
  0
ARC
  5
73C
330
1F
100
AcDbEntity
  8
0
 62
     7
100
AcDbCircle
 10
40.55291
 20
425.700012
 30
0.0
 40
0.5000079870223999
100
AcDbArc
 50
90.000289
 51
149.999055
  0
ARC
  5
73D
330
1F
100
AcDbEntity
  8
0
 62
     7
100
AcDbCircle
 10
40.552906
 20
450.299988
 30
0.0
 40
0.5
100
AcDbArc
 50
90.000003
 51
180.000009
  0
LINE
  5
73E
330
1F
100
AcDbEntity
  8
0
 62
     7
100
AcDbLine
 10
39.852905
 20
444.737671
 30
0.0
 11
39.852905
 21
445.7005
 31
0.0
  0
LINE
  5
73F
330
1F
100
AcDbEntity
  8
0
 62
     7
100
AcDbLine
 10
39.852905
 20
444.737671
 30
0.0
 11
39.852905
 21
433.0
 31
0.0
  0
LINE
  5
740
330
1F
100
AcDbEntity
  8
0
 62
     7
100
AcDbLine
 10
39.852905
 20
430.0
 30
0.0
 11
39.852905
 21
433.0
 31
0.0
  0
LINE
  5
741
330
1F
100
AcDbEntity
  8
0
 62
     7
100
AcDbLine
 10
39.852905
 20
430.0
 30
0.0
 11
40.052906
 21
430.0
 31
0.0
  0
LINE
  5
742
330
1F
100
AcDbEntity
  8
0
 62
     7
100
AcDbLine
 10
39.852905
 20
448.799988
 30
0.0
 11
40.052906
 21
448.799988
 31
0.0
  0
LINE
  5
743
330
1F
100
AcDbEntity
  8
0
 62
     7
100
AcDbLine
 10
39.852905
 20
447.93512
 30
0.0
 11
39.852905
 21
448.799988
 31
0.0
  0
LINE
  5
744
330
1F
100
AcDbEntity
  8
0
 62
     7
100
AcDbLine
 10
44.70322
 20
429.0
 30
0.0
 11
44.885948
 21
429.0
 31
0.0
  0
LINE
  5
745
330
1F
100
AcDbEntity
  8
0
 62
     7
100
AcDbLine
 10
52.419853
 20
429.0
 30
0.0
 11
52.602589
 21
429.0
 31
0.0
  0
ARC
  5
746
330
1F
100
AcDbEntity
  8
0
 62
     7
100
AcDbCircle
 10
56.752907
 20
426.200012
 30
0.0
 40
0.5
100
AcDbArc
 50
269.999997
 51
359.999901
  0
ARC
  5
747
330
1F
100
AcDbEntity
  8
0
 62
     7
100
AcDbCircle
 10
56.752907
 20
449.299988
 30
0.0
 40
0.5
100
AcDbArc
 50
0.0
 51
90.000003
  0
LINE
  5
748
330
1F
100
AcDbEntity
  8
0
 62
     7
100
AcDbLine
 10
56.752907
 20
449.299988
 30
0.0
 11
57.106461
 21
449.653564
 31
0.0
  0
ARC
  5
749
330
1F
100
AcDbEntity
  8
0
 62
     7
100
AcDbCircle
 10
56.752907
 20
425.700012
 30
0.0
 40
0.4999969899654388
100
AcDbArc
 50
29.999605
 51
90.000201
  0
LINE
  5
74A
330
1F
100
AcDbEntity
  8
0
 62
     7
100
AcDbLine
 10
57.252907
 20
447.93512
 30
0.0
 11
57.252907
 21
445.7005
 31
0.0
  0
LINE
  5
74B
330
1F
100
AcDbEntity
  8
0
 62
     7
100
AcDbLine
 10
57.452904
 20
447.93512
 30
0.0
 11
57.452904
 21
448.799988
 31
0.0
  0
LINE
  5
74C
330
1F
100
AcDbEntity
  8
0
 62
     7
100
AcDbLine
 10
57.252907
 20
448.799988
 30
0.0
 11
57.452904
 21
448.799988
 31
0.0
  0
LINE
  5
74D
330
1F
100
AcDbEntity
  8
0
 62
     7
100
AcDbLine
 10
57.252907
 20
430.0
 30
0.0
 11
57.452904
 21
430.0
 31
0.0
  0
LINE
  5
74E
330
1F
100
AcDbEntity
  8
0
 62
     7
100
AcDbLine
 10
57.452904
 20
430.0
 30
0.0
 11
57.452904
 21
433.0
 31
0.0
  0
LINE
  5
74F
330
1F
100
AcDbEntity
  8
0
 62
     7
100
AcDbLine
 10
57.452904
 20
444.737671
 30
0.0
 11
57.452904
 21
433.0
 31
0.0
  0
LINE
  5
750
330
1F
100
AcDbEntity
  8
0
 62
     7
100
AcDbLine
 10
57.452904
 20
444.737671
 30
0.0
 11
57.452904
 21
445.7005
 31
0.0
  0
ARC
  5
751
330
1F
100
AcDbEntity
  8
0
 62
     7
100
AcDbCircle
 10
56.752907
 20
450.299988
 30
0.0
 40
0.5
100
AcDbArc
 50
0.0
 51
90.000003
  0
LINE
  5
752
330
1F
100
AcDbEntity
  8
0
 62
     7
100
AcDbLine
 10
40.552906
 20
426.200012
 30
0.0
 11
48.052906
 21
426.200012
 31
0.0
  0
LINE
  5
753
330
1F
100
AcDbEntity
  8
0
 62
     7
100
AcDbLine
 10
48.052906
 20
426.900024
 30
0.0
 11
48.052906
 21
426.200012
 31
0.0
  0
LINE
  5
754
330
1F
100
AcDbEntity
  8
0
 62
     7
100
AcDbLine
 10
48.052906
 20
426.900024
 30
0.0
 11
49.252907
 21
426.900024
 31
0.0
  0
LINE
  5
755
330
1F
100
AcDbEntity
  8
0
 62
     7
100
AcDbLine
 10
49.252907
 20
426.900024
 30
0.0
 11
49.252907
 21
426.200012
 31
0.0
  0
LINE
  5
756
330
1F
100
AcDbEntity
  8
0
 62
     7
100
AcDbLine
 10
49.252907
 20
426.200012
 30
0.0
 11
56.752907
 21
426.200012
 31
0.0
  0
ARC
  5
757
330
1F
100
AcDbEntity
  8
0
 62
     7
100
AcDbCircle
 10
52.287804
 20
449.299988
 30
0.0
 40
0.5
100
AcDbArc
 50
90.000003
 51
218.583597
  0
ARC
  5
758
330
1F
100
AcDbEntity
  8
0
 62
     7
100
AcDbCircle
 10
48.652905
 20
446.400024
 30
0.0
 40
4.150000095367432
100
AcDbArc
 50
0.0
 51
38.583602
  0
LINE
  5
759
330
1F
100
AcDbEntity
  8
0
 62
     7
100
AcDbLine
 10
52.802906
 20
446.400024
 30
0.0
 11
52.802906
 21
445.400024
 31
0.0
  0
ARC
  5
75A
330
1F
100
AcDbEntity
  8
0
 62
     7
100
AcDbCircle
 10
48.652905
 20
445.400024
 30
0.0
 40
4.150000095367432
100
AcDbArc
 50
327.912246
 51
360.0
  0
POLYLINE
  5
75B
330
1F
100
AcDbEntity
  8
0
 62
     7
100
AcDb2dPolyline
 66
     1
 10
0.0
 20
0.0
 30
0.0
  0
VERTEX
  5
75C
330
75B
100
AcDbEntity
  8
0
100
AcDbVertex
100
AcDb2dVertex
 10
52.57975
 20
441.053833
 30
0.0
  0
VERTEX
  5
75D
330
75B
100
AcDbEntity
  8
0
100
AcDbVertex
100
AcDb2dVertex
 10
52.505455
 20
441.104675
 30
0.0
  0
VERTEX
  5
75E
330
75B
100
AcDbEntity
  8
0
100
AcDbVertex
100
AcDb2dVertex
 10
52.446068
 20
441.150635
 30
0.0
  0
VERTEX
  5
75F
330
75B
100
AcDbEntity
  8
0
100
AcDbVertex
100
AcDb2dVertex
 10
52.389309
 20
441.199585
 30
0.0
  0
VERTEX
  5
760
330
75B
100
AcDbEntity
  8
0
100
AcDbVertex
100
AcDb2dVertex
 10
52.314667
 20
441.272644
 30
0.0
  0
VERTEX
  5
761
330
75B
100
AcDbEntity
  8
0
100
AcDbVertex
100
AcDb2dVertex
 10
52.24575
 20
441.350891
 30
0.0
  0
VERTEX
  5
762
330
75B
100
AcDbEntity
  8
0
100
AcDbVertex
100
AcDb2dVertex
 10
52.182892
 20
441.433655
 30
0.0
  0
VERTEX
  5
763
330
75B
100
AcDbEntity
  8
0
100
AcDbVertex
100
AcDb2dVertex
 10
52.12635
 20
441.520386
 30
0.0
  0
VERTEX
  5
764
330
75B
100
AcDbEntity
  8
0
100
AcDbVertex
100
AcDb2dVertex
 10
52.076302
 20
441.610535
 30
0.0
  0
VERTEX
  5
765
330
75B
100
AcDbEntity
  8
0
100
AcDbVertex
100
AcDb2dVertex
 10
52.032879
 20
441.703613
 30
0.0
  0
VERTEX
  5
766
330
75B
100
AcDbEntity
  8
0
100
AcDbVertex
100
AcDb2dVertex
 10
51.996132
 20
441.79895
 30
0.0
  0
VERTEX
  5
767
330
75B
100
AcDbEntity
  8
0
100
AcDbVertex
100
AcDb2dVertex
 10
51.964996
 20
441.900024
 30
0.0
  0
VERTEX
  5
768
330
75B
100
AcDbEntity
  8
0
100
AcDbVertex
100
AcDb2dVertex
 10
51.941036
 20
442.002502
 30
0.0
  0
VERTEX
  5
769
330
75B
100
AcDbEntity
  8
0
100
AcDbVertex
100
AcDb2dVertex
 10
51.924168
 20
442.105774
 30
0.0
  0
VERTEX
  5
76A
330
75B
100
AcDbEntity
  8
0
100
AcDbVertex
100
AcDb2dVertex
 10
51.914268
 20
442.209473
 30
0.0
  0
VERTEX
  5
76B
330
75B
100
AcDbEntity
  8
0
100
AcDbVertex
100
AcDb2dVertex
 10
51.911186
 20
442.31311
 30
0.0
  0
VERTEX
  5
76C
330
75B
100
AcDbEntity
  8
0
100
AcDbVertex
100
AcDb2dVertex
 10
51.914761
 20
442.416199
 30
0.0
  0
VERTEX
  5
76D
330
75B
100
AcDbEntity
  8
0
100
AcDbVertex
100
AcDb2dVertex
 10
51.924812
 20
442.518433
 30
0.0
  0
VERTEX
  5
76E
330
75B
100
AcDbEntity
  8
0
100
AcDbVertex
100
AcDb2dVertex
 10
51.941563
 20
442.621521
 30
0.0
  0
VERTEX
  5
76F
330
75B
100
AcDbEntity
  8
0
100
AcDbVertex
100
AcDb2dVertex
 10
51.964676
 20
442.723022
 30
0.0
  0
VERTEX
  5
770
330
75B
100
AcDbEntity
  8
0
100
AcDbVertex
100
AcDb2dVertex
 10
51.993958
 20
442.822571
 30
0.0
  0
VERTEX
  5
771
330
75B
100
AcDbEntity
  8
0
100
AcDbVertex
100
AcDb2dVertex
 10
52.029217
 20
442.919861
 30
0.0
  0
VERTEX
  5
772
330
75B
100
AcDbEntity
  8
0
100
AcDbVertex
100
AcDb2dVertex
 10
52.070259
 20
443.014648
 30
0.0
  0
VERTEX
  5
773
330
75B
100
AcDbEntity
  8
0
100
AcDbVertex
100
AcDb2dVertex
 10
52.11689
 20
443.106567
 30
0.0
  0
VERTEX
  5
774
330
75B
100
AcDbEntity
  8
0
100
AcDbVertex
100
AcDb2dVertex
 10
52.168934
 20
443.195435
 30
0.0
  0
SEQEND
  5
775
330
75B
100
AcDbEntity
  8
0
 62
     7
  0
ARC
  5
776
330
1F
100
AcDbEntity
  8
0
 62
     7
100
AcDbCircle
 10
48.652905
 20
434.900024
 30
0.0
 40
7.300000190734863
100
AcDbArc
 50
122.542528
 51
57.457471
  0
POLYLINE
  5
777
330
1F
100
AcDbEntity
  8
0
 62
     7
100
AcDb2dPolyline
 66
     1
 10
0.0
 20
0.0
 30
0.0
  0
VERTEX
  5
778
330
777
100
AcDbEntity
  8
0
100
AcDbVertex
100
AcDb2dVertex
 10
44.726051
 20
441.053833
 30
0.0
  0
VERTEX
  5
779
330
777
100
AcDbEntity
  8
0
100
AcDbVertex
100
AcDb2dVertex
 10
44.805546
 20
441.108459
 30
0.0
  0
VERTEX
  5
77A
330
777
100
AcDbEntity
  8
0
100
AcDbVertex
100
AcDb2dVertex
 10
44.881088
 20
441.168396
 30
0.0
  0
VERTEX
  5
77B
330
777
100
AcDbEntity
  8
0
100
AcDbVertex
100
AcDb2dVertex
 10
44.95229
 20
441.233276
 30
0.0
  0
VERTEX
  5
77C
330
777
100
AcDbEntity
  8
0
100
AcDbVertex
100
AcDb2dVertex
 10
45.01881
 20
441.302673
 30
0.0
  0
VERTEX
  5
77D
330
777
100
AcDbEntity
  8
0
100
AcDbVertex
100
AcDb2dVertex
 10
45.080357
 20
441.376282
 30
0.0
  0
VERTEX
  5
77E
330
777
100
AcDbEntity
  8
0
100
AcDbVertex
100
AcDb2dVertex
 10
45.141926
 20
441.461304
 30
0.0
  0
VERTEX
  5
77F
330
777
100
AcDbEntity
  8
0
100
AcDbVertex
100
AcDb2dVertex
 10
45.196964
 20
441.550232
 30
0.0
  0
VERTEX
  5
780
330
777
100
AcDbEntity
  8
0
100
AcDbVertex
100
AcDb2dVertex
 10
45.245308
 20
441.642517
 30
0.0
  0
VERTEX
  5
781
330
777
100
AcDbEntity
  8
0
100
AcDbVertex
100
AcDb2dVertex
 10
45.286854
 20
441.737488
 30
0.0
  0
VERTEX
  5
782
330
777
100
AcDbEntity
  8
0
100
AcDbVertex
100
AcDb2dVertex
 10
45.32156
 20
441.834656
 30
0.0
  0
VERTEX
  5
783
330
777
100
AcDbEntity
  8
0
100
AcDbVertex
100
AcDb2dVertex
 10
45.349445
 20
441.933411
 30
0.0
  0
VERTEX
  5
784
330
777
100
AcDbEntity
  8
0
100
AcDbVertex
100
AcDb2dVertex
 10
45.370564
 20
442.033325
 30
0.0
  0
VERTEX
  5
785
330
777
100
AcDbEntity
  8
0
100
AcDbVertex
100
AcDb2dVertex
 10
45.385479
 20
442.138184
 30
0.0
  0
VERTEX
  5
786
330
777
100
AcDbEntity
  8
0
100
AcDbVertex
100
AcDb2dVertex
 10
45.393288
 20
442.243286
 30
0.0
  0
VERTEX
  5
787
330
777
100
AcDbEntity
  8
0
100
AcDbVertex
100
AcDb2dVertex
 10
45.39415
 20
442.348145
 30
0.0
  0
VERTEX
  5
788
330
777
100
AcDbEntity
  8
0
100
AcDbVertex
100
AcDb2dVertex
 10
45.388233
 20
442.452393
 30
0.0
  0
VERTEX
  5
789
330
777
100
AcDbEntity
  8
0
100
AcDbVertex
100
AcDb2dVertex
 10
45.375732
 20
442.555603
 30
0.0
  0
VERTEX
  5
78A
330
777
100
AcDbEntity
  8
0
100
AcDbVertex
100
AcDb2dVertex
 10
45.356834
 20
442.65741
 30
0.0
  0
VERTEX
  5
78B
330
777
100
AcDbEntity
  8
0
100
AcDbVertex
100
AcDb2dVertex
 10
45.331738
 20
442.757568
 30
0.0
  0
VERTEX
  5
78C
330
777
100
AcDbEntity
  8
0
100
AcDbVertex
100
AcDb2dVertex
 10
45.302727
 20
442.849609
 30
0.0
  0
VERTEX
  5
78D
330
777
100
AcDbEntity
  8
0
100
AcDbVertex
100
AcDb2dVertex
 10
45.268585
 20
442.939697
 30
0.0
  0
VERTEX
  5
78E
330
777
100
AcDbEntity
  8
0
100
AcDbVertex
100
AcDb2dVertex
 10
45.229462
 20
443.027466
 30
0.0
  0
VERTEX
  5
78F
330
777
100
AcDbEntity
  8
0
100
AcDbVertex
100
AcDb2dVertex
 10
45.185509
 20
443.112793
 30
0.0
  0
VERTEX
  5
790
330
777
100
AcDbEntity
  8
0
100
AcDbVertex
100
AcDb2dVertex
 10
45.136879
 20
443.195435
 30
0.0
  0
SEQEND
  5
791
330
777
100
AcDbEntity
  8
0
 62
     7
  0
ARC
  5
792
330
1F
100
AcDbEntity
  8
0
 62
     7
100
AcDbCircle
 10
48.652905
 20
445.400024
 30
0.0
 40
4.150000095367432
100
AcDbArc
 50
180.000009
 51
212.087746
  0
LINE
  5
793
330
1F
100
AcDbEntity
  8
0
 62
     7
100
AcDbLine
 10
44.502907
 20
446.400024
 30
0.0
 11
44.502907
 21
445.400024
 31
0.0
  0
ARC
  5
794
330
1F
100
AcDbEntity
  8
0
 62
     7
100
AcDbCircle
 10
48.652905
 20
446.400024
 30
0.0
 40
4.150000095367432
100
AcDbArc
 50
141.416403
 51
180.000009
  0
ARC
  5
795
330
1F
100
AcDbEntity
  8
0
 62
     7
100
AcDbCircle
 10
45.018005
 20
449.299988
 30
0.0
 40
0.5
100
AcDbArc
 50
321.416408
 51
90.000003
  0
LINE
  5
796
330
1F
100
AcDbEntity
  8
0
 62
     7
100
AcDbLine
 10
42.802906
 20
442.099976
 30
0.0
 11
42.402905
 21
442.099976
 31
0.0
  0
ARC
  5
797
330
1F
100
AcDbEntity
  8
0
 62
     7
100
AcDbCircle
 10
42.402905
 20
443.450012
 30
0.0
 40
1.350000023841858
100
AcDbArc
 50
90.000003
 51
269.99997
  0
LINE
  5
798
330
1F
100
AcDbEntity
  8
0
 62
     7
100
AcDbLine
 10
42.402905
 20
444.799988
 30
0.0
 11
42.802906
 21
444.799988
 31
0.0
  0
ARC
  5
799
330
1F
100
AcDbEntity
  8
0
 62
     7
100
AcDbCircle
 10
42.802906
 20
443.450012
 30
0.0
 40
1.350000023841858
100
AcDbArc
 50
269.999997
 51
89.999989
  0
CIRCLE
  5
79A
330
1F
100
AcDbEntity
  8
0
 62
     7
100
AcDbCircle
 10
54.702904
 20
443.450012
 30
0.0
 40
1.350000023841858
  0
LINE
  5
79B
330
1F
100
AcDbEntity
  8
0
 62
     7
100
AcDbLine
 10
40.552906
 20
449.799988
 30
0.0
 11
45.018005
 21
449.799988
 31
0.0
  0
LINE
  5
79C
330
1F
100
AcDbEntity
  8
0
 62
     7
100
AcDbLine
 10
49.252907
 20
426.200012
 30
0.0
 11
49.252907
 21
425.900024
 31
0.0
  0
LINE
  5
79D
330
1F
100
AcDbEntity
  8
0
 62
     7
100
AcDbLine
 10
48.052906
 20
425.900024
 30
0.0
 11
49.252907
 21
425.900024
 31
0.0
  0
LINE
  5
79E
330
1F
100
AcDbEntity
  8
0
 62
     7
100
AcDbLine
 10
48.052906
 20
426.200012
 30
0.0
 11
48.052906
 21
425.900024
 31
0.0
  0
LINE
  5
79F
330
1F
100
AcDbEntity
  8
0
 62
     7
100
AcDbLine
 10
40.552906
 20
425.700012
 30
0.0
 11
56.752907
 21
425.700012
 31
0.0
  0
LINE
  5
7A0
330
1F
100
AcDbEntity
  8
0
 62
     7
100
AcDbLine
 10
47.070972
 20
449.799988
 30
0.0
 11
45.343826
 21
449.799988
 31
0.0
  0
LINE
  5
7A1
330
1F
100
AcDbEntity
  8
0
 62
     7
100
AcDbLine
 10
51.961983
 20
449.799988
 30
0.0
 11
50.234837
 21
449.799988
 31
0.0
  0
LINE
  5
7A2
330
1F
100
AcDbEntity
  8
0
 62
     7
100
AcDbLine
 10
51.961983
 20
449.799988
 30
0.0
 11
52.287804
 21
449.799988
 31
0.0
  0
LINE
  5
7A3
330
1F
100
AcDbEntity
  8
0
 62
     7
100
AcDbLine
 10
52.287804
 20
449.799988
 30
0.0
 11
56.752907
 21
449.799988
 31
0.0
  0
LINE
  5
7A4
330
1F
100
AcDbEntity
  8
0
 62
     7
100
AcDbLine
 10
45.018005
 20
449.799988
 30
0.0
 11
45.343826
 21
449.799988
 31
0.0
  0
LINE
  5
7A5
330
1F
100
AcDbEntity
  8
0
 62
     7
100
AcDbLine
 10
40.552906
 20
450.799988
 30
0.0
 11
56.752907
 21
450.799988
 31
0.0
  0
LINE
  5
7A6
330
1F
100
AcDbEntity
  8
0
 62
     7
100
AcDbLine
 10
39.852905
 20
445.7005
 30
0.0
 11
39.852905
 21
447.93512
 31
0.0
  0
LINE
  5
7A7
330
1F
100
AcDbEntity
  8
0
 62
     7
100
AcDbLine
 10
57.452904
 20
445.7005
 30
0.0
 11
57.452904
 21
447.93512
 31
0.0
  0
LINE
  5
7A8
330
1F
100
AcDbEntity
  8
0
 62
     7
100
AcDbLine
 10
52.110962
 20
443.105591
 30
0.0
 11
52.168934
 21
443.195435
 31
0.0
  0
POLYLINE
  5
7A9
330
1F
100
AcDbEntity
  8
0
 62
     7
100
AcDb2dPolyline
 66
     1
 10
0.0
 20
0.0
 30
0.0
  0
VERTEX
  5
7AA
330
7A9
100
AcDbEntity
  8
0
100
AcDbVertex
100
AcDb2dVertex
 10
52.110962
 20
443.105591
 30
0.0
  0
VERTEX
  5
7AB
330
7A9
100
AcDbEntity
  8
0
100
AcDbVertex
100
AcDb2dVertex
 10
52.055241
 20
443.015686
 30
0.0
  0
VERTEX
  5
7AC
330
7A9
100
AcDbEntity
  8
0
100
AcDbVertex
100
AcDb2dVertex
 10
52.00515
 20
442.922363
 30
0.0
  0
VERTEX
  5
7AD
330
7A9
100
AcDbEntity
  8
0
100
AcDbVertex
100
AcDb2dVertex
 10
51.960888
 20
442.825928
 30
0.0
  0
VERTEX
  5
7AE
330
7A9
100
AcDbEntity
  8
0
100
AcDbVertex
100
AcDb2dVertex
 10
51.922676
 20
442.726685
 30
0.0
  0
VERTEX
  5
7AF
330
7A9
100
AcDbEntity
  8
0
100
AcDbVertex
100
AcDb2dVertex
 10
51.890728
 20
442.624939
 30
0.0
  0
VERTEX
  5
7B0
330
7A9
100
AcDbEntity
  8
0
100
AcDbVertex
100
AcDb2dVertex
 10
51.865265
 20
442.521057
 30
0.0
  0
VERTEX
  5
7B1
330
7A9
100
AcDbEntity
  8
0
100
AcDbVertex
100
AcDb2dVertex
 10
51.8465
 20
442.415344
 30
0.0
  0
VERTEX
  5
7B2
330
7A9
100
AcDbEntity
  8
0
100
AcDbVertex
100
AcDb2dVertex
 10
51.834831
 20
442.310303
 30
0.0
  0
VERTEX
  5
7B3
330
7A9
100
AcDbEntity
  8
0
100
AcDbVertex
100
AcDb2dVertex
 10
51.830017
 20
442.204285
 30
0.0
  0
VERTEX
  5
7B4
330
7A9
100
AcDbEntity
  8
0
100
AcDbVertex
100
AcDb2dVertex
 10
51.832268
 20
442.097595
 30
0.0
  0
VERTEX
  5
7B5
330
7A9
100
AcDbEntity
  8
0
100
AcDbVertex
100
AcDb2dVertex
 10
51.84177
 20
441.990784
 30
0.0
  0
VERTEX
  5
7B6
330
7A9
100
AcDbEntity
  8
0
100
AcDbVertex
100
AcDb2dVertex
 10
51.858692
 20
441.884277
 30
0.0
  0
VERTEX
  5
7B7
330
7A9
100
AcDbEntity
  8
0
100
AcDbVertex
100
AcDb2dVertex
 10
51.883171
 20
441.778748
 30
0.0
  0
VERTEX
  5
7B8
330
7A9
100
AcDbEntity
  8
0
100
AcDbVertex
100
AcDb2dVertex
 10
51.915306
 20
441.674622
 30
0.0
  0
VERTEX
  5
7B9
330
7A9
100
AcDbEntity
  8
0
100
AcDbVertex
100
AcDb2dVertex
 10
51.953323
 20
441.576782
 30
0.0
  0
VERTEX
  5
7BA
330
7A9
100
AcDbEntity
  8
0
100
AcDbVertex
100
AcDb2dVertex
 10
51.998413
 20
441.481445
 30
0.0
  0
VERTEX
  5
7BB
330
7A9
100
AcDbEntity
  8
0
100
AcDbVertex
100
AcDb2dVertex
 10
52.050491
 20
441.389221
 30
0.0
  0
VERTEX
  5
7BC
330
7A9
100
AcDbEntity
  8
0
100
AcDbVertex
100
AcDb2dVertex
 10
52.109413
 20
441.30072
 30
0.0
  0
VERTEX
  5
7BD
330
7A9
100
AcDbEntity
  8
0
100
AcDbVertex
100
AcDb2dVertex
 10
52.141376
 20
441.257996
 30
0.0
  0
VERTEX
  5
7BE
330
7A9
100
AcDbEntity
  8
0
100
AcDbVertex
100
AcDb2dVertex
 10
52.174965
 20
441.216492
 30
0.0
  0
VERTEX
  5
7BF
330
7A9
100
AcDbEntity
  8
0
100
AcDbVertex
100
AcDb2dVertex
 10
52.222198
 20
441.163025
 30
0.0
  0
VERTEX
  5
7C0
330
7A9
100
AcDbEntity
  8
0
100
AcDbVertex
100
AcDb2dVertex
 10
52.272137
 20
441.112
 30
0.0
  0
VERTEX
  5
7C1
330
7A9
100
AcDbEntity
  8
0
100
AcDbVertex
100
AcDb2dVertex
 10
52.32465
 20
441.063416
 30
0.0
  0
VERTEX
  5
7C2
330
7A9
100
AcDbEntity
  8
0
100
AcDbVertex
100
AcDb2dVertex
 10
52.380013
 20
441.017273
 30
0.0
  0
VERTEX
  5
7C3
330
7A9
100
AcDbEntity
  8
0
100
AcDbVertex
100
AcDb2dVertex
 10
52.437737
 20
440.973877
 30
0.0
  0
VERTEX
  5
7C4
330
7A9
100
AcDbEntity
  8
0
100
AcDbVertex
100
AcDb2dVertex
 10
52.497547
 20
440.933594
 30
0.0
  0
SEQEND
  5
7C5
330
7A9
100
AcDbEntity
  8
0
 62
     7
  0
CIRCLE
  5
7C6
330
1F
100
AcDbEntity
  8
0
 62
     7
100
AcDbCircle
 10
48.652905
 20
434.900024
 30
0.0
 40
7.099999904632568
  0
ARC
  5
7C7
330
1F
100
AcDbEntity
  8
0
 62
     7
100
AcDbCircle
 10
48.652672
 20
434.899597
 30
0.0
 40
7.154872894287109
100
AcDbArc
 50
57.494627
 51
61.351983
  0
ARC
  5
7C8
330
1F
100
AcDbEntity
  8
0
 62
     7
100
AcDbCircle
 10
48.652912
 20
434.899963
 30
0.0
 40
7.154425144195557
100
AcDbArc
 50
61.352113
 51
122.505467
  0
POLYLINE
  5
7C9
330
1F
100
AcDbEntity
  8
0
 62
     7
100
AcDb2dPolyline
 66
     1
 10
0.0
 20
0.0
 30
0.0
  0
VERTEX
  5
7CA
330
7C9
100
AcDbEntity
  8
0
100
AcDbVertex
100
AcDb2dVertex
 10
45.194847
 20
443.105591
 30
0.0
  0
VERTEX
  5
7CB
330
7C9
100
AcDbEntity
  8
0
100
AcDbVertex
100
AcDb2dVertex
 10
45.250568
 20
443.015686
 30
0.0
  0
VERTEX
  5
7CC
330
7C9
100
AcDbEntity
  8
0
100
AcDbVertex
100
AcDb2dVertex
 10
45.300663
 20
442.922363
 30
0.0
  0
VERTEX
  5
7CD
330
7C9
100
AcDbEntity
  8
0
100
AcDbVertex
100
AcDb2dVertex
 10
45.344925
 20
442.825928
 30
0.0
  0
VERTEX
  5
7CE
330
7C9
100
AcDbEntity
  8
0
100
AcDbVertex
100
AcDb2dVertex
 10
45.383137
 20
442.726685
 30
0.0
  0
VERTEX
  5
7CF
330
7C9
100
AcDbEntity
  8
0
100
AcDbVertex
100
AcDb2dVertex
 10
45.415085
 20
442.624939
 30
0.0
  0
VERTEX
  5
7D0
330
7C9
100
AcDbEntity
  8
0
100
AcDbVertex
100
AcDb2dVertex
 10
45.440548
 20
442.521057
 30
0.0
  0
VERTEX
  5
7D1
330
7C9
100
AcDbEntity
  8
0
100
AcDbVertex
100
AcDb2dVertex
 10
45.459309
 20
442.415344
 30
0.0
  0
VERTEX
  5
7D2
330
7C9
100
AcDbEntity
  8
0
100
AcDbVertex
100
AcDb2dVertex
 10
45.470982
 20
442.310303
 30
0.0
  0
VERTEX
  5
7D3
330
7C9
100
AcDbEntity
  8
0
100
AcDbVertex
100
AcDb2dVertex
 10
45.475792
 20
442.204285
 30
0.0
  0
VERTEX
  5
7D4
330
7C9
100
AcDbEntity
  8
0
100
AcDbVertex
100
AcDb2dVertex
 10
45.473541
 20
442.097595
 30
0.0
  0
VERTEX
  5
7D5
330
7C9
100
AcDbEntity
  8
0
100
AcDbVertex
100
AcDb2dVertex
 10
45.464043
 20
441.990784
 30
0.0
  0
VERTEX
  5
7D6
330
7C9
100
AcDbEntity
  8
0
100
AcDbVertex
100
AcDb2dVertex
 10
45.447121
 20
441.884277
 30
0.0
  0
VERTEX
  5
7D7
330
7C9
100
AcDbEntity
  8
0
100
AcDbVertex
100
AcDb2dVertex
 10
45.422642
 20
441.778748
 30
0.0
  0
VERTEX
  5
7D8
330
7C9
100
AcDbEntity
  8
0
100
AcDbVertex
100
AcDb2dVertex
 10
45.390507
 20
441.674622
 30
0.0
  0
VERTEX
  5
7D9
330
7C9
100
AcDbEntity
  8
0
100
AcDbVertex
100
AcDb2dVertex
 10
45.352486
 20
441.576782
 30
0.0
  0
VERTEX
  5
7DA
330
7C9
100
AcDbEntity
  8
0
100
AcDbVertex
100
AcDb2dVertex
 10
45.3074
 20
441.481445
 30
0.0
  0
VERTEX
  5
7DB
330
7C9
100
AcDbEntity
  8
0
100
AcDbVertex
100
AcDb2dVertex
 10
45.255322
 20
441.389221
 30
0.0
  0
VERTEX
  5
7DC
330
7C9
100
AcDbEntity
  8
0
100
AcDbVertex
100
AcDb2dVertex
 10
45.196396
 20
441.30072
 30
0.0
  0
VERTEX
  5
7DD
330
7C9
100
AcDbEntity
  8
0
100
AcDbVertex
100
AcDb2dVertex
 10
45.164433
 20
441.257996
 30
0.0
  0
VERTEX
  5
7DE
330
7C9
100
AcDbEntity
  8
0
100
AcDbVertex
100
AcDb2dVertex
 10
45.130848
 20
441.216492
 30
0.0
  0
VERTEX
  5
7DF
330
7C9
100
AcDbEntity
  8
0
100
AcDbVertex
100
AcDb2dVertex
 10
45.083614
 20
441.163025
 30
0.0
  0
VERTEX
  5
7E0
330
7C9
100
AcDbEntity
  8
0
100
AcDbVertex
100
AcDb2dVertex
 10
45.033676
 20
441.112
 30
0.0
  0
VERTEX
  5
7E1
330
7C9
100
AcDbEntity
  8
0
100
AcDbVertex
100
AcDb2dVertex
 10
44.981159
 20
441.063416
 30
0.0
  0
VERTEX
  5
7E2
330
7C9
100
AcDbEntity
  8
0
100
AcDbVertex
100
AcDb2dVertex
 10
44.9258
 20
441.017273
 30
0.0
  0
VERTEX
  5
7E3
330
7C9
100
AcDbEntity
  8
0
100
AcDbVertex
100
AcDb2dVertex
 10
44.868073
 20
440.973877
 30
0.0
  0
VERTEX
  5
7E4
330
7C9
100
AcDbEntity
  8
0
100
AcDbVertex
100
AcDb2dVertex
 10
44.808266
 20
440.933594
 30
0.0
  0
SEQEND
  5
7E5
330
7C9
100
AcDbEntity
  8
0
 62
     7
  0
LINE
  5
7E6
330
1F
100
AcDbEntity
  8
0
 62
     7
100
AcDbLine
 10
45.136879
 20
443.195435
 30
0.0
 11
45.194847
 21
443.105591
 31
0.0
  0
LINE
  5
7E7
330
1F
100
AcDbEntity
  8
0
 62
     7
100
AcDbLine
 10
42.802906
 20
442.200012
 30
0.0
 11
42.402905
 21
442.200012
 31
0.0
  0
ARC
  5
7E8
330
1F
100
AcDbEntity
  8
0
 62
     7
100
AcDbCircle
 10
42.402905
 20
443.450012
 30
0.0
 40
1.25
100
AcDbArc
 50
90.000003
 51
269.999997
  0
LINE
  5
7E9
330
1F
100
AcDbEntity
  8
0
 62
     7
100
AcDbLine
 10
42.402905
 20
444.700012
 30
0.0
 11
42.802906
 21
444.700012
 31
0.0
  0
ARC
  5
7EA
330
1F
100
AcDbEntity
  8
0
 62
     7
100
AcDbCircle
 10
42.802906
 20
443.450012
 30
0.0
 40
1.25
100
AcDbArc
 50
269.999997
 51
90.000003
  0
CIRCLE
  5
7EB
330
1F
100
AcDbEntity
  8
0
 62
     7
100
AcDbCircle
 10
54.702904
 20
443.450012
 30
0.0
 40
1.25
  0
ARC
  5
7EC
330
1F
100
AcDbEntity
  8
0
 62
     7
100
AcDbCircle
 10
51.961983
 20
449.299988
 30
0.0
 40
0.5
100
AcDbArc
 50
90.000003
 51
221.230582
  0
ARC
  5
7ED
330
1F
100
AcDbEntity
  8
0
 62
     7
100
AcDbCircle
 10
45.343826
 20
449.299988
 30
0.0
 40
0.5
100
AcDbArc
 50
318.769437
 51
90.000003
  0
LINE
  5
7EE
330
1F
100
AcDbEntity
  8
0
 62
     7
100
AcDbLine
 10
44.552906
 20
451.799988
 30
0.0
 11
44.552906
 21
450.799988
 31
0.0
  0
ARC
  5
7EF
330
1F
100
AcDbEntity
  8
0
 62
     7
100
AcDbCircle
 10
42.852905
 20
451.299988
 30
0.0
 40
1.5
100
AcDbArc
 50
340.529081
 51
360.0
  0
LINE
  5
7F0
330
1F
100
AcDbEntity
  8
0
 62
     7
100
AcDbLine
 10
43.852905
 20
451.799988
 30
0.0
 11
43.852905
 21
451.900024
 31
0.0
  0
ARC
  5
7F1
330
1F
100
AcDbEntity
  8
0
 62
     7
100
AcDbCircle
 10
42.852905
 20
451.799988
 30
0.0
 40
1.0
100
AcDbArc
 50
269.999997
 51
360.0
  0
LINE
  5
7F2
330
1F
100
AcDbEntity
  8
0
 62
     7
100
AcDbLine
 10
44.352905
 20
451.900024
 30
0.0
 11
44.352905
 21
451.299988
 31
0.0
  0
LINE
  5
7F3
330
1F
100
AcDbEntity
  8
0
 62
     7
100
AcDbLine
 10
45.378765
 20
428.599976
 30
0.0
 11
45.601681
 21
428.599976
 31
0.0
  0
LINE
  5
7F4
330
1F
100
AcDbEntity
  8
0
 62
     7
100
AcDbLine
 10
51.704121
 20
428.599976
 30
0.0
 11
51.927048
 21
428.599976
 31
0.0
  0
LINE
  5
7F5
330
1F
100
AcDbEntity
  8
0
 62
     7
100
AcDbLine
 10
52.752907
 20
451.900024
 30
0.0
 11
52.752907
 21
451.799927
 31
0.0
  0
LINE
  5
7F6
330
1F
100
AcDbEntity
  8
0
 62
     7
100
AcDbLine
 10
52.952904
 20
451.900024
 30
0.0
 11
52.952904
 21
451.299988
 31
0.0
  0
ARC
  5
7F7
330
1F
100
AcDbEntity
  8
0
 62
     7
100
AcDbCircle
 10
54.452904
 20
451.299988
 30
0.0
 40
1.5
100
AcDbArc
 50
180.000009
 51
199.470938
  0
ARC
  5
7F8
330
1F
100
AcDbEntity
  8
0
 62
     7
100
AcDbCircle
 10
54.452904
 20
451.799988
 30
0.0
 40
1.0
100
AcDbArc
 50
180.000009
 51
269.999997
  0
LINE
  5
7F9
330
1F
100
AcDbEntity
  8
0
 62
     7
100
AcDbLine
 10
53.452904
 20
451.799988
 30
0.0
 11
53.452904
 21
451.900024
 31
0.0
  0
ARC
  5
7FA
330
1F
100
AcDbEntity
  8
0
 62
     7
100
AcDbCircle
 10
48.652905
 20
446.400024
 30
0.0
 40
3.900000095367432
100
AcDbArc
 50
138.769418
 51
41.230577
  0
LINE
  5
7FB
330
1F
100
AcDbEntity
  8
0
 62
     7
100
AcDbLine
 10
52.752907
 20
450.799988
 30
0.0
 11
52.752907
 21
451.799988
 31
0.0
  0
LINE
  5
7FC
330
1F
100
AcDbEntity
  8
0
 62
     7
100
AcDbLine
 10
44.552906
 20
451.799988
 30
0.0
 11
44.552906
 21
451.900085
 31
0.0
  0
ARC
  5
7FD
330
1F
100
AcDbEntity
  8
0
 62
     7
100
AcDbCircle
 10
52.252907
 20
451.799988
 30
0.0
 40
0.5
100
AcDbArc
 50
0.0
 51
11.538233
  0
ARC
  5
7FE
330
1F
100
AcDbEntity
  8
0
 62
     7
100
AcDbCircle
 10
48.652905
 20
446.400024
 30
0.0
 40
3.75
100
AcDbArc
 50
80.018316
 51
99.981682
  0
ARC
  5
7FF
330
1F
100
AcDbEntity
  8
0
 62
     7
100
AcDbCircle
 10
48.652905
 20
446.400024
 30
0.0
 40
3.75
100
AcDbArc
 50
279.981697
 51
80.018316
  0
ARC
  5
800
330
1F
100
AcDbEntity
  8
0
 62
     7
100
AcDbCircle
 10
48.652905
 20
446.400024
 30
0.0
 40
3.75
100
AcDbArc
 50
260.018304
 51
279.981697
  0
ARC
  5
801
330
1F
100
AcDbEntity
  8
0
 62
     7
100
AcDbCircle
 10
48.652905
 20
446.400024
 30
0.0
 40
3.75
100
AcDbArc
 50
99.981682
 51
260.018304
  0
LINE
  5
802
330
1F
100
AcDbEntity
  8
0
 62
     7
100
AcDbLine
 10
49.302906
 20
449.889954
 30
0.0
 11
49.302906
 21
450.093262
 31
0.0
  0
LINE
  5
803
330
1F
100
AcDbEntity
  8
0
 62
     7
100
AcDbLine
 10
49.302906
 20
442.910034
 30
0.0
 11
49.302906
 21
442.706787
 31
0.0
  0
LINE
  5
804
330
1F
100
AcDbEntity
  8
0
 62
     7
100
AcDbLine
 10
49.302906
 20
449.889954
 30
0.0
 11
49.302906
 21
442.910034
 31
0.0
  0
ARC
  5
805
330
1F
100
AcDbEntity
  8
0
 62
     7
100
AcDbCircle
 10
48.652905
 20
446.400024
 30
0.0
 40
3.549999952316284
100
AcDbArc
 50
280.55029
 51
79.449696
  0
LINE
  5
806
330
1F
100
AcDbEntity
  8
0
 62
     7
100
AcDbLine
 10
48.002907
 20
442.910034
 30
0.0
 11
48.002907
 21
442.706787
 31
0.0
  0
LINE
  5
807
330
1F
100
AcDbEntity
  8
0
 62
     7
100
AcDbLine
 10
48.002907
 20
449.889954
 30
0.0
 11
48.002907
 21
450.093262
 31
0.0
  0
LINE
  5
808
330
1F
100
AcDbEntity
  8
0
 62
     7
100
AcDbLine
 10
48.002907
 20
442.910034
 30
0.0
 11
48.002907
 21
449.889954
 31
0.0
  0
ARC
  5
809
330
1F
100
AcDbEntity
  8
0
 62
     7
100
AcDbCircle
 10
48.652905
 20
446.400024
 30
0.0
 40
3.549999952316284
100
AcDbArc
 50
100.550302
 51
259.449705
  0
CIRCLE
  5
80A
330
1F
100
AcDbEntity
  8
0
 62
     7
100
AcDbCircle
 10
48.652905
 20
434.900024
 30
0.0
 40
7.0
  0
CIRCLE
  5
80B
330
1F
100
AcDbEntity
  8
0
 62
     7
100
AcDbCircle
 10
48.652905
 20
434.900024
 30
0.0
 40
6.900000095367432
  0
LINE
  5
80C
330
1F
100
AcDbEntity
  8
0
 62
     7
100
AcDbLine
 10
51.020042
 20
431.0
 30
0.0
 11
53.213974
 21
434.799988
 31
0.0
  0
ARC
  5
80D
330
1F
100
AcDbEntity
  8
0
 62
     7
100
AcDbCircle
 10
50.846836
 20
431.099976
 30
0.0
 40
0.2000000029802322
100
AcDbArc
 50
269.999997
 51
329.999989
  0
LINE
  5
80E
330
1F
100
AcDbEntity
  8
0
 62
     7
100
AcDbLine
 10
46.458977
 20
430.900024
 30
0.0
 11
50.846836
 21
430.900024
 31
0.0
  0
ARC
  5
80F
330
1F
100
AcDbEntity
  8
0
 62
     7
100
AcDbCircle
 10
46.458977
 20
431.099976
 30
0.0
 40
0.2000000029802322
100
AcDbArc
 50
210.000003
 51
269.999997
  0
LINE
  5
810
330
1F
100
AcDbEntity
  8
0
 62
     7
100
AcDbLine
 10
44.091839
 20
434.799988
 30
0.0
 11
46.28577
 21
431.0
 31
0.0
  0
ARC
  5
811
330
1F
100
AcDbEntity
  8
0
 62
     7
100
AcDbCircle
 10
44.265045
 20
434.900024
 30
0.0
 40
0.2000000029802322
100
AcDbArc
 50
149.999997
 51
210.000003
  0
LINE
  5
812
330
1F
100
AcDbEntity
  8
0
 62
     7
100
AcDbLine
 10
46.28577
 20
438.799988
 30
0.0
 11
44.091839
 21
435.0
 31
0.0
  0
ARC
  5
813
330
1F
100
AcDbEntity
  8
0
 62
     7
100
AcDbCircle
 10
46.458977
 20
438.700012
 30
0.0
 40
0.2000000029802322
100
AcDbArc
 50
90.000003
 51
149.999997
  0
LINE
  5
814
330
1F
100
AcDbEntity
  8
0
 62
     7
100
AcDbLine
 10
50.846836
 20
438.900024
 30
0.0
 11
46.458977
 21
438.900024
 31
0.0
  0
ARC
  5
815
330
1F
100
AcDbEntity
  8
0
 62
     7
100
AcDbCircle
 10
50.846836
 20
438.700012
 30
0.0
 40
0.2000000029802322
100
AcDbArc
 50
30.000001
 51
90.000003
  0
LINE
  5
816
330
1F
100
AcDbEntity
  8
0
 62
     7
100
AcDbLine
 10
53.213974
 20
435.0
 30
0.0
 11
51.020042
 21
438.799988
 31
0.0
  0
ARC
  5
817
330
1F
100
AcDbEntity
  8
0
 62
     7
100
AcDbCircle
 10
53.040768
 20
434.900024
 30
0.0
 40
0.2000000029802322
100
AcDbArc
 50
329.999989
 51
30.000001
  0
ARC
  5
818
330
1F
100
AcDbEntity
  8
0
 62
     7
100
AcDbCircle
 10
48.652905
 20
432.244202
 30
0.0
 40
0.2000000029802322
100
AcDbArc
 50
240.00001
 51
299.999992
  0
LINE
  5
819
330
1F
100
AcDbEntity
  8
0
 62
     7
100
AcDbLine
 10
46.252907
 20
433.398865
 30
0.0
 11
48.552906
 21
432.070984
 31
0.0
  0
ARC
  5
81A
330
1F
100
AcDbEntity
  8
0
 62
     7
100
AcDbCircle
 10
46.352905
 20
433.572083
 30
0.0
 40
0.2000000029802322
100
AcDbArc
 50
179.999991
 51
240.00001
  0
LINE
  5
81B
330
1F
100
AcDbEntity
  8
0
 62
     7
100
AcDbLine
 10
46.152905
 20
436.227905
 30
0.0
 11
46.152905
 21
433.572083
 31
0.0
  0
ARC
  5
81C
330
1F
100
AcDbEntity
  8
0
 62
     7
100
AcDbCircle
 10
46.352905
 20
436.227905
 30
0.0
 40
0.2000000029802322
100
AcDbArc
 50
120.000003
 51
179.999991
  0
LINE
  5
81D
330
1F
100
AcDbEntity
  8
0
 62
     7
100
AcDbLine
 10
48.552906
 20
437.729004
 30
0.0
 11
46.252907
 21
436.401123
 31
0.0
  0
ARC
  5
81E
330
1F
100
AcDbEntity
  8
0
 62
     7
100
AcDbCircle
 10
48.652905
 20
437.555786
 30
0.0
 40
0.2000000029802322
100
AcDbArc
 50
60.000002
 51
120.000003
  0
LINE
  5
81F
330
1F
100
AcDbEntity
  8
0
 62
     7
100
AcDbLine
 10
51.052906
 20
436.401123
 30
0.0
 11
48.752907
 21
437.729004
 31
0.0
  0
ARC
  5
820
330
1F
100
AcDbEntity
  8
0
 62
     7
100
AcDbCircle
 10
50.952904
 20
436.227905
 30
0.0
 40
0.2000000029802322
100
AcDbArc
 50
0.0
 51
60.000002
  0
LINE
  5
821
330
1F
100
AcDbEntity
  8
0
 62
     7
100
AcDbLine
 10
51.152905
 20
433.572083
 30
0.0
 11
51.152905
 21
436.227905
 31
0.0
  0
ARC
  5
822
330
1F
100
AcDbEntity
  8
0
 62
     7
100
AcDbCircle
 10
50.952904
 20
433.572083
 30
0.0
 40
0.2000000029802322
100
AcDbArc
 50
299.999992
 51
360.0
  0
LINE
  5
823
330
1F
100
AcDbEntity
  8
0
 62
     7
100
AcDbLine
 10
48.752907
 20
432.070984
 30
0.0
 11
51.052906
 21
433.398865
 31
0.0
  0
LINE
  5
824
330
1F
100
AcDbEntity
  8
0
 62
     7
100
AcDbLine
 10
52.052906
 20
425.699951
 30
0.0
 11
52.052906
 21
359.900024
 31
0.0
  0
LINE
  5
825
330
1F
100
AcDbEntity
  8
0
 62
     7
100
AcDbLine
 10
45.252907
 20
425.699951
 30
0.0
 11
45.252907
 21
359.900024
 31
0.0
  0
LINE
  5
826
330
1F
100
AcDbEntity
  8
0
 62
     7
100
AcDbLine
 10
52.052906
 20
359.900024
 30
0.0
 11
52.052906
 21
349.900024
 31
0.0
  0
LINE
  5
827
330
1F
100
AcDbEntity
  8
0
 62
     7
100
AcDbLine
 10
45.252907
 20
359.900024
 30
0.0
 11
45.252907
 21
349.900024
 31
0.0
  0
LINE
  5
828
330
1F
100
AcDbEntity
  8
0
 62
     7
100
AcDbLine
 10
52.052906
 20
349.900024
 30
0.0
 11
45.252907
 21
349.900024
 31
0.0
  0
LINE
  5
829
330
1F
100
AcDbEntity
  8
0
 62
     7
100
AcDbLine
 10
57.252884
 20
449.304871
 30
0.0
 11
57.252907
 21
449.299988
 31
0.0
  0
LINE
  5
82A
330
1F
100
AcDbEntity
  8
0
 62
     7
100
AcDbLine
 10
57.25182
 20
449.332886
 30
0.0
 11
57.252907
 21
449.299988
 31
0.0
  0
LINE
  5
82B
330
1F
100
AcDbEntity
  8
0
 62
     7
100
AcDbLine
 10
57.252251
 20
449.325623
 30
0.0
 11
57.252907
 21
449.299988
 31
0.0
  0
POLYLINE
  5
82C
330
1F
100
AcDbEntity
  8
0
 62
     7
100
AcDb2dPolyline
 66
     1
 10
0.0
 20
0.0
 30
0.0
  0
VERTEX
  5
82D
330
82C
100
AcDbEntity
  8
0
100
AcDbVertex
100
AcDb2dVertex
 10
179.66272
 20
356.932098
 30
0.0
  0
VERTEX
  5
82E
330
82C
100
AcDbEntity
  8
0
100
AcDbVertex
100
AcDb2dVertex
 10
179.202713
 20
357.496613
 30
0.0
  0
VERTEX
  5
82F
330
82C
100
AcDbEntity
  8
0
100
AcDbVertex
100
AcDb2dVertex
 10
178.512726
 20
357.738556
 30
0.0
  0
VERTEX
  5
830
330
82C
100
AcDbEntity
  8
0
100
AcDbVertex
100
AcDb2dVertex
 10
177.822723
 20
357.738556
 30
0.0
  0
VERTEX
  5
831
330
82C
100
AcDbEntity
  8
0
100
AcDbVertex
100
AcDb2dVertex
 10
177.132721
 20
357.496613
 30
0.0
  0
VERTEX
  5
832
330
82C
100
AcDbEntity
  8
0
100
AcDbVertex
100
AcDb2dVertex
 10
176.672714
 20
356.851471
 30
0.0
  0
VERTEX
  5
833
330
82C
100
AcDbEntity
  8
0
100
AcDbVertex
100
AcDb2dVertex
 10
176.672714
 20
356.286957
 30
0.0
  0
VERTEX
  5
834
330
82C
100
AcDbEntity
  8
0
100
AcDbVertex
100
AcDb2dVertex
 10
177.075226
 20
355.722412
 30
0.0
  0
SEQEND
  5
835
330
82C
100
AcDbEntity
  8
0
 62
     7
  0
POLYLINE
  5
836
330
1F
100
AcDbEntity
  8
0
 62
     7
100
AcDb2dPolyline
 66
     1
 10
0.0
 20
0.0
 30
0.0
  0
VERTEX
  5
837
330
836
100
AcDbEntity
  8
0
100
AcDbVertex
100
AcDb2dVertex
 10
178.167725
 20
355.319214
 30
0.0
  0
VERTEX
  5
838
330
836
100
AcDbEntity
  8
0
100
AcDbVertex
100
AcDb2dVertex
 10
178.685211
 20
355.157898
 30
0.0
  0
SEQEND
  5
839
330
836
100
AcDbEntity
  8
0
 62
     7
  0
POLYLINE
  5
83A
330
1F
100
AcDbEntity
  8
0
 62
     7
100
AcDb2dPolyline
 66
     1
 10
0.0
 20
0.0
 30
0.0
  0
VERTEX
  5
83B
330
83A
100
AcDbEntity
  8
0
100
AcDbVertex
100
AcDb2dVertex
 10
179.202713
 20
352.899841
 30
0.0
  0
VERTEX
  5
83C
330
83A
100
AcDbEntity
  8
0
100
AcDbVertex
100
AcDb2dVertex
 10
178.512726
 20
352.738556
 30
0.0
  0
VERTEX
  5
83D
330
83A
100
AcDbEntity
  8
0
100
AcDbVertex
100
AcDb2dVertex
 10
177.822723
 20
352.738556
 30
0.0
  0
VERTEX
  5
83E
330
83A
100
AcDbEntity
  8
0
100
AcDbVertex
100
AcDb2dVertex
 10
177.132721
 20
353.061127
 30
0.0
  0
VERTEX
  5
83F
330
83A
100
AcDbEntity
  8
0
100
AcDbVertex
100
AcDb2dVertex
 10
176.672714
 20
353.625641
 30
0.0
  0
SEQEND
  5
840
330
83A
100
AcDbEntity
  8
0
 62
     7
  0
POLYLINE
  5
841
330
1F
100
AcDbEntity
  8
0
 62
     7
100
AcDb2dPolyline
 66
     1
 10
0.0
 20
0.0
 30
0.0
  0
VERTEX
  5
842
330
841
100
AcDbEntity
  8
0
100
AcDbVertex
100
AcDb2dVertex
 10
177.707718
 20
355.399841
 30
0.0
  0
VERTEX
  5
843
330
841
100
AcDbEntity
  8
0
100
AcDbVertex
100
AcDb2dVertex
 10
178.167725
 20
355.319214
 30
0.0
  0
SEQEND
  5
844
330
841
100
AcDbEntity
  8
0
 62
     7
  0
POLYLINE
  5
845
330
1F
100
AcDbEntity
  8
0
 62
     7
100
AcDb2dPolyline
 66
     1
 10
0.0
 20
0.0
 30
0.0
  0
VERTEX
  5
846
330
845
100
AcDbEntity
  8
0
100
AcDbVertex
100
AcDb2dVertex
 10
177.075226
 20
355.722412
 30
0.0
  0
VERTEX
  5
847
330
845
100
AcDbEntity
  8
0
100
AcDbVertex
100
AcDb2dVertex
 10
177.707718
 20
355.399841
 30
0.0
  0
SEQEND
  5
848
330
845
100
AcDbEntity
  8
0
 62
     7
  0
POLYLINE
  5
849
330
1F
100
AcDbEntity
  8
0
 62
     7
100
AcDb2dPolyline
 66
     1
 10
0.0
 20
0.0
 30
0.0
  0
VERTEX
  5
84A
330
849
100
AcDbEntity
  8
0
100
AcDbVertex
100
AcDb2dVertex
 10
179.66272
 20
353.545013
 30
0.0
  0
VERTEX
  5
84B
330
849
100
AcDbEntity
  8
0
100
AcDbVertex
100
AcDb2dVertex
 10
179.202713
 20
352.899841
 30
0.0
  0
SEQEND
  5
84C
330
849
100
AcDbEntity
  8
0
 62
     7
  0
POLYLINE
  5
84D
330
1F
100
AcDbEntity
  8
0
 62
     7
100
AcDb2dPolyline
 66
     1
 10
0.0
 20
0.0
 30
0.0
  0
VERTEX
  5
84E
330
84D
100
AcDbEntity
  8
0
100
AcDbVertex
100
AcDb2dVertex
 10
179.66272
 20
354.270813
 30
0.0
  0
VERTEX
  5
84F
330
84D
100
AcDbEntity
  8
0
100
AcDbVertex
100
AcDb2dVertex
 10
179.66272
 20
353.545013
 30
0.0
  0
SEQEND
  5
850
330
84D
100
AcDbEntity
  8
0
 62
     7
  0
POLYLINE
  5
851
330
1F
100
AcDbEntity
  8
0
 62
     7
100
AcDb2dPolyline
 66
     1
 10
0.0
 20
0.0
 30
0.0
  0
VERTEX
  5
852
330
851
100
AcDbEntity
  8
0
100
AcDbVertex
100
AcDb2dVertex
 10
178.685211
 20
355.157898
 30
0.0
  0
VERTEX
  5
853
330
851
100
AcDbEntity
  8
0
100
AcDbVertex
100
AcDb2dVertex
 10
179.202713
 20
354.835327
 30
0.0
  0
VERTEX
  5
854
330
851
100
AcDbEntity
  8
0
100
AcDbVertex
100
AcDb2dVertex
 10
179.66272
 20
354.270813
 30
0.0
  0
SEQEND
  5
855
330
851
100
AcDbEntity
  8
0
 62
     7
  0
POLYLINE
  5
856
330
1F
100
AcDbEntity
  8
0
 62
     7
100
AcDb2dPolyline
 66
     1
 10
0.0
 20
0.0
 30
0.0
  0
VERTEX
  5
857
330
856
100
AcDbEntity
  8
0
100
AcDbVertex
100
AcDb2dVertex
 10
182.577713
 20
357.738556
 30
0.0
  0
VERTEX
  5
858
330
856
100
AcDbEntity
  8
0
100
AcDbVertex
100
AcDb2dVertex
 10
180.622711
 20
357.738556
 30
0.0
  0
SEQEND
  5
859
330
856
100
AcDbEntity
  8
0
 62
     7
  0
POLYLINE
  5
85A
330
1F
100
AcDbEntity
  8
0
 62
     7
100
AcDb2dPolyline
 66
     1
 10
0.0
 20
0.0
 30
0.0
  0
VERTEX
  5
85B
330
85A
100
AcDbEntity
  8
0
100
AcDbVertex
100
AcDb2dVertex
 10
180.622711
 20
355.319214
 30
0.0
  0
VERTEX
  5
85C
330
85A
100
AcDbEntity
  8
0
100
AcDbVertex
100
AcDb2dVertex
 10
182.692719
 20
355.319214
 30
0.0
  0
SEQEND
  5
85D
330
85A
100
AcDbEntity
  8
0
 62
     7
  0
POLYLINE
  5
85E
330
1F
100
AcDbEntity
  8
0
 62
     7
100
AcDb2dPolyline
 66
     1
 10
0.0
 20
0.0
 30
0.0
  0
VERTEX
  5
85F
330
85E
100
AcDbEntity
  8
0
100
AcDbVertex
100
AcDb2dVertex
 10
180.622711
 20
357.738556
 30
0.0
  0
VERTEX
  5
860
330
85E
100
AcDbEntity
  8
0
100
AcDbVertex
100
AcDb2dVertex
 10
180.622711
 20
352.738556
 30
0.0
  0
SEQEND
  5
861
330
85E
100
AcDbEntity
  8
0
 62
     7
  0
POLYLINE
  5
862
330
1F
100
AcDbEntity
  8
0
 62
     7
100
AcDb2dPolyline
 66
     1
 10
0.0
 20
0.0
 30
0.0
  0
VERTEX
  5
863
330
862
100
AcDbEntity
  8
0
100
AcDbVertex
100
AcDb2dVertex
 10
182.577713
 20
357.738556
 30
0.0
  0
VERTEX
  5
864
330
862
100
AcDbEntity
  8
0
100
AcDbVertex
100
AcDb2dVertex
 10
182.980225
 20
357.496613
 30
0.0
  0
VERTEX
  5
865
330
862
100
AcDbEntity
  8
0
100
AcDbVertex
100
AcDb2dVertex
 10
183.382721
 20
356.932098
 30
0.0
  0
VERTEX
  5
866
330
862
100
AcDbEntity
  8
0
100
AcDbVertex
100
AcDb2dVertex
 10
183.382721
 20
356.125641
 30
0.0
  0
VERTEX
  5
867
330
862
100
AcDbEntity
  8
0
100
AcDbVertex
100
AcDb2dVertex
 10
183.095215
 20
355.641785
 30
0.0
  0
VERTEX
  5
868
330
862
100
AcDbEntity
  8
0
100
AcDbVertex
100
AcDb2dVertex
 10
182.692719
 20
355.319214
 30
0.0
  0
SEQEND
  5
869
330
862
100
AcDbEntity
  8
0
 62
     7
  0
POLYLINE
  5
86A
330
1F
100
AcDbEntity
  8
0
 62
     7
100
AcDb2dPolyline
 66
     1
 10
0.0
 20
0.0
 30
0.0
  0
VERTEX
  5
86B
330
86A
100
AcDbEntity
  8
0
100
AcDbVertex
100
AcDb2dVertex
 10
182.232712
 20
355.319214
 30
0.0
  0
VERTEX
  5
86C
330
86A
100
AcDbEntity
  8
0
100
AcDbVertex
100
AcDb2dVertex
 10
183.382721
 20
352.738556
 30
0.0
  0
SEQEND
  5
86D
330
86A
100
AcDbEntity
  8
0
 62
     7
  0
POLYLINE
  5
86E
330
1F
100
AcDbEntity
  8
0
 62
     7
100
AcDb2dPolyline
 66
     1
 10
0.0
 20
0.0
 30
0.0
  0
VERTEX
  5
86F
330
86E
100
AcDbEntity
  8
0
100
AcDbVertex
100
AcDb2dVertex
 10
187.447723
 20
352.738556
 30
0.0
  0
VERTEX
  5
870
330
86E
100
AcDbEntity
  8
0
100
AcDbVertex
100
AcDb2dVertex
 10
184.687714
 20
352.738556
 30
0.0
  0
VERTEX
  5
871
330
86E
100
AcDbEntity
  8
0
100
AcDbVertex
100
AcDb2dVertex
 10
186.642715
 20
354.996613
 30
0.0
  0
VERTEX
  5
872
330
86E
100
AcDbEntity
  8
0
100
AcDbVertex
100
AcDb2dVertex
 10
187.045212
 20
355.641785
 30
0.0
  0
VERTEX
  5
873
330
86E
100
AcDbEntity
  8
0
100
AcDbVertex
100
AcDb2dVertex
 10
187.217712
 20
356.125641
 30
0.0
  0
VERTEX
  5
874
330
86E
100
AcDbEntity
  8
0
100
AcDbVertex
100
AcDb2dVertex
 10
187.217712
 20
356.609528
 30
0.0
  0
VERTEX
  5
875
330
86E
100
AcDbEntity
  8
0
100
AcDbVertex
100
AcDb2dVertex
 10
187.045212
 20
357.174042
 30
0.0
  0
VERTEX
  5
876
330
86E
100
AcDbEntity
  8
0
100
AcDbVertex
100
AcDb2dVertex
 10
186.872711
 20
357.496613
 30
0.0
  0
VERTEX
  5
877
330
86E
100
AcDbEntity
  8
0
100
AcDbVertex
100
AcDb2dVertex
 10
186.470215
 20
357.738556
 30
0.0
  0
VERTEX
  5
878
330
86E
100
AcDbEntity
  8
0
100
AcDbVertex
100
AcDb2dVertex
 10
185.780212
 20
357.738556
 30
0.0
  0
VERTEX
  5
879
330
86E
100
AcDbEntity
  8
0
100
AcDbVertex
100
AcDb2dVertex
 10
185.377716
 20
357.496613
 30
0.0
  0
VERTEX
  5
87A
330
86E
100
AcDbEntity
  8
0
100
AcDbVertex
100
AcDb2dVertex
 10
185.205215
 20
357.2547
 30
0.0
  0
VERTEX
  5
87B
330
86E
100
AcDbEntity
  8
0
100
AcDbVertex
100
AcDb2dVertex
 10
184.97522
 20
356.770813
 30
0.0
  0
VERTEX
  5
87C
330
86E
100
AcDbEntity
  8
0
100
AcDbVertex
100
AcDb2dVertex
 10
184.97522
 20
356.52887
 30
0.0
  0
SEQEND
  5
87D
330
86E
100
AcDbEntity
  8
0
 62
     7
  0
POLYLINE
  5
87E
330
1F
100
AcDbEntity
  8
0
 62
     7
100
AcDb2dPolyline
 66
     1
 10
0.0
 20
0.0
 30
0.0
  0
VERTEX
  5
87F
330
87E
100
AcDbEntity
  8
0
100
AcDbVertex
100
AcDb2dVertex
 10
191.282715
 20
354.512756
 30
0.0
  0
VERTEX
  5
880
330
87E
100
AcDbEntity
  8
0
100
AcDbVertex
100
AcDb2dVertex
 10
188.637726
 20
354.512756
 30
0.0
  0
VERTEX
  5
881
330
87E
100
AcDbEntity
  8
0
100
AcDbVertex
100
AcDb2dVertex
 10
190.592712
 20
357.738556
 30
0.0
  0
VERTEX
  5
882
330
87E
100
AcDbEntity
  8
0
100
AcDbVertex
100
AcDb2dVertex
 10
190.592712
 20
355.319214
 30
0.0
  0
VERTEX
  5
883
330
87E
100
AcDbEntity
  8
0
100
AcDbVertex
100
AcDb2dVertex
 10
190.592712
 20
352.738556
 30
0.0
  0
SEQEND
  5
884
330
87E
100
AcDbEntity
  8
0
 62
     7
  0
POLYLINE
  5
885
330
1F
100
AcDbEntity
  8
0
 62
     7
100
AcDb2dPolyline
 66
     1
 10
0.0
 20
0.0
 30
0.0
  0
VERTEX
  5
886
330
885
100
AcDbEntity
  8
0
100
AcDbVertex
100
AcDb2dVertex
 10
192.760223
 20
354.7547
 30
0.0
  0
VERTEX
  5
887
330
885
100
AcDbEntity
  8
0
100
AcDbVertex
100
AcDb2dVertex
 10
195.405212
 20
354.7547
 30
0.0
  0
SEQEND
  5
888
330
885
100
AcDbEntity
  8
0
 62
     7
  0
POLYLINE
  5
889
330
1F
100
AcDbEntity
  8
0
 62
     7
100
AcDb2dPolyline
 66
     1
 10
0.0
 20
0.0
 30
0.0
 70
     1
  0
VERTEX
  5
88A
330
889
100
AcDbEntity
  8
0
100
AcDbVertex
100
AcDb2dVertex
 10
197.687714
 20
357.738556
 30
0.0
  0
VERTEX
  5
88B
330
889
100
AcDbEntity
  8
0
100
AcDbVertex
100
AcDb2dVertex
 10
197.055222
 20
357.496613
 30
0.0
  0
VERTEX
  5
88C
330
889
100
AcDbEntity
  8
0
100
AcDbVertex
100
AcDb2dVertex
 10
196.65271
 20
356.690155
 30
0.0
  0
VERTEX
  5
88D
330
889
100
AcDbEntity
  8
0
100
AcDbVertex
100
AcDb2dVertex
 10
196.480225
 20
355.883728
 30
0.0
  0
VERTEX
  5
88E
330
889
100
AcDbEntity
  8
0
100
AcDbVertex
100
AcDb2dVertex
 10
196.480225
 20
354.835327
 30
0.0
  0
VERTEX
  5
88F
330
889
100
AcDbEntity
  8
0
100
AcDbVertex
100
AcDb2dVertex
 10
196.65271
 20
353.786957
 30
0.0
  0
VERTEX
  5
890
330
889
100
AcDbEntity
  8
0
100
AcDbVertex
100
AcDb2dVertex
 10
197.055222
 20
352.980499
 30
0.0
  0
VERTEX
  5
891
330
889
100
AcDbEntity
  8
0
100
AcDbVertex
100
AcDb2dVertex
 10
197.687714
 20
352.738556
 30
0.0
  0
VERTEX
  5
892
330
889
100
AcDbEntity
  8
0
100
AcDbVertex
100
AcDb2dVertex
 10
198.14772
 20
352.738556
 30
0.0
  0
VERTEX
  5
893
330
889
100
AcDbEntity
  8
0
100
AcDbVertex
100
AcDb2dVertex
 10
198.780212
 20
352.980499
 30
0.0
  0
VERTEX
  5
894
330
889
100
AcDbEntity
  8
0
100
AcDbVertex
100
AcDb2dVertex
 10
199.182709
 20
353.786957
 30
0.0
  0
VERTEX
  5
895
330
889
100
AcDbEntity
  8
0
100
AcDbVertex
100
AcDb2dVertex
 10
199.355225
 20
354.7547
 30
0.0
  0
VERTEX
  5
896
330
889
100
AcDbEntity
  8
0
100
AcDbVertex
100
AcDb2dVertex
 10
199.355225
 20
355.883728
 30
0.0
  0
VERTEX
  5
897
330
889
100
AcDbEntity
  8
0
100
AcDbVertex
100
AcDb2dVertex
 10
199.182709
 20
356.690155
 30
0.0
  0
VERTEX
  5
898
330
889
100
AcDbEntity
  8
0
100
AcDbVertex
100
AcDb2dVertex
 10
198.780212
 20
357.496613
 30
0.0
  0
VERTEX
  5
899
330
889
100
AcDbEntity
  8
0
100
AcDbVertex
100
AcDb2dVertex
 10
198.14772
 20
357.738556
 30
0.0
  0
SEQEND
  5
89A
330
889
100
AcDbEntity
  8
0
 62
     7
  0
POLYLINE
  5
89B
330
1F
100
AcDbEntity
  8
0
 62
     7
100
AcDb2dPolyline
 66
     1
 10
0.0
 20
0.0
 30
0.0
  0
VERTEX
  5
89C
330
89B
100
AcDbEntity
  8
0
100
AcDbVertex
100
AcDb2dVertex
 10
203.075226
 20
356.125641
 30
0.0
  0
VERTEX
  5
89D
330
89B
100
AcDbEntity
  8
0
100
AcDbVertex
100
AcDb2dVertex
 10
202.90271
 20
357.012756
 30
0.0
  0
VERTEX
  5
89E
330
89B
100
AcDbEntity
  8
0
100
AcDbVertex
100
AcDb2dVertex
 10
202.500214
 20
357.496613
 30
0.0
  0
VERTEX
  5
89F
330
89B
100
AcDbEntity
  8
0
100
AcDbVertex
100
AcDb2dVertex
 10
201.867722
 20
357.738556
 30
0.0
  0
VERTEX
  5
8A0
330
89B
100
AcDbEntity
  8
0
100
AcDbVertex
100
AcDb2dVertex
 10
201.695221
 20
357.738556
 30
0.0
  0
VERTEX
  5
8A1
330
89B
100
AcDbEntity
  8
0
100
AcDbVertex
100
AcDb2dVertex
 10
201.062714
 20
357.496613
 30
0.0
  0
VERTEX
  5
8A2
330
89B
100
AcDbEntity
  8
0
100
AcDbVertex
100
AcDb2dVertex
 10
200.660217
 20
357.012756
 30
0.0
  0
VERTEX
  5
8A3
330
89B
100
AcDbEntity
  8
0
100
AcDbVertex
100
AcDb2dVertex
 10
200.487717
 20
356.367584
 30
0.0
  0
VERTEX
  5
8A4
330
89B
100
AcDbEntity
  8
0
100
AcDbVertex
100
AcDb2dVertex
 10
200.487717
 20
356.125641
 30
0.0
  0
VERTEX
  5
8A5
330
89B
100
AcDbEntity
  8
0
100
AcDbVertex
100
AcDb2dVertex
 10
200.660217
 20
355.480499
 30
0.0
  0
VERTEX
  5
8A6
330
89B
100
AcDbEntity
  8
0
100
AcDbVertex
100
AcDb2dVertex
 10
201.062714
 20
354.996613
 30
0.0
  0
VERTEX
  5
8A7
330
89B
100
AcDbEntity
  8
0
100
AcDbVertex
100
AcDb2dVertex
 10
201.695221
 20
354.674042
 30
0.0
  0
VERTEX
  5
8A8
330
89B
100
AcDbEntity
  8
0
100
AcDbVertex
100
AcDb2dVertex
 10
201.867722
 20
354.674042
 30
0.0
  0
VERTEX
  5
8A9
330
89B
100
AcDbEntity
  8
0
100
AcDbVertex
100
AcDb2dVertex
 10
202.500214
 20
354.915985
 30
0.0
  0
VERTEX
  5
8AA
330
89B
100
AcDbEntity
  8
0
100
AcDbVertex
100
AcDb2dVertex
 10
202.90271
 20
355.399841
 30
0.0
  0
VERTEX
  5
8AB
330
89B
100
AcDbEntity
  8
0
100
AcDbVertex
100
AcDb2dVertex
 10
203.075226
 20
356.125641
 30
0.0
  0
VERTEX
  5
8AC
330
89B
100
AcDbEntity
  8
0
100
AcDbVertex
100
AcDb2dVertex
 10
203.075226
 20
354.996613
 30
0.0
  0
VERTEX
  5
8AD
330
89B
100
AcDbEntity
  8
0
100
AcDbVertex
100
AcDb2dVertex
 10
202.90271
 20
353.867584
 30
0.0
  0
VERTEX
  5
8AE
330
89B
100
AcDbEntity
  8
0
100
AcDbVertex
100
AcDb2dVertex
 10
202.500214
 20
352.980499
 30
0.0
  0
VERTEX
  5
8AF
330
89B
100
AcDbEntity
  8
0
100
AcDbVertex
100
AcDb2dVertex
 10
201.867722
 20
352.738556
 30
0.0
  0
VERTEX
  5
8B0
330
89B
100
AcDbEntity
  8
0
100
AcDbVertex
100
AcDb2dVertex
 10
201.46521
 20
352.738556
 30
0.0
  0
VERTEX
  5
8B1
330
89B
100
AcDbEntity
  8
0
100
AcDbVertex
100
AcDb2dVertex
 10
200.890213
 20
352.980499
 30
0.0
  0
VERTEX
  5
8B2
330
89B
100
AcDbEntity
  8
0
100
AcDbVertex
100
AcDb2dVertex
 10
200.660217
 20
353.464355
 30
0.0
  0
SEQEND
  5
8B3
330
89B
100
AcDbEntity
  8
0
 62
     7
  0
POLYLINE
  5
8B4
330
1F
100
AcDbEntity
  8
0
 62
     7
100
AcDb2dPolyline
 66
     1
 10
0.0
 20
0.0
 30
0.0
  0
VERTEX
  5
8B5
330
8B4
100
AcDbEntity
  8
0
100
AcDbVertex
100
AcDb2dVertex
 10
207.197723
 20
352.738556
 30
0.0
  0
VERTEX
  5
8B6
330
8B4
100
AcDbEntity
  8
0
100
AcDbVertex
100
AcDb2dVertex
 10
204.437714
 20
352.738556
 30
0.0
  0
VERTEX
  5
8B7
330
8B4
100
AcDbEntity
  8
0
100
AcDbVertex
100
AcDb2dVertex
 10
206.392715
 20
354.996613
 30
0.0
  0
VERTEX
  5
8B8
330
8B4
100
AcDbEntity
  8
0
100
AcDbVertex
100
AcDb2dVertex
 10
206.795227
 20
355.641785
 30
0.0
  0
VERTEX
  5
8B9
330
8B4
100
AcDbEntity
  8
0
100
AcDbVertex
100
AcDb2dVertex
 10
206.967712
 20
356.125641
 30
0.0
  0
VERTEX
  5
8BA
330
8B4
100
AcDbEntity
  8
0
100
AcDbVertex
100
AcDb2dVertex
 10
206.967712
 20
356.609528
 30
0.0
  0
VERTEX
  5
8BB
330
8B4
100
AcDbEntity
  8
0
100
AcDbVertex
100
AcDb2dVertex
 10
206.795227
 20
357.174042
 30
0.0
  0
VERTEX
  5
8BC
330
8B4
100
AcDbEntity
  8
0
100
AcDbVertex
100
AcDb2dVertex
 10
206.622711
 20
357.496613
 30
0.0
  0
VERTEX
  5
8BD
330
8B4
100
AcDbEntity
  8
0
100
AcDbVertex
100
AcDb2dVertex
 10
206.220215
 20
357.738556
 30
0.0
  0
VERTEX
  5
8BE
330
8B4
100
AcDbEntity
  8
0
100
AcDbVertex
100
AcDb2dVertex
 10
205.530212
 20
357.738556
 30
0.0
  0
VERTEX
  5
8BF
330
8B4
100
AcDbEntity
  8
0
100
AcDbVertex
100
AcDb2dVertex
 10
205.127716
 20
357.496613
 30
0.0
  0
VERTEX
  5
8C0
330
8B4
100
AcDbEntity
  8
0
100
AcDbVertex
100
AcDb2dVertex
 10
204.955215
 20
357.2547
 30
0.0
  0
VERTEX
  5
8C1
330
8B4
100
AcDbEntity
  8
0
100
AcDbVertex
100
AcDb2dVertex
 10
204.72522
 20
356.770813
 30
0.0
  0
VERTEX
  5
8C2
330
8B4
100
AcDbEntity
  8
0
100
AcDbVertex
100
AcDb2dVertex
 10
204.72522
 20
356.52887
 30
0.0
  0
SEQEND
  5
8C3
330
8B4
100
AcDbEntity
  8
0
 62
     7
  0
ENDSEC
  0
SECTION
  2
OBJECTS
  0
DICTIONARY
  5
C
330
0
100
AcDbDictionary
  3
ACAD_GROUP
350
D
  3
ACAD_MLINESTYLE
350
17
  3
ACAD_SCALELIST
350
47
  0
DICTIONARY
  5
D
102
{ACAD_REACTORS
330
C
102
}
330
C
100
AcDbDictionary
  0
DICTIONARY
  5
17
102
{ACAD_REACTORS
330
C
102
}
330
C
100
AcDbDictionary
  3
STANDARD
350
18
  0
DICTIONARY
  5
47
102
{ACAD_REACTORS
330
C
102
}
330
C
100
AcDbDictionary
  0
MLINESTYLE
  5
18
102
{ACAD_REACTORS
330
17
102
}
330
17
100
AcDbMlineStyle
  2
Standard
 70
     0
  3

 62
   256
 51
90.0
 52
90.0
 71
     2
 49
0.5
 62
   256
  6
BYLAYER
 49
-0.5
 62
   256
  6
BYLAYER
  0
ENDSEC
  0
EOF
