  0
SECTION
  2
HEADER
  9
$ACADVER
  1
AC1014
  9
$ACADMAINTVER
 70
     9
  9
$DWGCODEPAGE
  3
ANSI_1252
  9
$INSBASE
 10
0.0
 20
0.0
 30
0.0
  9
$EXTMIN
 10
0.0
 20
0.0
 30
0.0
  9
$EXTMAX
 10
1027.807007
 20
487.349976
 30
2.0
  9
$LIMMIN
 10
0.0
 20
0.0
  9
$LIMMAX
 10
420.0
 20
297.0
  9
$ORTHOMODE
 70
     0
  9
$REGENMODE
 70
     1
  9
$FILLMODE
 70
     1
  9
$QTEXTMODE
 70
     0
  9
$MIRRTEXT
 70
     1
  9
$DRAGMODE
 70
     2
  9
$LTSCALE
 40
1.0
  9
$OSMODE
 70
     0
  9
$ATTMODE
 70
     1
  9
$TEXTSIZE
 40
2.5
  9
$TRACEWID
 40
1.0
  9
$TEXTSTYLE
  7
STANDARD
  9
$CLAYER
  8
0
  9
$CELTYPE
  6
BYLAYER
  9
$CECOLOR
 62
   256
  9
$CELTSCALE
 40
1.0
  9
$DELOBJ
 70
     1
  9
$DISPSILH
 70
     0
  9
$DIMSCALE
 40
1.0
  9
$DIMASZ
 40
2.5
  9
$DIMEXO
 40
0.625
  9
$DIMDLI
 40
3.75
  9
$DIMRND
 40
0.0
  9
$DIMDLE
 40
0.0
  9
$DIMEXE
 40
1.25
  9
$DIMTP
 40
0.0
  9
$DIMTM
 40
0.0
  9
$DIMTXT
 40
2.5
  9
$DIMCEN
 40
2.5
  9
$DIMTSZ
 40
0.0
  9
$DIMTOL
 70
     0
  9
$DIMLIM
 70
     0
  9
$DIMTIH
 70
     0
  9
$DIMTOH
 70
     0
  9
$DIMSE1
 70
     0
  9
$DIMSE2
 70
     0
  9
$DIMTAD
 70
     1
  9
$DIMZIN
 70
     8
  9
$DIMBLK
  1

  9
$DIMASO
 70
     1
  9
$DIMSHO
 70
     1
  9
$DIMPOST
  1

  9
$DIMAPOST
  1

  9
$DIMALT
 70
     0
  9
$DIMALTD
 70
     3
  9
$DIMALTF
 40
0.03937
  9
$DIMLFAC
 40
1.0
  9
$DIMTOFL
 70
     1
  9
$DIMTVP
 40
0.0
  9
$DIMTIX
 70
     0
  9
$DIMSOXD
 70
     0
  9
$DIMSAH
 70
     0
  9
$DIMBLK1
  1

  9
$DIMBLK2
  1

  9
$DIMSTYLE
  2
STANDARD
  9
$DIMCLRD
 70
     0
  9
$DIMCLRE
 70
     0
  9
$DIMCLRT
 70
     0
  9
$DIMTFAC
 40
1.0
  9
$DIMGAP
 40
0.625
  9
$DIMJUST
 70
     0
  9
$DIMSD1
 70
     0
  9
$DIMSD2
 70
     0
  9
$DIMTOLJ
 70
     0
  9
$DIMTZIN
 70
     8
  9
$DIMALTZ
 70
     0
  9
$DIMALTTZ
 70
     0
  9
$DIMFIT
 70
     0
  9
$DIMUPT
 70
     0
  9
$DIMUNIT
 70
     2
  9
$DIMDEC
 70
     2
  9
$DIMTDEC
 70
     2
  9
$DIMALTU
 70
     2
  9
$DIMALTTD
 70
     3
  9
$DIMTXSTY
  7
STANDARD
  9
$DIMAUNIT
 70
     0
  9
$LUNITS
 70
     2
  9
$LUPREC
 70
     4
  9
$SKETCHINC
 40
1.0
  9
$FILLETRAD
 40
2.5
  9
$AUNITS
 70
     0
  9
$AUPREC
 70
     0
  9
$MENU
  1
.
  9
$ELEVATION
 40
0.0
  9
$PELEVATION
 40
0.0
  9
$THICKNESS
 40
0.0
  9
$LIMCHECK
 70
     0
  9
$BLIPMODE
 70
     1
  9
$CHAMFERA
 40
2.5
  9
$CHAMFERB
 40
2.5
  9
$CHAMFERC
 40
0.0
  9
$CHAMFERD
 40
0.0
  9
$SKPOLY
 70
     0
  9
$TDCREATE
 40
2447893.375
  9
$TDUPDATE
 40
2460350.639976146
  9
$TDINDWG
 40
0.0
  9
$TDUSRTIMER
 40
0.0
  9
$USRTIMER
 70
     1
  9
$ANGBASE
 50
0.0
  9
$ANGDIR
 70
     0
  9
$PDMODE
 70
     0
  9
$PDSIZE
 40
0.0
  9
$PLINEWID
 40
0.0
  9
$COORDS
 70
     0
  9
$SPLFRAME
 70
     0
  9
$SPLINETYPE
 70
     6
  9
$SPLINESEGS
 70
     8
  9
$ATTDIA
 70
     0
  9
$ATTREQ
 70
     1
  9
$HANDLING
 70
     1
  9
$HANDSEED
  5
7F7
  9
$SURFTAB1
 70
     6
  9
$SURFTAB2
 70
     6
  9
$SURFTYPE
 70
     6
  9
$SURFU
 70
     6
  9
$SURFV
 70
     6
  9
$UCSNAME
  2

  9
$UCSORG
 10
0.0
 20
0.0
 30
0.0
  9
$UCSXDIR
 10
1.0
 20
0.0
 30
0.0
  9
$UCSYDIR
 10
0.0
 20
1.0
 30
0.0
  9
$PUCSNAME
  2

  9
$PUCSORG
 10
0.0
 20
0.0
 30
0.0
  9
$PUCSXDIR
 10
1.0
 20
0.0
 30
0.0
  9
$PUCSYDIR
 10
0.0
 20
1.0
 30
0.0
  9
$USERI1
 70
     0
  9
$USERI2
 70
     0
  9
$USERI3
 70
     0
  9
$USERI4
 70
     0
  9
$USERI5
 70
     0
  9
$USERR1
 40
0.0
  9
$USERR2
 40
0.0
  9
$USERR3
 40
0.0
  9
$USERR4
 40
0.0
  9
$USERR5
 40
0.0
  9
$WORLDVIEW
 70
     1
  9
$SHADEDGE
 70
     3
  9
$SHADEDIF
 70
    70
  9
$TILEMODE
 70
     1
  9
$MAXACTVP
 70
    64
  9
$PINSBASE
 10
0.0
 20
0.0
 30
0.0
  9
$PLIMCHECK
 70
     0
  9
$PEXTMIN
 10
0.0
 20
0.0
 30
0.0
  9
$PEXTMAX
 10
1027.807007
 20
487.349976
 30
2.0
  9
$PLIMMIN
 10
0.0
 20
0.0
  9
$PLIMMAX
 10
420.0
 20
297.0
  9
$UNITMODE
 70
     0
  9
$VISRETAIN
 70
     0
  9
$PLINEGEN
 70
     0
  9
$PSLTSCALE
 70
     1
  9
$TREEDEPTH
 70
  3020
  9
$PICKSTYLE
 70
     1
  9
$CMLSTYLE
  2
STANDARD
  9
$CMLJUST
 70
     0
  9
$CMLSCALE
 40
20.0
  9
$PROXYGRAPHICS
 70
     1
  9
$MEASUREMENT
 70
     1
  0
ENDSEC
  0
SECTION
  2
CLASSES
  0
CLASS
  1
ACDBDICTIONARYWDFLT
  2
AcDbDictionaryWithDefault
  3
ObjectDBX Classes
 90
        0
280
     0
281
     0
  0
CLASS
  1
VISUALSTYLE
  2
AcDbVisualStyle
  3
ObjectDBX Classes
 90
     4095
280
     0
281
     0
  0
CLASS
  1
MATERIAL
  2
AcDbMaterial
  3
ObjectDBX Classes
 90
     1153
280
     0
281
     0
  0
CLASS
  1
SCALE
  2
AcDbScale
  3
ObjectDBX Classes
 90
     1153
280
     0
281
     0
  0
CLASS
  1
SUN
  2
AcDbSun
  3
SCENEOE
 90
     1153
280
     0
281
     0
  0
CLASS
  1
XRECORD
  2
AcDbXrecord
  3
ObjectDBX Classes
 90
        0
280
     0
281
     0
  0
CLASS
  1
LWPOLYLINE
  2
AcDbPolyline
  3
ObjectDBX Classes
 90
        0
280
     0
281
     1
  0
CLASS
  1
HATCH
  2
AcDbHatch
  3
ObjectDBX Classes
 90
        0
280
     0
281
     1
  0
ENDSEC
  0
SECTION
  2
TABLES
  0
TABLE
  2
VPORT
  5
8
330
0
100
AcDbSymbolTable
 70
     1
  0
VPORT
  5
29
330
8
100
AcDbSymbolTableRecord
100
AcDbViewportTableRecord
  2
*ACTIVE
 70
     0
 10
0.0
 20
0.0
 11
1.0
 21
1.0
 12
10.429907
 22
4.5
 13
0.0
 23
0.0
 14
0.5
 24
0.5
 15
0.5
 25
0.5
 16
0.0
 26
0.0
 36
1.0
 17
0.0
 27
0.0
 37
0.0
 40
9.0
 41
1.972973
 42
50.0
 43
0.0
 44
0.0
 50
0.0
 51
0.0
 71
     0
 72
   100
 73
     1
 74
     3
 75
     0
 76
     0
 77
     0
 78
     0
  0
ENDTAB
  0
TABLE
  2
LTYPE
  5
5
330
0
100
AcDbSymbolTable
 70
     1
  0
LTYPE
  5
14
330
5
100
AcDbSymbolTableRecord
100
AcDbLinetypeTableRecord
  2
BYBLOCK
 70
     0
  3

 72
    65
 73
     0
 40
0.0
  0
LTYPE
  5
15
330
5
100
AcDbSymbolTableRecord
100
AcDbLinetypeTableRecord
  2
BYLAYER
 70
     0
  3

 72
    65
 73
     0
 40
0.0
  0
LTYPE
  5
16
330
5
100
AcDbSymbolTableRecord
100
AcDbLinetypeTableRecord
  2
CONTINUOUS
 70
     0
  3
Solid line
 72
    65
 73
     0
 40
0.0
  0
ENDTAB
  0
TABLE
  2
LAYER
  5
2
330
0
100
AcDbSymbolTable
 70
     1
  0
LAYER
  5
10
330
2
100
AcDbSymbolTableRecord
100
AcDbLayerTableRecord
  2
0
 70
     0
 62
     7
  6
CONTINUOUS
  0
ENDTAB
  0
TABLE
  2
STYLE
  5
3
330
0
100
AcDbSymbolTable
 70
     1
  0
STYLE
  5
11
330
3
100
AcDbSymbolTableRecord
100
AcDbTextStyleTableRecord
  2
STANDARD
 70
     0
 40
0.0
 41
1.0
 50
0.0
 71
     0
 42
2.5
  3
txt
  4

  0
ENDTAB
  0
TABLE
  2
VIEW
  5
6
330
0
100
AcDbSymbolTable
 70
     0
  0
ENDTAB
  0
TABLE
  2
UCS
  5
7
330
0
100
AcDbSymbolTable
 70
     0
  0
ENDTAB
  0
TABLE
  2
APPID
  5
9
330
0
100
AcDbSymbolTable
 70
     1
  0
APPID
  5
12
330
9
100
AcDbSymbolTableRecord
100
AcDbRegAppTableRecord
  2
ACAD
 70
     0
  0
ENDTAB
  0
TABLE
  2
DIMSTYLE
  5
A
330
0
100
AcDbSymbolTable
 70
     1
  0
DIMSTYLE
105
27
330
A
100
AcDbSymbolTableRecord
100
AcDbDimStyleTableRecord
  2
STANDARD
 70
     0
  3

  4

  5

  6

  7

 40
1.0
 41
0.18
 42
0.0625
 43
0.38
 44
0.18
 45
0.0
 46
0.0
 47
0.0
 48
0.0
140
0.18
141
0.09
142
0.0
143
25.4
144
1.0
145
0.0
146
1.0
147
0.09
 71
     0
 72
     0
 73
     1
 74
     1
 75
     0
 76
     0
 77
     0
 78
     0
170
     0
171
     2
172
     0
173
     0
174
     0
175
     0
176
     0
177
     0
178
     0
270
     2
271
     4
272
     4
273
     2
274
     2
340
11
275
     0
280
     0
281
     0
282
     0
283
     1
284
     0
285
     0
286
     0
287
     3
288
     0
  0
ENDTAB
  0
TABLE
  2
BLOCK_RECORD
  5
1
330
0
100
AcDbSymbolTable
 70
     1
  0
BLOCK_RECORD
  5
1F
330
1
100
AcDbSymbolTableRecord
100
AcDbBlockTableRecord
  2
*MODEL_SPACE
  0
BLOCK_RECORD
  5
1B
330
1
100
AcDbSymbolTableRecord
100
AcDbBlockTableRecord
  2
*PAPER_SPACE
  0
BLOCK_RECORD
  5
23
330
1
100
AcDbSymbolTableRecord
100
AcDbBlockTableRecord
  2
*PAPER_SPACE0
  0
ENDTAB
  0
ENDSEC
  0
SECTION
  2
BLOCKS
  0
BLOCK
  5
20
330
1F
100
AcDbEntity
  8
0
100
AcDbBlockBegin
  2
*MODEL_SPACE
 70
     0
 10
0.0
 20
0.0
 30
0.0
  3
*MODEL_SPACE
  1

  0
ENDBLK
  5
21
330
1F
100
AcDbEntity
  8
0
100
AcDbBlockEnd
  0
BLOCK
  5
1C
330
1B
100
AcDbEntity
 67
     1
  8
0
100
AcDbBlockBegin
  2
*PAPER_SPACE
 70
     0
 10
0.0
 20
0.0
 30
0.0
  3
*PAPER_SPACE
  1

  0
ENDBLK
  5
1D
330
1B
100
AcDbEntity
 67
     1
  8
0
100
AcDbBlockEnd
  0
BLOCK
  5
24
330
23
100
AcDbEntity
  8
0
100
AcDbBlockBegin
  2
*PAPER_SPACE0
 70
     0
 10
0.0
 20
0.0
 30
0.0
  3
*PAPER_SPACE0
  1
*PAPER_SPACE0
  0
ENDBLK
  5
25
330
23
100
AcDbEntity
  8
0
100
AcDbBlockEnd
  0
ENDSEC
  0
SECTION
  2
ENTITIES
  0
LINE
  5
6A
330
1F
100
AcDbEntity
  8
0
 62
     7
100
AcDbLine
 10
1025.307007
 20
456.349976
 30
0.0
 11
1025.307007
 21
469.450012
 31
0.0
  0
LINE
  5
6B
330
1F
100
AcDbEntity
  8
0
 62
     7
100
AcDbLine
 10
1025.307007
 20
469.450012
 30
0.0
 11
1022.988281
 21
469.450012
 31
0.0
  0
ARC
  5
6C
330
1F
100
AcDbEntity
  8
0
 62
     7
100
AcDbCircle
 10
1016.306885
 20
473.849976
 30
0.0
 40
8.0
100
AcDbArc
 50
213.367013
 51
326.632979
  0
LINE
  5
6D
330
1F
100
AcDbEntity
  8
0
 62
     7
100
AcDbLine
 10
1009.62561
 20
469.450012
 30
0.0
 11
950.956909
 21
469.450012
 31
0.0
  0
LINE
  5
6E
330
1F
100
AcDbEntity
  8
0
 62
     7
100
AcDbLine
 10
950.956909
 20
465.549988
 30
0.0
 11
950.956909
 21
469.450012
 31
0.0
  0
ARC
  5
6F
330
1F
100
AcDbEntity
  8
0
 62
     7
100
AcDbCircle
 10
950.456909
 20
465.549988
 30
0.0
 40
0.5
100
AcDbArc
 50
180.000009
 51
360.0
  0
LINE
  5
70
330
1F
100
AcDbEntity
  8
0
 62
     7
100
AcDbLine
 10
949.956909
 20
469.450012
 30
0.0
 11
949.956909
 21
465.549988
 31
0.0
  0
LINE
  5
71
330
1F
100
AcDbEntity
  8
0
 62
     7
100
AcDbLine
 10
949.956909
 20
469.450012
 30
0.0
 11
947.65686
 21
469.450012
 31
0.0
  0
LINE
  5
72
330
1F
100
AcDbEntity
  8
0
 62
     7
100
AcDbLine
 10
947.65686
 20
465.549988
 30
0.0
 11
947.65686
 21
469.450012
 31
0.0
  0
ARC
  5
73
330
1F
100
AcDbEntity
  8
0
 62
     7
100
AcDbCircle
 10
947.15686
 20
465.549988
 30
0.0
 40
0.5
100
AcDbArc
 50
180.000009
 51
360.0
  0
LINE
  5
74
330
1F
100
AcDbEntity
  8
0
 62
     7
100
AcDbLine
 10
946.65686
 20
469.450012
 30
0.0
 11
946.65686
 21
465.549988
 31
0.0
  0
LINE
  5
75
330
1F
100
AcDbEntity
  8
0
 62
     7
100
AcDbLine
 10
946.65686
 20
469.450012
 30
0.0
 11
700.956909
 21
469.450012
 31
0.0
  0
LINE
  5
76
330
1F
100
AcDbEntity
  8
0
 62
     7
100
AcDbLine
 10
700.956909
 20
465.549988
 30
0.0
 11
700.956909
 21
469.450012
 31
0.0
  0
ARC
  5
77
330
1F
100
AcDbEntity
  8
0
 62
     7
100
AcDbCircle
 10
700.456909
 20
465.549988
 30
0.0
 40
0.5
100
AcDbArc
 50
180.000009
 51
360.0
  0
LINE
  5
78
330
1F
100
AcDbEntity
  8
0
 62
     7
100
AcDbLine
 10
699.956909
 20
469.450012
 30
0.0
 11
699.956909
 21
465.549988
 31
0.0
  0
LINE
  5
79
330
1F
100
AcDbEntity
  8
0
 62
     7
100
AcDbLine
 10
699.956909
 20
469.450012
 30
0.0
 11
697.65686
 21
469.450012
 31
0.0
  0
LINE
  5
7A
330
1F
100
AcDbEntity
  8
0
 62
     7
100
AcDbLine
 10
697.65686
 20
465.549988
 30
0.0
 11
697.65686
 21
469.450012
 31
0.0
  0
ARC
  5
7B
330
1F
100
AcDbEntity
  8
0
 62
     7
100
AcDbCircle
 10
697.15686
 20
465.549988
 30
0.0
 40
0.5
100
AcDbArc
 50
180.000009
 51
360.0
  0
LINE
  5
7C
330
1F
100
AcDbEntity
  8
0
 62
     7
100
AcDbLine
 10
696.65686
 20
469.450012
 30
0.0
 11
696.65686
 21
465.549988
 31
0.0
  0
LINE
  5
7D
330
1F
100
AcDbEntity
  8
0
 62
     7
100
AcDbLine
 10
696.65686
 20
469.450012
 30
0.0
 11
400.95694
 21
469.450012
 31
0.0
  0
LINE
  5
7E
330
1F
100
AcDbEntity
  8
0
 62
     7
100
AcDbLine
 10
400.95694
 20
465.549988
 30
0.0
 11
400.95694
 21
469.450012
 31
0.0
  0
ARC
  5
7F
330
1F
100
AcDbEntity
  8
0
 62
     7
100
AcDbCircle
 10
400.45694
 20
465.549988
 30
0.0
 40
0.5
100
AcDbArc
 50
180.000009
 51
360.0
  0
LINE
  5
80
330
1F
100
AcDbEntity
  8
0
 62
     7
100
AcDbLine
 10
399.95694
 20
469.450012
 30
0.0
 11
399.95694
 21
465.549988
 31
0.0
  0
LINE
  5
81
330
1F
100
AcDbEntity
  8
0
 62
     7
100
AcDbLine
 10
399.95694
 20
469.450012
 30
0.0
 11
397.656952
 21
469.450012
 31
0.0
  0
LINE
  5
82
330
1F
100
AcDbEntity
  8
0
 62
     7
100
AcDbLine
 10
397.656952
 20
465.549988
 30
0.0
 11
397.656952
 21
469.450012
 31
0.0
  0
ARC
  5
83
330
1F
100
AcDbEntity
  8
0
 62
     7
100
AcDbCircle
 10
397.156952
 20
465.549988
 30
0.0
 40
0.5
100
AcDbArc
 50
180.000009
 51
360.0
  0
LINE
  5
84
330
1F
100
AcDbEntity
  8
0
 62
     7
100
AcDbLine
 10
396.656952
 20
469.450012
 30
0.0
 11
396.656952
 21
465.549988
 31
0.0
  0
LINE
  5
85
330
1F
100
AcDbEntity
  8
0
 62
     7
100
AcDbLine
 10
396.656952
 20
469.450012
 30
0.0
 11
337.988251
 21
469.450012
 31
0.0
  0
ARC
  5
86
330
1F
100
AcDbEntity
  8
0
 62
     7
100
AcDbCircle
 10
331.306915
 20
473.849976
 30
0.0
 40
8.0
100
AcDbArc
 50
213.367013
 51
326.632979
  0
LINE
  5
87
330
1F
100
AcDbEntity
  8
0
 62
     7
100
AcDbLine
 10
324.62561
 20
469.450012
 30
0.0
 11
322.306915
 21
469.450012
 31
0.0
  0
LINE
  5
88
330
1F
100
AcDbEntity
  8
0
 62
     7
100
AcDbLine
 10
322.306915
 20
456.349976
 30
0.0
 11
322.306915
 21
469.450012
 31
0.0
  0
LINE
  5
89
330
1F
100
AcDbEntity
  8
0
 62
     7
100
AcDbLine
 10
1025.307007
 20
455.549988
 30
0.0
 11
1025.307007
 21
456.349976
 31
0.0
  0
LINE
  5
8A
330
1F
100
AcDbEntity
  8
0
 62
     7
100
AcDbLine
 10
322.306915
 20
456.349976
 30
0.0
 11
322.306915
 21
455.549988
 31
0.0
  0
LINE
  5
8B
330
1F
100
AcDbEntity
  8
0
 62
     7
100
AcDbLine
 10
322.306915
 20
455.549988
 30
0.0
 11
1025.307007
 21
455.549988
 31
0.0
  0
LINE
  5
8C
330
1F
100
AcDbEntity
  8
0
 62
     7
100
AcDbLine
 10
1025.307007
 20
469.579285
 30
0.0
 11
1025.307007
 21
469.450012
 31
0.0
  0
LINE
  5
8D
330
1F
100
AcDbEntity
  8
0
 62
     7
100
AcDbLine
 10
1025.307007
 20
469.579285
 30
0.0
 11
1025.307007
 21
469.720703
 31
0.0
  0
LINE
  5
8E
330
1F
100
AcDbEntity
  8
0
 62
     7
100
AcDbLine
 10
1025.307007
 20
469.849976
 30
0.0
 11
1025.307007
 21
469.720703
 31
0.0
  0
LINE
  5
8F
330
1F
100
AcDbEntity
  8
0
 62
     7
100
AcDbLine
 10
1025.307007
 20
469.849976
 30
0.0
 11
1025.307007
 21
470.549988
 31
0.0
  0
LINE
  5
90
330
1F
100
AcDbEntity
  8
0
 62
     7
100
AcDbLine
 10
1025.307007
 20
470.67926
 30
0.0
 11
1025.307007
 21
470.549988
 31
0.0
  0
LINE
  5
91
330
1F
100
AcDbEntity
  8
0
 62
     7
100
AcDbLine
 10
1025.307007
 20
470.67926
 30
0.0
 11
1025.307007
 21
470.820679
 31
0.0
  0
LINE
  5
92
330
1F
100
AcDbEntity
  8
0
 62
     7
100
AcDbLine
 10
1025.307007
 20
470.950012
 30
0.0
 11
1025.307007
 21
470.820679
 31
0.0
  0
LINE
  5
93
330
1F
100
AcDbEntity
  8
0
 62
     7
100
AcDbLine
 10
1025.307007
 20
470.950012
 30
0.0
 11
1025.307007
 21
471.650024
 31
0.0
  0
LINE
  5
94
330
1F
100
AcDbEntity
  8
0
 62
     7
100
AcDbLine
 10
1025.307007
 20
471.779297
 30
0.0
 11
1025.307007
 21
471.650024
 31
0.0
  0
LINE
  5
95
330
1F
100
AcDbEntity
  8
0
 62
     7
100
AcDbLine
 10
1025.307007
 20
471.779297
 30
0.0
 11
1025.307007
 21
471.920715
 31
0.0
  0
LINE
  5
96
330
1F
100
AcDbEntity
  8
0
 62
     7
100
AcDbLine
 10
1025.307007
 20
472.049988
 30
0.0
 11
1025.307007
 21
471.920715
 31
0.0
  0
LINE
  5
97
330
1F
100
AcDbEntity
  8
0
 62
     7
100
AcDbLine
 10
1025.307007
 20
472.049988
 30
0.0
 11
1025.307007
 21
472.75
 31
0.0
  0
LINE
  5
98
330
1F
100
AcDbEntity
  8
0
 62
     7
100
AcDbLine
 10
1025.307007
 20
472.879272
 30
0.0
 11
1025.307007
 21
472.75
 31
0.0
  0
LINE
  5
99
330
1F
100
AcDbEntity
  8
0
 62
     7
100
AcDbLine
 10
1025.307007
 20
472.879272
 30
0.0
 11
1025.307007
 21
473.020691
 31
0.0
  0
LINE
  5
9A
330
1F
100
AcDbEntity
  8
0
 62
     7
100
AcDbLine
 10
1025.307007
 20
473.150024
 30
0.0
 11
1025.307007
 21
473.020691
 31
0.0
  0
LINE
  5
9B
330
1F
100
AcDbEntity
  8
0
 62
     7
100
AcDbLine
 10
1025.307007
 20
473.150024
 30
0.0
 11
1025.307007
 21
473.849976
 31
0.0
  0
LINE
  5
9C
330
1F
100
AcDbEntity
  8
0
 62
     7
100
AcDbLine
 10
1025.307007
 20
473.979309
 30
0.0
 11
1025.307007
 21
473.849976
 31
0.0
  0
LINE
  5
9D
330
1F
100
AcDbEntity
  8
0
 62
     7
100
AcDbLine
 10
1025.307007
 20
473.979309
 30
0.0
 11
1025.307007
 21
474.120728
 31
0.0
  0
LINE
  5
9E
330
1F
100
AcDbEntity
  8
0
 62
     7
100
AcDbLine
 10
1025.307007
 20
474.25
 30
0.0
 11
1025.307007
 21
474.120728
 31
0.0
  0
LINE
  5
9F
330
1F
100
AcDbEntity
  8
0
 62
     7
100
AcDbLine
 10
1025.307007
 20
474.25
 30
0.0
 11
1025.307007
 21
474.950012
 31
0.0
  0
LINE
  5
A0
330
1F
100
AcDbEntity
  8
0
 62
     7
100
AcDbLine
 10
1025.307007
 20
475.079285
 30
0.0
 11
1025.307007
 21
474.950012
 31
0.0
  0
LINE
  5
A1
330
1F
100
AcDbEntity
  8
0
 62
     7
100
AcDbLine
 10
1025.307007
 20
475.079285
 30
0.0
 11
1025.307007
 21
475.220703
 31
0.0
  0
LINE
  5
A2
330
1F
100
AcDbEntity
  8
0
 62
     7
100
AcDbLine
 10
1025.307007
 20
475.349976
 30
0.0
 11
1025.307007
 21
475.220703
 31
0.0
  0
LINE
  5
A3
330
1F
100
AcDbEntity
  8
0
 62
     7
100
AcDbLine
 10
1025.307007
 20
475.349976
 30
0.0
 11
1025.307007
 21
476.049988
 31
0.0
  0
LINE
  5
A4
330
1F
100
AcDbEntity
  8
0
 62
     7
100
AcDbLine
 10
1025.307007
 20
476.17926
 30
0.0
 11
1025.307007
 21
476.049988
 31
0.0
  0
LINE
  5
A5
330
1F
100
AcDbEntity
  8
0
 62
     7
100
AcDbLine
 10
1025.307007
 20
476.17926
 30
0.0
 11
1025.307007
 21
476.320679
 31
0.0
  0
LINE
  5
A6
330
1F
100
AcDbEntity
  8
0
 62
     7
100
AcDbLine
 10
1025.307007
 20
476.450012
 30
0.0
 11
1025.307007
 21
476.320679
 31
0.0
  0
LINE
  5
A7
330
1F
100
AcDbEntity
  8
0
 62
     7
100
AcDbLine
 10
1025.307007
 20
476.450012
 30
0.0
 11
1025.307007
 21
477.150024
 31
0.0
  0
LINE
  5
A8
330
1F
100
AcDbEntity
  8
0
 62
     7
100
AcDbLine
 10
1025.307007
 20
477.279297
 30
0.0
 11
1025.307007
 21
477.150024
 31
0.0
  0
LINE
  5
A9
330
1F
100
AcDbEntity
  8
0
 62
     7
100
AcDbLine
 10
1025.307007
 20
477.279297
 30
0.0
 11
1025.307007
 21
477.420715
 31
0.0
  0
LINE
  5
AA
330
1F
100
AcDbEntity
  8
0
 62
     7
100
AcDbLine
 10
1025.307007
 20
477.549988
 30
0.0
 11
1025.307007
 21
477.420715
 31
0.0
  0
LINE
  5
AB
330
1F
100
AcDbEntity
  8
0
 62
     7
100
AcDbLine
 10
1025.307007
 20
477.549988
 30
0.0
 11
1025.307007
 21
478.25
 31
0.0
  0
LINE
  5
AC
330
1F
100
AcDbEntity
  8
0
 62
     7
100
AcDbLine
 10
1025.307007
 20
478.379272
 30
0.0
 11
1025.307007
 21
478.25
 31
0.0
  0
LINE
  5
AD
330
1F
100
AcDbEntity
  8
0
 62
     7
100
AcDbLine
 10
1025.307007
 20
478.379272
 30
0.0
 11
1025.307007
 21
478.520691
 31
0.0
  0
LINE
  5
AE
330
1F
100
AcDbEntity
  8
0
 62
     7
100
AcDbLine
 10
1025.307007
 20
478.650024
 30
0.0
 11
1025.307007
 21
478.520691
 31
0.0
  0
LINE
  5
AF
330
1F
100
AcDbEntity
  8
0
 62
     7
100
AcDbLine
 10
1025.307007
 20
478.650024
 30
0.0
 11
1025.307007
 21
483.474243
 31
0.0
  0
LINE
  5
B0
330
1F
100
AcDbEntity
  8
0
 62
     7
100
AcDbLine
 10
1025.307007
 20
483.962158
 30
0.0
 11
1025.307007
 21
483.474243
 31
0.0
  0
LINE
  5
B1
330
1F
100
AcDbEntity
  8
0
 62
     7
100
AcDbLine
 10
1025.307007
 20
483.962158
 30
0.0
 11
1025.307007
 21
484.049988
 31
0.0
  0
LINE
  5
B2
330
1F
100
AcDbEntity
  8
0
 62
     7
100
AcDbLine
 10
1022.988281
 20
469.450012
 30
0.0
 11
1023.071655
 21
469.579285
 31
0.0
  0
ARC
  5
B3
330
1F
100
AcDbEntity
  8
0
 62
     7
100
AcDbCircle
 10
1016.306885
 20
473.849976
 30
0.0
 40
8.0
100
AcDbArc
 50
354.980203
 51
360.0
  0
LINE
  5
B4
330
1F
100
AcDbEntity
  8
0
 62
     7
100
AcDbLine
 10
1024.263916
 20
473.020691
 30
0.0
 11
1024.276245
 21
473.150024
 31
0.0
  0
LINE
  5
B5
330
1F
100
AcDbEntity
  8
0
 62
     7
100
AcDbLine
 10
1024.247925
 20
472.879272
 30
0.0
 11
1024.263916
 21
473.020691
 31
0.0
  0
LINE
  5
B6
330
1F
100
AcDbEntity
  8
0
 62
     7
100
AcDbLine
 10
1024.230957
 20
472.75
 30
0.0
 11
1024.247925
 21
472.879272
 31
0.0
  0
ARC
  5
B7
330
1F
100
AcDbEntity
  8
0
 62
     7
100
AcDbCircle
 10
1016.306885
 20
473.849976
 30
0.0
 40
8.0
100
AcDbArc
 50
346.997132
 51
352.096798
  0
LINE
  5
B8
330
1F
100
AcDbEntity
  8
0
 62
     7
100
AcDbLine
 10
1024.070801
 20
471.920715
 30
0.0
 11
1024.101807
 21
472.049988
 31
0.0
  0
LINE
  5
B9
330
1F
100
AcDbEntity
  8
0
 62
     7
100
AcDbLine
 10
1024.034302
 20
471.779297
 30
0.0
 11
1024.070801
 21
471.920715
 31
0.0
  0
LINE
  5
BA
330
1F
100
AcDbEntity
  8
0
 62
     7
100
AcDbLine
 10
1023.998413
 20
471.650024
 30
0.0
 11
1024.034302
 21
471.779297
 31
0.0
  0
ARC
  5
BB
330
1F
100
AcDbEntity
  8
0
 62
     7
100
AcDbCircle
 10
1016.306885
 20
473.849976
 30
0.0
 40
8.0
100
AcDbArc
 50
338.746183
 51
344.037995
  0
LINE
  5
BC
330
1F
100
AcDbEntity
  8
0
 62
     7
100
AcDbLine
 10
1023.711182
 20
470.820679
 30
0.0
 11
1023.762817
 21
470.950012
 31
0.0
  0
LINE
  5
BD
330
1F
100
AcDbEntity
  8
0
 62
     7
100
AcDbLine
 10
1023.651733
 20
470.67926
 30
0.0
 11
1023.711182
 21
470.820679
 31
0.0
  0
LINE
  5
BE
330
1F
100
AcDbEntity
  8
0
 62
     7
100
AcDbLine
 10
1023.594604
 20
470.549988
 30
0.0
 11
1023.651733
 21
470.67926
 31
0.0
  0
ARC
  5
BF
330
1F
100
AcDbEntity
  8
0
 62
     7
100
AcDbCircle
 10
1016.306885
 20
473.849976
 30
0.0
 40
8.0
100
AcDbArc
 50
329.999989
 51
335.63801
  0
LINE
  5
C0
330
1F
100
AcDbEntity
  8
0
 62
     7
100
AcDbLine
 10
1023.158813
 20
469.720703
 30
0.0
 11
1023.235107
 21
469.849976
 31
0.0
  0
LINE
  5
C1
330
1F
100
AcDbEntity
  8
0
 62
     7
100
AcDbLine
 10
1023.071655
 20
469.579285
 30
0.0
 11
1023.158813
 21
469.720703
 31
0.0
  0
LINE
  5
C2
330
1F
100
AcDbEntity
  8
0
 62
     7
100
AcDbLine
 10
1009.62561
 20
469.450012
 30
0.0
 11
1009.542236
 21
469.579285
 31
0.0
  0
LINE
  5
C3
330
1F
100
AcDbEntity
  8
0
 62
     7
100
AcDbLine
 10
1009.542236
 20
469.579285
 30
0.0
 11
1009.454956
 21
469.720703
 31
0.0
  0
LINE
  5
C4
330
1F
100
AcDbEntity
  8
0
 62
     7
100
AcDbLine
 10
1009.454956
 20
469.720703
 30
0.0
 11
1009.378662
 21
469.849976
 31
0.0
  0
ARC
  5
C5
330
1F
100
AcDbEntity
  8
0
 62
     7
100
AcDbCircle
 10
1016.306885
 20
473.849976
 30
0.0
 40
8.0
100
AcDbArc
 50
204.361982
 51
210.000003
  0
LINE
  5
C6
330
1F
100
AcDbEntity
  8
0
 62
     7
100
AcDbLine
 10
1009.019287
 20
470.549988
 30
0.0
 11
1008.962036
 21
470.67926
 31
0.0
  0
LINE
  5
C7
330
1F
100
AcDbEntity
  8
0
 62
     7
100
AcDbLine
 10
1008.962036
 20
470.67926
 30
0.0
 11
1008.902588
 21
470.820679
 31
0.0
  0
LINE
  5
C8
330
1F
100
AcDbEntity
  8
0
 62
     7
100
AcDbLine
 10
1008.902588
 20
470.820679
 30
0.0
 11
1008.851074
 21
470.950012
 31
0.0
  0
ARC
  5
C9
330
1F
100
AcDbEntity
  8
0
 62
     7
100
AcDbCircle
 10
1016.306885
 20
473.849976
 30
0.0
 40
8.0
100
AcDbArc
 50
195.96201
 51
201.253809
  0
LINE
  5
CA
330
1F
100
AcDbEntity
  8
0
 62
     7
100
AcDbLine
 10
1008.615356
 20
471.650024
 30
0.0
 11
1008.57959
 21
471.779297
 31
0.0
  0
LINE
  5
CB
330
1F
100
AcDbEntity
  8
0
 62
     7
100
AcDbLine
 10
1008.57959
 20
471.779297
 30
0.0
 11
1008.543091
 21
471.920715
 31
0.0
  0
LINE
  5
CC
330
1F
100
AcDbEntity
  8
0
 62
     7
100
AcDbLine
 10
1008.543091
 20
471.920715
 30
0.0
 11
1008.512085
 21
472.049988
 31
0.0
  0
ARC
  5
CD
330
1F
100
AcDbEntity
  8
0
 62
     7
100
AcDbCircle
 10
1016.306885
 20
473.849976
 30
0.0
 40
8.0
100
AcDbArc
 50
187.903207
 51
193.002872
  0
LINE
  5
CE
330
1F
100
AcDbEntity
  8
0
 62
     7
100
AcDbLine
 10
1008.382935
 20
472.75
 30
0.0
 11
1008.365967
 21
472.879272
 31
0.0
  0
LINE
  5
CF
330
1F
100
AcDbEntity
  8
0
 62
     7
100
AcDbLine
 10
1008.365967
 20
472.879272
 30
0.0
 11
1008.349976
 21
473.020691
 31
0.0
  0
LINE
  5
D0
330
1F
100
AcDbEntity
  8
0
 62
     7
100
AcDbLine
 10
1008.349976
 20
473.020691
 30
0.0
 11
1008.337646
 21
473.150024
 31
0.0
  0
ARC
  5
D1
330
1F
100
AcDbEntity
  8
0
 62
     7
100
AcDbCircle
 10
1016.306885
 20
473.849976
 30
0.0
 40
8.0
100
AcDbArc
 50
180.000009
 51
185.019802
  0
LINE
  5
D2
330
1F
100
AcDbEntity
  8
0
 62
     7
100
AcDbLine
 10
950.956909
 20
469.579285
 30
0.0
 11
950.956909
 21
469.450012
 31
0.0
  0
LINE
  5
D3
330
1F
100
AcDbEntity
  8
0
 62
     7
100
AcDbLine
 10
950.956909
 20
469.720703
 30
0.0
 11
950.956909
 21
469.849976
 31
0.0
  0
LINE
  5
D4
330
1F
100
AcDbEntity
  8
0
 62
     7
100
AcDbLine
 10
950.956909
 20
469.720703
 30
0.0
 11
950.956909
 21
469.579285
 31
0.0
  0
LINE
  5
D5
330
1F
100
AcDbEntity
  8
0
 62
     7
100
AcDbLine
 10
950.956909
 20
476.450012
 30
0.0
 11
950.956909
 21
476.849976
 31
0.0
  0
LINE
  5
D6
330
1F
100
AcDbEntity
  8
0
 62
     7
100
AcDbLine
 10
950.956909
 20
476.320679
 30
0.0
 11
950.956909
 21
476.450012
 31
0.0
  0
LINE
  5
D7
330
1F
100
AcDbEntity
  8
0
 62
     7
100
AcDbLine
 10
950.956909
 20
476.320679
 30
0.0
 11
950.956909
 21
476.17926
 31
0.0
  0
LINE
  5
D8
330
1F
100
AcDbEntity
  8
0
 62
     7
100
AcDbLine
 10
950.956909
 20
476.17926
 30
0.0
 11
950.956909
 21
476.049988
 31
0.0
  0
LINE
  5
D9
330
1F
100
AcDbEntity
  8
0
 62
     7
100
AcDbLine
 10
950.956909
 20
475.349976
 30
0.0
 11
950.956909
 21
476.049988
 31
0.0
  0
LINE
  5
DA
330
1F
100
AcDbEntity
  8
0
 62
     7
100
AcDbLine
 10
950.956909
 20
475.220703
 30
0.0
 11
950.956909
 21
475.349976
 31
0.0
  0
LINE
  5
DB
330
1F
100
AcDbEntity
  8
0
 62
     7
100
AcDbLine
 10
950.956909
 20
475.220703
 30
0.0
 11
950.956909
 21
475.079285
 31
0.0
  0
LINE
  5
DC
330
1F
100
AcDbEntity
  8
0
 62
     7
100
AcDbLine
 10
950.956909
 20
475.079285
 30
0.0
 11
950.956909
 21
474.950012
 31
0.0
  0
LINE
  5
DD
330
1F
100
AcDbEntity
  8
0
 62
     7
100
AcDbLine
 10
950.956909
 20
474.25
 30
0.0
 11
950.956909
 21
474.950012
 31
0.0
  0
LINE
  5
DE
330
1F
100
AcDbEntity
  8
0
 62
     7
100
AcDbLine
 10
950.956909
 20
474.120728
 30
0.0
 11
950.956909
 21
474.25
 31
0.0
  0
LINE
  5
DF
330
1F
100
AcDbEntity
  8
0
 62
     7
100
AcDbLine
 10
950.956909
 20
474.120728
 30
0.0
 11
950.956909
 21
473.979309
 31
0.0
  0
LINE
  5
E0
330
1F
100
AcDbEntity
  8
0
 62
     7
100
AcDbLine
 10
950.956909
 20
473.979309
 30
0.0
 11
950.956909
 21
473.849976
 31
0.0
  0
LINE
  5
E1
330
1F
100
AcDbEntity
  8
0
 62
     7
100
AcDbLine
 10
950.956909
 20
473.150024
 30
0.0
 11
950.956909
 21
473.849976
 31
0.0
  0
LINE
  5
E2
330
1F
100
AcDbEntity
  8
0
 62
     7
100
AcDbLine
 10
950.956909
 20
473.020691
 30
0.0
 11
950.956909
 21
473.150024
 31
0.0
  0
LINE
  5
E3
330
1F
100
AcDbEntity
  8
0
 62
     7
100
AcDbLine
 10
950.956909
 20
473.020691
 30
0.0
 11
950.956909
 21
472.879272
 31
0.0
  0
LINE
  5
E4
330
1F
100
AcDbEntity
  8
0
 62
     7
100
AcDbLine
 10
950.956909
 20
472.879272
 30
0.0
 11
950.956909
 21
472.75
 31
0.0
  0
LINE
  5
E5
330
1F
100
AcDbEntity
  8
0
 62
     7
100
AcDbLine
 10
950.956909
 20
472.049988
 30
0.0
 11
950.956909
 21
472.75
 31
0.0
  0
LINE
  5
E6
330
1F
100
AcDbEntity
  8
0
 62
     7
100
AcDbLine
 10
950.956909
 20
471.920715
 30
0.0
 11
950.956909
 21
472.049988
 31
0.0
  0
LINE
  5
E7
330
1F
100
AcDbEntity
  8
0
 62
     7
100
AcDbLine
 10
950.956909
 20
471.920715
 30
0.0
 11
950.956909
 21
471.779297
 31
0.0
  0
LINE
  5
E8
330
1F
100
AcDbEntity
  8
0
 62
     7
100
AcDbLine
 10
950.956909
 20
471.779297
 30
0.0
 11
950.956909
 21
471.650024
 31
0.0
  0
LINE
  5
E9
330
1F
100
AcDbEntity
  8
0
 62
     7
100
AcDbLine
 10
950.956909
 20
470.950012
 30
0.0
 11
950.956909
 21
471.650024
 31
0.0
  0
LINE
  5
EA
330
1F
100
AcDbEntity
  8
0
 62
     7
100
AcDbLine
 10
950.956909
 20
470.820679
 30
0.0
 11
950.956909
 21
470.950012
 31
0.0
  0
LINE
  5
EB
330
1F
100
AcDbEntity
  8
0
 62
     7
100
AcDbLine
 10
950.956909
 20
470.820679
 30
0.0
 11
950.956909
 21
470.67926
 31
0.0
  0
LINE
  5
EC
330
1F
100
AcDbEntity
  8
0
 62
     7
100
AcDbLine
 10
950.956909
 20
470.67926
 30
0.0
 11
950.956909
 21
470.549988
 31
0.0
  0
LINE
  5
ED
330
1F
100
AcDbEntity
  8
0
 62
     7
100
AcDbLine
 10
950.956909
 20
469.849976
 30
0.0
 11
950.956909
 21
470.549988
 31
0.0
  0
LINE
  5
EE
330
1F
100
AcDbEntity
  8
0
 62
     7
100
AcDbLine
 10
949.956909
 20
477.150024
 30
0.0
 11
949.956909
 21
476.450012
 31
0.0
  0
LINE
  5
EF
330
1F
100
AcDbEntity
  8
0
 62
     7
100
AcDbLine
 10
949.956909
 20
477.279297
 30
0.0
 11
949.956909
 21
477.150024
 31
0.0
  0
LINE
  5
F0
330
1F
100
AcDbEntity
  8
0
 62
     7
100
AcDbLine
 10
949.956909
 20
477.279297
 30
0.0
 11
949.956909
 21
477.349976
 31
0.0
  0
LINE
  5
F1
330
1F
100
AcDbEntity
  8
0
 62
     7
100
AcDbLine
 10
949.956909
 20
469.579285
 30
0.0
 11
949.956909
 21
469.450012
 31
0.0
  0
LINE
  5
F2
330
1F
100
AcDbEntity
  8
0
 62
     7
100
AcDbLine
 10
949.956909
 20
469.579285
 30
0.0
 11
949.956909
 21
469.720703
 31
0.0
  0
LINE
  5
F3
330
1F
100
AcDbEntity
  8
0
 62
     7
100
AcDbLine
 10
949.956909
 20
469.720703
 30
0.0
 11
949.956909
 21
469.849976
 31
0.0
  0
LINE
  5
F4
330
1F
100
AcDbEntity
  8
0
 62
     7
100
AcDbLine
 10
949.956909
 20
470.549988
 30
0.0
 11
949.956909
 21
469.849976
 31
0.0
  0
LINE
  5
F5
330
1F
100
AcDbEntity
  8
0
 62
     7
100
AcDbLine
 10
949.956909
 20
470.67926
 30
0.0
 11
949.956909
 21
470.549988
 31
0.0
  0
LINE
  5
F6
330
1F
100
AcDbEntity
  8
0
 62
     7
100
AcDbLine
 10
949.956909
 20
470.67926
 30
0.0
 11
949.956909
 21
470.820679
 31
0.0
  0
LINE
  5
F7
330
1F
100
AcDbEntity
  8
0
 62
     7
100
AcDbLine
 10
949.956909
 20
470.820679
 30
0.0
 11
949.956909
 21
470.950012
 31
0.0
  0
LINE
  5
F8
330
1F
100
AcDbEntity
  8
0
 62
     7
100
AcDbLine
 10
949.956909
 20
471.650024
 30
0.0
 11
949.956909
 21
470.950012
 31
0.0
  0
LINE
  5
F9
330
1F
100
AcDbEntity
  8
0
 62
     7
100
AcDbLine
 10
949.956909
 20
471.779297
 30
0.0
 11
949.956909
 21
471.650024
 31
0.0
  0
LINE
  5
FA
330
1F
100
AcDbEntity
  8
0
 62
     7
100
AcDbLine
 10
949.956909
 20
471.779297
 30
0.0
 11
949.956909
 21
471.920715
 31
0.0
  0
LINE
  5
FB
330
1F
100
AcDbEntity
  8
0
 62
     7
100
AcDbLine
 10
949.956909
 20
471.920715
 30
0.0
 11
949.956909
 21
472.049988
 31
0.0
  0
LINE
  5
FC
330
1F
100
AcDbEntity
  8
0
 62
     7
100
AcDbLine
 10
949.956909
 20
472.75
 30
0.0
 11
949.956909
 21
472.049988
 31
0.0
  0
LINE
  5
FD
330
1F
100
AcDbEntity
  8
0
 62
     7
100
AcDbLine
 10
949.956909
 20
472.879272
 30
0.0
 11
949.956909
 21
472.75
 31
0.0
  0
LINE
  5
FE
330
1F
100
AcDbEntity
  8
0
 62
     7
100
AcDbLine
 10
949.956909
 20
472.879272
 30
0.0
 11
949.956909
 21
473.020691
 31
0.0
  0
LINE
  5
FF
330
1F
100
AcDbEntity
  8
0
 62
     7
100
AcDbLine
 10
949.956909
 20
473.020691
 30
0.0
 11
949.956909
 21
473.150024
 31
0.0
  0
LINE
  5
100
330
1F
100
AcDbEntity
  8
0
 62
     7
100
AcDbLine
 10
949.956909
 20
473.849976
 30
0.0
 11
949.956909
 21
473.150024
 31
0.0
  0
LINE
  5
101
330
1F
100
AcDbEntity
  8
0
 62
     7
100
AcDbLine
 10
949.956909
 20
473.979309
 30
0.0
 11
949.956909
 21
473.849976
 31
0.0
  0
LINE
  5
102
330
1F
100
AcDbEntity
  8
0
 62
     7
100
AcDbLine
 10
949.956909
 20
473.979309
 30
0.0
 11
949.956909
 21
474.120728
 31
0.0
  0
LINE
  5
103
330
1F
100
AcDbEntity
  8
0
 62
     7
100
AcDbLine
 10
949.956909
 20
474.120728
 30
0.0
 11
949.956909
 21
474.25
 31
0.0
  0
LINE
  5
104
330
1F
100
AcDbEntity
  8
0
 62
     7
100
AcDbLine
 10
949.956909
 20
474.950012
 30
0.0
 11
949.956909
 21
474.25
 31
0.0
  0
LINE
  5
105
330
1F
100
AcDbEntity
  8
0
 62
     7
100
AcDbLine
 10
949.956909
 20
475.079285
 30
0.0
 11
949.956909
 21
474.950012
 31
0.0
  0
LINE
  5
106
330
1F
100
AcDbEntity
  8
0
 62
     7
100
AcDbLine
 10
949.956909
 20
475.079285
 30
0.0
 11
949.956909
 21
475.220703
 31
0.0
  0
LINE
  5
107
330
1F
100
AcDbEntity
  8
0
 62
     7
100
AcDbLine
 10
949.956909
 20
475.220703
 30
0.0
 11
949.956909
 21
475.349976
 31
0.0
  0
LINE
  5
108
330
1F
100
AcDbEntity
  8
0
 62
     7
100
AcDbLine
 10
949.956909
 20
476.049988
 30
0.0
 11
949.956909
 21
475.349976
 31
0.0
  0
LINE
  5
109
330
1F
100
AcDbEntity
  8
0
 62
     7
100
AcDbLine
 10
949.956909
 20
476.17926
 30
0.0
 11
949.956909
 21
476.049988
 31
0.0
  0
LINE
  5
10A
330
1F
100
AcDbEntity
  8
0
 62
     7
100
AcDbLine
 10
949.956909
 20
476.17926
 30
0.0
 11
949.956909
 21
476.320679
 31
0.0
  0
LINE
  5
10B
330
1F
100
AcDbEntity
  8
0
 62
     7
100
AcDbLine
 10
949.956909
 20
476.320679
 30
0.0
 11
949.956909
 21
476.450012
 31
0.0
  0
LINE
  5
10C
330
1F
100
AcDbEntity
  8
0
 62
     7
100
AcDbLine
 10
947.65686
 20
469.579285
 30
0.0
 11
947.65686
 21
469.450012
 31
0.0
  0
LINE
  5
10D
330
1F
100
AcDbEntity
  8
0
 62
     7
100
AcDbLine
 10
947.65686
 20
469.720703
 30
0.0
 11
947.65686
 21
469.849976
 31
0.0
  0
LINE
  5
10E
330
1F
100
AcDbEntity
  8
0
 62
     7
100
AcDbLine
 10
947.65686
 20
469.720703
 30
0.0
 11
947.65686
 21
469.579285
 31
0.0
  0
LINE
  5
10F
330
1F
100
AcDbEntity
  8
0
 62
     7
100
AcDbLine
 10
947.65686
 20
477.349976
 30
0.0
 11
947.65686
 21
477.279297
 31
0.0
  0
LINE
  5
110
330
1F
100
AcDbEntity
  8
0
 62
     7
100
AcDbLine
 10
947.65686
 20
477.279297
 30
0.0
 11
947.65686
 21
477.150024
 31
0.0
  0
LINE
  5
111
330
1F
100
AcDbEntity
  8
0
 62
     7
100
AcDbLine
 10
947.65686
 20
476.450012
 30
0.0
 11
947.65686
 21
477.150024
 31
0.0
  0
LINE
  5
112
330
1F
100
AcDbEntity
  8
0
 62
     7
100
AcDbLine
 10
947.65686
 20
476.320679
 30
0.0
 11
947.65686
 21
476.450012
 31
0.0
  0
LINE
  5
113
330
1F
100
AcDbEntity
  8
0
 62
     7
100
AcDbLine
 10
947.65686
 20
476.320679
 30
0.0
 11
947.65686
 21
476.17926
 31
0.0
  0
LINE
  5
114
330
1F
100
AcDbEntity
  8
0
 62
     7
100
AcDbLine
 10
947.65686
 20
476.17926
 30
0.0
 11
947.65686
 21
476.049988
 31
0.0
  0
LINE
  5
115
330
1F
100
AcDbEntity
  8
0
 62
     7
100
AcDbLine
 10
947.65686
 20
475.349976
 30
0.0
 11
947.65686
 21
476.049988
 31
0.0
  0
LINE
  5
116
330
1F
100
AcDbEntity
  8
0
 62
     7
100
AcDbLine
 10
947.65686
 20
475.220703
 30
0.0
 11
947.65686
 21
475.349976
 31
0.0
  0
LINE
  5
117
330
1F
100
AcDbEntity
  8
0
 62
     7
100
AcDbLine
 10
947.65686
 20
475.220703
 30
0.0
 11
947.65686
 21
475.079285
 31
0.0
  0
LINE
  5
118
330
1F
100
AcDbEntity
  8
0
 62
     7
100
AcDbLine
 10
947.65686
 20
475.079285
 30
0.0
 11
947.65686
 21
474.950012
 31
0.0
  0
LINE
  5
119
330
1F
100
AcDbEntity
  8
0
 62
     7
100
AcDbLine
 10
947.65686
 20
474.25
 30
0.0
 11
947.65686
 21
474.950012
 31
0.0
  0
LINE
  5
11A
330
1F
100
AcDbEntity
  8
0
 62
     7
100
AcDbLine
 10
947.65686
 20
474.120728
 30
0.0
 11
947.65686
 21
474.25
 31
0.0
  0
LINE
  5
11B
330
1F
100
AcDbEntity
  8
0
 62
     7
100
AcDbLine
 10
947.65686
 20
474.120728
 30
0.0
 11
947.65686
 21
473.979309
 31
0.0
  0
LINE
  5
11C
330
1F
100
AcDbEntity
  8
0
 62
     7
100
AcDbLine
 10
947.65686
 20
473.979309
 30
0.0
 11
947.65686
 21
473.849976
 31
0.0
  0
LINE
  5
11D
330
1F
100
AcDbEntity
  8
0
 62
     7
100
AcDbLine
 10
947.65686
 20
473.150024
 30
0.0
 11
947.65686
 21
473.849976
 31
0.0
  0
LINE
  5
11E
330
1F
100
AcDbEntity
  8
0
 62
     7
100
AcDbLine
 10
947.65686
 20
473.020691
 30
0.0
 11
947.65686
 21
473.150024
 31
0.0
  0
LINE
  5
11F
330
1F
100
AcDbEntity
  8
0
 62
     7
100
AcDbLine
 10
947.65686
 20
473.020691
 30
0.0
 11
947.65686
 21
472.879272
 31
0.0
  0
LINE
  5
120
330
1F
100
AcDbEntity
  8
0
 62
     7
100
AcDbLine
 10
947.65686
 20
472.879272
 30
0.0
 11
947.65686
 21
472.75
 31
0.0
  0
LINE
  5
121
330
1F
100
AcDbEntity
  8
0
 62
     7
100
AcDbLine
 10
947.65686
 20
472.049988
 30
0.0
 11
947.65686
 21
472.75
 31
0.0
  0
LINE
  5
122
330
1F
100
AcDbEntity
  8
0
 62
     7
100
AcDbLine
 10
947.65686
 20
471.920715
 30
0.0
 11
947.65686
 21
472.049988
 31
0.0
  0
LINE
  5
123
330
1F
100
AcDbEntity
  8
0
 62
     7
100
AcDbLine
 10
947.65686
 20
471.920715
 30
0.0
 11
947.65686
 21
471.779297
 31
0.0
  0
LINE
  5
124
330
1F
100
AcDbEntity
  8
0
 62
     7
100
AcDbLine
 10
947.65686
 20
471.779297
 30
0.0
 11
947.65686
 21
471.650024
 31
0.0
  0
LINE
  5
125
330
1F
100
AcDbEntity
  8
0
 62
     7
100
AcDbLine
 10
947.65686
 20
470.950012
 30
0.0
 11
947.65686
 21
471.650024
 31
0.0
  0
LINE
  5
126
330
1F
100
AcDbEntity
  8
0
 62
     7
100
AcDbLine
 10
947.65686
 20
470.820679
 30
0.0
 11
947.65686
 21
470.950012
 31
0.0
  0
LINE
  5
127
330
1F
100
AcDbEntity
  8
0
 62
     7
100
AcDbLine
 10
947.65686
 20
470.820679
 30
0.0
 11
947.65686
 21
470.67926
 31
0.0
  0
LINE
  5
128
330
1F
100
AcDbEntity
  8
0
 62
     7
100
AcDbLine
 10
947.65686
 20
470.67926
 30
0.0
 11
947.65686
 21
470.549988
 31
0.0
  0
LINE
  5
129
330
1F
100
AcDbEntity
  8
0
 62
     7
100
AcDbLine
 10
947.65686
 20
469.849976
 30
0.0
 11
947.65686
 21
470.549988
 31
0.0
  0
LINE
  5
12A
330
1F
100
AcDbEntity
  8
0
 62
     7
100
AcDbLine
 10
946.65686
 20
476.17926
 30
0.0
 11
946.65686
 21
476.049988
 31
0.0
  0
LINE
  5
12B
330
1F
100
AcDbEntity
  8
0
 62
     7
100
AcDbLine
 10
946.65686
 20
476.17926
 30
0.0
 11
946.65686
 21
476.320679
 31
0.0
  0
LINE
  5
12C
330
1F
100
AcDbEntity
  8
0
 62
     7
100
AcDbLine
 10
946.65686
 20
476.320679
 30
0.0
 11
946.65686
 21
476.450012
 31
0.0
  0
LINE
  5
12D
330
1F
100
AcDbEntity
  8
0
 62
     7
100
AcDbLine
 10
946.65686
 20
476.849976
 30
0.0
 11
946.65686
 21
476.450012
 31
0.0
  0
LINE
  5
12E
330
1F
100
AcDbEntity
  8
0
 62
     7
100
AcDbLine
 10
946.65686
 20
469.579285
 30
0.0
 11
946.65686
 21
469.450012
 31
0.0
  0
LINE
  5
12F
330
1F
100
AcDbEntity
  8
0
 62
     7
100
AcDbLine
 10
946.65686
 20
469.579285
 30
0.0
 11
946.65686
 21
469.720703
 31
0.0
  0
LINE
  5
130
330
1F
100
AcDbEntity
  8
0
 62
     7
100
AcDbLine
 10
946.65686
 20
469.720703
 30
0.0
 11
946.65686
 21
469.849976
 31
0.0
  0
LINE
  5
131
330
1F
100
AcDbEntity
  8
0
 62
     7
100
AcDbLine
 10
946.65686
 20
470.549988
 30
0.0
 11
946.65686
 21
469.849976
 31
0.0
  0
LINE
  5
132
330
1F
100
AcDbEntity
  8
0
 62
     7
100
AcDbLine
 10
946.65686
 20
470.67926
 30
0.0
 11
946.65686
 21
470.549988
 31
0.0
  0
LINE
  5
133
330
1F
100
AcDbEntity
  8
0
 62
     7
100
AcDbLine
 10
946.65686
 20
470.67926
 30
0.0
 11
946.65686
 21
470.820679
 31
0.0
  0
LINE
  5
134
330
1F
100
AcDbEntity
  8
0
 62
     7
100
AcDbLine
 10
946.65686
 20
470.820679
 30
0.0
 11
946.65686
 21
470.950012
 31
0.0
  0
LINE
  5
135
330
1F
100
AcDbEntity
  8
0
 62
     7
100
AcDbLine
 10
946.65686
 20
471.650024
 30
0.0
 11
946.65686
 21
470.950012
 31
0.0
  0
LINE
  5
136
330
1F
100
AcDbEntity
  8
0
 62
     7
100
AcDbLine
 10
946.65686
 20
471.779297
 30
0.0
 11
946.65686
 21
471.650024
 31
0.0
  0
LINE
  5
137
330
1F
100
AcDbEntity
  8
0
 62
     7
100
AcDbLine
 10
946.65686
 20
471.779297
 30
0.0
 11
946.65686
 21
471.920715
 31
0.0
  0
LINE
  5
138
330
1F
100
AcDbEntity
  8
0
 62
     7
100
AcDbLine
 10
946.65686
 20
471.920715
 30
0.0
 11
946.65686
 21
472.049988
 31
0.0
  0
LINE
  5
139
330
1F
100
AcDbEntity
  8
0
 62
     7
100
AcDbLine
 10
946.65686
 20
472.75
 30
0.0
 11
946.65686
 21
472.049988
 31
0.0
  0
LINE
  5
13A
330
1F
100
AcDbEntity
  8
0
 62
     7
100
AcDbLine
 10
946.65686
 20
472.879272
 30
0.0
 11
946.65686
 21
472.75
 31
0.0
  0
LINE
  5
13B
330
1F
100
AcDbEntity
  8
0
 62
     7
100
AcDbLine
 10
946.65686
 20
472.879272
 30
0.0
 11
946.65686
 21
473.020691
 31
0.0
  0
LINE
  5
13C
330
1F
100
AcDbEntity
  8
0
 62
     7
100
AcDbLine
 10
946.65686
 20
473.020691
 30
0.0
 11
946.65686
 21
473.150024
 31
0.0
  0
LINE
  5
13D
330
1F
100
AcDbEntity
  8
0
 62
     7
100
AcDbLine
 10
946.65686
 20
473.849976
 30
0.0
 11
946.65686
 21
473.150024
 31
0.0
  0
LINE
  5
13E
330
1F
100
AcDbEntity
  8
0
 62
     7
100
AcDbLine
 10
946.65686
 20
473.979309
 30
0.0
 11
946.65686
 21
473.849976
 31
0.0
  0
LINE
  5
13F
330
1F
100
AcDbEntity
  8
0
 62
     7
100
AcDbLine
 10
946.65686
 20
473.979309
 30
0.0
 11
946.65686
 21
474.120728
 31
0.0
  0
LINE
  5
140
330
1F
100
AcDbEntity
  8
0
 62
     7
100
AcDbLine
 10
946.65686
 20
474.120728
 30
0.0
 11
946.65686
 21
474.25
 31
0.0
  0
LINE
  5
141
330
1F
100
AcDbEntity
  8
0
 62
     7
100
AcDbLine
 10
946.65686
 20
474.950012
 30
0.0
 11
946.65686
 21
474.25
 31
0.0
  0
LINE
  5
142
330
1F
100
AcDbEntity
  8
0
 62
     7
100
AcDbLine
 10
946.65686
 20
475.079285
 30
0.0
 11
946.65686
 21
474.950012
 31
0.0
  0
LINE
  5
143
330
1F
100
AcDbEntity
  8
0
 62
     7
100
AcDbLine
 10
946.65686
 20
475.079285
 30
0.0
 11
946.65686
 21
475.220703
 31
0.0
  0
LINE
  5
144
330
1F
100
AcDbEntity
  8
0
 62
     7
100
AcDbLine
 10
946.65686
 20
475.220703
 30
0.0
 11
946.65686
 21
475.349976
 31
0.0
  0
LINE
  5
145
330
1F
100
AcDbEntity
  8
0
 62
     7
100
AcDbLine
 10
946.65686
 20
476.049988
 30
0.0
 11
946.65686
 21
475.349976
 31
0.0
  0
LINE
  5
146
330
1F
100
AcDbEntity
  8
0
 62
     7
100
AcDbLine
 10
700.956909
 20
469.579285
 30
0.0
 11
700.956909
 21
469.450012
 31
0.0
  0
LINE
  5
147
330
1F
100
AcDbEntity
  8
0
 62
     7
100
AcDbLine
 10
700.956909
 20
469.720703
 30
0.0
 11
700.956909
 21
469.849976
 31
0.0
  0
LINE
  5
148
330
1F
100
AcDbEntity
  8
0
 62
     7
100
AcDbLine
 10
700.956909
 20
469.720703
 30
0.0
 11
700.956909
 21
469.579285
 31
0.0
  0
LINE
  5
149
330
1F
100
AcDbEntity
  8
0
 62
     7
100
AcDbLine
 10
700.956909
 20
476.450012
 30
0.0
 11
700.956909
 21
476.849976
 31
0.0
  0
LINE
  5
14A
330
1F
100
AcDbEntity
  8
0
 62
     7
100
AcDbLine
 10
700.956909
 20
476.320679
 30
0.0
 11
700.956909
 21
476.450012
 31
0.0
  0
LINE
  5
14B
330
1F
100
AcDbEntity
  8
0
 62
     7
100
AcDbLine
 10
700.956909
 20
476.320679
 30
0.0
 11
700.956909
 21
476.17926
 31
0.0
  0
LINE
  5
14C
330
1F
100
AcDbEntity
  8
0
 62
     7
100
AcDbLine
 10
700.956909
 20
476.17926
 30
0.0
 11
700.956909
 21
476.049988
 31
0.0
  0
LINE
  5
14D
330
1F
100
AcDbEntity
  8
0
 62
     7
100
AcDbLine
 10
700.956909
 20
475.349976
 30
0.0
 11
700.956909
 21
476.049988
 31
0.0
  0
LINE
  5
14E
330
1F
100
AcDbEntity
  8
0
 62
     7
100
AcDbLine
 10
700.956909
 20
475.220703
 30
0.0
 11
700.956909
 21
475.349976
 31
0.0
  0
LINE
  5
14F
330
1F
100
AcDbEntity
  8
0
 62
     7
100
AcDbLine
 10
700.956909
 20
475.220703
 30
0.0
 11
700.956909
 21
475.079285
 31
0.0
  0
LINE
  5
150
330
1F
100
AcDbEntity
  8
0
 62
     7
100
AcDbLine
 10
700.956909
 20
475.079285
 30
0.0
 11
700.956909
 21
474.950012
 31
0.0
  0
LINE
  5
151
330
1F
100
AcDbEntity
  8
0
 62
     7
100
AcDbLine
 10
700.956909
 20
474.25
 30
0.0
 11
700.956909
 21
474.950012
 31
0.0
  0
LINE
  5
152
330
1F
100
AcDbEntity
  8
0
 62
     7
100
AcDbLine
 10
700.956909
 20
474.120728
 30
0.0
 11
700.956909
 21
474.25
 31
0.0
  0
LINE
  5
153
330
1F
100
AcDbEntity
  8
0
 62
     7
100
AcDbLine
 10
700.956909
 20
474.120728
 30
0.0
 11
700.956909
 21
473.979309
 31
0.0
  0
LINE
  5
154
330
1F
100
AcDbEntity
  8
0
 62
     7
100
AcDbLine
 10
700.956909
 20
473.979309
 30
0.0
 11
700.956909
 21
473.849976
 31
0.0
  0
LINE
  5
155
330
1F
100
AcDbEntity
  8
0
 62
     7
100
AcDbLine
 10
700.956909
 20
473.150024
 30
0.0
 11
700.956909
 21
473.849976
 31
0.0
  0
LINE
  5
156
330
1F
100
AcDbEntity
  8
0
 62
     7
100
AcDbLine
 10
700.956909
 20
473.020691
 30
0.0
 11
700.956909
 21
473.150024
 31
0.0
  0
LINE
  5
157
330
1F
100
AcDbEntity
  8
0
 62
     7
100
AcDbLine
 10
700.956909
 20
473.020691
 30
0.0
 11
700.956909
 21
472.879272
 31
0.0
  0
LINE
  5
158
330
1F
100
AcDbEntity
  8
0
 62
     7
100
AcDbLine
 10
700.956909
 20
472.879272
 30
0.0
 11
700.956909
 21
472.75
 31
0.0
  0
LINE
  5
159
330
1F
100
AcDbEntity
  8
0
 62
     7
100
AcDbLine
 10
700.956909
 20
472.049988
 30
0.0
 11
700.956909
 21
472.75
 31
0.0
  0
LINE
  5
15A
330
1F
100
AcDbEntity
  8
0
 62
     7
100
AcDbLine
 10
700.956909
 20
471.920715
 30
0.0
 11
700.956909
 21
472.049988
 31
0.0
  0
LINE
  5
15B
330
1F
100
AcDbEntity
  8
0
 62
     7
100
AcDbLine
 10
700.956909
 20
471.920715
 30
0.0
 11
700.956909
 21
471.779297
 31
0.0
  0
LINE
  5
15C
330
1F
100
AcDbEntity
  8
0
 62
     7
100
AcDbLine
 10
700.956909
 20
471.779297
 30
0.0
 11
700.956909
 21
471.650024
 31
0.0
  0
LINE
  5
15D
330
1F
100
AcDbEntity
  8
0
 62
     7
100
AcDbLine
 10
700.956909
 20
470.950012
 30
0.0
 11
700.956909
 21
471.650024
 31
0.0
  0
LINE
  5
15E
330
1F
100
AcDbEntity
  8
0
 62
     7
100
AcDbLine
 10
700.956909
 20
470.820679
 30
0.0
 11
700.956909
 21
470.950012
 31
0.0
  0
LINE
  5
15F
330
1F
100
AcDbEntity
  8
0
 62
     7
100
AcDbLine
 10
700.956909
 20
470.820679
 30
0.0
 11
700.956909
 21
470.67926
 31
0.0
  0
LINE
  5
160
330
1F
100
AcDbEntity
  8
0
 62
     7
100
AcDbLine
 10
700.956909
 20
470.67926
 30
0.0
 11
700.956909
 21
470.549988
 31
0.0
  0
LINE
  5
161
330
1F
100
AcDbEntity
  8
0
 62
     7
100
AcDbLine
 10
700.956909
 20
469.849976
 30
0.0
 11
700.956909
 21
470.549988
 31
0.0
  0
LINE
  5
162
330
1F
100
AcDbEntity
  8
0
 62
     7
100
AcDbLine
 10
699.956909
 20
477.150024
 30
0.0
 11
699.956909
 21
476.450012
 31
0.0
  0
LINE
  5
163
330
1F
100
AcDbEntity
  8
0
 62
     7
100
AcDbLine
 10
699.956909
 20
477.279297
 30
0.0
 11
699.956909
 21
477.150024
 31
0.0
  0
LINE
  5
164
330
1F
100
AcDbEntity
  8
0
 62
     7
100
AcDbLine
 10
699.956909
 20
477.279297
 30
0.0
 11
699.956909
 21
477.349976
 31
0.0
  0
LINE
  5
165
330
1F
100
AcDbEntity
  8
0
 62
     7
100
AcDbLine
 10
699.956909
 20
469.579285
 30
0.0
 11
699.956909
 21
469.450012
 31
0.0
  0
LINE
  5
166
330
1F
100
AcDbEntity
  8
0
 62
     7
100
AcDbLine
 10
699.956909
 20
469.579285
 30
0.0
 11
699.956909
 21
469.720703
 31
0.0
  0
LINE
  5
167
330
1F
100
AcDbEntity
  8
0
 62
     7
100
AcDbLine
 10
699.956909
 20
469.720703
 30
0.0
 11
699.956909
 21
469.849976
 31
0.0
  0
LINE
  5
168
330
1F
100
AcDbEntity
  8
0
 62
     7
100
AcDbLine
 10
699.956909
 20
470.549988
 30
0.0
 11
699.956909
 21
469.849976
 31
0.0
  0
LINE
  5
169
330
1F
100
AcDbEntity
  8
0
 62
     7
100
AcDbLine
 10
699.956909
 20
470.67926
 30
0.0
 11
699.956909
 21
470.549988
 31
0.0
  0
LINE
  5
16A
330
1F
100
AcDbEntity
  8
0
 62
     7
100
AcDbLine
 10
699.956909
 20
470.67926
 30
0.0
 11
699.956909
 21
470.820679
 31
0.0
  0
LINE
  5
16B
330
1F
100
AcDbEntity
  8
0
 62
     7
100
AcDbLine
 10
699.956909
 20
470.820679
 30
0.0
 11
699.956909
 21
470.950012
 31
0.0
  0
LINE
  5
16C
330
1F
100
AcDbEntity
  8
0
 62
     7
100
AcDbLine
 10
699.956909
 20
471.650024
 30
0.0
 11
699.956909
 21
470.950012
 31
0.0
  0
LINE
  5
16D
330
1F
100
AcDbEntity
  8
0
 62
     7
100
AcDbLine
 10
699.956909
 20
471.779297
 30
0.0
 11
699.956909
 21
471.650024
 31
0.0
  0
LINE
  5
16E
330
1F
100
AcDbEntity
  8
0
 62
     7
100
AcDbLine
 10
699.956909
 20
471.779297
 30
0.0
 11
699.956909
 21
471.920715
 31
0.0
  0
LINE
  5
16F
330
1F
100
AcDbEntity
  8
0
 62
     7
100
AcDbLine
 10
699.956909
 20
471.920715
 30
0.0
 11
699.956909
 21
472.049988
 31
0.0
  0
LINE
  5
170
330
1F
100
AcDbEntity
  8
0
 62
     7
100
AcDbLine
 10
699.956909
 20
472.75
 30
0.0
 11
699.956909
 21
472.049988
 31
0.0
  0
LINE
  5
171
330
1F
100
AcDbEntity
  8
0
 62
     7
100
AcDbLine
 10
699.956909
 20
472.879272
 30
0.0
 11
699.956909
 21
472.75
 31
0.0
  0
LINE
  5
172
330
1F
100
AcDbEntity
  8
0
 62
     7
100
AcDbLine
 10
699.956909
 20
472.879272
 30
0.0
 11
699.956909
 21
473.020691
 31
0.0
  0
LINE
  5
173
330
1F
100
AcDbEntity
  8
0
 62
     7
100
AcDbLine
 10
699.956909
 20
473.020691
 30
0.0
 11
699.956909
 21
473.150024
 31
0.0
  0
LINE
  5
174
330
1F
100
AcDbEntity
  8
0
 62
     7
100
AcDbLine
 10
699.956909
 20
473.849976
 30
0.0
 11
699.956909
 21
473.150024
 31
0.0
  0
LINE
  5
175
330
1F
100
AcDbEntity
  8
0
 62
     7
100
AcDbLine
 10
699.956909
 20
473.979309
 30
0.0
 11
699.956909
 21
473.849976
 31
0.0
  0
LINE
  5
176
330
1F
100
AcDbEntity
  8
0
 62
     7
100
AcDbLine
 10
699.956909
 20
473.979309
 30
0.0
 11
699.956909
 21
474.120728
 31
0.0
  0
LINE
  5
177
330
1F
100
AcDbEntity
  8
0
 62
     7
100
AcDbLine
 10
699.956909
 20
474.120728
 30
0.0
 11
699.956909
 21
474.25
 31
0.0
  0
LINE
  5
178
330
1F
100
AcDbEntity
  8
0
 62
     7
100
AcDbLine
 10
699.956909
 20
474.950012
 30
0.0
 11
699.956909
 21
474.25
 31
0.0
  0
LINE
  5
179
330
1F
100
AcDbEntity
  8
0
 62
     7
100
AcDbLine
 10
699.956909
 20
475.079285
 30
0.0
 11
699.956909
 21
474.950012
 31
0.0
  0
LINE
  5
17A
330
1F
100
AcDbEntity
  8
0
 62
     7
100
AcDbLine
 10
699.956909
 20
475.079285
 30
0.0
 11
699.956909
 21
475.220703
 31
0.0
  0
LINE
  5
17B
330
1F
100
AcDbEntity
  8
0
 62
     7
100
AcDbLine
 10
699.956909
 20
475.220703
 30
0.0
 11
699.956909
 21
475.349976
 31
0.0
  0
LINE
  5
17C
330
1F
100
AcDbEntity
  8
0
 62
     7
100
AcDbLine
 10
699.956909
 20
476.049988
 30
0.0
 11
699.956909
 21
475.349976
 31
0.0
  0
LINE
  5
17D
330
1F
100
AcDbEntity
  8
0
 62
     7
100
AcDbLine
 10
699.956909
 20
476.17926
 30
0.0
 11
699.956909
 21
476.049988
 31
0.0
  0
LINE
  5
17E
330
1F
100
AcDbEntity
  8
0
 62
     7
100
AcDbLine
 10
699.956909
 20
476.17926
 30
0.0
 11
699.956909
 21
476.320679
 31
0.0
  0
LINE
  5
17F
330
1F
100
AcDbEntity
  8
0
 62
     7
100
AcDbLine
 10
699.956909
 20
476.320679
 30
0.0
 11
699.956909
 21
476.450012
 31
0.0
  0
LINE
  5
180
330
1F
100
AcDbEntity
  8
0
 62
     7
100
AcDbLine
 10
697.65686
 20
469.579285
 30
0.0
 11
697.65686
 21
469.450012
 31
0.0
  0
LINE
  5
181
330
1F
100
AcDbEntity
  8
0
 62
     7
100
AcDbLine
 10
697.65686
 20
469.720703
 30
0.0
 11
697.65686
 21
469.849976
 31
0.0
  0
LINE
  5
182
330
1F
100
AcDbEntity
  8
0
 62
     7
100
AcDbLine
 10
697.65686
 20
469.720703
 30
0.0
 11
697.65686
 21
469.579285
 31
0.0
  0
LINE
  5
183
330
1F
100
AcDbEntity
  8
0
 62
     7
100
AcDbLine
 10
697.65686
 20
477.349976
 30
0.0
 11
697.65686
 21
477.279297
 31
0.0
  0
LINE
  5
184
330
1F
100
AcDbEntity
  8
0
 62
     7
100
AcDbLine
 10
697.65686
 20
477.279297
 30
0.0
 11
697.65686
 21
477.150024
 31
0.0
  0
LINE
  5
185
330
1F
100
AcDbEntity
  8
0
 62
     7
100
AcDbLine
 10
697.65686
 20
476.450012
 30
0.0
 11
697.65686
 21
477.150024
 31
0.0
  0
LINE
  5
186
330
1F
100
AcDbEntity
  8
0
 62
     7
100
AcDbLine
 10
697.65686
 20
476.320679
 30
0.0
 11
697.65686
 21
476.450012
 31
0.0
  0
LINE
  5
187
330
1F
100
AcDbEntity
  8
0
 62
     7
100
AcDbLine
 10
697.65686
 20
476.320679
 30
0.0
 11
697.65686
 21
476.17926
 31
0.0
  0
LINE
  5
188
330
1F
100
AcDbEntity
  8
0
 62
     7
100
AcDbLine
 10
697.65686
 20
476.17926
 30
0.0
 11
697.65686
 21
476.049988
 31
0.0
  0
LINE
  5
189
330
1F
100
AcDbEntity
  8
0
 62
     7
100
AcDbLine
 10
697.65686
 20
475.349976
 30
0.0
 11
697.65686
 21
476.049988
 31
0.0
  0
LINE
  5
18A
330
1F
100
AcDbEntity
  8
0
 62
     7
100
AcDbLine
 10
697.65686
 20
475.220703
 30
0.0
 11
697.65686
 21
475.349976
 31
0.0
  0
LINE
  5
18B
330
1F
100
AcDbEntity
  8
0
 62
     7
100
AcDbLine
 10
697.65686
 20
475.220703
 30
0.0
 11
697.65686
 21
475.079285
 31
0.0
  0
LINE
  5
18C
330
1F
100
AcDbEntity
  8
0
 62
     7
100
AcDbLine
 10
697.65686
 20
475.079285
 30
0.0
 11
697.65686
 21
474.950012
 31
0.0
  0
LINE
  5
18D
330
1F
100
AcDbEntity
  8
0
 62
     7
100
AcDbLine
 10
697.65686
 20
474.25
 30
0.0
 11
697.65686
 21
474.950012
 31
0.0
  0
LINE
  5
18E
330
1F
100
AcDbEntity
  8
0
 62
     7
100
AcDbLine
 10
697.65686
 20
474.120728
 30
0.0
 11
697.65686
 21
474.25
 31
0.0
  0
LINE
  5
18F
330
1F
100
AcDbEntity
  8
0
 62
     7
100
AcDbLine
 10
697.65686
 20
474.120728
 30
0.0
 11
697.65686
 21
473.979309
 31
0.0
  0
LINE
  5
190
330
1F
100
AcDbEntity
  8
0
 62
     7
100
AcDbLine
 10
697.65686
 20
473.979309
 30
0.0
 11
697.65686
 21
473.849976
 31
0.0
  0
LINE
  5
191
330
1F
100
AcDbEntity
  8
0
 62
     7
100
AcDbLine
 10
697.65686
 20
473.150024
 30
0.0
 11
697.65686
 21
473.849976
 31
0.0
  0
LINE
  5
192
330
1F
100
AcDbEntity
  8
0
 62
     7
100
AcDbLine
 10
697.65686
 20
473.020691
 30
0.0
 11
697.65686
 21
473.150024
 31
0.0
  0
LINE
  5
193
330
1F
100
AcDbEntity
  8
0
 62
     7
100
AcDbLine
 10
697.65686
 20
473.020691
 30
0.0
 11
697.65686
 21
472.879272
 31
0.0
  0
LINE
  5
194
330
1F
100
AcDbEntity
  8
0
 62
     7
100
AcDbLine
 10
697.65686
 20
472.879272
 30
0.0
 11
697.65686
 21
472.75
 31
0.0
  0
LINE
  5
195
330
1F
100
AcDbEntity
  8
0
 62
     7
100
AcDbLine
 10
697.65686
 20
472.049988
 30
0.0
 11
697.65686
 21
472.75
 31
0.0
  0
LINE
  5
196
330
1F
100
AcDbEntity
  8
0
 62
     7
100
AcDbLine
 10
697.65686
 20
471.920715
 30
0.0
 11
697.65686
 21
472.049988
 31
0.0
  0
LINE
  5
197
330
1F
100
AcDbEntity
  8
0
 62
     7
100
AcDbLine
 10
697.65686
 20
471.920715
 30
0.0
 11
697.65686
 21
471.779297
 31
0.0
  0
LINE
  5
198
330
1F
100
AcDbEntity
  8
0
 62
     7
100
AcDbLine
 10
697.65686
 20
471.779297
 30
0.0
 11
697.65686
 21
471.650024
 31
0.0
  0
LINE
  5
199
330
1F
100
AcDbEntity
  8
0
 62
     7
100
AcDbLine
 10
697.65686
 20
470.950012
 30
0.0
 11
697.65686
 21
471.650024
 31
0.0
  0
LINE
  5
19A
330
1F
100
AcDbEntity
  8
0
 62
     7
100
AcDbLine
 10
697.65686
 20
470.820679
 30
0.0
 11
697.65686
 21
470.950012
 31
0.0
  0
LINE
  5
19B
330
1F
100
AcDbEntity
  8
0
 62
     7
100
AcDbLine
 10
697.65686
 20
470.820679
 30
0.0
 11
697.65686
 21
470.67926
 31
0.0
  0
LINE
  5
19C
330
1F
100
AcDbEntity
  8
0
 62
     7
100
AcDbLine
 10
697.65686
 20
470.67926
 30
0.0
 11
697.65686
 21
470.549988
 31
0.0
  0
LINE
  5
19D
330
1F
100
AcDbEntity
  8
0
 62
     7
100
AcDbLine
 10
697.65686
 20
469.849976
 30
0.0
 11
697.65686
 21
470.549988
 31
0.0
  0
LINE
  5
19E
330
1F
100
AcDbEntity
  8
0
 62
     7
100
AcDbLine
 10
696.65686
 20
476.17926
 30
0.0
 11
696.65686
 21
476.049988
 31
0.0
  0
LINE
  5
19F
330
1F
100
AcDbEntity
  8
0
 62
     7
100
AcDbLine
 10
696.65686
 20
476.17926
 30
0.0
 11
696.65686
 21
476.320679
 31
0.0
  0
LINE
  5
1A0
330
1F
100
AcDbEntity
  8
0
 62
     7
100
AcDbLine
 10
696.65686
 20
476.320679
 30
0.0
 11
696.65686
 21
476.450012
 31
0.0
  0
LINE
  5
1A1
330
1F
100
AcDbEntity
  8
0
 62
     7
100
AcDbLine
 10
696.65686
 20
476.849976
 30
0.0
 11
696.65686
 21
476.450012
 31
0.0
  0
LINE
  5
1A2
330
1F
100
AcDbEntity
  8
0
 62
     7
100
AcDbLine
 10
696.65686
 20
469.579285
 30
0.0
 11
696.65686
 21
469.450012
 31
0.0
  0
LINE
  5
1A3
330
1F
100
AcDbEntity
  8
0
 62
     7
100
AcDbLine
 10
696.65686
 20
469.579285
 30
0.0
 11
696.65686
 21
469.720703
 31
0.0
  0
LINE
  5
1A4
330
1F
100
AcDbEntity
  8
0
 62
     7
100
AcDbLine
 10
696.65686
 20
469.720703
 30
0.0
 11
696.65686
 21
469.849976
 31
0.0
  0
LINE
  5
1A5
330
1F
100
AcDbEntity
  8
0
 62
     7
100
AcDbLine
 10
696.65686
 20
470.549988
 30
0.0
 11
696.65686
 21
469.849976
 31
0.0
  0
LINE
  5
1A6
330
1F
100
AcDbEntity
  8
0
 62
     7
100
AcDbLine
 10
696.65686
 20
470.67926
 30
0.0
 11
696.65686
 21
470.549988
 31
0.0
  0
LINE
  5
1A7
330
1F
100
AcDbEntity
  8
0
 62
     7
100
AcDbLine
 10
696.65686
 20
470.67926
 30
0.0
 11
696.65686
 21
470.820679
 31
0.0
  0
LINE
  5
1A8
330
1F
100
AcDbEntity
  8
0
 62
     7
100
AcDbLine
 10
696.65686
 20
470.820679
 30
0.0
 11
696.65686
 21
470.950012
 31
0.0
  0
LINE
  5
1A9
330
1F
100
AcDbEntity
  8
0
 62
     7
100
AcDbLine
 10
696.65686
 20
471.650024
 30
0.0
 11
696.65686
 21
470.950012
 31
0.0
  0
LINE
  5
1AA
330
1F
100
AcDbEntity
  8
0
 62
     7
100
AcDbLine
 10
696.65686
 20
471.779297
 30
0.0
 11
696.65686
 21
471.650024
 31
0.0
  0
LINE
  5
1AB
330
1F
100
AcDbEntity
  8
0
 62
     7
100
AcDbLine
 10
696.65686
 20
471.779297
 30
0.0
 11
696.65686
 21
471.920715
 31
0.0
  0
LINE
  5
1AC
330
1F
100
AcDbEntity
  8
0
 62
     7
100
AcDbLine
 10
696.65686
 20
471.920715
 30
0.0
 11
696.65686
 21
472.049988
 31
0.0
  0
LINE
  5
1AD
330
1F
100
AcDbEntity
  8
0
 62
     7
100
AcDbLine
 10
696.65686
 20
472.75
 30
0.0
 11
696.65686
 21
472.049988
 31
0.0
  0
LINE
  5
1AE
330
1F
100
AcDbEntity
  8
0
 62
     7
100
AcDbLine
 10
696.65686
 20
472.879272
 30
0.0
 11
696.65686
 21
472.75
 31
0.0
  0
LINE
  5
1AF
330
1F
100
AcDbEntity
  8
0
 62
     7
100
AcDbLine
 10
696.65686
 20
472.879272
 30
0.0
 11
696.65686
 21
473.020691
 31
0.0
  0
LINE
  5
1B0
330
1F
100
AcDbEntity
  8
0
 62
     7
100
AcDbLine
 10
696.65686
 20
473.020691
 30
0.0
 11
696.65686
 21
473.150024
 31
0.0
  0
LINE
  5
1B1
330
1F
100
AcDbEntity
  8
0
 62
     7
100
AcDbLine
 10
696.65686
 20
473.849976
 30
0.0
 11
696.65686
 21
473.150024
 31
0.0
  0
LINE
  5
1B2
330
1F
100
AcDbEntity
  8
0
 62
     7
100
AcDbLine
 10
696.65686
 20
473.979309
 30
0.0
 11
696.65686
 21
473.849976
 31
0.0
  0
LINE
  5
1B3
330
1F
100
AcDbEntity
  8
0
 62
     7
100
AcDbLine
 10
696.65686
 20
473.979309
 30
0.0
 11
696.65686
 21
474.120728
 31
0.0
  0
LINE
  5
1B4
330
1F
100
AcDbEntity
  8
0
 62
     7
100
AcDbLine
 10
696.65686
 20
474.120728
 30
0.0
 11
696.65686
 21
474.25
 31
0.0
  0
LINE
  5
1B5
330
1F
100
AcDbEntity
  8
0
 62
     7
100
AcDbLine
 10
696.65686
 20
474.950012
 30
0.0
 11
696.65686
 21
474.25
 31
0.0
  0
LINE
  5
1B6
330
1F
100
AcDbEntity
  8
0
 62
     7
100
AcDbLine
 10
696.65686
 20
475.079285
 30
0.0
 11
696.65686
 21
474.950012
 31
0.0
  0
LINE
  5
1B7
330
1F
100
AcDbEntity
  8
0
 62
     7
100
AcDbLine
 10
696.65686
 20
475.079285
 30
0.0
 11
696.65686
 21
475.220703
 31
0.0
  0
LINE
  5
1B8
330
1F
100
AcDbEntity
  8
0
 62
     7
100
AcDbLine
 10
696.65686
 20
475.220703
 30
0.0
 11
696.65686
 21
475.349976
 31
0.0
  0
LINE
  5
1B9
330
1F
100
AcDbEntity
  8
0
 62
     7
100
AcDbLine
 10
696.65686
 20
476.049988
 30
0.0
 11
696.65686
 21
475.349976
 31
0.0
  0
LINE
  5
1BA
330
1F
100
AcDbEntity
  8
0
 62
     7
100
AcDbLine
 10
400.95694
 20
469.579285
 30
0.0
 11
400.95694
 21
469.450012
 31
0.0
  0
LINE
  5
1BB
330
1F
100
AcDbEntity
  8
0
 62
     7
100
AcDbLine
 10
400.95694
 20
469.720703
 30
0.0
 11
400.95694
 21
469.849976
 31
0.0
  0
LINE
  5
1BC
330
1F
100
AcDbEntity
  8
0
 62
     7
100
AcDbLine
 10
400.95694
 20
469.720703
 30
0.0
 11
400.95694
 21
469.579285
 31
0.0
  0
LINE
  5
1BD
330
1F
100
AcDbEntity
  8
0
 62
     7
100
AcDbLine
 10
400.95694
 20
476.450012
 30
0.0
 11
400.95694
 21
476.849976
 31
0.0
  0
LINE
  5
1BE
330
1F
100
AcDbEntity
  8
0
 62
     7
100
AcDbLine
 10
400.95694
 20
476.320679
 30
0.0
 11
400.95694
 21
476.450012
 31
0.0
  0
LINE
  5
1BF
330
1F
100
AcDbEntity
  8
0
 62
     7
100
AcDbLine
 10
400.95694
 20
476.320679
 30
0.0
 11
400.95694
 21
476.17926
 31
0.0
  0
LINE
  5
1C0
330
1F
100
AcDbEntity
  8
0
 62
     7
100
AcDbLine
 10
400.95694
 20
476.17926
 30
0.0
 11
400.95694
 21
476.049988
 31
0.0
  0
LINE
  5
1C1
330
1F
100
AcDbEntity
  8
0
 62
     7
100
AcDbLine
 10
400.95694
 20
475.349976
 30
0.0
 11
400.95694
 21
476.049988
 31
0.0
  0
LINE
  5
1C2
330
1F
100
AcDbEntity
  8
0
 62
     7
100
AcDbLine
 10
400.95694
 20
475.220703
 30
0.0
 11
400.95694
 21
475.349976
 31
0.0
  0
LINE
  5
1C3
330
1F
100
AcDbEntity
  8
0
 62
     7
100
AcDbLine
 10
400.95694
 20
475.220703
 30
0.0
 11
400.95694
 21
475.079285
 31
0.0
  0
LINE
  5
1C4
330
1F
100
AcDbEntity
  8
0
 62
     7
100
AcDbLine
 10
400.95694
 20
475.079285
 30
0.0
 11
400.95694
 21
474.950012
 31
0.0
  0
LINE
  5
1C5
330
1F
100
AcDbEntity
  8
0
 62
     7
100
AcDbLine
 10
400.95694
 20
474.25
 30
0.0
 11
400.95694
 21
474.950012
 31
0.0
  0
LINE
  5
1C6
330
1F
100
AcDbEntity
  8
0
 62
     7
100
AcDbLine
 10
400.95694
 20
474.120728
 30
0.0
 11
400.95694
 21
474.25
 31
0.0
  0
LINE
  5
1C7
330
1F
100
AcDbEntity
  8
0
 62
     7
100
AcDbLine
 10
400.95694
 20
474.120728
 30
0.0
 11
400.95694
 21
473.979309
 31
0.0
  0
LINE
  5
1C8
330
1F
100
AcDbEntity
  8
0
 62
     7
100
AcDbLine
 10
400.95694
 20
473.979309
 30
0.0
 11
400.95694
 21
473.849976
 31
0.0
  0
LINE
  5
1C9
330
1F
100
AcDbEntity
  8
0
 62
     7
100
AcDbLine
 10
400.95694
 20
473.150024
 30
0.0
 11
400.95694
 21
473.849976
 31
0.0
  0
LINE
  5
1CA
330
1F
100
AcDbEntity
  8
0
 62
     7
100
AcDbLine
 10
400.95694
 20
473.020691
 30
0.0
 11
400.95694
 21
473.150024
 31
0.0
  0
LINE
  5
1CB
330
1F
100
AcDbEntity
  8
0
 62
     7
100
AcDbLine
 10
400.95694
 20
473.020691
 30
0.0
 11
400.95694
 21
472.879272
 31
0.0
  0
LINE
  5
1CC
330
1F
100
AcDbEntity
  8
0
 62
     7
100
AcDbLine
 10
400.95694
 20
472.879272
 30
0.0
 11
400.95694
 21
472.75
 31
0.0
  0
LINE
  5
1CD
330
1F
100
AcDbEntity
  8
0
 62
     7
100
AcDbLine
 10
400.95694
 20
472.049988
 30
0.0
 11
400.95694
 21
472.75
 31
0.0
  0
LINE
  5
1CE
330
1F
100
AcDbEntity
  8
0
 62
     7
100
AcDbLine
 10
400.95694
 20
471.920715
 30
0.0
 11
400.95694
 21
472.049988
 31
0.0
  0
LINE
  5
1CF
330
1F
100
AcDbEntity
  8
0
 62
     7
100
AcDbLine
 10
400.95694
 20
471.920715
 30
0.0
 11
400.95694
 21
471.779297
 31
0.0
  0
LINE
  5
1D0
330
1F
100
AcDbEntity
  8
0
 62
     7
100
AcDbLine
 10
400.95694
 20
471.779297
 30
0.0
 11
400.95694
 21
471.650024
 31
0.0
  0
LINE
  5
1D1
330
1F
100
AcDbEntity
  8
0
 62
     7
100
AcDbLine
 10
400.95694
 20
470.950012
 30
0.0
 11
400.95694
 21
471.650024
 31
0.0
  0
LINE
  5
1D2
330
1F
100
AcDbEntity
  8
0
 62
     7
100
AcDbLine
 10
400.95694
 20
470.820679
 30
0.0
 11
400.95694
 21
470.950012
 31
0.0
  0
LINE
  5
1D3
330
1F
100
AcDbEntity
  8
0
 62
     7
100
AcDbLine
 10
400.95694
 20
470.820679
 30
0.0
 11
400.95694
 21
470.67926
 31
0.0
  0
LINE
  5
1D4
330
1F
100
AcDbEntity
  8
0
 62
     7
100
AcDbLine
 10
400.95694
 20
470.67926
 30
0.0
 11
400.95694
 21
470.549988
 31
0.0
  0
LINE
  5
1D5
330
1F
100
AcDbEntity
  8
0
 62
     7
100
AcDbLine
 10
400.95694
 20
469.849976
 30
0.0
 11
400.95694
 21
470.549988
 31
0.0
  0
LINE
  5
1D6
330
1F
100
AcDbEntity
  8
0
 62
     7
100
AcDbLine
 10
399.95694
 20
477.150024
 30
0.0
 11
399.95694
 21
476.450012
 31
0.0
  0
LINE
  5
1D7
330
1F
100
AcDbEntity
  8
0
 62
     7
100
AcDbLine
 10
399.95694
 20
477.279297
 30
0.0
 11
399.95694
 21
477.150024
 31
0.0
  0
LINE
  5
1D8
330
1F
100
AcDbEntity
  8
0
 62
     7
100
AcDbLine
 10
399.95694
 20
477.279297
 30
0.0
 11
399.95694
 21
477.349976
 31
0.0
  0
LINE
  5
1D9
330
1F
100
AcDbEntity
  8
0
 62
     7
100
AcDbLine
 10
399.95694
 20
469.579285
 30
0.0
 11
399.95694
 21
469.450012
 31
0.0
  0
LINE
  5
1DA
330
1F
100
AcDbEntity
  8
0
 62
     7
100
AcDbLine
 10
399.95694
 20
469.579285
 30
0.0
 11
399.95694
 21
469.720703
 31
0.0
  0
LINE
  5
1DB
330
1F
100
AcDbEntity
  8
0
 62
     7
100
AcDbLine
 10
399.95694
 20
469.720703
 30
0.0
 11
399.95694
 21
469.849976
 31
0.0
  0
LINE
  5
1DC
330
1F
100
AcDbEntity
  8
0
 62
     7
100
AcDbLine
 10
399.95694
 20
470.549988
 30
0.0
 11
399.95694
 21
469.849976
 31
0.0
  0
LINE
  5
1DD
330
1F
100
AcDbEntity
  8
0
 62
     7
100
AcDbLine
 10
399.95694
 20
470.67926
 30
0.0
 11
399.95694
 21
470.549988
 31
0.0
  0
LINE
  5
1DE
330
1F
100
AcDbEntity
  8
0
 62
     7
100
AcDbLine
 10
399.95694
 20
470.67926
 30
0.0
 11
399.95694
 21
470.820679
 31
0.0
  0
LINE
  5
1DF
330
1F
100
AcDbEntity
  8
0
 62
     7
100
AcDbLine
 10
399.95694
 20
470.820679
 30
0.0
 11
399.95694
 21
470.950012
 31
0.0
  0
LINE
  5
1E0
330
1F
100
AcDbEntity
  8
0
 62
     7
100
AcDbLine
 10
399.95694
 20
471.650024
 30
0.0
 11
399.95694
 21
470.950012
 31
0.0
  0
LINE
  5
1E1
330
1F
100
AcDbEntity
  8
0
 62
     7
100
AcDbLine
 10
399.95694
 20
471.779297
 30
0.0
 11
399.95694
 21
471.650024
 31
0.0
  0
LINE
  5
1E2
330
1F
100
AcDbEntity
  8
0
 62
     7
100
AcDbLine
 10
399.95694
 20
471.779297
 30
0.0
 11
399.95694
 21
471.920715
 31
0.0
  0
LINE
  5
1E3
330
1F
100
AcDbEntity
  8
0
 62
     7
100
AcDbLine
 10
399.95694
 20
471.920715
 30
0.0
 11
399.95694
 21
472.049988
 31
0.0
  0
LINE
  5
1E4
330
1F
100
AcDbEntity
  8
0
 62
     7
100
AcDbLine
 10
399.95694
 20
472.75
 30
0.0
 11
399.95694
 21
472.049988
 31
0.0
  0
LINE
  5
1E5
330
1F
100
AcDbEntity
  8
0
 62
     7
100
AcDbLine
 10
399.95694
 20
472.879272
 30
0.0
 11
399.95694
 21
472.75
 31
0.0
  0
LINE
  5
1E6
330
1F
100
AcDbEntity
  8
0
 62
     7
100
AcDbLine
 10
399.95694
 20
472.879272
 30
0.0
 11
399.95694
 21
473.020691
 31
0.0
  0
LINE
  5
1E7
330
1F
100
AcDbEntity
  8
0
 62
     7
100
AcDbLine
 10
399.95694
 20
473.020691
 30
0.0
 11
399.95694
 21
473.150024
 31
0.0
  0
LINE
  5
1E8
330
1F
100
AcDbEntity
  8
0
 62
     7
100
AcDbLine
 10
399.95694
 20
473.849976
 30
0.0
 11
399.95694
 21
473.150024
 31
0.0
  0
LINE
  5
1E9
330
1F
100
AcDbEntity
  8
0
 62
     7
100
AcDbLine
 10
399.95694
 20
473.979309
 30
0.0
 11
399.95694
 21
473.849976
 31
0.0
  0
LINE
  5
1EA
330
1F
100
AcDbEntity
  8
0
 62
     7
100
AcDbLine
 10
399.95694
 20
473.979309
 30
0.0
 11
399.95694
 21
474.120728
 31
0.0
  0
LINE
  5
1EB
330
1F
100
AcDbEntity
  8
0
 62
     7
100
AcDbLine
 10
399.95694
 20
474.120728
 30
0.0
 11
399.95694
 21
474.25
 31
0.0
  0
LINE
  5
1EC
330
1F
100
AcDbEntity
  8
0
 62
     7
100
AcDbLine
 10
399.95694
 20
474.950012
 30
0.0
 11
399.95694
 21
474.25
 31
0.0
  0
LINE
  5
1ED
330
1F
100
AcDbEntity
  8
0
 62
     7
100
AcDbLine
 10
399.95694
 20
475.079285
 30
0.0
 11
399.95694
 21
474.950012
 31
0.0
  0
LINE
  5
1EE
330
1F
100
AcDbEntity
  8
0
 62
     7
100
AcDbLine
 10
399.95694
 20
475.079285
 30
0.0
 11
399.95694
 21
475.220703
 31
0.0
  0
LINE
  5
1EF
330
1F
100
AcDbEntity
  8
0
 62
     7
100
AcDbLine
 10
399.95694
 20
475.220703
 30
0.0
 11
399.95694
 21
475.349976
 31
0.0
  0
LINE
  5
1F0
330
1F
100
AcDbEntity
  8
0
 62
     7
100
AcDbLine
 10
399.95694
 20
476.049988
 30
0.0
 11
399.95694
 21
475.349976
 31
0.0
  0
LINE
  5
1F1
330
1F
100
AcDbEntity
  8
0
 62
     7
100
AcDbLine
 10
399.95694
 20
476.17926
 30
0.0
 11
399.95694
 21
476.049988
 31
0.0
  0
LINE
  5
1F2
330
1F
100
AcDbEntity
  8
0
 62
     7
100
AcDbLine
 10
399.95694
 20
476.17926
 30
0.0
 11
399.95694
 21
476.320679
 31
0.0
  0
LINE
  5
1F3
330
1F
100
AcDbEntity
  8
0
 62
     7
100
AcDbLine
 10
399.95694
 20
476.320679
 30
0.0
 11
399.95694
 21
476.450012
 31
0.0
  0
LINE
  5
1F4
330
1F
100
AcDbEntity
  8
0
 62
     7
100
AcDbLine
 10
397.656952
 20
469.579285
 30
0.0
 11
397.656952
 21
469.450012
 31
0.0
  0
LINE
  5
1F5
330
1F
100
AcDbEntity
  8
0
 62
     7
100
AcDbLine
 10
397.656952
 20
469.720703
 30
0.0
 11
397.656952
 21
469.849976
 31
0.0
  0
LINE
  5
1F6
330
1F
100
AcDbEntity
  8
0
 62
     7
100
AcDbLine
 10
397.656952
 20
469.720703
 30
0.0
 11
397.656952
 21
469.579285
 31
0.0
  0
LINE
  5
1F7
330
1F
100
AcDbEntity
  8
0
 62
     7
100
AcDbLine
 10
397.656952
 20
477.349976
 30
0.0
 11
397.656952
 21
477.279297
 31
0.0
  0
LINE
  5
1F8
330
1F
100
AcDbEntity
  8
0
 62
     7
100
AcDbLine
 10
397.656952
 20
477.279297
 30
0.0
 11
397.656952
 21
477.150024
 31
0.0
  0
LINE
  5
1F9
330
1F
100
AcDbEntity
  8
0
 62
     7
100
AcDbLine
 10
397.656952
 20
476.450012
 30
0.0
 11
397.656952
 21
477.150024
 31
0.0
  0
LINE
  5
1FA
330
1F
100
AcDbEntity
  8
0
 62
     7
100
AcDbLine
 10
397.656952
 20
476.320679
 30
0.0
 11
397.656952
 21
476.450012
 31
0.0
  0
LINE
  5
1FB
330
1F
100
AcDbEntity
  8
0
 62
     7
100
AcDbLine
 10
397.656952
 20
476.320679
 30
0.0
 11
397.656952
 21
476.17926
 31
0.0
  0
LINE
  5
1FC
330
1F
100
AcDbEntity
  8
0
 62
     7
100
AcDbLine
 10
397.656952
 20
476.17926
 30
0.0
 11
397.656952
 21
476.049988
 31
0.0
  0
LINE
  5
1FD
330
1F
100
AcDbEntity
  8
0
 62
     7
100
AcDbLine
 10
397.656952
 20
475.349976
 30
0.0
 11
397.656952
 21
476.049988
 31
0.0
  0
LINE
  5
1FE
330
1F
100
AcDbEntity
  8
0
 62
     7
100
AcDbLine
 10
397.656952
 20
475.220703
 30
0.0
 11
397.656952
 21
475.349976
 31
0.0
  0
LINE
  5
1FF
330
1F
100
AcDbEntity
  8
0
 62
     7
100
AcDbLine
 10
397.656952
 20
475.220703
 30
0.0
 11
397.656952
 21
475.079285
 31
0.0
  0
LINE
  5
200
330
1F
100
AcDbEntity
  8
0
 62
     7
100
AcDbLine
 10
397.656952
 20
475.079285
 30
0.0
 11
397.656952
 21
474.950012
 31
0.0
  0
LINE
  5
201
330
1F
100
AcDbEntity
  8
0
 62
     7
100
AcDbLine
 10
397.656952
 20
474.25
 30
0.0
 11
397.656952
 21
474.950012
 31
0.0
  0
LINE
  5
202
330
1F
100
AcDbEntity
  8
0
 62
     7
100
AcDbLine
 10
397.656952
 20
474.120728
 30
0.0
 11
397.656952
 21
474.25
 31
0.0
  0
LINE
  5
203
330
1F
100
AcDbEntity
  8
0
 62
     7
100
AcDbLine
 10
397.656952
 20
474.120728
 30
0.0
 11
397.656952
 21
473.979309
 31
0.0
  0
LINE
  5
204
330
1F
100
AcDbEntity
  8
0
 62
     7
100
AcDbLine
 10
397.656952
 20
473.979309
 30
0.0
 11
397.656952
 21
473.849976
 31
0.0
  0
LINE
  5
205
330
1F
100
AcDbEntity
  8
0
 62
     7
100
AcDbLine
 10
397.656952
 20
473.150024
 30
0.0
 11
397.656952
 21
473.849976
 31
0.0
  0
LINE
  5
206
330
1F
100
AcDbEntity
  8
0
 62
     7
100
AcDbLine
 10
397.656952
 20
473.020691
 30
0.0
 11
397.656952
 21
473.150024
 31
0.0
  0
LINE
  5
207
330
1F
100
AcDbEntity
  8
0
 62
     7
100
AcDbLine
 10
397.656952
 20
473.020691
 30
0.0
 11
397.656952
 21
472.879272
 31
0.0
  0
LINE
  5
208
330
1F
100
AcDbEntity
  8
0
 62
     7
100
AcDbLine
 10
397.656952
 20
472.879272
 30
0.0
 11
397.656952
 21
472.75
 31
0.0
  0
LINE
  5
209
330
1F
100
AcDbEntity
  8
0
 62
     7
100
AcDbLine
 10
397.656952
 20
472.049988
 30
0.0
 11
397.656952
 21
472.75
 31
0.0
  0
LINE
  5
20A
330
1F
100
AcDbEntity
  8
0
 62
     7
100
AcDbLine
 10
397.656952
 20
471.920715
 30
0.0
 11
397.656952
 21
472.049988
 31
0.0
  0
LINE
  5
20B
330
1F
100
AcDbEntity
  8
0
 62
     7
100
AcDbLine
 10
397.656952
 20
471.920715
 30
0.0
 11
397.656952
 21
471.779297
 31
0.0
  0
LINE
  5
20C
330
1F
100
AcDbEntity
  8
0
 62
     7
100
AcDbLine
 10
397.656952
 20
471.779297
 30
0.0
 11
397.656952
 21
471.650024
 31
0.0
  0
LINE
  5
20D
330
1F
100
AcDbEntity
  8
0
 62
     7
100
AcDbLine
 10
397.656952
 20
470.950012
 30
0.0
 11
397.656952
 21
471.650024
 31
0.0
  0
LINE
  5
20E
330
1F
100
AcDbEntity
  8
0
 62
     7
100
AcDbLine
 10
397.656952
 20
470.820679
 30
0.0
 11
397.656952
 21
470.950012
 31
0.0
  0
LINE
  5
20F
330
1F
100
AcDbEntity
  8
0
 62
     7
100
AcDbLine
 10
397.656952
 20
470.820679
 30
0.0
 11
397.656952
 21
470.67926
 31
0.0
  0
LINE
  5
210
330
1F
100
AcDbEntity
  8
0
 62
     7
100
AcDbLine
 10
397.656952
 20
470.67926
 30
0.0
 11
397.656952
 21
470.549988
 31
0.0
  0
LINE
  5
211
330
1F
100
AcDbEntity
  8
0
 62
     7
100
AcDbLine
 10
397.656952
 20
469.849976
 30
0.0
 11
397.656952
 21
470.549988
 31
0.0
  0
LINE
  5
212
330
1F
100
AcDbEntity
  8
0
 62
     7
100
AcDbLine
 10
396.656952
 20
476.17926
 30
0.0
 11
396.656952
 21
476.049988
 31
0.0
  0
LINE
  5
213
330
1F
100
AcDbEntity
  8
0
 62
     7
100
AcDbLine
 10
396.656952
 20
476.17926
 30
0.0
 11
396.656952
 21
476.320679
 31
0.0
  0
LINE
  5
214
330
1F
100
AcDbEntity
  8
0
 62
     7
100
AcDbLine
 10
396.656952
 20
476.320679
 30
0.0
 11
396.656952
 21
476.450012
 31
0.0
  0
LINE
  5
215
330
1F
100
AcDbEntity
  8
0
 62
     7
100
AcDbLine
 10
396.656952
 20
476.849976
 30
0.0
 11
396.656952
 21
476.450012
 31
0.0
  0
LINE
  5
216
330
1F
100
AcDbEntity
  8
0
 62
     7
100
AcDbLine
 10
396.656952
 20
469.579285
 30
0.0
 11
396.656952
 21
469.450012
 31
0.0
  0
LINE
  5
217
330
1F
100
AcDbEntity
  8
0
 62
     7
100
AcDbLine
 10
396.656952
 20
469.579285
 30
0.0
 11
396.656952
 21
469.720703
 31
0.0
  0
LINE
  5
218
330
1F
100
AcDbEntity
  8
0
 62
     7
100
AcDbLine
 10
396.656952
 20
469.720703
 30
0.0
 11
396.656952
 21
469.849976
 31
0.0
  0
LINE
  5
219
330
1F
100
AcDbEntity
  8
0
 62
     7
100
AcDbLine
 10
396.656952
 20
470.549988
 30
0.0
 11
396.656952
 21
469.849976
 31
0.0
  0
LINE
  5
21A
330
1F
100
AcDbEntity
  8
0
 62
     7
100
AcDbLine
 10
396.656952
 20
470.67926
 30
0.0
 11
396.656952
 21
470.549988
 31
0.0
  0
LINE
  5
21B
330
1F
100
AcDbEntity
  8
0
 62
     7
100
AcDbLine
 10
396.656952
 20
470.67926
 30
0.0
 11
396.656952
 21
470.820679
 31
0.0
  0
LINE
  5
21C
330
1F
100
AcDbEntity
  8
0
 62
     7
100
AcDbLine
 10
396.656952
 20
470.820679
 30
0.0
 11
396.656952
 21
470.950012
 31
0.0
  0
LINE
  5
21D
330
1F
100
AcDbEntity
  8
0
 62
     7
100
AcDbLine
 10
396.656952
 20
471.650024
 30
0.0
 11
396.656952
 21
470.950012
 31
0.0
  0
LINE
  5
21E
330
1F
100
AcDbEntity
  8
0
 62
     7
100
AcDbLine
 10
396.656952
 20
471.779297
 30
0.0
 11
396.656952
 21
471.650024
 31
0.0
  0
LINE
  5
21F
330
1F
100
AcDbEntity
  8
0
 62
     7
100
AcDbLine
 10
396.656952
 20
471.779297
 30
0.0
 11
396.656952
 21
471.920715
 31
0.0
  0
LINE
  5
220
330
1F
100
AcDbEntity
  8
0
 62
     7
100
AcDbLine
 10
396.656952
 20
471.920715
 30
0.0
 11
396.656952
 21
472.049988
 31
0.0
  0
LINE
  5
221
330
1F
100
AcDbEntity
  8
0
 62
     7
100
AcDbLine
 10
396.656952
 20
472.75
 30
0.0
 11
396.656952
 21
472.049988
 31
0.0
  0
LINE
  5
222
330
1F
100
AcDbEntity
  8
0
 62
     7
100
AcDbLine
 10
396.656952
 20
472.879272
 30
0.0
 11
396.656952
 21
472.75
 31
0.0
  0
LINE
  5
223
330
1F
100
AcDbEntity
  8
0
 62
     7
100
AcDbLine
 10
396.656952
 20
472.879272
 30
0.0
 11
396.656952
 21
473.020691
 31
0.0
  0
LINE
  5
224
330
1F
100
AcDbEntity
  8
0
 62
     7
100
AcDbLine
 10
396.656952
 20
473.020691
 30
0.0
 11
396.656952
 21
473.150024
 31
0.0
  0
LINE
  5
225
330
1F
100
AcDbEntity
  8
0
 62
     7
100
AcDbLine
 10
396.656952
 20
473.849976
 30
0.0
 11
396.656952
 21
473.150024
 31
0.0
  0
LINE
  5
226
330
1F
100
AcDbEntity
  8
0
 62
     7
100
AcDbLine
 10
396.656952
 20
473.979309
 30
0.0
 11
396.656952
 21
473.849976
 31
0.0
  0
LINE
  5
227
330
1F
100
AcDbEntity
  8
0
 62
     7
100
AcDbLine
 10
396.656952
 20
473.979309
 30
0.0
 11
396.656952
 21
474.120728
 31
0.0
  0
LINE
  5
228
330
1F
100
AcDbEntity
  8
0
 62
     7
100
AcDbLine
 10
396.656952
 20
474.120728
 30
0.0
 11
396.656952
 21
474.25
 31
0.0
  0
LINE
  5
229
330
1F
100
AcDbEntity
  8
0
 62
     7
100
AcDbLine
 10
396.656952
 20
474.950012
 30
0.0
 11
396.656952
 21
474.25
 31
0.0
  0
LINE
  5
22A
330
1F
100
AcDbEntity
  8
0
 62
     7
100
AcDbLine
 10
396.656952
 20
475.079285
 30
0.0
 11
396.656952
 21
474.950012
 31
0.0
  0
LINE
  5
22B
330
1F
100
AcDbEntity
  8
0
 62
     7
100
AcDbLine
 10
396.656952
 20
475.079285
 30
0.0
 11
396.656952
 21
475.220703
 31
0.0
  0
LINE
  5
22C
330
1F
100
AcDbEntity
  8
0
 62
     7
100
AcDbLine
 10
396.656952
 20
475.220703
 30
0.0
 11
396.656952
 21
475.349976
 31
0.0
  0
LINE
  5
22D
330
1F
100
AcDbEntity
  8
0
 62
     7
100
AcDbLine
 10
396.656952
 20
476.049988
 30
0.0
 11
396.656952
 21
475.349976
 31
0.0
  0
LINE
  5
22E
330
1F
100
AcDbEntity
  8
0
 62
     7
100
AcDbLine
 10
337.988251
 20
469.450012
 30
0.0
 11
338.071625
 21
469.579285
 31
0.0
  0
ARC
  5
22F
330
1F
100
AcDbEntity
  8
0
 62
     7
100
AcDbCircle
 10
331.306915
 20
473.849976
 30
0.0
 40
8.0
100
AcDbArc
 50
354.980203
 51
360.0
  0
LINE
  5
230
330
1F
100
AcDbEntity
  8
0
 62
     7
100
AcDbLine
 10
339.263824
 20
473.020691
 30
0.0
 11
339.276245
 21
473.150024
 31
0.0
  0
LINE
  5
231
330
1F
100
AcDbEntity
  8
0
 62
     7
100
AcDbLine
 10
339.247833
 20
472.879272
 30
0.0
 11
339.263824
 21
473.020691
 31
0.0
  0
LINE
  5
232
330
1F
100
AcDbEntity
  8
0
 62
     7
100
AcDbLine
 10
339.230927
 20
472.75
 30
0.0
 11
339.247833
 21
472.879272
 31
0.0
  0
ARC
  5
233
330
1F
100
AcDbEntity
  8
0
 62
     7
100
AcDbCircle
 10
331.306915
 20
473.849976
 30
0.0
 40
8.0
100
AcDbArc
 50
346.997132
 51
352.096798
  0
LINE
  5
234
330
1F
100
AcDbEntity
  8
0
 62
     7
100
AcDbLine
 10
339.070831
 20
471.920715
 30
0.0
 11
339.101807
 21
472.049988
 31
0.0
  0
LINE
  5
235
330
1F
100
AcDbEntity
  8
0
 62
     7
100
AcDbLine
 10
339.034271
 20
471.779297
 30
0.0
 11
339.070831
 21
471.920715
 31
0.0
  0
LINE
  5
236
330
1F
100
AcDbEntity
  8
0
 62
     7
100
AcDbLine
 10
338.998505
 20
471.650024
 30
0.0
 11
339.034271
 21
471.779297
 31
0.0
  0
ARC
  5
237
330
1F
100
AcDbEntity
  8
0
 62
     7
100
AcDbCircle
 10
331.306915
 20
473.849976
 30
0.0
 40
8.0
100
AcDbArc
 50
338.746183
 51
344.037995
  0
LINE
  5
238
330
1F
100
AcDbEntity
  8
0
 62
     7
100
AcDbLine
 10
338.711212
 20
470.820679
 30
0.0
 11
338.762787
 21
470.950012
 31
0.0
  0
LINE
  5
239
330
1F
100
AcDbEntity
  8
0
 62
     7
100
AcDbLine
 10
338.651764
 20
470.67926
 30
0.0
 11
338.711212
 21
470.820679
 31
0.0
  0
LINE
  5
23A
330
1F
100
AcDbEntity
  8
0
 62
     7
100
AcDbLine
 10
338.594574
 20
470.549988
 30
0.0
 11
338.651764
 21
470.67926
 31
0.0
  0
ARC
  5
23B
330
1F
100
AcDbEntity
  8
0
 62
     7
100
AcDbCircle
 10
331.306915
 20
473.849976
 30
0.0
 40
8.0
100
AcDbArc
 50
329.999989
 51
335.63801
  0
LINE
  5
23C
330
1F
100
AcDbEntity
  8
0
 62
     7
100
AcDbLine
 10
338.158844
 20
469.720703
 30
0.0
 11
338.235138
 21
469.849976
 31
0.0
  0
LINE
  5
23D
330
1F
100
AcDbEntity
  8
0
 62
     7
100
AcDbLine
 10
338.071625
 20
469.579285
 30
0.0
 11
338.158844
 21
469.720703
 31
0.0
  0
LINE
  5
23E
330
1F
100
AcDbEntity
  8
0
 62
     7
100
AcDbLine
 10
324.62561
 20
469.450012
 30
0.0
 11
324.542236
 21
469.579285
 31
0.0
  0
LINE
  5
23F
330
1F
100
AcDbEntity
  8
0
 62
     7
100
AcDbLine
 10
324.542236
 20
469.579285
 30
0.0
 11
324.454987
 21
469.720703
 31
0.0
  0
LINE
  5
240
330
1F
100
AcDbEntity
  8
0
 62
     7
100
AcDbLine
 10
324.454987
 20
469.720703
 30
0.0
 11
324.378723
 21
469.849976
 31
0.0
  0
ARC
  5
241
330
1F
100
AcDbEntity
  8
0
 62
     7
100
AcDbCircle
 10
331.306915
 20
473.849976
 30
0.0
 40
8.0
100
AcDbArc
 50
204.361982
 51
210.000003
  0
LINE
  5
242
330
1F
100
AcDbEntity
  8
0
 62
     7
100
AcDbLine
 10
324.019257
 20
470.549988
 30
0.0
 11
323.962097
 21
470.67926
 31
0.0
  0
LINE
  5
243
330
1F
100
AcDbEntity
  8
0
 62
     7
100
AcDbLine
 10
323.962097
 20
470.67926
 30
0.0
 11
323.902649
 21
470.820679
 31
0.0
  0
LINE
  5
244
330
1F
100
AcDbEntity
  8
0
 62
     7
100
AcDbLine
 10
323.902649
 20
470.820679
 30
0.0
 11
323.851044
 21
470.950012
 31
0.0
  0
ARC
  5
245
330
1F
100
AcDbEntity
  8
0
 62
     7
100
AcDbCircle
 10
331.306915
 20
473.849976
 30
0.0
 40
8.0
100
AcDbArc
 50
195.96201
 51
201.253809
  0
LINE
  5
246
330
1F
100
AcDbEntity
  8
0
 62
     7
100
AcDbLine
 10
323.615387
 20
471.650024
 30
0.0
 11
323.579559
 21
471.779297
 31
0.0
  0
LINE
  5
247
330
1F
100
AcDbEntity
  8
0
 62
     7
100
AcDbLine
 10
323.579559
 20
471.779297
 30
0.0
 11
323.54306
 21
471.920715
 31
0.0
  0
LINE
  5
248
330
1F
100
AcDbEntity
  8
0
 62
     7
100
AcDbLine
 10
323.54306
 20
471.920715
 30
0.0
 11
323.512054
 21
472.049988
 31
0.0
  0
ARC
  5
249
330
1F
100
AcDbEntity
  8
0
 62
     7
100
AcDbCircle
 10
331.306915
 20
473.849976
 30
0.0
 40
8.0
100
AcDbArc
 50
187.903207
 51
193.002872
  0
LINE
  5
24A
330
1F
100
AcDbEntity
  8
0
 62
     7
100
AcDbLine
 10
323.382904
 20
472.75
 30
0.0
 11
323.366058
 21
472.879272
 31
0.0
  0
LINE
  5
24B
330
1F
100
AcDbEntity
  8
0
 62
     7
100
AcDbLine
 10
323.366058
 20
472.879272
 30
0.0
 11
323.350037
 21
473.020691
 31
0.0
  0
LINE
  5
24C
330
1F
100
AcDbEntity
  8
0
 62
     7
100
AcDbLine
 10
323.350037
 20
473.020691
 30
0.0
 11
323.337616
 21
473.150024
 31
0.0
  0
ARC
  5
24D
330
1F
100
AcDbEntity
  8
0
 62
     7
100
AcDbCircle
 10
331.306915
 20
473.849976
 30
0.0
 40
8.0
100
AcDbArc
 50
180.000009
 51
185.019802
  0
LINE
  5
24E
330
1F
100
AcDbEntity
  8
0
 62
     7
100
AcDbLine
 10
322.306915
 20
469.579285
 30
0.0
 11
322.306915
 21
469.450012
 31
0.0
  0
LINE
  5
24F
330
1F
100
AcDbEntity
  8
0
 62
     7
100
AcDbLine
 10
322.306915
 20
469.720703
 30
0.0
 11
322.306915
 21
469.579285
 31
0.0
  0
LINE
  5
250
330
1F
100
AcDbEntity
  8
0
 62
     7
100
AcDbLine
 10
322.306915
 20
469.849976
 30
0.0
 11
322.306915
 21
469.720703
 31
0.0
  0
LINE
  5
251
330
1F
100
AcDbEntity
  8
0
 62
     7
100
AcDbLine
 10
322.306915
 20
469.849976
 30
0.0
 11
322.306915
 21
470.549988
 31
0.0
  0
LINE
  5
252
330
1F
100
AcDbEntity
  8
0
 62
     7
100
AcDbLine
 10
322.306915
 20
470.67926
 30
0.0
 11
322.306915
 21
470.549988
 31
0.0
  0
LINE
  5
253
330
1F
100
AcDbEntity
  8
0
 62
     7
100
AcDbLine
 10
322.306915
 20
470.820679
 30
0.0
 11
322.306915
 21
470.67926
 31
0.0
  0
LINE
  5
254
330
1F
100
AcDbEntity
  8
0
 62
     7
100
AcDbLine
 10
322.306915
 20
470.950012
 30
0.0
 11
322.306915
 21
470.820679
 31
0.0
  0
LINE
  5
255
330
1F
100
AcDbEntity
  8
0
 62
     7
100
AcDbLine
 10
322.306915
 20
470.950012
 30
0.0
 11
322.306915
 21
471.650024
 31
0.0
  0
LINE
  5
256
330
1F
100
AcDbEntity
  8
0
 62
     7
100
AcDbLine
 10
322.306915
 20
471.779297
 30
0.0
 11
322.306915
 21
471.650024
 31
0.0
  0
LINE
  5
257
330
1F
100
AcDbEntity
  8
0
 62
     7
100
AcDbLine
 10
322.306915
 20
471.920715
 30
0.0
 11
322.306915
 21
471.779297
 31
0.0
  0
LINE
  5
258
330
1F
100
AcDbEntity
  8
0
 62
     7
100
AcDbLine
 10
322.306915
 20
472.049988
 30
0.0
 11
322.306915
 21
471.920715
 31
0.0
  0
LINE
  5
259
330
1F
100
AcDbEntity
  8
0
 62
     7
100
AcDbLine
 10
322.306915
 20
472.049988
 30
0.0
 11
322.306915
 21
472.75
 31
0.0
  0
LINE
  5
25A
330
1F
100
AcDbEntity
  8
0
 62
     7
100
AcDbLine
 10
322.306915
 20
472.879272
 30
0.0
 11
322.306915
 21
472.75
 31
0.0
  0
LINE
  5
25B
330
1F
100
AcDbEntity
  8
0
 62
     7
100
AcDbLine
 10
322.306915
 20
473.020691
 30
0.0
 11
322.306915
 21
472.879272
 31
0.0
  0
LINE
  5
25C
330
1F
100
AcDbEntity
  8
0
 62
     7
100
AcDbLine
 10
322.306915
 20
473.150024
 30
0.0
 11
322.306915
 21
473.020691
 31
0.0
  0
LINE
  5
25D
330
1F
100
AcDbEntity
  8
0
 62
     7
100
AcDbLine
 10
322.306915
 20
473.150024
 30
0.0
 11
322.306915
 21
473.849976
 31
0.0
  0
LINE
  5
25E
330
1F
100
AcDbEntity
  8
0
 62
     7
100
AcDbLine
 10
322.306915
 20
473.979309
 30
0.0
 11
322.306915
 21
473.849976
 31
0.0
  0
LINE
  5
25F
330
1F
100
AcDbEntity
  8
0
 62
     7
100
AcDbLine
 10
322.306915
 20
474.120728
 30
0.0
 11
322.306915
 21
473.979309
 31
0.0
  0
LINE
  5
260
330
1F
100
AcDbEntity
  8
0
 62
     7
100
AcDbLine
 10
322.306915
 20
474.25
 30
0.0
 11
322.306915
 21
474.120728
 31
0.0
  0
LINE
  5
261
330
1F
100
AcDbEntity
  8
0
 62
     7
100
AcDbLine
 10
322.306915
 20
474.25
 30
0.0
 11
322.306915
 21
474.950012
 31
0.0
  0
LINE
  5
262
330
1F
100
AcDbEntity
  8
0
 62
     7
100
AcDbLine
 10
322.306915
 20
475.079285
 30
0.0
 11
322.306915
 21
474.950012
 31
0.0
  0
LINE
  5
263
330
1F
100
AcDbEntity
  8
0
 62
     7
100
AcDbLine
 10
322.306915
 20
475.220703
 30
0.0
 11
322.306915
 21
475.079285
 31
0.0
  0
LINE
  5
264
330
1F
100
AcDbEntity
  8
0
 62
     7
100
AcDbLine
 10
322.306915
 20
475.349976
 30
0.0
 11
322.306915
 21
475.220703
 31
0.0
  0
LINE
  5
265
330
1F
100
AcDbEntity
  8
0
 62
     7
100
AcDbLine
 10
322.306915
 20
475.349976
 30
0.0
 11
322.306915
 21
476.049988
 31
0.0
  0
LINE
  5
266
330
1F
100
AcDbEntity
  8
0
 62
     7
100
AcDbLine
 10
322.306915
 20
476.17926
 30
0.0
 11
322.306915
 21
476.049988
 31
0.0
  0
LINE
  5
267
330
1F
100
AcDbEntity
  8
0
 62
     7
100
AcDbLine
 10
322.306915
 20
476.320679
 30
0.0
 11
322.306915
 21
476.17926
 31
0.0
  0
LINE
  5
268
330
1F
100
AcDbEntity
  8
0
 62
     7
100
AcDbLine
 10
322.306915
 20
476.450012
 30
0.0
 11
322.306915
 21
476.320679
 31
0.0
  0
LINE
  5
269
330
1F
100
AcDbEntity
  8
0
 62
     7
100
AcDbLine
 10
322.306915
 20
476.450012
 30
0.0
 11
322.306915
 21
477.150024
 31
0.0
  0
LINE
  5
26A
330
1F
100
AcDbEntity
  8
0
 62
     7
100
AcDbLine
 10
322.306915
 20
477.279297
 30
0.0
 11
322.306915
 21
477.150024
 31
0.0
  0
LINE
  5
26B
330
1F
100
AcDbEntity
  8
0
 62
     7
100
AcDbLine
 10
322.306915
 20
477.420715
 30
0.0
 11
322.306915
 21
477.279297
 31
0.0
  0
LINE
  5
26C
330
1F
100
AcDbEntity
  8
0
 62
     7
100
AcDbLine
 10
322.306915
 20
477.549988
 30
0.0
 11
322.306915
 21
477.420715
 31
0.0
  0
LINE
  5
26D
330
1F
100
AcDbEntity
  8
0
 62
     7
100
AcDbLine
 10
322.306915
 20
477.549988
 30
0.0
 11
322.306915
 21
478.25
 31
0.0
  0
LINE
  5
26E
330
1F
100
AcDbEntity
  8
0
 62
     7
100
AcDbLine
 10
322.306915
 20
478.379272
 30
0.0
 11
322.306915
 21
478.25
 31
0.0
  0
LINE
  5
26F
330
1F
100
AcDbEntity
  8
0
 62
     7
100
AcDbLine
 10
322.306915
 20
478.520691
 30
0.0
 11
322.306915
 21
478.379272
 31
0.0
  0
LINE
  5
270
330
1F
100
AcDbEntity
  8
0
 62
     7
100
AcDbLine
 10
322.306915
 20
478.650024
 30
0.0
 11
322.306915
 21
478.520691
 31
0.0
  0
LINE
  5
271
330
1F
100
AcDbEntity
  8
0
 62
     7
100
AcDbLine
 10
322.306915
 20
478.650024
 30
0.0
 11
322.306915
 21
483.474243
 31
0.0
  0
LINE
  5
272
330
1F
100
AcDbEntity
  8
0
 62
     7
100
AcDbLine
 10
322.306915
 20
483.962158
 30
0.0
 11
322.306915
 21
483.474243
 31
0.0
  0
LINE
  5
273
330
1F
100
AcDbEntity
  8
0
 62
     7
100
AcDbLine
 10
322.306915
 20
484.049988
 30
0.0
 11
322.306915
 21
483.962158
 31
0.0
  0
ARC
  5
274
330
1F
100
AcDbEntity
  8
0
 62
     7
100
AcDbCircle
 10
949.806885
 20
461.049988
 30
0.0
 40
0.5
100
AcDbArc
 50
0.0
 51
90.000003
  0
LINE
  5
275
330
1F
100
AcDbEntity
  8
0
 62
     7
100
AcDbLine
 10
949.806885
 20
461.549988
 30
0.0
 11
942.806885
 21
461.549988
 31
0.0
  0
ARC
  5
276
330
1F
100
AcDbEntity
  8
0
 62
     7
100
AcDbCircle
 10
942.806885
 20
461.049988
 30
0.0
 40
0.5
100
AcDbArc
 50
90.000003
 51
180.000009
  0
LINE
  5
277
330
1F
100
AcDbEntity
  8
0
 62
     7
100
AcDbLine
 10
942.306885
 20
461.049988
 30
0.0
 11
942.306885
 21
457.049988
 31
0.0
  0
ARC
  5
278
330
1F
100
AcDbEntity
  8
0
 62
     7
100
AcDbCircle
 10
942.806885
 20
457.049988
 30
0.0
 40
0.5
100
AcDbArc
 50
180.000009
 51
269.999997
  0
LINE
  5
279
330
1F
100
AcDbEntity
  8
0
 62
     7
100
AcDbLine
 10
942.806885
 20
456.549988
 30
0.0
 11
949.806885
 21
456.549988
 31
0.0
  0
ARC
  5
27A
330
1F
100
AcDbEntity
  8
0
 62
     7
100
AcDbCircle
 10
949.806885
 20
457.049988
 30
0.0
 40
0.5
100
AcDbArc
 50
269.999997
 51
360.0
  0
LINE
  5
27B
330
1F
100
AcDbEntity
  8
0
 62
     7
100
AcDbLine
 10
950.306885
 20
457.049988
 30
0.0
 11
950.306885
 21
461.049988
 31
0.0
  0
ARC
  5
27C
330
1F
100
AcDbEntity
  8
0
 62
     7
100
AcDbCircle
 10
379.806915
 20
461.049988
 30
0.0
 40
0.5
100
AcDbArc
 50
0.0
 51
90.000003
  0
LINE
  5
27D
330
1F
100
AcDbEntity
  8
0
 62
     7
100
AcDbLine
 10
379.806915
 20
461.549988
 30
0.0
 11
372.806915
 21
461.549988
 31
0.0
  0
ARC
  5
27E
330
1F
100
AcDbEntity
  8
0
 62
     7
100
AcDbCircle
 10
372.806915
 20
461.049988
 30
0.0
 40
0.5
100
AcDbArc
 50
90.000003
 51
180.000009
  0
LINE
  5
27F
330
1F
100
AcDbEntity
  8
0
 62
     7
100
AcDbLine
 10
372.306915
 20
461.049988
 30
0.0
 11
372.306915
 21
457.049988
 31
0.0
  0
ARC
  5
280
330
1F
100
AcDbEntity
  8
0
 62
     7
100
AcDbCircle
 10
372.806915
 20
457.049988
 30
0.0
 40
0.5
100
AcDbArc
 50
180.000009
 51
269.999997
  0
LINE
  5
281
330
1F
100
AcDbEntity
  8
0
 62
     7
100
AcDbLine
 10
372.806915
 20
456.549988
 30
0.0
 11
379.806915
 21
456.549988
 31
0.0
  0
ARC
  5
282
330
1F
100
AcDbEntity
  8
0
 62
     7
100
AcDbCircle
 10
379.806915
 20
457.049988
 30
0.0
 40
0.5
100
AcDbArc
 50
269.999997
 51
360.0
  0
LINE
  5
283
330
1F
100
AcDbEntity
  8
0
 62
     7
100
AcDbLine
 10
380.306915
 20
457.049988
 30
0.0
 11
380.306915
 21
461.049988
 31
0.0
  0
LINE
  5
284
330
1F
100
AcDbEntity
  8
0
 62
     7
100
AcDbLine
 10
1025.807007
 20
461.849976
 30
0.0
 11
1025.307007
 21
461.849976
 31
0.0
  0
LINE
  5
285
330
1F
100
AcDbEntity
  8
0
 62
     7
100
AcDbLine
 10
1025.307007
 20
464.150024
 30
0.0
 11
1025.807007
 21
464.150024
 31
0.0
  0
LINE
  5
286
330
1F
100
AcDbEntity
  8
0
 62
     7
100
AcDbLine
 10
321.806915
 20
464.150024
 30
0.0
 11
322.306915
 21
464.150024
 31
0.0
  0
LINE
  5
287
330
1F
100
AcDbEntity
  8
0
 62
     7
100
AcDbLine
 10
952.806885
 20
483.962158
 30
0.0
 11
952.806885
 21
484.049988
 31
0.0
  0
LINE
  5
288
330
1F
100
AcDbEntity
  8
0
 62
     7
100
AcDbLine
 10
952.806885
 20
483.962158
 30
0.0
 11
952.806885
 21
483.474243
 31
0.0
  0
LINE
  5
289
330
1F
100
AcDbEntity
  8
0
 62
     7
100
AcDbLine
 10
1025.307007
 20
483.474243
 30
0.0
 11
952.806885
 21
483.474243
 31
0.0
  0
ARC
  5
28A
330
1F
100
AcDbEntity
  8
0
 62
     7
100
AcDbCircle
 10
1016.306885
 20
473.849976
 30
0.0
 40
8.0
100
AcDbArc
 50
36.869897
 51
143.130097
  0
LINE
  5
28B
330
1F
100
AcDbEntity
  8
0
 62
     7
100
AcDbLine
 10
1025.307007
 20
478.650024
 30
0.0
 11
1022.706909
 21
478.650024
 31
0.0
  0
LINE
  5
28C
330
1F
100
AcDbEntity
  8
0
 62
     7
100
AcDbLine
 10
952.806885
 20
478.650024
 30
0.0
 11
952.806885
 21
483.474243
 31
0.0
  0
LINE
  5
28D
330
1F
100
AcDbEntity
  8
0
 62
     7
100
AcDbLine
 10
1009.90686
 20
478.650024
 30
0.0
 11
952.806885
 21
478.650024
 31
0.0
  0
LINE
  5
28E
330
1F
100
AcDbEntity
  8
0
 62
     7
100
AcDbLine
 10
1022.706909
 20
478.650024
 30
0.0
 11
1022.80188
 21
478.520691
 31
0.0
  0
LINE
  5
28F
330
1F
100
AcDbEntity
  8
0
 62
     7
100
AcDbLine
 10
1022.80188
 20
478.520691
 30
0.0
 11
1022.901245
 21
478.379272
 31
0.0
  0
LINE
  5
290
330
1F
100
AcDbEntity
  8
0
 62
     7
100
AcDbLine
 10
1022.901245
 20
478.379272
 30
0.0
 11
1022.988281
 21
478.25
 31
0.0
  0
LINE
  5
291
330
1F
100
AcDbEntity
  8
0
 62
     7
100
AcDbLine
 10
1025.307007
 20
478.25
 30
0.0
 11
1022.988281
 21
478.25
 31
0.0
  0
ARC
  5
292
330
1F
100
AcDbEntity
  8
0
 62
     7
100
AcDbCircle
 10
1016.306885
 20
473.849976
 30
0.0
 40
8.0
100
AcDbArc
 50
27.548547
 51
33.367014
  0
LINE
  5
293
330
1F
100
AcDbEntity
  8
0
 62
     7
100
AcDbLine
 10
1025.307007
 20
477.549988
 30
0.0
 11
1023.399902
 21
477.549988
 31
0.0
  0
LINE
  5
294
330
1F
100
AcDbEntity
  8
0
 62
     7
100
AcDbLine
 10
1023.399902
 20
477.549988
 30
0.0
 11
1023.46582
 21
477.420715
 31
0.0
  0
LINE
  5
295
330
1F
100
AcDbEntity
  8
0
 62
     7
100
AcDbLine
 10
1023.46582
 20
477.420715
 30
0.0
 11
1023.534668
 21
477.279297
 31
0.0
  0
LINE
  5
296
330
1F
100
AcDbEntity
  8
0
 62
     7
100
AcDbLine
 10
1023.534668
 20
477.279297
 30
0.0
 11
1023.594604
 21
477.150024
 31
0.0
  0
LINE
  5
297
330
1F
100
AcDbEntity
  8
0
 62
     7
100
AcDbLine
 10
1025.307007
 20
477.150024
 30
0.0
 11
1023.594604
 21
477.150024
 31
0.0
  0
ARC
  5
298
330
1F
100
AcDbEntity
  8
0
 62
     7
100
AcDbCircle
 10
1016.306885
 20
473.849976
 30
0.0
 40
8.0
100
AcDbArc
 50
18.965574
 51
24.361978
  0
LINE
  5
299
330
1F
100
AcDbEntity
  8
0
 62
     7
100
AcDbLine
 10
1025.307007
 20
476.450012
 30
0.0
 11
1023.872681
 21
476.450012
 31
0.0
  0
LINE
  5
29A
330
1F
100
AcDbEntity
  8
0
 62
     7
100
AcDbLine
 10
1023.872681
 20
476.450012
 30
0.0
 11
1023.915771
 21
476.320679
 31
0.0
  0
LINE
  5
29B
330
1F
100
AcDbEntity
  8
0
 62
     7
100
AcDbLine
 10
1023.915771
 20
476.320679
 30
0.0
 11
1023.960327
 21
476.17926
 31
0.0
  0
LINE
  5
29C
330
1F
100
AcDbEntity
  8
0
 62
     7
100
AcDbLine
 10
1023.960327
 20
476.17926
 30
0.0
 11
1023.998413
 21
476.049988
 31
0.0
  0
LINE
  5
29D
330
1F
100
AcDbEntity
  8
0
 62
     7
100
AcDbLine
 10
1025.307007
 20
476.049988
 30
0.0
 11
1023.998413
 21
476.049988
 31
0.0
  0
ARC
  5
29E
330
1F
100
AcDbEntity
  8
0
 62
     7
100
AcDbCircle
 10
1016.306885
 20
473.849976
 30
0.0
 40
8.0
100
AcDbArc
 50
10.806925
 51
15.962019
  0
LINE
  5
29F
330
1F
100
AcDbEntity
  8
0
 62
     7
100
AcDbLine
 10
1025.307007
 20
475.349976
 30
0.0
 11
1024.165039
 21
475.349976
 31
0.0
  0
LINE
  5
2A0
330
1F
100
AcDbEntity
  8
0
 62
     7
100
AcDbLine
 10
1024.165039
 20
475.349976
 30
0.0
 11
1024.188721
 21
475.220703
 31
0.0
  0
LINE
  5
2A1
330
1F
100
AcDbEntity
  8
0
 62
     7
100
AcDbLine
 10
1024.188721
 20
475.220703
 30
0.0
 11
1024.211914
 21
475.079285
 31
0.0
  0
LINE
  5
2A2
330
1F
100
AcDbEntity
  8
0
 62
     7
100
AcDbLine
 10
1024.211914
 20
475.079285
 30
0.0
 11
1024.230957
 21
474.950012
 31
0.0
  0
LINE
  5
2A3
330
1F
100
AcDbEntity
  8
0
 62
     7
100
AcDbLine
 10
1025.307007
 20
474.950012
 30
0.0
 11
1024.230957
 21
474.950012
 31
0.0
  0
ARC
  5
2A4
330
1F
100
AcDbEntity
  8
0
 62
     7
100
AcDbCircle
 10
1016.306885
 20
473.849976
 30
0.0
 40
8.0
100
AcDbArc
 50
2.865984
 51
7.903208
  0
LINE
  5
2A5
330
1F
100
AcDbEntity
  8
0
 62
     7
100
AcDbLine
 10
1025.307007
 20
474.25
 30
0.0
 11
1024.296997
 21
474.25
 31
0.0
  0
LINE
  5
2A6
330
1F
100
AcDbEntity
  8
0
 62
     7
100
AcDbLine
 10
1024.296997
 20
474.25
 30
0.0
 11
1024.302368
 21
474.120728
 31
0.0
  0
LINE
  5
2A7
330
1F
100
AcDbEntity
  8
0
 62
     7
100
AcDbLine
 10
1024.302368
 20
474.120728
 30
0.0
 11
1024.305908
 21
473.979309
 31
0.0
  0
LINE
  5
2A8
330
1F
100
AcDbEntity
  8
0
 62
     7
100
AcDbLine
 10
1024.305908
 20
473.979309
 30
0.0
 11
1024.307007
 21
473.849976
 31
0.0
  0
LINE
  5
2A9
330
1F
100
AcDbEntity
  8
0
 62
     7
100
AcDbLine
 10
1025.307007
 20
473.849976
 30
0.0
 11
1024.307007
 21
473.849976
 31
0.0
  0
LINE
  5
2AA
330
1F
100
AcDbEntity
  8
0
 62
     7
100
AcDbLine
 10
1025.307007
 20
473.150024
 30
0.0
 11
1024.276245
 21
473.150024
 31
0.0
  0
LINE
  5
2AB
330
1F
100
AcDbEntity
  8
0
 62
     7
100
AcDbLine
 10
1025.307007
 20
472.75
 30
0.0
 11
1024.230957
 21
472.75
 31
0.0
  0
LINE
  5
2AC
330
1F
100
AcDbEntity
  8
0
 62
     7
100
AcDbLine
 10
1025.307007
 20
472.049988
 30
0.0
 11
1024.101807
 21
472.049988
 31
0.0
  0
LINE
  5
2AD
330
1F
100
AcDbEntity
  8
0
 62
     7
100
AcDbLine
 10
1025.307007
 20
471.650024
 30
0.0
 11
1023.998413
 21
471.650024
 31
0.0
  0
LINE
  5
2AE
330
1F
100
AcDbEntity
  8
0
 62
     7
100
AcDbLine
 10
1025.307007
 20
470.950012
 30
0.0
 11
1023.762817
 21
470.950012
 31
0.0
  0
LINE
  5
2AF
330
1F
100
AcDbEntity
  8
0
 62
     7
100
AcDbLine
 10
1025.307007
 20
470.549988
 30
0.0
 11
1023.594604
 21
470.549988
 31
0.0
  0
LINE
  5
2B0
330
1F
100
AcDbEntity
  8
0
 62
     7
100
AcDbLine
 10
1025.307007
 20
469.849976
 30
0.0
 11
1023.235107
 21
469.849976
 31
0.0
  0
LINE
  5
2B1
330
1F
100
AcDbEntity
  8
0
 62
     7
100
AcDbLine
 10
1009.378662
 20
469.849976
 30
0.0
 11
950.956909
 21
469.849976
 31
0.0
  0
LINE
  5
2B2
330
1F
100
AcDbEntity
  8
0
 62
     7
100
AcDbLine
 10
1009.019287
 20
470.549988
 30
0.0
 11
950.956909
 21
470.549988
 31
0.0
  0
LINE
  5
2B3
330
1F
100
AcDbEntity
  8
0
 62
     7
100
AcDbLine
 10
1008.851074
 20
470.950012
 30
0.0
 11
950.956909
 21
470.950012
 31
0.0
  0
LINE
  5
2B4
330
1F
100
AcDbEntity
  8
0
 62
     7
100
AcDbLine
 10
1008.615356
 20
471.650024
 30
0.0
 11
950.956909
 21
471.650024
 31
0.0
  0
LINE
  5
2B5
330
1F
100
AcDbEntity
  8
0
 62
     7
100
AcDbLine
 10
1008.512085
 20
472.049988
 30
0.0
 11
950.956909
 21
472.049988
 31
0.0
  0
LINE
  5
2B6
330
1F
100
AcDbEntity
  8
0
 62
     7
100
AcDbLine
 10
1008.382935
 20
472.75
 30
0.0
 11
950.956909
 21
472.75
 31
0.0
  0
LINE
  5
2B7
330
1F
100
AcDbEntity
  8
0
 62
     7
100
AcDbLine
 10
1008.337646
 20
473.150024
 30
0.0
 11
950.956909
 21
473.150024
 31
0.0
  0
LINE
  5
2B8
330
1F
100
AcDbEntity
  8
0
 62
     7
100
AcDbLine
 10
1008.306885
 20
473.849976
 30
0.0
 11
950.956909
 21
473.849976
 31
0.0
  0
LINE
  5
2B9
330
1F
100
AcDbEntity
  8
0
 62
     7
100
AcDbLine
 10
1008.307983
 20
473.979309
 30
0.0
 11
1008.306885
 21
473.849976
 31
0.0
  0
LINE
  5
2BA
330
1F
100
AcDbEntity
  8
0
 62
     7
100
AcDbLine
 10
1008.311523
 20
474.120728
 30
0.0
 11
1008.307983
 21
473.979309
 31
0.0
  0
LINE
  5
2BB
330
1F
100
AcDbEntity
  8
0
 62
     7
100
AcDbLine
 10
1008.316895
 20
474.25
 30
0.0
 11
1008.311523
 21
474.120728
 31
0.0
  0
ARC
  5
2BC
330
1F
100
AcDbEntity
  8
0
 62
     7
100
AcDbCircle
 10
1016.306885
 20
473.849976
 30
0.0
 40
8.0
100
AcDbArc
 50
172.096793
 51
177.134017
  0
LINE
  5
2BD
330
1F
100
AcDbEntity
  8
0
 62
     7
100
AcDbLine
 10
1008.401978
 20
475.079285
 30
0.0
 11
1008.382935
 21
474.950012
 31
0.0
  0
LINE
  5
2BE
330
1F
100
AcDbEntity
  8
0
 62
     7
100
AcDbLine
 10
1008.425171
 20
475.220703
 30
0.0
 11
1008.401978
 21
475.079285
 31
0.0
  0
LINE
  5
2BF
330
1F
100
AcDbEntity
  8
0
 62
     7
100
AcDbLine
 10
1008.448853
 20
475.349976
 30
0.0
 11
1008.425171
 21
475.220703
 31
0.0
  0
ARC
  5
2C0
330
1F
100
AcDbEntity
  8
0
 62
     7
100
AcDbCircle
 10
1016.306885
 20
473.849976
 30
0.0
 40
8.0
100
AcDbArc
 50
164.03799
 51
169.193075
  0
LINE
  5
2C1
330
1F
100
AcDbEntity
  8
0
 62
     7
100
AcDbLine
 10
1008.653564
 20
476.17926
 30
0.0
 11
1008.615356
 21
476.049988
 31
0.0
  0
LINE
  5
2C2
330
1F
100
AcDbEntity
  8
0
 62
     7
100
AcDbLine
 10
1008.697998
 20
476.320679
 30
0.0
 11
1008.653564
 21
476.17926
 31
0.0
  0
LINE
  5
2C3
330
1F
100
AcDbEntity
  8
0
 62
     7
100
AcDbLine
 10
1008.741211
 20
476.450012
 30
0.0
 11
1008.697998
 21
476.320679
 31
0.0
  0
ARC
  5
2C4
330
1F
100
AcDbEntity
  8
0
 62
     7
100
AcDbCircle
 10
1016.306885
 20
473.849976
 30
0.0
 40
8.0
100
AcDbArc
 50
155.638018
 51
161.034427
  0
LINE
  5
2C5
330
1F
100
AcDbEntity
  8
0
 62
     7
100
AcDbLine
 10
1009.079224
 20
477.279297
 30
0.0
 11
1009.019287
 21
477.150024
 31
0.0
  0
LINE
  5
2C6
330
1F
100
AcDbEntity
  8
0
 62
     7
100
AcDbLine
 10
1009.147949
 20
477.420715
 30
0.0
 11
1009.079224
 21
477.279297
 31
0.0
  0
LINE
  5
2C7
330
1F
100
AcDbEntity
  8
0
 62
     7
100
AcDbLine
 10
1009.213989
 20
477.549988
 30
0.0
 11
1009.147949
 21
477.420715
 31
0.0
  0
ARC
  5
2C8
330
1F
100
AcDbEntity
  8
0
 62
     7
100
AcDbCircle
 10
1016.306885
 20
473.849976
 30
0.0
 40
8.0
100
AcDbArc
 50
146.632987
 51
152.451448
  0
LINE
  5
2C9
330
1F
100
AcDbEntity
  8
0
 62
     7
100
AcDbLine
 10
1009.712524
 20
478.379272
 30
0.0
 11
1009.62561
 21
478.25
 31
0.0
  0
LINE
  5
2CA
330
1F
100
AcDbEntity
  8
0
 62
     7
100
AcDbLine
 10
1009.812012
 20
478.520691
 30
0.0
 11
1009.712524
 21
478.379272
 31
0.0
  0
LINE
  5
2CB
330
1F
100
AcDbEntity
  8
0
 62
     7
100
AcDbLine
 10
1009.90686
 20
478.650024
 30
0.0
 11
1009.812012
 21
478.520691
 31
0.0
  0
CIRCLE
  5
2CC
330
1F
100
AcDbEntity
  8
0
 62
     7
100
AcDbCircle
 10
1016.306885
 20
473.849976
 30
0.0
 40
7.5
  0
LINE
  5
2CD
330
1F
100
AcDbEntity
  8
0
 62
     7
100
AcDbLine
 10
951.306885
 20
476.849976
 30
0.0
 11
950.956909
 21
476.849976
 31
0.0
  0
LINE
  5
2CE
330
1F
100
AcDbEntity
  8
0
 62
     7
100
AcDbLine
 10
1009.019287
 20
477.150024
 30
0.0
 11
952.206909
 21
477.150024
 31
0.0
  0
ARC
  5
2CF
330
1F
100
AcDbEntity
  8
0
 62
     7
100
AcDbCircle
 10
951.306885
 20
478.349976
 30
0.0
 40
1.5
100
AcDbArc
 50
269.999997
 51
314.454478
  0
LINE
  5
2D0
330
1F
100
AcDbEntity
  8
0
 62
     7
100
AcDbLine
 10
1008.741211
 20
476.450012
 30
0.0
 11
950.956909
 21
476.450012
 31
0.0
  0
LINE
  5
2D1
330
1F
100
AcDbEntity
  8
0
 62
     7
100
AcDbLine
 10
1008.615356
 20
476.049988
 30
0.0
 11
950.956909
 21
476.049988
 31
0.0
  0
LINE
  5
2D2
330
1F
100
AcDbEntity
  8
0
 62
     7
100
AcDbLine
 10
1008.448853
 20
475.349976
 30
0.0
 11
950.956909
 21
475.349976
 31
0.0
  0
LINE
  5
2D3
330
1F
100
AcDbEntity
  8
0
 62
     7
100
AcDbLine
 10
1008.382935
 20
474.950012
 30
0.0
 11
950.956909
 21
474.950012
 31
0.0
  0
LINE
  5
2D4
330
1F
100
AcDbEntity
  8
0
 62
     7
100
AcDbLine
 10
1008.316895
 20
474.25
 30
0.0
 11
950.956909
 21
474.25
 31
0.0
  0
LINE
  5
2D5
330
1F
100
AcDbEntity
  8
0
 62
     7
100
AcDbLine
 10
949.956909
 20
477.150024
 30
0.0
 11
947.65686
 21
477.150024
 31
0.0
  0
LINE
  5
2D6
330
1F
100
AcDbEntity
  8
0
 62
     7
100
AcDbLine
 10
949.956909
 20
476.450012
 30
0.0
 11
947.65686
 21
476.450012
 31
0.0
  0
ARC
  5
2D7
330
1F
100
AcDbEntity
  8
0
 62
     7
100
AcDbCircle
 10
947.15686
 20
477.349976
 30
0.0
 40
0.5
100
AcDbArc
 50
0.0
 51
8.130103
  0
ARC
  5
2D8
330
1F
100
AcDbEntity
  8
0
 62
     7
100
AcDbCircle
 10
950.456909
 20
477.349976
 30
0.0
 40
0.5
100
AcDbArc
 50
171.869894
 51
180.000009
  0
ARC
  5
2D9
330
1F
100
AcDbEntity
  8
0
 62
     7
100
AcDbCircle
 10
950.456909
 20
477.349976
 30
0.0
 40
0.5
100
AcDbArc
 50
90.000003
 51
171.869894
  0
LINE
  5
2DA
330
1F
100
AcDbEntity
  8
0
 62
     7
100
AcDbLine
 10
949.956909
 20
469.849976
 30
0.0
 11
947.65686
 21
469.849976
 31
0.0
  0
LINE
  5
2DB
330
1F
100
AcDbEntity
  8
0
 62
     7
100
AcDbLine
 10
949.956909
 20
470.549988
 30
0.0
 11
947.65686
 21
470.549988
 31
0.0
  0
LINE
  5
2DC
330
1F
100
AcDbEntity
  8
0
 62
     7
100
AcDbLine
 10
949.956909
 20
470.950012
 30
0.0
 11
947.65686
 21
470.950012
 31
0.0
  0
LINE
  5
2DD
330
1F
100
AcDbEntity
  8
0
 62
     7
100
AcDbLine
 10
949.956909
 20
471.650024
 30
0.0
 11
947.65686
 21
471.650024
 31
0.0
  0
LINE
  5
2DE
330
1F
100
AcDbEntity
  8
0
 62
     7
100
AcDbLine
 10
949.956909
 20
472.049988
 30
0.0
 11
947.65686
 21
472.049988
 31
0.0
  0
LINE
  5
2DF
330
1F
100
AcDbEntity
  8
0
 62
     7
100
AcDbLine
 10
949.956909
 20
472.75
 30
0.0
 11
947.65686
 21
472.75
 31
0.0
  0
LINE
  5
2E0
330
1F
100
AcDbEntity
  8
0
 62
     7
100
AcDbLine
 10
949.956909
 20
473.150024
 30
0.0
 11
947.65686
 21
473.150024
 31
0.0
  0
LINE
  5
2E1
330
1F
100
AcDbEntity
  8
0
 62
     7
100
AcDbLine
 10
949.956909
 20
473.849976
 30
0.0
 11
947.65686
 21
473.849976
 31
0.0
  0
LINE
  5
2E2
330
1F
100
AcDbEntity
  8
0
 62
     7
100
AcDbLine
 10
949.956909
 20
474.25
 30
0.0
 11
947.65686
 21
474.25
 31
0.0
  0
LINE
  5
2E3
330
1F
100
AcDbEntity
  8
0
 62
     7
100
AcDbLine
 10
949.956909
 20
474.950012
 30
0.0
 11
947.65686
 21
474.950012
 31
0.0
  0
LINE
  5
2E4
330
1F
100
AcDbEntity
  8
0
 62
     7
100
AcDbLine
 10
949.956909
 20
475.349976
 30
0.0
 11
947.65686
 21
475.349976
 31
0.0
  0
LINE
  5
2E5
330
1F
100
AcDbEntity
  8
0
 62
     7
100
AcDbLine
 10
949.956909
 20
476.049988
 30
0.0
 11
947.65686
 21
476.049988
 31
0.0
  0
ARC
  5
2E6
330
1F
100
AcDbEntity
  8
0
 62
     7
100
AcDbCircle
 10
947.15686
 20
477.349976
 30
0.0
 40
0.5
100
AcDbArc
 50
8.130103
 51
90.000003
  0
LINE
  5
2E7
330
1F
100
AcDbEntity
  8
0
 62
     7
100
AcDbLine
 10
946.65686
 20
476.049988
 30
0.0
 11
700.956909
 21
476.049988
 31
0.0
  0
LINE
  5
2E8
330
1F
100
AcDbEntity
  8
0
 62
     7
100
AcDbLine
 10
946.65686
 20
476.450012
 30
0.0
 11
700.956909
 21
476.450012
 31
0.0
  0
LINE
  5
2E9
330
1F
100
AcDbEntity
  8
0
 62
     7
100
AcDbLine
 10
946.65686
 20
476.849976
 30
0.0
 11
946.306885
 21
476.849976
 31
0.0
  0
ARC
  5
2EA
330
1F
100
AcDbEntity
  8
0
 62
     7
100
AcDbCircle
 10
946.306885
 20
478.349976
 30
0.0
 40
1.5
100
AcDbArc
 50
212.230947
 51
269.999997
  0
LINE
  5
2EB
330
1F
100
AcDbEntity
  8
0
 62
     7
100
AcDbLine
 10
945.40686
 20
477.150024
 30
0.0
 11
702.206909
 21
477.150024
 31
0.0
  0
ARC
  5
2EC
330
1F
100
AcDbEntity
  8
0
 62
     7
100
AcDbCircle
 10
701.306885
 20
478.349976
 30
0.0
 40
1.5
100
AcDbArc
 50
269.999997
 51
314.454478
  0
LINE
  5
2ED
330
1F
100
AcDbEntity
  8
0
 62
     7
100
AcDbLine
 10
701.306885
 20
476.849976
 30
0.0
 11
700.956909
 21
476.849976
 31
0.0
  0
LINE
  5
2EE
330
1F
100
AcDbEntity
  8
0
 62
     7
100
AcDbLine
 10
946.65686
 20
469.849976
 30
0.0
 11
700.956909
 21
469.849976
 31
0.0
  0
LINE
  5
2EF
330
1F
100
AcDbEntity
  8
0
 62
     7
100
AcDbLine
 10
946.65686
 20
470.549988
 30
0.0
 11
700.956909
 21
470.549988
 31
0.0
  0
LINE
  5
2F0
330
1F
100
AcDbEntity
  8
0
 62
     7
100
AcDbLine
 10
946.65686
 20
470.950012
 30
0.0
 11
700.956909
 21
470.950012
 31
0.0
  0
LINE
  5
2F1
330
1F
100
AcDbEntity
  8
0
 62
     7
100
AcDbLine
 10
946.65686
 20
471.650024
 30
0.0
 11
700.956909
 21
471.650024
 31
0.0
  0
LINE
  5
2F2
330
1F
100
AcDbEntity
  8
0
 62
     7
100
AcDbLine
 10
946.65686
 20
472.049988
 30
0.0
 11
700.956909
 21
472.049988
 31
0.0
  0
LINE
  5
2F3
330
1F
100
AcDbEntity
  8
0
 62
     7
100
AcDbLine
 10
946.65686
 20
472.75
 30
0.0
 11
700.956909
 21
472.75
 31
0.0
  0
LINE
  5
2F4
330
1F
100
AcDbEntity
  8
0
 62
     7
100
AcDbLine
 10
946.65686
 20
473.150024
 30
0.0
 11
700.956909
 21
473.150024
 31
0.0
  0
LINE
  5
2F5
330
1F
100
AcDbEntity
  8
0
 62
     7
100
AcDbLine
 10
946.65686
 20
473.849976
 30
0.0
 11
700.956909
 21
473.849976
 31
0.0
  0
LINE
  5
2F6
330
1F
100
AcDbEntity
  8
0
 62
     7
100
AcDbLine
 10
946.65686
 20
474.25
 30
0.0
 11
700.956909
 21
474.25
 31
0.0
  0
LINE
  5
2F7
330
1F
100
AcDbEntity
  8
0
 62
     7
100
AcDbLine
 10
946.65686
 20
474.950012
 30
0.0
 11
700.956909
 21
474.950012
 31
0.0
  0
LINE
  5
2F8
330
1F
100
AcDbEntity
  8
0
 62
     7
100
AcDbLine
 10
946.65686
 20
475.349976
 30
0.0
 11
700.956909
 21
475.349976
 31
0.0
  0
LINE
  5
2F9
330
1F
100
AcDbEntity
  8
0
 62
     7
100
AcDbLine
 10
699.956909
 20
476.450012
 30
0.0
 11
697.65686
 21
476.450012
 31
0.0
  0
LINE
  5
2FA
330
1F
100
AcDbEntity
  8
0
 62
     7
100
AcDbLine
 10
699.956909
 20
477.150024
 30
0.0
 11
697.65686
 21
477.150024
 31
0.0
  0
ARC
  5
2FB
330
1F
100
AcDbEntity
  8
0
 62
     7
100
AcDbCircle
 10
700.456909
 20
477.349976
 30
0.0
 40
0.5
100
AcDbArc
 50
171.869894
 51
180.000009
  0
ARC
  5
2FC
330
1F
100
AcDbEntity
  8
0
 62
     7
100
AcDbCircle
 10
697.15686
 20
477.349976
 30
0.0
 40
0.5
100
AcDbArc
 50
0.0
 51
8.130103
  0
ARC
  5
2FD
330
1F
100
AcDbEntity
  8
0
 62
     7
100
AcDbCircle
 10
700.456909
 20
477.349976
 30
0.0
 40
0.5
100
AcDbArc
 50
90.000003
 51
171.869894
  0
LINE
  5
2FE
330
1F
100
AcDbEntity
  8
0
 62
     7
100
AcDbLine
 10
699.956909
 20
469.849976
 30
0.0
 11
697.65686
 21
469.849976
 31
0.0
  0
LINE
  5
2FF
330
1F
100
AcDbEntity
  8
0
 62
     7
100
AcDbLine
 10
699.956909
 20
470.549988
 30
0.0
 11
697.65686
 21
470.549988
 31
0.0
  0
LINE
  5
300
330
1F
100
AcDbEntity
  8
0
 62
     7
100
AcDbLine
 10
699.956909
 20
470.950012
 30
0.0
 11
697.65686
 21
470.950012
 31
0.0
  0
LINE
  5
301
330
1F
100
AcDbEntity
  8
0
 62
     7
100
AcDbLine
 10
699.956909
 20
471.650024
 30
0.0
 11
697.65686
 21
471.650024
 31
0.0
  0
LINE
  5
302
330
1F
100
AcDbEntity
  8
0
 62
     7
100
AcDbLine
 10
699.956909
 20
472.049988
 30
0.0
 11
697.65686
 21
472.049988
 31
0.0
  0
LINE
  5
303
330
1F
100
AcDbEntity
  8
0
 62
     7
100
AcDbLine
 10
699.956909
 20
472.75
 30
0.0
 11
697.65686
 21
472.75
 31
0.0
  0
LINE
  5
304
330
1F
100
AcDbEntity
  8
0
 62
     7
100
AcDbLine
 10
699.956909
 20
473.150024
 30
0.0
 11
697.65686
 21
473.150024
 31
0.0
  0
LINE
  5
305
330
1F
100
AcDbEntity
  8
0
 62
     7
100
AcDbLine
 10
699.956909
 20
473.849976
 30
0.0
 11
697.65686
 21
473.849976
 31
0.0
  0
LINE
  5
306
330
1F
100
AcDbEntity
  8
0
 62
     7
100
AcDbLine
 10
699.956909
 20
474.25
 30
0.0
 11
697.65686
 21
474.25
 31
0.0
  0
LINE
  5
307
330
1F
100
AcDbEntity
  8
0
 62
     7
100
AcDbLine
 10
699.956909
 20
474.950012
 30
0.0
 11
697.65686
 21
474.950012
 31
0.0
  0
LINE
  5
308
330
1F
100
AcDbEntity
  8
0
 62
     7
100
AcDbLine
 10
699.956909
 20
475.349976
 30
0.0
 11
697.65686
 21
475.349976
 31
0.0
  0
LINE
  5
309
330
1F
100
AcDbEntity
  8
0
 62
     7
100
AcDbLine
 10
699.956909
 20
476.049988
 30
0.0
 11
697.65686
 21
476.049988
 31
0.0
  0
ARC
  5
30A
330
1F
100
AcDbEntity
  8
0
 62
     7
100
AcDbCircle
 10
697.15686
 20
477.349976
 30
0.0
 40
0.5
100
AcDbArc
 50
8.130103
 51
90.000003
  0
LINE
  5
30B
330
1F
100
AcDbEntity
  8
0
 62
     7
100
AcDbLine
 10
696.65686
 20
476.049988
 30
0.0
 11
400.95694
 21
476.049988
 31
0.0
  0
LINE
  5
30C
330
1F
100
AcDbEntity
  8
0
 62
     7
100
AcDbLine
 10
696.65686
 20
476.450012
 30
0.0
 11
400.95694
 21
476.450012
 31
0.0
  0
LINE
  5
30D
330
1F
100
AcDbEntity
  8
0
 62
     7
100
AcDbLine
 10
696.65686
 20
476.849976
 30
0.0
 11
696.306885
 21
476.849976
 31
0.0
  0
ARC
  5
30E
330
1F
100
AcDbEntity
  8
0
 62
     7
100
AcDbCircle
 10
696.306885
 20
478.349976
 30
0.0
 40
1.5
100
AcDbArc
 50
212.230947
 51
269.999997
  0
LINE
  5
30F
330
1F
100
AcDbEntity
  8
0
 62
     7
100
AcDbLine
 10
695.40686
 20
477.150024
 30
0.0
 11
402.20694
 21
477.150024
 31
0.0
  0
ARC
  5
310
330
1F
100
AcDbEntity
  8
0
 62
     7
100
AcDbCircle
 10
401.306915
 20
478.349976
 30
0.0
 40
1.5
100
AcDbArc
 50
269.999997
 51
314.454478
  0
LINE
  5
311
330
1F
100
AcDbEntity
  8
0
 62
     7
100
AcDbLine
 10
401.306915
 20
476.849976
 30
0.0
 11
400.95694
 21
476.849976
 31
0.0
  0
LINE
  5
312
330
1F
100
AcDbEntity
  8
0
 62
     7
100
AcDbLine
 10
696.65686
 20
469.849976
 30
0.0
 11
400.95694
 21
469.849976
 31
0.0
  0
LINE
  5
313
330
1F
100
AcDbEntity
  8
0
 62
     7
100
AcDbLine
 10
696.65686
 20
470.549988
 30
0.0
 11
400.95694
 21
470.549988
 31
0.0
  0
LINE
  5
314
330
1F
100
AcDbEntity
  8
0
 62
     7
100
AcDbLine
 10
696.65686
 20
470.950012
 30
0.0
 11
400.95694
 21
470.950012
 31
0.0
  0
LINE
  5
315
330
1F
100
AcDbEntity
  8
0
 62
     7
100
AcDbLine
 10
696.65686
 20
471.650024
 30
0.0
 11
400.95694
 21
471.650024
 31
0.0
  0
LINE
  5
316
330
1F
100
AcDbEntity
  8
0
 62
     7
100
AcDbLine
 10
696.65686
 20
472.049988
 30
0.0
 11
400.95694
 21
472.049988
 31
0.0
  0
LINE
  5
317
330
1F
100
AcDbEntity
  8
0
 62
     7
100
AcDbLine
 10
696.65686
 20
472.75
 30
0.0
 11
400.95694
 21
472.75
 31
0.0
  0
LINE
  5
318
330
1F
100
AcDbEntity
  8
0
 62
     7
100
AcDbLine
 10
696.65686
 20
473.150024
 30
0.0
 11
400.95694
 21
473.150024
 31
0.0
  0
LINE
  5
319
330
1F
100
AcDbEntity
  8
0
 62
     7
100
AcDbLine
 10
696.65686
 20
473.849976
 30
0.0
 11
400.95694
 21
473.849976
 31
0.0
  0
LINE
  5
31A
330
1F
100
AcDbEntity
  8
0
 62
     7
100
AcDbLine
 10
696.65686
 20
474.25
 30
0.0
 11
400.95694
 21
474.25
 31
0.0
  0
LINE
  5
31B
330
1F
100
AcDbEntity
  8
0
 62
     7
100
AcDbLine
 10
696.65686
 20
474.950012
 30
0.0
 11
400.95694
 21
474.950012
 31
0.0
  0
LINE
  5
31C
330
1F
100
AcDbEntity
  8
0
 62
     7
100
AcDbLine
 10
696.65686
 20
475.349976
 30
0.0
 11
400.95694
 21
475.349976
 31
0.0
  0
LINE
  5
31D
330
1F
100
AcDbEntity
  8
0
 62
     7
100
AcDbLine
 10
399.95694
 20
477.150024
 30
0.0
 11
397.656952
 21
477.150024
 31
0.0
  0
LINE
  5
31E
330
1F
100
AcDbEntity
  8
0
 62
     7
100
AcDbLine
 10
399.95694
 20
476.450012
 30
0.0
 11
397.656952
 21
476.450012
 31
0.0
  0
ARC
  5
31F
330
1F
100
AcDbEntity
  8
0
 62
     7
100
AcDbCircle
 10
400.45694
 20
477.349976
 30
0.0
 40
0.5
100
AcDbArc
 50
171.869894
 51
180.000009
  0
ARC
  5
320
330
1F
100
AcDbEntity
  8
0
 62
     7
100
AcDbCircle
 10
397.156952
 20
477.349976
 30
0.0
 40
0.5
100
AcDbArc
 50
0.0
 51
8.130103
  0
ARC
  5
321
330
1F
100
AcDbEntity
  8
0
 62
     7
100
AcDbCircle
 10
400.45694
 20
477.349976
 30
0.0
 40
0.5
100
AcDbArc
 50
90.000003
 51
171.869894
  0
LINE
  5
322
330
1F
100
AcDbEntity
  8
0
 62
     7
100
AcDbLine
 10
399.95694
 20
469.849976
 30
0.0
 11
397.656952
 21
469.849976
 31
0.0
  0
LINE
  5
323
330
1F
100
AcDbEntity
  8
0
 62
     7
100
AcDbLine
 10
399.95694
 20
470.549988
 30
0.0
 11
397.656952
 21
470.549988
 31
0.0
  0
LINE
  5
324
330
1F
100
AcDbEntity
  8
0
 62
     7
100
AcDbLine
 10
399.95694
 20
470.950012
 30
0.0
 11
397.656952
 21
470.950012
 31
0.0
  0
LINE
  5
325
330
1F
100
AcDbEntity
  8
0
 62
     7
100
AcDbLine
 10
399.95694
 20
471.650024
 30
0.0
 11
397.656952
 21
471.650024
 31
0.0
  0
LINE
  5
326
330
1F
100
AcDbEntity
  8
0
 62
     7
100
AcDbLine
 10
399.95694
 20
472.049988
 30
0.0
 11
397.656952
 21
472.049988
 31
0.0
  0
LINE
  5
327
330
1F
100
AcDbEntity
  8
0
 62
     7
100
AcDbLine
 10
399.95694
 20
472.75
 30
0.0
 11
397.656952
 21
472.75
 31
0.0
  0
LINE
  5
328
330
1F
100
AcDbEntity
  8
0
 62
     7
100
AcDbLine
 10
399.95694
 20
473.150024
 30
0.0
 11
397.656952
 21
473.150024
 31
0.0
  0
LINE
  5
329
330
1F
100
AcDbEntity
  8
0
 62
     7
100
AcDbLine
 10
399.95694
 20
473.849976
 30
0.0
 11
397.656952
 21
473.849976
 31
0.0
  0
LINE
  5
32A
330
1F
100
AcDbEntity
  8
0
 62
     7
100
AcDbLine
 10
399.95694
 20
474.25
 30
0.0
 11
397.656952
 21
474.25
 31
0.0
  0
LINE
  5
32B
330
1F
100
AcDbEntity
  8
0
 62
     7
100
AcDbLine
 10
399.95694
 20
474.950012
 30
0.0
 11
397.656952
 21
474.950012
 31
0.0
  0
LINE
  5
32C
330
1F
100
AcDbEntity
  8
0
 62
     7
100
AcDbLine
 10
399.95694
 20
475.349976
 30
0.0
 11
397.656952
 21
475.349976
 31
0.0
  0
LINE
  5
32D
330
1F
100
AcDbEntity
  8
0
 62
     7
100
AcDbLine
 10
399.95694
 20
476.049988
 30
0.0
 11
397.656952
 21
476.049988
 31
0.0
  0
ARC
  5
32E
330
1F
100
AcDbEntity
  8
0
 62
     7
100
AcDbCircle
 10
397.156952
 20
477.349976
 30
0.0
 40
0.5
100
AcDbArc
 50
8.130103
 51
90.000003
  0
LINE
  5
32F
330
1F
100
AcDbEntity
  8
0
 62
     7
100
AcDbLine
 10
338.960327
 20
476.17926
 30
0.0
 11
338.998505
 21
476.049988
 31
0.0
  0
LINE
  5
330
330
1F
100
AcDbEntity
  8
0
 62
     7
100
AcDbLine
 10
396.656952
 20
476.049988
 30
0.0
 11
338.998505
 21
476.049988
 31
0.0
  0
LINE
  5
331
330
1F
100
AcDbEntity
  8
0
 62
     7
100
AcDbLine
 10
338.915863
 20
476.320679
 30
0.0
 11
338.960327
 21
476.17926
 31
0.0
  0
LINE
  5
332
330
1F
100
AcDbEntity
  8
0
 62
     7
100
AcDbLine
 10
338.87265
 20
476.450012
 30
0.0
 11
338.915863
 21
476.320679
 31
0.0
  0
LINE
  5
333
330
1F
100
AcDbEntity
  8
0
 62
     7
100
AcDbLine
 10
396.656952
 20
476.450012
 30
0.0
 11
338.87265
 21
476.450012
 31
0.0
  0
ARC
  5
334
330
1F
100
AcDbEntity
  8
0
 62
     7
100
AcDbCircle
 10
331.306915
 20
473.849976
 30
0.0
 40
8.0
100
AcDbArc
 50
18.965574
 51
24.361978
  0
LINE
  5
335
330
1F
100
AcDbEntity
  8
0
 62
     7
100
AcDbLine
 10
396.656952
 20
476.849976
 30
0.0
 11
396.306915
 21
476.849976
 31
0.0
  0
ARC
  5
336
330
1F
100
AcDbEntity
  8
0
 62
     7
100
AcDbCircle
 10
396.306915
 20
478.349976
 30
0.0
 40
1.5
100
AcDbArc
 50
212.230947
 51
269.999997
  0
LINE
  5
337
330
1F
100
AcDbEntity
  8
0
 62
     7
100
AcDbLine
 10
395.406952
 20
477.150024
 30
0.0
 11
338.594574
 21
477.150024
 31
0.0
  0
LINE
  5
338
330
1F
100
AcDbEntity
  8
0
 62
     7
100
AcDbLine
 10
396.656952
 20
469.849976
 30
0.0
 11
338.235138
 21
469.849976
 31
0.0
  0
LINE
  5
339
330
1F
100
AcDbEntity
  8
0
 62
     7
100
AcDbLine
 10
396.656952
 20
470.549988
 30
0.0
 11
338.594574
 21
470.549988
 31
0.0
  0
LINE
  5
33A
330
1F
100
AcDbEntity
  8
0
 62
     7
100
AcDbLine
 10
396.656952
 20
470.950012
 30
0.0
 11
338.762787
 21
470.950012
 31
0.0
  0
LINE
  5
33B
330
1F
100
AcDbEntity
  8
0
 62
     7
100
AcDbLine
 10
396.656952
 20
471.650024
 30
0.0
 11
338.998505
 21
471.650024
 31
0.0
  0
LINE
  5
33C
330
1F
100
AcDbEntity
  8
0
 62
     7
100
AcDbLine
 10
396.656952
 20
472.049988
 30
0.0
 11
339.101807
 21
472.049988
 31
0.0
  0
LINE
  5
33D
330
1F
100
AcDbEntity
  8
0
 62
     7
100
AcDbLine
 10
396.656952
 20
472.75
 30
0.0
 11
339.230927
 21
472.75
 31
0.0
  0
LINE
  5
33E
330
1F
100
AcDbEntity
  8
0
 62
     7
100
AcDbLine
 10
396.656952
 20
473.150024
 30
0.0
 11
339.276245
 21
473.150024
 31
0.0
  0
LINE
  5
33F
330
1F
100
AcDbEntity
  8
0
 62
     7
100
AcDbLine
 10
396.656952
 20
473.849976
 30
0.0
 11
339.306915
 21
473.849976
 31
0.0
  0
LINE
  5
340
330
1F
100
AcDbEntity
  8
0
 62
     7
100
AcDbLine
 10
339.305878
 20
473.979309
 30
0.0
 11
339.306915
 21
473.849976
 31
0.0
  0
LINE
  5
341
330
1F
100
AcDbEntity
  8
0
 62
     7
100
AcDbLine
 10
339.302338
 20
474.120728
 30
0.0
 11
339.305878
 21
473.979309
 31
0.0
  0
LINE
  5
342
330
1F
100
AcDbEntity
  8
0
 62
     7
100
AcDbLine
 10
339.296906
 20
474.25
 30
0.0
 11
339.302338
 21
474.120728
 31
0.0
  0
LINE
  5
343
330
1F
100
AcDbEntity
  8
0
 62
     7
100
AcDbLine
 10
396.656952
 20
474.25
 30
0.0
 11
339.296906
 21
474.25
 31
0.0
  0
ARC
  5
344
330
1F
100
AcDbEntity
  8
0
 62
     7
100
AcDbCircle
 10
331.306915
 20
473.849976
 30
0.0
 40
8.0
100
AcDbArc
 50
2.865984
 51
7.903208
  0
LINE
  5
345
330
1F
100
AcDbEntity
  8
0
 62
     7
100
AcDbLine
 10
396.656952
 20
474.950012
 30
0.0
 11
339.230927
 21
474.950012
 31
0.0
  0
LINE
  5
346
330
1F
100
AcDbEntity
  8
0
 62
     7
100
AcDbLine
 10
339.211914
 20
475.079285
 30
0.0
 11
339.230927
 21
474.950012
 31
0.0
  0
LINE
  5
347
330
1F
100
AcDbEntity
  8
0
 62
     7
100
AcDbLine
 10
339.188629
 20
475.220703
 30
0.0
 11
339.211914
 21
475.079285
 31
0.0
  0
LINE
  5
348
330
1F
100
AcDbEntity
  8
0
 62
     7
100
AcDbLine
 10
339.165039
 20
475.349976
 30
0.0
 11
339.188629
 21
475.220703
 31
0.0
  0
LINE
  5
349
330
1F
100
AcDbEntity
  8
0
 62
     7
100
AcDbLine
 10
396.656952
 20
475.349976
 30
0.0
 11
339.165039
 21
475.349976
 31
0.0
  0
ARC
  5
34A
330
1F
100
AcDbEntity
  8
0
 62
     7
100
AcDbCircle
 10
331.306915
 20
473.849976
 30
0.0
 40
8.0
100
AcDbArc
 50
10.806925
 51
15.962019
  0
LINE
  5
34B
330
1F
100
AcDbEntity
  8
0
 62
     7
100
AcDbLine
 10
324.378723
 20
469.849976
 30
0.0
 11
322.306915
 21
469.849976
 31
0.0
  0
LINE
  5
34C
330
1F
100
AcDbEntity
  8
0
 62
     7
100
AcDbLine
 10
324.019257
 20
470.549988
 30
0.0
 11
322.306915
 21
470.549988
 31
0.0
  0
LINE
  5
34D
330
1F
100
AcDbEntity
  8
0
 62
     7
100
AcDbLine
 10
323.851044
 20
470.950012
 30
0.0
 11
322.306915
 21
470.950012
 31
0.0
  0
LINE
  5
34E
330
1F
100
AcDbEntity
  8
0
 62
     7
100
AcDbLine
 10
323.615387
 20
471.650024
 30
0.0
 11
322.306915
 21
471.650024
 31
0.0
  0
LINE
  5
34F
330
1F
100
AcDbEntity
  8
0
 62
     7
100
AcDbLine
 10
323.512054
 20
472.049988
 30
0.0
 11
322.306915
 21
472.049988
 31
0.0
  0
LINE
  5
350
330
1F
100
AcDbEntity
  8
0
 62
     7
100
AcDbLine
 10
323.382904
 20
472.75
 30
0.0
 11
322.306915
 21
472.75
 31
0.0
  0
LINE
  5
351
330
1F
100
AcDbEntity
  8
0
 62
     7
100
AcDbLine
 10
323.337616
 20
473.150024
 30
0.0
 11
322.306915
 21
473.150024
 31
0.0
  0
LINE
  5
352
330
1F
100
AcDbEntity
  8
0
 62
     7
100
AcDbLine
 10
323.306915
 20
473.849976
 30
0.0
 11
322.306915
 21
473.849976
 31
0.0
  0
LINE
  5
353
330
1F
100
AcDbEntity
  8
0
 62
     7
100
AcDbLine
 10
323.307953
 20
473.979309
 30
0.0
 11
323.306915
 21
473.849976
 31
0.0
  0
LINE
  5
354
330
1F
100
AcDbEntity
  8
0
 62
     7
100
AcDbLine
 10
323.311493
 20
474.120728
 30
0.0
 11
323.307953
 21
473.979309
 31
0.0
  0
LINE
  5
355
330
1F
100
AcDbEntity
  8
0
 62
     7
100
AcDbLine
 10
323.316925
 20
474.25
 30
0.0
 11
323.311493
 21
474.120728
 31
0.0
  0
ARC
  5
356
330
1F
100
AcDbEntity
  8
0
 62
     7
100
AcDbCircle
 10
331.306915
 20
473.849976
 30
0.0
 40
8.0
100
AcDbArc
 50
172.096793
 51
177.134017
  0
LINE
  5
357
330
1F
100
AcDbEntity
  8
0
 62
     7
100
AcDbLine
 10
323.401947
 20
475.079285
 30
0.0
 11
323.382904
 21
474.950012
 31
0.0
  0
LINE
  5
358
330
1F
100
AcDbEntity
  8
0
 62
     7
100
AcDbLine
 10
323.425232
 20
475.220703
 30
0.0
 11
323.401947
 21
475.079285
 31
0.0
  0
LINE
  5
359
330
1F
100
AcDbEntity
  8
0
 62
     7
100
AcDbLine
 10
323.448822
 20
475.349976
 30
0.0
 11
323.425232
 21
475.220703
 31
0.0
  0
ARC
  5
35A
330
1F
100
AcDbEntity
  8
0
 62
     7
100
AcDbCircle
 10
331.306915
 20
473.849976
 30
0.0
 40
8.0
100
AcDbArc
 50
164.03799
 51
169.193075
  0
LINE
  5
35B
330
1F
100
AcDbEntity
  8
0
 62
     7
100
AcDbLine
 10
323.653534
 20
476.17926
 30
0.0
 11
323.615387
 21
476.049988
 31
0.0
  0
LINE
  5
35C
330
1F
100
AcDbEntity
  8
0
 62
     7
100
AcDbLine
 10
323.698029
 20
476.320679
 30
0.0
 11
323.653534
 21
476.17926
 31
0.0
  0
LINE
  5
35D
330
1F
100
AcDbEntity
  8
0
 62
     7
100
AcDbLine
 10
323.741211
 20
476.450012
 30
0.0
 11
323.698029
 21
476.320679
 31
0.0
  0
ARC
  5
35E
330
1F
100
AcDbEntity
  8
0
 62
     7
100
AcDbCircle
 10
331.306915
 20
473.849976
 30
0.0
 40
8.0
100
AcDbArc
 50
155.638018
 51
161.034427
  0
LINE
  5
35F
330
1F
100
AcDbEntity
  8
0
 62
     7
100
AcDbLine
 10
324.079193
 20
477.279297
 30
0.0
 11
324.019257
 21
477.150024
 31
0.0
  0
LINE
  5
360
330
1F
100
AcDbEntity
  8
0
 62
     7
100
AcDbLine
 10
324.148041
 20
477.420715
 30
0.0
 11
324.079193
 21
477.279297
 31
0.0
  0
LINE
  5
361
330
1F
100
AcDbEntity
  8
0
 62
     7
100
AcDbLine
 10
324.213959
 20
477.549988
 30
0.0
 11
324.148041
 21
477.420715
 31
0.0
  0
ARC
  5
362
330
1F
100
AcDbEntity
  8
0
 62
     7
100
AcDbCircle
 10
331.306915
 20
473.849976
 30
0.0
 40
8.0
100
AcDbArc
 50
146.632987
 51
152.451448
  0
LINE
  5
363
330
1F
100
AcDbEntity
  8
0
 62
     7
100
AcDbLine
 10
324.712555
 20
478.379272
 30
0.0
 11
324.62561
 21
478.25
 31
0.0
  0
LINE
  5
364
330
1F
100
AcDbEntity
  8
0
 62
     7
100
AcDbLine
 10
324.811981
 20
478.520691
 30
0.0
 11
324.712555
 21
478.379272
 31
0.0
  0
LINE
  5
365
330
1F
100
AcDbEntity
  8
0
 62
     7
100
AcDbLine
 10
324.906952
 20
478.650024
 30
0.0
 11
324.811981
 21
478.520691
 31
0.0
  0
ARC
  5
366
330
1F
100
AcDbEntity
  8
0
 62
     7
100
AcDbCircle
 10
331.306915
 20
473.849976
 30
0.0
 40
8.0
100
AcDbArc
 50
36.869897
 51
143.130097
  0
LINE
  5
367
330
1F
100
AcDbEntity
  8
0
 62
     7
100
AcDbLine
 10
337.70694
 20
478.650024
 30
0.0
 11
337.80188
 21
478.520691
 31
0.0
  0
LINE
  5
368
330
1F
100
AcDbEntity
  8
0
 62
     7
100
AcDbLine
 10
337.80188
 20
478.520691
 30
0.0
 11
337.901276
 21
478.379272
 31
0.0
  0
LINE
  5
369
330
1F
100
AcDbEntity
  8
0
 62
     7
100
AcDbLine
 10
337.901276
 20
478.379272
 30
0.0
 11
337.988251
 21
478.25
 31
0.0
  0
ARC
  5
36A
330
1F
100
AcDbEntity
  8
0
 62
     7
100
AcDbCircle
 10
331.306915
 20
473.849976
 30
0.0
 40
8.0
100
AcDbArc
 50
27.548547
 51
33.367014
  0
LINE
  5
36B
330
1F
100
AcDbEntity
  8
0
 62
     7
100
AcDbLine
 10
338.399872
 20
477.549988
 30
0.0
 11
338.465851
 21
477.420715
 31
0.0
  0
LINE
  5
36C
330
1F
100
AcDbEntity
  8
0
 62
     7
100
AcDbLine
 10
338.465851
 20
477.420715
 30
0.0
 11
338.534637
 21
477.279297
 31
0.0
  0
LINE
  5
36D
330
1F
100
AcDbEntity
  8
0
 62
     7
100
AcDbLine
 10
338.534637
 20
477.279297
 30
0.0
 11
338.594574
 21
477.150024
 31
0.0
  0
CIRCLE
  5
36E
330
1F
100
AcDbEntity
  8
0
 62
     7
100
AcDbCircle
 10
331.306915
 20
473.849976
 30
0.0
 40
7.5
  0
LINE
  5
36F
330
1F
100
AcDbEntity
  8
0
 62
     7
100
AcDbLine
 10
321.806915
 20
461.849976
 30
0.0
 11
322.306915
 21
461.849976
 31
0.0
  0
LINE
  5
370
330
1F
100
AcDbEntity
  8
0
 62
     7
100
AcDbLine
 10
323.316925
 20
474.25
 30
0.0
 11
322.306915
 21
474.25
 31
0.0
  0
LINE
  5
371
330
1F
100
AcDbEntity
  8
0
 62
     7
100
AcDbLine
 10
323.382904
 20
474.950012
 30
0.0
 11
322.306915
 21
474.950012
 31
0.0
  0
LINE
  5
372
330
1F
100
AcDbEntity
  8
0
 62
     7
100
AcDbLine
 10
323.448822
 20
475.349976
 30
0.0
 11
322.306915
 21
475.349976
 31
0.0
  0
LINE
  5
373
330
1F
100
AcDbEntity
  8
0
 62
     7
100
AcDbLine
 10
323.615387
 20
476.049988
 30
0.0
 11
322.306915
 21
476.049988
 31
0.0
  0
LINE
  5
374
330
1F
100
AcDbEntity
  8
0
 62
     7
100
AcDbLine
 10
323.741211
 20
476.450012
 30
0.0
 11
322.306915
 21
476.450012
 31
0.0
  0
LINE
  5
375
330
1F
100
AcDbEntity
  8
0
 62
     7
100
AcDbLine
 10
324.019257
 20
477.150024
 30
0.0
 11
322.306915
 21
477.150024
 31
0.0
  0
LINE
  5
376
330
1F
100
AcDbEntity
  8
0
 62
     7
100
AcDbLine
 10
324.213959
 20
477.549988
 30
0.0
 11
322.306915
 21
477.549988
 31
0.0
  0
LINE
  5
377
330
1F
100
AcDbEntity
  8
0
 62
     7
100
AcDbLine
 10
324.62561
 20
478.25
 30
0.0
 11
322.306915
 21
478.25
 31
0.0
  0
LINE
  5
378
330
1F
100
AcDbEntity
  8
0
 62
     7
100
AcDbLine
 10
324.906952
 20
478.650024
 30
0.0
 11
322.306915
 21
478.650024
 31
0.0
  0
LINE
  5
379
330
1F
100
AcDbEntity
  8
0
 62
     7
100
AcDbLine
 10
394.806915
 20
478.650024
 30
0.0
 11
337.70694
 21
478.650024
 31
0.0
  0
LINE
  5
37A
330
1F
100
AcDbEntity
  8
0
 62
     7
100
AcDbLine
 10
394.806915
 20
478.650024
 30
0.0
 11
394.806915
 21
483.474243
 31
0.0
  0
LINE
  5
37B
330
1F
100
AcDbEntity
  8
0
 62
     7
100
AcDbLine
 10
394.806915
 20
483.474243
 30
0.0
 11
322.306915
 21
483.474243
 31
0.0
  0
LINE
  5
37C
330
1F
100
AcDbEntity
  8
0
 62
     7
100
AcDbLine
 10
394.806915
 20
483.962158
 30
0.0
 11
394.806915
 21
483.474243
 31
0.0
  0
LINE
  5
37D
330
1F
100
AcDbEntity
  8
0
 62
     7
100
AcDbLine
 10
394.806915
 20
484.049988
 30
0.0
 11
394.806915
 21
483.962158
 31
0.0
  0
LINE
  5
37E
330
1F
100
AcDbEntity
  8
0
 62
     7
100
AcDbLine
 10
1025.807007
 20
456.150024
 30
0.0
 11
1025.807007
 21
455.650024
 31
0.0
  0
LINE
  5
37F
330
1F
100
AcDbEntity
  8
0
 62
     7
100
AcDbLine
 10
1025.807007
 20
483.24292
 30
0.0
 11
1025.807007
 21
456.150024
 31
0.0
  0
LINE
  5
380
330
1F
100
AcDbEntity
  8
0
 62
     7
100
AcDbLine
 10
1025.807007
 20
483.596436
 30
0.0
 11
1025.807007
 21
483.24292
 31
0.0
  0
LINE
  5
381
330
1F
100
AcDbEntity
  8
0
 62
     7
100
AcDbLine
 10
1025.807007
 20
484.281128
 30
0.0
 11
1025.807007
 21
483.596436
 31
0.0
  0
LINE
  5
382
330
1F
100
AcDbEntity
  8
0
 62
     7
100
AcDbLine
 10
952.806885
 20
478.520691
 30
0.0
 11
952.806885
 21
478.650024
 31
0.0
  0
LINE
  5
383
330
1F
100
AcDbEntity
  8
0
 62
     7
100
AcDbLine
 10
952.806885
 20
478.379272
 30
0.0
 11
952.806885
 21
478.520691
 31
0.0
  0
LINE
  5
384
330
1F
100
AcDbEntity
  8
0
 62
     7
100
AcDbLine
 10
952.806885
 20
478.379272
 30
0.0
 11
952.806885
 21
478.349976
 31
0.0
  0
ARC
  5
385
330
1F
100
AcDbEntity
  8
0
 62
     7
100
AcDbCircle
 10
951.306885
 20
478.349976
 30
0.0
 40
1.5
100
AcDbArc
 50
314.454478
 51
356.177454
  0
LINE
  5
386
330
1F
100
AcDbEntity
  8
0
 62
     7
100
AcDbLine
 10
952.803589
 20
478.25
 30
0.0
 11
952.806885
 21
478.349976
 31
0.0
  0
LINE
  5
387
330
1F
100
AcDbEntity
  8
0
 62
     7
100
AcDbLine
 10
950.456909
 20
477.849976
 30
0.0
 11
951.306885
 21
477.849976
 31
0.0
  0
ARC
  5
388
330
1F
100
AcDbEntity
  8
0
 62
     7
100
AcDbCircle
 10
951.306885
 20
478.349976
 30
0.0
 40
0.5
100
AcDbArc
 50
269.999997
 51
360.0
  0
LINE
  5
389
330
1F
100
AcDbEntity
  8
0
 62
     7
100
AcDbLine
 10
951.806885
 20
478.650024
 30
0.0
 11
951.806885
 21
483.474243
 31
0.0
  0
LINE
  5
38A
330
1F
100
AcDbEntity
  8
0
 62
     7
100
AcDbLine
 10
951.806885
 20
483.962158
 30
0.0
 11
951.806885
 21
483.474243
 31
0.0
  0
LINE
  5
38B
330
1F
100
AcDbEntity
  8
0
 62
     7
100
AcDbLine
 10
951.806885
 20
484.049988
 30
0.0
 11
951.806885
 21
483.962158
 31
0.0
  0
LINE
  5
38C
330
1F
100
AcDbEntity
  8
0
 62
     7
100
AcDbLine
 10
951.806885
 20
478.379272
 30
0.0
 11
951.806885
 21
478.349976
 31
0.0
  0
LINE
  5
38D
330
1F
100
AcDbEntity
  8
0
 62
     7
100
AcDbLine
 10
951.806885
 20
478.520691
 30
0.0
 11
951.806885
 21
478.379272
 31
0.0
  0
LINE
  5
38E
330
1F
100
AcDbEntity
  8
0
 62
     7
100
AcDbLine
 10
951.806885
 20
478.520691
 30
0.0
 11
951.806885
 21
478.650024
 31
0.0
  0
LINE
  5
38F
330
1F
100
AcDbEntity
  8
0
 62
     7
100
AcDbLine
 10
945.806885
 20
483.962158
 30
0.0
 11
945.806885
 21
484.049988
 31
0.0
  0
LINE
  5
390
330
1F
100
AcDbEntity
  8
0
 62
     7
100
AcDbLine
 10
945.806885
 20
483.962158
 30
0.0
 11
945.806885
 21
483.474243
 31
0.0
  0
LINE
  5
391
330
1F
100
AcDbEntity
  8
0
 62
     7
100
AcDbLine
 10
945.806885
 20
478.650024
 30
0.0
 11
945.806885
 21
483.474243
 31
0.0
  0
LINE
  5
392
330
1F
100
AcDbEntity
  8
0
 62
     7
100
AcDbLine
 10
945.806885
 20
478.520691
 30
0.0
 11
945.806885
 21
478.650024
 31
0.0
  0
LINE
  5
393
330
1F
100
AcDbEntity
  8
0
 62
     7
100
AcDbLine
 10
945.806885
 20
478.379272
 30
0.0
 11
945.806885
 21
478.520691
 31
0.0
  0
LINE
  5
394
330
1F
100
AcDbEntity
  8
0
 62
     7
100
AcDbLine
 10
945.806885
 20
478.379272
 30
0.0
 11
945.806885
 21
478.349976
 31
0.0
  0
ARC
  5
395
330
1F
100
AcDbEntity
  8
0
 62
     7
100
AcDbCircle
 10
946.306885
 20
478.349976
 30
0.0
 40
0.5
100
AcDbArc
 50
180.000009
 51
269.999997
  0
LINE
  5
396
330
1F
100
AcDbEntity
  8
0
 62
     7
100
AcDbLine
 10
946.306885
 20
477.849976
 30
0.0
 11
947.15686
 21
477.849976
 31
0.0
  0
ARC
  5
397
330
1F
100
AcDbEntity
  8
0
 62
     7
100
AcDbCircle
 10
946.306885
 20
478.349976
 30
0.0
 40
1.5
100
AcDbArc
 50
183.822551
 51
212.230947
  0
LINE
  5
398
330
1F
100
AcDbEntity
  8
0
 62
     7
100
AcDbLine
 10
944.810303
 20
478.25
 30
0.0
 11
944.806885
 21
478.349976
 31
0.0
  0
LINE
  5
399
330
1F
100
AcDbEntity
  8
0
 62
     7
100
AcDbLine
 10
944.806885
 20
478.650024
 30
0.0
 11
944.806885
 21
483.474243
 31
0.0
  0
LINE
  5
39A
330
1F
100
AcDbEntity
  8
0
 62
     7
100
AcDbLine
 10
944.806885
 20
483.962158
 30
0.0
 11
944.806885
 21
483.474243
 31
0.0
  0
LINE
  5
39B
330
1F
100
AcDbEntity
  8
0
 62
     7
100
AcDbLine
 10
944.806885
 20
484.049988
 30
0.0
 11
944.806885
 21
483.962158
 31
0.0
  0
LINE
  5
39C
330
1F
100
AcDbEntity
  8
0
 62
     7
100
AcDbLine
 10
944.806885
 20
478.379272
 30
0.0
 11
944.806885
 21
478.349976
 31
0.0
  0
LINE
  5
39D
330
1F
100
AcDbEntity
  8
0
 62
     7
100
AcDbLine
 10
944.806885
 20
478.520691
 30
0.0
 11
944.806885
 21
478.379272
 31
0.0
  0
LINE
  5
39E
330
1F
100
AcDbEntity
  8
0
 62
     7
100
AcDbLine
 10
944.806885
 20
478.520691
 30
0.0
 11
944.806885
 21
478.650024
 31
0.0
  0
LINE
  5
39F
330
1F
100
AcDbEntity
  8
0
 62
     7
100
AcDbLine
 10
702.806885
 20
483.962158
 30
0.0
 11
702.806885
 21
484.049988
 31
0.0
  0
LINE
  5
3A0
330
1F
100
AcDbEntity
  8
0
 62
     7
100
AcDbLine
 10
702.806885
 20
483.962158
 30
0.0
 11
702.806885
 21
483.474243
 31
0.0
  0
LINE
  5
3A1
330
1F
100
AcDbEntity
  8
0
 62
     7
100
AcDbLine
 10
702.806885
 20
478.650024
 30
0.0
 11
702.806885
 21
483.474243
 31
0.0
  0
LINE
  5
3A2
330
1F
100
AcDbEntity
  8
0
 62
     7
100
AcDbLine
 10
702.806885
 20
478.520691
 30
0.0
 11
702.806885
 21
478.650024
 31
0.0
  0
LINE
  5
3A3
330
1F
100
AcDbEntity
  8
0
 62
     7
100
AcDbLine
 10
702.806885
 20
478.379272
 30
0.0
 11
702.806885
 21
478.520691
 31
0.0
  0
LINE
  5
3A4
330
1F
100
AcDbEntity
  8
0
 62
     7
100
AcDbLine
 10
702.806885
 20
478.379272
 30
0.0
 11
702.806885
 21
478.349976
 31
0.0
  0
ARC
  5
3A5
330
1F
100
AcDbEntity
  8
0
 62
     7
100
AcDbCircle
 10
701.306885
 20
478.349976
 30
0.0
 40
1.5
100
AcDbArc
 50
314.454478
 51
356.177454
  0
LINE
  5
3A6
330
1F
100
AcDbEntity
  8
0
 62
     7
100
AcDbLine
 10
702.803589
 20
478.25
 30
0.0
 11
702.806885
 21
478.349976
 31
0.0
  0
LINE
  5
3A7
330
1F
100
AcDbEntity
  8
0
 62
     7
100
AcDbLine
 10
700.456909
 20
477.849976
 30
0.0
 11
701.306885
 21
477.849976
 31
0.0
  0
ARC
  5
3A8
330
1F
100
AcDbEntity
  8
0
 62
     7
100
AcDbCircle
 10
701.306885
 20
478.349976
 30
0.0
 40
0.5
100
AcDbArc
 50
269.999997
 51
360.0
  0
LINE
  5
3A9
330
1F
100
AcDbEntity
  8
0
 62
     7
100
AcDbLine
 10
701.806885
 20
478.650024
 30
0.0
 11
701.806885
 21
483.474243
 31
0.0
  0
LINE
  5
3AA
330
1F
100
AcDbEntity
  8
0
 62
     7
100
AcDbLine
 10
701.806885
 20
483.962158
 30
0.0
 11
701.806885
 21
483.474243
 31
0.0
  0
LINE
  5
3AB
330
1F
100
AcDbEntity
  8
0
 62
     7
100
AcDbLine
 10
701.806885
 20
484.049988
 30
0.0
 11
701.806885
 21
483.962158
 31
0.0
  0
LINE
  5
3AC
330
1F
100
AcDbEntity
  8
0
 62
     7
100
AcDbLine
 10
701.806885
 20
478.379272
 30
0.0
 11
701.806885
 21
478.349976
 31
0.0
  0
LINE
  5
3AD
330
1F
100
AcDbEntity
  8
0
 62
     7
100
AcDbLine
 10
701.806885
 20
478.520691
 30
0.0
 11
701.806885
 21
478.379272
 31
0.0
  0
LINE
  5
3AE
330
1F
100
AcDbEntity
  8
0
 62
     7
100
AcDbLine
 10
701.806885
 20
478.520691
 30
0.0
 11
701.806885
 21
478.650024
 31
0.0
  0
LINE
  5
3AF
330
1F
100
AcDbEntity
  8
0
 62
     7
100
AcDbLine
 10
695.806885
 20
483.962158
 30
0.0
 11
695.806885
 21
484.049988
 31
0.0
  0
LINE
  5
3B0
330
1F
100
AcDbEntity
  8
0
 62
     7
100
AcDbLine
 10
695.806885
 20
483.962158
 30
0.0
 11
695.806885
 21
483.474243
 31
0.0
  0
LINE
  5
3B1
330
1F
100
AcDbEntity
  8
0
 62
     7
100
AcDbLine
 10
695.806885
 20
478.650024
 30
0.0
 11
695.806885
 21
483.474243
 31
0.0
  0
LINE
  5
3B2
330
1F
100
AcDbEntity
  8
0
 62
     7
100
AcDbLine
 10
695.806885
 20
478.520691
 30
0.0
 11
695.806885
 21
478.650024
 31
0.0
  0
LINE
  5
3B3
330
1F
100
AcDbEntity
  8
0
 62
     7
100
AcDbLine
 10
695.806885
 20
478.379272
 30
0.0
 11
695.806885
 21
478.520691
 31
0.0
  0
LINE
  5
3B4
330
1F
100
AcDbEntity
  8
0
 62
     7
100
AcDbLine
 10
695.806885
 20
478.379272
 30
0.0
 11
695.806885
 21
478.349976
 31
0.0
  0
ARC
  5
3B5
330
1F
100
AcDbEntity
  8
0
 62
     7
100
AcDbCircle
 10
696.306885
 20
478.349976
 30
0.0
 40
0.5
100
AcDbArc
 50
180.000009
 51
269.999997
  0
LINE
  5
3B6
330
1F
100
AcDbEntity
  8
0
 62
     7
100
AcDbLine
 10
696.306885
 20
477.849976
 30
0.0
 11
697.15686
 21
477.849976
 31
0.0
  0
ARC
  5
3B7
330
1F
100
AcDbEntity
  8
0
 62
     7
100
AcDbCircle
 10
696.306885
 20
478.349976
 30
0.0
 40
1.5
100
AcDbArc
 50
183.822551
 51
212.230947
  0
LINE
  5
3B8
330
1F
100
AcDbEntity
  8
0
 62
     7
100
AcDbLine
 10
694.810181
 20
478.25
 30
0.0
 11
694.806885
 21
478.349976
 31
0.0
  0
LINE
  5
3B9
330
1F
100
AcDbEntity
  8
0
 62
     7
100
AcDbLine
 10
694.806885
 20
478.650024
 30
0.0
 11
694.806885
 21
483.474243
 31
0.0
  0
LINE
  5
3BA
330
1F
100
AcDbEntity
  8
0
 62
     7
100
AcDbLine
 10
694.806885
 20
483.962158
 30
0.0
 11
694.806885
 21
483.474243
 31
0.0
  0
LINE
  5
3BB
330
1F
100
AcDbEntity
  8
0
 62
     7
100
AcDbLine
 10
694.806885
 20
484.049988
 30
0.0
 11
694.806885
 21
483.962158
 31
0.0
  0
LINE
  5
3BC
330
1F
100
AcDbEntity
  8
0
 62
     7
100
AcDbLine
 10
694.806885
 20
478.379272
 30
0.0
 11
694.806885
 21
478.349976
 31
0.0
  0
LINE
  5
3BD
330
1F
100
AcDbEntity
  8
0
 62
     7
100
AcDbLine
 10
694.806885
 20
478.520691
 30
0.0
 11
694.806885
 21
478.379272
 31
0.0
  0
LINE
  5
3BE
330
1F
100
AcDbEntity
  8
0
 62
     7
100
AcDbLine
 10
694.806885
 20
478.520691
 30
0.0
 11
694.806885
 21
478.650024
 31
0.0
  0
LINE
  5
3BF
330
1F
100
AcDbEntity
  8
0
 62
     7
100
AcDbLine
 10
402.806915
 20
483.962158
 30
0.0
 11
402.806915
 21
484.049988
 31
0.0
  0
LINE
  5
3C0
330
1F
100
AcDbEntity
  8
0
 62
     7
100
AcDbLine
 10
402.806915
 20
483.962158
 30
0.0
 11
402.806915
 21
483.474243
 31
0.0
  0
LINE
  5
3C1
330
1F
100
AcDbEntity
  8
0
 62
     7
100
AcDbLine
 10
402.806915
 20
478.650024
 30
0.0
 11
402.806915
 21
483.474243
 31
0.0
  0
LINE
  5
3C2
330
1F
100
AcDbEntity
  8
0
 62
     7
100
AcDbLine
 10
402.806915
 20
478.520691
 30
0.0
 11
402.806915
 21
478.650024
 31
0.0
  0
LINE
  5
3C3
330
1F
100
AcDbEntity
  8
0
 62
     7
100
AcDbLine
 10
402.806915
 20
478.379272
 30
0.0
 11
402.806915
 21
478.520691
 31
0.0
  0
LINE
  5
3C4
330
1F
100
AcDbEntity
  8
0
 62
     7
100
AcDbLine
 10
402.806915
 20
478.379272
 30
0.0
 11
402.806915
 21
478.349976
 31
0.0
  0
ARC
  5
3C5
330
1F
100
AcDbEntity
  8
0
 62
     7
100
AcDbCircle
 10
401.306915
 20
478.349976
 30
0.0
 40
1.5
100
AcDbArc
 50
314.454478
 51
356.177454
  0
LINE
  5
3C6
330
1F
100
AcDbEntity
  8
0
 62
     7
100
AcDbLine
 10
402.803619
 20
478.25
 30
0.0
 11
402.806915
 21
478.349976
 31
0.0
  0
LINE
  5
3C7
330
1F
100
AcDbEntity
  8
0
 62
     7
100
AcDbLine
 10
400.45694
 20
477.849976
 30
0.0
 11
401.306915
 21
477.849976
 31
0.0
  0
ARC
  5
3C8
330
1F
100
AcDbEntity
  8
0
 62
     7
100
AcDbCircle
 10
401.306915
 20
478.349976
 30
0.0
 40
0.5
100
AcDbArc
 50
269.999997
 51
360.0
  0
LINE
  5
3C9
330
1F
100
AcDbEntity
  8
0
 62
     7
100
AcDbLine
 10
401.806915
 20
478.650024
 30
0.0
 11
401.806915
 21
483.474243
 31
0.0
  0
LINE
  5
3CA
330
1F
100
AcDbEntity
  8
0
 62
     7
100
AcDbLine
 10
401.806915
 20
483.962158
 30
0.0
 11
401.806915
 21
483.474243
 31
0.0
  0
LINE
  5
3CB
330
1F
100
AcDbEntity
  8
0
 62
     7
100
AcDbLine
 10
401.806915
 20
484.049988
 30
0.0
 11
401.806915
 21
483.962158
 31
0.0
  0
LINE
  5
3CC
330
1F
100
AcDbEntity
  8
0
 62
     7
100
AcDbLine
 10
401.806915
 20
478.379272
 30
0.0
 11
401.806915
 21
478.349976
 31
0.0
  0
LINE
  5
3CD
330
1F
100
AcDbEntity
  8
0
 62
     7
100
AcDbLine
 10
401.806915
 20
478.520691
 30
0.0
 11
401.806915
 21
478.379272
 31
0.0
  0
LINE
  5
3CE
330
1F
100
AcDbEntity
  8
0
 62
     7
100
AcDbLine
 10
401.806915
 20
478.520691
 30
0.0
 11
401.806915
 21
478.650024
 31
0.0
  0
LINE
  5
3CF
330
1F
100
AcDbEntity
  8
0
 62
     7
100
AcDbLine
 10
395.806915
 20
483.962158
 30
0.0
 11
395.806915
 21
484.049988
 31
0.0
  0
LINE
  5
3D0
330
1F
100
AcDbEntity
  8
0
 62
     7
100
AcDbLine
 10
395.806915
 20
483.962158
 30
0.0
 11
395.806915
 21
483.474243
 31
0.0
  0
LINE
  5
3D1
330
1F
100
AcDbEntity
  8
0
 62
     7
100
AcDbLine
 10
395.806915
 20
478.650024
 30
0.0
 11
395.806915
 21
483.474243
 31
0.0
  0
LINE
  5
3D2
330
1F
100
AcDbEntity
  8
0
 62
     7
100
AcDbLine
 10
395.806915
 20
478.520691
 30
0.0
 11
395.806915
 21
478.650024
 31
0.0
  0
LINE
  5
3D3
330
1F
100
AcDbEntity
  8
0
 62
     7
100
AcDbLine
 10
395.806915
 20
478.379272
 30
0.0
 11
395.806915
 21
478.520691
 31
0.0
  0
LINE
  5
3D4
330
1F
100
AcDbEntity
  8
0
 62
     7
100
AcDbLine
 10
395.806915
 20
478.379272
 30
0.0
 11
395.806915
 21
478.349976
 31
0.0
  0
ARC
  5
3D5
330
1F
100
AcDbEntity
  8
0
 62
     7
100
AcDbCircle
 10
396.306915
 20
478.349976
 30
0.0
 40
0.5
100
AcDbArc
 50
180.000009
 51
269.999997
  0
LINE
  5
3D6
330
1F
100
AcDbEntity
  8
0
 62
     7
100
AcDbLine
 10
396.306915
 20
477.849976
 30
0.0
 11
397.156952
 21
477.849976
 31
0.0
  0
ARC
  5
3D7
330
1F
100
AcDbEntity
  8
0
 62
     7
100
AcDbCircle
 10
396.306915
 20
478.349976
 30
0.0
 40
1.5
100
AcDbArc
 50
183.822551
 51
212.230947
  0
LINE
  5
3D8
330
1F
100
AcDbEntity
  8
0
 62
     7
100
AcDbLine
 10
394.810272
 20
478.25
 30
0.0
 11
394.806915
 21
478.349976
 31
0.0
  0
LINE
  5
3D9
330
1F
100
AcDbEntity
  8
0
 62
     7
100
AcDbLine
 10
394.806915
 20
478.379272
 30
0.0
 11
394.806915
 21
478.349976
 31
0.0
  0
LINE
  5
3DA
330
1F
100
AcDbEntity
  8
0
 62
     7
100
AcDbLine
 10
394.806915
 20
478.520691
 30
0.0
 11
394.806915
 21
478.379272
 31
0.0
  0
LINE
  5
3DB
330
1F
100
AcDbEntity
  8
0
 62
     7
100
AcDbLine
 10
394.806915
 20
478.520691
 30
0.0
 11
394.806915
 21
478.650024
 31
0.0
  0
LINE
  5
3DC
330
1F
100
AcDbEntity
  8
0
 62
     7
100
AcDbLine
 10
321.806915
 20
483.596436
 30
0.0
 11
321.806915
 21
484.281128
 31
0.0
  0
LINE
  5
3DD
330
1F
100
AcDbEntity
  8
0
 62
     7
100
AcDbLine
 10
321.806915
 20
483.24292
 30
0.0
 11
321.806915
 21
483.596436
 31
0.0
  0
LINE
  5
3DE
330
1F
100
AcDbEntity
  8
0
 62
     7
100
AcDbLine
 10
321.806915
 20
456.150024
 30
0.0
 11
321.806915
 21
483.24292
 31
0.0
  0
LINE
  5
3DF
330
1F
100
AcDbEntity
  8
0
 62
     7
100
AcDbLine
 10
321.806915
 20
455.650024
 30
0.0
 11
321.806915
 21
456.150024
 31
0.0
  0
LINE
  5
3E0
330
1F
100
AcDbEntity
  8
0
 62
     7
100
AcDbLine
 10
1025.807007
 20
486.849976
 30
0.0
 11
1025.807007
 21
484.281128
 31
0.0
  0
LINE
  5
3E1
330
1F
100
AcDbEntity
  8
0
 62
     7
100
AcDbLine
 10
321.806915
 20
486.849976
 30
0.0
 11
1025.807007
 21
486.849976
 31
0.0
  0
LINE
  5
3E2
330
1F
100
AcDbEntity
  8
0
 62
     7
100
AcDbLine
 10
321.806915
 20
486.849976
 30
0.0
 11
321.806915
 21
484.281128
 31
0.0
  0
LINE
  5
3E3
330
1F
100
AcDbEntity
  8
0
 62
     7
100
AcDbLine
 10
1025.807007
 20
457.349976
 30
0.0
 11
1025.307007
 21
457.349976
 31
0.0
  0
LINE
  5
3E4
330
1F
100
AcDbEntity
  8
0
 62
     7
100
AcDbLine
 10
1009.213989
 20
477.549988
 30
0.0
 11
952.575806
 21
477.549988
 31
0.0
  0
LINE
  5
3E5
330
1F
100
AcDbEntity
  8
0
 62
     7
100
AcDbLine
 10
1009.62561
 20
478.25
 30
0.0
 11
952.803589
 21
478.25
 31
0.0
  0
LINE
  5
3E6
330
1F
100
AcDbEntity
  8
0
 62
     7
100
AcDbLine
 10
949.998657
 20
477.549988
 30
0.0
 11
947.615112
 21
477.549988
 31
0.0
  0
LINE
  5
3E7
330
1F
100
AcDbEntity
  8
0
 62
     7
100
AcDbLine
 10
951.796753
 20
478.25
 30
0.0
 11
949.701294
 21
478.25
 31
0.0
  0
ARC
  5
3E8
330
1F
100
AcDbEntity
  8
0
 62
     7
100
AcDbCircle
 10
948.806885
 20
480.150024
 30
0.0
 40
2.099999904632568
100
AcDbArc
 50
237.479124
 51
295.208757
  0
LINE
  5
3E9
330
1F
100
AcDbEntity
  8
0
 62
     7
100
AcDbLine
 10
947.912476
 20
478.25
 30
0.0
 11
945.817017
 21
478.25
 31
0.0
  0
LINE
  5
3EA
330
1F
100
AcDbEntity
  8
0
 62
     7
100
AcDbLine
 10
699.998657
 20
477.549988
 30
0.0
 11
697.615112
 21
477.549988
 31
0.0
  0
LINE
  5
3EB
330
1F
100
AcDbEntity
  8
0
 62
     7
100
AcDbLine
 10
701.796753
 20
478.25
 30
0.0
 11
699.701294
 21
478.25
 31
0.0
  0
ARC
  5
3EC
330
1F
100
AcDbEntity
  8
0
 62
     7
100
AcDbCircle
 10
698.806885
 20
480.150024
 30
0.0
 40
2.099999904632568
100
AcDbArc
 50
237.479124
 51
295.208757
  0
LINE
  5
3ED
330
1F
100
AcDbEntity
  8
0
 62
     7
100
AcDbLine
 10
697.912476
 20
478.25
 30
0.0
 11
695.817017
 21
478.25
 31
0.0
  0
LINE
  5
3EE
330
1F
100
AcDbEntity
  8
0
 62
     7
100
AcDbLine
 10
399.998688
 20
477.549988
 30
0.0
 11
397.615204
 21
477.549988
 31
0.0
  0
LINE
  5
3EF
330
1F
100
AcDbEntity
  8
0
 62
     7
100
AcDbLine
 10
397.912506
 20
478.25
 30
0.0
 11
395.817047
 21
478.25
 31
0.0
  0
LINE
  5
3F0
330
1F
100
AcDbEntity
  8
0
 62
     7
100
AcDbLine
 10
401.796844
 20
478.25
 30
0.0
 11
399.701324
 21
478.25
 31
0.0
  0
ARC
  5
3F1
330
1F
100
AcDbEntity
  8
0
 62
     7
100
AcDbCircle
 10
398.806915
 20
480.150024
 30
0.0
 40
2.099999904632568
100
AcDbArc
 50
237.479124
 51
295.208757
  0
LINE
  5
3F2
330
1F
100
AcDbEntity
  8
0
 62
     7
100
AcDbLine
 10
394.810272
 20
478.25
 30
0.0
 11
337.988251
 21
478.25
 31
0.0
  0
LINE
  5
3F3
330
1F
100
AcDbEntity
  8
0
 62
     7
100
AcDbLine
 10
395.038055
 20
477.549988
 30
0.0
 11
338.399872
 21
477.549988
 31
0.0
  0
LINE
  5
3F4
330
1F
100
AcDbEntity
  8
0
 62
     7
100
AcDbLine
 10
321.806915
 20
457.349976
 30
0.0
 11
322.306915
 21
457.349976
 31
0.0
  0
LINE
  5
3F5
330
1F
100
AcDbEntity
  8
0
 62
     7
100
AcDbLine
 10
946.494385
 20
457.180359
 30
0.0
 11
947.794434
 21
460.680359
 31
0.0
  0
ARC
  5
3F6
330
1F
100
AcDbEntity
  8
0
 62
     7
100
AcDbCircle
 10
946.306885
 20
457.25
 30
0.0
 40
0.2000000029802322
100
AcDbArc
 50
200.37643
 51
339.623562
  0
LINE
  5
3F7
330
1F
100
AcDbEntity
  8
0
 62
     7
100
AcDbLine
 10
944.819458
 20
460.680359
 30
0.0
 11
946.119385
 21
457.180359
 31
0.0
  0
ARC
  5
3F8
330
1F
100
AcDbEntity
  8
0
 62
     7
100
AcDbCircle
 10
945.006958
 20
460.75
 30
0.0
 40
0.2000000029802322
100
AcDbArc
 50
90.000003
 51
200.37643
  0
LINE
  5
3F9
330
1F
100
AcDbEntity
  8
0
 62
     7
100
AcDbLine
 10
947.606934
 20
460.950012
 30
0.0
 11
945.006958
 21
460.950012
 31
0.0
  0
ARC
  5
3FA
330
1F
100
AcDbEntity
  8
0
 62
     7
100
AcDbCircle
 10
947.606934
 20
460.75
 30
0.0
 40
0.2000000029802322
100
AcDbArc
 50
339.623562
 51
90.000003
  0
LINE
  5
3FB
330
1F
100
AcDbEntity
  8
0
 62
     7
100
AcDbLine
 10
376.494415
 20
457.180359
 30
0.0
 11
377.794403
 21
460.680359
 31
0.0
  0
ARC
  5
3FC
330
1F
100
AcDbEntity
  8
0
 62
     7
100
AcDbCircle
 10
376.306915
 20
457.25
 30
0.0
 40
0.2000000029802322
100
AcDbArc
 50
200.37643
 51
339.623562
  0
LINE
  5
3FD
330
1F
100
AcDbEntity
  8
0
 62
     7
100
AcDbLine
 10
374.819427
 20
460.680359
 30
0.0
 11
376.119446
 21
457.180359
 31
0.0
  0
ARC
  5
3FE
330
1F
100
AcDbEntity
  8
0
 62
     7
100
AcDbCircle
 10
375.006927
 20
460.75
 30
0.0
 40
0.2000000029802322
100
AcDbArc
 50
90.000003
 51
200.37643
  0
LINE
  5
3FF
330
1F
100
AcDbEntity
  8
0
 62
     7
100
AcDbLine
 10
377.606934
 20
460.950012
 30
0.0
 11
375.006927
 21
460.950012
 31
0.0
  0
ARC
  5
400
330
1F
100
AcDbEntity
  8
0
 62
     7
100
AcDbCircle
 10
377.606934
 20
460.75
 30
0.0
 40
0.2000000029802322
100
AcDbArc
 50
339.623562
 51
90.000003
  0
LINE
  5
401
330
1F
100
AcDbEntity
  8
0
 62
     7
100
AcDbLine
 10
1026.807007
 20
455.650024
 30
0.0
 11
1025.807007
 21
455.650024
 31
0.0
  0
LINE
  5
402
330
1F
100
AcDbEntity
  8
0
 62
     7
100
AcDbLine
 10
1025.307007
 20
455.849976
 30
0.0
 11
1025.807007
 21
455.849976
 31
0.0
  0
LINE
  5
403
330
1F
100
AcDbEntity
  8
0
 62
     7
100
AcDbLine
 10
949.701294
 20
478.25
 30
0.0
 11
949.813721
 21
478.307068
 31
0.0
  0
ARC
  5
404
330
1F
100
AcDbEntity
  8
0
 62
     7
100
AcDbCircle
 10
948.806885
 20
480.150024
 30
0.0
 40
2.099999904632568
100
AcDbArc
 50
298.647887
 51
314.415304
  0
LINE
  5
405
330
1F
100
AcDbEntity
  8
0
 62
     7
100
AcDbLine
 10
947.33728
 20
478.650024
 30
0.0
 11
945.806885
 21
478.650024
 31
0.0
  0
ARC
  5
406
330
1F
100
AcDbEntity
  8
0
 62
     7
100
AcDbCircle
 10
948.806885
 20
480.150024
 30
0.0
 40
2.099999904632568
100
AcDbArc
 50
314.415304
 51
237.479124
  0
LINE
  5
407
330
1F
100
AcDbEntity
  8
0
 62
     7
100
AcDbLine
 10
951.806885
 20
478.650024
 30
0.0
 11
950.276611
 21
478.650024
 31
0.0
  0
LINE
  5
408
330
1F
100
AcDbEntity
  8
0
 62
     7
100
AcDbLine
 10
951.806885
 20
483.474243
 30
0.0
 11
945.806885
 21
483.474243
 31
0.0
  0
LINE
  5
409
330
1F
100
AcDbEntity
  8
0
 62
     7
100
AcDbLine
 10
944.810303
 20
478.25
 30
0.0
 11
702.803589
 21
478.25
 31
0.0
  0
LINE
  5
40A
330
1F
100
AcDbEntity
  8
0
 62
     7
100
AcDbLine
 10
945.038086
 20
477.549988
 30
0.0
 11
702.575806
 21
477.549988
 31
0.0
  0
LINE
  5
40B
330
1F
100
AcDbEntity
  8
0
 62
     7
100
AcDbLine
 10
944.806885
 20
478.650024
 30
0.0
 11
702.806885
 21
478.650024
 31
0.0
  0
LINE
  5
40C
330
1F
100
AcDbEntity
  8
0
 62
     7
100
AcDbLine
 10
944.806885
 20
483.474243
 30
0.0
 11
702.806885
 21
483.474243
 31
0.0
  0
LINE
  5
40D
330
1F
100
AcDbEntity
  8
0
 62
     7
100
AcDbLine
 10
699.701294
 20
478.25
 30
0.0
 11
699.813721
 21
478.307068
 31
0.0
  0
ARC
  5
40E
330
1F
100
AcDbEntity
  8
0
 62
     7
100
AcDbCircle
 10
698.806885
 20
480.150024
 30
0.0
 40
2.099999904632568
100
AcDbArc
 50
298.647887
 51
314.415304
  0
ARC
  5
40F
330
1F
100
AcDbEntity
  8
0
 62
     7
100
AcDbCircle
 10
698.806885
 20
480.150024
 30
0.0
 40
2.099999904632568
100
AcDbArc
 50
314.415304
 51
237.479124
  0
LINE
  5
410
330
1F
100
AcDbEntity
  8
0
 62
     7
100
AcDbLine
 10
701.806885
 20
478.650024
 30
0.0
 11
700.276611
 21
478.650024
 31
0.0
  0
LINE
  5
411
330
1F
100
AcDbEntity
  8
0
 62
     7
100
AcDbLine
 10
701.806885
 20
483.474243
 30
0.0
 11
695.806885
 21
483.474243
 31
0.0
  0
LINE
  5
412
330
1F
100
AcDbEntity
  8
0
 62
     7
100
AcDbLine
 10
697.337158
 20
478.650024
 30
0.0
 11
695.806885
 21
478.650024
 31
0.0
  0
LINE
  5
413
330
1F
100
AcDbEntity
  8
0
 62
     7
100
AcDbLine
 10
694.810181
 20
478.25
 30
0.0
 11
402.803619
 21
478.25
 31
0.0
  0
LINE
  5
414
330
1F
100
AcDbEntity
  8
0
 62
     7
100
AcDbLine
 10
695.038086
 20
477.549988
 30
0.0
 11
402.575775
 21
477.549988
 31
0.0
  0
LINE
  5
415
330
1F
100
AcDbEntity
  8
0
 62
     7
100
AcDbLine
 10
694.806885
 20
478.650024
 30
0.0
 11
402.806915
 21
478.650024
 31
0.0
  0
LINE
  5
416
330
1F
100
AcDbEntity
  8
0
 62
     7
100
AcDbLine
 10
694.806885
 20
483.474243
 30
0.0
 11
402.806915
 21
483.474243
 31
0.0
  0
LINE
  5
417
330
1F
100
AcDbEntity
  8
0
 62
     7
100
AcDbLine
 10
399.701324
 20
478.25
 30
0.0
 11
399.81369
 21
478.307068
 31
0.0
  0
ARC
  5
418
330
1F
100
AcDbEntity
  8
0
 62
     7
100
AcDbCircle
 10
398.806915
 20
480.150024
 30
0.0
 40
2.099999904632568
100
AcDbArc
 50
298.647887
 51
314.415304
  0
LINE
  5
419
330
1F
100
AcDbEntity
  8
0
 62
     7
100
AcDbLine
 10
401.806915
 20
483.474243
 30
0.0
 11
395.806915
 21
483.474243
 31
0.0
  0
LINE
  5
41A
330
1F
100
AcDbEntity
  8
0
 62
     7
100
AcDbLine
 10
397.33725
 20
478.650024
 30
0.0
 11
395.806915
 21
478.650024
 31
0.0
  0
ARC
  5
41B
330
1F
100
AcDbEntity
  8
0
 62
     7
100
AcDbCircle
 10
398.806915
 20
480.150024
 30
0.0
 40
2.099999904632568
100
AcDbArc
 50
314.415304
 51
237.479124
  0
LINE
  5
41C
330
1F
100
AcDbEntity
  8
0
 62
     7
100
AcDbLine
 10
401.806915
 20
478.650024
 30
0.0
 11
400.276642
 21
478.650024
 31
0.0
  0
LINE
  5
41D
330
1F
100
AcDbEntity
  8
0
 62
     7
100
AcDbLine
 10
320.806915
 20
455.650024
 30
0.0
 11
321.806915
 21
455.650024
 31
0.0
  0
LINE
  5
41E
330
1F
100
AcDbEntity
  8
0
 62
     7
100
AcDbLine
 10
321.806915
 20
455.849976
 30
0.0
 11
322.306915
 21
455.849976
 31
0.0
  0
CIRCLE
  5
41F
330
1F
100
AcDbEntity
  8
0
 62
     7
100
AcDbCircle
 10
1016.306885
 20
473.849976
 30
0.0
 40
4.5
  0
CIRCLE
  5
420
330
1F
100
AcDbEntity
  8
0
 62
     7
100
AcDbCircle
 10
331.306915
 20
473.849976
 30
0.0
 40
4.5
  0
ARC
  5
421
330
1F
100
AcDbEntity
  8
0
 62
     7
100
AcDbCircle
 10
1026.807007
 20
456.650024
 30
0.0
 40
1.0
100
AcDbArc
 50
269.999997
 51
360.0
  0
LINE
  5
422
330
1F
100
AcDbEntity
  8
0
 62
     7
100
AcDbLine
 10
1027.807007
 20
483.035767
 30
0.0
 11
1027.807007
 21
456.650024
 31
0.0
  0
LINE
  5
423
330
1F
100
AcDbEntity
  8
0
 62
     7
100
AcDbLine
 10
1027.807007
 20
483.731384
 30
0.0
 11
1027.807007
 21
483.035767
 31
0.0
  0
LINE
  5
424
330
1F
100
AcDbEntity
  8
0
 62
     7
100
AcDbLine
 10
319.806915
 20
483.035767
 30
0.0
 11
319.806915
 21
483.731384
 31
0.0
  0
LINE
  5
425
330
1F
100
AcDbEntity
  8
0
 62
     7
100
AcDbLine
 10
319.806915
 20
456.650024
 30
0.0
 11
319.806915
 21
483.035767
 31
0.0
  0
ARC
  5
426
330
1F
100
AcDbEntity
  8
0
 62
     7
100
AcDbCircle
 10
320.806915
 20
456.650024
 30
0.0
 40
1.0
100
AcDbArc
 50
180.000009
 51
269.999997
  0
LINE
  5
427
330
1F
100
AcDbEntity
  8
0
 62
     7
100
AcDbLine
 10
1026.807007
 20
486.650024
 30
0.0
 11
1025.807007
 21
486.650024
 31
0.0
  0
LINE
  5
428
330
1F
100
AcDbEntity
  8
0
 62
     7
100
AcDbLine
 10
320.806915
 20
486.650024
 30
0.0
 11
321.806915
 21
486.650024
 31
0.0
  0
LINE
  5
429
330
1F
100
AcDbEntity
  8
0
 62
     7
100
AcDbLine
 10
1027.807007
 20
484.305908
 30
0.0
 11
1027.807007
 21
483.731384
 31
0.0
  0
LINE
  5
42A
330
1F
100
AcDbEntity
  8
0
 62
     7
100
AcDbLine
 10
1027.807007
 20
485.650024
 30
0.0
 11
1027.807007
 21
484.305908
 31
0.0
  0
LINE
  5
42B
330
1F
100
AcDbEntity
  8
0
 62
     7
100
AcDbLine
 10
319.806915
 20
483.731384
 30
0.0
 11
319.806915
 21
484.305908
 31
0.0
  0
LINE
  5
42C
330
1F
100
AcDbEntity
  8
0
 62
     7
100
AcDbLine
 10
319.806915
 20
484.305908
 30
0.0
 11
319.806915
 21
485.650024
 31
0.0
  0
ARC
  5
42D
330
1F
100
AcDbEntity
  8
0
 62
     7
100
AcDbCircle
 10
1016.306885
 20
474.549988
 30
0.0
 40
12.80000019073486
100
AcDbArc
 50
73.932611
 51
106.067387
  0
ARC
  5
42E
330
1F
100
AcDbEntity
  8
0
 62
     7
100
AcDbCircle
 10
331.306915
 20
474.549988
 30
0.0
 40
12.80000019073486
100
AcDbArc
 50
73.932611
 51
106.067387
  0
ARC
  5
42F
330
1F
100
AcDbEntity
  8
0
 62
     7
100
AcDbCircle
 10
1026.807007
 20
485.650024
 30
0.0
 40
1.0
100
AcDbArc
 50
0.0
 51
90.000003
  0
ARC
  5
430
330
1F
100
AcDbEntity
  8
0
 62
     7
100
AcDbCircle
 10
320.806915
 20
485.650024
 30
0.0
 40
1.0
100
AcDbArc
 50
90.000003
 51
180.000009
  0
CIRCLE
  5
431
330
1F
100
AcDbEntity
  8
0
 62
     7
100
AcDbCircle
 10
948.806885
 20
480.150024
 30
0.0
 40
2.0
  0
CIRCLE
  5
432
330
1F
100
AcDbEntity
  8
0
 62
     7
100
AcDbCircle
 10
698.806885
 20
480.150024
 30
0.0
 40
2.0
  0
CIRCLE
  5
433
330
1F
100
AcDbEntity
  8
0
 62
     7
100
AcDbCircle
 10
398.806915
 20
480.150024
 30
0.0
 40
2.0
  0
LINE
  5
434
330
1F
100
AcDbEntity
  8
0
 62
     7
100
AcDbLine
 10
949.006958
 20
480.849976
 30
0.0
 11
949.006958
 21
481.349976
 31
0.0
  0
LINE
  5
435
330
1F
100
AcDbEntity
  8
0
 62
     7
100
AcDbLine
 10
949.006958
 20
481.349976
 30
0.0
 11
948.606934
 21
481.349976
 31
0.0
  0
LINE
  5
436
330
1F
100
AcDbEntity
  8
0
 62
     7
100
AcDbLine
 10
948.606934
 20
481.349976
 30
0.0
 11
948.606934
 21
480.849976
 31
0.0
  0
ARC
  5
437
330
1F
100
AcDbEntity
  8
0
 62
     7
100
AcDbCircle
 10
948.106934
 20
480.849976
 30
0.0
 40
0.5
100
AcDbArc
 50
269.999997
 51
360.0
  0
LINE
  5
438
330
1F
100
AcDbEntity
  8
0
 62
     7
100
AcDbLine
 10
948.106934
 20
480.349976
 30
0.0
 11
947.606934
 21
480.349976
 31
0.0
  0
LINE
  5
439
330
1F
100
AcDbEntity
  8
0
 62
     7
100
AcDbLine
 10
947.606934
 20
480.349976
 30
0.0
 11
947.606934
 21
479.950012
 31
0.0
  0
LINE
  5
43A
330
1F
100
AcDbEntity
  8
0
 62
     7
100
AcDbLine
 10
947.606934
 20
479.950012
 30
0.0
 11
948.106934
 21
479.950012
 31
0.0
  0
ARC
  5
43B
330
1F
100
AcDbEntity
  8
0
 62
     7
100
AcDbCircle
 10
948.106934
 20
479.450012
 30
0.0
 40
0.5
100
AcDbArc
 50
0.0
 51
90.000003
  0
LINE
  5
43C
330
1F
100
AcDbEntity
  8
0
 62
     7
100
AcDbLine
 10
948.606934
 20
479.450012
 30
0.0
 11
948.606934
 21
478.950012
 31
0.0
  0
LINE
  5
43D
330
1F
100
AcDbEntity
  8
0
 62
     7
100
AcDbLine
 10
948.606934
 20
478.950012
 30
0.0
 11
949.006958
 21
478.950012
 31
0.0
  0
LINE
  5
43E
330
1F
100
AcDbEntity
  8
0
 62
     7
100
AcDbLine
 10
949.006958
 20
478.950012
 30
0.0
 11
949.006958
 21
479.450012
 31
0.0
  0
ARC
  5
43F
330
1F
100
AcDbEntity
  8
0
 62
     7
100
AcDbCircle
 10
949.506958
 20
479.450012
 30
0.0
 40
0.5
100
AcDbArc
 50
90.000003
 51
180.000009
  0
LINE
  5
440
330
1F
100
AcDbEntity
  8
0
 62
     7
100
AcDbLine
 10
949.506958
 20
479.950012
 30
0.0
 11
950.006958
 21
479.950012
 31
0.0
  0
LINE
  5
441
330
1F
100
AcDbEntity
  8
0
 62
     7
100
AcDbLine
 10
950.006958
 20
479.950012
 30
0.0
 11
950.006958
 21
480.349976
 31
0.0
  0
LINE
  5
442
330
1F
100
AcDbEntity
  8
0
 62
     7
100
AcDbLine
 10
950.006958
 20
480.349976
 30
0.0
 11
949.506958
 21
480.349976
 31
0.0
  0
ARC
  5
443
330
1F
100
AcDbEntity
  8
0
 62
     7
100
AcDbCircle
 10
949.506958
 20
480.849976
 30
0.0
 40
0.5
100
AcDbArc
 50
180.000009
 51
269.999997
  0
LINE
  5
444
330
1F
100
AcDbEntity
  8
0
 62
     7
100
AcDbLine
 10
699.006958
 20
480.849976
 30
0.0
 11
699.006958
 21
481.349976
 31
0.0
  0
LINE
  5
445
330
1F
100
AcDbEntity
  8
0
 62
     7
100
AcDbLine
 10
699.006958
 20
481.349976
 30
0.0
 11
698.606934
 21
481.349976
 31
0.0
  0
LINE
  5
446
330
1F
100
AcDbEntity
  8
0
 62
     7
100
AcDbLine
 10
698.606934
 20
481.349976
 30
0.0
 11
698.606934
 21
480.849976
 31
0.0
  0
ARC
  5
447
330
1F
100
AcDbEntity
  8
0
 62
     7
100
AcDbCircle
 10
698.106934
 20
480.849976
 30
0.0
 40
0.5
100
AcDbArc
 50
269.999997
 51
360.0
  0
LINE
  5
448
330
1F
100
AcDbEntity
  8
0
 62
     7
100
AcDbLine
 10
698.106934
 20
480.349976
 30
0.0
 11
697.606934
 21
480.349976
 31
0.0
  0
LINE
  5
449
330
1F
100
AcDbEntity
  8
0
 62
     7
100
AcDbLine
 10
697.606934
 20
480.349976
 30
0.0
 11
697.606934
 21
479.950012
 31
0.0
  0
LINE
  5
44A
330
1F
100
AcDbEntity
  8
0
 62
     7
100
AcDbLine
 10
697.606934
 20
479.950012
 30
0.0
 11
698.106934
 21
479.950012
 31
0.0
  0
ARC
  5
44B
330
1F
100
AcDbEntity
  8
0
 62
     7
100
AcDbCircle
 10
698.106934
 20
479.450012
 30
0.0
 40
0.5
100
AcDbArc
 50
0.0
 51
90.000003
  0
LINE
  5
44C
330
1F
100
AcDbEntity
  8
0
 62
     7
100
AcDbLine
 10
698.606934
 20
479.450012
 30
0.0
 11
698.606934
 21
478.950012
 31
0.0
  0
LINE
  5
44D
330
1F
100
AcDbEntity
  8
0
 62
     7
100
AcDbLine
 10
698.606934
 20
478.950012
 30
0.0
 11
699.006958
 21
478.950012
 31
0.0
  0
LINE
  5
44E
330
1F
100
AcDbEntity
  8
0
 62
     7
100
AcDbLine
 10
699.006958
 20
478.950012
 30
0.0
 11
699.006958
 21
479.450012
 31
0.0
  0
ARC
  5
44F
330
1F
100
AcDbEntity
  8
0
 62
     7
100
AcDbCircle
 10
699.506958
 20
479.450012
 30
0.0
 40
0.5
100
AcDbArc
 50
90.000003
 51
180.000009
  0
LINE
  5
450
330
1F
100
AcDbEntity
  8
0
 62
     7
100
AcDbLine
 10
699.506958
 20
479.950012
 30
0.0
 11
700.006958
 21
479.950012
 31
0.0
  0
LINE
  5
451
330
1F
100
AcDbEntity
  8
0
 62
     7
100
AcDbLine
 10
700.006958
 20
479.950012
 30
0.0
 11
700.006958
 21
480.349976
 31
0.0
  0
LINE
  5
452
330
1F
100
AcDbEntity
  8
0
 62
     7
100
AcDbLine
 10
700.006958
 20
480.349976
 30
0.0
 11
699.506958
 21
480.349976
 31
0.0
  0
ARC
  5
453
330
1F
100
AcDbEntity
  8
0
 62
     7
100
AcDbCircle
 10
699.506958
 20
480.849976
 30
0.0
 40
0.5
100
AcDbArc
 50
180.000009
 51
269.999997
  0
LINE
  5
454
330
1F
100
AcDbEntity
  8
0
 62
     7
100
AcDbLine
 10
399.006927
 20
480.849976
 30
0.0
 11
399.006927
 21
481.349976
 31
0.0
  0
LINE
  5
455
330
1F
100
AcDbEntity
  8
0
 62
     7
100
AcDbLine
 10
399.006927
 20
481.349976
 30
0.0
 11
398.606903
 21
481.349976
 31
0.0
  0
LINE
  5
456
330
1F
100
AcDbEntity
  8
0
 62
     7
100
AcDbLine
 10
398.606903
 20
481.349976
 30
0.0
 11
398.606903
 21
480.849976
 31
0.0
  0
ARC
  5
457
330
1F
100
AcDbEntity
  8
0
 62
     7
100
AcDbCircle
 10
398.106903
 20
480.849976
 30
0.0
 40
0.5
100
AcDbArc
 50
269.999997
 51
360.0
  0
LINE
  5
458
330
1F
100
AcDbEntity
  8
0
 62
     7
100
AcDbLine
 10
398.106903
 20
480.349976
 30
0.0
 11
397.606903
 21
480.349976
 31
0.0
  0
LINE
  5
459
330
1F
100
AcDbEntity
  8
0
 62
     7
100
AcDbLine
 10
397.606903
 20
480.349976
 30
0.0
 11
397.606903
 21
479.950012
 31
0.0
  0
LINE
  5
45A
330
1F
100
AcDbEntity
  8
0
 62
     7
100
AcDbLine
 10
397.606903
 20
479.950012
 30
0.0
 11
398.106903
 21
479.950012
 31
0.0
  0
ARC
  5
45B
330
1F
100
AcDbEntity
  8
0
 62
     7
100
AcDbCircle
 10
398.106903
 20
479.450012
 30
0.0
 40
0.5
100
AcDbArc
 50
0.0
 51
90.000003
  0
LINE
  5
45C
330
1F
100
AcDbEntity
  8
0
 62
     7
100
AcDbLine
 10
398.606903
 20
479.450012
 30
0.0
 11
398.606903
 21
478.950012
 31
0.0
  0
LINE
  5
45D
330
1F
100
AcDbEntity
  8
0
 62
     7
100
AcDbLine
 10
398.606903
 20
478.950012
 30
0.0
 11
399.006927
 21
478.950012
 31
0.0
  0
LINE
  5
45E
330
1F
100
AcDbEntity
  8
0
 62
     7
100
AcDbLine
 10
399.006927
 20
478.950012
 30
0.0
 11
399.006927
 21
479.450012
 31
0.0
  0
ARC
  5
45F
330
1F
100
AcDbEntity
  8
0
 62
     7
100
AcDbCircle
 10
399.506927
 20
479.450012
 30
0.0
 40
0.5
100
AcDbArc
 50
90.000003
 51
180.000009
  0
LINE
  5
460
330
1F
100
AcDbEntity
  8
0
 62
     7
100
AcDbLine
 10
399.506927
 20
479.950012
 30
0.0
 11
400.006927
 21
479.950012
 31
0.0
  0
LINE
  5
461
330
1F
100
AcDbEntity
  8
0
 62
     7
100
AcDbLine
 10
400.006927
 20
479.950012
 30
0.0
 11
400.006927
 21
480.349976
 31
0.0
  0
LINE
  5
462
330
1F
100
AcDbEntity
  8
0
 62
     7
100
AcDbLine
 10
400.006927
 20
480.349976
 30
0.0
 11
399.506927
 21
480.349976
 31
0.0
  0
ARC
  5
463
330
1F
100
AcDbEntity
  8
0
 62
     7
100
AcDbCircle
 10
399.506927
 20
480.849976
 30
0.0
 40
0.5
100
AcDbArc
 50
180.000009
 51
269.999997
  0
LINE
  5
464
330
1F
100
AcDbEntity
  8
0
 62
     7
100
AcDbLine
 10
1027.807007
 20
460.299988
 30
0.0
 11
1027.807007
 21
463.200012
 31
0.0
  0
LINE
  5
465
330
1F
100
AcDbEntity
  8
0
 62
     7
100
AcDbLine
 10
1027.807007
 20
464.5
 30
0.0
 11
1027.807007
 21
467.400024
 31
0.0
  0
LINE
  5
466
330
1F
100
AcDbEntity
  8
0
 62
     7
100
AcDbLine
 10
952.806885
 20
484.049988
 30
0.0
 11
1025.307007
 21
484.049988
 31
0.0
  0
LINE
  5
467
330
1F
100
AcDbEntity
  8
0
 62
     7
100
AcDbLine
 10
322.306915
 20
484.049988
 30
0.0
 11
394.806915
 21
484.049988
 31
0.0
  0
LINE
  5
468
330
1F
100
AcDbEntity
  8
0
 62
     7
100
AcDbLine
 10
945.806885
 20
484.049988
 30
0.0
 11
951.806885
 21
484.049988
 31
0.0
  0
LINE
  5
469
330
1F
100
AcDbEntity
  8
0
 62
     7
100
AcDbLine
 10
702.806885
 20
484.049988
 30
0.0
 11
944.806885
 21
484.049988
 31
0.0
  0
LINE
  5
46A
330
1F
100
AcDbEntity
  8
0
 62
     7
100
AcDbLine
 10
695.806885
 20
484.049988
 30
0.0
 11
701.806885
 21
484.049988
 31
0.0
  0
LINE
  5
46B
330
1F
100
AcDbEntity
  8
0
 62
     7
100
AcDbLine
 10
402.806915
 20
484.049988
 30
0.0
 11
694.806885
 21
484.049988
 31
0.0
  0
LINE
  5
46C
330
1F
100
AcDbEntity
  8
0
 62
     7
100
AcDbLine
 10
395.806915
 20
484.049988
 30
0.0
 11
401.806915
 21
484.049988
 31
0.0
  0
LINE
  5
46D
330
1F
100
AcDbEntity
  8
0
 62
     7
100
AcDbLine
 10
455.20694
 20
453.349854
 30
0.0
 11
455.20694
 21
453.640015
 31
0.0
  0
LINE
  5
46E
330
1F
100
AcDbEntity
  8
0
 62
     7
100
AcDbLine
 10
455.20694
 20
453.640015
 30
0.0
 11
455.006927
 21
453.843262
 31
0.0
  0
LINE
  5
46F
330
1F
100
AcDbEntity
  8
0
 62
     7
100
AcDbLine
 10
455.006927
 20
453.509216
 30
0.0
 11
455.006927
 21
453.843262
 31
0.0
  0
LINE
  5
470
330
1F
100
AcDbEntity
  8
0
 62
     7
100
AcDbLine
 10
455.006927
 20
453.843262
 30
0.0
 11
454.006927
 21
453.843262
 31
0.0
  0
LINE
  5
471
330
1F
100
AcDbEntity
  8
0
 62
     7
100
AcDbLine
 10
454.006927
 20
453.843262
 30
0.0
 11
454.006927
 21
453.900024
 31
0.0
  0
LINE
  5
472
330
1F
100
AcDbEntity
  8
0
 62
     7
100
AcDbLine
 10
453.406952
 20
453.900024
 30
0.0
 11
454.006927
 21
453.900024
 31
0.0
  0
LINE
  5
473
330
1F
100
AcDbEntity
  8
0
 62
     7
100
AcDbLine
 10
453.406952
 20
453.549927
 30
0.0
 11
453.406952
 21
453.900024
 31
0.0
  0
LINE
  5
474
330
1F
100
AcDbEntity
  8
0
 62
     7
100
AcDbLine
 10
455.006927
 20
453.843262
 30
0.0
 11
454.006927
 21
453.843262
 31
0.0
  0
LINE
  5
475
330
1F
100
AcDbEntity
  8
0
 62
     7
100
AcDbLine
 10
455.20694
 20
453.640015
 30
0.0
 11
455.006927
 21
453.843262
 31
0.0
  0
LINE
  5
476
330
1F
100
AcDbEntity
  8
0
 62
     7
100
AcDbLine
 10
453.106903
 20
453.549988
 30
0.0
 11
453.106903
 21
453.650024
 31
0.0
  0
LINE
  5
477
330
1F
100
AcDbEntity
  8
0
 62
     7
100
AcDbLine
 10
454.806915
 20
453.549988
 30
0.0
 11
452.806915
 21
453.549988
 31
0.0
  0
ARC
  5
478
330
1F
100
AcDbEntity
  8
0
 62
     7
100
AcDbCircle
 10
452.806915
 20
454.049988
 30
0.0
 40
0.5
100
AcDbArc
 50
180.000009
 51
269.999997
  0
LINE
  5
479
330
1F
100
AcDbEntity
  8
0
 62
     7
100
AcDbLine
 10
454.806915
 20
453.049988
 30
0.0
 11
455.160492
 21
453.403564
 31
0.0
  0
ARC
  5
47A
330
1F
100
AcDbEntity
  8
0
 62
     7
100
AcDbCircle
 10
454.806915
 20
453.049988
 30
0.0
 40
0.5
100
AcDbArc
 50
0.0
 51
89.999559
  0
LINE
  5
47B
330
1F
100
AcDbEntity
  8
0
 62
     7
100
AcDbLine
 10
455.306915
 20
429.950012
 30
0.0
 11
455.306915
 21
453.049988
 31
0.0
  0
ARC
  5
47C
330
1F
100
AcDbEntity
  8
0
 62
     7
100
AcDbCircle
 10
451.806915
 20
454.049988
 30
0.0
 40
0.5
100
AcDbArc
 50
0.0
 51
90.000003
  0
LINE
  5
47D
330
1F
100
AcDbEntity
  8
0
 62
     7
100
AcDbLine
 10
447.806915
 20
432.75
 30
0.0
 11
329.806915
 21
432.75
 31
0.0
  0
LINE
  5
47E
330
1F
100
AcDbEntity
  8
0
 62
     7
100
AcDbLine
 10
377.956787
 20
447.607971
 30
0.0
 11
376.494415
 21
451.545227
 31
0.0
  0
ARC
  5
47F
330
1F
100
AcDbEntity
  8
0
 62
     7
100
AcDbCircle
 10
377.769318
 20
447.53833
 30
0.0
 40
0.2000000029802322
100
AcDbArc
 50
269.999997
 51
20.376
  0
LINE
  5
480
330
1F
100
AcDbEntity
  8
0
 62
     7
100
AcDbLine
 10
374.844574
 20
447.338379
 30
0.0
 11
377.769318
 21
447.338379
 31
0.0
  0
ARC
  5
481
330
1F
100
AcDbEntity
  8
0
 62
     7
100
AcDbCircle
 10
374.844574
 20
447.53833
 30
0.0
 40
0.2000000029802322
100
AcDbArc
 50
159.624007
 51
269.999997
  0
LINE
  5
482
330
1F
100
AcDbEntity
  8
0
 62
     7
100
AcDbLine
 10
376.119446
 20
451.545227
 30
0.0
 11
374.657074
 21
447.607971
 31
0.0
  0
ARC
  5
483
330
1F
100
AcDbEntity
  8
0
 62
     7
100
AcDbCircle
 10
376.306915
 20
451.475586
 30
0.0
 40
0.2000000029802322
100
AcDbArc
 50
20.376
 51
159.624007
  0
LINE
  5
484
330
1F
100
AcDbEntity
  8
0
 62
     7
100
AcDbLine
 10
454.806915
 20
429.950012
 30
0.0
 11
455.056915
 21
429.700012
 31
0.0
  0
LINE
  5
485
330
1F
100
AcDbEntity
  8
0
 62
     7
100
AcDbLine
 10
455.056915
 20
429.700012
 30
0.0
 11
455.306915
 21
429.950012
 31
0.0
  0
LINE
  5
486
330
1F
100
AcDbEntity
  8
0
 62
     7
100
AcDbLine
 10
454.806915
 20
429.450012
 30
0.0
 11
455.056915
 21
429.700012
 31
0.0
  0
LINE
  5
487
330
1F
100
AcDbEntity
  8
0
 62
     7
100
AcDbLine
 10
432.806915
 20
454.549988
 30
0.0
 11
433.806915
 21
454.549988
 31
0.0
  0
LINE
  5
488
330
1F
100
AcDbEntity
  8
0
 62
     7
100
AcDbLine
 10
434.806915
 20
454.549988
 30
0.0
 11
433.806915
 21
454.549988
 31
0.0
  0
LINE
  5
489
330
1F
100
AcDbEntity
  8
0
 62
     7
100
AcDbLine
 10
451.806915
 20
454.549988
 30
0.0
 11
434.806915
 21
454.549988
 31
0.0
  0
LINE
  5
48A
330
1F
100
AcDbEntity
  8
0
 62
     7
100
AcDbLine
 10
322.806915
 20
429.950012
 30
0.0
 11
322.556915
 21
429.700012
 31
0.0
  0
LINE
  5
48B
330
1F
100
AcDbEntity
  8
0
 62
     7
100
AcDbLine
 10
322.806915
 20
453.049988
 30
0.0
 11
322.4534
 21
453.403564
 31
0.0
  0
ARC
  5
48C
330
1F
100
AcDbEntity
  8
0
 62
     7
100
AcDbCircle
 10
322.806915
 20
453.049988
 30
0.0
 40
0.5
100
AcDbArc
 50
90.000003
 51
179.999554
  0
LINE
  5
48D
330
1F
100
AcDbEntity
  8
0
 62
     7
100
AcDbLine
 10
322.306915
 20
453.049988
 30
0.0
 11
322.306915
 21
429.950012
 31
0.0
  0
LINE
  5
48E
330
1F
100
AcDbEntity
  8
0
 62
     7
100
AcDbLine
 10
322.306915
 20
429.950012
 30
0.0
 11
322.556915
 21
429.700012
 31
0.0
  0
LINE
  5
48F
330
1F
100
AcDbEntity
  8
0
 62
     7
100
AcDbLine
 10
329.806915
 20
429.450012
 30
0.0
 11
322.806915
 21
429.450012
 31
0.0
  0
LINE
  5
490
330
1F
100
AcDbEntity
  8
0
 62
     7
100
AcDbLine
 10
322.556915
 20
429.700012
 30
0.0
 11
322.806915
 21
429.450012
 31
0.0
  0
LINE
  5
491
330
1F
100
AcDbEntity
  8
0
 62
     7
100
AcDbLine
 10
330.306915
 20
429.950012
 30
0.0
 11
330.306915
 21
432.75
 31
0.0
  0
LINE
  5
492
330
1F
100
AcDbEntity
  8
0
 62
     7
100
AcDbLine
 10
447.306915
 20
429.950012
 30
0.0
 11
447.306915
 21
432.75
 31
0.0
  0
LINE
  5
493
330
1F
100
AcDbEntity
  8
0
 62
     7
100
AcDbLine
 10
454.806915
 20
429.450012
 30
0.0
 11
447.806915
 21
429.450012
 31
0.0
  0
LINE
  5
494
330
1F
100
AcDbEntity
  8
0
 62
     7
100
AcDbLine
 10
433.806915
 20
453.549988
 30
0.0
 11
419.806915
 21
453.549988
 31
0.0
  0
LINE
  5
495
330
1F
100
AcDbEntity
  8
0
 62
     7
100
AcDbLine
 10
419.506927
 20
452.049988
 30
0.0
 11
419.506927
 21
453.25
 31
0.0
  0
ARC
  5
496
330
1F
100
AcDbEntity
  8
0
 62
     7
100
AcDbCircle
 10
417.306915
 20
452.049988
 30
0.0
 40
2.200000047683716
100
AcDbArc
 50
180.000009
 51
360.0
  0
LINE
  5
497
330
1F
100
AcDbEntity
  8
0
 62
     7
100
AcDbLine
 10
415.106903
 20
453.25
 30
0.0
 11
415.106903
 21
452.049988
 31
0.0
  0
LINE
  5
498
330
1F
100
AcDbEntity
  8
0
 62
     7
100
AcDbLine
 10
414.806915
 20
453.549988
 30
0.0
 11
340.806915
 21
453.549988
 31
0.0
  0
LINE
  5
499
330
1F
100
AcDbEntity
  8
0
 62
     7
100
AcDbLine
 10
340.506927
 20
452.049988
 30
0.0
 11
340.506927
 21
453.25
 31
0.0
  0
ARC
  5
49A
330
1F
100
AcDbEntity
  8
0
 62
     7
100
AcDbCircle
 10
338.306915
 20
452.049988
 30
0.0
 40
2.200000047683716
100
AcDbArc
 50
180.000009
 51
360.0
  0
ARC
  5
49B
330
1F
100
AcDbEntity
  8
0
 62
     7
100
AcDbCircle
 10
341.972992
 20
451.549988
 30
0.0
 40
1.0
100
AcDbArc
 50
90.000003
 51
172.233561
  0
LINE
  5
49C
330
1F
100
AcDbEntity
  8
0
 62
     7
100
AcDbLine
 10
341.972992
 20
452.549988
 30
0.0
 11
355.306915
 21
452.549988
 31
0.0
  0
ARC
  5
49D
330
1F
100
AcDbEntity
  8
0
 62
     7
100
AcDbCircle
 10
355.306915
 20
449.549988
 30
0.0
 40
3.0
100
AcDbArc
 50
0.0
 51
90.000003
  0
LINE
  5
49E
330
1F
100
AcDbEntity
  8
0
 62
     7
100
AcDbLine
 10
358.306915
 20
436.75
 30
0.0
 11
358.306915
 21
449.549988
 31
0.0
  0
ARC
  5
49F
330
1F
100
AcDbEntity
  8
0
 62
     7
100
AcDbCircle
 10
355.306915
 20
436.75
 30
0.0
 40
3.0
100
AcDbArc
 50
269.999997
 51
360.0
  0
LINE
  5
4A0
330
1F
100
AcDbEntity
  8
0
 62
     7
100
AcDbLine
 10
355.306915
 20
433.75
 30
0.0
 11
341.306915
 21
433.75
 31
0.0
  0
ARC
  5
4A1
330
1F
100
AcDbEntity
  8
0
 62
     7
100
AcDbCircle
 10
341.306915
 20
436.75
 30
0.0
 40
3.0
100
AcDbArc
 50
180.000009
 51
269.999997
  0
LINE
  5
4A2
330
1F
100
AcDbEntity
  8
0
 62
     7
100
AcDbLine
 10
338.306915
 20
448.487671
 30
0.0
 11
338.306915
 21
436.75
 31
0.0
  0
ARC
  5
4A3
330
1F
100
AcDbEntity
  8
0
 62
     7
100
AcDbCircle
 10
339.306915
 20
448.487671
 30
0.0
 40
1.0
100
AcDbArc
 50
105.680348
 51
180.000009
  0
LINE
  5
4A4
330
1F
100
AcDbEntity
  8
0
 62
     7
100
AcDbLine
 10
336.106934
 20
453.25
 30
0.0
 11
336.106934
 21
452.049988
 31
0.0
  0
LINE
  5
4A5
330
1F
100
AcDbEntity
  8
0
 62
     7
100
AcDbLine
 10
335.806915
 20
453.549988
 30
0.0
 11
335.306915
 21
453.549988
 31
0.0
  0
LINE
  5
4A6
330
1F
100
AcDbEntity
  8
0
 62
     7
100
AcDbLine
 10
334.306915
 20
454.549988
 30
0.0
 11
325.806915
 21
454.549988
 31
0.0
  0
LINE
  5
4A7
330
1F
100
AcDbEntity
  8
0
 62
     7
100
AcDbLine
 10
324.806915
 20
453.549988
 30
0.0
 11
322.806915
 21
453.549988
 31
0.0
  0
LINE
  5
4A8
330
1F
100
AcDbEntity
  8
0
 62
     7
100
AcDbLine
 10
397.306915
 20
452.549988
 30
0.0
 11
411.306915
 21
452.549988
 31
0.0
  0
ARC
  5
4A9
330
1F
100
AcDbEntity
  8
0
 62
     7
100
AcDbCircle
 10
411.306915
 20
449.549988
 30
0.0
 40
3.0
100
AcDbArc
 50
0.0
 51
90.000003
  0
LINE
  5
4AA
330
1F
100
AcDbEntity
  8
0
 62
     7
100
AcDbLine
 10
414.306915
 20
436.75
 30
0.0
 11
414.306915
 21
449.549988
 31
0.0
  0
ARC
  5
4AB
330
1F
100
AcDbEntity
  8
0
 62
     7
100
AcDbCircle
 10
411.306915
 20
436.75
 30
0.0
 40
3.0
100
AcDbArc
 50
269.999997
 51
360.0
  0
LINE
  5
4AC
330
1F
100
AcDbEntity
  8
0
 62
     7
100
AcDbLine
 10
411.306915
 20
433.75
 30
0.0
 11
397.306915
 21
433.75
 31
0.0
  0
ARC
  5
4AD
330
1F
100
AcDbEntity
  8
0
 62
     7
100
AcDbCircle
 10
397.306915
 20
436.75
 30
0.0
 40
3.0
100
AcDbArc
 50
180.000009
 51
269.999997
  0
LINE
  5
4AE
330
1F
100
AcDbEntity
  8
0
 62
     7
100
AcDbLine
 10
394.306915
 20
449.549988
 30
0.0
 11
394.306915
 21
436.75
 31
0.0
  0
ARC
  5
4AF
330
1F
100
AcDbEntity
  8
0
 62
     7
100
AcDbCircle
 10
397.306915
 20
449.549988
 30
0.0
 40
3.0
100
AcDbArc
 50
90.000003
 51
180.000009
  0
LINE
  5
4B0
330
1F
100
AcDbEntity
  8
0
 62
     7
100
AcDbLine
 10
335.306915
 20
454.549988
 30
0.0
 11
334.306915
 21
454.549988
 31
0.0
  0
LINE
  5
4B1
330
1F
100
AcDbEntity
  8
0
 62
     7
100
AcDbLine
 10
336.306915
 20
454.549988
 30
0.0
 11
335.306915
 21
454.549988
 31
0.0
  0
LINE
  5
4B2
330
1F
100
AcDbEntity
  8
0
 62
     7
100
AcDbLine
 10
331.556915
 20
432.349976
 30
0.0
 11
331.556915
 21
432.75
 31
0.0
  0
LINE
  5
4B3
330
1F
100
AcDbEntity
  8
0
 62
     7
100
AcDbLine
 10
446.056915
 20
432.349976
 30
0.0
 11
446.056915
 21
432.75
 31
0.0
  0
LINE
  5
4B4
330
1F
100
AcDbEntity
  8
0
 62
     7
100
AcDbLine
 10
346.030121
 20
432.599976
 30
0.0
 11
345.830139
 21
432.599976
 31
0.0
  0
LINE
  5
4B5
330
1F
100
AcDbEntity
  8
0
 62
     7
100
AcDbLine
 10
342.783722
 20
432.599976
 30
0.0
 11
345.830139
 21
432.599976
 31
0.0
  0
LINE
  5
4B6
330
1F
100
AcDbEntity
  8
0
 62
     7
100
AcDbLine
 10
342.783722
 20
432.599976
 30
0.0
 11
342.58371
 21
432.599976
 31
0.0
  0
LINE
  5
4B7
330
1F
100
AcDbEntity
  8
0
 62
     7
100
AcDbLine
 10
431.783722
 20
432.599976
 30
0.0
 11
431.58371
 21
432.599976
 31
0.0
  0
LINE
  5
4B8
330
1F
100
AcDbEntity
  8
0
 62
     7
100
AcDbLine
 10
435.030121
 20
432.599976
 30
0.0
 11
434.830109
 21
432.599976
 31
0.0
  0
LINE
  5
4B9
330
1F
100
AcDbEntity
  8
0
 62
     7
100
AcDbLine
 10
431.783722
 20
432.599976
 30
0.0
 11
434.830109
 21
432.599976
 31
0.0
  0
ARC
  5
4BA
330
1F
100
AcDbEntity
  8
0
 62
     7
100
AcDbCircle
 10
434.806915
 20
454.049988
 30
0.0
 40
0.5
100
AcDbArc
 50
90.000003
 51
180.000009
  0
ARC
  5
4BB
330
1F
100
AcDbEntity
  8
0
 62
     7
100
AcDbCircle
 10
329.806915
 20
429.950012
 30
0.0
 40
0.5
100
AcDbArc
 50
269.999997
 51
360.0
  0
ARC
  5
4BC
330
1F
100
AcDbEntity
  8
0
 62
     7
100
AcDbCircle
 10
447.806915
 20
429.950012
 30
0.0
 40
0.5
100
AcDbArc
 50
180.000009
 51
269.999997
  0
ARC
  5
4BD
330
1F
100
AcDbEntity
  8
0
 62
     7
100
AcDbCircle
 10
433.806915
 20
454.049988
 30
0.0
 40
0.5
100
AcDbArc
 50
269.999997
 51
360.0
  0
LINE
  5
4BE
330
1F
100
AcDbEntity
  8
0
 62
     7
100
AcDbLine
 10
336.20694
 20
453.549988
 30
0.0
 11
335.806915
 21
453.549988
 31
0.0
  0
LINE
  5
4BF
330
1F
100
AcDbEntity
  8
0
 62
     7
100
AcDbLine
 10
336.20694
 20
453.549988
 30
0.0
 11
336.306915
 21
453.549988
 31
0.0
  0
ARC
  5
4C0
330
1F
100
AcDbEntity
  8
0
 62
     7
100
AcDbCircle
 10
419.806915
 20
453.25
 30
0.0
 40
0.300000011920929
100
AcDbArc
 50
90.000003
 51
180.000009
  0
ARC
  5
4C1
330
1F
100
AcDbEntity
  8
0
 62
     7
100
AcDbCircle
 10
414.806915
 20
453.25
 30
0.0
 40
0.300000011920929
100
AcDbArc
 50
0.0
 51
90.000003
  0
ARC
  5
4C2
330
1F
100
AcDbEntity
  8
0
 62
     7
100
AcDbCircle
 10
340.806915
 20
453.25
 30
0.0
 40
0.300000011920929
100
AcDbArc
 50
90.000003
 51
180.000009
  0
ARC
  5
4C3
330
1F
100
AcDbEntity
  8
0
 62
     7
100
AcDbCircle
 10
338.306915
 20
452.049988
 30
0.0
 40
2.700000047683716
100
AcDbArc
 50
285.680336
 51
352.233566
  0
CIRCLE
  5
4C4
330
1F
100
AcDbEntity
  8
0
 62
     7
100
AcDbCircle
 10
348.306915
 20
445.150024
 30
0.0
 40
4.5
  0
ARC
  5
4C5
330
1F
100
AcDbEntity
  8
0
 62
     7
100
AcDbCircle
 10
335.806915
 20
453.25
 30
0.0
 40
0.300000011920929
100
AcDbArc
 50
0.0
 51
90.000003
  0
ARC
  5
4C6
330
1F
100
AcDbEntity
  8
0
 62
     7
100
AcDbCircle
 10
335.306915
 20
454.049988
 30
0.0
 40
0.5
100
AcDbArc
 50
180.000009
 51
269.999997
  0
ARC
  5
4C7
330
1F
100
AcDbEntity
  8
0
 62
     7
100
AcDbCircle
 10
334.306915
 20
454.049988
 30
0.0
 40
0.5
100
AcDbArc
 50
0.0
 51
90.000003
  0
ARC
  5
4C8
330
1F
100
AcDbEntity
  8
0
 62
     7
100
AcDbCircle
 10
325.806915
 20
454.049988
 30
0.0
 40
0.5
100
AcDbArc
 50
90.000003
 51
180.000009
  0
ARC
  5
4C9
330
1F
100
AcDbEntity
  8
0
 62
     7
100
AcDbCircle
 10
324.806915
 20
454.049988
 30
0.0
 40
0.5
100
AcDbArc
 50
269.999997
 51
360.0
  0
CIRCLE
  5
4CA
330
1F
100
AcDbEntity
  8
0
 62
     7
100
AcDbCircle
 10
404.306915
 20
445.150024
 30
0.0
 40
4.5
  0
LINE
  5
4CB
330
1F
100
AcDbEntity
  8
0
 62
     7
100
AcDbLine
 10
324.506927
 20
453.549988
 30
0.0
 11
324.506927
 21
453.650024
 31
0.0
  0
LINE
  5
4CC
330
1F
100
AcDbEntity
  8
0
 62
     7
100
AcDbLine
 10
446.256927
 20
432.349976
 30
0.0
 11
447.256927
 21
432.349976
 31
0.0
  0
LINE
  5
4CD
330
1F
100
AcDbEntity
  8
0
 62
     7
100
AcDbLine
 10
446.256927
 20
432.349976
 30
0.0
 11
434.830109
 21
432.349976
 31
0.0
  0
LINE
  5
4CE
330
1F
100
AcDbEntity
  8
0
 62
     7
100
AcDbLine
 10
431.783722
 20
432.349976
 30
0.0
 11
345.830139
 21
432.349976
 31
0.0
  0
LINE
  5
4CF
330
1F
100
AcDbEntity
  8
0
 62
     7
100
AcDbLine
 10
342.783722
 20
432.349976
 30
0.0
 11
331.356934
 21
432.349976
 31
0.0
  0
LINE
  5
4D0
330
1F
100
AcDbEntity
  8
0
 62
     7
100
AcDbLine
 10
330.356934
 20
432.349976
 30
0.0
 11
331.356934
 21
432.349976
 31
0.0
  0
LINE
  5
4D1
330
1F
100
AcDbEntity
  8
0
 62
     7
100
AcDbLine
 10
446.256927
 20
429.849976
 30
0.0
 11
331.356934
 21
429.849976
 31
0.0
  0
LINE
  5
4D2
330
1F
100
AcDbEntity
  8
0
 62
     7
100
AcDbLine
 10
336.306915
 20
452.049988
 30
0.0
 11
336.306915
 21
454.049988
 31
0.0
  0
LINE
  5
4D3
330
1F
100
AcDbEntity
  8
0
 62
     7
100
AcDbLine
 10
336.306915
 20
454.549988
 30
0.0
 11
336.306915
 21
454.049988
 31
0.0
  0
LINE
  5
4D4
330
1F
100
AcDbEntity
  8
0
 62
     7
100
AcDbLine
 10
336.306915
 20
455.549988
 30
0.0
 11
336.306915
 21
454.549988
 31
0.0
  0
LINE
  5
4D5
330
1F
100
AcDbEntity
  8
0
 62
     7
100
AcDbLine
 10
432.806915
 20
453.549988
 30
0.0
 11
432.806915
 21
454.049988
 31
0.0
  0
LINE
  5
4D6
330
1F
100
AcDbEntity
  8
0
 62
     7
100
AcDbLine
 10
432.806915
 20
454.549988
 30
0.0
 11
432.806915
 21
454.049988
 31
0.0
  0
LINE
  5
4D7
330
1F
100
AcDbEntity
  8
0
 62
     7
100
AcDbLine
 10
432.806915
 20
455.549988
 30
0.0
 11
432.806915
 21
454.549988
 31
0.0
  0
ARC
  5
4D8
330
1F
100
AcDbEntity
  8
0
 62
     7
100
AcDbCircle
 10
338.306915
 20
452.049988
 30
0.0
 40
2.0
100
AcDbArc
 50
180.000009
 51
360.0
  0
LINE
  5
4D9
330
1F
100
AcDbEntity
  8
0
 62
     7
100
AcDbLine
 10
340.306915
 20
452.049988
 30
0.0
 11
340.306915
 21
453.549988
 31
0.0
  0
LINE
  5
4DA
330
1F
100
AcDbEntity
  8
0
 62
     7
100
AcDbLine
 10
340.806915
 20
453.549988
 30
0.0
 11
340.306915
 21
453.549988
 31
0.0
  0
LINE
  5
4DB
330
1F
100
AcDbEntity
  8
0
 62
     7
100
AcDbLine
 10
415.306915
 20
453.549988
 30
0.0
 11
414.806915
 21
453.549988
 31
0.0
  0
LINE
  5
4DC
330
1F
100
AcDbEntity
  8
0
 62
     7
100
AcDbLine
 10
415.306915
 20
452.049988
 30
0.0
 11
415.306915
 21
453.549988
 31
0.0
  0
ARC
  5
4DD
330
1F
100
AcDbEntity
  8
0
 62
     7
100
AcDbCircle
 10
417.306915
 20
452.049988
 30
0.0
 40
2.0
100
AcDbArc
 50
180.000009
 51
360.0
  0
LINE
  5
4DE
330
1F
100
AcDbEntity
  8
0
 62
     7
100
AcDbLine
 10
419.306915
 20
452.049988
 30
0.0
 11
419.306915
 21
453.549988
 31
0.0
  0
LINE
  5
4DF
330
1F
100
AcDbEntity
  8
0
 62
     7
100
AcDbLine
 10
419.806915
 20
453.549988
 30
0.0
 11
419.306915
 21
453.549988
 31
0.0
  0
LINE
  5
4E0
330
1F
100
AcDbEntity
  8
0
 62
     7
100
AcDbLine
 10
330.356934
 20
429.849976
 30
0.0
 11
330.356934
 21
432.349976
 31
0.0
  0
LINE
  5
4E1
330
1F
100
AcDbEntity
  8
0
 62
     7
100
AcDbLine
 10
447.256927
 20
429.849976
 30
0.0
 11
447.256927
 21
432.349976
 31
0.0
  0
LINE
  5
4E2
330
1F
100
AcDbEntity
  8
0
 62
     7
100
AcDbLine
 10
446.256927
 20
429.849976
 30
0.0
 11
447.256927
 21
429.849976
 31
0.0
  0
LINE
  5
4E3
330
1F
100
AcDbEntity
  8
0
 62
     7
100
AcDbLine
 10
330.356934
 20
429.849976
 30
0.0
 11
331.356934
 21
429.849976
 31
0.0
  0
LINE
  5
4E4
330
1F
100
AcDbEntity
  8
0
 62
     7
100
AcDbLine
 10
432.806915
 20
454.549988
 30
0.0
 11
336.306915
 21
454.549988
 31
0.0
  0
CIRCLE
  5
4E5
330
1F
100
AcDbEntity
  8
0
 62
     7
100
AcDbCircle
 10
348.306915
 20
445.150024
 30
0.0
 40
4.0
  0
CIRCLE
  5
4E6
330
1F
100
AcDbEntity
  8
0
 62
     7
100
AcDbCircle
 10
404.306915
 20
445.150024
 30
0.0
 40
4.0
  0
LINE
  5
4E7
330
1F
100
AcDbEntity
  8
0
 62
     7
100
AcDbLine
 10
324.20694
 20
453.900024
 30
0.0
 11
324.20694
 21
453.549927
 31
0.0
  0
CIRCLE
  5
4E8
330
1F
100
AcDbEntity
  8
0
 62
     7
100
AcDbCircle
 10
417.306915
 20
452.049988
 30
0.0
 40
1.475000023841858
  0
CIRCLE
  5
4E9
330
1F
100
AcDbEntity
  8
0
 62
     7
100
AcDbCircle
 10
338.306915
 20
452.049988
 30
0.0
 40
1.475000023841858
  0
LINE
  5
4EA
330
1F
100
AcDbEntity
  8
0
 62
     7
100
AcDbLine
 10
323.606934
 20
453.900024
 30
0.0
 11
323.606934
 21
453.843262
 31
0.0
  0
LINE
  5
4EB
330
1F
100
AcDbEntity
  8
0
 62
     7
100
AcDbLine
 10
322.606934
 20
453.843262
 30
0.0
 11
323.606934
 21
453.843262
 31
0.0
  0
LINE
  5
4EC
330
1F
100
AcDbEntity
  8
0
 62
     7
100
AcDbLine
 10
322.606934
 20
453.843262
 30
0.0
 11
322.606934
 21
453.509216
 31
0.0
  0
LINE
  5
4ED
330
1F
100
AcDbEntity
  8
0
 62
     7
100
AcDbLine
 10
324.20694
 20
453.900024
 30
0.0
 11
323.606934
 21
453.900024
 31
0.0
  0
LINE
  5
4EE
330
1F
100
AcDbEntity
  8
0
 62
     7
100
AcDbLine
 10
322.606934
 20
453.843262
 30
0.0
 11
323.606934
 21
453.843262
 31
0.0
  0
CIRCLE
  5
4EF
330
1F
100
AcDbEntity
  8
0
 62
     7
100
AcDbCircle
 10
348.306915
 20
445.150024
 30
0.0
 40
2.549999952316284
  0
CIRCLE
  5
4F0
330
1F
100
AcDbEntity
  8
0
 62
     7
100
AcDbCircle
 10
404.306915
 20
445.150024
 30
0.0
 40
2.549999952316284
  0
LINE
  5
4F1
330
1F
100
AcDbEntity
  8
0
 62
     7
100
AcDbLine
 10
322.406952
 20
453.640015
 30
0.0
 11
322.606934
 21
453.843262
 31
0.0
  0
LINE
  5
4F2
330
1F
100
AcDbEntity
  8
0
 62
     7
100
AcDbLine
 10
322.406952
 20
453.640015
 30
0.0
 11
322.406952
 21
453.349854
 31
0.0
  0
LINE
  5
4F3
330
1F
100
AcDbEntity
  8
0
 62
     7
100
AcDbLine
 10
417.106903
 20
453.150024
 30
0.0
 11
417.506927
 21
453.150024
 31
0.0
  0
LINE
  5
4F4
330
1F
100
AcDbEntity
  8
0
 62
     7
100
AcDbLine
 10
417.106903
 20
453.150024
 30
0.0
 11
417.106903
 21
452.5
 31
0.0
  0
ARC
  5
4F5
330
1F
100
AcDbEntity
  8
0
 62
     7
100
AcDbCircle
 10
416.856903
 20
452.5
 30
0.0
 40
0.25
100
AcDbArc
 50
269.999997
 51
360.0
  0
LINE
  5
4F6
330
1F
100
AcDbEntity
  8
0
 62
     7
100
AcDbLine
 10
416.856903
 20
452.25
 30
0.0
 11
416.20694
 21
452.25
 31
0.0
  0
LINE
  5
4F7
330
1F
100
AcDbEntity
  8
0
 62
     7
100
AcDbLine
 10
416.20694
 20
452.25
 30
0.0
 11
416.20694
 21
451.849976
 31
0.0
  0
LINE
  5
4F8
330
1F
100
AcDbEntity
  8
0
 62
     7
100
AcDbLine
 10
416.856903
 20
451.849976
 30
0.0
 11
416.20694
 21
451.849976
 31
0.0
  0
ARC
  5
4F9
330
1F
100
AcDbEntity
  8
0
 62
     7
100
AcDbCircle
 10
416.856903
 20
451.599976
 30
0.0
 40
0.25
100
AcDbArc
 50
0.0
 51
90.000003
  0
LINE
  5
4FA
330
1F
100
AcDbEntity
  8
0
 62
     7
100
AcDbLine
 10
417.106903
 20
450.950012
 30
0.0
 11
417.106903
 21
451.599976
 31
0.0
  0
LINE
  5
4FB
330
1F
100
AcDbEntity
  8
0
 62
     7
100
AcDbLine
 10
417.106903
 20
450.950012
 30
0.0
 11
417.506927
 21
450.950012
 31
0.0
  0
LINE
  5
4FC
330
1F
100
AcDbEntity
  8
0
 62
     7
100
AcDbLine
 10
417.506927
 20
450.950012
 30
0.0
 11
417.506927
 21
451.599976
 31
0.0
  0
ARC
  5
4FD
330
1F
100
AcDbEntity
  8
0
 62
     7
100
AcDbCircle
 10
417.756927
 20
451.599976
 30
0.0
 40
0.25
100
AcDbArc
 50
90.000003
 51
180.000009
  0
LINE
  5
4FE
330
1F
100
AcDbEntity
  8
0
 62
     7
100
AcDbLine
 10
417.756927
 20
451.849976
 30
0.0
 11
418.406952
 21
451.849976
 31
0.0
  0
LINE
  5
4FF
330
1F
100
AcDbEntity
  8
0
 62
     7
100
AcDbLine
 10
418.406952
 20
452.25
 30
0.0
 11
418.406952
 21
451.849976
 31
0.0
  0
LINE
  5
500
330
1F
100
AcDbEntity
  8
0
 62
     7
100
AcDbLine
 10
417.756927
 20
452.25
 30
0.0
 11
418.406952
 21
452.25
 31
0.0
  0
ARC
  5
501
330
1F
100
AcDbEntity
  8
0
 62
     7
100
AcDbCircle
 10
417.756927
 20
452.5
 30
0.0
 40
0.25
100
AcDbArc
 50
180.000009
 51
269.999997
  0
LINE
  5
502
330
1F
100
AcDbEntity
  8
0
 62
     7
100
AcDbLine
 10
417.506927
 20
453.150024
 30
0.0
 11
417.506927
 21
452.5
 31
0.0
  0
LINE
  5
503
330
1F
100
AcDbEntity
  8
0
 62
     7
100
AcDbLine
 10
338.106934
 20
453.150024
 30
0.0
 11
338.506927
 21
453.150024
 31
0.0
  0
LINE
  5
504
330
1F
100
AcDbEntity
  8
0
 62
     7
100
AcDbLine
 10
338.106934
 20
453.150024
 30
0.0
 11
338.106934
 21
452.5
 31
0.0
  0
ARC
  5
505
330
1F
100
AcDbEntity
  8
0
 62
     7
100
AcDbCircle
 10
337.856934
 20
452.5
 30
0.0
 40
0.25
100
AcDbArc
 50
269.999997
 51
360.0
  0
LINE
  5
506
330
1F
100
AcDbEntity
  8
0
 62
     7
100
AcDbLine
 10
337.856934
 20
452.25
 30
0.0
 11
337.20694
 21
452.25
 31
0.0
  0
LINE
  5
507
330
1F
100
AcDbEntity
  8
0
 62
     7
100
AcDbLine
 10
337.20694
 20
452.25
 30
0.0
 11
337.20694
 21
451.849976
 31
0.0
  0
LINE
  5
508
330
1F
100
AcDbEntity
  8
0
 62
     7
100
AcDbLine
 10
337.856934
 20
451.849976
 30
0.0
 11
337.20694
 21
451.849976
 31
0.0
  0
ARC
  5
509
330
1F
100
AcDbEntity
  8
0
 62
     7
100
AcDbCircle
 10
337.856934
 20
451.599976
 30
0.0
 40
0.25
100
AcDbArc
 50
0.0
 51
90.000003
  0
LINE
  5
50A
330
1F
100
AcDbEntity
  8
0
 62
     7
100
AcDbLine
 10
338.106934
 20
450.950012
 30
0.0
 11
338.106934
 21
451.599976
 31
0.0
  0
LINE
  5
50B
330
1F
100
AcDbEntity
  8
0
 62
     7
100
AcDbLine
 10
338.106934
 20
450.950012
 30
0.0
 11
338.506927
 21
450.950012
 31
0.0
  0
LINE
  5
50C
330
1F
100
AcDbEntity
  8
0
 62
     7
100
AcDbLine
 10
338.506927
 20
450.950012
 30
0.0
 11
338.506927
 21
451.599976
 31
0.0
  0
ARC
  5
50D
330
1F
100
AcDbEntity
  8
0
 62
     7
100
AcDbCircle
 10
338.756927
 20
451.599976
 30
0.0
 40
0.25
100
AcDbArc
 50
90.000003
 51
180.000009
  0
LINE
  5
50E
330
1F
100
AcDbEntity
  8
0
 62
     7
100
AcDbLine
 10
338.756927
 20
451.849976
 30
0.0
 11
339.406952
 21
451.849976
 31
0.0
  0
LINE
  5
50F
330
1F
100
AcDbEntity
  8
0
 62
     7
100
AcDbLine
 10
339.406952
 20
452.25
 30
0.0
 11
339.406952
 21
451.849976
 31
0.0
  0
LINE
  5
510
330
1F
100
AcDbEntity
  8
0
 62
     7
100
AcDbLine
 10
338.756927
 20
452.25
 30
0.0
 11
339.406952
 21
452.25
 31
0.0
  0
ARC
  5
511
330
1F
100
AcDbEntity
  8
0
 62
     7
100
AcDbCircle
 10
338.756927
 20
452.5
 30
0.0
 40
0.25
100
AcDbArc
 50
180.000009
 51
269.999997
  0
LINE
  5
512
330
1F
100
AcDbEntity
  8
0
 62
     7
100
AcDbLine
 10
338.506927
 20
453.150024
 30
0.0
 11
338.506927
 21
452.5
 31
0.0
  0
LINE
  5
513
330
1F
100
AcDbEntity
  8
0
 62
     7
100
AcDbLine
 10
214.306931
 20
353.650024
 30
0.0
 11
210.906921
 21
353.650024
 31
0.0
  0
LINE
  5
514
330
1F
100
AcDbEntity
  8
0
 62
     7
100
AcDbLine
 10
217.70694
 20
353.650024
 30
0.0
 11
214.306931
 21
353.650024
 31
0.0
  0
LINE
  5
515
330
1F
100
AcDbEntity
  8
0
 62
     7
100
AcDbLine
 10
292.70694
 20
435.25
 30
0.0
 11
292.70694
 21
435.099976
 31
0.0
  0
LINE
  5
516
330
1F
100
AcDbEntity
  8
0
 62
     7
100
AcDbLine
 10
290.506927
 20
435.25
 30
0.0
 11
290.506927
 21
435.099976
 31
0.0
  0
LINE
  5
517
330
1F
100
AcDbEntity
  8
0
 62
     7
100
AcDbLine
 10
288.306915
 20
435.243042
 30
0.0
 11
288.306915
 21
435.099976
 31
0.0
  0
LINE
  5
518
330
1F
100
AcDbEntity
  8
0
 62
     7
100
AcDbLine
 10
293.70694
 20
433.9375
 30
0.0
 11
293.70694
 21
437.650024
 31
0.0
  0
LINE
  5
519
330
1F
100
AcDbEntity
  8
0
 62
     7
100
AcDbLine
 10
292.70694
 20
437.650024
 30
0.0
 11
293.70694
 21
437.650024
 31
0.0
  0
LINE
  5
51A
330
1F
100
AcDbEntity
  8
0
 62
     7
100
AcDbLine
 10
292.70694
 20
437.650024
 30
0.0
 11
292.70694
 21
434.0
 31
0.0
  0
LINE
  5
51B
330
1F
100
AcDbEntity
  8
0
 62
     7
100
AcDbLine
 10
291.506927
 20
434.075012
 30
0.0
 11
291.506927
 21
437.650024
 31
0.0
  0
LINE
  5
51C
330
1F
100
AcDbEntity
  8
0
 62
     7
100
AcDbLine
 10
290.506927
 20
437.650024
 30
0.0
 11
291.506927
 21
437.650024
 31
0.0
  0
LINE
  5
51D
330
1F
100
AcDbEntity
  8
0
 62
     7
100
AcDbLine
 10
290.506927
 20
437.650024
 30
0.0
 11
290.506927
 21
434.137512
 31
0.0
  0
LINE
  5
51E
330
1F
100
AcDbEntity
  8
0
 62
     7
100
AcDbLine
 10
289.306915
 20
434.212524
 30
0.0
 11
289.306915
 21
437.650024
 31
0.0
  0
LINE
  5
51F
330
1F
100
AcDbEntity
  8
0
 62
     7
100
AcDbLine
 10
288.306915
 20
437.650024
 30
0.0
 11
289.306915
 21
437.650024
 31
0.0
  0
LINE
  5
520
330
1F
100
AcDbEntity
  8
0
 62
     7
100
AcDbLine
 10
288.306915
 20
437.650024
 30
0.0
 11
288.306915
 21
434.275024
 31
0.0
  0
LINE
  5
521
330
1F
100
AcDbEntity
  8
0
 62
     7
100
AcDbLine
 10
286.306915
 20
434.400024
 30
0.0
 11
286.306915
 21
442.3797
 31
0.0
  0
LINE
  5
522
330
1F
100
AcDbEntity
  8
0
 62
     7
100
AcDbLine
 10
286.306915
 20
442.3797
 30
0.0
 11
286.306915
 21
442.900024
 31
0.0
  0
LINE
  5
523
330
1F
100
AcDbEntity
  8
0
 62
     7
100
AcDbLine
 10
288.306915
 20
442.489441
 30
0.0
 11
288.306915
 21
439.650024
 31
0.0
  0
LINE
  5
524
330
1F
100
AcDbEntity
  8
0
 62
     7
100
AcDbLine
 10
288.306915
 20
443.025024
 30
0.0
 11
288.306915
 21
442.489441
 31
0.0
  0
LINE
  5
525
330
1F
100
AcDbEntity
  8
0
 62
     7
100
AcDbLine
 10
288.306915
 20
439.650024
 30
0.0
 11
289.306915
 21
439.650024
 31
0.0
  0
LINE
  5
526
330
1F
100
AcDbEntity
  8
0
 62
     7
100
AcDbLine
 10
289.306915
 20
442.54425
 30
0.0
 11
289.306915
 21
443.087524
 31
0.0
  0
LINE
  5
527
330
1F
100
AcDbEntity
  8
0
 62
     7
100
AcDbLine
 10
289.306915
 20
439.650024
 30
0.0
 11
289.306915
 21
442.54425
 31
0.0
  0
LINE
  5
528
330
1F
100
AcDbEntity
  8
0
 62
     7
100
AcDbLine
 10
290.506927
 20
442.610107
 30
0.0
 11
290.506927
 21
439.650024
 31
0.0
  0
LINE
  5
529
330
1F
100
AcDbEntity
  8
0
 62
     7
100
AcDbLine
 10
290.506927
 20
443.162476
 30
0.0
 11
290.506927
 21
442.610107
 31
0.0
  0
LINE
  5
52A
330
1F
100
AcDbEntity
  8
0
 62
     7
100
AcDbLine
 10
290.506927
 20
439.650024
 30
0.0
 11
291.506927
 21
439.650024
 31
0.0
  0
LINE
  5
52B
330
1F
100
AcDbEntity
  8
0
 62
     7
100
AcDbLine
 10
291.506927
 20
442.664917
 30
0.0
 11
291.506927
 21
443.224976
 31
0.0
  0
LINE
  5
52C
330
1F
100
AcDbEntity
  8
0
 62
     7
100
AcDbLine
 10
291.506927
 20
439.650024
 30
0.0
 11
291.506927
 21
442.664917
 31
0.0
  0
LINE
  5
52D
330
1F
100
AcDbEntity
  8
0
 62
     7
100
AcDbLine
 10
292.70694
 20
442.730774
 30
0.0
 11
292.70694
 21
439.650024
 31
0.0
  0
LINE
  5
52E
330
1F
100
AcDbEntity
  8
0
 62
     7
100
AcDbLine
 10
292.70694
 20
443.299988
 30
0.0
 11
292.70694
 21
442.730774
 31
0.0
  0
LINE
  5
52F
330
1F
100
AcDbEntity
  8
0
 62
     7
100
AcDbLine
 10
292.70694
 20
439.650024
 30
0.0
 11
293.70694
 21
439.650024
 31
0.0
  0
LINE
  5
530
330
1F
100
AcDbEntity
  8
0
 62
     7
100
AcDbLine
 10
293.70694
 20
442.785583
 30
0.0
 11
293.70694
 21
443.362488
 31
0.0
  0
LINE
  5
531
330
1F
100
AcDbEntity
  8
0
 62
     7
100
AcDbLine
 10
293.70694
 20
439.650024
 30
0.0
 11
293.70694
 21
442.785583
 31
0.0
  0
LINE
  5
532
330
1F
100
AcDbEntity
  8
0
 62
     7
100
AcDbLine
 10
298.306915
 20
443.037903
 30
0.0
 11
298.306915
 21
443.650024
 31
0.0
  0
LINE
  5
533
330
1F
100
AcDbEntity
  8
0
 62
     7
100
AcDbLine
 10
298.306915
 20
433.650024
 30
0.0
 11
298.306915
 21
443.037903
 31
0.0
  0
LINE
  5
534
330
1F
100
AcDbEntity
  8
0
 62
     7
100
AcDbLine
 10
299.306915
 20
443.301208
 30
0.0
 11
299.306915
 21
443.950012
 31
0.0
  0
LINE
  5
535
330
1F
100
AcDbEntity
  8
0
 62
     7
100
AcDbLine
 10
299.306915
 20
433.349976
 30
0.0
 11
299.306915
 21
443.301208
 31
0.0
  0
LINE
  5
536
330
1F
100
AcDbEntity
  8
0
 62
     7
100
AcDbLine
 10
304.306915
 20
432.75
 30
0.0
 11
304.306915
 21
435.821411
 31
0.0
  0
LINE
  5
537
330
1F
100
AcDbEntity
  8
0
 62
     7
100
AcDbLine
 10
304.306915
 20
435.821411
 30
0.0
 11
304.306915
 21
444.549988
 31
0.0
  0
LINE
  5
538
330
1F
100
AcDbEntity
  8
0
 62
     7
100
AcDbLine
 10
304.538116
 20
432.349976
 30
0.0
 11
304.538116
 21
432.493408
 31
0.0
  0
ARC
  5
539
330
1F
100
AcDbEntity
  8
0
 62
     7
100
AcDbCircle
 10
307.052521
 20
433.453857
 30
0.0
 40
2.691781044006348
100
AcDbArc
 50
159.093943
 51
200.906016
  0
LINE
  5
53A
330
1F
100
AcDbEntity
  8
0
 62
     7
100
AcDbLine
 10
304.538116
 20
435.629639
 30
0.0
 11
304.538116
 21
434.414307
 31
0.0
  0
LINE
  5
53B
330
1F
100
AcDbEntity
  8
0
 62
     7
100
AcDbLine
 10
304.538116
 20
435.629639
 30
0.0
 11
304.538116
 21
436.729065
 31
0.0
  0
ARC
  5
53C
330
1F
100
AcDbEntity
  8
0
 62
     7
100
AcDbCircle
 10
314.86441
 20
438.650024
 30
0.0
 40
10.50419235229492
100
AcDbArc
 50
169.462089
 51
190.537884
  0
LINE
  5
53D
330
1F
100
AcDbEntity
  8
0
 62
     7
100
AcDbLine
 10
304.538116
 20
440.570923
 30
0.0
 11
304.538116
 21
442.885681
 31
0.0
  0
ARC
  5
53E
330
1F
100
AcDbEntity
  8
0
 62
     7
100
AcDbCircle
 10
307.052521
 20
443.84613
 30
0.0
 40
2.691781044006348
100
AcDbArc
 50
159.093943
 51
200.906016
  0
LINE
  5
53F
330
1F
100
AcDbEntity
  8
0
 62
     7
100
AcDbLine
 10
304.538116
 20
444.806641
 30
0.0
 11
304.538116
 21
444.950012
 31
0.0
  0
LINE
  5
540
330
1F
100
AcDbEntity
  8
0
 62
     7
100
AcDbLine
 10
311.306915
 20
432.349976
 30
0.0
 11
311.306915
 21
432.493408
 31
0.0
  0
LINE
  5
541
330
1F
100
AcDbEntity
  8
0
 62
     7
100
AcDbLine
 10
304.538116
 20
432.493408
 30
0.0
 11
311.306915
 21
432.493408
 31
0.0
  0
LINE
  5
542
330
1F
100
AcDbEntity
  8
0
 62
     7
100
AcDbLine
 10
304.538116
 20
434.414307
 30
0.0
 11
311.306915
 21
434.414307
 31
0.0
  0
LINE
  5
543
330
1F
100
AcDbEntity
  8
0
 62
     7
100
AcDbLine
 10
311.306915
 20
434.414307
 30
0.0
 11
311.306915
 21
436.729065
 31
0.0
  0
LINE
  5
544
330
1F
100
AcDbEntity
  8
0
 62
     7
100
AcDbLine
 10
304.538116
 20
436.729065
 30
0.0
 11
311.306915
 21
436.729065
 31
0.0
  0
LINE
  5
545
330
1F
100
AcDbEntity
  8
0
 62
     7
100
AcDbLine
 10
304.538116
 20
440.570923
 30
0.0
 11
311.306915
 21
440.570923
 31
0.0
  0
LINE
  5
546
330
1F
100
AcDbEntity
  8
0
 62
     7
100
AcDbLine
 10
311.306915
 20
440.570923
 30
0.0
 11
311.306915
 21
442.885681
 31
0.0
  0
LINE
  5
547
330
1F
100
AcDbEntity
  8
0
 62
     7
100
AcDbLine
 10
304.538116
 20
442.885681
 30
0.0
 11
311.306915
 21
442.885681
 31
0.0
  0
LINE
  5
548
330
1F
100
AcDbEntity
  8
0
 62
     7
100
AcDbLine
 10
304.538116
 20
444.806641
 30
0.0
 11
311.306915
 21
444.806641
 31
0.0
  0
LINE
  5
549
330
1F
100
AcDbEntity
  8
0
 62
     7
100
AcDbLine
 10
311.306915
 20
444.806641
 30
0.0
 11
311.306915
 21
444.950012
 31
0.0
  0
ARC
  5
54A
330
1F
100
AcDbEntity
  8
0
 62
     7
100
AcDbCircle
 10
359.617676
 20
475.90387
 30
0.0
 40
64.901611328125
100
AcDbArc
 50
221.89505
 51
222.55191
  0
LINE
  5
54B
330
1F
100
AcDbEntity
  8
0
 62
     7
100
AcDbLine
 10
311.306915
 20
432.564697
 30
0.0
 11
311.306915
 21
432.493408
 31
0.0
  0
LINE
  5
54C
330
1F
100
AcDbEntity
  8
0
 62
     7
100
AcDbLine
 10
311.806915
 20
431.849976
 30
0.0
 11
311.806915
 21
432.013672
 31
0.0
  0
LINE
  5
54D
330
1F
100
AcDbEntity
  8
0
 62
     7
100
AcDbLine
 10
311.306915
 20
434.195251
 30
0.0
 11
311.306915
 21
432.564697
 31
0.0
  0
LINE
  5
54E
330
1F
100
AcDbEntity
  8
0
 62
     7
100
AcDbLine
 10
311.306915
 20
434.414307
 30
0.0
 11
311.306915
 21
434.195251
 31
0.0
  0
LINE
  5
54F
330
1F
100
AcDbEntity
  8
0
 62
     7
100
AcDbLine
 10
311.306915
 20
437.01947
 30
0.0
 11
311.306915
 21
436.729065
 31
0.0
  0
LINE
  5
550
330
1F
100
AcDbEntity
  8
0
 62
     7
100
AcDbLine
 10
311.306915
 20
434.195251
 30
0.0
 11
311.806915
 21
434.047607
 31
0.0
  0
LINE
  5
551
330
1F
100
AcDbEntity
  8
0
 62
     7
100
AcDbLine
 10
311.806915
 20
434.047607
 30
0.0
 11
311.806915
 21
436.616089
 31
0.0
  0
LINE
  5
552
330
1F
100
AcDbEntity
  8
0
 62
     7
100
AcDbLine
 10
311.306915
 20
437.01947
 30
0.0
 11
311.806915
 21
436.616089
 31
0.0
  0
LINE
  5
553
330
1F
100
AcDbEntity
  8
0
 62
     7
100
AcDbLine
 10
311.306915
 20
440.280579
 30
0.0
 11
311.306915
 21
437.01947
 31
0.0
  0
LINE
  5
554
330
1F
100
AcDbEntity
  8
0
 62
     7
100
AcDbLine
 10
311.306915
 20
440.280579
 30
0.0
 11
311.306915
 21
440.570923
 31
0.0
  0
LINE
  5
555
330
1F
100
AcDbEntity
  8
0
 62
     7
100
AcDbLine
 10
311.806915
 20
440.683899
 30
0.0
 11
311.806915
 21
443.252441
 31
0.0
  0
LINE
  5
556
330
1F
100
AcDbEntity
  8
0
 62
     7
100
AcDbLine
 10
311.306915
 20
443.104797
 30
0.0
 11
311.806915
 21
443.252441
 31
0.0
  0
LINE
  5
557
330
1F
100
AcDbEntity
  8
0
 62
     7
100
AcDbLine
 10
311.306915
 20
442.885681
 30
0.0
 11
311.306915
 21
443.104797
 31
0.0
  0
LINE
  5
558
330
1F
100
AcDbEntity
  8
0
 62
     7
100
AcDbLine
 10
311.306915
 20
440.280579
 30
0.0
 11
311.806915
 21
440.683899
 31
0.0
  0
LINE
  5
559
330
1F
100
AcDbEntity
  8
0
 62
     7
100
AcDbLine
 10
311.306915
 20
444.735352
 30
0.0
 11
311.306915
 21
443.104797
 31
0.0
  0
LINE
  5
55A
330
1F
100
AcDbEntity
  8
0
 62
     7
100
AcDbLine
 10
311.306915
 20
444.806641
 30
0.0
 11
311.306915
 21
444.735352
 31
0.0
  0
ARC
  5
55B
330
1F
100
AcDbEntity
  8
0
 62
     7
100
AcDbCircle
 10
359.617676
 20
401.396118
 30
0.0
 40
64.901611328125
100
AcDbArc
 50
137.44809
 51
138.10495
  0
LINE
  5
55C
330
1F
100
AcDbEntity
  8
0
 62
     7
100
AcDbLine
 10
311.806915
 20
445.286316
 30
0.0
 11
311.806915
 21
445.450012
 31
0.0
  0
LINE
  5
55D
330
1F
100
AcDbEntity
  8
0
 62
     7
100
AcDbLine
 10
321.306915
 20
444.735352
 30
0.0
 11
321.306915
 21
444.950012
 31
0.0
  0
LINE
  5
55E
330
1F
100
AcDbEntity
  8
0
 62
     7
100
AcDbLine
 10
311.306915
 20
440.280579
 30
0.0
 11
321.306915
 21
440.280579
 31
0.0
  0
LINE
  5
55F
330
1F
100
AcDbEntity
  8
0
 62
     7
100
AcDbLine
 10
311.306915
 20
437.01947
 30
0.0
 11
321.306915
 21
437.01947
 31
0.0
  0
LINE
  5
560
330
1F
100
AcDbEntity
  8
0
 62
     7
100
AcDbLine
 10
321.306915
 20
434.195251
 30
0.0
 11
321.306915
 21
437.01947
 31
0.0
  0
LINE
  5
561
330
1F
100
AcDbEntity
  8
0
 62
     7
100
AcDbLine
 10
311.306915
 20
432.564697
 30
0.0
 11
321.306915
 21
432.564697
 31
0.0
  0
LINE
  5
562
330
1F
100
AcDbEntity
  8
0
 62
     7
100
AcDbLine
 10
321.306915
 20
432.349976
 30
0.0
 11
321.306915
 21
432.564697
 31
0.0
  0
LINE
  5
563
330
1F
100
AcDbEntity
  8
0
 62
     7
100
AcDbLine
 10
311.806915
 20
432.013672
 30
0.0
 11
320.806915
 21
432.013672
 31
0.0
  0
ARC
  5
564
330
1F
100
AcDbEntity
  8
0
 62
     7
100
AcDbCircle
 10
272.996185
 20
475.90387
 30
0.0
 40
64.901611328125
100
AcDbArc
 50
317.448096
 51
318.104941
  0
LINE
  5
565
330
1F
100
AcDbEntity
  8
0
 62
     7
100
AcDbLine
 10
320.806915
 20
431.849976
 30
0.0
 11
320.806915
 21
432.013672
 31
0.0
  0
LINE
  5
566
330
1F
100
AcDbEntity
  8
0
 62
     7
100
AcDbLine
 10
321.306915
 20
434.195251
 30
0.0
 11
320.806915
 21
434.047607
 31
0.0
  0
LINE
  5
567
330
1F
100
AcDbEntity
  8
0
 62
     7
100
AcDbLine
 10
311.806915
 20
434.047607
 30
0.0
 11
320.806915
 21
434.047607
 31
0.0
  0
LINE
  5
568
330
1F
100
AcDbEntity
  8
0
 62
     7
100
AcDbLine
 10
320.806915
 20
434.047607
 30
0.0
 11
320.806915
 21
436.616089
 31
0.0
  0
LINE
  5
569
330
1F
100
AcDbEntity
  8
0
 62
     7
100
AcDbLine
 10
311.806915
 20
436.616089
 30
0.0
 11
320.806915
 21
436.616089
 31
0.0
  0
LINE
  5
56A
330
1F
100
AcDbEntity
  8
0
 62
     7
100
AcDbLine
 10
321.306915
 20
437.01947
 30
0.0
 11
320.806915
 21
436.616089
 31
0.0
  0
LINE
  5
56B
330
1F
100
AcDbEntity
  8
0
 62
     7
100
AcDbLine
 10
320.806915
 20
440.683899
 30
0.0
 11
320.806915
 21
443.252441
 31
0.0
  0
LINE
  5
56C
330
1F
100
AcDbEntity
  8
0
 62
     7
100
AcDbLine
 10
311.806915
 20
443.252441
 30
0.0
 11
320.806915
 21
443.252441
 31
0.0
  0
LINE
  5
56D
330
1F
100
AcDbEntity
  8
0
 62
     7
100
AcDbLine
 10
311.806915
 20
440.683899
 30
0.0
 11
320.806915
 21
440.683899
 31
0.0
  0
LINE
  5
56E
330
1F
100
AcDbEntity
  8
0
 62
     7
100
AcDbLine
 10
321.306915
 20
443.104797
 30
0.0
 11
320.806915
 21
443.252441
 31
0.0
  0
LINE
  5
56F
330
1F
100
AcDbEntity
  8
0
 62
     7
100
AcDbLine
 10
321.306915
 20
440.280579
 30
0.0
 11
320.806915
 21
440.683899
 31
0.0
  0
LINE
  5
570
330
1F
100
AcDbEntity
  8
0
 62
     7
100
AcDbLine
 10
311.306915
 20
444.735352
 30
0.0
 11
321.306915
 21
444.735352
 31
0.0
  0
ARC
  5
571
330
1F
100
AcDbEntity
  8
0
 62
     7
100
AcDbCircle
 10
272.996185
 20
401.396118
 30
0.0
 40
64.901611328125
100
AcDbArc
 50
41.895052
 51
42.551911
  0
LINE
  5
572
330
1F
100
AcDbEntity
  8
0
 62
     7
100
AcDbLine
 10
311.806915
 20
445.286316
 30
0.0
 11
320.806915
 21
445.286316
 31
0.0
  0
LINE
  5
573
330
1F
100
AcDbEntity
  8
0
 62
     7
100
AcDbLine
 10
320.806915
 20
445.286316
 30
0.0
 11
320.806915
 21
445.450012
 31
0.0
  0
LINE
  5
574
330
1F
100
AcDbEntity
  8
0
 62
     7
100
AcDbLine
 10
321.306915
 20
440.280579
 30
0.0
 11
321.306915
 21
443.104797
 31
0.0
  0
LINE
  5
575
330
1F
100
AcDbEntity
  8
0
 62
     7
100
AcDbLine
 10
453.106903
 20
453.650024
 30
0.0
 11
453.406952
 21
453.650024
 31
0.0
  0
LINE
  5
576
330
1F
100
AcDbEntity
  8
0
 62
     7
100
AcDbLine
 10
345.943512
 20
432.75
 30
0.0
 11
346.030121
 21
432.599976
 31
0.0
  0
LINE
  5
577
330
1F
100
AcDbEntity
  8
0
 62
     7
100
AcDbLine
 10
342.670319
 20
432.75
 30
0.0
 11
342.58371
 21
432.599976
 31
0.0
  0
LINE
  5
578
330
1F
100
AcDbEntity
  8
0
 62
     7
100
AcDbLine
 10
431.670319
 20
432.75
 30
0.0
 11
431.58371
 21
432.599976
 31
0.0
  0
LINE
  5
579
330
1F
100
AcDbEntity
  8
0
 62
     7
100
AcDbLine
 10
434.943512
 20
432.75
 30
0.0
 11
435.030121
 21
432.599976
 31
0.0
  0
LINE
  5
57A
330
1F
100
AcDbEntity
  8
0
 62
     7
100
AcDbLine
 10
434.755707
 20
453.075623
 30
0.0
 11
434.781281
 21
453.101257
 31
0.0
  0
POLYLINE
  5
57B
330
1F
100
AcDbEntity
  8
0
 62
     7
100
AcDb2dPolyline
 66
     1
 10
0.0
 20
0.0
 30
0.0
  0
VERTEX
  5
57C
330
57B
100
AcDbEntity
  8
0
100
AcDbVertex
100
AcDb2dVertex
 10
419.993744
 20
453.082947
 30
0.0
  0
VERTEX
  5
57D
330
57B
100
AcDbEntity
  8
0
100
AcDbVertex
100
AcDb2dVertex
 10
419.996979
 20
453.07312
 30
0.0
  0
VERTEX
  5
57E
330
57B
100
AcDbEntity
  8
0
100
AcDbVertex
100
AcDb2dVertex
 10
420.004059
 20
453.057007
 30
0.0
  0
VERTEX
  5
57F
330
57B
100
AcDbEntity
  8
0
100
AcDbVertex
100
AcDb2dVertex
 10
420.007355
 20
453.050537
 30
0.0
  0
VERTEX
  5
580
330
57B
100
AcDbEntity
  8
0
100
AcDbVertex
100
AcDb2dVertex
 10
420.008026
 20
453.049072
 30
0.0
  0
VERTEX
  5
581
330
57B
100
AcDbEntity
  8
0
100
AcDbVertex
100
AcDb2dVertex
 10
419.990875
 20
453.070557
 30
0.0
  0
VERTEX
  5
582
330
57B
100
AcDbEntity
  8
0
100
AcDbVertex
100
AcDb2dVertex
 10
419.987335
 20
453.075684
 30
0.0
  0
VERTEX
  5
583
330
57B
100
AcDbEntity
  8
0
100
AcDbVertex
100
AcDb2dVertex
 10
419.989166
 20
453.074463
 30
0.0
  0
VERTEX
  5
584
330
57B
100
AcDbEntity
  8
0
100
AcDbVertex
100
AcDb2dVertex
 10
419.997894
 20
453.064209
 30
0.0
  0
VERTEX
  5
585
330
57B
100
AcDbEntity
  8
0
100
AcDbVertex
100
AcDb2dVertex
 10
420.0065
 20
453.052368
 30
0.0
  0
VERTEX
  5
586
330
57B
100
AcDbEntity
  8
0
100
AcDbVertex
100
AcDb2dVertex
 10
420.007294
 20
453.05072
 30
0.0
  0
VERTEX
  5
587
330
57B
100
AcDbEntity
  8
0
100
AcDbVertex
100
AcDb2dVertex
 10
420.007172
 20
453.049561
 30
0.0
  0
VERTEX
  5
588
330
57B
100
AcDbEntity
  8
0
100
AcDbVertex
100
AcDb2dVertex
 10
420.004547
 20
453.050415
 30
0.0
  0
VERTEX
  5
589
330
57B
100
AcDbEntity
  8
0
100
AcDbVertex
100
AcDb2dVertex
 10
419.992767
 20
453.059021
 30
0.0
  0
VERTEX
  5
58A
330
57B
100
AcDbEntity
  8
0
100
AcDbVertex
100
AcDb2dVertex
 10
419.982513
 20
453.067749
 30
0.0
  0
VERTEX
  5
58B
330
57B
100
AcDbEntity
  8
0
100
AcDbVertex
100
AcDb2dVertex
 10
419.980865
 20
453.069397
 30
0.0
  0
VERTEX
  5
58C
330
57B
100
AcDbEntity
  8
0
100
AcDbVertex
100
AcDb2dVertex
 10
419.986359
 20
453.06604
 30
0.0
  0
VERTEX
  5
58D
330
57B
100
AcDbEntity
  8
0
100
AcDbVertex
100
AcDb2dVertex
 10
420.007416
 20
453.049744
 30
0.0
  0
VERTEX
  5
58E
330
57B
100
AcDbEntity
  8
0
100
AcDbVertex
100
AcDb2dVertex
 10
420.008087
 20
453.04895
 30
0.0
  0
VERTEX
  5
58F
330
57B
100
AcDbEntity
  8
0
100
AcDbVertex
100
AcDb2dVertex
 10
420.006439
 20
453.049561
 30
0.0
  0
VERTEX
  5
590
330
57B
100
AcDbEntity
  8
0
100
AcDbVertex
100
AcDb2dVertex
 10
419.999908
 20
453.052856
 30
0.0
  0
VERTEX
  5
591
330
57B
100
AcDbEntity
  8
0
100
AcDbVertex
100
AcDb2dVertex
 10
419.983795
 20
453.059998
 30
0.0
  0
VERTEX
  5
592
330
57B
100
AcDbEntity
  8
0
100
AcDbVertex
100
AcDb2dVertex
 10
419.97403
 20
453.063171
 30
0.0
  0
SEQEND
  5
593
330
57B
100
AcDbEntity
  8
0
 62
     7
  0
POLYLINE
  5
594
330
1F
100
AcDbEntity
  8
0
 62
     7
100
AcDb2dPolyline
 66
     1
 10
0.0
 20
0.0
 30
0.0
  0
VERTEX
  5
595
330
594
100
AcDbEntity
  8
0
100
AcDbVertex
100
AcDb2dVertex
 10
340.993744
 20
453.082947
 30
0.0
  0
VERTEX
  5
596
330
594
100
AcDbEntity
  8
0
100
AcDbVertex
100
AcDb2dVertex
 10
340.996979
 20
453.07312
 30
0.0
  0
VERTEX
  5
597
330
594
100
AcDbEntity
  8
0
100
AcDbVertex
100
AcDb2dVertex
 10
341.004089
 20
453.057007
 30
0.0
  0
VERTEX
  5
598
330
594
100
AcDbEntity
  8
0
100
AcDbVertex
100
AcDb2dVertex
 10
341.007355
 20
453.050537
 30
0.0
  0
VERTEX
  5
599
330
594
100
AcDbEntity
  8
0
100
AcDbVertex
100
AcDb2dVertex
 10
341.008026
 20
453.049072
 30
0.0
  0
VERTEX
  5
59A
330
594
100
AcDbEntity
  8
0
100
AcDbVertex
100
AcDb2dVertex
 10
340.990875
 20
453.070557
 30
0.0
  0
VERTEX
  5
59B
330
594
100
AcDbEntity
  8
0
100
AcDbVertex
100
AcDb2dVertex
 10
340.987335
 20
453.075684
 30
0.0
  0
VERTEX
  5
59C
330
594
100
AcDbEntity
  8
0
100
AcDbVertex
100
AcDb2dVertex
 10
340.989166
 20
453.074463
 30
0.0
  0
VERTEX
  5
59D
330
594
100
AcDbEntity
  8
0
100
AcDbVertex
100
AcDb2dVertex
 10
340.997925
 20
453.064209
 30
0.0
  0
VERTEX
  5
59E
330
594
100
AcDbEntity
  8
0
100
AcDbVertex
100
AcDb2dVertex
 10
341.0065
 20
453.052368
 30
0.0
  0
VERTEX
  5
59F
330
594
100
AcDbEntity
  8
0
100
AcDbVertex
100
AcDb2dVertex
 10
341.007263
 20
453.05072
 30
0.0
  0
VERTEX
  5
5A0
330
594
100
AcDbEntity
  8
0
100
AcDbVertex
100
AcDb2dVertex
 10
341.007172
 20
453.049561
 30
0.0
  0
VERTEX
  5
5A1
330
594
100
AcDbEntity
  8
0
100
AcDbVertex
100
AcDb2dVertex
 10
341.004547
 20
453.050415
 30
0.0
  0
VERTEX
  5
5A2
330
594
100
AcDbEntity
  8
0
100
AcDbVertex
100
AcDb2dVertex
 10
340.992737
 20
453.059021
 30
0.0
  0
VERTEX
  5
5A3
330
594
100
AcDbEntity
  8
0
100
AcDbVertex
100
AcDb2dVertex
 10
340.982513
 20
453.067749
 30
0.0
  0
VERTEX
  5
5A4
330
594
100
AcDbEntity
  8
0
100
AcDbVertex
100
AcDb2dVertex
 10
340.980865
 20
453.069397
 30
0.0
  0
VERTEX
  5
5A5
330
594
100
AcDbEntity
  8
0
100
AcDbVertex
100
AcDb2dVertex
 10
340.986389
 20
453.06604
 30
0.0
  0
VERTEX
  5
5A6
330
594
100
AcDbEntity
  8
0
100
AcDbVertex
100
AcDb2dVertex
 10
341.007416
 20
453.049744
 30
0.0
  0
VERTEX
  5
5A7
330
594
100
AcDbEntity
  8
0
100
AcDbVertex
100
AcDb2dVertex
 10
341.008087
 20
453.04895
 30
0.0
  0
VERTEX
  5
5A8
330
594
100
AcDbEntity
  8
0
100
AcDbVertex
100
AcDb2dVertex
 10
341.006409
 20
453.049561
 30
0.0
  0
VERTEX
  5
5A9
330
594
100
AcDbEntity
  8
0
100
AcDbVertex
100
AcDb2dVertex
 10
340.999939
 20
453.052856
 30
0.0
  0
VERTEX
  5
5AA
330
594
100
AcDbEntity
  8
0
100
AcDbVertex
100
AcDb2dVertex
 10
340.983795
 20
453.059998
 30
0.0
  0
VERTEX
  5
5AB
330
594
100
AcDbEntity
  8
0
100
AcDbVertex
100
AcDb2dVertex
 10
340.97403
 20
453.063171
 30
0.0
  0
SEQEND
  5
5AC
330
594
100
AcDbEntity
  8
0
 62
     7
  0
LINE
  5
5AD
330
1F
100
AcDbEntity
  8
0
 62
     7
100
AcDbLine
 10
325.755707
 20
453.075623
 30
0.0
 11
325.781311
 21
453.101257
 31
0.0
  0
LINE
  5
5AE
330
1F
100
AcDbEntity
  8
0
 62
     7
100
AcDbLine
 10
346.030121
 20
432.349976
 30
0.0
 11
346.030121
 21
432.599976
 31
0.0
  0
LINE
  5
5AF
330
1F
100
AcDbEntity
  8
0
 62
     7
100
AcDbLine
 10
342.58371
 20
432.349976
 30
0.0
 11
342.58371
 21
432.599976
 31
0.0
  0
LINE
  5
5B0
330
1F
100
AcDbEntity
  8
0
 62
     7
100
AcDbLine
 10
431.58371
 20
432.599976
 30
0.0
 11
431.58371
 21
432.349976
 31
0.0
  0
LINE
  5
5B1
330
1F
100
AcDbEntity
  8
0
 62
     7
100
AcDbLine
 10
435.030121
 20
432.599976
 30
0.0
 11
435.030121
 21
432.349976
 31
0.0
  0
LINE
  5
5B2
330
1F
100
AcDbEntity
  8
0
 62
     7
100
AcDbLine
 10
324.20694
 20
453.650024
 30
0.0
 11
324.506927
 21
453.650024
 31
0.0
  0
ARC
  5
5B3
330
1F
100
AcDbEntity
  8
0
 62
     7
100
AcDbCircle
 10
289.306915
 20
363.650024
 30
0.0
 40
78.4000015258789
100
AcDbArc
 50
92.192971
 51
179.999991
  0
ARC
  5
5B4
330
1F
100
AcDbEntity
  8
0
 62
     7
100
AcDbCircle
 10
289.306976
 20
363.653809
 30
0.0
 40
78.39616394042969
100
AcDbArc
 50
90.00003
 51
90.730894
  0
ARC
  5
5B5
330
1F
100
AcDbEntity
  8
0
 62
     7
100
AcDbCircle
 10
289.306915
 20
363.650024
 30
0.0
 40
71.5999984741211
100
AcDbArc
 50
92.401354
 51
180.000009
  0
ARC
  5
5B6
330
1F
100
AcDbEntity
  8
0
 62
     7
100
AcDbCircle
 10
289.306976
 20
363.652222
 30
0.0
 40
71.59779357910156
100
AcDbArc
 50
90.000037
 51
90.800303
  0
LINE
  5
5B7
330
1F
100
AcDbEntity
  8
0
 62
     7
100
AcDbLine
 10
290.506927
 20
442.049988
 30
0.0
 11
291.506927
 21
442.049988
 31
0.0
  0
LINE
  5
5B8
330
1F
100
AcDbEntity
  8
0
 62
     7
100
AcDbLine
 10
292.70694
 20
442.049988
 30
0.0
 11
293.70694
 21
442.049988
 31
0.0
  0
LINE
  5
5B9
330
1F
100
AcDbEntity
  8
0
 62
     7
100
AcDbLine
 10
210.906921
 20
353.650024
 30
0.0
 11
210.906921
 21
363.650024
 31
0.0
  0
LINE
  5
5BA
330
1F
100
AcDbEntity
  8
0
 62
     7
100
AcDbLine
 10
290.506927
 20
435.25
 30
0.0
 11
291.506927
 21
435.25
 31
0.0
  0
LINE
  5
5BB
330
1F
100
AcDbEntity
  8
0
 62
     7
100
AcDbLine
 10
292.70694
 20
435.25
 30
0.0
 11
293.70694
 21
435.25
 31
0.0
  0
LINE
  5
5BC
330
1F
100
AcDbEntity
  8
0
 62
     7
100
AcDbLine
 10
217.70694
 20
353.650024
 30
0.0
 11
217.70694
 21
363.650024
 31
0.0
  0
LINE
  5
5BD
330
1F
100
AcDbEntity
  8
0
 62
     7
100
AcDbLine
 10
286.306915
 20
442.900024
 30
0.0
 11
288.306915
 21
443.025024
 31
0.0
  0
LINE
  5
5BE
330
1F
100
AcDbEntity
  8
0
 62
     7
100
AcDbLine
 10
289.306915
 20
443.087524
 30
0.0
 11
290.506927
 21
443.162476
 31
0.0
  0
LINE
  5
5BF
330
1F
100
AcDbEntity
  8
0
 62
     7
100
AcDbLine
 10
291.506927
 20
443.224976
 30
0.0
 11
292.70694
 21
443.299988
 31
0.0
  0
LINE
  5
5C0
330
1F
100
AcDbEntity
  8
0
 62
     7
100
AcDbLine
 10
293.70694
 20
443.362488
 30
0.0
 11
298.306915
 21
443.650024
 31
0.0
  0
LINE
  5
5C1
330
1F
100
AcDbEntity
  8
0
 62
     7
100
AcDbLine
 10
286.306915
 20
434.400024
 30
0.0
 11
288.306915
 21
434.275024
 31
0.0
  0
LINE
  5
5C2
330
1F
100
AcDbEntity
  8
0
 62
     7
100
AcDbLine
 10
289.306915
 20
434.212524
 30
0.0
 11
290.506927
 21
434.137512
 31
0.0
  0
LINE
  5
5C3
330
1F
100
AcDbEntity
  8
0
 62
     7
100
AcDbLine
 10
291.506927
 20
434.075012
 30
0.0
 11
292.70694
 21
434.0
 31
0.0
  0
LINE
  5
5C4
330
1F
100
AcDbEntity
  8
0
 62
     7
100
AcDbLine
 10
293.70694
 20
433.9375
 30
0.0
 11
298.306915
 21
433.650024
 31
0.0
  0
LINE
  5
5C5
330
1F
100
AcDbEntity
  8
0
 62
     7
100
AcDbLine
 10
298.306915
 20
443.650024
 30
0.0
 11
299.306915
 21
443.950012
 31
0.0
  0
LINE
  5
5C6
330
1F
100
AcDbEntity
  8
0
 62
     7
100
AcDbLine
 10
298.306915
 20
433.650024
 30
0.0
 11
299.306915
 21
433.349976
 31
0.0
  0
LINE
  5
5C7
330
1F
100
AcDbEntity
  8
0
 62
     7
100
AcDbLine
 10
299.306915
 20
433.650024
 30
0.0
 11
304.306915
 21
433.650024
 31
0.0
  0
LINE
  5
5C8
330
1F
100
AcDbEntity
  8
0
 62
     7
100
AcDbLine
 10
299.306915
 20
443.650024
 30
0.0
 11
304.306915
 21
443.650024
 31
0.0
  0
ARC
  5
5C9
330
1F
100
AcDbEntity
  8
0
 62
     7
100
AcDbCircle
 10
309.613525
 20
435.549988
 30
0.0
 40
6.000001907348633
100
AcDbArc
 50
207.81814
 51
212.230947
  0
ARC
  5
5CA
330
1F
100
AcDbEntity
  8
0
 62
     7
100
AcDbCircle
 10
309.613525
 20
441.75
 30
0.0
 40
6.000001907348633
100
AcDbArc
 50
147.769053
 51
152.18186
  0
LINE
  5
5CB
330
1F
100
AcDbEntity
  8
0
 62
     7
100
AcDbLine
 10
304.538116
 20
432.349976
 30
0.0
 11
311.306915
 21
432.349976
 31
0.0
  0
LINE
  5
5CC
330
1F
100
AcDbEntity
  8
0
 62
     7
100
AcDbLine
 10
304.538116
 20
444.950012
 30
0.0
 11
311.306915
 21
444.950012
 31
0.0
  0
LINE
  5
5CD
330
1F
100
AcDbEntity
  8
0
 62
     7
100
AcDbLine
 10
311.306915
 20
432.349976
 30
0.0
 11
311.806915
 21
431.849976
 31
0.0
  0
LINE
  5
5CE
330
1F
100
AcDbEntity
  8
0
 62
     7
100
AcDbLine
 10
311.306915
 20
444.950012
 30
0.0
 11
311.806915
 21
445.450012
 31
0.0
  0
LINE
  5
5CF
330
1F
100
AcDbEntity
  8
0
 62
     7
100
AcDbLine
 10
321.306915
 20
432.349976
 30
0.0
 11
322.306915
 21
432.349976
 31
0.0
  0
LINE
  5
5D0
330
1F
100
AcDbEntity
  8
0
 62
     7
100
AcDbLine
 10
321.306915
 20
444.950012
 30
0.0
 11
322.306915
 21
444.950012
 31
0.0
  0
LINE
  5
5D1
330
1F
100
AcDbEntity
  8
0
 62
     7
100
AcDbLine
 10
311.806915
 20
431.849976
 30
0.0
 11
320.806915
 21
431.849976
 31
0.0
  0
LINE
  5
5D2
330
1F
100
AcDbEntity
  8
0
 62
     7
100
AcDbLine
 10
311.806915
 20
445.450012
 30
0.0
 11
320.806915
 21
445.450012
 31
0.0
  0
LINE
  5
5D3
330
1F
100
AcDbEntity
  8
0
 62
     7
100
AcDbLine
 10
321.306915
 20
444.950012
 30
0.0
 11
320.806915
 21
445.450012
 31
0.0
  0
LINE
  5
5D4
330
1F
100
AcDbEntity
  8
0
 62
     7
100
AcDbLine
 10
321.306915
 20
432.349976
 30
0.0
 11
320.806915
 21
431.849976
 31
0.0
  0
LINE
  5
5D5
330
1F
100
AcDbEntity
  8
0
 62
     7
100
AcDbLine
 10
178.792999
 20
456.349976
 30
0.0
 11
178.792999
 21
469.450012
 31
0.0
  0
ARC
  5
5D6
330
1F
100
AcDbEntity
  8
0
 62
     7
100
AcDbCircle
 10
177.992996
 20
456.349976
 30
0.0
 40
0.800000011920929
100
AcDbArc
 50
269.999997
 51
360.0
  0
LINE
  5
5D7
330
1F
100
AcDbEntity
  8
0
 62
     7
100
AcDbLine
 10
178.663712
 20
469.579285
 30
0.0
 11
178.792999
 21
469.450012
 31
0.0
  0
ARC
  5
5D8
330
1F
100
AcDbEntity
  8
0
 62
     7
100
AcDbCircle
 10
176.792999
 20
456.349976
 30
0.0
 40
0.800000011920929
100
AcDbArc
 50
241.044838
 51
269.999997
  0
LINE
  5
5D9
330
1F
100
AcDbEntity
  8
0
 62
     7
100
AcDbLine
 10
177.992996
 20
455.549988
 30
0.0
 11
176.792999
 21
455.549988
 31
0.0
  0
ARC
  5
5DA
330
1F
100
AcDbEntity
  8
0
 62
     7
100
AcDbCircle
 10
178.734421
 20
469.650024
 30
0.0
 40
0.1000000014901161
100
AcDbArc
 50
135.0
 51
225.0
  0
LINE
  5
5DB
330
1F
100
AcDbEntity
  8
0
 62
     7
100
AcDbLine
 10
178.792999
 20
469.849976
 30
0.0
 11
178.663712
 21
469.720703
 31
0.0
  0
LINE
  5
5DC
330
1F
100
AcDbEntity
  8
0
 62
     7
100
AcDbLine
 10
178.792999
 20
469.849976
 30
0.0
 11
178.792999
 21
470.549988
 31
0.0
  0
LINE
  5
5DD
330
1F
100
AcDbEntity
  8
0
 62
     7
100
AcDbLine
 10
178.663712
 20
470.67926
 30
0.0
 11
178.792999
 21
470.549988
 31
0.0
  0
ARC
  5
5DE
330
1F
100
AcDbEntity
  8
0
 62
     7
100
AcDbCircle
 10
178.734421
 20
470.75
 30
0.0
 40
0.1000000014901161
100
AcDbArc
 50
135.0
 51
225.0
  0
LINE
  5
5DF
330
1F
100
AcDbEntity
  8
0
 62
     7
100
AcDbLine
 10
178.792999
 20
470.950012
 30
0.0
 11
178.663712
 21
470.82074
 31
0.0
  0
LINE
  5
5E0
330
1F
100
AcDbEntity
  8
0
 62
     7
100
AcDbLine
 10
178.792999
 20
470.950012
 30
0.0
 11
178.792999
 21
471.650024
 31
0.0
  0
LINE
  5
5E1
330
1F
100
AcDbEntity
  8
0
 62
     7
100
AcDbLine
 10
178.663712
 20
471.779297
 30
0.0
 11
178.792999
 21
471.650024
 31
0.0
  0
ARC
  5
5E2
330
1F
100
AcDbEntity
  8
0
 62
     7
100
AcDbCircle
 10
178.734421
 20
471.849976
 30
0.0
 40
0.1000000014901161
100
AcDbArc
 50
135.0
 51
225.0
  0
LINE
  5
5E3
330
1F
100
AcDbEntity
  8
0
 62
     7
100
AcDbLine
 10
178.792999
 20
472.049988
 30
0.0
 11
178.663712
 21
471.920715
 31
0.0
  0
LINE
  5
5E4
330
1F
100
AcDbEntity
  8
0
 62
     7
100
AcDbLine
 10
178.792999
 20
472.049988
 30
0.0
 11
178.792999
 21
472.75
 31
0.0
  0
LINE
  5
5E5
330
1F
100
AcDbEntity
  8
0
 62
     7
100
AcDbLine
 10
178.663712
 20
472.879272
 30
0.0
 11
178.792999
 21
472.75
 31
0.0
  0
ARC
  5
5E6
330
1F
100
AcDbEntity
  8
0
 62
     7
100
AcDbCircle
 10
178.734421
 20
472.950012
 30
0.0
 40
0.1000000014901161
100
AcDbArc
 50
135.0
 51
225.0
  0
LINE
  5
5E7
330
1F
100
AcDbEntity
  8
0
 62
     7
100
AcDbLine
 10
178.792999
 20
473.150024
 30
0.0
 11
178.663712
 21
473.020691
 31
0.0
  0
LINE
  5
5E8
330
1F
100
AcDbEntity
  8
0
 62
     7
100
AcDbLine
 10
178.792999
 20
473.150024
 30
0.0
 11
178.792999
 21
473.849976
 31
0.0
  0
LINE
  5
5E9
330
1F
100
AcDbEntity
  8
0
 62
     7
100
AcDbLine
 10
178.663712
 20
473.979309
 30
0.0
 11
178.792999
 21
473.849976
 31
0.0
  0
ARC
  5
5EA
330
1F
100
AcDbEntity
  8
0
 62
     7
100
AcDbCircle
 10
178.734421
 20
474.049988
 30
0.0
 40
0.1000000014901161
100
AcDbArc
 50
135.0
 51
225.0
  0
LINE
  5
5EB
330
1F
100
AcDbEntity
  8
0
 62
     7
100
AcDbLine
 10
178.792999
 20
474.25
 30
0.0
 11
178.663712
 21
474.120728
 31
0.0
  0
LINE
  5
5EC
330
1F
100
AcDbEntity
  8
0
 62
     7
100
AcDbLine
 10
178.792999
 20
474.25
 30
0.0
 11
178.792999
 21
474.950012
 31
0.0
  0
LINE
  5
5ED
330
1F
100
AcDbEntity
  8
0
 62
     7
100
AcDbLine
 10
178.663712
 20
475.079285
 30
0.0
 11
178.792999
 21
474.950012
 31
0.0
  0
ARC
  5
5EE
330
1F
100
AcDbEntity
  8
0
 62
     7
100
AcDbCircle
 10
178.734421
 20
475.150024
 30
0.0
 40
0.1000000014901161
100
AcDbArc
 50
135.0
 51
225.0
  0
LINE
  5
5EF
330
1F
100
AcDbEntity
  8
0
 62
     7
100
AcDbLine
 10
178.792999
 20
475.349976
 30
0.0
 11
178.663712
 21
475.220703
 31
0.0
  0
LINE
  5
5F0
330
1F
100
AcDbEntity
  8
0
 62
     7
100
AcDbLine
 10
178.792999
 20
475.349976
 30
0.0
 11
178.792999
 21
476.049988
 31
0.0
  0
LINE
  5
5F1
330
1F
100
AcDbEntity
  8
0
 62
     7
100
AcDbLine
 10
178.663712
 20
476.17926
 30
0.0
 11
178.792999
 21
476.049988
 31
0.0
  0
ARC
  5
5F2
330
1F
100
AcDbEntity
  8
0
 62
     7
100
AcDbCircle
 10
178.734421
 20
476.25
 30
0.0
 40
0.1000000014901161
100
AcDbArc
 50
135.0
 51
225.0
  0
LINE
  5
5F3
330
1F
100
AcDbEntity
  8
0
 62
     7
100
AcDbLine
 10
178.792999
 20
476.450012
 30
0.0
 11
178.663712
 21
476.32074
 31
0.0
  0
LINE
  5
5F4
330
1F
100
AcDbEntity
  8
0
 62
     7
100
AcDbLine
 10
178.792999
 20
476.450012
 30
0.0
 11
178.792999
 21
477.150024
 31
0.0
  0
LINE
  5
5F5
330
1F
100
AcDbEntity
  8
0
 62
     7
100
AcDbLine
 10
178.663712
 20
477.279297
 30
0.0
 11
178.792999
 21
477.150024
 31
0.0
  0
ARC
  5
5F6
330
1F
100
AcDbEntity
  8
0
 62
     7
100
AcDbCircle
 10
178.734421
 20
477.349976
 30
0.0
 40
0.1000000014901161
100
AcDbArc
 50
135.0
 51
225.0
  0
LINE
  5
5F7
330
1F
100
AcDbEntity
  8
0
 62
     7
100
AcDbLine
 10
178.792999
 20
477.549988
 30
0.0
 11
178.663712
 21
477.420715
 31
0.0
  0
LINE
  5
5F8
330
1F
100
AcDbEntity
  8
0
 62
     7
100
AcDbLine
 10
178.792999
 20
477.549988
 30
0.0
 11
178.792999
 21
478.25
 31
0.0
  0
LINE
  5
5F9
330
1F
100
AcDbEntity
  8
0
 62
     7
100
AcDbLine
 10
178.663712
 20
478.379272
 30
0.0
 11
178.792999
 21
478.25
 31
0.0
  0
ARC
  5
5FA
330
1F
100
AcDbEntity
  8
0
 62
     7
100
AcDbCircle
 10
178.734421
 20
478.450012
 30
0.0
 40
0.1000000014901161
100
AcDbArc
 50
135.0
 51
225.0
  0
LINE
  5
5FB
330
1F
100
AcDbEntity
  8
0
 62
     7
100
AcDbLine
 10
178.792999
 20
478.650024
 30
0.0
 11
178.663712
 21
478.520691
 31
0.0
  0
LINE
  5
5FC
330
1F
100
AcDbEntity
  8
0
 62
     7
100
AcDbLine
 10
178.792999
 20
478.650024
 30
0.0
 11
178.792999
 21
483.474243
 31
0.0
  0
LINE
  5
5FD
330
1F
100
AcDbEntity
  8
0
 62
     7
100
AcDbLine
 10
178.30513
 20
483.962158
 30
0.0
 11
178.792999
 21
483.474243
 31
0.0
  0
ARC
  5
5FE
330
1F
100
AcDbEntity
  8
0
 62
     7
100
AcDbCircle
 10
178.093002
 20
483.75
 30
0.0
 40
0.300000011920929
100
AcDbArc
 50
45.000001
 51
106.874504
  0
LINE
  5
5FF
330
1F
100
AcDbEntity
  8
0
 62
     7
100
AcDbLine
 10
178.792999
 20
461.549988
 30
0.0
 11
178.992996
 21
461.549988
 31
0.0
  0
LINE
  5
600
330
1F
100
AcDbEntity
  8
0
 62
     7
100
AcDbLine
 10
178.992996
 20
461.049988
 30
0.0
 11
178.992996
 21
461.549988
 31
0.0
  0
LINE
  5
601
330
1F
100
AcDbEntity
  8
0
 62
     7
100
AcDbLine
 10
178.992996
 20
461.049988
 30
0.0
 11
178.992996
 21
457.049988
 31
0.0
  0
LINE
  5
602
330
1F
100
AcDbEntity
  8
0
 62
     7
100
AcDbLine
 10
178.992996
 20
456.549988
 30
0.0
 11
178.992996
 21
457.049988
 31
0.0
  0
LINE
  5
603
330
1F
100
AcDbEntity
  8
0
 62
     7
100
AcDbLine
 10
178.792999
 20
456.549988
 30
0.0
 11
178.992996
 21
456.549988
 31
0.0
  0
ARC
  5
604
330
1F
100
AcDbEntity
  8
0
 62
     7
100
AcDbCircle
 10
174.792999
 20
483.849976
 30
0.0
 40
3.0
100
AcDbArc
 50
8.262821
 51
90.000003
  0
LINE
  5
605
330
1F
100
AcDbEntity
  8
0
 62
     7
100
AcDbLine
 10
179.042999
 20
457.049988
 30
0.0
 11
179.042999
 21
457.180359
 31
0.0
  0
LINE
  5
606
330
1F
100
AcDbEntity
  8
0
 62
     7
100
AcDbLine
 10
179.042999
 20
460.680359
 30
0.0
 11
179.042999
 21
457.180359
 31
0.0
  0
LINE
  5
607
330
1F
100
AcDbEntity
  8
0
 62
     7
100
AcDbLine
 10
178.992996
 20
460.950012
 30
0.0
 11
179.042999
 21
460.950012
 31
0.0
  0
LINE
  5
608
330
1F
100
AcDbEntity
  8
0
 62
     7
100
AcDbLine
 10
179.042999
 20
460.680359
 30
0.0
 11
179.042999
 21
460.950012
 31
0.0
  0
LINE
  5
609
330
1F
100
AcDbEntity
  8
0
 62
     7
100
AcDbLine
 10
178.446548
 20
483.596436
 30
0.0
 11
177.604477
 21
484.438538
 31
0.0
  0
ARC
  5
60A
330
1F
100
AcDbEntity
  8
0
 62
     7
100
AcDbCircle
 10
178.093002
 20
483.24292
 30
0.0
 40
0.5
100
AcDbArc
 50
0.0
 51
45.000001
  0
LINE
  5
60B
330
1F
100
AcDbEntity
  8
0
 62
     7
100
AcDbLine
 10
178.593002
 20
456.150024
 30
0.0
 11
178.593002
 21
483.24292
 31
0.0
  0
ARC
  5
60C
330
1F
100
AcDbEntity
  8
0
 62
     7
100
AcDbCircle
 10
178.093002
 20
456.150024
 30
0.0
 40
0.5
100
AcDbArc
 50
269.999997
 51
360.0
  0
LINE
  5
60D
330
1F
100
AcDbEntity
  8
0
 62
     7
100
AcDbLine
 10
162.492996
 20
455.650024
 30
0.0
 11
178.093002
 21
455.650024
 31
0.0
  0
ARC
  5
60E
330
1F
100
AcDbEntity
  8
0
 62
     7
100
AcDbCircle
 10
162.492996
 20
456.150024
 30
0.0
 40
0.5
100
AcDbArc
 50
180.000009
 51
269.999997
  0
LINE
  5
60F
330
1F
100
AcDbEntity
  8
0
 62
     7
100
AcDbLine
 10
161.992996
 20
483.24292
 30
0.0
 11
161.992996
 21
456.150024
 31
0.0
  0
LINE
  5
610
330
1F
100
AcDbEntity
  8
0
 62
     7
100
AcDbLine
 10
161.192993
 20
465.549988
 30
0.0
 11
161.192993
 21
467.549988
 31
0.0
  0
LINE
  5
611
330
1F
100
AcDbEntity
  8
0
 62
     7
100
AcDbLine
 10
161.192993
 20
465.549988
 30
0.0
 11
161.992996
 21
465.549988
 31
0.0
  0
LINE
  5
612
330
1F
100
AcDbEntity
  8
0
 62
     7
100
AcDbLine
 10
174.792999
 20
486.849976
 30
0.0
 11
165.792999
 21
486.849976
 31
0.0
  0
ARC
  5
613
330
1F
100
AcDbEntity
  8
0
 62
     7
100
AcDbCircle
 10
165.792999
 20
483.849976
 30
0.0
 40
3.0
100
AcDbArc
 50
90.000003
 51
171.737184
  0
ARC
  5
614
330
1F
100
AcDbEntity
  8
0
 62
     7
100
AcDbCircle
 10
177.639832
 20
484.473877
 30
0.0
 40
0.0500000007450581
100
AcDbArc
 50
189.204208
 51
225.0
  0
ARC
  5
615
330
1F
100
AcDbEntity
  8
0
 62
     7
100
AcDbCircle
 10
162.492996
 20
483.24292
 30
0.0
 40
0.5
100
AcDbArc
 50
135.0
 51
180.000009
  0
LINE
  5
616
330
1F
100
AcDbEntity
  8
0
 62
     7
100
AcDbLine
 10
161.192993
 20
482.321106
 30
0.0
 11
161.192993
 21
467.549988
 31
0.0
  0
LINE
  5
617
330
1F
100
AcDbEntity
  8
0
 62
     7
100
AcDbLine
 10
161.192993
 20
482.321106
 30
0.0
 11
161.192993
 21
482.363342
 31
0.0
  0
LINE
  5
618
330
1F
100
AcDbEntity
  8
0
 62
     7
100
AcDbLine
 10
161.192993
 20
482.363342
 30
0.0
 11
161.192993
 21
486.849976
 31
0.0
  0
LINE
  5
619
330
1F
100
AcDbEntity
  8
0
 62
     7
100
AcDbLine
 10
161.393005
 20
465.549988
 30
0.0
 11
161.393005
 21
465.049988
 31
0.0
  0
LINE
  5
61A
330
1F
100
AcDbEntity
  8
0
 62
     7
100
AcDbLine
 10
161.992996
 20
465.049988
 30
0.0
 11
161.393005
 21
465.049988
 31
0.0
  0
LINE
  5
61B
330
1F
100
AcDbEntity
  8
0
 62
     7
100
AcDbLine
 10
161.393005
 20
456.349976
 30
0.0
 11
161.393005
 21
465.049988
 31
0.0
  0
ARC
  5
61C
330
1F
100
AcDbEntity
  8
0
 62
     7
100
AcDbCircle
 10
162.192993
 20
456.349976
 30
0.0
 40
0.800000011920929
100
AcDbArc
 50
180.000009
 51
269.999997
  0
LINE
  5
61D
330
1F
100
AcDbEntity
  8
0
 62
     7
100
AcDbLine
 10
162.192993
 20
455.549988
 30
0.0
 11
163.393005
 21
455.549988
 31
0.0
  0
ARC
  5
61E
330
1F
100
AcDbEntity
  8
0
 62
     7
100
AcDbCircle
 10
163.393005
 20
456.349976
 30
0.0
 40
0.800000011920929
100
AcDbArc
 50
269.999997
 51
298.955164
  0
LINE
  5
61F
330
1F
100
AcDbEntity
  8
0
 62
     7
100
AcDbLine
 10
162.981522
 20
484.438538
 30
0.0
 11
162.13945
 21
483.596436
 31
0.0
  0
ARC
  5
620
330
1F
100
AcDbEntity
  8
0
 62
     7
100
AcDbCircle
 10
162.946167
 20
484.473877
 30
0.0
 40
0.0500000007450581
100
AcDbArc
 50
314.999992
 51
350.795784
  0
ARC
  5
621
330
1F
100
AcDbEntity
  8
0
 62
     7
100
AcDbCircle
 10
165.562042
 20
484.049988
 30
0.0
 40
2.599999904632568
100
AcDbArc
 50
90.000003
 51
170.795792
  0
LINE
  5
622
330
1F
100
AcDbEntity
  8
0
 62
     7
100
AcDbLine
 10
175.023956
 20
486.650024
 30
0.0
 11
165.562042
 21
486.650024
 31
0.0
  0
ARC
  5
623
330
1F
100
AcDbEntity
  8
0
 62
     7
100
AcDbCircle
 10
175.023956
 20
484.049988
 30
0.0
 40
2.599999904632568
100
AcDbArc
 50
9.20421
 51
90.000003
  0
CIRCLE
  5
624
330
1F
100
AcDbEntity
  8
0
 62
     7
100
AcDbCircle
 10
170.292999
 20
463.849976
 30
0.0
 40
5.150000095367432
  0
POLYLINE
  5
625
330
1F
100
AcDbEntity
  8
0
 62
     7
100
AcDb2dPolyline
 66
     1
 10
0.0
 20
0.0
 30
0.0
  0
VERTEX
  5
626
330
625
100
AcDbEntity
  8
0
100
AcDbVertex
100
AcDb2dVertex
 10
161.692993
 20
483.760193
 30
0.0
  0
VERTEX
  5
627
330
625
100
AcDbEntity
  8
0
100
AcDbVertex
100
AcDb2dVertex
 10
161.689133
 20
483.662903
 30
0.0
  0
VERTEX
  5
628
330
625
100
AcDbEntity
  8
0
100
AcDbVertex
100
AcDb2dVertex
 10
161.677536
 20
483.559448
 30
0.0
  0
VERTEX
  5
629
330
625
100
AcDbEntity
  8
0
100
AcDbVertex
100
AcDb2dVertex
 10
161.658173
 20
483.450073
 30
0.0
  0
VERTEX
  5
62A
330
625
100
AcDbEntity
  8
0
100
AcDbVertex
100
AcDb2dVertex
 10
161.630981
 20
483.3349
 30
0.0
  0
VERTEX
  5
62B
330
625
100
AcDbEntity
  8
0
100
AcDbVertex
100
AcDb2dVertex
 10
161.595795
 20
483.213989
 30
0.0
  0
VERTEX
  5
62C
330
625
100
AcDbEntity
  8
0
100
AcDbVertex
100
AcDb2dVertex
 10
161.552338
 20
483.087341
 30
0.0
  0
VERTEX
  5
62D
330
625
100
AcDbEntity
  8
0
100
AcDbVertex
100
AcDb2dVertex
 10
161.500259
 20
482.954895
 30
0.0
  0
VERTEX
  5
62E
330
625
100
AcDbEntity
  8
0
100
AcDbVertex
100
AcDb2dVertex
 10
161.439026
 20
482.816406
 30
0.0
  0
VERTEX
  5
62F
330
625
100
AcDbEntity
  8
0
100
AcDbVertex
100
AcDb2dVertex
 10
161.367996
 20
482.671814
 30
0.0
  0
VERTEX
  5
630
330
625
100
AcDbEntity
  8
0
100
AcDbVertex
100
AcDb2dVertex
 10
161.286331
 20
482.520874
 30
0.0
  0
VERTEX
  5
631
330
625
100
AcDbEntity
  8
0
100
AcDbVertex
100
AcDb2dVertex
 10
161.192993
 20
482.363342
 30
0.0
  0
SEQEND
  5
632
330
625
100
AcDbEntity
  8
0
 62
     7
  0
LINE
  5
633
330
1F
100
AcDbEntity
  8
0
 62
     7
100
AcDbLine
 10
161.692993
 20
483.760193
 30
0.0
 11
161.692993
 21
487.349976
 31
0.0
  0
LINE
  5
634
330
1F
100
AcDbEntity
  8
0
 62
     7
100
AcDbLine
 10
162.792999
 20
484.25
 30
0.0
 11
162.792999
 21
487.349976
 31
0.0
  0
CIRCLE
  5
635
330
1F
100
AcDbEntity
  8
0
 62
     7
100
AcDbCircle
 10
170.292999
 20
463.849976
 30
0.0
 40
4.150000095367432
  0
ARC
  5
636
330
1F
100
AcDbEntity
  8
0
 62
     7
100
AcDbCircle
 10
170.292999
 20
463.849976
 30
0.0
 40
3.75
100
AcDbArc
 50
350.018317
 51
9.981683
  0
ARC
  5
637
330
1F
100
AcDbEntity
  8
0
 62
     7
100
AcDbCircle
 10
170.292999
 20
463.849976
 30
0.0
 40
3.75
100
AcDbArc
 50
189.981688
 51
350.018317
  0
ARC
  5
638
330
1F
100
AcDbEntity
  8
0
 62
     7
100
AcDbCircle
 10
170.292999
 20
463.849976
 30
0.0
 40
3.75
100
AcDbArc
 50
170.018312
 51
189.981688
  0
ARC
  5
639
330
1F
100
AcDbEntity
  8
0
 62
     7
100
AcDbCircle
 10
170.292999
 20
463.849976
 30
0.0
 40
3.75
100
AcDbArc
 50
9.981683
 51
170.018312
  0
LINE
  5
63A
330
1F
100
AcDbEntity
  8
0
 62
     7
100
AcDbLine
 10
173.78299
 20
463.200012
 30
0.0
 11
173.986237
 21
463.200012
 31
0.0
  0
LINE
  5
63B
330
1F
100
AcDbEntity
  8
0
 62
     7
100
AcDbLine
 10
166.803009
 20
463.200012
 30
0.0
 11
166.599762
 21
463.200012
 31
0.0
  0
LINE
  5
63C
330
1F
100
AcDbEntity
  8
0
 62
     7
100
AcDbLine
 10
173.78299
 20
463.200012
 30
0.0
 11
166.803009
 21
463.200012
 31
0.0
  0
ARC
  5
63D
330
1F
100
AcDbEntity
  8
0
 62
     7
100
AcDbCircle
 10
170.292999
 20
463.849976
 30
0.0
 40
3.549999952316284
100
AcDbArc
 50
190.550301
 51
349.44969
  0
LINE
  5
63E
330
1F
100
AcDbEntity
  8
0
 62
     7
100
AcDbLine
 10
166.803009
 20
464.5
 30
0.0
 11
166.599762
 21
464.5
 31
0.0
  0
LINE
  5
63F
330
1F
100
AcDbEntity
  8
0
 62
     7
100
AcDbLine
 10
173.78299
 20
464.5
 30
0.0
 11
173.986237
 21
464.5
 31
0.0
  0
LINE
  5
640
330
1F
100
AcDbEntity
  8
0
 62
     7
100
AcDbLine
 10
166.803009
 20
464.5
 30
0.0
 11
173.78299
 21
464.5
 31
0.0
  0
ARC
  5
641
330
1F
100
AcDbEntity
  8
0
 62
     7
100
AcDbCircle
 10
170.292999
 20
463.849976
 30
0.0
 40
3.549999952316284
100
AcDbArc
 50
10.550303
 51
169.449699
  0
LINE
  5
642
330
1F
100
AcDbEntity
  8
0
 62
     7
100
AcDbLine
 10
178.992996
 20
457.049988
 30
0.0
 11
179.042999
 21
457.049988
 31
0.0
  0
LINE
  5
643
330
1F
100
AcDbEntity
  8
0
 62
     7
100
AcDbLine
 10
178.992996
 20
457.049988
 30
0.0
 11
179.042999
 21
457.049988
 31
0.0
  0
LINE
  5
644
330
1F
100
AcDbEntity
  8
0
 62
     7
100
AcDbLine
 10
161.192993
 20
486.849976
 30
0.0
 11
161.692993
 21
487.349976
 31
0.0
  0
LINE
  5
645
330
1F
100
AcDbEntity
  8
0
 62
     7
100
AcDbLine
 10
161.692993
 20
487.349976
 30
0.0
 11
162.792999
 21
487.349976
 31
0.0
  0
ARC
  5
646
330
1F
100
AcDbEntity
  8
0
 62
     7
100
AcDbCircle
 10
169.992996
 20
438.650024
 30
0.0
 40
7.0
100
AcDbArc
 50
299.059263
 51
240.940746
  0
ARC
  5
647
330
1F
100
AcDbEntity
  8
0
 62
     7
100
AcDbCircle
 10
169.992996
 20
438.650024
 30
0.0
 40
6.900000095367432
100
AcDbArc
 50
299.52166
 51
240.478287
  0
LINE
  5
648
330
1F
100
AcDbEntity
  8
0
 62
     7
100
AcDbLine
 10
161.393005
 20
429.950012
 30
0.0
 11
161.393005
 21
453.049988
 31
0.0
  0
LINE
  5
649
330
1F
100
AcDbEntity
  8
0
 62
     7
100
AcDbLine
 10
161.393005
 20
453.049988
 30
0.0
 11
161.393005
 21
454.049988
 31
0.0
  0
LINE
  5
64A
330
1F
100
AcDbEntity
  8
0
 62
     7
100
AcDbLine
 10
178.593002
 20
453.049988
 30
0.0
 11
178.593002
 21
429.950012
 31
0.0
  0
LINE
  5
64B
330
1F
100
AcDbEntity
  8
0
 62
     7
100
AcDbLine
 10
178.593002
 20
453.049988
 30
0.0
 11
178.593002
 21
454.049988
 31
0.0
  0
LINE
  5
64C
330
1F
100
AcDbEntity
  8
0
 62
     7
100
AcDbLine
 10
161.893005
 20
453.049988
 30
0.0
 11
161.539444
 21
453.403564
 31
0.0
  0
ARC
  5
64D
330
1F
100
AcDbEntity
  8
0
 62
     7
100
AcDbCircle
 10
161.893005
 20
453.049988
 30
0.0
 40
0.5
100
AcDbArc
 50
90.000003
 51
180.000009
  0
ARC
  5
64E
330
1F
100
AcDbEntity
  8
0
 62
     7
100
AcDbCircle
 10
161.893005
 20
429.950012
 30
0.0
 40
0.5
100
AcDbArc
 50
180.000009
 51
270.000353
  0
ARC
  5
64F
330
1F
100
AcDbEntity
  8
0
 62
     7
100
AcDbCircle
 10
161.893005
 20
429.450012
 30
0.0
 40
0.5000079870223999
100
AcDbArc
 50
90.000289
 51
149.999055
  0
ARC
  5
650
330
1F
100
AcDbEntity
  8
0
 62
     7
100
AcDbCircle
 10
161.893005
 20
454.049988
 30
0.0
 40
0.5
100
AcDbArc
 50
90.000003
 51
180.000009
  0
LINE
  5
651
330
1F
100
AcDbEntity
  8
0
 62
     7
100
AcDbLine
 10
161.192993
 20
448.487671
 30
0.0
 11
161.192993
 21
449.4505
 31
0.0
  0
LINE
  5
652
330
1F
100
AcDbEntity
  8
0
 62
     7
100
AcDbLine
 10
161.192993
 20
448.487671
 30
0.0
 11
161.192993
 21
436.75
 31
0.0
  0
LINE
  5
653
330
1F
100
AcDbEntity
  8
0
 62
     7
100
AcDbLine
 10
161.192993
 20
433.75
 30
0.0
 11
161.192993
 21
436.75
 31
0.0
  0
LINE
  5
654
330
1F
100
AcDbEntity
  8
0
 62
     7
100
AcDbLine
 10
161.192993
 20
433.75
 30
0.0
 11
161.393005
 21
433.75
 31
0.0
  0
LINE
  5
655
330
1F
100
AcDbEntity
  8
0
 62
     7
100
AcDbLine
 10
161.192993
 20
452.549988
 30
0.0
 11
161.393005
 21
452.549988
 31
0.0
  0
LINE
  5
656
330
1F
100
AcDbEntity
  8
0
 62
     7
100
AcDbLine
 10
161.192993
 20
451.68512
 30
0.0
 11
161.192993
 21
452.549988
 31
0.0
  0
LINE
  5
657
330
1F
100
AcDbEntity
  8
0
 62
     7
100
AcDbLine
 10
166.04332
 20
432.75
 30
0.0
 11
166.226044
 21
432.75
 31
0.0
  0
LINE
  5
658
330
1F
100
AcDbEntity
  8
0
 62
     7
100
AcDbLine
 10
173.759949
 20
432.75
 30
0.0
 11
173.942688
 21
432.75
 31
0.0
  0
ARC
  5
659
330
1F
100
AcDbEntity
  8
0
 62
     7
100
AcDbCircle
 10
178.093002
 20
429.950012
 30
0.0
 40
0.5
100
AcDbArc
 50
269.999997
 51
359.999901
  0
ARC
  5
65A
330
1F
100
AcDbEntity
  8
0
 62
     7
100
AcDbCircle
 10
178.093002
 20
453.049988
 30
0.0
 40
0.5
100
AcDbArc
 50
0.0
 51
90.000003
  0
LINE
  5
65B
330
1F
100
AcDbEntity
  8
0
 62
     7
100
AcDbLine
 10
178.093002
 20
453.049988
 30
0.0
 11
178.446548
 21
453.403564
 31
0.0
  0
ARC
  5
65C
330
1F
100
AcDbEntity
  8
0
 62
     7
100
AcDbCircle
 10
178.093002
 20
429.450012
 30
0.0
 40
0.4999969899654388
100
AcDbArc
 50
29.999605
 51
90.000201
  0
LINE
  5
65D
330
1F
100
AcDbEntity
  8
0
 62
     7
100
AcDbLine
 10
178.593002
 20
451.68512
 30
0.0
 11
178.593002
 21
449.4505
 31
0.0
  0
LINE
  5
65E
330
1F
100
AcDbEntity
  8
0
 62
     7
100
AcDbLine
 10
178.792999
 20
451.68512
 30
0.0
 11
178.792999
 21
452.549988
 31
0.0
  0
LINE
  5
65F
330
1F
100
AcDbEntity
  8
0
 62
     7
100
AcDbLine
 10
178.593002
 20
452.549988
 30
0.0
 11
178.792999
 21
452.549988
 31
0.0
  0
LINE
  5
660
330
1F
100
AcDbEntity
  8
0
 62
     7
100
AcDbLine
 10
178.593002
 20
433.75
 30
0.0
 11
178.792999
 21
433.75
 31
0.0
  0
LINE
  5
661
330
1F
100
AcDbEntity
  8
0
 62
     7
100
AcDbLine
 10
178.792999
 20
433.75
 30
0.0
 11
178.792999
 21
436.75
 31
0.0
  0
LINE
  5
662
330
1F
100
AcDbEntity
  8
0
 62
     7
100
AcDbLine
 10
178.792999
 20
448.487671
 30
0.0
 11
178.792999
 21
436.75
 31
0.0
  0
LINE
  5
663
330
1F
100
AcDbEntity
  8
0
 62
     7
100
AcDbLine
 10
178.792999
 20
448.487671
 30
0.0
 11
178.792999
 21
449.4505
 31
0.0
  0
ARC
  5
664
330
1F
100
AcDbEntity
  8
0
 62
     7
100
AcDbCircle
 10
178.093002
 20
454.049988
 30
0.0
 40
0.5
100
AcDbArc
 50
0.0
 51
90.000003
  0
LINE
  5
665
330
1F
100
AcDbEntity
  8
0
 62
     7
100
AcDbLine
 10
161.893005
 20
429.950012
 30
0.0
 11
166.592941
 21
429.950012
 31
0.0
  0
LINE
  5
666
330
1F
100
AcDbEntity
  8
0
 62
     7
100
AcDbLine
 10
173.392944
 20
429.950012
 30
0.0
 11
178.093002
 21
429.950012
 31
0.0
  0
ARC
  5
667
330
1F
100
AcDbEntity
  8
0
 62
     7
100
AcDbCircle
 10
173.627899
 20
453.049988
 30
0.0
 40
0.5
100
AcDbArc
 50
90.000003
 51
218.583597
  0
ARC
  5
668
330
1F
100
AcDbEntity
  8
0
 62
     7
100
AcDbCircle
 10
169.992996
 20
450.150024
 30
0.0
 40
4.150000095367432
100
AcDbArc
 50
0.0
 51
38.583602
  0
LINE
  5
669
330
1F
100
AcDbEntity
  8
0
 62
     7
100
AcDbLine
 10
174.143005
 20
450.150024
 30
0.0
 11
174.143005
 21
449.150024
 31
0.0
  0
ARC
  5
66A
330
1F
100
AcDbEntity
  8
0
 62
     7
100
AcDbCircle
 10
169.992996
 20
449.150024
 30
0.0
 40
4.150000095367432
100
AcDbArc
 50
327.912246
 51
360.0
  0
POLYLINE
  5
66B
330
1F
100
AcDbEntity
  8
0
 62
     7
100
AcDb2dPolyline
 66
     1
 10
0.0
 20
0.0
 30
0.0
  0
VERTEX
  5
66C
330
66B
100
AcDbEntity
  8
0
100
AcDbVertex
100
AcDb2dVertex
 10
173.919846
 20
444.803833
 30
0.0
  0
VERTEX
  5
66D
330
66B
100
AcDbEntity
  8
0
100
AcDbVertex
100
AcDb2dVertex
 10
173.845551
 20
444.854675
 30
0.0
  0
VERTEX
  5
66E
330
66B
100
AcDbEntity
  8
0
100
AcDbVertex
100
AcDb2dVertex
 10
173.786163
 20
444.900635
 30
0.0
  0
VERTEX
  5
66F
330
66B
100
AcDbEntity
  8
0
100
AcDbVertex
100
AcDb2dVertex
 10
173.729401
 20
444.949585
 30
0.0
  0
VERTEX
  5
670
330
66B
100
AcDbEntity
  8
0
100
AcDbVertex
100
AcDb2dVertex
 10
173.654755
 20
445.022644
 30
0.0
  0
VERTEX
  5
671
330
66B
100
AcDbEntity
  8
0
100
AcDbVertex
100
AcDb2dVertex
 10
173.585846
 20
445.100891
 30
0.0
  0
VERTEX
  5
672
330
66B
100
AcDbEntity
  8
0
100
AcDbVertex
100
AcDb2dVertex
 10
173.52298
 20
445.183655
 30
0.0
  0
VERTEX
  5
673
330
66B
100
AcDbEntity
  8
0
100
AcDbVertex
100
AcDb2dVertex
 10
173.466431
 20
445.270386
 30
0.0
  0
VERTEX
  5
674
330
66B
100
AcDbEntity
  8
0
100
AcDbVertex
100
AcDb2dVertex
 10
173.416397
 20
445.360535
 30
0.0
  0
VERTEX
  5
675
330
66B
100
AcDbEntity
  8
0
100
AcDbVertex
100
AcDb2dVertex
 10
173.372971
 20
445.453613
 30
0.0
  0
VERTEX
  5
676
330
66B
100
AcDbEntity
  8
0
100
AcDbVertex
100
AcDb2dVertex
 10
173.336227
 20
445.54895
 30
0.0
  0
VERTEX
  5
677
330
66B
100
AcDbEntity
  8
0
100
AcDbVertex
100
AcDb2dVertex
 10
173.305084
 20
445.650024
 30
0.0
  0
VERTEX
  5
678
330
66B
100
AcDbEntity
  8
0
100
AcDbVertex
100
AcDb2dVertex
 10
173.281128
 20
445.752502
 30
0.0
  0
VERTEX
  5
679
330
66B
100
AcDbEntity
  8
0
100
AcDbVertex
100
AcDb2dVertex
 10
173.264252
 20
445.855835
 30
0.0
  0
VERTEX
  5
67A
330
66B
100
AcDbEntity
  8
0
100
AcDbVertex
100
AcDb2dVertex
 10
173.254364
 20
445.959473
 30
0.0
  0
VERTEX
  5
67B
330
66B
100
AcDbEntity
  8
0
100
AcDbVertex
100
AcDb2dVertex
 10
173.251282
 20
446.06311
 30
0.0
  0
VERTEX
  5
67C
330
66B
100
AcDbEntity
  8
0
100
AcDbVertex
100
AcDb2dVertex
 10
173.254852
 20
446.166199
 30
0.0
  0
VERTEX
  5
67D
330
66B
100
AcDbEntity
  8
0
100
AcDbVertex
100
AcDb2dVertex
 10
173.264908
 20
446.268433
 30
0.0
  0
VERTEX
  5
67E
330
66B
100
AcDbEntity
  8
0
100
AcDbVertex
100
AcDb2dVertex
 10
173.281647
 20
446.371582
 30
0.0
  0
VERTEX
  5
67F
330
66B
100
AcDbEntity
  8
0
100
AcDbVertex
100
AcDb2dVertex
 10
173.304764
 20
446.473022
 30
0.0
  0
VERTEX
  5
680
330
66B
100
AcDbEntity
  8
0
100
AcDbVertex
100
AcDb2dVertex
 10
173.334045
 20
446.572571
 30
0.0
  0
VERTEX
  5
681
330
66B
100
AcDbEntity
  8
0
100
AcDbVertex
100
AcDb2dVertex
 10
173.369308
 20
446.669861
 30
0.0
  0
VERTEX
  5
682
330
66B
100
AcDbEntity
  8
0
100
AcDbVertex
100
AcDb2dVertex
 10
173.410355
 20
446.764648
 30
0.0
  0
VERTEX
  5
683
330
66B
100
AcDbEntity
  8
0
100
AcDbVertex
100
AcDb2dVertex
 10
173.456985
 20
446.856567
 30
0.0
  0
VERTEX
  5
684
330
66B
100
AcDbEntity
  8
0
100
AcDbVertex
100
AcDb2dVertex
 10
173.509033
 20
446.945435
 30
0.0
  0
SEQEND
  5
685
330
66B
100
AcDbEntity
  8
0
 62
     7
  0
ARC
  5
686
330
1F
100
AcDbEntity
  8
0
 62
     7
100
AcDbCircle
 10
169.992996
 20
438.650024
 30
0.0
 40
7.300000190734863
100
AcDbArc
 50
297.758952
 51
57.457471
  0
LINE
  5
687
330
1F
100
AcDbEntity
  8
0
 62
     7
100
AcDbLine
 10
166.493195
 20
432.243652
 30
0.0
 11
166.593002
 21
432.190125
 31
0.0
  0
ARC
  5
688
330
1F
100
AcDbEntity
  8
0
 62
     7
100
AcDbCircle
 10
169.992996
 20
438.650024
 30
0.0
 40
7.300000190734863
100
AcDbArc
 50
122.542528
 51
241.352115
  0
POLYLINE
  5
689
330
1F
100
AcDbEntity
  8
0
 62
     7
100
AcDb2dPolyline
 66
     1
 10
0.0
 20
0.0
 30
0.0
  0
VERTEX
  5
68A
330
689
100
AcDbEntity
  8
0
100
AcDbVertex
100
AcDb2dVertex
 10
166.066147
 20
444.803833
 30
0.0
  0
VERTEX
  5
68B
330
689
100
AcDbEntity
  8
0
100
AcDbVertex
100
AcDb2dVertex
 10
166.14563
 20
444.858459
 30
0.0
  0
VERTEX
  5
68C
330
689
100
AcDbEntity
  8
0
100
AcDbVertex
100
AcDb2dVertex
 10
166.221176
 20
444.918396
 30
0.0
  0
VERTEX
  5
68D
330
689
100
AcDbEntity
  8
0
100
AcDbVertex
100
AcDb2dVertex
 10
166.292389
 20
444.983276
 30
0.0
  0
VERTEX
  5
68E
330
689
100
AcDbEntity
  8
0
100
AcDbVertex
100
AcDb2dVertex
 10
166.358902
 20
445.052673
 30
0.0
  0
VERTEX
  5
68F
330
689
100
AcDbEntity
  8
0
100
AcDbVertex
100
AcDb2dVertex
 10
166.420441
 20
445.126282
 30
0.0
  0
VERTEX
  5
690
330
689
100
AcDbEntity
  8
0
100
AcDbVertex
100
AcDb2dVertex
 10
166.48201
 20
445.211304
 30
0.0
  0
VERTEX
  5
691
330
689
100
AcDbEntity
  8
0
100
AcDbVertex
100
AcDb2dVertex
 10
166.537048
 20
445.300232
 30
0.0
  0
VERTEX
  5
692
330
689
100
AcDbEntity
  8
0
100
AcDbVertex
100
AcDb2dVertex
 10
166.585403
 20
445.392517
 30
0.0
  0
VERTEX
  5
693
330
689
100
AcDbEntity
  8
0
100
AcDbVertex
100
AcDb2dVertex
 10
166.626938
 20
445.487488
 30
0.0
  0
VERTEX
  5
694
330
689
100
AcDbEntity
  8
0
100
AcDbVertex
100
AcDb2dVertex
 10
166.661652
 20
445.584656
 30
0.0
  0
VERTEX
  5
695
330
689
100
AcDbEntity
  8
0
100
AcDbVertex
100
AcDb2dVertex
 10
166.689529
 20
445.683411
 30
0.0
  0
VERTEX
  5
696
330
689
100
AcDbEntity
  8
0
100
AcDbVertex
100
AcDb2dVertex
 10
166.710663
 20
445.783325
 30
0.0
  0
VERTEX
  5
697
330
689
100
AcDbEntity
  8
0
100
AcDbVertex
100
AcDb2dVertex
 10
166.725571
 20
445.888184
 30
0.0
  0
VERTEX
  5
698
330
689
100
AcDbEntity
  8
0
100
AcDbVertex
100
AcDb2dVertex
 10
166.733383
 20
445.993286
 30
0.0
  0
VERTEX
  5
699
330
689
100
AcDbEntity
  8
0
100
AcDbVertex
100
AcDb2dVertex
 10
166.734238
 20
446.098145
 30
0.0
  0
VERTEX
  5
69A
330
689
100
AcDbEntity
  8
0
100
AcDbVertex
100
AcDb2dVertex
 10
166.728333
 20
446.202393
 30
0.0
  0
VERTEX
  5
69B
330
689
100
AcDbEntity
  8
0
100
AcDbVertex
100
AcDb2dVertex
 10
166.71582
 20
446.305603
 30
0.0
  0
VERTEX
  5
69C
330
689
100
AcDbEntity
  8
0
100
AcDbVertex
100
AcDb2dVertex
 10
166.69693
 20
446.407471
 30
0.0
  0
VERTEX
  5
69D
330
689
100
AcDbEntity
  8
0
100
AcDbVertex
100
AcDb2dVertex
 10
166.671829
 20
446.507568
 30
0.0
  0
VERTEX
  5
69E
330
689
100
AcDbEntity
  8
0
100
AcDbVertex
100
AcDb2dVertex
 10
166.642822
 20
446.599609
 30
0.0
  0
VERTEX
  5
69F
330
689
100
AcDbEntity
  8
0
100
AcDbVertex
100
AcDb2dVertex
 10
166.608673
 20
446.689697
 30
0.0
  0
VERTEX
  5
6A0
330
689
100
AcDbEntity
  8
0
100
AcDbVertex
100
AcDb2dVertex
 10
166.56955
 20
446.777466
 30
0.0
  0
VERTEX
  5
6A1
330
689
100
AcDbEntity
  8
0
100
AcDbVertex
100
AcDb2dVertex
 10
166.525604
 20
446.862793
 30
0.0
  0
VERTEX
  5
6A2
330
689
100
AcDbEntity
  8
0
100
AcDbVertex
100
AcDb2dVertex
 10
166.476974
 20
446.945435
 30
0.0
  0
SEQEND
  5
6A3
330
689
100
AcDbEntity
  8
0
 62
     7
  0
ARC
  5
6A4
330
1F
100
AcDbEntity
  8
0
 62
     7
100
AcDbCircle
 10
169.992996
 20
449.150024
 30
0.0
 40
4.150000095367432
100
AcDbArc
 50
180.000009
 51
212.087746
  0
LINE
  5
6A5
330
1F
100
AcDbEntity
  8
0
 62
     7
100
AcDbLine
 10
165.843002
 20
450.150024
 30
0.0
 11
165.843002
 21
449.150024
 31
0.0
  0
ARC
  5
6A6
330
1F
100
AcDbEntity
  8
0
 62
     7
100
AcDbCircle
 10
169.992996
 20
450.150024
 30
0.0
 40
4.150000095367432
100
AcDbArc
 50
141.416403
 51
180.000009
  0
ARC
  5
6A7
330
1F
100
AcDbEntity
  8
0
 62
     7
100
AcDbCircle
 10
166.358093
 20
453.049988
 30
0.0
 40
0.5
100
AcDbArc
 50
321.416408
 51
90.000003
  0
LINE
  5
6A8
330
1F
100
AcDbEntity
  8
0
 62
     7
100
AcDbLine
 10
164.143005
 20
445.849976
 30
0.0
 11
163.742996
 21
445.849976
 31
0.0
  0
ARC
  5
6A9
330
1F
100
AcDbEntity
  8
0
 62
     7
100
AcDbCircle
 10
163.742996
 20
447.200012
 30
0.0
 40
1.350000023841858
100
AcDbArc
 50
90.000003
 51
269.99997
  0
LINE
  5
6AA
330
1F
100
AcDbEntity
  8
0
 62
     7
100
AcDbLine
 10
163.742996
 20
448.549988
 30
0.0
 11
164.143005
 21
448.549988
 31
0.0
  0
ARC
  5
6AB
330
1F
100
AcDbEntity
  8
0
 62
     7
100
AcDbCircle
 10
164.143005
 20
447.200012
 30
0.0
 40
1.350000023841858
100
AcDbArc
 50
269.999997
 51
89.999989
  0
CIRCLE
  5
6AC
330
1F
100
AcDbEntity
  8
0
 62
     7
100
AcDbCircle
 10
176.042999
 20
447.200012
 30
0.0
 40
1.350000023841858
  0
LINE
  5
6AD
330
1F
100
AcDbEntity
  8
0
 62
     7
100
AcDbLine
 10
161.893005
 20
453.549988
 30
0.0
 11
166.358093
 21
453.549988
 31
0.0
  0
LINE
  5
6AE
330
1F
100
AcDbEntity
  8
0
 62
     7
100
AcDbLine
 10
161.893005
 20
429.450012
 30
0.0
 11
166.592941
 21
429.450012
 31
0.0
  0
LINE
  5
6AF
330
1F
100
AcDbEntity
  8
0
 62
     7
100
AcDbLine
 10
173.392944
 20
429.450012
 30
0.0
 11
178.093002
 21
429.450012
 31
0.0
  0
LINE
  5
6B0
330
1F
100
AcDbEntity
  8
0
 62
     7
100
AcDbLine
 10
168.411072
 20
453.549988
 30
0.0
 11
166.683914
 21
453.549988
 31
0.0
  0
LINE
  5
6B1
330
1F
100
AcDbEntity
  8
0
 62
     7
100
AcDbLine
 10
173.302078
 20
453.549988
 30
0.0
 11
171.574921
 21
453.549988
 31
0.0
  0
LINE
  5
6B2
330
1F
100
AcDbEntity
  8
0
 62
     7
100
AcDbLine
 10
173.302078
 20
453.549988
 30
0.0
 11
173.627899
 21
453.549988
 31
0.0
  0
LINE
  5
6B3
330
1F
100
AcDbEntity
  8
0
 62
     7
100
AcDbLine
 10
173.627899
 20
453.549988
 30
0.0
 11
178.093002
 21
453.549988
 31
0.0
  0
LINE
  5
6B4
330
1F
100
AcDbEntity
  8
0
 62
     7
100
AcDbLine
 10
166.358093
 20
453.549988
 30
0.0
 11
166.683914
 21
453.549988
 31
0.0
  0
LINE
  5
6B5
330
1F
100
AcDbEntity
  8
0
 62
     7
100
AcDbLine
 10
161.893005
 20
454.549988
 30
0.0
 11
178.093002
 21
454.549988
 31
0.0
  0
LINE
  5
6B6
330
1F
100
AcDbEntity
  8
0
 62
     7
100
AcDbLine
 10
161.192993
 20
449.4505
 30
0.0
 11
161.192993
 21
451.68512
 31
0.0
  0
LINE
  5
6B7
330
1F
100
AcDbEntity
  8
0
 62
     7
100
AcDbLine
 10
178.792999
 20
449.4505
 30
0.0
 11
178.792999
 21
451.68512
 31
0.0
  0
LINE
  5
6B8
330
1F
100
AcDbEntity
  8
0
 62
     7
100
AcDbLine
 10
173.45105
 20
446.855591
 30
0.0
 11
173.509033
 21
446.945435
 31
0.0
  0
POLYLINE
  5
6B9
330
1F
100
AcDbEntity
  8
0
 62
     7
100
AcDb2dPolyline
 66
     1
 10
0.0
 20
0.0
 30
0.0
  0
VERTEX
  5
6BA
330
6B9
100
AcDbEntity
  8
0
100
AcDbVertex
100
AcDb2dVertex
 10
173.45105
 20
446.855591
 30
0.0
  0
VERTEX
  5
6BB
330
6B9
100
AcDbEntity
  8
0
100
AcDbVertex
100
AcDb2dVertex
 10
173.395325
 20
446.765686
 30
0.0
  0
VERTEX
  5
6BC
330
6B9
100
AcDbEntity
  8
0
100
AcDbVertex
100
AcDb2dVertex
 10
173.345245
 20
446.672363
 30
0.0
  0
VERTEX
  5
6BD
330
6B9
100
AcDbEntity
  8
0
100
AcDbVertex
100
AcDb2dVertex
 10
173.30098
 20
446.575928
 30
0.0
  0
VERTEX
  5
6BE
330
6B9
100
AcDbEntity
  8
0
100
AcDbVertex
100
AcDb2dVertex
 10
173.262772
 20
446.476685
 30
0.0
  0
VERTEX
  5
6BF
330
6B9
100
AcDbEntity
  8
0
100
AcDbVertex
100
AcDb2dVertex
 10
173.23082
 20
446.374939
 30
0.0
  0
VERTEX
  5
6C0
330
6B9
100
AcDbEntity
  8
0
100
AcDbVertex
100
AcDb2dVertex
 10
173.205353
 20
446.271057
 30
0.0
  0
VERTEX
  5
6C1
330
6B9
100
AcDbEntity
  8
0
100
AcDbVertex
100
AcDb2dVertex
 10
173.186584
 20
446.165344
 30
0.0
  0
VERTEX
  5
6C2
330
6B9
100
AcDbEntity
  8
0
100
AcDbVertex
100
AcDb2dVertex
 10
173.174927
 20
446.060303
 30
0.0
  0
VERTEX
  5
6C3
330
6B9
100
AcDbEntity
  8
0
100
AcDbVertex
100
AcDb2dVertex
 10
173.170105
 20
445.954285
 30
0.0
  0
VERTEX
  5
6C4
330
6B9
100
AcDbEntity
  8
0
100
AcDbVertex
100
AcDb2dVertex
 10
173.172363
 20
445.847595
 30
0.0
  0
VERTEX
  5
6C5
330
6B9
100
AcDbEntity
  8
0
100
AcDbVertex
100
AcDb2dVertex
 10
173.181854
 20
445.740784
 30
0.0
  0
VERTEX
  5
6C6
330
6B9
100
AcDbEntity
  8
0
100
AcDbVertex
100
AcDb2dVertex
 10
173.198792
 20
445.634338
 30
0.0
  0
VERTEX
  5
6C7
330
6B9
100
AcDbEntity
  8
0
100
AcDbVertex
100
AcDb2dVertex
 10
173.223267
 20
445.528748
 30
0.0
  0
VERTEX
  5
6C8
330
6B9
100
AcDbEntity
  8
0
100
AcDbVertex
100
AcDb2dVertex
 10
173.255402
 20
445.424622
 30
0.0
  0
VERTEX
  5
6C9
330
6B9
100
AcDbEntity
  8
0
100
AcDbVertex
100
AcDb2dVertex
 10
173.293427
 20
445.326782
 30
0.0
  0
VERTEX
  5
6CA
330
6B9
100
AcDbEntity
  8
0
100
AcDbVertex
100
AcDb2dVertex
 10
173.338501
 20
445.231445
 30
0.0
  0
VERTEX
  5
6CB
330
6B9
100
AcDbEntity
  8
0
100
AcDbVertex
100
AcDb2dVertex
 10
173.390579
 20
445.139221
 30
0.0
  0
VERTEX
  5
6CC
330
6B9
100
AcDbEntity
  8
0
100
AcDbVertex
100
AcDb2dVertex
 10
173.449509
 20
445.05072
 30
0.0
  0
VERTEX
  5
6CD
330
6B9
100
AcDbEntity
  8
0
100
AcDbVertex
100
AcDb2dVertex
 10
173.481476
 20
445.007996
 30
0.0
  0
VERTEX
  5
6CE
330
6B9
100
AcDbEntity
  8
0
100
AcDbVertex
100
AcDb2dVertex
 10
173.515045
 20
444.966492
 30
0.0
  0
VERTEX
  5
6CF
330
6B9
100
AcDbEntity
  8
0
100
AcDbVertex
100
AcDb2dVertex
 10
173.562286
 20
444.913025
 30
0.0
  0
VERTEX
  5
6D0
330
6B9
100
AcDbEntity
  8
0
100
AcDbVertex
100
AcDb2dVertex
 10
173.612228
 20
444.862
 30
0.0
  0
VERTEX
  5
6D1
330
6B9
100
AcDbEntity
  8
0
100
AcDbVertex
100
AcDb2dVertex
 10
173.664734
 20
444.813416
 30
0.0
  0
VERTEX
  5
6D2
330
6B9
100
AcDbEntity
  8
0
100
AcDbVertex
100
AcDb2dVertex
 10
173.720093
 20
444.767273
 30
0.0
  0
VERTEX
  5
6D3
330
6B9
100
AcDbEntity
  8
0
100
AcDbVertex
100
AcDb2dVertex
 10
173.777832
 20
444.723877
 30
0.0
  0
VERTEX
  5
6D4
330
6B9
100
AcDbEntity
  8
0
100
AcDbVertex
100
AcDb2dVertex
 10
173.837646
 20
444.683594
 30
0.0
  0
SEQEND
  5
6D5
330
6B9
100
AcDbEntity
  8
0
 62
     7
  0
ARC
  5
6D6
330
1F
100
AcDbEntity
  8
0
 62
     7
100
AcDbCircle
 10
169.992996
 20
438.650024
 30
0.0
 40
7.099999904632568
100
AcDbArc
 50
298.611797
 51
241.352115
  0
ARC
  5
6D7
330
1F
100
AcDbEntity
  8
0
 62
     7
100
AcDbCircle
 10
169.992767
 20
438.649597
 30
0.0
 40
7.154872894287109
100
AcDbArc
 50
57.494627
 51
61.351983
  0
ARC
  5
6D8
330
1F
100
AcDbEntity
  8
0
 62
     7
100
AcDbCircle
 10
169.993011
 20
438.649963
 30
0.0
 40
7.154425144195557
100
AcDbArc
 50
61.352113
 51
122.505467
  0
POLYLINE
  5
6D9
330
1F
100
AcDbEntity
  8
0
 62
     7
100
AcDb2dPolyline
 66
     1
 10
0.0
 20
0.0
 30
0.0
  0
VERTEX
  5
6DA
330
6D9
100
AcDbEntity
  8
0
100
AcDbVertex
100
AcDb2dVertex
 10
166.534943
 20
446.855591
 30
0.0
  0
VERTEX
  5
6DB
330
6D9
100
AcDbEntity
  8
0
100
AcDbVertex
100
AcDb2dVertex
 10
166.590668
 20
446.765686
 30
0.0
  0
VERTEX
  5
6DC
330
6D9
100
AcDbEntity
  8
0
100
AcDbVertex
100
AcDb2dVertex
 10
166.640747
 20
446.672363
 30
0.0
  0
VERTEX
  5
6DD
330
6D9
100
AcDbEntity
  8
0
100
AcDbVertex
100
AcDb2dVertex
 10
166.685013
 20
446.575928
 30
0.0
  0
VERTEX
  5
6DE
330
6D9
100
AcDbEntity
  8
0
100
AcDbVertex
100
AcDb2dVertex
 10
166.723221
 20
446.476685
 30
0.0
  0
VERTEX
  5
6DF
330
6D9
100
AcDbEntity
  8
0
100
AcDbVertex
100
AcDb2dVertex
 10
166.755173
 20
446.374939
 30
0.0
  0
VERTEX
  5
6E0
330
6D9
100
AcDbEntity
  8
0
100
AcDbVertex
100
AcDb2dVertex
 10
166.78064
 20
446.271057
 30
0.0
  0
VERTEX
  5
6E1
330
6D9
100
AcDbEntity
  8
0
100
AcDbVertex
100
AcDb2dVertex
 10
166.799408
 20
446.165344
 30
0.0
  0
VERTEX
  5
6E2
330
6D9
100
AcDbEntity
  8
0
100
AcDbVertex
100
AcDb2dVertex
 10
166.811066
 20
446.060303
 30
0.0
  0
VERTEX
  5
6E3
330
6D9
100
AcDbEntity
  8
0
100
AcDbVertex
100
AcDb2dVertex
 10
166.815887
 20
445.954285
 30
0.0
  0
VERTEX
  5
6E4
330
6D9
100
AcDbEntity
  8
0
100
AcDbVertex
100
AcDb2dVertex
 10
166.813629
 20
445.847595
 30
0.0
  0
VERTEX
  5
6E5
330
6D9
100
AcDbEntity
  8
0
100
AcDbVertex
100
AcDb2dVertex
 10
166.804138
 20
445.740784
 30
0.0
  0
VERTEX
  5
6E6
330
6D9
100
AcDbEntity
  8
0
100
AcDbVertex
100
AcDb2dVertex
 10
166.787216
 20
445.634338
 30
0.0
  0
VERTEX
  5
6E7
330
6D9
100
AcDbEntity
  8
0
100
AcDbVertex
100
AcDb2dVertex
 10
166.762726
 20
445.528748
 30
0.0
  0
VERTEX
  5
6E8
330
6D9
100
AcDbEntity
  8
0
100
AcDbVertex
100
AcDb2dVertex
 10
166.730591
 20
445.424622
 30
0.0
  0
VERTEX
  5
6E9
330
6D9
100
AcDbEntity
  8
0
100
AcDbVertex
100
AcDb2dVertex
 10
166.692581
 20
445.326782
 30
0.0
  0
VERTEX
  5
6EA
330
6D9
100
AcDbEntity
  8
0
100
AcDbVertex
100
AcDb2dVertex
 10
166.647491
 20
445.231445
 30
0.0
  0
VERTEX
  5
6EB
330
6D9
100
AcDbEntity
  8
0
100
AcDbVertex
100
AcDb2dVertex
 10
166.595413
 20
445.139221
 30
0.0
  0
VERTEX
  5
6EC
330
6D9
100
AcDbEntity
  8
0
100
AcDbVertex
100
AcDb2dVertex
 10
166.536484
 20
445.05072
 30
0.0
  0
VERTEX
  5
6ED
330
6D9
100
AcDbEntity
  8
0
100
AcDbVertex
100
AcDb2dVertex
 10
166.504532
 20
445.007996
 30
0.0
  0
VERTEX
  5
6EE
330
6D9
100
AcDbEntity
  8
0
100
AcDbVertex
100
AcDb2dVertex
 10
166.470947
 20
444.966492
 30
0.0
  0
VERTEX
  5
6EF
330
6D9
100
AcDbEntity
  8
0
100
AcDbVertex
100
AcDb2dVertex
 10
166.423706
 20
444.913025
 30
0.0
  0
VERTEX
  5
6F0
330
6D9
100
AcDbEntity
  8
0
100
AcDbVertex
100
AcDb2dVertex
 10
166.373764
 20
444.862
 30
0.0
  0
VERTEX
  5
6F1
330
6D9
100
AcDbEntity
  8
0
100
AcDbVertex
100
AcDb2dVertex
 10
166.321259
 20
444.813416
 30
0.0
  0
VERTEX
  5
6F2
330
6D9
100
AcDbEntity
  8
0
100
AcDbVertex
100
AcDb2dVertex
 10
166.2659
 20
444.767273
 30
0.0
  0
VERTEX
  5
6F3
330
6D9
100
AcDbEntity
  8
0
100
AcDbVertex
100
AcDb2dVertex
 10
166.20816
 20
444.723877
 30
0.0
  0
VERTEX
  5
6F4
330
6D9
100
AcDbEntity
  8
0
100
AcDbVertex
100
AcDb2dVertex
 10
166.148361
 20
444.683594
 30
0.0
  0
SEQEND
  5
6F5
330
6D9
100
AcDbEntity
  8
0
 62
     7
  0
LINE
  5
6F6
330
1F
100
AcDbEntity
  8
0
 62
     7
100
AcDbLine
 10
166.476974
 20
446.945435
 30
0.0
 11
166.534943
 21
446.855591
 31
0.0
  0
LINE
  5
6F7
330
1F
100
AcDbEntity
  8
0
 62
     7
100
AcDbLine
 10
164.143005
 20
445.950012
 30
0.0
 11
163.742996
 21
445.950012
 31
0.0
  0
ARC
  5
6F8
330
1F
100
AcDbEntity
  8
0
 62
     7
100
AcDbCircle
 10
163.742996
 20
447.200012
 30
0.0
 40
1.25
100
AcDbArc
 50
90.000003
 51
269.999997
  0
LINE
  5
6F9
330
1F
100
AcDbEntity
  8
0
 62
     7
100
AcDbLine
 10
163.742996
 20
448.450012
 30
0.0
 11
164.143005
 21
448.450012
 31
0.0
  0
ARC
  5
6FA
330
1F
100
AcDbEntity
  8
0
 62
     7
100
AcDbCircle
 10
164.143005
 20
447.200012
 30
0.0
 40
1.25
100
AcDbArc
 50
269.999997
 51
90.000003
  0
CIRCLE
  5
6FB
330
1F
100
AcDbEntity
  8
0
 62
     7
100
AcDbCircle
 10
176.042999
 20
447.200012
 30
0.0
 40
1.25
  0
ARC
  5
6FC
330
1F
100
AcDbEntity
  8
0
 62
     7
100
AcDbCircle
 10
173.302078
 20
453.049988
 30
0.0
 40
0.5
100
AcDbArc
 50
90.000003
 51
221.230582
  0
ARC
  5
6FD
330
1F
100
AcDbEntity
  8
0
 62
     7
100
AcDbCircle
 10
166.683914
 20
453.049988
 30
0.0
 40
0.5
100
AcDbArc
 50
318.769437
 51
90.000003
  0
LINE
  5
6FE
330
1F
100
AcDbEntity
  8
0
 62
     7
100
AcDbLine
 10
165.893005
 20
455.549988
 30
0.0
 11
165.893005
 21
454.549988
 31
0.0
  0
ARC
  5
6FF
330
1F
100
AcDbEntity
  8
0
 62
     7
100
AcDbCircle
 10
164.192993
 20
455.049988
 30
0.0
 40
1.5
100
AcDbArc
 50
340.529081
 51
360.0
  0
LINE
  5
700
330
1F
100
AcDbEntity
  8
0
 62
     7
100
AcDbLine
 10
165.192993
 20
455.549988
 30
0.0
 11
165.192993
 21
455.650024
 31
0.0
  0
ARC
  5
701
330
1F
100
AcDbEntity
  8
0
 62
     7
100
AcDbCircle
 10
164.192993
 20
455.549988
 30
0.0
 40
1.0
100
AcDbArc
 50
269.999997
 51
360.0
  0
LINE
  5
702
330
1F
100
AcDbEntity
  8
0
 62
     7
100
AcDbLine
 10
165.692993
 20
455.650024
 30
0.0
 11
165.692993
 21
455.049988
 31
0.0
  0
LINE
  5
703
330
1F
100
AcDbEntity
  8
0
 62
     7
100
AcDbLine
 10
174.093002
 20
455.650024
 30
0.0
 11
174.093002
 21
455.549927
 31
0.0
  0
LINE
  5
704
330
1F
100
AcDbEntity
  8
0
 62
     7
100
AcDbLine
 10
174.292999
 20
455.650024
 30
0.0
 11
174.292999
 21
455.049988
 31
0.0
  0
ARC
  5
705
330
1F
100
AcDbEntity
  8
0
 62
     7
100
AcDbCircle
 10
175.792999
 20
455.049988
 30
0.0
 40
1.5
100
AcDbArc
 50
180.000009
 51
199.470938
  0
ARC
  5
706
330
1F
100
AcDbEntity
  8
0
 62
     7
100
AcDbCircle
 10
175.792999
 20
455.549988
 30
0.0
 40
1.0
100
AcDbArc
 50
180.000009
 51
269.999997
  0
LINE
  5
707
330
1F
100
AcDbEntity
  8
0
 62
     7
100
AcDbLine
 10
174.792999
 20
455.549988
 30
0.0
 11
174.792999
 21
455.650024
 31
0.0
  0
ARC
  5
708
330
1F
100
AcDbEntity
  8
0
 62
     7
100
AcDbCircle
 10
169.992996
 20
450.150024
 30
0.0
 40
3.900000095367432
100
AcDbArc
 50
138.769418
 51
41.230577
  0
LINE
  5
709
330
1F
100
AcDbEntity
  8
0
 62
     7
100
AcDbLine
 10
174.093002
 20
454.549988
 30
0.0
 11
174.093002
 21
455.549988
 31
0.0
  0
LINE
  5
70A
330
1F
100
AcDbEntity
  8
0
 62
     7
100
AcDbLine
 10
165.893005
 20
455.549988
 30
0.0
 11
165.893005
 21
455.650085
 31
0.0
  0
ARC
  5
70B
330
1F
100
AcDbEntity
  8
0
 62
     7
100
AcDbCircle
 10
173.593002
 20
455.549988
 30
0.0
 40
0.5
100
AcDbArc
 50
0.0
 51
11.538233
  0
ARC
  5
70C
330
1F
100
AcDbEntity
  8
0
 62
     7
100
AcDbCircle
 10
169.992996
 20
450.150024
 30
0.0
 40
3.75
100
AcDbArc
 50
80.018316
 51
99.981682
  0
ARC
  5
70D
330
1F
100
AcDbEntity
  8
0
 62
     7
100
AcDbCircle
 10
169.992996
 20
450.150024
 30
0.0
 40
3.75
100
AcDbArc
 50
279.981697
 51
80.018316
  0
ARC
  5
70E
330
1F
100
AcDbEntity
  8
0
 62
     7
100
AcDbCircle
 10
169.992996
 20
450.150024
 30
0.0
 40
3.75
100
AcDbArc
 50
260.018304
 51
279.981697
  0
ARC
  5
70F
330
1F
100
AcDbEntity
  8
0
 62
     7
100
AcDbCircle
 10
169.992996
 20
450.150024
 30
0.0
 40
3.75
100
AcDbArc
 50
99.981682
 51
260.018304
  0
LINE
  5
710
330
1F
100
AcDbEntity
  8
0
 62
     7
100
AcDbLine
 10
170.643005
 20
453.640015
 30
0.0
 11
170.643005
 21
453.843262
 31
0.0
  0
LINE
  5
711
330
1F
100
AcDbEntity
  8
0
 62
     7
100
AcDbLine
 10
170.643005
 20
446.660034
 30
0.0
 11
170.643005
 21
446.456787
 31
0.0
  0
LINE
  5
712
330
1F
100
AcDbEntity
  8
0
 62
     7
100
AcDbLine
 10
170.643005
 20
453.640015
 30
0.0
 11
170.643005
 21
446.660034
 31
0.0
  0
ARC
  5
713
330
1F
100
AcDbEntity
  8
0
 62
     7
100
AcDbCircle
 10
169.992996
 20
450.150024
 30
0.0
 40
3.549999952316284
100
AcDbArc
 50
280.55029
 51
79.449696
  0
LINE
  5
714
330
1F
100
AcDbEntity
  8
0
 62
     7
100
AcDbLine
 10
169.343002
 20
446.660034
 30
0.0
 11
169.343002
 21
446.456787
 31
0.0
  0
LINE
  5
715
330
1F
100
AcDbEntity
  8
0
 62
     7
100
AcDbLine
 10
169.343002
 20
453.640015
 30
0.0
 11
169.343002
 21
453.843262
 31
0.0
  0
LINE
  5
716
330
1F
100
AcDbEntity
  8
0
 62
     7
100
AcDbLine
 10
169.343002
 20
446.660034
 30
0.0
 11
169.343002
 21
453.640015
 31
0.0
  0
ARC
  5
717
330
1F
100
AcDbEntity
  8
0
 62
     7
100
AcDbCircle
 10
169.992996
 20
450.150024
 30
0.0
 40
3.549999952316284
100
AcDbArc
 50
100.550302
 51
259.449705
  0
LINE
  5
718
330
1F
100
AcDbEntity
  8
0
 62
     7
100
AcDbLine
 10
166.593002
 20
363.650024
 30
0.0
 11
166.593002
 21
438.650024
 31
0.0
  0
ARC
  5
719
330
1F
100
AcDbEntity
  8
0
 62
     7
100
AcDbCircle
 10
169.992996
 20
438.650024
 30
0.0
 40
3.400000095367432
100
AcDbArc
 50
0.0
 51
180.000009
  0
LINE
  5
71A
330
1F
100
AcDbEntity
  8
0
 62
     7
100
AcDbLine
 10
173.393005
 20
363.650024
 30
0.0
 11
173.393005
 21
438.650024
 31
0.0
  0
LINE
  5
71B
330
1F
100
AcDbEntity
  8
0
 62
     7
100
AcDbLine
 10
166.593002
 20
363.650024
 30
0.0
 11
166.593002
 21
353.650024
 31
0.0
  0
LINE
  5
71C
330
1F
100
AcDbEntity
  8
0
 62
     7
100
AcDbLine
 10
173.393005
 20
363.650024
 30
0.0
 11
173.393005
 21
353.650024
 31
0.0
  0
LINE
  5
71D
330
1F
100
AcDbEntity
  8
0
 62
     7
100
AcDbLine
 10
173.393005
 20
353.650024
 30
0.0
 11
166.593002
 21
353.650024
 31
0.0
  0
ARC
  5
71E
330
1F
100
AcDbEntity
  8
0
 62
     7
100
AcDbCircle
 10
169.992996
 20
438.650024
 30
0.0
 40
3.549999952316284
100
AcDbArc
 50
344.596894
 51
195.402372
  0
ARC
  5
71F
330
1F
100
AcDbEntity
  8
0
 62
     7
100
AcDbCircle
 10
169.992996
 20
438.650024
 30
0.0
 40
4.712500095367432
100
AcDbArc
 50
192.251401
 51
223.822666
  0
ARC
  5
720
330
1F
100
AcDbEntity
  8
0
 62
     7
100
AcDbCircle
 10
169.992996
 20
438.650024
 30
0.0
 40
4.712500095367432
100
AcDbArc
 50
316.177161
 51
347.748591
  0
LINE
  5
721
330
1F
100
AcDbEntity
  8
0
 62
     7
100
AcDbLine
 10
174.534195
 20
437.650024
 30
0.0
 11
174.598175
 21
437.650024
 31
0.0
  0
ARC
  5
722
330
1F
100
AcDbEntity
  8
0
 62
     7
100
AcDbCircle
 10
169.992996
 20
438.650024
 30
0.0
 40
4.650000095367432
100
AcDbArc
 50
316.985583
 51
347.581305
  0
ARC
  5
723
330
1F
100
AcDbEntity
  8
0
 62
     7
100
AcDbCircle
 10
169.992996
 20
438.650024
 30
0.0
 40
4.650000095367432
100
AcDbArc
 50
192.418686
 51
223.014354
  0
ARC
  5
724
330
1F
100
AcDbEntity
  8
0
 62
     7
100
AcDbCircle
 10
169.992996
 20
438.650024
 30
0.0
 40
4.574999809265137
100
AcDbArc
 50
192.6256
 51
221.997954
  0
ARC
  5
725
330
1F
100
AcDbEntity
  8
0
 62
     7
100
AcDbCircle
 10
169.992996
 20
438.650024
 30
0.0
 40
4.574999809265137
100
AcDbArc
 50
318.002024
 51
347.374406
  0
LINE
  5
726
330
1F
100
AcDbEntity
  8
0
 62
     7
100
AcDbLine
 10
174.393295
 20
437.650024
 30
0.0
 11
174.457367
 21
437.650024
 31
0.0
  0
ARC
  5
727
330
1F
100
AcDbEntity
  8
0
 62
     7
100
AcDbCircle
 10
169.992996
 20
438.650024
 30
0.0
 40
4.512499809265137
100
AcDbArc
 50
318.891096
 51
347.196575
  0
ARC
  5
728
330
1F
100
AcDbEntity
  8
0
 62
     7
100
AcDbCircle
 10
169.992996
 20
438.650024
 30
0.0
 40
4.512499809265137
100
AcDbArc
 50
192.803417
 51
221.108896
  0
ARC
  5
729
330
1F
100
AcDbEntity
  8
0
 62
     7
100
AcDbCircle
 10
169.992996
 20
438.650024
 30
0.0
 40
4.4375
100
AcDbArc
 50
193.023581
 51
219.986545
  0
ARC
  5
72A
330
1F
100
AcDbEntity
  8
0
 62
     7
100
AcDbCircle
 10
169.992996
 20
438.650024
 30
0.0
 40
4.4375
100
AcDbArc
 50
320.013433
 51
346.976424
  0
LINE
  5
72B
330
1F
100
AcDbEntity
  8
0
 62
     7
100
AcDbLine
 10
174.252182
 20
437.650024
 30
0.0
 11
174.316345
 21
437.650024
 31
0.0
  0
ARC
  5
72C
330
1F
100
AcDbEntity
  8
0
 62
     7
100
AcDbCircle
 10
169.992996
 20
438.650024
 30
0.0
 40
4.375
100
AcDbArc
 50
320.999384
 51
346.787008
  0
ARC
  5
72D
330
1F
100
AcDbEntity
  8
0
 62
     7
100
AcDbCircle
 10
169.992996
 20
438.650024
 30
0.0
 40
4.375
100
AcDbArc
 50
193.212982
 51
219.000594
  0
ARC
  5
72E
330
1F
100
AcDbEntity
  8
0
 62
     7
100
AcDbCircle
 10
169.992996
 20
438.650024
 30
0.0
 40
4.25
100
AcDbArc
 50
323.12972
 51
216.870258
  0
ARC
  5
72F
330
1F
100
AcDbEntity
  8
0
 62
     7
100
AcDbCircle
 10
169.992996
 20
438.650024
 30
0.0
 40
4.375
100
AcDbArc
 50
13.21298
 51
166.787018
  0
LINE
  5
730
330
1F
100
AcDbEntity
  8
0
 62
     7
100
AcDbLine
 10
174.252182
 20
439.650024
 30
0.0
 11
174.316345
 21
439.650024
 31
0.0
  0
ARC
  5
731
330
1F
100
AcDbEntity
  8
0
 62
     7
100
AcDbCircle
 10
169.992996
 20
438.650024
 30
0.0
 40
4.4375
100
AcDbArc
 50
13.023584
 51
166.976419
  0
ARC
  5
732
330
1F
100
AcDbEntity
  8
0
 62
     7
100
AcDbCircle
 10
169.992996
 20
438.650024
 30
0.0
 40
4.512499809265137
100
AcDbArc
 50
12.803414
 51
167.196583
  0
LINE
  5
733
330
1F
100
AcDbEntity
  8
0
 62
     7
100
AcDbLine
 10
174.393295
 20
439.650024
 30
0.0
 11
174.457367
 21
439.650024
 31
0.0
  0
ARC
  5
734
330
1F
100
AcDbEntity
  8
0
 62
     7
100
AcDbCircle
 10
169.992996
 20
438.650024
 30
0.0
 40
4.574999809265137
100
AcDbArc
 50
12.625598
 51
167.3744
  0
ARC
  5
735
330
1F
100
AcDbEntity
  8
0
 62
     7
100
AcDbCircle
 10
169.992996
 20
438.650024
 30
0.0
 40
4.650000095367432
100
AcDbArc
 50
12.418682
 51
167.581314
  0
LINE
  5
736
330
1F
100
AcDbEntity
  8
0
 62
     7
100
AcDbLine
 10
174.534195
 20
439.650024
 30
0.0
 11
174.598175
 21
439.650024
 31
0.0
  0
ARC
  5
737
330
1F
100
AcDbEntity
  8
0
 62
     7
100
AcDbCircle
 10
169.992996
 20
438.650024
 30
0.0
 40
4.712500095367432
100
AcDbArc
 50
12.251403
 51
167.748599
  0
LINE
  5
738
330
1F
100
AcDbEntity
  8
0
 62
     7
100
AcDbLine
 10
165.451797
 20
437.650024
 30
0.0
 11
165.387817
 21
437.650024
 31
0.0
  0
LINE
  5
739
330
1F
100
AcDbEntity
  8
0
 62
     7
100
AcDbLine
 10
165.451797
 20
439.650024
 30
0.0
 11
165.387817
 21
439.650024
 31
0.0
  0
LINE
  5
73A
330
1F
100
AcDbEntity
  8
0
 62
     7
100
AcDbLine
 10
165.592697
 20
439.650024
 30
0.0
 11
165.528625
 21
439.650024
 31
0.0
  0
LINE
  5
73B
330
1F
100
AcDbEntity
  8
0
 62
     7
100
AcDbLine
 10
165.73381
 20
439.650024
 30
0.0
 11
165.669647
 21
439.650024
 31
0.0
  0
LINE
  5
73C
330
1F
100
AcDbEntity
  8
0
 62
     7
100
AcDbLine
 10
165.73381
 20
437.650024
 30
0.0
 11
165.669647
 21
437.650024
 31
0.0
  0
LINE
  5
73D
330
1F
100
AcDbEntity
  8
0
 62
     7
100
AcDbLine
 10
165.592697
 20
437.650024
 30
0.0
 11
165.528625
 21
437.650024
 31
0.0
  0
ARC
  5
73E
330
1F
100
AcDbEntity
  8
0
 62
     7
100
AcDbCircle
 10
169.992996
 20
438.650024
 30
0.0
 40
5.0
100
AcDbArc
 50
312.843537
 51
227.156454
  0
ARC
  5
73F
330
1F
100
AcDbEntity
  8
0
 62
     7
100
AcDbCircle
 10
169.992996
 20
438.650024
 30
0.0
 40
5.300000190734863
100
AcDbArc
 50
309.904343
 51
230.095662
  0
ARC
  5
740
330
1F
100
AcDbEntity
  8
0
 62
     7
100
AcDbCircle
 10
169.992996
 20
438.650024
 30
0.0
 40
5.900000095367432
100
AcDbArc
 50
305.188613
 51
151.352115
  0
ARC
  5
741
330
1F
100
AcDbEntity
  8
0
 62
     7
100
AcDbCircle
 10
169.992996
 20
438.650024
 30
0.0
 40
5.900000095367432
100
AcDbArc
 50
151.352115
 51
234.811389
  0
ARC
  5
742
330
1F
100
AcDbEntity
  8
0
 62
     7
100
AcDbCircle
 10
169.992996
 20
438.650024
 30
0.0
 40
6.300000190734863
100
AcDbArc
 50
137.752785
 51
162.24721
  0
LINE
  5
743
330
1F
100
AcDbEntity
  8
0
 62
     7
100
AcDbLine
 10
163.992996
 20
440.570923
 30
0.0
 11
163.992996
 21
436.729065
 31
0.0
  0
ARC
  5
744
330
1F
100
AcDbEntity
  8
0
 62
     7
100
AcDbCircle
 10
169.992996
 20
438.650024
 30
0.0
 40
6.300000190734863
100
AcDbArc
 50
197.75279
 51
222.247215
  0
LINE
  5
745
330
1F
100
AcDbEntity
  8
0
 62
     7
100
AcDbLine
 10
165.329422
 20
434.414307
 30
0.0
 11
166.592911
 21
433.684814
 31
0.0
  0
LINE
  5
746
330
1F
100
AcDbEntity
  8
0
 62
     7
100
AcDbLine
 10
173.393066
 20
433.684814
 30
0.0
 11
174.656586
 21
434.414307
 31
0.0
  0
ARC
  5
747
330
1F
100
AcDbEntity
  8
0
 62
     7
100
AcDbCircle
 10
169.992996
 20
438.650024
 30
0.0
 40
6.300000190734863
100
AcDbArc
 50
317.752777
 51
342.247199
  0
LINE
  5
748
330
1F
100
AcDbEntity
  8
0
 62
     7
100
AcDbLine
 10
175.992996
 20
436.729065
 30
0.0
 11
175.992996
 21
440.570923
 31
0.0
  0
ARC
  5
749
330
1F
100
AcDbEntity
  8
0
 62
     7
100
AcDbCircle
 10
169.992996
 20
438.650024
 30
0.0
 40
6.300000190734863
100
AcDbArc
 50
17.75279
 51
42.24721
  0
LINE
  5
74A
330
1F
100
AcDbEntity
  8
0
 62
     7
100
AcDbLine
 10
174.656586
 20
442.885681
 30
0.0
 11
171.329422
 21
444.806641
 31
0.0
  0
ARC
  5
74B
330
1F
100
AcDbEntity
  8
0
 62
     7
100
AcDbCircle
 10
169.992996
 20
438.650024
 30
0.0
 40
6.300000190734863
100
AcDbArc
 50
77.75279
 51
102.247215
  0
LINE
  5
74C
330
1F
100
AcDbEntity
  8
0
 62
     7
100
AcDbLine
 10
168.656586
 20
444.806641
 30
0.0
 11
165.329422
 21
442.885681
 31
0.0
  0
ARC
  5
74D
330
1F
100
AcDbEntity
  8
0
 62
     7
100
AcDbCircle
 10
169.992996
 20
438.650024
 30
0.0
 40
6.800000190734863
100
AcDbArc
 50
137.403926
 51
162.596068
  0
LINE
  5
74E
330
1F
100
AcDbEntity
  8
0
 62
     7
100
AcDbLine
 10
163.907669
 20
440.280579
 30
0.0
 11
163.504303
 21
440.683899
 31
0.0
  0
ARC
  5
74F
330
1F
100
AcDbEntity
  8
0
 62
     7
100
AcDbCircle
 10
169.992996
 20
438.650024
 30
0.0
 40
6.300000190734863
100
AcDbArc
 50
162.24721
 51
164.999994
  0
ARC
  5
750
330
1F
100
AcDbEntity
  8
0
 62
     7
100
AcDbCircle
 10
169.992996
 20
438.650024
 30
0.0
 40
6.300000190734863
100
AcDbArc
 50
135.0
 51
137.752785
  0
LINE
  5
751
330
1F
100
AcDbEntity
  8
0
 62
     7
100
AcDbLine
 10
165.538223
 20
443.104797
 30
0.0
 11
164.987213
 21
443.252441
 31
0.0
  0
ARC
  5
752
330
1F
100
AcDbEntity
  8
0
 62
     7
100
AcDbCircle
 10
169.992996
 20
438.650024
 30
0.0
 40
6.300000190734863
100
AcDbArc
 50
164.999994
 51
195.000006
  0
ARC
  5
753
330
1F
100
AcDbEntity
  8
0
 62
     7
100
AcDbCircle
 10
169.992996
 20
438.650024
 30
0.0
 40
6.300000190734863
100
AcDbArc
 50
195.000006
 51
197.75279
  0
LINE
  5
754
330
1F
100
AcDbEntity
  8
0
 62
     7
100
AcDbLine
 10
163.907669
 20
437.01947
 30
0.0
 11
163.504303
 21
436.616089
 31
0.0
  0
ARC
  5
755
330
1F
100
AcDbEntity
  8
0
 62
     7
100
AcDbCircle
 10
169.992996
 20
438.650024
 30
0.0
 40
6.800000190734863
100
AcDbArc
 50
197.403932
 51
222.596074
  0
LINE
  5
756
330
1F
100
AcDbEntity
  8
0
 62
     7
100
AcDbLine
 10
165.538223
 20
434.195251
 30
0.0
 11
164.987213
 21
434.047607
 31
0.0
  0
ARC
  5
757
330
1F
100
AcDbEntity
  8
0
 62
     7
100
AcDbCircle
 10
169.992996
 20
438.650024
 30
0.0
 40
6.300000190734863
100
AcDbArc
 50
222.247215
 51
225.0
  0
ARC
  5
758
330
1F
100
AcDbEntity
  8
0
 62
     7
100
AcDbCircle
 10
169.992996
 20
438.650024
 30
0.0
 40
6.300000190734863
100
AcDbArc
 50
225.0
 51
237.338012
  0
ARC
  5
759
330
1F
100
AcDbEntity
  8
0
 62
     7
100
AcDbCircle
 10
169.992996
 20
438.650024
 30
0.0
 40
6.300000190734863
100
AcDbArc
 50
302.661962
 51
314.999992
  0
ARC
  5
75A
330
1F
100
AcDbEntity
  8
0
 62
     7
100
AcDbCircle
 10
169.992996
 20
438.650024
 30
0.0
 40
6.300000190734863
100
AcDbArc
 50
314.999992
 51
317.752777
  0
ARC
  5
75B
330
1F
100
AcDbEntity
  8
0
 62
     7
100
AcDbCircle
 10
169.992996
 20
438.650024
 30
0.0
 40
6.300000190734863
100
AcDbArc
 50
342.247199
 51
345.000012
  0
LINE
  5
75C
330
1F
100
AcDbEntity
  8
0
 62
     7
100
AcDbLine
 10
174.447769
 20
434.195251
 30
0.0
 11
174.998779
 21
434.047607
 31
0.0
  0
ARC
  5
75D
330
1F
100
AcDbEntity
  8
0
 62
     7
100
AcDbCircle
 10
169.992996
 20
438.650024
 30
0.0
 40
6.800000190734863
100
AcDbArc
 50
317.403918
 51
342.596085
  0
LINE
  5
75E
330
1F
100
AcDbEntity
  8
0
 62
     7
100
AcDbLine
 10
176.078339
 20
437.01947
 30
0.0
 11
176.481689
 21
436.616089
 31
0.0
  0
ARC
  5
75F
330
1F
100
AcDbEntity
  8
0
 62
     7
100
AcDbCircle
 10
169.992996
 20
438.650024
 30
0.0
 40
6.300000190734863
100
AcDbArc
 50
345.000012
 51
15.0
  0
ARC
  5
760
330
1F
100
AcDbEntity
  8
0
 62
     7
100
AcDbCircle
 10
169.992996
 20
438.650024
 30
0.0
 40
6.300000190734863
100
AcDbArc
 50
15.0
 51
17.75279
  0
ARC
  5
761
330
1F
100
AcDbEntity
  8
0
 62
     7
100
AcDbCircle
 10
169.992996
 20
438.650024
 30
0.0
 40
6.800000190734863
100
AcDbArc
 50
17.403926
 51
42.596075
  0
LINE
  5
762
330
1F
100
AcDbEntity
  8
0
 62
     7
100
AcDbLine
 10
174.447769
 20
443.104797
 30
0.0
 11
174.998779
 21
443.252441
 31
0.0
  0
ARC
  5
763
330
1F
100
AcDbEntity
  8
0
 62
     7
100
AcDbCircle
 10
169.992996
 20
438.650024
 30
0.0
 40
6.300000190734863
100
AcDbArc
 50
42.24721
 51
45.000001
  0
LINE
  5
764
330
1F
100
AcDbEntity
  8
0
 62
     7
100
AcDbLine
 10
176.078339
 20
440.280579
 30
0.0
 11
176.481689
 21
440.683899
 31
0.0
  0
ARC
  5
765
330
1F
100
AcDbEntity
  8
0
 62
     7
100
AcDbCircle
 10
169.992996
 20
438.650024
 30
0.0
 40
6.300000190734863
100
AcDbArc
 50
45.000001
 51
74.999999
  0
ARC
  5
766
330
1F
100
AcDbEntity
  8
0
 62
     7
100
AcDbCircle
 10
169.992996
 20
438.650024
 30
0.0
 40
6.300000190734863
100
AcDbArc
 50
74.999999
 51
77.75279
  0
ARC
  5
767
330
1F
100
AcDbEntity
  8
0
 62
     7
100
AcDbCircle
 10
169.992996
 20
438.650024
 30
0.0
 40
6.300000190734863
100
AcDbArc
 50
102.247215
 51
105.0
  0
LINE
  5
768
330
1F
100
AcDbEntity
  8
0
 62
     7
100
AcDbLine
 10
171.623566
 20
444.735352
 30
0.0
 11
171.475922
 21
445.286316
 31
0.0
  0
ARC
  5
769
330
1F
100
AcDbEntity
  8
0
 62
     7
100
AcDbCircle
 10
169.992996
 20
438.650024
 30
0.0
 40
6.800000190734863
100
AcDbArc
 50
77.403925
 51
102.596073
  0
LINE
  5
76A
330
1F
100
AcDbEntity
  8
0
 62
     7
100
AcDbLine
 10
168.362442
 20
444.735352
 30
0.0
 11
168.510071
 21
445.286316
 31
0.0
  0
ARC
  5
76B
330
1F
100
AcDbEntity
  8
0
 62
     7
100
AcDbCircle
 10
169.992996
 20
438.650024
 30
0.0
 40
6.300000190734863
100
AcDbArc
 50
105.0
 51
135.0
  0
LINE
  5
76C
330
1F
100
AcDbEntity
  8
0
 62
     7
100
AcDbLine
 10
178.592972
 20
453.054871
 30
0.0
 11
178.593002
 21
453.049988
 31
0.0
  0
LINE
  5
76D
330
1F
100
AcDbEntity
  8
0
 62
     7
100
AcDbLine
 10
178.591919
 20
453.082947
 30
0.0
 11
178.593002
 21
453.049988
 31
0.0
  0
LINE
  5
76E
330
1F
100
AcDbEntity
  8
0
 62
     7
100
AcDbLine
 10
178.592346
 20
453.075623
 30
0.0
 11
178.593002
 21
453.049988
 31
0.0
  0
ARC
  5
76F
330
1F
100
AcDbEntity
  8
0
 62
     7
100
AcDbCircle
 10
169.992996
 20
438.650024
 30
0.0
 40
7.0
100
AcDbArc
 50
299.059263
 51
61.352113
  0
POLYLINE
  5
770
330
1F
100
AcDbEntity
  8
0
 62
     7
100
AcDb2dPolyline
 66
     1
 10
0.0
 20
0.0
 30
0.0
  0
VERTEX
  5
771
330
770
100
AcDbEntity
  8
0
100
AcDbVertex
100
AcDb2dVertex
 10
363.305298
 20
368.171326
 30
0.0
  0
VERTEX
  5
772
330
770
100
AcDbEntity
  8
0
100
AcDbVertex
100
AcDb2dVertex
 10
362.845306
 20
368.73584
 30
0.0
  0
VERTEX
  5
773
330
770
100
AcDbEntity
  8
0
100
AcDbVertex
100
AcDb2dVertex
 10
362.155304
 20
368.977783
 30
0.0
  0
VERTEX
  5
774
330
770
100
AcDbEntity
  8
0
100
AcDbVertex
100
AcDb2dVertex
 10
361.465302
 20
368.977783
 30
0.0
  0
VERTEX
  5
775
330
770
100
AcDbEntity
  8
0
100
AcDbVertex
100
AcDb2dVertex
 10
360.775299
 20
368.73584
 30
0.0
  0
VERTEX
  5
776
330
770
100
AcDbEntity
  8
0
100
AcDbVertex
100
AcDb2dVertex
 10
360.315308
 20
368.090698
 30
0.0
  0
VERTEX
  5
777
330
770
100
AcDbEntity
  8
0
100
AcDbVertex
100
AcDb2dVertex
 10
360.315308
 20
367.526184
 30
0.0
  0
VERTEX
  5
778
330
770
100
AcDbEntity
  8
0
100
AcDbVertex
100
AcDb2dVertex
 10
360.717804
 20
366.961639
 30
0.0
  0
SEQEND
  5
779
330
770
100
AcDbEntity
  8
0
 62
     7
  0
POLYLINE
  5
77A
330
1F
100
AcDbEntity
  8
0
 62
     7
100
AcDb2dPolyline
 66
     1
 10
0.0
 20
0.0
 30
0.0
  0
VERTEX
  5
77B
330
77A
100
AcDbEntity
  8
0
100
AcDbVertex
100
AcDb2dVertex
 10
361.810303
 20
366.558441
 30
0.0
  0
VERTEX
  5
77C
330
77A
100
AcDbEntity
  8
0
100
AcDbVertex
100
AcDb2dVertex
 10
362.327789
 20
366.397125
 30
0.0
  0
SEQEND
  5
77D
330
77A
100
AcDbEntity
  8
0
 62
     7
  0
POLYLINE
  5
77E
330
1F
100
AcDbEntity
  8
0
 62
     7
100
AcDb2dPolyline
 66
     1
 10
0.0
 20
0.0
 30
0.0
  0
VERTEX
  5
77F
330
77E
100
AcDbEntity
  8
0
100
AcDbVertex
100
AcDb2dVertex
 10
362.845306
 20
364.139069
 30
0.0
  0
VERTEX
  5
780
330
77E
100
AcDbEntity
  8
0
100
AcDbVertex
100
AcDb2dVertex
 10
362.155304
 20
363.977783
 30
0.0
  0
VERTEX
  5
781
330
77E
100
AcDbEntity
  8
0
100
AcDbVertex
100
AcDb2dVertex
 10
361.465302
 20
363.977783
 30
0.0
  0
VERTEX
  5
782
330
77E
100
AcDbEntity
  8
0
100
AcDbVertex
100
AcDb2dVertex
 10
360.775299
 20
364.300354
 30
0.0
  0
VERTEX
  5
783
330
77E
100
AcDbEntity
  8
0
100
AcDbVertex
100
AcDb2dVertex
 10
360.315308
 20
364.864868
 30
0.0
  0
SEQEND
  5
784
330
77E
100
AcDbEntity
  8
0
 62
     7
  0
POLYLINE
  5
785
330
1F
100
AcDbEntity
  8
0
 62
     7
100
AcDb2dPolyline
 66
     1
 10
0.0
 20
0.0
 30
0.0
  0
VERTEX
  5
786
330
785
100
AcDbEntity
  8
0
100
AcDbVertex
100
AcDb2dVertex
 10
361.350311
 20
366.639069
 30
0.0
  0
VERTEX
  5
787
330
785
100
AcDbEntity
  8
0
100
AcDbVertex
100
AcDb2dVertex
 10
361.810303
 20
366.558441
 30
0.0
  0
SEQEND
  5
788
330
785
100
AcDbEntity
  8
0
 62
     7
  0
POLYLINE
  5
789
330
1F
100
AcDbEntity
  8
0
 62
     7
100
AcDb2dPolyline
 66
     1
 10
0.0
 20
0.0
 30
0.0
  0
VERTEX
  5
78A
330
789
100
AcDbEntity
  8
0
100
AcDbVertex
100
AcDb2dVertex
 10
360.717804
 20
366.961639
 30
0.0
  0
VERTEX
  5
78B
330
789
100
AcDbEntity
  8
0
100
AcDbVertex
100
AcDb2dVertex
 10
361.350311
 20
366.639069
 30
0.0
  0
SEQEND
  5
78C
330
789
100
AcDbEntity
  8
0
 62
     7
  0
POLYLINE
  5
78D
330
1F
100
AcDbEntity
  8
0
 62
     7
100
AcDb2dPolyline
 66
     1
 10
0.0
 20
0.0
 30
0.0
  0
VERTEX
  5
78E
330
78D
100
AcDbEntity
  8
0
100
AcDbVertex
100
AcDb2dVertex
 10
363.305298
 20
364.784241
 30
0.0
  0
VERTEX
  5
78F
330
78D
100
AcDbEntity
  8
0
100
AcDbVertex
100
AcDb2dVertex
 10
362.845306
 20
364.139069
 30
0.0
  0
SEQEND
  5
790
330
78D
100
AcDbEntity
  8
0
 62
     7
  0
POLYLINE
  5
791
330
1F
100
AcDbEntity
  8
0
 62
     7
100
AcDb2dPolyline
 66
     1
 10
0.0
 20
0.0
 30
0.0
  0
VERTEX
  5
792
330
791
100
AcDbEntity
  8
0
100
AcDbVertex
100
AcDb2dVertex
 10
363.305298
 20
365.51004
 30
0.0
  0
VERTEX
  5
793
330
791
100
AcDbEntity
  8
0
100
AcDbVertex
100
AcDb2dVertex
 10
363.305298
 20
364.784241
 30
0.0
  0
SEQEND
  5
794
330
791
100
AcDbEntity
  8
0
 62
     7
  0
POLYLINE
  5
795
330
1F
100
AcDbEntity
  8
0
 62
     7
100
AcDb2dPolyline
 66
     1
 10
0.0
 20
0.0
 30
0.0
  0
VERTEX
  5
796
330
795
100
AcDbEntity
  8
0
100
AcDbVertex
100
AcDb2dVertex
 10
362.327789
 20
366.397125
 30
0.0
  0
VERTEX
  5
797
330
795
100
AcDbEntity
  8
0
100
AcDbVertex
100
AcDb2dVertex
 10
362.845306
 20
366.074554
 30
0.0
  0
VERTEX
  5
798
330
795
100
AcDbEntity
  8
0
100
AcDbVertex
100
AcDb2dVertex
 10
363.305298
 20
365.51004
 30
0.0
  0
SEQEND
  5
799
330
795
100
AcDbEntity
  8
0
 62
     7
  0
POLYLINE
  5
79A
330
1F
100
AcDbEntity
  8
0
 62
     7
100
AcDb2dPolyline
 66
     1
 10
0.0
 20
0.0
 30
0.0
  0
VERTEX
  5
79B
330
79A
100
AcDbEntity
  8
0
100
AcDbVertex
100
AcDb2dVertex
 10
366.220306
 20
368.977783
 30
0.0
  0
VERTEX
  5
79C
330
79A
100
AcDbEntity
  8
0
100
AcDbVertex
100
AcDb2dVertex
 10
364.265289
 20
368.977783
 30
0.0
  0
SEQEND
  5
79D
330
79A
100
AcDbEntity
  8
0
 62
     7
  0
POLYLINE
  5
79E
330
1F
100
AcDbEntity
  8
0
 62
     7
100
AcDb2dPolyline
 66
     1
 10
0.0
 20
0.0
 30
0.0
  0
VERTEX
  5
79F
330
79E
100
AcDbEntity
  8
0
100
AcDbVertex
100
AcDb2dVertex
 10
364.265289
 20
366.558441
 30
0.0
  0
VERTEX
  5
7A0
330
79E
100
AcDbEntity
  8
0
100
AcDbVertex
100
AcDb2dVertex
 10
366.335297
 20
366.558441
 30
0.0
  0
SEQEND
  5
7A1
330
79E
100
AcDbEntity
  8
0
 62
     7
  0
POLYLINE
  5
7A2
330
1F
100
AcDbEntity
  8
0
 62
     7
100
AcDb2dPolyline
 66
     1
 10
0.0
 20
0.0
 30
0.0
  0
VERTEX
  5
7A3
330
7A2
100
AcDbEntity
  8
0
100
AcDbVertex
100
AcDb2dVertex
 10
364.265289
 20
368.977783
 30
0.0
  0
VERTEX
  5
7A4
330
7A2
100
AcDbEntity
  8
0
100
AcDbVertex
100
AcDb2dVertex
 10
364.265289
 20
363.977783
 30
0.0
  0
SEQEND
  5
7A5
330
7A2
100
AcDbEntity
  8
0
 62
     7
  0
POLYLINE
  5
7A6
330
1F
100
AcDbEntity
  8
0
 62
     7
100
AcDb2dPolyline
 66
     1
 10
0.0
 20
0.0
 30
0.0
  0
VERTEX
  5
7A7
330
7A6
100
AcDbEntity
  8
0
100
AcDbVertex
100
AcDb2dVertex
 10
366.220306
 20
368.977783
 30
0.0
  0
VERTEX
  5
7A8
330
7A6
100
AcDbEntity
  8
0
100
AcDbVertex
100
AcDb2dVertex
 10
366.622803
 20
368.73584
 30
0.0
  0
VERTEX
  5
7A9
330
7A6
100
AcDbEntity
  8
0
100
AcDbVertex
100
AcDb2dVertex
 10
367.025299
 20
368.171326
 30
0.0
  0
VERTEX
  5
7AA
330
7A6
100
AcDbEntity
  8
0
100
AcDbVertex
100
AcDb2dVertex
 10
367.025299
 20
367.364868
 30
0.0
  0
VERTEX
  5
7AB
330
7A6
100
AcDbEntity
  8
0
100
AcDbVertex
100
AcDb2dVertex
 10
366.737793
 20
366.881012
 30
0.0
  0
VERTEX
  5
7AC
330
7A6
100
AcDbEntity
  8
0
100
AcDbVertex
100
AcDb2dVertex
 10
366.335297
 20
366.558441
 30
0.0
  0
SEQEND
  5
7AD
330
7A6
100
AcDbEntity
  8
0
 62
     7
  0
POLYLINE
  5
7AE
330
1F
100
AcDbEntity
  8
0
 62
     7
100
AcDb2dPolyline
 66
     1
 10
0.0
 20
0.0
 30
0.0
  0
VERTEX
  5
7AF
330
7AE
100
AcDbEntity
  8
0
100
AcDbVertex
100
AcDb2dVertex
 10
365.875305
 20
366.558441
 30
0.0
  0
VERTEX
  5
7B0
330
7AE
100
AcDbEntity
  8
0
100
AcDbVertex
100
AcDb2dVertex
 10
367.025299
 20
363.977783
 30
0.0
  0
SEQEND
  5
7B1
330
7AE
100
AcDbEntity
  8
0
 62
     7
  0
POLYLINE
  5
7B2
330
1F
100
AcDbEntity
  8
0
 62
     7
100
AcDb2dPolyline
 66
     1
 10
0.0
 20
0.0
 30
0.0
  0
VERTEX
  5
7B3
330
7B2
100
AcDbEntity
  8
0
100
AcDbVertex
100
AcDb2dVertex
 10
371.090302
 20
363.977783
 30
0.0
  0
VERTEX
  5
7B4
330
7B2
100
AcDbEntity
  8
0
100
AcDbVertex
100
AcDb2dVertex
 10
368.330292
 20
363.977783
 30
0.0
  0
VERTEX
  5
7B5
330
7B2
100
AcDbEntity
  8
0
100
AcDbVertex
100
AcDb2dVertex
 10
370.285309
 20
366.23584
 30
0.0
  0
VERTEX
  5
7B6
330
7B2
100
AcDbEntity
  8
0
100
AcDbVertex
100
AcDb2dVertex
 10
370.687805
 20
366.881012
 30
0.0
  0
VERTEX
  5
7B7
330
7B2
100
AcDbEntity
  8
0
100
AcDbVertex
100
AcDb2dVertex
 10
370.860291
 20
367.364868
 30
0.0
  0
VERTEX
  5
7B8
330
7B2
100
AcDbEntity
  8
0
100
AcDbVertex
100
AcDb2dVertex
 10
370.860291
 20
367.848755
 30
0.0
  0
VERTEX
  5
7B9
330
7B2
100
AcDbEntity
  8
0
100
AcDbVertex
100
AcDb2dVertex
 10
370.687805
 20
368.413269
 30
0.0
  0
VERTEX
  5
7BA
330
7B2
100
AcDbEntity
  8
0
100
AcDbVertex
100
AcDb2dVertex
 10
370.515289
 20
368.73584
 30
0.0
  0
VERTEX
  5
7BB
330
7B2
100
AcDbEntity
  8
0
100
AcDbVertex
100
AcDb2dVertex
 10
370.112793
 20
368.977783
 30
0.0
  0
VERTEX
  5
7BC
330
7B2
100
AcDbEntity
  8
0
100
AcDbVertex
100
AcDb2dVertex
 10
369.422791
 20
368.977783
 30
0.0
  0
VERTEX
  5
7BD
330
7B2
100
AcDbEntity
  8
0
100
AcDbVertex
100
AcDb2dVertex
 10
369.020294
 20
368.73584
 30
0.0
  0
VERTEX
  5
7BE
330
7B2
100
AcDbEntity
  8
0
100
AcDbVertex
100
AcDb2dVertex
 10
368.847809
 20
368.493927
 30
0.0
  0
VERTEX
  5
7BF
330
7B2
100
AcDbEntity
  8
0
100
AcDbVertex
100
AcDb2dVertex
 10
368.617798
 20
368.01004
 30
0.0
  0
VERTEX
  5
7C0
330
7B2
100
AcDbEntity
  8
0
100
AcDbVertex
100
AcDb2dVertex
 10
368.617798
 20
367.768097
 30
0.0
  0
SEQEND
  5
7C1
330
7B2
100
AcDbEntity
  8
0
 62
     7
  0
POLYLINE
  5
7C2
330
1F
100
AcDbEntity
  8
0
 62
     7
100
AcDb2dPolyline
 66
     1
 10
0.0
 20
0.0
 30
0.0
  0
VERTEX
  5
7C3
330
7C2
100
AcDbEntity
  8
0
100
AcDbVertex
100
AcDb2dVertex
 10
374.925293
 20
365.751984
 30
0.0
  0
VERTEX
  5
7C4
330
7C2
100
AcDbEntity
  8
0
100
AcDbVertex
100
AcDb2dVertex
 10
372.280304
 20
365.751984
 30
0.0
  0
VERTEX
  5
7C5
330
7C2
100
AcDbEntity
  8
0
100
AcDbVertex
100
AcDb2dVertex
 10
374.235291
 20
368.977783
 30
0.0
  0
VERTEX
  5
7C6
330
7C2
100
AcDbEntity
  8
0
100
AcDbVertex
100
AcDb2dVertex
 10
374.235291
 20
366.558441
 30
0.0
  0
VERTEX
  5
7C7
330
7C2
100
AcDbEntity
  8
0
100
AcDbVertex
100
AcDb2dVertex
 10
374.235291
 20
363.977783
 30
0.0
  0
SEQEND
  5
7C8
330
7C2
100
AcDbEntity
  8
0
 62
     7
  0
POLYLINE
  5
7C9
330
1F
100
AcDbEntity
  8
0
 62
     7
100
AcDb2dPolyline
 66
     1
 10
0.0
 20
0.0
 30
0.0
  0
VERTEX
  5
7CA
330
7C9
100
AcDbEntity
  8
0
100
AcDbVertex
100
AcDb2dVertex
 10
376.402802
 20
365.993927
 30
0.0
  0
VERTEX
  5
7CB
330
7C9
100
AcDbEntity
  8
0
100
AcDbVertex
100
AcDb2dVertex
 10
379.047791
 20
365.993927
 30
0.0
  0
SEQEND
  5
7CC
330
7C9
100
AcDbEntity
  8
0
 62
     7
  0
POLYLINE
  5
7CD
330
1F
100
AcDbEntity
  8
0
 62
     7
100
AcDb2dPolyline
 66
     1
 10
0.0
 20
0.0
 30
0.0
 70
     1
  0
VERTEX
  5
7CE
330
7CD
100
AcDbEntity
  8
0
100
AcDbVertex
100
AcDb2dVertex
 10
381.330292
 20
368.977783
 30
0.0
  0
VERTEX
  5
7CF
330
7CD
100
AcDbEntity
  8
0
100
AcDbVertex
100
AcDb2dVertex
 10
380.697784
 20
368.73584
 30
0.0
  0
VERTEX
  5
7D0
330
7CD
100
AcDbEntity
  8
0
100
AcDbVertex
100
AcDb2dVertex
 10
380.295288
 20
367.929382
 30
0.0
  0
VERTEX
  5
7D1
330
7CD
100
AcDbEntity
  8
0
100
AcDbVertex
100
AcDb2dVertex
 10
380.122803
 20
367.122955
 30
0.0
  0
VERTEX
  5
7D2
330
7CD
100
AcDbEntity
  8
0
100
AcDbVertex
100
AcDb2dVertex
 10
380.122803
 20
366.074554
 30
0.0
  0
VERTEX
  5
7D3
330
7CD
100
AcDbEntity
  8
0
100
AcDbVertex
100
AcDb2dVertex
 10
380.295288
 20
365.026184
 30
0.0
  0
VERTEX
  5
7D4
330
7CD
100
AcDbEntity
  8
0
100
AcDbVertex
100
AcDb2dVertex
 10
380.697784
 20
364.219727
 30
0.0
  0
VERTEX
  5
7D5
330
7CD
100
AcDbEntity
  8
0
100
AcDbVertex
100
AcDb2dVertex
 10
381.330292
 20
363.977783
 30
0.0
  0
VERTEX
  5
7D6
330
7CD
100
AcDbEntity
  8
0
100
AcDbVertex
100
AcDb2dVertex
 10
381.790283
 20
363.977783
 30
0.0
  0
VERTEX
  5
7D7
330
7CD
100
AcDbEntity
  8
0
100
AcDbVertex
100
AcDb2dVertex
 10
382.422791
 20
364.219727
 30
0.0
  0
VERTEX
  5
7D8
330
7CD
100
AcDbEntity
  8
0
100
AcDbVertex
100
AcDb2dVertex
 10
382.825287
 20
365.026184
 30
0.0
  0
VERTEX
  5
7D9
330
7CD
100
AcDbEntity
  8
0
100
AcDbVertex
100
AcDb2dVertex
 10
382.997803
 20
365.993927
 30
0.0
  0
VERTEX
  5
7DA
330
7CD
100
AcDbEntity
  8
0
100
AcDbVertex
100
AcDb2dVertex
 10
382.997803
 20
367.122955
 30
0.0
  0
VERTEX
  5
7DB
330
7CD
100
AcDbEntity
  8
0
100
AcDbVertex
100
AcDb2dVertex
 10
382.825287
 20
367.929382
 30
0.0
  0
VERTEX
  5
7DC
330
7CD
100
AcDbEntity
  8
0
100
AcDbVertex
100
AcDb2dVertex
 10
382.422791
 20
368.73584
 30
0.0
  0
VERTEX
  5
7DD
330
7CD
100
AcDbEntity
  8
0
100
AcDbVertex
100
AcDb2dVertex
 10
381.790283
 20
368.977783
 30
0.0
  0
SEQEND
  5
7DE
330
7CD
100
AcDbEntity
  8
0
 62
     7
  0
POLYLINE
  5
7DF
330
1F
100
AcDbEntity
  8
0
 62
     7
100
AcDb2dPolyline
 66
     1
 10
0.0
 20
0.0
 30
0.0
  0
VERTEX
  5
7E0
330
7DF
100
AcDbEntity
  8
0
100
AcDbVertex
100
AcDb2dVertex
 10
384.13031
 20
364.864868
 30
0.0
  0
VERTEX
  5
7E1
330
7DF
100
AcDbEntity
  8
0
100
AcDbVertex
100
AcDb2dVertex
 10
384.302795
 20
364.461639
 30
0.0
  0
VERTEX
  5
7E2
330
7DF
100
AcDbEntity
  8
0
100
AcDbVertex
100
AcDb2dVertex
 10
384.475281
 20
364.219727
 30
0.0
  0
VERTEX
  5
7E3
330
7DF
100
AcDbEntity
  8
0
100
AcDbVertex
100
AcDb2dVertex
 10
385.107788
 20
363.977783
 30
0.0
  0
VERTEX
  5
7E4
330
7DF
100
AcDbEntity
  8
0
100
AcDbVertex
100
AcDb2dVertex
 10
385.740295
 20
363.977783
 30
0.0
  0
VERTEX
  5
7E5
330
7DF
100
AcDbEntity
  8
0
100
AcDbVertex
100
AcDb2dVertex
 10
386.430298
 20
364.219727
 30
0.0
  0
VERTEX
  5
7E6
330
7DF
100
AcDbEntity
  8
0
100
AcDbVertex
100
AcDb2dVertex
 10
386.775299
 20
364.703583
 30
0.0
  0
VERTEX
  5
7E7
330
7DF
100
AcDbEntity
  8
0
100
AcDbVertex
100
AcDb2dVertex
 10
386.947784
 20
365.429382
 30
0.0
  0
VERTEX
  5
7E8
330
7DF
100
AcDbEntity
  8
0
100
AcDbVertex
100
AcDb2dVertex
 10
386.947784
 20
365.913269
 30
0.0
  0
VERTEX
  5
7E9
330
7DF
100
AcDbEntity
  8
0
100
AcDbVertex
100
AcDb2dVertex
 10
386.775299
 20
366.639069
 30
0.0
  0
VERTEX
  5
7EA
330
7DF
100
AcDbEntity
  8
0
100
AcDbVertex
100
AcDb2dVertex
 10
386.430298
 20
367.042297
 30
0.0
  0
VERTEX
  5
7EB
330
7DF
100
AcDbEntity
  8
0
100
AcDbVertex
100
AcDb2dVertex
 10
385.740295
 20
367.284241
 30
0.0
  0
VERTEX
  5
7EC
330
7DF
100
AcDbEntity
  8
0
100
AcDbVertex
100
AcDb2dVertex
 10
385.107788
 20
367.284241
 30
0.0
  0
VERTEX
  5
7ED
330
7DF
100
AcDbEntity
  8
0
100
AcDbVertex
100
AcDb2dVertex
 10
384.590302
 20
367.042297
 30
0.0
  0
VERTEX
  5
7EE
330
7DF
100
AcDbEntity
  8
0
100
AcDbVertex
100
AcDb2dVertex
 10
384.417786
 20
366.800354
 30
0.0
  0
VERTEX
  5
7EF
330
7DF
100
AcDbEntity
  8
0
100
AcDbVertex
100
AcDb2dVertex
 10
384.590302
 20
368.977783
 30
0.0
  0
VERTEX
  5
7F0
330
7DF
100
AcDbEntity
  8
0
100
AcDbVertex
100
AcDb2dVertex
 10
386.717804
 20
368.977783
 30
0.0
  0
SEQEND
  5
7F1
330
7DF
100
AcDbEntity
  8
0
 62
     7
  0
POLYLINE
  5
7F2
330
1F
100
AcDbEntity
  8
0
 62
     7
100
AcDb2dPolyline
 66
     1
 10
0.0
 20
0.0
 30
0.0
  0
VERTEX
  5
7F3
330
7F2
100
AcDbEntity
  8
0
100
AcDbVertex
100
AcDb2dVertex
 10
388.080292
 20
368.977783
 30
0.0
  0
VERTEX
  5
7F4
330
7F2
100
AcDbEntity
  8
0
100
AcDbVertex
100
AcDb2dVertex
 10
390.840302
 20
368.977783
 30
0.0
  0
VERTEX
  5
7F5
330
7F2
100
AcDbEntity
  8
0
100
AcDbVertex
100
AcDb2dVertex
 10
388.770294
 20
363.977783
 30
0.0
  0
SEQEND
  5
7F6
330
7F2
100
AcDbEntity
  8
0
 62
     7
  0
ENDSEC
  0
SECTION
  2
OBJECTS
  0
DICTIONARY
  5
C
330
0
100
AcDbDictionary
  3
ACAD_GROUP
350
D
  3
ACAD_MLINESTYLE
350
17
  3
ACAD_SCALELIST
350
47
  0
DICTIONARY
  5
D
102
{ACAD_REACTORS
330
C
102
}
330
C
100
AcDbDictionary
  0
DICTIONARY
  5
17
102
{ACAD_REACTORS
330
C
102
}
330
C
100
AcDbDictionary
  3
STANDARD
350
18
  0
DICTIONARY
  5
47
102
{ACAD_REACTORS
330
C
102
}
330
C
100
AcDbDictionary
  0
MLINESTYLE
  5
18
102
{ACAD_REACTORS
330
17
102
}
330
17
100
AcDbMlineStyle
  2
Standard
 70
     0
  3

 62
   256
 51
90.0
 52
90.0
 71
     2
 49
0.5
 62
   256
  6
BYLAYER
 49
-0.5
 62
   256
  6
BYLAYER
  0
ENDSEC
  0
EOF
