  0
SECTION
  2
HEADER
  9
$ACADVER
  1
AC1014
  9
$ACADMAINTVER
 70
     9
  9
$DWGCODEPAGE
  3
ANSI_1252
  9
$INSBASE
 10
0.0
 20
0.0
 30
0.0
  9
$EXTMIN
 10
0.0
 20
0.0
 30
0.0
  9
$EXTMAX
 10
828.806946
 20
363.849976
 30
2.0
  9
$LIMMIN
 10
0.0
 20
0.0
  9
$LIMMAX
 10
420.0
 20
297.0
  9
$ORTHOMODE
 70
     0
  9
$REGENMODE
 70
     1
  9
$FILLMODE
 70
     1
  9
$QTEXTMODE
 70
     0
  9
$MIRRTEXT
 70
     1
  9
$DRAGMODE
 70
     2
  9
$LTSCALE
 40
1.0
  9
$OSMODE
 70
     0
  9
$ATTMODE
 70
     1
  9
$TEXTSIZE
 40
2.5
  9
$TRACEWID
 40
1.0
  9
$TEXTSTYLE
  7
STANDARD
  9
$CLAYER
  8
0
  9
$CELTYPE
  6
BYLAYER
  9
$CECOLOR
 62
   256
  9
$CELTSCALE
 40
1.0
  9
$DELOBJ
 70
     1
  9
$DISPSILH
 70
     0
  9
$DIMSCALE
 40
1.0
  9
$DIMASZ
 40
2.5
  9
$DIMEXO
 40
0.625
  9
$DIMDLI
 40
3.75
  9
$DIMRND
 40
0.0
  9
$DIMDLE
 40
0.0
  9
$DIMEXE
 40
1.25
  9
$DIMTP
 40
0.0
  9
$DIMTM
 40
0.0
  9
$DIMTXT
 40
2.5
  9
$DIMCEN
 40
2.5
  9
$DIMTSZ
 40
0.0
  9
$DIMTOL
 70
     0
  9
$DIMLIM
 70
     0
  9
$DIMTIH
 70
     0
  9
$DIMTOH
 70
     0
  9
$DIMSE1
 70
     0
  9
$DIMSE2
 70
     0
  9
$DIMTAD
 70
     1
  9
$DIMZIN
 70
     8
  9
$DIMBLK
  1

  9
$DIMASO
 70
     1
  9
$DIMSHO
 70
     1
  9
$DIMPOST
  1

  9
$DIMAPOST
  1

  9
$DIMALT
 70
     0
  9
$DIMALTD
 70
     3
  9
$DIMALTF
 40
0.03937
  9
$DIMLFAC
 40
1.0
  9
$DIMTOFL
 70
     1
  9
$DIMTVP
 40
0.0
  9
$DIMTIX
 70
     0
  9
$DIMSOXD
 70
     0
  9
$DIMSAH
 70
     0
  9
$DIMBLK1
  1

  9
$DIMBLK2
  1

  9
$DIMSTYLE
  2
STANDARD
  9
$DIMCLRD
 70
     0
  9
$DIMCLRE
 70
     0
  9
$DIMCLRT
 70
     0
  9
$DIMTFAC
 40
1.0
  9
$DIMGAP
 40
0.625
  9
$DIMJUST
 70
     0
  9
$DIMSD1
 70
     0
  9
$DIMSD2
 70
     0
  9
$DIMTOLJ
 70
     0
  9
$DIMTZIN
 70
     8
  9
$DIMALTZ
 70
     0
  9
$DIMALTTZ
 70
     0
  9
$DIMFIT
 70
     0
  9
$DIMUPT
 70
     0
  9
$DIMUNIT
 70
     2
  9
$DIMDEC
 70
     2
  9
$DIMTDEC
 70
     2
  9
$DIMALTU
 70
     2
  9
$DIMALTTD
 70
     3
  9
$DIMTXSTY
  7
STANDARD
  9
$DIMAUNIT
 70
     0
  9
$LUNITS
 70
     2
  9
$LUPREC
 70
     4
  9
$SKETCHINC
 40
1.0
  9
$FILLETRAD
 40
2.5
  9
$AUNITS
 70
     0
  9
$AUPREC
 70
     0
  9
$MENU
  1
.
  9
$ELEVATION
 40
0.0
  9
$PELEVATION
 40
0.0
  9
$THICKNESS
 40
0.0
  9
$LIMCHECK
 70
     0
  9
$BLIPMODE
 70
     1
  9
$CHAMFERA
 40
2.5
  9
$CHAMFERB
 40
2.5
  9
$CHAMFERC
 40
0.0
  9
$CHAMFERD
 40
0.0
  9
$SKPOLY
 70
     0
  9
$TDCREATE
 40
2447893.375
  9
$TDUPDATE
 40
2460350.638741921
  9
$TDINDWG
 40
0.0
  9
$TDUSRTIMER
 40
0.0
  9
$USRTIMER
 70
     1
  9
$ANGBASE
 50
0.0
  9
$ANGDIR
 70
     0
  9
$PDMODE
 70
     0
  9
$PDSIZE
 40
0.0
  9
$PLINEWID
 40
0.0
  9
$COORDS
 70
     0
  9
$SPLFRAME
 70
     0
  9
$SPLINETYPE
 70
     6
  9
$SPLINESEGS
 70
     8
  9
$ATTDIA
 70
     0
  9
$ATTREQ
 70
     1
  9
$HANDLING
 70
     1
  9
$HANDSEED
  5
803
  9
$SURFTAB1
 70
     6
  9
$SURFTAB2
 70
     6
  9
$SURFTYPE
 70
     6
  9
$SURFU
 70
     6
  9
$SURFV
 70
     6
  9
$UCSNAME
  2

  9
$UCSORG
 10
0.0
 20
0.0
 30
0.0
  9
$UCSXDIR
 10
1.0
 20
0.0
 30
0.0
  9
$UCSYDIR
 10
0.0
 20
1.0
 30
0.0
  9
$PUCSNAME
  2

  9
$PUCSORG
 10
0.0
 20
0.0
 30
0.0
  9
$PUCSXDIR
 10
1.0
 20
0.0
 30
0.0
  9
$PUCSYDIR
 10
0.0
 20
1.0
 30
0.0
  9
$USERI1
 70
     0
  9
$USERI2
 70
     0
  9
$USERI3
 70
     0
  9
$USERI4
 70
     0
  9
$USERI5
 70
     0
  9
$USERR1
 40
0.0
  9
$USERR2
 40
0.0
  9
$USERR3
 40
0.0
  9
$USERR4
 40
0.0
  9
$USERR5
 40
0.0
  9
$WORLDVIEW
 70
     1
  9
$SHADEDGE
 70
     3
  9
$SHADEDIF
 70
    70
  9
$TILEMODE
 70
     1
  9
$MAXACTVP
 70
    64
  9
$PINSBASE
 10
0.0
 20
0.0
 30
0.0
  9
$PLIMCHECK
 70
     0
  9
$PEXTMIN
 10
0.0
 20
0.0
 30
0.0
  9
$PEXTMAX
 10
828.806946
 20
363.849976
 30
2.0
  9
$PLIMMIN
 10
0.0
 20
0.0
  9
$PLIMMAX
 10
420.0
 20
297.0
  9
$UNITMODE
 70
     0
  9
$VISRETAIN
 70
     0
  9
$PLINEGEN
 70
     0
  9
$PSLTSCALE
 70
     1
  9
$TREEDEPTH
 70
  3020
  9
$PICKSTYLE
 70
     1
  9
$CMLSTYLE
  2
STANDARD
  9
$CMLJUST
 70
     0
  9
$CMLSCALE
 40
20.0
  9
$PROXYGRAPHICS
 70
     1
  9
$MEASUREMENT
 70
     1
  0
ENDSEC
  0
SECTION
  2
CLASSES
  0
CLASS
  1
ACDBDICTIONARYWDFLT
  2
AcDbDictionaryWithDefault
  3
ObjectDBX Classes
 90
        0
280
     0
281
     0
  0
CLASS
  1
VISUALSTYLE
  2
AcDbVisualStyle
  3
ObjectDBX Classes
 90
     4095
280
     0
281
     0
  0
CLASS
  1
MATERIAL
  2
AcDbMaterial
  3
ObjectDBX Classes
 90
     1153
280
     0
281
     0
  0
CLASS
  1
SCALE
  2
AcDbScale
  3
ObjectDBX Classes
 90
     1153
280
     0
281
     0
  0
CLASS
  1
SUN
  2
AcDbSun
  3
SCENEOE
 90
     1153
280
     0
281
     0
  0
CLASS
  1
XRECORD
  2
AcDbXrecord
  3
ObjectDBX Classes
 90
        0
280
     0
281
     0
  0
CLASS
  1
LWPOLYLINE
  2
AcDbPolyline
  3
ObjectDBX Classes
 90
        0
280
     0
281
     1
  0
CLASS
  1
HATCH
  2
AcDbHatch
  3
ObjectDBX Classes
 90
        0
280
     0
281
     1
  0
ENDSEC
  0
SECTION
  2
TABLES
  0
TABLE
  2
VPORT
  5
8
330
0
100
AcDbSymbolTable
 70
     1
  0
VPORT
  5
29
330
8
100
AcDbSymbolTableRecord
100
AcDbViewportTableRecord
  2
*ACTIVE
 70
     0
 10
0.0
 20
0.0
 11
1.0
 21
1.0
 12
10.429907
 22
4.5
 13
0.0
 23
0.0
 14
0.5
 24
0.5
 15
0.5
 25
0.5
 16
0.0
 26
0.0
 36
1.0
 17
0.0
 27
0.0
 37
0.0
 40
9.0
 41
1.972973
 42
50.0
 43
0.0
 44
0.0
 50
0.0
 51
0.0
 71
     0
 72
   100
 73
     1
 74
     3
 75
     0
 76
     0
 77
     0
 78
     0
  0
ENDTAB
  0
TABLE
  2
LTYPE
  5
5
330
0
100
AcDbSymbolTable
 70
     1
  0
LTYPE
  5
14
330
5
100
AcDbSymbolTableRecord
100
AcDbLinetypeTableRecord
  2
BYBLOCK
 70
     0
  3

 72
    65
 73
     0
 40
0.0
  0
LTYPE
  5
15
330
5
100
AcDbSymbolTableRecord
100
AcDbLinetypeTableRecord
  2
BYLAYER
 70
     0
  3

 72
    65
 73
     0
 40
0.0
  0
LTYPE
  5
16
330
5
100
AcDbSymbolTableRecord
100
AcDbLinetypeTableRecord
  2
CONTINUOUS
 70
     0
  3
Solid line
 72
    65
 73
     0
 40
0.0
  0
ENDTAB
  0
TABLE
  2
LAYER
  5
2
330
0
100
AcDbSymbolTable
 70
     1
  0
LAYER
  5
10
330
2
100
AcDbSymbolTableRecord
100
AcDbLayerTableRecord
  2
0
 70
     0
 62
     7
  6
CONTINUOUS
  0
ENDTAB
  0
TABLE
  2
STYLE
  5
3
330
0
100
AcDbSymbolTable
 70
     1
  0
STYLE
  5
11
330
3
100
AcDbSymbolTableRecord
100
AcDbTextStyleTableRecord
  2
STANDARD
 70
     0
 40
0.0
 41
1.0
 50
0.0
 71
     0
 42
2.5
  3
txt
  4

  0
ENDTAB
  0
TABLE
  2
VIEW
  5
6
330
0
100
AcDbSymbolTable
 70
     0
  0
ENDTAB
  0
TABLE
  2
UCS
  5
7
330
0
100
AcDbSymbolTable
 70
     0
  0
ENDTAB
  0
TABLE
  2
APPID
  5
9
330
0
100
AcDbSymbolTable
 70
     1
  0
APPID
  5
12
330
9
100
AcDbSymbolTableRecord
100
AcDbRegAppTableRecord
  2
ACAD
 70
     0
  0
ENDTAB
  0
TABLE
  2
DIMSTYLE
  5
A
330
0
100
AcDbSymbolTable
 70
     1
  0
DIMSTYLE
105
27
330
A
100
AcDbSymbolTableRecord
100
AcDbDimStyleTableRecord
  2
STANDARD
 70
     0
  3

  4

  5

  6

  7

 40
1.0
 41
0.18
 42
0.0625
 43
0.38
 44
0.18
 45
0.0
 46
0.0
 47
0.0
 48
0.0
140
0.18
141
0.09
142
0.0
143
25.4
144
1.0
145
0.0
146
1.0
147
0.09
 71
     0
 72
     0
 73
     1
 74
     1
 75
     0
 76
     0
 77
     0
 78
     0
170
     0
171
     2
172
     0
173
     0
174
     0
175
     0
176
     0
177
     0
178
     0
270
     2
271
     4
272
     4
273
     2
274
     2
340
11
275
     0
280
     0
281
     0
282
     0
283
     1
284
     0
285
     0
286
     0
287
     3
288
     0
  0
ENDTAB
  0
TABLE
  2
BLOCK_RECORD
  5
1
330
0
100
AcDbSymbolTable
 70
     1
  0
BLOCK_RECORD
  5
1F
330
1
100
AcDbSymbolTableRecord
100
AcDbBlockTableRecord
  2
*MODEL_SPACE
  0
BLOCK_RECORD
  5
1B
330
1
100
AcDbSymbolTableRecord
100
AcDbBlockTableRecord
  2
*PAPER_SPACE
  0
BLOCK_RECORD
  5
23
330
1
100
AcDbSymbolTableRecord
100
AcDbBlockTableRecord
  2
*PAPER_SPACE0
  0
ENDTAB
  0
ENDSEC
  0
SECTION
  2
BLOCKS
  0
BLOCK
  5
20
330
1F
100
AcDbEntity
  8
0
100
AcDbBlockBegin
  2
*MODEL_SPACE
 70
     0
 10
0.0
 20
0.0
 30
0.0
  3
*MODEL_SPACE
  1

  0
ENDBLK
  5
21
330
1F
100
AcDbEntity
  8
0
100
AcDbBlockEnd
  0
BLOCK
  5
1C
330
1B
100
AcDbEntity
 67
     1
  8
0
100
AcDbBlockBegin
  2
*PAPER_SPACE
 70
     0
 10
0.0
 20
0.0
 30
0.0
  3
*PAPER_SPACE
  1

  0
ENDBLK
  5
1D
330
1B
100
AcDbEntity
 67
     1
  8
0
100
AcDbBlockEnd
  0
BLOCK
  5
24
330
23
100
AcDbEntity
  8
0
100
AcDbBlockBegin
  2
*PAPER_SPACE0
 70
     0
 10
0.0
 20
0.0
 30
0.0
  3
*PAPER_SPACE0
  1
*PAPER_SPACE0
  0
ENDBLK
  5
25
330
23
100
AcDbEntity
  8
0
100
AcDbBlockEnd
  0
ENDSEC
  0
SECTION
  2
ENTITIES
  0
LINE
  5
6A
330
1F
100
AcDbEntity
  8
0
 62
     7
100
AcDbLine
 10
826.306946
 20
332.849976
 30
0.0
 11
826.306946
 21
345.950012
 31
0.0
  0
LINE
  5
6B
330
1F
100
AcDbEntity
  8
0
 62
     7
100
AcDbLine
 10
826.306946
 20
345.950012
 30
0.0
 11
823.988281
 21
345.950012
 31
0.0
  0
ARC
  5
6C
330
1F
100
AcDbEntity
  8
0
 62
     7
100
AcDbCircle
 10
817.306946
 20
350.349976
 30
0.0
 40
8.0
100
AcDbArc
 50
213.367013
 51
326.632979
  0
LINE
  5
6D
330
1F
100
AcDbEntity
  8
0
 62
     7
100
AcDbLine
 10
810.62561
 20
345.950012
 30
0.0
 11
751.95697
 21
345.950012
 31
0.0
  0
LINE
  5
6E
330
1F
100
AcDbEntity
  8
0
 62
     7
100
AcDbLine
 10
751.95697
 20
342.049988
 30
0.0
 11
751.95697
 21
345.950012
 31
0.0
  0
ARC
  5
6F
330
1F
100
AcDbEntity
  8
0
 62
     7
100
AcDbCircle
 10
751.45697
 20
342.049988
 30
0.0
 40
0.5
100
AcDbArc
 50
180.000009
 51
360.0
  0
LINE
  5
70
330
1F
100
AcDbEntity
  8
0
 62
     7
100
AcDbLine
 10
750.95697
 20
345.950012
 30
0.0
 11
750.95697
 21
342.049988
 31
0.0
  0
LINE
  5
71
330
1F
100
AcDbEntity
  8
0
 62
     7
100
AcDbLine
 10
750.95697
 20
345.950012
 30
0.0
 11
748.656921
 21
345.950012
 31
0.0
  0
LINE
  5
72
330
1F
100
AcDbEntity
  8
0
 62
     7
100
AcDbLine
 10
748.656921
 20
342.049988
 30
0.0
 11
748.656921
 21
345.950012
 31
0.0
  0
ARC
  5
73
330
1F
100
AcDbEntity
  8
0
 62
     7
100
AcDbCircle
 10
748.156921
 20
342.049988
 30
0.0
 40
0.5
100
AcDbArc
 50
180.000009
 51
360.0
  0
LINE
  5
74
330
1F
100
AcDbEntity
  8
0
 62
     7
100
AcDbLine
 10
747.656921
 20
345.950012
 30
0.0
 11
747.656921
 21
342.049988
 31
0.0
  0
LINE
  5
75
330
1F
100
AcDbEntity
  8
0
 62
     7
100
AcDbLine
 10
747.656921
 20
345.950012
 30
0.0
 11
551.956909
 21
345.950012
 31
0.0
  0
LINE
  5
76
330
1F
100
AcDbEntity
  8
0
 62
     7
100
AcDbLine
 10
551.956909
 20
342.049988
 30
0.0
 11
551.956909
 21
345.950012
 31
0.0
  0
ARC
  5
77
330
1F
100
AcDbEntity
  8
0
 62
     7
100
AcDbCircle
 10
551.456909
 20
342.049988
 30
0.0
 40
0.5
100
AcDbArc
 50
180.000009
 51
360.0
  0
LINE
  5
78
330
1F
100
AcDbEntity
  8
0
 62
     7
100
AcDbLine
 10
550.956909
 20
345.950012
 30
0.0
 11
550.956909
 21
342.049988
 31
0.0
  0
LINE
  5
79
330
1F
100
AcDbEntity
  8
0
 62
     7
100
AcDbLine
 10
550.956909
 20
345.950012
 30
0.0
 11
548.656921
 21
345.950012
 31
0.0
  0
LINE
  5
7A
330
1F
100
AcDbEntity
  8
0
 62
     7
100
AcDbLine
 10
548.656921
 20
342.049988
 30
0.0
 11
548.656921
 21
345.950012
 31
0.0
  0
ARC
  5
7B
330
1F
100
AcDbEntity
  8
0
 62
     7
100
AcDbCircle
 10
548.156921
 20
342.049988
 30
0.0
 40
0.5
100
AcDbArc
 50
180.000009
 51
360.0
  0
LINE
  5
7C
330
1F
100
AcDbEntity
  8
0
 62
     7
100
AcDbLine
 10
547.656921
 20
345.950012
 30
0.0
 11
547.656921
 21
342.049988
 31
0.0
  0
LINE
  5
7D
330
1F
100
AcDbEntity
  8
0
 62
     7
100
AcDbLine
 10
547.656921
 20
345.950012
 30
0.0
 11
251.95697
 21
345.950012
 31
0.0
  0
LINE
  5
7E
330
1F
100
AcDbEntity
  8
0
 62
     7
100
AcDbLine
 10
251.95697
 20
342.049988
 30
0.0
 11
251.95697
 21
345.950012
 31
0.0
  0
ARC
  5
7F
330
1F
100
AcDbEntity
  8
0
 62
     7
100
AcDbCircle
 10
251.45697
 20
342.049988
 30
0.0
 40
0.5
100
AcDbArc
 50
180.000009
 51
360.0
  0
LINE
  5
80
330
1F
100
AcDbEntity
  8
0
 62
     7
100
AcDbLine
 10
250.95697
 20
345.950012
 30
0.0
 11
250.95697
 21
342.049988
 31
0.0
  0
LINE
  5
81
330
1F
100
AcDbEntity
  8
0
 62
     7
100
AcDbLine
 10
250.95697
 20
345.950012
 30
0.0
 11
248.656982
 21
345.950012
 31
0.0
  0
LINE
  5
82
330
1F
100
AcDbEntity
  8
0
 62
     7
100
AcDbLine
 10
248.656982
 20
342.049988
 30
0.0
 11
248.656982
 21
345.950012
 31
0.0
  0
ARC
  5
83
330
1F
100
AcDbEntity
  8
0
 62
     7
100
AcDbCircle
 10
248.156982
 20
342.049988
 30
0.0
 40
0.5
100
AcDbArc
 50
180.000009
 51
360.0
  0
LINE
  5
84
330
1F
100
AcDbEntity
  8
0
 62
     7
100
AcDbLine
 10
247.656982
 20
345.950012
 30
0.0
 11
247.656982
 21
342.049988
 31
0.0
  0
LINE
  5
85
330
1F
100
AcDbEntity
  8
0
 62
     7
100
AcDbLine
 10
247.656982
 20
345.950012
 30
0.0
 11
188.988297
 21
345.950012
 31
0.0
  0
ARC
  5
86
330
1F
100
AcDbEntity
  8
0
 62
     7
100
AcDbCircle
 10
182.306976
 20
350.349976
 30
0.0
 40
8.0
100
AcDbArc
 50
213.367013
 51
326.632979
  0
LINE
  5
87
330
1F
100
AcDbEntity
  8
0
 62
     7
100
AcDbLine
 10
175.625656
 20
345.950012
 30
0.0
 11
173.306976
 21
345.950012
 31
0.0
  0
LINE
  5
88
330
1F
100
AcDbEntity
  8
0
 62
     7
100
AcDbLine
 10
173.306976
 20
332.849976
 30
0.0
 11
173.306976
 21
345.950012
 31
0.0
  0
LINE
  5
89
330
1F
100
AcDbEntity
  8
0
 62
     7
100
AcDbLine
 10
826.306946
 20
332.049988
 30
0.0
 11
826.306946
 21
332.849976
 31
0.0
  0
LINE
  5
8A
330
1F
100
AcDbEntity
  8
0
 62
     7
100
AcDbLine
 10
173.306976
 20
332.849976
 30
0.0
 11
173.306976
 21
332.049988
 31
0.0
  0
LINE
  5
8B
330
1F
100
AcDbEntity
  8
0
 62
     7
100
AcDbLine
 10
173.306976
 20
332.049988
 30
0.0
 11
826.306946
 21
332.049988
 31
0.0
  0
LINE
  5
8C
330
1F
100
AcDbEntity
  8
0
 62
     7
100
AcDbLine
 10
826.306946
 20
346.079285
 30
0.0
 11
826.306946
 21
345.950012
 31
0.0
  0
LINE
  5
8D
330
1F
100
AcDbEntity
  8
0
 62
     7
100
AcDbLine
 10
826.306946
 20
346.079285
 30
0.0
 11
826.306946
 21
346.220703
 31
0.0
  0
LINE
  5
8E
330
1F
100
AcDbEntity
  8
0
 62
     7
100
AcDbLine
 10
826.306946
 20
346.349976
 30
0.0
 11
826.306946
 21
346.220703
 31
0.0
  0
LINE
  5
8F
330
1F
100
AcDbEntity
  8
0
 62
     7
100
AcDbLine
 10
826.306946
 20
346.349976
 30
0.0
 11
826.306946
 21
347.049988
 31
0.0
  0
LINE
  5
90
330
1F
100
AcDbEntity
  8
0
 62
     7
100
AcDbLine
 10
826.306946
 20
347.17926
 30
0.0
 11
826.306946
 21
347.049988
 31
0.0
  0
LINE
  5
91
330
1F
100
AcDbEntity
  8
0
 62
     7
100
AcDbLine
 10
826.306946
 20
347.17926
 30
0.0
 11
826.306946
 21
347.320679
 31
0.0
  0
LINE
  5
92
330
1F
100
AcDbEntity
  8
0
 62
     7
100
AcDbLine
 10
826.306946
 20
347.450012
 30
0.0
 11
826.306946
 21
347.320679
 31
0.0
  0
LINE
  5
93
330
1F
100
AcDbEntity
  8
0
 62
     7
100
AcDbLine
 10
826.306946
 20
347.450012
 30
0.0
 11
826.306946
 21
348.150024
 31
0.0
  0
LINE
  5
94
330
1F
100
AcDbEntity
  8
0
 62
     7
100
AcDbLine
 10
826.306946
 20
348.279297
 30
0.0
 11
826.306946
 21
348.150024
 31
0.0
  0
LINE
  5
95
330
1F
100
AcDbEntity
  8
0
 62
     7
100
AcDbLine
 10
826.306946
 20
348.279297
 30
0.0
 11
826.306946
 21
348.420715
 31
0.0
  0
LINE
  5
96
330
1F
100
AcDbEntity
  8
0
 62
     7
100
AcDbLine
 10
826.306946
 20
348.549988
 30
0.0
 11
826.306946
 21
348.420715
 31
0.0
  0
LINE
  5
97
330
1F
100
AcDbEntity
  8
0
 62
     7
100
AcDbLine
 10
826.306946
 20
348.549988
 30
0.0
 11
826.306946
 21
349.25
 31
0.0
  0
LINE
  5
98
330
1F
100
AcDbEntity
  8
0
 62
     7
100
AcDbLine
 10
826.306946
 20
349.379272
 30
0.0
 11
826.306946
 21
349.25
 31
0.0
  0
LINE
  5
99
330
1F
100
AcDbEntity
  8
0
 62
     7
100
AcDbLine
 10
826.306946
 20
349.379272
 30
0.0
 11
826.306946
 21
349.520691
 31
0.0
  0
LINE
  5
9A
330
1F
100
AcDbEntity
  8
0
 62
     7
100
AcDbLine
 10
826.306946
 20
349.650024
 30
0.0
 11
826.306946
 21
349.520691
 31
0.0
  0
LINE
  5
9B
330
1F
100
AcDbEntity
  8
0
 62
     7
100
AcDbLine
 10
826.306946
 20
349.650024
 30
0.0
 11
826.306946
 21
350.349976
 31
0.0
  0
LINE
  5
9C
330
1F
100
AcDbEntity
  8
0
 62
     7
100
AcDbLine
 10
826.306946
 20
350.479309
 30
0.0
 11
826.306946
 21
350.349976
 31
0.0
  0
LINE
  5
9D
330
1F
100
AcDbEntity
  8
0
 62
     7
100
AcDbLine
 10
826.306946
 20
350.479309
 30
0.0
 11
826.306946
 21
350.620728
 31
0.0
  0
LINE
  5
9E
330
1F
100
AcDbEntity
  8
0
 62
     7
100
AcDbLine
 10
826.306946
 20
350.75
 30
0.0
 11
826.306946
 21
350.620728
 31
0.0
  0
LINE
  5
9F
330
1F
100
AcDbEntity
  8
0
 62
     7
100
AcDbLine
 10
826.306946
 20
350.75
 30
0.0
 11
826.306946
 21
351.450012
 31
0.0
  0
LINE
  5
A0
330
1F
100
AcDbEntity
  8
0
 62
     7
100
AcDbLine
 10
826.306946
 20
351.579285
 30
0.0
 11
826.306946
 21
351.450012
 31
0.0
  0
LINE
  5
A1
330
1F
100
AcDbEntity
  8
0
 62
     7
100
AcDbLine
 10
826.306946
 20
351.579285
 30
0.0
 11
826.306946
 21
351.720703
 31
0.0
  0
LINE
  5
A2
330
1F
100
AcDbEntity
  8
0
 62
     7
100
AcDbLine
 10
826.306946
 20
351.849976
 30
0.0
 11
826.306946
 21
351.720703
 31
0.0
  0
LINE
  5
A3
330
1F
100
AcDbEntity
  8
0
 62
     7
100
AcDbLine
 10
826.306946
 20
351.849976
 30
0.0
 11
826.306946
 21
352.549988
 31
0.0
  0
LINE
  5
A4
330
1F
100
AcDbEntity
  8
0
 62
     7
100
AcDbLine
 10
826.306946
 20
352.67926
 30
0.0
 11
826.306946
 21
352.549988
 31
0.0
  0
LINE
  5
A5
330
1F
100
AcDbEntity
  8
0
 62
     7
100
AcDbLine
 10
826.306946
 20
352.67926
 30
0.0
 11
826.306946
 21
352.820679
 31
0.0
  0
LINE
  5
A6
330
1F
100
AcDbEntity
  8
0
 62
     7
100
AcDbLine
 10
826.306946
 20
352.950012
 30
0.0
 11
826.306946
 21
352.820679
 31
0.0
  0
LINE
  5
A7
330
1F
100
AcDbEntity
  8
0
 62
     7
100
AcDbLine
 10
826.306946
 20
352.950012
 30
0.0
 11
826.306946
 21
353.650024
 31
0.0
  0
LINE
  5
A8
330
1F
100
AcDbEntity
  8
0
 62
     7
100
AcDbLine
 10
826.306946
 20
353.779297
 30
0.0
 11
826.306946
 21
353.650024
 31
0.0
  0
LINE
  5
A9
330
1F
100
AcDbEntity
  8
0
 62
     7
100
AcDbLine
 10
826.306946
 20
353.779297
 30
0.0
 11
826.306946
 21
353.920715
 31
0.0
  0
LINE
  5
AA
330
1F
100
AcDbEntity
  8
0
 62
     7
100
AcDbLine
 10
826.306946
 20
354.049988
 30
0.0
 11
826.306946
 21
353.920715
 31
0.0
  0
LINE
  5
AB
330
1F
100
AcDbEntity
  8
0
 62
     7
100
AcDbLine
 10
826.306946
 20
354.049988
 30
0.0
 11
826.306946
 21
354.75
 31
0.0
  0
LINE
  5
AC
330
1F
100
AcDbEntity
  8
0
 62
     7
100
AcDbLine
 10
826.306946
 20
354.879272
 30
0.0
 11
826.306946
 21
354.75
 31
0.0
  0
LINE
  5
AD
330
1F
100
AcDbEntity
  8
0
 62
     7
100
AcDbLine
 10
826.306946
 20
354.879272
 30
0.0
 11
826.306946
 21
355.020691
 31
0.0
  0
LINE
  5
AE
330
1F
100
AcDbEntity
  8
0
 62
     7
100
AcDbLine
 10
826.306946
 20
355.150024
 30
0.0
 11
826.306946
 21
355.020691
 31
0.0
  0
LINE
  5
AF
330
1F
100
AcDbEntity
  8
0
 62
     7
100
AcDbLine
 10
826.306946
 20
355.150024
 30
0.0
 11
826.306946
 21
359.974243
 31
0.0
  0
LINE
  5
B0
330
1F
100
AcDbEntity
  8
0
 62
     7
100
AcDbLine
 10
826.306946
 20
360.462158
 30
0.0
 11
826.306946
 21
359.974243
 31
0.0
  0
LINE
  5
B1
330
1F
100
AcDbEntity
  8
0
 62
     7
100
AcDbLine
 10
826.306946
 20
360.462158
 30
0.0
 11
826.306946
 21
360.549988
 31
0.0
  0
LINE
  5
B2
330
1F
100
AcDbEntity
  8
0
 62
     7
100
AcDbLine
 10
823.988281
 20
345.950012
 30
0.0
 11
824.071655
 21
346.079285
 31
0.0
  0
ARC
  5
B3
330
1F
100
AcDbEntity
  8
0
 62
     7
100
AcDbCircle
 10
817.306946
 20
350.349976
 30
0.0
 40
8.0
100
AcDbArc
 50
354.980203
 51
360.0
  0
LINE
  5
B4
330
1F
100
AcDbEntity
  8
0
 62
     7
100
AcDbLine
 10
825.263855
 20
349.520691
 30
0.0
 11
825.276245
 21
349.650024
 31
0.0
  0
LINE
  5
B5
330
1F
100
AcDbEntity
  8
0
 62
     7
100
AcDbLine
 10
825.247864
 20
349.379272
 30
0.0
 11
825.263855
 21
349.520691
 31
0.0
  0
LINE
  5
B6
330
1F
100
AcDbEntity
  8
0
 62
     7
100
AcDbLine
 10
825.230957
 20
349.25
 30
0.0
 11
825.247864
 21
349.379272
 31
0.0
  0
ARC
  5
B7
330
1F
100
AcDbEntity
  8
0
 62
     7
100
AcDbCircle
 10
817.306946
 20
350.349976
 30
0.0
 40
8.0
100
AcDbArc
 50
346.997132
 51
352.096798
  0
LINE
  5
B8
330
1F
100
AcDbEntity
  8
0
 62
     7
100
AcDbLine
 10
825.070801
 20
348.420715
 30
0.0
 11
825.101807
 21
348.549988
 31
0.0
  0
LINE
  5
B9
330
1F
100
AcDbEntity
  8
0
 62
     7
100
AcDbLine
 10
825.034302
 20
348.279297
 30
0.0
 11
825.070801
 21
348.420715
 31
0.0
  0
LINE
  5
BA
330
1F
100
AcDbEntity
  8
0
 62
     7
100
AcDbLine
 10
824.998474
 20
348.150024
 30
0.0
 11
825.034302
 21
348.279297
 31
0.0
  0
ARC
  5
BB
330
1F
100
AcDbEntity
  8
0
 62
     7
100
AcDbCircle
 10
817.306946
 20
350.349976
 30
0.0
 40
8.0
100
AcDbArc
 50
338.746183
 51
344.037995
  0
LINE
  5
BC
330
1F
100
AcDbEntity
  8
0
 62
     7
100
AcDbLine
 10
824.711243
 20
347.320679
 30
0.0
 11
824.762817
 21
347.450012
 31
0.0
  0
LINE
  5
BD
330
1F
100
AcDbEntity
  8
0
 62
     7
100
AcDbLine
 10
824.651794
 20
347.17926
 30
0.0
 11
824.711243
 21
347.320679
 31
0.0
  0
LINE
  5
BE
330
1F
100
AcDbEntity
  8
0
 62
     7
100
AcDbLine
 10
824.594604
 20
347.049988
 30
0.0
 11
824.651794
 21
347.17926
 31
0.0
  0
ARC
  5
BF
330
1F
100
AcDbEntity
  8
0
 62
     7
100
AcDbCircle
 10
817.306946
 20
350.349976
 30
0.0
 40
8.0
100
AcDbArc
 50
329.999989
 51
335.63801
  0
LINE
  5
C0
330
1F
100
AcDbEntity
  8
0
 62
     7
100
AcDbLine
 10
824.158875
 20
346.220703
 30
0.0
 11
824.235168
 21
346.349976
 31
0.0
  0
LINE
  5
C1
330
1F
100
AcDbEntity
  8
0
 62
     7
100
AcDbLine
 10
824.071655
 20
346.079285
 30
0.0
 11
824.158875
 21
346.220703
 31
0.0
  0
LINE
  5
C2
330
1F
100
AcDbEntity
  8
0
 62
     7
100
AcDbLine
 10
810.62561
 20
345.950012
 30
0.0
 11
810.542236
 21
346.079285
 31
0.0
  0
LINE
  5
C3
330
1F
100
AcDbEntity
  8
0
 62
     7
100
AcDbLine
 10
810.542236
 20
346.079285
 30
0.0
 11
810.455017
 21
346.220703
 31
0.0
  0
LINE
  5
C4
330
1F
100
AcDbEntity
  8
0
 62
     7
100
AcDbLine
 10
810.455017
 20
346.220703
 30
0.0
 11
810.378723
 21
346.349976
 31
0.0
  0
ARC
  5
C5
330
1F
100
AcDbEntity
  8
0
 62
     7
100
AcDbCircle
 10
817.306946
 20
350.349976
 30
0.0
 40
8.0
100
AcDbArc
 50
204.361982
 51
210.000003
  0
LINE
  5
C6
330
1F
100
AcDbEntity
  8
0
 62
     7
100
AcDbLine
 10
810.019287
 20
347.049988
 30
0.0
 11
809.962097
 21
347.17926
 31
0.0
  0
LINE
  5
C7
330
1F
100
AcDbEntity
  8
0
 62
     7
100
AcDbLine
 10
809.962097
 20
347.17926
 30
0.0
 11
809.902649
 21
347.320679
 31
0.0
  0
LINE
  5
C8
330
1F
100
AcDbEntity
  8
0
 62
     7
100
AcDbLine
 10
809.902649
 20
347.320679
 30
0.0
 11
809.851074
 21
347.450012
 31
0.0
  0
ARC
  5
C9
330
1F
100
AcDbEntity
  8
0
 62
     7
100
AcDbCircle
 10
817.306946
 20
350.349976
 30
0.0
 40
8.0
100
AcDbArc
 50
195.96201
 51
201.253809
  0
LINE
  5
CA
330
1F
100
AcDbEntity
  8
0
 62
     7
100
AcDbLine
 10
809.615417
 20
348.150024
 30
0.0
 11
809.57959
 21
348.279297
 31
0.0
  0
LINE
  5
CB
330
1F
100
AcDbEntity
  8
0
 62
     7
100
AcDbLine
 10
809.57959
 20
348.279297
 30
0.0
 11
809.543091
 21
348.420715
 31
0.0
  0
LINE
  5
CC
330
1F
100
AcDbEntity
  8
0
 62
     7
100
AcDbLine
 10
809.543091
 20
348.420715
 30
0.0
 11
809.512085
 21
348.549988
 31
0.0
  0
ARC
  5
CD
330
1F
100
AcDbEntity
  8
0
 62
     7
100
AcDbCircle
 10
817.306946
 20
350.349976
 30
0.0
 40
8.0
100
AcDbArc
 50
187.903207
 51
193.002872
  0
LINE
  5
CE
330
1F
100
AcDbEntity
  8
0
 62
     7
100
AcDbLine
 10
809.382935
 20
349.25
 30
0.0
 11
809.366028
 21
349.379272
 31
0.0
  0
LINE
  5
CF
330
1F
100
AcDbEntity
  8
0
 62
     7
100
AcDbLine
 10
809.366028
 20
349.379272
 30
0.0
 11
809.350037
 21
349.520691
 31
0.0
  0
LINE
  5
D0
330
1F
100
AcDbEntity
  8
0
 62
     7
100
AcDbLine
 10
809.350037
 20
349.520691
 30
0.0
 11
809.337646
 21
349.650024
 31
0.0
  0
ARC
  5
D1
330
1F
100
AcDbEntity
  8
0
 62
     7
100
AcDbCircle
 10
817.306946
 20
350.349976
 30
0.0
 40
8.0
100
AcDbArc
 50
180.000009
 51
185.019802
  0
LINE
  5
D2
330
1F
100
AcDbEntity
  8
0
 62
     7
100
AcDbLine
 10
751.95697
 20
346.079285
 30
0.0
 11
751.95697
 21
345.950012
 31
0.0
  0
LINE
  5
D3
330
1F
100
AcDbEntity
  8
0
 62
     7
100
AcDbLine
 10
751.95697
 20
346.220703
 30
0.0
 11
751.95697
 21
346.349976
 31
0.0
  0
LINE
  5
D4
330
1F
100
AcDbEntity
  8
0
 62
     7
100
AcDbLine
 10
751.95697
 20
346.220703
 30
0.0
 11
751.95697
 21
346.079285
 31
0.0
  0
LINE
  5
D5
330
1F
100
AcDbEntity
  8
0
 62
     7
100
AcDbLine
 10
751.95697
 20
352.950012
 30
0.0
 11
751.95697
 21
353.349976
 31
0.0
  0
LINE
  5
D6
330
1F
100
AcDbEntity
  8
0
 62
     7
100
AcDbLine
 10
751.95697
 20
352.820679
 30
0.0
 11
751.95697
 21
352.950012
 31
0.0
  0
LINE
  5
D7
330
1F
100
AcDbEntity
  8
0
 62
     7
100
AcDbLine
 10
751.95697
 20
352.820679
 30
0.0
 11
751.95697
 21
352.67926
 31
0.0
  0
LINE
  5
D8
330
1F
100
AcDbEntity
  8
0
 62
     7
100
AcDbLine
 10
751.95697
 20
352.67926
 30
0.0
 11
751.95697
 21
352.549988
 31
0.0
  0
LINE
  5
D9
330
1F
100
AcDbEntity
  8
0
 62
     7
100
AcDbLine
 10
751.95697
 20
351.849976
 30
0.0
 11
751.95697
 21
352.549988
 31
0.0
  0
LINE
  5
DA
330
1F
100
AcDbEntity
  8
0
 62
     7
100
AcDbLine
 10
751.95697
 20
351.720703
 30
0.0
 11
751.95697
 21
351.849976
 31
0.0
  0
LINE
  5
DB
330
1F
100
AcDbEntity
  8
0
 62
     7
100
AcDbLine
 10
751.95697
 20
351.720703
 30
0.0
 11
751.95697
 21
351.579285
 31
0.0
  0
LINE
  5
DC
330
1F
100
AcDbEntity
  8
0
 62
     7
100
AcDbLine
 10
751.95697
 20
351.579285
 30
0.0
 11
751.95697
 21
351.450012
 31
0.0
  0
LINE
  5
DD
330
1F
100
AcDbEntity
  8
0
 62
     7
100
AcDbLine
 10
751.95697
 20
350.75
 30
0.0
 11
751.95697
 21
351.450012
 31
0.0
  0
LINE
  5
DE
330
1F
100
AcDbEntity
  8
0
 62
     7
100
AcDbLine
 10
751.95697
 20
350.620728
 30
0.0
 11
751.95697
 21
350.75
 31
0.0
  0
LINE
  5
DF
330
1F
100
AcDbEntity
  8
0
 62
     7
100
AcDbLine
 10
751.95697
 20
350.620728
 30
0.0
 11
751.95697
 21
350.479309
 31
0.0
  0
LINE
  5
E0
330
1F
100
AcDbEntity
  8
0
 62
     7
100
AcDbLine
 10
751.95697
 20
350.479309
 30
0.0
 11
751.95697
 21
350.349976
 31
0.0
  0
LINE
  5
E1
330
1F
100
AcDbEntity
  8
0
 62
     7
100
AcDbLine
 10
751.95697
 20
349.650024
 30
0.0
 11
751.95697
 21
350.349976
 31
0.0
  0
LINE
  5
E2
330
1F
100
AcDbEntity
  8
0
 62
     7
100
AcDbLine
 10
751.95697
 20
349.520691
 30
0.0
 11
751.95697
 21
349.650024
 31
0.0
  0
LINE
  5
E3
330
1F
100
AcDbEntity
  8
0
 62
     7
100
AcDbLine
 10
751.95697
 20
349.520691
 30
0.0
 11
751.95697
 21
349.379272
 31
0.0
  0
LINE
  5
E4
330
1F
100
AcDbEntity
  8
0
 62
     7
100
AcDbLine
 10
751.95697
 20
349.379272
 30
0.0
 11
751.95697
 21
349.25
 31
0.0
  0
LINE
  5
E5
330
1F
100
AcDbEntity
  8
0
 62
     7
100
AcDbLine
 10
751.95697
 20
348.549988
 30
0.0
 11
751.95697
 21
349.25
 31
0.0
  0
LINE
  5
E6
330
1F
100
AcDbEntity
  8
0
 62
     7
100
AcDbLine
 10
751.95697
 20
348.420715
 30
0.0
 11
751.95697
 21
348.549988
 31
0.0
  0
LINE
  5
E7
330
1F
100
AcDbEntity
  8
0
 62
     7
100
AcDbLine
 10
751.95697
 20
348.420715
 30
0.0
 11
751.95697
 21
348.279297
 31
0.0
  0
LINE
  5
E8
330
1F
100
AcDbEntity
  8
0
 62
     7
100
AcDbLine
 10
751.95697
 20
348.279297
 30
0.0
 11
751.95697
 21
348.150024
 31
0.0
  0
LINE
  5
E9
330
1F
100
AcDbEntity
  8
0
 62
     7
100
AcDbLine
 10
751.95697
 20
347.450012
 30
0.0
 11
751.95697
 21
348.150024
 31
0.0
  0
LINE
  5
EA
330
1F
100
AcDbEntity
  8
0
 62
     7
100
AcDbLine
 10
751.95697
 20
347.320679
 30
0.0
 11
751.95697
 21
347.450012
 31
0.0
  0
LINE
  5
EB
330
1F
100
AcDbEntity
  8
0
 62
     7
100
AcDbLine
 10
751.95697
 20
347.320679
 30
0.0
 11
751.95697
 21
347.17926
 31
0.0
  0
LINE
  5
EC
330
1F
100
AcDbEntity
  8
0
 62
     7
100
AcDbLine
 10
751.95697
 20
347.17926
 30
0.0
 11
751.95697
 21
347.049988
 31
0.0
  0
LINE
  5
ED
330
1F
100
AcDbEntity
  8
0
 62
     7
100
AcDbLine
 10
751.95697
 20
346.349976
 30
0.0
 11
751.95697
 21
347.049988
 31
0.0
  0
LINE
  5
EE
330
1F
100
AcDbEntity
  8
0
 62
     7
100
AcDbLine
 10
750.95697
 20
353.650024
 30
0.0
 11
750.95697
 21
352.950012
 31
0.0
  0
LINE
  5
EF
330
1F
100
AcDbEntity
  8
0
 62
     7
100
AcDbLine
 10
750.95697
 20
353.779297
 30
0.0
 11
750.95697
 21
353.650024
 31
0.0
  0
LINE
  5
F0
330
1F
100
AcDbEntity
  8
0
 62
     7
100
AcDbLine
 10
750.95697
 20
353.779297
 30
0.0
 11
750.95697
 21
353.849976
 31
0.0
  0
LINE
  5
F1
330
1F
100
AcDbEntity
  8
0
 62
     7
100
AcDbLine
 10
750.95697
 20
346.079285
 30
0.0
 11
750.95697
 21
345.950012
 31
0.0
  0
LINE
  5
F2
330
1F
100
AcDbEntity
  8
0
 62
     7
100
AcDbLine
 10
750.95697
 20
346.079285
 30
0.0
 11
750.95697
 21
346.220703
 31
0.0
  0
LINE
  5
F3
330
1F
100
AcDbEntity
  8
0
 62
     7
100
AcDbLine
 10
750.95697
 20
346.220703
 30
0.0
 11
750.95697
 21
346.349976
 31
0.0
  0
LINE
  5
F4
330
1F
100
AcDbEntity
  8
0
 62
     7
100
AcDbLine
 10
750.95697
 20
347.049988
 30
0.0
 11
750.95697
 21
346.349976
 31
0.0
  0
LINE
  5
F5
330
1F
100
AcDbEntity
  8
0
 62
     7
100
AcDbLine
 10
750.95697
 20
347.17926
 30
0.0
 11
750.95697
 21
347.049988
 31
0.0
  0
LINE
  5
F6
330
1F
100
AcDbEntity
  8
0
 62
     7
100
AcDbLine
 10
750.95697
 20
347.17926
 30
0.0
 11
750.95697
 21
347.320679
 31
0.0
  0
LINE
  5
F7
330
1F
100
AcDbEntity
  8
0
 62
     7
100
AcDbLine
 10
750.95697
 20
347.320679
 30
0.0
 11
750.95697
 21
347.450012
 31
0.0
  0
LINE
  5
F8
330
1F
100
AcDbEntity
  8
0
 62
     7
100
AcDbLine
 10
750.95697
 20
348.150024
 30
0.0
 11
750.95697
 21
347.450012
 31
0.0
  0
LINE
  5
F9
330
1F
100
AcDbEntity
  8
0
 62
     7
100
AcDbLine
 10
750.95697
 20
348.279297
 30
0.0
 11
750.95697
 21
348.150024
 31
0.0
  0
LINE
  5
FA
330
1F
100
AcDbEntity
  8
0
 62
     7
100
AcDbLine
 10
750.95697
 20
348.279297
 30
0.0
 11
750.95697
 21
348.420715
 31
0.0
  0
LINE
  5
FB
330
1F
100
AcDbEntity
  8
0
 62
     7
100
AcDbLine
 10
750.95697
 20
348.420715
 30
0.0
 11
750.95697
 21
348.549988
 31
0.0
  0
LINE
  5
FC
330
1F
100
AcDbEntity
  8
0
 62
     7
100
AcDbLine
 10
750.95697
 20
349.25
 30
0.0
 11
750.95697
 21
348.549988
 31
0.0
  0
LINE
  5
FD
330
1F
100
AcDbEntity
  8
0
 62
     7
100
AcDbLine
 10
750.95697
 20
349.379272
 30
0.0
 11
750.95697
 21
349.25
 31
0.0
  0
LINE
  5
FE
330
1F
100
AcDbEntity
  8
0
 62
     7
100
AcDbLine
 10
750.95697
 20
349.379272
 30
0.0
 11
750.95697
 21
349.520691
 31
0.0
  0
LINE
  5
FF
330
1F
100
AcDbEntity
  8
0
 62
     7
100
AcDbLine
 10
750.95697
 20
349.520691
 30
0.0
 11
750.95697
 21
349.650024
 31
0.0
  0
LINE
  5
100
330
1F
100
AcDbEntity
  8
0
 62
     7
100
AcDbLine
 10
750.95697
 20
350.349976
 30
0.0
 11
750.95697
 21
349.650024
 31
0.0
  0
LINE
  5
101
330
1F
100
AcDbEntity
  8
0
 62
     7
100
AcDbLine
 10
750.95697
 20
350.479309
 30
0.0
 11
750.95697
 21
350.349976
 31
0.0
  0
LINE
  5
102
330
1F
100
AcDbEntity
  8
0
 62
     7
100
AcDbLine
 10
750.95697
 20
350.479309
 30
0.0
 11
750.95697
 21
350.620728
 31
0.0
  0
LINE
  5
103
330
1F
100
AcDbEntity
  8
0
 62
     7
100
AcDbLine
 10
750.95697
 20
350.620728
 30
0.0
 11
750.95697
 21
350.75
 31
0.0
  0
LINE
  5
104
330
1F
100
AcDbEntity
  8
0
 62
     7
100
AcDbLine
 10
750.95697
 20
351.450012
 30
0.0
 11
750.95697
 21
350.75
 31
0.0
  0
LINE
  5
105
330
1F
100
AcDbEntity
  8
0
 62
     7
100
AcDbLine
 10
750.95697
 20
351.579285
 30
0.0
 11
750.95697
 21
351.450012
 31
0.0
  0
LINE
  5
106
330
1F
100
AcDbEntity
  8
0
 62
     7
100
AcDbLine
 10
750.95697
 20
351.579285
 30
0.0
 11
750.95697
 21
351.720703
 31
0.0
  0
LINE
  5
107
330
1F
100
AcDbEntity
  8
0
 62
     7
100
AcDbLine
 10
750.95697
 20
351.720703
 30
0.0
 11
750.95697
 21
351.849976
 31
0.0
  0
LINE
  5
108
330
1F
100
AcDbEntity
  8
0
 62
     7
100
AcDbLine
 10
750.95697
 20
352.549988
 30
0.0
 11
750.95697
 21
351.849976
 31
0.0
  0
LINE
  5
109
330
1F
100
AcDbEntity
  8
0
 62
     7
100
AcDbLine
 10
750.95697
 20
352.67926
 30
0.0
 11
750.95697
 21
352.549988
 31
0.0
  0
LINE
  5
10A
330
1F
100
AcDbEntity
  8
0
 62
     7
100
AcDbLine
 10
750.95697
 20
352.67926
 30
0.0
 11
750.95697
 21
352.820679
 31
0.0
  0
LINE
  5
10B
330
1F
100
AcDbEntity
  8
0
 62
     7
100
AcDbLine
 10
750.95697
 20
352.820679
 30
0.0
 11
750.95697
 21
352.950012
 31
0.0
  0
LINE
  5
10C
330
1F
100
AcDbEntity
  8
0
 62
     7
100
AcDbLine
 10
748.656921
 20
346.079285
 30
0.0
 11
748.656921
 21
345.950012
 31
0.0
  0
LINE
  5
10D
330
1F
100
AcDbEntity
  8
0
 62
     7
100
AcDbLine
 10
748.656921
 20
346.220703
 30
0.0
 11
748.656921
 21
346.349976
 31
0.0
  0
LINE
  5
10E
330
1F
100
AcDbEntity
  8
0
 62
     7
100
AcDbLine
 10
748.656921
 20
346.220703
 30
0.0
 11
748.656921
 21
346.079285
 31
0.0
  0
LINE
  5
10F
330
1F
100
AcDbEntity
  8
0
 62
     7
100
AcDbLine
 10
748.656921
 20
353.849976
 30
0.0
 11
748.656921
 21
353.779297
 31
0.0
  0
LINE
  5
110
330
1F
100
AcDbEntity
  8
0
 62
     7
100
AcDbLine
 10
748.656921
 20
353.779297
 30
0.0
 11
748.656921
 21
353.650024
 31
0.0
  0
LINE
  5
111
330
1F
100
AcDbEntity
  8
0
 62
     7
100
AcDbLine
 10
748.656921
 20
352.950012
 30
0.0
 11
748.656921
 21
353.650024
 31
0.0
  0
LINE
  5
112
330
1F
100
AcDbEntity
  8
0
 62
     7
100
AcDbLine
 10
748.656921
 20
352.820679
 30
0.0
 11
748.656921
 21
352.950012
 31
0.0
  0
LINE
  5
113
330
1F
100
AcDbEntity
  8
0
 62
     7
100
AcDbLine
 10
748.656921
 20
352.820679
 30
0.0
 11
748.656921
 21
352.67926
 31
0.0
  0
LINE
  5
114
330
1F
100
AcDbEntity
  8
0
 62
     7
100
AcDbLine
 10
748.656921
 20
352.67926
 30
0.0
 11
748.656921
 21
352.549988
 31
0.0
  0
LINE
  5
115
330
1F
100
AcDbEntity
  8
0
 62
     7
100
AcDbLine
 10
748.656921
 20
351.849976
 30
0.0
 11
748.656921
 21
352.549988
 31
0.0
  0
LINE
  5
116
330
1F
100
AcDbEntity
  8
0
 62
     7
100
AcDbLine
 10
748.656921
 20
351.720703
 30
0.0
 11
748.656921
 21
351.849976
 31
0.0
  0
LINE
  5
117
330
1F
100
AcDbEntity
  8
0
 62
     7
100
AcDbLine
 10
748.656921
 20
351.720703
 30
0.0
 11
748.656921
 21
351.579285
 31
0.0
  0
LINE
  5
118
330
1F
100
AcDbEntity
  8
0
 62
     7
100
AcDbLine
 10
748.656921
 20
351.579285
 30
0.0
 11
748.656921
 21
351.450012
 31
0.0
  0
LINE
  5
119
330
1F
100
AcDbEntity
  8
0
 62
     7
100
AcDbLine
 10
748.656921
 20
350.75
 30
0.0
 11
748.656921
 21
351.450012
 31
0.0
  0
LINE
  5
11A
330
1F
100
AcDbEntity
  8
0
 62
     7
100
AcDbLine
 10
748.656921
 20
350.620728
 30
0.0
 11
748.656921
 21
350.75
 31
0.0
  0
LINE
  5
11B
330
1F
100
AcDbEntity
  8
0
 62
     7
100
AcDbLine
 10
748.656921
 20
350.620728
 30
0.0
 11
748.656921
 21
350.479309
 31
0.0
  0
LINE
  5
11C
330
1F
100
AcDbEntity
  8
0
 62
     7
100
AcDbLine
 10
748.656921
 20
350.479309
 30
0.0
 11
748.656921
 21
350.349976
 31
0.0
  0
LINE
  5
11D
330
1F
100
AcDbEntity
  8
0
 62
     7
100
AcDbLine
 10
748.656921
 20
349.650024
 30
0.0
 11
748.656921
 21
350.349976
 31
0.0
  0
LINE
  5
11E
330
1F
100
AcDbEntity
  8
0
 62
     7
100
AcDbLine
 10
748.656921
 20
349.520691
 30
0.0
 11
748.656921
 21
349.650024
 31
0.0
  0
LINE
  5
11F
330
1F
100
AcDbEntity
  8
0
 62
     7
100
AcDbLine
 10
748.656921
 20
349.520691
 30
0.0
 11
748.656921
 21
349.379272
 31
0.0
  0
LINE
  5
120
330
1F
100
AcDbEntity
  8
0
 62
     7
100
AcDbLine
 10
748.656921
 20
349.379272
 30
0.0
 11
748.656921
 21
349.25
 31
0.0
  0
LINE
  5
121
330
1F
100
AcDbEntity
  8
0
 62
     7
100
AcDbLine
 10
748.656921
 20
348.549988
 30
0.0
 11
748.656921
 21
349.25
 31
0.0
  0
LINE
  5
122
330
1F
100
AcDbEntity
  8
0
 62
     7
100
AcDbLine
 10
748.656921
 20
348.420715
 30
0.0
 11
748.656921
 21
348.549988
 31
0.0
  0
LINE
  5
123
330
1F
100
AcDbEntity
  8
0
 62
     7
100
AcDbLine
 10
748.656921
 20
348.420715
 30
0.0
 11
748.656921
 21
348.279297
 31
0.0
  0
LINE
  5
124
330
1F
100
AcDbEntity
  8
0
 62
     7
100
AcDbLine
 10
748.656921
 20
348.279297
 30
0.0
 11
748.656921
 21
348.150024
 31
0.0
  0
LINE
  5
125
330
1F
100
AcDbEntity
  8
0
 62
     7
100
AcDbLine
 10
748.656921
 20
347.450012
 30
0.0
 11
748.656921
 21
348.150024
 31
0.0
  0
LINE
  5
126
330
1F
100
AcDbEntity
  8
0
 62
     7
100
AcDbLine
 10
748.656921
 20
347.320679
 30
0.0
 11
748.656921
 21
347.450012
 31
0.0
  0
LINE
  5
127
330
1F
100
AcDbEntity
  8
0
 62
     7
100
AcDbLine
 10
748.656921
 20
347.320679
 30
0.0
 11
748.656921
 21
347.17926
 31
0.0
  0
LINE
  5
128
330
1F
100
AcDbEntity
  8
0
 62
     7
100
AcDbLine
 10
748.656921
 20
347.17926
 30
0.0
 11
748.656921
 21
347.049988
 31
0.0
  0
LINE
  5
129
330
1F
100
AcDbEntity
  8
0
 62
     7
100
AcDbLine
 10
748.656921
 20
346.349976
 30
0.0
 11
748.656921
 21
347.049988
 31
0.0
  0
LINE
  5
12A
330
1F
100
AcDbEntity
  8
0
 62
     7
100
AcDbLine
 10
747.656921
 20
352.67926
 30
0.0
 11
747.656921
 21
352.549988
 31
0.0
  0
LINE
  5
12B
330
1F
100
AcDbEntity
  8
0
 62
     7
100
AcDbLine
 10
747.656921
 20
352.67926
 30
0.0
 11
747.656921
 21
352.820679
 31
0.0
  0
LINE
  5
12C
330
1F
100
AcDbEntity
  8
0
 62
     7
100
AcDbLine
 10
747.656921
 20
352.820679
 30
0.0
 11
747.656921
 21
352.950012
 31
0.0
  0
LINE
  5
12D
330
1F
100
AcDbEntity
  8
0
 62
     7
100
AcDbLine
 10
747.656921
 20
353.349976
 30
0.0
 11
747.656921
 21
352.950012
 31
0.0
  0
LINE
  5
12E
330
1F
100
AcDbEntity
  8
0
 62
     7
100
AcDbLine
 10
747.656921
 20
346.079285
 30
0.0
 11
747.656921
 21
345.950012
 31
0.0
  0
LINE
  5
12F
330
1F
100
AcDbEntity
  8
0
 62
     7
100
AcDbLine
 10
747.656921
 20
346.079285
 30
0.0
 11
747.656921
 21
346.220703
 31
0.0
  0
LINE
  5
130
330
1F
100
AcDbEntity
  8
0
 62
     7
100
AcDbLine
 10
747.656921
 20
346.220703
 30
0.0
 11
747.656921
 21
346.349976
 31
0.0
  0
LINE
  5
131
330
1F
100
AcDbEntity
  8
0
 62
     7
100
AcDbLine
 10
747.656921
 20
347.049988
 30
0.0
 11
747.656921
 21
346.349976
 31
0.0
  0
LINE
  5
132
330
1F
100
AcDbEntity
  8
0
 62
     7
100
AcDbLine
 10
747.656921
 20
347.17926
 30
0.0
 11
747.656921
 21
347.049988
 31
0.0
  0
LINE
  5
133
330
1F
100
AcDbEntity
  8
0
 62
     7
100
AcDbLine
 10
747.656921
 20
347.17926
 30
0.0
 11
747.656921
 21
347.320679
 31
0.0
  0
LINE
  5
134
330
1F
100
AcDbEntity
  8
0
 62
     7
100
AcDbLine
 10
747.656921
 20
347.320679
 30
0.0
 11
747.656921
 21
347.450012
 31
0.0
  0
LINE
  5
135
330
1F
100
AcDbEntity
  8
0
 62
     7
100
AcDbLine
 10
747.656921
 20
348.150024
 30
0.0
 11
747.656921
 21
347.450012
 31
0.0
  0
LINE
  5
136
330
1F
100
AcDbEntity
  8
0
 62
     7
100
AcDbLine
 10
747.656921
 20
348.279297
 30
0.0
 11
747.656921
 21
348.150024
 31
0.0
  0
LINE
  5
137
330
1F
100
AcDbEntity
  8
0
 62
     7
100
AcDbLine
 10
747.656921
 20
348.279297
 30
0.0
 11
747.656921
 21
348.420715
 31
0.0
  0
LINE
  5
138
330
1F
100
AcDbEntity
  8
0
 62
     7
100
AcDbLine
 10
747.656921
 20
348.420715
 30
0.0
 11
747.656921
 21
348.549988
 31
0.0
  0
LINE
  5
139
330
1F
100
AcDbEntity
  8
0
 62
     7
100
AcDbLine
 10
747.656921
 20
349.25
 30
0.0
 11
747.656921
 21
348.549988
 31
0.0
  0
LINE
  5
13A
330
1F
100
AcDbEntity
  8
0
 62
     7
100
AcDbLine
 10
747.656921
 20
349.379272
 30
0.0
 11
747.656921
 21
349.25
 31
0.0
  0
LINE
  5
13B
330
1F
100
AcDbEntity
  8
0
 62
     7
100
AcDbLine
 10
747.656921
 20
349.379272
 30
0.0
 11
747.656921
 21
349.520691
 31
0.0
  0
LINE
  5
13C
330
1F
100
AcDbEntity
  8
0
 62
     7
100
AcDbLine
 10
747.656921
 20
349.520691
 30
0.0
 11
747.656921
 21
349.650024
 31
0.0
  0
LINE
  5
13D
330
1F
100
AcDbEntity
  8
0
 62
     7
100
AcDbLine
 10
747.656921
 20
350.349976
 30
0.0
 11
747.656921
 21
349.650024
 31
0.0
  0
LINE
  5
13E
330
1F
100
AcDbEntity
  8
0
 62
     7
100
AcDbLine
 10
747.656921
 20
350.479309
 30
0.0
 11
747.656921
 21
350.349976
 31
0.0
  0
LINE
  5
13F
330
1F
100
AcDbEntity
  8
0
 62
     7
100
AcDbLine
 10
747.656921
 20
350.479309
 30
0.0
 11
747.656921
 21
350.620728
 31
0.0
  0
LINE
  5
140
330
1F
100
AcDbEntity
  8
0
 62
     7
100
AcDbLine
 10
747.656921
 20
350.620728
 30
0.0
 11
747.656921
 21
350.75
 31
0.0
  0
LINE
  5
141
330
1F
100
AcDbEntity
  8
0
 62
     7
100
AcDbLine
 10
747.656921
 20
351.450012
 30
0.0
 11
747.656921
 21
350.75
 31
0.0
  0
LINE
  5
142
330
1F
100
AcDbEntity
  8
0
 62
     7
100
AcDbLine
 10
747.656921
 20
351.579285
 30
0.0
 11
747.656921
 21
351.450012
 31
0.0
  0
LINE
  5
143
330
1F
100
AcDbEntity
  8
0
 62
     7
100
AcDbLine
 10
747.656921
 20
351.579285
 30
0.0
 11
747.656921
 21
351.720703
 31
0.0
  0
LINE
  5
144
330
1F
100
AcDbEntity
  8
0
 62
     7
100
AcDbLine
 10
747.656921
 20
351.720703
 30
0.0
 11
747.656921
 21
351.849976
 31
0.0
  0
LINE
  5
145
330
1F
100
AcDbEntity
  8
0
 62
     7
100
AcDbLine
 10
747.656921
 20
352.549988
 30
0.0
 11
747.656921
 21
351.849976
 31
0.0
  0
LINE
  5
146
330
1F
100
AcDbEntity
  8
0
 62
     7
100
AcDbLine
 10
551.956909
 20
346.079285
 30
0.0
 11
551.956909
 21
345.950012
 31
0.0
  0
LINE
  5
147
330
1F
100
AcDbEntity
  8
0
 62
     7
100
AcDbLine
 10
551.956909
 20
346.220703
 30
0.0
 11
551.956909
 21
346.349976
 31
0.0
  0
LINE
  5
148
330
1F
100
AcDbEntity
  8
0
 62
     7
100
AcDbLine
 10
551.956909
 20
346.220703
 30
0.0
 11
551.956909
 21
346.079285
 31
0.0
  0
LINE
  5
149
330
1F
100
AcDbEntity
  8
0
 62
     7
100
AcDbLine
 10
551.956909
 20
352.950012
 30
0.0
 11
551.956909
 21
353.349976
 31
0.0
  0
LINE
  5
14A
330
1F
100
AcDbEntity
  8
0
 62
     7
100
AcDbLine
 10
551.956909
 20
352.820679
 30
0.0
 11
551.956909
 21
352.950012
 31
0.0
  0
LINE
  5
14B
330
1F
100
AcDbEntity
  8
0
 62
     7
100
AcDbLine
 10
551.956909
 20
352.820679
 30
0.0
 11
551.956909
 21
352.67926
 31
0.0
  0
LINE
  5
14C
330
1F
100
AcDbEntity
  8
0
 62
     7
100
AcDbLine
 10
551.956909
 20
352.67926
 30
0.0
 11
551.956909
 21
352.549988
 31
0.0
  0
LINE
  5
14D
330
1F
100
AcDbEntity
  8
0
 62
     7
100
AcDbLine
 10
551.956909
 20
351.849976
 30
0.0
 11
551.956909
 21
352.549988
 31
0.0
  0
LINE
  5
14E
330
1F
100
AcDbEntity
  8
0
 62
     7
100
AcDbLine
 10
551.956909
 20
351.720703
 30
0.0
 11
551.956909
 21
351.849976
 31
0.0
  0
LINE
  5
14F
330
1F
100
AcDbEntity
  8
0
 62
     7
100
AcDbLine
 10
551.956909
 20
351.720703
 30
0.0
 11
551.956909
 21
351.579285
 31
0.0
  0
LINE
  5
150
330
1F
100
AcDbEntity
  8
0
 62
     7
100
AcDbLine
 10
551.956909
 20
351.579285
 30
0.0
 11
551.956909
 21
351.450012
 31
0.0
  0
LINE
  5
151
330
1F
100
AcDbEntity
  8
0
 62
     7
100
AcDbLine
 10
551.956909
 20
350.75
 30
0.0
 11
551.956909
 21
351.450012
 31
0.0
  0
LINE
  5
152
330
1F
100
AcDbEntity
  8
0
 62
     7
100
AcDbLine
 10
551.956909
 20
350.620728
 30
0.0
 11
551.956909
 21
350.75
 31
0.0
  0
LINE
  5
153
330
1F
100
AcDbEntity
  8
0
 62
     7
100
AcDbLine
 10
551.956909
 20
350.620728
 30
0.0
 11
551.956909
 21
350.479309
 31
0.0
  0
LINE
  5
154
330
1F
100
AcDbEntity
  8
0
 62
     7
100
AcDbLine
 10
551.956909
 20
350.479309
 30
0.0
 11
551.956909
 21
350.349976
 31
0.0
  0
LINE
  5
155
330
1F
100
AcDbEntity
  8
0
 62
     7
100
AcDbLine
 10
551.956909
 20
349.650024
 30
0.0
 11
551.956909
 21
350.349976
 31
0.0
  0
LINE
  5
156
330
1F
100
AcDbEntity
  8
0
 62
     7
100
AcDbLine
 10
551.956909
 20
349.520691
 30
0.0
 11
551.956909
 21
349.650024
 31
0.0
  0
LINE
  5
157
330
1F
100
AcDbEntity
  8
0
 62
     7
100
AcDbLine
 10
551.956909
 20
349.520691
 30
0.0
 11
551.956909
 21
349.379272
 31
0.0
  0
LINE
  5
158
330
1F
100
AcDbEntity
  8
0
 62
     7
100
AcDbLine
 10
551.956909
 20
349.379272
 30
0.0
 11
551.956909
 21
349.25
 31
0.0
  0
LINE
  5
159
330
1F
100
AcDbEntity
  8
0
 62
     7
100
AcDbLine
 10
551.956909
 20
348.549988
 30
0.0
 11
551.956909
 21
349.25
 31
0.0
  0
LINE
  5
15A
330
1F
100
AcDbEntity
  8
0
 62
     7
100
AcDbLine
 10
551.956909
 20
348.420715
 30
0.0
 11
551.956909
 21
348.549988
 31
0.0
  0
LINE
  5
15B
330
1F
100
AcDbEntity
  8
0
 62
     7
100
AcDbLine
 10
551.956909
 20
348.420715
 30
0.0
 11
551.956909
 21
348.279297
 31
0.0
  0
LINE
  5
15C
330
1F
100
AcDbEntity
  8
0
 62
     7
100
AcDbLine
 10
551.956909
 20
348.279297
 30
0.0
 11
551.956909
 21
348.150024
 31
0.0
  0
LINE
  5
15D
330
1F
100
AcDbEntity
  8
0
 62
     7
100
AcDbLine
 10
551.956909
 20
347.450012
 30
0.0
 11
551.956909
 21
348.150024
 31
0.0
  0
LINE
  5
15E
330
1F
100
AcDbEntity
  8
0
 62
     7
100
AcDbLine
 10
551.956909
 20
347.320679
 30
0.0
 11
551.956909
 21
347.450012
 31
0.0
  0
LINE
  5
15F
330
1F
100
AcDbEntity
  8
0
 62
     7
100
AcDbLine
 10
551.956909
 20
347.320679
 30
0.0
 11
551.956909
 21
347.17926
 31
0.0
  0
LINE
  5
160
330
1F
100
AcDbEntity
  8
0
 62
     7
100
AcDbLine
 10
551.956909
 20
347.17926
 30
0.0
 11
551.956909
 21
347.049988
 31
0.0
  0
LINE
  5
161
330
1F
100
AcDbEntity
  8
0
 62
     7
100
AcDbLine
 10
551.956909
 20
346.349976
 30
0.0
 11
551.956909
 21
347.049988
 31
0.0
  0
LINE
  5
162
330
1F
100
AcDbEntity
  8
0
 62
     7
100
AcDbLine
 10
550.956909
 20
353.650024
 30
0.0
 11
550.956909
 21
352.950012
 31
0.0
  0
LINE
  5
163
330
1F
100
AcDbEntity
  8
0
 62
     7
100
AcDbLine
 10
550.956909
 20
353.779297
 30
0.0
 11
550.956909
 21
353.650024
 31
0.0
  0
LINE
  5
164
330
1F
100
AcDbEntity
  8
0
 62
     7
100
AcDbLine
 10
550.956909
 20
353.779297
 30
0.0
 11
550.956909
 21
353.849976
 31
0.0
  0
LINE
  5
165
330
1F
100
AcDbEntity
  8
0
 62
     7
100
AcDbLine
 10
550.956909
 20
346.079285
 30
0.0
 11
550.956909
 21
345.950012
 31
0.0
  0
LINE
  5
166
330
1F
100
AcDbEntity
  8
0
 62
     7
100
AcDbLine
 10
550.956909
 20
346.079285
 30
0.0
 11
550.956909
 21
346.220703
 31
0.0
  0
LINE
  5
167
330
1F
100
AcDbEntity
  8
0
 62
     7
100
AcDbLine
 10
550.956909
 20
346.220703
 30
0.0
 11
550.956909
 21
346.349976
 31
0.0
  0
LINE
  5
168
330
1F
100
AcDbEntity
  8
0
 62
     7
100
AcDbLine
 10
550.956909
 20
347.049988
 30
0.0
 11
550.956909
 21
346.349976
 31
0.0
  0
LINE
  5
169
330
1F
100
AcDbEntity
  8
0
 62
     7
100
AcDbLine
 10
550.956909
 20
347.17926
 30
0.0
 11
550.956909
 21
347.049988
 31
0.0
  0
LINE
  5
16A
330
1F
100
AcDbEntity
  8
0
 62
     7
100
AcDbLine
 10
550.956909
 20
347.17926
 30
0.0
 11
550.956909
 21
347.320679
 31
0.0
  0
LINE
  5
16B
330
1F
100
AcDbEntity
  8
0
 62
     7
100
AcDbLine
 10
550.956909
 20
347.320679
 30
0.0
 11
550.956909
 21
347.450012
 31
0.0
  0
LINE
  5
16C
330
1F
100
AcDbEntity
  8
0
 62
     7
100
AcDbLine
 10
550.956909
 20
348.150024
 30
0.0
 11
550.956909
 21
347.450012
 31
0.0
  0
LINE
  5
16D
330
1F
100
AcDbEntity
  8
0
 62
     7
100
AcDbLine
 10
550.956909
 20
348.279297
 30
0.0
 11
550.956909
 21
348.150024
 31
0.0
  0
LINE
  5
16E
330
1F
100
AcDbEntity
  8
0
 62
     7
100
AcDbLine
 10
550.956909
 20
348.279297
 30
0.0
 11
550.956909
 21
348.420715
 31
0.0
  0
LINE
  5
16F
330
1F
100
AcDbEntity
  8
0
 62
     7
100
AcDbLine
 10
550.956909
 20
348.420715
 30
0.0
 11
550.956909
 21
348.549988
 31
0.0
  0
LINE
  5
170
330
1F
100
AcDbEntity
  8
0
 62
     7
100
AcDbLine
 10
550.956909
 20
349.25
 30
0.0
 11
550.956909
 21
348.549988
 31
0.0
  0
LINE
  5
171
330
1F
100
AcDbEntity
  8
0
 62
     7
100
AcDbLine
 10
550.956909
 20
349.379272
 30
0.0
 11
550.956909
 21
349.25
 31
0.0
  0
LINE
  5
172
330
1F
100
AcDbEntity
  8
0
 62
     7
100
AcDbLine
 10
550.956909
 20
349.379272
 30
0.0
 11
550.956909
 21
349.520691
 31
0.0
  0
LINE
  5
173
330
1F
100
AcDbEntity
  8
0
 62
     7
100
AcDbLine
 10
550.956909
 20
349.520691
 30
0.0
 11
550.956909
 21
349.650024
 31
0.0
  0
LINE
  5
174
330
1F
100
AcDbEntity
  8
0
 62
     7
100
AcDbLine
 10
550.956909
 20
350.349976
 30
0.0
 11
550.956909
 21
349.650024
 31
0.0
  0
LINE
  5
175
330
1F
100
AcDbEntity
  8
0
 62
     7
100
AcDbLine
 10
550.956909
 20
350.479309
 30
0.0
 11
550.956909
 21
350.349976
 31
0.0
  0
LINE
  5
176
330
1F
100
AcDbEntity
  8
0
 62
     7
100
AcDbLine
 10
550.956909
 20
350.479309
 30
0.0
 11
550.956909
 21
350.620728
 31
0.0
  0
LINE
  5
177
330
1F
100
AcDbEntity
  8
0
 62
     7
100
AcDbLine
 10
550.956909
 20
350.620728
 30
0.0
 11
550.956909
 21
350.75
 31
0.0
  0
LINE
  5
178
330
1F
100
AcDbEntity
  8
0
 62
     7
100
AcDbLine
 10
550.956909
 20
351.450012
 30
0.0
 11
550.956909
 21
350.75
 31
0.0
  0
LINE
  5
179
330
1F
100
AcDbEntity
  8
0
 62
     7
100
AcDbLine
 10
550.956909
 20
351.579285
 30
0.0
 11
550.956909
 21
351.450012
 31
0.0
  0
LINE
  5
17A
330
1F
100
AcDbEntity
  8
0
 62
     7
100
AcDbLine
 10
550.956909
 20
351.579285
 30
0.0
 11
550.956909
 21
351.720703
 31
0.0
  0
LINE
  5
17B
330
1F
100
AcDbEntity
  8
0
 62
     7
100
AcDbLine
 10
550.956909
 20
351.720703
 30
0.0
 11
550.956909
 21
351.849976
 31
0.0
  0
LINE
  5
17C
330
1F
100
AcDbEntity
  8
0
 62
     7
100
AcDbLine
 10
550.956909
 20
352.549988
 30
0.0
 11
550.956909
 21
351.849976
 31
0.0
  0
LINE
  5
17D
330
1F
100
AcDbEntity
  8
0
 62
     7
100
AcDbLine
 10
550.956909
 20
352.67926
 30
0.0
 11
550.956909
 21
352.549988
 31
0.0
  0
LINE
  5
17E
330
1F
100
AcDbEntity
  8
0
 62
     7
100
AcDbLine
 10
550.956909
 20
352.67926
 30
0.0
 11
550.956909
 21
352.820679
 31
0.0
  0
LINE
  5
17F
330
1F
100
AcDbEntity
  8
0
 62
     7
100
AcDbLine
 10
550.956909
 20
352.820679
 30
0.0
 11
550.956909
 21
352.950012
 31
0.0
  0
LINE
  5
180
330
1F
100
AcDbEntity
  8
0
 62
     7
100
AcDbLine
 10
548.656921
 20
346.079285
 30
0.0
 11
548.656921
 21
345.950012
 31
0.0
  0
LINE
  5
181
330
1F
100
AcDbEntity
  8
0
 62
     7
100
AcDbLine
 10
548.656921
 20
346.220703
 30
0.0
 11
548.656921
 21
346.349976
 31
0.0
  0
LINE
  5
182
330
1F
100
AcDbEntity
  8
0
 62
     7
100
AcDbLine
 10
548.656921
 20
346.220703
 30
0.0
 11
548.656921
 21
346.079285
 31
0.0
  0
LINE
  5
183
330
1F
100
AcDbEntity
  8
0
 62
     7
100
AcDbLine
 10
548.656921
 20
353.849976
 30
0.0
 11
548.656921
 21
353.779297
 31
0.0
  0
LINE
  5
184
330
1F
100
AcDbEntity
  8
0
 62
     7
100
AcDbLine
 10
548.656921
 20
353.779297
 30
0.0
 11
548.656921
 21
353.650024
 31
0.0
  0
LINE
  5
185
330
1F
100
AcDbEntity
  8
0
 62
     7
100
AcDbLine
 10
548.656921
 20
352.950012
 30
0.0
 11
548.656921
 21
353.650024
 31
0.0
  0
LINE
  5
186
330
1F
100
AcDbEntity
  8
0
 62
     7
100
AcDbLine
 10
548.656921
 20
352.820679
 30
0.0
 11
548.656921
 21
352.950012
 31
0.0
  0
LINE
  5
187
330
1F
100
AcDbEntity
  8
0
 62
     7
100
AcDbLine
 10
548.656921
 20
352.820679
 30
0.0
 11
548.656921
 21
352.67926
 31
0.0
  0
LINE
  5
188
330
1F
100
AcDbEntity
  8
0
 62
     7
100
AcDbLine
 10
548.656921
 20
352.67926
 30
0.0
 11
548.656921
 21
352.549988
 31
0.0
  0
LINE
  5
189
330
1F
100
AcDbEntity
  8
0
 62
     7
100
AcDbLine
 10
548.656921
 20
351.849976
 30
0.0
 11
548.656921
 21
352.549988
 31
0.0
  0
LINE
  5
18A
330
1F
100
AcDbEntity
  8
0
 62
     7
100
AcDbLine
 10
548.656921
 20
351.720703
 30
0.0
 11
548.656921
 21
351.849976
 31
0.0
  0
LINE
  5
18B
330
1F
100
AcDbEntity
  8
0
 62
     7
100
AcDbLine
 10
548.656921
 20
351.720703
 30
0.0
 11
548.656921
 21
351.579285
 31
0.0
  0
LINE
  5
18C
330
1F
100
AcDbEntity
  8
0
 62
     7
100
AcDbLine
 10
548.656921
 20
351.579285
 30
0.0
 11
548.656921
 21
351.450012
 31
0.0
  0
LINE
  5
18D
330
1F
100
AcDbEntity
  8
0
 62
     7
100
AcDbLine
 10
548.656921
 20
350.75
 30
0.0
 11
548.656921
 21
351.450012
 31
0.0
  0
LINE
  5
18E
330
1F
100
AcDbEntity
  8
0
 62
     7
100
AcDbLine
 10
548.656921
 20
350.620728
 30
0.0
 11
548.656921
 21
350.75
 31
0.0
  0
LINE
  5
18F
330
1F
100
AcDbEntity
  8
0
 62
     7
100
AcDbLine
 10
548.656921
 20
350.620728
 30
0.0
 11
548.656921
 21
350.479309
 31
0.0
  0
LINE
  5
190
330
1F
100
AcDbEntity
  8
0
 62
     7
100
AcDbLine
 10
548.656921
 20
350.479309
 30
0.0
 11
548.656921
 21
350.349976
 31
0.0
  0
LINE
  5
191
330
1F
100
AcDbEntity
  8
0
 62
     7
100
AcDbLine
 10
548.656921
 20
349.650024
 30
0.0
 11
548.656921
 21
350.349976
 31
0.0
  0
LINE
  5
192
330
1F
100
AcDbEntity
  8
0
 62
     7
100
AcDbLine
 10
548.656921
 20
349.520691
 30
0.0
 11
548.656921
 21
349.650024
 31
0.0
  0
LINE
  5
193
330
1F
100
AcDbEntity
  8
0
 62
     7
100
AcDbLine
 10
548.656921
 20
349.520691
 30
0.0
 11
548.656921
 21
349.379272
 31
0.0
  0
LINE
  5
194
330
1F
100
AcDbEntity
  8
0
 62
     7
100
AcDbLine
 10
548.656921
 20
349.379272
 30
0.0
 11
548.656921
 21
349.25
 31
0.0
  0
LINE
  5
195
330
1F
100
AcDbEntity
  8
0
 62
     7
100
AcDbLine
 10
548.656921
 20
348.549988
 30
0.0
 11
548.656921
 21
349.25
 31
0.0
  0
LINE
  5
196
330
1F
100
AcDbEntity
  8
0
 62
     7
100
AcDbLine
 10
548.656921
 20
348.420715
 30
0.0
 11
548.656921
 21
348.549988
 31
0.0
  0
LINE
  5
197
330
1F
100
AcDbEntity
  8
0
 62
     7
100
AcDbLine
 10
548.656921
 20
348.420715
 30
0.0
 11
548.656921
 21
348.279297
 31
0.0
  0
LINE
  5
198
330
1F
100
AcDbEntity
  8
0
 62
     7
100
AcDbLine
 10
548.656921
 20
348.279297
 30
0.0
 11
548.656921
 21
348.150024
 31
0.0
  0
LINE
  5
199
330
1F
100
AcDbEntity
  8
0
 62
     7
100
AcDbLine
 10
548.656921
 20
347.450012
 30
0.0
 11
548.656921
 21
348.150024
 31
0.0
  0
LINE
  5
19A
330
1F
100
AcDbEntity
  8
0
 62
     7
100
AcDbLine
 10
548.656921
 20
347.320679
 30
0.0
 11
548.656921
 21
347.450012
 31
0.0
  0
LINE
  5
19B
330
1F
100
AcDbEntity
  8
0
 62
     7
100
AcDbLine
 10
548.656921
 20
347.320679
 30
0.0
 11
548.656921
 21
347.17926
 31
0.0
  0
LINE
  5
19C
330
1F
100
AcDbEntity
  8
0
 62
     7
100
AcDbLine
 10
548.656921
 20
347.17926
 30
0.0
 11
548.656921
 21
347.049988
 31
0.0
  0
LINE
  5
19D
330
1F
100
AcDbEntity
  8
0
 62
     7
100
AcDbLine
 10
548.656921
 20
346.349976
 30
0.0
 11
548.656921
 21
347.049988
 31
0.0
  0
LINE
  5
19E
330
1F
100
AcDbEntity
  8
0
 62
     7
100
AcDbLine
 10
547.656921
 20
352.67926
 30
0.0
 11
547.656921
 21
352.549988
 31
0.0
  0
LINE
  5
19F
330
1F
100
AcDbEntity
  8
0
 62
     7
100
AcDbLine
 10
547.656921
 20
352.67926
 30
0.0
 11
547.656921
 21
352.820679
 31
0.0
  0
LINE
  5
1A0
330
1F
100
AcDbEntity
  8
0
 62
     7
100
AcDbLine
 10
547.656921
 20
352.820679
 30
0.0
 11
547.656921
 21
352.950012
 31
0.0
  0
LINE
  5
1A1
330
1F
100
AcDbEntity
  8
0
 62
     7
100
AcDbLine
 10
547.656921
 20
353.349976
 30
0.0
 11
547.656921
 21
352.950012
 31
0.0
  0
LINE
  5
1A2
330
1F
100
AcDbEntity
  8
0
 62
     7
100
AcDbLine
 10
547.656921
 20
346.079285
 30
0.0
 11
547.656921
 21
345.950012
 31
0.0
  0
LINE
  5
1A3
330
1F
100
AcDbEntity
  8
0
 62
     7
100
AcDbLine
 10
547.656921
 20
346.079285
 30
0.0
 11
547.656921
 21
346.220703
 31
0.0
  0
LINE
  5
1A4
330
1F
100
AcDbEntity
  8
0
 62
     7
100
AcDbLine
 10
547.656921
 20
346.220703
 30
0.0
 11
547.656921
 21
346.349976
 31
0.0
  0
LINE
  5
1A5
330
1F
100
AcDbEntity
  8
0
 62
     7
100
AcDbLine
 10
547.656921
 20
347.049988
 30
0.0
 11
547.656921
 21
346.349976
 31
0.0
  0
LINE
  5
1A6
330
1F
100
AcDbEntity
  8
0
 62
     7
100
AcDbLine
 10
547.656921
 20
347.17926
 30
0.0
 11
547.656921
 21
347.049988
 31
0.0
  0
LINE
  5
1A7
330
1F
100
AcDbEntity
  8
0
 62
     7
100
AcDbLine
 10
547.656921
 20
347.17926
 30
0.0
 11
547.656921
 21
347.320679
 31
0.0
  0
LINE
  5
1A8
330
1F
100
AcDbEntity
  8
0
 62
     7
100
AcDbLine
 10
547.656921
 20
347.320679
 30
0.0
 11
547.656921
 21
347.450012
 31
0.0
  0
LINE
  5
1A9
330
1F
100
AcDbEntity
  8
0
 62
     7
100
AcDbLine
 10
547.656921
 20
348.150024
 30
0.0
 11
547.656921
 21
347.450012
 31
0.0
  0
LINE
  5
1AA
330
1F
100
AcDbEntity
  8
0
 62
     7
100
AcDbLine
 10
547.656921
 20
348.279297
 30
0.0
 11
547.656921
 21
348.150024
 31
0.0
  0
LINE
  5
1AB
330
1F
100
AcDbEntity
  8
0
 62
     7
100
AcDbLine
 10
547.656921
 20
348.279297
 30
0.0
 11
547.656921
 21
348.420715
 31
0.0
  0
LINE
  5
1AC
330
1F
100
AcDbEntity
  8
0
 62
     7
100
AcDbLine
 10
547.656921
 20
348.420715
 30
0.0
 11
547.656921
 21
348.549988
 31
0.0
  0
LINE
  5
1AD
330
1F
100
AcDbEntity
  8
0
 62
     7
100
AcDbLine
 10
547.656921
 20
349.25
 30
0.0
 11
547.656921
 21
348.549988
 31
0.0
  0
LINE
  5
1AE
330
1F
100
AcDbEntity
  8
0
 62
     7
100
AcDbLine
 10
547.656921
 20
349.379272
 30
0.0
 11
547.656921
 21
349.25
 31
0.0
  0
LINE
  5
1AF
330
1F
100
AcDbEntity
  8
0
 62
     7
100
AcDbLine
 10
547.656921
 20
349.379272
 30
0.0
 11
547.656921
 21
349.520691
 31
0.0
  0
LINE
  5
1B0
330
1F
100
AcDbEntity
  8
0
 62
     7
100
AcDbLine
 10
547.656921
 20
349.520691
 30
0.0
 11
547.656921
 21
349.650024
 31
0.0
  0
LINE
  5
1B1
330
1F
100
AcDbEntity
  8
0
 62
     7
100
AcDbLine
 10
547.656921
 20
350.349976
 30
0.0
 11
547.656921
 21
349.650024
 31
0.0
  0
LINE
  5
1B2
330
1F
100
AcDbEntity
  8
0
 62
     7
100
AcDbLine
 10
547.656921
 20
350.479309
 30
0.0
 11
547.656921
 21
350.349976
 31
0.0
  0
LINE
  5
1B3
330
1F
100
AcDbEntity
  8
0
 62
     7
100
AcDbLine
 10
547.656921
 20
350.479309
 30
0.0
 11
547.656921
 21
350.620728
 31
0.0
  0
LINE
  5
1B4
330
1F
100
AcDbEntity
  8
0
 62
     7
100
AcDbLine
 10
547.656921
 20
350.620728
 30
0.0
 11
547.656921
 21
350.75
 31
0.0
  0
LINE
  5
1B5
330
1F
100
AcDbEntity
  8
0
 62
     7
100
AcDbLine
 10
547.656921
 20
351.450012
 30
0.0
 11
547.656921
 21
350.75
 31
0.0
  0
LINE
  5
1B6
330
1F
100
AcDbEntity
  8
0
 62
     7
100
AcDbLine
 10
547.656921
 20
351.579285
 30
0.0
 11
547.656921
 21
351.450012
 31
0.0
  0
LINE
  5
1B7
330
1F
100
AcDbEntity
  8
0
 62
     7
100
AcDbLine
 10
547.656921
 20
351.579285
 30
0.0
 11
547.656921
 21
351.720703
 31
0.0
  0
LINE
  5
1B8
330
1F
100
AcDbEntity
  8
0
 62
     7
100
AcDbLine
 10
547.656921
 20
351.720703
 30
0.0
 11
547.656921
 21
351.849976
 31
0.0
  0
LINE
  5
1B9
330
1F
100
AcDbEntity
  8
0
 62
     7
100
AcDbLine
 10
547.656921
 20
352.549988
 30
0.0
 11
547.656921
 21
351.849976
 31
0.0
  0
LINE
  5
1BA
330
1F
100
AcDbEntity
  8
0
 62
     7
100
AcDbLine
 10
251.95697
 20
346.079285
 30
0.0
 11
251.95697
 21
345.950012
 31
0.0
  0
LINE
  5
1BB
330
1F
100
AcDbEntity
  8
0
 62
     7
100
AcDbLine
 10
251.95697
 20
346.220703
 30
0.0
 11
251.95697
 21
346.349976
 31
0.0
  0
LINE
  5
1BC
330
1F
100
AcDbEntity
  8
0
 62
     7
100
AcDbLine
 10
251.95697
 20
346.220703
 30
0.0
 11
251.95697
 21
346.079285
 31
0.0
  0
LINE
  5
1BD
330
1F
100
AcDbEntity
  8
0
 62
     7
100
AcDbLine
 10
251.95697
 20
352.950012
 30
0.0
 11
251.95697
 21
353.349976
 31
0.0
  0
LINE
  5
1BE
330
1F
100
AcDbEntity
  8
0
 62
     7
100
AcDbLine
 10
251.95697
 20
352.820679
 30
0.0
 11
251.95697
 21
352.950012
 31
0.0
  0
LINE
  5
1BF
330
1F
100
AcDbEntity
  8
0
 62
     7
100
AcDbLine
 10
251.95697
 20
352.820679
 30
0.0
 11
251.95697
 21
352.67926
 31
0.0
  0
LINE
  5
1C0
330
1F
100
AcDbEntity
  8
0
 62
     7
100
AcDbLine
 10
251.95697
 20
352.67926
 30
0.0
 11
251.95697
 21
352.549988
 31
0.0
  0
LINE
  5
1C1
330
1F
100
AcDbEntity
  8
0
 62
     7
100
AcDbLine
 10
251.95697
 20
351.849976
 30
0.0
 11
251.95697
 21
352.549988
 31
0.0
  0
LINE
  5
1C2
330
1F
100
AcDbEntity
  8
0
 62
     7
100
AcDbLine
 10
251.95697
 20
351.720703
 30
0.0
 11
251.95697
 21
351.849976
 31
0.0
  0
LINE
  5
1C3
330
1F
100
AcDbEntity
  8
0
 62
     7
100
AcDbLine
 10
251.95697
 20
351.720703
 30
0.0
 11
251.95697
 21
351.579285
 31
0.0
  0
LINE
  5
1C4
330
1F
100
AcDbEntity
  8
0
 62
     7
100
AcDbLine
 10
251.95697
 20
351.579285
 30
0.0
 11
251.95697
 21
351.450012
 31
0.0
  0
LINE
  5
1C5
330
1F
100
AcDbEntity
  8
0
 62
     7
100
AcDbLine
 10
251.95697
 20
350.75
 30
0.0
 11
251.95697
 21
351.450012
 31
0.0
  0
LINE
  5
1C6
330
1F
100
AcDbEntity
  8
0
 62
     7
100
AcDbLine
 10
251.95697
 20
350.620728
 30
0.0
 11
251.95697
 21
350.75
 31
0.0
  0
LINE
  5
1C7
330
1F
100
AcDbEntity
  8
0
 62
     7
100
AcDbLine
 10
251.95697
 20
350.620728
 30
0.0
 11
251.95697
 21
350.479309
 31
0.0
  0
LINE
  5
1C8
330
1F
100
AcDbEntity
  8
0
 62
     7
100
AcDbLine
 10
251.95697
 20
350.479309
 30
0.0
 11
251.95697
 21
350.349976
 31
0.0
  0
LINE
  5
1C9
330
1F
100
AcDbEntity
  8
0
 62
     7
100
AcDbLine
 10
251.95697
 20
349.650024
 30
0.0
 11
251.95697
 21
350.349976
 31
0.0
  0
LINE
  5
1CA
330
1F
100
AcDbEntity
  8
0
 62
     7
100
AcDbLine
 10
251.95697
 20
349.520691
 30
0.0
 11
251.95697
 21
349.650024
 31
0.0
  0
LINE
  5
1CB
330
1F
100
AcDbEntity
  8
0
 62
     7
100
AcDbLine
 10
251.95697
 20
349.520691
 30
0.0
 11
251.95697
 21
349.379272
 31
0.0
  0
LINE
  5
1CC
330
1F
100
AcDbEntity
  8
0
 62
     7
100
AcDbLine
 10
251.95697
 20
349.379272
 30
0.0
 11
251.95697
 21
349.25
 31
0.0
  0
LINE
  5
1CD
330
1F
100
AcDbEntity
  8
0
 62
     7
100
AcDbLine
 10
251.95697
 20
348.549988
 30
0.0
 11
251.95697
 21
349.25
 31
0.0
  0
LINE
  5
1CE
330
1F
100
AcDbEntity
  8
0
 62
     7
100
AcDbLine
 10
251.95697
 20
348.420715
 30
0.0
 11
251.95697
 21
348.549988
 31
0.0
  0
LINE
  5
1CF
330
1F
100
AcDbEntity
  8
0
 62
     7
100
AcDbLine
 10
251.95697
 20
348.420715
 30
0.0
 11
251.95697
 21
348.279297
 31
0.0
  0
LINE
  5
1D0
330
1F
100
AcDbEntity
  8
0
 62
     7
100
AcDbLine
 10
251.95697
 20
348.279297
 30
0.0
 11
251.95697
 21
348.150024
 31
0.0
  0
LINE
  5
1D1
330
1F
100
AcDbEntity
  8
0
 62
     7
100
AcDbLine
 10
251.95697
 20
347.450012
 30
0.0
 11
251.95697
 21
348.150024
 31
0.0
  0
LINE
  5
1D2
330
1F
100
AcDbEntity
  8
0
 62
     7
100
AcDbLine
 10
251.95697
 20
347.320679
 30
0.0
 11
251.95697
 21
347.450012
 31
0.0
  0
LINE
  5
1D3
330
1F
100
AcDbEntity
  8
0
 62
     7
100
AcDbLine
 10
251.95697
 20
347.320679
 30
0.0
 11
251.95697
 21
347.17926
 31
0.0
  0
LINE
  5
1D4
330
1F
100
AcDbEntity
  8
0
 62
     7
100
AcDbLine
 10
251.95697
 20
347.17926
 30
0.0
 11
251.95697
 21
347.049988
 31
0.0
  0
LINE
  5
1D5
330
1F
100
AcDbEntity
  8
0
 62
     7
100
AcDbLine
 10
251.95697
 20
346.349976
 30
0.0
 11
251.95697
 21
347.049988
 31
0.0
  0
LINE
  5
1D6
330
1F
100
AcDbEntity
  8
0
 62
     7
100
AcDbLine
 10
250.95697
 20
353.650024
 30
0.0
 11
250.95697
 21
352.950012
 31
0.0
  0
LINE
  5
1D7
330
1F
100
AcDbEntity
  8
0
 62
     7
100
AcDbLine
 10
250.95697
 20
353.779297
 30
0.0
 11
250.95697
 21
353.650024
 31
0.0
  0
LINE
  5
1D8
330
1F
100
AcDbEntity
  8
0
 62
     7
100
AcDbLine
 10
250.95697
 20
353.779297
 30
0.0
 11
250.95697
 21
353.849976
 31
0.0
  0
LINE
  5
1D9
330
1F
100
AcDbEntity
  8
0
 62
     7
100
AcDbLine
 10
250.95697
 20
346.079285
 30
0.0
 11
250.95697
 21
345.950012
 31
0.0
  0
LINE
  5
1DA
330
1F
100
AcDbEntity
  8
0
 62
     7
100
AcDbLine
 10
250.95697
 20
346.079285
 30
0.0
 11
250.95697
 21
346.220703
 31
0.0
  0
LINE
  5
1DB
330
1F
100
AcDbEntity
  8
0
 62
     7
100
AcDbLine
 10
250.95697
 20
346.220703
 30
0.0
 11
250.95697
 21
346.349976
 31
0.0
  0
LINE
  5
1DC
330
1F
100
AcDbEntity
  8
0
 62
     7
100
AcDbLine
 10
250.95697
 20
347.049988
 30
0.0
 11
250.95697
 21
346.349976
 31
0.0
  0
LINE
  5
1DD
330
1F
100
AcDbEntity
  8
0
 62
     7
100
AcDbLine
 10
250.95697
 20
347.17926
 30
0.0
 11
250.95697
 21
347.049988
 31
0.0
  0
LINE
  5
1DE
330
1F
100
AcDbEntity
  8
0
 62
     7
100
AcDbLine
 10
250.95697
 20
347.17926
 30
0.0
 11
250.95697
 21
347.320679
 31
0.0
  0
LINE
  5
1DF
330
1F
100
AcDbEntity
  8
0
 62
     7
100
AcDbLine
 10
250.95697
 20
347.320679
 30
0.0
 11
250.95697
 21
347.450012
 31
0.0
  0
LINE
  5
1E0
330
1F
100
AcDbEntity
  8
0
 62
     7
100
AcDbLine
 10
250.95697
 20
348.150024
 30
0.0
 11
250.95697
 21
347.450012
 31
0.0
  0
LINE
  5
1E1
330
1F
100
AcDbEntity
  8
0
 62
     7
100
AcDbLine
 10
250.95697
 20
348.279297
 30
0.0
 11
250.95697
 21
348.150024
 31
0.0
  0
LINE
  5
1E2
330
1F
100
AcDbEntity
  8
0
 62
     7
100
AcDbLine
 10
250.95697
 20
348.279297
 30
0.0
 11
250.95697
 21
348.420715
 31
0.0
  0
LINE
  5
1E3
330
1F
100
AcDbEntity
  8
0
 62
     7
100
AcDbLine
 10
250.95697
 20
348.420715
 30
0.0
 11
250.95697
 21
348.549988
 31
0.0
  0
LINE
  5
1E4
330
1F
100
AcDbEntity
  8
0
 62
     7
100
AcDbLine
 10
250.95697
 20
349.25
 30
0.0
 11
250.95697
 21
348.549988
 31
0.0
  0
LINE
  5
1E5
330
1F
100
AcDbEntity
  8
0
 62
     7
100
AcDbLine
 10
250.95697
 20
349.379272
 30
0.0
 11
250.95697
 21
349.25
 31
0.0
  0
LINE
  5
1E6
330
1F
100
AcDbEntity
  8
0
 62
     7
100
AcDbLine
 10
250.95697
 20
349.379272
 30
0.0
 11
250.95697
 21
349.520691
 31
0.0
  0
LINE
  5
1E7
330
1F
100
AcDbEntity
  8
0
 62
     7
100
AcDbLine
 10
250.95697
 20
349.520691
 30
0.0
 11
250.95697
 21
349.650024
 31
0.0
  0
LINE
  5
1E8
330
1F
100
AcDbEntity
  8
0
 62
     7
100
AcDbLine
 10
250.95697
 20
350.349976
 30
0.0
 11
250.95697
 21
349.650024
 31
0.0
  0
LINE
  5
1E9
330
1F
100
AcDbEntity
  8
0
 62
     7
100
AcDbLine
 10
250.95697
 20
350.479309
 30
0.0
 11
250.95697
 21
350.349976
 31
0.0
  0
LINE
  5
1EA
330
1F
100
AcDbEntity
  8
0
 62
     7
100
AcDbLine
 10
250.95697
 20
350.479309
 30
0.0
 11
250.95697
 21
350.620728
 31
0.0
  0
LINE
  5
1EB
330
1F
100
AcDbEntity
  8
0
 62
     7
100
AcDbLine
 10
250.95697
 20
350.620728
 30
0.0
 11
250.95697
 21
350.75
 31
0.0
  0
LINE
  5
1EC
330
1F
100
AcDbEntity
  8
0
 62
     7
100
AcDbLine
 10
250.95697
 20
351.450012
 30
0.0
 11
250.95697
 21
350.75
 31
0.0
  0
LINE
  5
1ED
330
1F
100
AcDbEntity
  8
0
 62
     7
100
AcDbLine
 10
250.95697
 20
351.579285
 30
0.0
 11
250.95697
 21
351.450012
 31
0.0
  0
LINE
  5
1EE
330
1F
100
AcDbEntity
  8
0
 62
     7
100
AcDbLine
 10
250.95697
 20
351.579285
 30
0.0
 11
250.95697
 21
351.720703
 31
0.0
  0
LINE
  5
1EF
330
1F
100
AcDbEntity
  8
0
 62
     7
100
AcDbLine
 10
250.95697
 20
351.720703
 30
0.0
 11
250.95697
 21
351.849976
 31
0.0
  0
LINE
  5
1F0
330
1F
100
AcDbEntity
  8
0
 62
     7
100
AcDbLine
 10
250.95697
 20
352.549988
 30
0.0
 11
250.95697
 21
351.849976
 31
0.0
  0
LINE
  5
1F1
330
1F
100
AcDbEntity
  8
0
 62
     7
100
AcDbLine
 10
250.95697
 20
352.67926
 30
0.0
 11
250.95697
 21
352.549988
 31
0.0
  0
LINE
  5
1F2
330
1F
100
AcDbEntity
  8
0
 62
     7
100
AcDbLine
 10
250.95697
 20
352.67926
 30
0.0
 11
250.95697
 21
352.820679
 31
0.0
  0
LINE
  5
1F3
330
1F
100
AcDbEntity
  8
0
 62
     7
100
AcDbLine
 10
250.95697
 20
352.820679
 30
0.0
 11
250.95697
 21
352.950012
 31
0.0
  0
LINE
  5
1F4
330
1F
100
AcDbEntity
  8
0
 62
     7
100
AcDbLine
 10
248.656982
 20
346.079285
 30
0.0
 11
248.656982
 21
345.950012
 31
0.0
  0
LINE
  5
1F5
330
1F
100
AcDbEntity
  8
0
 62
     7
100
AcDbLine
 10
248.656982
 20
346.220703
 30
0.0
 11
248.656982
 21
346.349976
 31
0.0
  0
LINE
  5
1F6
330
1F
100
AcDbEntity
  8
0
 62
     7
100
AcDbLine
 10
248.656982
 20
346.220703
 30
0.0
 11
248.656982
 21
346.079285
 31
0.0
  0
LINE
  5
1F7
330
1F
100
AcDbEntity
  8
0
 62
     7
100
AcDbLine
 10
248.656982
 20
353.849976
 30
0.0
 11
248.656982
 21
353.779297
 31
0.0
  0
LINE
  5
1F8
330
1F
100
AcDbEntity
  8
0
 62
     7
100
AcDbLine
 10
248.656982
 20
353.779297
 30
0.0
 11
248.656982
 21
353.650024
 31
0.0
  0
LINE
  5
1F9
330
1F
100
AcDbEntity
  8
0
 62
     7
100
AcDbLine
 10
248.656982
 20
352.950012
 30
0.0
 11
248.656982
 21
353.650024
 31
0.0
  0
LINE
  5
1FA
330
1F
100
AcDbEntity
  8
0
 62
     7
100
AcDbLine
 10
248.656982
 20
352.820679
 30
0.0
 11
248.656982
 21
352.950012
 31
0.0
  0
LINE
  5
1FB
330
1F
100
AcDbEntity
  8
0
 62
     7
100
AcDbLine
 10
248.656982
 20
352.820679
 30
0.0
 11
248.656982
 21
352.67926
 31
0.0
  0
LINE
  5
1FC
330
1F
100
AcDbEntity
  8
0
 62
     7
100
AcDbLine
 10
248.656982
 20
352.67926
 30
0.0
 11
248.656982
 21
352.549988
 31
0.0
  0
LINE
  5
1FD
330
1F
100
AcDbEntity
  8
0
 62
     7
100
AcDbLine
 10
248.656982
 20
351.849976
 30
0.0
 11
248.656982
 21
352.549988
 31
0.0
  0
LINE
  5
1FE
330
1F
100
AcDbEntity
  8
0
 62
     7
100
AcDbLine
 10
248.656982
 20
351.720703
 30
0.0
 11
248.656982
 21
351.849976
 31
0.0
  0
LINE
  5
1FF
330
1F
100
AcDbEntity
  8
0
 62
     7
100
AcDbLine
 10
248.656982
 20
351.720703
 30
0.0
 11
248.656982
 21
351.579285
 31
0.0
  0
LINE
  5
200
330
1F
100
AcDbEntity
  8
0
 62
     7
100
AcDbLine
 10
248.656982
 20
351.579285
 30
0.0
 11
248.656982
 21
351.450012
 31
0.0
  0
LINE
  5
201
330
1F
100
AcDbEntity
  8
0
 62
     7
100
AcDbLine
 10
248.656982
 20
350.75
 30
0.0
 11
248.656982
 21
351.450012
 31
0.0
  0
LINE
  5
202
330
1F
100
AcDbEntity
  8
0
 62
     7
100
AcDbLine
 10
248.656982
 20
350.620728
 30
0.0
 11
248.656982
 21
350.75
 31
0.0
  0
LINE
  5
203
330
1F
100
AcDbEntity
  8
0
 62
     7
100
AcDbLine
 10
248.656982
 20
350.620728
 30
0.0
 11
248.656982
 21
350.479309
 31
0.0
  0
LINE
  5
204
330
1F
100
AcDbEntity
  8
0
 62
     7
100
AcDbLine
 10
248.656982
 20
350.479309
 30
0.0
 11
248.656982
 21
350.349976
 31
0.0
  0
LINE
  5
205
330
1F
100
AcDbEntity
  8
0
 62
     7
100
AcDbLine
 10
248.656982
 20
349.650024
 30
0.0
 11
248.656982
 21
350.349976
 31
0.0
  0
LINE
  5
206
330
1F
100
AcDbEntity
  8
0
 62
     7
100
AcDbLine
 10
248.656982
 20
349.520691
 30
0.0
 11
248.656982
 21
349.650024
 31
0.0
  0
LINE
  5
207
330
1F
100
AcDbEntity
  8
0
 62
     7
100
AcDbLine
 10
248.656982
 20
349.520691
 30
0.0
 11
248.656982
 21
349.379272
 31
0.0
  0
LINE
  5
208
330
1F
100
AcDbEntity
  8
0
 62
     7
100
AcDbLine
 10
248.656982
 20
349.379272
 30
0.0
 11
248.656982
 21
349.25
 31
0.0
  0
LINE
  5
209
330
1F
100
AcDbEntity
  8
0
 62
     7
100
AcDbLine
 10
248.656982
 20
348.549988
 30
0.0
 11
248.656982
 21
349.25
 31
0.0
  0
LINE
  5
20A
330
1F
100
AcDbEntity
  8
0
 62
     7
100
AcDbLine
 10
248.656982
 20
348.420715
 30
0.0
 11
248.656982
 21
348.549988
 31
0.0
  0
LINE
  5
20B
330
1F
100
AcDbEntity
  8
0
 62
     7
100
AcDbLine
 10
248.656982
 20
348.420715
 30
0.0
 11
248.656982
 21
348.279297
 31
0.0
  0
LINE
  5
20C
330
1F
100
AcDbEntity
  8
0
 62
     7
100
AcDbLine
 10
248.656982
 20
348.279297
 30
0.0
 11
248.656982
 21
348.150024
 31
0.0
  0
LINE
  5
20D
330
1F
100
AcDbEntity
  8
0
 62
     7
100
AcDbLine
 10
248.656982
 20
347.450012
 30
0.0
 11
248.656982
 21
348.150024
 31
0.0
  0
LINE
  5
20E
330
1F
100
AcDbEntity
  8
0
 62
     7
100
AcDbLine
 10
248.656982
 20
347.320679
 30
0.0
 11
248.656982
 21
347.450012
 31
0.0
  0
LINE
  5
20F
330
1F
100
AcDbEntity
  8
0
 62
     7
100
AcDbLine
 10
248.656982
 20
347.320679
 30
0.0
 11
248.656982
 21
347.17926
 31
0.0
  0
LINE
  5
210
330
1F
100
AcDbEntity
  8
0
 62
     7
100
AcDbLine
 10
248.656982
 20
347.17926
 30
0.0
 11
248.656982
 21
347.049988
 31
0.0
  0
LINE
  5
211
330
1F
100
AcDbEntity
  8
0
 62
     7
100
AcDbLine
 10
248.656982
 20
346.349976
 30
0.0
 11
248.656982
 21
347.049988
 31
0.0
  0
LINE
  5
212
330
1F
100
AcDbEntity
  8
0
 62
     7
100
AcDbLine
 10
247.656982
 20
352.67926
 30
0.0
 11
247.656982
 21
352.549988
 31
0.0
  0
LINE
  5
213
330
1F
100
AcDbEntity
  8
0
 62
     7
100
AcDbLine
 10
247.656982
 20
352.67926
 30
0.0
 11
247.656982
 21
352.820679
 31
0.0
  0
LINE
  5
214
330
1F
100
AcDbEntity
  8
0
 62
     7
100
AcDbLine
 10
247.656982
 20
352.820679
 30
0.0
 11
247.656982
 21
352.950012
 31
0.0
  0
LINE
  5
215
330
1F
100
AcDbEntity
  8
0
 62
     7
100
AcDbLine
 10
247.656982
 20
353.349976
 30
0.0
 11
247.656982
 21
352.950012
 31
0.0
  0
LINE
  5
216
330
1F
100
AcDbEntity
  8
0
 62
     7
100
AcDbLine
 10
247.656982
 20
346.079285
 30
0.0
 11
247.656982
 21
345.950012
 31
0.0
  0
LINE
  5
217
330
1F
100
AcDbEntity
  8
0
 62
     7
100
AcDbLine
 10
247.656982
 20
346.079285
 30
0.0
 11
247.656982
 21
346.220703
 31
0.0
  0
LINE
  5
218
330
1F
100
AcDbEntity
  8
0
 62
     7
100
AcDbLine
 10
247.656982
 20
346.220703
 30
0.0
 11
247.656982
 21
346.349976
 31
0.0
  0
LINE
  5
219
330
1F
100
AcDbEntity
  8
0
 62
     7
100
AcDbLine
 10
247.656982
 20
347.049988
 30
0.0
 11
247.656982
 21
346.349976
 31
0.0
  0
LINE
  5
21A
330
1F
100
AcDbEntity
  8
0
 62
     7
100
AcDbLine
 10
247.656982
 20
347.17926
 30
0.0
 11
247.656982
 21
347.049988
 31
0.0
  0
LINE
  5
21B
330
1F
100
AcDbEntity
  8
0
 62
     7
100
AcDbLine
 10
247.656982
 20
347.17926
 30
0.0
 11
247.656982
 21
347.320679
 31
0.0
  0
LINE
  5
21C
330
1F
100
AcDbEntity
  8
0
 62
     7
100
AcDbLine
 10
247.656982
 20
347.320679
 30
0.0
 11
247.656982
 21
347.450012
 31
0.0
  0
LINE
  5
21D
330
1F
100
AcDbEntity
  8
0
 62
     7
100
AcDbLine
 10
247.656982
 20
348.150024
 30
0.0
 11
247.656982
 21
347.450012
 31
0.0
  0
LINE
  5
21E
330
1F
100
AcDbEntity
  8
0
 62
     7
100
AcDbLine
 10
247.656982
 20
348.279297
 30
0.0
 11
247.656982
 21
348.150024
 31
0.0
  0
LINE
  5
21F
330
1F
100
AcDbEntity
  8
0
 62
     7
100
AcDbLine
 10
247.656982
 20
348.279297
 30
0.0
 11
247.656982
 21
348.420715
 31
0.0
  0
LINE
  5
220
330
1F
100
AcDbEntity
  8
0
 62
     7
100
AcDbLine
 10
247.656982
 20
348.420715
 30
0.0
 11
247.656982
 21
348.549988
 31
0.0
  0
LINE
  5
221
330
1F
100
AcDbEntity
  8
0
 62
     7
100
AcDbLine
 10
247.656982
 20
349.25
 30
0.0
 11
247.656982
 21
348.549988
 31
0.0
  0
LINE
  5
222
330
1F
100
AcDbEntity
  8
0
 62
     7
100
AcDbLine
 10
247.656982
 20
349.379272
 30
0.0
 11
247.656982
 21
349.25
 31
0.0
  0
LINE
  5
223
330
1F
100
AcDbEntity
  8
0
 62
     7
100
AcDbLine
 10
247.656982
 20
349.379272
 30
0.0
 11
247.656982
 21
349.520691
 31
0.0
  0
LINE
  5
224
330
1F
100
AcDbEntity
  8
0
 62
     7
100
AcDbLine
 10
247.656982
 20
349.520691
 30
0.0
 11
247.656982
 21
349.650024
 31
0.0
  0
LINE
  5
225
330
1F
100
AcDbEntity
  8
0
 62
     7
100
AcDbLine
 10
247.656982
 20
350.349976
 30
0.0
 11
247.656982
 21
349.650024
 31
0.0
  0
LINE
  5
226
330
1F
100
AcDbEntity
  8
0
 62
     7
100
AcDbLine
 10
247.656982
 20
350.479309
 30
0.0
 11
247.656982
 21
350.349976
 31
0.0
  0
LINE
  5
227
330
1F
100
AcDbEntity
  8
0
 62
     7
100
AcDbLine
 10
247.656982
 20
350.479309
 30
0.0
 11
247.656982
 21
350.620728
 31
0.0
  0
LINE
  5
228
330
1F
100
AcDbEntity
  8
0
 62
     7
100
AcDbLine
 10
247.656982
 20
350.620728
 30
0.0
 11
247.656982
 21
350.75
 31
0.0
  0
LINE
  5
229
330
1F
100
AcDbEntity
  8
0
 62
     7
100
AcDbLine
 10
247.656982
 20
351.450012
 30
0.0
 11
247.656982
 21
350.75
 31
0.0
  0
LINE
  5
22A
330
1F
100
AcDbEntity
  8
0
 62
     7
100
AcDbLine
 10
247.656982
 20
351.579285
 30
0.0
 11
247.656982
 21
351.450012
 31
0.0
  0
LINE
  5
22B
330
1F
100
AcDbEntity
  8
0
 62
     7
100
AcDbLine
 10
247.656982
 20
351.579285
 30
0.0
 11
247.656982
 21
351.720703
 31
0.0
  0
LINE
  5
22C
330
1F
100
AcDbEntity
  8
0
 62
     7
100
AcDbLine
 10
247.656982
 20
351.720703
 30
0.0
 11
247.656982
 21
351.849976
 31
0.0
  0
LINE
  5
22D
330
1F
100
AcDbEntity
  8
0
 62
     7
100
AcDbLine
 10
247.656982
 20
352.549988
 30
0.0
 11
247.656982
 21
351.849976
 31
0.0
  0
LINE
  5
22E
330
1F
100
AcDbEntity
  8
0
 62
     7
100
AcDbLine
 10
188.988297
 20
345.950012
 30
0.0
 11
189.071671
 21
346.079285
 31
0.0
  0
ARC
  5
22F
330
1F
100
AcDbEntity
  8
0
 62
     7
100
AcDbCircle
 10
182.306976
 20
350.349976
 30
0.0
 40
8.0
100
AcDbArc
 50
354.980203
 51
360.0
  0
LINE
  5
230
330
1F
100
AcDbEntity
  8
0
 62
     7
100
AcDbLine
 10
190.26387
 20
349.520691
 30
0.0
 11
190.276291
 21
349.650024
 31
0.0
  0
LINE
  5
231
330
1F
100
AcDbEntity
  8
0
 62
     7
100
AcDbLine
 10
190.247864
 20
349.379272
 30
0.0
 11
190.26387
 21
349.520691
 31
0.0
  0
LINE
  5
232
330
1F
100
AcDbEntity
  8
0
 62
     7
100
AcDbLine
 10
190.230988
 20
349.25
 30
0.0
 11
190.247864
 21
349.379272
 31
0.0
  0
ARC
  5
233
330
1F
100
AcDbEntity
  8
0
 62
     7
100
AcDbCircle
 10
182.306976
 20
350.349976
 30
0.0
 40
8.0
100
AcDbArc
 50
346.997132
 51
352.096798
  0
LINE
  5
234
330
1F
100
AcDbEntity
  8
0
 62
     7
100
AcDbLine
 10
190.070862
 20
348.420715
 30
0.0
 11
190.101852
 21
348.549988
 31
0.0
  0
LINE
  5
235
330
1F
100
AcDbEntity
  8
0
 62
     7
100
AcDbLine
 10
190.034332
 20
348.279297
 30
0.0
 11
190.070862
 21
348.420715
 31
0.0
  0
LINE
  5
236
330
1F
100
AcDbEntity
  8
0
 62
     7
100
AcDbLine
 10
189.998535
 20
348.150024
 30
0.0
 11
190.034332
 21
348.279297
 31
0.0
  0
ARC
  5
237
330
1F
100
AcDbEntity
  8
0
 62
     7
100
AcDbCircle
 10
182.306976
 20
350.349976
 30
0.0
 40
8.0
100
AcDbArc
 50
338.746183
 51
344.037995
  0
LINE
  5
238
330
1F
100
AcDbEntity
  8
0
 62
     7
100
AcDbLine
 10
189.711258
 20
347.320679
 30
0.0
 11
189.762848
 21
347.450012
 31
0.0
  0
LINE
  5
239
330
1F
100
AcDbEntity
  8
0
 62
     7
100
AcDbLine
 10
189.65181
 20
347.17926
 30
0.0
 11
189.711258
 21
347.320679
 31
0.0
  0
LINE
  5
23A
330
1F
100
AcDbEntity
  8
0
 62
     7
100
AcDbLine
 10
189.594635
 20
347.049988
 30
0.0
 11
189.65181
 21
347.17926
 31
0.0
  0
ARC
  5
23B
330
1F
100
AcDbEntity
  8
0
 62
     7
100
AcDbCircle
 10
182.306976
 20
350.349976
 30
0.0
 40
8.0
100
AcDbArc
 50
329.999989
 51
335.63801
  0
LINE
  5
23C
330
1F
100
AcDbEntity
  8
0
 62
     7
100
AcDbLine
 10
189.158905
 20
346.220703
 30
0.0
 11
189.235184
 21
346.349976
 31
0.0
  0
LINE
  5
23D
330
1F
100
AcDbEntity
  8
0
 62
     7
100
AcDbLine
 10
189.071671
 20
346.079285
 30
0.0
 11
189.158905
 21
346.220703
 31
0.0
  0
LINE
  5
23E
330
1F
100
AcDbEntity
  8
0
 62
     7
100
AcDbLine
 10
175.625656
 20
345.950012
 30
0.0
 11
175.542282
 21
346.079285
 31
0.0
  0
LINE
  5
23F
330
1F
100
AcDbEntity
  8
0
 62
     7
100
AcDbLine
 10
175.542282
 20
346.079285
 30
0.0
 11
175.455048
 21
346.220703
 31
0.0
  0
LINE
  5
240
330
1F
100
AcDbEntity
  8
0
 62
     7
100
AcDbLine
 10
175.455048
 20
346.220703
 30
0.0
 11
175.378769
 21
346.349976
 31
0.0
  0
ARC
  5
241
330
1F
100
AcDbEntity
  8
0
 62
     7
100
AcDbCircle
 10
182.306976
 20
350.349976
 30
0.0
 40
8.0
100
AcDbArc
 50
204.361982
 51
210.000003
  0
LINE
  5
242
330
1F
100
AcDbEntity
  8
0
 62
     7
100
AcDbLine
 10
175.019318
 20
347.049988
 30
0.0
 11
174.962143
 21
347.17926
 31
0.0
  0
LINE
  5
243
330
1F
100
AcDbEntity
  8
0
 62
     7
100
AcDbLine
 10
174.962143
 20
347.17926
 30
0.0
 11
174.902695
 21
347.320679
 31
0.0
  0
LINE
  5
244
330
1F
100
AcDbEntity
  8
0
 62
     7
100
AcDbLine
 10
174.902695
 20
347.320679
 30
0.0
 11
174.851105
 21
347.450012
 31
0.0
  0
ARC
  5
245
330
1F
100
AcDbEntity
  8
0
 62
     7
100
AcDbCircle
 10
182.306976
 20
350.349976
 30
0.0
 40
8.0
100
AcDbArc
 50
195.96201
 51
201.253809
  0
LINE
  5
246
330
1F
100
AcDbEntity
  8
0
 62
     7
100
AcDbLine
 10
174.615417
 20
348.150024
 30
0.0
 11
174.579605
 21
348.279297
 31
0.0
  0
LINE
  5
247
330
1F
100
AcDbEntity
  8
0
 62
     7
100
AcDbLine
 10
174.579605
 20
348.279297
 30
0.0
 11
174.543091
 21
348.420715
 31
0.0
  0
LINE
  5
248
330
1F
100
AcDbEntity
  8
0
 62
     7
100
AcDbLine
 10
174.543091
 20
348.420715
 30
0.0
 11
174.5121
 21
348.549988
 31
0.0
  0
ARC
  5
249
330
1F
100
AcDbEntity
  8
0
 62
     7
100
AcDbCircle
 10
182.306976
 20
350.349976
 30
0.0
 40
8.0
100
AcDbArc
 50
187.903207
 51
193.002872
  0
LINE
  5
24A
330
1F
100
AcDbEntity
  8
0
 62
     7
100
AcDbLine
 10
174.382965
 20
349.25
 30
0.0
 11
174.366089
 21
349.379272
 31
0.0
  0
LINE
  5
24B
330
1F
100
AcDbEntity
  8
0
 62
     7
100
AcDbLine
 10
174.366089
 20
349.379272
 30
0.0
 11
174.350082
 21
349.520691
 31
0.0
  0
LINE
  5
24C
330
1F
100
AcDbEntity
  8
0
 62
     7
100
AcDbLine
 10
174.350082
 20
349.520691
 30
0.0
 11
174.337662
 21
349.650024
 31
0.0
  0
ARC
  5
24D
330
1F
100
AcDbEntity
  8
0
 62
     7
100
AcDbCircle
 10
182.306976
 20
350.349976
 30
0.0
 40
8.0
100
AcDbArc
 50
180.000009
 51
185.019802
  0
LINE
  5
24E
330
1F
100
AcDbEntity
  8
0
 62
     7
100
AcDbLine
 10
173.306976
 20
346.079285
 30
0.0
 11
173.306976
 21
345.950012
 31
0.0
  0
LINE
  5
24F
330
1F
100
AcDbEntity
  8
0
 62
     7
100
AcDbLine
 10
173.306976
 20
346.220703
 30
0.0
 11
173.306976
 21
346.079285
 31
0.0
  0
LINE
  5
250
330
1F
100
AcDbEntity
  8
0
 62
     7
100
AcDbLine
 10
173.306976
 20
346.349976
 30
0.0
 11
173.306976
 21
346.220703
 31
0.0
  0
LINE
  5
251
330
1F
100
AcDbEntity
  8
0
 62
     7
100
AcDbLine
 10
173.306976
 20
346.349976
 30
0.0
 11
173.306976
 21
347.049988
 31
0.0
  0
LINE
  5
252
330
1F
100
AcDbEntity
  8
0
 62
     7
100
AcDbLine
 10
173.306976
 20
347.17926
 30
0.0
 11
173.306976
 21
347.049988
 31
0.0
  0
LINE
  5
253
330
1F
100
AcDbEntity
  8
0
 62
     7
100
AcDbLine
 10
173.306976
 20
347.320679
 30
0.0
 11
173.306976
 21
347.17926
 31
0.0
  0
LINE
  5
254
330
1F
100
AcDbEntity
  8
0
 62
     7
100
AcDbLine
 10
173.306976
 20
347.450012
 30
0.0
 11
173.306976
 21
347.320679
 31
0.0
  0
LINE
  5
255
330
1F
100
AcDbEntity
  8
0
 62
     7
100
AcDbLine
 10
173.306976
 20
347.450012
 30
0.0
 11
173.306976
 21
348.150024
 31
0.0
  0
LINE
  5
256
330
1F
100
AcDbEntity
  8
0
 62
     7
100
AcDbLine
 10
173.306976
 20
348.279297
 30
0.0
 11
173.306976
 21
348.150024
 31
0.0
  0
LINE
  5
257
330
1F
100
AcDbEntity
  8
0
 62
     7
100
AcDbLine
 10
173.306976
 20
348.420715
 30
0.0
 11
173.306976
 21
348.279297
 31
0.0
  0
LINE
  5
258
330
1F
100
AcDbEntity
  8
0
 62
     7
100
AcDbLine
 10
173.306976
 20
348.549988
 30
0.0
 11
173.306976
 21
348.420715
 31
0.0
  0
LINE
  5
259
330
1F
100
AcDbEntity
  8
0
 62
     7
100
AcDbLine
 10
173.306976
 20
348.549988
 30
0.0
 11
173.306976
 21
349.25
 31
0.0
  0
LINE
  5
25A
330
1F
100
AcDbEntity
  8
0
 62
     7
100
AcDbLine
 10
173.306976
 20
349.379272
 30
0.0
 11
173.306976
 21
349.25
 31
0.0
  0
LINE
  5
25B
330
1F
100
AcDbEntity
  8
0
 62
     7
100
AcDbLine
 10
173.306976
 20
349.520691
 30
0.0
 11
173.306976
 21
349.379272
 31
0.0
  0
LINE
  5
25C
330
1F
100
AcDbEntity
  8
0
 62
     7
100
AcDbLine
 10
173.306976
 20
349.650024
 30
0.0
 11
173.306976
 21
349.520691
 31
0.0
  0
LINE
  5
25D
330
1F
100
AcDbEntity
  8
0
 62
     7
100
AcDbLine
 10
173.306976
 20
349.650024
 30
0.0
 11
173.306976
 21
350.349976
 31
0.0
  0
LINE
  5
25E
330
1F
100
AcDbEntity
  8
0
 62
     7
100
AcDbLine
 10
173.306976
 20
350.479309
 30
0.0
 11
173.306976
 21
350.349976
 31
0.0
  0
LINE
  5
25F
330
1F
100
AcDbEntity
  8
0
 62
     7
100
AcDbLine
 10
173.306976
 20
350.620728
 30
0.0
 11
173.306976
 21
350.479309
 31
0.0
  0
LINE
  5
260
330
1F
100
AcDbEntity
  8
0
 62
     7
100
AcDbLine
 10
173.306976
 20
350.75
 30
0.0
 11
173.306976
 21
350.620728
 31
0.0
  0
LINE
  5
261
330
1F
100
AcDbEntity
  8
0
 62
     7
100
AcDbLine
 10
173.306976
 20
350.75
 30
0.0
 11
173.306976
 21
351.450012
 31
0.0
  0
LINE
  5
262
330
1F
100
AcDbEntity
  8
0
 62
     7
100
AcDbLine
 10
173.306976
 20
351.579285
 30
0.0
 11
173.306976
 21
351.450012
 31
0.0
  0
LINE
  5
263
330
1F
100
AcDbEntity
  8
0
 62
     7
100
AcDbLine
 10
173.306976
 20
351.720703
 30
0.0
 11
173.306976
 21
351.579285
 31
0.0
  0
LINE
  5
264
330
1F
100
AcDbEntity
  8
0
 62
     7
100
AcDbLine
 10
173.306976
 20
351.849976
 30
0.0
 11
173.306976
 21
351.720703
 31
0.0
  0
LINE
  5
265
330
1F
100
AcDbEntity
  8
0
 62
     7
100
AcDbLine
 10
173.306976
 20
351.849976
 30
0.0
 11
173.306976
 21
352.549988
 31
0.0
  0
LINE
  5
266
330
1F
100
AcDbEntity
  8
0
 62
     7
100
AcDbLine
 10
173.306976
 20
352.67926
 30
0.0
 11
173.306976
 21
352.549988
 31
0.0
  0
LINE
  5
267
330
1F
100
AcDbEntity
  8
0
 62
     7
100
AcDbLine
 10
173.306976
 20
352.820679
 30
0.0
 11
173.306976
 21
352.67926
 31
0.0
  0
LINE
  5
268
330
1F
100
AcDbEntity
  8
0
 62
     7
100
AcDbLine
 10
173.306976
 20
352.950012
 30
0.0
 11
173.306976
 21
352.820679
 31
0.0
  0
LINE
  5
269
330
1F
100
AcDbEntity
  8
0
 62
     7
100
AcDbLine
 10
173.306976
 20
352.950012
 30
0.0
 11
173.306976
 21
353.650024
 31
0.0
  0
LINE
  5
26A
330
1F
100
AcDbEntity
  8
0
 62
     7
100
AcDbLine
 10
173.306976
 20
353.779297
 30
0.0
 11
173.306976
 21
353.650024
 31
0.0
  0
LINE
  5
26B
330
1F
100
AcDbEntity
  8
0
 62
     7
100
AcDbLine
 10
173.306976
 20
353.920715
 30
0.0
 11
173.306976
 21
353.779297
 31
0.0
  0
LINE
  5
26C
330
1F
100
AcDbEntity
  8
0
 62
     7
100
AcDbLine
 10
173.306976
 20
354.049988
 30
0.0
 11
173.306976
 21
353.920715
 31
0.0
  0
LINE
  5
26D
330
1F
100
AcDbEntity
  8
0
 62
     7
100
AcDbLine
 10
173.306976
 20
354.049988
 30
0.0
 11
173.306976
 21
354.75
 31
0.0
  0
LINE
  5
26E
330
1F
100
AcDbEntity
  8
0
 62
     7
100
AcDbLine
 10
173.306976
 20
354.879272
 30
0.0
 11
173.306976
 21
354.75
 31
0.0
  0
LINE
  5
26F
330
1F
100
AcDbEntity
  8
0
 62
     7
100
AcDbLine
 10
173.306976
 20
355.020691
 30
0.0
 11
173.306976
 21
354.879272
 31
0.0
  0
LINE
  5
270
330
1F
100
AcDbEntity
  8
0
 62
     7
100
AcDbLine
 10
173.306976
 20
355.150024
 30
0.0
 11
173.306976
 21
355.020691
 31
0.0
  0
LINE
  5
271
330
1F
100
AcDbEntity
  8
0
 62
     7
100
AcDbLine
 10
173.306976
 20
355.150024
 30
0.0
 11
173.306976
 21
359.974243
 31
0.0
  0
LINE
  5
272
330
1F
100
AcDbEntity
  8
0
 62
     7
100
AcDbLine
 10
173.306976
 20
360.462158
 30
0.0
 11
173.306976
 21
359.974243
 31
0.0
  0
LINE
  5
273
330
1F
100
AcDbEntity
  8
0
 62
     7
100
AcDbLine
 10
173.306976
 20
360.549988
 30
0.0
 11
173.306976
 21
360.462158
 31
0.0
  0
ARC
  5
274
330
1F
100
AcDbEntity
  8
0
 62
     7
100
AcDbCircle
 10
750.806946
 20
337.549988
 30
0.0
 40
0.5
100
AcDbArc
 50
0.0
 51
90.000003
  0
LINE
  5
275
330
1F
100
AcDbEntity
  8
0
 62
     7
100
AcDbLine
 10
750.806946
 20
338.049988
 30
0.0
 11
743.806946
 21
338.049988
 31
0.0
  0
ARC
  5
276
330
1F
100
AcDbEntity
  8
0
 62
     7
100
AcDbCircle
 10
743.806946
 20
337.549988
 30
0.0
 40
0.5
100
AcDbArc
 50
90.000003
 51
180.000009
  0
LINE
  5
277
330
1F
100
AcDbEntity
  8
0
 62
     7
100
AcDbLine
 10
743.306946
 20
337.549988
 30
0.0
 11
743.306946
 21
333.549988
 31
0.0
  0
ARC
  5
278
330
1F
100
AcDbEntity
  8
0
 62
     7
100
AcDbCircle
 10
743.806946
 20
333.549988
 30
0.0
 40
0.5
100
AcDbArc
 50
180.000009
 51
269.999997
  0
LINE
  5
279
330
1F
100
AcDbEntity
  8
0
 62
     7
100
AcDbLine
 10
743.806946
 20
333.049988
 30
0.0
 11
750.806946
 21
333.049988
 31
0.0
  0
ARC
  5
27A
330
1F
100
AcDbEntity
  8
0
 62
     7
100
AcDbCircle
 10
750.806946
 20
333.549988
 30
0.0
 40
0.5
100
AcDbArc
 50
269.999997
 51
360.0
  0
LINE
  5
27B
330
1F
100
AcDbEntity
  8
0
 62
     7
100
AcDbLine
 10
751.306946
 20
333.549988
 30
0.0
 11
751.306946
 21
337.549988
 31
0.0
  0
ARC
  5
27C
330
1F
100
AcDbEntity
  8
0
 62
     7
100
AcDbCircle
 10
230.806976
 20
337.549988
 30
0.0
 40
0.5
100
AcDbArc
 50
0.0
 51
90.000003
  0
LINE
  5
27D
330
1F
100
AcDbEntity
  8
0
 62
     7
100
AcDbLine
 10
230.806976
 20
338.049988
 30
0.0
 11
223.806976
 21
338.049988
 31
0.0
  0
ARC
  5
27E
330
1F
100
AcDbEntity
  8
0
 62
     7
100
AcDbCircle
 10
223.806976
 20
337.549988
 30
0.0
 40
0.5
100
AcDbArc
 50
90.000003
 51
180.000009
  0
LINE
  5
27F
330
1F
100
AcDbEntity
  8
0
 62
     7
100
AcDbLine
 10
223.306976
 20
337.549988
 30
0.0
 11
223.306976
 21
333.549988
 31
0.0
  0
ARC
  5
280
330
1F
100
AcDbEntity
  8
0
 62
     7
100
AcDbCircle
 10
223.806976
 20
333.549988
 30
0.0
 40
0.5
100
AcDbArc
 50
180.000009
 51
269.999997
  0
LINE
  5
281
330
1F
100
AcDbEntity
  8
0
 62
     7
100
AcDbLine
 10
223.806976
 20
333.049988
 30
0.0
 11
230.806976
 21
333.049988
 31
0.0
  0
ARC
  5
282
330
1F
100
AcDbEntity
  8
0
 62
     7
100
AcDbCircle
 10
230.806976
 20
333.549988
 30
0.0
 40
0.5
100
AcDbArc
 50
269.999997
 51
360.0
  0
LINE
  5
283
330
1F
100
AcDbEntity
  8
0
 62
     7
100
AcDbLine
 10
231.306976
 20
333.549988
 30
0.0
 11
231.306976
 21
337.549988
 31
0.0
  0
LINE
  5
284
330
1F
100
AcDbEntity
  8
0
 62
     7
100
AcDbLine
 10
826.806946
 20
338.349976
 30
0.0
 11
826.306946
 21
338.349976
 31
0.0
  0
LINE
  5
285
330
1F
100
AcDbEntity
  8
0
 62
     7
100
AcDbLine
 10
826.306946
 20
340.650024
 30
0.0
 11
826.806946
 21
340.650024
 31
0.0
  0
LINE
  5
286
330
1F
100
AcDbEntity
  8
0
 62
     7
100
AcDbLine
 10
172.806976
 20
340.650024
 30
0.0
 11
173.306976
 21
340.650024
 31
0.0
  0
LINE
  5
287
330
1F
100
AcDbEntity
  8
0
 62
     7
100
AcDbLine
 10
753.806946
 20
360.462158
 30
0.0
 11
753.806946
 21
360.549988
 31
0.0
  0
LINE
  5
288
330
1F
100
AcDbEntity
  8
0
 62
     7
100
AcDbLine
 10
753.806946
 20
360.462158
 30
0.0
 11
753.806946
 21
359.974243
 31
0.0
  0
LINE
  5
289
330
1F
100
AcDbEntity
  8
0
 62
     7
100
AcDbLine
 10
826.306946
 20
359.974243
 30
0.0
 11
753.806946
 21
359.974243
 31
0.0
  0
ARC
  5
28A
330
1F
100
AcDbEntity
  8
0
 62
     7
100
AcDbCircle
 10
817.306946
 20
350.349976
 30
0.0
 40
8.0
100
AcDbArc
 50
36.869897
 51
143.130097
  0
LINE
  5
28B
330
1F
100
AcDbEntity
  8
0
 62
     7
100
AcDbLine
 10
826.306946
 20
355.150024
 30
0.0
 11
823.70697
 21
355.150024
 31
0.0
  0
LINE
  5
28C
330
1F
100
AcDbEntity
  8
0
 62
     7
100
AcDbLine
 10
753.806946
 20
355.150024
 30
0.0
 11
753.806946
 21
359.974243
 31
0.0
  0
LINE
  5
28D
330
1F
100
AcDbEntity
  8
0
 62
     7
100
AcDbLine
 10
810.906921
 20
355.150024
 30
0.0
 11
753.806946
 21
355.150024
 31
0.0
  0
LINE
  5
28E
330
1F
100
AcDbEntity
  8
0
 62
     7
100
AcDbLine
 10
823.70697
 20
355.150024
 30
0.0
 11
823.80188
 21
355.020691
 31
0.0
  0
LINE
  5
28F
330
1F
100
AcDbEntity
  8
0
 62
     7
100
AcDbLine
 10
823.80188
 20
355.020691
 30
0.0
 11
823.901306
 21
354.879272
 31
0.0
  0
LINE
  5
290
330
1F
100
AcDbEntity
  8
0
 62
     7
100
AcDbLine
 10
823.901306
 20
354.879272
 30
0.0
 11
823.988281
 21
354.75
 31
0.0
  0
LINE
  5
291
330
1F
100
AcDbEntity
  8
0
 62
     7
100
AcDbLine
 10
826.306946
 20
354.75
 30
0.0
 11
823.988281
 21
354.75
 31
0.0
  0
ARC
  5
292
330
1F
100
AcDbEntity
  8
0
 62
     7
100
AcDbCircle
 10
817.306946
 20
350.349976
 30
0.0
 40
8.0
100
AcDbArc
 50
27.548547
 51
33.367014
  0
LINE
  5
293
330
1F
100
AcDbEntity
  8
0
 62
     7
100
AcDbLine
 10
826.306946
 20
354.049988
 30
0.0
 11
824.399902
 21
354.049988
 31
0.0
  0
LINE
  5
294
330
1F
100
AcDbEntity
  8
0
 62
     7
100
AcDbLine
 10
824.399902
 20
354.049988
 30
0.0
 11
824.465881
 21
353.920715
 31
0.0
  0
LINE
  5
295
330
1F
100
AcDbEntity
  8
0
 62
     7
100
AcDbLine
 10
824.465881
 20
353.920715
 30
0.0
 11
824.534668
 21
353.779297
 31
0.0
  0
LINE
  5
296
330
1F
100
AcDbEntity
  8
0
 62
     7
100
AcDbLine
 10
824.534668
 20
353.779297
 30
0.0
 11
824.594604
 21
353.650024
 31
0.0
  0
LINE
  5
297
330
1F
100
AcDbEntity
  8
0
 62
     7
100
AcDbLine
 10
826.306946
 20
353.650024
 30
0.0
 11
824.594604
 21
353.650024
 31
0.0
  0
ARC
  5
298
330
1F
100
AcDbEntity
  8
0
 62
     7
100
AcDbCircle
 10
817.306946
 20
350.349976
 30
0.0
 40
8.0
100
AcDbArc
 50
18.965574
 51
24.361978
  0
LINE
  5
299
330
1F
100
AcDbEntity
  8
0
 62
     7
100
AcDbLine
 10
826.306946
 20
352.950012
 30
0.0
 11
824.872681
 21
352.950012
 31
0.0
  0
LINE
  5
29A
330
1F
100
AcDbEntity
  8
0
 62
     7
100
AcDbLine
 10
824.872681
 20
352.950012
 30
0.0
 11
824.915833
 21
352.820679
 31
0.0
  0
LINE
  5
29B
330
1F
100
AcDbEntity
  8
0
 62
     7
100
AcDbLine
 10
824.915833
 20
352.820679
 30
0.0
 11
824.960327
 21
352.67926
 31
0.0
  0
LINE
  5
29C
330
1F
100
AcDbEntity
  8
0
 62
     7
100
AcDbLine
 10
824.960327
 20
352.67926
 30
0.0
 11
824.998474
 21
352.549988
 31
0.0
  0
LINE
  5
29D
330
1F
100
AcDbEntity
  8
0
 62
     7
100
AcDbLine
 10
826.306946
 20
352.549988
 30
0.0
 11
824.998474
 21
352.549988
 31
0.0
  0
ARC
  5
29E
330
1F
100
AcDbEntity
  8
0
 62
     7
100
AcDbCircle
 10
817.306946
 20
350.349976
 30
0.0
 40
8.0
100
AcDbArc
 50
10.806925
 51
15.962019
  0
LINE
  5
29F
330
1F
100
AcDbEntity
  8
0
 62
     7
100
AcDbLine
 10
826.306946
 20
351.849976
 30
0.0
 11
825.165039
 21
351.849976
 31
0.0
  0
LINE
  5
2A0
330
1F
100
AcDbEntity
  8
0
 62
     7
100
AcDbLine
 10
825.165039
 20
351.849976
 30
0.0
 11
825.18866
 21
351.720703
 31
0.0
  0
LINE
  5
2A1
330
1F
100
AcDbEntity
  8
0
 62
     7
100
AcDbLine
 10
825.18866
 20
351.720703
 30
0.0
 11
825.211914
 21
351.579285
 31
0.0
  0
LINE
  5
2A2
330
1F
100
AcDbEntity
  8
0
 62
     7
100
AcDbLine
 10
825.211914
 20
351.579285
 30
0.0
 11
825.230957
 21
351.450012
 31
0.0
  0
LINE
  5
2A3
330
1F
100
AcDbEntity
  8
0
 62
     7
100
AcDbLine
 10
826.306946
 20
351.450012
 30
0.0
 11
825.230957
 21
351.450012
 31
0.0
  0
ARC
  5
2A4
330
1F
100
AcDbEntity
  8
0
 62
     7
100
AcDbCircle
 10
817.306946
 20
350.349976
 30
0.0
 40
8.0
100
AcDbArc
 50
2.865984
 51
7.903208
  0
LINE
  5
2A5
330
1F
100
AcDbEntity
  8
0
 62
     7
100
AcDbLine
 10
826.306946
 20
350.75
 30
0.0
 11
825.296936
 21
350.75
 31
0.0
  0
LINE
  5
2A6
330
1F
100
AcDbEntity
  8
0
 62
     7
100
AcDbLine
 10
825.296936
 20
350.75
 30
0.0
 11
825.302368
 21
350.620728
 31
0.0
  0
LINE
  5
2A7
330
1F
100
AcDbEntity
  8
0
 62
     7
100
AcDbLine
 10
825.302368
 20
350.620728
 30
0.0
 11
825.305908
 21
350.479309
 31
0.0
  0
LINE
  5
2A8
330
1F
100
AcDbEntity
  8
0
 62
     7
100
AcDbLine
 10
825.305908
 20
350.479309
 30
0.0
 11
825.306946
 21
350.349976
 31
0.0
  0
LINE
  5
2A9
330
1F
100
AcDbEntity
  8
0
 62
     7
100
AcDbLine
 10
826.306946
 20
350.349976
 30
0.0
 11
825.306946
 21
350.349976
 31
0.0
  0
LINE
  5
2AA
330
1F
100
AcDbEntity
  8
0
 62
     7
100
AcDbLine
 10
826.306946
 20
349.650024
 30
0.0
 11
825.276245
 21
349.650024
 31
0.0
  0
LINE
  5
2AB
330
1F
100
AcDbEntity
  8
0
 62
     7
100
AcDbLine
 10
826.306946
 20
349.25
 30
0.0
 11
825.230957
 21
349.25
 31
0.0
  0
LINE
  5
2AC
330
1F
100
AcDbEntity
  8
0
 62
     7
100
AcDbLine
 10
826.306946
 20
348.549988
 30
0.0
 11
825.101807
 21
348.549988
 31
0.0
  0
LINE
  5
2AD
330
1F
100
AcDbEntity
  8
0
 62
     7
100
AcDbLine
 10
826.306946
 20
348.150024
 30
0.0
 11
824.998474
 21
348.150024
 31
0.0
  0
LINE
  5
2AE
330
1F
100
AcDbEntity
  8
0
 62
     7
100
AcDbLine
 10
826.306946
 20
347.450012
 30
0.0
 11
824.762817
 21
347.450012
 31
0.0
  0
LINE
  5
2AF
330
1F
100
AcDbEntity
  8
0
 62
     7
100
AcDbLine
 10
826.306946
 20
347.049988
 30
0.0
 11
824.594604
 21
347.049988
 31
0.0
  0
LINE
  5
2B0
330
1F
100
AcDbEntity
  8
0
 62
     7
100
AcDbLine
 10
826.306946
 20
346.349976
 30
0.0
 11
824.235168
 21
346.349976
 31
0.0
  0
LINE
  5
2B1
330
1F
100
AcDbEntity
  8
0
 62
     7
100
AcDbLine
 10
810.378723
 20
346.349976
 30
0.0
 11
751.95697
 21
346.349976
 31
0.0
  0
LINE
  5
2B2
330
1F
100
AcDbEntity
  8
0
 62
     7
100
AcDbLine
 10
810.019287
 20
347.049988
 30
0.0
 11
751.95697
 21
347.049988
 31
0.0
  0
LINE
  5
2B3
330
1F
100
AcDbEntity
  8
0
 62
     7
100
AcDbLine
 10
809.851074
 20
347.450012
 30
0.0
 11
751.95697
 21
347.450012
 31
0.0
  0
LINE
  5
2B4
330
1F
100
AcDbEntity
  8
0
 62
     7
100
AcDbLine
 10
809.615417
 20
348.150024
 30
0.0
 11
751.95697
 21
348.150024
 31
0.0
  0
LINE
  5
2B5
330
1F
100
AcDbEntity
  8
0
 62
     7
100
AcDbLine
 10
809.512085
 20
348.549988
 30
0.0
 11
751.95697
 21
348.549988
 31
0.0
  0
LINE
  5
2B6
330
1F
100
AcDbEntity
  8
0
 62
     7
100
AcDbLine
 10
809.382935
 20
349.25
 30
0.0
 11
751.95697
 21
349.25
 31
0.0
  0
LINE
  5
2B7
330
1F
100
AcDbEntity
  8
0
 62
     7
100
AcDbLine
 10
809.337646
 20
349.650024
 30
0.0
 11
751.95697
 21
349.650024
 31
0.0
  0
LINE
  5
2B8
330
1F
100
AcDbEntity
  8
0
 62
     7
100
AcDbLine
 10
809.306946
 20
350.349976
 30
0.0
 11
751.95697
 21
350.349976
 31
0.0
  0
LINE
  5
2B9
330
1F
100
AcDbEntity
  8
0
 62
     7
100
AcDbLine
 10
809.307983
 20
350.479309
 30
0.0
 11
809.306946
 21
350.349976
 31
0.0
  0
LINE
  5
2BA
330
1F
100
AcDbEntity
  8
0
 62
     7
100
AcDbLine
 10
809.311523
 20
350.620728
 30
0.0
 11
809.307983
 21
350.479309
 31
0.0
  0
LINE
  5
2BB
330
1F
100
AcDbEntity
  8
0
 62
     7
100
AcDbLine
 10
809.316956
 20
350.75
 30
0.0
 11
809.311523
 21
350.620728
 31
0.0
  0
ARC
  5
2BC
330
1F
100
AcDbEntity
  8
0
 62
     7
100
AcDbCircle
 10
817.306946
 20
350.349976
 30
0.0
 40
8.0
100
AcDbArc
 50
172.096793
 51
177.134017
  0
LINE
  5
2BD
330
1F
100
AcDbEntity
  8
0
 62
     7
100
AcDbLine
 10
809.401978
 20
351.579285
 30
0.0
 11
809.382935
 21
351.450012
 31
0.0
  0
LINE
  5
2BE
330
1F
100
AcDbEntity
  8
0
 62
     7
100
AcDbLine
 10
809.425232
 20
351.720703
 30
0.0
 11
809.401978
 21
351.579285
 31
0.0
  0
LINE
  5
2BF
330
1F
100
AcDbEntity
  8
0
 62
     7
100
AcDbLine
 10
809.448853
 20
351.849976
 30
0.0
 11
809.425232
 21
351.720703
 31
0.0
  0
ARC
  5
2C0
330
1F
100
AcDbEntity
  8
0
 62
     7
100
AcDbCircle
 10
817.306946
 20
350.349976
 30
0.0
 40
8.0
100
AcDbArc
 50
164.03799
 51
169.193075
  0
LINE
  5
2C1
330
1F
100
AcDbEntity
  8
0
 62
     7
100
AcDbLine
 10
809.653564
 20
352.67926
 30
0.0
 11
809.615417
 21
352.549988
 31
0.0
  0
LINE
  5
2C2
330
1F
100
AcDbEntity
  8
0
 62
     7
100
AcDbLine
 10
809.698059
 20
352.820679
 30
0.0
 11
809.653564
 21
352.67926
 31
0.0
  0
LINE
  5
2C3
330
1F
100
AcDbEntity
  8
0
 62
     7
100
AcDbLine
 10
809.741211
 20
352.950012
 30
0.0
 11
809.698059
 21
352.820679
 31
0.0
  0
ARC
  5
2C4
330
1F
100
AcDbEntity
  8
0
 62
     7
100
AcDbCircle
 10
817.306946
 20
350.349976
 30
0.0
 40
8.0
100
AcDbArc
 50
155.638018
 51
161.034427
  0
LINE
  5
2C5
330
1F
100
AcDbEntity
  8
0
 62
     7
100
AcDbLine
 10
810.079224
 20
353.779297
 30
0.0
 11
810.019287
 21
353.650024
 31
0.0
  0
LINE
  5
2C6
330
1F
100
AcDbEntity
  8
0
 62
     7
100
AcDbLine
 10
810.14801
 20
353.920715
 30
0.0
 11
810.079224
 21
353.779297
 31
0.0
  0
LINE
  5
2C7
330
1F
100
AcDbEntity
  8
0
 62
     7
100
AcDbLine
 10
810.213989
 20
354.049988
 30
0.0
 11
810.14801
 21
353.920715
 31
0.0
  0
ARC
  5
2C8
330
1F
100
AcDbEntity
  8
0
 62
     7
100
AcDbCircle
 10
817.306946
 20
350.349976
 30
0.0
 40
8.0
100
AcDbArc
 50
146.632987
 51
152.451448
  0
LINE
  5
2C9
330
1F
100
AcDbEntity
  8
0
 62
     7
100
AcDbLine
 10
810.712585
 20
354.879272
 30
0.0
 11
810.62561
 21
354.75
 31
0.0
  0
LINE
  5
2CA
330
1F
100
AcDbEntity
  8
0
 62
     7
100
AcDbLine
 10
810.812012
 20
355.020691
 30
0.0
 11
810.712585
 21
354.879272
 31
0.0
  0
LINE
  5
2CB
330
1F
100
AcDbEntity
  8
0
 62
     7
100
AcDbLine
 10
810.906921
 20
355.150024
 30
0.0
 11
810.812012
 21
355.020691
 31
0.0
  0
CIRCLE
  5
2CC
330
1F
100
AcDbEntity
  8
0
 62
     7
100
AcDbCircle
 10
817.306946
 20
350.349976
 30
0.0
 40
7.5
  0
LINE
  5
2CD
330
1F
100
AcDbEntity
  8
0
 62
     7
100
AcDbLine
 10
752.306946
 20
353.349976
 30
0.0
 11
751.95697
 21
353.349976
 31
0.0
  0
LINE
  5
2CE
330
1F
100
AcDbEntity
  8
0
 62
     7
100
AcDbLine
 10
810.019287
 20
353.650024
 30
0.0
 11
753.20697
 21
353.650024
 31
0.0
  0
ARC
  5
2CF
330
1F
100
AcDbEntity
  8
0
 62
     7
100
AcDbCircle
 10
752.306946
 20
354.849976
 30
0.0
 40
1.5
100
AcDbArc
 50
269.999997
 51
314.454478
  0
LINE
  5
2D0
330
1F
100
AcDbEntity
  8
0
 62
     7
100
AcDbLine
 10
809.741211
 20
352.950012
 30
0.0
 11
751.95697
 21
352.950012
 31
0.0
  0
LINE
  5
2D1
330
1F
100
AcDbEntity
  8
0
 62
     7
100
AcDbLine
 10
809.615417
 20
352.549988
 30
0.0
 11
751.95697
 21
352.549988
 31
0.0
  0
LINE
  5
2D2
330
1F
100
AcDbEntity
  8
0
 62
     7
100
AcDbLine
 10
809.448853
 20
351.849976
 30
0.0
 11
751.95697
 21
351.849976
 31
0.0
  0
LINE
  5
2D3
330
1F
100
AcDbEntity
  8
0
 62
     7
100
AcDbLine
 10
809.382935
 20
351.450012
 30
0.0
 11
751.95697
 21
351.450012
 31
0.0
  0
LINE
  5
2D4
330
1F
100
AcDbEntity
  8
0
 62
     7
100
AcDbLine
 10
809.316956
 20
350.75
 30
0.0
 11
751.95697
 21
350.75
 31
0.0
  0
LINE
  5
2D5
330
1F
100
AcDbEntity
  8
0
 62
     7
100
AcDbLine
 10
750.95697
 20
353.650024
 30
0.0
 11
748.656921
 21
353.650024
 31
0.0
  0
LINE
  5
2D6
330
1F
100
AcDbEntity
  8
0
 62
     7
100
AcDbLine
 10
750.95697
 20
352.950012
 30
0.0
 11
748.656921
 21
352.950012
 31
0.0
  0
ARC
  5
2D7
330
1F
100
AcDbEntity
  8
0
 62
     7
100
AcDbCircle
 10
748.156921
 20
353.849976
 30
0.0
 40
0.5
100
AcDbArc
 50
0.0
 51
8.130103
  0
ARC
  5
2D8
330
1F
100
AcDbEntity
  8
0
 62
     7
100
AcDbCircle
 10
751.45697
 20
353.849976
 30
0.0
 40
0.5
100
AcDbArc
 50
171.869894
 51
180.000009
  0
ARC
  5
2D9
330
1F
100
AcDbEntity
  8
0
 62
     7
100
AcDbCircle
 10
751.45697
 20
353.849976
 30
0.0
 40
0.5
100
AcDbArc
 50
90.000003
 51
171.869894
  0
LINE
  5
2DA
330
1F
100
AcDbEntity
  8
0
 62
     7
100
AcDbLine
 10
750.95697
 20
346.349976
 30
0.0
 11
748.656921
 21
346.349976
 31
0.0
  0
LINE
  5
2DB
330
1F
100
AcDbEntity
  8
0
 62
     7
100
AcDbLine
 10
750.95697
 20
347.049988
 30
0.0
 11
748.656921
 21
347.049988
 31
0.0
  0
LINE
  5
2DC
330
1F
100
AcDbEntity
  8
0
 62
     7
100
AcDbLine
 10
750.95697
 20
347.450012
 30
0.0
 11
748.656921
 21
347.450012
 31
0.0
  0
LINE
  5
2DD
330
1F
100
AcDbEntity
  8
0
 62
     7
100
AcDbLine
 10
750.95697
 20
348.150024
 30
0.0
 11
748.656921
 21
348.150024
 31
0.0
  0
LINE
  5
2DE
330
1F
100
AcDbEntity
  8
0
 62
     7
100
AcDbLine
 10
750.95697
 20
348.549988
 30
0.0
 11
748.656921
 21
348.549988
 31
0.0
  0
LINE
  5
2DF
330
1F
100
AcDbEntity
  8
0
 62
     7
100
AcDbLine
 10
750.95697
 20
349.25
 30
0.0
 11
748.656921
 21
349.25
 31
0.0
  0
LINE
  5
2E0
330
1F
100
AcDbEntity
  8
0
 62
     7
100
AcDbLine
 10
750.95697
 20
349.650024
 30
0.0
 11
748.656921
 21
349.650024
 31
0.0
  0
LINE
  5
2E1
330
1F
100
AcDbEntity
  8
0
 62
     7
100
AcDbLine
 10
750.95697
 20
350.349976
 30
0.0
 11
748.656921
 21
350.349976
 31
0.0
  0
LINE
  5
2E2
330
1F
100
AcDbEntity
  8
0
 62
     7
100
AcDbLine
 10
750.95697
 20
350.75
 30
0.0
 11
748.656921
 21
350.75
 31
0.0
  0
LINE
  5
2E3
330
1F
100
AcDbEntity
  8
0
 62
     7
100
AcDbLine
 10
750.95697
 20
351.450012
 30
0.0
 11
748.656921
 21
351.450012
 31
0.0
  0
LINE
  5
2E4
330
1F
100
AcDbEntity
  8
0
 62
     7
100
AcDbLine
 10
750.95697
 20
351.849976
 30
0.0
 11
748.656921
 21
351.849976
 31
0.0
  0
LINE
  5
2E5
330
1F
100
AcDbEntity
  8
0
 62
     7
100
AcDbLine
 10
750.95697
 20
352.549988
 30
0.0
 11
748.656921
 21
352.549988
 31
0.0
  0
ARC
  5
2E6
330
1F
100
AcDbEntity
  8
0
 62
     7
100
AcDbCircle
 10
748.156921
 20
353.849976
 30
0.0
 40
0.5
100
AcDbArc
 50
8.130103
 51
90.000003
  0
LINE
  5
2E7
330
1F
100
AcDbEntity
  8
0
 62
     7
100
AcDbLine
 10
747.656921
 20
352.549988
 30
0.0
 11
551.956909
 21
352.549988
 31
0.0
  0
LINE
  5
2E8
330
1F
100
AcDbEntity
  8
0
 62
     7
100
AcDbLine
 10
747.656921
 20
352.950012
 30
0.0
 11
551.956909
 21
352.950012
 31
0.0
  0
LINE
  5
2E9
330
1F
100
AcDbEntity
  8
0
 62
     7
100
AcDbLine
 10
747.656921
 20
353.349976
 30
0.0
 11
747.306946
 21
353.349976
 31
0.0
  0
ARC
  5
2EA
330
1F
100
AcDbEntity
  8
0
 62
     7
100
AcDbCircle
 10
747.306946
 20
354.849976
 30
0.0
 40
1.5
100
AcDbArc
 50
212.230947
 51
269.999997
  0
LINE
  5
2EB
330
1F
100
AcDbEntity
  8
0
 62
     7
100
AcDbLine
 10
746.406921
 20
353.650024
 30
0.0
 11
553.206909
 21
353.650024
 31
0.0
  0
ARC
  5
2EC
330
1F
100
AcDbEntity
  8
0
 62
     7
100
AcDbCircle
 10
552.306946
 20
354.849976
 30
0.0
 40
1.5
100
AcDbArc
 50
269.999997
 51
314.454478
  0
LINE
  5
2ED
330
1F
100
AcDbEntity
  8
0
 62
     7
100
AcDbLine
 10
552.306946
 20
353.349976
 30
0.0
 11
551.956909
 21
353.349976
 31
0.0
  0
LINE
  5
2EE
330
1F
100
AcDbEntity
  8
0
 62
     7
100
AcDbLine
 10
747.656921
 20
346.349976
 30
0.0
 11
551.956909
 21
346.349976
 31
0.0
  0
LINE
  5
2EF
330
1F
100
AcDbEntity
  8
0
 62
     7
100
AcDbLine
 10
747.656921
 20
347.049988
 30
0.0
 11
551.956909
 21
347.049988
 31
0.0
  0
LINE
  5
2F0
330
1F
100
AcDbEntity
  8
0
 62
     7
100
AcDbLine
 10
747.656921
 20
347.450012
 30
0.0
 11
551.956909
 21
347.450012
 31
0.0
  0
LINE
  5
2F1
330
1F
100
AcDbEntity
  8
0
 62
     7
100
AcDbLine
 10
747.656921
 20
348.150024
 30
0.0
 11
551.956909
 21
348.150024
 31
0.0
  0
LINE
  5
2F2
330
1F
100
AcDbEntity
  8
0
 62
     7
100
AcDbLine
 10
747.656921
 20
348.549988
 30
0.0
 11
551.956909
 21
348.549988
 31
0.0
  0
LINE
  5
2F3
330
1F
100
AcDbEntity
  8
0
 62
     7
100
AcDbLine
 10
747.656921
 20
349.25
 30
0.0
 11
551.956909
 21
349.25
 31
0.0
  0
LINE
  5
2F4
330
1F
100
AcDbEntity
  8
0
 62
     7
100
AcDbLine
 10
747.656921
 20
349.650024
 30
0.0
 11
551.956909
 21
349.650024
 31
0.0
  0
LINE
  5
2F5
330
1F
100
AcDbEntity
  8
0
 62
     7
100
AcDbLine
 10
747.656921
 20
350.349976
 30
0.0
 11
551.956909
 21
350.349976
 31
0.0
  0
LINE
  5
2F6
330
1F
100
AcDbEntity
  8
0
 62
     7
100
AcDbLine
 10
747.656921
 20
350.75
 30
0.0
 11
551.956909
 21
350.75
 31
0.0
  0
LINE
  5
2F7
330
1F
100
AcDbEntity
  8
0
 62
     7
100
AcDbLine
 10
747.656921
 20
351.450012
 30
0.0
 11
551.956909
 21
351.450012
 31
0.0
  0
LINE
  5
2F8
330
1F
100
AcDbEntity
  8
0
 62
     7
100
AcDbLine
 10
747.656921
 20
351.849976
 30
0.0
 11
551.956909
 21
351.849976
 31
0.0
  0
LINE
  5
2F9
330
1F
100
AcDbEntity
  8
0
 62
     7
100
AcDbLine
 10
550.956909
 20
352.950012
 30
0.0
 11
548.656921
 21
352.950012
 31
0.0
  0
LINE
  5
2FA
330
1F
100
AcDbEntity
  8
0
 62
     7
100
AcDbLine
 10
550.956909
 20
353.650024
 30
0.0
 11
548.656921
 21
353.650024
 31
0.0
  0
ARC
  5
2FB
330
1F
100
AcDbEntity
  8
0
 62
     7
100
AcDbCircle
 10
551.456909
 20
353.849976
 30
0.0
 40
0.5
100
AcDbArc
 50
171.869894
 51
180.000009
  0
ARC
  5
2FC
330
1F
100
AcDbEntity
  8
0
 62
     7
100
AcDbCircle
 10
548.156921
 20
353.849976
 30
0.0
 40
0.5
100
AcDbArc
 50
0.0
 51
8.130103
  0
ARC
  5
2FD
330
1F
100
AcDbEntity
  8
0
 62
     7
100
AcDbCircle
 10
551.456909
 20
353.849976
 30
0.0
 40
0.5
100
AcDbArc
 50
90.000003
 51
171.869894
  0
LINE
  5
2FE
330
1F
100
AcDbEntity
  8
0
 62
     7
100
AcDbLine
 10
550.956909
 20
346.349976
 30
0.0
 11
548.656921
 21
346.349976
 31
0.0
  0
LINE
  5
2FF
330
1F
100
AcDbEntity
  8
0
 62
     7
100
AcDbLine
 10
550.956909
 20
347.049988
 30
0.0
 11
548.656921
 21
347.049988
 31
0.0
  0
LINE
  5
300
330
1F
100
AcDbEntity
  8
0
 62
     7
100
AcDbLine
 10
550.956909
 20
347.450012
 30
0.0
 11
548.656921
 21
347.450012
 31
0.0
  0
LINE
  5
301
330
1F
100
AcDbEntity
  8
0
 62
     7
100
AcDbLine
 10
550.956909
 20
348.150024
 30
0.0
 11
548.656921
 21
348.150024
 31
0.0
  0
LINE
  5
302
330
1F
100
AcDbEntity
  8
0
 62
     7
100
AcDbLine
 10
550.956909
 20
348.549988
 30
0.0
 11
548.656921
 21
348.549988
 31
0.0
  0
LINE
  5
303
330
1F
100
AcDbEntity
  8
0
 62
     7
100
AcDbLine
 10
550.956909
 20
349.25
 30
0.0
 11
548.656921
 21
349.25
 31
0.0
  0
LINE
  5
304
330
1F
100
AcDbEntity
  8
0
 62
     7
100
AcDbLine
 10
550.956909
 20
349.650024
 30
0.0
 11
548.656921
 21
349.650024
 31
0.0
  0
LINE
  5
305
330
1F
100
AcDbEntity
  8
0
 62
     7
100
AcDbLine
 10
550.956909
 20
350.349976
 30
0.0
 11
548.656921
 21
350.349976
 31
0.0
  0
LINE
  5
306
330
1F
100
AcDbEntity
  8
0
 62
     7
100
AcDbLine
 10
550.956909
 20
350.75
 30
0.0
 11
548.656921
 21
350.75
 31
0.0
  0
LINE
  5
307
330
1F
100
AcDbEntity
  8
0
 62
     7
100
AcDbLine
 10
550.956909
 20
351.450012
 30
0.0
 11
548.656921
 21
351.450012
 31
0.0
  0
LINE
  5
308
330
1F
100
AcDbEntity
  8
0
 62
     7
100
AcDbLine
 10
550.956909
 20
351.849976
 30
0.0
 11
548.656921
 21
351.849976
 31
0.0
  0
LINE
  5
309
330
1F
100
AcDbEntity
  8
0
 62
     7
100
AcDbLine
 10
550.956909
 20
352.549988
 30
0.0
 11
548.656921
 21
352.549988
 31
0.0
  0
ARC
  5
30A
330
1F
100
AcDbEntity
  8
0
 62
     7
100
AcDbCircle
 10
548.156921
 20
353.849976
 30
0.0
 40
0.5
100
AcDbArc
 50
8.130103
 51
90.000003
  0
LINE
  5
30B
330
1F
100
AcDbEntity
  8
0
 62
     7
100
AcDbLine
 10
547.656921
 20
352.549988
 30
0.0
 11
251.95697
 21
352.549988
 31
0.0
  0
LINE
  5
30C
330
1F
100
AcDbEntity
  8
0
 62
     7
100
AcDbLine
 10
547.656921
 20
352.950012
 30
0.0
 11
251.95697
 21
352.950012
 31
0.0
  0
LINE
  5
30D
330
1F
100
AcDbEntity
  8
0
 62
     7
100
AcDbLine
 10
547.656921
 20
353.349976
 30
0.0
 11
547.306946
 21
353.349976
 31
0.0
  0
ARC
  5
30E
330
1F
100
AcDbEntity
  8
0
 62
     7
100
AcDbCircle
 10
547.306946
 20
354.849976
 30
0.0
 40
1.5
100
AcDbArc
 50
212.230947
 51
269.999997
  0
LINE
  5
30F
330
1F
100
AcDbEntity
  8
0
 62
     7
100
AcDbLine
 10
546.406921
 20
353.650024
 30
0.0
 11
253.20697
 21
353.650024
 31
0.0
  0
ARC
  5
310
330
1F
100
AcDbEntity
  8
0
 62
     7
100
AcDbCircle
 10
252.306976
 20
354.849976
 30
0.0
 40
1.5
100
AcDbArc
 50
269.999997
 51
314.454478
  0
LINE
  5
311
330
1F
100
AcDbEntity
  8
0
 62
     7
100
AcDbLine
 10
252.306976
 20
353.349976
 30
0.0
 11
251.95697
 21
353.349976
 31
0.0
  0
LINE
  5
312
330
1F
100
AcDbEntity
  8
0
 62
     7
100
AcDbLine
 10
547.656921
 20
346.349976
 30
0.0
 11
251.95697
 21
346.349976
 31
0.0
  0
LINE
  5
313
330
1F
100
AcDbEntity
  8
0
 62
     7
100
AcDbLine
 10
547.656921
 20
347.049988
 30
0.0
 11
251.95697
 21
347.049988
 31
0.0
  0
LINE
  5
314
330
1F
100
AcDbEntity
  8
0
 62
     7
100
AcDbLine
 10
547.656921
 20
347.450012
 30
0.0
 11
251.95697
 21
347.450012
 31
0.0
  0
LINE
  5
315
330
1F
100
AcDbEntity
  8
0
 62
     7
100
AcDbLine
 10
547.656921
 20
348.150024
 30
0.0
 11
251.95697
 21
348.150024
 31
0.0
  0
LINE
  5
316
330
1F
100
AcDbEntity
  8
0
 62
     7
100
AcDbLine
 10
547.656921
 20
348.549988
 30
0.0
 11
251.95697
 21
348.549988
 31
0.0
  0
LINE
  5
317
330
1F
100
AcDbEntity
  8
0
 62
     7
100
AcDbLine
 10
547.656921
 20
349.25
 30
0.0
 11
251.95697
 21
349.25
 31
0.0
  0
LINE
  5
318
330
1F
100
AcDbEntity
  8
0
 62
     7
100
AcDbLine
 10
547.656921
 20
349.650024
 30
0.0
 11
251.95697
 21
349.650024
 31
0.0
  0
LINE
  5
319
330
1F
100
AcDbEntity
  8
0
 62
     7
100
AcDbLine
 10
547.656921
 20
350.349976
 30
0.0
 11
251.95697
 21
350.349976
 31
0.0
  0
LINE
  5
31A
330
1F
100
AcDbEntity
  8
0
 62
     7
100
AcDbLine
 10
547.656921
 20
350.75
 30
0.0
 11
251.95697
 21
350.75
 31
0.0
  0
LINE
  5
31B
330
1F
100
AcDbEntity
  8
0
 62
     7
100
AcDbLine
 10
547.656921
 20
351.450012
 30
0.0
 11
251.95697
 21
351.450012
 31
0.0
  0
LINE
  5
31C
330
1F
100
AcDbEntity
  8
0
 62
     7
100
AcDbLine
 10
547.656921
 20
351.849976
 30
0.0
 11
251.95697
 21
351.849976
 31
0.0
  0
LINE
  5
31D
330
1F
100
AcDbEntity
  8
0
 62
     7
100
AcDbLine
 10
250.95697
 20
353.650024
 30
0.0
 11
248.656982
 21
353.650024
 31
0.0
  0
LINE
  5
31E
330
1F
100
AcDbEntity
  8
0
 62
     7
100
AcDbLine
 10
250.95697
 20
352.950012
 30
0.0
 11
248.656982
 21
352.950012
 31
0.0
  0
ARC
  5
31F
330
1F
100
AcDbEntity
  8
0
 62
     7
100
AcDbCircle
 10
251.45697
 20
353.849976
 30
0.0
 40
0.5
100
AcDbArc
 50
171.869894
 51
180.000009
  0
ARC
  5
320
330
1F
100
AcDbEntity
  8
0
 62
     7
100
AcDbCircle
 10
248.156982
 20
353.849976
 30
0.0
 40
0.5
100
AcDbArc
 50
0.0
 51
8.130103
  0
ARC
  5
321
330
1F
100
AcDbEntity
  8
0
 62
     7
100
AcDbCircle
 10
251.45697
 20
353.849976
 30
0.0
 40
0.5
100
AcDbArc
 50
90.000003
 51
171.869894
  0
LINE
  5
322
330
1F
100
AcDbEntity
  8
0
 62
     7
100
AcDbLine
 10
250.95697
 20
346.349976
 30
0.0
 11
248.656982
 21
346.349976
 31
0.0
  0
LINE
  5
323
330
1F
100
AcDbEntity
  8
0
 62
     7
100
AcDbLine
 10
250.95697
 20
347.049988
 30
0.0
 11
248.656982
 21
347.049988
 31
0.0
  0
LINE
  5
324
330
1F
100
AcDbEntity
  8
0
 62
     7
100
AcDbLine
 10
250.95697
 20
347.450012
 30
0.0
 11
248.656982
 21
347.450012
 31
0.0
  0
LINE
  5
325
330
1F
100
AcDbEntity
  8
0
 62
     7
100
AcDbLine
 10
250.95697
 20
348.150024
 30
0.0
 11
248.656982
 21
348.150024
 31
0.0
  0
LINE
  5
326
330
1F
100
AcDbEntity
  8
0
 62
     7
100
AcDbLine
 10
250.95697
 20
348.549988
 30
0.0
 11
248.656982
 21
348.549988
 31
0.0
  0
LINE
  5
327
330
1F
100
AcDbEntity
  8
0
 62
     7
100
AcDbLine
 10
250.95697
 20
349.25
 30
0.0
 11
248.656982
 21
349.25
 31
0.0
  0
LINE
  5
328
330
1F
100
AcDbEntity
  8
0
 62
     7
100
AcDbLine
 10
250.95697
 20
349.650024
 30
0.0
 11
248.656982
 21
349.650024
 31
0.0
  0
LINE
  5
329
330
1F
100
AcDbEntity
  8
0
 62
     7
100
AcDbLine
 10
250.95697
 20
350.349976
 30
0.0
 11
248.656982
 21
350.349976
 31
0.0
  0
LINE
  5
32A
330
1F
100
AcDbEntity
  8
0
 62
     7
100
AcDbLine
 10
250.95697
 20
350.75
 30
0.0
 11
248.656982
 21
350.75
 31
0.0
  0
LINE
  5
32B
330
1F
100
AcDbEntity
  8
0
 62
     7
100
AcDbLine
 10
250.95697
 20
351.450012
 30
0.0
 11
248.656982
 21
351.450012
 31
0.0
  0
LINE
  5
32C
330
1F
100
AcDbEntity
  8
0
 62
     7
100
AcDbLine
 10
250.95697
 20
351.849976
 30
0.0
 11
248.656982
 21
351.849976
 31
0.0
  0
LINE
  5
32D
330
1F
100
AcDbEntity
  8
0
 62
     7
100
AcDbLine
 10
250.95697
 20
352.549988
 30
0.0
 11
248.656982
 21
352.549988
 31
0.0
  0
ARC
  5
32E
330
1F
100
AcDbEntity
  8
0
 62
     7
100
AcDbCircle
 10
248.156982
 20
353.849976
 30
0.0
 40
0.5
100
AcDbArc
 50
8.130103
 51
90.000003
  0
LINE
  5
32F
330
1F
100
AcDbEntity
  8
0
 62
     7
100
AcDbLine
 10
189.960373
 20
352.67926
 30
0.0
 11
189.998535
 21
352.549988
 31
0.0
  0
LINE
  5
330
330
1F
100
AcDbEntity
  8
0
 62
     7
100
AcDbLine
 10
247.656982
 20
352.549988
 30
0.0
 11
189.998535
 21
352.549988
 31
0.0
  0
LINE
  5
331
330
1F
100
AcDbEntity
  8
0
 62
     7
100
AcDbLine
 10
189.915894
 20
352.820679
 30
0.0
 11
189.960373
 21
352.67926
 31
0.0
  0
LINE
  5
332
330
1F
100
AcDbEntity
  8
0
 62
     7
100
AcDbLine
 10
189.872681
 20
352.950012
 30
0.0
 11
189.915894
 21
352.820679
 31
0.0
  0
LINE
  5
333
330
1F
100
AcDbEntity
  8
0
 62
     7
100
AcDbLine
 10
247.656982
 20
352.950012
 30
0.0
 11
189.872681
 21
352.950012
 31
0.0
  0
ARC
  5
334
330
1F
100
AcDbEntity
  8
0
 62
     7
100
AcDbCircle
 10
182.306976
 20
350.349976
 30
0.0
 40
8.0
100
AcDbArc
 50
18.965574
 51
24.361978
  0
LINE
  5
335
330
1F
100
AcDbEntity
  8
0
 62
     7
100
AcDbLine
 10
247.656982
 20
353.349976
 30
0.0
 11
247.306976
 21
353.349976
 31
0.0
  0
ARC
  5
336
330
1F
100
AcDbEntity
  8
0
 62
     7
100
AcDbCircle
 10
247.306976
 20
354.849976
 30
0.0
 40
1.5
100
AcDbArc
 50
212.230947
 51
269.999997
  0
LINE
  5
337
330
1F
100
AcDbEntity
  8
0
 62
     7
100
AcDbLine
 10
246.406982
 20
353.650024
 30
0.0
 11
189.594635
 21
353.650024
 31
0.0
  0
LINE
  5
338
330
1F
100
AcDbEntity
  8
0
 62
     7
100
AcDbLine
 10
247.656982
 20
346.349976
 30
0.0
 11
189.235184
 21
346.349976
 31
0.0
  0
LINE
  5
339
330
1F
100
AcDbEntity
  8
0
 62
     7
100
AcDbLine
 10
247.656982
 20
347.049988
 30
0.0
 11
189.594635
 21
347.049988
 31
0.0
  0
LINE
  5
33A
330
1F
100
AcDbEntity
  8
0
 62
     7
100
AcDbLine
 10
247.656982
 20
347.450012
 30
0.0
 11
189.762848
 21
347.450012
 31
0.0
  0
LINE
  5
33B
330
1F
100
AcDbEntity
  8
0
 62
     7
100
AcDbLine
 10
247.656982
 20
348.150024
 30
0.0
 11
189.998535
 21
348.150024
 31
0.0
  0
LINE
  5
33C
330
1F
100
AcDbEntity
  8
0
 62
     7
100
AcDbLine
 10
247.656982
 20
348.549988
 30
0.0
 11
190.101852
 21
348.549988
 31
0.0
  0
LINE
  5
33D
330
1F
100
AcDbEntity
  8
0
 62
     7
100
AcDbLine
 10
247.656982
 20
349.25
 30
0.0
 11
190.230988
 21
349.25
 31
0.0
  0
LINE
  5
33E
330
1F
100
AcDbEntity
  8
0
 62
     7
100
AcDbLine
 10
247.656982
 20
349.650024
 30
0.0
 11
190.276291
 21
349.650024
 31
0.0
  0
LINE
  5
33F
330
1F
100
AcDbEntity
  8
0
 62
     7
100
AcDbLine
 10
247.656982
 20
350.349976
 30
0.0
 11
190.306976
 21
350.349976
 31
0.0
  0
LINE
  5
340
330
1F
100
AcDbEntity
  8
0
 62
     7
100
AcDbLine
 10
190.305923
 20
350.479309
 30
0.0
 11
190.306976
 21
350.349976
 31
0.0
  0
LINE
  5
341
330
1F
100
AcDbEntity
  8
0
 62
     7
100
AcDbLine
 10
190.302399
 20
350.620728
 30
0.0
 11
190.305923
 21
350.479309
 31
0.0
  0
LINE
  5
342
330
1F
100
AcDbEntity
  8
0
 62
     7
100
AcDbLine
 10
190.296967
 20
350.75
 30
0.0
 11
190.302399
 21
350.620728
 31
0.0
  0
LINE
  5
343
330
1F
100
AcDbEntity
  8
0
 62
     7
100
AcDbLine
 10
247.656982
 20
350.75
 30
0.0
 11
190.296967
 21
350.75
 31
0.0
  0
ARC
  5
344
330
1F
100
AcDbEntity
  8
0
 62
     7
100
AcDbCircle
 10
182.306976
 20
350.349976
 30
0.0
 40
8.0
100
AcDbArc
 50
2.865984
 51
7.903208
  0
LINE
  5
345
330
1F
100
AcDbEntity
  8
0
 62
     7
100
AcDbLine
 10
247.656982
 20
351.450012
 30
0.0
 11
190.230988
 21
351.450012
 31
0.0
  0
LINE
  5
346
330
1F
100
AcDbEntity
  8
0
 62
     7
100
AcDbLine
 10
190.21196
 20
351.579285
 30
0.0
 11
190.230988
 21
351.450012
 31
0.0
  0
LINE
  5
347
330
1F
100
AcDbEntity
  8
0
 62
     7
100
AcDbLine
 10
190.188675
 20
351.720703
 30
0.0
 11
190.21196
 21
351.579285
 31
0.0
  0
LINE
  5
348
330
1F
100
AcDbEntity
  8
0
 62
     7
100
AcDbLine
 10
190.165085
 20
351.849976
 30
0.0
 11
190.188675
 21
351.720703
 31
0.0
  0
LINE
  5
349
330
1F
100
AcDbEntity
  8
0
 62
     7
100
AcDbLine
 10
247.656982
 20
351.849976
 30
0.0
 11
190.165085
 21
351.849976
 31
0.0
  0
ARC
  5
34A
330
1F
100
AcDbEntity
  8
0
 62
     7
100
AcDbCircle
 10
182.306976
 20
350.349976
 30
0.0
 40
8.0
100
AcDbArc
 50
10.806925
 51
15.962019
  0
LINE
  5
34B
330
1F
100
AcDbEntity
  8
0
 62
     7
100
AcDbLine
 10
175.378769
 20
346.349976
 30
0.0
 11
173.306976
 21
346.349976
 31
0.0
  0
LINE
  5
34C
330
1F
100
AcDbEntity
  8
0
 62
     7
100
AcDbLine
 10
175.019318
 20
347.049988
 30
0.0
 11
173.306976
 21
347.049988
 31
0.0
  0
LINE
  5
34D
330
1F
100
AcDbEntity
  8
0
 62
     7
100
AcDbLine
 10
174.851105
 20
347.450012
 30
0.0
 11
173.306976
 21
347.450012
 31
0.0
  0
LINE
  5
34E
330
1F
100
AcDbEntity
  8
0
 62
     7
100
AcDbLine
 10
174.615417
 20
348.150024
 30
0.0
 11
173.306976
 21
348.150024
 31
0.0
  0
LINE
  5
34F
330
1F
100
AcDbEntity
  8
0
 62
     7
100
AcDbLine
 10
174.5121
 20
348.549988
 30
0.0
 11
173.306976
 21
348.549988
 31
0.0
  0
LINE
  5
350
330
1F
100
AcDbEntity
  8
0
 62
     7
100
AcDbLine
 10
174.382965
 20
349.25
 30
0.0
 11
173.306976
 21
349.25
 31
0.0
  0
LINE
  5
351
330
1F
100
AcDbEntity
  8
0
 62
     7
100
AcDbLine
 10
174.337662
 20
349.650024
 30
0.0
 11
173.306976
 21
349.650024
 31
0.0
  0
LINE
  5
352
330
1F
100
AcDbEntity
  8
0
 62
     7
100
AcDbLine
 10
174.306976
 20
350.349976
 30
0.0
 11
173.306976
 21
350.349976
 31
0.0
  0
LINE
  5
353
330
1F
100
AcDbEntity
  8
0
 62
     7
100
AcDbLine
 10
174.308014
 20
350.479309
 30
0.0
 11
174.306976
 21
350.349976
 31
0.0
  0
LINE
  5
354
330
1F
100
AcDbEntity
  8
0
 62
     7
100
AcDbLine
 10
174.311554
 20
350.620728
 30
0.0
 11
174.308014
 21
350.479309
 31
0.0
  0
LINE
  5
355
330
1F
100
AcDbEntity
  8
0
 62
     7
100
AcDbLine
 10
174.316986
 20
350.75
 30
0.0
 11
174.311554
 21
350.620728
 31
0.0
  0
ARC
  5
356
330
1F
100
AcDbEntity
  8
0
 62
     7
100
AcDbCircle
 10
182.306976
 20
350.349976
 30
0.0
 40
8.0
100
AcDbArc
 50
172.096793
 51
177.134017
  0
LINE
  5
357
330
1F
100
AcDbEntity
  8
0
 62
     7
100
AcDbLine
 10
174.401993
 20
351.579285
 30
0.0
 11
174.382965
 21
351.450012
 31
0.0
  0
LINE
  5
358
330
1F
100
AcDbEntity
  8
0
 62
     7
100
AcDbLine
 10
174.425278
 20
351.720703
 30
0.0
 11
174.401993
 21
351.579285
 31
0.0
  0
LINE
  5
359
330
1F
100
AcDbEntity
  8
0
 62
     7
100
AcDbLine
 10
174.448853
 20
351.849976
 30
0.0
 11
174.425278
 21
351.720703
 31
0.0
  0
ARC
  5
35A
330
1F
100
AcDbEntity
  8
0
 62
     7
100
AcDbCircle
 10
182.306976
 20
350.349976
 30
0.0
 40
8.0
100
AcDbArc
 50
164.03799
 51
169.193075
  0
LINE
  5
35B
330
1F
100
AcDbEntity
  8
0
 62
     7
100
AcDbLine
 10
174.65358
 20
352.67926
 30
0.0
 11
174.615417
 21
352.549988
 31
0.0
  0
LINE
  5
35C
330
1F
100
AcDbEntity
  8
0
 62
     7
100
AcDbLine
 10
174.698059
 20
352.820679
 30
0.0
 11
174.65358
 21
352.67926
 31
0.0
  0
LINE
  5
35D
330
1F
100
AcDbEntity
  8
0
 62
     7
100
AcDbLine
 10
174.741257
 20
352.950012
 30
0.0
 11
174.698059
 21
352.820679
 31
0.0
  0
ARC
  5
35E
330
1F
100
AcDbEntity
  8
0
 62
     7
100
AcDbCircle
 10
182.306976
 20
350.349976
 30
0.0
 40
8.0
100
AcDbArc
 50
155.638018
 51
161.034427
  0
LINE
  5
35F
330
1F
100
AcDbEntity
  8
0
 62
     7
100
AcDbLine
 10
175.079254
 20
353.779297
 30
0.0
 11
175.019318
 21
353.650024
 31
0.0
  0
LINE
  5
360
330
1F
100
AcDbEntity
  8
0
 62
     7
100
AcDbLine
 10
175.148071
 20
353.920715
 30
0.0
 11
175.079254
 21
353.779297
 31
0.0
  0
LINE
  5
361
330
1F
100
AcDbEntity
  8
0
 62
     7
100
AcDbLine
 10
175.21402
 20
354.049988
 30
0.0
 11
175.148071
 21
353.920715
 31
0.0
  0
ARC
  5
362
330
1F
100
AcDbEntity
  8
0
 62
     7
100
AcDbCircle
 10
182.306976
 20
350.349976
 30
0.0
 40
8.0
100
AcDbArc
 50
146.632987
 51
152.451448
  0
LINE
  5
363
330
1F
100
AcDbEntity
  8
0
 62
     7
100
AcDbLine
 10
175.712616
 20
354.879272
 30
0.0
 11
175.625656
 21
354.75
 31
0.0
  0
LINE
  5
364
330
1F
100
AcDbEntity
  8
0
 62
     7
100
AcDbLine
 10
175.812027
 20
355.020691
 30
0.0
 11
175.712616
 21
354.879272
 31
0.0
  0
LINE
  5
365
330
1F
100
AcDbEntity
  8
0
 62
     7
100
AcDbLine
 10
175.906982
 20
355.150024
 30
0.0
 11
175.812027
 21
355.020691
 31
0.0
  0
ARC
  5
366
330
1F
100
AcDbEntity
  8
0
 62
     7
100
AcDbCircle
 10
182.306976
 20
350.349976
 30
0.0
 40
8.0
100
AcDbArc
 50
36.869897
 51
143.130097
  0
LINE
  5
367
330
1F
100
AcDbEntity
  8
0
 62
     7
100
AcDbLine
 10
188.70697
 20
355.150024
 30
0.0
 11
188.801926
 21
355.020691
 31
0.0
  0
LINE
  5
368
330
1F
100
AcDbEntity
  8
0
 62
     7
100
AcDbLine
 10
188.801926
 20
355.020691
 30
0.0
 11
188.901337
 21
354.879272
 31
0.0
  0
LINE
  5
369
330
1F
100
AcDbEntity
  8
0
 62
     7
100
AcDbLine
 10
188.901337
 20
354.879272
 30
0.0
 11
188.988297
 21
354.75
 31
0.0
  0
ARC
  5
36A
330
1F
100
AcDbEntity
  8
0
 62
     7
100
AcDbCircle
 10
182.306976
 20
350.349976
 30
0.0
 40
8.0
100
AcDbArc
 50
27.548547
 51
33.367014
  0
LINE
  5
36B
330
1F
100
AcDbEntity
  8
0
 62
     7
100
AcDbLine
 10
189.399933
 20
354.049988
 30
0.0
 11
189.465881
 21
353.920715
 31
0.0
  0
LINE
  5
36C
330
1F
100
AcDbEntity
  8
0
 62
     7
100
AcDbLine
 10
189.465881
 20
353.920715
 30
0.0
 11
189.534698
 21
353.779297
 31
0.0
  0
LINE
  5
36D
330
1F
100
AcDbEntity
  8
0
 62
     7
100
AcDbLine
 10
189.534698
 20
353.779297
 30
0.0
 11
189.594635
 21
353.650024
 31
0.0
  0
CIRCLE
  5
36E
330
1F
100
AcDbEntity
  8
0
 62
     7
100
AcDbCircle
 10
182.306976
 20
350.349976
 30
0.0
 40
7.5
  0
LINE
  5
36F
330
1F
100
AcDbEntity
  8
0
 62
     7
100
AcDbLine
 10
172.806976
 20
338.349976
 30
0.0
 11
173.306976
 21
338.349976
 31
0.0
  0
LINE
  5
370
330
1F
100
AcDbEntity
  8
0
 62
     7
100
AcDbLine
 10
174.316986
 20
350.75
 30
0.0
 11
173.306976
 21
350.75
 31
0.0
  0
LINE
  5
371
330
1F
100
AcDbEntity
  8
0
 62
     7
100
AcDbLine
 10
174.382965
 20
351.450012
 30
0.0
 11
173.306976
 21
351.450012
 31
0.0
  0
LINE
  5
372
330
1F
100
AcDbEntity
  8
0
 62
     7
100
AcDbLine
 10
174.448853
 20
351.849976
 30
0.0
 11
173.306976
 21
351.849976
 31
0.0
  0
LINE
  5
373
330
1F
100
AcDbEntity
  8
0
 62
     7
100
AcDbLine
 10
174.615417
 20
352.549988
 30
0.0
 11
173.306976
 21
352.549988
 31
0.0
  0
LINE
  5
374
330
1F
100
AcDbEntity
  8
0
 62
     7
100
AcDbLine
 10
174.741257
 20
352.950012
 30
0.0
 11
173.306976
 21
352.950012
 31
0.0
  0
LINE
  5
375
330
1F
100
AcDbEntity
  8
0
 62
     7
100
AcDbLine
 10
175.019318
 20
353.650024
 30
0.0
 11
173.306976
 21
353.650024
 31
0.0
  0
LINE
  5
376
330
1F
100
AcDbEntity
  8
0
 62
     7
100
AcDbLine
 10
175.21402
 20
354.049988
 30
0.0
 11
173.306976
 21
354.049988
 31
0.0
  0
LINE
  5
377
330
1F
100
AcDbEntity
  8
0
 62
     7
100
AcDbLine
 10
175.625656
 20
354.75
 30
0.0
 11
173.306976
 21
354.75
 31
0.0
  0
LINE
  5
378
330
1F
100
AcDbEntity
  8
0
 62
     7
100
AcDbLine
 10
175.906982
 20
355.150024
 30
0.0
 11
173.306976
 21
355.150024
 31
0.0
  0
LINE
  5
379
330
1F
100
AcDbEntity
  8
0
 62
     7
100
AcDbLine
 10
245.806976
 20
355.150024
 30
0.0
 11
188.70697
 21
355.150024
 31
0.0
  0
LINE
  5
37A
330
1F
100
AcDbEntity
  8
0
 62
     7
100
AcDbLine
 10
245.806976
 20
355.150024
 30
0.0
 11
245.806976
 21
359.974243
 31
0.0
  0
LINE
  5
37B
330
1F
100
AcDbEntity
  8
0
 62
     7
100
AcDbLine
 10
245.806976
 20
359.974243
 30
0.0
 11
173.306976
 21
359.974243
 31
0.0
  0
LINE
  5
37C
330
1F
100
AcDbEntity
  8
0
 62
     7
100
AcDbLine
 10
245.806976
 20
360.462158
 30
0.0
 11
245.806976
 21
359.974243
 31
0.0
  0
LINE
  5
37D
330
1F
100
AcDbEntity
  8
0
 62
     7
100
AcDbLine
 10
245.806976
 20
360.549988
 30
0.0
 11
245.806976
 21
360.462158
 31
0.0
  0
LINE
  5
37E
330
1F
100
AcDbEntity
  8
0
 62
     7
100
AcDbLine
 10
826.806946
 20
332.650024
 30
0.0
 11
826.806946
 21
332.150024
 31
0.0
  0
LINE
  5
37F
330
1F
100
AcDbEntity
  8
0
 62
     7
100
AcDbLine
 10
826.806946
 20
359.74292
 30
0.0
 11
826.806946
 21
332.650024
 31
0.0
  0
LINE
  5
380
330
1F
100
AcDbEntity
  8
0
 62
     7
100
AcDbLine
 10
826.806946
 20
360.096436
 30
0.0
 11
826.806946
 21
359.74292
 31
0.0
  0
LINE
  5
381
330
1F
100
AcDbEntity
  8
0
 62
     7
100
AcDbLine
 10
826.806946
 20
360.781128
 30
0.0
 11
826.806946
 21
360.096436
 31
0.0
  0
LINE
  5
382
330
1F
100
AcDbEntity
  8
0
 62
     7
100
AcDbLine
 10
753.806946
 20
355.020691
 30
0.0
 11
753.806946
 21
355.150024
 31
0.0
  0
LINE
  5
383
330
1F
100
AcDbEntity
  8
0
 62
     7
100
AcDbLine
 10
753.806946
 20
354.879272
 30
0.0
 11
753.806946
 21
355.020691
 31
0.0
  0
LINE
  5
384
330
1F
100
AcDbEntity
  8
0
 62
     7
100
AcDbLine
 10
753.806946
 20
354.879272
 30
0.0
 11
753.806946
 21
354.849976
 31
0.0
  0
ARC
  5
385
330
1F
100
AcDbEntity
  8
0
 62
     7
100
AcDbCircle
 10
752.306946
 20
354.849976
 30
0.0
 40
1.5
100
AcDbArc
 50
314.454478
 51
356.177454
  0
LINE
  5
386
330
1F
100
AcDbEntity
  8
0
 62
     7
100
AcDbLine
 10
753.803589
 20
354.75
 30
0.0
 11
753.806946
 21
354.849976
 31
0.0
  0
LINE
  5
387
330
1F
100
AcDbEntity
  8
0
 62
     7
100
AcDbLine
 10
751.45697
 20
354.349976
 30
0.0
 11
752.306946
 21
354.349976
 31
0.0
  0
ARC
  5
388
330
1F
100
AcDbEntity
  8
0
 62
     7
100
AcDbCircle
 10
752.306946
 20
354.849976
 30
0.0
 40
0.5
100
AcDbArc
 50
269.999997
 51
360.0
  0
LINE
  5
389
330
1F
100
AcDbEntity
  8
0
 62
     7
100
AcDbLine
 10
752.806946
 20
355.150024
 30
0.0
 11
752.806946
 21
359.974243
 31
0.0
  0
LINE
  5
38A
330
1F
100
AcDbEntity
  8
0
 62
     7
100
AcDbLine
 10
752.806946
 20
360.462158
 30
0.0
 11
752.806946
 21
359.974243
 31
0.0
  0
LINE
  5
38B
330
1F
100
AcDbEntity
  8
0
 62
     7
100
AcDbLine
 10
752.806946
 20
360.549988
 30
0.0
 11
752.806946
 21
360.462158
 31
0.0
  0
LINE
  5
38C
330
1F
100
AcDbEntity
  8
0
 62
     7
100
AcDbLine
 10
752.806946
 20
354.879272
 30
0.0
 11
752.806946
 21
354.849976
 31
0.0
  0
LINE
  5
38D
330
1F
100
AcDbEntity
  8
0
 62
     7
100
AcDbLine
 10
752.806946
 20
355.020691
 30
0.0
 11
752.806946
 21
354.879272
 31
0.0
  0
LINE
  5
38E
330
1F
100
AcDbEntity
  8
0
 62
     7
100
AcDbLine
 10
752.806946
 20
355.020691
 30
0.0
 11
752.806946
 21
355.150024
 31
0.0
  0
LINE
  5
38F
330
1F
100
AcDbEntity
  8
0
 62
     7
100
AcDbLine
 10
746.806946
 20
360.462158
 30
0.0
 11
746.806946
 21
360.549988
 31
0.0
  0
LINE
  5
390
330
1F
100
AcDbEntity
  8
0
 62
     7
100
AcDbLine
 10
746.806946
 20
360.462158
 30
0.0
 11
746.806946
 21
359.974243
 31
0.0
  0
LINE
  5
391
330
1F
100
AcDbEntity
  8
0
 62
     7
100
AcDbLine
 10
746.806946
 20
355.150024
 30
0.0
 11
746.806946
 21
359.974243
 31
0.0
  0
LINE
  5
392
330
1F
100
AcDbEntity
  8
0
 62
     7
100
AcDbLine
 10
746.806946
 20
355.020691
 30
0.0
 11
746.806946
 21
355.150024
 31
0.0
  0
LINE
  5
393
330
1F
100
AcDbEntity
  8
0
 62
     7
100
AcDbLine
 10
746.806946
 20
354.879272
 30
0.0
 11
746.806946
 21
355.020691
 31
0.0
  0
LINE
  5
394
330
1F
100
AcDbEntity
  8
0
 62
     7
100
AcDbLine
 10
746.806946
 20
354.879272
 30
0.0
 11
746.806946
 21
354.849976
 31
0.0
  0
ARC
  5
395
330
1F
100
AcDbEntity
  8
0
 62
     7
100
AcDbCircle
 10
747.306946
 20
354.849976
 30
0.0
 40
0.5
100
AcDbArc
 50
180.000009
 51
269.999997
  0
LINE
  5
396
330
1F
100
AcDbEntity
  8
0
 62
     7
100
AcDbLine
 10
747.306946
 20
354.349976
 30
0.0
 11
748.156921
 21
354.349976
 31
0.0
  0
ARC
  5
397
330
1F
100
AcDbEntity
  8
0
 62
     7
100
AcDbCircle
 10
747.306946
 20
354.849976
 30
0.0
 40
1.5
100
AcDbArc
 50
183.822551
 51
212.230947
  0
LINE
  5
398
330
1F
100
AcDbEntity
  8
0
 62
     7
100
AcDbLine
 10
745.810303
 20
354.75
 30
0.0
 11
745.806946
 21
354.849976
 31
0.0
  0
LINE
  5
399
330
1F
100
AcDbEntity
  8
0
 62
     7
100
AcDbLine
 10
745.806946
 20
355.150024
 30
0.0
 11
745.806946
 21
359.974243
 31
0.0
  0
LINE
  5
39A
330
1F
100
AcDbEntity
  8
0
 62
     7
100
AcDbLine
 10
745.806946
 20
360.462158
 30
0.0
 11
745.806946
 21
359.974243
 31
0.0
  0
LINE
  5
39B
330
1F
100
AcDbEntity
  8
0
 62
     7
100
AcDbLine
 10
745.806946
 20
360.549988
 30
0.0
 11
745.806946
 21
360.462158
 31
0.0
  0
LINE
  5
39C
330
1F
100
AcDbEntity
  8
0
 62
     7
100
AcDbLine
 10
745.806946
 20
354.879272
 30
0.0
 11
745.806946
 21
354.849976
 31
0.0
  0
LINE
  5
39D
330
1F
100
AcDbEntity
  8
0
 62
     7
100
AcDbLine
 10
745.806946
 20
355.020691
 30
0.0
 11
745.806946
 21
354.879272
 31
0.0
  0
LINE
  5
39E
330
1F
100
AcDbEntity
  8
0
 62
     7
100
AcDbLine
 10
745.806946
 20
355.020691
 30
0.0
 11
745.806946
 21
355.150024
 31
0.0
  0
LINE
  5
39F
330
1F
100
AcDbEntity
  8
0
 62
     7
100
AcDbLine
 10
553.806946
 20
360.462158
 30
0.0
 11
553.806946
 21
360.549988
 31
0.0
  0
LINE
  5
3A0
330
1F
100
AcDbEntity
  8
0
 62
     7
100
AcDbLine
 10
553.806946
 20
360.462158
 30
0.0
 11
553.806946
 21
359.974243
 31
0.0
  0
LINE
  5
3A1
330
1F
100
AcDbEntity
  8
0
 62
     7
100
AcDbLine
 10
553.806946
 20
355.150024
 30
0.0
 11
553.806946
 21
359.974243
 31
0.0
  0
LINE
  5
3A2
330
1F
100
AcDbEntity
  8
0
 62
     7
100
AcDbLine
 10
553.806946
 20
355.020691
 30
0.0
 11
553.806946
 21
355.150024
 31
0.0
  0
LINE
  5
3A3
330
1F
100
AcDbEntity
  8
0
 62
     7
100
AcDbLine
 10
553.806946
 20
354.879272
 30
0.0
 11
553.806946
 21
355.020691
 31
0.0
  0
LINE
  5
3A4
330
1F
100
AcDbEntity
  8
0
 62
     7
100
AcDbLine
 10
553.806946
 20
354.879272
 30
0.0
 11
553.806946
 21
354.849976
 31
0.0
  0
ARC
  5
3A5
330
1F
100
AcDbEntity
  8
0
 62
     7
100
AcDbCircle
 10
552.306946
 20
354.849976
 30
0.0
 40
1.5
100
AcDbArc
 50
314.454478
 51
356.177454
  0
LINE
  5
3A6
330
1F
100
AcDbEntity
  8
0
 62
     7
100
AcDbLine
 10
553.803589
 20
354.75
 30
0.0
 11
553.806946
 21
354.849976
 31
0.0
  0
LINE
  5
3A7
330
1F
100
AcDbEntity
  8
0
 62
     7
100
AcDbLine
 10
551.456909
 20
354.349976
 30
0.0
 11
552.306946
 21
354.349976
 31
0.0
  0
ARC
  5
3A8
330
1F
100
AcDbEntity
  8
0
 62
     7
100
AcDbCircle
 10
552.306946
 20
354.849976
 30
0.0
 40
0.5
100
AcDbArc
 50
269.999997
 51
360.0
  0
LINE
  5
3A9
330
1F
100
AcDbEntity
  8
0
 62
     7
100
AcDbLine
 10
552.806946
 20
355.150024
 30
0.0
 11
552.806946
 21
359.974243
 31
0.0
  0
LINE
  5
3AA
330
1F
100
AcDbEntity
  8
0
 62
     7
100
AcDbLine
 10
552.806946
 20
360.462158
 30
0.0
 11
552.806946
 21
359.974243
 31
0.0
  0
LINE
  5
3AB
330
1F
100
AcDbEntity
  8
0
 62
     7
100
AcDbLine
 10
552.806946
 20
360.549988
 30
0.0
 11
552.806946
 21
360.462158
 31
0.0
  0
LINE
  5
3AC
330
1F
100
AcDbEntity
  8
0
 62
     7
100
AcDbLine
 10
552.806946
 20
354.879272
 30
0.0
 11
552.806946
 21
354.849976
 31
0.0
  0
LINE
  5
3AD
330
1F
100
AcDbEntity
  8
0
 62
     7
100
AcDbLine
 10
552.806946
 20
355.020691
 30
0.0
 11
552.806946
 21
354.879272
 31
0.0
  0
LINE
  5
3AE
330
1F
100
AcDbEntity
  8
0
 62
     7
100
AcDbLine
 10
552.806946
 20
355.020691
 30
0.0
 11
552.806946
 21
355.150024
 31
0.0
  0
LINE
  5
3AF
330
1F
100
AcDbEntity
  8
0
 62
     7
100
AcDbLine
 10
546.806946
 20
360.462158
 30
0.0
 11
546.806946
 21
360.549988
 31
0.0
  0
LINE
  5
3B0
330
1F
100
AcDbEntity
  8
0
 62
     7
100
AcDbLine
 10
546.806946
 20
360.462158
 30
0.0
 11
546.806946
 21
359.974243
 31
0.0
  0
LINE
  5
3B1
330
1F
100
AcDbEntity
  8
0
 62
     7
100
AcDbLine
 10
546.806946
 20
355.150024
 30
0.0
 11
546.806946
 21
359.974243
 31
0.0
  0
LINE
  5
3B2
330
1F
100
AcDbEntity
  8
0
 62
     7
100
AcDbLine
 10
546.806946
 20
355.020691
 30
0.0
 11
546.806946
 21
355.150024
 31
0.0
  0
LINE
  5
3B3
330
1F
100
AcDbEntity
  8
0
 62
     7
100
AcDbLine
 10
546.806946
 20
354.879272
 30
0.0
 11
546.806946
 21
355.020691
 31
0.0
  0
LINE
  5
3B4
330
1F
100
AcDbEntity
  8
0
 62
     7
100
AcDbLine
 10
546.806946
 20
354.879272
 30
0.0
 11
546.806946
 21
354.849976
 31
0.0
  0
ARC
  5
3B5
330
1F
100
AcDbEntity
  8
0
 62
     7
100
AcDbCircle
 10
547.306946
 20
354.849976
 30
0.0
 40
0.5
100
AcDbArc
 50
180.000009
 51
269.999997
  0
LINE
  5
3B6
330
1F
100
AcDbEntity
  8
0
 62
     7
100
AcDbLine
 10
547.306946
 20
354.349976
 30
0.0
 11
548.156921
 21
354.349976
 31
0.0
  0
ARC
  5
3B7
330
1F
100
AcDbEntity
  8
0
 62
     7
100
AcDbCircle
 10
547.306946
 20
354.849976
 30
0.0
 40
1.5
100
AcDbArc
 50
183.822551
 51
212.230947
  0
LINE
  5
3B8
330
1F
100
AcDbEntity
  8
0
 62
     7
100
AcDbLine
 10
545.810242
 20
354.75
 30
0.0
 11
545.806946
 21
354.849976
 31
0.0
  0
LINE
  5
3B9
330
1F
100
AcDbEntity
  8
0
 62
     7
100
AcDbLine
 10
545.806946
 20
355.150024
 30
0.0
 11
545.806946
 21
359.974243
 31
0.0
  0
LINE
  5
3BA
330
1F
100
AcDbEntity
  8
0
 62
     7
100
AcDbLine
 10
545.806946
 20
360.462158
 30
0.0
 11
545.806946
 21
359.974243
 31
0.0
  0
LINE
  5
3BB
330
1F
100
AcDbEntity
  8
0
 62
     7
100
AcDbLine
 10
545.806946
 20
360.549988
 30
0.0
 11
545.806946
 21
360.462158
 31
0.0
  0
LINE
  5
3BC
330
1F
100
AcDbEntity
  8
0
 62
     7
100
AcDbLine
 10
545.806946
 20
354.879272
 30
0.0
 11
545.806946
 21
354.849976
 31
0.0
  0
LINE
  5
3BD
330
1F
100
AcDbEntity
  8
0
 62
     7
100
AcDbLine
 10
545.806946
 20
355.020691
 30
0.0
 11
545.806946
 21
354.879272
 31
0.0
  0
LINE
  5
3BE
330
1F
100
AcDbEntity
  8
0
 62
     7
100
AcDbLine
 10
545.806946
 20
355.020691
 30
0.0
 11
545.806946
 21
355.150024
 31
0.0
  0
LINE
  5
3BF
330
1F
100
AcDbEntity
  8
0
 62
     7
100
AcDbLine
 10
253.806976
 20
360.462158
 30
0.0
 11
253.806976
 21
360.549988
 31
0.0
  0
LINE
  5
3C0
330
1F
100
AcDbEntity
  8
0
 62
     7
100
AcDbLine
 10
253.806976
 20
360.462158
 30
0.0
 11
253.806976
 21
359.974243
 31
0.0
  0
LINE
  5
3C1
330
1F
100
AcDbEntity
  8
0
 62
     7
100
AcDbLine
 10
253.806976
 20
355.150024
 30
0.0
 11
253.806976
 21
359.974243
 31
0.0
  0
LINE
  5
3C2
330
1F
100
AcDbEntity
  8
0
 62
     7
100
AcDbLine
 10
253.806976
 20
355.020691
 30
0.0
 11
253.806976
 21
355.150024
 31
0.0
  0
LINE
  5
3C3
330
1F
100
AcDbEntity
  8
0
 62
     7
100
AcDbLine
 10
253.806976
 20
354.879272
 30
0.0
 11
253.806976
 21
355.020691
 31
0.0
  0
LINE
  5
3C4
330
1F
100
AcDbEntity
  8
0
 62
     7
100
AcDbLine
 10
253.806976
 20
354.879272
 30
0.0
 11
253.806976
 21
354.849976
 31
0.0
  0
ARC
  5
3C5
330
1F
100
AcDbEntity
  8
0
 62
     7
100
AcDbCircle
 10
252.306976
 20
354.849976
 30
0.0
 40
1.5
100
AcDbArc
 50
314.454478
 51
356.177454
  0
LINE
  5
3C6
330
1F
100
AcDbEntity
  8
0
 62
     7
100
AcDbLine
 10
253.80365
 20
354.75
 30
0.0
 11
253.806976
 21
354.849976
 31
0.0
  0
LINE
  5
3C7
330
1F
100
AcDbEntity
  8
0
 62
     7
100
AcDbLine
 10
251.45697
 20
354.349976
 30
0.0
 11
252.306976
 21
354.349976
 31
0.0
  0
ARC
  5
3C8
330
1F
100
AcDbEntity
  8
0
 62
     7
100
AcDbCircle
 10
252.306976
 20
354.849976
 30
0.0
 40
0.5
100
AcDbArc
 50
269.999997
 51
360.0
  0
LINE
  5
3C9
330
1F
100
AcDbEntity
  8
0
 62
     7
100
AcDbLine
 10
252.806976
 20
355.150024
 30
0.0
 11
252.806976
 21
359.974243
 31
0.0
  0
LINE
  5
3CA
330
1F
100
AcDbEntity
  8
0
 62
     7
100
AcDbLine
 10
252.806976
 20
360.462158
 30
0.0
 11
252.806976
 21
359.974243
 31
0.0
  0
LINE
  5
3CB
330
1F
100
AcDbEntity
  8
0
 62
     7
100
AcDbLine
 10
252.806976
 20
360.549988
 30
0.0
 11
252.806976
 21
360.462158
 31
0.0
  0
LINE
  5
3CC
330
1F
100
AcDbEntity
  8
0
 62
     7
100
AcDbLine
 10
252.806976
 20
354.879272
 30
0.0
 11
252.806976
 21
354.849976
 31
0.0
  0
LINE
  5
3CD
330
1F
100
AcDbEntity
  8
0
 62
     7
100
AcDbLine
 10
252.806976
 20
355.020691
 30
0.0
 11
252.806976
 21
354.879272
 31
0.0
  0
LINE
  5
3CE
330
1F
100
AcDbEntity
  8
0
 62
     7
100
AcDbLine
 10
252.806976
 20
355.020691
 30
0.0
 11
252.806976
 21
355.150024
 31
0.0
  0
LINE
  5
3CF
330
1F
100
AcDbEntity
  8
0
 62
     7
100
AcDbLine
 10
246.806976
 20
360.462158
 30
0.0
 11
246.806976
 21
360.549988
 31
0.0
  0
LINE
  5
3D0
330
1F
100
AcDbEntity
  8
0
 62
     7
100
AcDbLine
 10
246.806976
 20
360.462158
 30
0.0
 11
246.806976
 21
359.974243
 31
0.0
  0
LINE
  5
3D1
330
1F
100
AcDbEntity
  8
0
 62
     7
100
AcDbLine
 10
246.806976
 20
355.150024
 30
0.0
 11
246.806976
 21
359.974243
 31
0.0
  0
LINE
  5
3D2
330
1F
100
AcDbEntity
  8
0
 62
     7
100
AcDbLine
 10
246.806976
 20
355.020691
 30
0.0
 11
246.806976
 21
355.150024
 31
0.0
  0
LINE
  5
3D3
330
1F
100
AcDbEntity
  8
0
 62
     7
100
AcDbLine
 10
246.806976
 20
354.879272
 30
0.0
 11
246.806976
 21
355.020691
 31
0.0
  0
LINE
  5
3D4
330
1F
100
AcDbEntity
  8
0
 62
     7
100
AcDbLine
 10
246.806976
 20
354.879272
 30
0.0
 11
246.806976
 21
354.849976
 31
0.0
  0
ARC
  5
3D5
330
1F
100
AcDbEntity
  8
0
 62
     7
100
AcDbCircle
 10
247.306976
 20
354.849976
 30
0.0
 40
0.5
100
AcDbArc
 50
180.000009
 51
269.999997
  0
LINE
  5
3D6
330
1F
100
AcDbEntity
  8
0
 62
     7
100
AcDbLine
 10
247.306976
 20
354.349976
 30
0.0
 11
248.156982
 21
354.349976
 31
0.0
  0
ARC
  5
3D7
330
1F
100
AcDbEntity
  8
0
 62
     7
100
AcDbCircle
 10
247.306976
 20
354.849976
 30
0.0
 40
1.5
100
AcDbArc
 50
183.822551
 51
212.230947
  0
LINE
  5
3D8
330
1F
100
AcDbEntity
  8
0
 62
     7
100
AcDbLine
 10
245.810303
 20
354.75
 30
0.0
 11
245.806976
 21
354.849976
 31
0.0
  0
LINE
  5
3D9
330
1F
100
AcDbEntity
  8
0
 62
     7
100
AcDbLine
 10
245.806976
 20
354.879272
 30
0.0
 11
245.806976
 21
354.849976
 31
0.0
  0
LINE
  5
3DA
330
1F
100
AcDbEntity
  8
0
 62
     7
100
AcDbLine
 10
245.806976
 20
355.020691
 30
0.0
 11
245.806976
 21
354.879272
 31
0.0
  0
LINE
  5
3DB
330
1F
100
AcDbEntity
  8
0
 62
     7
100
AcDbLine
 10
245.806976
 20
355.020691
 30
0.0
 11
245.806976
 21
355.150024
 31
0.0
  0
LINE
  5
3DC
330
1F
100
AcDbEntity
  8
0
 62
     7
100
AcDbLine
 10
172.806976
 20
360.096436
 30
0.0
 11
172.806976
 21
360.781128
 31
0.0
  0
LINE
  5
3DD
330
1F
100
AcDbEntity
  8
0
 62
     7
100
AcDbLine
 10
172.806976
 20
359.74292
 30
0.0
 11
172.806976
 21
360.096436
 31
0.0
  0
LINE
  5
3DE
330
1F
100
AcDbEntity
  8
0
 62
     7
100
AcDbLine
 10
172.806976
 20
332.650024
 30
0.0
 11
172.806976
 21
359.74292
 31
0.0
  0
LINE
  5
3DF
330
1F
100
AcDbEntity
  8
0
 62
     7
100
AcDbLine
 10
172.806976
 20
332.150024
 30
0.0
 11
172.806976
 21
332.650024
 31
0.0
  0
LINE
  5
3E0
330
1F
100
AcDbEntity
  8
0
 62
     7
100
AcDbLine
 10
826.806946
 20
363.349976
 30
0.0
 11
826.806946
 21
360.781128
 31
0.0
  0
LINE
  5
3E1
330
1F
100
AcDbEntity
  8
0
 62
     7
100
AcDbLine
 10
172.806976
 20
363.349976
 30
0.0
 11
826.806946
 21
363.349976
 31
0.0
  0
LINE
  5
3E2
330
1F
100
AcDbEntity
  8
0
 62
     7
100
AcDbLine
 10
172.806976
 20
363.349976
 30
0.0
 11
172.806976
 21
360.781128
 31
0.0
  0
LINE
  5
3E3
330
1F
100
AcDbEntity
  8
0
 62
     7
100
AcDbLine
 10
826.806946
 20
333.849976
 30
0.0
 11
826.306946
 21
333.849976
 31
0.0
  0
LINE
  5
3E4
330
1F
100
AcDbEntity
  8
0
 62
     7
100
AcDbLine
 10
810.213989
 20
354.049988
 30
0.0
 11
753.575806
 21
354.049988
 31
0.0
  0
LINE
  5
3E5
330
1F
100
AcDbEntity
  8
0
 62
     7
100
AcDbLine
 10
810.62561
 20
354.75
 30
0.0
 11
753.803589
 21
354.75
 31
0.0
  0
LINE
  5
3E6
330
1F
100
AcDbEntity
  8
0
 62
     7
100
AcDbLine
 10
750.998718
 20
354.049988
 30
0.0
 11
748.615173
 21
354.049988
 31
0.0
  0
LINE
  5
3E7
330
1F
100
AcDbEntity
  8
0
 62
     7
100
AcDbLine
 10
752.796814
 20
354.75
 30
0.0
 11
750.701355
 21
354.75
 31
0.0
  0
ARC
  5
3E8
330
1F
100
AcDbEntity
  8
0
 62
     7
100
AcDbCircle
 10
749.806946
 20
356.650024
 30
0.0
 40
2.099999904632568
100
AcDbArc
 50
237.479124
 51
295.208757
  0
LINE
  5
3E9
330
1F
100
AcDbEntity
  8
0
 62
     7
100
AcDbLine
 10
748.912537
 20
354.75
 30
0.0
 11
746.817078
 21
354.75
 31
0.0
  0
LINE
  5
3EA
330
1F
100
AcDbEntity
  8
0
 62
     7
100
AcDbLine
 10
550.998657
 20
354.049988
 30
0.0
 11
548.615173
 21
354.049988
 31
0.0
  0
LINE
  5
3EB
330
1F
100
AcDbEntity
  8
0
 62
     7
100
AcDbLine
 10
552.796814
 20
354.75
 30
0.0
 11
550.701355
 21
354.75
 31
0.0
  0
ARC
  5
3EC
330
1F
100
AcDbEntity
  8
0
 62
     7
100
AcDbCircle
 10
549.806946
 20
356.650024
 30
0.0
 40
2.099999904632568
100
AcDbArc
 50
237.479124
 51
295.208757
  0
LINE
  5
3ED
330
1F
100
AcDbEntity
  8
0
 62
     7
100
AcDbLine
 10
548.912476
 20
354.75
 30
0.0
 11
546.817017
 21
354.75
 31
0.0
  0
LINE
  5
3EE
330
1F
100
AcDbEntity
  8
0
 62
     7
100
AcDbLine
 10
250.998718
 20
354.049988
 30
0.0
 11
248.615234
 21
354.049988
 31
0.0
  0
LINE
  5
3EF
330
1F
100
AcDbEntity
  8
0
 62
     7
100
AcDbLine
 10
248.912537
 20
354.75
 30
0.0
 11
246.817078
 21
354.75
 31
0.0
  0
LINE
  5
3F0
330
1F
100
AcDbEntity
  8
0
 62
     7
100
AcDbLine
 10
252.796875
 20
354.75
 30
0.0
 11
250.701385
 21
354.75
 31
0.0
  0
ARC
  5
3F1
330
1F
100
AcDbEntity
  8
0
 62
     7
100
AcDbCircle
 10
249.806976
 20
356.650024
 30
0.0
 40
2.099999904632568
100
AcDbArc
 50
237.479124
 51
295.208757
  0
LINE
  5
3F2
330
1F
100
AcDbEntity
  8
0
 62
     7
100
AcDbLine
 10
245.810303
 20
354.75
 30
0.0
 11
188.988297
 21
354.75
 31
0.0
  0
LINE
  5
3F3
330
1F
100
AcDbEntity
  8
0
 62
     7
100
AcDbLine
 10
246.038116
 20
354.049988
 30
0.0
 11
189.399933
 21
354.049988
 31
0.0
  0
LINE
  5
3F4
330
1F
100
AcDbEntity
  8
0
 62
     7
100
AcDbLine
 10
172.806976
 20
333.849976
 30
0.0
 11
173.306976
 21
333.849976
 31
0.0
  0
LINE
  5
3F5
330
1F
100
AcDbEntity
  8
0
 62
     7
100
AcDbLine
 10
747.494446
 20
333.680359
 30
0.0
 11
748.794434
 21
337.180359
 31
0.0
  0
ARC
  5
3F6
330
1F
100
AcDbEntity
  8
0
 62
     7
100
AcDbCircle
 10
747.306946
 20
333.75
 30
0.0
 40
0.2000000029802322
100
AcDbArc
 50
200.37643
 51
339.623562
  0
LINE
  5
3F7
330
1F
100
AcDbEntity
  8
0
 62
     7
100
AcDbLine
 10
745.819458
 20
337.180359
 30
0.0
 11
747.119446
 21
333.680359
 31
0.0
  0
ARC
  5
3F8
330
1F
100
AcDbEntity
  8
0
 62
     7
100
AcDbCircle
 10
746.006958
 20
337.25
 30
0.0
 40
0.2000000029802322
100
AcDbArc
 50
90.000003
 51
200.37643
  0
LINE
  5
3F9
330
1F
100
AcDbEntity
  8
0
 62
     7
100
AcDbLine
 10
748.606934
 20
337.450012
 30
0.0
 11
746.006958
 21
337.450012
 31
0.0
  0
ARC
  5
3FA
330
1F
100
AcDbEntity
  8
0
 62
     7
100
AcDbCircle
 10
748.606934
 20
337.25
 30
0.0
 40
0.2000000029802322
100
AcDbArc
 50
339.623562
 51
90.000003
  0
LINE
  5
3FB
330
1F
100
AcDbEntity
  8
0
 62
     7
100
AcDbLine
 10
227.494461
 20
333.680359
 30
0.0
 11
228.794464
 21
337.180359
 31
0.0
  0
ARC
  5
3FC
330
1F
100
AcDbEntity
  8
0
 62
     7
100
AcDbCircle
 10
227.306976
 20
333.75
 30
0.0
 40
0.2000000029802322
100
AcDbArc
 50
200.37643
 51
339.623562
  0
LINE
  5
3FD
330
1F
100
AcDbEntity
  8
0
 62
     7
100
AcDbLine
 10
225.819489
 20
337.180359
 30
0.0
 11
227.119492
 21
333.680359
 31
0.0
  0
ARC
  5
3FE
330
1F
100
AcDbEntity
  8
0
 62
     7
100
AcDbCircle
 10
226.006973
 20
337.25
 30
0.0
 40
0.2000000029802322
100
AcDbArc
 50
90.000003
 51
200.37643
  0
LINE
  5
3FF
330
1F
100
AcDbEntity
  8
0
 62
     7
100
AcDbLine
 10
228.606979
 20
337.450012
 30
0.0
 11
226.006973
 21
337.450012
 31
0.0
  0
ARC
  5
400
330
1F
100
AcDbEntity
  8
0
 62
     7
100
AcDbCircle
 10
228.606979
 20
337.25
 30
0.0
 40
0.2000000029802322
100
AcDbArc
 50
339.623562
 51
90.000003
  0
LINE
  5
401
330
1F
100
AcDbEntity
  8
0
 62
     7
100
AcDbLine
 10
827.806946
 20
332.150024
 30
0.0
 11
826.806946
 21
332.150024
 31
0.0
  0
LINE
  5
402
330
1F
100
AcDbEntity
  8
0
 62
     7
100
AcDbLine
 10
826.306946
 20
332.349976
 30
0.0
 11
826.806946
 21
332.349976
 31
0.0
  0
LINE
  5
403
330
1F
100
AcDbEntity
  8
0
 62
     7
100
AcDbLine
 10
750.701355
 20
354.75
 30
0.0
 11
750.813721
 21
354.807068
 31
0.0
  0
ARC
  5
404
330
1F
100
AcDbEntity
  8
0
 62
     7
100
AcDbCircle
 10
749.806946
 20
356.650024
 30
0.0
 40
2.099999904632568
100
AcDbArc
 50
298.647887
 51
314.415304
  0
LINE
  5
405
330
1F
100
AcDbEntity
  8
0
 62
     7
100
AcDbLine
 10
748.33728
 20
355.150024
 30
0.0
 11
746.806946
 21
355.150024
 31
0.0
  0
ARC
  5
406
330
1F
100
AcDbEntity
  8
0
 62
     7
100
AcDbCircle
 10
749.806946
 20
356.650024
 30
0.0
 40
2.099999904632568
100
AcDbArc
 50
314.415304
 51
237.479124
  0
LINE
  5
407
330
1F
100
AcDbEntity
  8
0
 62
     7
100
AcDbLine
 10
752.806946
 20
355.150024
 30
0.0
 11
751.276611
 21
355.150024
 31
0.0
  0
LINE
  5
408
330
1F
100
AcDbEntity
  8
0
 62
     7
100
AcDbLine
 10
752.806946
 20
359.974243
 30
0.0
 11
746.806946
 21
359.974243
 31
0.0
  0
LINE
  5
409
330
1F
100
AcDbEntity
  8
0
 62
     7
100
AcDbLine
 10
745.810303
 20
354.75
 30
0.0
 11
553.803589
 21
354.75
 31
0.0
  0
LINE
  5
40A
330
1F
100
AcDbEntity
  8
0
 62
     7
100
AcDbLine
 10
746.038086
 20
354.049988
 30
0.0
 11
553.575806
 21
354.049988
 31
0.0
  0
LINE
  5
40B
330
1F
100
AcDbEntity
  8
0
 62
     7
100
AcDbLine
 10
745.806946
 20
355.150024
 30
0.0
 11
553.806946
 21
355.150024
 31
0.0
  0
LINE
  5
40C
330
1F
100
AcDbEntity
  8
0
 62
     7
100
AcDbLine
 10
745.806946
 20
359.974243
 30
0.0
 11
553.806946
 21
359.974243
 31
0.0
  0
LINE
  5
40D
330
1F
100
AcDbEntity
  8
0
 62
     7
100
AcDbLine
 10
550.701355
 20
354.75
 30
0.0
 11
550.813721
 21
354.807068
 31
0.0
  0
ARC
  5
40E
330
1F
100
AcDbEntity
  8
0
 62
     7
100
AcDbCircle
 10
549.806946
 20
356.650024
 30
0.0
 40
2.099999904632568
100
AcDbArc
 50
298.647887
 51
314.415304
  0
ARC
  5
40F
330
1F
100
AcDbEntity
  8
0
 62
     7
100
AcDbCircle
 10
549.806946
 20
356.650024
 30
0.0
 40
2.099999904632568
100
AcDbArc
 50
314.415304
 51
237.479124
  0
LINE
  5
410
330
1F
100
AcDbEntity
  8
0
 62
     7
100
AcDbLine
 10
552.806946
 20
355.150024
 30
0.0
 11
551.276611
 21
355.150024
 31
0.0
  0
LINE
  5
411
330
1F
100
AcDbEntity
  8
0
 62
     7
100
AcDbLine
 10
552.806946
 20
359.974243
 30
0.0
 11
546.806946
 21
359.974243
 31
0.0
  0
LINE
  5
412
330
1F
100
AcDbEntity
  8
0
 62
     7
100
AcDbLine
 10
548.337219
 20
355.150024
 30
0.0
 11
546.806946
 21
355.150024
 31
0.0
  0
LINE
  5
413
330
1F
100
AcDbEntity
  8
0
 62
     7
100
AcDbLine
 10
545.810242
 20
354.75
 30
0.0
 11
253.80365
 21
354.75
 31
0.0
  0
LINE
  5
414
330
1F
100
AcDbEntity
  8
0
 62
     7
100
AcDbLine
 10
546.038086
 20
354.049988
 30
0.0
 11
253.575836
 21
354.049988
 31
0.0
  0
LINE
  5
415
330
1F
100
AcDbEntity
  8
0
 62
     7
100
AcDbLine
 10
545.806946
 20
355.150024
 30
0.0
 11
253.806976
 21
355.150024
 31
0.0
  0
LINE
  5
416
330
1F
100
AcDbEntity
  8
0
 62
     7
100
AcDbLine
 10
545.806946
 20
359.974243
 30
0.0
 11
253.806976
 21
359.974243
 31
0.0
  0
LINE
  5
417
330
1F
100
AcDbEntity
  8
0
 62
     7
100
AcDbLine
 10
250.701385
 20
354.75
 30
0.0
 11
250.813751
 21
354.807068
 31
0.0
  0
ARC
  5
418
330
1F
100
AcDbEntity
  8
0
 62
     7
100
AcDbCircle
 10
249.806976
 20
356.650024
 30
0.0
 40
2.099999904632568
100
AcDbArc
 50
298.647887
 51
314.415304
  0
LINE
  5
419
330
1F
100
AcDbEntity
  8
0
 62
     7
100
AcDbLine
 10
252.806976
 20
359.974243
 30
0.0
 11
246.806976
 21
359.974243
 31
0.0
  0
LINE
  5
41A
330
1F
100
AcDbEntity
  8
0
 62
     7
100
AcDbLine
 10
248.33728
 20
355.150024
 30
0.0
 11
246.806976
 21
355.150024
 31
0.0
  0
ARC
  5
41B
330
1F
100
AcDbEntity
  8
0
 62
     7
100
AcDbCircle
 10
249.806976
 20
356.650024
 30
0.0
 40
2.099999904632568
100
AcDbArc
 50
314.415304
 51
237.479124
  0
LINE
  5
41C
330
1F
100
AcDbEntity
  8
0
 62
     7
100
AcDbLine
 10
252.806976
 20
355.150024
 30
0.0
 11
251.276672
 21
355.150024
 31
0.0
  0
LINE
  5
41D
330
1F
100
AcDbEntity
  8
0
 62
     7
100
AcDbLine
 10
171.806976
 20
332.150024
 30
0.0
 11
172.806976
 21
332.150024
 31
0.0
  0
LINE
  5
41E
330
1F
100
AcDbEntity
  8
0
 62
     7
100
AcDbLine
 10
172.806976
 20
332.349976
 30
0.0
 11
173.306976
 21
332.349976
 31
0.0
  0
CIRCLE
  5
41F
330
1F
100
AcDbEntity
  8
0
 62
     7
100
AcDbCircle
 10
817.306946
 20
350.349976
 30
0.0
 40
4.5
  0
CIRCLE
  5
420
330
1F
100
AcDbEntity
  8
0
 62
     7
100
AcDbCircle
 10
182.306976
 20
350.349976
 30
0.0
 40
4.5
  0
ARC
  5
421
330
1F
100
AcDbEntity
  8
0
 62
     7
100
AcDbCircle
 10
827.806946
 20
333.150024
 30
0.0
 40
1.0
100
AcDbArc
 50
269.999997
 51
360.0
  0
LINE
  5
422
330
1F
100
AcDbEntity
  8
0
 62
     7
100
AcDbLine
 10
828.806946
 20
359.535767
 30
0.0
 11
828.806946
 21
333.150024
 31
0.0
  0
LINE
  5
423
330
1F
100
AcDbEntity
  8
0
 62
     7
100
AcDbLine
 10
828.806946
 20
360.231384
 30
0.0
 11
828.806946
 21
359.535767
 31
0.0
  0
LINE
  5
424
330
1F
100
AcDbEntity
  8
0
 62
     7
100
AcDbLine
 10
170.806976
 20
359.535767
 30
0.0
 11
170.806976
 21
360.231384
 31
0.0
  0
LINE
  5
425
330
1F
100
AcDbEntity
  8
0
 62
     7
100
AcDbLine
 10
170.806976
 20
333.150024
 30
0.0
 11
170.806976
 21
359.535767
 31
0.0
  0
ARC
  5
426
330
1F
100
AcDbEntity
  8
0
 62
     7
100
AcDbCircle
 10
171.806976
 20
333.150024
 30
0.0
 40
1.0
100
AcDbArc
 50
180.000009
 51
269.999997
  0
LINE
  5
427
330
1F
100
AcDbEntity
  8
0
 62
     7
100
AcDbLine
 10
827.806946
 20
363.150024
 30
0.0
 11
826.806946
 21
363.150024
 31
0.0
  0
LINE
  5
428
330
1F
100
AcDbEntity
  8
0
 62
     7
100
AcDbLine
 10
171.806976
 20
363.150024
 30
0.0
 11
172.806976
 21
363.150024
 31
0.0
  0
LINE
  5
429
330
1F
100
AcDbEntity
  8
0
 62
     7
100
AcDbLine
 10
828.806946
 20
360.805908
 30
0.0
 11
828.806946
 21
360.231384
 31
0.0
  0
LINE
  5
42A
330
1F
100
AcDbEntity
  8
0
 62
     7
100
AcDbLine
 10
828.806946
 20
362.150024
 30
0.0
 11
828.806946
 21
360.805908
 31
0.0
  0
LINE
  5
42B
330
1F
100
AcDbEntity
  8
0
 62
     7
100
AcDbLine
 10
170.806976
 20
360.231384
 30
0.0
 11
170.806976
 21
360.805908
 31
0.0
  0
LINE
  5
42C
330
1F
100
AcDbEntity
  8
0
 62
     7
100
AcDbLine
 10
170.806976
 20
360.805908
 30
0.0
 11
170.806976
 21
362.150024
 31
0.0
  0
ARC
  5
42D
330
1F
100
AcDbEntity
  8
0
 62
     7
100
AcDbCircle
 10
817.306946
 20
351.049988
 30
0.0
 40
12.80000019073486
100
AcDbArc
 50
73.932611
 51
106.067387
  0
ARC
  5
42E
330
1F
100
AcDbEntity
  8
0
 62
     7
100
AcDbCircle
 10
182.306976
 20
351.049988
 30
0.0
 40
12.80000019073486
100
AcDbArc
 50
73.932611
 51
106.067387
  0
ARC
  5
42F
330
1F
100
AcDbEntity
  8
0
 62
     7
100
AcDbCircle
 10
827.806946
 20
362.150024
 30
0.0
 40
1.0
100
AcDbArc
 50
0.0
 51
90.000003
  0
ARC
  5
430
330
1F
100
AcDbEntity
  8
0
 62
     7
100
AcDbCircle
 10
171.806976
 20
362.150024
 30
0.0
 40
1.0
100
AcDbArc
 50
90.000003
 51
180.000009
  0
CIRCLE
  5
431
330
1F
100
AcDbEntity
  8
0
 62
     7
100
AcDbCircle
 10
749.806946
 20
356.650024
 30
0.0
 40
2.0
  0
CIRCLE
  5
432
330
1F
100
AcDbEntity
  8
0
 62
     7
100
AcDbCircle
 10
549.806946
 20
356.650024
 30
0.0
 40
2.0
  0
CIRCLE
  5
433
330
1F
100
AcDbEntity
  8
0
 62
     7
100
AcDbCircle
 10
249.806976
 20
356.650024
 30
0.0
 40
2.0
  0
LINE
  5
434
330
1F
100
AcDbEntity
  8
0
 62
     7
100
AcDbLine
 10
750.006958
 20
357.349976
 30
0.0
 11
750.006958
 21
357.849976
 31
0.0
  0
LINE
  5
435
330
1F
100
AcDbEntity
  8
0
 62
     7
100
AcDbLine
 10
750.006958
 20
357.849976
 30
0.0
 11
749.606934
 21
357.849976
 31
0.0
  0
LINE
  5
436
330
1F
100
AcDbEntity
  8
0
 62
     7
100
AcDbLine
 10
749.606934
 20
357.849976
 30
0.0
 11
749.606934
 21
357.349976
 31
0.0
  0
ARC
  5
437
330
1F
100
AcDbEntity
  8
0
 62
     7
100
AcDbCircle
 10
749.106934
 20
357.349976
 30
0.0
 40
0.5
100
AcDbArc
 50
269.999997
 51
360.0
  0
LINE
  5
438
330
1F
100
AcDbEntity
  8
0
 62
     7
100
AcDbLine
 10
749.106934
 20
356.849976
 30
0.0
 11
748.606934
 21
356.849976
 31
0.0
  0
LINE
  5
439
330
1F
100
AcDbEntity
  8
0
 62
     7
100
AcDbLine
 10
748.606934
 20
356.849976
 30
0.0
 11
748.606934
 21
356.450012
 31
0.0
  0
LINE
  5
43A
330
1F
100
AcDbEntity
  8
0
 62
     7
100
AcDbLine
 10
748.606934
 20
356.450012
 30
0.0
 11
749.106934
 21
356.450012
 31
0.0
  0
ARC
  5
43B
330
1F
100
AcDbEntity
  8
0
 62
     7
100
AcDbCircle
 10
749.106934
 20
355.950012
 30
0.0
 40
0.5
100
AcDbArc
 50
0.0
 51
90.000003
  0
LINE
  5
43C
330
1F
100
AcDbEntity
  8
0
 62
     7
100
AcDbLine
 10
749.606934
 20
355.950012
 30
0.0
 11
749.606934
 21
355.450012
 31
0.0
  0
LINE
  5
43D
330
1F
100
AcDbEntity
  8
0
 62
     7
100
AcDbLine
 10
749.606934
 20
355.450012
 30
0.0
 11
750.006958
 21
355.450012
 31
0.0
  0
LINE
  5
43E
330
1F
100
AcDbEntity
  8
0
 62
     7
100
AcDbLine
 10
750.006958
 20
355.450012
 30
0.0
 11
750.006958
 21
355.950012
 31
0.0
  0
ARC
  5
43F
330
1F
100
AcDbEntity
  8
0
 62
     7
100
AcDbCircle
 10
750.506958
 20
355.950012
 30
0.0
 40
0.5
100
AcDbArc
 50
90.000003
 51
180.000009
  0
LINE
  5
440
330
1F
100
AcDbEntity
  8
0
 62
     7
100
AcDbLine
 10
750.506958
 20
356.450012
 30
0.0
 11
751.006958
 21
356.450012
 31
0.0
  0
LINE
  5
441
330
1F
100
AcDbEntity
  8
0
 62
     7
100
AcDbLine
 10
751.006958
 20
356.450012
 30
0.0
 11
751.006958
 21
356.849976
 31
0.0
  0
LINE
  5
442
330
1F
100
AcDbEntity
  8
0
 62
     7
100
AcDbLine
 10
751.006958
 20
356.849976
 30
0.0
 11
750.506958
 21
356.849976
 31
0.0
  0
ARC
  5
443
330
1F
100
AcDbEntity
  8
0
 62
     7
100
AcDbCircle
 10
750.506958
 20
357.349976
 30
0.0
 40
0.5
100
AcDbArc
 50
180.000009
 51
269.999997
  0
LINE
  5
444
330
1F
100
AcDbEntity
  8
0
 62
     7
100
AcDbLine
 10
550.006958
 20
357.349976
 30
0.0
 11
550.006958
 21
357.849976
 31
0.0
  0
LINE
  5
445
330
1F
100
AcDbEntity
  8
0
 62
     7
100
AcDbLine
 10
550.006958
 20
357.849976
 30
0.0
 11
549.606934
 21
357.849976
 31
0.0
  0
LINE
  5
446
330
1F
100
AcDbEntity
  8
0
 62
     7
100
AcDbLine
 10
549.606934
 20
357.849976
 30
0.0
 11
549.606934
 21
357.349976
 31
0.0
  0
ARC
  5
447
330
1F
100
AcDbEntity
  8
0
 62
     7
100
AcDbCircle
 10
549.106934
 20
357.349976
 30
0.0
 40
0.5
100
AcDbArc
 50
269.999997
 51
360.0
  0
LINE
  5
448
330
1F
100
AcDbEntity
  8
0
 62
     7
100
AcDbLine
 10
549.106934
 20
356.849976
 30
0.0
 11
548.606934
 21
356.849976
 31
0.0
  0
LINE
  5
449
330
1F
100
AcDbEntity
  8
0
 62
     7
100
AcDbLine
 10
548.606934
 20
356.849976
 30
0.0
 11
548.606934
 21
356.450012
 31
0.0
  0
LINE
  5
44A
330
1F
100
AcDbEntity
  8
0
 62
     7
100
AcDbLine
 10
548.606934
 20
356.450012
 30
0.0
 11
549.106934
 21
356.450012
 31
0.0
  0
ARC
  5
44B
330
1F
100
AcDbEntity
  8
0
 62
     7
100
AcDbCircle
 10
549.106934
 20
355.950012
 30
0.0
 40
0.5
100
AcDbArc
 50
0.0
 51
90.000003
  0
LINE
  5
44C
330
1F
100
AcDbEntity
  8
0
 62
     7
100
AcDbLine
 10
549.606934
 20
355.950012
 30
0.0
 11
549.606934
 21
355.450012
 31
0.0
  0
LINE
  5
44D
330
1F
100
AcDbEntity
  8
0
 62
     7
100
AcDbLine
 10
549.606934
 20
355.450012
 30
0.0
 11
550.006958
 21
355.450012
 31
0.0
  0
LINE
  5
44E
330
1F
100
AcDbEntity
  8
0
 62
     7
100
AcDbLine
 10
550.006958
 20
355.450012
 30
0.0
 11
550.006958
 21
355.950012
 31
0.0
  0
ARC
  5
44F
330
1F
100
AcDbEntity
  8
0
 62
     7
100
AcDbCircle
 10
550.506958
 20
355.950012
 30
0.0
 40
0.5
100
AcDbArc
 50
90.000003
 51
180.000009
  0
LINE
  5
450
330
1F
100
AcDbEntity
  8
0
 62
     7
100
AcDbLine
 10
550.506958
 20
356.450012
 30
0.0
 11
551.006958
 21
356.450012
 31
0.0
  0
LINE
  5
451
330
1F
100
AcDbEntity
  8
0
 62
     7
100
AcDbLine
 10
551.006958
 20
356.450012
 30
0.0
 11
551.006958
 21
356.849976
 31
0.0
  0
LINE
  5
452
330
1F
100
AcDbEntity
  8
0
 62
     7
100
AcDbLine
 10
551.006958
 20
356.849976
 30
0.0
 11
550.506958
 21
356.849976
 31
0.0
  0
ARC
  5
453
330
1F
100
AcDbEntity
  8
0
 62
     7
100
AcDbCircle
 10
550.506958
 20
357.349976
 30
0.0
 40
0.5
100
AcDbArc
 50
180.000009
 51
269.999997
  0
LINE
  5
454
330
1F
100
AcDbEntity
  8
0
 62
     7
100
AcDbLine
 10
250.006958
 20
357.349976
 30
0.0
 11
250.006958
 21
357.849976
 31
0.0
  0
LINE
  5
455
330
1F
100
AcDbEntity
  8
0
 62
     7
100
AcDbLine
 10
250.006958
 20
357.849976
 30
0.0
 11
249.606964
 21
357.849976
 31
0.0
  0
LINE
  5
456
330
1F
100
AcDbEntity
  8
0
 62
     7
100
AcDbLine
 10
249.606964
 20
357.849976
 30
0.0
 11
249.606964
 21
357.349976
 31
0.0
  0
ARC
  5
457
330
1F
100
AcDbEntity
  8
0
 62
     7
100
AcDbCircle
 10
249.106964
 20
357.349976
 30
0.0
 40
0.5
100
AcDbArc
 50
269.999997
 51
360.0
  0
LINE
  5
458
330
1F
100
AcDbEntity
  8
0
 62
     7
100
AcDbLine
 10
249.106964
 20
356.849976
 30
0.0
 11
248.606964
 21
356.849976
 31
0.0
  0
LINE
  5
459
330
1F
100
AcDbEntity
  8
0
 62
     7
100
AcDbLine
 10
248.606964
 20
356.849976
 30
0.0
 11
248.606964
 21
356.450012
 31
0.0
  0
LINE
  5
45A
330
1F
100
AcDbEntity
  8
0
 62
     7
100
AcDbLine
 10
248.606964
 20
356.450012
 30
0.0
 11
249.106964
 21
356.450012
 31
0.0
  0
ARC
  5
45B
330
1F
100
AcDbEntity
  8
0
 62
     7
100
AcDbCircle
 10
249.106964
 20
355.950012
 30
0.0
 40
0.5
100
AcDbArc
 50
0.0
 51
90.000003
  0
LINE
  5
45C
330
1F
100
AcDbEntity
  8
0
 62
     7
100
AcDbLine
 10
249.606964
 20
355.950012
 30
0.0
 11
249.606964
 21
355.450012
 31
0.0
  0
LINE
  5
45D
330
1F
100
AcDbEntity
  8
0
 62
     7
100
AcDbLine
 10
249.606964
 20
355.450012
 30
0.0
 11
250.006958
 21
355.450012
 31
0.0
  0
LINE
  5
45E
330
1F
100
AcDbEntity
  8
0
 62
     7
100
AcDbLine
 10
250.006958
 20
355.450012
 30
0.0
 11
250.006958
 21
355.950012
 31
0.0
  0
ARC
  5
45F
330
1F
100
AcDbEntity
  8
0
 62
     7
100
AcDbCircle
 10
250.506958
 20
355.950012
 30
0.0
 40
0.5
100
AcDbArc
 50
90.000003
 51
180.000009
  0
LINE
  5
460
330
1F
100
AcDbEntity
  8
0
 62
     7
100
AcDbLine
 10
250.506958
 20
356.450012
 30
0.0
 11
251.006958
 21
356.450012
 31
0.0
  0
LINE
  5
461
330
1F
100
AcDbEntity
  8
0
 62
     7
100
AcDbLine
 10
251.006958
 20
356.450012
 30
0.0
 11
251.006958
 21
356.849976
 31
0.0
  0
LINE
  5
462
330
1F
100
AcDbEntity
  8
0
 62
     7
100
AcDbLine
 10
251.006958
 20
356.849976
 30
0.0
 11
250.506958
 21
356.849976
 31
0.0
  0
ARC
  5
463
330
1F
100
AcDbEntity
  8
0
 62
     7
100
AcDbCircle
 10
250.506958
 20
357.349976
 30
0.0
 40
0.5
100
AcDbArc
 50
180.000009
 51
269.999997
  0
LINE
  5
464
330
1F
100
AcDbEntity
  8
0
 62
     7
100
AcDbLine
 10
828.806946
 20
336.799988
 30
0.0
 11
828.806946
 21
339.700012
 31
0.0
  0
LINE
  5
465
330
1F
100
AcDbEntity
  8
0
 62
     7
100
AcDbLine
 10
828.806946
 20
341.0
 30
0.0
 11
828.806946
 21
343.900024
 31
0.0
  0
LINE
  5
466
330
1F
100
AcDbEntity
  8
0
 62
     7
100
AcDbLine
 10
753.806946
 20
360.549988
 30
0.0
 11
826.306946
 21
360.549988
 31
0.0
  0
LINE
  5
467
330
1F
100
AcDbEntity
  8
0
 62
     7
100
AcDbLine
 10
173.306976
 20
360.549988
 30
0.0
 11
245.806976
 21
360.549988
 31
0.0
  0
LINE
  5
468
330
1F
100
AcDbEntity
  8
0
 62
     7
100
AcDbLine
 10
746.806946
 20
360.549988
 30
0.0
 11
752.806946
 21
360.549988
 31
0.0
  0
LINE
  5
469
330
1F
100
AcDbEntity
  8
0
 62
     7
100
AcDbLine
 10
553.806946
 20
360.549988
 30
0.0
 11
745.806946
 21
360.549988
 31
0.0
  0
LINE
  5
46A
330
1F
100
AcDbEntity
  8
0
 62
     7
100
AcDbLine
 10
546.806946
 20
360.549988
 30
0.0
 11
552.806946
 21
360.549988
 31
0.0
  0
LINE
  5
46B
330
1F
100
AcDbEntity
  8
0
 62
     7
100
AcDbLine
 10
253.806976
 20
360.549988
 30
0.0
 11
545.806946
 21
360.549988
 31
0.0
  0
LINE
  5
46C
330
1F
100
AcDbEntity
  8
0
 62
     7
100
AcDbLine
 10
246.806976
 20
360.549988
 30
0.0
 11
252.806976
 21
360.549988
 31
0.0
  0
LINE
  5
46D
330
1F
100
AcDbEntity
  8
0
 62
     7
100
AcDbLine
 10
306.207001
 20
329.849854
 30
0.0
 11
306.207001
 21
330.140015
 31
0.0
  0
LINE
  5
46E
330
1F
100
AcDbEntity
  8
0
 62
     7
100
AcDbLine
 10
306.207001
 20
330.140015
 30
0.0
 11
306.006989
 21
330.343262
 31
0.0
  0
LINE
  5
46F
330
1F
100
AcDbEntity
  8
0
 62
     7
100
AcDbLine
 10
306.006989
 20
330.009216
 30
0.0
 11
306.006989
 21
330.343262
 31
0.0
  0
LINE
  5
470
330
1F
100
AcDbEntity
  8
0
 62
     7
100
AcDbLine
 10
306.006989
 20
330.343262
 30
0.0
 11
305.006989
 21
330.343262
 31
0.0
  0
LINE
  5
471
330
1F
100
AcDbEntity
  8
0
 62
     7
100
AcDbLine
 10
305.006989
 20
330.343262
 30
0.0
 11
305.006989
 21
330.400024
 31
0.0
  0
LINE
  5
472
330
1F
100
AcDbEntity
  8
0
 62
     7
100
AcDbLine
 10
304.407013
 20
330.400024
 30
0.0
 11
305.006989
 21
330.400024
 31
0.0
  0
LINE
  5
473
330
1F
100
AcDbEntity
  8
0
 62
     7
100
AcDbLine
 10
304.407013
 20
330.049927
 30
0.0
 11
304.407013
 21
330.400024
 31
0.0
  0
LINE
  5
474
330
1F
100
AcDbEntity
  8
0
 62
     7
100
AcDbLine
 10
306.006989
 20
330.343262
 30
0.0
 11
305.006989
 21
330.343262
 31
0.0
  0
LINE
  5
475
330
1F
100
AcDbEntity
  8
0
 62
     7
100
AcDbLine
 10
306.207001
 20
330.140015
 30
0.0
 11
306.006989
 21
330.343262
 31
0.0
  0
LINE
  5
476
330
1F
100
AcDbEntity
  8
0
 62
     7
100
AcDbLine
 10
304.106995
 20
330.049988
 30
0.0
 11
304.106995
 21
330.150024
 31
0.0
  0
LINE
  5
477
330
1F
100
AcDbEntity
  8
0
 62
     7
100
AcDbLine
 10
305.807007
 20
330.049988
 30
0.0
 11
303.807007
 21
330.049988
 31
0.0
  0
ARC
  5
478
330
1F
100
AcDbEntity
  8
0
 62
     7
100
AcDbCircle
 10
303.807007
 20
330.549988
 30
0.0
 40
0.5
100
AcDbArc
 50
180.000009
 51
269.999997
  0
LINE
  5
479
330
1F
100
AcDbEntity
  8
0
 62
     7
100
AcDbLine
 10
305.807007
 20
329.549988
 30
0.0
 11
306.160553
 21
329.903564
 31
0.0
  0
ARC
  5
47A
330
1F
100
AcDbEntity
  8
0
 62
     7
100
AcDbCircle
 10
305.807007
 20
329.549988
 30
0.0
 40
0.5
100
AcDbArc
 50
0.0
 51
89.999559
  0
LINE
  5
47B
330
1F
100
AcDbEntity
  8
0
 62
     7
100
AcDbLine
 10
306.307007
 20
306.450012
 30
0.0
 11
306.307007
 21
329.549988
 31
0.0
  0
ARC
  5
47C
330
1F
100
AcDbEntity
  8
0
 62
     7
100
AcDbCircle
 10
302.807007
 20
330.549988
 30
0.0
 40
0.5
100
AcDbArc
 50
0.0
 51
90.000003
  0
LINE
  5
47D
330
1F
100
AcDbEntity
  8
0
 62
     7
100
AcDbLine
 10
298.807007
 20
309.25
 30
0.0
 11
180.806976
 21
309.25
 31
0.0
  0
LINE
  5
47E
330
1F
100
AcDbEntity
  8
0
 62
     7
100
AcDbLine
 10
228.956833
 20
324.107971
 30
0.0
 11
227.494461
 21
328.045227
 31
0.0
  0
ARC
  5
47F
330
1F
100
AcDbEntity
  8
0
 62
     7
100
AcDbCircle
 10
228.769348
 20
324.03833
 30
0.0
 40
0.2000000029802322
100
AcDbArc
 50
269.999997
 51
20.376
  0
LINE
  5
480
330
1F
100
AcDbEntity
  8
0
 62
     7
100
AcDbLine
 10
225.844604
 20
323.838379
 30
0.0
 11
228.769348
 21
323.838379
 31
0.0
  0
ARC
  5
481
330
1F
100
AcDbEntity
  8
0
 62
     7
100
AcDbCircle
 10
225.844604
 20
324.03833
 30
0.0
 40
0.2000000029802322
100
AcDbArc
 50
159.624007
 51
269.999997
  0
LINE
  5
482
330
1F
100
AcDbEntity
  8
0
 62
     7
100
AcDbLine
 10
227.119492
 20
328.045227
 30
0.0
 11
225.65712
 21
324.107971
 31
0.0
  0
ARC
  5
483
330
1F
100
AcDbEntity
  8
0
 62
     7
100
AcDbCircle
 10
227.306976
 20
327.975586
 30
0.0
 40
0.2000000029802322
100
AcDbArc
 50
20.376
 51
159.624007
  0
LINE
  5
484
330
1F
100
AcDbEntity
  8
0
 62
     7
100
AcDbLine
 10
305.807007
 20
306.450012
 30
0.0
 11
306.057007
 21
306.200012
 31
0.0
  0
LINE
  5
485
330
1F
100
AcDbEntity
  8
0
 62
     7
100
AcDbLine
 10
306.057007
 20
306.200012
 30
0.0
 11
306.307007
 21
306.450012
 31
0.0
  0
LINE
  5
486
330
1F
100
AcDbEntity
  8
0
 62
     7
100
AcDbLine
 10
305.807007
 20
305.950012
 30
0.0
 11
306.057007
 21
306.200012
 31
0.0
  0
LINE
  5
487
330
1F
100
AcDbEntity
  8
0
 62
     7
100
AcDbLine
 10
283.807007
 20
331.049988
 30
0.0
 11
284.807007
 21
331.049988
 31
0.0
  0
LINE
  5
488
330
1F
100
AcDbEntity
  8
0
 62
     7
100
AcDbLine
 10
285.807007
 20
331.049988
 30
0.0
 11
284.807007
 21
331.049988
 31
0.0
  0
LINE
  5
489
330
1F
100
AcDbEntity
  8
0
 62
     7
100
AcDbLine
 10
302.807007
 20
331.049988
 30
0.0
 11
285.807007
 21
331.049988
 31
0.0
  0
LINE
  5
48A
330
1F
100
AcDbEntity
  8
0
 62
     7
100
AcDbLine
 10
173.806976
 20
306.450012
 30
0.0
 11
173.556976
 21
306.200012
 31
0.0
  0
LINE
  5
48B
330
1F
100
AcDbEntity
  8
0
 62
     7
100
AcDbLine
 10
173.806976
 20
329.549988
 30
0.0
 11
173.45343
 21
329.903564
 31
0.0
  0
ARC
  5
48C
330
1F
100
AcDbEntity
  8
0
 62
     7
100
AcDbCircle
 10
173.806976
 20
329.549988
 30
0.0
 40
0.5
100
AcDbArc
 50
90.000003
 51
179.999554
  0
LINE
  5
48D
330
1F
100
AcDbEntity
  8
0
 62
     7
100
AcDbLine
 10
173.306976
 20
329.549988
 30
0.0
 11
173.306976
 21
306.450012
 31
0.0
  0
LINE
  5
48E
330
1F
100
AcDbEntity
  8
0
 62
     7
100
AcDbLine
 10
173.306976
 20
306.450012
 30
0.0
 11
173.556976
 21
306.200012
 31
0.0
  0
LINE
  5
48F
330
1F
100
AcDbEntity
  8
0
 62
     7
100
AcDbLine
 10
180.806976
 20
305.950012
 30
0.0
 11
173.806976
 21
305.950012
 31
0.0
  0
LINE
  5
490
330
1F
100
AcDbEntity
  8
0
 62
     7
100
AcDbLine
 10
173.556976
 20
306.200012
 30
0.0
 11
173.806976
 21
305.950012
 31
0.0
  0
LINE
  5
491
330
1F
100
AcDbEntity
  8
0
 62
     7
100
AcDbLine
 10
181.306976
 20
306.450012
 30
0.0
 11
181.306976
 21
309.25
 31
0.0
  0
LINE
  5
492
330
1F
100
AcDbEntity
  8
0
 62
     7
100
AcDbLine
 10
298.307007
 20
306.450012
 30
0.0
 11
298.307007
 21
309.25
 31
0.0
  0
LINE
  5
493
330
1F
100
AcDbEntity
  8
0
 62
     7
100
AcDbLine
 10
305.807007
 20
305.950012
 30
0.0
 11
298.807007
 21
305.950012
 31
0.0
  0
LINE
  5
494
330
1F
100
AcDbEntity
  8
0
 62
     7
100
AcDbLine
 10
284.807007
 20
330.049988
 30
0.0
 11
270.807007
 21
330.049988
 31
0.0
  0
LINE
  5
495
330
1F
100
AcDbEntity
  8
0
 62
     7
100
AcDbLine
 10
270.506989
 20
328.549988
 30
0.0
 11
270.506989
 21
329.75
 31
0.0
  0
ARC
  5
496
330
1F
100
AcDbEntity
  8
0
 62
     7
100
AcDbCircle
 10
268.307007
 20
328.549988
 30
0.0
 40
2.200000047683716
100
AcDbArc
 50
180.000009
 51
360.0
  0
LINE
  5
497
330
1F
100
AcDbEntity
  8
0
 62
     7
100
AcDbLine
 10
266.106995
 20
329.75
 30
0.0
 11
266.106995
 21
328.549988
 31
0.0
  0
LINE
  5
498
330
1F
100
AcDbEntity
  8
0
 62
     7
100
AcDbLine
 10
265.807007
 20
330.049988
 30
0.0
 11
191.806976
 21
330.049988
 31
0.0
  0
LINE
  5
499
330
1F
100
AcDbEntity
  8
0
 62
     7
100
AcDbLine
 10
191.506973
 20
328.549988
 30
0.0
 11
191.506973
 21
329.75
 31
0.0
  0
ARC
  5
49A
330
1F
100
AcDbEntity
  8
0
 62
     7
100
AcDbCircle
 10
189.306976
 20
328.549988
 30
0.0
 40
2.200000047683716
100
AcDbArc
 50
180.000009
 51
360.0
  0
ARC
  5
49B
330
1F
100
AcDbEntity
  8
0
 62
     7
100
AcDbCircle
 10
192.973038
 20
328.049988
 30
0.0
 40
1.0
100
AcDbArc
 50
90.000003
 51
172.233561
  0
LINE
  5
49C
330
1F
100
AcDbEntity
  8
0
 62
     7
100
AcDbLine
 10
192.973038
 20
329.049988
 30
0.0
 11
206.306976
 21
329.049988
 31
0.0
  0
ARC
  5
49D
330
1F
100
AcDbEntity
  8
0
 62
     7
100
AcDbCircle
 10
206.306976
 20
326.049988
 30
0.0
 40
3.0
100
AcDbArc
 50
0.0
 51
90.000003
  0
LINE
  5
49E
330
1F
100
AcDbEntity
  8
0
 62
     7
100
AcDbLine
 10
209.306976
 20
313.25
 30
0.0
 11
209.306976
 21
326.049988
 31
0.0
  0
ARC
  5
49F
330
1F
100
AcDbEntity
  8
0
 62
     7
100
AcDbCircle
 10
206.306976
 20
313.25
 30
0.0
 40
3.0
100
AcDbArc
 50
269.999997
 51
360.0
  0
LINE
  5
4A0
330
1F
100
AcDbEntity
  8
0
 62
     7
100
AcDbLine
 10
206.306976
 20
310.25
 30
0.0
 11
192.306976
 21
310.25
 31
0.0
  0
ARC
  5
4A1
330
1F
100
AcDbEntity
  8
0
 62
     7
100
AcDbCircle
 10
192.306976
 20
313.25
 30
0.0
 40
3.0
100
AcDbArc
 50
180.000009
 51
269.999997
  0
LINE
  5
4A2
330
1F
100
AcDbEntity
  8
0
 62
     7
100
AcDbLine
 10
189.306976
 20
324.987671
 30
0.0
 11
189.306976
 21
313.25
 31
0.0
  0
ARC
  5
4A3
330
1F
100
AcDbEntity
  8
0
 62
     7
100
AcDbCircle
 10
190.306976
 20
324.987671
 30
0.0
 40
1.0
100
AcDbArc
 50
105.680348
 51
180.000009
  0
LINE
  5
4A4
330
1F
100
AcDbEntity
  8
0
 62
     7
100
AcDbLine
 10
187.106979
 20
329.75
 30
0.0
 11
187.106979
 21
328.549988
 31
0.0
  0
LINE
  5
4A5
330
1F
100
AcDbEntity
  8
0
 62
     7
100
AcDbLine
 10
186.806976
 20
330.049988
 30
0.0
 11
186.306976
 21
330.049988
 31
0.0
  0
LINE
  5
4A6
330
1F
100
AcDbEntity
  8
0
 62
     7
100
AcDbLine
 10
185.306976
 20
331.049988
 30
0.0
 11
176.806976
 21
331.049988
 31
0.0
  0
LINE
  5
4A7
330
1F
100
AcDbEntity
  8
0
 62
     7
100
AcDbLine
 10
175.806976
 20
330.049988
 30
0.0
 11
173.806976
 21
330.049988
 31
0.0
  0
LINE
  5
4A8
330
1F
100
AcDbEntity
  8
0
 62
     7
100
AcDbLine
 10
248.306976
 20
329.049988
 30
0.0
 11
262.307007
 21
329.049988
 31
0.0
  0
ARC
  5
4A9
330
1F
100
AcDbEntity
  8
0
 62
     7
100
AcDbCircle
 10
262.307007
 20
326.049988
 30
0.0
 40
3.0
100
AcDbArc
 50
0.0
 51
90.000003
  0
LINE
  5
4AA
330
1F
100
AcDbEntity
  8
0
 62
     7
100
AcDbLine
 10
265.307007
 20
313.25
 30
0.0
 11
265.307007
 21
326.049988
 31
0.0
  0
ARC
  5
4AB
330
1F
100
AcDbEntity
  8
0
 62
     7
100
AcDbCircle
 10
262.307007
 20
313.25
 30
0.0
 40
3.0
100
AcDbArc
 50
269.999997
 51
360.0
  0
LINE
  5
4AC
330
1F
100
AcDbEntity
  8
0
 62
     7
100
AcDbLine
 10
262.307007
 20
310.25
 30
0.0
 11
248.306976
 21
310.25
 31
0.0
  0
ARC
  5
4AD
330
1F
100
AcDbEntity
  8
0
 62
     7
100
AcDbCircle
 10
248.306976
 20
313.25
 30
0.0
 40
3.0
100
AcDbArc
 50
180.000009
 51
269.999997
  0
LINE
  5
4AE
330
1F
100
AcDbEntity
  8
0
 62
     7
100
AcDbLine
 10
245.306976
 20
326.049988
 30
0.0
 11
245.306976
 21
313.25
 31
0.0
  0
ARC
  5
4AF
330
1F
100
AcDbEntity
  8
0
 62
     7
100
AcDbCircle
 10
248.306976
 20
326.049988
 30
0.0
 40
3.0
100
AcDbArc
 50
90.000003
 51
180.000009
  0
LINE
  5
4B0
330
1F
100
AcDbEntity
  8
0
 62
     7
100
AcDbLine
 10
186.306976
 20
331.049988
 30
0.0
 11
185.306976
 21
331.049988
 31
0.0
  0
LINE
  5
4B1
330
1F
100
AcDbEntity
  8
0
 62
     7
100
AcDbLine
 10
187.306976
 20
331.049988
 30
0.0
 11
186.306976
 21
331.049988
 31
0.0
  0
LINE
  5
4B2
330
1F
100
AcDbEntity
  8
0
 62
     7
100
AcDbLine
 10
182.556976
 20
308.849976
 30
0.0
 11
182.556976
 21
309.25
 31
0.0
  0
LINE
  5
4B3
330
1F
100
AcDbEntity
  8
0
 62
     7
100
AcDbLine
 10
297.057007
 20
308.849976
 30
0.0
 11
297.057007
 21
309.25
 31
0.0
  0
LINE
  5
4B4
330
1F
100
AcDbEntity
  8
0
 62
     7
100
AcDbLine
 10
197.030182
 20
309.099976
 30
0.0
 11
196.830185
 21
309.099976
 31
0.0
  0
LINE
  5
4B5
330
1F
100
AcDbEntity
  8
0
 62
     7
100
AcDbLine
 10
193.783768
 20
309.099976
 30
0.0
 11
196.830185
 21
309.099976
 31
0.0
  0
LINE
  5
4B6
330
1F
100
AcDbEntity
  8
0
 62
     7
100
AcDbLine
 10
193.783768
 20
309.099976
 30
0.0
 11
193.583771
 21
309.099976
 31
0.0
  0
LINE
  5
4B7
330
1F
100
AcDbEntity
  8
0
 62
     7
100
AcDbLine
 10
282.783783
 20
309.099976
 30
0.0
 11
282.583801
 21
309.099976
 31
0.0
  0
LINE
  5
4B8
330
1F
100
AcDbEntity
  8
0
 62
     7
100
AcDbLine
 10
286.030212
 20
309.099976
 30
0.0
 11
285.8302
 21
309.099976
 31
0.0
  0
LINE
  5
4B9
330
1F
100
AcDbEntity
  8
0
 62
     7
100
AcDbLine
 10
282.783783
 20
309.099976
 30
0.0
 11
285.8302
 21
309.099976
 31
0.0
  0
ARC
  5
4BA
330
1F
100
AcDbEntity
  8
0
 62
     7
100
AcDbCircle
 10
285.807007
 20
330.549988
 30
0.0
 40
0.5
100
AcDbArc
 50
90.000003
 51
180.000009
  0
ARC
  5
4BB
330
1F
100
AcDbEntity
  8
0
 62
     7
100
AcDbCircle
 10
180.806976
 20
306.450012
 30
0.0
 40
0.5
100
AcDbArc
 50
269.999997
 51
360.0
  0
ARC
  5
4BC
330
1F
100
AcDbEntity
  8
0
 62
     7
100
AcDbCircle
 10
298.807007
 20
306.450012
 30
0.0
 40
0.5
100
AcDbArc
 50
180.000009
 51
269.999997
  0
ARC
  5
4BD
330
1F
100
AcDbEntity
  8
0
 62
     7
100
AcDbCircle
 10
284.807007
 20
330.549988
 30
0.0
 40
0.5
100
AcDbArc
 50
269.999997
 51
360.0
  0
LINE
  5
4BE
330
1F
100
AcDbEntity
  8
0
 62
     7
100
AcDbLine
 10
187.20697
 20
330.049988
 30
0.0
 11
186.806976
 21
330.049988
 31
0.0
  0
LINE
  5
4BF
330
1F
100
AcDbEntity
  8
0
 62
     7
100
AcDbLine
 10
187.20697
 20
330.049988
 30
0.0
 11
187.306976
 21
330.049988
 31
0.0
  0
ARC
  5
4C0
330
1F
100
AcDbEntity
  8
0
 62
     7
100
AcDbCircle
 10
270.807007
 20
329.75
 30
0.0
 40
0.300000011920929
100
AcDbArc
 50
90.000003
 51
180.000009
  0
ARC
  5
4C1
330
1F
100
AcDbEntity
  8
0
 62
     7
100
AcDbCircle
 10
265.807007
 20
329.75
 30
0.0
 40
0.300000011920929
100
AcDbArc
 50
0.0
 51
90.000003
  0
ARC
  5
4C2
330
1F
100
AcDbEntity
  8
0
 62
     7
100
AcDbCircle
 10
191.806976
 20
329.75
 30
0.0
 40
0.300000011920929
100
AcDbArc
 50
90.000003
 51
180.000009
  0
ARC
  5
4C3
330
1F
100
AcDbEntity
  8
0
 62
     7
100
AcDbCircle
 10
189.306976
 20
328.549988
 30
0.0
 40
2.700000047683716
100
AcDbArc
 50
285.680336
 51
352.233566
  0
CIRCLE
  5
4C4
330
1F
100
AcDbEntity
  8
0
 62
     7
100
AcDbCircle
 10
199.306976
 20
321.650024
 30
0.0
 40
4.5
  0
ARC
  5
4C5
330
1F
100
AcDbEntity
  8
0
 62
     7
100
AcDbCircle
 10
186.806976
 20
329.75
 30
0.0
 40
0.300000011920929
100
AcDbArc
 50
0.0
 51
90.000003
  0
ARC
  5
4C6
330
1F
100
AcDbEntity
  8
0
 62
     7
100
AcDbCircle
 10
186.306976
 20
330.549988
 30
0.0
 40
0.5
100
AcDbArc
 50
180.000009
 51
269.999997
  0
ARC
  5
4C7
330
1F
100
AcDbEntity
  8
0
 62
     7
100
AcDbCircle
 10
185.306976
 20
330.549988
 30
0.0
 40
0.5
100
AcDbArc
 50
0.0
 51
90.000003
  0
ARC
  5
4C8
330
1F
100
AcDbEntity
  8
0
 62
     7
100
AcDbCircle
 10
176.806976
 20
330.549988
 30
0.0
 40
0.5
100
AcDbArc
 50
90.000003
 51
180.000009
  0
ARC
  5
4C9
330
1F
100
AcDbEntity
  8
0
 62
     7
100
AcDbCircle
 10
175.806976
 20
330.549988
 30
0.0
 40
0.5
100
AcDbArc
 50
269.999997
 51
360.0
  0
CIRCLE
  5
4CA
330
1F
100
AcDbEntity
  8
0
 62
     7
100
AcDbCircle
 10
255.306976
 20
321.650024
 30
0.0
 40
4.5
  0
LINE
  5
4CB
330
1F
100
AcDbEntity
  8
0
 62
     7
100
AcDbLine
 10
175.506973
 20
330.049988
 30
0.0
 11
175.506973
 21
330.150024
 31
0.0
  0
LINE
  5
4CC
330
1F
100
AcDbEntity
  8
0
 62
     7
100
AcDbLine
 10
297.256989
 20
308.849976
 30
0.0
 11
298.256989
 21
308.849976
 31
0.0
  0
LINE
  5
4CD
330
1F
100
AcDbEntity
  8
0
 62
     7
100
AcDbLine
 10
297.256989
 20
308.849976
 30
0.0
 11
285.8302
 21
308.849976
 31
0.0
  0
LINE
  5
4CE
330
1F
100
AcDbEntity
  8
0
 62
     7
100
AcDbLine
 10
282.783783
 20
308.849976
 30
0.0
 11
196.830185
 21
308.849976
 31
0.0
  0
LINE
  5
4CF
330
1F
100
AcDbEntity
  8
0
 62
     7
100
AcDbLine
 10
193.783768
 20
308.849976
 30
0.0
 11
182.356979
 21
308.849976
 31
0.0
  0
LINE
  5
4D0
330
1F
100
AcDbEntity
  8
0
 62
     7
100
AcDbLine
 10
181.356979
 20
308.849976
 30
0.0
 11
182.356979
 21
308.849976
 31
0.0
  0
LINE
  5
4D1
330
1F
100
AcDbEntity
  8
0
 62
     7
100
AcDbLine
 10
297.256989
 20
306.349976
 30
0.0
 11
182.356979
 21
306.349976
 31
0.0
  0
LINE
  5
4D2
330
1F
100
AcDbEntity
  8
0
 62
     7
100
AcDbLine
 10
187.306976
 20
328.549988
 30
0.0
 11
187.306976
 21
330.549988
 31
0.0
  0
LINE
  5
4D3
330
1F
100
AcDbEntity
  8
0
 62
     7
100
AcDbLine
 10
187.306976
 20
331.049988
 30
0.0
 11
187.306976
 21
330.549988
 31
0.0
  0
LINE
  5
4D4
330
1F
100
AcDbEntity
  8
0
 62
     7
100
AcDbLine
 10
187.306976
 20
332.049988
 30
0.0
 11
187.306976
 21
331.049988
 31
0.0
  0
LINE
  5
4D5
330
1F
100
AcDbEntity
  8
0
 62
     7
100
AcDbLine
 10
283.807007
 20
330.049988
 30
0.0
 11
283.807007
 21
330.549988
 31
0.0
  0
LINE
  5
4D6
330
1F
100
AcDbEntity
  8
0
 62
     7
100
AcDbLine
 10
283.807007
 20
331.049988
 30
0.0
 11
283.807007
 21
330.549988
 31
0.0
  0
LINE
  5
4D7
330
1F
100
AcDbEntity
  8
0
 62
     7
100
AcDbLine
 10
283.807007
 20
332.049988
 30
0.0
 11
283.807007
 21
331.049988
 31
0.0
  0
ARC
  5
4D8
330
1F
100
AcDbEntity
  8
0
 62
     7
100
AcDbCircle
 10
189.306976
 20
328.549988
 30
0.0
 40
2.0
100
AcDbArc
 50
180.000009
 51
360.0
  0
LINE
  5
4D9
330
1F
100
AcDbEntity
  8
0
 62
     7
100
AcDbLine
 10
191.306976
 20
328.549988
 30
0.0
 11
191.306976
 21
330.049988
 31
0.0
  0
LINE
  5
4DA
330
1F
100
AcDbEntity
  8
0
 62
     7
100
AcDbLine
 10
191.806976
 20
330.049988
 30
0.0
 11
191.306976
 21
330.049988
 31
0.0
  0
LINE
  5
4DB
330
1F
100
AcDbEntity
  8
0
 62
     7
100
AcDbLine
 10
266.307007
 20
330.049988
 30
0.0
 11
265.807007
 21
330.049988
 31
0.0
  0
LINE
  5
4DC
330
1F
100
AcDbEntity
  8
0
 62
     7
100
AcDbLine
 10
266.307007
 20
328.549988
 30
0.0
 11
266.307007
 21
330.049988
 31
0.0
  0
ARC
  5
4DD
330
1F
100
AcDbEntity
  8
0
 62
     7
100
AcDbCircle
 10
268.307007
 20
328.549988
 30
0.0
 40
2.0
100
AcDbArc
 50
180.000009
 51
360.0
  0
LINE
  5
4DE
330
1F
100
AcDbEntity
  8
0
 62
     7
100
AcDbLine
 10
270.307007
 20
328.549988
 30
0.0
 11
270.307007
 21
330.049988
 31
0.0
  0
LINE
  5
4DF
330
1F
100
AcDbEntity
  8
0
 62
     7
100
AcDbLine
 10
270.807007
 20
330.049988
 30
0.0
 11
270.307007
 21
330.049988
 31
0.0
  0
LINE
  5
4E0
330
1F
100
AcDbEntity
  8
0
 62
     7
100
AcDbLine
 10
181.356979
 20
306.349976
 30
0.0
 11
181.356979
 21
308.849976
 31
0.0
  0
LINE
  5
4E1
330
1F
100
AcDbEntity
  8
0
 62
     7
100
AcDbLine
 10
298.256989
 20
306.349976
 30
0.0
 11
298.256989
 21
308.849976
 31
0.0
  0
LINE
  5
4E2
330
1F
100
AcDbEntity
  8
0
 62
     7
100
AcDbLine
 10
297.256989
 20
306.349976
 30
0.0
 11
298.256989
 21
306.349976
 31
0.0
  0
LINE
  5
4E3
330
1F
100
AcDbEntity
  8
0
 62
     7
100
AcDbLine
 10
181.356979
 20
306.349976
 30
0.0
 11
182.356979
 21
306.349976
 31
0.0
  0
LINE
  5
4E4
330
1F
100
AcDbEntity
  8
0
 62
     7
100
AcDbLine
 10
283.807007
 20
331.049988
 30
0.0
 11
187.306976
 21
331.049988
 31
0.0
  0
CIRCLE
  5
4E5
330
1F
100
AcDbEntity
  8
0
 62
     7
100
AcDbCircle
 10
199.306976
 20
321.650024
 30
0.0
 40
4.0
  0
CIRCLE
  5
4E6
330
1F
100
AcDbEntity
  8
0
 62
     7
100
AcDbCircle
 10
255.306976
 20
321.650024
 30
0.0
 40
4.0
  0
LINE
  5
4E7
330
1F
100
AcDbEntity
  8
0
 62
     7
100
AcDbLine
 10
175.20697
 20
330.400024
 30
0.0
 11
175.20697
 21
330.049927
 31
0.0
  0
CIRCLE
  5
4E8
330
1F
100
AcDbEntity
  8
0
 62
     7
100
AcDbCircle
 10
268.307007
 20
328.549988
 30
0.0
 40
1.475000023841858
  0
CIRCLE
  5
4E9
330
1F
100
AcDbEntity
  8
0
 62
     7
100
AcDbCircle
 10
189.306976
 20
328.549988
 30
0.0
 40
1.475000023841858
  0
LINE
  5
4EA
330
1F
100
AcDbEntity
  8
0
 62
     7
100
AcDbLine
 10
174.606979
 20
330.400024
 30
0.0
 11
174.606979
 21
330.343262
 31
0.0
  0
LINE
  5
4EB
330
1F
100
AcDbEntity
  8
0
 62
     7
100
AcDbLine
 10
173.606979
 20
330.343262
 30
0.0
 11
174.606979
 21
330.343262
 31
0.0
  0
LINE
  5
4EC
330
1F
100
AcDbEntity
  8
0
 62
     7
100
AcDbLine
 10
173.606979
 20
330.343262
 30
0.0
 11
173.606979
 21
330.009216
 31
0.0
  0
LINE
  5
4ED
330
1F
100
AcDbEntity
  8
0
 62
     7
100
AcDbLine
 10
175.20697
 20
330.400024
 30
0.0
 11
174.606979
 21
330.400024
 31
0.0
  0
LINE
  5
4EE
330
1F
100
AcDbEntity
  8
0
 62
     7
100
AcDbLine
 10
173.606979
 20
330.343262
 30
0.0
 11
174.606979
 21
330.343262
 31
0.0
  0
CIRCLE
  5
4EF
330
1F
100
AcDbEntity
  8
0
 62
     7
100
AcDbCircle
 10
199.306976
 20
321.650024
 30
0.0
 40
2.549999952316284
  0
CIRCLE
  5
4F0
330
1F
100
AcDbEntity
  8
0
 62
     7
100
AcDbCircle
 10
255.306976
 20
321.650024
 30
0.0
 40
2.549999952316284
  0
LINE
  5
4F1
330
1F
100
AcDbEntity
  8
0
 62
     7
100
AcDbLine
 10
173.406982
 20
330.140015
 30
0.0
 11
173.606979
 21
330.343262
 31
0.0
  0
LINE
  5
4F2
330
1F
100
AcDbEntity
  8
0
 62
     7
100
AcDbLine
 10
173.406982
 20
330.140015
 30
0.0
 11
173.406982
 21
329.849854
 31
0.0
  0
LINE
  5
4F3
330
1F
100
AcDbEntity
  8
0
 62
     7
100
AcDbLine
 10
268.106995
 20
329.650024
 30
0.0
 11
268.506989
 21
329.650024
 31
0.0
  0
LINE
  5
4F4
330
1F
100
AcDbEntity
  8
0
 62
     7
100
AcDbLine
 10
268.106995
 20
329.650024
 30
0.0
 11
268.106995
 21
329.0
 31
0.0
  0
ARC
  5
4F5
330
1F
100
AcDbEntity
  8
0
 62
     7
100
AcDbCircle
 10
267.856995
 20
329.0
 30
0.0
 40
0.25
100
AcDbArc
 50
269.999997
 51
360.0
  0
LINE
  5
4F6
330
1F
100
AcDbEntity
  8
0
 62
     7
100
AcDbLine
 10
267.856995
 20
328.75
 30
0.0
 11
267.207001
 21
328.75
 31
0.0
  0
LINE
  5
4F7
330
1F
100
AcDbEntity
  8
0
 62
     7
100
AcDbLine
 10
267.207001
 20
328.75
 30
0.0
 11
267.207001
 21
328.349976
 31
0.0
  0
LINE
  5
4F8
330
1F
100
AcDbEntity
  8
0
 62
     7
100
AcDbLine
 10
267.856995
 20
328.349976
 30
0.0
 11
267.207001
 21
328.349976
 31
0.0
  0
ARC
  5
4F9
330
1F
100
AcDbEntity
  8
0
 62
     7
100
AcDbCircle
 10
267.856995
 20
328.099976
 30
0.0
 40
0.25
100
AcDbArc
 50
0.0
 51
90.000003
  0
LINE
  5
4FA
330
1F
100
AcDbEntity
  8
0
 62
     7
100
AcDbLine
 10
268.106995
 20
327.450012
 30
0.0
 11
268.106995
 21
328.099976
 31
0.0
  0
LINE
  5
4FB
330
1F
100
AcDbEntity
  8
0
 62
     7
100
AcDbLine
 10
268.106995
 20
327.450012
 30
0.0
 11
268.506989
 21
327.450012
 31
0.0
  0
LINE
  5
4FC
330
1F
100
AcDbEntity
  8
0
 62
     7
100
AcDbLine
 10
268.506989
 20
327.450012
 30
0.0
 11
268.506989
 21
328.099976
 31
0.0
  0
ARC
  5
4FD
330
1F
100
AcDbEntity
  8
0
 62
     7
100
AcDbCircle
 10
268.756989
 20
328.099976
 30
0.0
 40
0.25
100
AcDbArc
 50
90.000003
 51
180.000009
  0
LINE
  5
4FE
330
1F
100
AcDbEntity
  8
0
 62
     7
100
AcDbLine
 10
268.756989
 20
328.349976
 30
0.0
 11
269.407013
 21
328.349976
 31
0.0
  0
LINE
  5
4FF
330
1F
100
AcDbEntity
  8
0
 62
     7
100
AcDbLine
 10
269.407013
 20
328.75
 30
0.0
 11
269.407013
 21
328.349976
 31
0.0
  0
LINE
  5
500
330
1F
100
AcDbEntity
  8
0
 62
     7
100
AcDbLine
 10
268.756989
 20
328.75
 30
0.0
 11
269.407013
 21
328.75
 31
0.0
  0
ARC
  5
501
330
1F
100
AcDbEntity
  8
0
 62
     7
100
AcDbCircle
 10
268.756989
 20
329.0
 30
0.0
 40
0.25
100
AcDbArc
 50
180.000009
 51
269.999997
  0
LINE
  5
502
330
1F
100
AcDbEntity
  8
0
 62
     7
100
AcDbLine
 10
268.506989
 20
329.650024
 30
0.0
 11
268.506989
 21
329.0
 31
0.0
  0
LINE
  5
503
330
1F
100
AcDbEntity
  8
0
 62
     7
100
AcDbLine
 10
189.106979
 20
329.650024
 30
0.0
 11
189.506973
 21
329.650024
 31
0.0
  0
LINE
  5
504
330
1F
100
AcDbEntity
  8
0
 62
     7
100
AcDbLine
 10
189.106979
 20
329.650024
 30
0.0
 11
189.106979
 21
329.0
 31
0.0
  0
ARC
  5
505
330
1F
100
AcDbEntity
  8
0
 62
     7
100
AcDbCircle
 10
188.856979
 20
329.0
 30
0.0
 40
0.25
100
AcDbArc
 50
269.999997
 51
360.0
  0
LINE
  5
506
330
1F
100
AcDbEntity
  8
0
 62
     7
100
AcDbLine
 10
188.856979
 20
328.75
 30
0.0
 11
188.20697
 21
328.75
 31
0.0
  0
LINE
  5
507
330
1F
100
AcDbEntity
  8
0
 62
     7
100
AcDbLine
 10
188.20697
 20
328.75
 30
0.0
 11
188.20697
 21
328.349976
 31
0.0
  0
LINE
  5
508
330
1F
100
AcDbEntity
  8
0
 62
     7
100
AcDbLine
 10
188.856979
 20
328.349976
 30
0.0
 11
188.20697
 21
328.349976
 31
0.0
  0
ARC
  5
509
330
1F
100
AcDbEntity
  8
0
 62
     7
100
AcDbCircle
 10
188.856979
 20
328.099976
 30
0.0
 40
0.25
100
AcDbArc
 50
0.0
 51
90.000003
  0
LINE
  5
50A
330
1F
100
AcDbEntity
  8
0
 62
     7
100
AcDbLine
 10
189.106979
 20
327.450012
 30
0.0
 11
189.106979
 21
328.099976
 31
0.0
  0
LINE
  5
50B
330
1F
100
AcDbEntity
  8
0
 62
     7
100
AcDbLine
 10
189.106979
 20
327.450012
 30
0.0
 11
189.506973
 21
327.450012
 31
0.0
  0
LINE
  5
50C
330
1F
100
AcDbEntity
  8
0
 62
     7
100
AcDbLine
 10
189.506973
 20
327.450012
 30
0.0
 11
189.506973
 21
328.099976
 31
0.0
  0
ARC
  5
50D
330
1F
100
AcDbEntity
  8
0
 62
     7
100
AcDbCircle
 10
189.756973
 20
328.099976
 30
0.0
 40
0.25
100
AcDbArc
 50
90.000003
 51
180.000009
  0
LINE
  5
50E
330
1F
100
AcDbEntity
  8
0
 62
     7
100
AcDbLine
 10
189.756973
 20
328.349976
 30
0.0
 11
190.406982
 21
328.349976
 31
0.0
  0
LINE
  5
50F
330
1F
100
AcDbEntity
  8
0
 62
     7
100
AcDbLine
 10
190.406982
 20
328.75
 30
0.0
 11
190.406982
 21
328.349976
 31
0.0
  0
LINE
  5
510
330
1F
100
AcDbEntity
  8
0
 62
     7
100
AcDbLine
 10
189.756973
 20
328.75
 30
0.0
 11
190.406982
 21
328.75
 31
0.0
  0
ARC
  5
511
330
1F
100
AcDbEntity
  8
0
 62
     7
100
AcDbCircle
 10
189.756973
 20
329.0
 30
0.0
 40
0.25
100
AcDbArc
 50
180.000009
 51
269.999997
  0
LINE
  5
512
330
1F
100
AcDbEntity
  8
0
 62
     7
100
AcDbLine
 10
189.506973
 20
329.650024
 30
0.0
 11
189.506973
 21
329.0
 31
0.0
  0
LINE
  5
513
330
1F
100
AcDbEntity
  8
0
 62
     7
100
AcDbLine
 10
65.306992
 20
230.150009
 30
0.0
 11
61.90699
 21
230.150009
 31
0.0
  0
LINE
  5
514
330
1F
100
AcDbEntity
  8
0
 62
     7
100
AcDbLine
 10
68.706993
 20
230.150009
 30
0.0
 11
65.306992
 21
230.150009
 31
0.0
  0
LINE
  5
515
330
1F
100
AcDbEntity
  8
0
 62
     7
100
AcDbLine
 10
143.70697
 20
311.75
 30
0.0
 11
143.70697
 21
311.599976
 31
0.0
  0
LINE
  5
516
330
1F
100
AcDbEntity
  8
0
 62
     7
100
AcDbLine
 10
141.506973
 20
311.75
 30
0.0
 11
141.506973
 21
311.599976
 31
0.0
  0
LINE
  5
517
330
1F
100
AcDbEntity
  8
0
 62
     7
100
AcDbLine
 10
139.306976
 20
311.743042
 30
0.0
 11
139.306976
 21
311.599976
 31
0.0
  0
LINE
  5
518
330
1F
100
AcDbEntity
  8
0
 62
     7
100
AcDbLine
 10
144.70697
 20
310.4375
 30
0.0
 11
144.70697
 21
314.150024
 31
0.0
  0
LINE
  5
519
330
1F
100
AcDbEntity
  8
0
 62
     7
100
AcDbLine
 10
143.70697
 20
314.150024
 30
0.0
 11
144.70697
 21
314.150024
 31
0.0
  0
LINE
  5
51A
330
1F
100
AcDbEntity
  8
0
 62
     7
100
AcDbLine
 10
143.70697
 20
314.150024
 30
0.0
 11
143.70697
 21
310.5
 31
0.0
  0
LINE
  5
51B
330
1F
100
AcDbEntity
  8
0
 62
     7
100
AcDbLine
 10
142.506973
 20
310.575012
 30
0.0
 11
142.506973
 21
314.150024
 31
0.0
  0
LINE
  5
51C
330
1F
100
AcDbEntity
  8
0
 62
     7
100
AcDbLine
 10
141.506973
 20
314.150024
 30
0.0
 11
142.506973
 21
314.150024
 31
0.0
  0
LINE
  5
51D
330
1F
100
AcDbEntity
  8
0
 62
     7
100
AcDbLine
 10
141.506973
 20
314.150024
 30
0.0
 11
141.506973
 21
310.637512
 31
0.0
  0
LINE
  5
51E
330
1F
100
AcDbEntity
  8
0
 62
     7
100
AcDbLine
 10
140.306976
 20
310.712524
 30
0.0
 11
140.306976
 21
314.150024
 31
0.0
  0
LINE
  5
51F
330
1F
100
AcDbEntity
  8
0
 62
     7
100
AcDbLine
 10
139.306976
 20
314.150024
 30
0.0
 11
140.306976
 21
314.150024
 31
0.0
  0
LINE
  5
520
330
1F
100
AcDbEntity
  8
0
 62
     7
100
AcDbLine
 10
139.306976
 20
314.150024
 30
0.0
 11
139.306976
 21
310.775024
 31
0.0
  0
LINE
  5
521
330
1F
100
AcDbEntity
  8
0
 62
     7
100
AcDbLine
 10
137.306976
 20
310.900024
 30
0.0
 11
137.306976
 21
318.8797
 31
0.0
  0
LINE
  5
522
330
1F
100
AcDbEntity
  8
0
 62
     7
100
AcDbLine
 10
137.306976
 20
318.8797
 30
0.0
 11
137.306976
 21
319.400024
 31
0.0
  0
LINE
  5
523
330
1F
100
AcDbEntity
  8
0
 62
     7
100
AcDbLine
 10
139.306976
 20
318.989441
 30
0.0
 11
139.306976
 21
316.150024
 31
0.0
  0
LINE
  5
524
330
1F
100
AcDbEntity
  8
0
 62
     7
100
AcDbLine
 10
139.306976
 20
319.525024
 30
0.0
 11
139.306976
 21
318.989441
 31
0.0
  0
LINE
  5
525
330
1F
100
AcDbEntity
  8
0
 62
     7
100
AcDbLine
 10
139.306976
 20
316.150024
 30
0.0
 11
140.306976
 21
316.150024
 31
0.0
  0
LINE
  5
526
330
1F
100
AcDbEntity
  8
0
 62
     7
100
AcDbLine
 10
140.306976
 20
319.04425
 30
0.0
 11
140.306976
 21
319.587524
 31
0.0
  0
LINE
  5
527
330
1F
100
AcDbEntity
  8
0
 62
     7
100
AcDbLine
 10
140.306976
 20
316.150024
 30
0.0
 11
140.306976
 21
319.04425
 31
0.0
  0
LINE
  5
528
330
1F
100
AcDbEntity
  8
0
 62
     7
100
AcDbLine
 10
141.506973
 20
319.110107
 30
0.0
 11
141.506973
 21
316.150024
 31
0.0
  0
LINE
  5
529
330
1F
100
AcDbEntity
  8
0
 62
     7
100
AcDbLine
 10
141.506973
 20
319.662476
 30
0.0
 11
141.506973
 21
319.110107
 31
0.0
  0
LINE
  5
52A
330
1F
100
AcDbEntity
  8
0
 62
     7
100
AcDbLine
 10
141.506973
 20
316.150024
 30
0.0
 11
142.506973
 21
316.150024
 31
0.0
  0
LINE
  5
52B
330
1F
100
AcDbEntity
  8
0
 62
     7
100
AcDbLine
 10
142.506973
 20
319.164917
 30
0.0
 11
142.506973
 21
319.724976
 31
0.0
  0
LINE
  5
52C
330
1F
100
AcDbEntity
  8
0
 62
     7
100
AcDbLine
 10
142.506973
 20
316.150024
 30
0.0
 11
142.506973
 21
319.164917
 31
0.0
  0
LINE
  5
52D
330
1F
100
AcDbEntity
  8
0
 62
     7
100
AcDbLine
 10
143.70697
 20
319.230774
 30
0.0
 11
143.70697
 21
316.150024
 31
0.0
  0
LINE
  5
52E
330
1F
100
AcDbEntity
  8
0
 62
     7
100
AcDbLine
 10
143.70697
 20
319.799988
 30
0.0
 11
143.70697
 21
319.230774
 31
0.0
  0
LINE
  5
52F
330
1F
100
AcDbEntity
  8
0
 62
     7
100
AcDbLine
 10
143.70697
 20
316.150024
 30
0.0
 11
144.70697
 21
316.150024
 31
0.0
  0
LINE
  5
530
330
1F
100
AcDbEntity
  8
0
 62
     7
100
AcDbLine
 10
144.70697
 20
319.285583
 30
0.0
 11
144.70697
 21
319.862488
 31
0.0
  0
LINE
  5
531
330
1F
100
AcDbEntity
  8
0
 62
     7
100
AcDbLine
 10
144.70697
 20
316.150024
 30
0.0
 11
144.70697
 21
319.285583
 31
0.0
  0
LINE
  5
532
330
1F
100
AcDbEntity
  8
0
 62
     7
100
AcDbLine
 10
149.306976
 20
319.537903
 30
0.0
 11
149.306976
 21
320.150024
 31
0.0
  0
LINE
  5
533
330
1F
100
AcDbEntity
  8
0
 62
     7
100
AcDbLine
 10
149.306976
 20
310.150024
 30
0.0
 11
149.306976
 21
319.537903
 31
0.0
  0
LINE
  5
534
330
1F
100
AcDbEntity
  8
0
 62
     7
100
AcDbLine
 10
150.306976
 20
319.801208
 30
0.0
 11
150.306976
 21
320.450012
 31
0.0
  0
LINE
  5
535
330
1F
100
AcDbEntity
  8
0
 62
     7
100
AcDbLine
 10
150.306976
 20
309.849976
 30
0.0
 11
150.306976
 21
319.801208
 31
0.0
  0
LINE
  5
536
330
1F
100
AcDbEntity
  8
0
 62
     7
100
AcDbLine
 10
155.306976
 20
309.25
 30
0.0
 11
155.306976
 21
312.321411
 31
0.0
  0
LINE
  5
537
330
1F
100
AcDbEntity
  8
0
 62
     7
100
AcDbLine
 10
155.306976
 20
312.321411
 30
0.0
 11
155.306976
 21
321.049988
 31
0.0
  0
LINE
  5
538
330
1F
100
AcDbEntity
  8
0
 62
     7
100
AcDbLine
 10
155.538147
 20
308.849976
 30
0.0
 11
155.538147
 21
308.993408
 31
0.0
  0
ARC
  5
539
330
1F
100
AcDbEntity
  8
0
 62
     7
100
AcDbCircle
 10
158.052567
 20
309.953857
 30
0.0
 40
2.691781044006348
100
AcDbArc
 50
159.093943
 51
200.906016
  0
LINE
  5
53A
330
1F
100
AcDbEntity
  8
0
 62
     7
100
AcDbLine
 10
155.538147
 20
312.129639
 30
0.0
 11
155.538147
 21
310.914307
 31
0.0
  0
LINE
  5
53B
330
1F
100
AcDbEntity
  8
0
 62
     7
100
AcDbLine
 10
155.538147
 20
312.129639
 30
0.0
 11
155.538147
 21
313.229065
 31
0.0
  0
ARC
  5
53C
330
1F
100
AcDbEntity
  8
0
 62
     7
100
AcDbCircle
 10
165.864471
 20
315.150024
 30
0.0
 40
10.50419235229492
100
AcDbArc
 50
169.462089
 51
190.537884
  0
LINE
  5
53D
330
1F
100
AcDbEntity
  8
0
 62
     7
100
AcDbLine
 10
155.538147
 20
317.070923
 30
0.0
 11
155.538147
 21
319.385681
 31
0.0
  0
ARC
  5
53E
330
1F
100
AcDbEntity
  8
0
 62
     7
100
AcDbCircle
 10
158.052567
 20
320.34613
 30
0.0
 40
2.691781044006348
100
AcDbArc
 50
159.093943
 51
200.906016
  0
LINE
  5
53F
330
1F
100
AcDbEntity
  8
0
 62
     7
100
AcDbLine
 10
155.538147
 20
321.306641
 30
0.0
 11
155.538147
 21
321.450012
 31
0.0
  0
LINE
  5
540
330
1F
100
AcDbEntity
  8
0
 62
     7
100
AcDbLine
 10
162.306976
 20
308.849976
 30
0.0
 11
162.306976
 21
308.993408
 31
0.0
  0
LINE
  5
541
330
1F
100
AcDbEntity
  8
0
 62
     7
100
AcDbLine
 10
155.538147
 20
308.993408
 30
0.0
 11
162.306976
 21
308.993408
 31
0.0
  0
LINE
  5
542
330
1F
100
AcDbEntity
  8
0
 62
     7
100
AcDbLine
 10
155.538147
 20
310.914307
 30
0.0
 11
162.306976
 21
310.914307
 31
0.0
  0
LINE
  5
543
330
1F
100
AcDbEntity
  8
0
 62
     7
100
AcDbLine
 10
162.306976
 20
310.914307
 30
0.0
 11
162.306976
 21
313.229065
 31
0.0
  0
LINE
  5
544
330
1F
100
AcDbEntity
  8
0
 62
     7
100
AcDbLine
 10
155.538147
 20
313.229065
 30
0.0
 11
162.306976
 21
313.229065
 31
0.0
  0
LINE
  5
545
330
1F
100
AcDbEntity
  8
0
 62
     7
100
AcDbLine
 10
155.538147
 20
317.070923
 30
0.0
 11
162.306976
 21
317.070923
 31
0.0
  0
LINE
  5
546
330
1F
100
AcDbEntity
  8
0
 62
     7
100
AcDbLine
 10
162.306976
 20
317.070923
 30
0.0
 11
162.306976
 21
319.385681
 31
0.0
  0
LINE
  5
547
330
1F
100
AcDbEntity
  8
0
 62
     7
100
AcDbLine
 10
155.538147
 20
319.385681
 30
0.0
 11
162.306976
 21
319.385681
 31
0.0
  0
LINE
  5
548
330
1F
100
AcDbEntity
  8
0
 62
     7
100
AcDbLine
 10
155.538147
 20
321.306641
 30
0.0
 11
162.306976
 21
321.306641
 31
0.0
  0
LINE
  5
549
330
1F
100
AcDbEntity
  8
0
 62
     7
100
AcDbLine
 10
162.306976
 20
321.306641
 30
0.0
 11
162.306976
 21
321.450012
 31
0.0
  0
ARC
  5
54A
330
1F
100
AcDbEntity
  8
0
 62
     7
100
AcDbCircle
 10
210.617722
 20
352.40387
 30
0.0
 40
64.901611328125
100
AcDbArc
 50
221.89505
 51
222.55191
  0
LINE
  5
54B
330
1F
100
AcDbEntity
  8
0
 62
     7
100
AcDbLine
 10
162.306976
 20
309.064697
 30
0.0
 11
162.306976
 21
308.993408
 31
0.0
  0
LINE
  5
54C
330
1F
100
AcDbEntity
  8
0
 62
     7
100
AcDbLine
 10
162.806976
 20
308.349976
 30
0.0
 11
162.806976
 21
308.513672
 31
0.0
  0
LINE
  5
54D
330
1F
100
AcDbEntity
  8
0
 62
     7
100
AcDbLine
 10
162.306976
 20
310.695251
 30
0.0
 11
162.306976
 21
309.064697
 31
0.0
  0
LINE
  5
54E
330
1F
100
AcDbEntity
  8
0
 62
     7
100
AcDbLine
 10
162.306976
 20
310.914307
 30
0.0
 11
162.306976
 21
310.695251
 31
0.0
  0
LINE
  5
54F
330
1F
100
AcDbEntity
  8
0
 62
     7
100
AcDbLine
 10
162.306976
 20
313.51947
 30
0.0
 11
162.306976
 21
313.229065
 31
0.0
  0
LINE
  5
550
330
1F
100
AcDbEntity
  8
0
 62
     7
100
AcDbLine
 10
162.306976
 20
310.695251
 30
0.0
 11
162.806976
 21
310.547607
 31
0.0
  0
LINE
  5
551
330
1F
100
AcDbEntity
  8
0
 62
     7
100
AcDbLine
 10
162.806976
 20
310.547607
 30
0.0
 11
162.806976
 21
313.116089
 31
0.0
  0
LINE
  5
552
330
1F
100
AcDbEntity
  8
0
 62
     7
100
AcDbLine
 10
162.306976
 20
313.51947
 30
0.0
 11
162.806976
 21
313.116089
 31
0.0
  0
LINE
  5
553
330
1F
100
AcDbEntity
  8
0
 62
     7
100
AcDbLine
 10
162.306976
 20
316.780579
 30
0.0
 11
162.306976
 21
313.51947
 31
0.0
  0
LINE
  5
554
330
1F
100
AcDbEntity
  8
0
 62
     7
100
AcDbLine
 10
162.306976
 20
316.780579
 30
0.0
 11
162.306976
 21
317.070923
 31
0.0
  0
LINE
  5
555
330
1F
100
AcDbEntity
  8
0
 62
     7
100
AcDbLine
 10
162.806976
 20
317.183899
 30
0.0
 11
162.806976
 21
319.752441
 31
0.0
  0
LINE
  5
556
330
1F
100
AcDbEntity
  8
0
 62
     7
100
AcDbLine
 10
162.306976
 20
319.604797
 30
0.0
 11
162.806976
 21
319.752441
 31
0.0
  0
LINE
  5
557
330
1F
100
AcDbEntity
  8
0
 62
     7
100
AcDbLine
 10
162.306976
 20
319.385681
 30
0.0
 11
162.306976
 21
319.604797
 31
0.0
  0
LINE
  5
558
330
1F
100
AcDbEntity
  8
0
 62
     7
100
AcDbLine
 10
162.306976
 20
316.780579
 30
0.0
 11
162.806976
 21
317.183899
 31
0.0
  0
LINE
  5
559
330
1F
100
AcDbEntity
  8
0
 62
     7
100
AcDbLine
 10
162.306976
 20
321.235352
 30
0.0
 11
162.306976
 21
319.604797
 31
0.0
  0
LINE
  5
55A
330
1F
100
AcDbEntity
  8
0
 62
     7
100
AcDbLine
 10
162.306976
 20
321.306641
 30
0.0
 11
162.306976
 21
321.235352
 31
0.0
  0
ARC
  5
55B
330
1F
100
AcDbEntity
  8
0
 62
     7
100
AcDbCircle
 10
210.617722
 20
277.896118
 30
0.0
 40
64.901611328125
100
AcDbArc
 50
137.44809
 51
138.10495
  0
LINE
  5
55C
330
1F
100
AcDbEntity
  8
0
 62
     7
100
AcDbLine
 10
162.806976
 20
321.786316
 30
0.0
 11
162.806976
 21
321.950012
 31
0.0
  0
LINE
  5
55D
330
1F
100
AcDbEntity
  8
0
 62
     7
100
AcDbLine
 10
172.306976
 20
321.235352
 30
0.0
 11
172.306976
 21
321.450012
 31
0.0
  0
LINE
  5
55E
330
1F
100
AcDbEntity
  8
0
 62
     7
100
AcDbLine
 10
162.306976
 20
316.780579
 30
0.0
 11
172.306976
 21
316.780579
 31
0.0
  0
LINE
  5
55F
330
1F
100
AcDbEntity
  8
0
 62
     7
100
AcDbLine
 10
162.306976
 20
313.51947
 30
0.0
 11
172.306976
 21
313.51947
 31
0.0
  0
LINE
  5
560
330
1F
100
AcDbEntity
  8
0
 62
     7
100
AcDbLine
 10
172.306976
 20
310.695251
 30
0.0
 11
172.306976
 21
313.51947
 31
0.0
  0
LINE
  5
561
330
1F
100
AcDbEntity
  8
0
 62
     7
100
AcDbLine
 10
162.306976
 20
309.064697
 30
0.0
 11
172.306976
 21
309.064697
 31
0.0
  0
LINE
  5
562
330
1F
100
AcDbEntity
  8
0
 62
     7
100
AcDbLine
 10
172.306976
 20
308.849976
 30
0.0
 11
172.306976
 21
309.064697
 31
0.0
  0
LINE
  5
563
330
1F
100
AcDbEntity
  8
0
 62
     7
100
AcDbLine
 10
162.806976
 20
308.513672
 30
0.0
 11
171.806976
 21
308.513672
 31
0.0
  0
ARC
  5
564
330
1F
100
AcDbEntity
  8
0
 62
     7
100
AcDbCircle
 10
123.996231
 20
352.40387
 30
0.0
 40
64.901611328125
100
AcDbArc
 50
317.448096
 51
318.104941
  0
LINE
  5
565
330
1F
100
AcDbEntity
  8
0
 62
     7
100
AcDbLine
 10
171.806976
 20
308.349976
 30
0.0
 11
171.806976
 21
308.513672
 31
0.0
  0
LINE
  5
566
330
1F
100
AcDbEntity
  8
0
 62
     7
100
AcDbLine
 10
172.306976
 20
310.695251
 30
0.0
 11
171.806976
 21
310.547607
 31
0.0
  0
LINE
  5
567
330
1F
100
AcDbEntity
  8
0
 62
     7
100
AcDbLine
 10
162.806976
 20
310.547607
 30
0.0
 11
171.806976
 21
310.547607
 31
0.0
  0
LINE
  5
568
330
1F
100
AcDbEntity
  8
0
 62
     7
100
AcDbLine
 10
171.806976
 20
310.547607
 30
0.0
 11
171.806976
 21
313.116089
 31
0.0
  0
LINE
  5
569
330
1F
100
AcDbEntity
  8
0
 62
     7
100
AcDbLine
 10
162.806976
 20
313.116089
 30
0.0
 11
171.806976
 21
313.116089
 31
0.0
  0
LINE
  5
56A
330
1F
100
AcDbEntity
  8
0
 62
     7
100
AcDbLine
 10
172.306976
 20
313.51947
 30
0.0
 11
171.806976
 21
313.116089
 31
0.0
  0
LINE
  5
56B
330
1F
100
AcDbEntity
  8
0
 62
     7
100
AcDbLine
 10
171.806976
 20
317.183899
 30
0.0
 11
171.806976
 21
319.752441
 31
0.0
  0
LINE
  5
56C
330
1F
100
AcDbEntity
  8
0
 62
     7
100
AcDbLine
 10
162.806976
 20
319.752441
 30
0.0
 11
171.806976
 21
319.752441
 31
0.0
  0
LINE
  5
56D
330
1F
100
AcDbEntity
  8
0
 62
     7
100
AcDbLine
 10
162.806976
 20
317.183899
 30
0.0
 11
171.806976
 21
317.183899
 31
0.0
  0
LINE
  5
56E
330
1F
100
AcDbEntity
  8
0
 62
     7
100
AcDbLine
 10
172.306976
 20
319.604797
 30
0.0
 11
171.806976
 21
319.752441
 31
0.0
  0
LINE
  5
56F
330
1F
100
AcDbEntity
  8
0
 62
     7
100
AcDbLine
 10
172.306976
 20
316.780579
 30
0.0
 11
171.806976
 21
317.183899
 31
0.0
  0
LINE
  5
570
330
1F
100
AcDbEntity
  8
0
 62
     7
100
AcDbLine
 10
162.306976
 20
321.235352
 30
0.0
 11
172.306976
 21
321.235352
 31
0.0
  0
ARC
  5
571
330
1F
100
AcDbEntity
  8
0
 62
     7
100
AcDbCircle
 10
123.996231
 20
277.896118
 30
0.0
 40
64.901611328125
100
AcDbArc
 50
41.895052
 51
42.551911
  0
LINE
  5
572
330
1F
100
AcDbEntity
  8
0
 62
     7
100
AcDbLine
 10
162.806976
 20
321.786316
 30
0.0
 11
171.806976
 21
321.786316
 31
0.0
  0
LINE
  5
573
330
1F
100
AcDbEntity
  8
0
 62
     7
100
AcDbLine
 10
171.806976
 20
321.786316
 30
0.0
 11
171.806976
 21
321.950012
 31
0.0
  0
LINE
  5
574
330
1F
100
AcDbEntity
  8
0
 62
     7
100
AcDbLine
 10
172.306976
 20
316.780579
 30
0.0
 11
172.306976
 21
319.604797
 31
0.0
  0
LINE
  5
575
330
1F
100
AcDbEntity
  8
0
 62
     7
100
AcDbLine
 10
304.106995
 20
330.150024
 30
0.0
 11
304.407013
 21
330.150024
 31
0.0
  0
LINE
  5
576
330
1F
100
AcDbEntity
  8
0
 62
     7
100
AcDbLine
 10
196.943573
 20
309.25
 30
0.0
 11
197.030182
 21
309.099976
 31
0.0
  0
LINE
  5
577
330
1F
100
AcDbEntity
  8
0
 62
     7
100
AcDbLine
 10
193.67038
 20
309.25
 30
0.0
 11
193.583771
 21
309.099976
 31
0.0
  0
LINE
  5
578
330
1F
100
AcDbEntity
  8
0
 62
     7
100
AcDbLine
 10
282.67041
 20
309.25
 30
0.0
 11
282.583801
 21
309.099976
 31
0.0
  0
LINE
  5
579
330
1F
100
AcDbEntity
  8
0
 62
     7
100
AcDbLine
 10
285.943604
 20
309.25
 30
0.0
 11
286.030212
 21
309.099976
 31
0.0
  0
LINE
  5
57A
330
1F
100
AcDbEntity
  8
0
 62
     7
100
AcDbLine
 10
285.755768
 20
329.575623
 30
0.0
 11
285.781372
 21
329.601257
 31
0.0
  0
POLYLINE
  5
57B
330
1F
100
AcDbEntity
  8
0
 62
     7
100
AcDb2dPolyline
 66
     1
 10
0.0
 20
0.0
 30
0.0
  0
VERTEX
  5
57C
330
57B
100
AcDbEntity
  8
0
100
AcDbVertex
100
AcDb2dVertex
 10
270.993835
 20
329.582947
 30
0.0
  0
VERTEX
  5
57D
330
57B
100
AcDbEntity
  8
0
100
AcDbVertex
100
AcDb2dVertex
 10
270.99704
 20
329.57312
 30
0.0
  0
VERTEX
  5
57E
330
57B
100
AcDbEntity
  8
0
100
AcDbVertex
100
AcDb2dVertex
 10
271.00415
 20
329.557007
 30
0.0
  0
VERTEX
  5
57F
330
57B
100
AcDbEntity
  8
0
100
AcDbVertex
100
AcDb2dVertex
 10
271.007446
 20
329.550537
 30
0.0
  0
VERTEX
  5
580
330
57B
100
AcDbEntity
  8
0
100
AcDbVertex
100
AcDb2dVertex
 10
271.008087
 20
329.549072
 30
0.0
  0
VERTEX
  5
581
330
57B
100
AcDbEntity
  8
0
100
AcDbVertex
100
AcDb2dVertex
 10
270.990936
 20
329.570557
 30
0.0
  0
VERTEX
  5
582
330
57B
100
AcDbEntity
  8
0
100
AcDbVertex
100
AcDb2dVertex
 10
270.987427
 20
329.575684
 30
0.0
  0
VERTEX
  5
583
330
57B
100
AcDbEntity
  8
0
100
AcDbVertex
100
AcDb2dVertex
 10
270.989258
 20
329.574463
 30
0.0
  0
VERTEX
  5
584
330
57B
100
AcDbEntity
  8
0
100
AcDbVertex
100
AcDb2dVertex
 10
270.997986
 20
329.564209
 30
0.0
  0
VERTEX
  5
585
330
57B
100
AcDbEntity
  8
0
100
AcDbVertex
100
AcDb2dVertex
 10
271.006561
 20
329.552368
 30
0.0
  0
VERTEX
  5
586
330
57B
100
AcDbEntity
  8
0
100
AcDbVertex
100
AcDb2dVertex
 10
271.007355
 20
329.55072
 30
0.0
  0
VERTEX
  5
587
330
57B
100
AcDbEntity
  8
0
100
AcDbVertex
100
AcDb2dVertex
 10
271.007263
 20
329.549561
 30
0.0
  0
VERTEX
  5
588
330
57B
100
AcDbEntity
  8
0
100
AcDbVertex
100
AcDb2dVertex
 10
271.006256
 20
329.549683
 30
0.0
  0
VERTEX
  5
589
330
57B
100
AcDbEntity
  8
0
100
AcDbVertex
100
AcDb2dVertex
 10
271.004639
 20
329.550415
 30
0.0
  0
VERTEX
  5
58A
330
57B
100
AcDbEntity
  8
0
100
AcDbVertex
100
AcDb2dVertex
 10
270.992828
 20
329.559021
 30
0.0
  0
VERTEX
  5
58B
330
57B
100
AcDbEntity
  8
0
100
AcDbVertex
100
AcDb2dVertex
 10
270.982574
 20
329.567749
 30
0.0
  0
VERTEX
  5
58C
330
57B
100
AcDbEntity
  8
0
100
AcDbVertex
100
AcDb2dVertex
 10
270.980957
 20
329.569397
 30
0.0
  0
VERTEX
  5
58D
330
57B
100
AcDbEntity
  8
0
100
AcDbVertex
100
AcDb2dVertex
 10
270.98645
 20
329.56604
 30
0.0
  0
VERTEX
  5
58E
330
57B
100
AcDbEntity
  8
0
100
AcDbVertex
100
AcDb2dVertex
 10
271.007507
 20
329.549744
 30
0.0
  0
VERTEX
  5
58F
330
57B
100
AcDbEntity
  8
0
100
AcDbVertex
100
AcDb2dVertex
 10
271.008179
 20
329.54895
 30
0.0
  0
VERTEX
  5
590
330
57B
100
AcDbEntity
  8
0
100
AcDbVertex
100
AcDb2dVertex
 10
271.0065
 20
329.549561
 30
0.0
  0
VERTEX
  5
591
330
57B
100
AcDbEntity
  8
0
100
AcDbVertex
100
AcDb2dVertex
 10
271.0
 20
329.552856
 30
0.0
  0
VERTEX
  5
592
330
57B
100
AcDbEntity
  8
0
100
AcDbVertex
100
AcDb2dVertex
 10
270.983856
 20
329.559998
 30
0.0
  0
VERTEX
  5
593
330
57B
100
AcDbEntity
  8
0
100
AcDbVertex
100
AcDb2dVertex
 10
270.974091
 20
329.563171
 30
0.0
  0
SEQEND
  5
594
330
57B
100
AcDbEntity
  8
0
 62
     7
  0
POLYLINE
  5
595
330
1F
100
AcDbEntity
  8
0
 62
     7
100
AcDb2dPolyline
 66
     1
 10
0.0
 20
0.0
 30
0.0
  0
VERTEX
  5
596
330
595
100
AcDbEntity
  8
0
100
AcDbVertex
100
AcDb2dVertex
 10
191.993805
 20
329.582947
 30
0.0
  0
VERTEX
  5
597
330
595
100
AcDbEntity
  8
0
100
AcDbVertex
100
AcDb2dVertex
 10
191.997009
 20
329.57312
 30
0.0
  0
VERTEX
  5
598
330
595
100
AcDbEntity
  8
0
100
AcDbVertex
100
AcDb2dVertex
 10
192.004135
 20
329.557007
 30
0.0
  0
VERTEX
  5
599
330
595
100
AcDbEntity
  8
0
100
AcDbVertex
100
AcDb2dVertex
 10
192.007416
 20
329.550537
 30
0.0
  0
VERTEX
  5
59A
330
595
100
AcDbEntity
  8
0
100
AcDbVertex
100
AcDb2dVertex
 10
192.008057
 20
329.549072
 30
0.0
  0
VERTEX
  5
59B
330
595
100
AcDbEntity
  8
0
100
AcDbVertex
100
AcDb2dVertex
 10
191.990921
 20
329.570557
 30
0.0
  0
VERTEX
  5
59C
330
595
100
AcDbEntity
  8
0
100
AcDbVertex
100
AcDb2dVertex
 10
191.987396
 20
329.575684
 30
0.0
  0
VERTEX
  5
59D
330
595
100
AcDbEntity
  8
0
100
AcDbVertex
100
AcDb2dVertex
 10
191.989212
 20
329.574463
 30
0.0
  0
VERTEX
  5
59E
330
595
100
AcDbEntity
  8
0
100
AcDbVertex
100
AcDb2dVertex
 10
191.997971
 20
329.564209
 30
0.0
  0
VERTEX
  5
59F
330
595
100
AcDbEntity
  8
0
100
AcDbVertex
100
AcDb2dVertex
 10
192.006531
 20
329.552368
 30
0.0
  0
VERTEX
  5
5A0
330
595
100
AcDbEntity
  8
0
100
AcDbVertex
100
AcDb2dVertex
 10
192.007309
 20
329.55072
 30
0.0
  0
VERTEX
  5
5A1
330
595
100
AcDbEntity
  8
0
100
AcDbVertex
100
AcDb2dVertex
 10
192.007217
 20
329.549561
 30
0.0
  0
VERTEX
  5
5A2
330
595
100
AcDbEntity
  8
0
100
AcDbVertex
100
AcDb2dVertex
 10
192.004608
 20
329.550415
 30
0.0
  0
VERTEX
  5
5A3
330
595
100
AcDbEntity
  8
0
100
AcDbVertex
100
AcDb2dVertex
 10
191.992783
 20
329.559021
 30
0.0
  0
VERTEX
  5
5A4
330
595
100
AcDbEntity
  8
0
100
AcDbVertex
100
AcDb2dVertex
 10
191.982544
 20
329.567749
 30
0.0
  0
VERTEX
  5
5A5
330
595
100
AcDbEntity
  8
0
100
AcDbVertex
100
AcDb2dVertex
 10
191.980911
 20
329.569397
 30
0.0
  0
VERTEX
  5
5A6
330
595
100
AcDbEntity
  8
0
100
AcDbVertex
100
AcDb2dVertex
 10
191.986435
 20
329.56604
 30
0.0
  0
VERTEX
  5
5A7
330
595
100
AcDbEntity
  8
0
100
AcDbVertex
100
AcDb2dVertex
 10
192.007462
 20
329.549744
 30
0.0
  0
VERTEX
  5
5A8
330
595
100
AcDbEntity
  8
0
100
AcDbVertex
100
AcDb2dVertex
 10
192.008148
 20
329.54895
 30
0.0
  0
VERTEX
  5
5A9
330
595
100
AcDbEntity
  8
0
100
AcDbVertex
100
AcDb2dVertex
 10
192.006454
 20
329.549561
 30
0.0
  0
VERTEX
  5
5AA
330
595
100
AcDbEntity
  8
0
100
AcDbVertex
100
AcDb2dVertex
 10
191.999985
 20
329.552856
 30
0.0
  0
VERTEX
  5
5AB
330
595
100
AcDbEntity
  8
0
100
AcDbVertex
100
AcDb2dVertex
 10
191.983841
 20
329.559998
 30
0.0
  0
VERTEX
  5
5AC
330
595
100
AcDbEntity
  8
0
100
AcDbVertex
100
AcDb2dVertex
 10
191.97406
 20
329.563171
 30
0.0
  0
SEQEND
  5
5AD
330
595
100
AcDbEntity
  8
0
 62
     7
  0
LINE
  5
5AE
330
1F
100
AcDbEntity
  8
0
 62
     7
100
AcDbLine
 10
176.755737
 20
329.575623
 30
0.0
 11
176.781357
 21
329.601257
 31
0.0
  0
LINE
  5
5AF
330
1F
100
AcDbEntity
  8
0
 62
     7
100
AcDbLine
 10
197.030182
 20
308.849976
 30
0.0
 11
197.030182
 21
309.099976
 31
0.0
  0
LINE
  5
5B0
330
1F
100
AcDbEntity
  8
0
 62
     7
100
AcDbLine
 10
193.583771
 20
308.849976
 30
0.0
 11
193.583771
 21
309.099976
 31
0.0
  0
LINE
  5
5B1
330
1F
100
AcDbEntity
  8
0
 62
     7
100
AcDbLine
 10
282.583801
 20
309.099976
 30
0.0
 11
282.583801
 21
308.849976
 31
0.0
  0
LINE
  5
5B2
330
1F
100
AcDbEntity
  8
0
 62
     7
100
AcDbLine
 10
286.030212
 20
309.099976
 30
0.0
 11
286.030212
 21
308.849976
 31
0.0
  0
LINE
  5
5B3
330
1F
100
AcDbEntity
  8
0
 62
     7
100
AcDbLine
 10
175.20697
 20
330.150024
 30
0.0
 11
175.506973
 21
330.150024
 31
0.0
  0
ARC
  5
5B4
330
1F
100
AcDbEntity
  8
0
 62
     7
100
AcDbCircle
 10
140.306976
 20
240.150009
 30
0.0
 40
78.4000015258789
100
AcDbArc
 50
92.192971
 51
179.999991
  0
ARC
  5
5B5
330
1F
100
AcDbEntity
  8
0
 62
     7
100
AcDbCircle
 10
140.307022
 20
240.153839
 30
0.0
 40
78.39616394042969
100
AcDbArc
 50
90.00003
 51
90.730894
  0
ARC
  5
5B6
330
1F
100
AcDbEntity
  8
0
 62
     7
100
AcDbCircle
 10
140.306976
 20
240.150009
 30
0.0
 40
71.5999984741211
100
AcDbArc
 50
92.401354
 51
180.000009
  0
ARC
  5
5B7
330
1F
100
AcDbEntity
  8
0
 62
     7
100
AcDbCircle
 10
140.307022
 20
240.152206
 30
0.0
 40
71.59779357910156
100
AcDbArc
 50
90.000037
 51
90.800303
  0
LINE
  5
5B8
330
1F
100
AcDbEntity
  8
0
 62
     7
100
AcDbLine
 10
141.506973
 20
318.549988
 30
0.0
 11
142.506973
 21
318.549988
 31
0.0
  0
LINE
  5
5B9
330
1F
100
AcDbEntity
  8
0
 62
     7
100
AcDbLine
 10
143.70697
 20
318.549988
 30
0.0
 11
144.70697
 21
318.549988
 31
0.0
  0
LINE
  5
5BA
330
1F
100
AcDbEntity
  8
0
 62
     7
100
AcDbLine
 10
61.90699
 20
230.150009
 30
0.0
 11
61.90699
 21
240.150009
 31
0.0
  0
LINE
  5
5BB
330
1F
100
AcDbEntity
  8
0
 62
     7
100
AcDbLine
 10
141.506973
 20
311.75
 30
0.0
 11
142.506973
 21
311.75
 31
0.0
  0
LINE
  5
5BC
330
1F
100
AcDbEntity
  8
0
 62
     7
100
AcDbLine
 10
143.70697
 20
311.75
 30
0.0
 11
144.70697
 21
311.75
 31
0.0
  0
LINE
  5
5BD
330
1F
100
AcDbEntity
  8
0
 62
     7
100
AcDbLine
 10
68.706993
 20
230.150009
 30
0.0
 11
68.706993
 21
240.150009
 31
0.0
  0
LINE
  5
5BE
330
1F
100
AcDbEntity
  8
0
 62
     7
100
AcDbLine
 10
137.306976
 20
319.400024
 30
0.0
 11
139.306976
 21
319.525024
 31
0.0
  0
LINE
  5
5BF
330
1F
100
AcDbEntity
  8
0
 62
     7
100
AcDbLine
 10
140.306976
 20
319.587524
 30
0.0
 11
141.506973
 21
319.662476
 31
0.0
  0
LINE
  5
5C0
330
1F
100
AcDbEntity
  8
0
 62
     7
100
AcDbLine
 10
142.506973
 20
319.724976
 30
0.0
 11
143.70697
 21
319.799988
 31
0.0
  0
LINE
  5
5C1
330
1F
100
AcDbEntity
  8
0
 62
     7
100
AcDbLine
 10
144.70697
 20
319.862488
 30
0.0
 11
149.306976
 21
320.150024
 31
0.0
  0
LINE
  5
5C2
330
1F
100
AcDbEntity
  8
0
 62
     7
100
AcDbLine
 10
137.306976
 20
310.900024
 30
0.0
 11
139.306976
 21
310.775024
 31
0.0
  0
LINE
  5
5C3
330
1F
100
AcDbEntity
  8
0
 62
     7
100
AcDbLine
 10
140.306976
 20
310.712524
 30
0.0
 11
141.506973
 21
310.637512
 31
0.0
  0
LINE
  5
5C4
330
1F
100
AcDbEntity
  8
0
 62
     7
100
AcDbLine
 10
142.506973
 20
310.575012
 30
0.0
 11
143.70697
 21
310.5
 31
0.0
  0
LINE
  5
5C5
330
1F
100
AcDbEntity
  8
0
 62
     7
100
AcDbLine
 10
144.70697
 20
310.4375
 30
0.0
 11
149.306976
 21
310.150024
 31
0.0
  0
LINE
  5
5C6
330
1F
100
AcDbEntity
  8
0
 62
     7
100
AcDbLine
 10
149.306976
 20
320.150024
 30
0.0
 11
150.306976
 21
320.450012
 31
0.0
  0
LINE
  5
5C7
330
1F
100
AcDbEntity
  8
0
 62
     7
100
AcDbLine
 10
149.306976
 20
310.150024
 30
0.0
 11
150.306976
 21
309.849976
 31
0.0
  0
LINE
  5
5C8
330
1F
100
AcDbEntity
  8
0
 62
     7
100
AcDbLine
 10
150.306976
 20
310.150024
 30
0.0
 11
155.306976
 21
310.150024
 31
0.0
  0
LINE
  5
5C9
330
1F
100
AcDbEntity
  8
0
 62
     7
100
AcDbLine
 10
150.306976
 20
320.150024
 30
0.0
 11
155.306976
 21
320.150024
 31
0.0
  0
ARC
  5
5CA
330
1F
100
AcDbEntity
  8
0
 62
     7
100
AcDbCircle
 10
160.613571
 20
312.049988
 30
0.0
 40
6.000001907348633
100
AcDbArc
 50
207.81814
 51
212.230947
  0
ARC
  5
5CB
330
1F
100
AcDbEntity
  8
0
 62
     7
100
AcDbCircle
 10
160.613571
 20
318.25
 30
0.0
 40
6.000001907348633
100
AcDbArc
 50
147.769053
 51
152.18186
  0
LINE
  5
5CC
330
1F
100
AcDbEntity
  8
0
 62
     7
100
AcDbLine
 10
155.538147
 20
308.849976
 30
0.0
 11
162.306976
 21
308.849976
 31
0.0
  0
LINE
  5
5CD
330
1F
100
AcDbEntity
  8
0
 62
     7
100
AcDbLine
 10
155.538147
 20
321.450012
 30
0.0
 11
162.306976
 21
321.450012
 31
0.0
  0
LINE
  5
5CE
330
1F
100
AcDbEntity
  8
0
 62
     7
100
AcDbLine
 10
162.306976
 20
308.849976
 30
0.0
 11
162.806976
 21
308.349976
 31
0.0
  0
LINE
  5
5CF
330
1F
100
AcDbEntity
  8
0
 62
     7
100
AcDbLine
 10
162.306976
 20
321.450012
 30
0.0
 11
162.806976
 21
321.950012
 31
0.0
  0
LINE
  5
5D0
330
1F
100
AcDbEntity
  8
0
 62
     7
100
AcDbLine
 10
172.306976
 20
308.849976
 30
0.0
 11
173.306976
 21
308.849976
 31
0.0
  0
LINE
  5
5D1
330
1F
100
AcDbEntity
  8
0
 62
     7
100
AcDbLine
 10
172.306976
 20
321.450012
 30
0.0
 11
173.306976
 21
321.450012
 31
0.0
  0
LINE
  5
5D2
330
1F
100
AcDbEntity
  8
0
 62
     7
100
AcDbLine
 10
162.806976
 20
308.349976
 30
0.0
 11
171.806976
 21
308.349976
 31
0.0
  0
LINE
  5
5D3
330
1F
100
AcDbEntity
  8
0
 62
     7
100
AcDbLine
 10
162.806976
 20
321.950012
 30
0.0
 11
171.806976
 21
321.950012
 31
0.0
  0
LINE
  5
5D4
330
1F
100
AcDbEntity
  8
0
 62
     7
100
AcDbLine
 10
172.306976
 20
321.450012
 30
0.0
 11
171.806976
 21
321.950012
 31
0.0
  0
LINE
  5
5D5
330
1F
100
AcDbEntity
  8
0
 62
     7
100
AcDbLine
 10
172.306976
 20
308.849976
 30
0.0
 11
171.806976
 21
308.349976
 31
0.0
  0
LINE
  5
5D6
330
1F
100
AcDbEntity
  8
0
 62
     7
100
AcDbLine
 10
29.793056
 20
332.849976
 30
0.0
 11
29.793056
 21
345.950012
 31
0.0
  0
ARC
  5
5D7
330
1F
100
AcDbEntity
  8
0
 62
     7
100
AcDbCircle
 10
28.993053
 20
332.849976
 30
0.0
 40
0.800000011920929
100
AcDbArc
 50
269.999997
 51
360.0
  0
LINE
  5
5D8
330
1F
100
AcDbEntity
  8
0
 62
     7
100
AcDbLine
 10
29.663765
 20
346.079285
 30
0.0
 11
29.793056
 21
345.950012
 31
0.0
  0
ARC
  5
5D9
330
1F
100
AcDbEntity
  8
0
 62
     7
100
AcDbCircle
 10
27.793056
 20
332.849976
 30
0.0
 40
0.800000011920929
100
AcDbArc
 50
241.044838
 51
269.999997
  0
LINE
  5
5DA
330
1F
100
AcDbEntity
  8
0
 62
     7
100
AcDbLine
 10
28.993053
 20
332.049988
 30
0.0
 11
27.793056
 21
332.049988
 31
0.0
  0
ARC
  5
5DB
330
1F
100
AcDbEntity
  8
0
 62
     7
100
AcDbCircle
 10
29.734478
 20
346.150024
 30
0.0
 40
0.1000000014901161
100
AcDbArc
 50
135.0
 51
225.0
  0
LINE
  5
5DC
330
1F
100
AcDbEntity
  8
0
 62
     7
100
AcDbLine
 10
29.793056
 20
346.349976
 30
0.0
 11
29.663765
 21
346.220703
 31
0.0
  0
LINE
  5
5DD
330
1F
100
AcDbEntity
  8
0
 62
     7
100
AcDbLine
 10
29.793056
 20
346.349976
 30
0.0
 11
29.793056
 21
347.049988
 31
0.0
  0
LINE
  5
5DE
330
1F
100
AcDbEntity
  8
0
 62
     7
100
AcDbLine
 10
29.663765
 20
347.17926
 30
0.0
 11
29.793056
 21
347.049988
 31
0.0
  0
ARC
  5
5DF
330
1F
100
AcDbEntity
  8
0
 62
     7
100
AcDbCircle
 10
29.734478
 20
347.25
 30
0.0
 40
0.1000000014901161
100
AcDbArc
 50
135.0
 51
225.0
  0
LINE
  5
5E0
330
1F
100
AcDbEntity
  8
0
 62
     7
100
AcDbLine
 10
29.793056
 20
347.450012
 30
0.0
 11
29.663765
 21
347.32074
 31
0.0
  0
LINE
  5
5E1
330
1F
100
AcDbEntity
  8
0
 62
     7
100
AcDbLine
 10
29.793056
 20
347.450012
 30
0.0
 11
29.793056
 21
348.150024
 31
0.0
  0
LINE
  5
5E2
330
1F
100
AcDbEntity
  8
0
 62
     7
100
AcDbLine
 10
29.663765
 20
348.279297
 30
0.0
 11
29.793056
 21
348.150024
 31
0.0
  0
ARC
  5
5E3
330
1F
100
AcDbEntity
  8
0
 62
     7
100
AcDbCircle
 10
29.734478
 20
348.349976
 30
0.0
 40
0.1000000014901161
100
AcDbArc
 50
135.0
 51
225.0
  0
LINE
  5
5E4
330
1F
100
AcDbEntity
  8
0
 62
     7
100
AcDbLine
 10
29.793056
 20
348.549988
 30
0.0
 11
29.663765
 21
348.420715
 31
0.0
  0
LINE
  5
5E5
330
1F
100
AcDbEntity
  8
0
 62
     7
100
AcDbLine
 10
29.793056
 20
348.549988
 30
0.0
 11
29.793056
 21
349.25
 31
0.0
  0
LINE
  5
5E6
330
1F
100
AcDbEntity
  8
0
 62
     7
100
AcDbLine
 10
29.663765
 20
349.379272
 30
0.0
 11
29.793056
 21
349.25
 31
0.0
  0
ARC
  5
5E7
330
1F
100
AcDbEntity
  8
0
 62
     7
100
AcDbCircle
 10
29.734478
 20
349.450012
 30
0.0
 40
0.1000000014901161
100
AcDbArc
 50
135.0
 51
225.0
  0
LINE
  5
5E8
330
1F
100
AcDbEntity
  8
0
 62
     7
100
AcDbLine
 10
29.793056
 20
349.650024
 30
0.0
 11
29.663765
 21
349.520691
 31
0.0
  0
LINE
  5
5E9
330
1F
100
AcDbEntity
  8
0
 62
     7
100
AcDbLine
 10
29.793056
 20
349.650024
 30
0.0
 11
29.793056
 21
350.349976
 31
0.0
  0
LINE
  5
5EA
330
1F
100
AcDbEntity
  8
0
 62
     7
100
AcDbLine
 10
29.663765
 20
350.479309
 30
0.0
 11
29.793056
 21
350.349976
 31
0.0
  0
ARC
  5
5EB
330
1F
100
AcDbEntity
  8
0
 62
     7
100
AcDbCircle
 10
29.734478
 20
350.549988
 30
0.0
 40
0.1000000014901161
100
AcDbArc
 50
135.0
 51
225.0
  0
LINE
  5
5EC
330
1F
100
AcDbEntity
  8
0
 62
     7
100
AcDbLine
 10
29.793056
 20
350.75
 30
0.0
 11
29.663765
 21
350.620728
 31
0.0
  0
LINE
  5
5ED
330
1F
100
AcDbEntity
  8
0
 62
     7
100
AcDbLine
 10
29.793056
 20
350.75
 30
0.0
 11
29.793056
 21
351.450012
 31
0.0
  0
LINE
  5
5EE
330
1F
100
AcDbEntity
  8
0
 62
     7
100
AcDbLine
 10
29.663765
 20
351.579285
 30
0.0
 11
29.793056
 21
351.450012
 31
0.0
  0
ARC
  5
5EF
330
1F
100
AcDbEntity
  8
0
 62
     7
100
AcDbCircle
 10
29.734478
 20
351.650024
 30
0.0
 40
0.1000000014901161
100
AcDbArc
 50
135.0
 51
225.0
  0
LINE
  5
5F0
330
1F
100
AcDbEntity
  8
0
 62
     7
100
AcDbLine
 10
29.793056
 20
351.849976
 30
0.0
 11
29.663765
 21
351.720703
 31
0.0
  0
LINE
  5
5F1
330
1F
100
AcDbEntity
  8
0
 62
     7
100
AcDbLine
 10
29.793056
 20
351.849976
 30
0.0
 11
29.793056
 21
352.549988
 31
0.0
  0
LINE
  5
5F2
330
1F
100
AcDbEntity
  8
0
 62
     7
100
AcDbLine
 10
29.663765
 20
352.67926
 30
0.0
 11
29.793056
 21
352.549988
 31
0.0
  0
ARC
  5
5F3
330
1F
100
AcDbEntity
  8
0
 62
     7
100
AcDbCircle
 10
29.734478
 20
352.75
 30
0.0
 40
0.1000000014901161
100
AcDbArc
 50
135.0
 51
225.0
  0
LINE
  5
5F4
330
1F
100
AcDbEntity
  8
0
 62
     7
100
AcDbLine
 10
29.793056
 20
352.950012
 30
0.0
 11
29.663765
 21
352.82074
 31
0.0
  0
LINE
  5
5F5
330
1F
100
AcDbEntity
  8
0
 62
     7
100
AcDbLine
 10
29.793056
 20
352.950012
 30
0.0
 11
29.793056
 21
353.650024
 31
0.0
  0
LINE
  5
5F6
330
1F
100
AcDbEntity
  8
0
 62
     7
100
AcDbLine
 10
29.663765
 20
353.779297
 30
0.0
 11
29.793056
 21
353.650024
 31
0.0
  0
ARC
  5
5F7
330
1F
100
AcDbEntity
  8
0
 62
     7
100
AcDbCircle
 10
29.734478
 20
353.849976
 30
0.0
 40
0.1000000014901161
100
AcDbArc
 50
135.0
 51
225.0
  0
LINE
  5
5F8
330
1F
100
AcDbEntity
  8
0
 62
     7
100
AcDbLine
 10
29.793056
 20
354.049988
 30
0.0
 11
29.663765
 21
353.920715
 31
0.0
  0
LINE
  5
5F9
330
1F
100
AcDbEntity
  8
0
 62
     7
100
AcDbLine
 10
29.793056
 20
354.049988
 30
0.0
 11
29.793056
 21
354.75
 31
0.0
  0
LINE
  5
5FA
330
1F
100
AcDbEntity
  8
0
 62
     7
100
AcDbLine
 10
29.663765
 20
354.879272
 30
0.0
 11
29.793056
 21
354.75
 31
0.0
  0
ARC
  5
5FB
330
1F
100
AcDbEntity
  8
0
 62
     7
100
AcDbCircle
 10
29.734478
 20
354.950012
 30
0.0
 40
0.1000000014901161
100
AcDbArc
 50
135.0
 51
225.0
  0
LINE
  5
5FC
330
1F
100
AcDbEntity
  8
0
 62
     7
100
AcDbLine
 10
29.793056
 20
355.150024
 30
0.0
 11
29.663765
 21
355.020691
 31
0.0
  0
LINE
  5
5FD
330
1F
100
AcDbEntity
  8
0
 62
     7
100
AcDbLine
 10
29.793056
 20
355.150024
 30
0.0
 11
29.793056
 21
359.974243
 31
0.0
  0
LINE
  5
5FE
330
1F
100
AcDbEntity
  8
0
 62
     7
100
AcDbLine
 10
29.305187
 20
360.462158
 30
0.0
 11
29.793056
 21
359.974243
 31
0.0
  0
ARC
  5
5FF
330
1F
100
AcDbEntity
  8
0
 62
     7
100
AcDbCircle
 10
29.093056
 20
360.25
 30
0.0
 40
0.300000011920929
100
AcDbArc
 50
45.000001
 51
106.874504
  0
LINE
  5
600
330
1F
100
AcDbEntity
  8
0
 62
     7
100
AcDbLine
 10
29.793056
 20
338.049988
 30
0.0
 11
29.993053
 21
338.049988
 31
0.0
  0
LINE
  5
601
330
1F
100
AcDbEntity
  8
0
 62
     7
100
AcDbLine
 10
29.993053
 20
337.549988
 30
0.0
 11
29.993053
 21
338.049988
 31
0.0
  0
LINE
  5
602
330
1F
100
AcDbEntity
  8
0
 62
     7
100
AcDbLine
 10
29.993053
 20
337.549988
 30
0.0
 11
29.993053
 21
333.549988
 31
0.0
  0
LINE
  5
603
330
1F
100
AcDbEntity
  8
0
 62
     7
100
AcDbLine
 10
29.993053
 20
333.049988
 30
0.0
 11
29.993053
 21
333.549988
 31
0.0
  0
LINE
  5
604
330
1F
100
AcDbEntity
  8
0
 62
     7
100
AcDbLine
 10
29.793056
 20
333.049988
 30
0.0
 11
29.993053
 21
333.049988
 31
0.0
  0
ARC
  5
605
330
1F
100
AcDbEntity
  8
0
 62
     7
100
AcDbCircle
 10
25.793056
 20
360.349976
 30
0.0
 40
3.0
100
AcDbArc
 50
8.262821
 51
90.000003
  0
LINE
  5
606
330
1F
100
AcDbEntity
  8
0
 62
     7
100
AcDbLine
 10
30.043056
 20
333.549988
 30
0.0
 11
30.043056
 21
333.680359
 31
0.0
  0
LINE
  5
607
330
1F
100
AcDbEntity
  8
0
 62
     7
100
AcDbLine
 10
30.043056
 20
337.180359
 30
0.0
 11
30.043056
 21
333.680359
 31
0.0
  0
LINE
  5
608
330
1F
100
AcDbEntity
  8
0
 62
     7
100
AcDbLine
 10
29.993053
 20
337.450012
 30
0.0
 11
30.043056
 21
337.450012
 31
0.0
  0
LINE
  5
609
330
1F
100
AcDbEntity
  8
0
 62
     7
100
AcDbLine
 10
30.043056
 20
337.180359
 30
0.0
 11
30.043056
 21
337.450012
 31
0.0
  0
LINE
  5
60A
330
1F
100
AcDbEntity
  8
0
 62
     7
100
AcDbLine
 10
29.446606
 20
360.096436
 30
0.0
 11
28.604534
 21
360.938538
 31
0.0
  0
ARC
  5
60B
330
1F
100
AcDbEntity
  8
0
 62
     7
100
AcDbCircle
 10
29.093056
 20
359.74292
 30
0.0
 40
0.5
100
AcDbArc
 50
0.0
 51
45.000001
  0
LINE
  5
60C
330
1F
100
AcDbEntity
  8
0
 62
     7
100
AcDbLine
 10
29.593056
 20
332.650024
 30
0.0
 11
29.593056
 21
359.74292
 31
0.0
  0
ARC
  5
60D
330
1F
100
AcDbEntity
  8
0
 62
     7
100
AcDbCircle
 10
29.093056
 20
332.650024
 30
0.0
 40
0.5
100
AcDbArc
 50
269.999997
 51
360.0
  0
LINE
  5
60E
330
1F
100
AcDbEntity
  8
0
 62
     7
100
AcDbLine
 10
13.493055
 20
332.150024
 30
0.0
 11
29.093056
 21
332.150024
 31
0.0
  0
ARC
  5
60F
330
1F
100
AcDbEntity
  8
0
 62
     7
100
AcDbCircle
 10
13.493055
 20
332.650024
 30
0.0
 40
0.5
100
AcDbArc
 50
180.000009
 51
269.999997
  0
LINE
  5
610
330
1F
100
AcDbEntity
  8
0
 62
     7
100
AcDbLine
 10
12.993055
 20
359.74292
 30
0.0
 11
12.993055
 21
332.650024
 31
0.0
  0
LINE
  5
611
330
1F
100
AcDbEntity
  8
0
 62
     7
100
AcDbLine
 10
12.193054
 20
342.049988
 30
0.0
 11
12.193054
 21
344.049988
 31
0.0
  0
LINE
  5
612
330
1F
100
AcDbEntity
  8
0
 62
     7
100
AcDbLine
 10
12.193054
 20
342.049988
 30
0.0
 11
12.993052
 21
342.049988
 31
0.0
  0
LINE
  5
613
330
1F
100
AcDbEntity
  8
0
 62
     7
100
AcDbLine
 10
25.793056
 20
363.349976
 30
0.0
 11
16.793055
 21
363.349976
 31
0.0
  0
ARC
  5
614
330
1F
100
AcDbEntity
  8
0
 62
     7
100
AcDbCircle
 10
16.793055
 20
360.349976
 30
0.0
 40
3.0
100
AcDbArc
 50
90.000003
 51
171.737184
  0
ARC
  5
615
330
1F
100
AcDbEntity
  8
0
 62
     7
100
AcDbCircle
 10
28.639889
 20
360.973877
 30
0.0
 40
0.0500000007450581
100
AcDbArc
 50
189.204208
 51
225.0
  0
ARC
  5
616
330
1F
100
AcDbEntity
  8
0
 62
     7
100
AcDbCircle
 10
13.493055
 20
359.74292
 30
0.0
 40
0.5
100
AcDbArc
 50
135.0
 51
180.000009
  0
LINE
  5
617
330
1F
100
AcDbEntity
  8
0
 62
     7
100
AcDbLine
 10
12.193054
 20
358.821106
 30
0.0
 11
12.193054
 21
344.049988
 31
0.0
  0
LINE
  5
618
330
1F
100
AcDbEntity
  8
0
 62
     7
100
AcDbLine
 10
12.193054
 20
358.821106
 30
0.0
 11
12.193054
 21
358.863342
 31
0.0
  0
LINE
  5
619
330
1F
100
AcDbEntity
  8
0
 62
     7
100
AcDbLine
 10
12.193054
 20
358.863342
 30
0.0
 11
12.193054
 21
363.349976
 31
0.0
  0
LINE
  5
61A
330
1F
100
AcDbEntity
  8
0
 62
     7
100
AcDbLine
 10
12.393055
 20
342.049988
 30
0.0
 11
12.393055
 21
341.549988
 31
0.0
  0
LINE
  5
61B
330
1F
100
AcDbEntity
  8
0
 62
     7
100
AcDbLine
 10
12.993053
 20
341.549988
 30
0.0
 11
12.393055
 21
341.549988
 31
0.0
  0
LINE
  5
61C
330
1F
100
AcDbEntity
  8
0
 62
     7
100
AcDbLine
 10
12.393055
 20
332.849976
 30
0.0
 11
12.393055
 21
341.549988
 31
0.0
  0
ARC
  5
61D
330
1F
100
AcDbEntity
  8
0
 62
     7
100
AcDbCircle
 10
13.193054
 20
332.849976
 30
0.0
 40
0.800000011920929
100
AcDbArc
 50
180.000009
 51
269.999997
  0
LINE
  5
61E
330
1F
100
AcDbEntity
  8
0
 62
     7
100
AcDbLine
 10
13.193054
 20
332.049988
 30
0.0
 11
14.393055
 21
332.049988
 31
0.0
  0
ARC
  5
61F
330
1F
100
AcDbEntity
  8
0
 62
     7
100
AcDbCircle
 10
14.393055
 20
332.849976
 30
0.0
 40
0.800000011920929
100
AcDbArc
 50
269.999997
 51
298.955164
  0
LINE
  5
620
330
1F
100
AcDbEntity
  8
0
 62
     7
100
AcDbLine
 10
13.981577
 20
360.938538
 30
0.0
 11
13.139502
 21
360.096436
 31
0.0
  0
ARC
  5
621
330
1F
100
AcDbEntity
  8
0
 62
     7
100
AcDbCircle
 10
13.94622
 20
360.973877
 30
0.0
 40
0.0500000007450581
100
AcDbArc
 50
314.999992
 51
350.795784
  0
ARC
  5
622
330
1F
100
AcDbEntity
  8
0
 62
     7
100
AcDbCircle
 10
16.562101
 20
360.549988
 30
0.0
 40
2.599999904632568
100
AcDbArc
 50
90.000003
 51
170.795792
  0
LINE
  5
623
330
1F
100
AcDbEntity
  8
0
 62
     7
100
AcDbLine
 10
26.024006
 20
363.150024
 30
0.0
 11
16.562101
 21
363.150024
 31
0.0
  0
ARC
  5
624
330
1F
100
AcDbEntity
  8
0
 62
     7
100
AcDbCircle
 10
26.024006
 20
360.549988
 30
0.0
 40
2.599999904632568
100
AcDbArc
 50
9.20421
 51
90.000003
  0
CIRCLE
  5
625
330
1F
100
AcDbEntity
  8
0
 62
     7
100
AcDbCircle
 10
21.293055
 20
340.349976
 30
0.0
 40
5.150000095367432
  0
POLYLINE
  5
626
330
1F
100
AcDbEntity
  8
0
 62
     7
100
AcDb2dPolyline
 66
     1
 10
0.0
 20
0.0
 30
0.0
  0
VERTEX
  5
627
330
626
100
AcDbEntity
  8
0
100
AcDbVertex
100
AcDb2dVertex
 10
12.693054
 20
360.260193
 30
0.0
  0
VERTEX
  5
628
330
626
100
AcDbEntity
  8
0
100
AcDbVertex
100
AcDb2dVertex
 10
12.689186
 20
360.162903
 30
0.0
  0
VERTEX
  5
629
330
626
100
AcDbEntity
  8
0
100
AcDbVertex
100
AcDb2dVertex
 10
12.677589
 20
360.059448
 30
0.0
  0
VERTEX
  5
62A
330
626
100
AcDbEntity
  8
0
100
AcDbVertex
100
AcDb2dVertex
 10
12.658237
 20
359.950073
 30
0.0
  0
VERTEX
  5
62B
330
626
100
AcDbEntity
  8
0
100
AcDbVertex
100
AcDb2dVertex
 10
12.631044
 20
359.8349
 30
0.0
  0
VERTEX
  5
62C
330
626
100
AcDbEntity
  8
0
100
AcDbVertex
100
AcDb2dVertex
 10
12.595852
 20
359.713989
 30
0.0
  0
VERTEX
  5
62D
330
626
100
AcDbEntity
  8
0
100
AcDbVertex
100
AcDb2dVertex
 10
12.552399
 20
359.587341
 30
0.0
  0
VERTEX
  5
62E
330
626
100
AcDbEntity
  8
0
100
AcDbVertex
100
AcDb2dVertex
 10
12.500315
 20
359.454895
 30
0.0
  0
VERTEX
  5
62F
330
626
100
AcDbEntity
  8
0
100
AcDbVertex
100
AcDb2dVertex
 10
12.439087
 20
359.316406
 30
0.0
  0
VERTEX
  5
630
330
626
100
AcDbEntity
  8
0
100
AcDbVertex
100
AcDb2dVertex
 10
12.368057
 20
359.171814
 30
0.0
  0
VERTEX
  5
631
330
626
100
AcDbEntity
  8
0
100
AcDbVertex
100
AcDb2dVertex
 10
12.286388
 20
359.020874
 30
0.0
  0
VERTEX
  5
632
330
626
100
AcDbEntity
  8
0
100
AcDbVertex
100
AcDb2dVertex
 10
12.193054
 20
358.863342
 30
0.0
  0
SEQEND
  5
633
330
626
100
AcDbEntity
  8
0
 62
     7
  0
LINE
  5
634
330
1F
100
AcDbEntity
  8
0
 62
     7
100
AcDbLine
 10
12.693054
 20
360.260193
 30
0.0
 11
12.693054
 21
363.849976
 31
0.0
  0
LINE
  5
635
330
1F
100
AcDbEntity
  8
0
 62
     7
100
AcDbLine
 10
13.793055
 20
360.75
 30
0.0
 11
13.793055
 21
363.849976
 31
0.0
  0
CIRCLE
  5
636
330
1F
100
AcDbEntity
  8
0
 62
     7
100
AcDbCircle
 10
21.293055
 20
340.349976
 30
0.0
 40
4.150000095367432
  0
ARC
  5
637
330
1F
100
AcDbEntity
  8
0
 62
     7
100
AcDbCircle
 10
21.293055
 20
340.349976
 30
0.0
 40
3.75
100
AcDbArc
 50
350.018317
 51
9.981683
  0
ARC
  5
638
330
1F
100
AcDbEntity
  8
0
 62
     7
100
AcDbCircle
 10
21.293055
 20
340.349976
 30
0.0
 40
3.75
100
AcDbArc
 50
189.981688
 51
350.018317
  0
ARC
  5
639
330
1F
100
AcDbEntity
  8
0
 62
     7
100
AcDbCircle
 10
21.293055
 20
340.349976
 30
0.0
 40
3.75
100
AcDbArc
 50
170.018312
 51
189.981688
  0
ARC
  5
63A
330
1F
100
AcDbEntity
  8
0
 62
     7
100
AcDbCircle
 10
21.293055
 20
340.349976
 30
0.0
 40
3.75
100
AcDbArc
 50
9.981683
 51
170.018312
  0
LINE
  5
63B
330
1F
100
AcDbEntity
  8
0
 62
     7
100
AcDbLine
 10
24.783039
 20
339.700012
 30
0.0
 11
24.986294
 21
339.700012
 31
0.0
  0
LINE
  5
63C
330
1F
100
AcDbEntity
  8
0
 62
     7
100
AcDbLine
 10
17.80307
 20
339.700012
 30
0.0
 11
17.599817
 21
339.700012
 31
0.0
  0
LINE
  5
63D
330
1F
100
AcDbEntity
  8
0
 62
     7
100
AcDbLine
 10
24.783039
 20
339.700012
 30
0.0
 11
17.80307
 21
339.700012
 31
0.0
  0
ARC
  5
63E
330
1F
100
AcDbEntity
  8
0
 62
     7
100
AcDbCircle
 10
21.293055
 20
340.349976
 30
0.0
 40
3.549999952316284
100
AcDbArc
 50
190.550301
 51
349.44969
  0
LINE
  5
63F
330
1F
100
AcDbEntity
  8
0
 62
     7
100
AcDbLine
 10
17.80307
 20
341.0
 30
0.0
 11
17.599817
 21
341.0
 31
0.0
  0
LINE
  5
640
330
1F
100
AcDbEntity
  8
0
 62
     7
100
AcDbLine
 10
24.783039
 20
341.0
 30
0.0
 11
24.986294
 21
341.0
 31
0.0
  0
LINE
  5
641
330
1F
100
AcDbEntity
  8
0
 62
     7
100
AcDbLine
 10
17.80307
 20
341.0
 30
0.0
 11
24.783039
 21
341.0
 31
0.0
  0
ARC
  5
642
330
1F
100
AcDbEntity
  8
0
 62
     7
100
AcDbCircle
 10
21.293055
 20
340.349976
 30
0.0
 40
3.549999952316284
100
AcDbArc
 50
10.550303
 51
169.449699
  0
LINE
  5
643
330
1F
100
AcDbEntity
  8
0
 62
     7
100
AcDbLine
 10
29.993053
 20
333.549988
 30
0.0
 11
30.043056
 21
333.549988
 31
0.0
  0
LINE
  5
644
330
1F
100
AcDbEntity
  8
0
 62
     7
100
AcDbLine
 10
29.993053
 20
333.549988
 30
0.0
 11
30.043056
 21
333.549988
 31
0.0
  0
LINE
  5
645
330
1F
100
AcDbEntity
  8
0
 62
     7
100
AcDbLine
 10
12.193054
 20
363.349976
 30
0.0
 11
12.693054
 21
363.849976
 31
0.0
  0
LINE
  5
646
330
1F
100
AcDbEntity
  8
0
 62
     7
100
AcDbLine
 10
12.693054
 20
363.849976
 30
0.0
 11
13.793055
 21
363.849976
 31
0.0
  0
ARC
  5
647
330
1F
100
AcDbEntity
  8
0
 62
     7
100
AcDbCircle
 10
20.993053
 20
315.150024
 30
0.0
 40
7.0
100
AcDbArc
 50
299.059263
 51
240.940746
  0
ARC
  5
648
330
1F
100
AcDbEntity
  8
0
 62
     7
100
AcDbCircle
 10
20.993053
 20
315.150024
 30
0.0
 40
6.900000095367432
100
AcDbArc
 50
299.52166
 51
240.478287
  0
LINE
  5
649
330
1F
100
AcDbEntity
  8
0
 62
     7
100
AcDbLine
 10
12.393055
 20
306.450012
 30
0.0
 11
12.393055
 21
329.549988
 31
0.0
  0
LINE
  5
64A
330
1F
100
AcDbEntity
  8
0
 62
     7
100
AcDbLine
 10
12.393055
 20
329.549988
 30
0.0
 11
12.393055
 21
330.549988
 31
0.0
  0
LINE
  5
64B
330
1F
100
AcDbEntity
  8
0
 62
     7
100
AcDbLine
 10
29.593056
 20
329.549988
 30
0.0
 11
29.593056
 21
306.450012
 31
0.0
  0
LINE
  5
64C
330
1F
100
AcDbEntity
  8
0
 62
     7
100
AcDbLine
 10
29.593056
 20
329.549988
 30
0.0
 11
29.593056
 21
330.549988
 31
0.0
  0
LINE
  5
64D
330
1F
100
AcDbEntity
  8
0
 62
     7
100
AcDbLine
 10
12.893055
 20
329.549988
 30
0.0
 11
12.539501
 21
329.903564
 31
0.0
  0
ARC
  5
64E
330
1F
100
AcDbEntity
  8
0
 62
     7
100
AcDbCircle
 10
12.893055
 20
329.549988
 30
0.0
 40
0.5
100
AcDbArc
 50
90.000003
 51
180.000009
  0
ARC
  5
64F
330
1F
100
AcDbEntity
  8
0
 62
     7
100
AcDbCircle
 10
12.893055
 20
306.450012
 30
0.0
 40
0.5
100
AcDbArc
 50
180.000009
 51
270.000353
  0
ARC
  5
650
330
1F
100
AcDbEntity
  8
0
 62
     7
100
AcDbCircle
 10
12.893057
 20
305.950012
 30
0.0
 40
0.5000079870223999
100
AcDbArc
 50
90.000289
 51
149.999055
  0
ARC
  5
651
330
1F
100
AcDbEntity
  8
0
 62
     7
100
AcDbCircle
 10
12.893055
 20
330.549988
 30
0.0
 40
0.5
100
AcDbArc
 50
90.000003
 51
180.000009
  0
LINE
  5
652
330
1F
100
AcDbEntity
  8
0
 62
     7
100
AcDbLine
 10
12.193054
 20
324.987671
 30
0.0
 11
12.193054
 21
325.9505
 31
0.0
  0
LINE
  5
653
330
1F
100
AcDbEntity
  8
0
 62
     7
100
AcDbLine
 10
12.193054
 20
324.987671
 30
0.0
 11
12.193054
 21
313.25
 31
0.0
  0
LINE
  5
654
330
1F
100
AcDbEntity
  8
0
 62
     7
100
AcDbLine
 10
12.193054
 20
310.25
 30
0.0
 11
12.193054
 21
313.25
 31
0.0
  0
LINE
  5
655
330
1F
100
AcDbEntity
  8
0
 62
     7
100
AcDbLine
 10
12.193054
 20
310.25
 30
0.0
 11
12.393055
 21
310.25
 31
0.0
  0
LINE
  5
656
330
1F
100
AcDbEntity
  8
0
 62
     7
100
AcDbLine
 10
12.193054
 20
329.049988
 30
0.0
 11
12.393055
 21
329.049988
 31
0.0
  0
LINE
  5
657
330
1F
100
AcDbEntity
  8
0
 62
     7
100
AcDbLine
 10
12.193054
 20
328.18512
 30
0.0
 11
12.193054
 21
329.049988
 31
0.0
  0
LINE
  5
658
330
1F
100
AcDbEntity
  8
0
 62
     7
100
AcDbLine
 10
17.043371
 20
309.25
 30
0.0
 11
17.226095
 21
309.25
 31
0.0
  0
LINE
  5
659
330
1F
100
AcDbEntity
  8
0
 62
     7
100
AcDbLine
 10
24.760006
 20
309.25
 30
0.0
 11
24.942738
 21
309.25
 31
0.0
  0
ARC
  5
65A
330
1F
100
AcDbEntity
  8
0
 62
     7
100
AcDbCircle
 10
29.093056
 20
306.450012
 30
0.0
 40
0.5
100
AcDbArc
 50
269.999997
 51
359.999901
  0
ARC
  5
65B
330
1F
100
AcDbEntity
  8
0
 62
     7
100
AcDbCircle
 10
29.093056
 20
329.549988
 30
0.0
 40
0.5
100
AcDbArc
 50
0.0
 51
90.000003
  0
LINE
  5
65C
330
1F
100
AcDbEntity
  8
0
 62
     7
100
AcDbLine
 10
29.093056
 20
329.549988
 30
0.0
 11
29.446606
 21
329.903564
 31
0.0
  0
ARC
  5
65D
330
1F
100
AcDbEntity
  8
0
 62
     7
100
AcDbCircle
 10
29.093056
 20
305.950012
 30
0.0
 40
0.4999969899654388
100
AcDbArc
 50
29.999605
 51
90.000201
  0
LINE
  5
65E
330
1F
100
AcDbEntity
  8
0
 62
     7
100
AcDbLine
 10
29.593056
 20
328.18512
 30
0.0
 11
29.593056
 21
325.9505
 31
0.0
  0
LINE
  5
65F
330
1F
100
AcDbEntity
  8
0
 62
     7
100
AcDbLine
 10
29.793056
 20
328.18512
 30
0.0
 11
29.793056
 21
329.049988
 31
0.0
  0
LINE
  5
660
330
1F
100
AcDbEntity
  8
0
 62
     7
100
AcDbLine
 10
29.593056
 20
329.049988
 30
0.0
 11
29.793056
 21
329.049988
 31
0.0
  0
LINE
  5
661
330
1F
100
AcDbEntity
  8
0
 62
     7
100
AcDbLine
 10
29.593056
 20
310.25
 30
0.0
 11
29.793056
 21
310.25
 31
0.0
  0
LINE
  5
662
330
1F
100
AcDbEntity
  8
0
 62
     7
100
AcDbLine
 10
29.793056
 20
310.25
 30
0.0
 11
29.793056
 21
313.25
 31
0.0
  0
LINE
  5
663
330
1F
100
AcDbEntity
  8
0
 62
     7
100
AcDbLine
 10
29.793056
 20
324.987671
 30
0.0
 11
29.793056
 21
313.25
 31
0.0
  0
LINE
  5
664
330
1F
100
AcDbEntity
  8
0
 62
     7
100
AcDbLine
 10
29.793056
 20
324.987671
 30
0.0
 11
29.793056
 21
325.9505
 31
0.0
  0
ARC
  5
665
330
1F
100
AcDbEntity
  8
0
 62
     7
100
AcDbCircle
 10
29.093056
 20
330.549988
 30
0.0
 40
0.5
100
AcDbArc
 50
0.0
 51
90.000003
  0
LINE
  5
666
330
1F
100
AcDbEntity
  8
0
 62
     7
100
AcDbLine
 10
12.893055
 20
306.450012
 30
0.0
 11
17.593004
 21
306.450012
 31
0.0
  0
LINE
  5
667
330
1F
100
AcDbEntity
  8
0
 62
     7
100
AcDbLine
 10
24.393005
 20
306.450012
 30
0.0
 11
29.093056
 21
306.450012
 31
0.0
  0
ARC
  5
668
330
1F
100
AcDbEntity
  8
0
 62
     7
100
AcDbCircle
 10
24.627956
 20
329.549988
 30
0.0
 40
0.5
100
AcDbArc
 50
90.000003
 51
218.583597
  0
ARC
  5
669
330
1F
100
AcDbEntity
  8
0
 62
     7
100
AcDbCircle
 10
20.993053
 20
326.650024
 30
0.0
 40
4.150000095367432
100
AcDbArc
 50
0.0
 51
38.583602
  0
LINE
  5
66A
330
1F
100
AcDbEntity
  8
0
 62
     7
100
AcDbLine
 10
25.143055
 20
326.650024
 30
0.0
 11
25.143055
 21
325.650024
 31
0.0
  0
ARC
  5
66B
330
1F
100
AcDbEntity
  8
0
 62
     7
100
AcDbCircle
 10
20.993053
 20
325.650024
 30
0.0
 40
4.150000095367432
100
AcDbArc
 50
327.912246
 51
360.0
  0
POLYLINE
  5
66C
330
1F
100
AcDbEntity
  8
0
 62
     7
100
AcDb2dPolyline
 66
     1
 10
0.0
 20
0.0
 30
0.0
  0
VERTEX
  5
66D
330
66C
100
AcDbEntity
  8
0
100
AcDbVertex
100
AcDb2dVertex
 10
24.919899
 20
321.303833
 30
0.0
  0
VERTEX
  5
66E
330
66C
100
AcDbEntity
  8
0
100
AcDbVertex
100
AcDb2dVertex
 10
24.8456
 20
321.354675
 30
0.0
  0
VERTEX
  5
66F
330
66C
100
AcDbEntity
  8
0
100
AcDbVertex
100
AcDb2dVertex
 10
24.786221
 20
321.400635
 30
0.0
  0
VERTEX
  5
670
330
66C
100
AcDbEntity
  8
0
100
AcDbVertex
100
AcDb2dVertex
 10
24.729458
 20
321.449585
 30
0.0
  0
VERTEX
  5
671
330
66C
100
AcDbEntity
  8
0
100
AcDbVertex
100
AcDb2dVertex
 10
24.654816
 20
321.522644
 30
0.0
  0
VERTEX
  5
672
330
66C
100
AcDbEntity
  8
0
100
AcDbVertex
100
AcDb2dVertex
 10
24.585899
 20
321.600891
 30
0.0
  0
VERTEX
  5
673
330
66C
100
AcDbEntity
  8
0
100
AcDbVertex
100
AcDb2dVertex
 10
24.523041
 20
321.683655
 30
0.0
  0
VERTEX
  5
674
330
66C
100
AcDbEntity
  8
0
100
AcDbVertex
100
AcDb2dVertex
 10
24.466496
 20
321.770386
 30
0.0
  0
VERTEX
  5
675
330
66C
100
AcDbEntity
  8
0
100
AcDbVertex
100
AcDb2dVertex
 10
24.416454
 20
321.860535
 30
0.0
  0
VERTEX
  5
676
330
66C
100
AcDbEntity
  8
0
100
AcDbVertex
100
AcDb2dVertex
 10
24.373028
 20
321.953613
 30
0.0
  0
VERTEX
  5
677
330
66C
100
AcDbEntity
  8
0
100
AcDbVertex
100
AcDb2dVertex
 10
24.336285
 20
322.04895
 30
0.0
  0
VERTEX
  5
678
330
66C
100
AcDbEntity
  8
0
100
AcDbVertex
100
AcDb2dVertex
 10
24.305145
 20
322.150024
 30
0.0
  0
VERTEX
  5
679
330
66C
100
AcDbEntity
  8
0
100
AcDbVertex
100
AcDb2dVertex
 10
24.281185
 20
322.252502
 30
0.0
  0
VERTEX
  5
67A
330
66C
100
AcDbEntity
  8
0
100
AcDbVertex
100
AcDb2dVertex
 10
24.264317
 20
322.355835
 30
0.0
  0
VERTEX
  5
67B
330
66C
100
AcDbEntity
  8
0
100
AcDbVertex
100
AcDb2dVertex
 10
24.254414
 20
322.459473
 30
0.0
  0
VERTEX
  5
67C
330
66C
100
AcDbEntity
  8
0
100
AcDbVertex
100
AcDb2dVertex
 10
24.251335
 20
322.56311
 30
0.0
  0
VERTEX
  5
67D
330
66C
100
AcDbEntity
  8
0
100
AcDbVertex
100
AcDb2dVertex
 10
24.25491
 20
322.666199
 30
0.0
  0
VERTEX
  5
67E
330
66C
100
AcDbEntity
  8
0
100
AcDbVertex
100
AcDb2dVertex
 10
24.264961
 20
322.768433
 30
0.0
  0
VERTEX
  5
67F
330
66C
100
AcDbEntity
  8
0
100
AcDbVertex
100
AcDb2dVertex
 10
24.281712
 20
322.871582
 30
0.0
  0
VERTEX
  5
680
330
66C
100
AcDbEntity
  8
0
100
AcDbVertex
100
AcDb2dVertex
 10
24.304825
 20
322.973022
 30
0.0
  0
VERTEX
  5
681
330
66C
100
AcDbEntity
  8
0
100
AcDbVertex
100
AcDb2dVertex
 10
24.33411
 20
323.072571
 30
0.0
  0
VERTEX
  5
682
330
66C
100
AcDbEntity
  8
0
100
AcDbVertex
100
AcDb2dVertex
 10
24.369366
 20
323.169861
 30
0.0
  0
VERTEX
  5
683
330
66C
100
AcDbEntity
  8
0
100
AcDbVertex
100
AcDb2dVertex
 10
24.410408
 20
323.264648
 30
0.0
  0
VERTEX
  5
684
330
66C
100
AcDbEntity
  8
0
100
AcDbVertex
100
AcDb2dVertex
 10
24.457039
 20
323.356567
 30
0.0
  0
VERTEX
  5
685
330
66C
100
AcDbEntity
  8
0
100
AcDbVertex
100
AcDb2dVertex
 10
24.509083
 20
323.445435
 30
0.0
  0
SEQEND
  5
686
330
66C
100
AcDbEntity
  8
0
 62
     7
  0
ARC
  5
687
330
1F
100
AcDbEntity
  8
0
 62
     7
100
AcDbCircle
 10
20.993053
 20
315.150024
 30
0.0
 40
7.300000190734863
100
AcDbArc
 50
297.758952
 51
57.457471
  0
LINE
  5
688
330
1F
100
AcDbEntity
  8
0
 62
     7
100
AcDbLine
 10
17.493248
 20
308.743652
 30
0.0
 11
17.593058
 21
308.690125
 31
0.0
  0
ARC
  5
689
330
1F
100
AcDbEntity
  8
0
 62
     7
100
AcDbCircle
 10
20.993053
 20
315.150024
 30
0.0
 40
7.300000190734863
100
AcDbArc
 50
122.542528
 51
241.352115
  0
POLYLINE
  5
68A
330
1F
100
AcDbEntity
  8
0
 62
     7
100
AcDb2dPolyline
 66
     1
 10
0.0
 20
0.0
 30
0.0
  0
VERTEX
  5
68B
330
68A
100
AcDbEntity
  8
0
100
AcDbVertex
100
AcDb2dVertex
 10
17.066198
 20
321.303833
 30
0.0
  0
VERTEX
  5
68C
330
68A
100
AcDbEntity
  8
0
100
AcDbVertex
100
AcDb2dVertex
 10
17.145695
 20
321.358459
 30
0.0
  0
VERTEX
  5
68D
330
68A
100
AcDbEntity
  8
0
100
AcDbVertex
100
AcDb2dVertex
 10
17.221237
 20
321.418396
 30
0.0
  0
VERTEX
  5
68E
330
68A
100
AcDbEntity
  8
0
100
AcDbVertex
100
AcDb2dVertex
 10
17.292439
 20
321.483276
 30
0.0
  0
VERTEX
  5
68F
330
68A
100
AcDbEntity
  8
0
100
AcDbVertex
100
AcDb2dVertex
 10
17.358959
 20
321.552673
 30
0.0
  0
VERTEX
  5
690
330
68A
100
AcDbEntity
  8
0
100
AcDbVertex
100
AcDb2dVertex
 10
17.420506
 20
321.626282
 30
0.0
  0
VERTEX
  5
691
330
68A
100
AcDbEntity
  8
0
100
AcDbVertex
100
AcDb2dVertex
 10
17.482073
 20
321.711304
 30
0.0
  0
VERTEX
  5
692
330
68A
100
AcDbEntity
  8
0
100
AcDbVertex
100
AcDb2dVertex
 10
17.537113
 20
321.800232
 30
0.0
  0
VERTEX
  5
693
330
68A
100
AcDbEntity
  8
0
100
AcDbVertex
100
AcDb2dVertex
 10
17.585457
 20
321.892517
 30
0.0
  0
VERTEX
  5
694
330
68A
100
AcDbEntity
  8
0
100
AcDbVertex
100
AcDb2dVertex
 10
17.627001
 20
321.987488
 30
0.0
  0
VERTEX
  5
695
330
68A
100
AcDbEntity
  8
0
100
AcDbVertex
100
AcDb2dVertex
 10
17.661709
 20
322.084656
 30
0.0
  0
VERTEX
  5
696
330
68A
100
AcDbEntity
  8
0
100
AcDbVertex
100
AcDb2dVertex
 10
17.689592
 20
322.183411
 30
0.0
  0
VERTEX
  5
697
330
68A
100
AcDbEntity
  8
0
100
AcDbVertex
100
AcDb2dVertex
 10
17.710712
 20
322.283325
 30
0.0
  0
VERTEX
  5
698
330
68A
100
AcDbEntity
  8
0
100
AcDbVertex
100
AcDb2dVertex
 10
17.72563
 20
322.388184
 30
0.0
  0
VERTEX
  5
699
330
68A
100
AcDbEntity
  8
0
100
AcDbVertex
100
AcDb2dVertex
 10
17.733438
 20
322.493286
 30
0.0
  0
VERTEX
  5
69A
330
68A
100
AcDbEntity
  8
0
100
AcDbVertex
100
AcDb2dVertex
 10
17.734299
 20
322.598145
 30
0.0
  0
VERTEX
  5
69B
330
68A
100
AcDbEntity
  8
0
100
AcDbVertex
100
AcDb2dVertex
 10
17.728384
 20
322.702393
 30
0.0
  0
VERTEX
  5
69C
330
68A
100
AcDbEntity
  8
0
100
AcDbVertex
100
AcDb2dVertex
 10
17.715881
 20
322.805603
 30
0.0
  0
VERTEX
  5
69D
330
68A
100
AcDbEntity
  8
0
100
AcDbVertex
100
AcDb2dVertex
 10
17.696985
 20
322.907471
 30
0.0
  0
VERTEX
  5
69E
330
68A
100
AcDbEntity
  8
0
100
AcDbVertex
100
AcDb2dVertex
 10
17.671886
 20
323.007568
 30
0.0
  0
VERTEX
  5
69F
330
68A
100
AcDbEntity
  8
0
100
AcDbVertex
100
AcDb2dVertex
 10
17.642878
 20
323.099609
 30
0.0
  0
VERTEX
  5
6A0
330
68A
100
AcDbEntity
  8
0
100
AcDbVertex
100
AcDb2dVertex
 10
17.608734
 20
323.189697
 30
0.0
  0
VERTEX
  5
6A1
330
68A
100
AcDbEntity
  8
0
100
AcDbVertex
100
AcDb2dVertex
 10
17.569611
 20
323.277466
 30
0.0
  0
VERTEX
  5
6A2
330
68A
100
AcDbEntity
  8
0
100
AcDbVertex
100
AcDb2dVertex
 10
17.52566
 20
323.362793
 30
0.0
  0
VERTEX
  5
6A3
330
68A
100
AcDbEntity
  8
0
100
AcDbVertex
100
AcDb2dVertex
 10
17.477028
 20
323.445435
 30
0.0
  0
SEQEND
  5
6A4
330
68A
100
AcDbEntity
  8
0
 62
     7
  0
ARC
  5
6A5
330
1F
100
AcDbEntity
  8
0
 62
     7
100
AcDbCircle
 10
20.993053
 20
325.650024
 30
0.0
 40
4.150000095367432
100
AcDbArc
 50
180.000009
 51
212.087746
  0
LINE
  5
6A6
330
1F
100
AcDbEntity
  8
0
 62
     7
100
AcDbLine
 10
16.843054
 20
326.650024
 30
0.0
 11
16.843054
 21
325.650024
 31
0.0
  0
ARC
  5
6A7
330
1F
100
AcDbEntity
  8
0
 62
     7
100
AcDbCircle
 10
20.993053
 20
326.650024
 30
0.0
 40
4.150000095367432
100
AcDbArc
 50
141.416403
 51
180.000009
  0
ARC
  5
6A8
330
1F
100
AcDbEntity
  8
0
 62
     7
100
AcDbCircle
 10
17.358154
 20
329.549988
 30
0.0
 40
0.5
100
AcDbArc
 50
321.416408
 51
90.000003
  0
LINE
  5
6A9
330
1F
100
AcDbEntity
  8
0
 62
     7
100
AcDbLine
 10
15.143055
 20
322.349976
 30
0.0
 11
14.743055
 21
322.349976
 31
0.0
  0
ARC
  5
6AA
330
1F
100
AcDbEntity
  8
0
 62
     7
100
AcDbCircle
 10
14.743055
 20
323.700012
 30
0.0
 40
1.350000023841858
100
AcDbArc
 50
90.000003
 51
269.99997
  0
LINE
  5
6AB
330
1F
100
AcDbEntity
  8
0
 62
     7
100
AcDbLine
 10
14.743055
 20
325.049988
 30
0.0
 11
15.143055
 21
325.049988
 31
0.0
  0
ARC
  5
6AC
330
1F
100
AcDbEntity
  8
0
 62
     7
100
AcDbCircle
 10
15.143055
 20
323.700012
 30
0.0
 40
1.350000023841858
100
AcDbArc
 50
269.999997
 51
89.999989
  0
CIRCLE
  5
6AD
330
1F
100
AcDbEntity
  8
0
 62
     7
100
AcDbCircle
 10
27.043056
 20
323.700012
 30
0.0
 40
1.350000023841858
  0
LINE
  5
6AE
330
1F
100
AcDbEntity
  8
0
 62
     7
100
AcDbLine
 10
12.893055
 20
330.049988
 30
0.0
 11
17.358154
 21
330.049988
 31
0.0
  0
LINE
  5
6AF
330
1F
100
AcDbEntity
  8
0
 62
     7
100
AcDbLine
 10
12.893055
 20
305.950012
 30
0.0
 11
17.593004
 21
305.950012
 31
0.0
  0
LINE
  5
6B0
330
1F
100
AcDbEntity
  8
0
 62
     7
100
AcDbLine
 10
24.393002
 20
305.950012
 30
0.0
 11
29.093056
 21
305.950012
 31
0.0
  0
LINE
  5
6B1
330
1F
100
AcDbEntity
  8
0
 62
     7
100
AcDbLine
 10
19.411121
 20
330.049988
 30
0.0
 11
17.683975
 21
330.049988
 31
0.0
  0
LINE
  5
6B2
330
1F
100
AcDbEntity
  8
0
 62
     7
100
AcDbLine
 10
24.302132
 20
330.049988
 30
0.0
 11
22.574986
 21
330.049988
 31
0.0
  0
LINE
  5
6B3
330
1F
100
AcDbEntity
  8
0
 62
     7
100
AcDbLine
 10
24.302132
 20
330.049988
 30
0.0
 11
24.627956
 21
330.049988
 31
0.0
  0
LINE
  5
6B4
330
1F
100
AcDbEntity
  8
0
 62
     7
100
AcDbLine
 10
24.627956
 20
330.049988
 30
0.0
 11
29.093056
 21
330.049988
 31
0.0
  0
LINE
  5
6B5
330
1F
100
AcDbEntity
  8
0
 62
     7
100
AcDbLine
 10
17.358154
 20
330.049988
 30
0.0
 11
17.683975
 21
330.049988
 31
0.0
  0
LINE
  5
6B6
330
1F
100
AcDbEntity
  8
0
 62
     7
100
AcDbLine
 10
12.893055
 20
331.049988
 30
0.0
 11
29.093056
 21
331.049988
 31
0.0
  0
LINE
  5
6B7
330
1F
100
AcDbEntity
  8
0
 62
     7
100
AcDbLine
 10
12.193054
 20
325.9505
 30
0.0
 11
12.193054
 21
328.18512
 31
0.0
  0
LINE
  5
6B8
330
1F
100
AcDbEntity
  8
0
 62
     7
100
AcDbLine
 10
29.793056
 20
325.9505
 30
0.0
 11
29.793056
 21
328.18512
 31
0.0
  0
LINE
  5
6B9
330
1F
100
AcDbEntity
  8
0
 62
     7
100
AcDbLine
 10
24.451115
 20
323.355591
 30
0.0
 11
24.509083
 21
323.445435
 31
0.0
  0
POLYLINE
  5
6BA
330
1F
100
AcDbEntity
  8
0
 62
     7
100
AcDb2dPolyline
 66
     1
 10
0.0
 20
0.0
 30
0.0
  0
VERTEX
  5
6BB
330
6BA
100
AcDbEntity
  8
0
100
AcDbVertex
100
AcDb2dVertex
 10
24.451115
 20
323.355591
 30
0.0
  0
VERTEX
  5
6BC
330
6BA
100
AcDbEntity
  8
0
100
AcDbVertex
100
AcDb2dVertex
 10
24.39539
 20
323.265686
 30
0.0
  0
VERTEX
  5
6BD
330
6BA
100
AcDbEntity
  8
0
100
AcDbVertex
100
AcDb2dVertex
 10
24.345295
 20
323.172363
 30
0.0
  0
VERTEX
  5
6BE
330
6BA
100
AcDbEntity
  8
0
100
AcDbVertex
100
AcDb2dVertex
 10
24.301037
 20
323.075928
 30
0.0
  0
VERTEX
  5
6BF
330
6BA
100
AcDbEntity
  8
0
100
AcDbVertex
100
AcDb2dVertex
 10
24.262825
 20
322.976685
 30
0.0
  0
VERTEX
  5
6C0
330
6BA
100
AcDbEntity
  8
0
100
AcDbVertex
100
AcDb2dVertex
 10
24.230877
 20
322.874939
 30
0.0
  0
VERTEX
  5
6C1
330
6BA
100
AcDbEntity
  8
0
100
AcDbVertex
100
AcDb2dVertex
 10
24.20541
 20
322.771057
 30
0.0
  0
VERTEX
  5
6C2
330
6BA
100
AcDbEntity
  8
0
100
AcDbVertex
100
AcDb2dVertex
 10
24.186649
 20
322.665344
 30
0.0
  0
VERTEX
  5
6C3
330
6BA
100
AcDbEntity
  8
0
100
AcDbVertex
100
AcDb2dVertex
 10
24.174976
 20
322.560303
 30
0.0
  0
VERTEX
  5
6C4
330
6BA
100
AcDbEntity
  8
0
100
AcDbVertex
100
AcDb2dVertex
 10
24.170166
 20
322.454285
 30
0.0
  0
VERTEX
  5
6C5
330
6BA
100
AcDbEntity
  8
0
100
AcDbVertex
100
AcDb2dVertex
 10
24.172417
 20
322.347595
 30
0.0
  0
VERTEX
  5
6C6
330
6BA
100
AcDbEntity
  8
0
100
AcDbVertex
100
AcDb2dVertex
 10
24.181919
 20
322.240784
 30
0.0
  0
VERTEX
  5
6C7
330
6BA
100
AcDbEntity
  8
0
100
AcDbVertex
100
AcDb2dVertex
 10
24.198841
 20
322.134338
 30
0.0
  0
VERTEX
  5
6C8
330
6BA
100
AcDbEntity
  8
0
100
AcDbVertex
100
AcDb2dVertex
 10
24.22332
 20
322.028748
 30
0.0
  0
VERTEX
  5
6C9
330
6BA
100
AcDbEntity
  8
0
100
AcDbVertex
100
AcDb2dVertex
 10
24.255455
 20
321.924622
 30
0.0
  0
VERTEX
  5
6CA
330
6BA
100
AcDbEntity
  8
0
100
AcDbVertex
100
AcDb2dVertex
 10
24.293476
 20
321.826782
 30
0.0
  0
VERTEX
  5
6CB
330
6BA
100
AcDbEntity
  8
0
100
AcDbVertex
100
AcDb2dVertex
 10
24.338562
 20
321.731445
 30
0.0
  0
VERTEX
  5
6CC
330
6BA
100
AcDbEntity
  8
0
100
AcDbVertex
100
AcDb2dVertex
 10
24.39064
 20
321.639221
 30
0.0
  0
VERTEX
  5
6CD
330
6BA
100
AcDbEntity
  8
0
100
AcDbVertex
100
AcDb2dVertex
 10
24.449562
 20
321.55072
 30
0.0
  0
VERTEX
  5
6CE
330
6BA
100
AcDbEntity
  8
0
100
AcDbVertex
100
AcDb2dVertex
 10
24.481525
 20
321.507996
 30
0.0
  0
VERTEX
  5
6CF
330
6BA
100
AcDbEntity
  8
0
100
AcDbVertex
100
AcDb2dVertex
 10
24.51511
 20
321.466492
 30
0.0
  0
VERTEX
  5
6D0
330
6BA
100
AcDbEntity
  8
0
100
AcDbVertex
100
AcDb2dVertex
 10
24.562347
 20
321.413025
 30
0.0
  0
VERTEX
  5
6D1
330
6BA
100
AcDbEntity
  8
0
100
AcDbVertex
100
AcDb2dVertex
 10
24.612286
 20
321.362
 30
0.0
  0
VERTEX
  5
6D2
330
6BA
100
AcDbEntity
  8
0
100
AcDbVertex
100
AcDb2dVertex
 10
24.664799
 20
321.313416
 30
0.0
  0
VERTEX
  5
6D3
330
6BA
100
AcDbEntity
  8
0
100
AcDbVertex
100
AcDb2dVertex
 10
24.720158
 20
321.267273
 30
0.0
  0
VERTEX
  5
6D4
330
6BA
100
AcDbEntity
  8
0
100
AcDbVertex
100
AcDb2dVertex
 10
24.777885
 20
321.223877
 30
0.0
  0
VERTEX
  5
6D5
330
6BA
100
AcDbEntity
  8
0
100
AcDbVertex
100
AcDb2dVertex
 10
24.837696
 20
321.183594
 30
0.0
  0
SEQEND
  5
6D6
330
6BA
100
AcDbEntity
  8
0
 62
     7
  0
ARC
  5
6D7
330
1F
100
AcDbEntity
  8
0
 62
     7
100
AcDbCircle
 10
20.993053
 20
315.150024
 30
0.0
 40
7.099999904632568
100
AcDbArc
 50
298.611797
 51
241.352115
  0
ARC
  5
6D8
330
1F
100
AcDbEntity
  8
0
 62
     7
100
AcDbCircle
 10
20.992821
 20
315.149597
 30
0.0
 40
7.154872894287109
100
AcDbArc
 50
57.494627
 51
61.351983
  0
ARC
  5
6D9
330
1F
100
AcDbEntity
  8
0
 62
     7
100
AcDbCircle
 10
20.993061
 20
315.149963
 30
0.0
 40
7.154425144195557
100
AcDbArc
 50
61.352113
 51
122.505467
  0
POLYLINE
  5
6DA
330
1F
100
AcDbEntity
  8
0
 62
     7
100
AcDb2dPolyline
 66
     1
 10
0.0
 20
0.0
 30
0.0
  0
VERTEX
  5
6DB
330
6DA
100
AcDbEntity
  8
0
100
AcDbVertex
100
AcDb2dVertex
 10
17.534996
 20
323.355591
 30
0.0
  0
VERTEX
  5
6DC
330
6DA
100
AcDbEntity
  8
0
100
AcDbVertex
100
AcDb2dVertex
 10
17.590717
 20
323.265686
 30
0.0
  0
VERTEX
  5
6DD
330
6DA
100
AcDbEntity
  8
0
100
AcDbVertex
100
AcDb2dVertex
 10
17.640812
 20
323.172363
 30
0.0
  0
VERTEX
  5
6DE
330
6DA
100
AcDbEntity
  8
0
100
AcDbVertex
100
AcDb2dVertex
 10
17.685072
 20
323.075928
 30
0.0
  0
VERTEX
  5
6DF
330
6DA
100
AcDbEntity
  8
0
100
AcDbVertex
100
AcDb2dVertex
 10
17.723284
 20
322.976685
 30
0.0
  0
VERTEX
  5
6E0
330
6DA
100
AcDbEntity
  8
0
100
AcDbVertex
100
AcDb2dVertex
 10
17.755232
 20
322.874939
 30
0.0
  0
VERTEX
  5
6E1
330
6DA
100
AcDbEntity
  8
0
100
AcDbVertex
100
AcDb2dVertex
 10
17.780697
 20
322.771057
 30
0.0
  0
VERTEX
  5
6E2
330
6DA
100
AcDbEntity
  8
0
100
AcDbVertex
100
AcDb2dVertex
 10
17.799459
 20
322.665344
 30
0.0
  0
VERTEX
  5
6E3
330
6DA
100
AcDbEntity
  8
0
100
AcDbVertex
100
AcDb2dVertex
 10
17.811131
 20
322.560303
 30
0.0
  0
VERTEX
  5
6E4
330
6DA
100
AcDbEntity
  8
0
100
AcDbVertex
100
AcDb2dVertex
 10
17.815943
 20
322.454285
 30
0.0
  0
VERTEX
  5
6E5
330
6DA
100
AcDbEntity
  8
0
100
AcDbVertex
100
AcDb2dVertex
 10
17.813692
 20
322.347595
 30
0.0
  0
VERTEX
  5
6E6
330
6DA
100
AcDbEntity
  8
0
100
AcDbVertex
100
AcDb2dVertex
 10
17.80419
 20
322.240784
 30
0.0
  0
VERTEX
  5
6E7
330
6DA
100
AcDbEntity
  8
0
100
AcDbVertex
100
AcDb2dVertex
 10
17.787268
 20
322.134338
 30
0.0
  0
VERTEX
  5
6E8
330
6DA
100
AcDbEntity
  8
0
100
AcDbVertex
100
AcDb2dVertex
 10
17.762789
 20
322.028748
 30
0.0
  0
VERTEX
  5
6E9
330
6DA
100
AcDbEntity
  8
0
100
AcDbVertex
100
AcDb2dVertex
 10
17.730654
 20
321.924622
 30
0.0
  0
VERTEX
  5
6EA
330
6DA
100
AcDbEntity
  8
0
100
AcDbVertex
100
AcDb2dVertex
 10
17.692635
 20
321.826782
 30
0.0
  0
VERTEX
  5
6EB
330
6DA
100
AcDbEntity
  8
0
100
AcDbVertex
100
AcDb2dVertex
 10
17.647549
 20
321.731445
 30
0.0
  0
VERTEX
  5
6EC
330
6DA
100
AcDbEntity
  8
0
100
AcDbVertex
100
AcDb2dVertex
 10
17.59547
 20
321.639221
 30
0.0
  0
VERTEX
  5
6ED
330
6DA
100
AcDbEntity
  8
0
100
AcDbVertex
100
AcDb2dVertex
 10
17.536547
 20
321.55072
 30
0.0
  0
VERTEX
  5
6EE
330
6DA
100
AcDbEntity
  8
0
100
AcDbVertex
100
AcDb2dVertex
 10
17.504583
 20
321.507996
 30
0.0
  0
VERTEX
  5
6EF
330
6DA
100
AcDbEntity
  8
0
100
AcDbVertex
100
AcDb2dVertex
 10
17.470997
 20
321.466492
 30
0.0
  0
VERTEX
  5
6F0
330
6DA
100
AcDbEntity
  8
0
100
AcDbVertex
100
AcDb2dVertex
 10
17.423763
 20
321.413025
 30
0.0
  0
VERTEX
  5
6F1
330
6DA
100
AcDbEntity
  8
0
100
AcDbVertex
100
AcDb2dVertex
 10
17.373825
 20
321.362
 30
0.0
  0
VERTEX
  5
6F2
330
6DA
100
AcDbEntity
  8
0
100
AcDbVertex
100
AcDb2dVertex
 10
17.32131
 20
321.313416
 30
0.0
  0
VERTEX
  5
6F3
330
6DA
100
AcDbEntity
  8
0
100
AcDbVertex
100
AcDb2dVertex
 10
17.265949
 20
321.267273
 30
0.0
  0
VERTEX
  5
6F4
330
6DA
100
AcDbEntity
  8
0
100
AcDbVertex
100
AcDb2dVertex
 10
17.208223
 20
321.223877
 30
0.0
  0
VERTEX
  5
6F5
330
6DA
100
AcDbEntity
  8
0
100
AcDbVertex
100
AcDb2dVertex
 10
17.148413
 20
321.183594
 30
0.0
  0
SEQEND
  5
6F6
330
6DA
100
AcDbEntity
  8
0
 62
     7
  0
LINE
  5
6F7
330
1F
100
AcDbEntity
  8
0
 62
     7
100
AcDbLine
 10
17.477028
 20
323.445435
 30
0.0
 11
17.534996
 21
323.355591
 31
0.0
  0
LINE
  5
6F8
330
1F
100
AcDbEntity
  8
0
 62
     7
100
AcDbLine
 10
15.143055
 20
322.450012
 30
0.0
 11
14.743055
 21
322.450012
 31
0.0
  0
ARC
  5
6F9
330
1F
100
AcDbEntity
  8
0
 62
     7
100
AcDbCircle
 10
14.743055
 20
323.700012
 30
0.0
 40
1.25
100
AcDbArc
 50
90.000003
 51
269.999997
  0
LINE
  5
6FA
330
1F
100
AcDbEntity
  8
0
 62
     7
100
AcDbLine
 10
14.743055
 20
324.950012
 30
0.0
 11
15.143055
 21
324.950012
 31
0.0
  0
ARC
  5
6FB
330
1F
100
AcDbEntity
  8
0
 62
     7
100
AcDbCircle
 10
15.143055
 20
323.700012
 30
0.0
 40
1.25
100
AcDbArc
 50
269.999997
 51
90.000003
  0
CIRCLE
  5
6FC
330
1F
100
AcDbEntity
  8
0
 62
     7
100
AcDbCircle
 10
27.043056
 20
323.700012
 30
0.0
 40
1.25
  0
ARC
  5
6FD
330
1F
100
AcDbEntity
  8
0
 62
     7
100
AcDbCircle
 10
24.302132
 20
329.549988
 30
0.0
 40
0.5
100
AcDbArc
 50
90.000003
 51
221.230582
  0
ARC
  5
6FE
330
1F
100
AcDbEntity
  8
0
 62
     7
100
AcDbCircle
 10
17.683975
 20
329.549988
 30
0.0
 40
0.5
100
AcDbArc
 50
318.769437
 51
90.000003
  0
LINE
  5
6FF
330
1F
100
AcDbEntity
  8
0
 62
     7
100
AcDbLine
 10
16.893055
 20
332.049988
 30
0.0
 11
16.893055
 21
331.049988
 31
0.0
  0
ARC
  5
700
330
1F
100
AcDbEntity
  8
0
 62
     7
100
AcDbCircle
 10
15.193054
 20
331.549988
 30
0.0
 40
1.5
100
AcDbArc
 50
340.529081
 51
360.0
  0
LINE
  5
701
330
1F
100
AcDbEntity
  8
0
 62
     7
100
AcDbLine
 10
16.193054
 20
332.049988
 30
0.0
 11
16.193054
 21
332.150024
 31
0.0
  0
ARC
  5
702
330
1F
100
AcDbEntity
  8
0
 62
     7
100
AcDbCircle
 10
15.193054
 20
332.049988
 30
0.0
 40
1.0
100
AcDbArc
 50
269.999997
 51
360.0
  0
LINE
  5
703
330
1F
100
AcDbEntity
  8
0
 62
     7
100
AcDbLine
 10
16.693054
 20
332.150024
 30
0.0
 11
16.693054
 21
331.549988
 31
0.0
  0
LINE
  5
704
330
1F
100
AcDbEntity
  8
0
 62
     7
100
AcDbLine
 10
25.093056
 20
332.150024
 30
0.0
 11
25.093056
 21
332.049927
 31
0.0
  0
LINE
  5
705
330
1F
100
AcDbEntity
  8
0
 62
     7
100
AcDbLine
 10
25.293056
 20
332.150024
 30
0.0
 11
25.293056
 21
331.549988
 31
0.0
  0
ARC
  5
706
330
1F
100
AcDbEntity
  8
0
 62
     7
100
AcDbCircle
 10
26.793056
 20
331.549988
 30
0.0
 40
1.5
100
AcDbArc
 50
180.000009
 51
199.470938
  0
ARC
  5
707
330
1F
100
AcDbEntity
  8
0
 62
     7
100
AcDbCircle
 10
26.793056
 20
332.049988
 30
0.0
 40
1.0
100
AcDbArc
 50
180.000009
 51
269.999997
  0
LINE
  5
708
330
1F
100
AcDbEntity
  8
0
 62
     7
100
AcDbLine
 10
25.793056
 20
332.049988
 30
0.0
 11
25.793056
 21
332.150024
 31
0.0
  0
ARC
  5
709
330
1F
100
AcDbEntity
  8
0
 62
     7
100
AcDbCircle
 10
20.993053
 20
326.650024
 30
0.0
 40
3.900000095367432
100
AcDbArc
 50
138.769418
 51
41.230577
  0
LINE
  5
70A
330
1F
100
AcDbEntity
  8
0
 62
     7
100
AcDbLine
 10
25.093056
 20
331.049988
 30
0.0
 11
25.093056
 21
332.049988
 31
0.0
  0
LINE
  5
70B
330
1F
100
AcDbEntity
  8
0
 62
     7
100
AcDbLine
 10
16.893055
 20
332.049988
 30
0.0
 11
16.893055
 21
332.150085
 31
0.0
  0
ARC
  5
70C
330
1F
100
AcDbEntity
  8
0
 62
     7
100
AcDbCircle
 10
24.593056
 20
332.049988
 30
0.0
 40
0.5
100
AcDbArc
 50
0.0
 51
11.538233
  0
ARC
  5
70D
330
1F
100
AcDbEntity
  8
0
 62
     7
100
AcDbCircle
 10
20.993053
 20
326.650024
 30
0.0
 40
3.75
100
AcDbArc
 50
80.018316
 51
99.981682
  0
ARC
  5
70E
330
1F
100
AcDbEntity
  8
0
 62
     7
100
AcDbCircle
 10
20.993053
 20
326.650024
 30
0.0
 40
3.75
100
AcDbArc
 50
279.981697
 51
80.018316
  0
ARC
  5
70F
330
1F
100
AcDbEntity
  8
0
 62
     7
100
AcDbCircle
 10
20.993053
 20
326.650024
 30
0.0
 40
3.75
100
AcDbArc
 50
260.018304
 51
279.981697
  0
ARC
  5
710
330
1F
100
AcDbEntity
  8
0
 62
     7
100
AcDbCircle
 10
20.993053
 20
326.650024
 30
0.0
 40
3.75
100
AcDbArc
 50
99.981682
 51
260.018304
  0
LINE
  5
711
330
1F
100
AcDbEntity
  8
0
 62
     7
100
AcDbLine
 10
21.643055
 20
330.140015
 30
0.0
 11
21.643055
 21
330.343262
 31
0.0
  0
LINE
  5
712
330
1F
100
AcDbEntity
  8
0
 62
     7
100
AcDbLine
 10
21.643055
 20
323.160034
 30
0.0
 11
21.643055
 21
322.956787
 31
0.0
  0
LINE
  5
713
330
1F
100
AcDbEntity
  8
0
 62
     7
100
AcDbLine
 10
21.643055
 20
330.140015
 30
0.0
 11
21.643055
 21
323.160034
 31
0.0
  0
ARC
  5
714
330
1F
100
AcDbEntity
  8
0
 62
     7
100
AcDbCircle
 10
20.993053
 20
326.650024
 30
0.0
 40
3.549999952316284
100
AcDbArc
 50
280.55029
 51
79.449696
  0
LINE
  5
715
330
1F
100
AcDbEntity
  8
0
 62
     7
100
AcDbLine
 10
20.343056
 20
323.160034
 30
0.0
 11
20.343056
 21
322.956787
 31
0.0
  0
LINE
  5
716
330
1F
100
AcDbEntity
  8
0
 62
     7
100
AcDbLine
 10
20.343056
 20
330.140015
 30
0.0
 11
20.343056
 21
330.343262
 31
0.0
  0
LINE
  5
717
330
1F
100
AcDbEntity
  8
0
 62
     7
100
AcDbLine
 10
20.343056
 20
323.160034
 30
0.0
 11
20.343056
 21
330.140015
 31
0.0
  0
ARC
  5
718
330
1F
100
AcDbEntity
  8
0
 62
     7
100
AcDbCircle
 10
20.993053
 20
326.650024
 30
0.0
 40
3.549999952316284
100
AcDbArc
 50
100.550302
 51
259.449705
  0
LINE
  5
719
330
1F
100
AcDbEntity
  8
0
 62
     7
100
AcDbLine
 10
17.593054
 20
240.150009
 30
0.0
 11
17.593054
 21
315.150024
 31
0.0
  0
ARC
  5
71A
330
1F
100
AcDbEntity
  8
0
 62
     7
100
AcDbCircle
 10
20.993053
 20
315.150024
 30
0.0
 40
3.400000095367432
100
AcDbArc
 50
0.0
 51
180.000009
  0
LINE
  5
71B
330
1F
100
AcDbEntity
  8
0
 62
     7
100
AcDbLine
 10
24.393055
 20
240.150009
 30
0.0
 11
24.393055
 21
315.150024
 31
0.0
  0
LINE
  5
71C
330
1F
100
AcDbEntity
  8
0
 62
     7
100
AcDbLine
 10
17.593054
 20
240.150009
 30
0.0
 11
17.593054
 21
230.150009
 31
0.0
  0
LINE
  5
71D
330
1F
100
AcDbEntity
  8
0
 62
     7
100
AcDbLine
 10
24.393055
 20
240.150009
 30
0.0
 11
24.393055
 21
230.150009
 31
0.0
  0
LINE
  5
71E
330
1F
100
AcDbEntity
  8
0
 62
     7
100
AcDbLine
 10
24.393055
 20
230.150009
 30
0.0
 11
17.593054
 21
230.150009
 31
0.0
  0
ARC
  5
71F
330
1F
100
AcDbEntity
  8
0
 62
     7
100
AcDbCircle
 10
20.993053
 20
315.150024
 30
0.0
 40
3.549999952316284
100
AcDbArc
 50
344.596894
 51
195.402372
  0
ARC
  5
720
330
1F
100
AcDbEntity
  8
0
 62
     7
100
AcDbCircle
 10
20.993053
 20
315.150024
 30
0.0
 40
4.712500095367432
100
AcDbArc
 50
192.251401
 51
223.822666
  0
ARC
  5
721
330
1F
100
AcDbEntity
  8
0
 62
     7
100
AcDbCircle
 10
20.993053
 20
315.150024
 30
0.0
 40
4.712500095367432
100
AcDbArc
 50
316.177161
 51
347.748591
  0
LINE
  5
722
330
1F
100
AcDbEntity
  8
0
 62
     7
100
AcDbLine
 10
25.534256
 20
314.150024
 30
0.0
 11
25.598232
 21
314.150024
 31
0.0
  0
ARC
  5
723
330
1F
100
AcDbEntity
  8
0
 62
     7
100
AcDbCircle
 10
20.993053
 20
315.150024
 30
0.0
 40
4.650000095367432
100
AcDbArc
 50
316.985583
 51
347.581305
  0
ARC
  5
724
330
1F
100
AcDbEntity
  8
0
 62
     7
100
AcDbCircle
 10
20.993053
 20
315.150024
 30
0.0
 40
4.650000095367432
100
AcDbArc
 50
192.418686
 51
223.014354
  0
ARC
  5
725
330
1F
100
AcDbEntity
  8
0
 62
     7
100
AcDbCircle
 10
20.993053
 20
315.150024
 30
0.0
 40
4.574999809265137
100
AcDbArc
 50
192.6256
 51
221.997954
  0
ARC
  5
726
330
1F
100
AcDbEntity
  8
0
 62
     7
100
AcDbCircle
 10
20.993053
 20
315.150024
 30
0.0
 40
4.574999809265137
100
AcDbArc
 50
318.002024
 51
347.374406
  0
LINE
  5
727
330
1F
100
AcDbEntity
  8
0
 62
     7
100
AcDbLine
 10
25.393356
 20
314.150024
 30
0.0
 11
25.457428
 21
314.150024
 31
0.0
  0
ARC
  5
728
330
1F
100
AcDbEntity
  8
0
 62
     7
100
AcDbCircle
 10
20.993053
 20
315.150024
 30
0.0
 40
4.512499809265137
100
AcDbArc
 50
318.891096
 51
347.196575
  0
ARC
  5
729
330
1F
100
AcDbEntity
  8
0
 62
     7
100
AcDbCircle
 10
20.993053
 20
315.150024
 30
0.0
 40
4.512499809265137
100
AcDbArc
 50
192.803417
 51
221.108896
  0
ARC
  5
72A
330
1F
100
AcDbEntity
  8
0
 62
     7
100
AcDbCircle
 10
20.993053
 20
315.150024
 30
0.0
 40
4.4375
100
AcDbArc
 50
193.023581
 51
219.986545
  0
ARC
  5
72B
330
1F
100
AcDbEntity
  8
0
 62
     7
100
AcDbCircle
 10
20.993053
 20
315.150024
 30
0.0
 40
4.4375
100
AcDbArc
 50
320.013433
 51
346.976424
  0
LINE
  5
72C
330
1F
100
AcDbEntity
  8
0
 62
     7
100
AcDbLine
 10
25.252235
 20
314.150024
 30
0.0
 11
25.31641
 21
314.150024
 31
0.0
  0
ARC
  5
72D
330
1F
100
AcDbEntity
  8
0
 62
     7
100
AcDbCircle
 10
20.993053
 20
315.150024
 30
0.0
 40
4.375
100
AcDbArc
 50
320.999384
 51
346.787008
  0
ARC
  5
72E
330
1F
100
AcDbEntity
  8
0
 62
     7
100
AcDbCircle
 10
20.993053
 20
315.150024
 30
0.0
 40
4.375
100
AcDbArc
 50
193.212982
 51
219.000594
  0
ARC
  5
72F
330
1F
100
AcDbEntity
  8
0
 62
     7
100
AcDbCircle
 10
20.993053
 20
315.150024
 30
0.0
 40
4.25
100
AcDbArc
 50
323.12972
 51
216.870258
  0
ARC
  5
730
330
1F
100
AcDbEntity
  8
0
 62
     7
100
AcDbCircle
 10
20.993053
 20
315.150024
 30
0.0
 40
4.375
100
AcDbArc
 50
13.21298
 51
166.787018
  0
LINE
  5
731
330
1F
100
AcDbEntity
  8
0
 62
     7
100
AcDbLine
 10
25.252235
 20
316.150024
 30
0.0
 11
25.31641
 21
316.150024
 31
0.0
  0
ARC
  5
732
330
1F
100
AcDbEntity
  8
0
 62
     7
100
AcDbCircle
 10
20.993053
 20
315.150024
 30
0.0
 40
4.4375
100
AcDbArc
 50
13.023584
 51
166.976419
  0
ARC
  5
733
330
1F
100
AcDbEntity
  8
0
 62
     7
100
AcDbCircle
 10
20.993053
 20
315.150024
 30
0.0
 40
4.512499809265137
100
AcDbArc
 50
12.803414
 51
167.196583
  0
LINE
  5
734
330
1F
100
AcDbEntity
  8
0
 62
     7
100
AcDbLine
 10
25.393356
 20
316.150024
 30
0.0
 11
25.457428
 21
316.150024
 31
0.0
  0
ARC
  5
735
330
1F
100
AcDbEntity
  8
0
 62
     7
100
AcDbCircle
 10
20.993053
 20
315.150024
 30
0.0
 40
4.574999809265137
100
AcDbArc
 50
12.625598
 51
167.3744
  0
ARC
  5
736
330
1F
100
AcDbEntity
  8
0
 62
     7
100
AcDbCircle
 10
20.993053
 20
315.150024
 30
0.0
 40
4.650000095367432
100
AcDbArc
 50
12.418682
 51
167.581314
  0
LINE
  5
737
330
1F
100
AcDbEntity
  8
0
 62
     7
100
AcDbLine
 10
25.534256
 20
316.150024
 30
0.0
 11
25.598232
 21
316.150024
 31
0.0
  0
ARC
  5
738
330
1F
100
AcDbEntity
  8
0
 62
     7
100
AcDbCircle
 10
20.993053
 20
315.150024
 30
0.0
 40
4.712500095367432
100
AcDbArc
 50
12.251403
 51
167.748599
  0
LINE
  5
739
330
1F
100
AcDbEntity
  8
0
 62
     7
100
AcDbLine
 10
16.451855
 20
314.150024
 30
0.0
 11
16.387878
 21
314.150024
 31
0.0
  0
LINE
  5
73A
330
1F
100
AcDbEntity
  8
0
 62
     7
100
AcDbLine
 10
16.451855
 20
316.150024
 30
0.0
 11
16.387878
 21
316.150024
 31
0.0
  0
LINE
  5
73B
330
1F
100
AcDbEntity
  8
0
 62
     7
100
AcDbLine
 10
16.592752
 20
316.150024
 30
0.0
 11
16.528683
 21
316.150024
 31
0.0
  0
LINE
  5
73C
330
1F
100
AcDbEntity
  8
0
 62
     7
100
AcDbLine
 10
16.733873
 20
316.150024
 30
0.0
 11
16.669699
 21
316.150024
 31
0.0
  0
LINE
  5
73D
330
1F
100
AcDbEntity
  8
0
 62
     7
100
AcDbLine
 10
16.733873
 20
314.150024
 30
0.0
 11
16.669699
 21
314.150024
 31
0.0
  0
LINE
  5
73E
330
1F
100
AcDbEntity
  8
0
 62
     7
100
AcDbLine
 10
16.592752
 20
314.150024
 30
0.0
 11
16.528683
 21
314.150024
 31
0.0
  0
ARC
  5
73F
330
1F
100
AcDbEntity
  8
0
 62
     7
100
AcDbCircle
 10
20.993053
 20
315.150024
 30
0.0
 40
5.0
100
AcDbArc
 50
312.843537
 51
227.156454
  0
ARC
  5
740
330
1F
100
AcDbEntity
  8
0
 62
     7
100
AcDbCircle
 10
20.993053
 20
315.150024
 30
0.0
 40
5.300000190734863
100
AcDbArc
 50
309.904343
 51
230.095662
  0
ARC
  5
741
330
1F
100
AcDbEntity
  8
0
 62
     7
100
AcDbCircle
 10
20.993053
 20
315.150024
 30
0.0
 40
5.900000095367432
100
AcDbArc
 50
305.188613
 51
151.352115
  0
ARC
  5
742
330
1F
100
AcDbEntity
  8
0
 62
     7
100
AcDbCircle
 10
20.993053
 20
315.150024
 30
0.0
 40
5.900000095367432
100
AcDbArc
 50
151.352115
 51
234.811389
  0
ARC
  5
743
330
1F
100
AcDbEntity
  8
0
 62
     7
100
AcDbCircle
 10
20.993053
 20
315.150024
 30
0.0
 40
6.300000190734863
100
AcDbArc
 50
137.752785
 51
162.24721
  0
LINE
  5
744
330
1F
100
AcDbEntity
  8
0
 62
     7
100
AcDbLine
 10
14.993055
 20
317.070923
 30
0.0
 11
14.993055
 21
313.229065
 31
0.0
  0
ARC
  5
745
330
1F
100
AcDbEntity
  8
0
 62
     7
100
AcDbCircle
 10
20.993053
 20
315.150024
 30
0.0
 40
6.300000190734863
100
AcDbArc
 50
197.75279
 51
222.247215
  0
LINE
  5
746
330
1F
100
AcDbEntity
  8
0
 62
     7
100
AcDbLine
 10
16.329473
 20
310.914307
 30
0.0
 11
17.592974
 21
310.184814
 31
0.0
  0
LINE
  5
747
330
1F
100
AcDbEntity
  8
0
 62
     7
100
AcDbLine
 10
24.393131
 20
310.184814
 30
0.0
 11
25.656635
 21
310.914307
 31
0.0
  0
ARC
  5
748
330
1F
100
AcDbEntity
  8
0
 62
     7
100
AcDbCircle
 10
20.993053
 20
315.150024
 30
0.0
 40
6.300000190734863
100
AcDbArc
 50
317.752777
 51
342.247199
  0
LINE
  5
749
330
1F
100
AcDbEntity
  8
0
 62
     7
100
AcDbLine
 10
26.993053
 20
313.229065
 30
0.0
 11
26.993053
 21
317.070923
 31
0.0
  0
ARC
  5
74A
330
1F
100
AcDbEntity
  8
0
 62
     7
100
AcDbCircle
 10
20.993053
 20
315.150024
 30
0.0
 40
6.300000190734863
100
AcDbArc
 50
17.75279
 51
42.24721
  0
LINE
  5
74B
330
1F
100
AcDbEntity
  8
0
 62
     7
100
AcDbLine
 10
25.656635
 20
319.385681
 30
0.0
 11
22.329475
 21
321.306641
 31
0.0
  0
ARC
  5
74C
330
1F
100
AcDbEntity
  8
0
 62
     7
100
AcDbCircle
 10
20.993053
 20
315.150024
 30
0.0
 40
6.300000190734863
100
AcDbArc
 50
77.75279
 51
102.247215
  0
LINE
  5
74D
330
1F
100
AcDbEntity
  8
0
 62
     7
100
AcDbLine
 10
19.656635
 20
321.306641
 30
0.0
 11
16.329473
 21
319.385681
 31
0.0
  0
ARC
  5
74E
330
1F
100
AcDbEntity
  8
0
 62
     7
100
AcDbCircle
 10
20.993053
 20
315.150024
 30
0.0
 40
6.800000190734863
100
AcDbArc
 50
137.403926
 51
162.596068
  0
LINE
  5
74F
330
1F
100
AcDbEntity
  8
0
 62
     7
100
AcDbLine
 10
14.907722
 20
316.780579
 30
0.0
 11
14.50436
 21
317.183899
 31
0.0
  0
ARC
  5
750
330
1F
100
AcDbEntity
  8
0
 62
     7
100
AcDbCircle
 10
20.993053
 20
315.150024
 30
0.0
 40
6.300000190734863
100
AcDbArc
 50
162.24721
 51
164.999994
  0
ARC
  5
751
330
1F
100
AcDbEntity
  8
0
 62
     7
100
AcDbCircle
 10
20.993053
 20
315.150024
 30
0.0
 40
6.300000190734863
100
AcDbArc
 50
135.0
 51
137.752785
  0
LINE
  5
752
330
1F
100
AcDbEntity
  8
0
 62
     7
100
AcDbLine
 10
16.538282
 20
319.604797
 30
0.0
 11
15.987278
 21
319.752441
 31
0.0
  0
ARC
  5
753
330
1F
100
AcDbEntity
  8
0
 62
     7
100
AcDbCircle
 10
20.993053
 20
315.150024
 30
0.0
 40
6.300000190734863
100
AcDbArc
 50
164.999994
 51
195.000006
  0
ARC
  5
754
330
1F
100
AcDbEntity
  8
0
 62
     7
100
AcDbCircle
 10
20.993053
 20
315.150024
 30
0.0
 40
6.300000190734863
100
AcDbArc
 50
195.000006
 51
197.75279
  0
LINE
  5
755
330
1F
100
AcDbEntity
  8
0
 62
     7
100
AcDbLine
 10
14.907722
 20
313.51947
 30
0.0
 11
14.50436
 21
313.116089
 31
0.0
  0
ARC
  5
756
330
1F
100
AcDbEntity
  8
0
 62
     7
100
AcDbCircle
 10
20.993053
 20
315.150024
 30
0.0
 40
6.800000190734863
100
AcDbArc
 50
197.403932
 51
222.596074
  0
LINE
  5
757
330
1F
100
AcDbEntity
  8
0
 62
     7
100
AcDbLine
 10
16.538282
 20
310.695251
 30
0.0
 11
15.987278
 21
310.547607
 31
0.0
  0
ARC
  5
758
330
1F
100
AcDbEntity
  8
0
 62
     7
100
AcDbCircle
 10
20.993053
 20
315.150024
 30
0.0
 40
6.300000190734863
100
AcDbArc
 50
222.247215
 51
225.0
  0
ARC
  5
759
330
1F
100
AcDbEntity
  8
0
 62
     7
100
AcDbCircle
 10
20.993053
 20
315.150024
 30
0.0
 40
6.300000190734863
100
AcDbArc
 50
225.0
 51
237.338012
  0
ARC
  5
75A
330
1F
100
AcDbEntity
  8
0
 62
     7
100
AcDbCircle
 10
20.993053
 20
315.150024
 30
0.0
 40
6.300000190734863
100
AcDbArc
 50
302.661962
 51
314.999992
  0
ARC
  5
75B
330
1F
100
AcDbEntity
  8
0
 62
     7
100
AcDbCircle
 10
20.993053
 20
315.150024
 30
0.0
 40
6.300000190734863
100
AcDbArc
 50
314.999992
 51
317.752777
  0
ARC
  5
75C
330
1F
100
AcDbEntity
  8
0
 62
     7
100
AcDbCircle
 10
20.993053
 20
315.150024
 30
0.0
 40
6.300000190734863
100
AcDbArc
 50
342.247199
 51
345.000012
  0
LINE
  5
75D
330
1F
100
AcDbEntity
  8
0
 62
     7
100
AcDbLine
 10
25.447826
 20
310.695251
 30
0.0
 11
25.998829
 21
310.547607
 31
0.0
  0
ARC
  5
75E
330
1F
100
AcDbEntity
  8
0
 62
     7
100
AcDbCircle
 10
20.993053
 20
315.150024
 30
0.0
 40
6.800000190734863
100
AcDbArc
 50
317.403918
 51
342.596085
  0
LINE
  5
75F
330
1F
100
AcDbEntity
  8
0
 62
     7
100
AcDbLine
 10
27.078388
 20
313.51947
 30
0.0
 11
27.48175
 21
313.116089
 31
0.0
  0
ARC
  5
760
330
1F
100
AcDbEntity
  8
0
 62
     7
100
AcDbCircle
 10
20.993053
 20
315.150024
 30
0.0
 40
6.300000190734863
100
AcDbArc
 50
345.000012
 51
15.0
  0
ARC
  5
761
330
1F
100
AcDbEntity
  8
0
 62
     7
100
AcDbCircle
 10
20.993053
 20
315.150024
 30
0.0
 40
6.300000190734863
100
AcDbArc
 50
15.0
 51
17.75279
  0
ARC
  5
762
330
1F
100
AcDbEntity
  8
0
 62
     7
100
AcDbCircle
 10
20.993053
 20
315.150024
 30
0.0
 40
6.800000190734863
100
AcDbArc
 50
17.403926
 51
42.596075
  0
LINE
  5
763
330
1F
100
AcDbEntity
  8
0
 62
     7
100
AcDbLine
 10
25.447826
 20
319.604797
 30
0.0
 11
25.998829
 21
319.752441
 31
0.0
  0
ARC
  5
764
330
1F
100
AcDbEntity
  8
0
 62
     7
100
AcDbCircle
 10
20.993053
 20
315.150024
 30
0.0
 40
6.300000190734863
100
AcDbArc
 50
42.24721
 51
45.000001
  0
LINE
  5
765
330
1F
100
AcDbEntity
  8
0
 62
     7
100
AcDbLine
 10
27.078388
 20
316.780579
 30
0.0
 11
27.48175
 21
317.183899
 31
0.0
  0
ARC
  5
766
330
1F
100
AcDbEntity
  8
0
 62
     7
100
AcDbCircle
 10
20.993053
 20
315.150024
 30
0.0
 40
6.300000190734863
100
AcDbArc
 50
45.000001
 51
74.999999
  0
ARC
  5
767
330
1F
100
AcDbEntity
  8
0
 62
     7
100
AcDbCircle
 10
20.993053
 20
315.150024
 30
0.0
 40
6.300000190734863
100
AcDbArc
 50
74.999999
 51
77.75279
  0
ARC
  5
768
330
1F
100
AcDbEntity
  8
0
 62
     7
100
AcDbCircle
 10
20.993053
 20
315.150024
 30
0.0
 40
6.300000190734863
100
AcDbArc
 50
102.247215
 51
105.0
  0
LINE
  5
769
330
1F
100
AcDbEntity
  8
0
 62
     7
100
AcDbLine
 10
22.623615
 20
321.235352
 30
0.0
 11
22.475975
 21
321.786316
 31
0.0
  0
ARC
  5
76A
330
1F
100
AcDbEntity
  8
0
 62
     7
100
AcDbCircle
 10
20.993053
 20
315.150024
 30
0.0
 40
6.800000190734863
100
AcDbArc
 50
77.403925
 51
102.596073
  0
LINE
  5
76B
330
1F
100
AcDbEntity
  8
0
 62
     7
100
AcDbLine
 10
19.362495
 20
321.235352
 30
0.0
 11
19.510136
 21
321.786316
 31
0.0
  0
ARC
  5
76C
330
1F
100
AcDbEntity
  8
0
 62
     7
100
AcDbCircle
 10
20.993053
 20
315.150024
 30
0.0
 40
6.300000190734863
100
AcDbArc
 50
105.0
 51
135.0
  0
LINE
  5
76D
330
1F
100
AcDbEntity
  8
0
 62
     7
100
AcDbLine
 10
29.593033
 20
329.554871
 30
0.0
 11
29.593056
 21
329.549988
 31
0.0
  0
LINE
  5
76E
330
1F
100
AcDbEntity
  8
0
 62
     7
100
AcDbLine
 10
29.591969
 20
329.582947
 30
0.0
 11
29.593056
 21
329.549988
 31
0.0
  0
LINE
  5
76F
330
1F
100
AcDbEntity
  8
0
 62
     7
100
AcDbLine
 10
29.592396
 20
329.575623
 30
0.0
 11
29.593056
 21
329.549988
 31
0.0
  0
ARC
  5
770
330
1F
100
AcDbEntity
  8
0
 62
     7
100
AcDbCircle
 10
20.993053
 20
315.150024
 30
0.0
 40
7.0
100
AcDbArc
 50
299.059263
 51
61.352113
  0
POLYLINE
  5
771
330
1F
100
AcDbEntity
  8
0
 62
     7
100
AcDb2dPolyline
 66
     1
 10
0.0
 20
0.0
 30
0.0
  0
VERTEX
  5
772
330
771
100
AcDbEntity
  8
0
100
AcDbVertex
100
AcDb2dVertex
 10
217.049927
 20
243.755753
 30
0.0
  0
VERTEX
  5
773
330
771
100
AcDbEntity
  8
0
100
AcDbVertex
100
AcDb2dVertex
 10
216.58992
 20
244.320282
 30
0.0
  0
VERTEX
  5
774
330
771
100
AcDbEntity
  8
0
100
AcDbVertex
100
AcDb2dVertex
 10
215.899933
 20
244.56221
 30
0.0
  0
VERTEX
  5
775
330
771
100
AcDbEntity
  8
0
100
AcDbVertex
100
AcDb2dVertex
 10
215.20993
 20
244.56221
 30
0.0
  0
VERTEX
  5
776
330
771
100
AcDbEntity
  8
0
100
AcDbVertex
100
AcDb2dVertex
 10
214.519928
 20
244.320282
 30
0.0
  0
VERTEX
  5
777
330
771
100
AcDbEntity
  8
0
100
AcDbVertex
100
AcDb2dVertex
 10
214.059921
 20
243.67511
 30
0.0
  0
VERTEX
  5
778
330
771
100
AcDbEntity
  8
0
100
AcDbVertex
100
AcDb2dVertex
 10
214.059921
 20
243.110596
 30
0.0
  0
VERTEX
  5
779
330
771
100
AcDbEntity
  8
0
100
AcDbVertex
100
AcDb2dVertex
 10
214.462433
 20
242.546082
 30
0.0
  0
SEQEND
  5
77A
330
771
100
AcDbEntity
  8
0
 62
     7
  0
POLYLINE
  5
77B
330
1F
100
AcDbEntity
  8
0
 62
     7
100
AcDb2dPolyline
 66
     1
 10
0.0
 20
0.0
 30
0.0
  0
VERTEX
  5
77C
330
77B
100
AcDbEntity
  8
0
100
AcDbVertex
100
AcDb2dVertex
 10
215.554932
 20
242.142853
 30
0.0
  0
VERTEX
  5
77D
330
77B
100
AcDbEntity
  8
0
100
AcDbVertex
100
AcDb2dVertex
 10
216.072418
 20
241.981567
 30
0.0
  0
SEQEND
  5
77E
330
77B
100
AcDbEntity
  8
0
 62
     7
  0
POLYLINE
  5
77F
330
1F
100
AcDbEntity
  8
0
 62
     7
100
AcDb2dPolyline
 66
     1
 10
0.0
 20
0.0
 30
0.0
  0
VERTEX
  5
780
330
77F
100
AcDbEntity
  8
0
100
AcDbVertex
100
AcDb2dVertex
 10
216.58992
 20
239.723495
 30
0.0
  0
VERTEX
  5
781
330
77F
100
AcDbEntity
  8
0
100
AcDbVertex
100
AcDb2dVertex
 10
215.899933
 20
239.56221
 30
0.0
  0
VERTEX
  5
782
330
77F
100
AcDbEntity
  8
0
100
AcDbVertex
100
AcDb2dVertex
 10
215.20993
 20
239.56221
 30
0.0
  0
VERTEX
  5
783
330
77F
100
AcDbEntity
  8
0
100
AcDbVertex
100
AcDb2dVertex
 10
214.519928
 20
239.884796
 30
0.0
  0
VERTEX
  5
784
330
77F
100
AcDbEntity
  8
0
100
AcDbVertex
100
AcDb2dVertex
 10
214.059921
 20
240.44931
 30
0.0
  0
SEQEND
  5
785
330
77F
100
AcDbEntity
  8
0
 62
     7
  0
POLYLINE
  5
786
330
1F
100
AcDbEntity
  8
0
 62
     7
100
AcDb2dPolyline
 66
     1
 10
0.0
 20
0.0
 30
0.0
  0
VERTEX
  5
787
330
786
100
AcDbEntity
  8
0
100
AcDbVertex
100
AcDb2dVertex
 10
215.094925
 20
242.223495
 30
0.0
  0
VERTEX
  5
788
330
786
100
AcDbEntity
  8
0
100
AcDbVertex
100
AcDb2dVertex
 10
215.554932
 20
242.142853
 30
0.0
  0
SEQEND
  5
789
330
786
100
AcDbEntity
  8
0
 62
     7
  0
POLYLINE
  5
78A
330
1F
100
AcDbEntity
  8
0
 62
     7
100
AcDb2dPolyline
 66
     1
 10
0.0
 20
0.0
 30
0.0
  0
VERTEX
  5
78B
330
78A
100
AcDbEntity
  8
0
100
AcDbVertex
100
AcDb2dVertex
 10
214.462433
 20
242.546082
 30
0.0
  0
VERTEX
  5
78C
330
78A
100
AcDbEntity
  8
0
100
AcDbVertex
100
AcDb2dVertex
 10
215.094925
 20
242.223495
 30
0.0
  0
SEQEND
  5
78D
330
78A
100
AcDbEntity
  8
0
 62
     7
  0
POLYLINE
  5
78E
330
1F
100
AcDbEntity
  8
0
 62
     7
100
AcDb2dPolyline
 66
     1
 10
0.0
 20
0.0
 30
0.0
  0
VERTEX
  5
78F
330
78E
100
AcDbEntity
  8
0
100
AcDbVertex
100
AcDb2dVertex
 10
217.049927
 20
240.368668
 30
0.0
  0
VERTEX
  5
790
330
78E
100
AcDbEntity
  8
0
100
AcDbVertex
100
AcDb2dVertex
 10
216.58992
 20
239.723495
 30
0.0
  0
SEQEND
  5
791
330
78E
100
AcDbEntity
  8
0
 62
     7
  0
POLYLINE
  5
792
330
1F
100
AcDbEntity
  8
0
 62
     7
100
AcDb2dPolyline
 66
     1
 10
0.0
 20
0.0
 30
0.0
  0
VERTEX
  5
793
330
792
100
AcDbEntity
  8
0
100
AcDbVertex
100
AcDb2dVertex
 10
217.049927
 20
241.094467
 30
0.0
  0
VERTEX
  5
794
330
792
100
AcDbEntity
  8
0
100
AcDbVertex
100
AcDb2dVertex
 10
217.049927
 20
240.368668
 30
0.0
  0
SEQEND
  5
795
330
792
100
AcDbEntity
  8
0
 62
     7
  0
POLYLINE
  5
796
330
1F
100
AcDbEntity
  8
0
 62
     7
100
AcDb2dPolyline
 66
     1
 10
0.0
 20
0.0
 30
0.0
  0
VERTEX
  5
797
330
796
100
AcDbEntity
  8
0
100
AcDbVertex
100
AcDb2dVertex
 10
216.072418
 20
241.981567
 30
0.0
  0
VERTEX
  5
798
330
796
100
AcDbEntity
  8
0
100
AcDbVertex
100
AcDb2dVertex
 10
216.58992
 20
241.658981
 30
0.0
  0
VERTEX
  5
799
330
796
100
AcDbEntity
  8
0
100
AcDbVertex
100
AcDb2dVertex
 10
217.049927
 20
241.094467
 30
0.0
  0
SEQEND
  5
79A
330
796
100
AcDbEntity
  8
0
 62
     7
  0
POLYLINE
  5
79B
330
1F
100
AcDbEntity
  8
0
 62
     7
100
AcDb2dPolyline
 66
     1
 10
0.0
 20
0.0
 30
0.0
  0
VERTEX
  5
79C
330
79B
100
AcDbEntity
  8
0
100
AcDbVertex
100
AcDb2dVertex
 10
219.96492
 20
244.56221
 30
0.0
  0
VERTEX
  5
79D
330
79B
100
AcDbEntity
  8
0
100
AcDbVertex
100
AcDb2dVertex
 10
218.009918
 20
244.56221
 30
0.0
  0
SEQEND
  5
79E
330
79B
100
AcDbEntity
  8
0
 62
     7
  0
POLYLINE
  5
79F
330
1F
100
AcDbEntity
  8
0
 62
     7
100
AcDb2dPolyline
 66
     1
 10
0.0
 20
0.0
 30
0.0
  0
VERTEX
  5
7A0
330
79F
100
AcDbEntity
  8
0
100
AcDbVertex
100
AcDb2dVertex
 10
218.009918
 20
242.142853
 30
0.0
  0
VERTEX
  5
7A1
330
79F
100
AcDbEntity
  8
0
100
AcDbVertex
100
AcDb2dVertex
 10
220.079926
 20
242.142853
 30
0.0
  0
SEQEND
  5
7A2
330
79F
100
AcDbEntity
  8
0
 62
     7
  0
POLYLINE
  5
7A3
330
1F
100
AcDbEntity
  8
0
 62
     7
100
AcDb2dPolyline
 66
     1
 10
0.0
 20
0.0
 30
0.0
  0
VERTEX
  5
7A4
330
7A3
100
AcDbEntity
  8
0
100
AcDbVertex
100
AcDb2dVertex
 10
218.009918
 20
244.56221
 30
0.0
  0
VERTEX
  5
7A5
330
7A3
100
AcDbEntity
  8
0
100
AcDbVertex
100
AcDb2dVertex
 10
218.009918
 20
239.56221
 30
0.0
  0
SEQEND
  5
7A6
330
7A3
100
AcDbEntity
  8
0
 62
     7
  0
POLYLINE
  5
7A7
330
1F
100
AcDbEntity
  8
0
 62
     7
100
AcDb2dPolyline
 66
     1
 10
0.0
 20
0.0
 30
0.0
  0
VERTEX
  5
7A8
330
7A7
100
AcDbEntity
  8
0
100
AcDbVertex
100
AcDb2dVertex
 10
219.96492
 20
244.56221
 30
0.0
  0
VERTEX
  5
7A9
330
7A7
100
AcDbEntity
  8
0
100
AcDbVertex
100
AcDb2dVertex
 10
220.367432
 20
244.320282
 30
0.0
  0
VERTEX
  5
7AA
330
7A7
100
AcDbEntity
  8
0
100
AcDbVertex
100
AcDb2dVertex
 10
220.769928
 20
243.755753
 30
0.0
  0
VERTEX
  5
7AB
330
7A7
100
AcDbEntity
  8
0
100
AcDbVertex
100
AcDb2dVertex
 10
220.769928
 20
242.94931
 30
0.0
  0
VERTEX
  5
7AC
330
7A7
100
AcDbEntity
  8
0
100
AcDbVertex
100
AcDb2dVertex
 10
220.482422
 20
242.465439
 30
0.0
  0
VERTEX
  5
7AD
330
7A7
100
AcDbEntity
  8
0
100
AcDbVertex
100
AcDb2dVertex
 10
220.079926
 20
242.142853
 30
0.0
  0
SEQEND
  5
7AE
330
7A7
100
AcDbEntity
  8
0
 62
     7
  0
POLYLINE
  5
7AF
330
1F
100
AcDbEntity
  8
0
 62
     7
100
AcDb2dPolyline
 66
     1
 10
0.0
 20
0.0
 30
0.0
  0
VERTEX
  5
7B0
330
7AF
100
AcDbEntity
  8
0
100
AcDbVertex
100
AcDb2dVertex
 10
219.619919
 20
242.142853
 30
0.0
  0
VERTEX
  5
7B1
330
7AF
100
AcDbEntity
  8
0
100
AcDbVertex
100
AcDb2dVertex
 10
220.769928
 20
239.56221
 30
0.0
  0
SEQEND
  5
7B2
330
7AF
100
AcDbEntity
  8
0
 62
     7
  0
POLYLINE
  5
7B3
330
1F
100
AcDbEntity
  8
0
 62
     7
100
AcDb2dPolyline
 66
     1
 10
0.0
 20
0.0
 30
0.0
  0
VERTEX
  5
7B4
330
7B3
100
AcDbEntity
  8
0
100
AcDbVertex
100
AcDb2dVertex
 10
224.83493
 20
239.56221
 30
0.0
  0
VERTEX
  5
7B5
330
7B3
100
AcDbEntity
  8
0
100
AcDbVertex
100
AcDb2dVertex
 10
222.074921
 20
239.56221
 30
0.0
  0
VERTEX
  5
7B6
330
7B3
100
AcDbEntity
  8
0
100
AcDbVertex
100
AcDb2dVertex
 10
224.029922
 20
241.820282
 30
0.0
  0
VERTEX
  5
7B7
330
7B3
100
AcDbEntity
  8
0
100
AcDbVertex
100
AcDb2dVertex
 10
224.432419
 20
242.465439
 30
0.0
  0
VERTEX
  5
7B8
330
7B3
100
AcDbEntity
  8
0
100
AcDbVertex
100
AcDb2dVertex
 10
224.604919
 20
242.94931
 30
0.0
  0
VERTEX
  5
7B9
330
7B3
100
AcDbEntity
  8
0
100
AcDbVertex
100
AcDb2dVertex
 10
224.604919
 20
243.433182
 30
0.0
  0
VERTEX
  5
7BA
330
7B3
100
AcDbEntity
  8
0
100
AcDbVertex
100
AcDb2dVertex
 10
224.432419
 20
243.997696
 30
0.0
  0
VERTEX
  5
7BB
330
7B3
100
AcDbEntity
  8
0
100
AcDbVertex
100
AcDb2dVertex
 10
224.259918
 20
244.320282
 30
0.0
  0
VERTEX
  5
7BC
330
7B3
100
AcDbEntity
  8
0
100
AcDbVertex
100
AcDb2dVertex
 10
223.857422
 20
244.56221
 30
0.0
  0
VERTEX
  5
7BD
330
7B3
100
AcDbEntity
  8
0
100
AcDbVertex
100
AcDb2dVertex
 10
223.167419
 20
244.56221
 30
0.0
  0
VERTEX
  5
7BE
330
7B3
100
AcDbEntity
  8
0
100
AcDbVertex
100
AcDb2dVertex
 10
222.764923
 20
244.320282
 30
0.0
  0
VERTEX
  5
7BF
330
7B3
100
AcDbEntity
  8
0
100
AcDbVertex
100
AcDb2dVertex
 10
222.592422
 20
244.078339
 30
0.0
  0
VERTEX
  5
7C0
330
7B3
100
AcDbEntity
  8
0
100
AcDbVertex
100
AcDb2dVertex
 10
222.362427
 20
243.594467
 30
0.0
  0
VERTEX
  5
7C1
330
7B3
100
AcDbEntity
  8
0
100
AcDbVertex
100
AcDb2dVertex
 10
222.362427
 20
243.352539
 30
0.0
  0
SEQEND
  5
7C2
330
7B3
100
AcDbEntity
  8
0
 62
     7
  0
POLYLINE
  5
7C3
330
1F
100
AcDbEntity
  8
0
 62
     7
100
AcDb2dPolyline
 66
     1
 10
0.0
 20
0.0
 30
0.0
  0
VERTEX
  5
7C4
330
7C3
100
AcDbEntity
  8
0
100
AcDbVertex
100
AcDb2dVertex
 10
228.669922
 20
241.336411
 30
0.0
  0
VERTEX
  5
7C5
330
7C3
100
AcDbEntity
  8
0
100
AcDbVertex
100
AcDb2dVertex
 10
226.024933
 20
241.336411
 30
0.0
  0
VERTEX
  5
7C6
330
7C3
100
AcDbEntity
  8
0
100
AcDbVertex
100
AcDb2dVertex
 10
227.979919
 20
244.56221
 30
0.0
  0
VERTEX
  5
7C7
330
7C3
100
AcDbEntity
  8
0
100
AcDbVertex
100
AcDb2dVertex
 10
227.979919
 20
242.142853
 30
0.0
  0
VERTEX
  5
7C8
330
7C3
100
AcDbEntity
  8
0
100
AcDbVertex
100
AcDb2dVertex
 10
227.979919
 20
239.56221
 30
0.0
  0
SEQEND
  5
7C9
330
7C3
100
AcDbEntity
  8
0
 62
     7
  0
POLYLINE
  5
7CA
330
1F
100
AcDbEntity
  8
0
 62
     7
100
AcDb2dPolyline
 66
     1
 10
0.0
 20
0.0
 30
0.0
  0
VERTEX
  5
7CB
330
7CA
100
AcDbEntity
  8
0
100
AcDbVertex
100
AcDb2dVertex
 10
230.14743
 20
241.578339
 30
0.0
  0
VERTEX
  5
7CC
330
7CA
100
AcDbEntity
  8
0
100
AcDbVertex
100
AcDb2dVertex
 10
232.792419
 20
241.578339
 30
0.0
  0
SEQEND
  5
7CD
330
7CA
100
AcDbEntity
  8
0
 62
     7
  0
POLYLINE
  5
7CE
330
1F
100
AcDbEntity
  8
0
 62
     7
100
AcDb2dPolyline
 66
     1
 10
0.0
 20
0.0
 30
0.0
 70
     1
  0
VERTEX
  5
7CF
330
7CE
100
AcDbEntity
  8
0
100
AcDbVertex
100
AcDb2dVertex
 10
235.074921
 20
244.56221
 30
0.0
  0
VERTEX
  5
7D0
330
7CE
100
AcDbEntity
  8
0
100
AcDbVertex
100
AcDb2dVertex
 10
234.442429
 20
244.320282
 30
0.0
  0
VERTEX
  5
7D1
330
7CE
100
AcDbEntity
  8
0
100
AcDbVertex
100
AcDb2dVertex
 10
234.039917
 20
243.513824
 30
0.0
  0
VERTEX
  5
7D2
330
7CE
100
AcDbEntity
  8
0
100
AcDbVertex
100
AcDb2dVertex
 10
233.867432
 20
242.707367
 30
0.0
  0
VERTEX
  5
7D3
330
7CE
100
AcDbEntity
  8
0
100
AcDbVertex
100
AcDb2dVertex
 10
233.867432
 20
241.658981
 30
0.0
  0
VERTEX
  5
7D4
330
7CE
100
AcDbEntity
  8
0
100
AcDbVertex
100
AcDb2dVertex
 10
234.039917
 20
240.610596
 30
0.0
  0
VERTEX
  5
7D5
330
7CE
100
AcDbEntity
  8
0
100
AcDbVertex
100
AcDb2dVertex
 10
234.442429
 20
239.804138
 30
0.0
  0
VERTEX
  5
7D6
330
7CE
100
AcDbEntity
  8
0
100
AcDbVertex
100
AcDb2dVertex
 10
235.074921
 20
239.56221
 30
0.0
  0
VERTEX
  5
7D7
330
7CE
100
AcDbEntity
  8
0
100
AcDbVertex
100
AcDb2dVertex
 10
235.534927
 20
239.56221
 30
0.0
  0
VERTEX
  5
7D8
330
7CE
100
AcDbEntity
  8
0
100
AcDbVertex
100
AcDb2dVertex
 10
236.167419
 20
239.804138
 30
0.0
  0
VERTEX
  5
7D9
330
7CE
100
AcDbEntity
  8
0
100
AcDbVertex
100
AcDb2dVertex
 10
236.569916
 20
240.610596
 30
0.0
  0
VERTEX
  5
7DA
330
7CE
100
AcDbEntity
  8
0
100
AcDbVertex
100
AcDb2dVertex
 10
236.742432
 20
241.578339
 30
0.0
  0
VERTEX
  5
7DB
330
7CE
100
AcDbEntity
  8
0
100
AcDbVertex
100
AcDb2dVertex
 10
236.742432
 20
242.707367
 30
0.0
  0
VERTEX
  5
7DC
330
7CE
100
AcDbEntity
  8
0
100
AcDbVertex
100
AcDb2dVertex
 10
236.569916
 20
243.513824
 30
0.0
  0
VERTEX
  5
7DD
330
7CE
100
AcDbEntity
  8
0
100
AcDbVertex
100
AcDb2dVertex
 10
236.167419
 20
244.320282
 30
0.0
  0
VERTEX
  5
7DE
330
7CE
100
AcDbEntity
  8
0
100
AcDbVertex
100
AcDb2dVertex
 10
235.534927
 20
244.56221
 30
0.0
  0
SEQEND
  5
7DF
330
7CE
100
AcDbEntity
  8
0
 62
     7
  0
POLYLINE
  5
7E0
330
1F
100
AcDbEntity
  8
0
 62
     7
100
AcDb2dPolyline
 66
     1
 10
0.0
 20
0.0
 30
0.0
  0
VERTEX
  5
7E1
330
7E0
100
AcDbEntity
  8
0
100
AcDbVertex
100
AcDb2dVertex
 10
237.874924
 20
240.44931
 30
0.0
  0
VERTEX
  5
7E2
330
7E0
100
AcDbEntity
  8
0
100
AcDbVertex
100
AcDb2dVertex
 10
238.047424
 20
240.046082
 30
0.0
  0
VERTEX
  5
7E3
330
7E0
100
AcDbEntity
  8
0
100
AcDbVertex
100
AcDb2dVertex
 10
238.219925
 20
239.804138
 30
0.0
  0
VERTEX
  5
7E4
330
7E0
100
AcDbEntity
  8
0
100
AcDbVertex
100
AcDb2dVertex
 10
238.852417
 20
239.56221
 30
0.0
  0
VERTEX
  5
7E5
330
7E0
100
AcDbEntity
  8
0
100
AcDbVertex
100
AcDb2dVertex
 10
239.484924
 20
239.56221
 30
0.0
  0
VERTEX
  5
7E6
330
7E0
100
AcDbEntity
  8
0
100
AcDbVertex
100
AcDb2dVertex
 10
240.174927
 20
239.804138
 30
0.0
  0
VERTEX
  5
7E7
330
7E0
100
AcDbEntity
  8
0
100
AcDbVertex
100
AcDb2dVertex
 10
240.519928
 20
240.28801
 30
0.0
  0
VERTEX
  5
7E8
330
7E0
100
AcDbEntity
  8
0
100
AcDbVertex
100
AcDb2dVertex
 10
240.692429
 20
241.013824
 30
0.0
  0
VERTEX
  5
7E9
330
7E0
100
AcDbEntity
  8
0
100
AcDbVertex
100
AcDb2dVertex
 10
240.692429
 20
241.497696
 30
0.0
  0
VERTEX
  5
7EA
330
7E0
100
AcDbEntity
  8
0
100
AcDbVertex
100
AcDb2dVertex
 10
240.519928
 20
242.223495
 30
0.0
  0
VERTEX
  5
7EB
330
7E0
100
AcDbEntity
  8
0
100
AcDbVertex
100
AcDb2dVertex
 10
240.174927
 20
242.626724
 30
0.0
  0
VERTEX
  5
7EC
330
7E0
100
AcDbEntity
  8
0
100
AcDbVertex
100
AcDb2dVertex
 10
239.484924
 20
242.868668
 30
0.0
  0
VERTEX
  5
7ED
330
7E0
100
AcDbEntity
  8
0
100
AcDbVertex
100
AcDb2dVertex
 10
238.852417
 20
242.868668
 30
0.0
  0
VERTEX
  5
7EE
330
7E0
100
AcDbEntity
  8
0
100
AcDbVertex
100
AcDb2dVertex
 10
238.33493
 20
242.626724
 30
0.0
  0
VERTEX
  5
7EF
330
7E0
100
AcDbEntity
  8
0
100
AcDbVertex
100
AcDb2dVertex
 10
238.16243
 20
242.384796
 30
0.0
  0
VERTEX
  5
7F0
330
7E0
100
AcDbEntity
  8
0
100
AcDbVertex
100
AcDb2dVertex
 10
238.33493
 20
244.56221
 30
0.0
  0
VERTEX
  5
7F1
330
7E0
100
AcDbEntity
  8
0
100
AcDbVertex
100
AcDb2dVertex
 10
240.462433
 20
244.56221
 30
0.0
  0
SEQEND
  5
7F2
330
7E0
100
AcDbEntity
  8
0
 62
     7
  0
POLYLINE
  5
7F3
330
1F
100
AcDbEntity
  8
0
 62
     7
100
AcDb2dPolyline
 66
     1
 10
0.0
 20
0.0
 30
0.0
  0
VERTEX
  5
7F4
330
7F3
100
AcDbEntity
  8
0
100
AcDbVertex
100
AcDb2dVertex
 10
244.58493
 20
239.56221
 30
0.0
  0
VERTEX
  5
7F5
330
7F3
100
AcDbEntity
  8
0
100
AcDbVertex
100
AcDb2dVertex
 10
241.824921
 20
239.56221
 30
0.0
  0
VERTEX
  5
7F6
330
7F3
100
AcDbEntity
  8
0
100
AcDbVertex
100
AcDb2dVertex
 10
243.779922
 20
241.820282
 30
0.0
  0
VERTEX
  5
7F7
330
7F3
100
AcDbEntity
  8
0
100
AcDbVertex
100
AcDb2dVertex
 10
244.182434
 20
242.465439
 30
0.0
  0
VERTEX
  5
7F8
330
7F3
100
AcDbEntity
  8
0
100
AcDbVertex
100
AcDb2dVertex
 10
244.354919
 20
242.94931
 30
0.0
  0
VERTEX
  5
7F9
330
7F3
100
AcDbEntity
  8
0
100
AcDbVertex
100
AcDb2dVertex
 10
244.354919
 20
243.433182
 30
0.0
  0
VERTEX
  5
7FA
330
7F3
100
AcDbEntity
  8
0
100
AcDbVertex
100
AcDb2dVertex
 10
244.182434
 20
243.997696
 30
0.0
  0
VERTEX
  5
7FB
330
7F3
100
AcDbEntity
  8
0
100
AcDbVertex
100
AcDb2dVertex
 10
244.009918
 20
244.320282
 30
0.0
  0
VERTEX
  5
7FC
330
7F3
100
AcDbEntity
  8
0
100
AcDbVertex
100
AcDb2dVertex
 10
243.607422
 20
244.56221
 30
0.0
  0
VERTEX
  5
7FD
330
7F3
100
AcDbEntity
  8
0
100
AcDbVertex
100
AcDb2dVertex
 10
242.917419
 20
244.56221
 30
0.0
  0
VERTEX
  5
7FE
330
7F3
100
AcDbEntity
  8
0
100
AcDbVertex
100
AcDb2dVertex
 10
242.514923
 20
244.320282
 30
0.0
  0
VERTEX
  5
7FF
330
7F3
100
AcDbEntity
  8
0
100
AcDbVertex
100
AcDb2dVertex
 10
242.342422
 20
244.078339
 30
0.0
  0
VERTEX
  5
800
330
7F3
100
AcDbEntity
  8
0
100
AcDbVertex
100
AcDb2dVertex
 10
242.112427
 20
243.594467
 30
0.0
  0
VERTEX
  5
801
330
7F3
100
AcDbEntity
  8
0
100
AcDbVertex
100
AcDb2dVertex
 10
242.112427
 20
243.352539
 30
0.0
  0
SEQEND
  5
802
330
7F3
100
AcDbEntity
  8
0
 62
     7
  0
ENDSEC
  0
SECTION
  2
OBJECTS
  0
DICTIONARY
  5
C
330
0
100
AcDbDictionary
  3
ACAD_GROUP
350
D
  3
ACAD_MLINESTYLE
350
17
  3
ACAD_SCALELIST
350
47
  0
DICTIONARY
  5
D
102
{ACAD_REACTORS
330
C
102
}
330
C
100
AcDbDictionary
  0
DICTIONARY
  5
17
102
{ACAD_REACTORS
330
C
102
}
330
C
100
AcDbDictionary
  3
STANDARD
350
18
  0
DICTIONARY
  5
47
102
{ACAD_REACTORS
330
C
102
}
330
C
100
AcDbDictionary
  0
MLINESTYLE
  5
18
102
{ACAD_REACTORS
330
17
102
}
330
17
100
AcDbMlineStyle
  2
Standard
 70
     0
  3

 62
   256
 51
90.0
 52
90.0
 71
     2
 49
0.5
 62
   256
  6
BYLAYER
 49
-0.5
 62
   256
  6
BYLAYER
  0
ENDSEC
  0
EOF
