  0
SECTION
  2
HEADER
  9
$ACADVER
  1
AC1014
  9
$ACADMAINTVER
 70
     9
  9
$DWGCODEPAGE
  3
ANSI_1252
  9
$INSBASE
 10
0.0
 20
0.0
 30
0.0
  9
$EXTMIN
 10
0.0
 20
0.0
 30
0.0
  9
$EXTMAX
 10
750.147034
 20
363.850006
 30
2.0
  9
$LIMMIN
 10
0.0
 20
0.0
  9
$LIMMAX
 10
420.0
 20
297.0
  9
$ORTHOMODE
 70
     0
  9
$REGENMODE
 70
     1
  9
$FILLMODE
 70
     1
  9
$QTEXTMODE
 70
     0
  9
$MIRRTEXT
 70
     1
  9
$DRAGMODE
 70
     2
  9
$LTSCALE
 40
1.0
  9
$OSMODE
 70
     0
  9
$ATTMODE
 70
     1
  9
$TEXTSIZE
 40
2.5
  9
$TRACEWID
 40
1.0
  9
$TEXTSTYLE
  7
STANDARD
  9
$CLAYER
  8
0
  9
$CELTYPE
  6
BYLAYER
  9
$CECOLOR
 62
   256
  9
$CELTSCALE
 40
1.0
  9
$DELOBJ
 70
     1
  9
$DISPSILH
 70
     0
  9
$DIMSCALE
 40
1.0
  9
$DIMASZ
 40
2.5
  9
$DIMEXO
 40
0.625
  9
$DIMDLI
 40
3.75
  9
$DIMRND
 40
0.0
  9
$DIMDLE
 40
0.0
  9
$DIMEXE
 40
1.25
  9
$DIMTP
 40
0.0
  9
$DIMTM
 40
0.0
  9
$DIMTXT
 40
2.5
  9
$DIMCEN
 40
2.5
  9
$DIMTSZ
 40
0.0
  9
$DIMTOL
 70
     0
  9
$DIMLIM
 70
     0
  9
$DIMTIH
 70
     0
  9
$DIMTOH
 70
     0
  9
$DIMSE1
 70
     0
  9
$DIMSE2
 70
     0
  9
$DIMTAD
 70
     1
  9
$DIMZIN
 70
     8
  9
$DIMBLK
  1

  9
$DIMASO
 70
     1
  9
$DIMSHO
 70
     1
  9
$DIMPOST
  1

  9
$DIMAPOST
  1

  9
$DIMALT
 70
     0
  9
$DIMALTD
 70
     3
  9
$DIMALTF
 40
0.03937
  9
$DIMLFAC
 40
1.0
  9
$DIMTOFL
 70
     1
  9
$DIMTVP
 40
0.0
  9
$DIMTIX
 70
     0
  9
$DIMSOXD
 70
     0
  9
$DIMSAH
 70
     0
  9
$DIMBLK1
  1

  9
$DIMBLK2
  1

  9
$DIMSTYLE
  2
STANDARD
  9
$DIMCLRD
 70
     0
  9
$DIMCLRE
 70
     0
  9
$DIMCLRT
 70
     0
  9
$DIMTFAC
 40
1.0
  9
$DIMGAP
 40
0.625
  9
$DIMJUST
 70
     0
  9
$DIMSD1
 70
     0
  9
$DIMSD2
 70
     0
  9
$DIMTOLJ
 70
     0
  9
$DIMTZIN
 70
     8
  9
$DIMALTZ
 70
     0
  9
$DIMALTTZ
 70
     0
  9
$DIMFIT
 70
     0
  9
$DIMUPT
 70
     0
  9
$DIMUNIT
 70
     2
  9
$DIMDEC
 70
     2
  9
$DIMTDEC
 70
     2
  9
$DIMALTU
 70
     2
  9
$DIMALTTD
 70
     3
  9
$DIMTXSTY
  7
STANDARD
  9
$DIMAUNIT
 70
     0
  9
$LUNITS
 70
     2
  9
$LUPREC
 70
     4
  9
$SKETCHINC
 40
1.0
  9
$FILLETRAD
 40
2.5
  9
$AUNITS
 70
     0
  9
$AUPREC
 70
     0
  9
$MENU
  1
.
  9
$ELEVATION
 40
0.0
  9
$PELEVATION
 40
0.0
  9
$THICKNESS
 40
0.0
  9
$LIMCHECK
 70
     0
  9
$BLIPMODE
 70
     1
  9
$CHAMFERA
 40
2.5
  9
$CHAMFERB
 40
2.5
  9
$CHAMFERC
 40
0.0
  9
$CHAMFERD
 40
0.0
  9
$SKPOLY
 70
     0
  9
$TDCREATE
 40
2447893.375
  9
$TDUPDATE
 40
2460350.638260868
  9
$TDINDWG
 40
0.0
  9
$TDUSRTIMER
 40
0.0
  9
$USRTIMER
 70
     1
  9
$ANGBASE
 50
0.0
  9
$ANGDIR
 70
     0
  9
$PDMODE
 70
     0
  9
$PDSIZE
 40
0.0
  9
$PLINEWID
 40
0.0
  9
$COORDS
 70
     0
  9
$SPLFRAME
 70
     0
  9
$SPLINETYPE
 70
     6
  9
$SPLINESEGS
 70
     8
  9
$ATTDIA
 70
     0
  9
$ATTREQ
 70
     1
  9
$HANDLING
 70
     1
  9
$HANDSEED
  5
7B8
  9
$SURFTAB1
 70
     6
  9
$SURFTAB2
 70
     6
  9
$SURFTYPE
 70
     6
  9
$SURFU
 70
     6
  9
$SURFV
 70
     6
  9
$UCSNAME
  2

  9
$UCSORG
 10
0.0
 20
0.0
 30
0.0
  9
$UCSXDIR
 10
1.0
 20
0.0
 30
0.0
  9
$UCSYDIR
 10
0.0
 20
1.0
 30
0.0
  9
$PUCSNAME
  2

  9
$PUCSORG
 10
0.0
 20
0.0
 30
0.0
  9
$PUCSXDIR
 10
1.0
 20
0.0
 30
0.0
  9
$PUCSYDIR
 10
0.0
 20
1.0
 30
0.0
  9
$USERI1
 70
     0
  9
$USERI2
 70
     0
  9
$USERI3
 70
     0
  9
$USERI4
 70
     0
  9
$USERI5
 70
     0
  9
$USERR1
 40
0.0
  9
$USERR2
 40
0.0
  9
$USERR3
 40
0.0
  9
$USERR4
 40
0.0
  9
$USERR5
 40
0.0
  9
$WORLDVIEW
 70
     1
  9
$SHADEDGE
 70
     3
  9
$SHADEDIF
 70
    70
  9
$TILEMODE
 70
     1
  9
$MAXACTVP
 70
    64
  9
$PINSBASE
 10
0.0
 20
0.0
 30
0.0
  9
$PLIMCHECK
 70
     0
  9
$PEXTMIN
 10
0.0
 20
0.0
 30
0.0
  9
$PEXTMAX
 10
750.147034
 20
363.850006
 30
2.0
  9
$PLIMMIN
 10
0.0
 20
0.0
  9
$PLIMMAX
 10
420.0
 20
297.0
  9
$UNITMODE
 70
     0
  9
$VISRETAIN
 70
     0
  9
$PLINEGEN
 70
     0
  9
$PSLTSCALE
 70
     1
  9
$TREEDEPTH
 70
  3020
  9
$PICKSTYLE
 70
     1
  9
$CMLSTYLE
  2
STANDARD
  9
$CMLJUST
 70
     0
  9
$CMLSCALE
 40
20.0
  9
$PROXYGRAPHICS
 70
     1
  9
$MEASUREMENT
 70
     1
  0
ENDSEC
  0
SECTION
  2
CLASSES
  0
CLASS
  1
ACDBDICTIONARYWDFLT
  2
AcDbDictionaryWithDefault
  3
ObjectDBX Classes
 90
        0
280
     0
281
     0
  0
CLASS
  1
VISUALSTYLE
  2
AcDbVisualStyle
  3
ObjectDBX Classes
 90
     4095
280
     0
281
     0
  0
CLASS
  1
MATERIAL
  2
AcDbMaterial
  3
ObjectDBX Classes
 90
     1153
280
     0
281
     0
  0
CLASS
  1
SCALE
  2
AcDbScale
  3
ObjectDBX Classes
 90
     1153
280
     0
281
     0
  0
CLASS
  1
SUN
  2
AcDbSun
  3
SCENEOE
 90
     1153
280
     0
281
     0
  0
CLASS
  1
XRECORD
  2
AcDbXrecord
  3
ObjectDBX Classes
 90
        0
280
     0
281
     0
  0
CLASS
  1
LWPOLYLINE
  2
AcDbPolyline
  3
ObjectDBX Classes
 90
        0
280
     0
281
     1
  0
CLASS
  1
HATCH
  2
AcDbHatch
  3
ObjectDBX Classes
 90
        0
280
     0
281
     1
  0
ENDSEC
  0
SECTION
  2
TABLES
  0
TABLE
  2
VPORT
  5
8
330
0
100
AcDbSymbolTable
 70
     1
  0
VPORT
  5
29
330
8
100
AcDbSymbolTableRecord
100
AcDbViewportTableRecord
  2
*ACTIVE
 70
     0
 10
0.0
 20
0.0
 11
1.0
 21
1.0
 12
10.429907
 22
4.5
 13
0.0
 23
0.0
 14
0.5
 24
0.5
 15
0.5
 25
0.5
 16
0.0
 26
0.0
 36
1.0
 17
0.0
 27
0.0
 37
0.0
 40
9.0
 41
1.972973
 42
50.0
 43
0.0
 44
0.0
 50
0.0
 51
0.0
 71
     0
 72
   100
 73
     1
 74
     3
 75
     0
 76
     0
 77
     0
 78
     0
  0
ENDTAB
  0
TABLE
  2
LTYPE
  5
5
330
0
100
AcDbSymbolTable
 70
     1
  0
LTYPE
  5
14
330
5
100
AcDbSymbolTableRecord
100
AcDbLinetypeTableRecord
  2
BYBLOCK
 70
     0
  3

 72
    65
 73
     0
 40
0.0
  0
LTYPE
  5
15
330
5
100
AcDbSymbolTableRecord
100
AcDbLinetypeTableRecord
  2
BYLAYER
 70
     0
  3

 72
    65
 73
     0
 40
0.0
  0
LTYPE
  5
16
330
5
100
AcDbSymbolTableRecord
100
AcDbLinetypeTableRecord
  2
CONTINUOUS
 70
     0
  3
Solid line
 72
    65
 73
     0
 40
0.0
  0
ENDTAB
  0
TABLE
  2
LAYER
  5
2
330
0
100
AcDbSymbolTable
 70
     1
  0
LAYER
  5
10
330
2
100
AcDbSymbolTableRecord
100
AcDbLayerTableRecord
  2
0
 70
     0
 62
     7
  6
CONTINUOUS
  0
ENDTAB
  0
TABLE
  2
STYLE
  5
3
330
0
100
AcDbSymbolTable
 70
     1
  0
STYLE
  5
11
330
3
100
AcDbSymbolTableRecord
100
AcDbTextStyleTableRecord
  2
STANDARD
 70
     0
 40
0.0
 41
1.0
 50
0.0
 71
     0
 42
2.5
  3
txt
  4

  0
ENDTAB
  0
TABLE
  2
VIEW
  5
6
330
0
100
AcDbSymbolTable
 70
     0
  0
ENDTAB
  0
TABLE
  2
UCS
  5
7
330
0
100
AcDbSymbolTable
 70
     0
  0
ENDTAB
  0
TABLE
  2
APPID
  5
9
330
0
100
AcDbSymbolTable
 70
     1
  0
APPID
  5
12
330
9
100
AcDbSymbolTableRecord
100
AcDbRegAppTableRecord
  2
ACAD
 70
     0
  0
ENDTAB
  0
TABLE
  2
DIMSTYLE
  5
A
330
0
100
AcDbSymbolTable
 70
     1
  0
DIMSTYLE
105
27
330
A
100
AcDbSymbolTableRecord
100
AcDbDimStyleTableRecord
  2
STANDARD
 70
     0
  3

  4

  5

  6

  7

 40
1.0
 41
0.18
 42
0.0625
 43
0.38
 44
0.18
 45
0.0
 46
0.0
 47
0.0
 48
0.0
140
0.18
141
0.09
142
0.0
143
25.4
144
1.0
145
0.0
146
1.0
147
0.09
 71
     0
 72
     0
 73
     1
 74
     1
 75
     0
 76
     0
 77
     0
 78
     0
170
     0
171
     2
172
     0
173
     0
174
     0
175
     0
176
     0
177
     0
178
     0
270
     2
271
     4
272
     4
273
     2
274
     2
340
11
275
     0
280
     0
281
     0
282
     0
283
     1
284
     0
285
     0
286
     0
287
     3
288
     0
  0
ENDTAB
  0
TABLE
  2
BLOCK_RECORD
  5
1
330
0
100
AcDbSymbolTable
 70
     1
  0
BLOCK_RECORD
  5
1F
330
1
100
AcDbSymbolTableRecord
100
AcDbBlockTableRecord
  2
*MODEL_SPACE
  0
BLOCK_RECORD
  5
1B
330
1
100
AcDbSymbolTableRecord
100
AcDbBlockTableRecord
  2
*PAPER_SPACE
  0
BLOCK_RECORD
  5
23
330
1
100
AcDbSymbolTableRecord
100
AcDbBlockTableRecord
  2
*PAPER_SPACE0
  0
ENDTAB
  0
ENDSEC
  0
SECTION
  2
BLOCKS
  0
BLOCK
  5
20
330
1F
100
AcDbEntity
  8
0
100
AcDbBlockBegin
  2
*MODEL_SPACE
 70
     0
 10
0.0
 20
0.0
 30
0.0
  3
*MODEL_SPACE
  1

  0
ENDBLK
  5
21
330
1F
100
AcDbEntity
  8
0
100
AcDbBlockEnd
  0
BLOCK
  5
1C
330
1B
100
AcDbEntity
 67
     1
  8
0
100
AcDbBlockBegin
  2
*PAPER_SPACE
 70
     0
 10
0.0
 20
0.0
 30
0.0
  3
*PAPER_SPACE
  1

  0
ENDBLK
  5
1D
330
1B
100
AcDbEntity
 67
     1
  8
0
100
AcDbBlockEnd
  0
BLOCK
  5
24
330
23
100
AcDbEntity
  8
0
100
AcDbBlockBegin
  2
*PAPER_SPACE0
 70
     0
 10
0.0
 20
0.0
 30
0.0
  3
*PAPER_SPACE0
  1
*PAPER_SPACE0
  0
ENDBLK
  5
25
330
23
100
AcDbEntity
  8
0
100
AcDbBlockEnd
  0
ENDSEC
  0
SECTION
  2
ENTITIES
  0
LINE
  5
6A
330
1F
100
AcDbEntity
  8
0
 62
     7
100
AcDbLine
 10
747.647034
 20
332.850006
 30
0.0
 11
747.647034
 21
345.950012
 31
0.0
  0
LINE
  5
6B
330
1F
100
AcDbEntity
  8
0
 62
     7
100
AcDbLine
 10
747.647034
 20
345.950012
 30
0.0
 11
745.328369
 21
345.950012
 31
0.0
  0
ARC
  5
6C
330
1F
100
AcDbEntity
  8
0
 62
     7
100
AcDbCircle
 10
738.647034
 20
350.350006
 30
0.0
 40
8.0
100
AcDbArc
 50
213.367013
 51
326.632979
  0
LINE
  5
6D
330
1F
100
AcDbEntity
  8
0
 62
     7
100
AcDbLine
 10
731.965698
 20
345.950012
 30
0.0
 11
673.297058
 21
345.950012
 31
0.0
  0
LINE
  5
6E
330
1F
100
AcDbEntity
  8
0
 62
     7
100
AcDbLine
 10
673.297058
 20
342.049988
 30
0.0
 11
673.297058
 21
345.950012
 31
0.0
  0
ARC
  5
6F
330
1F
100
AcDbEntity
  8
0
 62
     7
100
AcDbCircle
 10
672.797058
 20
342.049988
 30
0.0
 40
0.5
100
AcDbArc
 50
180.000009
 51
360.0
  0
LINE
  5
70
330
1F
100
AcDbEntity
  8
0
 62
     7
100
AcDbLine
 10
672.297058
 20
345.950012
 30
0.0
 11
672.297058
 21
342.049988
 31
0.0
  0
LINE
  5
71
330
1F
100
AcDbEntity
  8
0
 62
     7
100
AcDbLine
 10
672.297058
 20
345.950012
 30
0.0
 11
669.997009
 21
345.950012
 31
0.0
  0
LINE
  5
72
330
1F
100
AcDbEntity
  8
0
 62
     7
100
AcDbLine
 10
669.997009
 20
342.049988
 30
0.0
 11
669.997009
 21
345.950012
 31
0.0
  0
ARC
  5
73
330
1F
100
AcDbEntity
  8
0
 62
     7
100
AcDbCircle
 10
669.497009
 20
342.049988
 30
0.0
 40
0.5
100
AcDbArc
 50
180.000009
 51
360.0
  0
LINE
  5
74
330
1F
100
AcDbEntity
  8
0
 62
     7
100
AcDbLine
 10
668.997009
 20
345.950012
 30
0.0
 11
668.997009
 21
342.049988
 31
0.0
  0
LINE
  5
75
330
1F
100
AcDbEntity
  8
0
 62
     7
100
AcDbLine
 10
668.997009
 20
345.950012
 30
0.0
 11
523.297058
 21
345.950012
 31
0.0
  0
LINE
  5
76
330
1F
100
AcDbEntity
  8
0
 62
     7
100
AcDbLine
 10
523.297058
 20
342.049988
 30
0.0
 11
523.297058
 21
345.950012
 31
0.0
  0
ARC
  5
77
330
1F
100
AcDbEntity
  8
0
 62
     7
100
AcDbCircle
 10
522.797058
 20
342.049988
 30
0.0
 40
0.5
100
AcDbArc
 50
180.000009
 51
360.0
  0
LINE
  5
78
330
1F
100
AcDbEntity
  8
0
 62
     7
100
AcDbLine
 10
522.297058
 20
345.950012
 30
0.0
 11
522.297058
 21
342.049988
 31
0.0
  0
LINE
  5
79
330
1F
100
AcDbEntity
  8
0
 62
     7
100
AcDbLine
 10
522.297058
 20
345.950012
 30
0.0
 11
519.99707
 21
345.950012
 31
0.0
  0
LINE
  5
7A
330
1F
100
AcDbEntity
  8
0
 62
     7
100
AcDbLine
 10
519.99707
 20
342.049988
 30
0.0
 11
519.99707
 21
345.950012
 31
0.0
  0
ARC
  5
7B
330
1F
100
AcDbEntity
  8
0
 62
     7
100
AcDbCircle
 10
519.49707
 20
342.049988
 30
0.0
 40
0.5
100
AcDbArc
 50
180.000009
 51
360.0
  0
LINE
  5
7C
330
1F
100
AcDbEntity
  8
0
 62
     7
100
AcDbLine
 10
518.99707
 20
345.950012
 30
0.0
 11
518.99707
 21
342.049988
 31
0.0
  0
LINE
  5
7D
330
1F
100
AcDbEntity
  8
0
 62
     7
100
AcDbLine
 10
518.99707
 20
345.950012
 30
0.0
 11
223.297058
 21
345.950012
 31
0.0
  0
LINE
  5
7E
330
1F
100
AcDbEntity
  8
0
 62
     7
100
AcDbLine
 10
223.297058
 20
342.049988
 30
0.0
 11
223.297058
 21
345.950012
 31
0.0
  0
ARC
  5
7F
330
1F
100
AcDbEntity
  8
0
 62
     7
100
AcDbCircle
 10
222.797058
 20
342.049988
 30
0.0
 40
0.5
100
AcDbArc
 50
180.000009
 51
360.0
  0
LINE
  5
80
330
1F
100
AcDbEntity
  8
0
 62
     7
100
AcDbLine
 10
222.297058
 20
345.950012
 30
0.0
 11
222.297058
 21
342.049988
 31
0.0
  0
LINE
  5
81
330
1F
100
AcDbEntity
  8
0
 62
     7
100
AcDbLine
 10
222.297058
 20
345.950012
 30
0.0
 11
219.99704
 21
345.950012
 31
0.0
  0
LINE
  5
82
330
1F
100
AcDbEntity
  8
0
 62
     7
100
AcDbLine
 10
219.99704
 20
342.049988
 30
0.0
 11
219.99704
 21
345.950012
 31
0.0
  0
ARC
  5
83
330
1F
100
AcDbEntity
  8
0
 62
     7
100
AcDbCircle
 10
219.49704
 20
342.049988
 30
0.0
 40
0.5
100
AcDbArc
 50
180.000009
 51
360.0
  0
LINE
  5
84
330
1F
100
AcDbEntity
  8
0
 62
     7
100
AcDbLine
 10
218.99704
 20
345.950012
 30
0.0
 11
218.99704
 21
342.049988
 31
0.0
  0
LINE
  5
85
330
1F
100
AcDbEntity
  8
0
 62
     7
100
AcDbLine
 10
218.99704
 20
345.950012
 30
0.0
 11
160.328369
 21
345.950012
 31
0.0
  0
ARC
  5
86
330
1F
100
AcDbEntity
  8
0
 62
     7
100
AcDbCircle
 10
153.647064
 20
350.350006
 30
0.0
 40
8.0
100
AcDbArc
 50
213.367013
 51
326.632979
  0
LINE
  5
87
330
1F
100
AcDbEntity
  8
0
 62
     7
100
AcDbLine
 10
146.965729
 20
345.950012
 30
0.0
 11
144.647064
 21
345.950012
 31
0.0
  0
LINE
  5
88
330
1F
100
AcDbEntity
  8
0
 62
     7
100
AcDbLine
 10
144.647064
 20
332.850006
 30
0.0
 11
144.647064
 21
345.950012
 31
0.0
  0
LINE
  5
89
330
1F
100
AcDbEntity
  8
0
 62
     7
100
AcDbLine
 10
747.647034
 20
332.049988
 30
0.0
 11
747.647034
 21
332.850006
 31
0.0
  0
LINE
  5
8A
330
1F
100
AcDbEntity
  8
0
 62
     7
100
AcDbLine
 10
144.647064
 20
332.850006
 30
0.0
 11
144.647064
 21
332.049988
 31
0.0
  0
LINE
  5
8B
330
1F
100
AcDbEntity
  8
0
 62
     7
100
AcDbLine
 10
144.647064
 20
332.049988
 30
0.0
 11
747.647034
 21
332.049988
 31
0.0
  0
LINE
  5
8C
330
1F
100
AcDbEntity
  8
0
 62
     7
100
AcDbLine
 10
747.647034
 20
346.079285
 30
0.0
 11
747.647034
 21
345.950012
 31
0.0
  0
LINE
  5
8D
330
1F
100
AcDbEntity
  8
0
 62
     7
100
AcDbLine
 10
747.647034
 20
346.079285
 30
0.0
 11
747.647034
 21
346.220703
 31
0.0
  0
LINE
  5
8E
330
1F
100
AcDbEntity
  8
0
 62
     7
100
AcDbLine
 10
747.647034
 20
346.350006
 30
0.0
 11
747.647034
 21
346.220703
 31
0.0
  0
LINE
  5
8F
330
1F
100
AcDbEntity
  8
0
 62
     7
100
AcDbLine
 10
747.647034
 20
346.350006
 30
0.0
 11
747.647034
 21
347.049988
 31
0.0
  0
LINE
  5
90
330
1F
100
AcDbEntity
  8
0
 62
     7
100
AcDbLine
 10
747.647034
 20
347.179291
 30
0.0
 11
747.647034
 21
347.049988
 31
0.0
  0
LINE
  5
91
330
1F
100
AcDbEntity
  8
0
 62
     7
100
AcDbLine
 10
747.647034
 20
347.179291
 30
0.0
 11
747.647034
 21
347.320709
 31
0.0
  0
LINE
  5
92
330
1F
100
AcDbEntity
  8
0
 62
     7
100
AcDbLine
 10
747.647034
 20
347.450012
 30
0.0
 11
747.647034
 21
347.320709
 31
0.0
  0
LINE
  5
93
330
1F
100
AcDbEntity
  8
0
 62
     7
100
AcDbLine
 10
747.647034
 20
347.450012
 30
0.0
 11
747.647034
 21
348.150024
 31
0.0
  0
LINE
  5
94
330
1F
100
AcDbEntity
  8
0
 62
     7
100
AcDbLine
 10
747.647034
 20
348.279297
 30
0.0
 11
747.647034
 21
348.150024
 31
0.0
  0
LINE
  5
95
330
1F
100
AcDbEntity
  8
0
 62
     7
100
AcDbLine
 10
747.647034
 20
348.279297
 30
0.0
 11
747.647034
 21
348.420715
 31
0.0
  0
LINE
  5
96
330
1F
100
AcDbEntity
  8
0
 62
     7
100
AcDbLine
 10
747.647034
 20
348.549988
 30
0.0
 11
747.647034
 21
348.420715
 31
0.0
  0
LINE
  5
97
330
1F
100
AcDbEntity
  8
0
 62
     7
100
AcDbLine
 10
747.647034
 20
348.549988
 30
0.0
 11
747.647034
 21
349.25
 31
0.0
  0
LINE
  5
98
330
1F
100
AcDbEntity
  8
0
 62
     7
100
AcDbLine
 10
747.647034
 20
349.379272
 30
0.0
 11
747.647034
 21
349.25
 31
0.0
  0
LINE
  5
99
330
1F
100
AcDbEntity
  8
0
 62
     7
100
AcDbLine
 10
747.647034
 20
349.379272
 30
0.0
 11
747.647034
 21
349.520721
 31
0.0
  0
LINE
  5
9A
330
1F
100
AcDbEntity
  8
0
 62
     7
100
AcDbLine
 10
747.647034
 20
349.650024
 30
0.0
 11
747.647034
 21
349.520721
 31
0.0
  0
LINE
  5
9B
330
1F
100
AcDbEntity
  8
0
 62
     7
100
AcDbLine
 10
747.647034
 20
349.650024
 30
0.0
 11
747.647034
 21
350.350006
 31
0.0
  0
LINE
  5
9C
330
1F
100
AcDbEntity
  8
0
 62
     7
100
AcDbLine
 10
747.647034
 20
350.479309
 30
0.0
 11
747.647034
 21
350.350006
 31
0.0
  0
LINE
  5
9D
330
1F
100
AcDbEntity
  8
0
 62
     7
100
AcDbLine
 10
747.647034
 20
350.479309
 30
0.0
 11
747.647034
 21
350.620728
 31
0.0
  0
LINE
  5
9E
330
1F
100
AcDbEntity
  8
0
 62
     7
100
AcDbLine
 10
747.647034
 20
350.75
 30
0.0
 11
747.647034
 21
350.620728
 31
0.0
  0
LINE
  5
9F
330
1F
100
AcDbEntity
  8
0
 62
     7
100
AcDbLine
 10
747.647034
 20
350.75
 30
0.0
 11
747.647034
 21
351.450012
 31
0.0
  0
LINE
  5
A0
330
1F
100
AcDbEntity
  8
0
 62
     7
100
AcDbLine
 10
747.647034
 20
351.579285
 30
0.0
 11
747.647034
 21
351.450012
 31
0.0
  0
LINE
  5
A1
330
1F
100
AcDbEntity
  8
0
 62
     7
100
AcDbLine
 10
747.647034
 20
351.579285
 30
0.0
 11
747.647034
 21
351.720703
 31
0.0
  0
LINE
  5
A2
330
1F
100
AcDbEntity
  8
0
 62
     7
100
AcDbLine
 10
747.647034
 20
351.850006
 30
0.0
 11
747.647034
 21
351.720703
 31
0.0
  0
LINE
  5
A3
330
1F
100
AcDbEntity
  8
0
 62
     7
100
AcDbLine
 10
747.647034
 20
351.850006
 30
0.0
 11
747.647034
 21
352.549988
 31
0.0
  0
LINE
  5
A4
330
1F
100
AcDbEntity
  8
0
 62
     7
100
AcDbLine
 10
747.647034
 20
352.679291
 30
0.0
 11
747.647034
 21
352.549988
 31
0.0
  0
LINE
  5
A5
330
1F
100
AcDbEntity
  8
0
 62
     7
100
AcDbLine
 10
747.647034
 20
352.679291
 30
0.0
 11
747.647034
 21
352.820709
 31
0.0
  0
LINE
  5
A6
330
1F
100
AcDbEntity
  8
0
 62
     7
100
AcDbLine
 10
747.647034
 20
352.950012
 30
0.0
 11
747.647034
 21
352.820709
 31
0.0
  0
LINE
  5
A7
330
1F
100
AcDbEntity
  8
0
 62
     7
100
AcDbLine
 10
747.647034
 20
352.950012
 30
0.0
 11
747.647034
 21
353.650024
 31
0.0
  0
LINE
  5
A8
330
1F
100
AcDbEntity
  8
0
 62
     7
100
AcDbLine
 10
747.647034
 20
353.779297
 30
0.0
 11
747.647034
 21
353.650024
 31
0.0
  0
LINE
  5
A9
330
1F
100
AcDbEntity
  8
0
 62
     7
100
AcDbLine
 10
747.647034
 20
353.779297
 30
0.0
 11
747.647034
 21
353.920715
 31
0.0
  0
LINE
  5
AA
330
1F
100
AcDbEntity
  8
0
 62
     7
100
AcDbLine
 10
747.647034
 20
354.049988
 30
0.0
 11
747.647034
 21
353.920715
 31
0.0
  0
LINE
  5
AB
330
1F
100
AcDbEntity
  8
0
 62
     7
100
AcDbLine
 10
747.647034
 20
354.049988
 30
0.0
 11
747.647034
 21
354.75
 31
0.0
  0
LINE
  5
AC
330
1F
100
AcDbEntity
  8
0
 62
     7
100
AcDbLine
 10
747.647034
 20
354.879272
 30
0.0
 11
747.647034
 21
354.75
 31
0.0
  0
LINE
  5
AD
330
1F
100
AcDbEntity
  8
0
 62
     7
100
AcDbLine
 10
747.647034
 20
354.879272
 30
0.0
 11
747.647034
 21
355.020721
 31
0.0
  0
LINE
  5
AE
330
1F
100
AcDbEntity
  8
0
 62
     7
100
AcDbLine
 10
747.647034
 20
355.150024
 30
0.0
 11
747.647034
 21
355.020721
 31
0.0
  0
LINE
  5
AF
330
1F
100
AcDbEntity
  8
0
 62
     7
100
AcDbLine
 10
747.647034
 20
355.150024
 30
0.0
 11
747.647034
 21
359.974274
 31
0.0
  0
LINE
  5
B0
330
1F
100
AcDbEntity
  8
0
 62
     7
100
AcDbLine
 10
747.647034
 20
360.462158
 30
0.0
 11
747.647034
 21
359.974274
 31
0.0
  0
LINE
  5
B1
330
1F
100
AcDbEntity
  8
0
 62
     7
100
AcDbLine
 10
747.647034
 20
360.462158
 30
0.0
 11
747.647034
 21
360.549988
 31
0.0
  0
LINE
  5
B2
330
1F
100
AcDbEntity
  8
0
 62
     7
100
AcDbLine
 10
745.328369
 20
345.950012
 30
0.0
 11
745.411743
 21
346.079285
 31
0.0
  0
ARC
  5
B3
330
1F
100
AcDbEntity
  8
0
 62
     7
100
AcDbCircle
 10
738.647034
 20
350.350006
 30
0.0
 40
8.0
100
AcDbArc
 50
354.980203
 51
360.0
  0
LINE
  5
B4
330
1F
100
AcDbEntity
  8
0
 62
     7
100
AcDbLine
 10
746.603943
 20
349.520721
 30
0.0
 11
746.616333
 21
349.650024
 31
0.0
  0
LINE
  5
B5
330
1F
100
AcDbEntity
  8
0
 62
     7
100
AcDbLine
 10
746.587952
 20
349.379272
 30
0.0
 11
746.603943
 21
349.520721
 31
0.0
  0
LINE
  5
B6
330
1F
100
AcDbEntity
  8
0
 62
     7
100
AcDbLine
 10
746.571045
 20
349.25
 30
0.0
 11
746.587952
 21
349.379272
 31
0.0
  0
ARC
  5
B7
330
1F
100
AcDbEntity
  8
0
 62
     7
100
AcDbCircle
 10
738.647034
 20
350.350006
 30
0.0
 40
8.0
100
AcDbArc
 50
346.997132
 51
352.096798
  0
LINE
  5
B8
330
1F
100
AcDbEntity
  8
0
 62
     7
100
AcDbLine
 10
746.410889
 20
348.420715
 30
0.0
 11
746.441895
 21
348.549988
 31
0.0
  0
LINE
  5
B9
330
1F
100
AcDbEntity
  8
0
 62
     7
100
AcDbLine
 10
746.37439
 20
348.279297
 30
0.0
 11
746.410889
 21
348.420715
 31
0.0
  0
LINE
  5
BA
330
1F
100
AcDbEntity
  8
0
 62
     7
100
AcDbLine
 10
746.338562
 20
348.150024
 30
0.0
 11
746.37439
 21
348.279297
 31
0.0
  0
ARC
  5
BB
330
1F
100
AcDbEntity
  8
0
 62
     7
100
AcDbCircle
 10
738.647034
 20
350.350006
 30
0.0
 40
8.0
100
AcDbArc
 50
338.746183
 51
344.037995
  0
LINE
  5
BC
330
1F
100
AcDbEntity
  8
0
 62
     7
100
AcDbLine
 10
746.051331
 20
347.320709
 30
0.0
 11
746.102905
 21
347.450012
 31
0.0
  0
LINE
  5
BD
330
1F
100
AcDbEntity
  8
0
 62
     7
100
AcDbLine
 10
745.991882
 20
347.179291
 30
0.0
 11
746.051331
 21
347.320709
 31
0.0
  0
LINE
  5
BE
330
1F
100
AcDbEntity
  8
0
 62
     7
100
AcDbLine
 10
745.934692
 20
347.049988
 30
0.0
 11
745.991882
 21
347.179291
 31
0.0
  0
ARC
  5
BF
330
1F
100
AcDbEntity
  8
0
 62
     7
100
AcDbCircle
 10
738.647034
 20
350.350006
 30
0.0
 40
8.0
100
AcDbArc
 50
329.999989
 51
335.63801
  0
LINE
  5
C0
330
1F
100
AcDbEntity
  8
0
 62
     7
100
AcDbLine
 10
745.498962
 20
346.220703
 30
0.0
 11
745.575256
 21
346.350006
 31
0.0
  0
LINE
  5
C1
330
1F
100
AcDbEntity
  8
0
 62
     7
100
AcDbLine
 10
745.411743
 20
346.079285
 30
0.0
 11
745.498962
 21
346.220703
 31
0.0
  0
LINE
  5
C2
330
1F
100
AcDbEntity
  8
0
 62
     7
100
AcDbLine
 10
731.965698
 20
345.950012
 30
0.0
 11
731.882324
 21
346.079285
 31
0.0
  0
LINE
  5
C3
330
1F
100
AcDbEntity
  8
0
 62
     7
100
AcDbLine
 10
731.882324
 20
346.079285
 30
0.0
 11
731.795105
 21
346.220703
 31
0.0
  0
LINE
  5
C4
330
1F
100
AcDbEntity
  8
0
 62
     7
100
AcDbLine
 10
731.795105
 20
346.220703
 30
0.0
 11
731.718811
 21
346.350006
 31
0.0
  0
ARC
  5
C5
330
1F
100
AcDbEntity
  8
0
 62
     7
100
AcDbCircle
 10
738.647034
 20
350.350006
 30
0.0
 40
8.0
100
AcDbArc
 50
204.361982
 51
210.000003
  0
LINE
  5
C6
330
1F
100
AcDbEntity
  8
0
 62
     7
100
AcDbLine
 10
731.359375
 20
347.049988
 30
0.0
 11
731.302185
 21
347.179291
 31
0.0
  0
LINE
  5
C7
330
1F
100
AcDbEntity
  8
0
 62
     7
100
AcDbLine
 10
731.302185
 20
347.179291
 30
0.0
 11
731.242737
 21
347.320709
 31
0.0
  0
LINE
  5
C8
330
1F
100
AcDbEntity
  8
0
 62
     7
100
AcDbLine
 10
731.242737
 20
347.320709
 30
0.0
 11
731.191162
 21
347.450012
 31
0.0
  0
ARC
  5
C9
330
1F
100
AcDbEntity
  8
0
 62
     7
100
AcDbCircle
 10
738.647034
 20
350.350006
 30
0.0
 40
8.0
100
AcDbArc
 50
195.96201
 51
201.253809
  0
LINE
  5
CA
330
1F
100
AcDbEntity
  8
0
 62
     7
100
AcDbLine
 10
730.955505
 20
348.150024
 30
0.0
 11
730.919678
 21
348.279297
 31
0.0
  0
LINE
  5
CB
330
1F
100
AcDbEntity
  8
0
 62
     7
100
AcDbLine
 10
730.919678
 20
348.279297
 30
0.0
 11
730.883179
 21
348.420715
 31
0.0
  0
LINE
  5
CC
330
1F
100
AcDbEntity
  8
0
 62
     7
100
AcDbLine
 10
730.883179
 20
348.420715
 30
0.0
 11
730.852173
 21
348.549988
 31
0.0
  0
ARC
  5
CD
330
1F
100
AcDbEntity
  8
0
 62
     7
100
AcDbCircle
 10
738.647034
 20
350.350006
 30
0.0
 40
8.0
100
AcDbArc
 50
187.903207
 51
193.002872
  0
LINE
  5
CE
330
1F
100
AcDbEntity
  8
0
 62
     7
100
AcDbLine
 10
730.723022
 20
349.25
 30
0.0
 11
730.706116
 21
349.379272
 31
0.0
  0
LINE
  5
CF
330
1F
100
AcDbEntity
  8
0
 62
     7
100
AcDbLine
 10
730.706116
 20
349.379272
 30
0.0
 11
730.690125
 21
349.520721
 31
0.0
  0
LINE
  5
D0
330
1F
100
AcDbEntity
  8
0
 62
     7
100
AcDbLine
 10
730.690125
 20
349.520721
 30
0.0
 11
730.677734
 21
349.650024
 31
0.0
  0
ARC
  5
D1
330
1F
100
AcDbEntity
  8
0
 62
     7
100
AcDbCircle
 10
738.647034
 20
350.350006
 30
0.0
 40
8.0
100
AcDbArc
 50
180.000009
 51
185.019802
  0
LINE
  5
D2
330
1F
100
AcDbEntity
  8
0
 62
     7
100
AcDbLine
 10
673.297058
 20
346.079285
 30
0.0
 11
673.297058
 21
345.950012
 31
0.0
  0
LINE
  5
D3
330
1F
100
AcDbEntity
  8
0
 62
     7
100
AcDbLine
 10
673.297058
 20
346.220703
 30
0.0
 11
673.297058
 21
346.350006
 31
0.0
  0
LINE
  5
D4
330
1F
100
AcDbEntity
  8
0
 62
     7
100
AcDbLine
 10
673.297058
 20
346.220703
 30
0.0
 11
673.297058
 21
346.079285
 31
0.0
  0
LINE
  5
D5
330
1F
100
AcDbEntity
  8
0
 62
     7
100
AcDbLine
 10
673.297058
 20
352.950012
 30
0.0
 11
673.297058
 21
353.350006
 31
0.0
  0
LINE
  5
D6
330
1F
100
AcDbEntity
  8
0
 62
     7
100
AcDbLine
 10
673.297058
 20
352.820709
 30
0.0
 11
673.297058
 21
352.950012
 31
0.0
  0
LINE
  5
D7
330
1F
100
AcDbEntity
  8
0
 62
     7
100
AcDbLine
 10
673.297058
 20
352.820709
 30
0.0
 11
673.297058
 21
352.679291
 31
0.0
  0
LINE
  5
D8
330
1F
100
AcDbEntity
  8
0
 62
     7
100
AcDbLine
 10
673.297058
 20
352.679291
 30
0.0
 11
673.297058
 21
352.549988
 31
0.0
  0
LINE
  5
D9
330
1F
100
AcDbEntity
  8
0
 62
     7
100
AcDbLine
 10
673.297058
 20
351.850006
 30
0.0
 11
673.297058
 21
352.549988
 31
0.0
  0
LINE
  5
DA
330
1F
100
AcDbEntity
  8
0
 62
     7
100
AcDbLine
 10
673.297058
 20
351.720703
 30
0.0
 11
673.297058
 21
351.850006
 31
0.0
  0
LINE
  5
DB
330
1F
100
AcDbEntity
  8
0
 62
     7
100
AcDbLine
 10
673.297058
 20
351.720703
 30
0.0
 11
673.297058
 21
351.579285
 31
0.0
  0
LINE
  5
DC
330
1F
100
AcDbEntity
  8
0
 62
     7
100
AcDbLine
 10
673.297058
 20
351.579285
 30
0.0
 11
673.297058
 21
351.450012
 31
0.0
  0
LINE
  5
DD
330
1F
100
AcDbEntity
  8
0
 62
     7
100
AcDbLine
 10
673.297058
 20
350.75
 30
0.0
 11
673.297058
 21
351.450012
 31
0.0
  0
LINE
  5
DE
330
1F
100
AcDbEntity
  8
0
 62
     7
100
AcDbLine
 10
673.297058
 20
350.620728
 30
0.0
 11
673.297058
 21
350.75
 31
0.0
  0
LINE
  5
DF
330
1F
100
AcDbEntity
  8
0
 62
     7
100
AcDbLine
 10
673.297058
 20
350.620728
 30
0.0
 11
673.297058
 21
350.479309
 31
0.0
  0
LINE
  5
E0
330
1F
100
AcDbEntity
  8
0
 62
     7
100
AcDbLine
 10
673.297058
 20
350.479309
 30
0.0
 11
673.297058
 21
350.350006
 31
0.0
  0
LINE
  5
E1
330
1F
100
AcDbEntity
  8
0
 62
     7
100
AcDbLine
 10
673.297058
 20
349.650024
 30
0.0
 11
673.297058
 21
350.350006
 31
0.0
  0
LINE
  5
E2
330
1F
100
AcDbEntity
  8
0
 62
     7
100
AcDbLine
 10
673.297058
 20
349.520721
 30
0.0
 11
673.297058
 21
349.650024
 31
0.0
  0
LINE
  5
E3
330
1F
100
AcDbEntity
  8
0
 62
     7
100
AcDbLine
 10
673.297058
 20
349.520721
 30
0.0
 11
673.297058
 21
349.379272
 31
0.0
  0
LINE
  5
E4
330
1F
100
AcDbEntity
  8
0
 62
     7
100
AcDbLine
 10
673.297058
 20
349.379272
 30
0.0
 11
673.297058
 21
349.25
 31
0.0
  0
LINE
  5
E5
330
1F
100
AcDbEntity
  8
0
 62
     7
100
AcDbLine
 10
673.297058
 20
348.549988
 30
0.0
 11
673.297058
 21
349.25
 31
0.0
  0
LINE
  5
E6
330
1F
100
AcDbEntity
  8
0
 62
     7
100
AcDbLine
 10
673.297058
 20
348.420715
 30
0.0
 11
673.297058
 21
348.549988
 31
0.0
  0
LINE
  5
E7
330
1F
100
AcDbEntity
  8
0
 62
     7
100
AcDbLine
 10
673.297058
 20
348.420715
 30
0.0
 11
673.297058
 21
348.279297
 31
0.0
  0
LINE
  5
E8
330
1F
100
AcDbEntity
  8
0
 62
     7
100
AcDbLine
 10
673.297058
 20
348.279297
 30
0.0
 11
673.297058
 21
348.150024
 31
0.0
  0
LINE
  5
E9
330
1F
100
AcDbEntity
  8
0
 62
     7
100
AcDbLine
 10
673.297058
 20
347.450012
 30
0.0
 11
673.297058
 21
348.150024
 31
0.0
  0
LINE
  5
EA
330
1F
100
AcDbEntity
  8
0
 62
     7
100
AcDbLine
 10
673.297058
 20
347.320709
 30
0.0
 11
673.297058
 21
347.450012
 31
0.0
  0
LINE
  5
EB
330
1F
100
AcDbEntity
  8
0
 62
     7
100
AcDbLine
 10
673.297058
 20
347.320709
 30
0.0
 11
673.297058
 21
347.179291
 31
0.0
  0
LINE
  5
EC
330
1F
100
AcDbEntity
  8
0
 62
     7
100
AcDbLine
 10
673.297058
 20
347.179291
 30
0.0
 11
673.297058
 21
347.049988
 31
0.0
  0
LINE
  5
ED
330
1F
100
AcDbEntity
  8
0
 62
     7
100
AcDbLine
 10
673.297058
 20
346.350006
 30
0.0
 11
673.297058
 21
347.049988
 31
0.0
  0
LINE
  5
EE
330
1F
100
AcDbEntity
  8
0
 62
     7
100
AcDbLine
 10
672.297058
 20
353.650024
 30
0.0
 11
672.297058
 21
352.950012
 31
0.0
  0
LINE
  5
EF
330
1F
100
AcDbEntity
  8
0
 62
     7
100
AcDbLine
 10
672.297058
 20
353.779297
 30
0.0
 11
672.297058
 21
353.650024
 31
0.0
  0
LINE
  5
F0
330
1F
100
AcDbEntity
  8
0
 62
     7
100
AcDbLine
 10
672.297058
 20
353.779297
 30
0.0
 11
672.297058
 21
353.850006
 31
0.0
  0
LINE
  5
F1
330
1F
100
AcDbEntity
  8
0
 62
     7
100
AcDbLine
 10
672.297058
 20
346.079285
 30
0.0
 11
672.297058
 21
345.950012
 31
0.0
  0
LINE
  5
F2
330
1F
100
AcDbEntity
  8
0
 62
     7
100
AcDbLine
 10
672.297058
 20
346.079285
 30
0.0
 11
672.297058
 21
346.220703
 31
0.0
  0
LINE
  5
F3
330
1F
100
AcDbEntity
  8
0
 62
     7
100
AcDbLine
 10
672.297058
 20
346.220703
 30
0.0
 11
672.297058
 21
346.350006
 31
0.0
  0
LINE
  5
F4
330
1F
100
AcDbEntity
  8
0
 62
     7
100
AcDbLine
 10
672.297058
 20
347.049988
 30
0.0
 11
672.297058
 21
346.350006
 31
0.0
  0
LINE
  5
F5
330
1F
100
AcDbEntity
  8
0
 62
     7
100
AcDbLine
 10
672.297058
 20
347.179291
 30
0.0
 11
672.297058
 21
347.049988
 31
0.0
  0
LINE
  5
F6
330
1F
100
AcDbEntity
  8
0
 62
     7
100
AcDbLine
 10
672.297058
 20
347.179291
 30
0.0
 11
672.297058
 21
347.320709
 31
0.0
  0
LINE
  5
F7
330
1F
100
AcDbEntity
  8
0
 62
     7
100
AcDbLine
 10
672.297058
 20
347.320709
 30
0.0
 11
672.297058
 21
347.450012
 31
0.0
  0
LINE
  5
F8
330
1F
100
AcDbEntity
  8
0
 62
     7
100
AcDbLine
 10
672.297058
 20
348.150024
 30
0.0
 11
672.297058
 21
347.450012
 31
0.0
  0
LINE
  5
F9
330
1F
100
AcDbEntity
  8
0
 62
     7
100
AcDbLine
 10
672.297058
 20
348.279297
 30
0.0
 11
672.297058
 21
348.150024
 31
0.0
  0
LINE
  5
FA
330
1F
100
AcDbEntity
  8
0
 62
     7
100
AcDbLine
 10
672.297058
 20
348.279297
 30
0.0
 11
672.297058
 21
348.420715
 31
0.0
  0
LINE
  5
FB
330
1F
100
AcDbEntity
  8
0
 62
     7
100
AcDbLine
 10
672.297058
 20
348.420715
 30
0.0
 11
672.297058
 21
348.549988
 31
0.0
  0
LINE
  5
FC
330
1F
100
AcDbEntity
  8
0
 62
     7
100
AcDbLine
 10
672.297058
 20
349.25
 30
0.0
 11
672.297058
 21
348.549988
 31
0.0
  0
LINE
  5
FD
330
1F
100
AcDbEntity
  8
0
 62
     7
100
AcDbLine
 10
672.297058
 20
349.379272
 30
0.0
 11
672.297058
 21
349.25
 31
0.0
  0
LINE
  5
FE
330
1F
100
AcDbEntity
  8
0
 62
     7
100
AcDbLine
 10
672.297058
 20
349.379272
 30
0.0
 11
672.297058
 21
349.520721
 31
0.0
  0
LINE
  5
FF
330
1F
100
AcDbEntity
  8
0
 62
     7
100
AcDbLine
 10
672.297058
 20
349.520721
 30
0.0
 11
672.297058
 21
349.650024
 31
0.0
  0
LINE
  5
100
330
1F
100
AcDbEntity
  8
0
 62
     7
100
AcDbLine
 10
672.297058
 20
350.350006
 30
0.0
 11
672.297058
 21
349.650024
 31
0.0
  0
LINE
  5
101
330
1F
100
AcDbEntity
  8
0
 62
     7
100
AcDbLine
 10
672.297058
 20
350.479309
 30
0.0
 11
672.297058
 21
350.350006
 31
0.0
  0
LINE
  5
102
330
1F
100
AcDbEntity
  8
0
 62
     7
100
AcDbLine
 10
672.297058
 20
350.479309
 30
0.0
 11
672.297058
 21
350.620728
 31
0.0
  0
LINE
  5
103
330
1F
100
AcDbEntity
  8
0
 62
     7
100
AcDbLine
 10
672.297058
 20
350.620728
 30
0.0
 11
672.297058
 21
350.75
 31
0.0
  0
LINE
  5
104
330
1F
100
AcDbEntity
  8
0
 62
     7
100
AcDbLine
 10
672.297058
 20
351.450012
 30
0.0
 11
672.297058
 21
350.75
 31
0.0
  0
LINE
  5
105
330
1F
100
AcDbEntity
  8
0
 62
     7
100
AcDbLine
 10
672.297058
 20
351.579285
 30
0.0
 11
672.297058
 21
351.450012
 31
0.0
  0
LINE
  5
106
330
1F
100
AcDbEntity
  8
0
 62
     7
100
AcDbLine
 10
672.297058
 20
351.579285
 30
0.0
 11
672.297058
 21
351.720703
 31
0.0
  0
LINE
  5
107
330
1F
100
AcDbEntity
  8
0
 62
     7
100
AcDbLine
 10
672.297058
 20
351.720703
 30
0.0
 11
672.297058
 21
351.850006
 31
0.0
  0
LINE
  5
108
330
1F
100
AcDbEntity
  8
0
 62
     7
100
AcDbLine
 10
672.297058
 20
352.549988
 30
0.0
 11
672.297058
 21
351.850006
 31
0.0
  0
LINE
  5
109
330
1F
100
AcDbEntity
  8
0
 62
     7
100
AcDbLine
 10
672.297058
 20
352.679291
 30
0.0
 11
672.297058
 21
352.549988
 31
0.0
  0
LINE
  5
10A
330
1F
100
AcDbEntity
  8
0
 62
     7
100
AcDbLine
 10
672.297058
 20
352.679291
 30
0.0
 11
672.297058
 21
352.820709
 31
0.0
  0
LINE
  5
10B
330
1F
100
AcDbEntity
  8
0
 62
     7
100
AcDbLine
 10
672.297058
 20
352.820709
 30
0.0
 11
672.297058
 21
352.950012
 31
0.0
  0
LINE
  5
10C
330
1F
100
AcDbEntity
  8
0
 62
     7
100
AcDbLine
 10
669.997009
 20
346.079285
 30
0.0
 11
669.997009
 21
345.950012
 31
0.0
  0
LINE
  5
10D
330
1F
100
AcDbEntity
  8
0
 62
     7
100
AcDbLine
 10
669.997009
 20
346.220703
 30
0.0
 11
669.997009
 21
346.350006
 31
0.0
  0
LINE
  5
10E
330
1F
100
AcDbEntity
  8
0
 62
     7
100
AcDbLine
 10
669.997009
 20
346.220703
 30
0.0
 11
669.997009
 21
346.079285
 31
0.0
  0
LINE
  5
10F
330
1F
100
AcDbEntity
  8
0
 62
     7
100
AcDbLine
 10
669.997009
 20
353.850006
 30
0.0
 11
669.997009
 21
353.779297
 31
0.0
  0
LINE
  5
110
330
1F
100
AcDbEntity
  8
0
 62
     7
100
AcDbLine
 10
669.997009
 20
353.779297
 30
0.0
 11
669.997009
 21
353.650024
 31
0.0
  0
LINE
  5
111
330
1F
100
AcDbEntity
  8
0
 62
     7
100
AcDbLine
 10
669.997009
 20
352.950012
 30
0.0
 11
669.997009
 21
353.650024
 31
0.0
  0
LINE
  5
112
330
1F
100
AcDbEntity
  8
0
 62
     7
100
AcDbLine
 10
669.997009
 20
352.820709
 30
0.0
 11
669.997009
 21
352.950012
 31
0.0
  0
LINE
  5
113
330
1F
100
AcDbEntity
  8
0
 62
     7
100
AcDbLine
 10
669.997009
 20
352.820709
 30
0.0
 11
669.997009
 21
352.679291
 31
0.0
  0
LINE
  5
114
330
1F
100
AcDbEntity
  8
0
 62
     7
100
AcDbLine
 10
669.997009
 20
352.679291
 30
0.0
 11
669.997009
 21
352.549988
 31
0.0
  0
LINE
  5
115
330
1F
100
AcDbEntity
  8
0
 62
     7
100
AcDbLine
 10
669.997009
 20
351.850006
 30
0.0
 11
669.997009
 21
352.549988
 31
0.0
  0
LINE
  5
116
330
1F
100
AcDbEntity
  8
0
 62
     7
100
AcDbLine
 10
669.997009
 20
351.720703
 30
0.0
 11
669.997009
 21
351.850006
 31
0.0
  0
LINE
  5
117
330
1F
100
AcDbEntity
  8
0
 62
     7
100
AcDbLine
 10
669.997009
 20
351.720703
 30
0.0
 11
669.997009
 21
351.579285
 31
0.0
  0
LINE
  5
118
330
1F
100
AcDbEntity
  8
0
 62
     7
100
AcDbLine
 10
669.997009
 20
351.579285
 30
0.0
 11
669.997009
 21
351.450012
 31
0.0
  0
LINE
  5
119
330
1F
100
AcDbEntity
  8
0
 62
     7
100
AcDbLine
 10
669.997009
 20
350.75
 30
0.0
 11
669.997009
 21
351.450012
 31
0.0
  0
LINE
  5
11A
330
1F
100
AcDbEntity
  8
0
 62
     7
100
AcDbLine
 10
669.997009
 20
350.620728
 30
0.0
 11
669.997009
 21
350.75
 31
0.0
  0
LINE
  5
11B
330
1F
100
AcDbEntity
  8
0
 62
     7
100
AcDbLine
 10
669.997009
 20
350.620728
 30
0.0
 11
669.997009
 21
350.479309
 31
0.0
  0
LINE
  5
11C
330
1F
100
AcDbEntity
  8
0
 62
     7
100
AcDbLine
 10
669.997009
 20
350.479309
 30
0.0
 11
669.997009
 21
350.350006
 31
0.0
  0
LINE
  5
11D
330
1F
100
AcDbEntity
  8
0
 62
     7
100
AcDbLine
 10
669.997009
 20
349.650024
 30
0.0
 11
669.997009
 21
350.350006
 31
0.0
  0
LINE
  5
11E
330
1F
100
AcDbEntity
  8
0
 62
     7
100
AcDbLine
 10
669.997009
 20
349.520721
 30
0.0
 11
669.997009
 21
349.650024
 31
0.0
  0
LINE
  5
11F
330
1F
100
AcDbEntity
  8
0
 62
     7
100
AcDbLine
 10
669.997009
 20
349.520721
 30
0.0
 11
669.997009
 21
349.379272
 31
0.0
  0
LINE
  5
120
330
1F
100
AcDbEntity
  8
0
 62
     7
100
AcDbLine
 10
669.997009
 20
349.379272
 30
0.0
 11
669.997009
 21
349.25
 31
0.0
  0
LINE
  5
121
330
1F
100
AcDbEntity
  8
0
 62
     7
100
AcDbLine
 10
669.997009
 20
348.549988
 30
0.0
 11
669.997009
 21
349.25
 31
0.0
  0
LINE
  5
122
330
1F
100
AcDbEntity
  8
0
 62
     7
100
AcDbLine
 10
669.997009
 20
348.420715
 30
0.0
 11
669.997009
 21
348.549988
 31
0.0
  0
LINE
  5
123
330
1F
100
AcDbEntity
  8
0
 62
     7
100
AcDbLine
 10
669.997009
 20
348.420715
 30
0.0
 11
669.997009
 21
348.279297
 31
0.0
  0
LINE
  5
124
330
1F
100
AcDbEntity
  8
0
 62
     7
100
AcDbLine
 10
669.997009
 20
348.279297
 30
0.0
 11
669.997009
 21
348.150024
 31
0.0
  0
LINE
  5
125
330
1F
100
AcDbEntity
  8
0
 62
     7
100
AcDbLine
 10
669.997009
 20
347.450012
 30
0.0
 11
669.997009
 21
348.150024
 31
0.0
  0
LINE
  5
126
330
1F
100
AcDbEntity
  8
0
 62
     7
100
AcDbLine
 10
669.997009
 20
347.320709
 30
0.0
 11
669.997009
 21
347.450012
 31
0.0
  0
LINE
  5
127
330
1F
100
AcDbEntity
  8
0
 62
     7
100
AcDbLine
 10
669.997009
 20
347.320709
 30
0.0
 11
669.997009
 21
347.179291
 31
0.0
  0
LINE
  5
128
330
1F
100
AcDbEntity
  8
0
 62
     7
100
AcDbLine
 10
669.997009
 20
347.179291
 30
0.0
 11
669.997009
 21
347.049988
 31
0.0
  0
LINE
  5
129
330
1F
100
AcDbEntity
  8
0
 62
     7
100
AcDbLine
 10
669.997009
 20
346.350006
 30
0.0
 11
669.997009
 21
347.049988
 31
0.0
  0
LINE
  5
12A
330
1F
100
AcDbEntity
  8
0
 62
     7
100
AcDbLine
 10
668.997009
 20
352.679291
 30
0.0
 11
668.997009
 21
352.549988
 31
0.0
  0
LINE
  5
12B
330
1F
100
AcDbEntity
  8
0
 62
     7
100
AcDbLine
 10
668.997009
 20
352.679291
 30
0.0
 11
668.997009
 21
352.820709
 31
0.0
  0
LINE
  5
12C
330
1F
100
AcDbEntity
  8
0
 62
     7
100
AcDbLine
 10
668.997009
 20
352.820709
 30
0.0
 11
668.997009
 21
352.950012
 31
0.0
  0
LINE
  5
12D
330
1F
100
AcDbEntity
  8
0
 62
     7
100
AcDbLine
 10
668.997009
 20
353.350006
 30
0.0
 11
668.997009
 21
352.950012
 31
0.0
  0
LINE
  5
12E
330
1F
100
AcDbEntity
  8
0
 62
     7
100
AcDbLine
 10
668.997009
 20
346.079285
 30
0.0
 11
668.997009
 21
345.950012
 31
0.0
  0
LINE
  5
12F
330
1F
100
AcDbEntity
  8
0
 62
     7
100
AcDbLine
 10
668.997009
 20
346.079285
 30
0.0
 11
668.997009
 21
346.220703
 31
0.0
  0
LINE
  5
130
330
1F
100
AcDbEntity
  8
0
 62
     7
100
AcDbLine
 10
668.997009
 20
346.220703
 30
0.0
 11
668.997009
 21
346.350006
 31
0.0
  0
LINE
  5
131
330
1F
100
AcDbEntity
  8
0
 62
     7
100
AcDbLine
 10
668.997009
 20
347.049988
 30
0.0
 11
668.997009
 21
346.350006
 31
0.0
  0
LINE
  5
132
330
1F
100
AcDbEntity
  8
0
 62
     7
100
AcDbLine
 10
668.997009
 20
347.179291
 30
0.0
 11
668.997009
 21
347.049988
 31
0.0
  0
LINE
  5
133
330
1F
100
AcDbEntity
  8
0
 62
     7
100
AcDbLine
 10
668.997009
 20
347.179291
 30
0.0
 11
668.997009
 21
347.320709
 31
0.0
  0
LINE
  5
134
330
1F
100
AcDbEntity
  8
0
 62
     7
100
AcDbLine
 10
668.997009
 20
347.320709
 30
0.0
 11
668.997009
 21
347.450012
 31
0.0
  0
LINE
  5
135
330
1F
100
AcDbEntity
  8
0
 62
     7
100
AcDbLine
 10
668.997009
 20
348.150024
 30
0.0
 11
668.997009
 21
347.450012
 31
0.0
  0
LINE
  5
136
330
1F
100
AcDbEntity
  8
0
 62
     7
100
AcDbLine
 10
668.997009
 20
348.279297
 30
0.0
 11
668.997009
 21
348.150024
 31
0.0
  0
LINE
  5
137
330
1F
100
AcDbEntity
  8
0
 62
     7
100
AcDbLine
 10
668.997009
 20
348.279297
 30
0.0
 11
668.997009
 21
348.420715
 31
0.0
  0
LINE
  5
138
330
1F
100
AcDbEntity
  8
0
 62
     7
100
AcDbLine
 10
668.997009
 20
348.420715
 30
0.0
 11
668.997009
 21
348.549988
 31
0.0
  0
LINE
  5
139
330
1F
100
AcDbEntity
  8
0
 62
     7
100
AcDbLine
 10
668.997009
 20
349.25
 30
0.0
 11
668.997009
 21
348.549988
 31
0.0
  0
LINE
  5
13A
330
1F
100
AcDbEntity
  8
0
 62
     7
100
AcDbLine
 10
668.997009
 20
349.379272
 30
0.0
 11
668.997009
 21
349.25
 31
0.0
  0
LINE
  5
13B
330
1F
100
AcDbEntity
  8
0
 62
     7
100
AcDbLine
 10
668.997009
 20
349.379272
 30
0.0
 11
668.997009
 21
349.520721
 31
0.0
  0
LINE
  5
13C
330
1F
100
AcDbEntity
  8
0
 62
     7
100
AcDbLine
 10
668.997009
 20
349.520721
 30
0.0
 11
668.997009
 21
349.650024
 31
0.0
  0
LINE
  5
13D
330
1F
100
AcDbEntity
  8
0
 62
     7
100
AcDbLine
 10
668.997009
 20
350.350006
 30
0.0
 11
668.997009
 21
349.650024
 31
0.0
  0
LINE
  5
13E
330
1F
100
AcDbEntity
  8
0
 62
     7
100
AcDbLine
 10
668.997009
 20
350.479309
 30
0.0
 11
668.997009
 21
350.350006
 31
0.0
  0
LINE
  5
13F
330
1F
100
AcDbEntity
  8
0
 62
     7
100
AcDbLine
 10
668.997009
 20
350.479309
 30
0.0
 11
668.997009
 21
350.620728
 31
0.0
  0
LINE
  5
140
330
1F
100
AcDbEntity
  8
0
 62
     7
100
AcDbLine
 10
668.997009
 20
350.620728
 30
0.0
 11
668.997009
 21
350.75
 31
0.0
  0
LINE
  5
141
330
1F
100
AcDbEntity
  8
0
 62
     7
100
AcDbLine
 10
668.997009
 20
351.450012
 30
0.0
 11
668.997009
 21
350.75
 31
0.0
  0
LINE
  5
142
330
1F
100
AcDbEntity
  8
0
 62
     7
100
AcDbLine
 10
668.997009
 20
351.579285
 30
0.0
 11
668.997009
 21
351.450012
 31
0.0
  0
LINE
  5
143
330
1F
100
AcDbEntity
  8
0
 62
     7
100
AcDbLine
 10
668.997009
 20
351.579285
 30
0.0
 11
668.997009
 21
351.720703
 31
0.0
  0
LINE
  5
144
330
1F
100
AcDbEntity
  8
0
 62
     7
100
AcDbLine
 10
668.997009
 20
351.720703
 30
0.0
 11
668.997009
 21
351.850006
 31
0.0
  0
LINE
  5
145
330
1F
100
AcDbEntity
  8
0
 62
     7
100
AcDbLine
 10
668.997009
 20
352.549988
 30
0.0
 11
668.997009
 21
351.850006
 31
0.0
  0
LINE
  5
146
330
1F
100
AcDbEntity
  8
0
 62
     7
100
AcDbLine
 10
523.297058
 20
346.079285
 30
0.0
 11
523.297058
 21
345.950012
 31
0.0
  0
LINE
  5
147
330
1F
100
AcDbEntity
  8
0
 62
     7
100
AcDbLine
 10
523.297058
 20
346.220703
 30
0.0
 11
523.297058
 21
346.350006
 31
0.0
  0
LINE
  5
148
330
1F
100
AcDbEntity
  8
0
 62
     7
100
AcDbLine
 10
523.297058
 20
346.220703
 30
0.0
 11
523.297058
 21
346.079285
 31
0.0
  0
LINE
  5
149
330
1F
100
AcDbEntity
  8
0
 62
     7
100
AcDbLine
 10
523.297058
 20
352.950012
 30
0.0
 11
523.297058
 21
353.350006
 31
0.0
  0
LINE
  5
14A
330
1F
100
AcDbEntity
  8
0
 62
     7
100
AcDbLine
 10
523.297058
 20
352.820709
 30
0.0
 11
523.297058
 21
352.950012
 31
0.0
  0
LINE
  5
14B
330
1F
100
AcDbEntity
  8
0
 62
     7
100
AcDbLine
 10
523.297058
 20
352.820709
 30
0.0
 11
523.297058
 21
352.679291
 31
0.0
  0
LINE
  5
14C
330
1F
100
AcDbEntity
  8
0
 62
     7
100
AcDbLine
 10
523.297058
 20
352.679291
 30
0.0
 11
523.297058
 21
352.549988
 31
0.0
  0
LINE
  5
14D
330
1F
100
AcDbEntity
  8
0
 62
     7
100
AcDbLine
 10
523.297058
 20
351.850006
 30
0.0
 11
523.297058
 21
352.549988
 31
0.0
  0
LINE
  5
14E
330
1F
100
AcDbEntity
  8
0
 62
     7
100
AcDbLine
 10
523.297058
 20
351.720703
 30
0.0
 11
523.297058
 21
351.850006
 31
0.0
  0
LINE
  5
14F
330
1F
100
AcDbEntity
  8
0
 62
     7
100
AcDbLine
 10
523.297058
 20
351.720703
 30
0.0
 11
523.297058
 21
351.579285
 31
0.0
  0
LINE
  5
150
330
1F
100
AcDbEntity
  8
0
 62
     7
100
AcDbLine
 10
523.297058
 20
351.579285
 30
0.0
 11
523.297058
 21
351.450012
 31
0.0
  0
LINE
  5
151
330
1F
100
AcDbEntity
  8
0
 62
     7
100
AcDbLine
 10
523.297058
 20
350.75
 30
0.0
 11
523.297058
 21
351.450012
 31
0.0
  0
LINE
  5
152
330
1F
100
AcDbEntity
  8
0
 62
     7
100
AcDbLine
 10
523.297058
 20
350.620728
 30
0.0
 11
523.297058
 21
350.75
 31
0.0
  0
LINE
  5
153
330
1F
100
AcDbEntity
  8
0
 62
     7
100
AcDbLine
 10
523.297058
 20
350.620728
 30
0.0
 11
523.297058
 21
350.479309
 31
0.0
  0
LINE
  5
154
330
1F
100
AcDbEntity
  8
0
 62
     7
100
AcDbLine
 10
523.297058
 20
350.479309
 30
0.0
 11
523.297058
 21
350.350006
 31
0.0
  0
LINE
  5
155
330
1F
100
AcDbEntity
  8
0
 62
     7
100
AcDbLine
 10
523.297058
 20
349.650024
 30
0.0
 11
523.297058
 21
350.350006
 31
0.0
  0
LINE
  5
156
330
1F
100
AcDbEntity
  8
0
 62
     7
100
AcDbLine
 10
523.297058
 20
349.520721
 30
0.0
 11
523.297058
 21
349.650024
 31
0.0
  0
LINE
  5
157
330
1F
100
AcDbEntity
  8
0
 62
     7
100
AcDbLine
 10
523.297058
 20
349.520721
 30
0.0
 11
523.297058
 21
349.379272
 31
0.0
  0
LINE
  5
158
330
1F
100
AcDbEntity
  8
0
 62
     7
100
AcDbLine
 10
523.297058
 20
349.379272
 30
0.0
 11
523.297058
 21
349.25
 31
0.0
  0
LINE
  5
159
330
1F
100
AcDbEntity
  8
0
 62
     7
100
AcDbLine
 10
523.297058
 20
348.549988
 30
0.0
 11
523.297058
 21
349.25
 31
0.0
  0
LINE
  5
15A
330
1F
100
AcDbEntity
  8
0
 62
     7
100
AcDbLine
 10
523.297058
 20
348.420715
 30
0.0
 11
523.297058
 21
348.549988
 31
0.0
  0
LINE
  5
15B
330
1F
100
AcDbEntity
  8
0
 62
     7
100
AcDbLine
 10
523.297058
 20
348.420715
 30
0.0
 11
523.297058
 21
348.279297
 31
0.0
  0
LINE
  5
15C
330
1F
100
AcDbEntity
  8
0
 62
     7
100
AcDbLine
 10
523.297058
 20
348.279297
 30
0.0
 11
523.297058
 21
348.150024
 31
0.0
  0
LINE
  5
15D
330
1F
100
AcDbEntity
  8
0
 62
     7
100
AcDbLine
 10
523.297058
 20
347.450012
 30
0.0
 11
523.297058
 21
348.150024
 31
0.0
  0
LINE
  5
15E
330
1F
100
AcDbEntity
  8
0
 62
     7
100
AcDbLine
 10
523.297058
 20
347.320709
 30
0.0
 11
523.297058
 21
347.450012
 31
0.0
  0
LINE
  5
15F
330
1F
100
AcDbEntity
  8
0
 62
     7
100
AcDbLine
 10
523.297058
 20
347.320709
 30
0.0
 11
523.297058
 21
347.179291
 31
0.0
  0
LINE
  5
160
330
1F
100
AcDbEntity
  8
0
 62
     7
100
AcDbLine
 10
523.297058
 20
347.179291
 30
0.0
 11
523.297058
 21
347.049988
 31
0.0
  0
LINE
  5
161
330
1F
100
AcDbEntity
  8
0
 62
     7
100
AcDbLine
 10
523.297058
 20
346.350006
 30
0.0
 11
523.297058
 21
347.049988
 31
0.0
  0
LINE
  5
162
330
1F
100
AcDbEntity
  8
0
 62
     7
100
AcDbLine
 10
522.297058
 20
353.650024
 30
0.0
 11
522.297058
 21
352.950012
 31
0.0
  0
LINE
  5
163
330
1F
100
AcDbEntity
  8
0
 62
     7
100
AcDbLine
 10
522.297058
 20
353.779297
 30
0.0
 11
522.297058
 21
353.650024
 31
0.0
  0
LINE
  5
164
330
1F
100
AcDbEntity
  8
0
 62
     7
100
AcDbLine
 10
522.297058
 20
353.779297
 30
0.0
 11
522.297058
 21
353.850006
 31
0.0
  0
LINE
  5
165
330
1F
100
AcDbEntity
  8
0
 62
     7
100
AcDbLine
 10
522.297058
 20
346.079285
 30
0.0
 11
522.297058
 21
345.950012
 31
0.0
  0
LINE
  5
166
330
1F
100
AcDbEntity
  8
0
 62
     7
100
AcDbLine
 10
522.297058
 20
346.079285
 30
0.0
 11
522.297058
 21
346.220703
 31
0.0
  0
LINE
  5
167
330
1F
100
AcDbEntity
  8
0
 62
     7
100
AcDbLine
 10
522.297058
 20
346.220703
 30
0.0
 11
522.297058
 21
346.350006
 31
0.0
  0
LINE
  5
168
330
1F
100
AcDbEntity
  8
0
 62
     7
100
AcDbLine
 10
522.297058
 20
347.049988
 30
0.0
 11
522.297058
 21
346.350006
 31
0.0
  0
LINE
  5
169
330
1F
100
AcDbEntity
  8
0
 62
     7
100
AcDbLine
 10
522.297058
 20
347.179291
 30
0.0
 11
522.297058
 21
347.049988
 31
0.0
  0
LINE
  5
16A
330
1F
100
AcDbEntity
  8
0
 62
     7
100
AcDbLine
 10
522.297058
 20
347.179291
 30
0.0
 11
522.297058
 21
347.320709
 31
0.0
  0
LINE
  5
16B
330
1F
100
AcDbEntity
  8
0
 62
     7
100
AcDbLine
 10
522.297058
 20
347.320709
 30
0.0
 11
522.297058
 21
347.450012
 31
0.0
  0
LINE
  5
16C
330
1F
100
AcDbEntity
  8
0
 62
     7
100
AcDbLine
 10
522.297058
 20
348.150024
 30
0.0
 11
522.297058
 21
347.450012
 31
0.0
  0
LINE
  5
16D
330
1F
100
AcDbEntity
  8
0
 62
     7
100
AcDbLine
 10
522.297058
 20
348.279297
 30
0.0
 11
522.297058
 21
348.150024
 31
0.0
  0
LINE
  5
16E
330
1F
100
AcDbEntity
  8
0
 62
     7
100
AcDbLine
 10
522.297058
 20
348.279297
 30
0.0
 11
522.297058
 21
348.420715
 31
0.0
  0
LINE
  5
16F
330
1F
100
AcDbEntity
  8
0
 62
     7
100
AcDbLine
 10
522.297058
 20
348.420715
 30
0.0
 11
522.297058
 21
348.549988
 31
0.0
  0
LINE
  5
170
330
1F
100
AcDbEntity
  8
0
 62
     7
100
AcDbLine
 10
522.297058
 20
349.25
 30
0.0
 11
522.297058
 21
348.549988
 31
0.0
  0
LINE
  5
171
330
1F
100
AcDbEntity
  8
0
 62
     7
100
AcDbLine
 10
522.297058
 20
349.379272
 30
0.0
 11
522.297058
 21
349.25
 31
0.0
  0
LINE
  5
172
330
1F
100
AcDbEntity
  8
0
 62
     7
100
AcDbLine
 10
522.297058
 20
349.379272
 30
0.0
 11
522.297058
 21
349.520721
 31
0.0
  0
LINE
  5
173
330
1F
100
AcDbEntity
  8
0
 62
     7
100
AcDbLine
 10
522.297058
 20
349.520721
 30
0.0
 11
522.297058
 21
349.650024
 31
0.0
  0
LINE
  5
174
330
1F
100
AcDbEntity
  8
0
 62
     7
100
AcDbLine
 10
522.297058
 20
350.350006
 30
0.0
 11
522.297058
 21
349.650024
 31
0.0
  0
LINE
  5
175
330
1F
100
AcDbEntity
  8
0
 62
     7
100
AcDbLine
 10
522.297058
 20
350.479309
 30
0.0
 11
522.297058
 21
350.350006
 31
0.0
  0
LINE
  5
176
330
1F
100
AcDbEntity
  8
0
 62
     7
100
AcDbLine
 10
522.297058
 20
350.479309
 30
0.0
 11
522.297058
 21
350.620728
 31
0.0
  0
LINE
  5
177
330
1F
100
AcDbEntity
  8
0
 62
     7
100
AcDbLine
 10
522.297058
 20
350.620728
 30
0.0
 11
522.297058
 21
350.75
 31
0.0
  0
LINE
  5
178
330
1F
100
AcDbEntity
  8
0
 62
     7
100
AcDbLine
 10
522.297058
 20
351.450012
 30
0.0
 11
522.297058
 21
350.75
 31
0.0
  0
LINE
  5
179
330
1F
100
AcDbEntity
  8
0
 62
     7
100
AcDbLine
 10
522.297058
 20
351.579285
 30
0.0
 11
522.297058
 21
351.450012
 31
0.0
  0
LINE
  5
17A
330
1F
100
AcDbEntity
  8
0
 62
     7
100
AcDbLine
 10
522.297058
 20
351.579285
 30
0.0
 11
522.297058
 21
351.720703
 31
0.0
  0
LINE
  5
17B
330
1F
100
AcDbEntity
  8
0
 62
     7
100
AcDbLine
 10
522.297058
 20
351.720703
 30
0.0
 11
522.297058
 21
351.850006
 31
0.0
  0
LINE
  5
17C
330
1F
100
AcDbEntity
  8
0
 62
     7
100
AcDbLine
 10
522.297058
 20
352.549988
 30
0.0
 11
522.297058
 21
351.850006
 31
0.0
  0
LINE
  5
17D
330
1F
100
AcDbEntity
  8
0
 62
     7
100
AcDbLine
 10
522.297058
 20
352.679291
 30
0.0
 11
522.297058
 21
352.549988
 31
0.0
  0
LINE
  5
17E
330
1F
100
AcDbEntity
  8
0
 62
     7
100
AcDbLine
 10
522.297058
 20
352.679291
 30
0.0
 11
522.297058
 21
352.820709
 31
0.0
  0
LINE
  5
17F
330
1F
100
AcDbEntity
  8
0
 62
     7
100
AcDbLine
 10
522.297058
 20
352.820709
 30
0.0
 11
522.297058
 21
352.950012
 31
0.0
  0
LINE
  5
180
330
1F
100
AcDbEntity
  8
0
 62
     7
100
AcDbLine
 10
519.99707
 20
346.079285
 30
0.0
 11
519.99707
 21
345.950012
 31
0.0
  0
LINE
  5
181
330
1F
100
AcDbEntity
  8
0
 62
     7
100
AcDbLine
 10
519.99707
 20
346.220703
 30
0.0
 11
519.99707
 21
346.350006
 31
0.0
  0
LINE
  5
182
330
1F
100
AcDbEntity
  8
0
 62
     7
100
AcDbLine
 10
519.99707
 20
346.220703
 30
0.0
 11
519.99707
 21
346.079285
 31
0.0
  0
LINE
  5
183
330
1F
100
AcDbEntity
  8
0
 62
     7
100
AcDbLine
 10
519.99707
 20
353.850006
 30
0.0
 11
519.99707
 21
353.779297
 31
0.0
  0
LINE
  5
184
330
1F
100
AcDbEntity
  8
0
 62
     7
100
AcDbLine
 10
519.99707
 20
353.779297
 30
0.0
 11
519.99707
 21
353.650024
 31
0.0
  0
LINE
  5
185
330
1F
100
AcDbEntity
  8
0
 62
     7
100
AcDbLine
 10
519.99707
 20
352.950012
 30
0.0
 11
519.99707
 21
353.650024
 31
0.0
  0
LINE
  5
186
330
1F
100
AcDbEntity
  8
0
 62
     7
100
AcDbLine
 10
519.99707
 20
352.820709
 30
0.0
 11
519.99707
 21
352.950012
 31
0.0
  0
LINE
  5
187
330
1F
100
AcDbEntity
  8
0
 62
     7
100
AcDbLine
 10
519.99707
 20
352.820709
 30
0.0
 11
519.99707
 21
352.679291
 31
0.0
  0
LINE
  5
188
330
1F
100
AcDbEntity
  8
0
 62
     7
100
AcDbLine
 10
519.99707
 20
352.679291
 30
0.0
 11
519.99707
 21
352.549988
 31
0.0
  0
LINE
  5
189
330
1F
100
AcDbEntity
  8
0
 62
     7
100
AcDbLine
 10
519.99707
 20
351.850006
 30
0.0
 11
519.99707
 21
352.549988
 31
0.0
  0
LINE
  5
18A
330
1F
100
AcDbEntity
  8
0
 62
     7
100
AcDbLine
 10
519.99707
 20
351.720703
 30
0.0
 11
519.99707
 21
351.850006
 31
0.0
  0
LINE
  5
18B
330
1F
100
AcDbEntity
  8
0
 62
     7
100
AcDbLine
 10
519.99707
 20
351.720703
 30
0.0
 11
519.99707
 21
351.579285
 31
0.0
  0
LINE
  5
18C
330
1F
100
AcDbEntity
  8
0
 62
     7
100
AcDbLine
 10
519.99707
 20
351.579285
 30
0.0
 11
519.99707
 21
351.450012
 31
0.0
  0
LINE
  5
18D
330
1F
100
AcDbEntity
  8
0
 62
     7
100
AcDbLine
 10
519.99707
 20
350.75
 30
0.0
 11
519.99707
 21
351.450012
 31
0.0
  0
LINE
  5
18E
330
1F
100
AcDbEntity
  8
0
 62
     7
100
AcDbLine
 10
519.99707
 20
350.620728
 30
0.0
 11
519.99707
 21
350.75
 31
0.0
  0
LINE
  5
18F
330
1F
100
AcDbEntity
  8
0
 62
     7
100
AcDbLine
 10
519.99707
 20
350.620728
 30
0.0
 11
519.99707
 21
350.479309
 31
0.0
  0
LINE
  5
190
330
1F
100
AcDbEntity
  8
0
 62
     7
100
AcDbLine
 10
519.99707
 20
350.479309
 30
0.0
 11
519.99707
 21
350.350006
 31
0.0
  0
LINE
  5
191
330
1F
100
AcDbEntity
  8
0
 62
     7
100
AcDbLine
 10
519.99707
 20
349.650024
 30
0.0
 11
519.99707
 21
350.350006
 31
0.0
  0
LINE
  5
192
330
1F
100
AcDbEntity
  8
0
 62
     7
100
AcDbLine
 10
519.99707
 20
349.520721
 30
0.0
 11
519.99707
 21
349.650024
 31
0.0
  0
LINE
  5
193
330
1F
100
AcDbEntity
  8
0
 62
     7
100
AcDbLine
 10
519.99707
 20
349.520721
 30
0.0
 11
519.99707
 21
349.379272
 31
0.0
  0
LINE
  5
194
330
1F
100
AcDbEntity
  8
0
 62
     7
100
AcDbLine
 10
519.99707
 20
349.379272
 30
0.0
 11
519.99707
 21
349.25
 31
0.0
  0
LINE
  5
195
330
1F
100
AcDbEntity
  8
0
 62
     7
100
AcDbLine
 10
519.99707
 20
348.549988
 30
0.0
 11
519.99707
 21
349.25
 31
0.0
  0
LINE
  5
196
330
1F
100
AcDbEntity
  8
0
 62
     7
100
AcDbLine
 10
519.99707
 20
348.420715
 30
0.0
 11
519.99707
 21
348.549988
 31
0.0
  0
LINE
  5
197
330
1F
100
AcDbEntity
  8
0
 62
     7
100
AcDbLine
 10
519.99707
 20
348.420715
 30
0.0
 11
519.99707
 21
348.279297
 31
0.0
  0
LINE
  5
198
330
1F
100
AcDbEntity
  8
0
 62
     7
100
AcDbLine
 10
519.99707
 20
348.279297
 30
0.0
 11
519.99707
 21
348.150024
 31
0.0
  0
LINE
  5
199
330
1F
100
AcDbEntity
  8
0
 62
     7
100
AcDbLine
 10
519.99707
 20
347.450012
 30
0.0
 11
519.99707
 21
348.150024
 31
0.0
  0
LINE
  5
19A
330
1F
100
AcDbEntity
  8
0
 62
     7
100
AcDbLine
 10
519.99707
 20
347.320709
 30
0.0
 11
519.99707
 21
347.450012
 31
0.0
  0
LINE
  5
19B
330
1F
100
AcDbEntity
  8
0
 62
     7
100
AcDbLine
 10
519.99707
 20
347.320709
 30
0.0
 11
519.99707
 21
347.179291
 31
0.0
  0
LINE
  5
19C
330
1F
100
AcDbEntity
  8
0
 62
     7
100
AcDbLine
 10
519.99707
 20
347.179291
 30
0.0
 11
519.99707
 21
347.049988
 31
0.0
  0
LINE
  5
19D
330
1F
100
AcDbEntity
  8
0
 62
     7
100
AcDbLine
 10
519.99707
 20
346.350006
 30
0.0
 11
519.99707
 21
347.049988
 31
0.0
  0
LINE
  5
19E
330
1F
100
AcDbEntity
  8
0
 62
     7
100
AcDbLine
 10
518.99707
 20
352.679291
 30
0.0
 11
518.99707
 21
352.549988
 31
0.0
  0
LINE
  5
19F
330
1F
100
AcDbEntity
  8
0
 62
     7
100
AcDbLine
 10
518.99707
 20
352.679291
 30
0.0
 11
518.99707
 21
352.820709
 31
0.0
  0
LINE
  5
1A0
330
1F
100
AcDbEntity
  8
0
 62
     7
100
AcDbLine
 10
518.99707
 20
352.820709
 30
0.0
 11
518.99707
 21
352.950012
 31
0.0
  0
LINE
  5
1A1
330
1F
100
AcDbEntity
  8
0
 62
     7
100
AcDbLine
 10
518.99707
 20
353.350006
 30
0.0
 11
518.99707
 21
352.950012
 31
0.0
  0
LINE
  5
1A2
330
1F
100
AcDbEntity
  8
0
 62
     7
100
AcDbLine
 10
518.99707
 20
346.079285
 30
0.0
 11
518.99707
 21
345.950012
 31
0.0
  0
LINE
  5
1A3
330
1F
100
AcDbEntity
  8
0
 62
     7
100
AcDbLine
 10
518.99707
 20
346.079285
 30
0.0
 11
518.99707
 21
346.220703
 31
0.0
  0
LINE
  5
1A4
330
1F
100
AcDbEntity
  8
0
 62
     7
100
AcDbLine
 10
518.99707
 20
346.220703
 30
0.0
 11
518.99707
 21
346.350006
 31
0.0
  0
LINE
  5
1A5
330
1F
100
AcDbEntity
  8
0
 62
     7
100
AcDbLine
 10
518.99707
 20
347.049988
 30
0.0
 11
518.99707
 21
346.350006
 31
0.0
  0
LINE
  5
1A6
330
1F
100
AcDbEntity
  8
0
 62
     7
100
AcDbLine
 10
518.99707
 20
347.179291
 30
0.0
 11
518.99707
 21
347.049988
 31
0.0
  0
LINE
  5
1A7
330
1F
100
AcDbEntity
  8
0
 62
     7
100
AcDbLine
 10
518.99707
 20
347.179291
 30
0.0
 11
518.99707
 21
347.320709
 31
0.0
  0
LINE
  5
1A8
330
1F
100
AcDbEntity
  8
0
 62
     7
100
AcDbLine
 10
518.99707
 20
347.320709
 30
0.0
 11
518.99707
 21
347.450012
 31
0.0
  0
LINE
  5
1A9
330
1F
100
AcDbEntity
  8
0
 62
     7
100
AcDbLine
 10
518.99707
 20
348.150024
 30
0.0
 11
518.99707
 21
347.450012
 31
0.0
  0
LINE
  5
1AA
330
1F
100
AcDbEntity
  8
0
 62
     7
100
AcDbLine
 10
518.99707
 20
348.279297
 30
0.0
 11
518.99707
 21
348.150024
 31
0.0
  0
LINE
  5
1AB
330
1F
100
AcDbEntity
  8
0
 62
     7
100
AcDbLine
 10
518.99707
 20
348.279297
 30
0.0
 11
518.99707
 21
348.420715
 31
0.0
  0
LINE
  5
1AC
330
1F
100
AcDbEntity
  8
0
 62
     7
100
AcDbLine
 10
518.99707
 20
348.420715
 30
0.0
 11
518.99707
 21
348.549988
 31
0.0
  0
LINE
  5
1AD
330
1F
100
AcDbEntity
  8
0
 62
     7
100
AcDbLine
 10
518.99707
 20
349.25
 30
0.0
 11
518.99707
 21
348.549988
 31
0.0
  0
LINE
  5
1AE
330
1F
100
AcDbEntity
  8
0
 62
     7
100
AcDbLine
 10
518.99707
 20
349.379272
 30
0.0
 11
518.99707
 21
349.25
 31
0.0
  0
LINE
  5
1AF
330
1F
100
AcDbEntity
  8
0
 62
     7
100
AcDbLine
 10
518.99707
 20
349.379272
 30
0.0
 11
518.99707
 21
349.520721
 31
0.0
  0
LINE
  5
1B0
330
1F
100
AcDbEntity
  8
0
 62
     7
100
AcDbLine
 10
518.99707
 20
349.520721
 30
0.0
 11
518.99707
 21
349.650024
 31
0.0
  0
LINE
  5
1B1
330
1F
100
AcDbEntity
  8
0
 62
     7
100
AcDbLine
 10
518.99707
 20
350.350006
 30
0.0
 11
518.99707
 21
349.650024
 31
0.0
  0
LINE
  5
1B2
330
1F
100
AcDbEntity
  8
0
 62
     7
100
AcDbLine
 10
518.99707
 20
350.479309
 30
0.0
 11
518.99707
 21
350.350006
 31
0.0
  0
LINE
  5
1B3
330
1F
100
AcDbEntity
  8
0
 62
     7
100
AcDbLine
 10
518.99707
 20
350.479309
 30
0.0
 11
518.99707
 21
350.620728
 31
0.0
  0
LINE
  5
1B4
330
1F
100
AcDbEntity
  8
0
 62
     7
100
AcDbLine
 10
518.99707
 20
350.620728
 30
0.0
 11
518.99707
 21
350.75
 31
0.0
  0
LINE
  5
1B5
330
1F
100
AcDbEntity
  8
0
 62
     7
100
AcDbLine
 10
518.99707
 20
351.450012
 30
0.0
 11
518.99707
 21
350.75
 31
0.0
  0
LINE
  5
1B6
330
1F
100
AcDbEntity
  8
0
 62
     7
100
AcDbLine
 10
518.99707
 20
351.579285
 30
0.0
 11
518.99707
 21
351.450012
 31
0.0
  0
LINE
  5
1B7
330
1F
100
AcDbEntity
  8
0
 62
     7
100
AcDbLine
 10
518.99707
 20
351.579285
 30
0.0
 11
518.99707
 21
351.720703
 31
0.0
  0
LINE
  5
1B8
330
1F
100
AcDbEntity
  8
0
 62
     7
100
AcDbLine
 10
518.99707
 20
351.720703
 30
0.0
 11
518.99707
 21
351.850006
 31
0.0
  0
LINE
  5
1B9
330
1F
100
AcDbEntity
  8
0
 62
     7
100
AcDbLine
 10
518.99707
 20
352.549988
 30
0.0
 11
518.99707
 21
351.850006
 31
0.0
  0
LINE
  5
1BA
330
1F
100
AcDbEntity
  8
0
 62
     7
100
AcDbLine
 10
223.297058
 20
346.079285
 30
0.0
 11
223.297058
 21
345.950012
 31
0.0
  0
LINE
  5
1BB
330
1F
100
AcDbEntity
  8
0
 62
     7
100
AcDbLine
 10
223.297058
 20
346.220703
 30
0.0
 11
223.297058
 21
346.350006
 31
0.0
  0
LINE
  5
1BC
330
1F
100
AcDbEntity
  8
0
 62
     7
100
AcDbLine
 10
223.297058
 20
346.220703
 30
0.0
 11
223.297058
 21
346.079285
 31
0.0
  0
LINE
  5
1BD
330
1F
100
AcDbEntity
  8
0
 62
     7
100
AcDbLine
 10
223.297058
 20
352.950012
 30
0.0
 11
223.297058
 21
353.350006
 31
0.0
  0
LINE
  5
1BE
330
1F
100
AcDbEntity
  8
0
 62
     7
100
AcDbLine
 10
223.297058
 20
352.820709
 30
0.0
 11
223.297058
 21
352.950012
 31
0.0
  0
LINE
  5
1BF
330
1F
100
AcDbEntity
  8
0
 62
     7
100
AcDbLine
 10
223.297058
 20
352.820709
 30
0.0
 11
223.297058
 21
352.679291
 31
0.0
  0
LINE
  5
1C0
330
1F
100
AcDbEntity
  8
0
 62
     7
100
AcDbLine
 10
223.297058
 20
352.679291
 30
0.0
 11
223.297058
 21
352.549988
 31
0.0
  0
LINE
  5
1C1
330
1F
100
AcDbEntity
  8
0
 62
     7
100
AcDbLine
 10
223.297058
 20
351.850006
 30
0.0
 11
223.297058
 21
352.549988
 31
0.0
  0
LINE
  5
1C2
330
1F
100
AcDbEntity
  8
0
 62
     7
100
AcDbLine
 10
223.297058
 20
351.720703
 30
0.0
 11
223.297058
 21
351.850006
 31
0.0
  0
LINE
  5
1C3
330
1F
100
AcDbEntity
  8
0
 62
     7
100
AcDbLine
 10
223.297058
 20
351.720703
 30
0.0
 11
223.297058
 21
351.579285
 31
0.0
  0
LINE
  5
1C4
330
1F
100
AcDbEntity
  8
0
 62
     7
100
AcDbLine
 10
223.297058
 20
351.579285
 30
0.0
 11
223.297058
 21
351.450012
 31
0.0
  0
LINE
  5
1C5
330
1F
100
AcDbEntity
  8
0
 62
     7
100
AcDbLine
 10
223.297058
 20
350.75
 30
0.0
 11
223.297058
 21
351.450012
 31
0.0
  0
LINE
  5
1C6
330
1F
100
AcDbEntity
  8
0
 62
     7
100
AcDbLine
 10
223.297058
 20
350.620728
 30
0.0
 11
223.297058
 21
350.75
 31
0.0
  0
LINE
  5
1C7
330
1F
100
AcDbEntity
  8
0
 62
     7
100
AcDbLine
 10
223.297058
 20
350.620728
 30
0.0
 11
223.297058
 21
350.479309
 31
0.0
  0
LINE
  5
1C8
330
1F
100
AcDbEntity
  8
0
 62
     7
100
AcDbLine
 10
223.297058
 20
350.479309
 30
0.0
 11
223.297058
 21
350.350006
 31
0.0
  0
LINE
  5
1C9
330
1F
100
AcDbEntity
  8
0
 62
     7
100
AcDbLine
 10
223.297058
 20
349.650024
 30
0.0
 11
223.297058
 21
350.350006
 31
0.0
  0
LINE
  5
1CA
330
1F
100
AcDbEntity
  8
0
 62
     7
100
AcDbLine
 10
223.297058
 20
349.520721
 30
0.0
 11
223.297058
 21
349.650024
 31
0.0
  0
LINE
  5
1CB
330
1F
100
AcDbEntity
  8
0
 62
     7
100
AcDbLine
 10
223.297058
 20
349.520721
 30
0.0
 11
223.297058
 21
349.379272
 31
0.0
  0
LINE
  5
1CC
330
1F
100
AcDbEntity
  8
0
 62
     7
100
AcDbLine
 10
223.297058
 20
349.379272
 30
0.0
 11
223.297058
 21
349.25
 31
0.0
  0
LINE
  5
1CD
330
1F
100
AcDbEntity
  8
0
 62
     7
100
AcDbLine
 10
223.297058
 20
348.549988
 30
0.0
 11
223.297058
 21
349.25
 31
0.0
  0
LINE
  5
1CE
330
1F
100
AcDbEntity
  8
0
 62
     7
100
AcDbLine
 10
223.297058
 20
348.420715
 30
0.0
 11
223.297058
 21
348.549988
 31
0.0
  0
LINE
  5
1CF
330
1F
100
AcDbEntity
  8
0
 62
     7
100
AcDbLine
 10
223.297058
 20
348.420715
 30
0.0
 11
223.297058
 21
348.279297
 31
0.0
  0
LINE
  5
1D0
330
1F
100
AcDbEntity
  8
0
 62
     7
100
AcDbLine
 10
223.297058
 20
348.279297
 30
0.0
 11
223.297058
 21
348.150024
 31
0.0
  0
LINE
  5
1D1
330
1F
100
AcDbEntity
  8
0
 62
     7
100
AcDbLine
 10
223.297058
 20
347.450012
 30
0.0
 11
223.297058
 21
348.150024
 31
0.0
  0
LINE
  5
1D2
330
1F
100
AcDbEntity
  8
0
 62
     7
100
AcDbLine
 10
223.297058
 20
347.320709
 30
0.0
 11
223.297058
 21
347.450012
 31
0.0
  0
LINE
  5
1D3
330
1F
100
AcDbEntity
  8
0
 62
     7
100
AcDbLine
 10
223.297058
 20
347.320709
 30
0.0
 11
223.297058
 21
347.179291
 31
0.0
  0
LINE
  5
1D4
330
1F
100
AcDbEntity
  8
0
 62
     7
100
AcDbLine
 10
223.297058
 20
347.179291
 30
0.0
 11
223.297058
 21
347.049988
 31
0.0
  0
LINE
  5
1D5
330
1F
100
AcDbEntity
  8
0
 62
     7
100
AcDbLine
 10
223.297058
 20
346.350006
 30
0.0
 11
223.297058
 21
347.049988
 31
0.0
  0
LINE
  5
1D6
330
1F
100
AcDbEntity
  8
0
 62
     7
100
AcDbLine
 10
222.297058
 20
353.650024
 30
0.0
 11
222.297058
 21
352.950012
 31
0.0
  0
LINE
  5
1D7
330
1F
100
AcDbEntity
  8
0
 62
     7
100
AcDbLine
 10
222.297058
 20
353.779297
 30
0.0
 11
222.297058
 21
353.650024
 31
0.0
  0
LINE
  5
1D8
330
1F
100
AcDbEntity
  8
0
 62
     7
100
AcDbLine
 10
222.297058
 20
353.779297
 30
0.0
 11
222.297058
 21
353.850006
 31
0.0
  0
LINE
  5
1D9
330
1F
100
AcDbEntity
  8
0
 62
     7
100
AcDbLine
 10
222.297058
 20
346.079285
 30
0.0
 11
222.297058
 21
345.950012
 31
0.0
  0
LINE
  5
1DA
330
1F
100
AcDbEntity
  8
0
 62
     7
100
AcDbLine
 10
222.297058
 20
346.079285
 30
0.0
 11
222.297058
 21
346.220703
 31
0.0
  0
LINE
  5
1DB
330
1F
100
AcDbEntity
  8
0
 62
     7
100
AcDbLine
 10
222.297058
 20
346.220703
 30
0.0
 11
222.297058
 21
346.350006
 31
0.0
  0
LINE
  5
1DC
330
1F
100
AcDbEntity
  8
0
 62
     7
100
AcDbLine
 10
222.297058
 20
347.049988
 30
0.0
 11
222.297058
 21
346.350006
 31
0.0
  0
LINE
  5
1DD
330
1F
100
AcDbEntity
  8
0
 62
     7
100
AcDbLine
 10
222.297058
 20
347.179291
 30
0.0
 11
222.297058
 21
347.049988
 31
0.0
  0
LINE
  5
1DE
330
1F
100
AcDbEntity
  8
0
 62
     7
100
AcDbLine
 10
222.297058
 20
347.179291
 30
0.0
 11
222.297058
 21
347.320709
 31
0.0
  0
LINE
  5
1DF
330
1F
100
AcDbEntity
  8
0
 62
     7
100
AcDbLine
 10
222.297058
 20
347.320709
 30
0.0
 11
222.297058
 21
347.450012
 31
0.0
  0
LINE
  5
1E0
330
1F
100
AcDbEntity
  8
0
 62
     7
100
AcDbLine
 10
222.297058
 20
348.150024
 30
0.0
 11
222.297058
 21
347.450012
 31
0.0
  0
LINE
  5
1E1
330
1F
100
AcDbEntity
  8
0
 62
     7
100
AcDbLine
 10
222.297058
 20
348.279297
 30
0.0
 11
222.297058
 21
348.150024
 31
0.0
  0
LINE
  5
1E2
330
1F
100
AcDbEntity
  8
0
 62
     7
100
AcDbLine
 10
222.297058
 20
348.279297
 30
0.0
 11
222.297058
 21
348.420715
 31
0.0
  0
LINE
  5
1E3
330
1F
100
AcDbEntity
  8
0
 62
     7
100
AcDbLine
 10
222.297058
 20
348.420715
 30
0.0
 11
222.297058
 21
348.549988
 31
0.0
  0
LINE
  5
1E4
330
1F
100
AcDbEntity
  8
0
 62
     7
100
AcDbLine
 10
222.297058
 20
349.25
 30
0.0
 11
222.297058
 21
348.549988
 31
0.0
  0
LINE
  5
1E5
330
1F
100
AcDbEntity
  8
0
 62
     7
100
AcDbLine
 10
222.297058
 20
349.379272
 30
0.0
 11
222.297058
 21
349.25
 31
0.0
  0
LINE
  5
1E6
330
1F
100
AcDbEntity
  8
0
 62
     7
100
AcDbLine
 10
222.297058
 20
349.379272
 30
0.0
 11
222.297058
 21
349.520721
 31
0.0
  0
LINE
  5
1E7
330
1F
100
AcDbEntity
  8
0
 62
     7
100
AcDbLine
 10
222.297058
 20
349.520721
 30
0.0
 11
222.297058
 21
349.650024
 31
0.0
  0
LINE
  5
1E8
330
1F
100
AcDbEntity
  8
0
 62
     7
100
AcDbLine
 10
222.297058
 20
350.350006
 30
0.0
 11
222.297058
 21
349.650024
 31
0.0
  0
LINE
  5
1E9
330
1F
100
AcDbEntity
  8
0
 62
     7
100
AcDbLine
 10
222.297058
 20
350.479309
 30
0.0
 11
222.297058
 21
350.350006
 31
0.0
  0
LINE
  5
1EA
330
1F
100
AcDbEntity
  8
0
 62
     7
100
AcDbLine
 10
222.297058
 20
350.479309
 30
0.0
 11
222.297058
 21
350.620728
 31
0.0
  0
LINE
  5
1EB
330
1F
100
AcDbEntity
  8
0
 62
     7
100
AcDbLine
 10
222.297058
 20
350.620728
 30
0.0
 11
222.297058
 21
350.75
 31
0.0
  0
LINE
  5
1EC
330
1F
100
AcDbEntity
  8
0
 62
     7
100
AcDbLine
 10
222.297058
 20
351.450012
 30
0.0
 11
222.297058
 21
350.75
 31
0.0
  0
LINE
  5
1ED
330
1F
100
AcDbEntity
  8
0
 62
     7
100
AcDbLine
 10
222.297058
 20
351.579285
 30
0.0
 11
222.297058
 21
351.450012
 31
0.0
  0
LINE
  5
1EE
330
1F
100
AcDbEntity
  8
0
 62
     7
100
AcDbLine
 10
222.297058
 20
351.579285
 30
0.0
 11
222.297058
 21
351.720703
 31
0.0
  0
LINE
  5
1EF
330
1F
100
AcDbEntity
  8
0
 62
     7
100
AcDbLine
 10
222.297058
 20
351.720703
 30
0.0
 11
222.297058
 21
351.850006
 31
0.0
  0
LINE
  5
1F0
330
1F
100
AcDbEntity
  8
0
 62
     7
100
AcDbLine
 10
222.297058
 20
352.549988
 30
0.0
 11
222.297058
 21
351.850006
 31
0.0
  0
LINE
  5
1F1
330
1F
100
AcDbEntity
  8
0
 62
     7
100
AcDbLine
 10
222.297058
 20
352.679291
 30
0.0
 11
222.297058
 21
352.549988
 31
0.0
  0
LINE
  5
1F2
330
1F
100
AcDbEntity
  8
0
 62
     7
100
AcDbLine
 10
222.297058
 20
352.679291
 30
0.0
 11
222.297058
 21
352.820709
 31
0.0
  0
LINE
  5
1F3
330
1F
100
AcDbEntity
  8
0
 62
     7
100
AcDbLine
 10
222.297058
 20
352.820709
 30
0.0
 11
222.297058
 21
352.950012
 31
0.0
  0
LINE
  5
1F4
330
1F
100
AcDbEntity
  8
0
 62
     7
100
AcDbLine
 10
219.99704
 20
346.079285
 30
0.0
 11
219.99704
 21
345.950012
 31
0.0
  0
LINE
  5
1F5
330
1F
100
AcDbEntity
  8
0
 62
     7
100
AcDbLine
 10
219.99704
 20
346.220703
 30
0.0
 11
219.99704
 21
346.350006
 31
0.0
  0
LINE
  5
1F6
330
1F
100
AcDbEntity
  8
0
 62
     7
100
AcDbLine
 10
219.99704
 20
346.220703
 30
0.0
 11
219.99704
 21
346.079285
 31
0.0
  0
LINE
  5
1F7
330
1F
100
AcDbEntity
  8
0
 62
     7
100
AcDbLine
 10
219.99704
 20
353.850006
 30
0.0
 11
219.99704
 21
353.779297
 31
0.0
  0
LINE
  5
1F8
330
1F
100
AcDbEntity
  8
0
 62
     7
100
AcDbLine
 10
219.99704
 20
353.779297
 30
0.0
 11
219.99704
 21
353.650024
 31
0.0
  0
LINE
  5
1F9
330
1F
100
AcDbEntity
  8
0
 62
     7
100
AcDbLine
 10
219.99704
 20
352.950012
 30
0.0
 11
219.99704
 21
353.650024
 31
0.0
  0
LINE
  5
1FA
330
1F
100
AcDbEntity
  8
0
 62
     7
100
AcDbLine
 10
219.99704
 20
352.820709
 30
0.0
 11
219.99704
 21
352.950012
 31
0.0
  0
LINE
  5
1FB
330
1F
100
AcDbEntity
  8
0
 62
     7
100
AcDbLine
 10
219.99704
 20
352.820709
 30
0.0
 11
219.99704
 21
352.679291
 31
0.0
  0
LINE
  5
1FC
330
1F
100
AcDbEntity
  8
0
 62
     7
100
AcDbLine
 10
219.99704
 20
352.679291
 30
0.0
 11
219.99704
 21
352.549988
 31
0.0
  0
LINE
  5
1FD
330
1F
100
AcDbEntity
  8
0
 62
     7
100
AcDbLine
 10
219.99704
 20
351.850006
 30
0.0
 11
219.99704
 21
352.549988
 31
0.0
  0
LINE
  5
1FE
330
1F
100
AcDbEntity
  8
0
 62
     7
100
AcDbLine
 10
219.99704
 20
351.720703
 30
0.0
 11
219.99704
 21
351.850006
 31
0.0
  0
LINE
  5
1FF
330
1F
100
AcDbEntity
  8
0
 62
     7
100
AcDbLine
 10
219.99704
 20
351.720703
 30
0.0
 11
219.99704
 21
351.579285
 31
0.0
  0
LINE
  5
200
330
1F
100
AcDbEntity
  8
0
 62
     7
100
AcDbLine
 10
219.99704
 20
351.579285
 30
0.0
 11
219.99704
 21
351.450012
 31
0.0
  0
LINE
  5
201
330
1F
100
AcDbEntity
  8
0
 62
     7
100
AcDbLine
 10
219.99704
 20
350.75
 30
0.0
 11
219.99704
 21
351.450012
 31
0.0
  0
LINE
  5
202
330
1F
100
AcDbEntity
  8
0
 62
     7
100
AcDbLine
 10
219.99704
 20
350.620728
 30
0.0
 11
219.99704
 21
350.75
 31
0.0
  0
LINE
  5
203
330
1F
100
AcDbEntity
  8
0
 62
     7
100
AcDbLine
 10
219.99704
 20
350.620728
 30
0.0
 11
219.99704
 21
350.479309
 31
0.0
  0
LINE
  5
204
330
1F
100
AcDbEntity
  8
0
 62
     7
100
AcDbLine
 10
219.99704
 20
350.479309
 30
0.0
 11
219.99704
 21
350.350006
 31
0.0
  0
LINE
  5
205
330
1F
100
AcDbEntity
  8
0
 62
     7
100
AcDbLine
 10
219.99704
 20
349.650024
 30
0.0
 11
219.99704
 21
350.350006
 31
0.0
  0
LINE
  5
206
330
1F
100
AcDbEntity
  8
0
 62
     7
100
AcDbLine
 10
219.99704
 20
349.520721
 30
0.0
 11
219.99704
 21
349.650024
 31
0.0
  0
LINE
  5
207
330
1F
100
AcDbEntity
  8
0
 62
     7
100
AcDbLine
 10
219.99704
 20
349.520721
 30
0.0
 11
219.99704
 21
349.379272
 31
0.0
  0
LINE
  5
208
330
1F
100
AcDbEntity
  8
0
 62
     7
100
AcDbLine
 10
219.99704
 20
349.379272
 30
0.0
 11
219.99704
 21
349.25
 31
0.0
  0
LINE
  5
209
330
1F
100
AcDbEntity
  8
0
 62
     7
100
AcDbLine
 10
219.99704
 20
348.549988
 30
0.0
 11
219.99704
 21
349.25
 31
0.0
  0
LINE
  5
20A
330
1F
100
AcDbEntity
  8
0
 62
     7
100
AcDbLine
 10
219.99704
 20
348.420715
 30
0.0
 11
219.99704
 21
348.549988
 31
0.0
  0
LINE
  5
20B
330
1F
100
AcDbEntity
  8
0
 62
     7
100
AcDbLine
 10
219.99704
 20
348.420715
 30
0.0
 11
219.99704
 21
348.279297
 31
0.0
  0
LINE
  5
20C
330
1F
100
AcDbEntity
  8
0
 62
     7
100
AcDbLine
 10
219.99704
 20
348.279297
 30
0.0
 11
219.99704
 21
348.150024
 31
0.0
  0
LINE
  5
20D
330
1F
100
AcDbEntity
  8
0
 62
     7
100
AcDbLine
 10
219.99704
 20
347.450012
 30
0.0
 11
219.99704
 21
348.150024
 31
0.0
  0
LINE
  5
20E
330
1F
100
AcDbEntity
  8
0
 62
     7
100
AcDbLine
 10
219.99704
 20
347.320709
 30
0.0
 11
219.99704
 21
347.450012
 31
0.0
  0
LINE
  5
20F
330
1F
100
AcDbEntity
  8
0
 62
     7
100
AcDbLine
 10
219.99704
 20
347.320709
 30
0.0
 11
219.99704
 21
347.179291
 31
0.0
  0
LINE
  5
210
330
1F
100
AcDbEntity
  8
0
 62
     7
100
AcDbLine
 10
219.99704
 20
347.179291
 30
0.0
 11
219.99704
 21
347.049988
 31
0.0
  0
LINE
  5
211
330
1F
100
AcDbEntity
  8
0
 62
     7
100
AcDbLine
 10
219.99704
 20
346.350006
 30
0.0
 11
219.99704
 21
347.049988
 31
0.0
  0
LINE
  5
212
330
1F
100
AcDbEntity
  8
0
 62
     7
100
AcDbLine
 10
218.99704
 20
352.679291
 30
0.0
 11
218.99704
 21
352.549988
 31
0.0
  0
LINE
  5
213
330
1F
100
AcDbEntity
  8
0
 62
     7
100
AcDbLine
 10
218.99704
 20
352.679291
 30
0.0
 11
218.99704
 21
352.820709
 31
0.0
  0
LINE
  5
214
330
1F
100
AcDbEntity
  8
0
 62
     7
100
AcDbLine
 10
218.99704
 20
352.820709
 30
0.0
 11
218.99704
 21
352.950012
 31
0.0
  0
LINE
  5
215
330
1F
100
AcDbEntity
  8
0
 62
     7
100
AcDbLine
 10
218.99704
 20
353.350006
 30
0.0
 11
218.99704
 21
352.950012
 31
0.0
  0
LINE
  5
216
330
1F
100
AcDbEntity
  8
0
 62
     7
100
AcDbLine
 10
218.99704
 20
346.079285
 30
0.0
 11
218.99704
 21
345.950012
 31
0.0
  0
LINE
  5
217
330
1F
100
AcDbEntity
  8
0
 62
     7
100
AcDbLine
 10
218.99704
 20
346.079285
 30
0.0
 11
218.99704
 21
346.220703
 31
0.0
  0
LINE
  5
218
330
1F
100
AcDbEntity
  8
0
 62
     7
100
AcDbLine
 10
218.99704
 20
346.220703
 30
0.0
 11
218.99704
 21
346.350006
 31
0.0
  0
LINE
  5
219
330
1F
100
AcDbEntity
  8
0
 62
     7
100
AcDbLine
 10
218.99704
 20
347.049988
 30
0.0
 11
218.99704
 21
346.350006
 31
0.0
  0
LINE
  5
21A
330
1F
100
AcDbEntity
  8
0
 62
     7
100
AcDbLine
 10
218.99704
 20
347.179291
 30
0.0
 11
218.99704
 21
347.049988
 31
0.0
  0
LINE
  5
21B
330
1F
100
AcDbEntity
  8
0
 62
     7
100
AcDbLine
 10
218.99704
 20
347.179291
 30
0.0
 11
218.99704
 21
347.320709
 31
0.0
  0
LINE
  5
21C
330
1F
100
AcDbEntity
  8
0
 62
     7
100
AcDbLine
 10
218.99704
 20
347.320709
 30
0.0
 11
218.99704
 21
347.450012
 31
0.0
  0
LINE
  5
21D
330
1F
100
AcDbEntity
  8
0
 62
     7
100
AcDbLine
 10
218.99704
 20
348.150024
 30
0.0
 11
218.99704
 21
347.450012
 31
0.0
  0
LINE
  5
21E
330
1F
100
AcDbEntity
  8
0
 62
     7
100
AcDbLine
 10
218.99704
 20
348.279297
 30
0.0
 11
218.99704
 21
348.150024
 31
0.0
  0
LINE
  5
21F
330
1F
100
AcDbEntity
  8
0
 62
     7
100
AcDbLine
 10
218.99704
 20
348.279297
 30
0.0
 11
218.99704
 21
348.420715
 31
0.0
  0
LINE
  5
220
330
1F
100
AcDbEntity
  8
0
 62
     7
100
AcDbLine
 10
218.99704
 20
348.420715
 30
0.0
 11
218.99704
 21
348.549988
 31
0.0
  0
LINE
  5
221
330
1F
100
AcDbEntity
  8
0
 62
     7
100
AcDbLine
 10
218.99704
 20
349.25
 30
0.0
 11
218.99704
 21
348.549988
 31
0.0
  0
LINE
  5
222
330
1F
100
AcDbEntity
  8
0
 62
     7
100
AcDbLine
 10
218.99704
 20
349.379272
 30
0.0
 11
218.99704
 21
349.25
 31
0.0
  0
LINE
  5
223
330
1F
100
AcDbEntity
  8
0
 62
     7
100
AcDbLine
 10
218.99704
 20
349.379272
 30
0.0
 11
218.99704
 21
349.520721
 31
0.0
  0
LINE
  5
224
330
1F
100
AcDbEntity
  8
0
 62
     7
100
AcDbLine
 10
218.99704
 20
349.520721
 30
0.0
 11
218.99704
 21
349.650024
 31
0.0
  0
LINE
  5
225
330
1F
100
AcDbEntity
  8
0
 62
     7
100
AcDbLine
 10
218.99704
 20
350.350006
 30
0.0
 11
218.99704
 21
349.650024
 31
0.0
  0
LINE
  5
226
330
1F
100
AcDbEntity
  8
0
 62
     7
100
AcDbLine
 10
218.99704
 20
350.479309
 30
0.0
 11
218.99704
 21
350.350006
 31
0.0
  0
LINE
  5
227
330
1F
100
AcDbEntity
  8
0
 62
     7
100
AcDbLine
 10
218.99704
 20
350.479309
 30
0.0
 11
218.99704
 21
350.620728
 31
0.0
  0
LINE
  5
228
330
1F
100
AcDbEntity
  8
0
 62
     7
100
AcDbLine
 10
218.99704
 20
350.620728
 30
0.0
 11
218.99704
 21
350.75
 31
0.0
  0
LINE
  5
229
330
1F
100
AcDbEntity
  8
0
 62
     7
100
AcDbLine
 10
218.99704
 20
351.450012
 30
0.0
 11
218.99704
 21
350.75
 31
0.0
  0
LINE
  5
22A
330
1F
100
AcDbEntity
  8
0
 62
     7
100
AcDbLine
 10
218.99704
 20
351.579285
 30
0.0
 11
218.99704
 21
351.450012
 31
0.0
  0
LINE
  5
22B
330
1F
100
AcDbEntity
  8
0
 62
     7
100
AcDbLine
 10
218.99704
 20
351.579285
 30
0.0
 11
218.99704
 21
351.720703
 31
0.0
  0
LINE
  5
22C
330
1F
100
AcDbEntity
  8
0
 62
     7
100
AcDbLine
 10
218.99704
 20
351.720703
 30
0.0
 11
218.99704
 21
351.850006
 31
0.0
  0
LINE
  5
22D
330
1F
100
AcDbEntity
  8
0
 62
     7
100
AcDbLine
 10
218.99704
 20
352.549988
 30
0.0
 11
218.99704
 21
351.850006
 31
0.0
  0
LINE
  5
22E
330
1F
100
AcDbEntity
  8
0
 62
     7
100
AcDbLine
 10
160.328369
 20
345.950012
 30
0.0
 11
160.411743
 21
346.079285
 31
0.0
  0
ARC
  5
22F
330
1F
100
AcDbEntity
  8
0
 62
     7
100
AcDbCircle
 10
153.647064
 20
350.350006
 30
0.0
 40
8.0
100
AcDbArc
 50
354.980203
 51
360.0
  0
LINE
  5
230
330
1F
100
AcDbEntity
  8
0
 62
     7
100
AcDbLine
 10
161.603973
 20
349.520721
 30
0.0
 11
161.616364
 21
349.650024
 31
0.0
  0
LINE
  5
231
330
1F
100
AcDbEntity
  8
0
 62
     7
100
AcDbLine
 10
161.587952
 20
349.379272
 30
0.0
 11
161.603973
 21
349.520721
 31
0.0
  0
LINE
  5
232
330
1F
100
AcDbEntity
  8
0
 62
     7
100
AcDbLine
 10
161.571075
 20
349.25
 30
0.0
 11
161.587952
 21
349.379272
 31
0.0
  0
ARC
  5
233
330
1F
100
AcDbEntity
  8
0
 62
     7
100
AcDbCircle
 10
153.647064
 20
350.350006
 30
0.0
 40
8.0
100
AcDbArc
 50
346.997132
 51
352.096798
  0
LINE
  5
234
330
1F
100
AcDbEntity
  8
0
 62
     7
100
AcDbLine
 10
161.41095
 20
348.420715
 30
0.0
 11
161.441925
 21
348.549988
 31
0.0
  0
LINE
  5
235
330
1F
100
AcDbEntity
  8
0
 62
     7
100
AcDbLine
 10
161.37442
 20
348.279297
 30
0.0
 11
161.41095
 21
348.420715
 31
0.0
  0
LINE
  5
236
330
1F
100
AcDbEntity
  8
0
 62
     7
100
AcDbLine
 10
161.338623
 20
348.150024
 30
0.0
 11
161.37442
 21
348.279297
 31
0.0
  0
ARC
  5
237
330
1F
100
AcDbEntity
  8
0
 62
     7
100
AcDbCircle
 10
153.647064
 20
350.350006
 30
0.0
 40
8.0
100
AcDbArc
 50
338.746183
 51
344.037995
  0
LINE
  5
238
330
1F
100
AcDbEntity
  8
0
 62
     7
100
AcDbLine
 10
161.051331
 20
347.320709
 30
0.0
 11
161.102936
 21
347.450012
 31
0.0
  0
LINE
  5
239
330
1F
100
AcDbEntity
  8
0
 62
     7
100
AcDbLine
 10
160.991882
 20
347.179291
 30
0.0
 11
161.051331
 21
347.320709
 31
0.0
  0
LINE
  5
23A
330
1F
100
AcDbEntity
  8
0
 62
     7
100
AcDbLine
 10
160.934723
 20
347.049988
 30
0.0
 11
160.991882
 21
347.179291
 31
0.0
  0
ARC
  5
23B
330
1F
100
AcDbEntity
  8
0
 62
     7
100
AcDbCircle
 10
153.647064
 20
350.350006
 30
0.0
 40
8.0
100
AcDbArc
 50
329.999989
 51
335.63801
  0
LINE
  5
23C
330
1F
100
AcDbEntity
  8
0
 62
     7
100
AcDbLine
 10
160.498993
 20
346.220703
 30
0.0
 11
160.575256
 21
346.350006
 31
0.0
  0
LINE
  5
23D
330
1F
100
AcDbEntity
  8
0
 62
     7
100
AcDbLine
 10
160.411743
 20
346.079285
 30
0.0
 11
160.498993
 21
346.220703
 31
0.0
  0
LINE
  5
23E
330
1F
100
AcDbEntity
  8
0
 62
     7
100
AcDbLine
 10
146.965729
 20
345.950012
 30
0.0
 11
146.882385
 21
346.079285
 31
0.0
  0
LINE
  5
23F
330
1F
100
AcDbEntity
  8
0
 62
     7
100
AcDbLine
 10
146.882385
 20
346.079285
 30
0.0
 11
146.795135
 21
346.220703
 31
0.0
  0
LINE
  5
240
330
1F
100
AcDbEntity
  8
0
 62
     7
100
AcDbLine
 10
146.795135
 20
346.220703
 30
0.0
 11
146.718872
 21
346.350006
 31
0.0
  0
ARC
  5
241
330
1F
100
AcDbEntity
  8
0
 62
     7
100
AcDbCircle
 10
153.647064
 20
350.350006
 30
0.0
 40
8.0
100
AcDbArc
 50
204.361982
 51
210.000003
  0
LINE
  5
242
330
1F
100
AcDbEntity
  8
0
 62
     7
100
AcDbLine
 10
146.359406
 20
347.049988
 30
0.0
 11
146.302216
 21
347.179291
 31
0.0
  0
LINE
  5
243
330
1F
100
AcDbEntity
  8
0
 62
     7
100
AcDbLine
 10
146.302216
 20
347.179291
 30
0.0
 11
146.242767
 21
347.320709
 31
0.0
  0
LINE
  5
244
330
1F
100
AcDbEntity
  8
0
 62
     7
100
AcDbLine
 10
146.242767
 20
347.320709
 30
0.0
 11
146.191193
 21
347.450012
 31
0.0
  0
ARC
  5
245
330
1F
100
AcDbEntity
  8
0
 62
     7
100
AcDbCircle
 10
153.647064
 20
350.350006
 30
0.0
 40
8.0
100
AcDbArc
 50
195.96201
 51
201.253809
  0
LINE
  5
246
330
1F
100
AcDbEntity
  8
0
 62
     7
100
AcDbLine
 10
145.955505
 20
348.150024
 30
0.0
 11
145.919708
 21
348.279297
 31
0.0
  0
LINE
  5
247
330
1F
100
AcDbEntity
  8
0
 62
     7
100
AcDbLine
 10
145.919708
 20
348.279297
 30
0.0
 11
145.883179
 21
348.420715
 31
0.0
  0
LINE
  5
248
330
1F
100
AcDbEntity
  8
0
 62
     7
100
AcDbLine
 10
145.883179
 20
348.420715
 30
0.0
 11
145.852203
 21
348.549988
 31
0.0
  0
ARC
  5
249
330
1F
100
AcDbEntity
  8
0
 62
     7
100
AcDbCircle
 10
153.647064
 20
350.350006
 30
0.0
 40
8.0
100
AcDbArc
 50
187.903207
 51
193.002872
  0
LINE
  5
24A
330
1F
100
AcDbEntity
  8
0
 62
     7
100
AcDbLine
 10
145.723053
 20
349.25
 30
0.0
 11
145.706177
 21
349.379272
 31
0.0
  0
LINE
  5
24B
330
1F
100
AcDbEntity
  8
0
 62
     7
100
AcDbLine
 10
145.706177
 20
349.379272
 30
0.0
 11
145.690155
 21
349.520721
 31
0.0
  0
LINE
  5
24C
330
1F
100
AcDbEntity
  8
0
 62
     7
100
AcDbLine
 10
145.690155
 20
349.520721
 30
0.0
 11
145.677734
 21
349.650024
 31
0.0
  0
ARC
  5
24D
330
1F
100
AcDbEntity
  8
0
 62
     7
100
AcDbCircle
 10
153.647064
 20
350.350006
 30
0.0
 40
8.0
100
AcDbArc
 50
180.000009
 51
185.019802
  0
LINE
  5
24E
330
1F
100
AcDbEntity
  8
0
 62
     7
100
AcDbLine
 10
144.647064
 20
346.079285
 30
0.0
 11
144.647064
 21
345.950012
 31
0.0
  0
LINE
  5
24F
330
1F
100
AcDbEntity
  8
0
 62
     7
100
AcDbLine
 10
144.647064
 20
346.220703
 30
0.0
 11
144.647064
 21
346.079285
 31
0.0
  0
LINE
  5
250
330
1F
100
AcDbEntity
  8
0
 62
     7
100
AcDbLine
 10
144.647064
 20
346.350006
 30
0.0
 11
144.647064
 21
346.220703
 31
0.0
  0
LINE
  5
251
330
1F
100
AcDbEntity
  8
0
 62
     7
100
AcDbLine
 10
144.647064
 20
346.350006
 30
0.0
 11
144.647064
 21
347.049988
 31
0.0
  0
LINE
  5
252
330
1F
100
AcDbEntity
  8
0
 62
     7
100
AcDbLine
 10
144.647064
 20
347.179291
 30
0.0
 11
144.647064
 21
347.049988
 31
0.0
  0
LINE
  5
253
330
1F
100
AcDbEntity
  8
0
 62
     7
100
AcDbLine
 10
144.647064
 20
347.320709
 30
0.0
 11
144.647064
 21
347.179291
 31
0.0
  0
LINE
  5
254
330
1F
100
AcDbEntity
  8
0
 62
     7
100
AcDbLine
 10
144.647064
 20
347.450012
 30
0.0
 11
144.647064
 21
347.320709
 31
0.0
  0
LINE
  5
255
330
1F
100
AcDbEntity
  8
0
 62
     7
100
AcDbLine
 10
144.647064
 20
347.450012
 30
0.0
 11
144.647064
 21
348.150024
 31
0.0
  0
LINE
  5
256
330
1F
100
AcDbEntity
  8
0
 62
     7
100
AcDbLine
 10
144.647064
 20
348.279297
 30
0.0
 11
144.647064
 21
348.150024
 31
0.0
  0
LINE
  5
257
330
1F
100
AcDbEntity
  8
0
 62
     7
100
AcDbLine
 10
144.647064
 20
348.420715
 30
0.0
 11
144.647064
 21
348.279297
 31
0.0
  0
LINE
  5
258
330
1F
100
AcDbEntity
  8
0
 62
     7
100
AcDbLine
 10
144.647064
 20
348.549988
 30
0.0
 11
144.647064
 21
348.420715
 31
0.0
  0
LINE
  5
259
330
1F
100
AcDbEntity
  8
0
 62
     7
100
AcDbLine
 10
144.647064
 20
348.549988
 30
0.0
 11
144.647064
 21
349.25
 31
0.0
  0
LINE
  5
25A
330
1F
100
AcDbEntity
  8
0
 62
     7
100
AcDbLine
 10
144.647064
 20
349.379272
 30
0.0
 11
144.647064
 21
349.25
 31
0.0
  0
LINE
  5
25B
330
1F
100
AcDbEntity
  8
0
 62
     7
100
AcDbLine
 10
144.647064
 20
349.520721
 30
0.0
 11
144.647064
 21
349.379272
 31
0.0
  0
LINE
  5
25C
330
1F
100
AcDbEntity
  8
0
 62
     7
100
AcDbLine
 10
144.647064
 20
349.650024
 30
0.0
 11
144.647064
 21
349.520721
 31
0.0
  0
LINE
  5
25D
330
1F
100
AcDbEntity
  8
0
 62
     7
100
AcDbLine
 10
144.647064
 20
349.650024
 30
0.0
 11
144.647064
 21
350.350006
 31
0.0
  0
LINE
  5
25E
330
1F
100
AcDbEntity
  8
0
 62
     7
100
AcDbLine
 10
144.647064
 20
350.479309
 30
0.0
 11
144.647064
 21
350.350006
 31
0.0
  0
LINE
  5
25F
330
1F
100
AcDbEntity
  8
0
 62
     7
100
AcDbLine
 10
144.647064
 20
350.620728
 30
0.0
 11
144.647064
 21
350.479309
 31
0.0
  0
LINE
  5
260
330
1F
100
AcDbEntity
  8
0
 62
     7
100
AcDbLine
 10
144.647064
 20
350.75
 30
0.0
 11
144.647064
 21
350.620728
 31
0.0
  0
LINE
  5
261
330
1F
100
AcDbEntity
  8
0
 62
     7
100
AcDbLine
 10
144.647064
 20
350.75
 30
0.0
 11
144.647064
 21
351.450012
 31
0.0
  0
LINE
  5
262
330
1F
100
AcDbEntity
  8
0
 62
     7
100
AcDbLine
 10
144.647064
 20
351.579285
 30
0.0
 11
144.647064
 21
351.450012
 31
0.0
  0
LINE
  5
263
330
1F
100
AcDbEntity
  8
0
 62
     7
100
AcDbLine
 10
144.647064
 20
351.720703
 30
0.0
 11
144.647064
 21
351.579285
 31
0.0
  0
LINE
  5
264
330
1F
100
AcDbEntity
  8
0
 62
     7
100
AcDbLine
 10
144.647064
 20
351.850006
 30
0.0
 11
144.647064
 21
351.720703
 31
0.0
  0
LINE
  5
265
330
1F
100
AcDbEntity
  8
0
 62
     7
100
AcDbLine
 10
144.647064
 20
351.850006
 30
0.0
 11
144.647064
 21
352.549988
 31
0.0
  0
LINE
  5
266
330
1F
100
AcDbEntity
  8
0
 62
     7
100
AcDbLine
 10
144.647064
 20
352.679291
 30
0.0
 11
144.647064
 21
352.549988
 31
0.0
  0
LINE
  5
267
330
1F
100
AcDbEntity
  8
0
 62
     7
100
AcDbLine
 10
144.647064
 20
352.820709
 30
0.0
 11
144.647064
 21
352.679291
 31
0.0
  0
LINE
  5
268
330
1F
100
AcDbEntity
  8
0
 62
     7
100
AcDbLine
 10
144.647064
 20
352.950012
 30
0.0
 11
144.647064
 21
352.820709
 31
0.0
  0
LINE
  5
269
330
1F
100
AcDbEntity
  8
0
 62
     7
100
AcDbLine
 10
144.647064
 20
352.950012
 30
0.0
 11
144.647064
 21
353.650024
 31
0.0
  0
LINE
  5
26A
330
1F
100
AcDbEntity
  8
0
 62
     7
100
AcDbLine
 10
144.647064
 20
353.779297
 30
0.0
 11
144.647064
 21
353.650024
 31
0.0
  0
LINE
  5
26B
330
1F
100
AcDbEntity
  8
0
 62
     7
100
AcDbLine
 10
144.647064
 20
353.920715
 30
0.0
 11
144.647064
 21
353.779297
 31
0.0
  0
LINE
  5
26C
330
1F
100
AcDbEntity
  8
0
 62
     7
100
AcDbLine
 10
144.647064
 20
354.049988
 30
0.0
 11
144.647064
 21
353.920715
 31
0.0
  0
LINE
  5
26D
330
1F
100
AcDbEntity
  8
0
 62
     7
100
AcDbLine
 10
144.647064
 20
354.049988
 30
0.0
 11
144.647064
 21
354.75
 31
0.0
  0
LINE
  5
26E
330
1F
100
AcDbEntity
  8
0
 62
     7
100
AcDbLine
 10
144.647064
 20
354.879272
 30
0.0
 11
144.647064
 21
354.75
 31
0.0
  0
LINE
  5
26F
330
1F
100
AcDbEntity
  8
0
 62
     7
100
AcDbLine
 10
144.647064
 20
355.020721
 30
0.0
 11
144.647064
 21
354.879272
 31
0.0
  0
LINE
  5
270
330
1F
100
AcDbEntity
  8
0
 62
     7
100
AcDbLine
 10
144.647064
 20
355.150024
 30
0.0
 11
144.647064
 21
355.020721
 31
0.0
  0
LINE
  5
271
330
1F
100
AcDbEntity
  8
0
 62
     7
100
AcDbLine
 10
144.647064
 20
355.150024
 30
0.0
 11
144.647064
 21
359.974274
 31
0.0
  0
LINE
  5
272
330
1F
100
AcDbEntity
  8
0
 62
     7
100
AcDbLine
 10
144.647064
 20
360.462158
 30
0.0
 11
144.647064
 21
359.974274
 31
0.0
  0
LINE
  5
273
330
1F
100
AcDbEntity
  8
0
 62
     7
100
AcDbLine
 10
144.647064
 20
360.549988
 30
0.0
 11
144.647064
 21
360.462158
 31
0.0
  0
ARC
  5
274
330
1F
100
AcDbEntity
  8
0
 62
     7
100
AcDbCircle
 10
672.147034
 20
337.549988
 30
0.0
 40
0.5
100
AcDbArc
 50
0.0
 51
90.000003
  0
LINE
  5
275
330
1F
100
AcDbEntity
  8
0
 62
     7
100
AcDbLine
 10
672.147034
 20
338.049988
 30
0.0
 11
665.147034
 21
338.049988
 31
0.0
  0
ARC
  5
276
330
1F
100
AcDbEntity
  8
0
 62
     7
100
AcDbCircle
 10
665.147034
 20
337.549988
 30
0.0
 40
0.5
100
AcDbArc
 50
90.000003
 51
180.000009
  0
LINE
  5
277
330
1F
100
AcDbEntity
  8
0
 62
     7
100
AcDbLine
 10
664.647034
 20
337.549988
 30
0.0
 11
664.647034
 21
333.549988
 31
0.0
  0
ARC
  5
278
330
1F
100
AcDbEntity
  8
0
 62
     7
100
AcDbCircle
 10
665.147034
 20
333.549988
 30
0.0
 40
0.5
100
AcDbArc
 50
180.000009
 51
269.999997
  0
LINE
  5
279
330
1F
100
AcDbEntity
  8
0
 62
     7
100
AcDbLine
 10
665.147034
 20
333.049988
 30
0.0
 11
672.147034
 21
333.049988
 31
0.0
  0
ARC
  5
27A
330
1F
100
AcDbEntity
  8
0
 62
     7
100
AcDbCircle
 10
672.147034
 20
333.549988
 30
0.0
 40
0.5
100
AcDbArc
 50
269.999997
 51
360.0
  0
LINE
  5
27B
330
1F
100
AcDbEntity
  8
0
 62
     7
100
AcDbLine
 10
672.647034
 20
333.549988
 30
0.0
 11
672.647034
 21
337.549988
 31
0.0
  0
ARC
  5
27C
330
1F
100
AcDbEntity
  8
0
 62
     7
100
AcDbCircle
 10
202.147064
 20
337.549988
 30
0.0
 40
0.5
100
AcDbArc
 50
0.0
 51
90.000003
  0
LINE
  5
27D
330
1F
100
AcDbEntity
  8
0
 62
     7
100
AcDbLine
 10
202.147064
 20
338.049988
 30
0.0
 11
195.147064
 21
338.049988
 31
0.0
  0
ARC
  5
27E
330
1F
100
AcDbEntity
  8
0
 62
     7
100
AcDbCircle
 10
195.147064
 20
337.549988
 30
0.0
 40
0.5
100
AcDbArc
 50
90.000003
 51
180.000009
  0
LINE
  5
27F
330
1F
100
AcDbEntity
  8
0
 62
     7
100
AcDbLine
 10
194.647064
 20
337.549988
 30
0.0
 11
194.647064
 21
333.549988
 31
0.0
  0
ARC
  5
280
330
1F
100
AcDbEntity
  8
0
 62
     7
100
AcDbCircle
 10
195.147064
 20
333.549988
 30
0.0
 40
0.5
100
AcDbArc
 50
180.000009
 51
269.999997
  0
LINE
  5
281
330
1F
100
AcDbEntity
  8
0
 62
     7
100
AcDbLine
 10
195.147064
 20
333.049988
 30
0.0
 11
202.147064
 21
333.049988
 31
0.0
  0
ARC
  5
282
330
1F
100
AcDbEntity
  8
0
 62
     7
100
AcDbCircle
 10
202.147064
 20
333.549988
 30
0.0
 40
0.5
100
AcDbArc
 50
269.999997
 51
360.0
  0
LINE
  5
283
330
1F
100
AcDbEntity
  8
0
 62
     7
100
AcDbLine
 10
202.647064
 20
333.549988
 30
0.0
 11
202.647064
 21
337.549988
 31
0.0
  0
LINE
  5
284
330
1F
100
AcDbEntity
  8
0
 62
     7
100
AcDbLine
 10
748.147034
 20
338.350006
 30
0.0
 11
747.647034
 21
338.350006
 31
0.0
  0
LINE
  5
285
330
1F
100
AcDbEntity
  8
0
 62
     7
100
AcDbLine
 10
747.647034
 20
340.649994
 30
0.0
 11
748.147034
 21
340.649994
 31
0.0
  0
LINE
  5
286
330
1F
100
AcDbEntity
  8
0
 62
     7
100
AcDbLine
 10
144.147064
 20
340.650024
 30
0.0
 11
144.647064
 21
340.649994
 31
0.0
  0
LINE
  5
287
330
1F
100
AcDbEntity
  8
0
 62
     7
100
AcDbLine
 10
675.147034
 20
360.462158
 30
0.0
 11
675.147034
 21
360.549988
 31
0.0
  0
LINE
  5
288
330
1F
100
AcDbEntity
  8
0
 62
     7
100
AcDbLine
 10
675.147034
 20
360.462158
 30
0.0
 11
675.147034
 21
359.974274
 31
0.0
  0
LINE
  5
289
330
1F
100
AcDbEntity
  8
0
 62
     7
100
AcDbLine
 10
747.647034
 20
359.974274
 30
0.0
 11
675.147034
 21
359.974274
 31
0.0
  0
ARC
  5
28A
330
1F
100
AcDbEntity
  8
0
 62
     7
100
AcDbCircle
 10
738.647034
 20
350.350006
 30
0.0
 40
8.0
100
AcDbArc
 50
36.869897
 51
143.130097
  0
LINE
  5
28B
330
1F
100
AcDbEntity
  8
0
 62
     7
100
AcDbLine
 10
747.647034
 20
355.150024
 30
0.0
 11
745.047058
 21
355.150024
 31
0.0
  0
LINE
  5
28C
330
1F
100
AcDbEntity
  8
0
 62
     7
100
AcDbLine
 10
675.147034
 20
355.150024
 30
0.0
 11
675.147034
 21
359.974274
 31
0.0
  0
LINE
  5
28D
330
1F
100
AcDbEntity
  8
0
 62
     7
100
AcDbLine
 10
732.247009
 20
355.150024
 30
0.0
 11
675.147034
 21
355.150024
 31
0.0
  0
LINE
  5
28E
330
1F
100
AcDbEntity
  8
0
 62
     7
100
AcDbLine
 10
745.047058
 20
355.150024
 30
0.0
 11
745.141968
 21
355.020721
 31
0.0
  0
LINE
  5
28F
330
1F
100
AcDbEntity
  8
0
 62
     7
100
AcDbLine
 10
745.141968
 20
355.020721
 30
0.0
 11
745.241394
 21
354.879272
 31
0.0
  0
LINE
  5
290
330
1F
100
AcDbEntity
  8
0
 62
     7
100
AcDbLine
 10
745.241394
 20
354.879272
 30
0.0
 11
745.328369
 21
354.75
 31
0.0
  0
LINE
  5
291
330
1F
100
AcDbEntity
  8
0
 62
     7
100
AcDbLine
 10
747.647034
 20
354.75
 30
0.0
 11
745.328369
 21
354.75
 31
0.0
  0
ARC
  5
292
330
1F
100
AcDbEntity
  8
0
 62
     7
100
AcDbCircle
 10
738.647034
 20
350.350006
 30
0.0
 40
8.0
100
AcDbArc
 50
27.548547
 51
33.367014
  0
LINE
  5
293
330
1F
100
AcDbEntity
  8
0
 62
     7
100
AcDbLine
 10
747.647034
 20
354.049988
 30
0.0
 11
745.73999
 21
354.049988
 31
0.0
  0
LINE
  5
294
330
1F
100
AcDbEntity
  8
0
 62
     7
100
AcDbLine
 10
745.73999
 20
354.049988
 30
0.0
 11
745.805969
 21
353.920715
 31
0.0
  0
LINE
  5
295
330
1F
100
AcDbEntity
  8
0
 62
     7
100
AcDbLine
 10
745.805969
 20
353.920715
 30
0.0
 11
745.874756
 21
353.779297
 31
0.0
  0
LINE
  5
296
330
1F
100
AcDbEntity
  8
0
 62
     7
100
AcDbLine
 10
745.874756
 20
353.779297
 30
0.0
 11
745.934692
 21
353.650024
 31
0.0
  0
LINE
  5
297
330
1F
100
AcDbEntity
  8
0
 62
     7
100
AcDbLine
 10
747.647034
 20
353.650024
 30
0.0
 11
745.934692
 21
353.650024
 31
0.0
  0
ARC
  5
298
330
1F
100
AcDbEntity
  8
0
 62
     7
100
AcDbCircle
 10
738.647034
 20
350.350006
 30
0.0
 40
8.0
100
AcDbArc
 50
18.965574
 51
24.361978
  0
LINE
  5
299
330
1F
100
AcDbEntity
  8
0
 62
     7
100
AcDbLine
 10
747.647034
 20
352.950012
 30
0.0
 11
746.212769
 21
352.950012
 31
0.0
  0
LINE
  5
29A
330
1F
100
AcDbEntity
  8
0
 62
     7
100
AcDbLine
 10
746.212769
 20
352.950012
 30
0.0
 11
746.25592
 21
352.820709
 31
0.0
  0
LINE
  5
29B
330
1F
100
AcDbEntity
  8
0
 62
     7
100
AcDbLine
 10
746.25592
 20
352.820709
 30
0.0
 11
746.300415
 21
352.679291
 31
0.0
  0
LINE
  5
29C
330
1F
100
AcDbEntity
  8
0
 62
     7
100
AcDbLine
 10
746.300415
 20
352.679291
 30
0.0
 11
746.338562
 21
352.549988
 31
0.0
  0
LINE
  5
29D
330
1F
100
AcDbEntity
  8
0
 62
     7
100
AcDbLine
 10
747.647034
 20
352.549988
 30
0.0
 11
746.338562
 21
352.549988
 31
0.0
  0
ARC
  5
29E
330
1F
100
AcDbEntity
  8
0
 62
     7
100
AcDbCircle
 10
738.647034
 20
350.350006
 30
0.0
 40
8.0
100
AcDbArc
 50
10.806925
 51
15.962019
  0
LINE
  5
29F
330
1F
100
AcDbEntity
  8
0
 62
     7
100
AcDbLine
 10
747.647034
 20
351.850006
 30
0.0
 11
746.505127
 21
351.850006
 31
0.0
  0
LINE
  5
2A0
330
1F
100
AcDbEntity
  8
0
 62
     7
100
AcDbLine
 10
746.505127
 20
351.850006
 30
0.0
 11
746.528748
 21
351.720703
 31
0.0
  0
LINE
  5
2A1
330
1F
100
AcDbEntity
  8
0
 62
     7
100
AcDbLine
 10
746.528748
 20
351.720703
 30
0.0
 11
746.552002
 21
351.579285
 31
0.0
  0
LINE
  5
2A2
330
1F
100
AcDbEntity
  8
0
 62
     7
100
AcDbLine
 10
746.552002
 20
351.579285
 30
0.0
 11
746.571045
 21
351.450012
 31
0.0
  0
LINE
  5
2A3
330
1F
100
AcDbEntity
  8
0
 62
     7
100
AcDbLine
 10
747.647034
 20
351.450012
 30
0.0
 11
746.571045
 21
351.450012
 31
0.0
  0
ARC
  5
2A4
330
1F
100
AcDbEntity
  8
0
 62
     7
100
AcDbCircle
 10
738.647034
 20
350.350006
 30
0.0
 40
8.0
100
AcDbArc
 50
2.865984
 51
7.903208
  0
LINE
  5
2A5
330
1F
100
AcDbEntity
  8
0
 62
     7
100
AcDbLine
 10
747.647034
 20
350.75
 30
0.0
 11
746.637024
 21
350.75
 31
0.0
  0
LINE
  5
2A6
330
1F
100
AcDbEntity
  8
0
 62
     7
100
AcDbLine
 10
746.637024
 20
350.75
 30
0.0
 11
746.642456
 21
350.620728
 31
0.0
  0
LINE
  5
2A7
330
1F
100
AcDbEntity
  8
0
 62
     7
100
AcDbLine
 10
746.642456
 20
350.620728
 30
0.0
 11
746.645996
 21
350.479309
 31
0.0
  0
LINE
  5
2A8
330
1F
100
AcDbEntity
  8
0
 62
     7
100
AcDbLine
 10
746.645996
 20
350.479309
 30
0.0
 11
746.647034
 21
350.350006
 31
0.0
  0
LINE
  5
2A9
330
1F
100
AcDbEntity
  8
0
 62
     7
100
AcDbLine
 10
747.647034
 20
350.350006
 30
0.0
 11
746.647034
 21
350.350006
 31
0.0
  0
LINE
  5
2AA
330
1F
100
AcDbEntity
  8
0
 62
     7
100
AcDbLine
 10
747.647034
 20
349.650024
 30
0.0
 11
746.616333
 21
349.650024
 31
0.0
  0
LINE
  5
2AB
330
1F
100
AcDbEntity
  8
0
 62
     7
100
AcDbLine
 10
747.647034
 20
349.25
 30
0.0
 11
746.571045
 21
349.25
 31
0.0
  0
LINE
  5
2AC
330
1F
100
AcDbEntity
  8
0
 62
     7
100
AcDbLine
 10
747.647034
 20
348.549988
 30
0.0
 11
746.441895
 21
348.549988
 31
0.0
  0
LINE
  5
2AD
330
1F
100
AcDbEntity
  8
0
 62
     7
100
AcDbLine
 10
747.647034
 20
348.150024
 30
0.0
 11
746.338562
 21
348.150024
 31
0.0
  0
LINE
  5
2AE
330
1F
100
AcDbEntity
  8
0
 62
     7
100
AcDbLine
 10
747.647034
 20
347.450012
 30
0.0
 11
746.102905
 21
347.450012
 31
0.0
  0
LINE
  5
2AF
330
1F
100
AcDbEntity
  8
0
 62
     7
100
AcDbLine
 10
747.647034
 20
347.049988
 30
0.0
 11
745.934692
 21
347.049988
 31
0.0
  0
LINE
  5
2B0
330
1F
100
AcDbEntity
  8
0
 62
     7
100
AcDbLine
 10
747.647034
 20
346.350006
 30
0.0
 11
745.575256
 21
346.350006
 31
0.0
  0
LINE
  5
2B1
330
1F
100
AcDbEntity
  8
0
 62
     7
100
AcDbLine
 10
731.718811
 20
346.350006
 30
0.0
 11
673.297058
 21
346.350006
 31
0.0
  0
LINE
  5
2B2
330
1F
100
AcDbEntity
  8
0
 62
     7
100
AcDbLine
 10
731.359375
 20
347.049988
 30
0.0
 11
673.297058
 21
347.049988
 31
0.0
  0
LINE
  5
2B3
330
1F
100
AcDbEntity
  8
0
 62
     7
100
AcDbLine
 10
731.191162
 20
347.450012
 30
0.0
 11
673.297058
 21
347.450012
 31
0.0
  0
LINE
  5
2B4
330
1F
100
AcDbEntity
  8
0
 62
     7
100
AcDbLine
 10
730.955505
 20
348.150024
 30
0.0
 11
673.297058
 21
348.150024
 31
0.0
  0
LINE
  5
2B5
330
1F
100
AcDbEntity
  8
0
 62
     7
100
AcDbLine
 10
730.852173
 20
348.549988
 30
0.0
 11
673.297058
 21
348.549988
 31
0.0
  0
LINE
  5
2B6
330
1F
100
AcDbEntity
  8
0
 62
     7
100
AcDbLine
 10
730.723022
 20
349.25
 30
0.0
 11
673.297058
 21
349.25
 31
0.0
  0
LINE
  5
2B7
330
1F
100
AcDbEntity
  8
0
 62
     7
100
AcDbLine
 10
730.677734
 20
349.650024
 30
0.0
 11
673.297058
 21
349.650024
 31
0.0
  0
LINE
  5
2B8
330
1F
100
AcDbEntity
  8
0
 62
     7
100
AcDbLine
 10
730.647034
 20
350.350006
 30
0.0
 11
673.297058
 21
350.350006
 31
0.0
  0
LINE
  5
2B9
330
1F
100
AcDbEntity
  8
0
 62
     7
100
AcDbLine
 10
730.648071
 20
350.479309
 30
0.0
 11
730.647034
 21
350.350006
 31
0.0
  0
LINE
  5
2BA
330
1F
100
AcDbEntity
  8
0
 62
     7
100
AcDbLine
 10
730.651611
 20
350.620728
 30
0.0
 11
730.648071
 21
350.479309
 31
0.0
  0
LINE
  5
2BB
330
1F
100
AcDbEntity
  8
0
 62
     7
100
AcDbLine
 10
730.657043
 20
350.75
 30
0.0
 11
730.651611
 21
350.620728
 31
0.0
  0
ARC
  5
2BC
330
1F
100
AcDbEntity
  8
0
 62
     7
100
AcDbCircle
 10
738.647034
 20
350.350006
 30
0.0
 40
8.0
100
AcDbArc
 50
172.096793
 51
177.134017
  0
LINE
  5
2BD
330
1F
100
AcDbEntity
  8
0
 62
     7
100
AcDbLine
 10
730.742065
 20
351.579285
 30
0.0
 11
730.723022
 21
351.450012
 31
0.0
  0
LINE
  5
2BE
330
1F
100
AcDbEntity
  8
0
 62
     7
100
AcDbLine
 10
730.76532
 20
351.720703
 30
0.0
 11
730.742065
 21
351.579285
 31
0.0
  0
LINE
  5
2BF
330
1F
100
AcDbEntity
  8
0
 62
     7
100
AcDbLine
 10
730.78894
 20
351.850006
 30
0.0
 11
730.76532
 21
351.720703
 31
0.0
  0
ARC
  5
2C0
330
1F
100
AcDbEntity
  8
0
 62
     7
100
AcDbCircle
 10
738.647034
 20
350.350006
 30
0.0
 40
8.0
100
AcDbArc
 50
164.03799
 51
169.193075
  0
LINE
  5
2C1
330
1F
100
AcDbEntity
  8
0
 62
     7
100
AcDbLine
 10
730.993652
 20
352.679291
 30
0.0
 11
730.955505
 21
352.549988
 31
0.0
  0
LINE
  5
2C2
330
1F
100
AcDbEntity
  8
0
 62
     7
100
AcDbLine
 10
731.038147
 20
352.820709
 30
0.0
 11
730.993652
 21
352.679291
 31
0.0
  0
LINE
  5
2C3
330
1F
100
AcDbEntity
  8
0
 62
     7
100
AcDbLine
 10
731.081299
 20
352.950012
 30
0.0
 11
731.038147
 21
352.820709
 31
0.0
  0
ARC
  5
2C4
330
1F
100
AcDbEntity
  8
0
 62
     7
100
AcDbCircle
 10
738.647034
 20
350.350006
 30
0.0
 40
8.0
100
AcDbArc
 50
155.638018
 51
161.034427
  0
LINE
  5
2C5
330
1F
100
AcDbEntity
  8
0
 62
     7
100
AcDbLine
 10
731.419312
 20
353.779297
 30
0.0
 11
731.359375
 21
353.650024
 31
0.0
  0
LINE
  5
2C6
330
1F
100
AcDbEntity
  8
0
 62
     7
100
AcDbLine
 10
731.488098
 20
353.920715
 30
0.0
 11
731.419312
 21
353.779297
 31
0.0
  0
LINE
  5
2C7
330
1F
100
AcDbEntity
  8
0
 62
     7
100
AcDbLine
 10
731.554077
 20
354.049988
 30
0.0
 11
731.488098
 21
353.920715
 31
0.0
  0
ARC
  5
2C8
330
1F
100
AcDbEntity
  8
0
 62
     7
100
AcDbCircle
 10
738.647034
 20
350.350006
 30
0.0
 40
8.0
100
AcDbArc
 50
146.632987
 51
152.451448
  0
LINE
  5
2C9
330
1F
100
AcDbEntity
  8
0
 62
     7
100
AcDbLine
 10
732.052673
 20
354.879272
 30
0.0
 11
731.965698
 21
354.75
 31
0.0
  0
LINE
  5
2CA
330
1F
100
AcDbEntity
  8
0
 62
     7
100
AcDbLine
 10
732.1521
 20
355.020721
 30
0.0
 11
732.052673
 21
354.879272
 31
0.0
  0
LINE
  5
2CB
330
1F
100
AcDbEntity
  8
0
 62
     7
100
AcDbLine
 10
732.247009
 20
355.150024
 30
0.0
 11
732.1521
 21
355.020721
 31
0.0
  0
CIRCLE
  5
2CC
330
1F
100
AcDbEntity
  8
0
 62
     7
100
AcDbCircle
 10
738.647034
 20
350.350006
 30
0.0
 40
7.5
  0
LINE
  5
2CD
330
1F
100
AcDbEntity
  8
0
 62
     7
100
AcDbLine
 10
673.647034
 20
353.350006
 30
0.0
 11
673.297058
 21
353.350006
 31
0.0
  0
LINE
  5
2CE
330
1F
100
AcDbEntity
  8
0
 62
     7
100
AcDbLine
 10
731.359375
 20
353.650024
 30
0.0
 11
674.547058
 21
353.650024
 31
0.0
  0
ARC
  5
2CF
330
1F
100
AcDbEntity
  8
0
 62
     7
100
AcDbCircle
 10
673.647034
 20
354.850006
 30
0.0
 40
1.5
100
AcDbArc
 50
269.999997
 51
314.454478
  0
LINE
  5
2D0
330
1F
100
AcDbEntity
  8
0
 62
     7
100
AcDbLine
 10
731.081299
 20
352.950012
 30
0.0
 11
673.297058
 21
352.950012
 31
0.0
  0
LINE
  5
2D1
330
1F
100
AcDbEntity
  8
0
 62
     7
100
AcDbLine
 10
730.955505
 20
352.549988
 30
0.0
 11
673.297058
 21
352.549988
 31
0.0
  0
LINE
  5
2D2
330
1F
100
AcDbEntity
  8
0
 62
     7
100
AcDbLine
 10
730.78894
 20
351.850006
 30
0.0
 11
673.297058
 21
351.850006
 31
0.0
  0
LINE
  5
2D3
330
1F
100
AcDbEntity
  8
0
 62
     7
100
AcDbLine
 10
730.723022
 20
351.450012
 30
0.0
 11
673.297058
 21
351.450012
 31
0.0
  0
LINE
  5
2D4
330
1F
100
AcDbEntity
  8
0
 62
     7
100
AcDbLine
 10
730.657043
 20
350.75
 30
0.0
 11
673.297058
 21
350.75
 31
0.0
  0
LINE
  5
2D5
330
1F
100
AcDbEntity
  8
0
 62
     7
100
AcDbLine
 10
672.297058
 20
353.650024
 30
0.0
 11
669.997009
 21
353.650024
 31
0.0
  0
LINE
  5
2D6
330
1F
100
AcDbEntity
  8
0
 62
     7
100
AcDbLine
 10
672.297058
 20
352.950012
 30
0.0
 11
669.997009
 21
352.950012
 31
0.0
  0
ARC
  5
2D7
330
1F
100
AcDbEntity
  8
0
 62
     7
100
AcDbCircle
 10
669.497009
 20
353.850006
 30
0.0
 40
0.5
100
AcDbArc
 50
0.0
 51
8.130103
  0
ARC
  5
2D8
330
1F
100
AcDbEntity
  8
0
 62
     7
100
AcDbCircle
 10
672.797058
 20
353.850006
 30
0.0
 40
0.5
100
AcDbArc
 50
171.869894
 51
180.000009
  0
ARC
  5
2D9
330
1F
100
AcDbEntity
  8
0
 62
     7
100
AcDbCircle
 10
672.797058
 20
353.850006
 30
0.0
 40
0.5
100
AcDbArc
 50
90.000003
 51
171.869894
  0
LINE
  5
2DA
330
1F
100
AcDbEntity
  8
0
 62
     7
100
AcDbLine
 10
672.297058
 20
346.350006
 30
0.0
 11
669.997009
 21
346.350006
 31
0.0
  0
LINE
  5
2DB
330
1F
100
AcDbEntity
  8
0
 62
     7
100
AcDbLine
 10
672.297058
 20
347.049988
 30
0.0
 11
669.997009
 21
347.049988
 31
0.0
  0
LINE
  5
2DC
330
1F
100
AcDbEntity
  8
0
 62
     7
100
AcDbLine
 10
672.297058
 20
347.450012
 30
0.0
 11
669.997009
 21
347.450012
 31
0.0
  0
LINE
  5
2DD
330
1F
100
AcDbEntity
  8
0
 62
     7
100
AcDbLine
 10
672.297058
 20
348.150024
 30
0.0
 11
669.997009
 21
348.150024
 31
0.0
  0
LINE
  5
2DE
330
1F
100
AcDbEntity
  8
0
 62
     7
100
AcDbLine
 10
672.297058
 20
348.549988
 30
0.0
 11
669.997009
 21
348.549988
 31
0.0
  0
LINE
  5
2DF
330
1F
100
AcDbEntity
  8
0
 62
     7
100
AcDbLine
 10
672.297058
 20
349.25
 30
0.0
 11
669.997009
 21
349.25
 31
0.0
  0
LINE
  5
2E0
330
1F
100
AcDbEntity
  8
0
 62
     7
100
AcDbLine
 10
672.297058
 20
349.650024
 30
0.0
 11
669.997009
 21
349.650024
 31
0.0
  0
LINE
  5
2E1
330
1F
100
AcDbEntity
  8
0
 62
     7
100
AcDbLine
 10
672.297058
 20
350.350006
 30
0.0
 11
669.997009
 21
350.350006
 31
0.0
  0
LINE
  5
2E2
330
1F
100
AcDbEntity
  8
0
 62
     7
100
AcDbLine
 10
672.297058
 20
350.75
 30
0.0
 11
669.997009
 21
350.75
 31
0.0
  0
LINE
  5
2E3
330
1F
100
AcDbEntity
  8
0
 62
     7
100
AcDbLine
 10
672.297058
 20
351.450012
 30
0.0
 11
669.997009
 21
351.450012
 31
0.0
  0
LINE
  5
2E4
330
1F
100
AcDbEntity
  8
0
 62
     7
100
AcDbLine
 10
672.297058
 20
351.850006
 30
0.0
 11
669.997009
 21
351.850006
 31
0.0
  0
LINE
  5
2E5
330
1F
100
AcDbEntity
  8
0
 62
     7
100
AcDbLine
 10
672.297058
 20
352.549988
 30
0.0
 11
669.997009
 21
352.549988
 31
0.0
  0
ARC
  5
2E6
330
1F
100
AcDbEntity
  8
0
 62
     7
100
AcDbCircle
 10
669.497009
 20
353.850006
 30
0.0
 40
0.5
100
AcDbArc
 50
8.130103
 51
90.000003
  0
LINE
  5
2E7
330
1F
100
AcDbEntity
  8
0
 62
     7
100
AcDbLine
 10
668.997009
 20
352.549988
 30
0.0
 11
523.297058
 21
352.549988
 31
0.0
  0
LINE
  5
2E8
330
1F
100
AcDbEntity
  8
0
 62
     7
100
AcDbLine
 10
668.997009
 20
352.950012
 30
0.0
 11
523.297058
 21
352.950012
 31
0.0
  0
LINE
  5
2E9
330
1F
100
AcDbEntity
  8
0
 62
     7
100
AcDbLine
 10
668.997009
 20
353.350006
 30
0.0
 11
668.647034
 21
353.350006
 31
0.0
  0
ARC
  5
2EA
330
1F
100
AcDbEntity
  8
0
 62
     7
100
AcDbCircle
 10
668.647034
 20
354.850006
 30
0.0
 40
1.5
100
AcDbArc
 50
212.230947
 51
269.999997
  0
LINE
  5
2EB
330
1F
100
AcDbEntity
  8
0
 62
     7
100
AcDbLine
 10
667.747009
 20
353.650024
 30
0.0
 11
524.547058
 21
353.650024
 31
0.0
  0
ARC
  5
2EC
330
1F
100
AcDbEntity
  8
0
 62
     7
100
AcDbCircle
 10
523.647034
 20
354.850006
 30
0.0
 40
1.5
100
AcDbArc
 50
269.999997
 51
314.454478
  0
LINE
  5
2ED
330
1F
100
AcDbEntity
  8
0
 62
     7
100
AcDbLine
 10
523.647034
 20
353.350006
 30
0.0
 11
523.297058
 21
353.350006
 31
0.0
  0
LINE
  5
2EE
330
1F
100
AcDbEntity
  8
0
 62
     7
100
AcDbLine
 10
668.997009
 20
346.350006
 30
0.0
 11
523.297058
 21
346.350006
 31
0.0
  0
LINE
  5
2EF
330
1F
100
AcDbEntity
  8
0
 62
     7
100
AcDbLine
 10
668.997009
 20
347.049988
 30
0.0
 11
523.297058
 21
347.049988
 31
0.0
  0
LINE
  5
2F0
330
1F
100
AcDbEntity
  8
0
 62
     7
100
AcDbLine
 10
668.997009
 20
347.450012
 30
0.0
 11
523.297058
 21
347.450012
 31
0.0
  0
LINE
  5
2F1
330
1F
100
AcDbEntity
  8
0
 62
     7
100
AcDbLine
 10
668.997009
 20
348.150024
 30
0.0
 11
523.297058
 21
348.150024
 31
0.0
  0
LINE
  5
2F2
330
1F
100
AcDbEntity
  8
0
 62
     7
100
AcDbLine
 10
668.997009
 20
348.549988
 30
0.0
 11
523.297058
 21
348.549988
 31
0.0
  0
LINE
  5
2F3
330
1F
100
AcDbEntity
  8
0
 62
     7
100
AcDbLine
 10
668.997009
 20
349.25
 30
0.0
 11
523.297058
 21
349.25
 31
0.0
  0
LINE
  5
2F4
330
1F
100
AcDbEntity
  8
0
 62
     7
100
AcDbLine
 10
668.997009
 20
349.650024
 30
0.0
 11
523.297058
 21
349.650024
 31
0.0
  0
LINE
  5
2F5
330
1F
100
AcDbEntity
  8
0
 62
     7
100
AcDbLine
 10
668.997009
 20
350.350006
 30
0.0
 11
523.297058
 21
350.350006
 31
0.0
  0
LINE
  5
2F6
330
1F
100
AcDbEntity
  8
0
 62
     7
100
AcDbLine
 10
668.997009
 20
350.75
 30
0.0
 11
523.297058
 21
350.75
 31
0.0
  0
LINE
  5
2F7
330
1F
100
AcDbEntity
  8
0
 62
     7
100
AcDbLine
 10
668.997009
 20
351.450012
 30
0.0
 11
523.297058
 21
351.450012
 31
0.0
  0
LINE
  5
2F8
330
1F
100
AcDbEntity
  8
0
 62
     7
100
AcDbLine
 10
668.997009
 20
351.850006
 30
0.0
 11
523.297058
 21
351.850006
 31
0.0
  0
LINE
  5
2F9
330
1F
100
AcDbEntity
  8
0
 62
     7
100
AcDbLine
 10
522.297058
 20
352.950012
 30
0.0
 11
519.99707
 21
352.950012
 31
0.0
  0
LINE
  5
2FA
330
1F
100
AcDbEntity
  8
0
 62
     7
100
AcDbLine
 10
522.297058
 20
353.650024
 30
0.0
 11
519.99707
 21
353.650024
 31
0.0
  0
ARC
  5
2FB
330
1F
100
AcDbEntity
  8
0
 62
     7
100
AcDbCircle
 10
522.797058
 20
353.850006
 30
0.0
 40
0.5
100
AcDbArc
 50
171.869894
 51
180.000009
  0
ARC
  5
2FC
330
1F
100
AcDbEntity
  8
0
 62
     7
100
AcDbCircle
 10
519.49707
 20
353.850006
 30
0.0
 40
0.5
100
AcDbArc
 50
0.0
 51
8.130103
  0
ARC
  5
2FD
330
1F
100
AcDbEntity
  8
0
 62
     7
100
AcDbCircle
 10
522.797058
 20
353.850006
 30
0.0
 40
0.5
100
AcDbArc
 50
90.000003
 51
171.869894
  0
LINE
  5
2FE
330
1F
100
AcDbEntity
  8
0
 62
     7
100
AcDbLine
 10
522.297058
 20
346.350006
 30
0.0
 11
519.99707
 21
346.350006
 31
0.0
  0
LINE
  5
2FF
330
1F
100
AcDbEntity
  8
0
 62
     7
100
AcDbLine
 10
522.297058
 20
347.049988
 30
0.0
 11
519.99707
 21
347.049988
 31
0.0
  0
LINE
  5
300
330
1F
100
AcDbEntity
  8
0
 62
     7
100
AcDbLine
 10
522.297058
 20
347.450012
 30
0.0
 11
519.99707
 21
347.450012
 31
0.0
  0
LINE
  5
301
330
1F
100
AcDbEntity
  8
0
 62
     7
100
AcDbLine
 10
522.297058
 20
348.150024
 30
0.0
 11
519.99707
 21
348.150024
 31
0.0
  0
LINE
  5
302
330
1F
100
AcDbEntity
  8
0
 62
     7
100
AcDbLine
 10
522.297058
 20
348.549988
 30
0.0
 11
519.99707
 21
348.549988
 31
0.0
  0
LINE
  5
303
330
1F
100
AcDbEntity
  8
0
 62
     7
100
AcDbLine
 10
522.297058
 20
349.25
 30
0.0
 11
519.99707
 21
349.25
 31
0.0
  0
LINE
  5
304
330
1F
100
AcDbEntity
  8
0
 62
     7
100
AcDbLine
 10
522.297058
 20
349.650024
 30
0.0
 11
519.99707
 21
349.650024
 31
0.0
  0
LINE
  5
305
330
1F
100
AcDbEntity
  8
0
 62
     7
100
AcDbLine
 10
522.297058
 20
350.350006
 30
0.0
 11
519.99707
 21
350.350006
 31
0.0
  0
LINE
  5
306
330
1F
100
AcDbEntity
  8
0
 62
     7
100
AcDbLine
 10
522.297058
 20
350.75
 30
0.0
 11
519.99707
 21
350.75
 31
0.0
  0
LINE
  5
307
330
1F
100
AcDbEntity
  8
0
 62
     7
100
AcDbLine
 10
522.297058
 20
351.450012
 30
0.0
 11
519.99707
 21
351.450012
 31
0.0
  0
LINE
  5
308
330
1F
100
AcDbEntity
  8
0
 62
     7
100
AcDbLine
 10
522.297058
 20
351.850006
 30
0.0
 11
519.99707
 21
351.850006
 31
0.0
  0
LINE
  5
309
330
1F
100
AcDbEntity
  8
0
 62
     7
100
AcDbLine
 10
522.297058
 20
352.549988
 30
0.0
 11
519.99707
 21
352.549988
 31
0.0
  0
ARC
  5
30A
330
1F
100
AcDbEntity
  8
0
 62
     7
100
AcDbCircle
 10
519.49707
 20
353.850006
 30
0.0
 40
0.5
100
AcDbArc
 50
8.130103
 51
90.000003
  0
LINE
  5
30B
330
1F
100
AcDbEntity
  8
0
 62
     7
100
AcDbLine
 10
518.99707
 20
352.549988
 30
0.0
 11
223.297058
 21
352.549988
 31
0.0
  0
LINE
  5
30C
330
1F
100
AcDbEntity
  8
0
 62
     7
100
AcDbLine
 10
518.99707
 20
352.950012
 30
0.0
 11
223.297058
 21
352.950012
 31
0.0
  0
LINE
  5
30D
330
1F
100
AcDbEntity
  8
0
 62
     7
100
AcDbLine
 10
518.99707
 20
353.350006
 30
0.0
 11
518.647034
 21
353.350006
 31
0.0
  0
ARC
  5
30E
330
1F
100
AcDbEntity
  8
0
 62
     7
100
AcDbCircle
 10
518.647034
 20
354.850006
 30
0.0
 40
1.5
100
AcDbArc
 50
212.230947
 51
269.999997
  0
LINE
  5
30F
330
1F
100
AcDbEntity
  8
0
 62
     7
100
AcDbLine
 10
517.74707
 20
353.650024
 30
0.0
 11
224.547058
 21
353.650024
 31
0.0
  0
ARC
  5
310
330
1F
100
AcDbEntity
  8
0
 62
     7
100
AcDbCircle
 10
223.647064
 20
354.850006
 30
0.0
 40
1.5
100
AcDbArc
 50
269.999997
 51
314.454478
  0
LINE
  5
311
330
1F
100
AcDbEntity
  8
0
 62
     7
100
AcDbLine
 10
223.647064
 20
353.350006
 30
0.0
 11
223.297058
 21
353.350006
 31
0.0
  0
LINE
  5
312
330
1F
100
AcDbEntity
  8
0
 62
     7
100
AcDbLine
 10
518.99707
 20
346.350006
 30
0.0
 11
223.297058
 21
346.350006
 31
0.0
  0
LINE
  5
313
330
1F
100
AcDbEntity
  8
0
 62
     7
100
AcDbLine
 10
518.99707
 20
347.049988
 30
0.0
 11
223.297058
 21
347.049988
 31
0.0
  0
LINE
  5
314
330
1F
100
AcDbEntity
  8
0
 62
     7
100
AcDbLine
 10
518.99707
 20
347.450012
 30
0.0
 11
223.297058
 21
347.450012
 31
0.0
  0
LINE
  5
315
330
1F
100
AcDbEntity
  8
0
 62
     7
100
AcDbLine
 10
518.99707
 20
348.150024
 30
0.0
 11
223.297058
 21
348.150024
 31
0.0
  0
LINE
  5
316
330
1F
100
AcDbEntity
  8
0
 62
     7
100
AcDbLine
 10
518.99707
 20
348.549988
 30
0.0
 11
223.297058
 21
348.549988
 31
0.0
  0
LINE
  5
317
330
1F
100
AcDbEntity
  8
0
 62
     7
100
AcDbLine
 10
518.99707
 20
349.25
 30
0.0
 11
223.297058
 21
349.25
 31
0.0
  0
LINE
  5
318
330
1F
100
AcDbEntity
  8
0
 62
     7
100
AcDbLine
 10
518.99707
 20
349.650024
 30
0.0
 11
223.297058
 21
349.650024
 31
0.0
  0
LINE
  5
319
330
1F
100
AcDbEntity
  8
0
 62
     7
100
AcDbLine
 10
518.99707
 20
350.350006
 30
0.0
 11
223.297058
 21
350.350006
 31
0.0
  0
LINE
  5
31A
330
1F
100
AcDbEntity
  8
0
 62
     7
100
AcDbLine
 10
518.99707
 20
350.75
 30
0.0
 11
223.297058
 21
350.75
 31
0.0
  0
LINE
  5
31B
330
1F
100
AcDbEntity
  8
0
 62
     7
100
AcDbLine
 10
518.99707
 20
351.450012
 30
0.0
 11
223.297058
 21
351.450012
 31
0.0
  0
LINE
  5
31C
330
1F
100
AcDbEntity
  8
0
 62
     7
100
AcDbLine
 10
518.99707
 20
351.850006
 30
0.0
 11
223.297058
 21
351.850006
 31
0.0
  0
LINE
  5
31D
330
1F
100
AcDbEntity
  8
0
 62
     7
100
AcDbLine
 10
222.297058
 20
353.650024
 30
0.0
 11
219.99704
 21
353.650024
 31
0.0
  0
LINE
  5
31E
330
1F
100
AcDbEntity
  8
0
 62
     7
100
AcDbLine
 10
222.297058
 20
352.950012
 30
0.0
 11
219.99704
 21
352.950012
 31
0.0
  0
ARC
  5
31F
330
1F
100
AcDbEntity
  8
0
 62
     7
100
AcDbCircle
 10
222.797058
 20
353.850006
 30
0.0
 40
0.5
100
AcDbArc
 50
171.869894
 51
180.000009
  0
ARC
  5
320
330
1F
100
AcDbEntity
  8
0
 62
     7
100
AcDbCircle
 10
219.49704
 20
353.850006
 30
0.0
 40
0.5
100
AcDbArc
 50
0.0
 51
8.130103
  0
ARC
  5
321
330
1F
100
AcDbEntity
  8
0
 62
     7
100
AcDbCircle
 10
222.797058
 20
353.850006
 30
0.0
 40
0.5
100
AcDbArc
 50
90.000003
 51
171.869894
  0
LINE
  5
322
330
1F
100
AcDbEntity
  8
0
 62
     7
100
AcDbLine
 10
222.297058
 20
346.350006
 30
0.0
 11
219.99704
 21
346.350006
 31
0.0
  0
LINE
  5
323
330
1F
100
AcDbEntity
  8
0
 62
     7
100
AcDbLine
 10
222.297058
 20
347.049988
 30
0.0
 11
219.99704
 21
347.049988
 31
0.0
  0
LINE
  5
324
330
1F
100
AcDbEntity
  8
0
 62
     7
100
AcDbLine
 10
222.297058
 20
347.450012
 30
0.0
 11
219.99704
 21
347.450012
 31
0.0
  0
LINE
  5
325
330
1F
100
AcDbEntity
  8
0
 62
     7
100
AcDbLine
 10
222.297058
 20
348.150024
 30
0.0
 11
219.99704
 21
348.150024
 31
0.0
  0
LINE
  5
326
330
1F
100
AcDbEntity
  8
0
 62
     7
100
AcDbLine
 10
222.297058
 20
348.549988
 30
0.0
 11
219.99704
 21
348.549988
 31
0.0
  0
LINE
  5
327
330
1F
100
AcDbEntity
  8
0
 62
     7
100
AcDbLine
 10
222.297058
 20
349.25
 30
0.0
 11
219.99704
 21
349.25
 31
0.0
  0
LINE
  5
328
330
1F
100
AcDbEntity
  8
0
 62
     7
100
AcDbLine
 10
222.297058
 20
349.650024
 30
0.0
 11
219.99704
 21
349.650024
 31
0.0
  0
LINE
  5
329
330
1F
100
AcDbEntity
  8
0
 62
     7
100
AcDbLine
 10
222.297058
 20
350.350006
 30
0.0
 11
219.99704
 21
350.350006
 31
0.0
  0
LINE
  5
32A
330
1F
100
AcDbEntity
  8
0
 62
     7
100
AcDbLine
 10
222.297058
 20
350.75
 30
0.0
 11
219.99704
 21
350.75
 31
0.0
  0
LINE
  5
32B
330
1F
100
AcDbEntity
  8
0
 62
     7
100
AcDbLine
 10
222.297058
 20
351.450012
 30
0.0
 11
219.99704
 21
351.450012
 31
0.0
  0
LINE
  5
32C
330
1F
100
AcDbEntity
  8
0
 62
     7
100
AcDbLine
 10
222.297058
 20
351.850006
 30
0.0
 11
219.99704
 21
351.850006
 31
0.0
  0
LINE
  5
32D
330
1F
100
AcDbEntity
  8
0
 62
     7
100
AcDbLine
 10
222.297058
 20
352.549988
 30
0.0
 11
219.99704
 21
352.549988
 31
0.0
  0
ARC
  5
32E
330
1F
100
AcDbEntity
  8
0
 62
     7
100
AcDbCircle
 10
219.49704
 20
353.850006
 30
0.0
 40
0.5
100
AcDbArc
 50
8.130103
 51
90.000003
  0
LINE
  5
32F
330
1F
100
AcDbEntity
  8
0
 62
     7
100
AcDbLine
 10
161.300446
 20
352.679291
 30
0.0
 11
161.338623
 21
352.549988
 31
0.0
  0
LINE
  5
330
330
1F
100
AcDbEntity
  8
0
 62
     7
100
AcDbLine
 10
218.99704
 20
352.549988
 30
0.0
 11
161.338623
 21
352.549988
 31
0.0
  0
LINE
  5
331
330
1F
100
AcDbEntity
  8
0
 62
     7
100
AcDbLine
 10
161.255981
 20
352.820709
 30
0.0
 11
161.300446
 21
352.679291
 31
0.0
  0
LINE
  5
332
330
1F
100
AcDbEntity
  8
0
 62
     7
100
AcDbLine
 10
161.212769
 20
352.950012
 30
0.0
 11
161.255981
 21
352.820709
 31
0.0
  0
LINE
  5
333
330
1F
100
AcDbEntity
  8
0
 62
     7
100
AcDbLine
 10
218.99704
 20
352.950012
 30
0.0
 11
161.212769
 21
352.950012
 31
0.0
  0
ARC
  5
334
330
1F
100
AcDbEntity
  8
0
 62
     7
100
AcDbCircle
 10
153.647064
 20
350.350006
 30
0.0
 40
8.0
100
AcDbArc
 50
18.965574
 51
24.361978
  0
LINE
  5
335
330
1F
100
AcDbEntity
  8
0
 62
     7
100
AcDbLine
 10
218.99704
 20
353.350006
 30
0.0
 11
218.647064
 21
353.350006
 31
0.0
  0
ARC
  5
336
330
1F
100
AcDbEntity
  8
0
 62
     7
100
AcDbCircle
 10
218.647064
 20
354.850006
 30
0.0
 40
1.5
100
AcDbArc
 50
212.230947
 51
269.999997
  0
LINE
  5
337
330
1F
100
AcDbEntity
  8
0
 62
     7
100
AcDbLine
 10
217.74704
 20
353.650024
 30
0.0
 11
160.934723
 21
353.650024
 31
0.0
  0
LINE
  5
338
330
1F
100
AcDbEntity
  8
0
 62
     7
100
AcDbLine
 10
218.99704
 20
346.350006
 30
0.0
 11
160.575256
 21
346.350006
 31
0.0
  0
LINE
  5
339
330
1F
100
AcDbEntity
  8
0
 62
     7
100
AcDbLine
 10
218.99704
 20
347.049988
 30
0.0
 11
160.934723
 21
347.049988
 31
0.0
  0
LINE
  5
33A
330
1F
100
AcDbEntity
  8
0
 62
     7
100
AcDbLine
 10
218.99704
 20
347.450012
 30
0.0
 11
161.102936
 21
347.450012
 31
0.0
  0
LINE
  5
33B
330
1F
100
AcDbEntity
  8
0
 62
     7
100
AcDbLine
 10
218.99704
 20
348.150024
 30
0.0
 11
161.338623
 21
348.150024
 31
0.0
  0
LINE
  5
33C
330
1F
100
AcDbEntity
  8
0
 62
     7
100
AcDbLine
 10
218.99704
 20
348.549988
 30
0.0
 11
161.441925
 21
348.549988
 31
0.0
  0
LINE
  5
33D
330
1F
100
AcDbEntity
  8
0
 62
     7
100
AcDbLine
 10
218.99704
 20
349.25
 30
0.0
 11
161.571075
 21
349.25
 31
0.0
  0
LINE
  5
33E
330
1F
100
AcDbEntity
  8
0
 62
     7
100
AcDbLine
 10
218.99704
 20
349.650024
 30
0.0
 11
161.616364
 21
349.650024
 31
0.0
  0
LINE
  5
33F
330
1F
100
AcDbEntity
  8
0
 62
     7
100
AcDbLine
 10
218.99704
 20
350.350006
 30
0.0
 11
161.647064
 21
350.350006
 31
0.0
  0
LINE
  5
340
330
1F
100
AcDbEntity
  8
0
 62
     7
100
AcDbLine
 10
161.646027
 20
350.479309
 30
0.0
 11
161.647064
 21
350.350006
 31
0.0
  0
LINE
  5
341
330
1F
100
AcDbEntity
  8
0
 62
     7
100
AcDbLine
 10
161.642487
 20
350.620728
 30
0.0
 11
161.646027
 21
350.479309
 31
0.0
  0
LINE
  5
342
330
1F
100
AcDbEntity
  8
0
 62
     7
100
AcDbLine
 10
161.637054
 20
350.75
 30
0.0
 11
161.642487
 21
350.620728
 31
0.0
  0
LINE
  5
343
330
1F
100
AcDbEntity
  8
0
 62
     7
100
AcDbLine
 10
218.99704
 20
350.75
 30
0.0
 11
161.637054
 21
350.75
 31
0.0
  0
ARC
  5
344
330
1F
100
AcDbEntity
  8
0
 62
     7
100
AcDbCircle
 10
153.647064
 20
350.350006
 30
0.0
 40
8.0
100
AcDbArc
 50
2.865984
 51
7.903208
  0
LINE
  5
345
330
1F
100
AcDbEntity
  8
0
 62
     7
100
AcDbLine
 10
218.99704
 20
351.450012
 30
0.0
 11
161.571075
 21
351.450012
 31
0.0
  0
LINE
  5
346
330
1F
100
AcDbEntity
  8
0
 62
     7
100
AcDbLine
 10
161.552063
 20
351.579285
 30
0.0
 11
161.571075
 21
351.450012
 31
0.0
  0
LINE
  5
347
330
1F
100
AcDbEntity
  8
0
 62
     7
100
AcDbLine
 10
161.528748
 20
351.720703
 30
0.0
 11
161.552063
 21
351.579285
 31
0.0
  0
LINE
  5
348
330
1F
100
AcDbEntity
  8
0
 62
     7
100
AcDbLine
 10
161.505188
 20
351.850006
 30
0.0
 11
161.528748
 21
351.720703
 31
0.0
  0
LINE
  5
349
330
1F
100
AcDbEntity
  8
0
 62
     7
100
AcDbLine
 10
218.99704
 20
351.850006
 30
0.0
 11
161.505188
 21
351.850006
 31
0.0
  0
ARC
  5
34A
330
1F
100
AcDbEntity
  8
0
 62
     7
100
AcDbCircle
 10
153.647064
 20
350.350006
 30
0.0
 40
8.0
100
AcDbArc
 50
10.806925
 51
15.962019
  0
LINE
  5
34B
330
1F
100
AcDbEntity
  8
0
 62
     7
100
AcDbLine
 10
146.718872
 20
346.350006
 30
0.0
 11
144.647064
 21
346.350006
 31
0.0
  0
LINE
  5
34C
330
1F
100
AcDbEntity
  8
0
 62
     7
100
AcDbLine
 10
146.359406
 20
347.049988
 30
0.0
 11
144.647064
 21
347.049988
 31
0.0
  0
LINE
  5
34D
330
1F
100
AcDbEntity
  8
0
 62
     7
100
AcDbLine
 10
146.191193
 20
347.450012
 30
0.0
 11
144.647064
 21
347.450012
 31
0.0
  0
LINE
  5
34E
330
1F
100
AcDbEntity
  8
0
 62
     7
100
AcDbLine
 10
145.955505
 20
348.150024
 30
0.0
 11
144.647064
 21
348.150024
 31
0.0
  0
LINE
  5
34F
330
1F
100
AcDbEntity
  8
0
 62
     7
100
AcDbLine
 10
145.852203
 20
348.549988
 30
0.0
 11
144.647064
 21
348.549988
 31
0.0
  0
LINE
  5
350
330
1F
100
AcDbEntity
  8
0
 62
     7
100
AcDbLine
 10
145.723053
 20
349.25
 30
0.0
 11
144.647064
 21
349.25
 31
0.0
  0
LINE
  5
351
330
1F
100
AcDbEntity
  8
0
 62
     7
100
AcDbLine
 10
145.677734
 20
349.650024
 30
0.0
 11
144.647064
 21
349.650024
 31
0.0
  0
LINE
  5
352
330
1F
100
AcDbEntity
  8
0
 62
     7
100
AcDbLine
 10
145.647064
 20
350.350006
 30
0.0
 11
144.647064
 21
350.350006
 31
0.0
  0
LINE
  5
353
330
1F
100
AcDbEntity
  8
0
 62
     7
100
AcDbLine
 10
145.648102
 20
350.479309
 30
0.0
 11
145.647064
 21
350.350006
 31
0.0
  0
LINE
  5
354
330
1F
100
AcDbEntity
  8
0
 62
     7
100
AcDbLine
 10
145.651642
 20
350.620728
 30
0.0
 11
145.648102
 21
350.479309
 31
0.0
  0
LINE
  5
355
330
1F
100
AcDbEntity
  8
0
 62
     7
100
AcDbLine
 10
145.657074
 20
350.75
 30
0.0
 11
145.651642
 21
350.620728
 31
0.0
  0
ARC
  5
356
330
1F
100
AcDbEntity
  8
0
 62
     7
100
AcDbCircle
 10
153.647064
 20
350.350006
 30
0.0
 40
8.0
100
AcDbArc
 50
172.096793
 51
177.134017
  0
LINE
  5
357
330
1F
100
AcDbEntity
  8
0
 62
     7
100
AcDbLine
 10
145.742065
 20
351.579285
 30
0.0
 11
145.723053
 21
351.450012
 31
0.0
  0
LINE
  5
358
330
1F
100
AcDbEntity
  8
0
 62
     7
100
AcDbLine
 10
145.76535
 20
351.720703
 30
0.0
 11
145.742065
 21
351.579285
 31
0.0
  0
LINE
  5
359
330
1F
100
AcDbEntity
  8
0
 62
     7
100
AcDbLine
 10
145.78894
 20
351.850006
 30
0.0
 11
145.76535
 21
351.720703
 31
0.0
  0
ARC
  5
35A
330
1F
100
AcDbEntity
  8
0
 62
     7
100
AcDbCircle
 10
153.647064
 20
350.350006
 30
0.0
 40
8.0
100
AcDbArc
 50
164.03799
 51
169.193075
  0
LINE
  5
35B
330
1F
100
AcDbEntity
  8
0
 62
     7
100
AcDbLine
 10
145.993683
 20
352.679291
 30
0.0
 11
145.955505
 21
352.549988
 31
0.0
  0
LINE
  5
35C
330
1F
100
AcDbEntity
  8
0
 62
     7
100
AcDbLine
 10
146.038147
 20
352.820709
 30
0.0
 11
145.993683
 21
352.679291
 31
0.0
  0
LINE
  5
35D
330
1F
100
AcDbEntity
  8
0
 62
     7
100
AcDbLine
 10
146.08136
 20
352.950012
 30
0.0
 11
146.038147
 21
352.820709
 31
0.0
  0
ARC
  5
35E
330
1F
100
AcDbEntity
  8
0
 62
     7
100
AcDbCircle
 10
153.647064
 20
350.350006
 30
0.0
 40
8.0
100
AcDbArc
 50
155.638018
 51
161.034427
  0
LINE
  5
35F
330
1F
100
AcDbEntity
  8
0
 62
     7
100
AcDbLine
 10
146.419342
 20
353.779297
 30
0.0
 11
146.359406
 21
353.650024
 31
0.0
  0
LINE
  5
360
330
1F
100
AcDbEntity
  8
0
 62
     7
100
AcDbLine
 10
146.488159
 20
353.920715
 30
0.0
 11
146.419342
 21
353.779297
 31
0.0
  0
LINE
  5
361
330
1F
100
AcDbEntity
  8
0
 62
     7
100
AcDbLine
 10
146.554108
 20
354.049988
 30
0.0
 11
146.488159
 21
353.920715
 31
0.0
  0
ARC
  5
362
330
1F
100
AcDbEntity
  8
0
 62
     7
100
AcDbCircle
 10
153.647064
 20
350.350006
 30
0.0
 40
8.0
100
AcDbArc
 50
146.632987
 51
152.451448
  0
LINE
  5
363
330
1F
100
AcDbEntity
  8
0
 62
     7
100
AcDbLine
 10
147.052704
 20
354.879272
 30
0.0
 11
146.965729
 21
354.75
 31
0.0
  0
LINE
  5
364
330
1F
100
AcDbEntity
  8
0
 62
     7
100
AcDbLine
 10
147.1521
 20
355.020721
 30
0.0
 11
147.052704
 21
354.879272
 31
0.0
  0
LINE
  5
365
330
1F
100
AcDbEntity
  8
0
 62
     7
100
AcDbLine
 10
147.24707
 20
355.150024
 30
0.0
 11
147.1521
 21
355.020721
 31
0.0
  0
ARC
  5
366
330
1F
100
AcDbEntity
  8
0
 62
     7
100
AcDbCircle
 10
153.647064
 20
350.350006
 30
0.0
 40
8.0
100
AcDbArc
 50
36.869897
 51
143.130097
  0
LINE
  5
367
330
1F
100
AcDbEntity
  8
0
 62
     7
100
AcDbLine
 10
160.047058
 20
355.150024
 30
0.0
 11
160.142029
 21
355.020721
 31
0.0
  0
LINE
  5
368
330
1F
100
AcDbEntity
  8
0
 62
     7
100
AcDbLine
 10
160.142029
 20
355.020721
 30
0.0
 11
160.241425
 21
354.879272
 31
0.0
  0
LINE
  5
369
330
1F
100
AcDbEntity
  8
0
 62
     7
100
AcDbLine
 10
160.241425
 20
354.879272
 30
0.0
 11
160.328369
 21
354.75
 31
0.0
  0
ARC
  5
36A
330
1F
100
AcDbEntity
  8
0
 62
     7
100
AcDbCircle
 10
153.647064
 20
350.350006
 30
0.0
 40
8.0
100
AcDbArc
 50
27.548547
 51
33.367014
  0
LINE
  5
36B
330
1F
100
AcDbEntity
  8
0
 62
     7
100
AcDbLine
 10
160.740021
 20
354.049988
 30
0.0
 11
160.805969
 21
353.920715
 31
0.0
  0
LINE
  5
36C
330
1F
100
AcDbEntity
  8
0
 62
     7
100
AcDbLine
 10
160.805969
 20
353.920715
 30
0.0
 11
160.874786
 21
353.779297
 31
0.0
  0
LINE
  5
36D
330
1F
100
AcDbEntity
  8
0
 62
     7
100
AcDbLine
 10
160.874786
 20
353.779297
 30
0.0
 11
160.934723
 21
353.650024
 31
0.0
  0
CIRCLE
  5
36E
330
1F
100
AcDbEntity
  8
0
 62
     7
100
AcDbCircle
 10
153.647064
 20
350.350006
 30
0.0
 40
7.5
  0
LINE
  5
36F
330
1F
100
AcDbEntity
  8
0
 62
     7
100
AcDbLine
 10
144.147064
 20
338.350006
 30
0.0
 11
144.647064
 21
338.350006
 31
0.0
  0
LINE
  5
370
330
1F
100
AcDbEntity
  8
0
 62
     7
100
AcDbLine
 10
145.657074
 20
350.75
 30
0.0
 11
144.647064
 21
350.75
 31
0.0
  0
LINE
  5
371
330
1F
100
AcDbEntity
  8
0
 62
     7
100
AcDbLine
 10
145.723053
 20
351.450012
 30
0.0
 11
144.647064
 21
351.450012
 31
0.0
  0
LINE
  5
372
330
1F
100
AcDbEntity
  8
0
 62
     7
100
AcDbLine
 10
145.78894
 20
351.850006
 30
0.0
 11
144.647064
 21
351.850006
 31
0.0
  0
LINE
  5
373
330
1F
100
AcDbEntity
  8
0
 62
     7
100
AcDbLine
 10
145.955505
 20
352.549988
 30
0.0
 11
144.647064
 21
352.549988
 31
0.0
  0
LINE
  5
374
330
1F
100
AcDbEntity
  8
0
 62
     7
100
AcDbLine
 10
146.08136
 20
352.950012
 30
0.0
 11
144.647064
 21
352.950012
 31
0.0
  0
LINE
  5
375
330
1F
100
AcDbEntity
  8
0
 62
     7
100
AcDbLine
 10
146.359406
 20
353.650024
 30
0.0
 11
144.647064
 21
353.650024
 31
0.0
  0
LINE
  5
376
330
1F
100
AcDbEntity
  8
0
 62
     7
100
AcDbLine
 10
146.554108
 20
354.049988
 30
0.0
 11
144.647064
 21
354.049988
 31
0.0
  0
LINE
  5
377
330
1F
100
AcDbEntity
  8
0
 62
     7
100
AcDbLine
 10
146.965729
 20
354.75
 30
0.0
 11
144.647064
 21
354.75
 31
0.0
  0
LINE
  5
378
330
1F
100
AcDbEntity
  8
0
 62
     7
100
AcDbLine
 10
147.24707
 20
355.150024
 30
0.0
 11
144.647064
 21
355.150024
 31
0.0
  0
LINE
  5
379
330
1F
100
AcDbEntity
  8
0
 62
     7
100
AcDbLine
 10
217.147064
 20
355.150024
 30
0.0
 11
160.047058
 21
355.150024
 31
0.0
  0
LINE
  5
37A
330
1F
100
AcDbEntity
  8
0
 62
     7
100
AcDbLine
 10
217.147064
 20
355.150024
 30
0.0
 11
217.147064
 21
359.974274
 31
0.0
  0
LINE
  5
37B
330
1F
100
AcDbEntity
  8
0
 62
     7
100
AcDbLine
 10
217.147064
 20
359.974274
 30
0.0
 11
144.647064
 21
359.974274
 31
0.0
  0
LINE
  5
37C
330
1F
100
AcDbEntity
  8
0
 62
     7
100
AcDbLine
 10
217.147064
 20
360.462158
 30
0.0
 11
217.147064
 21
359.974274
 31
0.0
  0
LINE
  5
37D
330
1F
100
AcDbEntity
  8
0
 62
     7
100
AcDbLine
 10
217.147064
 20
360.549988
 30
0.0
 11
217.147064
 21
360.462158
 31
0.0
  0
LINE
  5
37E
330
1F
100
AcDbEntity
  8
0
 62
     7
100
AcDbLine
 10
748.147034
 20
332.649994
 30
0.0
 11
748.147034
 21
332.149994
 31
0.0
  0
LINE
  5
37F
330
1F
100
AcDbEntity
  8
0
 62
     7
100
AcDbLine
 10
748.147034
 20
359.74292
 30
0.0
 11
748.147034
 21
332.649994
 31
0.0
  0
LINE
  5
380
330
1F
100
AcDbEntity
  8
0
 62
     7
100
AcDbLine
 10
748.147034
 20
360.096436
 30
0.0
 11
748.147034
 21
359.74292
 31
0.0
  0
LINE
  5
381
330
1F
100
AcDbEntity
  8
0
 62
     7
100
AcDbLine
 10
748.147034
 20
360.781128
 30
0.0
 11
748.147034
 21
360.096436
 31
0.0
  0
LINE
  5
382
330
1F
100
AcDbEntity
  8
0
 62
     7
100
AcDbLine
 10
675.147034
 20
355.020721
 30
0.0
 11
675.147034
 21
355.150024
 31
0.0
  0
LINE
  5
383
330
1F
100
AcDbEntity
  8
0
 62
     7
100
AcDbLine
 10
675.147034
 20
354.879272
 30
0.0
 11
675.147034
 21
355.020721
 31
0.0
  0
LINE
  5
384
330
1F
100
AcDbEntity
  8
0
 62
     7
100
AcDbLine
 10
675.147034
 20
354.879272
 30
0.0
 11
675.147034
 21
354.850006
 31
0.0
  0
ARC
  5
385
330
1F
100
AcDbEntity
  8
0
 62
     7
100
AcDbCircle
 10
673.647034
 20
354.850006
 30
0.0
 40
1.5
100
AcDbArc
 50
314.454478
 51
356.177454
  0
LINE
  5
386
330
1F
100
AcDbEntity
  8
0
 62
     7
100
AcDbLine
 10
675.143677
 20
354.75
 30
0.0
 11
675.147034
 21
354.850006
 31
0.0
  0
LINE
  5
387
330
1F
100
AcDbEntity
  8
0
 62
     7
100
AcDbLine
 10
672.797058
 20
354.350006
 30
0.0
 11
673.647034
 21
354.350006
 31
0.0
  0
ARC
  5
388
330
1F
100
AcDbEntity
  8
0
 62
     7
100
AcDbCircle
 10
673.647034
 20
354.850006
 30
0.0
 40
0.5
100
AcDbArc
 50
269.999997
 51
360.0
  0
LINE
  5
389
330
1F
100
AcDbEntity
  8
0
 62
     7
100
AcDbLine
 10
674.147034
 20
355.150024
 30
0.0
 11
674.147034
 21
359.974274
 31
0.0
  0
LINE
  5
38A
330
1F
100
AcDbEntity
  8
0
 62
     7
100
AcDbLine
 10
674.147034
 20
360.462158
 30
0.0
 11
674.147034
 21
359.974274
 31
0.0
  0
LINE
  5
38B
330
1F
100
AcDbEntity
  8
0
 62
     7
100
AcDbLine
 10
674.147034
 20
360.549988
 30
0.0
 11
674.147034
 21
360.462158
 31
0.0
  0
LINE
  5
38C
330
1F
100
AcDbEntity
  8
0
 62
     7
100
AcDbLine
 10
674.147034
 20
354.879272
 30
0.0
 11
674.147034
 21
354.850006
 31
0.0
  0
LINE
  5
38D
330
1F
100
AcDbEntity
  8
0
 62
     7
100
AcDbLine
 10
674.147034
 20
355.020721
 30
0.0
 11
674.147034
 21
354.879272
 31
0.0
  0
LINE
  5
38E
330
1F
100
AcDbEntity
  8
0
 62
     7
100
AcDbLine
 10
674.147034
 20
355.020721
 30
0.0
 11
674.147034
 21
355.150024
 31
0.0
  0
LINE
  5
38F
330
1F
100
AcDbEntity
  8
0
 62
     7
100
AcDbLine
 10
668.147034
 20
360.462158
 30
0.0
 11
668.147034
 21
360.549988
 31
0.0
  0
LINE
  5
390
330
1F
100
AcDbEntity
  8
0
 62
     7
100
AcDbLine
 10
668.147034
 20
360.462158
 30
0.0
 11
668.147034
 21
359.974274
 31
0.0
  0
LINE
  5
391
330
1F
100
AcDbEntity
  8
0
 62
     7
100
AcDbLine
 10
668.147034
 20
355.150024
 30
0.0
 11
668.147034
 21
359.974274
 31
0.0
  0
LINE
  5
392
330
1F
100
AcDbEntity
  8
0
 62
     7
100
AcDbLine
 10
668.147034
 20
355.020721
 30
0.0
 11
668.147034
 21
355.150024
 31
0.0
  0
LINE
  5
393
330
1F
100
AcDbEntity
  8
0
 62
     7
100
AcDbLine
 10
668.147034
 20
354.879272
 30
0.0
 11
668.147034
 21
355.020721
 31
0.0
  0
LINE
  5
394
330
1F
100
AcDbEntity
  8
0
 62
     7
100
AcDbLine
 10
668.147034
 20
354.879272
 30
0.0
 11
668.147034
 21
354.850006
 31
0.0
  0
ARC
  5
395
330
1F
100
AcDbEntity
  8
0
 62
     7
100
AcDbCircle
 10
668.647034
 20
354.850006
 30
0.0
 40
0.5
100
AcDbArc
 50
180.000009
 51
269.999997
  0
LINE
  5
396
330
1F
100
AcDbEntity
  8
0
 62
     7
100
AcDbLine
 10
668.647034
 20
354.350006
 30
0.0
 11
669.497009
 21
354.350006
 31
0.0
  0
ARC
  5
397
330
1F
100
AcDbEntity
  8
0
 62
     7
100
AcDbCircle
 10
668.647034
 20
354.850006
 30
0.0
 40
1.5
100
AcDbArc
 50
183.822551
 51
212.230947
  0
LINE
  5
398
330
1F
100
AcDbEntity
  8
0
 62
     7
100
AcDbLine
 10
667.150391
 20
354.75
 30
0.0
 11
667.147034
 21
354.850006
 31
0.0
  0
LINE
  5
399
330
1F
100
AcDbEntity
  8
0
 62
     7
100
AcDbLine
 10
667.147034
 20
355.150024
 30
0.0
 11
667.147034
 21
359.974274
 31
0.0
  0
LINE
  5
39A
330
1F
100
AcDbEntity
  8
0
 62
     7
100
AcDbLine
 10
667.147034
 20
360.462158
 30
0.0
 11
667.147034
 21
359.974274
 31
0.0
  0
LINE
  5
39B
330
1F
100
AcDbEntity
  8
0
 62
     7
100
AcDbLine
 10
667.147034
 20
360.549988
 30
0.0
 11
667.147034
 21
360.462158
 31
0.0
  0
LINE
  5
39C
330
1F
100
AcDbEntity
  8
0
 62
     7
100
AcDbLine
 10
667.147034
 20
354.879272
 30
0.0
 11
667.147034
 21
354.850006
 31
0.0
  0
LINE
  5
39D
330
1F
100
AcDbEntity
  8
0
 62
     7
100
AcDbLine
 10
667.147034
 20
355.020721
 30
0.0
 11
667.147034
 21
354.879272
 31
0.0
  0
LINE
  5
39E
330
1F
100
AcDbEntity
  8
0
 62
     7
100
AcDbLine
 10
667.147034
 20
355.020721
 30
0.0
 11
667.147034
 21
355.150024
 31
0.0
  0
LINE
  5
39F
330
1F
100
AcDbEntity
  8
0
 62
     7
100
AcDbLine
 10
525.147034
 20
360.462158
 30
0.0
 11
525.147034
 21
360.549988
 31
0.0
  0
LINE
  5
3A0
330
1F
100
AcDbEntity
  8
0
 62
     7
100
AcDbLine
 10
525.147034
 20
360.462158
 30
0.0
 11
525.147034
 21
359.974274
 31
0.0
  0
LINE
  5
3A1
330
1F
100
AcDbEntity
  8
0
 62
     7
100
AcDbLine
 10
525.147034
 20
355.150024
 30
0.0
 11
525.147034
 21
359.974274
 31
0.0
  0
LINE
  5
3A2
330
1F
100
AcDbEntity
  8
0
 62
     7
100
AcDbLine
 10
525.147034
 20
355.020721
 30
0.0
 11
525.147034
 21
355.150024
 31
0.0
  0
LINE
  5
3A3
330
1F
100
AcDbEntity
  8
0
 62
     7
100
AcDbLine
 10
525.147034
 20
354.879272
 30
0.0
 11
525.147034
 21
355.020721
 31
0.0
  0
LINE
  5
3A4
330
1F
100
AcDbEntity
  8
0
 62
     7
100
AcDbLine
 10
525.147034
 20
354.879272
 30
0.0
 11
525.147034
 21
354.850006
 31
0.0
  0
ARC
  5
3A5
330
1F
100
AcDbEntity
  8
0
 62
     7
100
AcDbCircle
 10
523.647034
 20
354.850006
 30
0.0
 40
1.5
100
AcDbArc
 50
314.454478
 51
356.177454
  0
LINE
  5
3A6
330
1F
100
AcDbEntity
  8
0
 62
     7
100
AcDbLine
 10
525.143738
 20
354.75
 30
0.0
 11
525.147034
 21
354.850006
 31
0.0
  0
LINE
  5
3A7
330
1F
100
AcDbEntity
  8
0
 62
     7
100
AcDbLine
 10
522.797058
 20
354.350006
 30
0.0
 11
523.647034
 21
354.350006
 31
0.0
  0
ARC
  5
3A8
330
1F
100
AcDbEntity
  8
0
 62
     7
100
AcDbCircle
 10
523.647034
 20
354.850006
 30
0.0
 40
0.5
100
AcDbArc
 50
269.999997
 51
360.0
  0
LINE
  5
3A9
330
1F
100
AcDbEntity
  8
0
 62
     7
100
AcDbLine
 10
524.147034
 20
355.150024
 30
0.0
 11
524.147034
 21
359.974274
 31
0.0
  0
LINE
  5
3AA
330
1F
100
AcDbEntity
  8
0
 62
     7
100
AcDbLine
 10
524.147034
 20
360.462158
 30
0.0
 11
524.147034
 21
359.974274
 31
0.0
  0
LINE
  5
3AB
330
1F
100
AcDbEntity
  8
0
 62
     7
100
AcDbLine
 10
524.147034
 20
360.549988
 30
0.0
 11
524.147034
 21
360.462158
 31
0.0
  0
LINE
  5
3AC
330
1F
100
AcDbEntity
  8
0
 62
     7
100
AcDbLine
 10
524.147034
 20
354.879272
 30
0.0
 11
524.147034
 21
354.850006
 31
0.0
  0
LINE
  5
3AD
330
1F
100
AcDbEntity
  8
0
 62
     7
100
AcDbLine
 10
524.147034
 20
355.020721
 30
0.0
 11
524.147034
 21
354.879272
 31
0.0
  0
LINE
  5
3AE
330
1F
100
AcDbEntity
  8
0
 62
     7
100
AcDbLine
 10
524.147034
 20
355.020721
 30
0.0
 11
524.147034
 21
355.150024
 31
0.0
  0
LINE
  5
3AF
330
1F
100
AcDbEntity
  8
0
 62
     7
100
AcDbLine
 10
518.147034
 20
360.462158
 30
0.0
 11
518.147034
 21
360.549988
 31
0.0
  0
LINE
  5
3B0
330
1F
100
AcDbEntity
  8
0
 62
     7
100
AcDbLine
 10
518.147034
 20
360.462158
 30
0.0
 11
518.147034
 21
359.974274
 31
0.0
  0
LINE
  5
3B1
330
1F
100
AcDbEntity
  8
0
 62
     7
100
AcDbLine
 10
518.147034
 20
355.150024
 30
0.0
 11
518.147034
 21
359.974274
 31
0.0
  0
LINE
  5
3B2
330
1F
100
AcDbEntity
  8
0
 62
     7
100
AcDbLine
 10
518.147034
 20
355.020721
 30
0.0
 11
518.147034
 21
355.150024
 31
0.0
  0
LINE
  5
3B3
330
1F
100
AcDbEntity
  8
0
 62
     7
100
AcDbLine
 10
518.147034
 20
354.879272
 30
0.0
 11
518.147034
 21
355.020721
 31
0.0
  0
LINE
  5
3B4
330
1F
100
AcDbEntity
  8
0
 62
     7
100
AcDbLine
 10
518.147034
 20
354.879272
 30
0.0
 11
518.147034
 21
354.850006
 31
0.0
  0
ARC
  5
3B5
330
1F
100
AcDbEntity
  8
0
 62
     7
100
AcDbCircle
 10
518.647034
 20
354.850006
 30
0.0
 40
0.5
100
AcDbArc
 50
180.000009
 51
269.999997
  0
LINE
  5
3B6
330
1F
100
AcDbEntity
  8
0
 62
     7
100
AcDbLine
 10
518.647034
 20
354.350006
 30
0.0
 11
519.49707
 21
354.350006
 31
0.0
  0
ARC
  5
3B7
330
1F
100
AcDbEntity
  8
0
 62
     7
100
AcDbCircle
 10
518.647034
 20
354.850006
 30
0.0
 40
1.5
100
AcDbArc
 50
183.822551
 51
212.230947
  0
LINE
  5
3B8
330
1F
100
AcDbEntity
  8
0
 62
     7
100
AcDbLine
 10
517.150391
 20
354.75
 30
0.0
 11
517.147034
 21
354.850006
 31
0.0
  0
LINE
  5
3B9
330
1F
100
AcDbEntity
  8
0
 62
     7
100
AcDbLine
 10
517.147034
 20
355.150024
 30
0.0
 11
517.147034
 21
359.974274
 31
0.0
  0
LINE
  5
3BA
330
1F
100
AcDbEntity
  8
0
 62
     7
100
AcDbLine
 10
517.147034
 20
360.462158
 30
0.0
 11
517.147034
 21
359.974274
 31
0.0
  0
LINE
  5
3BB
330
1F
100
AcDbEntity
  8
0
 62
     7
100
AcDbLine
 10
517.147034
 20
360.549988
 30
0.0
 11
517.147034
 21
360.462158
 31
0.0
  0
LINE
  5
3BC
330
1F
100
AcDbEntity
  8
0
 62
     7
100
AcDbLine
 10
517.147034
 20
354.879272
 30
0.0
 11
517.147034
 21
354.850006
 31
0.0
  0
LINE
  5
3BD
330
1F
100
AcDbEntity
  8
0
 62
     7
100
AcDbLine
 10
517.147034
 20
355.020721
 30
0.0
 11
517.147034
 21
354.879272
 31
0.0
  0
LINE
  5
3BE
330
1F
100
AcDbEntity
  8
0
 62
     7
100
AcDbLine
 10
517.147034
 20
355.020721
 30
0.0
 11
517.147034
 21
355.150024
 31
0.0
  0
LINE
  5
3BF
330
1F
100
AcDbEntity
  8
0
 62
     7
100
AcDbLine
 10
225.147064
 20
360.462158
 30
0.0
 11
225.147064
 21
360.549988
 31
0.0
  0
LINE
  5
3C0
330
1F
100
AcDbEntity
  8
0
 62
     7
100
AcDbLine
 10
225.147064
 20
360.462158
 30
0.0
 11
225.147064
 21
359.974274
 31
0.0
  0
LINE
  5
3C1
330
1F
100
AcDbEntity
  8
0
 62
     7
100
AcDbLine
 10
225.147064
 20
355.150024
 30
0.0
 11
225.147064
 21
359.974274
 31
0.0
  0
LINE
  5
3C2
330
1F
100
AcDbEntity
  8
0
 62
     7
100
AcDbLine
 10
225.147064
 20
355.020721
 30
0.0
 11
225.147064
 21
355.150024
 31
0.0
  0
LINE
  5
3C3
330
1F
100
AcDbEntity
  8
0
 62
     7
100
AcDbLine
 10
225.147064
 20
354.879272
 30
0.0
 11
225.147064
 21
355.020721
 31
0.0
  0
LINE
  5
3C4
330
1F
100
AcDbEntity
  8
0
 62
     7
100
AcDbLine
 10
225.147064
 20
354.879272
 30
0.0
 11
225.147064
 21
354.850006
 31
0.0
  0
ARC
  5
3C5
330
1F
100
AcDbEntity
  8
0
 62
     7
100
AcDbCircle
 10
223.647064
 20
354.850006
 30
0.0
 40
1.5
100
AcDbArc
 50
314.454478
 51
356.177454
  0
LINE
  5
3C6
330
1F
100
AcDbEntity
  8
0
 62
     7
100
AcDbLine
 10
225.143707
 20
354.75
 30
0.0
 11
225.147064
 21
354.850006
 31
0.0
  0
LINE
  5
3C7
330
1F
100
AcDbEntity
  8
0
 62
     7
100
AcDbLine
 10
222.797058
 20
354.350006
 30
0.0
 11
223.647064
 21
354.350006
 31
0.0
  0
ARC
  5
3C8
330
1F
100
AcDbEntity
  8
0
 62
     7
100
AcDbCircle
 10
223.647064
 20
354.850006
 30
0.0
 40
0.5
100
AcDbArc
 50
269.999997
 51
360.0
  0
LINE
  5
3C9
330
1F
100
AcDbEntity
  8
0
 62
     7
100
AcDbLine
 10
224.147064
 20
355.150024
 30
0.0
 11
224.147064
 21
359.974274
 31
0.0
  0
LINE
  5
3CA
330
1F
100
AcDbEntity
  8
0
 62
     7
100
AcDbLine
 10
224.147064
 20
360.462158
 30
0.0
 11
224.147064
 21
359.974274
 31
0.0
  0
LINE
  5
3CB
330
1F
100
AcDbEntity
  8
0
 62
     7
100
AcDbLine
 10
224.147064
 20
360.549988
 30
0.0
 11
224.147064
 21
360.462158
 31
0.0
  0
LINE
  5
3CC
330
1F
100
AcDbEntity
  8
0
 62
     7
100
AcDbLine
 10
224.147064
 20
354.879272
 30
0.0
 11
224.147064
 21
354.850006
 31
0.0
  0
LINE
  5
3CD
330
1F
100
AcDbEntity
  8
0
 62
     7
100
AcDbLine
 10
224.147064
 20
355.020721
 30
0.0
 11
224.147064
 21
354.879272
 31
0.0
  0
LINE
  5
3CE
330
1F
100
AcDbEntity
  8
0
 62
     7
100
AcDbLine
 10
224.147064
 20
355.020721
 30
0.0
 11
224.147064
 21
355.150024
 31
0.0
  0
LINE
  5
3CF
330
1F
100
AcDbEntity
  8
0
 62
     7
100
AcDbLine
 10
218.147064
 20
360.462158
 30
0.0
 11
218.147064
 21
360.549988
 31
0.0
  0
LINE
  5
3D0
330
1F
100
AcDbEntity
  8
0
 62
     7
100
AcDbLine
 10
218.147064
 20
360.462158
 30
0.0
 11
218.147064
 21
359.974274
 31
0.0
  0
LINE
  5
3D1
330
1F
100
AcDbEntity
  8
0
 62
     7
100
AcDbLine
 10
218.147064
 20
355.150024
 30
0.0
 11
218.147064
 21
359.974274
 31
0.0
  0
LINE
  5
3D2
330
1F
100
AcDbEntity
  8
0
 62
     7
100
AcDbLine
 10
218.147064
 20
355.020721
 30
0.0
 11
218.147064
 21
355.150024
 31
0.0
  0
LINE
  5
3D3
330
1F
100
AcDbEntity
  8
0
 62
     7
100
AcDbLine
 10
218.147064
 20
354.879272
 30
0.0
 11
218.147064
 21
355.020721
 31
0.0
  0
LINE
  5
3D4
330
1F
100
AcDbEntity
  8
0
 62
     7
100
AcDbLine
 10
218.147064
 20
354.879272
 30
0.0
 11
218.147064
 21
354.850006
 31
0.0
  0
ARC
  5
3D5
330
1F
100
AcDbEntity
  8
0
 62
     7
100
AcDbCircle
 10
218.647064
 20
354.850006
 30
0.0
 40
0.5
100
AcDbArc
 50
180.000009
 51
269.999997
  0
LINE
  5
3D6
330
1F
100
AcDbEntity
  8
0
 62
     7
100
AcDbLine
 10
218.647064
 20
354.350006
 30
0.0
 11
219.49704
 21
354.350006
 31
0.0
  0
ARC
  5
3D7
330
1F
100
AcDbEntity
  8
0
 62
     7
100
AcDbCircle
 10
218.647064
 20
354.850006
 30
0.0
 40
1.5
100
AcDbArc
 50
183.822551
 51
212.230947
  0
LINE
  5
3D8
330
1F
100
AcDbEntity
  8
0
 62
     7
100
AcDbLine
 10
217.150391
 20
354.75
 30
0.0
 11
217.147064
 21
354.850006
 31
0.0
  0
LINE
  5
3D9
330
1F
100
AcDbEntity
  8
0
 62
     7
100
AcDbLine
 10
217.147064
 20
354.879272
 30
0.0
 11
217.147064
 21
354.850006
 31
0.0
  0
LINE
  5
3DA
330
1F
100
AcDbEntity
  8
0
 62
     7
100
AcDbLine
 10
217.147064
 20
355.020721
 30
0.0
 11
217.147064
 21
354.879272
 31
0.0
  0
LINE
  5
3DB
330
1F
100
AcDbEntity
  8
0
 62
     7
100
AcDbLine
 10
217.147064
 20
355.020721
 30
0.0
 11
217.147064
 21
355.150024
 31
0.0
  0
LINE
  5
3DC
330
1F
100
AcDbEntity
  8
0
 62
     7
100
AcDbLine
 10
144.147064
 20
360.096436
 30
0.0
 11
144.147064
 21
360.781128
 31
0.0
  0
LINE
  5
3DD
330
1F
100
AcDbEntity
  8
0
 62
     7
100
AcDbLine
 10
144.147064
 20
359.74292
 30
0.0
 11
144.147064
 21
360.096436
 31
0.0
  0
LINE
  5
3DE
330
1F
100
AcDbEntity
  8
0
 62
     7
100
AcDbLine
 10
144.147064
 20
332.650024
 30
0.0
 11
144.147064
 21
359.74292
 31
0.0
  0
LINE
  5
3DF
330
1F
100
AcDbEntity
  8
0
 62
     7
100
AcDbLine
 10
144.147064
 20
332.150024
 30
0.0
 11
144.147064
 21
332.650024
 31
0.0
  0
LINE
  5
3E0
330
1F
100
AcDbEntity
  8
0
 62
     7
100
AcDbLine
 10
748.147034
 20
363.350006
 30
0.0
 11
748.147034
 21
360.781128
 31
0.0
  0
LINE
  5
3E1
330
1F
100
AcDbEntity
  8
0
 62
     7
100
AcDbLine
 10
144.147064
 20
363.350006
 30
0.0
 11
748.147034
 21
363.350006
 31
0.0
  0
LINE
  5
3E2
330
1F
100
AcDbEntity
  8
0
 62
     7
100
AcDbLine
 10
144.147064
 20
363.350006
 30
0.0
 11
144.147064
 21
360.781128
 31
0.0
  0
LINE
  5
3E3
330
1F
100
AcDbEntity
  8
0
 62
     7
100
AcDbLine
 10
748.147034
 20
333.850006
 30
0.0
 11
747.647034
 21
333.850006
 31
0.0
  0
LINE
  5
3E4
330
1F
100
AcDbEntity
  8
0
 62
     7
100
AcDbLine
 10
731.554077
 20
354.049988
 30
0.0
 11
674.915894
 21
354.049988
 31
0.0
  0
LINE
  5
3E5
330
1F
100
AcDbEntity
  8
0
 62
     7
100
AcDbLine
 10
731.965698
 20
354.75
 30
0.0
 11
675.143677
 21
354.75
 31
0.0
  0
LINE
  5
3E6
330
1F
100
AcDbEntity
  8
0
 62
     7
100
AcDbLine
 10
672.338806
 20
354.049988
 30
0.0
 11
669.955261
 21
354.049988
 31
0.0
  0
LINE
  5
3E7
330
1F
100
AcDbEntity
  8
0
 62
     7
100
AcDbLine
 10
674.136902
 20
354.75
 30
0.0
 11
672.041443
 21
354.75
 31
0.0
  0
ARC
  5
3E8
330
1F
100
AcDbEntity
  8
0
 62
     7
100
AcDbCircle
 10
671.147034
 20
356.650024
 30
0.0
 40
2.099999904632568
100
AcDbArc
 50
237.479124
 51
295.208757
  0
LINE
  5
3E9
330
1F
100
AcDbEntity
  8
0
 62
     7
100
AcDbLine
 10
670.252625
 20
354.75
 30
0.0
 11
668.157166
 21
354.75
 31
0.0
  0
LINE
  5
3EA
330
1F
100
AcDbEntity
  8
0
 62
     7
100
AcDbLine
 10
522.338806
 20
354.049988
 30
0.0
 11
519.955322
 21
354.049988
 31
0.0
  0
LINE
  5
3EB
330
1F
100
AcDbEntity
  8
0
 62
     7
100
AcDbLine
 10
524.136963
 20
354.75
 30
0.0
 11
522.041504
 21
354.75
 31
0.0
  0
ARC
  5
3EC
330
1F
100
AcDbEntity
  8
0
 62
     7
100
AcDbCircle
 10
521.147034
 20
356.650024
 30
0.0
 40
2.099999904632568
100
AcDbArc
 50
237.479124
 51
295.208757
  0
LINE
  5
3ED
330
1F
100
AcDbEntity
  8
0
 62
     7
100
AcDbLine
 10
520.252625
 20
354.75
 30
0.0
 11
518.157166
 21
354.75
 31
0.0
  0
LINE
  5
3EE
330
1F
100
AcDbEntity
  8
0
 62
     7
100
AcDbLine
 10
222.338806
 20
354.049988
 30
0.0
 11
219.955322
 21
354.049988
 31
0.0
  0
LINE
  5
3EF
330
1F
100
AcDbEntity
  8
0
 62
     7
100
AcDbLine
 10
220.252625
 20
354.75
 30
0.0
 11
218.157166
 21
354.75
 31
0.0
  0
LINE
  5
3F0
330
1F
100
AcDbEntity
  8
0
 62
     7
100
AcDbLine
 10
224.136963
 20
354.75
 30
0.0
 11
222.041473
 21
354.75
 31
0.0
  0
ARC
  5
3F1
330
1F
100
AcDbEntity
  8
0
 62
     7
100
AcDbCircle
 10
221.147064
 20
356.650024
 30
0.0
 40
2.099999904632568
100
AcDbArc
 50
237.479124
 51
295.208757
  0
LINE
  5
3F2
330
1F
100
AcDbEntity
  8
0
 62
     7
100
AcDbLine
 10
217.150391
 20
354.75
 30
0.0
 11
160.328369
 21
354.75
 31
0.0
  0
LINE
  5
3F3
330
1F
100
AcDbEntity
  8
0
 62
     7
100
AcDbLine
 10
217.378204
 20
354.049988
 30
0.0
 11
160.740021
 21
354.049988
 31
0.0
  0
LINE
  5
3F4
330
1F
100
AcDbEntity
  8
0
 62
     7
100
AcDbLine
 10
144.147064
 20
333.850006
 30
0.0
 11
144.647064
 21
333.850006
 31
0.0
  0
LINE
  5
3F5
330
1F
100
AcDbEntity
  8
0
 62
     7
100
AcDbLine
 10
668.834534
 20
333.680359
 30
0.0
 11
670.134521
 21
337.180359
 31
0.0
  0
ARC
  5
3F6
330
1F
100
AcDbEntity
  8
0
 62
     7
100
AcDbCircle
 10
668.647034
 20
333.75
 30
0.0
 40
0.2000000029802322
100
AcDbArc
 50
200.37643
 51
339.623562
  0
LINE
  5
3F7
330
1F
100
AcDbEntity
  8
0
 62
     7
100
AcDbLine
 10
667.159546
 20
337.180359
 30
0.0
 11
668.459534
 21
333.680359
 31
0.0
  0
ARC
  5
3F8
330
1F
100
AcDbEntity
  8
0
 62
     7
100
AcDbCircle
 10
667.347046
 20
337.25
 30
0.0
 40
0.2000000029802322
100
AcDbArc
 50
90.000003
 51
200.37643
  0
LINE
  5
3F9
330
1F
100
AcDbEntity
  8
0
 62
     7
100
AcDbLine
 10
669.947021
 20
337.450012
 30
0.0
 11
667.347046
 21
337.450012
 31
0.0
  0
ARC
  5
3FA
330
1F
100
AcDbEntity
  8
0
 62
     7
100
AcDbCircle
 10
669.947021
 20
337.25
 30
0.0
 40
0.2000000029802322
100
AcDbArc
 50
339.623562
 51
90.000003
  0
LINE
  5
3FB
330
1F
100
AcDbEntity
  8
0
 62
     7
100
AcDbLine
 10
198.834534
 20
333.680359
 30
0.0
 11
200.134552
 21
337.180359
 31
0.0
  0
ARC
  5
3FC
330
1F
100
AcDbEntity
  8
0
 62
     7
100
AcDbCircle
 10
198.647064
 20
333.75
 30
0.0
 40
0.2000000029802322
100
AcDbArc
 50
200.37643
 51
339.623562
  0
LINE
  5
3FD
330
1F
100
AcDbEntity
  8
0
 62
     7
100
AcDbLine
 10
197.159576
 20
337.180359
 30
0.0
 11
198.459564
 21
333.680359
 31
0.0
  0
ARC
  5
3FE
330
1F
100
AcDbEntity
  8
0
 62
     7
100
AcDbCircle
 10
197.347046
 20
337.25
 30
0.0
 40
0.2000000029802322
100
AcDbArc
 50
90.000003
 51
200.37643
  0
LINE
  5
3FF
330
1F
100
AcDbEntity
  8
0
 62
     7
100
AcDbLine
 10
199.947052
 20
337.450012
 30
0.0
 11
197.347046
 21
337.450012
 31
0.0
  0
ARC
  5
400
330
1F
100
AcDbEntity
  8
0
 62
     7
100
AcDbCircle
 10
199.947052
 20
337.25
 30
0.0
 40
0.2000000029802322
100
AcDbArc
 50
339.623562
 51
90.000003
  0
LINE
  5
401
330
1F
100
AcDbEntity
  8
0
 62
     7
100
AcDbLine
 10
749.147034
 20
332.149994
 30
0.0
 11
748.147034
 21
332.149994
 31
0.0
  0
LINE
  5
402
330
1F
100
AcDbEntity
  8
0
 62
     7
100
AcDbLine
 10
747.647034
 20
332.350006
 30
0.0
 11
748.147034
 21
332.350006
 31
0.0
  0
LINE
  5
403
330
1F
100
AcDbEntity
  8
0
 62
     7
100
AcDbLine
 10
672.041443
 20
354.75
 30
0.0
 11
672.153809
 21
354.807068
 31
0.0
  0
ARC
  5
404
330
1F
100
AcDbEntity
  8
0
 62
     7
100
AcDbCircle
 10
671.147034
 20
356.650024
 30
0.0
 40
2.099999904632568
100
AcDbArc
 50
298.647887
 51
314.415304
  0
LINE
  5
405
330
1F
100
AcDbEntity
  8
0
 62
     7
100
AcDbLine
 10
669.677368
 20
355.150024
 30
0.0
 11
668.147034
 21
355.150024
 31
0.0
  0
ARC
  5
406
330
1F
100
AcDbEntity
  8
0
 62
     7
100
AcDbCircle
 10
671.147034
 20
356.650024
 30
0.0
 40
2.099999904632568
100
AcDbArc
 50
314.415304
 51
237.479124
  0
LINE
  5
407
330
1F
100
AcDbEntity
  8
0
 62
     7
100
AcDbLine
 10
674.147034
 20
355.150024
 30
0.0
 11
672.616699
 21
355.150024
 31
0.0
  0
LINE
  5
408
330
1F
100
AcDbEntity
  8
0
 62
     7
100
AcDbLine
 10
674.147034
 20
359.974274
 30
0.0
 11
668.147034
 21
359.974274
 31
0.0
  0
LINE
  5
409
330
1F
100
AcDbEntity
  8
0
 62
     7
100
AcDbLine
 10
667.150391
 20
354.75
 30
0.0
 11
525.143738
 21
354.75
 31
0.0
  0
LINE
  5
40A
330
1F
100
AcDbEntity
  8
0
 62
     7
100
AcDbLine
 10
667.378174
 20
354.049988
 30
0.0
 11
524.915894
 21
354.049988
 31
0.0
  0
LINE
  5
40B
330
1F
100
AcDbEntity
  8
0
 62
     7
100
AcDbLine
 10
667.147034
 20
355.150024
 30
0.0
 11
525.147034
 21
355.150024
 31
0.0
  0
LINE
  5
40C
330
1F
100
AcDbEntity
  8
0
 62
     7
100
AcDbLine
 10
667.147034
 20
359.974274
 30
0.0
 11
525.147034
 21
359.974274
 31
0.0
  0
LINE
  5
40D
330
1F
100
AcDbEntity
  8
0
 62
     7
100
AcDbLine
 10
522.041504
 20
354.75
 30
0.0
 11
522.15387
 21
354.807068
 31
0.0
  0
ARC
  5
40E
330
1F
100
AcDbEntity
  8
0
 62
     7
100
AcDbCircle
 10
521.147034
 20
356.650024
 30
0.0
 40
2.099999904632568
100
AcDbArc
 50
298.647887
 51
314.415304
  0
ARC
  5
40F
330
1F
100
AcDbEntity
  8
0
 62
     7
100
AcDbCircle
 10
521.147034
 20
356.650024
 30
0.0
 40
2.099999904632568
100
AcDbArc
 50
314.415304
 51
237.479124
  0
LINE
  5
410
330
1F
100
AcDbEntity
  8
0
 62
     7
100
AcDbLine
 10
524.147034
 20
355.150024
 30
0.0
 11
522.61676
 21
355.150024
 31
0.0
  0
LINE
  5
411
330
1F
100
AcDbEntity
  8
0
 62
     7
100
AcDbLine
 10
524.147034
 20
359.974274
 30
0.0
 11
518.147034
 21
359.974274
 31
0.0
  0
LINE
  5
412
330
1F
100
AcDbEntity
  8
0
 62
     7
100
AcDbLine
 10
519.677368
 20
355.150024
 30
0.0
 11
518.147034
 21
355.150024
 31
0.0
  0
LINE
  5
413
330
1F
100
AcDbEntity
  8
0
 62
     7
100
AcDbLine
 10
517.150391
 20
354.75
 30
0.0
 11
225.143707
 21
354.75
 31
0.0
  0
LINE
  5
414
330
1F
100
AcDbEntity
  8
0
 62
     7
100
AcDbLine
 10
517.378174
 20
354.049988
 30
0.0
 11
224.915924
 21
354.049988
 31
0.0
  0
LINE
  5
415
330
1F
100
AcDbEntity
  8
0
 62
     7
100
AcDbLine
 10
517.147034
 20
355.150024
 30
0.0
 11
225.147064
 21
355.150024
 31
0.0
  0
LINE
  5
416
330
1F
100
AcDbEntity
  8
0
 62
     7
100
AcDbLine
 10
517.147034
 20
359.974274
 30
0.0
 11
225.147064
 21
359.974274
 31
0.0
  0
LINE
  5
417
330
1F
100
AcDbEntity
  8
0
 62
     7
100
AcDbLine
 10
222.041473
 20
354.75
 30
0.0
 11
222.153839
 21
354.807068
 31
0.0
  0
ARC
  5
418
330
1F
100
AcDbEntity
  8
0
 62
     7
100
AcDbCircle
 10
221.147064
 20
356.650024
 30
0.0
 40
2.099999904632568
100
AcDbArc
 50
298.647887
 51
314.415304
  0
LINE
  5
419
330
1F
100
AcDbEntity
  8
0
 62
     7
100
AcDbLine
 10
224.147064
 20
359.974274
 30
0.0
 11
218.147064
 21
359.974274
 31
0.0
  0
LINE
  5
41A
330
1F
100
AcDbEntity
  8
0
 62
     7
100
AcDbLine
 10
219.677368
 20
355.150024
 30
0.0
 11
218.147064
 21
355.150024
 31
0.0
  0
ARC
  5
41B
330
1F
100
AcDbEntity
  8
0
 62
     7
100
AcDbCircle
 10
221.147064
 20
356.650024
 30
0.0
 40
2.099999904632568
100
AcDbArc
 50
314.415304
 51
237.479124
  0
LINE
  5
41C
330
1F
100
AcDbEntity
  8
0
 62
     7
100
AcDbLine
 10
224.147064
 20
355.150024
 30
0.0
 11
222.61676
 21
355.150024
 31
0.0
  0
LINE
  5
41D
330
1F
100
AcDbEntity
  8
0
 62
     7
100
AcDbLine
 10
143.147064
 20
332.150024
 30
0.0
 11
144.147064
 21
332.150024
 31
0.0
  0
LINE
  5
41E
330
1F
100
AcDbEntity
  8
0
 62
     7
100
AcDbLine
 10
144.147064
 20
332.350006
 30
0.0
 11
144.647064
 21
332.350006
 31
0.0
  0
CIRCLE
  5
41F
330
1F
100
AcDbEntity
  8
0
 62
     7
100
AcDbCircle
 10
738.647034
 20
350.350006
 30
0.0
 40
4.5
  0
CIRCLE
  5
420
330
1F
100
AcDbEntity
  8
0
 62
     7
100
AcDbCircle
 10
153.647064
 20
350.350006
 30
0.0
 40
4.5
  0
ARC
  5
421
330
1F
100
AcDbEntity
  8
0
 62
     7
100
AcDbCircle
 10
749.147034
 20
333.149994
 30
0.0
 40
1.0
100
AcDbArc
 50
269.999997
 51
360.0
  0
LINE
  5
422
330
1F
100
AcDbEntity
  8
0
 62
     7
100
AcDbLine
 10
750.147034
 20
359.535797
 30
0.0
 11
750.147034
 21
333.149994
 31
0.0
  0
LINE
  5
423
330
1F
100
AcDbEntity
  8
0
 62
     7
100
AcDbLine
 10
750.147034
 20
360.231415
 30
0.0
 11
750.147034
 21
359.535797
 31
0.0
  0
LINE
  5
424
330
1F
100
AcDbEntity
  8
0
 62
     7
100
AcDbLine
 10
142.147064
 20
359.535797
 30
0.0
 11
142.147064
 21
360.231415
 31
0.0
  0
LINE
  5
425
330
1F
100
AcDbEntity
  8
0
 62
     7
100
AcDbLine
 10
142.147064
 20
333.150024
 30
0.0
 11
142.147064
 21
359.535797
 31
0.0
  0
ARC
  5
426
330
1F
100
AcDbEntity
  8
0
 62
     7
100
AcDbCircle
 10
143.147064
 20
333.150024
 30
0.0
 40
1.0
100
AcDbArc
 50
180.000009
 51
269.999997
  0
LINE
  5
427
330
1F
100
AcDbEntity
  8
0
 62
     7
100
AcDbLine
 10
749.147034
 20
363.150024
 30
0.0
 11
748.147034
 21
363.150024
 31
0.0
  0
LINE
  5
428
330
1F
100
AcDbEntity
  8
0
 62
     7
100
AcDbLine
 10
143.147064
 20
363.150024
 30
0.0
 11
144.147064
 21
363.150024
 31
0.0
  0
LINE
  5
429
330
1F
100
AcDbEntity
  8
0
 62
     7
100
AcDbLine
 10
750.147034
 20
360.805939
 30
0.0
 11
750.147034
 21
360.231415
 31
0.0
  0
LINE
  5
42A
330
1F
100
AcDbEntity
  8
0
 62
     7
100
AcDbLine
 10
750.147034
 20
362.150024
 30
0.0
 11
750.147034
 21
360.805939
 31
0.0
  0
LINE
  5
42B
330
1F
100
AcDbEntity
  8
0
 62
     7
100
AcDbLine
 10
142.147064
 20
360.231415
 30
0.0
 11
142.147064
 21
360.805939
 31
0.0
  0
LINE
  5
42C
330
1F
100
AcDbEntity
  8
0
 62
     7
100
AcDbLine
 10
142.147064
 20
360.805939
 30
0.0
 11
142.147064
 21
362.150024
 31
0.0
  0
ARC
  5
42D
330
1F
100
AcDbEntity
  8
0
 62
     7
100
AcDbCircle
 10
738.647034
 20
351.049988
 30
0.0
 40
12.80000019073486
100
AcDbArc
 50
73.932611
 51
106.067387
  0
ARC
  5
42E
330
1F
100
AcDbEntity
  8
0
 62
     7
100
AcDbCircle
 10
153.647064
 20
351.049988
 30
0.0
 40
12.80000019073486
100
AcDbArc
 50
73.932611
 51
106.067387
  0
ARC
  5
42F
330
1F
100
AcDbEntity
  8
0
 62
     7
100
AcDbCircle
 10
749.147034
 20
362.150024
 30
0.0
 40
1.0
100
AcDbArc
 50
0.0
 51
90.000003
  0
ARC
  5
430
330
1F
100
AcDbEntity
  8
0
 62
     7
100
AcDbCircle
 10
143.147064
 20
362.150024
 30
0.0
 40
1.0
100
AcDbArc
 50
90.000003
 51
180.000009
  0
CIRCLE
  5
431
330
1F
100
AcDbEntity
  8
0
 62
     7
100
AcDbCircle
 10
671.147034
 20
356.650024
 30
0.0
 40
2.0
  0
CIRCLE
  5
432
330
1F
100
AcDbEntity
  8
0
 62
     7
100
AcDbCircle
 10
521.147034
 20
356.650024
 30
0.0
 40
2.0
  0
CIRCLE
  5
433
330
1F
100
AcDbEntity
  8
0
 62
     7
100
AcDbCircle
 10
221.147064
 20
356.650024
 30
0.0
 40
2.0
  0
LINE
  5
434
330
1F
100
AcDbEntity
  8
0
 62
     7
100
AcDbLine
 10
671.347046
 20
357.350006
 30
0.0
 11
671.347046
 21
357.850006
 31
0.0
  0
LINE
  5
435
330
1F
100
AcDbEntity
  8
0
 62
     7
100
AcDbLine
 10
671.347046
 20
357.850006
 30
0.0
 11
670.947021
 21
357.850006
 31
0.0
  0
LINE
  5
436
330
1F
100
AcDbEntity
  8
0
 62
     7
100
AcDbLine
 10
670.947021
 20
357.850006
 30
0.0
 11
670.947021
 21
357.350006
 31
0.0
  0
ARC
  5
437
330
1F
100
AcDbEntity
  8
0
 62
     7
100
AcDbCircle
 10
670.447021
 20
357.350006
 30
0.0
 40
0.5
100
AcDbArc
 50
269.999997
 51
360.0
  0
LINE
  5
438
330
1F
100
AcDbEntity
  8
0
 62
     7
100
AcDbLine
 10
670.447021
 20
356.850006
 30
0.0
 11
669.947021
 21
356.850006
 31
0.0
  0
LINE
  5
439
330
1F
100
AcDbEntity
  8
0
 62
     7
100
AcDbLine
 10
669.947021
 20
356.850006
 30
0.0
 11
669.947021
 21
356.450012
 31
0.0
  0
LINE
  5
43A
330
1F
100
AcDbEntity
  8
0
 62
     7
100
AcDbLine
 10
669.947021
 20
356.450012
 30
0.0
 11
670.447021
 21
356.450012
 31
0.0
  0
ARC
  5
43B
330
1F
100
AcDbEntity
  8
0
 62
     7
100
AcDbCircle
 10
670.447021
 20
355.950012
 30
0.0
 40
0.5
100
AcDbArc
 50
0.0
 51
90.000003
  0
LINE
  5
43C
330
1F
100
AcDbEntity
  8
0
 62
     7
100
AcDbLine
 10
670.947021
 20
355.950012
 30
0.0
 11
670.947021
 21
355.450012
 31
0.0
  0
LINE
  5
43D
330
1F
100
AcDbEntity
  8
0
 62
     7
100
AcDbLine
 10
670.947021
 20
355.450012
 30
0.0
 11
671.347046
 21
355.450012
 31
0.0
  0
LINE
  5
43E
330
1F
100
AcDbEntity
  8
0
 62
     7
100
AcDbLine
 10
671.347046
 20
355.450012
 30
0.0
 11
671.347046
 21
355.950012
 31
0.0
  0
ARC
  5
43F
330
1F
100
AcDbEntity
  8
0
 62
     7
100
AcDbCircle
 10
671.847046
 20
355.950012
 30
0.0
 40
0.5
100
AcDbArc
 50
90.000003
 51
180.000009
  0
LINE
  5
440
330
1F
100
AcDbEntity
  8
0
 62
     7
100
AcDbLine
 10
671.847046
 20
356.450012
 30
0.0
 11
672.347046
 21
356.450012
 31
0.0
  0
LINE
  5
441
330
1F
100
AcDbEntity
  8
0
 62
     7
100
AcDbLine
 10
672.347046
 20
356.450012
 30
0.0
 11
672.347046
 21
356.850006
 31
0.0
  0
LINE
  5
442
330
1F
100
AcDbEntity
  8
0
 62
     7
100
AcDbLine
 10
672.347046
 20
356.850006
 30
0.0
 11
671.847046
 21
356.850006
 31
0.0
  0
ARC
  5
443
330
1F
100
AcDbEntity
  8
0
 62
     7
100
AcDbCircle
 10
671.847046
 20
357.350006
 30
0.0
 40
0.5
100
AcDbArc
 50
180.000009
 51
269.999997
  0
LINE
  5
444
330
1F
100
AcDbEntity
  8
0
 62
     7
100
AcDbLine
 10
521.347046
 20
357.350006
 30
0.0
 11
521.347046
 21
357.850006
 31
0.0
  0
LINE
  5
445
330
1F
100
AcDbEntity
  8
0
 62
     7
100
AcDbLine
 10
521.347046
 20
357.850006
 30
0.0
 11
520.947021
 21
357.850006
 31
0.0
  0
LINE
  5
446
330
1F
100
AcDbEntity
  8
0
 62
     7
100
AcDbLine
 10
520.947021
 20
357.850006
 30
0.0
 11
520.947021
 21
357.350006
 31
0.0
  0
ARC
  5
447
330
1F
100
AcDbEntity
  8
0
 62
     7
100
AcDbCircle
 10
520.447021
 20
357.350006
 30
0.0
 40
0.5
100
AcDbArc
 50
269.999997
 51
360.0
  0
LINE
  5
448
330
1F
100
AcDbEntity
  8
0
 62
     7
100
AcDbLine
 10
520.447021
 20
356.850006
 30
0.0
 11
519.947021
 21
356.850006
 31
0.0
  0
LINE
  5
449
330
1F
100
AcDbEntity
  8
0
 62
     7
100
AcDbLine
 10
519.947021
 20
356.850006
 30
0.0
 11
519.947021
 21
356.450012
 31
0.0
  0
LINE
  5
44A
330
1F
100
AcDbEntity
  8
0
 62
     7
100
AcDbLine
 10
519.947021
 20
356.450012
 30
0.0
 11
520.447021
 21
356.450012
 31
0.0
  0
ARC
  5
44B
330
1F
100
AcDbEntity
  8
0
 62
     7
100
AcDbCircle
 10
520.447021
 20
355.950012
 30
0.0
 40
0.5
100
AcDbArc
 50
0.0
 51
90.000003
  0
LINE
  5
44C
330
1F
100
AcDbEntity
  8
0
 62
     7
100
AcDbLine
 10
520.947021
 20
355.950012
 30
0.0
 11
520.947021
 21
355.450012
 31
0.0
  0
LINE
  5
44D
330
1F
100
AcDbEntity
  8
0
 62
     7
100
AcDbLine
 10
520.947021
 20
355.450012
 30
0.0
 11
521.347046
 21
355.450012
 31
0.0
  0
LINE
  5
44E
330
1F
100
AcDbEntity
  8
0
 62
     7
100
AcDbLine
 10
521.347046
 20
355.450012
 30
0.0
 11
521.347046
 21
355.950012
 31
0.0
  0
ARC
  5
44F
330
1F
100
AcDbEntity
  8
0
 62
     7
100
AcDbCircle
 10
521.847046
 20
355.950012
 30
0.0
 40
0.5
100
AcDbArc
 50
90.000003
 51
180.000009
  0
LINE
  5
450
330
1F
100
AcDbEntity
  8
0
 62
     7
100
AcDbLine
 10
521.847046
 20
356.450012
 30
0.0
 11
522.347046
 21
356.450012
 31
0.0
  0
LINE
  5
451
330
1F
100
AcDbEntity
  8
0
 62
     7
100
AcDbLine
 10
522.347046
 20
356.450012
 30
0.0
 11
522.347046
 21
356.850006
 31
0.0
  0
LINE
  5
452
330
1F
100
AcDbEntity
  8
0
 62
     7
100
AcDbLine
 10
522.347046
 20
356.850006
 30
0.0
 11
521.847046
 21
356.850006
 31
0.0
  0
ARC
  5
453
330
1F
100
AcDbEntity
  8
0
 62
     7
100
AcDbCircle
 10
521.847046
 20
357.350006
 30
0.0
 40
0.5
100
AcDbArc
 50
180.000009
 51
269.999997
  0
LINE
  5
454
330
1F
100
AcDbEntity
  8
0
 62
     7
100
AcDbLine
 10
221.347046
 20
357.350006
 30
0.0
 11
221.347046
 21
357.850006
 31
0.0
  0
LINE
  5
455
330
1F
100
AcDbEntity
  8
0
 62
     7
100
AcDbLine
 10
221.347046
 20
357.850006
 30
0.0
 11
220.947052
 21
357.850006
 31
0.0
  0
LINE
  5
456
330
1F
100
AcDbEntity
  8
0
 62
     7
100
AcDbLine
 10
220.947052
 20
357.850006
 30
0.0
 11
220.947052
 21
357.350006
 31
0.0
  0
ARC
  5
457
330
1F
100
AcDbEntity
  8
0
 62
     7
100
AcDbCircle
 10
220.447052
 20
357.350006
 30
0.0
 40
0.5
100
AcDbArc
 50
269.999997
 51
360.0
  0
LINE
  5
458
330
1F
100
AcDbEntity
  8
0
 62
     7
100
AcDbLine
 10
220.447052
 20
356.850006
 30
0.0
 11
219.947052
 21
356.850006
 31
0.0
  0
LINE
  5
459
330
1F
100
AcDbEntity
  8
0
 62
     7
100
AcDbLine
 10
219.947052
 20
356.850006
 30
0.0
 11
219.947052
 21
356.450012
 31
0.0
  0
LINE
  5
45A
330
1F
100
AcDbEntity
  8
0
 62
     7
100
AcDbLine
 10
219.947052
 20
356.450012
 30
0.0
 11
220.447052
 21
356.450012
 31
0.0
  0
ARC
  5
45B
330
1F
100
AcDbEntity
  8
0
 62
     7
100
AcDbCircle
 10
220.447052
 20
355.950012
 30
0.0
 40
0.5
100
AcDbArc
 50
0.0
 51
90.000003
  0
LINE
  5
45C
330
1F
100
AcDbEntity
  8
0
 62
     7
100
AcDbLine
 10
220.947052
 20
355.950012
 30
0.0
 11
220.947052
 21
355.450012
 31
0.0
  0
LINE
  5
45D
330
1F
100
AcDbEntity
  8
0
 62
     7
100
AcDbLine
 10
220.947052
 20
355.450012
 30
0.0
 11
221.347046
 21
355.450012
 31
0.0
  0
LINE
  5
45E
330
1F
100
AcDbEntity
  8
0
 62
     7
100
AcDbLine
 10
221.347046
 20
355.450012
 30
0.0
 11
221.347046
 21
355.950012
 31
0.0
  0
ARC
  5
45F
330
1F
100
AcDbEntity
  8
0
 62
     7
100
AcDbCircle
 10
221.847046
 20
355.950012
 30
0.0
 40
0.5
100
AcDbArc
 50
90.000003
 51
180.000009
  0
LINE
  5
460
330
1F
100
AcDbEntity
  8
0
 62
     7
100
AcDbLine
 10
221.847046
 20
356.450012
 30
0.0
 11
222.347046
 21
356.450012
 31
0.0
  0
LINE
  5
461
330
1F
100
AcDbEntity
  8
0
 62
     7
100
AcDbLine
 10
222.347046
 20
356.450012
 30
0.0
 11
222.347046
 21
356.850006
 31
0.0
  0
LINE
  5
462
330
1F
100
AcDbEntity
  8
0
 62
     7
100
AcDbLine
 10
222.347046
 20
356.850006
 30
0.0
 11
221.847046
 21
356.850006
 31
0.0
  0
ARC
  5
463
330
1F
100
AcDbEntity
  8
0
 62
     7
100
AcDbCircle
 10
221.847046
 20
357.350006
 30
0.0
 40
0.5
100
AcDbArc
 50
180.000009
 51
269.999997
  0
LINE
  5
464
330
1F
100
AcDbEntity
  8
0
 62
     7
100
AcDbLine
 10
750.147034
 20
336.799988
 30
0.0
 11
750.147034
 21
339.700012
 31
0.0
  0
LINE
  5
465
330
1F
100
AcDbEntity
  8
0
 62
     7
100
AcDbLine
 10
750.147034
 20
341.0
 30
0.0
 11
750.147034
 21
343.900024
 31
0.0
  0
LINE
  5
466
330
1F
100
AcDbEntity
  8
0
 62
     7
100
AcDbLine
 10
675.147034
 20
360.549988
 30
0.0
 11
747.647034
 21
360.549988
 31
0.0
  0
LINE
  5
467
330
1F
100
AcDbEntity
  8
0
 62
     7
100
AcDbLine
 10
144.647064
 20
360.549988
 30
0.0
 11
217.147064
 21
360.549988
 31
0.0
  0
LINE
  5
468
330
1F
100
AcDbEntity
  8
0
 62
     7
100
AcDbLine
 10
668.147034
 20
360.549988
 30
0.0
 11
674.147034
 21
360.549988
 31
0.0
  0
LINE
  5
469
330
1F
100
AcDbEntity
  8
0
 62
     7
100
AcDbLine
 10
525.147034
 20
360.549988
 30
0.0
 11
667.147034
 21
360.549988
 31
0.0
  0
LINE
  5
46A
330
1F
100
AcDbEntity
  8
0
 62
     7
100
AcDbLine
 10
518.147034
 20
360.549988
 30
0.0
 11
524.147034
 21
360.549988
 31
0.0
  0
LINE
  5
46B
330
1F
100
AcDbEntity
  8
0
 62
     7
100
AcDbLine
 10
225.147064
 20
360.549988
 30
0.0
 11
517.147034
 21
360.549988
 31
0.0
  0
LINE
  5
46C
330
1F
100
AcDbEntity
  8
0
 62
     7
100
AcDbLine
 10
218.147064
 20
360.549988
 30
0.0
 11
224.147064
 21
360.549988
 31
0.0
  0
LINE
  5
46D
330
1F
100
AcDbEntity
  8
0
 62
     7
100
AcDbLine
 10
277.547058
 20
329.849884
 30
0.0
 11
277.547058
 21
330.139984
 31
0.0
  0
LINE
  5
46E
330
1F
100
AcDbEntity
  8
0
 62
     7
100
AcDbLine
 10
277.547058
 20
330.139984
 30
0.0
 11
277.347046
 21
330.343231
 31
0.0
  0
LINE
  5
46F
330
1F
100
AcDbEntity
  8
0
 62
     7
100
AcDbLine
 10
277.347046
 20
330.009216
 30
0.0
 11
277.347046
 21
330.343231
 31
0.0
  0
LINE
  5
470
330
1F
100
AcDbEntity
  8
0
 62
     7
100
AcDbLine
 10
277.347046
 20
330.343231
 30
0.0
 11
276.347046
 21
330.343231
 31
0.0
  0
LINE
  5
471
330
1F
100
AcDbEntity
  8
0
 62
     7
100
AcDbLine
 10
276.347046
 20
330.343231
 30
0.0
 11
276.347046
 21
330.399994
 31
0.0
  0
LINE
  5
472
330
1F
100
AcDbEntity
  8
0
 62
     7
100
AcDbLine
 10
275.74707
 20
330.399994
 30
0.0
 11
276.347046
 21
330.399994
 31
0.0
  0
LINE
  5
473
330
1F
100
AcDbEntity
  8
0
 62
     7
100
AcDbLine
 10
275.74707
 20
330.049927
 30
0.0
 11
275.74707
 21
330.399994
 31
0.0
  0
LINE
  5
474
330
1F
100
AcDbEntity
  8
0
 62
     7
100
AcDbLine
 10
277.347046
 20
330.343231
 30
0.0
 11
276.347046
 21
330.343231
 31
0.0
  0
LINE
  5
475
330
1F
100
AcDbEntity
  8
0
 62
     7
100
AcDbLine
 10
277.547058
 20
330.139984
 30
0.0
 11
277.347046
 21
330.343231
 31
0.0
  0
LINE
  5
476
330
1F
100
AcDbEntity
  8
0
 62
     7
100
AcDbLine
 10
275.447052
 20
330.049988
 30
0.0
 11
275.447052
 21
330.149994
 31
0.0
  0
LINE
  5
477
330
1F
100
AcDbEntity
  8
0
 62
     7
100
AcDbLine
 10
277.147064
 20
330.049988
 30
0.0
 11
275.147064
 21
330.049988
 31
0.0
  0
ARC
  5
478
330
1F
100
AcDbEntity
  8
0
 62
     7
100
AcDbCircle
 10
275.147064
 20
330.549988
 30
0.0
 40
0.5
100
AcDbArc
 50
180.000009
 51
269.999997
  0
LINE
  5
479
330
1F
100
AcDbEntity
  8
0
 62
     7
100
AcDbLine
 10
277.147064
 20
329.549988
 30
0.0
 11
277.50061
 21
329.903564
 31
0.0
  0
ARC
  5
47A
330
1F
100
AcDbEntity
  8
0
 62
     7
100
AcDbCircle
 10
277.147064
 20
329.549988
 30
0.0
 40
0.5
100
AcDbArc
 50
0.0
 51
89.999559
  0
LINE
  5
47B
330
1F
100
AcDbEntity
  8
0
 62
     7
100
AcDbLine
 10
277.647064
 20
306.450012
 30
0.0
 11
277.647064
 21
329.549988
 31
0.0
  0
ARC
  5
47C
330
1F
100
AcDbEntity
  8
0
 62
     7
100
AcDbCircle
 10
274.147064
 20
330.549988
 30
0.0
 40
0.5
100
AcDbArc
 50
0.0
 51
90.000003
  0
LINE
  5
47D
330
1F
100
AcDbEntity
  8
0
 62
     7
100
AcDbLine
 10
270.147064
 20
309.25
 30
0.0
 11
152.147064
 21
309.25
 31
0.0
  0
LINE
  5
47E
330
1F
100
AcDbEntity
  8
0
 62
     7
100
AcDbLine
 10
200.296906
 20
324.108002
 30
0.0
 11
198.834534
 21
328.045227
 31
0.0
  0
ARC
  5
47F
330
1F
100
AcDbEntity
  8
0
 62
     7
100
AcDbCircle
 10
200.109436
 20
324.038361
 30
0.0
 40
0.2000000029802322
100
AcDbArc
 50
269.999997
 51
20.376
  0
LINE
  5
480
330
1F
100
AcDbEntity
  8
0
 62
     7
100
AcDbLine
 10
197.184692
 20
323.838348
 30
0.0
 11
200.109436
 21
323.838348
 31
0.0
  0
ARC
  5
481
330
1F
100
AcDbEntity
  8
0
 62
     7
100
AcDbCircle
 10
197.184692
 20
324.038361
 30
0.0
 40
0.2000000029802322
100
AcDbArc
 50
159.624007
 51
269.999997
  0
LINE
  5
482
330
1F
100
AcDbEntity
  8
0
 62
     7
100
AcDbLine
 10
198.459564
 20
328.045227
 30
0.0
 11
196.997192
 21
324.108002
 31
0.0
  0
ARC
  5
483
330
1F
100
AcDbEntity
  8
0
 62
     7
100
AcDbCircle
 10
198.647064
 20
327.975586
 30
0.0
 40
0.2000000029802322
100
AcDbArc
 50
20.376
 51
159.624007
  0
LINE
  5
484
330
1F
100
AcDbEntity
  8
0
 62
     7
100
AcDbLine
 10
277.147064
 20
306.450012
 30
0.0
 11
277.397064
 21
306.200012
 31
0.0
  0
LINE
  5
485
330
1F
100
AcDbEntity
  8
0
 62
     7
100
AcDbLine
 10
277.397064
 20
306.200012
 30
0.0
 11
277.647064
 21
306.450012
 31
0.0
  0
LINE
  5
486
330
1F
100
AcDbEntity
  8
0
 62
     7
100
AcDbLine
 10
277.147064
 20
305.950012
 30
0.0
 11
277.397064
 21
306.200012
 31
0.0
  0
LINE
  5
487
330
1F
100
AcDbEntity
  8
0
 62
     7
100
AcDbLine
 10
255.147064
 20
331.049988
 30
0.0
 11
256.147064
 21
331.049988
 31
0.0
  0
LINE
  5
488
330
1F
100
AcDbEntity
  8
0
 62
     7
100
AcDbLine
 10
257.147064
 20
331.049988
 30
0.0
 11
256.147064
 21
331.049988
 31
0.0
  0
LINE
  5
489
330
1F
100
AcDbEntity
  8
0
 62
     7
100
AcDbLine
 10
274.147064
 20
331.049988
 30
0.0
 11
257.147064
 21
331.049988
 31
0.0
  0
LINE
  5
48A
330
1F
100
AcDbEntity
  8
0
 62
     7
100
AcDbLine
 10
145.147064
 20
306.450012
 30
0.0
 11
144.897064
 21
306.200012
 31
0.0
  0
LINE
  5
48B
330
1F
100
AcDbEntity
  8
0
 62
     7
100
AcDbLine
 10
145.147064
 20
329.549988
 30
0.0
 11
144.793518
 21
329.903564
 31
0.0
  0
ARC
  5
48C
330
1F
100
AcDbEntity
  8
0
 62
     7
100
AcDbCircle
 10
145.147064
 20
329.549988
 30
0.0
 40
0.5
100
AcDbArc
 50
90.000003
 51
179.999554
  0
LINE
  5
48D
330
1F
100
AcDbEntity
  8
0
 62
     7
100
AcDbLine
 10
144.647064
 20
329.549988
 30
0.0
 11
144.647064
 21
306.450012
 31
0.0
  0
LINE
  5
48E
330
1F
100
AcDbEntity
  8
0
 62
     7
100
AcDbLine
 10
144.647064
 20
306.450012
 30
0.0
 11
144.897064
 21
306.200012
 31
0.0
  0
LINE
  5
48F
330
1F
100
AcDbEntity
  8
0
 62
     7
100
AcDbLine
 10
152.147064
 20
305.950012
 30
0.0
 11
145.147064
 21
305.950012
 31
0.0
  0
LINE
  5
490
330
1F
100
AcDbEntity
  8
0
 62
     7
100
AcDbLine
 10
144.897064
 20
306.200012
 30
0.0
 11
145.147064
 21
305.950012
 31
0.0
  0
LINE
  5
491
330
1F
100
AcDbEntity
  8
0
 62
     7
100
AcDbLine
 10
152.647064
 20
306.450012
 30
0.0
 11
152.647064
 21
309.25
 31
0.0
  0
LINE
  5
492
330
1F
100
AcDbEntity
  8
0
 62
     7
100
AcDbLine
 10
269.647064
 20
306.450012
 30
0.0
 11
269.647064
 21
309.25
 31
0.0
  0
LINE
  5
493
330
1F
100
AcDbEntity
  8
0
 62
     7
100
AcDbLine
 10
277.147064
 20
305.950012
 30
0.0
 11
270.147064
 21
305.950012
 31
0.0
  0
LINE
  5
494
330
1F
100
AcDbEntity
  8
0
 62
     7
100
AcDbLine
 10
256.147064
 20
330.049988
 30
0.0
 11
242.147064
 21
330.049988
 31
0.0
  0
LINE
  5
495
330
1F
100
AcDbEntity
  8
0
 62
     7
100
AcDbLine
 10
241.847046
 20
328.549988
 30
0.0
 11
241.847046
 21
329.75
 31
0.0
  0
ARC
  5
496
330
1F
100
AcDbEntity
  8
0
 62
     7
100
AcDbCircle
 10
239.647064
 20
328.549988
 30
0.0
 40
2.200000047683716
100
AcDbArc
 50
180.000009
 51
360.0
  0
LINE
  5
497
330
1F
100
AcDbEntity
  8
0
 62
     7
100
AcDbLine
 10
237.447052
 20
329.75
 30
0.0
 11
237.447052
 21
328.549988
 31
0.0
  0
LINE
  5
498
330
1F
100
AcDbEntity
  8
0
 62
     7
100
AcDbLine
 10
237.147064
 20
330.049988
 30
0.0
 11
163.147064
 21
330.049988
 31
0.0
  0
LINE
  5
499
330
1F
100
AcDbEntity
  8
0
 62
     7
100
AcDbLine
 10
162.847046
 20
328.549988
 30
0.0
 11
162.847046
 21
329.75
 31
0.0
  0
ARC
  5
49A
330
1F
100
AcDbEntity
  8
0
 62
     7
100
AcDbCircle
 10
160.647064
 20
328.549988
 30
0.0
 40
2.200000047683716
100
AcDbArc
 50
180.000009
 51
360.0
  0
ARC
  5
49B
330
1F
100
AcDbEntity
  8
0
 62
     7
100
AcDbCircle
 10
164.31311
 20
328.049988
 30
0.0
 40
1.0
100
AcDbArc
 50
90.000003
 51
172.233561
  0
LINE
  5
49C
330
1F
100
AcDbEntity
  8
0
 62
     7
100
AcDbLine
 10
164.31311
 20
329.049988
 30
0.0
 11
177.647064
 21
329.049988
 31
0.0
  0
ARC
  5
49D
330
1F
100
AcDbEntity
  8
0
 62
     7
100
AcDbCircle
 10
177.647064
 20
326.049988
 30
0.0
 40
3.0
100
AcDbArc
 50
0.0
 51
90.000003
  0
LINE
  5
49E
330
1F
100
AcDbEntity
  8
0
 62
     7
100
AcDbLine
 10
180.647064
 20
313.25
 30
0.0
 11
180.647064
 21
326.049988
 31
0.0
  0
ARC
  5
49F
330
1F
100
AcDbEntity
  8
0
 62
     7
100
AcDbCircle
 10
177.647064
 20
313.25
 30
0.0
 40
3.0
100
AcDbArc
 50
269.999997
 51
360.0
  0
LINE
  5
4A0
330
1F
100
AcDbEntity
  8
0
 62
     7
100
AcDbLine
 10
177.647064
 20
310.25
 30
0.0
 11
163.647064
 21
310.25
 31
0.0
  0
ARC
  5
4A1
330
1F
100
AcDbEntity
  8
0
 62
     7
100
AcDbCircle
 10
163.647064
 20
313.25
 30
0.0
 40
3.0
100
AcDbArc
 50
180.000009
 51
269.999997
  0
LINE
  5
4A2
330
1F
100
AcDbEntity
  8
0
 62
     7
100
AcDbLine
 10
160.647064
 20
324.987701
 30
0.0
 11
160.647064
 21
313.25
 31
0.0
  0
ARC
  5
4A3
330
1F
100
AcDbEntity
  8
0
 62
     7
100
AcDbCircle
 10
161.647064
 20
324.987701
 30
0.0
 40
1.0
100
AcDbArc
 50
105.680348
 51
180.000009
  0
LINE
  5
4A4
330
1F
100
AcDbEntity
  8
0
 62
     7
100
AcDbLine
 10
158.447052
 20
329.75
 30
0.0
 11
158.447052
 21
328.549988
 31
0.0
  0
LINE
  5
4A5
330
1F
100
AcDbEntity
  8
0
 62
     7
100
AcDbLine
 10
158.147064
 20
330.049988
 30
0.0
 11
157.647064
 21
330.049988
 31
0.0
  0
LINE
  5
4A6
330
1F
100
AcDbEntity
  8
0
 62
     7
100
AcDbLine
 10
156.647064
 20
331.049988
 30
0.0
 11
148.147064
 21
331.049988
 31
0.0
  0
LINE
  5
4A7
330
1F
100
AcDbEntity
  8
0
 62
     7
100
AcDbLine
 10
147.147064
 20
330.049988
 30
0.0
 11
145.147064
 21
330.049988
 31
0.0
  0
LINE
  5
4A8
330
1F
100
AcDbEntity
  8
0
 62
     7
100
AcDbLine
 10
219.647064
 20
329.049988
 30
0.0
 11
233.647064
 21
329.049988
 31
0.0
  0
ARC
  5
4A9
330
1F
100
AcDbEntity
  8
0
 62
     7
100
AcDbCircle
 10
233.647064
 20
326.049988
 30
0.0
 40
3.0
100
AcDbArc
 50
0.0
 51
90.000003
  0
LINE
  5
4AA
330
1F
100
AcDbEntity
  8
0
 62
     7
100
AcDbLine
 10
236.647064
 20
313.25
 30
0.0
 11
236.647064
 21
326.049988
 31
0.0
  0
ARC
  5
4AB
330
1F
100
AcDbEntity
  8
0
 62
     7
100
AcDbCircle
 10
233.647064
 20
313.25
 30
0.0
 40
3.0
100
AcDbArc
 50
269.999997
 51
360.0
  0
LINE
  5
4AC
330
1F
100
AcDbEntity
  8
0
 62
     7
100
AcDbLine
 10
233.647064
 20
310.25
 30
0.0
 11
219.647064
 21
310.25
 31
0.0
  0
ARC
  5
4AD
330
1F
100
AcDbEntity
  8
0
 62
     7
100
AcDbCircle
 10
219.647064
 20
313.25
 30
0.0
 40
3.0
100
AcDbArc
 50
180.000009
 51
269.999997
  0
LINE
  5
4AE
330
1F
100
AcDbEntity
  8
0
 62
     7
100
AcDbLine
 10
216.647064
 20
326.049988
 30
0.0
 11
216.647064
 21
313.25
 31
0.0
  0
ARC
  5
4AF
330
1F
100
AcDbEntity
  8
0
 62
     7
100
AcDbCircle
 10
219.647064
 20
326.049988
 30
0.0
 40
3.0
100
AcDbArc
 50
90.000003
 51
180.000009
  0
LINE
  5
4B0
330
1F
100
AcDbEntity
  8
0
 62
     7
100
AcDbLine
 10
157.647064
 20
331.049988
 30
0.0
 11
156.647064
 21
331.049988
 31
0.0
  0
LINE
  5
4B1
330
1F
100
AcDbEntity
  8
0
 62
     7
100
AcDbLine
 10
158.647064
 20
331.049988
 30
0.0
 11
157.647064
 21
331.049988
 31
0.0
  0
LINE
  5
4B2
330
1F
100
AcDbEntity
  8
0
 62
     7
100
AcDbLine
 10
153.897064
 20
308.850006
 30
0.0
 11
153.897064
 21
309.25
 31
0.0
  0
LINE
  5
4B3
330
1F
100
AcDbEntity
  8
0
 62
     7
100
AcDbLine
 10
268.397064
 20
308.850006
 30
0.0
 11
268.397064
 21
309.25
 31
0.0
  0
LINE
  5
4B4
330
1F
100
AcDbEntity
  8
0
 62
     7
100
AcDbLine
 10
168.37027
 20
309.100006
 30
0.0
 11
168.170258
 21
309.100006
 31
0.0
  0
LINE
  5
4B5
330
1F
100
AcDbEntity
  8
0
 62
     7
100
AcDbLine
 10
165.12384
 20
309.100006
 30
0.0
 11
168.170258
 21
309.100006
 31
0.0
  0
LINE
  5
4B6
330
1F
100
AcDbEntity
  8
0
 62
     7
100
AcDbLine
 10
165.12384
 20
309.100006
 30
0.0
 11
164.923859
 21
309.100006
 31
0.0
  0
LINE
  5
4B7
330
1F
100
AcDbEntity
  8
0
 62
     7
100
AcDbLine
 10
254.12384
 20
309.100006
 30
0.0
 11
253.923859
 21
309.100006
 31
0.0
  0
LINE
  5
4B8
330
1F
100
AcDbEntity
  8
0
 62
     7
100
AcDbLine
 10
257.37027
 20
309.100006
 30
0.0
 11
257.170258
 21
309.100006
 31
0.0
  0
LINE
  5
4B9
330
1F
100
AcDbEntity
  8
0
 62
     7
100
AcDbLine
 10
254.12384
 20
309.100006
 30
0.0
 11
257.170258
 21
309.100006
 31
0.0
  0
ARC
  5
4BA
330
1F
100
AcDbEntity
  8
0
 62
     7
100
AcDbCircle
 10
257.147064
 20
330.549988
 30
0.0
 40
0.5
100
AcDbArc
 50
90.000003
 51
180.000009
  0
ARC
  5
4BB
330
1F
100
AcDbEntity
  8
0
 62
     7
100
AcDbCircle
 10
152.147064
 20
306.450012
 30
0.0
 40
0.5
100
AcDbArc
 50
269.999997
 51
360.0
  0
ARC
  5
4BC
330
1F
100
AcDbEntity
  8
0
 62
     7
100
AcDbCircle
 10
270.147064
 20
306.450012
 30
0.0
 40
0.5
100
AcDbArc
 50
180.000009
 51
269.999997
  0
ARC
  5
4BD
330
1F
100
AcDbEntity
  8
0
 62
     7
100
AcDbCircle
 10
256.147064
 20
330.549988
 30
0.0
 40
0.5
100
AcDbArc
 50
269.999997
 51
360.0
  0
LINE
  5
4BE
330
1F
100
AcDbEntity
  8
0
 62
     7
100
AcDbLine
 10
158.547058
 20
330.049988
 30
0.0
 11
158.147064
 21
330.049988
 31
0.0
  0
LINE
  5
4BF
330
1F
100
AcDbEntity
  8
0
 62
     7
100
AcDbLine
 10
158.547058
 20
330.049988
 30
0.0
 11
158.647064
 21
330.049988
 31
0.0
  0
ARC
  5
4C0
330
1F
100
AcDbEntity
  8
0
 62
     7
100
AcDbCircle
 10
242.147064
 20
329.75
 30
0.0
 40
0.300000011920929
100
AcDbArc
 50
90.000003
 51
180.000009
  0
ARC
  5
4C1
330
1F
100
AcDbEntity
  8
0
 62
     7
100
AcDbCircle
 10
237.147064
 20
329.75
 30
0.0
 40
0.300000011920929
100
AcDbArc
 50
0.0
 51
90.000003
  0
ARC
  5
4C2
330
1F
100
AcDbEntity
  8
0
 62
     7
100
AcDbCircle
 10
163.147064
 20
329.75
 30
0.0
 40
0.300000011920929
100
AcDbArc
 50
90.000003
 51
180.000009
  0
ARC
  5
4C3
330
1F
100
AcDbEntity
  8
0
 62
     7
100
AcDbCircle
 10
160.647064
 20
328.549988
 30
0.0
 40
2.700000047683716
100
AcDbArc
 50
285.680336
 51
352.233566
  0
CIRCLE
  5
4C4
330
1F
100
AcDbEntity
  8
0
 62
     7
100
AcDbCircle
 10
170.647064
 20
321.649994
 30
0.0
 40
4.5
  0
ARC
  5
4C5
330
1F
100
AcDbEntity
  8
0
 62
     7
100
AcDbCircle
 10
158.147064
 20
329.75
 30
0.0
 40
0.300000011920929
100
AcDbArc
 50
0.0
 51
90.000003
  0
ARC
  5
4C6
330
1F
100
AcDbEntity
  8
0
 62
     7
100
AcDbCircle
 10
157.647064
 20
330.549988
 30
0.0
 40
0.5
100
AcDbArc
 50
180.000009
 51
269.999997
  0
ARC
  5
4C7
330
1F
100
AcDbEntity
  8
0
 62
     7
100
AcDbCircle
 10
156.647064
 20
330.549988
 30
0.0
 40
0.5
100
AcDbArc
 50
0.0
 51
90.000003
  0
ARC
  5
4C8
330
1F
100
AcDbEntity
  8
0
 62
     7
100
AcDbCircle
 10
148.147064
 20
330.549988
 30
0.0
 40
0.5
100
AcDbArc
 50
90.000003
 51
180.000009
  0
ARC
  5
4C9
330
1F
100
AcDbEntity
  8
0
 62
     7
100
AcDbCircle
 10
147.147064
 20
330.549988
 30
0.0
 40
0.5
100
AcDbArc
 50
269.999997
 51
360.0
  0
CIRCLE
  5
4CA
330
1F
100
AcDbEntity
  8
0
 62
     7
100
AcDbCircle
 10
226.647064
 20
321.649994
 30
0.0
 40
4.5
  0
LINE
  5
4CB
330
1F
100
AcDbEntity
  8
0
 62
     7
100
AcDbLine
 10
146.847046
 20
330.049988
 30
0.0
 11
146.847046
 21
330.149994
 31
0.0
  0
LINE
  5
4CC
330
1F
100
AcDbEntity
  8
0
 62
     7
100
AcDbLine
 10
268.597046
 20
308.850006
 30
0.0
 11
269.597046
 21
308.850006
 31
0.0
  0
LINE
  5
4CD
330
1F
100
AcDbEntity
  8
0
 62
     7
100
AcDbLine
 10
268.597046
 20
308.850006
 30
0.0
 11
257.170258
 21
308.850006
 31
0.0
  0
LINE
  5
4CE
330
1F
100
AcDbEntity
  8
0
 62
     7
100
AcDbLine
 10
254.12384
 20
308.850006
 30
0.0
 11
168.170258
 21
308.850006
 31
0.0
  0
LINE
  5
4CF
330
1F
100
AcDbEntity
  8
0
 62
     7
100
AcDbLine
 10
165.12384
 20
308.850006
 30
0.0
 11
153.697052
 21
308.850006
 31
0.0
  0
LINE
  5
4D0
330
1F
100
AcDbEntity
  8
0
 62
     7
100
AcDbLine
 10
152.697052
 20
308.850006
 30
0.0
 11
153.697052
 21
308.850006
 31
0.0
  0
LINE
  5
4D1
330
1F
100
AcDbEntity
  8
0
 62
     7
100
AcDbLine
 10
268.597046
 20
306.350006
 30
0.0
 11
153.697052
 21
306.350006
 31
0.0
  0
LINE
  5
4D2
330
1F
100
AcDbEntity
  8
0
 62
     7
100
AcDbLine
 10
158.647064
 20
328.549988
 30
0.0
 11
158.647064
 21
330.549988
 31
0.0
  0
LINE
  5
4D3
330
1F
100
AcDbEntity
  8
0
 62
     7
100
AcDbLine
 10
158.647064
 20
331.049988
 30
0.0
 11
158.647064
 21
330.549988
 31
0.0
  0
LINE
  5
4D4
330
1F
100
AcDbEntity
  8
0
 62
     7
100
AcDbLine
 10
158.647064
 20
332.049988
 30
0.0
 11
158.647064
 21
331.049988
 31
0.0
  0
LINE
  5
4D5
330
1F
100
AcDbEntity
  8
0
 62
     7
100
AcDbLine
 10
255.147064
 20
330.049988
 30
0.0
 11
255.147064
 21
330.549988
 31
0.0
  0
LINE
  5
4D6
330
1F
100
AcDbEntity
  8
0
 62
     7
100
AcDbLine
 10
255.147064
 20
331.049988
 30
0.0
 11
255.147064
 21
330.549988
 31
0.0
  0
LINE
  5
4D7
330
1F
100
AcDbEntity
  8
0
 62
     7
100
AcDbLine
 10
255.147064
 20
332.049988
 30
0.0
 11
255.147064
 21
331.049988
 31
0.0
  0
ARC
  5
4D8
330
1F
100
AcDbEntity
  8
0
 62
     7
100
AcDbCircle
 10
160.647064
 20
328.549988
 30
0.0
 40
2.0
100
AcDbArc
 50
180.000009
 51
360.0
  0
LINE
  5
4D9
330
1F
100
AcDbEntity
  8
0
 62
     7
100
AcDbLine
 10
162.647064
 20
328.549988
 30
0.0
 11
162.647064
 21
330.049988
 31
0.0
  0
LINE
  5
4DA
330
1F
100
AcDbEntity
  8
0
 62
     7
100
AcDbLine
 10
163.147064
 20
330.049988
 30
0.0
 11
162.647064
 21
330.049988
 31
0.0
  0
LINE
  5
4DB
330
1F
100
AcDbEntity
  8
0
 62
     7
100
AcDbLine
 10
237.647064
 20
330.049988
 30
0.0
 11
237.147064
 21
330.049988
 31
0.0
  0
LINE
  5
4DC
330
1F
100
AcDbEntity
  8
0
 62
     7
100
AcDbLine
 10
237.647064
 20
328.549988
 30
0.0
 11
237.647064
 21
330.049988
 31
0.0
  0
ARC
  5
4DD
330
1F
100
AcDbEntity
  8
0
 62
     7
100
AcDbCircle
 10
239.647064
 20
328.549988
 30
0.0
 40
2.0
100
AcDbArc
 50
180.000009
 51
360.0
  0
LINE
  5
4DE
330
1F
100
AcDbEntity
  8
0
 62
     7
100
AcDbLine
 10
241.647064
 20
328.549988
 30
0.0
 11
241.647064
 21
330.049988
 31
0.0
  0
LINE
  5
4DF
330
1F
100
AcDbEntity
  8
0
 62
     7
100
AcDbLine
 10
242.147064
 20
330.049988
 30
0.0
 11
241.647064
 21
330.049988
 31
0.0
  0
LINE
  5
4E0
330
1F
100
AcDbEntity
  8
0
 62
     7
100
AcDbLine
 10
152.697052
 20
306.350006
 30
0.0
 11
152.697052
 21
308.850006
 31
0.0
  0
LINE
  5
4E1
330
1F
100
AcDbEntity
  8
0
 62
     7
100
AcDbLine
 10
269.597046
 20
306.350006
 30
0.0
 11
269.597046
 21
308.850006
 31
0.0
  0
LINE
  5
4E2
330
1F
100
AcDbEntity
  8
0
 62
     7
100
AcDbLine
 10
268.597046
 20
306.350006
 30
0.0
 11
269.597046
 21
306.350006
 31
0.0
  0
LINE
  5
4E3
330
1F
100
AcDbEntity
  8
0
 62
     7
100
AcDbLine
 10
152.697052
 20
306.350006
 30
0.0
 11
153.697052
 21
306.350006
 31
0.0
  0
LINE
  5
4E4
330
1F
100
AcDbEntity
  8
0
 62
     7
100
AcDbLine
 10
255.147064
 20
331.049988
 30
0.0
 11
158.647064
 21
331.049988
 31
0.0
  0
CIRCLE
  5
4E5
330
1F
100
AcDbEntity
  8
0
 62
     7
100
AcDbCircle
 10
170.647064
 20
321.649994
 30
0.0
 40
4.0
  0
CIRCLE
  5
4E6
330
1F
100
AcDbEntity
  8
0
 62
     7
100
AcDbCircle
 10
226.647064
 20
321.649994
 30
0.0
 40
4.0
  0
LINE
  5
4E7
330
1F
100
AcDbEntity
  8
0
 62
     7
100
AcDbLine
 10
146.547058
 20
330.399994
 30
0.0
 11
146.547058
 21
330.049927
 31
0.0
  0
CIRCLE
  5
4E8
330
1F
100
AcDbEntity
  8
0
 62
     7
100
AcDbCircle
 10
239.647064
 20
328.549988
 30
0.0
 40
1.475000023841858
  0
CIRCLE
  5
4E9
330
1F
100
AcDbEntity
  8
0
 62
     7
100
AcDbCircle
 10
160.647064
 20
328.549988
 30
0.0
 40
1.475000023841858
  0
LINE
  5
4EA
330
1F
100
AcDbEntity
  8
0
 62
     7
100
AcDbLine
 10
145.947052
 20
330.399994
 30
0.0
 11
145.947052
 21
330.343231
 31
0.0
  0
LINE
  5
4EB
330
1F
100
AcDbEntity
  8
0
 62
     7
100
AcDbLine
 10
144.947052
 20
330.343231
 30
0.0
 11
145.947052
 21
330.343231
 31
0.0
  0
LINE
  5
4EC
330
1F
100
AcDbEntity
  8
0
 62
     7
100
AcDbLine
 10
144.947052
 20
330.343231
 30
0.0
 11
144.947052
 21
330.009216
 31
0.0
  0
LINE
  5
4ED
330
1F
100
AcDbEntity
  8
0
 62
     7
100
AcDbLine
 10
146.547058
 20
330.399994
 30
0.0
 11
145.947052
 21
330.399994
 31
0.0
  0
LINE
  5
4EE
330
1F
100
AcDbEntity
  8
0
 62
     7
100
AcDbLine
 10
144.947052
 20
330.343231
 30
0.0
 11
145.947052
 21
330.343231
 31
0.0
  0
CIRCLE
  5
4EF
330
1F
100
AcDbEntity
  8
0
 62
     7
100
AcDbCircle
 10
170.647064
 20
321.649994
 30
0.0
 40
2.549999952316284
  0
CIRCLE
  5
4F0
330
1F
100
AcDbEntity
  8
0
 62
     7
100
AcDbCircle
 10
226.647064
 20
321.649994
 30
0.0
 40
2.549999952316284
  0
LINE
  5
4F1
330
1F
100
AcDbEntity
  8
0
 62
     7
100
AcDbLine
 10
144.74707
 20
330.139984
 30
0.0
 11
144.947052
 21
330.343231
 31
0.0
  0
LINE
  5
4F2
330
1F
100
AcDbEntity
  8
0
 62
     7
100
AcDbLine
 10
144.74707
 20
330.139984
 30
0.0
 11
144.74707
 21
329.849884
 31
0.0
  0
LINE
  5
4F3
330
1F
100
AcDbEntity
  8
0
 62
     7
100
AcDbLine
 10
239.447052
 20
329.649994
 30
0.0
 11
239.847046
 21
329.649994
 31
0.0
  0
LINE
  5
4F4
330
1F
100
AcDbEntity
  8
0
 62
     7
100
AcDbLine
 10
239.447052
 20
329.649994
 30
0.0
 11
239.447052
 21
329.0
 31
0.0
  0
ARC
  5
4F5
330
1F
100
AcDbEntity
  8
0
 62
     7
100
AcDbCircle
 10
239.197052
 20
329.0
 30
0.0
 40
0.25
100
AcDbArc
 50
269.999997
 51
360.0
  0
LINE
  5
4F6
330
1F
100
AcDbEntity
  8
0
 62
     7
100
AcDbLine
 10
239.197052
 20
328.75
 30
0.0
 11
238.547058
 21
328.75
 31
0.0
  0
LINE
  5
4F7
330
1F
100
AcDbEntity
  8
0
 62
     7
100
AcDbLine
 10
238.547058
 20
328.75
 30
0.0
 11
238.547058
 21
328.350006
 31
0.0
  0
LINE
  5
4F8
330
1F
100
AcDbEntity
  8
0
 62
     7
100
AcDbLine
 10
239.197052
 20
328.350006
 30
0.0
 11
238.547058
 21
328.350006
 31
0.0
  0
ARC
  5
4F9
330
1F
100
AcDbEntity
  8
0
 62
     7
100
AcDbCircle
 10
239.197052
 20
328.100006
 30
0.0
 40
0.25
100
AcDbArc
 50
0.0
 51
90.000003
  0
LINE
  5
4FA
330
1F
100
AcDbEntity
  8
0
 62
     7
100
AcDbLine
 10
239.447052
 20
327.450012
 30
0.0
 11
239.447052
 21
328.100006
 31
0.0
  0
LINE
  5
4FB
330
1F
100
AcDbEntity
  8
0
 62
     7
100
AcDbLine
 10
239.447052
 20
327.450012
 30
0.0
 11
239.847046
 21
327.450012
 31
0.0
  0
LINE
  5
4FC
330
1F
100
AcDbEntity
  8
0
 62
     7
100
AcDbLine
 10
239.847046
 20
327.450012
 30
0.0
 11
239.847046
 21
328.100006
 31
0.0
  0
ARC
  5
4FD
330
1F
100
AcDbEntity
  8
0
 62
     7
100
AcDbCircle
 10
240.097046
 20
328.100006
 30
0.0
 40
0.25
100
AcDbArc
 50
90.000003
 51
180.000009
  0
LINE
  5
4FE
330
1F
100
AcDbEntity
  8
0
 62
     7
100
AcDbLine
 10
240.097046
 20
328.350006
 30
0.0
 11
240.74704
 21
328.350006
 31
0.0
  0
LINE
  5
4FF
330
1F
100
AcDbEntity
  8
0
 62
     7
100
AcDbLine
 10
240.74704
 20
328.75
 30
0.0
 11
240.74704
 21
328.350006
 31
0.0
  0
LINE
  5
500
330
1F
100
AcDbEntity
  8
0
 62
     7
100
AcDbLine
 10
240.097046
 20
328.75
 30
0.0
 11
240.74704
 21
328.75
 31
0.0
  0
ARC
  5
501
330
1F
100
AcDbEntity
  8
0
 62
     7
100
AcDbCircle
 10
240.097046
 20
329.0
 30
0.0
 40
0.25
100
AcDbArc
 50
180.000009
 51
269.999997
  0
LINE
  5
502
330
1F
100
AcDbEntity
  8
0
 62
     7
100
AcDbLine
 10
239.847046
 20
329.649994
 30
0.0
 11
239.847046
 21
329.0
 31
0.0
  0
LINE
  5
503
330
1F
100
AcDbEntity
  8
0
 62
     7
100
AcDbLine
 10
160.447052
 20
329.649994
 30
0.0
 11
160.847046
 21
329.649994
 31
0.0
  0
LINE
  5
504
330
1F
100
AcDbEntity
  8
0
 62
     7
100
AcDbLine
 10
160.447052
 20
329.649994
 30
0.0
 11
160.447052
 21
329.0
 31
0.0
  0
ARC
  5
505
330
1F
100
AcDbEntity
  8
0
 62
     7
100
AcDbCircle
 10
160.197052
 20
329.0
 30
0.0
 40
0.25
100
AcDbArc
 50
269.999997
 51
360.0
  0
LINE
  5
506
330
1F
100
AcDbEntity
  8
0
 62
     7
100
AcDbLine
 10
160.197052
 20
328.75
 30
0.0
 11
159.547058
 21
328.75
 31
0.0
  0
LINE
  5
507
330
1F
100
AcDbEntity
  8
0
 62
     7
100
AcDbLine
 10
159.547058
 20
328.75
 30
0.0
 11
159.547058
 21
328.350006
 31
0.0
  0
LINE
  5
508
330
1F
100
AcDbEntity
  8
0
 62
     7
100
AcDbLine
 10
160.197052
 20
328.350006
 30
0.0
 11
159.547058
 21
328.350006
 31
0.0
  0
ARC
  5
509
330
1F
100
AcDbEntity
  8
0
 62
     7
100
AcDbCircle
 10
160.197052
 20
328.100006
 30
0.0
 40
0.25
100
AcDbArc
 50
0.0
 51
90.000003
  0
LINE
  5
50A
330
1F
100
AcDbEntity
  8
0
 62
     7
100
AcDbLine
 10
160.447052
 20
327.450012
 30
0.0
 11
160.447052
 21
328.100006
 31
0.0
  0
LINE
  5
50B
330
1F
100
AcDbEntity
  8
0
 62
     7
100
AcDbLine
 10
160.447052
 20
327.450012
 30
0.0
 11
160.847046
 21
327.450012
 31
0.0
  0
LINE
  5
50C
330
1F
100
AcDbEntity
  8
0
 62
     7
100
AcDbLine
 10
160.847046
 20
327.450012
 30
0.0
 11
160.847046
 21
328.100006
 31
0.0
  0
ARC
  5
50D
330
1F
100
AcDbEntity
  8
0
 62
     7
100
AcDbCircle
 10
161.097046
 20
328.100006
 30
0.0
 40
0.25
100
AcDbArc
 50
90.000003
 51
180.000009
  0
LINE
  5
50E
330
1F
100
AcDbEntity
  8
0
 62
     7
100
AcDbLine
 10
161.097046
 20
328.350006
 30
0.0
 11
161.74707
 21
328.350006
 31
0.0
  0
LINE
  5
50F
330
1F
100
AcDbEntity
  8
0
 62
     7
100
AcDbLine
 10
161.74707
 20
328.75
 30
0.0
 11
161.74707
 21
328.350006
 31
0.0
  0
LINE
  5
510
330
1F
100
AcDbEntity
  8
0
 62
     7
100
AcDbLine
 10
161.097046
 20
328.75
 30
0.0
 11
161.74707
 21
328.75
 31
0.0
  0
ARC
  5
511
330
1F
100
AcDbEntity
  8
0
 62
     7
100
AcDbCircle
 10
161.097046
 20
329.0
 30
0.0
 40
0.25
100
AcDbArc
 50
180.000009
 51
269.999997
  0
LINE
  5
512
330
1F
100
AcDbEntity
  8
0
 62
     7
100
AcDbLine
 10
160.847046
 20
329.649994
 30
0.0
 11
160.847046
 21
329.0
 31
0.0
  0
LINE
  5
513
330
1F
100
AcDbEntity
  8
0
 62
     7
100
AcDbLine
 10
389.047028
 20
230.149994
 30
0.0
 11
385.647034
 21
230.149994
 31
0.0
  0
LINE
  5
514
330
1F
100
AcDbEntity
  8
0
 62
     7
100
AcDbLine
 10
385.647034
 20
230.149994
 30
0.0
 11
382.24704
 21
230.149994
 31
0.0
  0
LINE
  5
515
330
1F
100
AcDbEntity
  8
0
 62
     7
100
AcDbLine
 10
306.24707
 20
318.700012
 30
0.0
 11
306.24707
 21
318.549988
 31
0.0
  0
LINE
  5
516
330
1F
100
AcDbEntity
  8
0
 62
     7
100
AcDbLine
 10
308.447052
 20
318.700012
 30
0.0
 11
308.447052
 21
318.549988
 31
0.0
  0
LINE
  5
517
330
1F
100
AcDbEntity
  8
0
 62
     7
100
AcDbLine
 10
310.647064
 20
318.700012
 30
0.0
 11
310.647064
 21
318.549988
 31
0.0
  0
LINE
  5
518
330
1F
100
AcDbEntity
  8
0
 62
     7
100
AcDbLine
 10
306.24707
 20
314.149994
 30
0.0
 11
306.24707
 21
311.014404
 31
0.0
  0
LINE
  5
519
330
1F
100
AcDbEntity
  8
0
 62
     7
100
AcDbLine
 10
306.24707
 20
311.014404
 30
0.0
 11
306.24707
 21
310.4375
 31
0.0
  0
LINE
  5
51A
330
1F
100
AcDbEntity
  8
0
 62
     7
100
AcDbLine
 10
307.24707
 20
310.5
 30
0.0
 11
307.24707
 21
311.069244
 31
0.0
  0
LINE
  5
51B
330
1F
100
AcDbEntity
  8
0
 62
     7
100
AcDbLine
 10
307.24707
 20
311.069244
 30
0.0
 11
307.24707
 21
314.149994
 31
0.0
  0
LINE
  5
51C
330
1F
100
AcDbEntity
  8
0
 62
     7
100
AcDbLine
 10
308.447052
 20
314.149994
 30
0.0
 11
308.447052
 21
311.135071
 31
0.0
  0
LINE
  5
51D
330
1F
100
AcDbEntity
  8
0
 62
     7
100
AcDbLine
 10
308.447052
 20
311.135071
 30
0.0
 11
308.447052
 21
310.575012
 31
0.0
  0
LINE
  5
51E
330
1F
100
AcDbEntity
  8
0
 62
     7
100
AcDbLine
 10
309.447052
 20
310.637512
 30
0.0
 11
309.447052
 21
311.189911
 31
0.0
  0
LINE
  5
51F
330
1F
100
AcDbEntity
  8
0
 62
     7
100
AcDbLine
 10
309.447052
 20
311.189911
 30
0.0
 11
309.447052
 21
314.149994
 31
0.0
  0
LINE
  5
520
330
1F
100
AcDbEntity
  8
0
 62
     7
100
AcDbLine
 10
310.647064
 20
314.149994
 30
0.0
 11
310.647064
 21
311.255737
 31
0.0
  0
LINE
  5
521
330
1F
100
AcDbEntity
  8
0
 62
     7
100
AcDbLine
 10
310.647064
 20
311.255737
 30
0.0
 11
310.647064
 21
310.712494
 31
0.0
  0
LINE
  5
522
330
1F
100
AcDbEntity
  8
0
 62
     7
100
AcDbLine
 10
311.647064
 20
310.774994
 30
0.0
 11
311.647064
 21
311.310577
 31
0.0
  0
LINE
  5
523
330
1F
100
AcDbEntity
  8
0
 62
     7
100
AcDbLine
 10
311.647064
 20
311.310577
 30
0.0
 11
311.647064
 21
314.149994
 31
0.0
  0
LINE
  5
524
330
1F
100
AcDbEntity
  8
0
 62
     7
100
AcDbLine
 10
313.647064
 20
311.420288
 30
0.0
 11
313.647064
 21
310.899994
 31
0.0
  0
LINE
  5
525
330
1F
100
AcDbEntity
  8
0
 62
     7
100
AcDbLine
 10
313.647064
 20
319.399994
 30
0.0
 11
313.647064
 21
311.420288
 31
0.0
  0
LINE
  5
526
330
1F
100
AcDbEntity
  8
0
 62
     7
100
AcDbLine
 10
311.647064
 20
316.149994
 30
0.0
 11
311.647064
 21
319.524994
 31
0.0
  0
LINE
  5
527
330
1F
100
AcDbEntity
  8
0
 62
     7
100
AcDbLine
 10
310.647064
 20
319.587494
 30
0.0
 11
310.647064
 21
316.149994
 31
0.0
  0
LINE
  5
528
330
1F
100
AcDbEntity
  8
0
 62
     7
100
AcDbLine
 10
309.447052
 20
316.149994
 30
0.0
 11
309.447052
 21
319.662506
 31
0.0
  0
LINE
  5
529
330
1F
100
AcDbEntity
  8
0
 62
     7
100
AcDbLine
 10
308.447052
 20
319.725006
 30
0.0
 11
308.447052
 21
316.149994
 31
0.0
  0
LINE
  5
52A
330
1F
100
AcDbEntity
  8
0
 62
     7
100
AcDbLine
 10
307.24707
 20
316.149994
 30
0.0
 11
307.24707
 21
319.799988
 31
0.0
  0
LINE
  5
52B
330
1F
100
AcDbEntity
  8
0
 62
     7
100
AcDbLine
 10
306.24707
 20
319.862488
 30
0.0
 11
306.24707
 21
316.149994
 31
0.0
  0
LINE
  5
52C
330
1F
100
AcDbEntity
  8
0
 62
     7
100
AcDbLine
 10
307.24707
 20
314.149994
 30
0.0
 11
306.24707
 21
314.149994
 31
0.0
  0
LINE
  5
52D
330
1F
100
AcDbEntity
  8
0
 62
     7
100
AcDbLine
 10
307.24707
 20
316.149994
 30
0.0
 11
306.24707
 21
316.149994
 31
0.0
  0
LINE
  5
52E
330
1F
100
AcDbEntity
  8
0
 62
     7
100
AcDbLine
 10
309.447052
 20
316.149994
 30
0.0
 11
308.447052
 21
316.149994
 31
0.0
  0
LINE
  5
52F
330
1F
100
AcDbEntity
  8
0
 62
     7
100
AcDbLine
 10
311.647064
 20
316.149994
 30
0.0
 11
310.647064
 21
316.149994
 31
0.0
  0
LINE
  5
530
330
1F
100
AcDbEntity
  8
0
 62
     7
100
AcDbLine
 10
311.647064
 20
314.149994
 30
0.0
 11
310.647064
 21
314.149994
 31
0.0
  0
LINE
  5
531
330
1F
100
AcDbEntity
  8
0
 62
     7
100
AcDbLine
 10
309.447052
 20
314.149994
 30
0.0
 11
308.447052
 21
314.149994
 31
0.0
  0
LINE
  5
532
330
1F
100
AcDbEntity
  8
0
 62
     7
100
AcDbLine
 10
301.647064
 20
320.149994
 30
0.0
 11
301.647064
 21
310.762085
 31
0.0
  0
LINE
  5
533
330
1F
100
AcDbEntity
  8
0
 62
     7
100
AcDbLine
 10
301.647064
 20
310.762085
 30
0.0
 11
301.647064
 21
310.149994
 31
0.0
  0
LINE
  5
534
330
1F
100
AcDbEntity
  8
0
 62
     7
100
AcDbLine
 10
300.647064
 20
320.450012
 30
0.0
 11
300.647064
 21
310.49881
 31
0.0
  0
LINE
  5
535
330
1F
100
AcDbEntity
  8
0
 62
     7
100
AcDbLine
 10
300.647064
 20
310.49881
 30
0.0
 11
300.647064
 21
309.850006
 31
0.0
  0
LINE
  5
536
330
1F
100
AcDbEntity
  8
0
 62
     7
100
AcDbLine
 10
295.647064
 20
317.978607
 30
0.0
 11
295.647064
 21
309.25
 31
0.0
  0
LINE
  5
537
330
1F
100
AcDbEntity
  8
0
 62
     7
100
AcDbLine
 10
295.647064
 20
321.049988
 30
0.0
 11
295.647064
 21
317.978607
 31
0.0
  0
LINE
  5
538
330
1F
100
AcDbEntity
  8
0
 62
     7
100
AcDbLine
 10
295.415894
 20
318.17038
 30
0.0
 11
295.415894
 21
317.070923
 31
0.0
  0
ARC
  5
539
330
1F
100
AcDbEntity
  8
0
 62
     7
100
AcDbCircle
 10
285.089569
 20
315.150024
 30
0.0
 40
10.50419235229492
100
AcDbArc
 50
349.462094
 51
10.537886
  0
LINE
  5
53A
330
1F
100
AcDbEntity
  8
0
 62
     7
100
AcDbLine
 10
295.415894
 20
313.229065
 30
0.0
 11
295.415894
 21
310.914307
 31
0.0
  0
ARC
  5
53B
330
1F
100
AcDbEntity
  8
0
 62
     7
100
AcDbCircle
 10
292.901459
 20
309.953857
 30
0.0
 40
2.691781044006348
100
AcDbArc
 50
339.093949
 51
20.906017
  0
LINE
  5
53C
330
1F
100
AcDbEntity
  8
0
 62
     7
100
AcDbLine
 10
295.415894
 20
308.993378
 30
0.0
 11
295.415894
 21
308.850006
 31
0.0
  0
LINE
  5
53D
330
1F
100
AcDbEntity
  8
0
 62
     7
100
AcDbLine
 10
295.415894
 20
321.450012
 30
0.0
 11
295.415894
 21
321.306641
 31
0.0
  0
ARC
  5
53E
330
1F
100
AcDbEntity
  8
0
 62
     7
100
AcDbCircle
 10
292.901459
 20
320.346161
 30
0.0
 40
2.691781044006348
100
AcDbArc
 50
339.093949
 51
20.906017
  0
LINE
  5
53F
330
1F
100
AcDbEntity
  8
0
 62
     7
100
AcDbLine
 10
295.415894
 20
318.17038
 30
0.0
 11
295.415894
 21
319.385681
 31
0.0
  0
LINE
  5
540
330
1F
100
AcDbEntity
  8
0
 62
     7
100
AcDbLine
 10
295.415894
 20
319.385681
 30
0.0
 11
288.647064
 21
319.385681
 31
0.0
  0
LINE
  5
541
330
1F
100
AcDbEntity
  8
0
 62
     7
100
AcDbLine
 10
288.647064
 20
319.385681
 30
0.0
 11
288.647064
 21
317.070923
 31
0.0
  0
LINE
  5
542
330
1F
100
AcDbEntity
  8
0
 62
     7
100
AcDbLine
 10
295.415894
 20
317.070923
 30
0.0
 11
288.647064
 21
317.070923
 31
0.0
  0
LINE
  5
543
330
1F
100
AcDbEntity
  8
0
 62
     7
100
AcDbLine
 10
288.647064
 20
313.229065
 30
0.0
 11
295.415894
 21
313.229065
 31
0.0
  0
LINE
  5
544
330
1F
100
AcDbEntity
  8
0
 62
     7
100
AcDbLine
 10
288.647064
 20
313.229065
 30
0.0
 11
288.647064
 21
310.914307
 31
0.0
  0
LINE
  5
545
330
1F
100
AcDbEntity
  8
0
 62
     7
100
AcDbLine
 10
295.415894
 20
310.914307
 30
0.0
 11
288.647064
 21
310.914307
 31
0.0
  0
LINE
  5
546
330
1F
100
AcDbEntity
  8
0
 62
     7
100
AcDbLine
 10
288.647064
 20
308.993378
 30
0.0
 11
295.415894
 21
308.993378
 31
0.0
  0
LINE
  5
547
330
1F
100
AcDbEntity
  8
0
 62
     7
100
AcDbLine
 10
288.647064
 20
308.993378
 30
0.0
 11
288.647064
 21
308.850006
 31
0.0
  0
LINE
  5
548
330
1F
100
AcDbEntity
  8
0
 62
     7
100
AcDbLine
 10
288.647064
 20
321.450012
 30
0.0
 11
288.647064
 21
321.306641
 31
0.0
  0
LINE
  5
549
330
1F
100
AcDbEntity
  8
0
 62
     7
100
AcDbLine
 10
295.415894
 20
321.306641
 30
0.0
 11
288.647064
 21
321.306641
 31
0.0
  0
LINE
  5
54A
330
1F
100
AcDbEntity
  8
0
 62
     7
100
AcDbLine
 10
288.147064
 20
319.752411
 30
0.0
 11
288.147064
 21
317.183929
 31
0.0
  0
LINE
  5
54B
330
1F
100
AcDbEntity
  8
0
 62
     7
100
AcDbLine
 10
288.647064
 20
316.780579
 30
0.0
 11
288.147064
 21
317.183929
 31
0.0
  0
LINE
  5
54C
330
1F
100
AcDbEntity
  8
0
 62
     7
100
AcDbLine
 10
288.647064
 20
316.780579
 30
0.0
 11
288.647064
 21
317.070923
 31
0.0
  0
LINE
  5
54D
330
1F
100
AcDbEntity
  8
0
 62
     7
100
AcDbLine
 10
288.647064
 20
319.385681
 30
0.0
 11
288.647064
 21
319.604767
 31
0.0
  0
LINE
  5
54E
330
1F
100
AcDbEntity
  8
0
 62
     7
100
AcDbLine
 10
288.647064
 20
319.604767
 30
0.0
 11
288.147064
 21
319.752411
 31
0.0
  0
LINE
  5
54F
330
1F
100
AcDbEntity
  8
0
 62
     7
100
AcDbLine
 10
288.647064
 20
313.51944
 30
0.0
 11
288.647064
 21
316.780579
 31
0.0
  0
LINE
  5
550
330
1F
100
AcDbEntity
  8
0
 62
     7
100
AcDbLine
 10
288.647064
 20
313.229065
 30
0.0
 11
288.647064
 21
313.51944
 31
0.0
  0
LINE
  5
551
330
1F
100
AcDbEntity
  8
0
 62
     7
100
AcDbLine
 10
288.647064
 20
313.51944
 30
0.0
 11
288.147064
 21
313.116089
 31
0.0
  0
LINE
  5
552
330
1F
100
AcDbEntity
  8
0
 62
     7
100
AcDbLine
 10
288.147064
 20
313.116089
 30
0.0
 11
288.147064
 21
310.547607
 31
0.0
  0
LINE
  5
553
330
1F
100
AcDbEntity
  8
0
 62
     7
100
AcDbLine
 10
288.647064
 20
310.695221
 30
0.0
 11
288.147064
 21
310.547607
 31
0.0
  0
LINE
  5
554
330
1F
100
AcDbEntity
  8
0
 62
     7
100
AcDbLine
 10
288.647064
 20
310.695221
 30
0.0
 11
288.647064
 21
310.914307
 31
0.0
  0
LINE
  5
555
330
1F
100
AcDbEntity
  8
0
 62
     7
100
AcDbLine
 10
288.647064
 20
309.064667
 30
0.0
 11
288.647064
 21
310.695221
 31
0.0
  0
LINE
  5
556
330
1F
100
AcDbEntity
  8
0
 62
     7
100
AcDbLine
 10
288.647064
 20
308.993378
 30
0.0
 11
288.647064
 21
309.064667
 31
0.0
  0
ARC
  5
557
330
1F
100
AcDbEntity
  8
0
 62
     7
100
AcDbCircle
 10
240.336304
 20
352.4039
 30
0.0
 40
64.901611328125
100
AcDbArc
 50
317.448096
 51
318.104941
  0
LINE
  5
558
330
1F
100
AcDbEntity
  8
0
 62
     7
100
AcDbLine
 10
288.147064
 20
308.513672
 30
0.0
 11
288.147064
 21
308.350006
 31
0.0
  0
LINE
  5
559
330
1F
100
AcDbEntity
  8
0
 62
     7
100
AcDbLine
 10
288.647064
 20
321.235352
 30
0.0
 11
288.647064
 21
321.306641
 31
0.0
  0
LINE
  5
55A
330
1F
100
AcDbEntity
  8
0
 62
     7
100
AcDbLine
 10
288.147064
 20
321.950012
 30
0.0
 11
288.147064
 21
321.786346
 31
0.0
  0
ARC
  5
55B
330
1F
100
AcDbEntity
  8
0
 62
     7
100
AcDbCircle
 10
240.336304
 20
277.896118
 30
0.0
 40
64.901611328125
100
AcDbArc
 50
41.895052
 51
42.551911
  0
LINE
  5
55C
330
1F
100
AcDbEntity
  8
0
 62
     7
100
AcDbLine
 10
288.647064
 20
319.604767
 30
0.0
 11
288.647064
 21
321.235352
 31
0.0
  0
LINE
  5
55D
330
1F
100
AcDbEntity
  8
0
 62
     7
100
AcDbLine
 10
279.147064
 20
319.752411
 30
0.0
 11
279.147064
 21
317.183929
 31
0.0
  0
LINE
  5
55E
330
1F
100
AcDbEntity
  8
0
 62
     7
100
AcDbLine
 10
288.147064
 20
317.183929
 30
0.0
 11
279.147064
 21
317.183929
 31
0.0
  0
LINE
  5
55F
330
1F
100
AcDbEntity
  8
0
 62
     7
100
AcDbLine
 10
288.147064
 20
319.752411
 30
0.0
 11
279.147064
 21
319.752411
 31
0.0
  0
LINE
  5
560
330
1F
100
AcDbEntity
  8
0
 62
     7
100
AcDbLine
 10
278.647064
 20
316.780579
 30
0.0
 11
279.147064
 21
317.183929
 31
0.0
  0
LINE
  5
561
330
1F
100
AcDbEntity
  8
0
 62
     7
100
AcDbLine
 10
288.647064
 20
316.780579
 30
0.0
 11
278.647064
 21
316.780579
 31
0.0
  0
LINE
  5
562
330
1F
100
AcDbEntity
  8
0
 62
     7
100
AcDbLine
 10
278.647064
 20
319.604767
 30
0.0
 11
279.147064
 21
319.752411
 31
0.0
  0
LINE
  5
563
330
1F
100
AcDbEntity
  8
0
 62
     7
100
AcDbLine
 10
288.647064
 20
321.235352
 30
0.0
 11
278.647064
 21
321.235352
 31
0.0
  0
LINE
  5
564
330
1F
100
AcDbEntity
  8
0
 62
     7
100
AcDbLine
 10
278.647064
 20
321.450012
 30
0.0
 11
278.647064
 21
321.235352
 31
0.0
  0
LINE
  5
565
330
1F
100
AcDbEntity
  8
0
 62
     7
100
AcDbLine
 10
278.647064
 20
309.064667
 30
0.0
 11
278.647064
 21
308.850006
 31
0.0
  0
LINE
  5
566
330
1F
100
AcDbEntity
  8
0
 62
     7
100
AcDbLine
 10
288.647064
 20
309.064667
 30
0.0
 11
278.647064
 21
309.064667
 31
0.0
  0
LINE
  5
567
330
1F
100
AcDbEntity
  8
0
 62
     7
100
AcDbLine
 10
278.647064
 20
313.51944
 30
0.0
 11
278.647064
 21
310.695221
 31
0.0
  0
LINE
  5
568
330
1F
100
AcDbEntity
  8
0
 62
     7
100
AcDbLine
 10
288.647064
 20
313.51944
 30
0.0
 11
278.647064
 21
313.51944
 31
0.0
  0
LINE
  5
569
330
1F
100
AcDbEntity
  8
0
 62
     7
100
AcDbLine
 10
278.647064
 20
319.604767
 30
0.0
 11
278.647064
 21
316.780579
 31
0.0
  0
LINE
  5
56A
330
1F
100
AcDbEntity
  8
0
 62
     7
100
AcDbLine
 10
278.647064
 20
313.51944
 30
0.0
 11
279.147064
 21
313.116089
 31
0.0
  0
LINE
  5
56B
330
1F
100
AcDbEntity
  8
0
 62
     7
100
AcDbLine
 10
288.147064
 20
313.116089
 30
0.0
 11
279.147064
 21
313.116089
 31
0.0
  0
LINE
  5
56C
330
1F
100
AcDbEntity
  8
0
 62
     7
100
AcDbLine
 10
279.147064
 20
313.116089
 30
0.0
 11
279.147064
 21
310.547607
 31
0.0
  0
LINE
  5
56D
330
1F
100
AcDbEntity
  8
0
 62
     7
100
AcDbLine
 10
288.147064
 20
310.547607
 30
0.0
 11
279.147064
 21
310.547607
 31
0.0
  0
LINE
  5
56E
330
1F
100
AcDbEntity
  8
0
 62
     7
100
AcDbLine
 10
278.647064
 20
310.695221
 30
0.0
 11
279.147064
 21
310.547607
 31
0.0
  0
ARC
  5
56F
330
1F
100
AcDbEntity
  8
0
 62
     7
100
AcDbCircle
 10
326.957794
 20
352.4039
 30
0.0
 40
64.901611328125
100
AcDbArc
 50
221.89505
 51
222.55191
  0
LINE
  5
570
330
1F
100
AcDbEntity
  8
0
 62
     7
100
AcDbLine
 10
288.147064
 20
308.513672
 30
0.0
 11
279.147064
 21
308.513672
 31
0.0
  0
LINE
  5
571
330
1F
100
AcDbEntity
  8
0
 62
     7
100
AcDbLine
 10
279.147064
 20
308.513672
 30
0.0
 11
279.147064
 21
308.350006
 31
0.0
  0
LINE
  5
572
330
1F
100
AcDbEntity
  8
0
 62
     7
100
AcDbLine
 10
279.147064
 20
321.950012
 30
0.0
 11
279.147064
 21
321.786346
 31
0.0
  0
LINE
  5
573
330
1F
100
AcDbEntity
  8
0
 62
     7
100
AcDbLine
 10
288.147064
 20
321.786346
 30
0.0
 11
279.147064
 21
321.786346
 31
0.0
  0
ARC
  5
574
330
1F
100
AcDbEntity
  8
0
 62
     7
100
AcDbCircle
 10
326.957794
 20
277.896118
 30
0.0
 40
64.901611328125
100
AcDbArc
 50
137.44809
 51
138.10495
  0
LINE
  5
575
330
1F
100
AcDbEntity
  8
0
 62
     7
100
AcDbLine
 10
275.447052
 20
330.149994
 30
0.0
 11
275.74707
 21
330.149994
 31
0.0
  0
LINE
  5
576
330
1F
100
AcDbEntity
  8
0
 62
     7
100
AcDbLine
 10
168.283661
 20
309.25
 30
0.0
 11
168.37027
 21
309.100006
 31
0.0
  0
LINE
  5
577
330
1F
100
AcDbEntity
  8
0
 62
     7
100
AcDbLine
 10
165.010468
 20
309.25
 30
0.0
 11
164.923859
 21
309.100006
 31
0.0
  0
LINE
  5
578
330
1F
100
AcDbEntity
  8
0
 62
     7
100
AcDbLine
 10
254.010437
 20
309.25
 30
0.0
 11
253.923859
 21
309.100006
 31
0.0
  0
LINE
  5
579
330
1F
100
AcDbEntity
  8
0
 62
     7
100
AcDbLine
 10
257.283661
 20
309.25
 30
0.0
 11
257.37027
 21
309.100006
 31
0.0
  0
LINE
  5
57A
330
1F
100
AcDbEntity
  8
0
 62
     7
100
AcDbLine
 10
257.095825
 20
329.575623
 30
0.0
 11
257.121429
 21
329.601257
 31
0.0
  0
POLYLINE
  5
57B
330
1F
100
AcDbEntity
  8
0
 62
     7
100
AcDb2dPolyline
 66
     1
 10
0.0
 20
0.0
 30
0.0
  0
VERTEX
  5
57C
330
57B
100
AcDbEntity
  8
0
100
AcDbVertex
100
AcDb2dVertex
 10
242.333893
 20
329.582916
 30
0.0
  0
VERTEX
  5
57D
330
57B
100
AcDbEntity
  8
0
100
AcDbVertex
100
AcDb2dVertex
 10
242.337097
 20
329.573151
 30
0.0
  0
VERTEX
  5
57E
330
57B
100
AcDbEntity
  8
0
100
AcDbVertex
100
AcDb2dVertex
 10
242.344208
 20
329.557007
 30
0.0
  0
VERTEX
  5
57F
330
57B
100
AcDbEntity
  8
0
100
AcDbVertex
100
AcDb2dVertex
 10
242.347473
 20
329.550537
 30
0.0
  0
VERTEX
  5
580
330
57B
100
AcDbEntity
  8
0
100
AcDbVertex
100
AcDb2dVertex
 10
242.348145
 20
329.549042
 30
0.0
  0
VERTEX
  5
581
330
57B
100
AcDbEntity
  8
0
100
AcDbVertex
100
AcDb2dVertex
 10
242.330994
 20
329.570557
 30
0.0
  0
VERTEX
  5
582
330
57B
100
AcDbEntity
  8
0
100
AcDbVertex
100
AcDb2dVertex
 10
242.327484
 20
329.575714
 30
0.0
  0
VERTEX
  5
583
330
57B
100
AcDbEntity
  8
0
100
AcDbVertex
100
AcDb2dVertex
 10
242.329285
 20
329.574432
 30
0.0
  0
VERTEX
  5
584
330
57B
100
AcDbEntity
  8
0
100
AcDbVertex
100
AcDb2dVertex
 10
242.338043
 20
329.564209
 30
0.0
  0
VERTEX
  5
585
330
57B
100
AcDbEntity
  8
0
100
AcDbVertex
100
AcDb2dVertex
 10
242.346619
 20
329.552368
 30
0.0
  0
VERTEX
  5
586
330
57B
100
AcDbEntity
  8
0
100
AcDbVertex
100
AcDb2dVertex
 10
242.347382
 20
329.550751
 30
0.0
  0
VERTEX
  5
587
330
57B
100
AcDbEntity
  8
0
100
AcDbVertex
100
AcDb2dVertex
 10
242.34729
 20
329.54953
 30
0.0
  0
VERTEX
  5
588
330
57B
100
AcDbEntity
  8
0
100
AcDbVertex
100
AcDb2dVertex
 10
242.344696
 20
329.550446
 30
0.0
  0
VERTEX
  5
589
330
57B
100
AcDbEntity
  8
0
100
AcDbVertex
100
AcDb2dVertex
 10
242.332855
 20
329.559021
 30
0.0
  0
VERTEX
  5
58A
330
57B
100
AcDbEntity
  8
0
100
AcDbVertex
100
AcDb2dVertex
 10
242.322601
 20
329.567749
 30
0.0
  0
VERTEX
  5
58B
330
57B
100
AcDbEntity
  8
0
100
AcDbVertex
100
AcDb2dVertex
 10
242.320984
 20
329.569366
 30
0.0
  0
VERTEX
  5
58C
330
57B
100
AcDbEntity
  8
0
100
AcDbVertex
100
AcDb2dVertex
 10
242.326508
 20
329.56604
 30
0.0
  0
VERTEX
  5
58D
330
57B
100
AcDbEntity
  8
0
100
AcDbVertex
100
AcDb2dVertex
 10
242.347534
 20
329.549744
 30
0.0
  0
VERTEX
  5
58E
330
57B
100
AcDbEntity
  8
0
100
AcDbVertex
100
AcDb2dVertex
 10
242.348236
 20
329.54895
 30
0.0
  0
VERTEX
  5
58F
330
57B
100
AcDbEntity
  8
0
100
AcDbVertex
100
AcDb2dVertex
 10
242.346527
 20
329.549561
 30
0.0
  0
VERTEX
  5
590
330
57B
100
AcDbEntity
  8
0
100
AcDbVertex
100
AcDb2dVertex
 10
242.340057
 20
329.552856
 30
0.0
  0
VERTEX
  5
591
330
57B
100
AcDbEntity
  8
0
100
AcDbVertex
100
AcDb2dVertex
 10
242.323914
 20
329.559967
 30
0.0
  0
VERTEX
  5
592
330
57B
100
AcDbEntity
  8
0
100
AcDbVertex
100
AcDb2dVertex
 10
242.314148
 20
329.563171
 30
0.0
  0
SEQEND
  5
593
330
57B
100
AcDbEntity
  8
0
 62
     7
  0
POLYLINE
  5
594
330
1F
100
AcDbEntity
  8
0
 62
     7
100
AcDb2dPolyline
 66
     1
 10
0.0
 20
0.0
 30
0.0
  0
VERTEX
  5
595
330
594
100
AcDbEntity
  8
0
100
AcDbVertex
100
AcDb2dVertex
 10
163.333893
 20
329.582916
 30
0.0
  0
VERTEX
  5
596
330
594
100
AcDbEntity
  8
0
100
AcDbVertex
100
AcDb2dVertex
 10
163.337097
 20
329.573151
 30
0.0
  0
VERTEX
  5
597
330
594
100
AcDbEntity
  8
0
100
AcDbVertex
100
AcDb2dVertex
 10
163.344208
 20
329.557007
 30
0.0
  0
VERTEX
  5
598
330
594
100
AcDbEntity
  8
0
100
AcDbVertex
100
AcDb2dVertex
 10
163.347504
 20
329.550537
 30
0.0
  0
VERTEX
  5
599
330
594
100
AcDbEntity
  8
0
100
AcDbVertex
100
AcDb2dVertex
 10
163.348145
 20
329.549042
 30
0.0
  0
VERTEX
  5
59A
330
594
100
AcDbEntity
  8
0
100
AcDbVertex
100
AcDb2dVertex
 10
163.330994
 20
329.570557
 30
0.0
  0
VERTEX
  5
59B
330
594
100
AcDbEntity
  8
0
100
AcDbVertex
100
AcDb2dVertex
 10
163.327484
 20
329.575714
 30
0.0
  0
VERTEX
  5
59C
330
594
100
AcDbEntity
  8
0
100
AcDbVertex
100
AcDb2dVertex
 10
163.329315
 20
329.574432
 30
0.0
  0
VERTEX
  5
59D
330
594
100
AcDbEntity
  8
0
100
AcDbVertex
100
AcDb2dVertex
 10
163.338043
 20
329.564209
 30
0.0
  0
VERTEX
  5
59E
330
594
100
AcDbEntity
  8
0
100
AcDbVertex
100
AcDb2dVertex
 10
163.346619
 20
329.552368
 30
0.0
  0
VERTEX
  5
59F
330
594
100
AcDbEntity
  8
0
100
AcDbVertex
100
AcDb2dVertex
 10
163.347382
 20
329.550751
 30
0.0
  0
VERTEX
  5
5A0
330
594
100
AcDbEntity
  8
0
100
AcDbVertex
100
AcDb2dVertex
 10
163.347321
 20
329.54953
 30
0.0
  0
VERTEX
  5
5A1
330
594
100
AcDbEntity
  8
0
100
AcDbVertex
100
AcDb2dVertex
 10
163.344696
 20
329.550446
 30
0.0
  0
VERTEX
  5
5A2
330
594
100
AcDbEntity
  8
0
100
AcDbVertex
100
AcDb2dVertex
 10
163.332886
 20
329.559021
 30
0.0
  0
VERTEX
  5
5A3
330
594
100
AcDbEntity
  8
0
100
AcDbVertex
100
AcDb2dVertex
 10
163.322632
 20
329.567749
 30
0.0
  0
VERTEX
  5
5A4
330
594
100
AcDbEntity
  8
0
100
AcDbVertex
100
AcDb2dVertex
 10
163.320984
 20
329.569366
 30
0.0
  0
VERTEX
  5
5A5
330
594
100
AcDbEntity
  8
0
100
AcDbVertex
100
AcDb2dVertex
 10
163.326508
 20
329.56604
 30
0.0
  0
VERTEX
  5
5A6
330
594
100
AcDbEntity
  8
0
100
AcDbVertex
100
AcDb2dVertex
 10
163.347534
 20
329.549744
 30
0.0
  0
VERTEX
  5
5A7
330
594
100
AcDbEntity
  8
0
100
AcDbVertex
100
AcDb2dVertex
 10
163.348236
 20
329.54895
 30
0.0
  0
VERTEX
  5
5A8
330
594
100
AcDbEntity
  8
0
100
AcDbVertex
100
AcDb2dVertex
 10
163.346527
 20
329.549561
 30
0.0
  0
VERTEX
  5
5A9
330
594
100
AcDbEntity
  8
0
100
AcDbVertex
100
AcDb2dVertex
 10
163.340057
 20
329.552856
 30
0.0
  0
VERTEX
  5
5AA
330
594
100
AcDbEntity
  8
0
100
AcDbVertex
100
AcDb2dVertex
 10
163.323914
 20
329.559967
 30
0.0
  0
VERTEX
  5
5AB
330
594
100
AcDbEntity
  8
0
100
AcDbVertex
100
AcDb2dVertex
 10
163.314148
 20
329.563171
 30
0.0
  0
SEQEND
  5
5AC
330
594
100
AcDbEntity
  8
0
 62
     7
  0
LINE
  5
5AD
330
1F
100
AcDbEntity
  8
0
 62
     7
100
AcDbLine
 10
148.095825
 20
329.575623
 30
0.0
 11
148.121429
 21
329.601257
 31
0.0
  0
LINE
  5
5AE
330
1F
100
AcDbEntity
  8
0
 62
     7
100
AcDbLine
 10
168.37027
 20
308.850006
 30
0.0
 11
168.37027
 21
309.100006
 31
0.0
  0
LINE
  5
5AF
330
1F
100
AcDbEntity
  8
0
 62
     7
100
AcDbLine
 10
164.923859
 20
308.850006
 30
0.0
 11
164.923859
 21
309.100006
 31
0.0
  0
LINE
  5
5B0
330
1F
100
AcDbEntity
  8
0
 62
     7
100
AcDbLine
 10
253.923859
 20
309.100006
 30
0.0
 11
253.923859
 21
308.850006
 31
0.0
  0
LINE
  5
5B1
330
1F
100
AcDbEntity
  8
0
 62
     7
100
AcDbLine
 10
257.37027
 20
309.100006
 30
0.0
 11
257.37027
 21
308.850006
 31
0.0
  0
LINE
  5
5B2
330
1F
100
AcDbEntity
  8
0
 62
     7
100
AcDbLine
 10
146.547058
 20
330.149994
 30
0.0
 11
146.847046
 21
330.149994
 31
0.0
  0
ARC
  5
5B3
330
1F
100
AcDbEntity
  8
0
 62
     7
100
AcDbCircle
 10
310.647064
 20
240.149994
 30
0.0
 40
78.4000015258789
100
AcDbArc
 50
0.000002
 51
87.807034
  0
ARC
  5
5B4
330
1F
100
AcDbEntity
  8
0
 62
     7
100
AcDbCircle
 10
310.647003
 20
240.153839
 30
0.0
 40
78.39616394042969
100
AcDbArc
 50
89.269111
 51
89.999968
  0
ARC
  5
5B5
330
1F
100
AcDbEntity
  8
0
 62
     7
100
AcDbCircle
 10
310.647064
 20
240.149994
 30
0.0
 40
71.5999984741211
100
AcDbArc
 50
0.000002
 51
87.598651
  0
ARC
  5
5B6
330
1F
100
AcDbEntity
  8
0
 62
     7
100
AcDbCircle
 10
310.647003
 20
240.152191
 30
0.0
 40
71.59779357910156
100
AcDbArc
 50
89.199702
 51
89.999962
  0
LINE
  5
5B7
330
1F
100
AcDbEntity
  8
0
 62
     7
100
AcDbLine
 10
309.447052
 20
318.549988
 30
0.0
 11
308.447052
 21
318.549988
 31
0.0
  0
LINE
  5
5B8
330
1F
100
AcDbEntity
  8
0
 62
     7
100
AcDbLine
 10
307.24704
 20
318.549988
 30
0.0
 11
306.24704
 21
318.549988
 31
0.0
  0
LINE
  5
5B9
330
1F
100
AcDbEntity
  8
0
 62
     7
100
AcDbLine
 10
389.047028
 20
230.149994
 30
0.0
 11
389.047028
 21
240.149994
 31
0.0
  0
LINE
  5
5BA
330
1F
100
AcDbEntity
  8
0
 62
     7
100
AcDbLine
 10
309.447052
 20
311.75
 30
0.0
 11
308.447052
 21
311.75
 31
0.0
  0
LINE
  5
5BB
330
1F
100
AcDbEntity
  8
0
 62
     7
100
AcDbLine
 10
307.24704
 20
311.75
 30
0.0
 11
306.24704
 21
311.75
 31
0.0
  0
LINE
  5
5BC
330
1F
100
AcDbEntity
  8
0
 62
     7
100
AcDbLine
 10
382.24704
 20
230.149994
 30
0.0
 11
382.24704
 21
240.149994
 31
0.0
  0
LINE
  5
5BD
330
1F
100
AcDbEntity
  8
0
 62
     7
100
AcDbLine
 10
313.647064
 20
319.399994
 30
0.0
 11
311.647064
 21
319.524994
 31
0.0
  0
LINE
  5
5BE
330
1F
100
AcDbEntity
  8
0
 62
     7
100
AcDbLine
 10
310.647064
 20
319.587494
 30
0.0
 11
309.447052
 21
319.662506
 31
0.0
  0
LINE
  5
5BF
330
1F
100
AcDbEntity
  8
0
 62
     7
100
AcDbLine
 10
308.447052
 20
319.725006
 30
0.0
 11
307.24707
 21
319.799988
 31
0.0
  0
LINE
  5
5C0
330
1F
100
AcDbEntity
  8
0
 62
     7
100
AcDbLine
 10
306.24707
 20
319.862488
 30
0.0
 11
301.647064
 21
320.149994
 31
0.0
  0
LINE
  5
5C1
330
1F
100
AcDbEntity
  8
0
 62
     7
100
AcDbLine
 10
313.647064
 20
310.899994
 30
0.0
 11
311.647064
 21
310.774994
 31
0.0
  0
LINE
  5
5C2
330
1F
100
AcDbEntity
  8
0
 62
     7
100
AcDbLine
 10
310.647064
 20
310.712494
 30
0.0
 11
309.447052
 21
310.637512
 31
0.0
  0
LINE
  5
5C3
330
1F
100
AcDbEntity
  8
0
 62
     7
100
AcDbLine
 10
308.447052
 20
310.575012
 30
0.0
 11
307.24707
 21
310.5
 31
0.0
  0
LINE
  5
5C4
330
1F
100
AcDbEntity
  8
0
 62
     7
100
AcDbLine
 10
306.24707
 20
310.4375
 30
0.0
 11
301.647064
 21
310.149994
 31
0.0
  0
LINE
  5
5C5
330
1F
100
AcDbEntity
  8
0
 62
     7
100
AcDbLine
 10
301.647064
 20
320.149994
 30
0.0
 11
300.647064
 21
320.450012
 31
0.0
  0
LINE
  5
5C6
330
1F
100
AcDbEntity
  8
0
 62
     7
100
AcDbLine
 10
301.647064
 20
310.149994
 30
0.0
 11
300.647064
 21
309.850006
 31
0.0
  0
LINE
  5
5C7
330
1F
100
AcDbEntity
  8
0
 62
     7
100
AcDbLine
 10
300.647064
 20
310.149994
 30
0.0
 11
295.647064
 21
310.149994
 31
0.0
  0
LINE
  5
5C8
330
1F
100
AcDbEntity
  8
0
 62
     7
100
AcDbLine
 10
300.647064
 20
320.149994
 30
0.0
 11
295.647064
 21
320.149994
 31
0.0
  0
ARC
  5
5C9
330
1F
100
AcDbEntity
  8
0
 62
     7
100
AcDbCircle
 10
290.340454
 20
312.049988
 30
0.0
 40
6.000001907348633
100
AcDbArc
 50
327.769058
 51
332.181852
  0
ARC
  5
5CA
330
1F
100
AcDbEntity
  8
0
 62
     7
100
AcDbCircle
 10
290.340454
 20
318.25
 30
0.0
 40
6.000001907348633
100
AcDbArc
 50
27.81814
 51
32.230949
  0
LINE
  5
5CB
330
1F
100
AcDbEntity
  8
0
 62
     7
100
AcDbLine
 10
295.415894
 20
308.850006
 30
0.0
 11
288.647064
 21
308.850006
 31
0.0
  0
LINE
  5
5CC
330
1F
100
AcDbEntity
  8
0
 62
     7
100
AcDbLine
 10
295.415894
 20
321.450012
 30
0.0
 11
288.647064
 21
321.450012
 31
0.0
  0
LINE
  5
5CD
330
1F
100
AcDbEntity
  8
0
 62
     7
100
AcDbLine
 10
288.647064
 20
308.850006
 30
0.0
 11
288.147064
 21
308.350006
 31
0.0
  0
LINE
  5
5CE
330
1F
100
AcDbEntity
  8
0
 62
     7
100
AcDbLine
 10
288.647064
 20
321.450012
 30
0.0
 11
288.147064
 21
321.950012
 31
0.0
  0
LINE
  5
5CF
330
1F
100
AcDbEntity
  8
0
 62
     7
100
AcDbLine
 10
278.647064
 20
308.850006
 30
0.0
 11
277.647064
 21
308.850006
 31
0.0
  0
LINE
  5
5D0
330
1F
100
AcDbEntity
  8
0
 62
     7
100
AcDbLine
 10
278.647064
 20
321.450012
 30
0.0
 11
277.647064
 21
321.450012
 31
0.0
  0
LINE
  5
5D1
330
1F
100
AcDbEntity
  8
0
 62
     7
100
AcDbLine
 10
288.147064
 20
308.350006
 30
0.0
 11
279.147064
 21
308.350006
 31
0.0
  0
LINE
  5
5D2
330
1F
100
AcDbEntity
  8
0
 62
     7
100
AcDbLine
 10
288.147064
 20
321.950012
 30
0.0
 11
279.147064
 21
321.950012
 31
0.0
  0
LINE
  5
5D3
330
1F
100
AcDbEntity
  8
0
 62
     7
100
AcDbLine
 10
278.647064
 20
321.450012
 30
0.0
 11
279.147064
 21
321.950012
 31
0.0
  0
LINE
  5
5D4
330
1F
100
AcDbEntity
  8
0
 62
     7
100
AcDbLine
 10
278.647064
 20
308.850006
 30
0.0
 11
279.147064
 21
308.350006
 31
0.0
  0
LINE
  5
5D5
330
1F
100
AcDbEntity
  8
0
 62
     7
100
AcDbLine
 10
108.452965
 20
332.850006
 30
0.0
 11
108.452965
 21
345.950012
 31
0.0
  0
ARC
  5
5D6
330
1F
100
AcDbEntity
  8
0
 62
     7
100
AcDbCircle
 10
107.652962
 20
332.850006
 30
0.0
 40
0.800000011920929
100
AcDbArc
 50
269.999997
 51
360.0
  0
LINE
  5
5D7
330
1F
100
AcDbEntity
  8
0
 62
     7
100
AcDbLine
 10
108.323677
 20
346.079285
 30
0.0
 11
108.452965
 21
345.950012
 31
0.0
  0
ARC
  5
5D8
330
1F
100
AcDbEntity
  8
0
 62
     7
100
AcDbCircle
 10
106.452965
 20
332.850006
 30
0.0
 40
0.800000011920929
100
AcDbArc
 50
241.044838
 51
269.999997
  0
LINE
  5
5D9
330
1F
100
AcDbEntity
  8
0
 62
     7
100
AcDbLine
 10
107.652962
 20
332.049988
 30
0.0
 11
106.452965
 21
332.049988
 31
0.0
  0
ARC
  5
5DA
330
1F
100
AcDbEntity
  8
0
 62
     7
100
AcDbCircle
 10
108.394386
 20
346.150024
 30
0.0
 40
0.1000000014901161
100
AcDbArc
 50
135.0
 51
225.0
  0
LINE
  5
5DB
330
1F
100
AcDbEntity
  8
0
 62
     7
100
AcDbLine
 10
108.452965
 20
346.350006
 30
0.0
 11
108.323677
 21
346.220703
 31
0.0
  0
LINE
  5
5DC
330
1F
100
AcDbEntity
  8
0
 62
     7
100
AcDbLine
 10
108.452965
 20
346.350006
 30
0.0
 11
108.452965
 21
347.049988
 31
0.0
  0
LINE
  5
5DD
330
1F
100
AcDbEntity
  8
0
 62
     7
100
AcDbLine
 10
108.323677
 20
347.179291
 30
0.0
 11
108.452965
 21
347.049988
 31
0.0
  0
ARC
  5
5DE
330
1F
100
AcDbEntity
  8
0
 62
     7
100
AcDbCircle
 10
108.394386
 20
347.25
 30
0.0
 40
0.1000000014901161
100
AcDbArc
 50
135.0
 51
225.0
  0
LINE
  5
5DF
330
1F
100
AcDbEntity
  8
0
 62
     7
100
AcDbLine
 10
108.452965
 20
347.450012
 30
0.0
 11
108.323677
 21
347.320709
 31
0.0
  0
LINE
  5
5E0
330
1F
100
AcDbEntity
  8
0
 62
     7
100
AcDbLine
 10
108.452965
 20
347.450012
 30
0.0
 11
108.452965
 21
348.150024
 31
0.0
  0
LINE
  5
5E1
330
1F
100
AcDbEntity
  8
0
 62
     7
100
AcDbLine
 10
108.323677
 20
348.279297
 30
0.0
 11
108.452965
 21
348.150024
 31
0.0
  0
ARC
  5
5E2
330
1F
100
AcDbEntity
  8
0
 62
     7
100
AcDbCircle
 10
108.394386
 20
348.350006
 30
0.0
 40
0.1000000014901161
100
AcDbArc
 50
135.0
 51
225.0
  0
LINE
  5
5E3
330
1F
100
AcDbEntity
  8
0
 62
     7
100
AcDbLine
 10
108.452965
 20
348.549988
 30
0.0
 11
108.323677
 21
348.420715
 31
0.0
  0
LINE
  5
5E4
330
1F
100
AcDbEntity
  8
0
 62
     7
100
AcDbLine
 10
108.452965
 20
348.549988
 30
0.0
 11
108.452965
 21
349.25
 31
0.0
  0
LINE
  5
5E5
330
1F
100
AcDbEntity
  8
0
 62
     7
100
AcDbLine
 10
108.323677
 20
349.379303
 30
0.0
 11
108.452965
 21
349.25
 31
0.0
  0
ARC
  5
5E6
330
1F
100
AcDbEntity
  8
0
 62
     7
100
AcDbCircle
 10
108.394386
 20
349.450012
 30
0.0
 40
0.1000000014901161
100
AcDbArc
 50
135.0
 51
225.0
  0
LINE
  5
5E7
330
1F
100
AcDbEntity
  8
0
 62
     7
100
AcDbLine
 10
108.452965
 20
349.650024
 30
0.0
 11
108.323677
 21
349.520721
 31
0.0
  0
LINE
  5
5E8
330
1F
100
AcDbEntity
  8
0
 62
     7
100
AcDbLine
 10
108.452965
 20
349.650024
 30
0.0
 11
108.452965
 21
350.350006
 31
0.0
  0
LINE
  5
5E9
330
1F
100
AcDbEntity
  8
0
 62
     7
100
AcDbLine
 10
108.323677
 20
350.479309
 30
0.0
 11
108.452965
 21
350.350006
 31
0.0
  0
ARC
  5
5EA
330
1F
100
AcDbEntity
  8
0
 62
     7
100
AcDbCircle
 10
108.394386
 20
350.549988
 30
0.0
 40
0.1000000014901161
100
AcDbArc
 50
135.0
 51
225.0
  0
LINE
  5
5EB
330
1F
100
AcDbEntity
  8
0
 62
     7
100
AcDbLine
 10
108.452965
 20
350.75
 30
0.0
 11
108.323677
 21
350.620728
 31
0.0
  0
LINE
  5
5EC
330
1F
100
AcDbEntity
  8
0
 62
     7
100
AcDbLine
 10
108.452965
 20
350.75
 30
0.0
 11
108.452965
 21
351.450012
 31
0.0
  0
LINE
  5
5ED
330
1F
100
AcDbEntity
  8
0
 62
     7
100
AcDbLine
 10
108.323677
 20
351.579285
 30
0.0
 11
108.452965
 21
351.450012
 31
0.0
  0
ARC
  5
5EE
330
1F
100
AcDbEntity
  8
0
 62
     7
100
AcDbCircle
 10
108.394386
 20
351.650024
 30
0.0
 40
0.1000000014901161
100
AcDbArc
 50
135.0
 51
225.0
  0
LINE
  5
5EF
330
1F
100
AcDbEntity
  8
0
 62
     7
100
AcDbLine
 10
108.452965
 20
351.850006
 30
0.0
 11
108.323677
 21
351.720703
 31
0.0
  0
LINE
  5
5F0
330
1F
100
AcDbEntity
  8
0
 62
     7
100
AcDbLine
 10
108.452965
 20
351.850006
 30
0.0
 11
108.452965
 21
352.549988
 31
0.0
  0
LINE
  5
5F1
330
1F
100
AcDbEntity
  8
0
 62
     7
100
AcDbLine
 10
108.323677
 20
352.679291
 30
0.0
 11
108.452965
 21
352.549988
 31
0.0
  0
ARC
  5
5F2
330
1F
100
AcDbEntity
  8
0
 62
     7
100
AcDbCircle
 10
108.394386
 20
352.75
 30
0.0
 40
0.1000000014901161
100
AcDbArc
 50
135.0
 51
225.0
  0
LINE
  5
5F3
330
1F
100
AcDbEntity
  8
0
 62
     7
100
AcDbLine
 10
108.452965
 20
352.950012
 30
0.0
 11
108.323677
 21
352.820709
 31
0.0
  0
LINE
  5
5F4
330
1F
100
AcDbEntity
  8
0
 62
     7
100
AcDbLine
 10
108.452965
 20
352.950012
 30
0.0
 11
108.452965
 21
353.650024
 31
0.0
  0
LINE
  5
5F5
330
1F
100
AcDbEntity
  8
0
 62
     7
100
AcDbLine
 10
108.323677
 20
353.779297
 30
0.0
 11
108.452965
 21
353.650024
 31
0.0
  0
ARC
  5
5F6
330
1F
100
AcDbEntity
  8
0
 62
     7
100
AcDbCircle
 10
108.394386
 20
353.850006
 30
0.0
 40
0.1000000014901161
100
AcDbArc
 50
135.0
 51
225.0
  0
LINE
  5
5F7
330
1F
100
AcDbEntity
  8
0
 62
     7
100
AcDbLine
 10
108.452965
 20
354.049988
 30
0.0
 11
108.323677
 21
353.920715
 31
0.0
  0
LINE
  5
5F8
330
1F
100
AcDbEntity
  8
0
 62
     7
100
AcDbLine
 10
108.452965
 20
354.049988
 30
0.0
 11
108.452965
 21
354.75
 31
0.0
  0
LINE
  5
5F9
330
1F
100
AcDbEntity
  8
0
 62
     7
100
AcDbLine
 10
108.323677
 20
354.879303
 30
0.0
 11
108.452965
 21
354.75
 31
0.0
  0
ARC
  5
5FA
330
1F
100
AcDbEntity
  8
0
 62
     7
100
AcDbCircle
 10
108.394386
 20
354.950012
 30
0.0
 40
0.1000000014901161
100
AcDbArc
 50
135.0
 51
225.0
  0
LINE
  5
5FB
330
1F
100
AcDbEntity
  8
0
 62
     7
100
AcDbLine
 10
108.452965
 20
355.150024
 30
0.0
 11
108.323677
 21
355.020721
 31
0.0
  0
LINE
  5
5FC
330
1F
100
AcDbEntity
  8
0
 62
     7
100
AcDbLine
 10
108.452965
 20
355.150024
 30
0.0
 11
108.452965
 21
359.974274
 31
0.0
  0
LINE
  5
5FD
330
1F
100
AcDbEntity
  8
0
 62
     7
100
AcDbLine
 10
107.965096
 20
360.462158
 30
0.0
 11
108.452965
 21
359.974274
 31
0.0
  0
ARC
  5
5FE
330
1F
100
AcDbEntity
  8
0
 62
     7
100
AcDbCircle
 10
107.752968
 20
360.25
 30
0.0
 40
0.300000011920929
100
AcDbArc
 50
45.000001
 51
106.874504
  0
LINE
  5
5FF
330
1F
100
AcDbEntity
  8
0
 62
     7
100
AcDbLine
 10
108.452965
 20
338.049988
 30
0.0
 11
108.652969
 21
338.049988
 31
0.0
  0
LINE
  5
600
330
1F
100
AcDbEntity
  8
0
 62
     7
100
AcDbLine
 10
108.652969
 20
337.549988
 30
0.0
 11
108.652969
 21
338.049988
 31
0.0
  0
LINE
  5
601
330
1F
100
AcDbEntity
  8
0
 62
     7
100
AcDbLine
 10
108.652969
 20
337.549988
 30
0.0
 11
108.652969
 21
333.549988
 31
0.0
  0
LINE
  5
602
330
1F
100
AcDbEntity
  8
0
 62
     7
100
AcDbLine
 10
108.652969
 20
333.049988
 30
0.0
 11
108.652969
 21
333.549988
 31
0.0
  0
LINE
  5
603
330
1F
100
AcDbEntity
  8
0
 62
     7
100
AcDbLine
 10
108.452965
 20
333.049988
 30
0.0
 11
108.652969
 21
333.049988
 31
0.0
  0
ARC
  5
604
330
1F
100
AcDbEntity
  8
0
 62
     7
100
AcDbCircle
 10
104.452965
 20
360.350006
 30
0.0
 40
3.0
100
AcDbArc
 50
8.262821
 51
90.000003
  0
LINE
  5
605
330
1F
100
AcDbEntity
  8
0
 62
     7
100
AcDbLine
 10
108.702965
 20
333.549988
 30
0.0
 11
108.702965
 21
333.680359
 31
0.0
  0
LINE
  5
606
330
1F
100
AcDbEntity
  8
0
 62
     7
100
AcDbLine
 10
108.702965
 20
337.180359
 30
0.0
 11
108.702965
 21
333.680359
 31
0.0
  0
LINE
  5
607
330
1F
100
AcDbEntity
  8
0
 62
     7
100
AcDbLine
 10
108.652969
 20
337.450012
 30
0.0
 11
108.702965
 21
337.450012
 31
0.0
  0
LINE
  5
608
330
1F
100
AcDbEntity
  8
0
 62
     7
100
AcDbLine
 10
108.702965
 20
337.180359
 30
0.0
 11
108.702965
 21
337.450012
 31
0.0
  0
LINE
  5
609
330
1F
100
AcDbEntity
  8
0
 62
     7
100
AcDbLine
 10
108.106522
 20
360.096436
 30
0.0
 11
107.264442
 21
360.938538
 31
0.0
  0
ARC
  5
60A
330
1F
100
AcDbEntity
  8
0
 62
     7
100
AcDbCircle
 10
107.752968
 20
359.74292
 30
0.0
 40
0.5
100
AcDbArc
 50
0.0
 51
45.000001
  0
LINE
  5
60B
330
1F
100
AcDbEntity
  8
0
 62
     7
100
AcDbLine
 10
108.252968
 20
332.650024
 30
0.0
 11
108.252968
 21
359.74292
 31
0.0
  0
ARC
  5
60C
330
1F
100
AcDbEntity
  8
0
 62
     7
100
AcDbCircle
 10
107.752968
 20
332.650024
 30
0.0
 40
0.5
100
AcDbArc
 50
269.999997
 51
360.0
  0
LINE
  5
60D
330
1F
100
AcDbEntity
  8
0
 62
     7
100
AcDbLine
 10
92.152969
 20
332.150024
 30
0.0
 11
107.752968
 21
332.150024
 31
0.0
  0
ARC
  5
60E
330
1F
100
AcDbEntity
  8
0
 62
     7
100
AcDbCircle
 10
92.152969
 20
332.650024
 30
0.0
 40
0.5
100
AcDbArc
 50
180.000009
 51
269.999997
  0
LINE
  5
60F
330
1F
100
AcDbEntity
  8
0
 62
     7
100
AcDbLine
 10
91.652969
 20
359.74292
 30
0.0
 11
91.652969
 21
332.650024
 31
0.0
  0
LINE
  5
610
330
1F
100
AcDbEntity
  8
0
 62
     7
100
AcDbLine
 10
90.852966
 20
342.049988
 30
0.0
 11
90.852966
 21
344.049988
 31
0.0
  0
LINE
  5
611
330
1F
100
AcDbEntity
  8
0
 62
     7
100
AcDbLine
 10
90.852966
 20
342.049988
 30
0.0
 11
91.652962
 21
342.049988
 31
0.0
  0
LINE
  5
612
330
1F
100
AcDbEntity
  8
0
 62
     7
100
AcDbLine
 10
104.452965
 20
363.350006
 30
0.0
 11
95.452965
 21
363.350006
 31
0.0
  0
ARC
  5
613
330
1F
100
AcDbEntity
  8
0
 62
     7
100
AcDbCircle
 10
95.452965
 20
360.350006
 30
0.0
 40
3.0
100
AcDbArc
 50
90.000003
 51
171.737184
  0
ARC
  5
614
330
1F
100
AcDbEntity
  8
0
 62
     7
100
AcDbCircle
 10
107.299797
 20
360.973877
 30
0.0
 40
0.0500000007450581
100
AcDbArc
 50
189.204208
 51
225.0
  0
ARC
  5
615
330
1F
100
AcDbEntity
  8
0
 62
     7
100
AcDbCircle
 10
92.152969
 20
359.74292
 30
0.0
 40
0.5
100
AcDbArc
 50
135.0
 51
180.000009
  0
LINE
  5
616
330
1F
100
AcDbEntity
  8
0
 62
     7
100
AcDbLine
 10
90.852966
 20
358.821106
 30
0.0
 11
90.852966
 21
344.049988
 31
0.0
  0
LINE
  5
617
330
1F
100
AcDbEntity
  8
0
 62
     7
100
AcDbLine
 10
90.852966
 20
358.821106
 30
0.0
 11
90.852966
 21
358.863342
 31
0.0
  0
LINE
  5
618
330
1F
100
AcDbEntity
  8
0
 62
     7
100
AcDbLine
 10
90.852966
 20
358.863342
 30
0.0
 11
90.852966
 21
363.350006
 31
0.0
  0
LINE
  5
619
330
1F
100
AcDbEntity
  8
0
 62
     7
100
AcDbLine
 10
91.052971
 20
342.049988
 30
0.0
 11
91.052971
 21
341.549988
 31
0.0
  0
LINE
  5
61A
330
1F
100
AcDbEntity
  8
0
 62
     7
100
AcDbLine
 10
91.652962
 20
341.549988
 30
0.0
 11
91.052971
 21
341.549988
 31
0.0
  0
LINE
  5
61B
330
1F
100
AcDbEntity
  8
0
 62
     7
100
AcDbLine
 10
91.052971
 20
332.850006
 30
0.0
 11
91.052971
 21
341.549988
 31
0.0
  0
ARC
  5
61C
330
1F
100
AcDbEntity
  8
0
 62
     7
100
AcDbCircle
 10
91.852966
 20
332.850006
 30
0.0
 40
0.800000011920929
100
AcDbArc
 50
180.000009
 51
269.999997
  0
LINE
  5
61D
330
1F
100
AcDbEntity
  8
0
 62
     7
100
AcDbLine
 10
91.852966
 20
332.049988
 30
0.0
 11
93.052971
 21
332.049988
 31
0.0
  0
ARC
  5
61E
330
1F
100
AcDbEntity
  8
0
 62
     7
100
AcDbCircle
 10
93.052971
 20
332.850006
 30
0.0
 40
0.800000011920929
100
AcDbArc
 50
269.999997
 51
298.955164
  0
LINE
  5
61F
330
1F
100
AcDbEntity
  8
0
 62
     7
100
AcDbLine
 10
92.641487
 20
360.938538
 30
0.0
 11
91.799416
 21
360.096436
 31
0.0
  0
ARC
  5
620
330
1F
100
AcDbEntity
  8
0
 62
     7
100
AcDbCircle
 10
92.606133
 20
360.973877
 30
0.0
 40
0.0500000007450581
100
AcDbArc
 50
314.999992
 51
350.795784
  0
ARC
  5
621
330
1F
100
AcDbEntity
  8
0
 62
     7
100
AcDbCircle
 10
95.222008
 20
360.549988
 30
0.0
 40
2.599999904632568
100
AcDbArc
 50
90.000003
 51
170.795792
  0
LINE
  5
622
330
1F
100
AcDbEntity
  8
0
 62
     7
100
AcDbLine
 10
104.683922
 20
363.150024
 30
0.0
 11
95.222008
 21
363.150024
 31
0.0
  0
ARC
  5
623
330
1F
100
AcDbEntity
  8
0
 62
     7
100
AcDbCircle
 10
104.683922
 20
360.549988
 30
0.0
 40
2.599999904632568
100
AcDbArc
 50
9.20421
 51
90.000003
  0
CIRCLE
  5
624
330
1F
100
AcDbEntity
  8
0
 62
     7
100
AcDbCircle
 10
99.952965
 20
340.350006
 30
0.0
 40
5.150000095367432
  0
POLYLINE
  5
625
330
1F
100
AcDbEntity
  8
0
 62
     7
100
AcDb2dPolyline
 66
     1
 10
0.0
 20
0.0
 30
0.0
  0
VERTEX
  5
626
330
625
100
AcDbEntity
  8
0
100
AcDbVertex
100
AcDb2dVertex
 10
91.352966
 20
360.260193
 30
0.0
  0
VERTEX
  5
627
330
625
100
AcDbEntity
  8
0
100
AcDbVertex
100
AcDb2dVertex
 10
91.349098
 20
360.162903
 30
0.0
  0
VERTEX
  5
628
330
625
100
AcDbEntity
  8
0
100
AcDbVertex
100
AcDb2dVertex
 10
91.337502
 20
360.059448
 30
0.0
  0
VERTEX
  5
629
330
625
100
AcDbEntity
  8
0
100
AcDbVertex
100
AcDb2dVertex
 10
91.318153
 20
359.950073
 30
0.0
  0
VERTEX
  5
62A
330
625
100
AcDbEntity
  8
0
100
AcDbVertex
100
AcDb2dVertex
 10
91.290955
 20
359.8349
 30
0.0
  0
VERTEX
  5
62B
330
625
100
AcDbEntity
  8
0
100
AcDbVertex
100
AcDb2dVertex
 10
91.25576
 20
359.713989
 30
0.0
  0
VERTEX
  5
62C
330
625
100
AcDbEntity
  8
0
100
AcDbVertex
100
AcDb2dVertex
 10
91.212311
 20
359.587341
 30
0.0
  0
VERTEX
  5
62D
330
625
100
AcDbEntity
  8
0
100
AcDbVertex
100
AcDb2dVertex
 10
91.160225
 20
359.454895
 30
0.0
  0
VERTEX
  5
62E
330
625
100
AcDbEntity
  8
0
100
AcDbVertex
100
AcDb2dVertex
 10
91.098999
 20
359.316437
 30
0.0
  0
VERTEX
  5
62F
330
625
100
AcDbEntity
  8
0
100
AcDbVertex
100
AcDb2dVertex
 10
91.027969
 20
359.171814
 30
0.0
  0
VERTEX
  5
630
330
625
100
AcDbEntity
  8
0
100
AcDbVertex
100
AcDb2dVertex
 10
90.946297
 20
359.020874
 30
0.0
  0
VERTEX
  5
631
330
625
100
AcDbEntity
  8
0
100
AcDbVertex
100
AcDb2dVertex
 10
90.852966
 20
358.863342
 30
0.0
  0
SEQEND
  5
632
330
625
100
AcDbEntity
  8
0
 62
     7
  0
LINE
  5
633
330
1F
100
AcDbEntity
  8
0
 62
     7
100
AcDbLine
 10
91.352966
 20
360.260193
 30
0.0
 11
91.352966
 21
363.850006
 31
0.0
  0
LINE
  5
634
330
1F
100
AcDbEntity
  8
0
 62
     7
100
AcDbLine
 10
92.452965
 20
360.75
 30
0.0
 11
92.452965
 21
363.850006
 31
0.0
  0
CIRCLE
  5
635
330
1F
100
AcDbEntity
  8
0
 62
     7
100
AcDbCircle
 10
99.952965
 20
340.350006
 30
0.0
 40
4.150000095367432
  0
ARC
  5
636
330
1F
100
AcDbEntity
  8
0
 62
     7
100
AcDbCircle
 10
99.952965
 20
340.350006
 30
0.0
 40
3.75
100
AcDbArc
 50
350.018317
 51
9.981683
  0
ARC
  5
637
330
1F
100
AcDbEntity
  8
0
 62
     7
100
AcDbCircle
 10
99.952965
 20
340.350006
 30
0.0
 40
3.75
100
AcDbArc
 50
189.981688
 51
350.018317
  0
ARC
  5
638
330
1F
100
AcDbEntity
  8
0
 62
     7
100
AcDbCircle
 10
99.952965
 20
340.350006
 30
0.0
 40
3.75
100
AcDbArc
 50
170.018312
 51
189.981688
  0
ARC
  5
639
330
1F
100
AcDbEntity
  8
0
 62
     7
100
AcDbCircle
 10
99.952965
 20
340.350006
 30
0.0
 40
3.75
100
AcDbArc
 50
9.981683
 51
170.018312
  0
LINE
  5
63A
330
1F
100
AcDbEntity
  8
0
 62
     7
100
AcDbLine
 10
103.442955
 20
339.700012
 30
0.0
 11
103.646202
 21
339.700012
 31
0.0
  0
LINE
  5
63B
330
1F
100
AcDbEntity
  8
0
 62
     7
100
AcDbLine
 10
96.462982
 20
339.700012
 30
0.0
 11
96.259727
 21
339.700012
 31
0.0
  0
LINE
  5
63C
330
1F
100
AcDbEntity
  8
0
 62
     7
100
AcDbLine
 10
103.442955
 20
339.700012
 30
0.0
 11
96.462982
 21
339.700012
 31
0.0
  0
ARC
  5
63D
330
1F
100
AcDbEntity
  8
0
 62
     7
100
AcDbCircle
 10
99.952965
 20
340.350006
 30
0.0
 40
3.549999952316284
100
AcDbArc
 50
190.550301
 51
349.44969
  0
LINE
  5
63E
330
1F
100
AcDbEntity
  8
0
 62
     7
100
AcDbLine
 10
96.462982
 20
341.0
 30
0.0
 11
96.259727
 21
341.0
 31
0.0
  0
LINE
  5
63F
330
1F
100
AcDbEntity
  8
0
 62
     7
100
AcDbLine
 10
103.442955
 20
341.0
 30
0.0
 11
103.646202
 21
341.0
 31
0.0
  0
LINE
  5
640
330
1F
100
AcDbEntity
  8
0
 62
     7
100
AcDbLine
 10
96.462982
 20
341.0
 30
0.0
 11
103.442955
 21
341.0
 31
0.0
  0
ARC
  5
641
330
1F
100
AcDbEntity
  8
0
 62
     7
100
AcDbCircle
 10
99.952965
 20
340.350006
 30
0.0
 40
3.549999952316284
100
AcDbArc
 50
10.550303
 51
169.449699
  0
LINE
  5
642
330
1F
100
AcDbEntity
  8
0
 62
     7
100
AcDbLine
 10
108.652969
 20
333.549988
 30
0.0
 11
108.702965
 21
333.549988
 31
0.0
  0
LINE
  5
643
330
1F
100
AcDbEntity
  8
0
 62
     7
100
AcDbLine
 10
108.652969
 20
333.549988
 30
0.0
 11
108.702965
 21
333.549988
 31
0.0
  0
LINE
  5
644
330
1F
100
AcDbEntity
  8
0
 62
     7
100
AcDbLine
 10
90.852966
 20
363.350006
 30
0.0
 11
91.352966
 21
363.850006
 31
0.0
  0
LINE
  5
645
330
1F
100
AcDbEntity
  8
0
 62
     7
100
AcDbLine
 10
91.352966
 20
363.850006
 30
0.0
 11
92.452965
 21
363.850006
 31
0.0
  0
LINE
  5
646
330
1F
100
AcDbEntity
  8
0
 62
     7
100
AcDbLine
 10
91.052971
 20
306.450012
 30
0.0
 11
91.052971
 21
329.549988
 31
0.0
  0
LINE
  5
647
330
1F
100
AcDbEntity
  8
0
 62
     7
100
AcDbLine
 10
91.052971
 20
329.549988
 30
0.0
 11
91.052971
 21
330.549988
 31
0.0
  0
LINE
  5
648
330
1F
100
AcDbEntity
  8
0
 62
     7
100
AcDbLine
 10
108.252968
 20
329.549988
 30
0.0
 11
108.252968
 21
306.450012
 31
0.0
  0
LINE
  5
649
330
1F
100
AcDbEntity
  8
0
 62
     7
100
AcDbLine
 10
108.252968
 20
329.549988
 30
0.0
 11
108.252968
 21
330.549988
 31
0.0
  0
LINE
  5
64A
330
1F
100
AcDbEntity
  8
0
 62
     7
100
AcDbLine
 10
91.552971
 20
329.549988
 30
0.0
 11
91.199409
 21
329.903564
 31
0.0
  0
ARC
  5
64B
330
1F
100
AcDbEntity
  8
0
 62
     7
100
AcDbCircle
 10
91.552971
 20
329.549988
 30
0.0
 40
0.5
100
AcDbArc
 50
90.000003
 51
180.000009
  0
ARC
  5
64C
330
1F
100
AcDbEntity
  8
0
 62
     7
100
AcDbCircle
 10
91.552971
 20
306.450012
 30
0.0
 40
0.5
100
AcDbArc
 50
180.000009
 51
270.000353
  0
ARC
  5
64D
330
1F
100
AcDbEntity
  8
0
 62
     7
100
AcDbCircle
 10
91.552971
 20
305.950012
 30
0.0
 40
0.5000079870223999
100
AcDbArc
 50
90.000289
 51
149.999055
  0
ARC
  5
64E
330
1F
100
AcDbEntity
  8
0
 62
     7
100
AcDbCircle
 10
91.552971
 20
330.549988
 30
0.0
 40
0.5
100
AcDbArc
 50
90.000003
 51
180.000009
  0
LINE
  5
64F
330
1F
100
AcDbEntity
  8
0
 62
     7
100
AcDbLine
 10
90.852966
 20
324.987701
 30
0.0
 11
90.852966
 21
325.9505
 31
0.0
  0
LINE
  5
650
330
1F
100
AcDbEntity
  8
0
 62
     7
100
AcDbLine
 10
90.852966
 20
324.987701
 30
0.0
 11
90.852966
 21
313.25
 31
0.0
  0
LINE
  5
651
330
1F
100
AcDbEntity
  8
0
 62
     7
100
AcDbLine
 10
90.852966
 20
310.25
 30
0.0
 11
90.852966
 21
313.25
 31
0.0
  0
LINE
  5
652
330
1F
100
AcDbEntity
  8
0
 62
     7
100
AcDbLine
 10
90.852966
 20
310.25
 30
0.0
 11
91.052971
 21
310.25
 31
0.0
  0
LINE
  5
653
330
1F
100
AcDbEntity
  8
0
 62
     7
100
AcDbLine
 10
90.852966
 20
329.049988
 30
0.0
 11
91.052971
 21
329.049988
 31
0.0
  0
LINE
  5
654
330
1F
100
AcDbEntity
  8
0
 62
     7
100
AcDbLine
 10
90.852966
 20
328.18515
 30
0.0
 11
90.852966
 21
329.049988
 31
0.0
  0
LINE
  5
655
330
1F
100
AcDbEntity
  8
0
 62
     7
100
AcDbLine
 10
95.703285
 20
309.25
 30
0.0
 11
95.886009
 21
309.25
 31
0.0
  0
LINE
  5
656
330
1F
100
AcDbEntity
  8
0
 62
     7
100
AcDbLine
 10
103.419914
 20
309.25
 30
0.0
 11
103.602654
 21
309.25
 31
0.0
  0
ARC
  5
657
330
1F
100
AcDbEntity
  8
0
 62
     7
100
AcDbCircle
 10
107.752968
 20
306.450012
 30
0.0
 40
0.5
100
AcDbArc
 50
269.999997
 51
359.999901
  0
ARC
  5
658
330
1F
100
AcDbEntity
  8
0
 62
     7
100
AcDbCircle
 10
107.752968
 20
329.549988
 30
0.0
 40
0.5
100
AcDbArc
 50
0.0
 51
90.000003
  0
LINE
  5
659
330
1F
100
AcDbEntity
  8
0
 62
     7
100
AcDbLine
 10
107.752968
 20
329.549988
 30
0.0
 11
108.106522
 21
329.903564
 31
0.0
  0
ARC
  5
65A
330
1F
100
AcDbEntity
  8
0
 62
     7
100
AcDbCircle
 10
107.752968
 20
305.950012
 30
0.0
 40
0.4999969899654388
100
AcDbArc
 50
29.999605
 51
90.000201
  0
LINE
  5
65B
330
1F
100
AcDbEntity
  8
0
 62
     7
100
AcDbLine
 10
108.252968
 20
328.18515
 30
0.0
 11
108.252968
 21
325.9505
 31
0.0
  0
LINE
  5
65C
330
1F
100
AcDbEntity
  8
0
 62
     7
100
AcDbLine
 10
108.452965
 20
328.18515
 30
0.0
 11
108.452965
 21
329.049988
 31
0.0
  0
LINE
  5
65D
330
1F
100
AcDbEntity
  8
0
 62
     7
100
AcDbLine
 10
108.252968
 20
329.049988
 30
0.0
 11
108.452965
 21
329.049988
 31
0.0
  0
LINE
  5
65E
330
1F
100
AcDbEntity
  8
0
 62
     7
100
AcDbLine
 10
108.252968
 20
310.25
 30
0.0
 11
108.452965
 21
310.25
 31
0.0
  0
LINE
  5
65F
330
1F
100
AcDbEntity
  8
0
 62
     7
100
AcDbLine
 10
108.452965
 20
310.25
 30
0.0
 11
108.452965
 21
313.25
 31
0.0
  0
LINE
  5
660
330
1F
100
AcDbEntity
  8
0
 62
     7
100
AcDbLine
 10
108.452965
 20
324.987701
 30
0.0
 11
108.452965
 21
313.25
 31
0.0
  0
LINE
  5
661
330
1F
100
AcDbEntity
  8
0
 62
     7
100
AcDbLine
 10
108.452965
 20
324.987701
 30
0.0
 11
108.452965
 21
325.9505
 31
0.0
  0
ARC
  5
662
330
1F
100
AcDbEntity
  8
0
 62
     7
100
AcDbCircle
 10
107.752968
 20
330.549988
 30
0.0
 40
0.5
100
AcDbArc
 50
0.0
 51
90.000003
  0
LINE
  5
663
330
1F
100
AcDbEntity
  8
0
 62
     7
100
AcDbLine
 10
91.552971
 20
306.450012
 30
0.0
 11
99.052971
 21
306.450012
 31
0.0
  0
LINE
  5
664
330
1F
100
AcDbEntity
  8
0
 62
     7
100
AcDbLine
 10
99.052971
 20
307.150024
 30
0.0
 11
99.052971
 21
306.450012
 31
0.0
  0
LINE
  5
665
330
1F
100
AcDbEntity
  8
0
 62
     7
100
AcDbLine
 10
99.052971
 20
307.150024
 30
0.0
 11
100.252968
 21
307.150024
 31
0.0
  0
LINE
  5
666
330
1F
100
AcDbEntity
  8
0
 62
     7
100
AcDbLine
 10
100.252968
 20
307.150024
 30
0.0
 11
100.252968
 21
306.450012
 31
0.0
  0
LINE
  5
667
330
1F
100
AcDbEntity
  8
0
 62
     7
100
AcDbLine
 10
100.252968
 20
306.450012
 30
0.0
 11
107.752968
 21
306.450012
 31
0.0
  0
ARC
  5
668
330
1F
100
AcDbEntity
  8
0
 62
     7
100
AcDbCircle
 10
103.287865
 20
329.549988
 30
0.0
 40
0.5
100
AcDbArc
 50
90.000003
 51
218.583597
  0
ARC
  5
669
330
1F
100
AcDbEntity
  8
0
 62
     7
100
AcDbCircle
 10
99.652962
 20
326.650024
 30
0.0
 40
4.150000095367432
100
AcDbArc
 50
0.0
 51
38.583602
  0
LINE
  5
66A
330
1F
100
AcDbEntity
  8
0
 62
     7
100
AcDbLine
 10
103.802971
 20
326.650024
 30
0.0
 11
103.802971
 21
325.650024
 31
0.0
  0
ARC
  5
66B
330
1F
100
AcDbEntity
  8
0
 62
     7
100
AcDbCircle
 10
99.652962
 20
325.650024
 30
0.0
 40
4.150000095367432
100
AcDbArc
 50
327.912246
 51
360.0
  0
POLYLINE
  5
66C
330
1F
100
AcDbEntity
  8
0
 62
     7
100
AcDb2dPolyline
 66
     1
 10
0.0
 20
0.0
 30
0.0
  0
VERTEX
  5
66D
330
66C
100
AcDbEntity
  8
0
100
AcDbVertex
100
AcDb2dVertex
 10
103.579811
 20
321.303833
 30
0.0
  0
VERTEX
  5
66E
330
66C
100
AcDbEntity
  8
0
100
AcDbVertex
100
AcDb2dVertex
 10
103.505516
 20
321.354675
 30
0.0
  0
VERTEX
  5
66F
330
66C
100
AcDbEntity
  8
0
100
AcDbVertex
100
AcDb2dVertex
 10
103.446129
 20
321.400635
 30
0.0
  0
VERTEX
  5
670
330
66C
100
AcDbEntity
  8
0
100
AcDbVertex
100
AcDb2dVertex
 10
103.389366
 20
321.449585
 30
0.0
  0
VERTEX
  5
671
330
66C
100
AcDbEntity
  8
0
100
AcDbVertex
100
AcDb2dVertex
 10
103.314728
 20
321.522675
 30
0.0
  0
VERTEX
  5
672
330
66C
100
AcDbEntity
  8
0
100
AcDbVertex
100
AcDb2dVertex
 10
103.245811
 20
321.600891
 30
0.0
  0
VERTEX
  5
673
330
66C
100
AcDbEntity
  8
0
100
AcDbVertex
100
AcDb2dVertex
 10
103.182953
 20
321.683655
 30
0.0
  0
VERTEX
  5
674
330
66C
100
AcDbEntity
  8
0
100
AcDbVertex
100
AcDb2dVertex
 10
103.126411
 20
321.770386
 30
0.0
  0
VERTEX
  5
675
330
66C
100
AcDbEntity
  8
0
100
AcDbVertex
100
AcDb2dVertex
 10
103.076363
 20
321.860565
 30
0.0
  0
VERTEX
  5
676
330
66C
100
AcDbEntity
  8
0
100
AcDbVertex
100
AcDb2dVertex
 10
103.032936
 20
321.953613
 30
0.0
  0
VERTEX
  5
677
330
66C
100
AcDbEntity
  8
0
100
AcDbVertex
100
AcDb2dVertex
 10
102.996193
 20
322.04895
 30
0.0
  0
VERTEX
  5
678
330
66C
100
AcDbEntity
  8
0
100
AcDbVertex
100
AcDb2dVertex
 10
102.965057
 20
322.150024
 30
0.0
  0
VERTEX
  5
679
330
66C
100
AcDbEntity
  8
0
100
AcDbVertex
100
AcDb2dVertex
 10
102.941093
 20
322.252502
 30
0.0
  0
VERTEX
  5
67A
330
66C
100
AcDbEntity
  8
0
100
AcDbVertex
100
AcDb2dVertex
 10
102.924232
 20
322.355804
 30
0.0
  0
VERTEX
  5
67B
330
66C
100
AcDbEntity
  8
0
100
AcDbVertex
100
AcDb2dVertex
 10
102.91433
 20
322.459503
 30
0.0
  0
VERTEX
  5
67C
330
66C
100
AcDbEntity
  8
0
100
AcDbVertex
100
AcDb2dVertex
 10
102.911247
 20
322.56311
 30
0.0
  0
VERTEX
  5
67D
330
66C
100
AcDbEntity
  8
0
100
AcDbVertex
100
AcDb2dVertex
 10
102.914818
 20
322.666229
 30
0.0
  0
VERTEX
  5
67E
330
66C
100
AcDbEntity
  8
0
100
AcDbVertex
100
AcDb2dVertex
 10
102.924873
 20
322.768463
 30
0.0
  0
VERTEX
  5
67F
330
66C
100
AcDbEntity
  8
0
100
AcDbVertex
100
AcDb2dVertex
 10
102.941628
 20
322.871552
 30
0.0
  0
VERTEX
  5
680
330
66C
100
AcDbEntity
  8
0
100
AcDbVertex
100
AcDb2dVertex
 10
102.964737
 20
322.973022
 30
0.0
  0
VERTEX
  5
681
330
66C
100
AcDbEntity
  8
0
100
AcDbVertex
100
AcDb2dVertex
 10
102.994019
 20
323.072571
 30
0.0
  0
VERTEX
  5
682
330
66C
100
AcDbEntity
  8
0
100
AcDbVertex
100
AcDb2dVertex
 10
103.029274
 20
323.169891
 30
0.0
  0
VERTEX
  5
683
330
66C
100
AcDbEntity
  8
0
100
AcDbVertex
100
AcDb2dVertex
 10
103.07032
 20
323.264648
 30
0.0
  0
VERTEX
  5
684
330
66C
100
AcDbEntity
  8
0
100
AcDbVertex
100
AcDb2dVertex
 10
103.116951
 20
323.356598
 30
0.0
  0
VERTEX
  5
685
330
66C
100
AcDbEntity
  8
0
100
AcDbVertex
100
AcDb2dVertex
 10
103.168999
 20
323.445435
 30
0.0
  0
SEQEND
  5
686
330
66C
100
AcDbEntity
  8
0
 62
     7
  0
ARC
  5
687
330
1F
100
AcDbEntity
  8
0
 62
     7
100
AcDbCircle
 10
99.652962
 20
315.150024
 30
0.0
 40
7.300000190734863
100
AcDbArc
 50
122.542528
 51
57.457471
  0
POLYLINE
  5
688
330
1F
100
AcDbEntity
  8
0
 62
     7
100
AcDb2dPolyline
 66
     1
 10
0.0
 20
0.0
 30
0.0
  0
VERTEX
  5
689
330
688
100
AcDbEntity
  8
0
100
AcDbVertex
100
AcDb2dVertex
 10
95.726112
 20
321.303833
 30
0.0
  0
VERTEX
  5
68A
330
688
100
AcDbEntity
  8
0
100
AcDbVertex
100
AcDb2dVertex
 10
95.805611
 20
321.35849
 30
0.0
  0
VERTEX
  5
68B
330
688
100
AcDbEntity
  8
0
100
AcDbVertex
100
AcDb2dVertex
 10
95.881149
 20
321.418396
 30
0.0
  0
VERTEX
  5
68C
330
688
100
AcDbEntity
  8
0
100
AcDbVertex
100
AcDb2dVertex
 10
95.952354
 20
321.483276
 30
0.0
  0
VERTEX
  5
68D
330
688
100
AcDbEntity
  8
0
100
AcDbVertex
100
AcDb2dVertex
 10
96.018867
 20
321.552704
 30
0.0
  0
VERTEX
  5
68E
330
688
100
AcDbEntity
  8
0
100
AcDbVertex
100
AcDb2dVertex
 10
96.080421
 20
321.626282
 30
0.0
  0
VERTEX
  5
68F
330
688
100
AcDbEntity
  8
0
100
AcDbVertex
100
AcDb2dVertex
 10
96.141991
 20
321.711304
 30
0.0
  0
VERTEX
  5
690
330
688
100
AcDbEntity
  8
0
100
AcDbVertex
100
AcDb2dVertex
 10
96.197029
 20
321.800262
 30
0.0
  0
VERTEX
  5
691
330
688
100
AcDbEntity
  8
0
100
AcDbVertex
100
AcDb2dVertex
 10
96.245369
 20
321.892517
 30
0.0
  0
VERTEX
  5
692
330
688
100
AcDbEntity
  8
0
100
AcDbVertex
100
AcDb2dVertex
 10
96.286919
 20
321.987488
 30
0.0
  0
VERTEX
  5
693
330
688
100
AcDbEntity
  8
0
100
AcDbVertex
100
AcDb2dVertex
 10
96.321617
 20
322.084656
 30
0.0
  0
VERTEX
  5
694
330
688
100
AcDbEntity
  8
0
100
AcDbVertex
100
AcDb2dVertex
 10
96.34951
 20
322.183441
 30
0.0
  0
VERTEX
  5
695
330
688
100
AcDbEntity
  8
0
100
AcDbVertex
100
AcDb2dVertex
 10
96.370628
 20
322.283325
 30
0.0
  0
VERTEX
  5
696
330
688
100
AcDbEntity
  8
0
100
AcDbVertex
100
AcDb2dVertex
 10
96.385536
 20
322.388184
 30
0.0
  0
VERTEX
  5
697
330
688
100
AcDbEntity
  8
0
100
AcDbVertex
100
AcDb2dVertex
 10
96.393349
 20
322.493286
 30
0.0
  0
VERTEX
  5
698
330
688
100
AcDbEntity
  8
0
100
AcDbVertex
100
AcDb2dVertex
 10
96.394211
 20
322.598145
 30
0.0
  0
VERTEX
  5
699
330
688
100
AcDbEntity
  8
0
100
AcDbVertex
100
AcDb2dVertex
 10
96.388298
 20
322.702393
 30
0.0
  0
VERTEX
  5
69A
330
688
100
AcDbEntity
  8
0
100
AcDbVertex
100
AcDb2dVertex
 10
96.375793
 20
322.805603
 30
0.0
  0
VERTEX
  5
69B
330
688
100
AcDbEntity
  8
0
100
AcDbVertex
100
AcDb2dVertex
 10
96.356895
 20
322.90744
 30
0.0
  0
VERTEX
  5
69C
330
688
100
AcDbEntity
  8
0
100
AcDbVertex
100
AcDb2dVertex
 10
96.331795
 20
323.007568
 30
0.0
  0
VERTEX
  5
69D
330
688
100
AcDbEntity
  8
0
100
AcDbVertex
100
AcDb2dVertex
 10
96.302788
 20
323.099609
 30
0.0
  0
VERTEX
  5
69E
330
688
100
AcDbEntity
  8
0
100
AcDbVertex
100
AcDb2dVertex
 10
96.268646
 20
323.189697
 30
0.0
  0
VERTEX
  5
69F
330
688
100
AcDbEntity
  8
0
100
AcDbVertex
100
AcDb2dVertex
 10
96.229523
 20
323.277466
 30
0.0
  0
VERTEX
  5
6A0
330
688
100
AcDbEntity
  8
0
100
AcDbVertex
100
AcDb2dVertex
 10
96.18557
 20
323.362823
 30
0.0
  0
VERTEX
  5
6A1
330
688
100
AcDbEntity
  8
0
100
AcDbVertex
100
AcDb2dVertex
 10
96.13694
 20
323.445435
 30
0.0
  0
SEQEND
  5
6A2
330
688
100
AcDbEntity
  8
0
 62
     7
  0
ARC
  5
6A3
330
1F
100
AcDbEntity
  8
0
 62
     7
100
AcDbCircle
 10
99.652962
 20
325.650024
 30
0.0
 40
4.150000095367432
100
AcDbArc
 50
180.000009
 51
212.087746
  0
LINE
  5
6A4
330
1F
100
AcDbEntity
  8
0
 62
     7
100
AcDbLine
 10
95.502968
 20
326.650024
 30
0.0
 11
95.502968
 21
325.650024
 31
0.0
  0
ARC
  5
6A5
330
1F
100
AcDbEntity
  8
0
 62
     7
100
AcDbCircle
 10
99.652962
 20
326.650024
 30
0.0
 40
4.150000095367432
100
AcDbArc
 50
141.416403
 51
180.000009
  0
ARC
  5
6A6
330
1F
100
AcDbEntity
  8
0
 62
     7
100
AcDbCircle
 10
96.018066
 20
329.549988
 30
0.0
 40
0.5
100
AcDbArc
 50
321.416408
 51
90.000003
  0
LINE
  5
6A7
330
1F
100
AcDbEntity
  8
0
 62
     7
100
AcDbLine
 10
93.802971
 20
322.350006
 30
0.0
 11
93.402962
 21
322.350006
 31
0.0
  0
ARC
  5
6A8
330
1F
100
AcDbEntity
  8
0
 62
     7
100
AcDbCircle
 10
93.402962
 20
323.700012
 30
0.0
 40
1.350000023841858
100
AcDbArc
 50
90.000003
 51
269.99997
  0
LINE
  5
6A9
330
1F
100
AcDbEntity
  8
0
 62
     7
100
AcDbLine
 10
93.402962
 20
325.049988
 30
0.0
 11
93.802971
 21
325.049988
 31
0.0
  0
ARC
  5
6AA
330
1F
100
AcDbEntity
  8
0
 62
     7
100
AcDbCircle
 10
93.802971
 20
323.700012
 30
0.0
 40
1.350000023841858
100
AcDbArc
 50
269.999997
 51
89.999989
  0
CIRCLE
  5
6AB
330
1F
100
AcDbEntity
  8
0
 62
     7
100
AcDbCircle
 10
105.702965
 20
323.700012
 30
0.0
 40
1.350000023841858
  0
LINE
  5
6AC
330
1F
100
AcDbEntity
  8
0
 62
     7
100
AcDbLine
 10
91.552971
 20
330.049988
 30
0.0
 11
96.018066
 21
330.049988
 31
0.0
  0
LINE
  5
6AD
330
1F
100
AcDbEntity
  8
0
 62
     7
100
AcDbLine
 10
100.252968
 20
306.450012
 30
0.0
 11
100.252968
 21
306.150024
 31
0.0
  0
LINE
  5
6AE
330
1F
100
AcDbEntity
  8
0
 62
     7
100
AcDbLine
 10
99.052971
 20
306.150024
 30
0.0
 11
100.252968
 21
306.150024
 31
0.0
  0
LINE
  5
6AF
330
1F
100
AcDbEntity
  8
0
 62
     7
100
AcDbLine
 10
99.052971
 20
306.450012
 30
0.0
 11
99.052971
 21
306.150024
 31
0.0
  0
LINE
  5
6B0
330
1F
100
AcDbEntity
  8
0
 62
     7
100
AcDbLine
 10
91.552971
 20
305.950012
 30
0.0
 11
107.752968
 21
305.950012
 31
0.0
  0
LINE
  5
6B1
330
1F
100
AcDbEntity
  8
0
 62
     7
100
AcDbLine
 10
98.071037
 20
330.049988
 30
0.0
 11
96.343887
 21
330.049988
 31
0.0
  0
LINE
  5
6B2
330
1F
100
AcDbEntity
  8
0
 62
     7
100
AcDbLine
 10
102.962044
 20
330.049988
 30
0.0
 11
101.234901
 21
330.049988
 31
0.0
  0
LINE
  5
6B3
330
1F
100
AcDbEntity
  8
0
 62
     7
100
AcDbLine
 10
102.962044
 20
330.049988
 30
0.0
 11
103.287865
 21
330.049988
 31
0.0
  0
LINE
  5
6B4
330
1F
100
AcDbEntity
  8
0
 62
     7
100
AcDbLine
 10
103.287865
 20
330.049988
 30
0.0
 11
107.752968
 21
330.049988
 31
0.0
  0
LINE
  5
6B5
330
1F
100
AcDbEntity
  8
0
 62
     7
100
AcDbLine
 10
96.018066
 20
330.049988
 30
0.0
 11
96.343887
 21
330.049988
 31
0.0
  0
LINE
  5
6B6
330
1F
100
AcDbEntity
  8
0
 62
     7
100
AcDbLine
 10
91.552971
 20
331.049988
 30
0.0
 11
107.752968
 21
331.049988
 31
0.0
  0
LINE
  5
6B7
330
1F
100
AcDbEntity
  8
0
 62
     7
100
AcDbLine
 10
90.852966
 20
325.9505
 30
0.0
 11
90.852966
 21
328.18515
 31
0.0
  0
LINE
  5
6B8
330
1F
100
AcDbEntity
  8
0
 62
     7
100
AcDbLine
 10
108.452965
 20
325.9505
 30
0.0
 11
108.452965
 21
328.18515
 31
0.0
  0
LINE
  5
6B9
330
1F
100
AcDbEntity
  8
0
 62
     7
100
AcDbLine
 10
103.111023
 20
323.355591
 30
0.0
 11
103.168999
 21
323.445435
 31
0.0
  0
POLYLINE
  5
6BA
330
1F
100
AcDbEntity
  8
0
 62
     7
100
AcDb2dPolyline
 66
     1
 10
0.0
 20
0.0
 30
0.0
  0
VERTEX
  5
6BB
330
6BA
100
AcDbEntity
  8
0
100
AcDbVertex
100
AcDb2dVertex
 10
103.111023
 20
323.355591
 30
0.0
  0
VERTEX
  5
6BC
330
6BA
100
AcDbEntity
  8
0
100
AcDbVertex
100
AcDb2dVertex
 10
103.055305
 20
323.265686
 30
0.0
  0
VERTEX
  5
6BD
330
6BA
100
AcDbEntity
  8
0
100
AcDbVertex
100
AcDb2dVertex
 10
103.005211
 20
323.172363
 30
0.0
  0
VERTEX
  5
6BE
330
6BA
100
AcDbEntity
  8
0
100
AcDbVertex
100
AcDb2dVertex
 10
102.960945
 20
323.075928
 30
0.0
  0
VERTEX
  5
6BF
330
6BA
100
AcDbEntity
  8
0
100
AcDbVertex
100
AcDb2dVertex
 10
102.922737
 20
322.976685
 30
0.0
  0
VERTEX
  5
6C0
330
6BA
100
AcDbEntity
  8
0
100
AcDbVertex
100
AcDb2dVertex
 10
102.890785
 20
322.874969
 30
0.0
  0
VERTEX
  5
6C1
330
6BA
100
AcDbEntity
  8
0
100
AcDbVertex
100
AcDb2dVertex
 10
102.865326
 20
322.771088
 30
0.0
  0
VERTEX
  5
6C2
330
6BA
100
AcDbEntity
  8
0
100
AcDbVertex
100
AcDb2dVertex
 10
102.846565
 20
322.665375
 30
0.0
  0
VERTEX
  5
6C3
330
6BA
100
AcDbEntity
  8
0
100
AcDbVertex
100
AcDb2dVertex
 10
102.834892
 20
322.560333
 30
0.0
  0
VERTEX
  5
6C4
330
6BA
100
AcDbEntity
  8
0
100
AcDbVertex
100
AcDb2dVertex
 10
102.830078
 20
322.454285
 30
0.0
  0
VERTEX
  5
6C5
330
6BA
100
AcDbEntity
  8
0
100
AcDbVertex
100
AcDb2dVertex
 10
102.832329
 20
322.347595
 30
0.0
  0
VERTEX
  5
6C6
330
6BA
100
AcDbEntity
  8
0
100
AcDbVertex
100
AcDb2dVertex
 10
102.841835
 20
322.240784
 30
0.0
  0
VERTEX
  5
6C7
330
6BA
100
AcDbEntity
  8
0
100
AcDbVertex
100
AcDb2dVertex
 10
102.858757
 20
322.134308
 30
0.0
  0
VERTEX
  5
6C8
330
6BA
100
AcDbEntity
  8
0
100
AcDbVertex
100
AcDb2dVertex
 10
102.883232
 20
322.028748
 30
0.0
  0
VERTEX
  5
6C9
330
6BA
100
AcDbEntity
  8
0
100
AcDbVertex
100
AcDb2dVertex
 10
102.915367
 20
321.924622
 30
0.0
  0
VERTEX
  5
6CA
330
6BA
100
AcDbEntity
  8
0
100
AcDbVertex
100
AcDb2dVertex
 10
102.953384
 20
321.826813
 30
0.0
  0
VERTEX
  5
6CB
330
6BA
100
AcDbEntity
  8
0
100
AcDbVertex
100
AcDb2dVertex
 10
102.998474
 20
321.731476
 30
0.0
  0
VERTEX
  5
6CC
330
6BA
100
AcDbEntity
  8
0
100
AcDbVertex
100
AcDb2dVertex
 10
103.050552
 20
321.639221
 30
0.0
  0
VERTEX
  5
6CD
330
6BA
100
AcDbEntity
  8
0
100
AcDbVertex
100
AcDb2dVertex
 10
103.109474
 20
321.55072
 30
0.0
  0
VERTEX
  5
6CE
330
6BA
100
AcDbEntity
  8
0
100
AcDbVertex
100
AcDb2dVertex
 10
103.141441
 20
321.508026
 30
0.0
  0
VERTEX
  5
6CF
330
6BA
100
AcDbEntity
  8
0
100
AcDbVertex
100
AcDb2dVertex
 10
103.175026
 20
321.466492
 30
0.0
  0
VERTEX
  5
6D0
330
6BA
100
AcDbEntity
  8
0
100
AcDbVertex
100
AcDb2dVertex
 10
103.22226
 20
321.413055
 30
0.0
  0
VERTEX
  5
6D1
330
6BA
100
AcDbEntity
  8
0
100
AcDbVertex
100
AcDb2dVertex
 10
103.272194
 20
321.362
 30
0.0
  0
VERTEX
  5
6D2
330
6BA
100
AcDbEntity
  8
0
100
AcDbVertex
100
AcDb2dVertex
 10
103.324715
 20
321.313446
 30
0.0
  0
VERTEX
  5
6D3
330
6BA
100
AcDbEntity
  8
0
100
AcDbVertex
100
AcDb2dVertex
 10
103.380074
 20
321.267273
 30
0.0
  0
VERTEX
  5
6D4
330
6BA
100
AcDbEntity
  8
0
100
AcDbVertex
100
AcDb2dVertex
 10
103.437798
 20
321.223907
 30
0.0
  0
VERTEX
  5
6D5
330
6BA
100
AcDbEntity
  8
0
100
AcDbVertex
100
AcDb2dVertex
 10
103.497612
 20
321.183594
 30
0.0
  0
SEQEND
  5
6D6
330
6BA
100
AcDbEntity
  8
0
 62
     7
  0
CIRCLE
  5
6D7
330
1F
100
AcDbEntity
  8
0
 62
     7
100
AcDbCircle
 10
99.652962
 20
315.150024
 30
0.0
 40
7.099999904632568
  0
ARC
  5
6D8
330
1F
100
AcDbEntity
  8
0
 62
     7
100
AcDbCircle
 10
99.652733
 20
315.149597
 30
0.0
 40
7.154872894287109
100
AcDbArc
 50
57.494627
 51
61.351983
  0
ARC
  5
6D9
330
1F
100
AcDbEntity
  8
0
 62
     7
100
AcDbCircle
 10
99.652977
 20
315.149994
 30
0.0
 40
7.154425144195557
100
AcDbArc
 50
61.352113
 51
122.505467
  0
POLYLINE
  5
6DA
330
1F
100
AcDbEntity
  8
0
 62
     7
100
AcDb2dPolyline
 66
     1
 10
0.0
 20
0.0
 30
0.0
  0
VERTEX
  5
6DB
330
6DA
100
AcDbEntity
  8
0
100
AcDbVertex
100
AcDb2dVertex
 10
96.194908
 20
323.355591
 30
0.0
  0
VERTEX
  5
6DC
330
6DA
100
AcDbEntity
  8
0
100
AcDbVertex
100
AcDb2dVertex
 10
96.250633
 20
323.265686
 30
0.0
  0
VERTEX
  5
6DD
330
6DA
100
AcDbEntity
  8
0
100
AcDbVertex
100
AcDb2dVertex
 10
96.300728
 20
323.172363
 30
0.0
  0
VERTEX
  5
6DE
330
6DA
100
AcDbEntity
  8
0
100
AcDbVertex
100
AcDb2dVertex
 10
96.344986
 20
323.075928
 30
0.0
  0
VERTEX
  5
6DF
330
6DA
100
AcDbEntity
  8
0
100
AcDbVertex
100
AcDb2dVertex
 10
96.383202
 20
322.976685
 30
0.0
  0
VERTEX
  5
6E0
330
6DA
100
AcDbEntity
  8
0
100
AcDbVertex
100
AcDb2dVertex
 10
96.415146
 20
322.874969
 30
0.0
  0
VERTEX
  5
6E1
330
6DA
100
AcDbEntity
  8
0
100
AcDbVertex
100
AcDb2dVertex
 10
96.440605
 20
322.771088
 30
0.0
  0
VERTEX
  5
6E2
330
6DA
100
AcDbEntity
  8
0
100
AcDbVertex
100
AcDb2dVertex
 10
96.459373
 20
322.665375
 30
0.0
  0
VERTEX
  5
6E3
330
6DA
100
AcDbEntity
  8
0
100
AcDbVertex
100
AcDb2dVertex
 10
96.471046
 20
322.560333
 30
0.0
  0
VERTEX
  5
6E4
330
6DA
100
AcDbEntity
  8
0
100
AcDbVertex
100
AcDb2dVertex
 10
96.475853
 20
322.454285
 30
0.0
  0
VERTEX
  5
6E5
330
6DA
100
AcDbEntity
  8
0
100
AcDbVertex
100
AcDb2dVertex
 10
96.473602
 20
322.347595
 30
0.0
  0
VERTEX
  5
6E6
330
6DA
100
AcDbEntity
  8
0
100
AcDbVertex
100
AcDb2dVertex
 10
96.464104
 20
322.240784
 30
0.0
  0
VERTEX
  5
6E7
330
6DA
100
AcDbEntity
  8
0
100
AcDbVertex
100
AcDb2dVertex
 10
96.447182
 20
322.134308
 30
0.0
  0
VERTEX
  5
6E8
330
6DA
100
AcDbEntity
  8
0
100
AcDbVertex
100
AcDb2dVertex
 10
96.422707
 20
322.028748
 30
0.0
  0
VERTEX
  5
6E9
330
6DA
100
AcDbEntity
  8
0
100
AcDbVertex
100
AcDb2dVertex
 10
96.390572
 20
321.924622
 30
0.0
  0
VERTEX
  5
6EA
330
6DA
100
AcDbEntity
  8
0
100
AcDbVertex
100
AcDb2dVertex
 10
96.352547
 20
321.826813
 30
0.0
  0
VERTEX
  5
6EB
330
6DA
100
AcDbEntity
  8
0
100
AcDbVertex
100
AcDb2dVertex
 10
96.307457
 20
321.731476
 30
0.0
  0
VERTEX
  5
6EC
330
6DA
100
AcDbEntity
  8
0
100
AcDbVertex
100
AcDb2dVertex
 10
96.255379
 20
321.639221
 30
0.0
  0
VERTEX
  5
6ED
330
6DA
100
AcDbEntity
  8
0
100
AcDbVertex
100
AcDb2dVertex
 10
96.196457
 20
321.55072
 30
0.0
  0
VERTEX
  5
6EE
330
6DA
100
AcDbEntity
  8
0
100
AcDbVertex
100
AcDb2dVertex
 10
96.164497
 20
321.508026
 30
0.0
  0
VERTEX
  5
6EF
330
6DA
100
AcDbEntity
  8
0
100
AcDbVertex
100
AcDb2dVertex
 10
96.130913
 20
321.466492
 30
0.0
  0
VERTEX
  5
6F0
330
6DA
100
AcDbEntity
  8
0
100
AcDbVertex
100
AcDb2dVertex
 10
96.083672
 20
321.413055
 30
0.0
  0
VERTEX
  5
6F1
330
6DA
100
AcDbEntity
  8
0
100
AcDbVertex
100
AcDb2dVertex
 10
96.033737
 20
321.362
 30
0.0
  0
VERTEX
  5
6F2
330
6DA
100
AcDbEntity
  8
0
100
AcDbVertex
100
AcDb2dVertex
 10
95.981224
 20
321.313446
 30
0.0
  0
VERTEX
  5
6F3
330
6DA
100
AcDbEntity
  8
0
100
AcDbVertex
100
AcDb2dVertex
 10
95.925865
 20
321.267273
 30
0.0
  0
VERTEX
  5
6F4
330
6DA
100
AcDbEntity
  8
0
100
AcDbVertex
100
AcDb2dVertex
 10
95.868134
 20
321.223907
 30
0.0
  0
VERTEX
  5
6F5
330
6DA
100
AcDbEntity
  8
0
100
AcDbVertex
100
AcDb2dVertex
 10
95.808327
 20
321.183594
 30
0.0
  0
SEQEND
  5
6F6
330
6DA
100
AcDbEntity
  8
0
 62
     7
  0
LINE
  5
6F7
330
1F
100
AcDbEntity
  8
0
 62
     7
100
AcDbLine
 10
96.13694
 20
323.445435
 30
0.0
 11
96.194908
 21
323.355591
 31
0.0
  0
LINE
  5
6F8
330
1F
100
AcDbEntity
  8
0
 62
     7
100
AcDbLine
 10
93.802971
 20
322.450012
 30
0.0
 11
93.402962
 21
322.450012
 31
0.0
  0
ARC
  5
6F9
330
1F
100
AcDbEntity
  8
0
 62
     7
100
AcDbCircle
 10
93.402962
 20
323.700012
 30
0.0
 40
1.25
100
AcDbArc
 50
90.000003
 51
269.999997
  0
LINE
  5
6FA
330
1F
100
AcDbEntity
  8
0
 62
     7
100
AcDbLine
 10
93.402962
 20
324.950012
 30
0.0
 11
93.802971
 21
324.950012
 31
0.0
  0
ARC
  5
6FB
330
1F
100
AcDbEntity
  8
0
 62
     7
100
AcDbCircle
 10
93.802971
 20
323.700012
 30
0.0
 40
1.25
100
AcDbArc
 50
269.999997
 51
90.000003
  0
CIRCLE
  5
6FC
330
1F
100
AcDbEntity
  8
0
 62
     7
100
AcDbCircle
 10
105.702965
 20
323.700012
 30
0.0
 40
1.25
  0
ARC
  5
6FD
330
1F
100
AcDbEntity
  8
0
 62
     7
100
AcDbCircle
 10
102.962044
 20
329.549988
 30
0.0
 40
0.5
100
AcDbArc
 50
90.000003
 51
221.230582
  0
ARC
  5
6FE
330
1F
100
AcDbEntity
  8
0
 62
     7
100
AcDbCircle
 10
96.343887
 20
329.549988
 30
0.0
 40
0.5
100
AcDbArc
 50
318.769437
 51
90.000003
  0
LINE
  5
6FF
330
1F
100
AcDbEntity
  8
0
 62
     7
100
AcDbLine
 10
95.552971
 20
332.049988
 30
0.0
 11
95.552971
 21
331.050018
 31
0.0
  0
ARC
  5
700
330
1F
100
AcDbEntity
  8
0
 62
     7
100
AcDbCircle
 10
93.852966
 20
331.549988
 30
0.0
 40
1.5
100
AcDbArc
 50
340.529081
 51
360.0
  0
LINE
  5
701
330
1F
100
AcDbEntity
  8
0
 62
     7
100
AcDbLine
 10
94.852966
 20
332.049988
 30
0.0
 11
94.852966
 21
332.150024
 31
0.0
  0
ARC
  5
702
330
1F
100
AcDbEntity
  8
0
 62
     7
100
AcDbCircle
 10
93.852966
 20
332.049988
 30
0.0
 40
1.0
100
AcDbArc
 50
269.999997
 51
360.0
  0
LINE
  5
703
330
1F
100
AcDbEntity
  8
0
 62
     7
100
AcDbLine
 10
95.352966
 20
332.150024
 30
0.0
 11
95.352966
 21
331.549988
 31
0.0
  0
LINE
  5
704
330
1F
100
AcDbEntity
  8
0
 62
     7
100
AcDbLine
 10
96.378822
 20
308.850006
 30
0.0
 11
96.601738
 21
308.850006
 31
0.0
  0
LINE
  5
705
330
1F
100
AcDbEntity
  8
0
 62
     7
100
AcDbLine
 10
102.704185
 20
308.850006
 30
0.0
 11
102.927109
 21
308.850006
 31
0.0
  0
LINE
  5
706
330
1F
100
AcDbEntity
  8
0
 62
     7
100
AcDbLine
 10
103.752968
 20
332.150024
 30
0.0
 11
103.752968
 21
332.049957
 31
0.0
  0
LINE
  5
707
330
1F
100
AcDbEntity
  8
0
 62
     7
100
AcDbLine
 10
103.952965
 20
332.150024
 30
0.0
 11
103.952965
 21
331.549988
 31
0.0
  0
ARC
  5
708
330
1F
100
AcDbEntity
  8
0
 62
     7
100
AcDbCircle
 10
105.452965
 20
331.549988
 30
0.0
 40
1.5
100
AcDbArc
 50
180.000009
 51
199.470938
  0
ARC
  5
709
330
1F
100
AcDbEntity
  8
0
 62
     7
100
AcDbCircle
 10
105.452965
 20
332.049988
 30
0.0
 40
1.0
100
AcDbArc
 50
180.000009
 51
269.999997
  0
LINE
  5
70A
330
1F
100
AcDbEntity
  8
0
 62
     7
100
AcDbLine
 10
104.452965
 20
332.049988
 30
0.0
 11
104.452965
 21
332.150024
 31
0.0
  0
ARC
  5
70B
330
1F
100
AcDbEntity
  8
0
 62
     7
100
AcDbCircle
 10
99.652962
 20
326.650024
 30
0.0
 40
3.900000095367432
100
AcDbArc
 50
138.769418
 51
41.230577
  0
LINE
  5
70C
330
1F
100
AcDbEntity
  8
0
 62
     7
100
AcDbLine
 10
103.752968
 20
331.050018
 30
0.0
 11
103.752968
 21
332.049988
 31
0.0
  0
LINE
  5
70D
330
1F
100
AcDbEntity
  8
0
 62
     7
100
AcDbLine
 10
95.552971
 20
332.049988
 30
0.0
 11
95.552971
 21
332.150085
 31
0.0
  0
ARC
  5
70E
330
1F
100
AcDbEntity
  8
0
 62
     7
100
AcDbCircle
 10
103.252968
 20
332.049988
 30
0.0
 40
0.5
100
AcDbArc
 50
0.0
 51
11.538233
  0
ARC
  5
70F
330
1F
100
AcDbEntity
  8
0
 62
     7
100
AcDbCircle
 10
99.652962
 20
326.650024
 30
0.0
 40
3.75
100
AcDbArc
 50
80.018316
 51
99.981682
  0
ARC
  5
710
330
1F
100
AcDbEntity
  8
0
 62
     7
100
AcDbCircle
 10
99.652962
 20
326.650024
 30
0.0
 40
3.75
100
AcDbArc
 50
279.981697
 51
80.018316
  0
ARC
  5
711
330
1F
100
AcDbEntity
  8
0
 62
     7
100
AcDbCircle
 10
99.652962
 20
326.650024
 30
0.0
 40
3.75
100
AcDbArc
 50
260.018304
 51
279.981697
  0
ARC
  5
712
330
1F
100
AcDbEntity
  8
0
 62
     7
100
AcDbCircle
 10
99.652962
 20
326.650024
 30
0.0
 40
3.75
100
AcDbArc
 50
99.981682
 51
260.018304
  0
LINE
  5
713
330
1F
100
AcDbEntity
  8
0
 62
     7
100
AcDbLine
 10
100.302971
 20
330.139984
 30
0.0
 11
100.302971
 21
330.343262
 31
0.0
  0
LINE
  5
714
330
1F
100
AcDbEntity
  8
0
 62
     7
100
AcDbLine
 10
100.302971
 20
323.160034
 30
0.0
 11
100.302971
 21
322.956787
 31
0.0
  0
LINE
  5
715
330
1F
100
AcDbEntity
  8
0
 62
     7
100
AcDbLine
 10
100.302971
 20
330.139984
 30
0.0
 11
100.302971
 21
323.160034
 31
0.0
  0
ARC
  5
716
330
1F
100
AcDbEntity
  8
0
 62
     7
100
AcDbCircle
 10
99.652962
 20
326.650024
 30
0.0
 40
3.549999952316284
100
AcDbArc
 50
280.55029
 51
79.449696
  0
LINE
  5
717
330
1F
100
AcDbEntity
  8
0
 62
     7
100
AcDbLine
 10
99.002968
 20
323.160034
 30
0.0
 11
99.002968
 21
322.956787
 31
0.0
  0
LINE
  5
718
330
1F
100
AcDbEntity
  8
0
 62
     7
100
AcDbLine
 10
99.002968
 20
330.139984
 30
0.0
 11
99.002968
 21
330.343262
 31
0.0
  0
LINE
  5
719
330
1F
100
AcDbEntity
  8
0
 62
     7
100
AcDbLine
 10
99.002968
 20
323.160034
 30
0.0
 11
99.002968
 21
330.139984
 31
0.0
  0
ARC
  5
71A
330
1F
100
AcDbEntity
  8
0
 62
     7
100
AcDbCircle
 10
99.652962
 20
326.650024
 30
0.0
 40
3.549999952316284
100
AcDbArc
 50
100.550302
 51
259.449705
  0
CIRCLE
  5
71B
330
1F
100
AcDbEntity
  8
0
 62
     7
100
AcDbCircle
 10
99.652962
 20
315.150024
 30
0.0
 40
7.0
  0
CIRCLE
  5
71C
330
1F
100
AcDbEntity
  8
0
 62
     7
100
AcDbCircle
 10
99.652962
 20
315.150024
 30
0.0
 40
6.900000095367432
  0
LINE
  5
71D
330
1F
100
AcDbEntity
  8
0
 62
     7
100
AcDbLine
 10
102.020103
 20
311.25
 30
0.0
 11
104.214035
 21
315.049988
 31
0.0
  0
ARC
  5
71E
330
1F
100
AcDbEntity
  8
0
 62
     7
100
AcDbCircle
 10
101.846901
 20
311.350006
 30
0.0
 40
0.2000000029802322
100
AcDbArc
 50
269.999997
 51
329.999989
  0
LINE
  5
71F
330
1F
100
AcDbEntity
  8
0
 62
     7
100
AcDbLine
 10
97.459038
 20
311.150024
 30
0.0
 11
101.846901
 21
311.150024
 31
0.0
  0
ARC
  5
720
330
1F
100
AcDbEntity
  8
0
 62
     7
100
AcDbCircle
 10
97.459038
 20
311.350006
 30
0.0
 40
0.2000000029802322
100
AcDbArc
 50
210.000003
 51
269.999997
  0
LINE
  5
721
330
1F
100
AcDbEntity
  8
0
 62
     7
100
AcDbLine
 10
95.091896
 20
315.049988
 30
0.0
 11
97.285835
 21
311.25
 31
0.0
  0
ARC
  5
722
330
1F
100
AcDbEntity
  8
0
 62
     7
100
AcDbCircle
 10
95.265106
 20
315.150024
 30
0.0
 40
0.2000000029802322
100
AcDbArc
 50
149.999997
 51
210.000003
  0
LINE
  5
723
330
1F
100
AcDbEntity
  8
0
 62
     7
100
AcDbLine
 10
97.285835
 20
319.049988
 30
0.0
 11
95.091896
 21
315.25
 31
0.0
  0
ARC
  5
724
330
1F
100
AcDbEntity
  8
0
 62
     7
100
AcDbCircle
 10
97.459038
 20
318.950012
 30
0.0
 40
0.2000000029802322
100
AcDbArc
 50
90.000003
 51
149.999997
  0
LINE
  5
725
330
1F
100
AcDbEntity
  8
0
 62
     7
100
AcDbLine
 10
101.846901
 20
319.150024
 30
0.0
 11
97.459038
 21
319.150024
 31
0.0
  0
ARC
  5
726
330
1F
100
AcDbEntity
  8
0
 62
     7
100
AcDbCircle
 10
101.846901
 20
318.950012
 30
0.0
 40
0.2000000029802322
100
AcDbArc
 50
30.000001
 51
90.000003
  0
LINE
  5
727
330
1F
100
AcDbEntity
  8
0
 62
     7
100
AcDbLine
 10
104.214035
 20
315.25
 30
0.0
 11
102.020103
 21
319.049988
 31
0.0
  0
ARC
  5
728
330
1F
100
AcDbEntity
  8
0
 62
     7
100
AcDbCircle
 10
104.040825
 20
315.150024
 30
0.0
 40
0.2000000029802322
100
AcDbArc
 50
329.999989
 51
30.000001
  0
ARC
  5
729
330
1F
100
AcDbEntity
  8
0
 62
     7
100
AcDbCircle
 10
99.652962
 20
312.494202
 30
0.0
 40
0.2000000029802322
100
AcDbArc
 50
240.00001
 51
299.999992
  0
LINE
  5
72A
330
1F
100
AcDbEntity
  8
0
 62
     7
100
AcDbLine
 10
97.252968
 20
313.648895
 30
0.0
 11
99.552971
 21
312.320984
 31
0.0
  0
ARC
  5
72B
330
1F
100
AcDbEntity
  8
0
 62
     7
100
AcDbCircle
 10
97.352966
 20
313.822083
 30
0.0
 40
0.2000000029802322
100
AcDbArc
 50
179.999991
 51
240.00001
  0
LINE
  5
72C
330
1F
100
AcDbEntity
  8
0
 62
     7
100
AcDbLine
 10
97.152962
 20
316.477905
 30
0.0
 11
97.152962
 21
313.822083
 31
0.0
  0
ARC
  5
72D
330
1F
100
AcDbEntity
  8
0
 62
     7
100
AcDbCircle
 10
97.352966
 20
316.477905
 30
0.0
 40
0.2000000029802322
100
AcDbArc
 50
120.000003
 51
179.999991
  0
LINE
  5
72E
330
1F
100
AcDbEntity
  8
0
 62
     7
100
AcDbLine
 10
99.552971
 20
317.979004
 30
0.0
 11
97.252968
 21
316.651123
 31
0.0
  0
ARC
  5
72F
330
1F
100
AcDbEntity
  8
0
 62
     7
100
AcDbCircle
 10
99.652962
 20
317.805817
 30
0.0
 40
0.2000000029802322
100
AcDbArc
 50
60.000002
 51
120.000003
  0
LINE
  5
730
330
1F
100
AcDbEntity
  8
0
 62
     7
100
AcDbLine
 10
102.052971
 20
316.651123
 30
0.0
 11
99.752968
 21
317.979004
 31
0.0
  0
ARC
  5
731
330
1F
100
AcDbEntity
  8
0
 62
     7
100
AcDbCircle
 10
101.952965
 20
316.477905
 30
0.0
 40
0.2000000029802322
100
AcDbArc
 50
0.0
 51
60.000002
  0
LINE
  5
732
330
1F
100
AcDbEntity
  8
0
 62
     7
100
AcDbLine
 10
102.152962
 20
313.822083
 30
0.0
 11
102.152962
 21
316.477905
 31
0.0
  0
ARC
  5
733
330
1F
100
AcDbEntity
  8
0
 62
     7
100
AcDbCircle
 10
101.952965
 20
313.822083
 30
0.0
 40
0.2000000029802322
100
AcDbArc
 50
299.999992
 51
360.0
  0
LINE
  5
734
330
1F
100
AcDbEntity
  8
0
 62
     7
100
AcDbLine
 10
99.752968
 20
312.320984
 30
0.0
 11
102.052971
 21
313.648895
 31
0.0
  0
LINE
  5
735
330
1F
100
AcDbEntity
  8
0
 62
     7
100
AcDbLine
 10
103.052971
 20
305.949982
 30
0.0
 11
103.052971
 21
240.149994
 31
0.0
  0
LINE
  5
736
330
1F
100
AcDbEntity
  8
0
 62
     7
100
AcDbLine
 10
96.252968
 20
305.949982
 30
0.0
 11
96.252968
 21
240.149994
 31
0.0
  0
LINE
  5
737
330
1F
100
AcDbEntity
  8
0
 62
     7
100
AcDbLine
 10
103.052971
 20
240.149994
 30
0.0
 11
103.052971
 21
230.149994
 31
0.0
  0
LINE
  5
738
330
1F
100
AcDbEntity
  8
0
 62
     7
100
AcDbLine
 10
96.252968
 20
240.149994
 30
0.0
 11
96.252968
 21
230.149994
 31
0.0
  0
LINE
  5
739
330
1F
100
AcDbEntity
  8
0
 62
     7
100
AcDbLine
 10
103.052971
 20
230.149994
 30
0.0
 11
96.252968
 21
230.149994
 31
0.0
  0
LINE
  5
73A
330
1F
100
AcDbEntity
  8
0
 62
     7
100
AcDbLine
 10
108.252945
 20
329.554871
 30
0.0
 11
108.252968
 21
329.549988
 31
0.0
  0
LINE
  5
73B
330
1F
100
AcDbEntity
  8
0
 62
     7
100
AcDbLine
 10
108.251884
 20
329.582916
 30
0.0
 11
108.252968
 21
329.549988
 31
0.0
  0
LINE
  5
73C
330
1F
100
AcDbEntity
  8
0
 62
     7
100
AcDbLine
 10
108.252312
 20
329.575623
 30
0.0
 11
108.252968
 21
329.549988
 31
0.0
  0
POLYLINE
  5
73D
330
1F
100
AcDbEntity
  8
0
 62
     7
100
AcDb2dPolyline
 66
     1
 10
0.0
 20
0.0
 30
0.0
  0
VERTEX
  5
73E
330
73D
100
AcDbEntity
  8
0
100
AcDbVertex
100
AcDb2dVertex
 10
230.128754
 20
237.843353
 30
0.0
  0
VERTEX
  5
73F
330
73D
100
AcDbEntity
  8
0
100
AcDbVertex
100
AcDb2dVertex
 10
229.668747
 20
238.407867
 30
0.0
  0
VERTEX
  5
740
330
73D
100
AcDbEntity
  8
0
100
AcDbVertex
100
AcDb2dVertex
 10
228.97876
 20
238.649811
 30
0.0
  0
VERTEX
  5
741
330
73D
100
AcDbEntity
  8
0
100
AcDbVertex
100
AcDb2dVertex
 10
228.288757
 20
238.649811
 30
0.0
  0
VERTEX
  5
742
330
73D
100
AcDbEntity
  8
0
100
AcDbVertex
100
AcDb2dVertex
 10
227.598755
 20
238.407867
 30
0.0
  0
VERTEX
  5
743
330
73D
100
AcDbEntity
  8
0
100
AcDbVertex
100
AcDb2dVertex
 10
227.138748
 20
237.762711
 30
0.0
  0
VERTEX
  5
744
330
73D
100
AcDbEntity
  8
0
100
AcDbVertex
100
AcDb2dVertex
 10
227.138748
 20
237.198196
 30
0.0
  0
VERTEX
  5
745
330
73D
100
AcDbEntity
  8
0
100
AcDbVertex
100
AcDb2dVertex
 10
227.54126
 20
236.633682
 30
0.0
  0
SEQEND
  5
746
330
73D
100
AcDbEntity
  8
0
 62
     7
  0
POLYLINE
  5
747
330
1F
100
AcDbEntity
  8
0
 62
     7
100
AcDb2dPolyline
 66
     1
 10
0.0
 20
0.0
 30
0.0
  0
VERTEX
  5
748
330
747
100
AcDbEntity
  8
0
100
AcDbVertex
100
AcDb2dVertex
 10
228.633759
 20
236.230453
 30
0.0
  0
VERTEX
  5
749
330
747
100
AcDbEntity
  8
0
100
AcDbVertex
100
AcDb2dVertex
 10
229.151245
 20
236.069168
 30
0.0
  0
SEQEND
  5
74A
330
747
100
AcDbEntity
  8
0
 62
     7
  0
POLYLINE
  5
74B
330
1F
100
AcDbEntity
  8
0
 62
     7
100
AcDb2dPolyline
 66
     1
 10
0.0
 20
0.0
 30
0.0
  0
VERTEX
  5
74C
330
74B
100
AcDbEntity
  8
0
100
AcDbVertex
100
AcDb2dVertex
 10
229.668747
 20
233.811096
 30
0.0
  0
VERTEX
  5
74D
330
74B
100
AcDbEntity
  8
0
100
AcDbVertex
100
AcDb2dVertex
 10
228.97876
 20
233.649811
 30
0.0
  0
VERTEX
  5
74E
330
74B
100
AcDbEntity
  8
0
100
AcDbVertex
100
AcDb2dVertex
 10
228.288757
 20
233.649811
 30
0.0
  0
VERTEX
  5
74F
330
74B
100
AcDbEntity
  8
0
100
AcDbVertex
100
AcDb2dVertex
 10
227.598755
 20
233.972397
 30
0.0
  0
VERTEX
  5
750
330
74B
100
AcDbEntity
  8
0
100
AcDbVertex
100
AcDb2dVertex
 10
227.138748
 20
234.536911
 30
0.0
  0
SEQEND
  5
751
330
74B
100
AcDbEntity
  8
0
 62
     7
  0
POLYLINE
  5
752
330
1F
100
AcDbEntity
  8
0
 62
     7
100
AcDb2dPolyline
 66
     1
 10
0.0
 20
0.0
 30
0.0
  0
VERTEX
  5
753
330
752
100
AcDbEntity
  8
0
100
AcDbVertex
100
AcDb2dVertex
 10
228.173752
 20
236.311096
 30
0.0
  0
VERTEX
  5
754
330
752
100
AcDbEntity
  8
0
100
AcDbVertex
100
AcDb2dVertex
 10
228.633759
 20
236.230453
 30
0.0
  0
SEQEND
  5
755
330
752
100
AcDbEntity
  8
0
 62
     7
  0
POLYLINE
  5
756
330
1F
100
AcDbEntity
  8
0
 62
     7
100
AcDb2dPolyline
 66
     1
 10
0.0
 20
0.0
 30
0.0
  0
VERTEX
  5
757
330
756
100
AcDbEntity
  8
0
100
AcDbVertex
100
AcDb2dVertex
 10
227.54126
 20
236.633682
 30
0.0
  0
VERTEX
  5
758
330
756
100
AcDbEntity
  8
0
100
AcDbVertex
100
AcDb2dVertex
 10
228.173752
 20
236.311096
 30
0.0
  0
SEQEND
  5
759
330
756
100
AcDbEntity
  8
0
 62
     7
  0
POLYLINE
  5
75A
330
1F
100
AcDbEntity
  8
0
 62
     7
100
AcDb2dPolyline
 66
     1
 10
0.0
 20
0.0
 30
0.0
  0
VERTEX
  5
75B
330
75A
100
AcDbEntity
  8
0
100
AcDbVertex
100
AcDb2dVertex
 10
230.128754
 20
234.456268
 30
0.0
  0
VERTEX
  5
75C
330
75A
100
AcDbEntity
  8
0
100
AcDbVertex
100
AcDb2dVertex
 10
229.668747
 20
233.811096
 30
0.0
  0
SEQEND
  5
75D
330
75A
100
AcDbEntity
  8
0
 62
     7
  0
POLYLINE
  5
75E
330
1F
100
AcDbEntity
  8
0
 62
     7
100
AcDb2dPolyline
 66
     1
 10
0.0
 20
0.0
 30
0.0
  0
VERTEX
  5
75F
330
75E
100
AcDbEntity
  8
0
100
AcDbVertex
100
AcDb2dVertex
 10
230.128754
 20
235.182068
 30
0.0
  0
VERTEX
  5
760
330
75E
100
AcDbEntity
  8
0
100
AcDbVertex
100
AcDb2dVertex
 10
230.128754
 20
234.456268
 30
0.0
  0
SEQEND
  5
761
330
75E
100
AcDbEntity
  8
0
 62
     7
  0
POLYLINE
  5
762
330
1F
100
AcDbEntity
  8
0
 62
     7
100
AcDb2dPolyline
 66
     1
 10
0.0
 20
0.0
 30
0.0
  0
VERTEX
  5
763
330
762
100
AcDbEntity
  8
0
100
AcDbVertex
100
AcDb2dVertex
 10
229.151245
 20
236.069168
 30
0.0
  0
VERTEX
  5
764
330
762
100
AcDbEntity
  8
0
100
AcDbVertex
100
AcDb2dVertex
 10
229.668747
 20
235.746582
 30
0.0
  0
VERTEX
  5
765
330
762
100
AcDbEntity
  8
0
100
AcDbVertex
100
AcDb2dVertex
 10
230.128754
 20
235.182068
 30
0.0
  0
SEQEND
  5
766
330
762
100
AcDbEntity
  8
0
 62
     7
  0
POLYLINE
  5
767
330
1F
100
AcDbEntity
  8
0
 62
     7
100
AcDb2dPolyline
 66
     1
 10
0.0
 20
0.0
 30
0.0
  0
VERTEX
  5
768
330
767
100
AcDbEntity
  8
0
100
AcDbVertex
100
AcDb2dVertex
 10
233.043747
 20
238.649811
 30
0.0
  0
VERTEX
  5
769
330
767
100
AcDbEntity
  8
0
100
AcDbVertex
100
AcDb2dVertex
 10
231.088745
 20
238.649811
 30
0.0
  0
SEQEND
  5
76A
330
767
100
AcDbEntity
  8
0
 62
     7
  0
POLYLINE
  5
76B
330
1F
100
AcDbEntity
  8
0
 62
     7
100
AcDb2dPolyline
 66
     1
 10
0.0
 20
0.0
 30
0.0
  0
VERTEX
  5
76C
330
76B
100
AcDbEntity
  8
0
100
AcDbVertex
100
AcDb2dVertex
 10
231.088745
 20
236.230453
 30
0.0
  0
VERTEX
  5
76D
330
76B
100
AcDbEntity
  8
0
100
AcDbVertex
100
AcDb2dVertex
 10
233.158752
 20
236.230453
 30
0.0
  0
SEQEND
  5
76E
330
76B
100
AcDbEntity
  8
0
 62
     7
  0
POLYLINE
  5
76F
330
1F
100
AcDbEntity
  8
0
 62
     7
100
AcDb2dPolyline
 66
     1
 10
0.0
 20
0.0
 30
0.0
  0
VERTEX
  5
770
330
76F
100
AcDbEntity
  8
0
100
AcDbVertex
100
AcDb2dVertex
 10
231.088745
 20
238.649811
 30
0.0
  0
VERTEX
  5
771
330
76F
100
AcDbEntity
  8
0
100
AcDbVertex
100
AcDb2dVertex
 10
231.088745
 20
233.649811
 30
0.0
  0
SEQEND
  5
772
330
76F
100
AcDbEntity
  8
0
 62
     7
  0
POLYLINE
  5
773
330
1F
100
AcDbEntity
  8
0
 62
     7
100
AcDb2dPolyline
 66
     1
 10
0.0
 20
0.0
 30
0.0
  0
VERTEX
  5
774
330
773
100
AcDbEntity
  8
0
100
AcDbVertex
100
AcDb2dVertex
 10
233.043747
 20
238.649811
 30
0.0
  0
VERTEX
  5
775
330
773
100
AcDbEntity
  8
0
100
AcDbVertex
100
AcDb2dVertex
 10
233.446259
 20
238.407867
 30
0.0
  0
VERTEX
  5
776
330
773
100
AcDbEntity
  8
0
100
AcDbVertex
100
AcDb2dVertex
 10
233.848755
 20
237.843353
 30
0.0
  0
VERTEX
  5
777
330
773
100
AcDbEntity
  8
0
100
AcDbVertex
100
AcDb2dVertex
 10
233.848755
 20
237.036911
 30
0.0
  0
VERTEX
  5
778
330
773
100
AcDbEntity
  8
0
100
AcDbVertex
100
AcDb2dVertex
 10
233.561249
 20
236.55304
 30
0.0
  0
VERTEX
  5
779
330
773
100
AcDbEntity
  8
0
100
AcDbVertex
100
AcDb2dVertex
 10
233.158752
 20
236.230453
 30
0.0
  0
SEQEND
  5
77A
330
773
100
AcDbEntity
  8
0
 62
     7
  0
POLYLINE
  5
77B
330
1F
100
AcDbEntity
  8
0
 62
     7
100
AcDb2dPolyline
 66
     1
 10
0.0
 20
0.0
 30
0.0
  0
VERTEX
  5
77C
330
77B
100
AcDbEntity
  8
0
100
AcDbVertex
100
AcDb2dVertex
 10
232.698746
 20
236.230453
 30
0.0
  0
VERTEX
  5
77D
330
77B
100
AcDbEntity
  8
0
100
AcDbVertex
100
AcDb2dVertex
 10
233.848755
 20
233.649811
 30
0.0
  0
SEQEND
  5
77E
330
77B
100
AcDbEntity
  8
0
 62
     7
  0
POLYLINE
  5
77F
330
1F
100
AcDbEntity
  8
0
 62
     7
100
AcDb2dPolyline
 66
     1
 10
0.0
 20
0.0
 30
0.0
  0
VERTEX
  5
780
330
77F
100
AcDbEntity
  8
0
100
AcDbVertex
100
AcDb2dVertex
 10
237.913757
 20
233.649811
 30
0.0
  0
VERTEX
  5
781
330
77F
100
AcDbEntity
  8
0
100
AcDbVertex
100
AcDb2dVertex
 10
235.153748
 20
233.649811
 30
0.0
  0
VERTEX
  5
782
330
77F
100
AcDbEntity
  8
0
100
AcDbVertex
100
AcDb2dVertex
 10
237.108749
 20
235.907883
 30
0.0
  0
VERTEX
  5
783
330
77F
100
AcDbEntity
  8
0
100
AcDbVertex
100
AcDb2dVertex
 10
237.511246
 20
236.55304
 30
0.0
  0
VERTEX
  5
784
330
77F
100
AcDbEntity
  8
0
100
AcDbVertex
100
AcDb2dVertex
 10
237.683746
 20
237.036911
 30
0.0
  0
VERTEX
  5
785
330
77F
100
AcDbEntity
  8
0
100
AcDbVertex
100
AcDb2dVertex
 10
237.683746
 20
237.520782
 30
0.0
  0
VERTEX
  5
786
330
77F
100
AcDbEntity
  8
0
100
AcDbVertex
100
AcDb2dVertex
 10
237.511246
 20
238.085297
 30
0.0
  0
VERTEX
  5
787
330
77F
100
AcDbEntity
  8
0
100
AcDbVertex
100
AcDb2dVertex
 10
237.338745
 20
238.407867
 30
0.0
  0
VERTEX
  5
788
330
77F
100
AcDbEntity
  8
0
100
AcDbVertex
100
AcDb2dVertex
 10
236.936249
 20
238.649811
 30
0.0
  0
VERTEX
  5
789
330
77F
100
AcDbEntity
  8
0
100
AcDbVertex
100
AcDb2dVertex
 10
236.246246
 20
238.649811
 30
0.0
  0
VERTEX
  5
78A
330
77F
100
AcDbEntity
  8
0
100
AcDbVertex
100
AcDb2dVertex
 10
235.84375
 20
238.407867
 30
0.0
  0
VERTEX
  5
78B
330
77F
100
AcDbEntity
  8
0
100
AcDbVertex
100
AcDb2dVertex
 10
235.671249
 20
238.165939
 30
0.0
  0
VERTEX
  5
78C
330
77F
100
AcDbEntity
  8
0
100
AcDbVertex
100
AcDb2dVertex
 10
235.441254
 20
237.682068
 30
0.0
  0
VERTEX
  5
78D
330
77F
100
AcDbEntity
  8
0
100
AcDbVertex
100
AcDb2dVertex
 10
235.441254
 20
237.44014
 30
0.0
  0
SEQEND
  5
78E
330
77F
100
AcDbEntity
  8
0
 62
     7
  0
POLYLINE
  5
78F
330
1F
100
AcDbEntity
  8
0
 62
     7
100
AcDb2dPolyline
 66
     1
 10
0.0
 20
0.0
 30
0.0
  0
VERTEX
  5
790
330
78F
100
AcDbEntity
  8
0
100
AcDbVertex
100
AcDb2dVertex
 10
241.748749
 20
235.424011
 30
0.0
  0
VERTEX
  5
791
330
78F
100
AcDbEntity
  8
0
100
AcDbVertex
100
AcDb2dVertex
 10
239.10376
 20
235.424011
 30
0.0
  0
VERTEX
  5
792
330
78F
100
AcDbEntity
  8
0
100
AcDbVertex
100
AcDb2dVertex
 10
241.058746
 20
238.649811
 30
0.0
  0
VERTEX
  5
793
330
78F
100
AcDbEntity
  8
0
100
AcDbVertex
100
AcDb2dVertex
 10
241.058746
 20
236.230453
 30
0.0
  0
VERTEX
  5
794
330
78F
100
AcDbEntity
  8
0
100
AcDbVertex
100
AcDb2dVertex
 10
241.058746
 20
233.649811
 30
0.0
  0
SEQEND
  5
795
330
78F
100
AcDbEntity
  8
0
 62
     7
  0
POLYLINE
  5
796
330
1F
100
AcDbEntity
  8
0
 62
     7
100
AcDb2dPolyline
 66
     1
 10
0.0
 20
0.0
 30
0.0
  0
VERTEX
  5
797
330
796
100
AcDbEntity
  8
0
100
AcDbVertex
100
AcDb2dVertex
 10
243.226257
 20
235.665939
 30
0.0
  0
VERTEX
  5
798
330
796
100
AcDbEntity
  8
0
100
AcDbVertex
100
AcDb2dVertex
 10
245.871246
 20
235.665939
 30
0.0
  0
SEQEND
  5
799
330
796
100
AcDbEntity
  8
0
 62
     7
  0
POLYLINE
  5
79A
330
1F
100
AcDbEntity
  8
0
 62
     7
100
AcDb2dPolyline
 66
     1
 10
0.0
 20
0.0
 30
0.0
 70
     1
  0
VERTEX
  5
79B
330
79A
100
AcDbEntity
  8
0
100
AcDbVertex
100
AcDb2dVertex
 10
248.153748
 20
238.649811
 30
0.0
  0
VERTEX
  5
79C
330
79A
100
AcDbEntity
  8
0
100
AcDbVertex
100
AcDb2dVertex
 10
247.521255
 20
238.407867
 30
0.0
  0
VERTEX
  5
79D
330
79A
100
AcDbEntity
  8
0
100
AcDbVertex
100
AcDb2dVertex
 10
247.118744
 20
237.601425
 30
0.0
  0
VERTEX
  5
79E
330
79A
100
AcDbEntity
  8
0
100
AcDbVertex
100
AcDb2dVertex
 10
246.946259
 20
236.794968
 30
0.0
  0
VERTEX
  5
79F
330
79A
100
AcDbEntity
  8
0
100
AcDbVertex
100
AcDb2dVertex
 10
246.946259
 20
235.746582
 30
0.0
  0
VERTEX
  5
7A0
330
79A
100
AcDbEntity
  8
0
100
AcDbVertex
100
AcDb2dVertex
 10
247.118744
 20
234.698196
 30
0.0
  0
VERTEX
  5
7A1
330
79A
100
AcDbEntity
  8
0
100
AcDbVertex
100
AcDb2dVertex
 10
247.521255
 20
233.891739
 30
0.0
  0
VERTEX
  5
7A2
330
79A
100
AcDbEntity
  8
0
100
AcDbVertex
100
AcDb2dVertex
 10
248.153748
 20
233.649811
 30
0.0
  0
VERTEX
  5
7A3
330
79A
100
AcDbEntity
  8
0
100
AcDbVertex
100
AcDb2dVertex
 10
248.613754
 20
233.649811
 30
0.0
  0
VERTEX
  5
7A4
330
79A
100
AcDbEntity
  8
0
100
AcDbVertex
100
AcDb2dVertex
 10
249.246246
 20
233.891739
 30
0.0
  0
VERTEX
  5
7A5
330
79A
100
AcDbEntity
  8
0
100
AcDbVertex
100
AcDb2dVertex
 10
249.648743
 20
234.698196
 30
0.0
  0
VERTEX
  5
7A6
330
79A
100
AcDbEntity
  8
0
100
AcDbVertex
100
AcDb2dVertex
 10
249.821259
 20
235.665939
 30
0.0
  0
VERTEX
  5
7A7
330
79A
100
AcDbEntity
  8
0
100
AcDbVertex
100
AcDb2dVertex
 10
249.821259
 20
236.794968
 30
0.0
  0
VERTEX
  5
7A8
330
79A
100
AcDbEntity
  8
0
100
AcDbVertex
100
AcDb2dVertex
 10
249.648743
 20
237.601425
 30
0.0
  0
VERTEX
  5
7A9
330
79A
100
AcDbEntity
  8
0
100
AcDbVertex
100
AcDb2dVertex
 10
249.246246
 20
238.407867
 30
0.0
  0
VERTEX
  5
7AA
330
79A
100
AcDbEntity
  8
0
100
AcDbVertex
100
AcDb2dVertex
 10
248.613754
 20
238.649811
 30
0.0
  0
SEQEND
  5
7AB
330
79A
100
AcDbEntity
  8
0
 62
     7
  0
POLYLINE
  5
7AC
330
1F
100
AcDbEntity
  8
0
 62
     7
100
AcDb2dPolyline
 66
     1
 10
0.0
 20
0.0
 30
0.0
  0
VERTEX
  5
7AD
330
7AC
100
AcDbEntity
  8
0
100
AcDbVertex
100
AcDb2dVertex
 10
253.598755
 20
235.424011
 30
0.0
  0
VERTEX
  5
7AE
330
7AC
100
AcDbEntity
  8
0
100
AcDbVertex
100
AcDb2dVertex
 10
250.953751
 20
235.424011
 30
0.0
  0
VERTEX
  5
7AF
330
7AC
100
AcDbEntity
  8
0
100
AcDbVertex
100
AcDb2dVertex
 10
252.908752
 20
238.649811
 30
0.0
  0
VERTEX
  5
7B0
330
7AC
100
AcDbEntity
  8
0
100
AcDbVertex
100
AcDb2dVertex
 10
252.908752
 20
236.230453
 30
0.0
  0
VERTEX
  5
7B1
330
7AC
100
AcDbEntity
  8
0
100
AcDbVertex
100
AcDb2dVertex
 10
252.908752
 20
233.649811
 30
0.0
  0
SEQEND
  5
7B2
330
7AC
100
AcDbEntity
  8
0
 62
     7
  0
POLYLINE
  5
7B3
330
1F
100
AcDbEntity
  8
0
 62
     7
100
AcDb2dPolyline
 66
     1
 10
0.0
 20
0.0
 30
0.0
  0
VERTEX
  5
7B4
330
7B3
100
AcDbEntity
  8
0
100
AcDbVertex
100
AcDb2dVertex
 10
254.903748
 20
238.649811
 30
0.0
  0
VERTEX
  5
7B5
330
7B3
100
AcDbEntity
  8
0
100
AcDbVertex
100
AcDb2dVertex
 10
257.663757
 20
238.649811
 30
0.0
  0
VERTEX
  5
7B6
330
7B3
100
AcDbEntity
  8
0
100
AcDbVertex
100
AcDb2dVertex
 10
255.59375
 20
233.649811
 30
0.0
  0
SEQEND
  5
7B7
330
7B3
100
AcDbEntity
  8
0
 62
     7
  0
ENDSEC
  0
SECTION
  2
OBJECTS
  0
DICTIONARY
  5
C
330
0
100
AcDbDictionary
  3
ACAD_GROUP
350
D
  3
ACAD_MLINESTYLE
350
17
  3
ACAD_SCALELIST
350
47
  0
DICTIONARY
  5
D
102
{ACAD_REACTORS
330
C
102
}
330
C
100
AcDbDictionary
  0
DICTIONARY
  5
17
102
{ACAD_REACTORS
330
C
102
}
330
C
100
AcDbDictionary
  3
STANDARD
350
18
  0
DICTIONARY
  5
47
102
{ACAD_REACTORS
330
C
102
}
330
C
100
AcDbDictionary
  0
MLINESTYLE
  5
18
102
{ACAD_REACTORS
330
17
102
}
330
17
100
AcDbMlineStyle
  2
Standard
 70
     0
  3

 62
   256
 51
90.0
 52
90.0
 71
     2
 49
0.5
 62
   256
  6
BYLAYER
 49
-0.5
 62
   256
  6
BYLAYER
  0
ENDSEC
  0
EOF
