  0
SECTION
  2
HEADER
  9
$ACADVER
  1
AC1014
  9
$ACADMAINTVER
 70
     9
  9
$DWGCODEPAGE
  3
ANSI_1252
  9
$INSBASE
 10
0.0
 20
0.0
 30
0.0
  9
$EXTMIN
 10
0.0
 20
0.0
 30
0.0
  9
$EXTMAX
 10
580.306946
 20
276.849976
 30
2.0
  9
$LIMMIN
 10
0.0
 20
0.0
  9
$LIMMAX
 10
420.0
 20
297.0
  9
$ORTHOMODE
 70
     0
  9
$REGENMODE
 70
     1
  9
$FILLMODE
 70
     1
  9
$QTEXTMODE
 70
     0
  9
$MIRRTEXT
 70
     1
  9
$DRAGMODE
 70
     2
  9
$LTSCALE
 40
1.0
  9
$OSMODE
 70
     0
  9
$ATTMODE
 70
     1
  9
$TEXTSIZE
 40
2.5
  9
$TRACEWID
 40
1.0
  9
$TEXTSTYLE
  7
STANDARD
  9
$CLAYER
  8
0
  9
$CELTYPE
  6
BYLAYER
  9
$CECOLOR
 62
   256
  9
$CELTSCALE
 40
1.0
  9
$DELOBJ
 70
     1
  9
$DISPSILH
 70
     0
  9
$DIMSCALE
 40
1.0
  9
$DIMASZ
 40
2.5
  9
$DIMEXO
 40
0.625
  9
$DIMDLI
 40
3.75
  9
$DIMRND
 40
0.0
  9
$DIMDLE
 40
0.0
  9
$DIMEXE
 40
1.25
  9
$DIMTP
 40
0.0
  9
$DIMTM
 40
0.0
  9
$DIMTXT
 40
2.5
  9
$DIMCEN
 40
2.5
  9
$DIMTSZ
 40
0.0
  9
$DIMTOL
 70
     0
  9
$DIMLIM
 70
     0
  9
$DIMTIH
 70
     0
  9
$DIMTOH
 70
     0
  9
$DIMSE1
 70
     0
  9
$DIMSE2
 70
     0
  9
$DIMTAD
 70
     1
  9
$DIMZIN
 70
     8
  9
$DIMBLK
  1

  9
$DIMASO
 70
     1
  9
$DIMSHO
 70
     1
  9
$DIMPOST
  1

  9
$DIMAPOST
  1

  9
$DIMALT
 70
     0
  9
$DIMALTD
 70
     3
  9
$DIMALTF
 40
0.03937
  9
$DIMLFAC
 40
1.0
  9
$DIMTOFL
 70
     1
  9
$DIMTVP
 40
0.0
  9
$DIMTIX
 70
     0
  9
$DIMSOXD
 70
     0
  9
$DIMSAH
 70
     0
  9
$DIMBLK1
  1

  9
$DIMBLK2
  1

  9
$DIMSTYLE
  2
STANDARD
  9
$DIMCLRD
 70
     0
  9
$DIMCLRE
 70
     0
  9
$DIMCLRT
 70
     0
  9
$DIMTFAC
 40
1.0
  9
$DIMGAP
 40
0.625
  9
$DIMJUST
 70
     0
  9
$DIMSD1
 70
     0
  9
$DIMSD2
 70
     0
  9
$DIMTOLJ
 70
     0
  9
$DIMTZIN
 70
     8
  9
$DIMALTZ
 70
     0
  9
$DIMALTTZ
 70
     0
  9
$DIMFIT
 70
     0
  9
$DIMUPT
 70
     0
  9
$DIMUNIT
 70
     2
  9
$DIMDEC
 70
     2
  9
$DIMTDEC
 70
     2
  9
$DIMALTU
 70
     2
  9
$DIMALTTD
 70
     3
  9
$DIMTXSTY
  7
STANDARD
  9
$DIMAUNIT
 70
     0
  9
$LUNITS
 70
     2
  9
$LUPREC
 70
     4
  9
$SKETCHINC
 40
1.0
  9
$FILLETRAD
 40
2.5
  9
$AUNITS
 70
     0
  9
$AUPREC
 70
     0
  9
$MENU
  1
.
  9
$ELEVATION
 40
0.0
  9
$PELEVATION
 40
0.0
  9
$THICKNESS
 40
0.0
  9
$LIMCHECK
 70
     0
  9
$BLIPMODE
 70
     1
  9
$CHAMFERA
 40
2.5
  9
$CHAMFERB
 40
2.5
  9
$CHAMFERC
 40
0.0
  9
$CHAMFERD
 40
0.0
  9
$SKPOLY
 70
     0
  9
$TDCREATE
 40
2447893.375
  9
$TDUPDATE
 40
2460350.633163183
  9
$TDINDWG
 40
0.0
  9
$TDUSRTIMER
 40
0.0
  9
$USRTIMER
 70
     1
  9
$ANGBASE
 50
0.0
  9
$ANGDIR
 70
     0
  9
$PDMODE
 70
     0
  9
$PDSIZE
 40
0.0
  9
$PLINEWID
 40
0.0
  9
$COORDS
 70
     0
  9
$SPLFRAME
 70
     0
  9
$SPLINETYPE
 70
     6
  9
$SPLINESEGS
 70
     8
  9
$ATTDIA
 70
     0
  9
$ATTREQ
 70
     1
  9
$HANDLING
 70
     1
  9
$HANDSEED
  5
714
  9
$SURFTAB1
 70
     6
  9
$SURFTAB2
 70
     6
  9
$SURFTYPE
 70
     6
  9
$SURFU
 70
     6
  9
$SURFV
 70
     6
  9
$UCSNAME
  2

  9
$UCSORG
 10
0.0
 20
0.0
 30
0.0
  9
$UCSXDIR
 10
1.0
 20
0.0
 30
0.0
  9
$UCSYDIR
 10
0.0
 20
1.0
 30
0.0
  9
$PUCSNAME
  2

  9
$PUCSORG
 10
0.0
 20
0.0
 30
0.0
  9
$PUCSXDIR
 10
1.0
 20
0.0
 30
0.0
  9
$PUCSYDIR
 10
0.0
 20
1.0
 30
0.0
  9
$USERI1
 70
     0
  9
$USERI2
 70
     0
  9
$USERI3
 70
     0
  9
$USERI4
 70
     0
  9
$USERI5
 70
     0
  9
$USERR1
 40
0.0
  9
$USERR2
 40
0.0
  9
$USERR3
 40
0.0
  9
$USERR4
 40
0.0
  9
$USERR5
 40
0.0
  9
$WORLDVIEW
 70
     1
  9
$SHADEDGE
 70
     3
  9
$SHADEDIF
 70
    70
  9
$TILEMODE
 70
     1
  9
$MAXACTVP
 70
    64
  9
$PINSBASE
 10
0.0
 20
0.0
 30
0.0
  9
$PLIMCHECK
 70
     0
  9
$PEXTMIN
 10
0.0
 20
0.0
 30
0.0
  9
$PEXTMAX
 10
580.306946
 20
276.849976
 30
2.0
  9
$PLIMMIN
 10
0.0
 20
0.0
  9
$PLIMMAX
 10
420.0
 20
297.0
  9
$UNITMODE
 70
     0
  9
$VISRETAIN
 70
     0
  9
$PLINEGEN
 70
     0
  9
$PSLTSCALE
 70
     1
  9
$TREEDEPTH
 70
  3020
  9
$PICKSTYLE
 70
     1
  9
$CMLSTYLE
  2
STANDARD
  9
$CMLJUST
 70
     0
  9
$CMLSCALE
 40
20.0
  9
$PROXYGRAPHICS
 70
     1
  9
$MEASUREMENT
 70
     1
  0
ENDSEC
  0
SECTION
  2
CLASSES
  0
CLASS
  1
ACDBDICTIONARYWDFLT
  2
AcDbDictionaryWithDefault
  3
ObjectDBX Classes
 90
        0
280
     0
281
     0
  0
CLASS
  1
VISUALSTYLE
  2
AcDbVisualStyle
  3
ObjectDBX Classes
 90
     4095
280
     0
281
     0
  0
CLASS
  1
MATERIAL
  2
AcDbMaterial
  3
ObjectDBX Classes
 90
     1153
280
     0
281
     0
  0
CLASS
  1
SCALE
  2
AcDbScale
  3
ObjectDBX Classes
 90
     1153
280
     0
281
     0
  0
CLASS
  1
SUN
  2
AcDbSun
  3
SCENEOE
 90
     1153
280
     0
281
     0
  0
CLASS
  1
XRECORD
  2
AcDbXrecord
  3
ObjectDBX Classes
 90
        0
280
     0
281
     0
  0
CLASS
  1
LWPOLYLINE
  2
AcDbPolyline
  3
ObjectDBX Classes
 90
        0
280
     0
281
     1
  0
CLASS
  1
HATCH
  2
AcDbHatch
  3
ObjectDBX Classes
 90
        0
280
     0
281
     1
  0
ENDSEC
  0
SECTION
  2
TABLES
  0
TABLE
  2
VPORT
  5
8
330
0
100
AcDbSymbolTable
 70
     1
  0
VPORT
  5
29
330
8
100
AcDbSymbolTableRecord
100
AcDbViewportTableRecord
  2
*ACTIVE
 70
     0
 10
0.0
 20
0.0
 11
1.0
 21
1.0
 12
10.429907
 22
4.5
 13
0.0
 23
0.0
 14
0.5
 24
0.5
 15
0.5
 25
0.5
 16
0.0
 26
0.0
 36
1.0
 17
0.0
 27
0.0
 37
0.0
 40
9.0
 41
1.972973
 42
50.0
 43
0.0
 44
0.0
 50
0.0
 51
0.0
 71
     0
 72
   100
 73
     1
 74
     3
 75
     0
 76
     0
 77
     0
 78
     0
  0
ENDTAB
  0
TABLE
  2
LTYPE
  5
5
330
0
100
AcDbSymbolTable
 70
     1
  0
LTYPE
  5
14
330
5
100
AcDbSymbolTableRecord
100
AcDbLinetypeTableRecord
  2
BYBLOCK
 70
     0
  3

 72
    65
 73
     0
 40
0.0
  0
LTYPE
  5
15
330
5
100
AcDbSymbolTableRecord
100
AcDbLinetypeTableRecord
  2
BYLAYER
 70
     0
  3

 72
    65
 73
     0
 40
0.0
  0
LTYPE
  5
16
330
5
100
AcDbSymbolTableRecord
100
AcDbLinetypeTableRecord
  2
CONTINUOUS
 70
     0
  3
Solid line
 72
    65
 73
     0
 40
0.0
  0
ENDTAB
  0
TABLE
  2
LAYER
  5
2
330
0
100
AcDbSymbolTable
 70
     1
  0
LAYER
  5
10
330
2
100
AcDbSymbolTableRecord
100
AcDbLayerTableRecord
  2
0
 70
     0
 62
     7
  6
CONTINUOUS
  0
ENDTAB
  0
TABLE
  2
STYLE
  5
3
330
0
100
AcDbSymbolTable
 70
     1
  0
STYLE
  5
11
330
3
100
AcDbSymbolTableRecord
100
AcDbTextStyleTableRecord
  2
STANDARD
 70
     0
 40
0.0
 41
1.0
 50
0.0
 71
     0
 42
2.5
  3
txt
  4

  0
ENDTAB
  0
TABLE
  2
VIEW
  5
6
330
0
100
AcDbSymbolTable
 70
     0
  0
ENDTAB
  0
TABLE
  2
UCS
  5
7
330
0
100
AcDbSymbolTable
 70
     0
  0
ENDTAB
  0
TABLE
  2
APPID
  5
9
330
0
100
AcDbSymbolTable
 70
     1
  0
APPID
  5
12
330
9
100
AcDbSymbolTableRecord
100
AcDbRegAppTableRecord
  2
ACAD
 70
     0
  0
ENDTAB
  0
TABLE
  2
DIMSTYLE
  5
A
330
0
100
AcDbSymbolTable
 70
     1
  0
DIMSTYLE
105
27
330
A
100
AcDbSymbolTableRecord
100
AcDbDimStyleTableRecord
  2
STANDARD
 70
     0
  3

  4

  5

  6

  7

 40
1.0
 41
0.18
 42
0.0625
 43
0.38
 44
0.18
 45
0.0
 46
0.0
 47
0.0
 48
0.0
140
0.18
141
0.09
142
0.0
143
25.4
144
1.0
145
0.0
146
1.0
147
0.09
 71
     0
 72
     0
 73
     1
 74
     1
 75
     0
 76
     0
 77
     0
 78
     0
170
     0
171
     2
172
     0
173
     0
174
     0
175
     0
176
     0
177
     0
178
     0
270
     2
271
     4
272
     4
273
     2
274
     2
340
11
275
     0
280
     0
281
     0
282
     0
283
     1
284
     0
285
     0
286
     0
287
     3
288
     0
  0
ENDTAB
  0
TABLE
  2
BLOCK_RECORD
  5
1
330
0
100
AcDbSymbolTable
 70
     1
  0
BLOCK_RECORD
  5
1F
330
1
100
AcDbSymbolTableRecord
100
AcDbBlockTableRecord
  2
*MODEL_SPACE
  0
BLOCK_RECORD
  5
1B
330
1
100
AcDbSymbolTableRecord
100
AcDbBlockTableRecord
  2
*PAPER_SPACE
  0
BLOCK_RECORD
  5
23
330
1
100
AcDbSymbolTableRecord
100
AcDbBlockTableRecord
  2
*PAPER_SPACE0
  0
ENDTAB
  0
ENDSEC
  0
SECTION
  2
BLOCKS
  0
BLOCK
  5
20
330
1F
100
AcDbEntity
  8
0
100
AcDbBlockBegin
  2
*MODEL_SPACE
 70
     0
 10
0.0
 20
0.0
 30
0.0
  3
*MODEL_SPACE
  1

  0
ENDBLK
  5
21
330
1F
100
AcDbEntity
  8
0
100
AcDbBlockEnd
  0
BLOCK
  5
1C
330
1B
100
AcDbEntity
 67
     1
  8
0
100
AcDbBlockBegin
  2
*PAPER_SPACE
 70
     0
 10
0.0
 20
0.0
 30
0.0
  3
*PAPER_SPACE
  1

  0
ENDBLK
  5
1D
330
1B
100
AcDbEntity
 67
     1
  8
0
100
AcDbBlockEnd
  0
BLOCK
  5
24
330
23
100
AcDbEntity
  8
0
100
AcDbBlockBegin
  2
*PAPER_SPACE0
 70
     0
 10
0.0
 20
0.0
 30
0.0
  3
*PAPER_SPACE0
  1
*PAPER_SPACE0
  0
ENDBLK
  5
25
330
23
100
AcDbEntity
  8
0
100
AcDbBlockEnd
  0
ENDSEC
  0
SECTION
  2
ENTITIES
  0
LINE
  5
6A
330
1F
100
AcDbEntity
  8
0
 62
     7
100
AcDbLine
 10
577.806946
 20
245.850006
 30
0.0
 11
577.806946
 21
258.950012
 31
0.0
  0
LINE
  5
6B
330
1F
100
AcDbEntity
  8
0
 62
     7
100
AcDbLine
 10
577.806946
 20
258.950012
 30
0.0
 11
575.48822
 21
258.950012
 31
0.0
  0
ARC
  5
6C
330
1F
100
AcDbEntity
  8
0
 62
     7
100
AcDbCircle
 10
568.806946
 20
263.349976
 30
0.0
 40
8.0
100
AcDbArc
 50
213.367013
 51
326.632979
  0
LINE
  5
6D
330
1F
100
AcDbEntity
  8
0
 62
     7
100
AcDbLine
 10
562.12561
 20
258.950012
 30
0.0
 11
503.457001
 21
258.950012
 31
0.0
  0
LINE
  5
6E
330
1F
100
AcDbEntity
  8
0
 62
     7
100
AcDbLine
 10
503.457001
 20
255.050003
 30
0.0
 11
503.457001
 21
258.950012
 31
0.0
  0
ARC
  5
6F
330
1F
100
AcDbEntity
  8
0
 62
     7
100
AcDbCircle
 10
502.957001
 20
255.050003
 30
0.0
 40
0.5
100
AcDbArc
 50
180.000009
 51
360.0
  0
LINE
  5
70
330
1F
100
AcDbEntity
  8
0
 62
     7
100
AcDbLine
 10
502.457001
 20
258.950012
 30
0.0
 11
502.457001
 21
255.050003
 31
0.0
  0
LINE
  5
71
330
1F
100
AcDbEntity
  8
0
 62
     7
100
AcDbLine
 10
502.457001
 20
258.950012
 30
0.0
 11
500.157013
 21
258.950012
 31
0.0
  0
LINE
  5
72
330
1F
100
AcDbEntity
  8
0
 62
     7
100
AcDbLine
 10
500.157013
 20
255.050003
 30
0.0
 11
500.157013
 21
258.950012
 31
0.0
  0
ARC
  5
73
330
1F
100
AcDbEntity
  8
0
 62
     7
100
AcDbCircle
 10
499.657013
 20
255.050003
 30
0.0
 40
0.5
100
AcDbArc
 50
180.000009
 51
360.0
  0
LINE
  5
74
330
1F
100
AcDbEntity
  8
0
 62
     7
100
AcDbLine
 10
499.157013
 20
258.950012
 30
0.0
 11
499.157013
 21
255.050003
 31
0.0
  0
LINE
  5
75
330
1F
100
AcDbEntity
  8
0
 62
     7
100
AcDbLine
 10
499.157013
 20
258.950012
 30
0.0
 11
253.45697
 21
258.950012
 31
0.0
  0
LINE
  5
76
330
1F
100
AcDbEntity
  8
0
 62
     7
100
AcDbLine
 10
253.45697
 20
255.050003
 30
0.0
 11
253.45697
 21
258.950012
 31
0.0
  0
ARC
  5
77
330
1F
100
AcDbEntity
  8
0
 62
     7
100
AcDbCircle
 10
252.95697
 20
255.050003
 30
0.0
 40
0.5
100
AcDbArc
 50
180.000009
 51
360.0
  0
LINE
  5
78
330
1F
100
AcDbEntity
  8
0
 62
     7
100
AcDbLine
 10
252.45697
 20
258.950012
 30
0.0
 11
252.45697
 21
255.050003
 31
0.0
  0
LINE
  5
79
330
1F
100
AcDbEntity
  8
0
 62
     7
100
AcDbLine
 10
252.45697
 20
258.950012
 30
0.0
 11
250.156982
 21
258.950012
 31
0.0
  0
LINE
  5
7A
330
1F
100
AcDbEntity
  8
0
 62
     7
100
AcDbLine
 10
250.156982
 20
255.050003
 30
0.0
 11
250.156982
 21
258.950012
 31
0.0
  0
ARC
  5
7B
330
1F
100
AcDbEntity
  8
0
 62
     7
100
AcDbCircle
 10
249.656982
 20
255.050003
 30
0.0
 40
0.5
100
AcDbArc
 50
180.000009
 51
360.0
  0
LINE
  5
7C
330
1F
100
AcDbEntity
  8
0
 62
     7
100
AcDbLine
 10
249.156982
 20
258.950012
 30
0.0
 11
249.156982
 21
255.050003
 31
0.0
  0
LINE
  5
7D
330
1F
100
AcDbEntity
  8
0
 62
     7
100
AcDbLine
 10
249.156982
 20
258.950012
 30
0.0
 11
190.488297
 21
258.950012
 31
0.0
  0
ARC
  5
7E
330
1F
100
AcDbEntity
  8
0
 62
     7
100
AcDbCircle
 10
183.806976
 20
263.349976
 30
0.0
 40
8.0
100
AcDbArc
 50
213.367013
 51
326.632979
  0
LINE
  5
7F
330
1F
100
AcDbEntity
  8
0
 62
     7
100
AcDbLine
 10
177.125656
 20
258.950012
 30
0.0
 11
174.806976
 21
258.950012
 31
0.0
  0
LINE
  5
80
330
1F
100
AcDbEntity
  8
0
 62
     7
100
AcDbLine
 10
174.806976
 20
245.850006
 30
0.0
 11
174.806976
 21
258.950012
 31
0.0
  0
LINE
  5
81
330
1F
100
AcDbEntity
  8
0
 62
     7
100
AcDbLine
 10
577.806946
 20
245.050003
 30
0.0
 11
577.806946
 21
245.850006
 31
0.0
  0
LINE
  5
82
330
1F
100
AcDbEntity
  8
0
 62
     7
100
AcDbLine
 10
174.806976
 20
245.850006
 30
0.0
 11
174.806976
 21
245.050003
 31
0.0
  0
LINE
  5
83
330
1F
100
AcDbEntity
  8
0
 62
     7
100
AcDbLine
 10
174.806976
 20
245.050003
 30
0.0
 11
577.806946
 21
245.050003
 31
0.0
  0
LINE
  5
84
330
1F
100
AcDbEntity
  8
0
 62
     7
100
AcDbLine
 10
577.806946
 20
259.079285
 30
0.0
 11
577.806946
 21
258.950012
 31
0.0
  0
LINE
  5
85
330
1F
100
AcDbEntity
  8
0
 62
     7
100
AcDbLine
 10
577.806946
 20
259.079285
 30
0.0
 11
577.806946
 21
259.220703
 31
0.0
  0
LINE
  5
86
330
1F
100
AcDbEntity
  8
0
 62
     7
100
AcDbLine
 10
577.806946
 20
259.349976
 30
0.0
 11
577.806946
 21
259.220703
 31
0.0
  0
LINE
  5
87
330
1F
100
AcDbEntity
  8
0
 62
     7
100
AcDbLine
 10
577.806946
 20
259.349976
 30
0.0
 11
577.806946
 21
260.049988
 31
0.0
  0
LINE
  5
88
330
1F
100
AcDbEntity
  8
0
 62
     7
100
AcDbLine
 10
577.806946
 20
260.17926
 30
0.0
 11
577.806946
 21
260.049988
 31
0.0
  0
LINE
  5
89
330
1F
100
AcDbEntity
  8
0
 62
     7
100
AcDbLine
 10
577.806946
 20
260.17926
 30
0.0
 11
577.806946
 21
260.320679
 31
0.0
  0
LINE
  5
8A
330
1F
100
AcDbEntity
  8
0
 62
     7
100
AcDbLine
 10
577.806946
 20
260.450012
 30
0.0
 11
577.806946
 21
260.320679
 31
0.0
  0
LINE
  5
8B
330
1F
100
AcDbEntity
  8
0
 62
     7
100
AcDbLine
 10
577.806946
 20
260.450012
 30
0.0
 11
577.806946
 21
261.150024
 31
0.0
  0
LINE
  5
8C
330
1F
100
AcDbEntity
  8
0
 62
     7
100
AcDbLine
 10
577.806946
 20
261.279297
 30
0.0
 11
577.806946
 21
261.150024
 31
0.0
  0
LINE
  5
8D
330
1F
100
AcDbEntity
  8
0
 62
     7
100
AcDbLine
 10
577.806946
 20
261.279297
 30
0.0
 11
577.806946
 21
261.420715
 31
0.0
  0
LINE
  5
8E
330
1F
100
AcDbEntity
  8
0
 62
     7
100
AcDbLine
 10
577.806946
 20
261.549988
 30
0.0
 11
577.806946
 21
261.420715
 31
0.0
  0
LINE
  5
8F
330
1F
100
AcDbEntity
  8
0
 62
     7
100
AcDbLine
 10
577.806946
 20
261.549988
 30
0.0
 11
577.806946
 21
262.25
 31
0.0
  0
LINE
  5
90
330
1F
100
AcDbEntity
  8
0
 62
     7
100
AcDbLine
 10
577.806946
 20
262.379272
 30
0.0
 11
577.806946
 21
262.25
 31
0.0
  0
LINE
  5
91
330
1F
100
AcDbEntity
  8
0
 62
     7
100
AcDbLine
 10
577.806946
 20
262.379272
 30
0.0
 11
577.806946
 21
262.520691
 31
0.0
  0
LINE
  5
92
330
1F
100
AcDbEntity
  8
0
 62
     7
100
AcDbLine
 10
577.806946
 20
262.650024
 30
0.0
 11
577.806946
 21
262.520691
 31
0.0
  0
LINE
  5
93
330
1F
100
AcDbEntity
  8
0
 62
     7
100
AcDbLine
 10
577.806946
 20
262.650024
 30
0.0
 11
577.806946
 21
263.349976
 31
0.0
  0
LINE
  5
94
330
1F
100
AcDbEntity
  8
0
 62
     7
100
AcDbLine
 10
577.806946
 20
263.479309
 30
0.0
 11
577.806946
 21
263.349976
 31
0.0
  0
LINE
  5
95
330
1F
100
AcDbEntity
  8
0
 62
     7
100
AcDbLine
 10
577.806946
 20
263.479309
 30
0.0
 11
577.806946
 21
263.620728
 31
0.0
  0
LINE
  5
96
330
1F
100
AcDbEntity
  8
0
 62
     7
100
AcDbLine
 10
577.806946
 20
263.75
 30
0.0
 11
577.806946
 21
263.620728
 31
0.0
  0
LINE
  5
97
330
1F
100
AcDbEntity
  8
0
 62
     7
100
AcDbLine
 10
577.806946
 20
263.75
 30
0.0
 11
577.806946
 21
264.450012
 31
0.0
  0
LINE
  5
98
330
1F
100
AcDbEntity
  8
0
 62
     7
100
AcDbLine
 10
577.806946
 20
264.579285
 30
0.0
 11
577.806946
 21
264.450012
 31
0.0
  0
LINE
  5
99
330
1F
100
AcDbEntity
  8
0
 62
     7
100
AcDbLine
 10
577.806946
 20
264.579285
 30
0.0
 11
577.806946
 21
264.720703
 31
0.0
  0
LINE
  5
9A
330
1F
100
AcDbEntity
  8
0
 62
     7
100
AcDbLine
 10
577.806946
 20
264.849976
 30
0.0
 11
577.806946
 21
264.720703
 31
0.0
  0
LINE
  5
9B
330
1F
100
AcDbEntity
  8
0
 62
     7
100
AcDbLine
 10
577.806946
 20
264.849976
 30
0.0
 11
577.806946
 21
265.549988
 31
0.0
  0
LINE
  5
9C
330
1F
100
AcDbEntity
  8
0
 62
     7
100
AcDbLine
 10
577.806946
 20
265.67926
 30
0.0
 11
577.806946
 21
265.549988
 31
0.0
  0
LINE
  5
9D
330
1F
100
AcDbEntity
  8
0
 62
     7
100
AcDbLine
 10
577.806946
 20
265.67926
 30
0.0
 11
577.806946
 21
265.820679
 31
0.0
  0
LINE
  5
9E
330
1F
100
AcDbEntity
  8
0
 62
     7
100
AcDbLine
 10
577.806946
 20
265.950012
 30
0.0
 11
577.806946
 21
265.820679
 31
0.0
  0
LINE
  5
9F
330
1F
100
AcDbEntity
  8
0
 62
     7
100
AcDbLine
 10
577.806946
 20
265.950012
 30
0.0
 11
577.806946
 21
266.650024
 31
0.0
  0
LINE
  5
A0
330
1F
100
AcDbEntity
  8
0
 62
     7
100
AcDbLine
 10
577.806946
 20
266.779297
 30
0.0
 11
577.806946
 21
266.650024
 31
0.0
  0
LINE
  5
A1
330
1F
100
AcDbEntity
  8
0
 62
     7
100
AcDbLine
 10
577.806946
 20
266.779297
 30
0.0
 11
577.806946
 21
266.920715
 31
0.0
  0
LINE
  5
A2
330
1F
100
AcDbEntity
  8
0
 62
     7
100
AcDbLine
 10
577.806946
 20
267.049988
 30
0.0
 11
577.806946
 21
266.920715
 31
0.0
  0
LINE
  5
A3
330
1F
100
AcDbEntity
  8
0
 62
     7
100
AcDbLine
 10
577.806946
 20
267.049988
 30
0.0
 11
577.806946
 21
267.75
 31
0.0
  0
LINE
  5
A4
330
1F
100
AcDbEntity
  8
0
 62
     7
100
AcDbLine
 10
577.806946
 20
267.879272
 30
0.0
 11
577.806946
 21
267.75
 31
0.0
  0
LINE
  5
A5
330
1F
100
AcDbEntity
  8
0
 62
     7
100
AcDbLine
 10
577.806946
 20
267.879272
 30
0.0
 11
577.806946
 21
268.020691
 31
0.0
  0
LINE
  5
A6
330
1F
100
AcDbEntity
  8
0
 62
     7
100
AcDbLine
 10
577.806946
 20
268.150024
 30
0.0
 11
577.806946
 21
268.020691
 31
0.0
  0
LINE
  5
A7
330
1F
100
AcDbEntity
  8
0
 62
     7
100
AcDbLine
 10
577.806946
 20
268.150024
 30
0.0
 11
577.806946
 21
272.974243
 31
0.0
  0
LINE
  5
A8
330
1F
100
AcDbEntity
  8
0
 62
     7
100
AcDbLine
 10
577.806946
 20
273.462158
 30
0.0
 11
577.806946
 21
272.974243
 31
0.0
  0
LINE
  5
A9
330
1F
100
AcDbEntity
  8
0
 62
     7
100
AcDbLine
 10
577.806946
 20
273.462158
 30
0.0
 11
577.806946
 21
273.549988
 31
0.0
  0
LINE
  5
AA
330
1F
100
AcDbEntity
  8
0
 62
     7
100
AcDbLine
 10
575.48822
 20
258.950012
 30
0.0
 11
575.571594
 21
259.079285
 31
0.0
  0
ARC
  5
AB
330
1F
100
AcDbEntity
  8
0
 62
     7
100
AcDbCircle
 10
568.806946
 20
263.349976
 30
0.0
 40
8.0
100
AcDbArc
 50
354.980203
 51
360.0
  0
LINE
  5
AC
330
1F
100
AcDbEntity
  8
0
 62
     7
100
AcDbLine
 10
576.763855
 20
262.520691
 30
0.0
 11
576.776245
 21
262.650024
 31
0.0
  0
LINE
  5
AD
330
1F
100
AcDbEntity
  8
0
 62
     7
100
AcDbLine
 10
576.747803
 20
262.379272
 30
0.0
 11
576.763855
 21
262.520691
 31
0.0
  0
LINE
  5
AE
330
1F
100
AcDbEntity
  8
0
 62
     7
100
AcDbLine
 10
576.730957
 20
262.25
 30
0.0
 11
576.747803
 21
262.379272
 31
0.0
  0
ARC
  5
AF
330
1F
100
AcDbEntity
  8
0
 62
     7
100
AcDbCircle
 10
568.806946
 20
263.349976
 30
0.0
 40
8.0
100
AcDbArc
 50
346.997132
 51
352.096798
  0
LINE
  5
B0
330
1F
100
AcDbEntity
  8
0
 62
     7
100
AcDbLine
 10
576.570801
 20
261.420715
 30
0.0
 11
576.601807
 21
261.549988
 31
0.0
  0
LINE
  5
B1
330
1F
100
AcDbEntity
  8
0
 62
     7
100
AcDbLine
 10
576.534302
 20
261.279297
 30
0.0
 11
576.570801
 21
261.420715
 31
0.0
  0
LINE
  5
B2
330
1F
100
AcDbEntity
  8
0
 62
     7
100
AcDbLine
 10
576.498474
 20
261.150024
 30
0.0
 11
576.534302
 21
261.279297
 31
0.0
  0
ARC
  5
B3
330
1F
100
AcDbEntity
  8
0
 62
     7
100
AcDbCircle
 10
568.806946
 20
263.349976
 30
0.0
 40
8.0
100
AcDbArc
 50
338.746183
 51
344.037995
  0
LINE
  5
B4
330
1F
100
AcDbEntity
  8
0
 62
     7
100
AcDbLine
 10
576.211243
 20
260.320679
 30
0.0
 11
576.262817
 21
260.450012
 31
0.0
  0
LINE
  5
B5
330
1F
100
AcDbEntity
  8
0
 62
     7
100
AcDbLine
 10
576.151794
 20
260.17926
 30
0.0
 11
576.211243
 21
260.320679
 31
0.0
  0
LINE
  5
B6
330
1F
100
AcDbEntity
  8
0
 62
     7
100
AcDbLine
 10
576.094604
 20
260.049988
 30
0.0
 11
576.151794
 21
260.17926
 31
0.0
  0
ARC
  5
B7
330
1F
100
AcDbEntity
  8
0
 62
     7
100
AcDbCircle
 10
568.806946
 20
263.349976
 30
0.0
 40
8.0
100
AcDbArc
 50
329.999989
 51
335.63801
  0
LINE
  5
B8
330
1F
100
AcDbEntity
  8
0
 62
     7
100
AcDbLine
 10
575.658875
 20
259.220703
 30
0.0
 11
575.735107
 21
259.349976
 31
0.0
  0
LINE
  5
B9
330
1F
100
AcDbEntity
  8
0
 62
     7
100
AcDbLine
 10
575.571594
 20
259.079285
 30
0.0
 11
575.658875
 21
259.220703
 31
0.0
  0
LINE
  5
BA
330
1F
100
AcDbEntity
  8
0
 62
     7
100
AcDbLine
 10
562.12561
 20
258.950012
 30
0.0
 11
562.042236
 21
259.079285
 31
0.0
  0
LINE
  5
BB
330
1F
100
AcDbEntity
  8
0
 62
     7
100
AcDbLine
 10
562.042236
 20
259.079285
 30
0.0
 11
561.955017
 21
259.220703
 31
0.0
  0
LINE
  5
BC
330
1F
100
AcDbEntity
  8
0
 62
     7
100
AcDbLine
 10
561.955017
 20
259.220703
 30
0.0
 11
561.878723
 21
259.349976
 31
0.0
  0
ARC
  5
BD
330
1F
100
AcDbEntity
  8
0
 62
     7
100
AcDbCircle
 10
568.806946
 20
263.349976
 30
0.0
 40
8.0
100
AcDbArc
 50
204.361982
 51
210.000003
  0
LINE
  5
BE
330
1F
100
AcDbEntity
  8
0
 62
     7
100
AcDbLine
 10
561.519287
 20
260.049988
 30
0.0
 11
561.462097
 21
260.17926
 31
0.0
  0
LINE
  5
BF
330
1F
100
AcDbEntity
  8
0
 62
     7
100
AcDbLine
 10
561.462097
 20
260.17926
 30
0.0
 11
561.402649
 21
260.320679
 31
0.0
  0
LINE
  5
C0
330
1F
100
AcDbEntity
  8
0
 62
     7
100
AcDbLine
 10
561.402649
 20
260.320679
 30
0.0
 11
561.351074
 21
260.450012
 31
0.0
  0
ARC
  5
C1
330
1F
100
AcDbEntity
  8
0
 62
     7
100
AcDbCircle
 10
568.806946
 20
263.349976
 30
0.0
 40
8.0
100
AcDbArc
 50
195.96201
 51
201.253809
  0
LINE
  5
C2
330
1F
100
AcDbEntity
  8
0
 62
     7
100
AcDbLine
 10
561.115356
 20
261.150024
 30
0.0
 11
561.07959
 21
261.279297
 31
0.0
  0
LINE
  5
C3
330
1F
100
AcDbEntity
  8
0
 62
     7
100
AcDbLine
 10
561.07959
 20
261.279297
 30
0.0
 11
561.04303
 21
261.420715
 31
0.0
  0
LINE
  5
C4
330
1F
100
AcDbEntity
  8
0
 62
     7
100
AcDbLine
 10
561.04303
 20
261.420715
 30
0.0
 11
561.012085
 21
261.549988
 31
0.0
  0
ARC
  5
C5
330
1F
100
AcDbEntity
  8
0
 62
     7
100
AcDbCircle
 10
568.806946
 20
263.349976
 30
0.0
 40
8.0
100
AcDbArc
 50
187.903207
 51
193.002872
  0
LINE
  5
C6
330
1F
100
AcDbEntity
  8
0
 62
     7
100
AcDbLine
 10
560.882935
 20
262.25
 30
0.0
 11
560.866028
 21
262.379272
 31
0.0
  0
LINE
  5
C7
330
1F
100
AcDbEntity
  8
0
 62
     7
100
AcDbLine
 10
560.866028
 20
262.379272
 30
0.0
 11
560.850037
 21
262.520691
 31
0.0
  0
LINE
  5
C8
330
1F
100
AcDbEntity
  8
0
 62
     7
100
AcDbLine
 10
560.850037
 20
262.520691
 30
0.0
 11
560.837585
 21
262.650024
 31
0.0
  0
ARC
  5
C9
330
1F
100
AcDbEntity
  8
0
 62
     7
100
AcDbCircle
 10
568.806946
 20
263.349976
 30
0.0
 40
8.0
100
AcDbArc
 50
180.000009
 51
185.019802
  0
LINE
  5
CA
330
1F
100
AcDbEntity
  8
0
 62
     7
100
AcDbLine
 10
503.457001
 20
259.079285
 30
0.0
 11
503.457001
 21
258.950012
 31
0.0
  0
LINE
  5
CB
330
1F
100
AcDbEntity
  8
0
 62
     7
100
AcDbLine
 10
503.457001
 20
259.220703
 30
0.0
 11
503.457001
 21
259.349976
 31
0.0
  0
LINE
  5
CC
330
1F
100
AcDbEntity
  8
0
 62
     7
100
AcDbLine
 10
503.457001
 20
259.220703
 30
0.0
 11
503.457001
 21
259.079285
 31
0.0
  0
LINE
  5
CD
330
1F
100
AcDbEntity
  8
0
 62
     7
100
AcDbLine
 10
503.457001
 20
265.950012
 30
0.0
 11
503.457001
 21
266.349976
 31
0.0
  0
LINE
  5
CE
330
1F
100
AcDbEntity
  8
0
 62
     7
100
AcDbLine
 10
503.457001
 20
265.820679
 30
0.0
 11
503.457001
 21
265.950012
 31
0.0
  0
LINE
  5
CF
330
1F
100
AcDbEntity
  8
0
 62
     7
100
AcDbLine
 10
503.457001
 20
265.820679
 30
0.0
 11
503.457001
 21
265.67926
 31
0.0
  0
LINE
  5
D0
330
1F
100
AcDbEntity
  8
0
 62
     7
100
AcDbLine
 10
503.457001
 20
265.67926
 30
0.0
 11
503.457001
 21
265.549988
 31
0.0
  0
LINE
  5
D1
330
1F
100
AcDbEntity
  8
0
 62
     7
100
AcDbLine
 10
503.457001
 20
264.849976
 30
0.0
 11
503.457001
 21
265.549988
 31
0.0
  0
LINE
  5
D2
330
1F
100
AcDbEntity
  8
0
 62
     7
100
AcDbLine
 10
503.457001
 20
264.720703
 30
0.0
 11
503.457001
 21
264.849976
 31
0.0
  0
LINE
  5
D3
330
1F
100
AcDbEntity
  8
0
 62
     7
100
AcDbLine
 10
503.457001
 20
264.720703
 30
0.0
 11
503.457001
 21
264.579285
 31
0.0
  0
LINE
  5
D4
330
1F
100
AcDbEntity
  8
0
 62
     7
100
AcDbLine
 10
503.457001
 20
264.579285
 30
0.0
 11
503.457001
 21
264.450012
 31
0.0
  0
LINE
  5
D5
330
1F
100
AcDbEntity
  8
0
 62
     7
100
AcDbLine
 10
503.457001
 20
263.75
 30
0.0
 11
503.457001
 21
264.450012
 31
0.0
  0
LINE
  5
D6
330
1F
100
AcDbEntity
  8
0
 62
     7
100
AcDbLine
 10
503.457001
 20
263.620728
 30
0.0
 11
503.457001
 21
263.75
 31
0.0
  0
LINE
  5
D7
330
1F
100
AcDbEntity
  8
0
 62
     7
100
AcDbLine
 10
503.457001
 20
263.620728
 30
0.0
 11
503.457001
 21
263.479309
 31
0.0
  0
LINE
  5
D8
330
1F
100
AcDbEntity
  8
0
 62
     7
100
AcDbLine
 10
503.457001
 20
263.479309
 30
0.0
 11
503.457001
 21
263.349976
 31
0.0
  0
LINE
  5
D9
330
1F
100
AcDbEntity
  8
0
 62
     7
100
AcDbLine
 10
503.457001
 20
262.650024
 30
0.0
 11
503.457001
 21
263.349976
 31
0.0
  0
LINE
  5
DA
330
1F
100
AcDbEntity
  8
0
 62
     7
100
AcDbLine
 10
503.457001
 20
262.520691
 30
0.0
 11
503.457001
 21
262.650024
 31
0.0
  0
LINE
  5
DB
330
1F
100
AcDbEntity
  8
0
 62
     7
100
AcDbLine
 10
503.457001
 20
262.520691
 30
0.0
 11
503.457001
 21
262.379272
 31
0.0
  0
LINE
  5
DC
330
1F
100
AcDbEntity
  8
0
 62
     7
100
AcDbLine
 10
503.457001
 20
262.379272
 30
0.0
 11
503.457001
 21
262.25
 31
0.0
  0
LINE
  5
DD
330
1F
100
AcDbEntity
  8
0
 62
     7
100
AcDbLine
 10
503.457001
 20
261.549988
 30
0.0
 11
503.457001
 21
262.25
 31
0.0
  0
LINE
  5
DE
330
1F
100
AcDbEntity
  8
0
 62
     7
100
AcDbLine
 10
503.457001
 20
261.420715
 30
0.0
 11
503.457001
 21
261.549988
 31
0.0
  0
LINE
  5
DF
330
1F
100
AcDbEntity
  8
0
 62
     7
100
AcDbLine
 10
503.457001
 20
261.420715
 30
0.0
 11
503.457001
 21
261.279297
 31
0.0
  0
LINE
  5
E0
330
1F
100
AcDbEntity
  8
0
 62
     7
100
AcDbLine
 10
503.457001
 20
261.279297
 30
0.0
 11
503.457001
 21
261.150024
 31
0.0
  0
LINE
  5
E1
330
1F
100
AcDbEntity
  8
0
 62
     7
100
AcDbLine
 10
503.457001
 20
260.450012
 30
0.0
 11
503.457001
 21
261.150024
 31
0.0
  0
LINE
  5
E2
330
1F
100
AcDbEntity
  8
0
 62
     7
100
AcDbLine
 10
503.457001
 20
260.320679
 30
0.0
 11
503.457001
 21
260.450012
 31
0.0
  0
LINE
  5
E3
330
1F
100
AcDbEntity
  8
0
 62
     7
100
AcDbLine
 10
503.457001
 20
260.320679
 30
0.0
 11
503.457001
 21
260.17926
 31
0.0
  0
LINE
  5
E4
330
1F
100
AcDbEntity
  8
0
 62
     7
100
AcDbLine
 10
503.457001
 20
260.17926
 30
0.0
 11
503.457001
 21
260.049988
 31
0.0
  0
LINE
  5
E5
330
1F
100
AcDbEntity
  8
0
 62
     7
100
AcDbLine
 10
503.457001
 20
259.349976
 30
0.0
 11
503.457001
 21
260.049988
 31
0.0
  0
LINE
  5
E6
330
1F
100
AcDbEntity
  8
0
 62
     7
100
AcDbLine
 10
502.457001
 20
266.650024
 30
0.0
 11
502.457001
 21
265.950012
 31
0.0
  0
LINE
  5
E7
330
1F
100
AcDbEntity
  8
0
 62
     7
100
AcDbLine
 10
502.457001
 20
266.779297
 30
0.0
 11
502.457001
 21
266.650024
 31
0.0
  0
LINE
  5
E8
330
1F
100
AcDbEntity
  8
0
 62
     7
100
AcDbLine
 10
502.457001
 20
266.779297
 30
0.0
 11
502.457001
 21
266.849976
 31
0.0
  0
LINE
  5
E9
330
1F
100
AcDbEntity
  8
0
 62
     7
100
AcDbLine
 10
502.457001
 20
259.079285
 30
0.0
 11
502.457001
 21
258.950012
 31
0.0
  0
LINE
  5
EA
330
1F
100
AcDbEntity
  8
0
 62
     7
100
AcDbLine
 10
502.457001
 20
259.079285
 30
0.0
 11
502.457001
 21
259.220703
 31
0.0
  0
LINE
  5
EB
330
1F
100
AcDbEntity
  8
0
 62
     7
100
AcDbLine
 10
502.457001
 20
259.220703
 30
0.0
 11
502.457001
 21
259.349976
 31
0.0
  0
LINE
  5
EC
330
1F
100
AcDbEntity
  8
0
 62
     7
100
AcDbLine
 10
502.457001
 20
260.049988
 30
0.0
 11
502.457001
 21
259.349976
 31
0.0
  0
LINE
  5
ED
330
1F
100
AcDbEntity
  8
0
 62
     7
100
AcDbLine
 10
502.457001
 20
260.17926
 30
0.0
 11
502.457001
 21
260.049988
 31
0.0
  0
LINE
  5
EE
330
1F
100
AcDbEntity
  8
0
 62
     7
100
AcDbLine
 10
502.457001
 20
260.17926
 30
0.0
 11
502.457001
 21
260.320679
 31
0.0
  0
LINE
  5
EF
330
1F
100
AcDbEntity
  8
0
 62
     7
100
AcDbLine
 10
502.457001
 20
260.320679
 30
0.0
 11
502.457001
 21
260.450012
 31
0.0
  0
LINE
  5
F0
330
1F
100
AcDbEntity
  8
0
 62
     7
100
AcDbLine
 10
502.457001
 20
261.150024
 30
0.0
 11
502.457001
 21
260.450012
 31
0.0
  0
LINE
  5
F1
330
1F
100
AcDbEntity
  8
0
 62
     7
100
AcDbLine
 10
502.457001
 20
261.279297
 30
0.0
 11
502.457001
 21
261.150024
 31
0.0
  0
LINE
  5
F2
330
1F
100
AcDbEntity
  8
0
 62
     7
100
AcDbLine
 10
502.457001
 20
261.279297
 30
0.0
 11
502.457001
 21
261.420715
 31
0.0
  0
LINE
  5
F3
330
1F
100
AcDbEntity
  8
0
 62
     7
100
AcDbLine
 10
502.457001
 20
261.420715
 30
0.0
 11
502.457001
 21
261.549988
 31
0.0
  0
LINE
  5
F4
330
1F
100
AcDbEntity
  8
0
 62
     7
100
AcDbLine
 10
502.457001
 20
262.25
 30
0.0
 11
502.457001
 21
261.549988
 31
0.0
  0
LINE
  5
F5
330
1F
100
AcDbEntity
  8
0
 62
     7
100
AcDbLine
 10
502.457001
 20
262.379272
 30
0.0
 11
502.457001
 21
262.25
 31
0.0
  0
LINE
  5
F6
330
1F
100
AcDbEntity
  8
0
 62
     7
100
AcDbLine
 10
502.457001
 20
262.379272
 30
0.0
 11
502.457001
 21
262.520691
 31
0.0
  0
LINE
  5
F7
330
1F
100
AcDbEntity
  8
0
 62
     7
100
AcDbLine
 10
502.457001
 20
262.520691
 30
0.0
 11
502.457001
 21
262.650024
 31
0.0
  0
LINE
  5
F8
330
1F
100
AcDbEntity
  8
0
 62
     7
100
AcDbLine
 10
502.457001
 20
263.349976
 30
0.0
 11
502.457001
 21
262.650024
 31
0.0
  0
LINE
  5
F9
330
1F
100
AcDbEntity
  8
0
 62
     7
100
AcDbLine
 10
502.457001
 20
263.479309
 30
0.0
 11
502.457001
 21
263.349976
 31
0.0
  0
LINE
  5
FA
330
1F
100
AcDbEntity
  8
0
 62
     7
100
AcDbLine
 10
502.457001
 20
263.479309
 30
0.0
 11
502.457001
 21
263.620728
 31
0.0
  0
LINE
  5
FB
330
1F
100
AcDbEntity
  8
0
 62
     7
100
AcDbLine
 10
502.457001
 20
263.620728
 30
0.0
 11
502.457001
 21
263.75
 31
0.0
  0
LINE
  5
FC
330
1F
100
AcDbEntity
  8
0
 62
     7
100
AcDbLine
 10
502.457001
 20
264.450012
 30
0.0
 11
502.457001
 21
263.75
 31
0.0
  0
LINE
  5
FD
330
1F
100
AcDbEntity
  8
0
 62
     7
100
AcDbLine
 10
502.457001
 20
264.579285
 30
0.0
 11
502.457001
 21
264.450012
 31
0.0
  0
LINE
  5
FE
330
1F
100
AcDbEntity
  8
0
 62
     7
100
AcDbLine
 10
502.457001
 20
264.579285
 30
0.0
 11
502.457001
 21
264.720703
 31
0.0
  0
LINE
  5
FF
330
1F
100
AcDbEntity
  8
0
 62
     7
100
AcDbLine
 10
502.457001
 20
264.720703
 30
0.0
 11
502.457001
 21
264.849976
 31
0.0
  0
LINE
  5
100
330
1F
100
AcDbEntity
  8
0
 62
     7
100
AcDbLine
 10
502.457001
 20
265.549988
 30
0.0
 11
502.457001
 21
264.849976
 31
0.0
  0
LINE
  5
101
330
1F
100
AcDbEntity
  8
0
 62
     7
100
AcDbLine
 10
502.457001
 20
265.67926
 30
0.0
 11
502.457001
 21
265.549988
 31
0.0
  0
LINE
  5
102
330
1F
100
AcDbEntity
  8
0
 62
     7
100
AcDbLine
 10
502.457001
 20
265.67926
 30
0.0
 11
502.457001
 21
265.820679
 31
0.0
  0
LINE
  5
103
330
1F
100
AcDbEntity
  8
0
 62
     7
100
AcDbLine
 10
502.457001
 20
265.820679
 30
0.0
 11
502.457001
 21
265.950012
 31
0.0
  0
LINE
  5
104
330
1F
100
AcDbEntity
  8
0
 62
     7
100
AcDbLine
 10
500.157013
 20
259.079285
 30
0.0
 11
500.157013
 21
258.950012
 31
0.0
  0
LINE
  5
105
330
1F
100
AcDbEntity
  8
0
 62
     7
100
AcDbLine
 10
500.157013
 20
259.220703
 30
0.0
 11
500.157013
 21
259.349976
 31
0.0
  0
LINE
  5
106
330
1F
100
AcDbEntity
  8
0
 62
     7
100
AcDbLine
 10
500.157013
 20
259.220703
 30
0.0
 11
500.157013
 21
259.079285
 31
0.0
  0
LINE
  5
107
330
1F
100
AcDbEntity
  8
0
 62
     7
100
AcDbLine
 10
500.157013
 20
266.849976
 30
0.0
 11
500.157013
 21
266.779297
 31
0.0
  0
LINE
  5
108
330
1F
100
AcDbEntity
  8
0
 62
     7
100
AcDbLine
 10
500.157013
 20
266.779297
 30
0.0
 11
500.157013
 21
266.650024
 31
0.0
  0
LINE
  5
109
330
1F
100
AcDbEntity
  8
0
 62
     7
100
AcDbLine
 10
500.157013
 20
265.950012
 30
0.0
 11
500.157013
 21
266.650024
 31
0.0
  0
LINE
  5
10A
330
1F
100
AcDbEntity
  8
0
 62
     7
100
AcDbLine
 10
500.157013
 20
265.820679
 30
0.0
 11
500.157013
 21
265.950012
 31
0.0
  0
LINE
  5
10B
330
1F
100
AcDbEntity
  8
0
 62
     7
100
AcDbLine
 10
500.157013
 20
265.820679
 30
0.0
 11
500.157013
 21
265.67926
 31
0.0
  0
LINE
  5
10C
330
1F
100
AcDbEntity
  8
0
 62
     7
100
AcDbLine
 10
500.157013
 20
265.67926
 30
0.0
 11
500.157013
 21
265.549988
 31
0.0
  0
LINE
  5
10D
330
1F
100
AcDbEntity
  8
0
 62
     7
100
AcDbLine
 10
500.157013
 20
264.849976
 30
0.0
 11
500.157013
 21
265.549988
 31
0.0
  0
LINE
  5
10E
330
1F
100
AcDbEntity
  8
0
 62
     7
100
AcDbLine
 10
500.157013
 20
264.720703
 30
0.0
 11
500.157013
 21
264.849976
 31
0.0
  0
LINE
  5
10F
330
1F
100
AcDbEntity
  8
0
 62
     7
100
AcDbLine
 10
500.157013
 20
264.720703
 30
0.0
 11
500.157013
 21
264.579285
 31
0.0
  0
LINE
  5
110
330
1F
100
AcDbEntity
  8
0
 62
     7
100
AcDbLine
 10
500.157013
 20
264.579285
 30
0.0
 11
500.157013
 21
264.450012
 31
0.0
  0
LINE
  5
111
330
1F
100
AcDbEntity
  8
0
 62
     7
100
AcDbLine
 10
500.157013
 20
263.75
 30
0.0
 11
500.157013
 21
264.450012
 31
0.0
  0
LINE
  5
112
330
1F
100
AcDbEntity
  8
0
 62
     7
100
AcDbLine
 10
500.157013
 20
263.620728
 30
0.0
 11
500.157013
 21
263.75
 31
0.0
  0
LINE
  5
113
330
1F
100
AcDbEntity
  8
0
 62
     7
100
AcDbLine
 10
500.157013
 20
263.620728
 30
0.0
 11
500.157013
 21
263.479309
 31
0.0
  0
LINE
  5
114
330
1F
100
AcDbEntity
  8
0
 62
     7
100
AcDbLine
 10
500.157013
 20
263.479309
 30
0.0
 11
500.157013
 21
263.349976
 31
0.0
  0
LINE
  5
115
330
1F
100
AcDbEntity
  8
0
 62
     7
100
AcDbLine
 10
500.157013
 20
262.650024
 30
0.0
 11
500.157013
 21
263.349976
 31
0.0
  0
LINE
  5
116
330
1F
100
AcDbEntity
  8
0
 62
     7
100
AcDbLine
 10
500.157013
 20
262.520691
 30
0.0
 11
500.157013
 21
262.650024
 31
0.0
  0
LINE
  5
117
330
1F
100
AcDbEntity
  8
0
 62
     7
100
AcDbLine
 10
500.157013
 20
262.520691
 30
0.0
 11
500.157013
 21
262.379272
 31
0.0
  0
LINE
  5
118
330
1F
100
AcDbEntity
  8
0
 62
     7
100
AcDbLine
 10
500.157013
 20
262.379272
 30
0.0
 11
500.157013
 21
262.25
 31
0.0
  0
LINE
  5
119
330
1F
100
AcDbEntity
  8
0
 62
     7
100
AcDbLine
 10
500.157013
 20
261.549988
 30
0.0
 11
500.157013
 21
262.25
 31
0.0
  0
LINE
  5
11A
330
1F
100
AcDbEntity
  8
0
 62
     7
100
AcDbLine
 10
500.157013
 20
261.420715
 30
0.0
 11
500.157013
 21
261.549988
 31
0.0
  0
LINE
  5
11B
330
1F
100
AcDbEntity
  8
0
 62
     7
100
AcDbLine
 10
500.157013
 20
261.420715
 30
0.0
 11
500.157013
 21
261.279297
 31
0.0
  0
LINE
  5
11C
330
1F
100
AcDbEntity
  8
0
 62
     7
100
AcDbLine
 10
500.157013
 20
261.279297
 30
0.0
 11
500.157013
 21
261.150024
 31
0.0
  0
LINE
  5
11D
330
1F
100
AcDbEntity
  8
0
 62
     7
100
AcDbLine
 10
500.157013
 20
260.450012
 30
0.0
 11
500.157013
 21
261.150024
 31
0.0
  0
LINE
  5
11E
330
1F
100
AcDbEntity
  8
0
 62
     7
100
AcDbLine
 10
500.157013
 20
260.320679
 30
0.0
 11
500.157013
 21
260.450012
 31
0.0
  0
LINE
  5
11F
330
1F
100
AcDbEntity
  8
0
 62
     7
100
AcDbLine
 10
500.157013
 20
260.320679
 30
0.0
 11
500.157013
 21
260.17926
 31
0.0
  0
LINE
  5
120
330
1F
100
AcDbEntity
  8
0
 62
     7
100
AcDbLine
 10
500.157013
 20
260.17926
 30
0.0
 11
500.157013
 21
260.049988
 31
0.0
  0
LINE
  5
121
330
1F
100
AcDbEntity
  8
0
 62
     7
100
AcDbLine
 10
500.157013
 20
259.349976
 30
0.0
 11
500.157013
 21
260.049988
 31
0.0
  0
LINE
  5
122
330
1F
100
AcDbEntity
  8
0
 62
     7
100
AcDbLine
 10
499.157013
 20
265.67926
 30
0.0
 11
499.157013
 21
265.549988
 31
0.0
  0
LINE
  5
123
330
1F
100
AcDbEntity
  8
0
 62
     7
100
AcDbLine
 10
499.157013
 20
265.67926
 30
0.0
 11
499.157013
 21
265.820679
 31
0.0
  0
LINE
  5
124
330
1F
100
AcDbEntity
  8
0
 62
     7
100
AcDbLine
 10
499.157013
 20
265.820679
 30
0.0
 11
499.157013
 21
265.950012
 31
0.0
  0
LINE
  5
125
330
1F
100
AcDbEntity
  8
0
 62
     7
100
AcDbLine
 10
499.157013
 20
266.349976
 30
0.0
 11
499.157013
 21
265.950012
 31
0.0
  0
LINE
  5
126
330
1F
100
AcDbEntity
  8
0
 62
     7
100
AcDbLine
 10
499.157013
 20
259.079285
 30
0.0
 11
499.157013
 21
258.950012
 31
0.0
  0
LINE
  5
127
330
1F
100
AcDbEntity
  8
0
 62
     7
100
AcDbLine
 10
499.157013
 20
259.079285
 30
0.0
 11
499.157013
 21
259.220703
 31
0.0
  0
LINE
  5
128
330
1F
100
AcDbEntity
  8
0
 62
     7
100
AcDbLine
 10
499.157013
 20
259.220703
 30
0.0
 11
499.157013
 21
259.349976
 31
0.0
  0
LINE
  5
129
330
1F
100
AcDbEntity
  8
0
 62
     7
100
AcDbLine
 10
499.157013
 20
260.049988
 30
0.0
 11
499.157013
 21
259.349976
 31
0.0
  0
LINE
  5
12A
330
1F
100
AcDbEntity
  8
0
 62
     7
100
AcDbLine
 10
499.157013
 20
260.17926
 30
0.0
 11
499.157013
 21
260.049988
 31
0.0
  0
LINE
  5
12B
330
1F
100
AcDbEntity
  8
0
 62
     7
100
AcDbLine
 10
499.157013
 20
260.17926
 30
0.0
 11
499.157013
 21
260.320679
 31
0.0
  0
LINE
  5
12C
330
1F
100
AcDbEntity
  8
0
 62
     7
100
AcDbLine
 10
499.157013
 20
260.320679
 30
0.0
 11
499.157013
 21
260.450012
 31
0.0
  0
LINE
  5
12D
330
1F
100
AcDbEntity
  8
0
 62
     7
100
AcDbLine
 10
499.157013
 20
261.150024
 30
0.0
 11
499.157013
 21
260.450012
 31
0.0
  0
LINE
  5
12E
330
1F
100
AcDbEntity
  8
0
 62
     7
100
AcDbLine
 10
499.157013
 20
261.279297
 30
0.0
 11
499.157013
 21
261.150024
 31
0.0
  0
LINE
  5
12F
330
1F
100
AcDbEntity
  8
0
 62
     7
100
AcDbLine
 10
499.157013
 20
261.279297
 30
0.0
 11
499.157013
 21
261.420715
 31
0.0
  0
LINE
  5
130
330
1F
100
AcDbEntity
  8
0
 62
     7
100
AcDbLine
 10
499.157013
 20
261.420715
 30
0.0
 11
499.157013
 21
261.549988
 31
0.0
  0
LINE
  5
131
330
1F
100
AcDbEntity
  8
0
 62
     7
100
AcDbLine
 10
499.157013
 20
262.25
 30
0.0
 11
499.157013
 21
261.549988
 31
0.0
  0
LINE
  5
132
330
1F
100
AcDbEntity
  8
0
 62
     7
100
AcDbLine
 10
499.157013
 20
262.379272
 30
0.0
 11
499.157013
 21
262.25
 31
0.0
  0
LINE
  5
133
330
1F
100
AcDbEntity
  8
0
 62
     7
100
AcDbLine
 10
499.157013
 20
262.379272
 30
0.0
 11
499.157013
 21
262.520691
 31
0.0
  0
LINE
  5
134
330
1F
100
AcDbEntity
  8
0
 62
     7
100
AcDbLine
 10
499.157013
 20
262.520691
 30
0.0
 11
499.157013
 21
262.650024
 31
0.0
  0
LINE
  5
135
330
1F
100
AcDbEntity
  8
0
 62
     7
100
AcDbLine
 10
499.157013
 20
263.349976
 30
0.0
 11
499.157013
 21
262.650024
 31
0.0
  0
LINE
  5
136
330
1F
100
AcDbEntity
  8
0
 62
     7
100
AcDbLine
 10
499.157013
 20
263.479309
 30
0.0
 11
499.157013
 21
263.349976
 31
0.0
  0
LINE
  5
137
330
1F
100
AcDbEntity
  8
0
 62
     7
100
AcDbLine
 10
499.157013
 20
263.479309
 30
0.0
 11
499.157013
 21
263.620728
 31
0.0
  0
LINE
  5
138
330
1F
100
AcDbEntity
  8
0
 62
     7
100
AcDbLine
 10
499.157013
 20
263.620728
 30
0.0
 11
499.157013
 21
263.75
 31
0.0
  0
LINE
  5
139
330
1F
100
AcDbEntity
  8
0
 62
     7
100
AcDbLine
 10
499.157013
 20
264.450012
 30
0.0
 11
499.157013
 21
263.75
 31
0.0
  0
LINE
  5
13A
330
1F
100
AcDbEntity
  8
0
 62
     7
100
AcDbLine
 10
499.157013
 20
264.579285
 30
0.0
 11
499.157013
 21
264.450012
 31
0.0
  0
LINE
  5
13B
330
1F
100
AcDbEntity
  8
0
 62
     7
100
AcDbLine
 10
499.157013
 20
264.579285
 30
0.0
 11
499.157013
 21
264.720703
 31
0.0
  0
LINE
  5
13C
330
1F
100
AcDbEntity
  8
0
 62
     7
100
AcDbLine
 10
499.157013
 20
264.720703
 30
0.0
 11
499.157013
 21
264.849976
 31
0.0
  0
LINE
  5
13D
330
1F
100
AcDbEntity
  8
0
 62
     7
100
AcDbLine
 10
499.157013
 20
265.549988
 30
0.0
 11
499.157013
 21
264.849976
 31
0.0
  0
LINE
  5
13E
330
1F
100
AcDbEntity
  8
0
 62
     7
100
AcDbLine
 10
253.45697
 20
259.079285
 30
0.0
 11
253.45697
 21
258.950012
 31
0.0
  0
LINE
  5
13F
330
1F
100
AcDbEntity
  8
0
 62
     7
100
AcDbLine
 10
253.45697
 20
259.220703
 30
0.0
 11
253.45697
 21
259.349976
 31
0.0
  0
LINE
  5
140
330
1F
100
AcDbEntity
  8
0
 62
     7
100
AcDbLine
 10
253.45697
 20
259.220703
 30
0.0
 11
253.45697
 21
259.079285
 31
0.0
  0
LINE
  5
141
330
1F
100
AcDbEntity
  8
0
 62
     7
100
AcDbLine
 10
253.45697
 20
265.950012
 30
0.0
 11
253.45697
 21
266.349976
 31
0.0
  0
LINE
  5
142
330
1F
100
AcDbEntity
  8
0
 62
     7
100
AcDbLine
 10
253.45697
 20
265.820679
 30
0.0
 11
253.45697
 21
265.950012
 31
0.0
  0
LINE
  5
143
330
1F
100
AcDbEntity
  8
0
 62
     7
100
AcDbLine
 10
253.45697
 20
265.820679
 30
0.0
 11
253.45697
 21
265.67926
 31
0.0
  0
LINE
  5
144
330
1F
100
AcDbEntity
  8
0
 62
     7
100
AcDbLine
 10
253.45697
 20
265.67926
 30
0.0
 11
253.45697
 21
265.549988
 31
0.0
  0
LINE
  5
145
330
1F
100
AcDbEntity
  8
0
 62
     7
100
AcDbLine
 10
253.45697
 20
264.849976
 30
0.0
 11
253.45697
 21
265.549988
 31
0.0
  0
LINE
  5
146
330
1F
100
AcDbEntity
  8
0
 62
     7
100
AcDbLine
 10
253.45697
 20
264.720703
 30
0.0
 11
253.45697
 21
264.849976
 31
0.0
  0
LINE
  5
147
330
1F
100
AcDbEntity
  8
0
 62
     7
100
AcDbLine
 10
253.45697
 20
264.720703
 30
0.0
 11
253.45697
 21
264.579285
 31
0.0
  0
LINE
  5
148
330
1F
100
AcDbEntity
  8
0
 62
     7
100
AcDbLine
 10
253.45697
 20
264.579285
 30
0.0
 11
253.45697
 21
264.450012
 31
0.0
  0
LINE
  5
149
330
1F
100
AcDbEntity
  8
0
 62
     7
100
AcDbLine
 10
253.45697
 20
263.75
 30
0.0
 11
253.45697
 21
264.450012
 31
0.0
  0
LINE
  5
14A
330
1F
100
AcDbEntity
  8
0
 62
     7
100
AcDbLine
 10
253.45697
 20
263.620728
 30
0.0
 11
253.45697
 21
263.75
 31
0.0
  0
LINE
  5
14B
330
1F
100
AcDbEntity
  8
0
 62
     7
100
AcDbLine
 10
253.45697
 20
263.620728
 30
0.0
 11
253.45697
 21
263.479309
 31
0.0
  0
LINE
  5
14C
330
1F
100
AcDbEntity
  8
0
 62
     7
100
AcDbLine
 10
253.45697
 20
263.479309
 30
0.0
 11
253.45697
 21
263.349976
 31
0.0
  0
LINE
  5
14D
330
1F
100
AcDbEntity
  8
0
 62
     7
100
AcDbLine
 10
253.45697
 20
262.650024
 30
0.0
 11
253.45697
 21
263.349976
 31
0.0
  0
LINE
  5
14E
330
1F
100
AcDbEntity
  8
0
 62
     7
100
AcDbLine
 10
253.45697
 20
262.520691
 30
0.0
 11
253.45697
 21
262.650024
 31
0.0
  0
LINE
  5
14F
330
1F
100
AcDbEntity
  8
0
 62
     7
100
AcDbLine
 10
253.45697
 20
262.520691
 30
0.0
 11
253.45697
 21
262.379272
 31
0.0
  0
LINE
  5
150
330
1F
100
AcDbEntity
  8
0
 62
     7
100
AcDbLine
 10
253.45697
 20
262.379272
 30
0.0
 11
253.45697
 21
262.25
 31
0.0
  0
LINE
  5
151
330
1F
100
AcDbEntity
  8
0
 62
     7
100
AcDbLine
 10
253.45697
 20
261.549988
 30
0.0
 11
253.45697
 21
262.25
 31
0.0
  0
LINE
  5
152
330
1F
100
AcDbEntity
  8
0
 62
     7
100
AcDbLine
 10
253.45697
 20
261.420715
 30
0.0
 11
253.45697
 21
261.549988
 31
0.0
  0
LINE
  5
153
330
1F
100
AcDbEntity
  8
0
 62
     7
100
AcDbLine
 10
253.45697
 20
261.420715
 30
0.0
 11
253.45697
 21
261.279297
 31
0.0
  0
LINE
  5
154
330
1F
100
AcDbEntity
  8
0
 62
     7
100
AcDbLine
 10
253.45697
 20
261.279297
 30
0.0
 11
253.45697
 21
261.150024
 31
0.0
  0
LINE
  5
155
330
1F
100
AcDbEntity
  8
0
 62
     7
100
AcDbLine
 10
253.45697
 20
260.450012
 30
0.0
 11
253.45697
 21
261.150024
 31
0.0
  0
LINE
  5
156
330
1F
100
AcDbEntity
  8
0
 62
     7
100
AcDbLine
 10
253.45697
 20
260.320679
 30
0.0
 11
253.45697
 21
260.450012
 31
0.0
  0
LINE
  5
157
330
1F
100
AcDbEntity
  8
0
 62
     7
100
AcDbLine
 10
253.45697
 20
260.320679
 30
0.0
 11
253.45697
 21
260.17926
 31
0.0
  0
LINE
  5
158
330
1F
100
AcDbEntity
  8
0
 62
     7
100
AcDbLine
 10
253.45697
 20
260.17926
 30
0.0
 11
253.45697
 21
260.049988
 31
0.0
  0
LINE
  5
159
330
1F
100
AcDbEntity
  8
0
 62
     7
100
AcDbLine
 10
253.45697
 20
259.349976
 30
0.0
 11
253.45697
 21
260.049988
 31
0.0
  0
LINE
  5
15A
330
1F
100
AcDbEntity
  8
0
 62
     7
100
AcDbLine
 10
252.45697
 20
266.650024
 30
0.0
 11
252.45697
 21
265.950012
 31
0.0
  0
LINE
  5
15B
330
1F
100
AcDbEntity
  8
0
 62
     7
100
AcDbLine
 10
252.45697
 20
266.779297
 30
0.0
 11
252.45697
 21
266.650024
 31
0.0
  0
LINE
  5
15C
330
1F
100
AcDbEntity
  8
0
 62
     7
100
AcDbLine
 10
252.45697
 20
266.779297
 30
0.0
 11
252.45697
 21
266.849976
 31
0.0
  0
LINE
  5
15D
330
1F
100
AcDbEntity
  8
0
 62
     7
100
AcDbLine
 10
252.45697
 20
259.079285
 30
0.0
 11
252.45697
 21
258.950012
 31
0.0
  0
LINE
  5
15E
330
1F
100
AcDbEntity
  8
0
 62
     7
100
AcDbLine
 10
252.45697
 20
259.079285
 30
0.0
 11
252.45697
 21
259.220703
 31
0.0
  0
LINE
  5
15F
330
1F
100
AcDbEntity
  8
0
 62
     7
100
AcDbLine
 10
252.45697
 20
259.220703
 30
0.0
 11
252.45697
 21
259.349976
 31
0.0
  0
LINE
  5
160
330
1F
100
AcDbEntity
  8
0
 62
     7
100
AcDbLine
 10
252.45697
 20
260.049988
 30
0.0
 11
252.45697
 21
259.349976
 31
0.0
  0
LINE
  5
161
330
1F
100
AcDbEntity
  8
0
 62
     7
100
AcDbLine
 10
252.45697
 20
260.17926
 30
0.0
 11
252.45697
 21
260.049988
 31
0.0
  0
LINE
  5
162
330
1F
100
AcDbEntity
  8
0
 62
     7
100
AcDbLine
 10
252.45697
 20
260.17926
 30
0.0
 11
252.45697
 21
260.320679
 31
0.0
  0
LINE
  5
163
330
1F
100
AcDbEntity
  8
0
 62
     7
100
AcDbLine
 10
252.45697
 20
260.320679
 30
0.0
 11
252.45697
 21
260.450012
 31
0.0
  0
LINE
  5
164
330
1F
100
AcDbEntity
  8
0
 62
     7
100
AcDbLine
 10
252.45697
 20
261.150024
 30
0.0
 11
252.45697
 21
260.450012
 31
0.0
  0
LINE
  5
165
330
1F
100
AcDbEntity
  8
0
 62
     7
100
AcDbLine
 10
252.45697
 20
261.279297
 30
0.0
 11
252.45697
 21
261.150024
 31
0.0
  0
LINE
  5
166
330
1F
100
AcDbEntity
  8
0
 62
     7
100
AcDbLine
 10
252.45697
 20
261.279297
 30
0.0
 11
252.45697
 21
261.420715
 31
0.0
  0
LINE
  5
167
330
1F
100
AcDbEntity
  8
0
 62
     7
100
AcDbLine
 10
252.45697
 20
261.420715
 30
0.0
 11
252.45697
 21
261.549988
 31
0.0
  0
LINE
  5
168
330
1F
100
AcDbEntity
  8
0
 62
     7
100
AcDbLine
 10
252.45697
 20
262.25
 30
0.0
 11
252.45697
 21
261.549988
 31
0.0
  0
LINE
  5
169
330
1F
100
AcDbEntity
  8
0
 62
     7
100
AcDbLine
 10
252.45697
 20
262.379272
 30
0.0
 11
252.45697
 21
262.25
 31
0.0
  0
LINE
  5
16A
330
1F
100
AcDbEntity
  8
0
 62
     7
100
AcDbLine
 10
252.45697
 20
262.379272
 30
0.0
 11
252.45697
 21
262.520691
 31
0.0
  0
LINE
  5
16B
330
1F
100
AcDbEntity
  8
0
 62
     7
100
AcDbLine
 10
252.45697
 20
262.520691
 30
0.0
 11
252.45697
 21
262.650024
 31
0.0
  0
LINE
  5
16C
330
1F
100
AcDbEntity
  8
0
 62
     7
100
AcDbLine
 10
252.45697
 20
263.349976
 30
0.0
 11
252.45697
 21
262.650024
 31
0.0
  0
LINE
  5
16D
330
1F
100
AcDbEntity
  8
0
 62
     7
100
AcDbLine
 10
252.45697
 20
263.479309
 30
0.0
 11
252.45697
 21
263.349976
 31
0.0
  0
LINE
  5
16E
330
1F
100
AcDbEntity
  8
0
 62
     7
100
AcDbLine
 10
252.45697
 20
263.479309
 30
0.0
 11
252.45697
 21
263.620728
 31
0.0
  0
LINE
  5
16F
330
1F
100
AcDbEntity
  8
0
 62
     7
100
AcDbLine
 10
252.45697
 20
263.620728
 30
0.0
 11
252.45697
 21
263.75
 31
0.0
  0
LINE
  5
170
330
1F
100
AcDbEntity
  8
0
 62
     7
100
AcDbLine
 10
252.45697
 20
264.450012
 30
0.0
 11
252.45697
 21
263.75
 31
0.0
  0
LINE
  5
171
330
1F
100
AcDbEntity
  8
0
 62
     7
100
AcDbLine
 10
252.45697
 20
264.579285
 30
0.0
 11
252.45697
 21
264.450012
 31
0.0
  0
LINE
  5
172
330
1F
100
AcDbEntity
  8
0
 62
     7
100
AcDbLine
 10
252.45697
 20
264.579285
 30
0.0
 11
252.45697
 21
264.720703
 31
0.0
  0
LINE
  5
173
330
1F
100
AcDbEntity
  8
0
 62
     7
100
AcDbLine
 10
252.45697
 20
264.720703
 30
0.0
 11
252.45697
 21
264.849976
 31
0.0
  0
LINE
  5
174
330
1F
100
AcDbEntity
  8
0
 62
     7
100
AcDbLine
 10
252.45697
 20
265.549988
 30
0.0
 11
252.45697
 21
264.849976
 31
0.0
  0
LINE
  5
175
330
1F
100
AcDbEntity
  8
0
 62
     7
100
AcDbLine
 10
252.45697
 20
265.67926
 30
0.0
 11
252.45697
 21
265.549988
 31
0.0
  0
LINE
  5
176
330
1F
100
AcDbEntity
  8
0
 62
     7
100
AcDbLine
 10
252.45697
 20
265.67926
 30
0.0
 11
252.45697
 21
265.820679
 31
0.0
  0
LINE
  5
177
330
1F
100
AcDbEntity
  8
0
 62
     7
100
AcDbLine
 10
252.45697
 20
265.820679
 30
0.0
 11
252.45697
 21
265.950012
 31
0.0
  0
LINE
  5
178
330
1F
100
AcDbEntity
  8
0
 62
     7
100
AcDbLine
 10
250.156982
 20
259.079285
 30
0.0
 11
250.156982
 21
258.950012
 31
0.0
  0
LINE
  5
179
330
1F
100
AcDbEntity
  8
0
 62
     7
100
AcDbLine
 10
250.156982
 20
259.220703
 30
0.0
 11
250.156982
 21
259.349976
 31
0.0
  0
LINE
  5
17A
330
1F
100
AcDbEntity
  8
0
 62
     7
100
AcDbLine
 10
250.156982
 20
259.220703
 30
0.0
 11
250.156982
 21
259.079285
 31
0.0
  0
LINE
  5
17B
330
1F
100
AcDbEntity
  8
0
 62
     7
100
AcDbLine
 10
250.156982
 20
266.849976
 30
0.0
 11
250.156982
 21
266.779297
 31
0.0
  0
LINE
  5
17C
330
1F
100
AcDbEntity
  8
0
 62
     7
100
AcDbLine
 10
250.156982
 20
266.779297
 30
0.0
 11
250.156982
 21
266.650024
 31
0.0
  0
LINE
  5
17D
330
1F
100
AcDbEntity
  8
0
 62
     7
100
AcDbLine
 10
250.156982
 20
265.950012
 30
0.0
 11
250.156982
 21
266.650024
 31
0.0
  0
LINE
  5
17E
330
1F
100
AcDbEntity
  8
0
 62
     7
100
AcDbLine
 10
250.156982
 20
265.820679
 30
0.0
 11
250.156982
 21
265.950012
 31
0.0
  0
LINE
  5
17F
330
1F
100
AcDbEntity
  8
0
 62
     7
100
AcDbLine
 10
250.156982
 20
265.820679
 30
0.0
 11
250.156982
 21
265.67926
 31
0.0
  0
LINE
  5
180
330
1F
100
AcDbEntity
  8
0
 62
     7
100
AcDbLine
 10
250.156982
 20
265.67926
 30
0.0
 11
250.156982
 21
265.549988
 31
0.0
  0
LINE
  5
181
330
1F
100
AcDbEntity
  8
0
 62
     7
100
AcDbLine
 10
250.156982
 20
264.849976
 30
0.0
 11
250.156982
 21
265.549988
 31
0.0
  0
LINE
  5
182
330
1F
100
AcDbEntity
  8
0
 62
     7
100
AcDbLine
 10
250.156982
 20
264.720703
 30
0.0
 11
250.156982
 21
264.849976
 31
0.0
  0
LINE
  5
183
330
1F
100
AcDbEntity
  8
0
 62
     7
100
AcDbLine
 10
250.156982
 20
264.720703
 30
0.0
 11
250.156982
 21
264.579285
 31
0.0
  0
LINE
  5
184
330
1F
100
AcDbEntity
  8
0
 62
     7
100
AcDbLine
 10
250.156982
 20
264.579285
 30
0.0
 11
250.156982
 21
264.450012
 31
0.0
  0
LINE
  5
185
330
1F
100
AcDbEntity
  8
0
 62
     7
100
AcDbLine
 10
250.156982
 20
263.75
 30
0.0
 11
250.156982
 21
264.450012
 31
0.0
  0
LINE
  5
186
330
1F
100
AcDbEntity
  8
0
 62
     7
100
AcDbLine
 10
250.156982
 20
263.620728
 30
0.0
 11
250.156982
 21
263.75
 31
0.0
  0
LINE
  5
187
330
1F
100
AcDbEntity
  8
0
 62
     7
100
AcDbLine
 10
250.156982
 20
263.620728
 30
0.0
 11
250.156982
 21
263.479309
 31
0.0
  0
LINE
  5
188
330
1F
100
AcDbEntity
  8
0
 62
     7
100
AcDbLine
 10
250.156982
 20
263.479309
 30
0.0
 11
250.156982
 21
263.349976
 31
0.0
  0
LINE
  5
189
330
1F
100
AcDbEntity
  8
0
 62
     7
100
AcDbLine
 10
250.156982
 20
262.650024
 30
0.0
 11
250.156982
 21
263.349976
 31
0.0
  0
LINE
  5
18A
330
1F
100
AcDbEntity
  8
0
 62
     7
100
AcDbLine
 10
250.156982
 20
262.520691
 30
0.0
 11
250.156982
 21
262.650024
 31
0.0
  0
LINE
  5
18B
330
1F
100
AcDbEntity
  8
0
 62
     7
100
AcDbLine
 10
250.156982
 20
262.520691
 30
0.0
 11
250.156982
 21
262.379272
 31
0.0
  0
LINE
  5
18C
330
1F
100
AcDbEntity
  8
0
 62
     7
100
AcDbLine
 10
250.156982
 20
262.379272
 30
0.0
 11
250.156982
 21
262.25
 31
0.0
  0
LINE
  5
18D
330
1F
100
AcDbEntity
  8
0
 62
     7
100
AcDbLine
 10
250.156982
 20
261.549988
 30
0.0
 11
250.156982
 21
262.25
 31
0.0
  0
LINE
  5
18E
330
1F
100
AcDbEntity
  8
0
 62
     7
100
AcDbLine
 10
250.156982
 20
261.420715
 30
0.0
 11
250.156982
 21
261.549988
 31
0.0
  0
LINE
  5
18F
330
1F
100
AcDbEntity
  8
0
 62
     7
100
AcDbLine
 10
250.156982
 20
261.420715
 30
0.0
 11
250.156982
 21
261.279297
 31
0.0
  0
LINE
  5
190
330
1F
100
AcDbEntity
  8
0
 62
     7
100
AcDbLine
 10
250.156982
 20
261.279297
 30
0.0
 11
250.156982
 21
261.150024
 31
0.0
  0
LINE
  5
191
330
1F
100
AcDbEntity
  8
0
 62
     7
100
AcDbLine
 10
250.156982
 20
260.450012
 30
0.0
 11
250.156982
 21
261.150024
 31
0.0
  0
LINE
  5
192
330
1F
100
AcDbEntity
  8
0
 62
     7
100
AcDbLine
 10
250.156982
 20
260.320679
 30
0.0
 11
250.156982
 21
260.450012
 31
0.0
  0
LINE
  5
193
330
1F
100
AcDbEntity
  8
0
 62
     7
100
AcDbLine
 10
250.156982
 20
260.320679
 30
0.0
 11
250.156982
 21
260.17926
 31
0.0
  0
LINE
  5
194
330
1F
100
AcDbEntity
  8
0
 62
     7
100
AcDbLine
 10
250.156982
 20
260.17926
 30
0.0
 11
250.156982
 21
260.049988
 31
0.0
  0
LINE
  5
195
330
1F
100
AcDbEntity
  8
0
 62
     7
100
AcDbLine
 10
250.156982
 20
259.349976
 30
0.0
 11
250.156982
 21
260.049988
 31
0.0
  0
LINE
  5
196
330
1F
100
AcDbEntity
  8
0
 62
     7
100
AcDbLine
 10
249.156982
 20
265.67926
 30
0.0
 11
249.156982
 21
265.549988
 31
0.0
  0
LINE
  5
197
330
1F
100
AcDbEntity
  8
0
 62
     7
100
AcDbLine
 10
249.156982
 20
265.67926
 30
0.0
 11
249.156982
 21
265.820679
 31
0.0
  0
LINE
  5
198
330
1F
100
AcDbEntity
  8
0
 62
     7
100
AcDbLine
 10
249.156982
 20
265.820679
 30
0.0
 11
249.156982
 21
265.950012
 31
0.0
  0
LINE
  5
199
330
1F
100
AcDbEntity
  8
0
 62
     7
100
AcDbLine
 10
249.156982
 20
266.349976
 30
0.0
 11
249.156982
 21
265.950012
 31
0.0
  0
LINE
  5
19A
330
1F
100
AcDbEntity
  8
0
 62
     7
100
AcDbLine
 10
249.156982
 20
259.079285
 30
0.0
 11
249.156982
 21
258.950012
 31
0.0
  0
LINE
  5
19B
330
1F
100
AcDbEntity
  8
0
 62
     7
100
AcDbLine
 10
249.156982
 20
259.079285
 30
0.0
 11
249.156982
 21
259.220703
 31
0.0
  0
LINE
  5
19C
330
1F
100
AcDbEntity
  8
0
 62
     7
100
AcDbLine
 10
249.156982
 20
259.220703
 30
0.0
 11
249.156982
 21
259.349976
 31
0.0
  0
LINE
  5
19D
330
1F
100
AcDbEntity
  8
0
 62
     7
100
AcDbLine
 10
249.156982
 20
260.049988
 30
0.0
 11
249.156982
 21
259.349976
 31
0.0
  0
LINE
  5
19E
330
1F
100
AcDbEntity
  8
0
 62
     7
100
AcDbLine
 10
249.156982
 20
260.17926
 30
0.0
 11
249.156982
 21
260.049988
 31
0.0
  0
LINE
  5
19F
330
1F
100
AcDbEntity
  8
0
 62
     7
100
AcDbLine
 10
249.156982
 20
260.17926
 30
0.0
 11
249.156982
 21
260.320679
 31
0.0
  0
LINE
  5
1A0
330
1F
100
AcDbEntity
  8
0
 62
     7
100
AcDbLine
 10
249.156982
 20
260.320679
 30
0.0
 11
249.156982
 21
260.450012
 31
0.0
  0
LINE
  5
1A1
330
1F
100
AcDbEntity
  8
0
 62
     7
100
AcDbLine
 10
249.156982
 20
261.150024
 30
0.0
 11
249.156982
 21
260.450012
 31
0.0
  0
LINE
  5
1A2
330
1F
100
AcDbEntity
  8
0
 62
     7
100
AcDbLine
 10
249.156982
 20
261.279297
 30
0.0
 11
249.156982
 21
261.150024
 31
0.0
  0
LINE
  5
1A3
330
1F
100
AcDbEntity
  8
0
 62
     7
100
AcDbLine
 10
249.156982
 20
261.279297
 30
0.0
 11
249.156982
 21
261.420715
 31
0.0
  0
LINE
  5
1A4
330
1F
100
AcDbEntity
  8
0
 62
     7
100
AcDbLine
 10
249.156982
 20
261.420715
 30
0.0
 11
249.156982
 21
261.549988
 31
0.0
  0
LINE
  5
1A5
330
1F
100
AcDbEntity
  8
0
 62
     7
100
AcDbLine
 10
249.156982
 20
262.25
 30
0.0
 11
249.156982
 21
261.549988
 31
0.0
  0
LINE
  5
1A6
330
1F
100
AcDbEntity
  8
0
 62
     7
100
AcDbLine
 10
249.156982
 20
262.379272
 30
0.0
 11
249.156982
 21
262.25
 31
0.0
  0
LINE
  5
1A7
330
1F
100
AcDbEntity
  8
0
 62
     7
100
AcDbLine
 10
249.156982
 20
262.379272
 30
0.0
 11
249.156982
 21
262.520691
 31
0.0
  0
LINE
  5
1A8
330
1F
100
AcDbEntity
  8
0
 62
     7
100
AcDbLine
 10
249.156982
 20
262.520691
 30
0.0
 11
249.156982
 21
262.650024
 31
0.0
  0
LINE
  5
1A9
330
1F
100
AcDbEntity
  8
0
 62
     7
100
AcDbLine
 10
249.156982
 20
263.349976
 30
0.0
 11
249.156982
 21
262.650024
 31
0.0
  0
LINE
  5
1AA
330
1F
100
AcDbEntity
  8
0
 62
     7
100
AcDbLine
 10
249.156982
 20
263.479309
 30
0.0
 11
249.156982
 21
263.349976
 31
0.0
  0
LINE
  5
1AB
330
1F
100
AcDbEntity
  8
0
 62
     7
100
AcDbLine
 10
249.156982
 20
263.479309
 30
0.0
 11
249.156982
 21
263.620728
 31
0.0
  0
LINE
  5
1AC
330
1F
100
AcDbEntity
  8
0
 62
     7
100
AcDbLine
 10
249.156982
 20
263.620728
 30
0.0
 11
249.156982
 21
263.75
 31
0.0
  0
LINE
  5
1AD
330
1F
100
AcDbEntity
  8
0
 62
     7
100
AcDbLine
 10
249.156982
 20
264.450012
 30
0.0
 11
249.156982
 21
263.75
 31
0.0
  0
LINE
  5
1AE
330
1F
100
AcDbEntity
  8
0
 62
     7
100
AcDbLine
 10
249.156982
 20
264.579285
 30
0.0
 11
249.156982
 21
264.450012
 31
0.0
  0
LINE
  5
1AF
330
1F
100
AcDbEntity
  8
0
 62
     7
100
AcDbLine
 10
249.156982
 20
264.579285
 30
0.0
 11
249.156982
 21
264.720703
 31
0.0
  0
LINE
  5
1B0
330
1F
100
AcDbEntity
  8
0
 62
     7
100
AcDbLine
 10
249.156982
 20
264.720703
 30
0.0
 11
249.156982
 21
264.849976
 31
0.0
  0
LINE
  5
1B1
330
1F
100
AcDbEntity
  8
0
 62
     7
100
AcDbLine
 10
249.156982
 20
265.549988
 30
0.0
 11
249.156982
 21
264.849976
 31
0.0
  0
LINE
  5
1B2
330
1F
100
AcDbEntity
  8
0
 62
     7
100
AcDbLine
 10
190.488297
 20
258.950012
 30
0.0
 11
190.571671
 21
259.079285
 31
0.0
  0
ARC
  5
1B3
330
1F
100
AcDbEntity
  8
0
 62
     7
100
AcDbCircle
 10
183.806976
 20
263.349976
 30
0.0
 40
8.0
100
AcDbArc
 50
354.980203
 51
360.0
  0
LINE
  5
1B4
330
1F
100
AcDbEntity
  8
0
 62
     7
100
AcDbLine
 10
191.76387
 20
262.520691
 30
0.0
 11
191.776291
 21
262.650024
 31
0.0
  0
LINE
  5
1B5
330
1F
100
AcDbEntity
  8
0
 62
     7
100
AcDbLine
 10
191.747864
 20
262.379272
 30
0.0
 11
191.76387
 21
262.520691
 31
0.0
  0
LINE
  5
1B6
330
1F
100
AcDbEntity
  8
0
 62
     7
100
AcDbLine
 10
191.730988
 20
262.25
 30
0.0
 11
191.747864
 21
262.379272
 31
0.0
  0
ARC
  5
1B7
330
1F
100
AcDbEntity
  8
0
 62
     7
100
AcDbCircle
 10
183.806976
 20
263.349976
 30
0.0
 40
8.0
100
AcDbArc
 50
346.997132
 51
352.096798
  0
LINE
  5
1B8
330
1F
100
AcDbEntity
  8
0
 62
     7
100
AcDbLine
 10
191.570862
 20
261.420715
 30
0.0
 11
191.601852
 21
261.549988
 31
0.0
  0
LINE
  5
1B9
330
1F
100
AcDbEntity
  8
0
 62
     7
100
AcDbLine
 10
191.534332
 20
261.279297
 30
0.0
 11
191.570862
 21
261.420715
 31
0.0
  0
LINE
  5
1BA
330
1F
100
AcDbEntity
  8
0
 62
     7
100
AcDbLine
 10
191.498535
 20
261.150024
 30
0.0
 11
191.534332
 21
261.279297
 31
0.0
  0
ARC
  5
1BB
330
1F
100
AcDbEntity
  8
0
 62
     7
100
AcDbCircle
 10
183.806976
 20
263.349976
 30
0.0
 40
8.0
100
AcDbArc
 50
338.746183
 51
344.037995
  0
LINE
  5
1BC
330
1F
100
AcDbEntity
  8
0
 62
     7
100
AcDbLine
 10
191.211258
 20
260.320679
 30
0.0
 11
191.262848
 21
260.450012
 31
0.0
  0
LINE
  5
1BD
330
1F
100
AcDbEntity
  8
0
 62
     7
100
AcDbLine
 10
191.15181
 20
260.17926
 30
0.0
 11
191.211258
 21
260.320679
 31
0.0
  0
LINE
  5
1BE
330
1F
100
AcDbEntity
  8
0
 62
     7
100
AcDbLine
 10
191.094635
 20
260.049988
 30
0.0
 11
191.15181
 21
260.17926
 31
0.0
  0
ARC
  5
1BF
330
1F
100
AcDbEntity
  8
0
 62
     7
100
AcDbCircle
 10
183.806976
 20
263.349976
 30
0.0
 40
8.0
100
AcDbArc
 50
329.999989
 51
335.63801
  0
LINE
  5
1C0
330
1F
100
AcDbEntity
  8
0
 62
     7
100
AcDbLine
 10
190.658905
 20
259.220703
 30
0.0
 11
190.735184
 21
259.349976
 31
0.0
  0
LINE
  5
1C1
330
1F
100
AcDbEntity
  8
0
 62
     7
100
AcDbLine
 10
190.571671
 20
259.079285
 30
0.0
 11
190.658905
 21
259.220703
 31
0.0
  0
LINE
  5
1C2
330
1F
100
AcDbEntity
  8
0
 62
     7
100
AcDbLine
 10
177.125656
 20
258.950012
 30
0.0
 11
177.042282
 21
259.079285
 31
0.0
  0
LINE
  5
1C3
330
1F
100
AcDbEntity
  8
0
 62
     7
100
AcDbLine
 10
177.042282
 20
259.079285
 30
0.0
 11
176.955048
 21
259.220703
 31
0.0
  0
LINE
  5
1C4
330
1F
100
AcDbEntity
  8
0
 62
     7
100
AcDbLine
 10
176.955048
 20
259.220703
 30
0.0
 11
176.878769
 21
259.349976
 31
0.0
  0
ARC
  5
1C5
330
1F
100
AcDbEntity
  8
0
 62
     7
100
AcDbCircle
 10
183.806976
 20
263.349976
 30
0.0
 40
8.0
100
AcDbArc
 50
204.361982
 51
210.000003
  0
LINE
  5
1C6
330
1F
100
AcDbEntity
  8
0
 62
     7
100
AcDbLine
 10
176.519318
 20
260.049988
 30
0.0
 11
176.462143
 21
260.17926
 31
0.0
  0
LINE
  5
1C7
330
1F
100
AcDbEntity
  8
0
 62
     7
100
AcDbLine
 10
176.462143
 20
260.17926
 30
0.0
 11
176.402695
 21
260.320679
 31
0.0
  0
LINE
  5
1C8
330
1F
100
AcDbEntity
  8
0
 62
     7
100
AcDbLine
 10
176.402695
 20
260.320679
 30
0.0
 11
176.351105
 21
260.450012
 31
0.0
  0
ARC
  5
1C9
330
1F
100
AcDbEntity
  8
0
 62
     7
100
AcDbCircle
 10
183.806976
 20
263.349976
 30
0.0
 40
8.0
100
AcDbArc
 50
195.96201
 51
201.253809
  0
LINE
  5
1CA
330
1F
100
AcDbEntity
  8
0
 62
     7
100
AcDbLine
 10
176.115417
 20
261.150024
 30
0.0
 11
176.079605
 21
261.279297
 31
0.0
  0
LINE
  5
1CB
330
1F
100
AcDbEntity
  8
0
 62
     7
100
AcDbLine
 10
176.079605
 20
261.279297
 30
0.0
 11
176.043091
 21
261.420715
 31
0.0
  0
LINE
  5
1CC
330
1F
100
AcDbEntity
  8
0
 62
     7
100
AcDbLine
 10
176.043091
 20
261.420715
 30
0.0
 11
176.0121
 21
261.549988
 31
0.0
  0
ARC
  5
1CD
330
1F
100
AcDbEntity
  8
0
 62
     7
100
AcDbCircle
 10
183.806976
 20
263.349976
 30
0.0
 40
8.0
100
AcDbArc
 50
187.903207
 51
193.002872
  0
LINE
  5
1CE
330
1F
100
AcDbEntity
  8
0
 62
     7
100
AcDbLine
 10
175.882965
 20
262.25
 30
0.0
 11
175.866089
 21
262.379272
 31
0.0
  0
LINE
  5
1CF
330
1F
100
AcDbEntity
  8
0
 62
     7
100
AcDbLine
 10
175.866089
 20
262.379272
 30
0.0
 11
175.850082
 21
262.520691
 31
0.0
  0
LINE
  5
1D0
330
1F
100
AcDbEntity
  8
0
 62
     7
100
AcDbLine
 10
175.850082
 20
262.520691
 30
0.0
 11
175.837662
 21
262.650024
 31
0.0
  0
ARC
  5
1D1
330
1F
100
AcDbEntity
  8
0
 62
     7
100
AcDbCircle
 10
183.806976
 20
263.349976
 30
0.0
 40
8.0
100
AcDbArc
 50
180.000009
 51
185.019802
  0
LINE
  5
1D2
330
1F
100
AcDbEntity
  8
0
 62
     7
100
AcDbLine
 10
174.806976
 20
259.079285
 30
0.0
 11
174.806976
 21
258.950012
 31
0.0
  0
LINE
  5
1D3
330
1F
100
AcDbEntity
  8
0
 62
     7
100
AcDbLine
 10
174.806976
 20
259.220703
 30
0.0
 11
174.806976
 21
259.079285
 31
0.0
  0
LINE
  5
1D4
330
1F
100
AcDbEntity
  8
0
 62
     7
100
AcDbLine
 10
174.806976
 20
259.349976
 30
0.0
 11
174.806976
 21
259.220703
 31
0.0
  0
LINE
  5
1D5
330
1F
100
AcDbEntity
  8
0
 62
     7
100
AcDbLine
 10
174.806976
 20
259.349976
 30
0.0
 11
174.806976
 21
260.049988
 31
0.0
  0
LINE
  5
1D6
330
1F
100
AcDbEntity
  8
0
 62
     7
100
AcDbLine
 10
174.806976
 20
260.17926
 30
0.0
 11
174.806976
 21
260.049988
 31
0.0
  0
LINE
  5
1D7
330
1F
100
AcDbEntity
  8
0
 62
     7
100
AcDbLine
 10
174.806976
 20
260.320679
 30
0.0
 11
174.806976
 21
260.17926
 31
0.0
  0
LINE
  5
1D8
330
1F
100
AcDbEntity
  8
0
 62
     7
100
AcDbLine
 10
174.806976
 20
260.450012
 30
0.0
 11
174.806976
 21
260.320679
 31
0.0
  0
LINE
  5
1D9
330
1F
100
AcDbEntity
  8
0
 62
     7
100
AcDbLine
 10
174.806976
 20
260.450012
 30
0.0
 11
174.806976
 21
261.150024
 31
0.0
  0
LINE
  5
1DA
330
1F
100
AcDbEntity
  8
0
 62
     7
100
AcDbLine
 10
174.806976
 20
261.279297
 30
0.0
 11
174.806976
 21
261.150024
 31
0.0
  0
LINE
  5
1DB
330
1F
100
AcDbEntity
  8
0
 62
     7
100
AcDbLine
 10
174.806976
 20
261.420715
 30
0.0
 11
174.806976
 21
261.279297
 31
0.0
  0
LINE
  5
1DC
330
1F
100
AcDbEntity
  8
0
 62
     7
100
AcDbLine
 10
174.806976
 20
261.549988
 30
0.0
 11
174.806976
 21
261.420715
 31
0.0
  0
LINE
  5
1DD
330
1F
100
AcDbEntity
  8
0
 62
     7
100
AcDbLine
 10
174.806976
 20
261.549988
 30
0.0
 11
174.806976
 21
262.25
 31
0.0
  0
LINE
  5
1DE
330
1F
100
AcDbEntity
  8
0
 62
     7
100
AcDbLine
 10
174.806976
 20
262.379272
 30
0.0
 11
174.806976
 21
262.25
 31
0.0
  0
LINE
  5
1DF
330
1F
100
AcDbEntity
  8
0
 62
     7
100
AcDbLine
 10
174.806976
 20
262.520691
 30
0.0
 11
174.806976
 21
262.379272
 31
0.0
  0
LINE
  5
1E0
330
1F
100
AcDbEntity
  8
0
 62
     7
100
AcDbLine
 10
174.806976
 20
262.650024
 30
0.0
 11
174.806976
 21
262.520691
 31
0.0
  0
LINE
  5
1E1
330
1F
100
AcDbEntity
  8
0
 62
     7
100
AcDbLine
 10
174.806976
 20
262.650024
 30
0.0
 11
174.806976
 21
263.349976
 31
0.0
  0
LINE
  5
1E2
330
1F
100
AcDbEntity
  8
0
 62
     7
100
AcDbLine
 10
174.806976
 20
263.479309
 30
0.0
 11
174.806976
 21
263.349976
 31
0.0
  0
LINE
  5
1E3
330
1F
100
AcDbEntity
  8
0
 62
     7
100
AcDbLine
 10
174.806976
 20
263.620728
 30
0.0
 11
174.806976
 21
263.479309
 31
0.0
  0
LINE
  5
1E4
330
1F
100
AcDbEntity
  8
0
 62
     7
100
AcDbLine
 10
174.806976
 20
263.75
 30
0.0
 11
174.806976
 21
263.620728
 31
0.0
  0
LINE
  5
1E5
330
1F
100
AcDbEntity
  8
0
 62
     7
100
AcDbLine
 10
174.806976
 20
263.75
 30
0.0
 11
174.806976
 21
264.450012
 31
0.0
  0
LINE
  5
1E6
330
1F
100
AcDbEntity
  8
0
 62
     7
100
AcDbLine
 10
174.806976
 20
264.579285
 30
0.0
 11
174.806976
 21
264.450012
 31
0.0
  0
LINE
  5
1E7
330
1F
100
AcDbEntity
  8
0
 62
     7
100
AcDbLine
 10
174.806976
 20
264.720703
 30
0.0
 11
174.806976
 21
264.579285
 31
0.0
  0
LINE
  5
1E8
330
1F
100
AcDbEntity
  8
0
 62
     7
100
AcDbLine
 10
174.806976
 20
264.849976
 30
0.0
 11
174.806976
 21
264.720703
 31
0.0
  0
LINE
  5
1E9
330
1F
100
AcDbEntity
  8
0
 62
     7
100
AcDbLine
 10
174.806976
 20
264.849976
 30
0.0
 11
174.806976
 21
265.549988
 31
0.0
  0
LINE
  5
1EA
330
1F
100
AcDbEntity
  8
0
 62
     7
100
AcDbLine
 10
174.806976
 20
265.67926
 30
0.0
 11
174.806976
 21
265.549988
 31
0.0
  0
LINE
  5
1EB
330
1F
100
AcDbEntity
  8
0
 62
     7
100
AcDbLine
 10
174.806976
 20
265.820679
 30
0.0
 11
174.806976
 21
265.67926
 31
0.0
  0
LINE
  5
1EC
330
1F
100
AcDbEntity
  8
0
 62
     7
100
AcDbLine
 10
174.806976
 20
265.950012
 30
0.0
 11
174.806976
 21
265.820679
 31
0.0
  0
LINE
  5
1ED
330
1F
100
AcDbEntity
  8
0
 62
     7
100
AcDbLine
 10
174.806976
 20
265.950012
 30
0.0
 11
174.806976
 21
266.650024
 31
0.0
  0
LINE
  5
1EE
330
1F
100
AcDbEntity
  8
0
 62
     7
100
AcDbLine
 10
174.806976
 20
266.779297
 30
0.0
 11
174.806976
 21
266.650024
 31
0.0
  0
LINE
  5
1EF
330
1F
100
AcDbEntity
  8
0
 62
     7
100
AcDbLine
 10
174.806976
 20
266.920715
 30
0.0
 11
174.806976
 21
266.779297
 31
0.0
  0
LINE
  5
1F0
330
1F
100
AcDbEntity
  8
0
 62
     7
100
AcDbLine
 10
174.806976
 20
267.049988
 30
0.0
 11
174.806976
 21
266.920715
 31
0.0
  0
LINE
  5
1F1
330
1F
100
AcDbEntity
  8
0
 62
     7
100
AcDbLine
 10
174.806976
 20
267.049988
 30
0.0
 11
174.806976
 21
267.75
 31
0.0
  0
LINE
  5
1F2
330
1F
100
AcDbEntity
  8
0
 62
     7
100
AcDbLine
 10
174.806976
 20
267.879272
 30
0.0
 11
174.806976
 21
267.75
 31
0.0
  0
LINE
  5
1F3
330
1F
100
AcDbEntity
  8
0
 62
     7
100
AcDbLine
 10
174.806976
 20
268.020691
 30
0.0
 11
174.806976
 21
267.879272
 31
0.0
  0
LINE
  5
1F4
330
1F
100
AcDbEntity
  8
0
 62
     7
100
AcDbLine
 10
174.806976
 20
268.150024
 30
0.0
 11
174.806976
 21
268.020691
 31
0.0
  0
LINE
  5
1F5
330
1F
100
AcDbEntity
  8
0
 62
     7
100
AcDbLine
 10
174.806976
 20
268.150024
 30
0.0
 11
174.806976
 21
272.974243
 31
0.0
  0
LINE
  5
1F6
330
1F
100
AcDbEntity
  8
0
 62
     7
100
AcDbLine
 10
174.806976
 20
273.462158
 30
0.0
 11
174.806976
 21
272.974243
 31
0.0
  0
LINE
  5
1F7
330
1F
100
AcDbEntity
  8
0
 62
     7
100
AcDbLine
 10
174.806976
 20
273.549988
 30
0.0
 11
174.806976
 21
273.462158
 31
0.0
  0
ARC
  5
1F8
330
1F
100
AcDbEntity
  8
0
 62
     7
100
AcDbCircle
 10
502.307007
 20
250.550003
 30
0.0
 40
0.5
100
AcDbArc
 50
0.0
 51
90.000003
  0
LINE
  5
1F9
330
1F
100
AcDbEntity
  8
0
 62
     7
100
AcDbLine
 10
502.307007
 20
251.050003
 30
0.0
 11
495.307007
 21
251.050003
 31
0.0
  0
ARC
  5
1FA
330
1F
100
AcDbEntity
  8
0
 62
     7
100
AcDbCircle
 10
495.307007
 20
250.550003
 30
0.0
 40
0.5
100
AcDbArc
 50
90.000003
 51
180.000009
  0
LINE
  5
1FB
330
1F
100
AcDbEntity
  8
0
 62
     7
100
AcDbLine
 10
494.807007
 20
250.550003
 30
0.0
 11
494.807007
 21
246.550003
 31
0.0
  0
ARC
  5
1FC
330
1F
100
AcDbEntity
  8
0
 62
     7
100
AcDbCircle
 10
495.307007
 20
246.550003
 30
0.0
 40
0.5
100
AcDbArc
 50
180.000009
 51
269.999997
  0
LINE
  5
1FD
330
1F
100
AcDbEntity
  8
0
 62
     7
100
AcDbLine
 10
495.307007
 20
246.050003
 30
0.0
 11
502.307007
 21
246.050003
 31
0.0
  0
ARC
  5
1FE
330
1F
100
AcDbEntity
  8
0
 62
     7
100
AcDbCircle
 10
502.307007
 20
246.550003
 30
0.0
 40
0.5
100
AcDbArc
 50
269.999997
 51
360.0
  0
LINE
  5
1FF
330
1F
100
AcDbEntity
  8
0
 62
     7
100
AcDbLine
 10
502.807007
 20
246.550003
 30
0.0
 11
502.807007
 21
250.550003
 31
0.0
  0
ARC
  5
200
330
1F
100
AcDbEntity
  8
0
 62
     7
100
AcDbCircle
 10
232.306976
 20
250.550003
 30
0.0
 40
0.5
100
AcDbArc
 50
0.0
 51
90.000003
  0
LINE
  5
201
330
1F
100
AcDbEntity
  8
0
 62
     7
100
AcDbLine
 10
232.306976
 20
251.050003
 30
0.0
 11
225.306976
 21
251.050003
 31
0.0
  0
ARC
  5
202
330
1F
100
AcDbEntity
  8
0
 62
     7
100
AcDbCircle
 10
225.306976
 20
250.550003
 30
0.0
 40
0.5
100
AcDbArc
 50
90.000003
 51
180.000009
  0
LINE
  5
203
330
1F
100
AcDbEntity
  8
0
 62
     7
100
AcDbLine
 10
224.806976
 20
250.550003
 30
0.0
 11
224.806976
 21
246.550003
 31
0.0
  0
ARC
  5
204
330
1F
100
AcDbEntity
  8
0
 62
     7
100
AcDbCircle
 10
225.306976
 20
246.550003
 30
0.0
 40
0.5
100
AcDbArc
 50
180.000009
 51
269.999997
  0
LINE
  5
205
330
1F
100
AcDbEntity
  8
0
 62
     7
100
AcDbLine
 10
225.306976
 20
246.050003
 30
0.0
 11
232.306976
 21
246.050003
 31
0.0
  0
ARC
  5
206
330
1F
100
AcDbEntity
  8
0
 62
     7
100
AcDbCircle
 10
232.306976
 20
246.550003
 30
0.0
 40
0.5
100
AcDbArc
 50
269.999997
 51
360.0
  0
LINE
  5
207
330
1F
100
AcDbEntity
  8
0
 62
     7
100
AcDbLine
 10
232.806976
 20
246.550003
 30
0.0
 11
232.806976
 21
250.550003
 31
0.0
  0
LINE
  5
208
330
1F
100
AcDbEntity
  8
0
 62
     7
100
AcDbLine
 10
578.306946
 20
251.350006
 30
0.0
 11
577.806946
 21
251.350006
 31
0.0
  0
LINE
  5
209
330
1F
100
AcDbEntity
  8
0
 62
     7
100
AcDbLine
 10
577.806946
 20
253.650009
 30
0.0
 11
578.306946
 21
253.650009
 31
0.0
  0
LINE
  5
20A
330
1F
100
AcDbEntity
  8
0
 62
     7
100
AcDbLine
 10
174.306976
 20
253.650009
 30
0.0
 11
174.806976
 21
253.650009
 31
0.0
  0
LINE
  5
20B
330
1F
100
AcDbEntity
  8
0
 62
     7
100
AcDbLine
 10
505.307007
 20
273.462158
 30
0.0
 11
505.307007
 21
273.549988
 31
0.0
  0
LINE
  5
20C
330
1F
100
AcDbEntity
  8
0
 62
     7
100
AcDbLine
 10
505.307007
 20
273.462158
 30
0.0
 11
505.307007
 21
272.974243
 31
0.0
  0
LINE
  5
20D
330
1F
100
AcDbEntity
  8
0
 62
     7
100
AcDbLine
 10
577.806946
 20
272.974243
 30
0.0
 11
505.307007
 21
272.974243
 31
0.0
  0
ARC
  5
20E
330
1F
100
AcDbEntity
  8
0
 62
     7
100
AcDbCircle
 10
568.806946
 20
263.349976
 30
0.0
 40
8.0
100
AcDbArc
 50
36.869897
 51
143.130097
  0
LINE
  5
20F
330
1F
100
AcDbEntity
  8
0
 62
     7
100
AcDbLine
 10
577.806946
 20
268.150024
 30
0.0
 11
575.206909
 21
268.150024
 31
0.0
  0
LINE
  5
210
330
1F
100
AcDbEntity
  8
0
 62
     7
100
AcDbLine
 10
505.307007
 20
268.150024
 30
0.0
 11
505.307007
 21
272.974243
 31
0.0
  0
LINE
  5
211
330
1F
100
AcDbEntity
  8
0
 62
     7
100
AcDbLine
 10
562.406921
 20
268.150024
 30
0.0
 11
505.307007
 21
268.150024
 31
0.0
  0
LINE
  5
212
330
1F
100
AcDbEntity
  8
0
 62
     7
100
AcDbLine
 10
575.206909
 20
268.150024
 30
0.0
 11
575.30188
 21
268.020691
 31
0.0
  0
LINE
  5
213
330
1F
100
AcDbEntity
  8
0
 62
     7
100
AcDbLine
 10
575.30188
 20
268.020691
 30
0.0
 11
575.401306
 21
267.879272
 31
0.0
  0
LINE
  5
214
330
1F
100
AcDbEntity
  8
0
 62
     7
100
AcDbLine
 10
575.401306
 20
267.879272
 30
0.0
 11
575.48822
 21
267.75
 31
0.0
  0
LINE
  5
215
330
1F
100
AcDbEntity
  8
0
 62
     7
100
AcDbLine
 10
577.806946
 20
267.75
 30
0.0
 11
575.48822
 21
267.75
 31
0.0
  0
ARC
  5
216
330
1F
100
AcDbEntity
  8
0
 62
     7
100
AcDbCircle
 10
568.806946
 20
263.349976
 30
0.0
 40
8.0
100
AcDbArc
 50
27.548547
 51
33.367014
  0
LINE
  5
217
330
1F
100
AcDbEntity
  8
0
 62
     7
100
AcDbLine
 10
577.806946
 20
267.049988
 30
0.0
 11
575.899902
 21
267.049988
 31
0.0
  0
LINE
  5
218
330
1F
100
AcDbEntity
  8
0
 62
     7
100
AcDbLine
 10
575.899902
 20
267.049988
 30
0.0
 11
575.96582
 21
266.920715
 31
0.0
  0
LINE
  5
219
330
1F
100
AcDbEntity
  8
0
 62
     7
100
AcDbLine
 10
575.96582
 20
266.920715
 30
0.0
 11
576.034668
 21
266.779297
 31
0.0
  0
LINE
  5
21A
330
1F
100
AcDbEntity
  8
0
 62
     7
100
AcDbLine
 10
576.034668
 20
266.779297
 30
0.0
 11
576.094604
 21
266.650024
 31
0.0
  0
LINE
  5
21B
330
1F
100
AcDbEntity
  8
0
 62
     7
100
AcDbLine
 10
577.806946
 20
266.650024
 30
0.0
 11
576.094604
 21
266.650024
 31
0.0
  0
ARC
  5
21C
330
1F
100
AcDbEntity
  8
0
 62
     7
100
AcDbCircle
 10
568.806946
 20
263.349976
 30
0.0
 40
8.0
100
AcDbArc
 50
18.965574
 51
24.361978
  0
LINE
  5
21D
330
1F
100
AcDbEntity
  8
0
 62
     7
100
AcDbLine
 10
577.806946
 20
265.950012
 30
0.0
 11
576.37262
 21
265.950012
 31
0.0
  0
LINE
  5
21E
330
1F
100
AcDbEntity
  8
0
 62
     7
100
AcDbLine
 10
576.37262
 20
265.950012
 30
0.0
 11
576.415833
 21
265.820679
 31
0.0
  0
LINE
  5
21F
330
1F
100
AcDbEntity
  8
0
 62
     7
100
AcDbLine
 10
576.415833
 20
265.820679
 30
0.0
 11
576.460327
 21
265.67926
 31
0.0
  0
LINE
  5
220
330
1F
100
AcDbEntity
  8
0
 62
     7
100
AcDbLine
 10
576.460327
 20
265.67926
 30
0.0
 11
576.498474
 21
265.549988
 31
0.0
  0
LINE
  5
221
330
1F
100
AcDbEntity
  8
0
 62
     7
100
AcDbLine
 10
577.806946
 20
265.549988
 30
0.0
 11
576.498474
 21
265.549988
 31
0.0
  0
ARC
  5
222
330
1F
100
AcDbEntity
  8
0
 62
     7
100
AcDbCircle
 10
568.806946
 20
263.349976
 30
0.0
 40
8.0
100
AcDbArc
 50
10.806925
 51
15.962019
  0
LINE
  5
223
330
1F
100
AcDbEntity
  8
0
 62
     7
100
AcDbLine
 10
577.806946
 20
264.849976
 30
0.0
 11
576.665039
 21
264.849976
 31
0.0
  0
LINE
  5
224
330
1F
100
AcDbEntity
  8
0
 62
     7
100
AcDbLine
 10
576.665039
 20
264.849976
 30
0.0
 11
576.688599
 21
264.720703
 31
0.0
  0
LINE
  5
225
330
1F
100
AcDbEntity
  8
0
 62
     7
100
AcDbLine
 10
576.688599
 20
264.720703
 30
0.0
 11
576.711914
 21
264.579285
 31
0.0
  0
LINE
  5
226
330
1F
100
AcDbEntity
  8
0
 62
     7
100
AcDbLine
 10
576.711914
 20
264.579285
 30
0.0
 11
576.730957
 21
264.450012
 31
0.0
  0
LINE
  5
227
330
1F
100
AcDbEntity
  8
0
 62
     7
100
AcDbLine
 10
577.806946
 20
264.450012
 30
0.0
 11
576.730957
 21
264.450012
 31
0.0
  0
ARC
  5
228
330
1F
100
AcDbEntity
  8
0
 62
     7
100
AcDbCircle
 10
568.806946
 20
263.349976
 30
0.0
 40
8.0
100
AcDbArc
 50
2.865984
 51
7.903208
  0
LINE
  5
229
330
1F
100
AcDbEntity
  8
0
 62
     7
100
AcDbLine
 10
577.806946
 20
263.75
 30
0.0
 11
576.796936
 21
263.75
 31
0.0
  0
LINE
  5
22A
330
1F
100
AcDbEntity
  8
0
 62
     7
100
AcDbLine
 10
576.796936
 20
263.75
 30
0.0
 11
576.802368
 21
263.620728
 31
0.0
  0
LINE
  5
22B
330
1F
100
AcDbEntity
  8
0
 62
     7
100
AcDbLine
 10
576.802368
 20
263.620728
 30
0.0
 11
576.805908
 21
263.479309
 31
0.0
  0
LINE
  5
22C
330
1F
100
AcDbEntity
  8
0
 62
     7
100
AcDbLine
 10
576.805908
 20
263.479309
 30
0.0
 11
576.806946
 21
263.349976
 31
0.0
  0
LINE
  5
22D
330
1F
100
AcDbEntity
  8
0
 62
     7
100
AcDbLine
 10
577.806946
 20
263.349976
 30
0.0
 11
576.806946
 21
263.349976
 31
0.0
  0
LINE
  5
22E
330
1F
100
AcDbEntity
  8
0
 62
     7
100
AcDbLine
 10
577.806946
 20
262.650024
 30
0.0
 11
576.776245
 21
262.650024
 31
0.0
  0
LINE
  5
22F
330
1F
100
AcDbEntity
  8
0
 62
     7
100
AcDbLine
 10
577.806946
 20
262.25
 30
0.0
 11
576.730957
 21
262.25
 31
0.0
  0
LINE
  5
230
330
1F
100
AcDbEntity
  8
0
 62
     7
100
AcDbLine
 10
577.806946
 20
261.549988
 30
0.0
 11
576.601807
 21
261.549988
 31
0.0
  0
LINE
  5
231
330
1F
100
AcDbEntity
  8
0
 62
     7
100
AcDbLine
 10
577.806946
 20
261.150024
 30
0.0
 11
576.498474
 21
261.150024
 31
0.0
  0
LINE
  5
232
330
1F
100
AcDbEntity
  8
0
 62
     7
100
AcDbLine
 10
577.806946
 20
260.450012
 30
0.0
 11
576.262817
 21
260.450012
 31
0.0
  0
LINE
  5
233
330
1F
100
AcDbEntity
  8
0
 62
     7
100
AcDbLine
 10
577.806946
 20
260.049988
 30
0.0
 11
576.094604
 21
260.049988
 31
0.0
  0
LINE
  5
234
330
1F
100
AcDbEntity
  8
0
 62
     7
100
AcDbLine
 10
577.806946
 20
259.349976
 30
0.0
 11
575.735107
 21
259.349976
 31
0.0
  0
LINE
  5
235
330
1F
100
AcDbEntity
  8
0
 62
     7
100
AcDbLine
 10
561.878723
 20
259.349976
 30
0.0
 11
503.457001
 21
259.349976
 31
0.0
  0
LINE
  5
236
330
1F
100
AcDbEntity
  8
0
 62
     7
100
AcDbLine
 10
561.519287
 20
260.049988
 30
0.0
 11
503.457001
 21
260.049988
 31
0.0
  0
LINE
  5
237
330
1F
100
AcDbEntity
  8
0
 62
     7
100
AcDbLine
 10
561.351074
 20
260.450012
 30
0.0
 11
503.457001
 21
260.450012
 31
0.0
  0
LINE
  5
238
330
1F
100
AcDbEntity
  8
0
 62
     7
100
AcDbLine
 10
561.115356
 20
261.150024
 30
0.0
 11
503.457001
 21
261.150024
 31
0.0
  0
LINE
  5
239
330
1F
100
AcDbEntity
  8
0
 62
     7
100
AcDbLine
 10
561.012085
 20
261.549988
 30
0.0
 11
503.457001
 21
261.549988
 31
0.0
  0
LINE
  5
23A
330
1F
100
AcDbEntity
  8
0
 62
     7
100
AcDbLine
 10
560.882935
 20
262.25
 30
0.0
 11
503.457001
 21
262.25
 31
0.0
  0
LINE
  5
23B
330
1F
100
AcDbEntity
  8
0
 62
     7
100
AcDbLine
 10
560.837585
 20
262.650024
 30
0.0
 11
503.457001
 21
262.650024
 31
0.0
  0
LINE
  5
23C
330
1F
100
AcDbEntity
  8
0
 62
     7
100
AcDbLine
 10
560.806946
 20
263.349976
 30
0.0
 11
503.457001
 21
263.349976
 31
0.0
  0
LINE
  5
23D
330
1F
100
AcDbEntity
  8
0
 62
     7
100
AcDbLine
 10
560.807983
 20
263.479309
 30
0.0
 11
560.806946
 21
263.349976
 31
0.0
  0
LINE
  5
23E
330
1F
100
AcDbEntity
  8
0
 62
     7
100
AcDbLine
 10
560.811523
 20
263.620728
 30
0.0
 11
560.807983
 21
263.479309
 31
0.0
  0
LINE
  5
23F
330
1F
100
AcDbEntity
  8
0
 62
     7
100
AcDbLine
 10
560.816956
 20
263.75
 30
0.0
 11
560.811523
 21
263.620728
 31
0.0
  0
ARC
  5
240
330
1F
100
AcDbEntity
  8
0
 62
     7
100
AcDbCircle
 10
568.806946
 20
263.349976
 30
0.0
 40
8.0
100
AcDbArc
 50
172.096793
 51
177.134017
  0
LINE
  5
241
330
1F
100
AcDbEntity
  8
0
 62
     7
100
AcDbLine
 10
560.901917
 20
264.579285
 30
0.0
 11
560.882935
 21
264.450012
 31
0.0
  0
LINE
  5
242
330
1F
100
AcDbEntity
  8
0
 62
     7
100
AcDbLine
 10
560.925232
 20
264.720703
 30
0.0
 11
560.901917
 21
264.579285
 31
0.0
  0
LINE
  5
243
330
1F
100
AcDbEntity
  8
0
 62
     7
100
AcDbLine
 10
560.948792
 20
264.849976
 30
0.0
 11
560.925232
 21
264.720703
 31
0.0
  0
ARC
  5
244
330
1F
100
AcDbEntity
  8
0
 62
     7
100
AcDbCircle
 10
568.806946
 20
263.349976
 30
0.0
 40
8.0
100
AcDbArc
 50
164.03799
 51
169.193075
  0
LINE
  5
245
330
1F
100
AcDbEntity
  8
0
 62
     7
100
AcDbLine
 10
561.153564
 20
265.67926
 30
0.0
 11
561.115356
 21
265.549988
 31
0.0
  0
LINE
  5
246
330
1F
100
AcDbEntity
  8
0
 62
     7
100
AcDbLine
 10
561.197998
 20
265.820679
 30
0.0
 11
561.153564
 21
265.67926
 31
0.0
  0
LINE
  5
247
330
1F
100
AcDbEntity
  8
0
 62
     7
100
AcDbLine
 10
561.241211
 20
265.950012
 30
0.0
 11
561.197998
 21
265.820679
 31
0.0
  0
ARC
  5
248
330
1F
100
AcDbEntity
  8
0
 62
     7
100
AcDbCircle
 10
568.806946
 20
263.349976
 30
0.0
 40
8.0
100
AcDbArc
 50
155.638018
 51
161.034427
  0
LINE
  5
249
330
1F
100
AcDbEntity
  8
0
 62
     7
100
AcDbLine
 10
561.579224
 20
266.779297
 30
0.0
 11
561.519287
 21
266.650024
 31
0.0
  0
LINE
  5
24A
330
1F
100
AcDbEntity
  8
0
 62
     7
100
AcDbLine
 10
561.64801
 20
266.920715
 30
0.0
 11
561.579224
 21
266.779297
 31
0.0
  0
LINE
  5
24B
330
1F
100
AcDbEntity
  8
0
 62
     7
100
AcDbLine
 10
561.713989
 20
267.049988
 30
0.0
 11
561.64801
 21
266.920715
 31
0.0
  0
ARC
  5
24C
330
1F
100
AcDbEntity
  8
0
 62
     7
100
AcDbCircle
 10
568.806946
 20
263.349976
 30
0.0
 40
8.0
100
AcDbArc
 50
146.632987
 51
152.451448
  0
LINE
  5
24D
330
1F
100
AcDbEntity
  8
0
 62
     7
100
AcDbLine
 10
562.212585
 20
267.879272
 30
0.0
 11
562.12561
 21
267.75
 31
0.0
  0
LINE
  5
24E
330
1F
100
AcDbEntity
  8
0
 62
     7
100
AcDbLine
 10
562.311951
 20
268.020691
 30
0.0
 11
562.212585
 21
267.879272
 31
0.0
  0
LINE
  5
24F
330
1F
100
AcDbEntity
  8
0
 62
     7
100
AcDbLine
 10
562.406921
 20
268.150024
 30
0.0
 11
562.311951
 21
268.020691
 31
0.0
  0
CIRCLE
  5
250
330
1F
100
AcDbEntity
  8
0
 62
     7
100
AcDbCircle
 10
568.806946
 20
263.349976
 30
0.0
 40
7.5
  0
LINE
  5
251
330
1F
100
AcDbEntity
  8
0
 62
     7
100
AcDbLine
 10
503.807007
 20
266.349976
 30
0.0
 11
503.457001
 21
266.349976
 31
0.0
  0
LINE
  5
252
330
1F
100
AcDbEntity
  8
0
 62
     7
100
AcDbLine
 10
561.519287
 20
266.650024
 30
0.0
 11
504.70697
 21
266.650024
 31
0.0
  0
ARC
  5
253
330
1F
100
AcDbEntity
  8
0
 62
     7
100
AcDbCircle
 10
503.807007
 20
267.849976
 30
0.0
 40
1.5
100
AcDbArc
 50
269.999997
 51
314.454478
  0
LINE
  5
254
330
1F
100
AcDbEntity
  8
0
 62
     7
100
AcDbLine
 10
561.241211
 20
265.950012
 30
0.0
 11
503.457001
 21
265.950012
 31
0.0
  0
LINE
  5
255
330
1F
100
AcDbEntity
  8
0
 62
     7
100
AcDbLine
 10
561.115356
 20
265.549988
 30
0.0
 11
503.457001
 21
265.549988
 31
0.0
  0
LINE
  5
256
330
1F
100
AcDbEntity
  8
0
 62
     7
100
AcDbLine
 10
560.948792
 20
264.849976
 30
0.0
 11
503.457001
 21
264.849976
 31
0.0
  0
LINE
  5
257
330
1F
100
AcDbEntity
  8
0
 62
     7
100
AcDbLine
 10
560.882935
 20
264.450012
 30
0.0
 11
503.457001
 21
264.450012
 31
0.0
  0
LINE
  5
258
330
1F
100
AcDbEntity
  8
0
 62
     7
100
AcDbLine
 10
560.816956
 20
263.75
 30
0.0
 11
503.457001
 21
263.75
 31
0.0
  0
LINE
  5
259
330
1F
100
AcDbEntity
  8
0
 62
     7
100
AcDbLine
 10
502.457001
 20
266.650024
 30
0.0
 11
500.157013
 21
266.650024
 31
0.0
  0
LINE
  5
25A
330
1F
100
AcDbEntity
  8
0
 62
     7
100
AcDbLine
 10
502.457001
 20
265.950012
 30
0.0
 11
500.157013
 21
265.950012
 31
0.0
  0
ARC
  5
25B
330
1F
100
AcDbEntity
  8
0
 62
     7
100
AcDbCircle
 10
499.657013
 20
266.849976
 30
0.0
 40
0.5
100
AcDbArc
 50
0.0
 51
8.130103
  0
ARC
  5
25C
330
1F
100
AcDbEntity
  8
0
 62
     7
100
AcDbCircle
 10
502.957001
 20
266.849976
 30
0.0
 40
0.5
100
AcDbArc
 50
171.869894
 51
180.000009
  0
ARC
  5
25D
330
1F
100
AcDbEntity
  8
0
 62
     7
100
AcDbCircle
 10
502.957001
 20
266.849976
 30
0.0
 40
0.5
100
AcDbArc
 50
90.000003
 51
171.869894
  0
LINE
  5
25E
330
1F
100
AcDbEntity
  8
0
 62
     7
100
AcDbLine
 10
502.457001
 20
259.349976
 30
0.0
 11
500.157013
 21
259.349976
 31
0.0
  0
LINE
  5
25F
330
1F
100
AcDbEntity
  8
0
 62
     7
100
AcDbLine
 10
502.457001
 20
260.049988
 30
0.0
 11
500.157013
 21
260.049988
 31
0.0
  0
LINE
  5
260
330
1F
100
AcDbEntity
  8
0
 62
     7
100
AcDbLine
 10
502.457001
 20
260.450012
 30
0.0
 11
500.157013
 21
260.450012
 31
0.0
  0
LINE
  5
261
330
1F
100
AcDbEntity
  8
0
 62
     7
100
AcDbLine
 10
502.457001
 20
261.150024
 30
0.0
 11
500.157013
 21
261.150024
 31
0.0
  0
LINE
  5
262
330
1F
100
AcDbEntity
  8
0
 62
     7
100
AcDbLine
 10
502.457001
 20
261.549988
 30
0.0
 11
500.157013
 21
261.549988
 31
0.0
  0
LINE
  5
263
330
1F
100
AcDbEntity
  8
0
 62
     7
100
AcDbLine
 10
502.457001
 20
262.25
 30
0.0
 11
500.157013
 21
262.25
 31
0.0
  0
LINE
  5
264
330
1F
100
AcDbEntity
  8
0
 62
     7
100
AcDbLine
 10
502.457001
 20
262.650024
 30
0.0
 11
500.157013
 21
262.650024
 31
0.0
  0
LINE
  5
265
330
1F
100
AcDbEntity
  8
0
 62
     7
100
AcDbLine
 10
502.457001
 20
263.349976
 30
0.0
 11
500.157013
 21
263.349976
 31
0.0
  0
LINE
  5
266
330
1F
100
AcDbEntity
  8
0
 62
     7
100
AcDbLine
 10
502.457001
 20
263.75
 30
0.0
 11
500.157013
 21
263.75
 31
0.0
  0
LINE
  5
267
330
1F
100
AcDbEntity
  8
0
 62
     7
100
AcDbLine
 10
502.457001
 20
264.450012
 30
0.0
 11
500.157013
 21
264.450012
 31
0.0
  0
LINE
  5
268
330
1F
100
AcDbEntity
  8
0
 62
     7
100
AcDbLine
 10
502.457001
 20
264.849976
 30
0.0
 11
500.157013
 21
264.849976
 31
0.0
  0
LINE
  5
269
330
1F
100
AcDbEntity
  8
0
 62
     7
100
AcDbLine
 10
502.457001
 20
265.549988
 30
0.0
 11
500.157013
 21
265.549988
 31
0.0
  0
ARC
  5
26A
330
1F
100
AcDbEntity
  8
0
 62
     7
100
AcDbCircle
 10
499.657013
 20
266.849976
 30
0.0
 40
0.5
100
AcDbArc
 50
8.130103
 51
90.000003
  0
LINE
  5
26B
330
1F
100
AcDbEntity
  8
0
 62
     7
100
AcDbLine
 10
499.157013
 20
265.549988
 30
0.0
 11
253.45697
 21
265.549988
 31
0.0
  0
LINE
  5
26C
330
1F
100
AcDbEntity
  8
0
 62
     7
100
AcDbLine
 10
499.157013
 20
265.950012
 30
0.0
 11
253.45697
 21
265.950012
 31
0.0
  0
LINE
  5
26D
330
1F
100
AcDbEntity
  8
0
 62
     7
100
AcDbLine
 10
499.157013
 20
266.349976
 30
0.0
 11
498.807007
 21
266.349976
 31
0.0
  0
ARC
  5
26E
330
1F
100
AcDbEntity
  8
0
 62
     7
100
AcDbCircle
 10
498.807007
 20
267.849976
 30
0.0
 40
1.5
100
AcDbArc
 50
212.230947
 51
269.999997
  0
LINE
  5
26F
330
1F
100
AcDbEntity
  8
0
 62
     7
100
AcDbLine
 10
497.907013
 20
266.650024
 30
0.0
 11
254.70697
 21
266.650024
 31
0.0
  0
ARC
  5
270
330
1F
100
AcDbEntity
  8
0
 62
     7
100
AcDbCircle
 10
253.806976
 20
267.849976
 30
0.0
 40
1.5
100
AcDbArc
 50
269.999997
 51
314.454478
  0
LINE
  5
271
330
1F
100
AcDbEntity
  8
0
 62
     7
100
AcDbLine
 10
253.806976
 20
266.349976
 30
0.0
 11
253.45697
 21
266.349976
 31
0.0
  0
LINE
  5
272
330
1F
100
AcDbEntity
  8
0
 62
     7
100
AcDbLine
 10
499.157013
 20
259.349976
 30
0.0
 11
253.45697
 21
259.349976
 31
0.0
  0
LINE
  5
273
330
1F
100
AcDbEntity
  8
0
 62
     7
100
AcDbLine
 10
499.157013
 20
260.049988
 30
0.0
 11
253.45697
 21
260.049988
 31
0.0
  0
LINE
  5
274
330
1F
100
AcDbEntity
  8
0
 62
     7
100
AcDbLine
 10
499.157013
 20
260.450012
 30
0.0
 11
253.45697
 21
260.450012
 31
0.0
  0
LINE
  5
275
330
1F
100
AcDbEntity
  8
0
 62
     7
100
AcDbLine
 10
499.157013
 20
261.150024
 30
0.0
 11
253.45697
 21
261.150024
 31
0.0
  0
LINE
  5
276
330
1F
100
AcDbEntity
  8
0
 62
     7
100
AcDbLine
 10
499.157013
 20
261.549988
 30
0.0
 11
253.45697
 21
261.549988
 31
0.0
  0
LINE
  5
277
330
1F
100
AcDbEntity
  8
0
 62
     7
100
AcDbLine
 10
499.157013
 20
262.25
 30
0.0
 11
253.45697
 21
262.25
 31
0.0
  0
LINE
  5
278
330
1F
100
AcDbEntity
  8
0
 62
     7
100
AcDbLine
 10
499.157013
 20
262.650024
 30
0.0
 11
253.45697
 21
262.650024
 31
0.0
  0
LINE
  5
279
330
1F
100
AcDbEntity
  8
0
 62
     7
100
AcDbLine
 10
499.157013
 20
263.349976
 30
0.0
 11
253.45697
 21
263.349976
 31
0.0
  0
LINE
  5
27A
330
1F
100
AcDbEntity
  8
0
 62
     7
100
AcDbLine
 10
499.157013
 20
263.75
 30
0.0
 11
253.45697
 21
263.75
 31
0.0
  0
LINE
  5
27B
330
1F
100
AcDbEntity
  8
0
 62
     7
100
AcDbLine
 10
499.157013
 20
264.450012
 30
0.0
 11
253.45697
 21
264.450012
 31
0.0
  0
LINE
  5
27C
330
1F
100
AcDbEntity
  8
0
 62
     7
100
AcDbLine
 10
499.157013
 20
264.849976
 30
0.0
 11
253.45697
 21
264.849976
 31
0.0
  0
LINE
  5
27D
330
1F
100
AcDbEntity
  8
0
 62
     7
100
AcDbLine
 10
252.45697
 20
265.950012
 30
0.0
 11
250.156982
 21
265.950012
 31
0.0
  0
LINE
  5
27E
330
1F
100
AcDbEntity
  8
0
 62
     7
100
AcDbLine
 10
252.45697
 20
266.650024
 30
0.0
 11
250.156982
 21
266.650024
 31
0.0
  0
ARC
  5
27F
330
1F
100
AcDbEntity
  8
0
 62
     7
100
AcDbCircle
 10
252.95697
 20
266.849976
 30
0.0
 40
0.5
100
AcDbArc
 50
171.869894
 51
180.000009
  0
ARC
  5
280
330
1F
100
AcDbEntity
  8
0
 62
     7
100
AcDbCircle
 10
249.656982
 20
266.849976
 30
0.0
 40
0.5
100
AcDbArc
 50
0.0
 51
8.130103
  0
ARC
  5
281
330
1F
100
AcDbEntity
  8
0
 62
     7
100
AcDbCircle
 10
252.95697
 20
266.849976
 30
0.0
 40
0.5
100
AcDbArc
 50
90.000003
 51
171.869894
  0
LINE
  5
282
330
1F
100
AcDbEntity
  8
0
 62
     7
100
AcDbLine
 10
252.45697
 20
259.349976
 30
0.0
 11
250.156982
 21
259.349976
 31
0.0
  0
LINE
  5
283
330
1F
100
AcDbEntity
  8
0
 62
     7
100
AcDbLine
 10
252.45697
 20
260.049988
 30
0.0
 11
250.156982
 21
260.049988
 31
0.0
  0
LINE
  5
284
330
1F
100
AcDbEntity
  8
0
 62
     7
100
AcDbLine
 10
252.45697
 20
260.450012
 30
0.0
 11
250.156982
 21
260.450012
 31
0.0
  0
LINE
  5
285
330
1F
100
AcDbEntity
  8
0
 62
     7
100
AcDbLine
 10
252.45697
 20
261.150024
 30
0.0
 11
250.156982
 21
261.150024
 31
0.0
  0
LINE
  5
286
330
1F
100
AcDbEntity
  8
0
 62
     7
100
AcDbLine
 10
252.45697
 20
261.549988
 30
0.0
 11
250.156982
 21
261.549988
 31
0.0
  0
LINE
  5
287
330
1F
100
AcDbEntity
  8
0
 62
     7
100
AcDbLine
 10
252.45697
 20
262.25
 30
0.0
 11
250.156982
 21
262.25
 31
0.0
  0
LINE
  5
288
330
1F
100
AcDbEntity
  8
0
 62
     7
100
AcDbLine
 10
252.45697
 20
262.650024
 30
0.0
 11
250.156982
 21
262.650024
 31
0.0
  0
LINE
  5
289
330
1F
100
AcDbEntity
  8
0
 62
     7
100
AcDbLine
 10
252.45697
 20
263.349976
 30
0.0
 11
250.156982
 21
263.349976
 31
0.0
  0
LINE
  5
28A
330
1F
100
AcDbEntity
  8
0
 62
     7
100
AcDbLine
 10
252.45697
 20
263.75
 30
0.0
 11
250.156982
 21
263.75
 31
0.0
  0
LINE
  5
28B
330
1F
100
AcDbEntity
  8
0
 62
     7
100
AcDbLine
 10
252.45697
 20
264.450012
 30
0.0
 11
250.156982
 21
264.450012
 31
0.0
  0
LINE
  5
28C
330
1F
100
AcDbEntity
  8
0
 62
     7
100
AcDbLine
 10
252.45697
 20
264.849976
 30
0.0
 11
250.156982
 21
264.849976
 31
0.0
  0
LINE
  5
28D
330
1F
100
AcDbEntity
  8
0
 62
     7
100
AcDbLine
 10
252.45697
 20
265.549988
 30
0.0
 11
250.156982
 21
265.549988
 31
0.0
  0
ARC
  5
28E
330
1F
100
AcDbEntity
  8
0
 62
     7
100
AcDbCircle
 10
249.656982
 20
266.849976
 30
0.0
 40
0.5
100
AcDbArc
 50
8.130103
 51
90.000003
  0
LINE
  5
28F
330
1F
100
AcDbEntity
  8
0
 62
     7
100
AcDbLine
 10
191.460373
 20
265.67926
 30
0.0
 11
191.498535
 21
265.549988
 31
0.0
  0
LINE
  5
290
330
1F
100
AcDbEntity
  8
0
 62
     7
100
AcDbLine
 10
249.156982
 20
265.549988
 30
0.0
 11
191.498535
 21
265.549988
 31
0.0
  0
LINE
  5
291
330
1F
100
AcDbEntity
  8
0
 62
     7
100
AcDbLine
 10
191.415894
 20
265.820679
 30
0.0
 11
191.460373
 21
265.67926
 31
0.0
  0
LINE
  5
292
330
1F
100
AcDbEntity
  8
0
 62
     7
100
AcDbLine
 10
191.372681
 20
265.950012
 30
0.0
 11
191.415894
 21
265.820679
 31
0.0
  0
LINE
  5
293
330
1F
100
AcDbEntity
  8
0
 62
     7
100
AcDbLine
 10
249.156982
 20
265.950012
 30
0.0
 11
191.372681
 21
265.950012
 31
0.0
  0
ARC
  5
294
330
1F
100
AcDbEntity
  8
0
 62
     7
100
AcDbCircle
 10
183.806976
 20
263.349976
 30
0.0
 40
8.0
100
AcDbArc
 50
18.965574
 51
24.361978
  0
LINE
  5
295
330
1F
100
AcDbEntity
  8
0
 62
     7
100
AcDbLine
 10
249.156982
 20
266.349976
 30
0.0
 11
248.806976
 21
266.349976
 31
0.0
  0
ARC
  5
296
330
1F
100
AcDbEntity
  8
0
 62
     7
100
AcDbCircle
 10
248.806976
 20
267.849976
 30
0.0
 40
1.5
100
AcDbArc
 50
212.230947
 51
269.999997
  0
LINE
  5
297
330
1F
100
AcDbEntity
  8
0
 62
     7
100
AcDbLine
 10
247.906982
 20
266.650024
 30
0.0
 11
191.094635
 21
266.650024
 31
0.0
  0
LINE
  5
298
330
1F
100
AcDbEntity
  8
0
 62
     7
100
AcDbLine
 10
249.156982
 20
259.349976
 30
0.0
 11
190.735184
 21
259.349976
 31
0.0
  0
LINE
  5
299
330
1F
100
AcDbEntity
  8
0
 62
     7
100
AcDbLine
 10
249.156982
 20
260.049988
 30
0.0
 11
191.094635
 21
260.049988
 31
0.0
  0
LINE
  5
29A
330
1F
100
AcDbEntity
  8
0
 62
     7
100
AcDbLine
 10
249.156982
 20
260.450012
 30
0.0
 11
191.262848
 21
260.450012
 31
0.0
  0
LINE
  5
29B
330
1F
100
AcDbEntity
  8
0
 62
     7
100
AcDbLine
 10
249.156982
 20
261.150024
 30
0.0
 11
191.498535
 21
261.150024
 31
0.0
  0
LINE
  5
29C
330
1F
100
AcDbEntity
  8
0
 62
     7
100
AcDbLine
 10
249.156982
 20
261.549988
 30
0.0
 11
191.601852
 21
261.549988
 31
0.0
  0
LINE
  5
29D
330
1F
100
AcDbEntity
  8
0
 62
     7
100
AcDbLine
 10
249.156982
 20
262.25
 30
0.0
 11
191.730988
 21
262.25
 31
0.0
  0
LINE
  5
29E
330
1F
100
AcDbEntity
  8
0
 62
     7
100
AcDbLine
 10
249.156982
 20
262.650024
 30
0.0
 11
191.776291
 21
262.650024
 31
0.0
  0
LINE
  5
29F
330
1F
100
AcDbEntity
  8
0
 62
     7
100
AcDbLine
 10
249.156982
 20
263.349976
 30
0.0
 11
191.806976
 21
263.349976
 31
0.0
  0
LINE
  5
2A0
330
1F
100
AcDbEntity
  8
0
 62
     7
100
AcDbLine
 10
191.805923
 20
263.479309
 30
0.0
 11
191.806976
 21
263.349976
 31
0.0
  0
LINE
  5
2A1
330
1F
100
AcDbEntity
  8
0
 62
     7
100
AcDbLine
 10
191.802399
 20
263.620728
 30
0.0
 11
191.805923
 21
263.479309
 31
0.0
  0
LINE
  5
2A2
330
1F
100
AcDbEntity
  8
0
 62
     7
100
AcDbLine
 10
191.796967
 20
263.75
 30
0.0
 11
191.802399
 21
263.620728
 31
0.0
  0
LINE
  5
2A3
330
1F
100
AcDbEntity
  8
0
 62
     7
100
AcDbLine
 10
249.156982
 20
263.75
 30
0.0
 11
191.796967
 21
263.75
 31
0.0
  0
ARC
  5
2A4
330
1F
100
AcDbEntity
  8
0
 62
     7
100
AcDbCircle
 10
183.806976
 20
263.349976
 30
0.0
 40
8.0
100
AcDbArc
 50
2.865984
 51
7.903208
  0
LINE
  5
2A5
330
1F
100
AcDbEntity
  8
0
 62
     7
100
AcDbLine
 10
249.156982
 20
264.450012
 30
0.0
 11
191.730988
 21
264.450012
 31
0.0
  0
LINE
  5
2A6
330
1F
100
AcDbEntity
  8
0
 62
     7
100
AcDbLine
 10
191.71196
 20
264.579285
 30
0.0
 11
191.730988
 21
264.450012
 31
0.0
  0
LINE
  5
2A7
330
1F
100
AcDbEntity
  8
0
 62
     7
100
AcDbLine
 10
191.688675
 20
264.720703
 30
0.0
 11
191.71196
 21
264.579285
 31
0.0
  0
LINE
  5
2A8
330
1F
100
AcDbEntity
  8
0
 62
     7
100
AcDbLine
 10
191.665085
 20
264.849976
 30
0.0
 11
191.688675
 21
264.720703
 31
0.0
  0
LINE
  5
2A9
330
1F
100
AcDbEntity
  8
0
 62
     7
100
AcDbLine
 10
249.156982
 20
264.849976
 30
0.0
 11
191.665085
 21
264.849976
 31
0.0
  0
ARC
  5
2AA
330
1F
100
AcDbEntity
  8
0
 62
     7
100
AcDbCircle
 10
183.806976
 20
263.349976
 30
0.0
 40
8.0
100
AcDbArc
 50
10.806925
 51
15.962019
  0
LINE
  5
2AB
330
1F
100
AcDbEntity
  8
0
 62
     7
100
AcDbLine
 10
176.878769
 20
259.349976
 30
0.0
 11
174.806976
 21
259.349976
 31
0.0
  0
LINE
  5
2AC
330
1F
100
AcDbEntity
  8
0
 62
     7
100
AcDbLine
 10
176.519318
 20
260.049988
 30
0.0
 11
174.806976
 21
260.049988
 31
0.0
  0
LINE
  5
2AD
330
1F
100
AcDbEntity
  8
0
 62
     7
100
AcDbLine
 10
176.351105
 20
260.450012
 30
0.0
 11
174.806976
 21
260.450012
 31
0.0
  0
LINE
  5
2AE
330
1F
100
AcDbEntity
  8
0
 62
     7
100
AcDbLine
 10
176.115417
 20
261.150024
 30
0.0
 11
174.806976
 21
261.150024
 31
0.0
  0
LINE
  5
2AF
330
1F
100
AcDbEntity
  8
0
 62
     7
100
AcDbLine
 10
176.0121
 20
261.549988
 30
0.0
 11
174.806976
 21
261.549988
 31
0.0
  0
LINE
  5
2B0
330
1F
100
AcDbEntity
  8
0
 62
     7
100
AcDbLine
 10
175.882965
 20
262.25
 30
0.0
 11
174.806976
 21
262.25
 31
0.0
  0
LINE
  5
2B1
330
1F
100
AcDbEntity
  8
0
 62
     7
100
AcDbLine
 10
175.837662
 20
262.650024
 30
0.0
 11
174.806976
 21
262.650024
 31
0.0
  0
LINE
  5
2B2
330
1F
100
AcDbEntity
  8
0
 62
     7
100
AcDbLine
 10
175.806976
 20
263.349976
 30
0.0
 11
174.806976
 21
263.349976
 31
0.0
  0
LINE
  5
2B3
330
1F
100
AcDbEntity
  8
0
 62
     7
100
AcDbLine
 10
175.808014
 20
263.479309
 30
0.0
 11
175.806976
 21
263.349976
 31
0.0
  0
LINE
  5
2B4
330
1F
100
AcDbEntity
  8
0
 62
     7
100
AcDbLine
 10
175.811554
 20
263.620728
 30
0.0
 11
175.808014
 21
263.479309
 31
0.0
  0
LINE
  5
2B5
330
1F
100
AcDbEntity
  8
0
 62
     7
100
AcDbLine
 10
175.816986
 20
263.75
 30
0.0
 11
175.811554
 21
263.620728
 31
0.0
  0
ARC
  5
2B6
330
1F
100
AcDbEntity
  8
0
 62
     7
100
AcDbCircle
 10
183.806976
 20
263.349976
 30
0.0
 40
8.0
100
AcDbArc
 50
172.096793
 51
177.134017
  0
LINE
  5
2B7
330
1F
100
AcDbEntity
  8
0
 62
     7
100
AcDbLine
 10
175.901993
 20
264.579285
 30
0.0
 11
175.882965
 21
264.450012
 31
0.0
  0
LINE
  5
2B8
330
1F
100
AcDbEntity
  8
0
 62
     7
100
AcDbLine
 10
175.925278
 20
264.720703
 30
0.0
 11
175.901993
 21
264.579285
 31
0.0
  0
LINE
  5
2B9
330
1F
100
AcDbEntity
  8
0
 62
     7
100
AcDbLine
 10
175.948853
 20
264.849976
 30
0.0
 11
175.925278
 21
264.720703
 31
0.0
  0
ARC
  5
2BA
330
1F
100
AcDbEntity
  8
0
 62
     7
100
AcDbCircle
 10
183.806976
 20
263.349976
 30
0.0
 40
8.0
100
AcDbArc
 50
164.03799
 51
169.193075
  0
LINE
  5
2BB
330
1F
100
AcDbEntity
  8
0
 62
     7
100
AcDbLine
 10
176.15358
 20
265.67926
 30
0.0
 11
176.115417
 21
265.549988
 31
0.0
  0
LINE
  5
2BC
330
1F
100
AcDbEntity
  8
0
 62
     7
100
AcDbLine
 10
176.198059
 20
265.820679
 30
0.0
 11
176.15358
 21
265.67926
 31
0.0
  0
LINE
  5
2BD
330
1F
100
AcDbEntity
  8
0
 62
     7
100
AcDbLine
 10
176.241257
 20
265.950012
 30
0.0
 11
176.198059
 21
265.820679
 31
0.0
  0
ARC
  5
2BE
330
1F
100
AcDbEntity
  8
0
 62
     7
100
AcDbCircle
 10
183.806976
 20
263.349976
 30
0.0
 40
8.0
100
AcDbArc
 50
155.638018
 51
161.034427
  0
LINE
  5
2BF
330
1F
100
AcDbEntity
  8
0
 62
     7
100
AcDbLine
 10
176.579254
 20
266.779297
 30
0.0
 11
176.519318
 21
266.650024
 31
0.0
  0
LINE
  5
2C0
330
1F
100
AcDbEntity
  8
0
 62
     7
100
AcDbLine
 10
176.648071
 20
266.920715
 30
0.0
 11
176.579254
 21
266.779297
 31
0.0
  0
LINE
  5
2C1
330
1F
100
AcDbEntity
  8
0
 62
     7
100
AcDbLine
 10
176.71402
 20
267.049988
 30
0.0
 11
176.648071
 21
266.920715
 31
0.0
  0
ARC
  5
2C2
330
1F
100
AcDbEntity
  8
0
 62
     7
100
AcDbCircle
 10
183.806976
 20
263.349976
 30
0.0
 40
8.0
100
AcDbArc
 50
146.632987
 51
152.451448
  0
LINE
  5
2C3
330
1F
100
AcDbEntity
  8
0
 62
     7
100
AcDbLine
 10
177.212616
 20
267.879272
 30
0.0
 11
177.125656
 21
267.75
 31
0.0
  0
LINE
  5
2C4
330
1F
100
AcDbEntity
  8
0
 62
     7
100
AcDbLine
 10
177.312027
 20
268.020691
 30
0.0
 11
177.212616
 21
267.879272
 31
0.0
  0
LINE
  5
2C5
330
1F
100
AcDbEntity
  8
0
 62
     7
100
AcDbLine
 10
177.406982
 20
268.150024
 30
0.0
 11
177.312027
 21
268.020691
 31
0.0
  0
ARC
  5
2C6
330
1F
100
AcDbEntity
  8
0
 62
     7
100
AcDbCircle
 10
183.806976
 20
263.349976
 30
0.0
 40
8.0
100
AcDbArc
 50
36.869897
 51
143.130097
  0
LINE
  5
2C7
330
1F
100
AcDbEntity
  8
0
 62
     7
100
AcDbLine
 10
190.20697
 20
268.150024
 30
0.0
 11
190.301926
 21
268.020691
 31
0.0
  0
LINE
  5
2C8
330
1F
100
AcDbEntity
  8
0
 62
     7
100
AcDbLine
 10
190.301926
 20
268.020691
 30
0.0
 11
190.401337
 21
267.879272
 31
0.0
  0
LINE
  5
2C9
330
1F
100
AcDbEntity
  8
0
 62
     7
100
AcDbLine
 10
190.401337
 20
267.879272
 30
0.0
 11
190.488297
 21
267.75
 31
0.0
  0
ARC
  5
2CA
330
1F
100
AcDbEntity
  8
0
 62
     7
100
AcDbCircle
 10
183.806976
 20
263.349976
 30
0.0
 40
8.0
100
AcDbArc
 50
27.548547
 51
33.367014
  0
LINE
  5
2CB
330
1F
100
AcDbEntity
  8
0
 62
     7
100
AcDbLine
 10
190.899933
 20
267.049988
 30
0.0
 11
190.965881
 21
266.920715
 31
0.0
  0
LINE
  5
2CC
330
1F
100
AcDbEntity
  8
0
 62
     7
100
AcDbLine
 10
190.965881
 20
266.920715
 30
0.0
 11
191.034698
 21
266.779297
 31
0.0
  0
LINE
  5
2CD
330
1F
100
AcDbEntity
  8
0
 62
     7
100
AcDbLine
 10
191.034698
 20
266.779297
 30
0.0
 11
191.094635
 21
266.650024
 31
0.0
  0
CIRCLE
  5
2CE
330
1F
100
AcDbEntity
  8
0
 62
     7
100
AcDbCircle
 10
183.806976
 20
263.349976
 30
0.0
 40
7.5
  0
LINE
  5
2CF
330
1F
100
AcDbEntity
  8
0
 62
     7
100
AcDbLine
 10
174.306976
 20
251.350006
 30
0.0
 11
174.806976
 21
251.350006
 31
0.0
  0
LINE
  5
2D0
330
1F
100
AcDbEntity
  8
0
 62
     7
100
AcDbLine
 10
175.816986
 20
263.75
 30
0.0
 11
174.806976
 21
263.75
 31
0.0
  0
LINE
  5
2D1
330
1F
100
AcDbEntity
  8
0
 62
     7
100
AcDbLine
 10
175.882965
 20
264.450012
 30
0.0
 11
174.806976
 21
264.450012
 31
0.0
  0
LINE
  5
2D2
330
1F
100
AcDbEntity
  8
0
 62
     7
100
AcDbLine
 10
175.948853
 20
264.849976
 30
0.0
 11
174.806976
 21
264.849976
 31
0.0
  0
LINE
  5
2D3
330
1F
100
AcDbEntity
  8
0
 62
     7
100
AcDbLine
 10
176.115417
 20
265.549988
 30
0.0
 11
174.806976
 21
265.549988
 31
0.0
  0
LINE
  5
2D4
330
1F
100
AcDbEntity
  8
0
 62
     7
100
AcDbLine
 10
176.241257
 20
265.950012
 30
0.0
 11
174.806976
 21
265.950012
 31
0.0
  0
LINE
  5
2D5
330
1F
100
AcDbEntity
  8
0
 62
     7
100
AcDbLine
 10
176.519318
 20
266.650024
 30
0.0
 11
174.806976
 21
266.650024
 31
0.0
  0
LINE
  5
2D6
330
1F
100
AcDbEntity
  8
0
 62
     7
100
AcDbLine
 10
176.71402
 20
267.049988
 30
0.0
 11
174.806976
 21
267.049988
 31
0.0
  0
LINE
  5
2D7
330
1F
100
AcDbEntity
  8
0
 62
     7
100
AcDbLine
 10
177.125656
 20
267.75
 30
0.0
 11
174.806976
 21
267.75
 31
0.0
  0
LINE
  5
2D8
330
1F
100
AcDbEntity
  8
0
 62
     7
100
AcDbLine
 10
177.406982
 20
268.150024
 30
0.0
 11
174.806976
 21
268.150024
 31
0.0
  0
LINE
  5
2D9
330
1F
100
AcDbEntity
  8
0
 62
     7
100
AcDbLine
 10
247.306976
 20
268.150024
 30
0.0
 11
190.20697
 21
268.150024
 31
0.0
  0
LINE
  5
2DA
330
1F
100
AcDbEntity
  8
0
 62
     7
100
AcDbLine
 10
247.306976
 20
268.150024
 30
0.0
 11
247.306976
 21
272.974243
 31
0.0
  0
LINE
  5
2DB
330
1F
100
AcDbEntity
  8
0
 62
     7
100
AcDbLine
 10
247.306976
 20
272.974243
 30
0.0
 11
174.806976
 21
272.974243
 31
0.0
  0
LINE
  5
2DC
330
1F
100
AcDbEntity
  8
0
 62
     7
100
AcDbLine
 10
247.306976
 20
273.462158
 30
0.0
 11
247.306976
 21
272.974243
 31
0.0
  0
LINE
  5
2DD
330
1F
100
AcDbEntity
  8
0
 62
     7
100
AcDbLine
 10
247.306976
 20
273.549988
 30
0.0
 11
247.306976
 21
273.462158
 31
0.0
  0
LINE
  5
2DE
330
1F
100
AcDbEntity
  8
0
 62
     7
100
AcDbLine
 10
578.306946
 20
245.650009
 30
0.0
 11
578.306946
 21
245.150009
 31
0.0
  0
LINE
  5
2DF
330
1F
100
AcDbEntity
  8
0
 62
     7
100
AcDbLine
 10
578.306946
 20
272.74292
 30
0.0
 11
578.306946
 21
245.650009
 31
0.0
  0
LINE
  5
2E0
330
1F
100
AcDbEntity
  8
0
 62
     7
100
AcDbLine
 10
578.306946
 20
273.096436
 30
0.0
 11
578.306946
 21
272.74292
 31
0.0
  0
LINE
  5
2E1
330
1F
100
AcDbEntity
  8
0
 62
     7
100
AcDbLine
 10
578.306946
 20
273.781128
 30
0.0
 11
578.306946
 21
273.096436
 31
0.0
  0
LINE
  5
2E2
330
1F
100
AcDbEntity
  8
0
 62
     7
100
AcDbLine
 10
505.307007
 20
268.020691
 30
0.0
 11
505.307007
 21
268.150024
 31
0.0
  0
LINE
  5
2E3
330
1F
100
AcDbEntity
  8
0
 62
     7
100
AcDbLine
 10
505.307007
 20
267.879272
 30
0.0
 11
505.307007
 21
268.020691
 31
0.0
  0
LINE
  5
2E4
330
1F
100
AcDbEntity
  8
0
 62
     7
100
AcDbLine
 10
505.307007
 20
267.879272
 30
0.0
 11
505.307007
 21
267.849976
 31
0.0
  0
ARC
  5
2E5
330
1F
100
AcDbEntity
  8
0
 62
     7
100
AcDbCircle
 10
503.807007
 20
267.849976
 30
0.0
 40
1.5
100
AcDbArc
 50
314.454478
 51
356.177454
  0
LINE
  5
2E6
330
1F
100
AcDbEntity
  8
0
 62
     7
100
AcDbLine
 10
505.30365
 20
267.75
 30
0.0
 11
505.307007
 21
267.849976
 31
0.0
  0
LINE
  5
2E7
330
1F
100
AcDbEntity
  8
0
 62
     7
100
AcDbLine
 10
502.957001
 20
267.349976
 30
0.0
 11
503.807007
 21
267.349976
 31
0.0
  0
ARC
  5
2E8
330
1F
100
AcDbEntity
  8
0
 62
     7
100
AcDbCircle
 10
503.807007
 20
267.849976
 30
0.0
 40
0.5
100
AcDbArc
 50
269.999997
 51
360.0
  0
LINE
  5
2E9
330
1F
100
AcDbEntity
  8
0
 62
     7
100
AcDbLine
 10
504.307007
 20
268.150024
 30
0.0
 11
504.307007
 21
272.974243
 31
0.0
  0
LINE
  5
2EA
330
1F
100
AcDbEntity
  8
0
 62
     7
100
AcDbLine
 10
504.307007
 20
273.462158
 30
0.0
 11
504.307007
 21
272.974243
 31
0.0
  0
LINE
  5
2EB
330
1F
100
AcDbEntity
  8
0
 62
     7
100
AcDbLine
 10
504.307007
 20
273.549988
 30
0.0
 11
504.307007
 21
273.462158
 31
0.0
  0
LINE
  5
2EC
330
1F
100
AcDbEntity
  8
0
 62
     7
100
AcDbLine
 10
504.307007
 20
267.879272
 30
0.0
 11
504.307007
 21
267.849976
 31
0.0
  0
LINE
  5
2ED
330
1F
100
AcDbEntity
  8
0
 62
     7
100
AcDbLine
 10
504.307007
 20
268.020691
 30
0.0
 11
504.307007
 21
267.879272
 31
0.0
  0
LINE
  5
2EE
330
1F
100
AcDbEntity
  8
0
 62
     7
100
AcDbLine
 10
504.307007
 20
268.020691
 30
0.0
 11
504.307007
 21
268.150024
 31
0.0
  0
LINE
  5
2EF
330
1F
100
AcDbEntity
  8
0
 62
     7
100
AcDbLine
 10
498.307007
 20
273.462158
 30
0.0
 11
498.307007
 21
273.549988
 31
0.0
  0
LINE
  5
2F0
330
1F
100
AcDbEntity
  8
0
 62
     7
100
AcDbLine
 10
498.307007
 20
273.462158
 30
0.0
 11
498.307007
 21
272.974243
 31
0.0
  0
LINE
  5
2F1
330
1F
100
AcDbEntity
  8
0
 62
     7
100
AcDbLine
 10
498.307007
 20
268.150024
 30
0.0
 11
498.307007
 21
272.974243
 31
0.0
  0
LINE
  5
2F2
330
1F
100
AcDbEntity
  8
0
 62
     7
100
AcDbLine
 10
498.307007
 20
268.020691
 30
0.0
 11
498.307007
 21
268.150024
 31
0.0
  0
LINE
  5
2F3
330
1F
100
AcDbEntity
  8
0
 62
     7
100
AcDbLine
 10
498.307007
 20
267.879272
 30
0.0
 11
498.307007
 21
268.020691
 31
0.0
  0
LINE
  5
2F4
330
1F
100
AcDbEntity
  8
0
 62
     7
100
AcDbLine
 10
498.307007
 20
267.879272
 30
0.0
 11
498.307007
 21
267.849976
 31
0.0
  0
ARC
  5
2F5
330
1F
100
AcDbEntity
  8
0
 62
     7
100
AcDbCircle
 10
498.807007
 20
267.849976
 30
0.0
 40
0.5
100
AcDbArc
 50
180.000009
 51
269.999997
  0
LINE
  5
2F6
330
1F
100
AcDbEntity
  8
0
 62
     7
100
AcDbLine
 10
498.807007
 20
267.349976
 30
0.0
 11
499.657013
 21
267.349976
 31
0.0
  0
ARC
  5
2F7
330
1F
100
AcDbEntity
  8
0
 62
     7
100
AcDbCircle
 10
498.807007
 20
267.849976
 30
0.0
 40
1.5
100
AcDbArc
 50
183.822551
 51
212.230947
  0
LINE
  5
2F8
330
1F
100
AcDbEntity
  8
0
 62
     7
100
AcDbLine
 10
497.310333
 20
267.75
 30
0.0
 11
497.307007
 21
267.849976
 31
0.0
  0
LINE
  5
2F9
330
1F
100
AcDbEntity
  8
0
 62
     7
100
AcDbLine
 10
497.307007
 20
268.150024
 30
0.0
 11
497.307007
 21
272.974243
 31
0.0
  0
LINE
  5
2FA
330
1F
100
AcDbEntity
  8
0
 62
     7
100
AcDbLine
 10
497.307007
 20
273.462158
 30
0.0
 11
497.307007
 21
272.974243
 31
0.0
  0
LINE
  5
2FB
330
1F
100
AcDbEntity
  8
0
 62
     7
100
AcDbLine
 10
497.307007
 20
273.549988
 30
0.0
 11
497.307007
 21
273.462158
 31
0.0
  0
LINE
  5
2FC
330
1F
100
AcDbEntity
  8
0
 62
     7
100
AcDbLine
 10
497.307007
 20
267.879272
 30
0.0
 11
497.307007
 21
267.849976
 31
0.0
  0
LINE
  5
2FD
330
1F
100
AcDbEntity
  8
0
 62
     7
100
AcDbLine
 10
497.307007
 20
268.020691
 30
0.0
 11
497.307007
 21
267.879272
 31
0.0
  0
LINE
  5
2FE
330
1F
100
AcDbEntity
  8
0
 62
     7
100
AcDbLine
 10
497.307007
 20
268.020691
 30
0.0
 11
497.307007
 21
268.150024
 31
0.0
  0
LINE
  5
2FF
330
1F
100
AcDbEntity
  8
0
 62
     7
100
AcDbLine
 10
255.306976
 20
273.462158
 30
0.0
 11
255.306976
 21
273.549988
 31
0.0
  0
LINE
  5
300
330
1F
100
AcDbEntity
  8
0
 62
     7
100
AcDbLine
 10
255.306976
 20
273.462158
 30
0.0
 11
255.306976
 21
272.974243
 31
0.0
  0
LINE
  5
301
330
1F
100
AcDbEntity
  8
0
 62
     7
100
AcDbLine
 10
255.306976
 20
268.150024
 30
0.0
 11
255.306976
 21
272.974243
 31
0.0
  0
LINE
  5
302
330
1F
100
AcDbEntity
  8
0
 62
     7
100
AcDbLine
 10
255.306976
 20
268.020691
 30
0.0
 11
255.306976
 21
268.150024
 31
0.0
  0
LINE
  5
303
330
1F
100
AcDbEntity
  8
0
 62
     7
100
AcDbLine
 10
255.306976
 20
267.879272
 30
0.0
 11
255.306976
 21
268.020691
 31
0.0
  0
LINE
  5
304
330
1F
100
AcDbEntity
  8
0
 62
     7
100
AcDbLine
 10
255.306976
 20
267.879272
 30
0.0
 11
255.306976
 21
267.849976
 31
0.0
  0
ARC
  5
305
330
1F
100
AcDbEntity
  8
0
 62
     7
100
AcDbCircle
 10
253.806976
 20
267.849976
 30
0.0
 40
1.5
100
AcDbArc
 50
314.454478
 51
356.177454
  0
LINE
  5
306
330
1F
100
AcDbEntity
  8
0
 62
     7
100
AcDbLine
 10
255.30365
 20
267.75
 30
0.0
 11
255.306976
 21
267.849976
 31
0.0
  0
LINE
  5
307
330
1F
100
AcDbEntity
  8
0
 62
     7
100
AcDbLine
 10
252.95697
 20
267.349976
 30
0.0
 11
253.806976
 21
267.349976
 31
0.0
  0
ARC
  5
308
330
1F
100
AcDbEntity
  8
0
 62
     7
100
AcDbCircle
 10
253.806976
 20
267.849976
 30
0.0
 40
0.5
100
AcDbArc
 50
269.999997
 51
360.0
  0
LINE
  5
309
330
1F
100
AcDbEntity
  8
0
 62
     7
100
AcDbLine
 10
254.306976
 20
268.150024
 30
0.0
 11
254.306976
 21
272.974243
 31
0.0
  0
LINE
  5
30A
330
1F
100
AcDbEntity
  8
0
 62
     7
100
AcDbLine
 10
254.306976
 20
273.462158
 30
0.0
 11
254.306976
 21
272.974243
 31
0.0
  0
LINE
  5
30B
330
1F
100
AcDbEntity
  8
0
 62
     7
100
AcDbLine
 10
254.306976
 20
273.549988
 30
0.0
 11
254.306976
 21
273.462158
 31
0.0
  0
LINE
  5
30C
330
1F
100
AcDbEntity
  8
0
 62
     7
100
AcDbLine
 10
254.306976
 20
267.879272
 30
0.0
 11
254.306976
 21
267.849976
 31
0.0
  0
LINE
  5
30D
330
1F
100
AcDbEntity
  8
0
 62
     7
100
AcDbLine
 10
254.306976
 20
268.020691
 30
0.0
 11
254.306976
 21
267.879272
 31
0.0
  0
LINE
  5
30E
330
1F
100
AcDbEntity
  8
0
 62
     7
100
AcDbLine
 10
254.306976
 20
268.020691
 30
0.0
 11
254.306976
 21
268.150024
 31
0.0
  0
LINE
  5
30F
330
1F
100
AcDbEntity
  8
0
 62
     7
100
AcDbLine
 10
248.306976
 20
273.462158
 30
0.0
 11
248.306976
 21
273.549988
 31
0.0
  0
LINE
  5
310
330
1F
100
AcDbEntity
  8
0
 62
     7
100
AcDbLine
 10
248.306976
 20
273.462158
 30
0.0
 11
248.306976
 21
272.974243
 31
0.0
  0
LINE
  5
311
330
1F
100
AcDbEntity
  8
0
 62
     7
100
AcDbLine
 10
248.306976
 20
268.150024
 30
0.0
 11
248.306976
 21
272.974243
 31
0.0
  0
LINE
  5
312
330
1F
100
AcDbEntity
  8
0
 62
     7
100
AcDbLine
 10
248.306976
 20
268.020691
 30
0.0
 11
248.306976
 21
268.150024
 31
0.0
  0
LINE
  5
313
330
1F
100
AcDbEntity
  8
0
 62
     7
100
AcDbLine
 10
248.306976
 20
267.879272
 30
0.0
 11
248.306976
 21
268.020691
 31
0.0
  0
LINE
  5
314
330
1F
100
AcDbEntity
  8
0
 62
     7
100
AcDbLine
 10
248.306976
 20
267.879272
 30
0.0
 11
248.306976
 21
267.849976
 31
0.0
  0
ARC
  5
315
330
1F
100
AcDbEntity
  8
0
 62
     7
100
AcDbCircle
 10
248.806976
 20
267.849976
 30
0.0
 40
0.5
100
AcDbArc
 50
180.000009
 51
269.999997
  0
LINE
  5
316
330
1F
100
AcDbEntity
  8
0
 62
     7
100
AcDbLine
 10
248.806976
 20
267.349976
 30
0.0
 11
249.656982
 21
267.349976
 31
0.0
  0
ARC
  5
317
330
1F
100
AcDbEntity
  8
0
 62
     7
100
AcDbCircle
 10
248.806976
 20
267.849976
 30
0.0
 40
1.5
100
AcDbArc
 50
183.822551
 51
212.230947
  0
LINE
  5
318
330
1F
100
AcDbEntity
  8
0
 62
     7
100
AcDbLine
 10
247.310303
 20
267.75
 30
0.0
 11
247.306976
 21
267.849976
 31
0.0
  0
LINE
  5
319
330
1F
100
AcDbEntity
  8
0
 62
     7
100
AcDbLine
 10
247.306976
 20
267.879272
 30
0.0
 11
247.306976
 21
267.849976
 31
0.0
  0
LINE
  5
31A
330
1F
100
AcDbEntity
  8
0
 62
     7
100
AcDbLine
 10
247.306976
 20
268.020691
 30
0.0
 11
247.306976
 21
267.879272
 31
0.0
  0
LINE
  5
31B
330
1F
100
AcDbEntity
  8
0
 62
     7
100
AcDbLine
 10
247.306976
 20
268.020691
 30
0.0
 11
247.306976
 21
268.150024
 31
0.0
  0
LINE
  5
31C
330
1F
100
AcDbEntity
  8
0
 62
     7
100
AcDbLine
 10
174.306976
 20
273.096436
 30
0.0
 11
174.306976
 21
273.781128
 31
0.0
  0
LINE
  5
31D
330
1F
100
AcDbEntity
  8
0
 62
     7
100
AcDbLine
 10
174.306976
 20
272.74292
 30
0.0
 11
174.306976
 21
273.096436
 31
0.0
  0
LINE
  5
31E
330
1F
100
AcDbEntity
  8
0
 62
     7
100
AcDbLine
 10
174.306976
 20
245.650009
 30
0.0
 11
174.306976
 21
272.74292
 31
0.0
  0
LINE
  5
31F
330
1F
100
AcDbEntity
  8
0
 62
     7
100
AcDbLine
 10
174.306976
 20
245.150009
 30
0.0
 11
174.306976
 21
245.650009
 31
0.0
  0
LINE
  5
320
330
1F
100
AcDbEntity
  8
0
 62
     7
100
AcDbLine
 10
578.306946
 20
276.349976
 30
0.0
 11
578.306946
 21
273.781128
 31
0.0
  0
LINE
  5
321
330
1F
100
AcDbEntity
  8
0
 62
     7
100
AcDbLine
 10
174.306976
 20
276.349976
 30
0.0
 11
578.306946
 21
276.349976
 31
0.0
  0
LINE
  5
322
330
1F
100
AcDbEntity
  8
0
 62
     7
100
AcDbLine
 10
174.306976
 20
276.349976
 30
0.0
 11
174.306976
 21
273.781128
 31
0.0
  0
LINE
  5
323
330
1F
100
AcDbEntity
  8
0
 62
     7
100
AcDbLine
 10
578.306946
 20
246.850006
 30
0.0
 11
577.806946
 21
246.850006
 31
0.0
  0
LINE
  5
324
330
1F
100
AcDbEntity
  8
0
 62
     7
100
AcDbLine
 10
561.713989
 20
267.049988
 30
0.0
 11
505.075867
 21
267.049988
 31
0.0
  0
LINE
  5
325
330
1F
100
AcDbEntity
  8
0
 62
     7
100
AcDbLine
 10
562.12561
 20
267.75
 30
0.0
 11
505.30365
 21
267.75
 31
0.0
  0
LINE
  5
326
330
1F
100
AcDbEntity
  8
0
 62
     7
100
AcDbLine
 10
502.498749
 20
267.049988
 30
0.0
 11
500.115265
 21
267.049988
 31
0.0
  0
LINE
  5
327
330
1F
100
AcDbEntity
  8
0
 62
     7
100
AcDbLine
 10
504.296875
 20
267.75
 30
0.0
 11
502.201447
 21
267.75
 31
0.0
  0
ARC
  5
328
330
1F
100
AcDbEntity
  8
0
 62
     7
100
AcDbCircle
 10
501.307007
 20
269.650024
 30
0.0
 40
2.099999904632568
100
AcDbArc
 50
237.479124
 51
295.208757
  0
LINE
  5
329
330
1F
100
AcDbEntity
  8
0
 62
     7
100
AcDbLine
 10
500.412567
 20
267.75
 30
0.0
 11
498.317108
 21
267.75
 31
0.0
  0
LINE
  5
32A
330
1F
100
AcDbEntity
  8
0
 62
     7
100
AcDbLine
 10
252.498718
 20
267.049988
 30
0.0
 11
250.115234
 21
267.049988
 31
0.0
  0
LINE
  5
32B
330
1F
100
AcDbEntity
  8
0
 62
     7
100
AcDbLine
 10
254.296875
 20
267.75
 30
0.0
 11
252.201385
 21
267.75
 31
0.0
  0
ARC
  5
32C
330
1F
100
AcDbEntity
  8
0
 62
     7
100
AcDbCircle
 10
251.306976
 20
269.650024
 30
0.0
 40
2.099999904632568
100
AcDbArc
 50
237.479124
 51
295.208757
  0
LINE
  5
32D
330
1F
100
AcDbEntity
  8
0
 62
     7
100
AcDbLine
 10
250.412537
 20
267.75
 30
0.0
 11
248.317078
 21
267.75
 31
0.0
  0
LINE
  5
32E
330
1F
100
AcDbEntity
  8
0
 62
     7
100
AcDbLine
 10
247.310303
 20
267.75
 30
0.0
 11
190.488297
 21
267.75
 31
0.0
  0
LINE
  5
32F
330
1F
100
AcDbEntity
  8
0
 62
     7
100
AcDbLine
 10
247.538116
 20
267.049988
 30
0.0
 11
190.899933
 21
267.049988
 31
0.0
  0
LINE
  5
330
330
1F
100
AcDbEntity
  8
0
 62
     7
100
AcDbLine
 10
174.306976
 20
246.850006
 30
0.0
 11
174.806976
 21
246.850006
 31
0.0
  0
LINE
  5
331
330
1F
100
AcDbEntity
  8
0
 62
     7
100
AcDbLine
 10
498.994507
 20
246.680374
 30
0.0
 11
500.294495
 21
250.180374
 31
0.0
  0
ARC
  5
332
330
1F
100
AcDbEntity
  8
0
 62
     7
100
AcDbCircle
 10
498.807007
 20
246.750015
 30
0.0
 40
0.2000000029802322
100
AcDbArc
 50
200.37643
 51
339.623562
  0
LINE
  5
333
330
1F
100
AcDbEntity
  8
0
 62
     7
100
AcDbLine
 10
497.319519
 20
250.180374
 30
0.0
 11
498.619507
 21
246.680374
 31
0.0
  0
ARC
  5
334
330
1F
100
AcDbEntity
  8
0
 62
     7
100
AcDbCircle
 10
497.507019
 20
250.250015
 30
0.0
 40
0.2000000029802322
100
AcDbArc
 50
90.000003
 51
200.37643
  0
LINE
  5
335
330
1F
100
AcDbEntity
  8
0
 62
     7
100
AcDbLine
 10
500.106995
 20
250.449997
 30
0.0
 11
497.507019
 21
250.449997
 31
0.0
  0
ARC
  5
336
330
1F
100
AcDbEntity
  8
0
 62
     7
100
AcDbCircle
 10
500.106995
 20
250.250015
 30
0.0
 40
0.2000000029802322
100
AcDbArc
 50
339.623562
 51
90.000003
  0
LINE
  5
337
330
1F
100
AcDbEntity
  8
0
 62
     7
100
AcDbLine
 10
228.994461
 20
246.680374
 30
0.0
 11
230.294464
 21
250.180374
 31
0.0
  0
ARC
  5
338
330
1F
100
AcDbEntity
  8
0
 62
     7
100
AcDbCircle
 10
228.806976
 20
246.750015
 30
0.0
 40
0.2000000029802322
100
AcDbArc
 50
200.37643
 51
339.623562
  0
LINE
  5
339
330
1F
100
AcDbEntity
  8
0
 62
     7
100
AcDbLine
 10
227.319489
 20
250.180374
 30
0.0
 11
228.619492
 21
246.680374
 31
0.0
  0
ARC
  5
33A
330
1F
100
AcDbEntity
  8
0
 62
     7
100
AcDbCircle
 10
227.506973
 20
250.250015
 30
0.0
 40
0.2000000029802322
100
AcDbArc
 50
90.000003
 51
200.37643
  0
LINE
  5
33B
330
1F
100
AcDbEntity
  8
0
 62
     7
100
AcDbLine
 10
230.106979
 20
250.449997
 30
0.0
 11
227.506973
 21
250.449997
 31
0.0
  0
ARC
  5
33C
330
1F
100
AcDbEntity
  8
0
 62
     7
100
AcDbCircle
 10
230.106979
 20
250.250015
 30
0.0
 40
0.2000000029802322
100
AcDbArc
 50
339.623562
 51
90.000003
  0
LINE
  5
33D
330
1F
100
AcDbEntity
  8
0
 62
     7
100
AcDbLine
 10
579.306946
 20
245.150009
 30
0.0
 11
578.306946
 21
245.150009
 31
0.0
  0
LINE
  5
33E
330
1F
100
AcDbEntity
  8
0
 62
     7
100
AcDbLine
 10
577.806946
 20
245.350006
 30
0.0
 11
578.306946
 21
245.350006
 31
0.0
  0
LINE
  5
33F
330
1F
100
AcDbEntity
  8
0
 62
     7
100
AcDbLine
 10
502.201447
 20
267.75
 30
0.0
 11
502.313812
 21
267.807068
 31
0.0
  0
ARC
  5
340
330
1F
100
AcDbEntity
  8
0
 62
     7
100
AcDbCircle
 10
501.307007
 20
269.650024
 30
0.0
 40
2.099999904632568
100
AcDbArc
 50
298.647887
 51
314.415304
  0
LINE
  5
341
330
1F
100
AcDbEntity
  8
0
 62
     7
100
AcDbLine
 10
499.837311
 20
268.150024
 30
0.0
 11
498.307007
 21
268.150024
 31
0.0
  0
ARC
  5
342
330
1F
100
AcDbEntity
  8
0
 62
     7
100
AcDbCircle
 10
501.307007
 20
269.650024
 30
0.0
 40
2.099999904632568
100
AcDbArc
 50
314.415304
 51
237.479124
  0
LINE
  5
343
330
1F
100
AcDbEntity
  8
0
 62
     7
100
AcDbLine
 10
504.307007
 20
268.150024
 30
0.0
 11
502.776703
 21
268.150024
 31
0.0
  0
LINE
  5
344
330
1F
100
AcDbEntity
  8
0
 62
     7
100
AcDbLine
 10
504.307007
 20
272.974243
 30
0.0
 11
498.307007
 21
272.974243
 31
0.0
  0
LINE
  5
345
330
1F
100
AcDbEntity
  8
0
 62
     7
100
AcDbLine
 10
497.538147
 20
267.049988
 30
0.0
 11
255.075836
 21
267.049988
 31
0.0
  0
LINE
  5
346
330
1F
100
AcDbEntity
  8
0
 62
     7
100
AcDbLine
 10
497.310333
 20
267.75
 30
0.0
 11
255.30365
 21
267.75
 31
0.0
  0
LINE
  5
347
330
1F
100
AcDbEntity
  8
0
 62
     7
100
AcDbLine
 10
497.307007
 20
268.150024
 30
0.0
 11
255.306976
 21
268.150024
 31
0.0
  0
LINE
  5
348
330
1F
100
AcDbEntity
  8
0
 62
     7
100
AcDbLine
 10
497.307007
 20
272.974243
 30
0.0
 11
255.306976
 21
272.974243
 31
0.0
  0
LINE
  5
349
330
1F
100
AcDbEntity
  8
0
 62
     7
100
AcDbLine
 10
252.201385
 20
267.75
 30
0.0
 11
252.313751
 21
267.807068
 31
0.0
  0
ARC
  5
34A
330
1F
100
AcDbEntity
  8
0
 62
     7
100
AcDbCircle
 10
251.306976
 20
269.650024
 30
0.0
 40
2.099999904632568
100
AcDbArc
 50
298.647887
 51
314.415304
  0
ARC
  5
34B
330
1F
100
AcDbEntity
  8
0
 62
     7
100
AcDbCircle
 10
251.306976
 20
269.650024
 30
0.0
 40
2.099999904632568
100
AcDbArc
 50
314.415304
 51
237.479124
  0
LINE
  5
34C
330
1F
100
AcDbEntity
  8
0
 62
     7
100
AcDbLine
 10
254.306976
 20
268.150024
 30
0.0
 11
252.776672
 21
268.150024
 31
0.0
  0
LINE
  5
34D
330
1F
100
AcDbEntity
  8
0
 62
     7
100
AcDbLine
 10
254.306976
 20
272.974243
 30
0.0
 11
248.306976
 21
272.974243
 31
0.0
  0
LINE
  5
34E
330
1F
100
AcDbEntity
  8
0
 62
     7
100
AcDbLine
 10
249.83728
 20
268.150024
 30
0.0
 11
248.306976
 21
268.150024
 31
0.0
  0
LINE
  5
34F
330
1F
100
AcDbEntity
  8
0
 62
     7
100
AcDbLine
 10
173.306976
 20
245.150009
 30
0.0
 11
174.306976
 21
245.150009
 31
0.0
  0
LINE
  5
350
330
1F
100
AcDbEntity
  8
0
 62
     7
100
AcDbLine
 10
174.306976
 20
245.350006
 30
0.0
 11
174.806976
 21
245.350006
 31
0.0
  0
CIRCLE
  5
351
330
1F
100
AcDbEntity
  8
0
 62
     7
100
AcDbCircle
 10
568.806946
 20
263.349976
 30
0.0
 40
4.5
  0
CIRCLE
  5
352
330
1F
100
AcDbEntity
  8
0
 62
     7
100
AcDbCircle
 10
183.806976
 20
263.349976
 30
0.0
 40
4.5
  0
ARC
  5
353
330
1F
100
AcDbEntity
  8
0
 62
     7
100
AcDbCircle
 10
579.306946
 20
246.150009
 30
0.0
 40
1.0
100
AcDbArc
 50
269.999997
 51
360.0
  0
LINE
  5
354
330
1F
100
AcDbEntity
  8
0
 62
     7
100
AcDbLine
 10
580.306946
 20
272.535767
 30
0.0
 11
580.306946
 21
246.150009
 31
0.0
  0
LINE
  5
355
330
1F
100
AcDbEntity
  8
0
 62
     7
100
AcDbLine
 10
580.306946
 20
273.231384
 30
0.0
 11
580.306946
 21
272.535767
 31
0.0
  0
LINE
  5
356
330
1F
100
AcDbEntity
  8
0
 62
     7
100
AcDbLine
 10
172.306976
 20
272.535767
 30
0.0
 11
172.306976
 21
273.231384
 31
0.0
  0
LINE
  5
357
330
1F
100
AcDbEntity
  8
0
 62
     7
100
AcDbLine
 10
172.306976
 20
246.150009
 30
0.0
 11
172.306976
 21
272.535767
 31
0.0
  0
ARC
  5
358
330
1F
100
AcDbEntity
  8
0
 62
     7
100
AcDbCircle
 10
173.306976
 20
246.150009
 30
0.0
 40
1.0
100
AcDbArc
 50
180.000009
 51
269.999997
  0
LINE
  5
359
330
1F
100
AcDbEntity
  8
0
 62
     7
100
AcDbLine
 10
579.306946
 20
276.150024
 30
0.0
 11
578.306946
 21
276.150024
 31
0.0
  0
LINE
  5
35A
330
1F
100
AcDbEntity
  8
0
 62
     7
100
AcDbLine
 10
173.306976
 20
276.150024
 30
0.0
 11
174.306976
 21
276.150024
 31
0.0
  0
LINE
  5
35B
330
1F
100
AcDbEntity
  8
0
 62
     7
100
AcDbLine
 10
580.306946
 20
273.805908
 30
0.0
 11
580.306946
 21
273.231384
 31
0.0
  0
LINE
  5
35C
330
1F
100
AcDbEntity
  8
0
 62
     7
100
AcDbLine
 10
580.306946
 20
275.150024
 30
0.0
 11
580.306946
 21
273.805908
 31
0.0
  0
LINE
  5
35D
330
1F
100
AcDbEntity
  8
0
 62
     7
100
AcDbLine
 10
172.306976
 20
273.231384
 30
0.0
 11
172.306976
 21
273.805908
 31
0.0
  0
LINE
  5
35E
330
1F
100
AcDbEntity
  8
0
 62
     7
100
AcDbLine
 10
172.306976
 20
273.805908
 30
0.0
 11
172.306976
 21
275.150024
 31
0.0
  0
ARC
  5
35F
330
1F
100
AcDbEntity
  8
0
 62
     7
100
AcDbCircle
 10
568.806946
 20
264.049988
 30
0.0
 40
12.80000019073486
100
AcDbArc
 50
73.932611
 51
106.067387
  0
ARC
  5
360
330
1F
100
AcDbEntity
  8
0
 62
     7
100
AcDbCircle
 10
183.806976
 20
264.049988
 30
0.0
 40
12.80000019073486
100
AcDbArc
 50
73.932611
 51
106.067387
  0
ARC
  5
361
330
1F
100
AcDbEntity
  8
0
 62
     7
100
AcDbCircle
 10
579.306946
 20
275.150024
 30
0.0
 40
1.0
100
AcDbArc
 50
0.0
 51
90.000003
  0
ARC
  5
362
330
1F
100
AcDbEntity
  8
0
 62
     7
100
AcDbCircle
 10
173.306976
 20
275.150024
 30
0.0
 40
1.0
100
AcDbArc
 50
90.000003
 51
180.000009
  0
CIRCLE
  5
363
330
1F
100
AcDbEntity
  8
0
 62
     7
100
AcDbCircle
 10
501.307007
 20
269.650024
 30
0.0
 40
2.0
  0
CIRCLE
  5
364
330
1F
100
AcDbEntity
  8
0
 62
     7
100
AcDbCircle
 10
251.306976
 20
269.650024
 30
0.0
 40
2.0
  0
LINE
  5
365
330
1F
100
AcDbEntity
  8
0
 62
     7
100
AcDbLine
 10
501.507019
 20
270.349976
 30
0.0
 11
501.507019
 21
270.849976
 31
0.0
  0
LINE
  5
366
330
1F
100
AcDbEntity
  8
0
 62
     7
100
AcDbLine
 10
501.507019
 20
270.849976
 30
0.0
 11
501.106995
 21
270.849976
 31
0.0
  0
LINE
  5
367
330
1F
100
AcDbEntity
  8
0
 62
     7
100
AcDbLine
 10
501.106995
 20
270.849976
 30
0.0
 11
501.106995
 21
270.349976
 31
0.0
  0
ARC
  5
368
330
1F
100
AcDbEntity
  8
0
 62
     7
100
AcDbCircle
 10
500.606995
 20
270.349976
 30
0.0
 40
0.5
100
AcDbArc
 50
269.999997
 51
360.0
  0
LINE
  5
369
330
1F
100
AcDbEntity
  8
0
 62
     7
100
AcDbLine
 10
500.606995
 20
269.849976
 30
0.0
 11
500.106995
 21
269.849976
 31
0.0
  0
LINE
  5
36A
330
1F
100
AcDbEntity
  8
0
 62
     7
100
AcDbLine
 10
500.106995
 20
269.849976
 30
0.0
 11
500.106995
 21
269.450012
 31
0.0
  0
LINE
  5
36B
330
1F
100
AcDbEntity
  8
0
 62
     7
100
AcDbLine
 10
500.106995
 20
269.450012
 30
0.0
 11
500.606995
 21
269.450012
 31
0.0
  0
ARC
  5
36C
330
1F
100
AcDbEntity
  8
0
 62
     7
100
AcDbCircle
 10
500.606995
 20
268.950012
 30
0.0
 40
0.5
100
AcDbArc
 50
0.0
 51
90.000003
  0
LINE
  5
36D
330
1F
100
AcDbEntity
  8
0
 62
     7
100
AcDbLine
 10
501.106995
 20
268.950012
 30
0.0
 11
501.106995
 21
268.450012
 31
0.0
  0
LINE
  5
36E
330
1F
100
AcDbEntity
  8
0
 62
     7
100
AcDbLine
 10
501.106995
 20
268.450012
 30
0.0
 11
501.507019
 21
268.450012
 31
0.0
  0
LINE
  5
36F
330
1F
100
AcDbEntity
  8
0
 62
     7
100
AcDbLine
 10
501.507019
 20
268.450012
 30
0.0
 11
501.507019
 21
268.950012
 31
0.0
  0
ARC
  5
370
330
1F
100
AcDbEntity
  8
0
 62
     7
100
AcDbCircle
 10
502.007019
 20
268.950012
 30
0.0
 40
0.5
100
AcDbArc
 50
90.000003
 51
180.000009
  0
LINE
  5
371
330
1F
100
AcDbEntity
  8
0
 62
     7
100
AcDbLine
 10
502.007019
 20
269.450012
 30
0.0
 11
502.507019
 21
269.450012
 31
0.0
  0
LINE
  5
372
330
1F
100
AcDbEntity
  8
0
 62
     7
100
AcDbLine
 10
502.507019
 20
269.450012
 30
0.0
 11
502.507019
 21
269.849976
 31
0.0
  0
LINE
  5
373
330
1F
100
AcDbEntity
  8
0
 62
     7
100
AcDbLine
 10
502.507019
 20
269.849976
 30
0.0
 11
502.007019
 21
269.849976
 31
0.0
  0
ARC
  5
374
330
1F
100
AcDbEntity
  8
0
 62
     7
100
AcDbCircle
 10
502.007019
 20
270.349976
 30
0.0
 40
0.5
100
AcDbArc
 50
180.000009
 51
269.999997
  0
LINE
  5
375
330
1F
100
AcDbEntity
  8
0
 62
     7
100
AcDbLine
 10
251.506958
 20
270.349976
 30
0.0
 11
251.506958
 21
270.849976
 31
0.0
  0
LINE
  5
376
330
1F
100
AcDbEntity
  8
0
 62
     7
100
AcDbLine
 10
251.506958
 20
270.849976
 30
0.0
 11
251.106964
 21
270.849976
 31
0.0
  0
LINE
  5
377
330
1F
100
AcDbEntity
  8
0
 62
     7
100
AcDbLine
 10
251.106964
 20
270.849976
 30
0.0
 11
251.106964
 21
270.349976
 31
0.0
  0
ARC
  5
378
330
1F
100
AcDbEntity
  8
0
 62
     7
100
AcDbCircle
 10
250.606964
 20
270.349976
 30
0.0
 40
0.5
100
AcDbArc
 50
269.999997
 51
360.0
  0
LINE
  5
379
330
1F
100
AcDbEntity
  8
0
 62
     7
100
AcDbLine
 10
250.606964
 20
269.849976
 30
0.0
 11
250.106964
 21
269.849976
 31
0.0
  0
LINE
  5
37A
330
1F
100
AcDbEntity
  8
0
 62
     7
100
AcDbLine
 10
250.106964
 20
269.849976
 30
0.0
 11
250.106964
 21
269.450012
 31
0.0
  0
LINE
  5
37B
330
1F
100
AcDbEntity
  8
0
 62
     7
100
AcDbLine
 10
250.106964
 20
269.450012
 30
0.0
 11
250.606964
 21
269.450012
 31
0.0
  0
ARC
  5
37C
330
1F
100
AcDbEntity
  8
0
 62
     7
100
AcDbCircle
 10
250.606964
 20
268.950012
 30
0.0
 40
0.5
100
AcDbArc
 50
0.0
 51
90.000003
  0
LINE
  5
37D
330
1F
100
AcDbEntity
  8
0
 62
     7
100
AcDbLine
 10
251.106964
 20
268.950012
 30
0.0
 11
251.106964
 21
268.450012
 31
0.0
  0
LINE
  5
37E
330
1F
100
AcDbEntity
  8
0
 62
     7
100
AcDbLine
 10
251.106964
 20
268.450012
 30
0.0
 11
251.506958
 21
268.450012
 31
0.0
  0
LINE
  5
37F
330
1F
100
AcDbEntity
  8
0
 62
     7
100
AcDbLine
 10
251.506958
 20
268.450012
 30
0.0
 11
251.506958
 21
268.950012
 31
0.0
  0
ARC
  5
380
330
1F
100
AcDbEntity
  8
0
 62
     7
100
AcDbCircle
 10
252.006958
 20
268.950012
 30
0.0
 40
0.5
100
AcDbArc
 50
90.000003
 51
180.000009
  0
LINE
  5
381
330
1F
100
AcDbEntity
  8
0
 62
     7
100
AcDbLine
 10
252.006958
 20
269.450012
 30
0.0
 11
252.506958
 21
269.450012
 31
0.0
  0
LINE
  5
382
330
1F
100
AcDbEntity
  8
0
 62
     7
100
AcDbLine
 10
252.506958
 20
269.450012
 30
0.0
 11
252.506958
 21
269.849976
 31
0.0
  0
LINE
  5
383
330
1F
100
AcDbEntity
  8
0
 62
     7
100
AcDbLine
 10
252.506958
 20
269.849976
 30
0.0
 11
252.006958
 21
269.849976
 31
0.0
  0
ARC
  5
384
330
1F
100
AcDbEntity
  8
0
 62
     7
100
AcDbCircle
 10
252.006958
 20
270.349976
 30
0.0
 40
0.5
100
AcDbArc
 50
180.000009
 51
269.999997
  0
LINE
  5
385
330
1F
100
AcDbEntity
  8
0
 62
     7
100
AcDbLine
 10
580.306946
 20
249.800003
 30
0.0
 11
580.306946
 21
252.699997
 31
0.0
  0
LINE
  5
386
330
1F
100
AcDbEntity
  8
0
 62
     7
100
AcDbLine
 10
580.306946
 20
254.000015
 30
0.0
 11
580.306946
 21
256.900024
 31
0.0
  0
LINE
  5
387
330
1F
100
AcDbEntity
  8
0
 62
     7
100
AcDbLine
 10
505.307007
 20
273.549988
 30
0.0
 11
577.806946
 21
273.549988
 31
0.0
  0
LINE
  5
388
330
1F
100
AcDbEntity
  8
0
 62
     7
100
AcDbLine
 10
174.806976
 20
273.549988
 30
0.0
 11
247.306976
 21
273.549988
 31
0.0
  0
LINE
  5
389
330
1F
100
AcDbEntity
  8
0
 62
     7
100
AcDbLine
 10
498.307007
 20
273.549988
 30
0.0
 11
504.307007
 21
273.549988
 31
0.0
  0
LINE
  5
38A
330
1F
100
AcDbEntity
  8
0
 62
     7
100
AcDbLine
 10
255.306976
 20
273.549988
 30
0.0
 11
497.307007
 21
273.549988
 31
0.0
  0
LINE
  5
38B
330
1F
100
AcDbEntity
  8
0
 62
     7
100
AcDbLine
 10
248.306976
 20
273.549988
 30
0.0
 11
254.306976
 21
273.549988
 31
0.0
  0
LINE
  5
38C
330
1F
100
AcDbEntity
  8
0
 62
     7
100
AcDbLine
 10
307.707001
 20
242.849884
 30
0.0
 11
307.707001
 21
243.139999
 31
0.0
  0
LINE
  5
38D
330
1F
100
AcDbEntity
  8
0
 62
     7
100
AcDbLine
 10
307.707001
 20
243.139999
 30
0.0
 11
307.506989
 21
243.343246
 31
0.0
  0
LINE
  5
38E
330
1F
100
AcDbEntity
  8
0
 62
     7
100
AcDbLine
 10
307.506989
 20
243.009216
 30
0.0
 11
307.506989
 21
243.343246
 31
0.0
  0
LINE
  5
38F
330
1F
100
AcDbEntity
  8
0
 62
     7
100
AcDbLine
 10
307.506989
 20
243.343246
 30
0.0
 11
306.506989
 21
243.343246
 31
0.0
  0
LINE
  5
390
330
1F
100
AcDbEntity
  8
0
 62
     7
100
AcDbLine
 10
306.506989
 20
243.343246
 30
0.0
 11
306.506989
 21
243.400009
 31
0.0
  0
LINE
  5
391
330
1F
100
AcDbEntity
  8
0
 62
     7
100
AcDbLine
 10
305.907013
 20
243.400009
 30
0.0
 11
306.506989
 21
243.400009
 31
0.0
  0
LINE
  5
392
330
1F
100
AcDbEntity
  8
0
 62
     7
100
AcDbLine
 10
305.907013
 20
243.049942
 30
0.0
 11
305.907013
 21
243.400009
 31
0.0
  0
LINE
  5
393
330
1F
100
AcDbEntity
  8
0
 62
     7
100
AcDbLine
 10
307.506989
 20
243.343246
 30
0.0
 11
306.506989
 21
243.343246
 31
0.0
  0
LINE
  5
394
330
1F
100
AcDbEntity
  8
0
 62
     7
100
AcDbLine
 10
307.707001
 20
243.139999
 30
0.0
 11
307.506989
 21
243.343246
 31
0.0
  0
LINE
  5
395
330
1F
100
AcDbEntity
  8
0
 62
     7
100
AcDbLine
 10
305.606995
 20
243.050003
 30
0.0
 11
305.606995
 21
243.150009
 31
0.0
  0
LINE
  5
396
330
1F
100
AcDbEntity
  8
0
 62
     7
100
AcDbLine
 10
307.307007
 20
243.050003
 30
0.0
 11
305.307007
 21
243.050003
 31
0.0
  0
ARC
  5
397
330
1F
100
AcDbEntity
  8
0
 62
     7
100
AcDbCircle
 10
305.307007
 20
243.550003
 30
0.0
 40
0.5
100
AcDbArc
 50
180.000009
 51
269.999997
  0
LINE
  5
398
330
1F
100
AcDbEntity
  8
0
 62
     7
100
AcDbLine
 10
307.307007
 20
242.550003
 30
0.0
 11
307.660553
 21
242.903549
 31
0.0
  0
ARC
  5
399
330
1F
100
AcDbEntity
  8
0
 62
     7
100
AcDbCircle
 10
307.307007
 20
242.550003
 30
0.0
 40
0.5
100
AcDbArc
 50
0.0
 51
89.999559
  0
LINE
  5
39A
330
1F
100
AcDbEntity
  8
0
 62
     7
100
AcDbLine
 10
307.807007
 20
219.449997
 30
0.0
 11
307.807007
 21
242.550003
 31
0.0
  0
ARC
  5
39B
330
1F
100
AcDbEntity
  8
0
 62
     7
100
AcDbCircle
 10
304.307007
 20
243.550003
 30
0.0
 40
0.5
100
AcDbArc
 50
0.0
 51
90.000003
  0
LINE
  5
39C
330
1F
100
AcDbEntity
  8
0
 62
     7
100
AcDbLine
 10
300.307007
 20
222.250015
 30
0.0
 11
182.306976
 21
222.250015
 31
0.0
  0
LINE
  5
39D
330
1F
100
AcDbEntity
  8
0
 62
     7
100
AcDbLine
 10
230.456833
 20
237.107986
 30
0.0
 11
228.994461
 21
241.045227
 31
0.0
  0
ARC
  5
39E
330
1F
100
AcDbEntity
  8
0
 62
     7
100
AcDbCircle
 10
230.269348
 20
237.038345
 30
0.0
 40
0.2000000029802322
100
AcDbArc
 50
269.999997
 51
20.376
  0
LINE
  5
39F
330
1F
100
AcDbEntity
  8
0
 62
     7
100
AcDbLine
 10
227.344604
 20
236.838364
 30
0.0
 11
230.269348
 21
236.838364
 31
0.0
  0
ARC
  5
3A0
330
1F
100
AcDbEntity
  8
0
 62
     7
100
AcDbCircle
 10
227.344604
 20
237.038345
 30
0.0
 40
0.2000000029802322
100
AcDbArc
 50
159.624007
 51
269.999997
  0
LINE
  5
3A1
330
1F
100
AcDbEntity
  8
0
 62
     7
100
AcDbLine
 10
228.619492
 20
241.045227
 30
0.0
 11
227.15712
 21
237.107986
 31
0.0
  0
ARC
  5
3A2
330
1F
100
AcDbEntity
  8
0
 62
     7
100
AcDbCircle
 10
228.806976
 20
240.975586
 30
0.0
 40
0.2000000029802322
100
AcDbArc
 50
20.376
 51
159.624007
  0
LINE
  5
3A3
330
1F
100
AcDbEntity
  8
0
 62
     7
100
AcDbLine
 10
307.307007
 20
219.449997
 30
0.0
 11
307.557007
 21
219.199997
 31
0.0
  0
LINE
  5
3A4
330
1F
100
AcDbEntity
  8
0
 62
     7
100
AcDbLine
 10
307.557007
 20
219.199997
 30
0.0
 11
307.807007
 21
219.449997
 31
0.0
  0
LINE
  5
3A5
330
1F
100
AcDbEntity
  8
0
 62
     7
100
AcDbLine
 10
307.307007
 20
218.949997
 30
0.0
 11
307.557007
 21
219.199997
 31
0.0
  0
LINE
  5
3A6
330
1F
100
AcDbEntity
  8
0
 62
     7
100
AcDbLine
 10
285.307007
 20
244.050003
 30
0.0
 11
286.307007
 21
244.050003
 31
0.0
  0
LINE
  5
3A7
330
1F
100
AcDbEntity
  8
0
 62
     7
100
AcDbLine
 10
287.307007
 20
244.050003
 30
0.0
 11
286.307007
 21
244.050003
 31
0.0
  0
LINE
  5
3A8
330
1F
100
AcDbEntity
  8
0
 62
     7
100
AcDbLine
 10
304.307007
 20
244.050003
 30
0.0
 11
287.307007
 21
244.050003
 31
0.0
  0
LINE
  5
3A9
330
1F
100
AcDbEntity
  8
0
 62
     7
100
AcDbLine
 10
175.306976
 20
219.449997
 30
0.0
 11
175.056976
 21
219.199997
 31
0.0
  0
LINE
  5
3AA
330
1F
100
AcDbEntity
  8
0
 62
     7
100
AcDbLine
 10
175.306976
 20
242.550003
 30
0.0
 11
174.95343
 21
242.903549
 31
0.0
  0
ARC
  5
3AB
330
1F
100
AcDbEntity
  8
0
 62
     7
100
AcDbCircle
 10
175.306976
 20
242.550003
 30
0.0
 40
0.5
100
AcDbArc
 50
90.000003
 51
179.999554
  0
LINE
  5
3AC
330
1F
100
AcDbEntity
  8
0
 62
     7
100
AcDbLine
 10
174.806976
 20
242.550003
 30
0.0
 11
174.806976
 21
219.449997
 31
0.0
  0
LINE
  5
3AD
330
1F
100
AcDbEntity
  8
0
 62
     7
100
AcDbLine
 10
174.806976
 20
219.449997
 30
0.0
 11
175.056976
 21
219.199997
 31
0.0
  0
LINE
  5
3AE
330
1F
100
AcDbEntity
  8
0
 62
     7
100
AcDbLine
 10
182.306976
 20
218.949997
 30
0.0
 11
175.306976
 21
218.949997
 31
0.0
  0
LINE
  5
3AF
330
1F
100
AcDbEntity
  8
0
 62
     7
100
AcDbLine
 10
175.056976
 20
219.199997
 30
0.0
 11
175.306976
 21
218.949997
 31
0.0
  0
LINE
  5
3B0
330
1F
100
AcDbEntity
  8
0
 62
     7
100
AcDbLine
 10
182.806976
 20
219.449997
 30
0.0
 11
182.806976
 21
222.250015
 31
0.0
  0
LINE
  5
3B1
330
1F
100
AcDbEntity
  8
0
 62
     7
100
AcDbLine
 10
299.807007
 20
219.449997
 30
0.0
 11
299.807007
 21
222.250015
 31
0.0
  0
LINE
  5
3B2
330
1F
100
AcDbEntity
  8
0
 62
     7
100
AcDbLine
 10
307.307007
 20
218.949997
 30
0.0
 11
300.307007
 21
218.949997
 31
0.0
  0
LINE
  5
3B3
330
1F
100
AcDbEntity
  8
0
 62
     7
100
AcDbLine
 10
286.307007
 20
243.050003
 30
0.0
 11
272.307007
 21
243.050003
 31
0.0
  0
LINE
  5
3B4
330
1F
100
AcDbEntity
  8
0
 62
     7
100
AcDbLine
 10
272.006989
 20
241.550003
 30
0.0
 11
272.006989
 21
242.750015
 31
0.0
  0
ARC
  5
3B5
330
1F
100
AcDbEntity
  8
0
 62
     7
100
AcDbCircle
 10
269.807007
 20
241.550003
 30
0.0
 40
2.200000047683716
100
AcDbArc
 50
180.000009
 51
360.0
  0
LINE
  5
3B6
330
1F
100
AcDbEntity
  8
0
 62
     7
100
AcDbLine
 10
267.606995
 20
242.750015
 30
0.0
 11
267.606995
 21
241.550003
 31
0.0
  0
LINE
  5
3B7
330
1F
100
AcDbEntity
  8
0
 62
     7
100
AcDbLine
 10
267.307007
 20
243.050003
 30
0.0
 11
193.306976
 21
243.050003
 31
0.0
  0
LINE
  5
3B8
330
1F
100
AcDbEntity
  8
0
 62
     7
100
AcDbLine
 10
193.006973
 20
241.550003
 30
0.0
 11
193.006973
 21
242.750015
 31
0.0
  0
ARC
  5
3B9
330
1F
100
AcDbEntity
  8
0
 62
     7
100
AcDbCircle
 10
190.806976
 20
241.550003
 30
0.0
 40
2.200000047683716
100
AcDbArc
 50
180.000009
 51
360.0
  0
ARC
  5
3BA
330
1F
100
AcDbEntity
  8
0
 62
     7
100
AcDbCircle
 10
194.473038
 20
241.050003
 30
0.0
 40
1.0
100
AcDbArc
 50
90.000003
 51
172.233561
  0
LINE
  5
3BB
330
1F
100
AcDbEntity
  8
0
 62
     7
100
AcDbLine
 10
194.473038
 20
242.050003
 30
0.0
 11
207.806976
 21
242.050003
 31
0.0
  0
ARC
  5
3BC
330
1F
100
AcDbEntity
  8
0
 62
     7
100
AcDbCircle
 10
207.806976
 20
239.050003
 30
0.0
 40
3.0
100
AcDbArc
 50
0.0
 51
90.000003
  0
LINE
  5
3BD
330
1F
100
AcDbEntity
  8
0
 62
     7
100
AcDbLine
 10
210.806976
 20
226.250015
 30
0.0
 11
210.806976
 21
239.050003
 31
0.0
  0
ARC
  5
3BE
330
1F
100
AcDbEntity
  8
0
 62
     7
100
AcDbCircle
 10
207.806976
 20
226.250015
 30
0.0
 40
3.0
100
AcDbArc
 50
269.999997
 51
360.0
  0
LINE
  5
3BF
330
1F
100
AcDbEntity
  8
0
 62
     7
100
AcDbLine
 10
207.806976
 20
223.250015
 30
0.0
 11
193.806976
 21
223.250015
 31
0.0
  0
ARC
  5
3C0
330
1F
100
AcDbEntity
  8
0
 62
     7
100
AcDbCircle
 10
193.806976
 20
226.250015
 30
0.0
 40
3.0
100
AcDbArc
 50
180.000009
 51
269.999997
  0
LINE
  5
3C1
330
1F
100
AcDbEntity
  8
0
 62
     7
100
AcDbLine
 10
190.806976
 20
237.987701
 30
0.0
 11
190.806976
 21
226.250015
 31
0.0
  0
ARC
  5
3C2
330
1F
100
AcDbEntity
  8
0
 62
     7
100
AcDbCircle
 10
191.806976
 20
237.987701
 30
0.0
 40
1.0
100
AcDbArc
 50
105.680348
 51
180.000009
  0
LINE
  5
3C3
330
1F
100
AcDbEntity
  8
0
 62
     7
100
AcDbLine
 10
188.606979
 20
242.750015
 30
0.0
 11
188.606979
 21
241.550003
 31
0.0
  0
LINE
  5
3C4
330
1F
100
AcDbEntity
  8
0
 62
     7
100
AcDbLine
 10
188.306976
 20
243.050003
 30
0.0
 11
187.806976
 21
243.050003
 31
0.0
  0
LINE
  5
3C5
330
1F
100
AcDbEntity
  8
0
 62
     7
100
AcDbLine
 10
186.806976
 20
244.050003
 30
0.0
 11
178.306976
 21
244.050003
 31
0.0
  0
LINE
  5
3C6
330
1F
100
AcDbEntity
  8
0
 62
     7
100
AcDbLine
 10
177.306976
 20
243.050003
 30
0.0
 11
175.306976
 21
243.050003
 31
0.0
  0
LINE
  5
3C7
330
1F
100
AcDbEntity
  8
0
 62
     7
100
AcDbLine
 10
249.806976
 20
242.050003
 30
0.0
 11
263.807007
 21
242.050003
 31
0.0
  0
ARC
  5
3C8
330
1F
100
AcDbEntity
  8
0
 62
     7
100
AcDbCircle
 10
263.807007
 20
239.050003
 30
0.0
 40
3.0
100
AcDbArc
 50
0.0
 51
90.000003
  0
LINE
  5
3C9
330
1F
100
AcDbEntity
  8
0
 62
     7
100
AcDbLine
 10
266.807007
 20
226.250015
 30
0.0
 11
266.807007
 21
239.050003
 31
0.0
  0
ARC
  5
3CA
330
1F
100
AcDbEntity
  8
0
 62
     7
100
AcDbCircle
 10
263.807007
 20
226.250015
 30
0.0
 40
3.0
100
AcDbArc
 50
269.999997
 51
360.0
  0
LINE
  5
3CB
330
1F
100
AcDbEntity
  8
0
 62
     7
100
AcDbLine
 10
263.807007
 20
223.250015
 30
0.0
 11
249.806976
 21
223.250015
 31
0.0
  0
ARC
  5
3CC
330
1F
100
AcDbEntity
  8
0
 62
     7
100
AcDbCircle
 10
249.806976
 20
226.250015
 30
0.0
 40
3.0
100
AcDbArc
 50
180.000009
 51
269.999997
  0
LINE
  5
3CD
330
1F
100
AcDbEntity
  8
0
 62
     7
100
AcDbLine
 10
246.806976
 20
239.050003
 30
0.0
 11
246.806976
 21
226.250015
 31
0.0
  0
ARC
  5
3CE
330
1F
100
AcDbEntity
  8
0
 62
     7
100
AcDbCircle
 10
249.806976
 20
239.050003
 30
0.0
 40
3.0
100
AcDbArc
 50
90.000003
 51
180.000009
  0
LINE
  5
3CF
330
1F
100
AcDbEntity
  8
0
 62
     7
100
AcDbLine
 10
187.806976
 20
244.050003
 30
0.0
 11
186.806976
 21
244.050003
 31
0.0
  0
LINE
  5
3D0
330
1F
100
AcDbEntity
  8
0
 62
     7
100
AcDbLine
 10
188.806976
 20
244.050003
 30
0.0
 11
187.806976
 21
244.050003
 31
0.0
  0
LINE
  5
3D1
330
1F
100
AcDbEntity
  8
0
 62
     7
100
AcDbLine
 10
184.056976
 20
221.850006
 30
0.0
 11
184.056976
 21
222.250015
 31
0.0
  0
LINE
  5
3D2
330
1F
100
AcDbEntity
  8
0
 62
     7
100
AcDbLine
 10
298.557007
 20
221.850006
 30
0.0
 11
298.557007
 21
222.250015
 31
0.0
  0
LINE
  5
3D3
330
1F
100
AcDbEntity
  8
0
 62
     7
100
AcDbLine
 10
198.530182
 20
222.100006
 30
0.0
 11
198.330185
 21
222.100006
 31
0.0
  0
LINE
  5
3D4
330
1F
100
AcDbEntity
  8
0
 62
     7
100
AcDbLine
 10
195.283768
 20
222.100006
 30
0.0
 11
198.330185
 21
222.100006
 31
0.0
  0
LINE
  5
3D5
330
1F
100
AcDbEntity
  8
0
 62
     7
100
AcDbLine
 10
195.283768
 20
222.100006
 30
0.0
 11
195.083771
 21
222.100006
 31
0.0
  0
LINE
  5
3D6
330
1F
100
AcDbEntity
  8
0
 62
     7
100
AcDbLine
 10
284.283783
 20
222.100006
 30
0.0
 11
284.083801
 21
222.100006
 31
0.0
  0
LINE
  5
3D7
330
1F
100
AcDbEntity
  8
0
 62
     7
100
AcDbLine
 10
287.530212
 20
222.100006
 30
0.0
 11
287.3302
 21
222.100006
 31
0.0
  0
LINE
  5
3D8
330
1F
100
AcDbEntity
  8
0
 62
     7
100
AcDbLine
 10
284.283783
 20
222.100006
 30
0.0
 11
287.3302
 21
222.100006
 31
0.0
  0
ARC
  5
3D9
330
1F
100
AcDbEntity
  8
0
 62
     7
100
AcDbCircle
 10
287.307007
 20
243.550003
 30
0.0
 40
0.5
100
AcDbArc
 50
90.000003
 51
180.000009
  0
ARC
  5
3DA
330
1F
100
AcDbEntity
  8
0
 62
     7
100
AcDbCircle
 10
182.306976
 20
219.449997
 30
0.0
 40
0.5
100
AcDbArc
 50
269.999997
 51
360.0
  0
ARC
  5
3DB
330
1F
100
AcDbEntity
  8
0
 62
     7
100
AcDbCircle
 10
300.307007
 20
219.449997
 30
0.0
 40
0.5
100
AcDbArc
 50
180.000009
 51
269.999997
  0
ARC
  5
3DC
330
1F
100
AcDbEntity
  8
0
 62
     7
100
AcDbCircle
 10
286.307007
 20
243.550003
 30
0.0
 40
0.5
100
AcDbArc
 50
269.999997
 51
360.0
  0
LINE
  5
3DD
330
1F
100
AcDbEntity
  8
0
 62
     7
100
AcDbLine
 10
188.70697
 20
243.050003
 30
0.0
 11
188.306976
 21
243.050003
 31
0.0
  0
LINE
  5
3DE
330
1F
100
AcDbEntity
  8
0
 62
     7
100
AcDbLine
 10
188.70697
 20
243.050003
 30
0.0
 11
188.806976
 21
243.050003
 31
0.0
  0
ARC
  5
3DF
330
1F
100
AcDbEntity
  8
0
 62
     7
100
AcDbCircle
 10
272.307007
 20
242.750015
 30
0.0
 40
0.300000011920929
100
AcDbArc
 50
90.000003
 51
180.000009
  0
ARC
  5
3E0
330
1F
100
AcDbEntity
  8
0
 62
     7
100
AcDbCircle
 10
267.307007
 20
242.750015
 30
0.0
 40
0.300000011920929
100
AcDbArc
 50
0.0
 51
90.000003
  0
ARC
  5
3E1
330
1F
100
AcDbEntity
  8
0
 62
     7
100
AcDbCircle
 10
193.306976
 20
242.750015
 30
0.0
 40
0.300000011920929
100
AcDbArc
 50
90.000003
 51
180.000009
  0
ARC
  5
3E2
330
1F
100
AcDbEntity
  8
0
 62
     7
100
AcDbCircle
 10
190.806976
 20
241.550003
 30
0.0
 40
2.700000047683716
100
AcDbArc
 50
285.680336
 51
352.233566
  0
CIRCLE
  5
3E3
330
1F
100
AcDbEntity
  8
0
 62
     7
100
AcDbCircle
 10
200.806976
 20
234.650009
 30
0.0
 40
4.5
  0
ARC
  5
3E4
330
1F
100
AcDbEntity
  8
0
 62
     7
100
AcDbCircle
 10
188.306976
 20
242.750015
 30
0.0
 40
0.300000011920929
100
AcDbArc
 50
0.0
 51
90.000003
  0
ARC
  5
3E5
330
1F
100
AcDbEntity
  8
0
 62
     7
100
AcDbCircle
 10
187.806976
 20
243.550003
 30
0.0
 40
0.5
100
AcDbArc
 50
180.000009
 51
269.999997
  0
ARC
  5
3E6
330
1F
100
AcDbEntity
  8
0
 62
     7
100
AcDbCircle
 10
186.806976
 20
243.550003
 30
0.0
 40
0.5
100
AcDbArc
 50
0.0
 51
90.000003
  0
ARC
  5
3E7
330
1F
100
AcDbEntity
  8
0
 62
     7
100
AcDbCircle
 10
178.306976
 20
243.550003
 30
0.0
 40
0.5
100
AcDbArc
 50
90.000003
 51
180.000009
  0
ARC
  5
3E8
330
1F
100
AcDbEntity
  8
0
 62
     7
100
AcDbCircle
 10
177.306976
 20
243.550003
 30
0.0
 40
0.5
100
AcDbArc
 50
269.999997
 51
360.0
  0
CIRCLE
  5
3E9
330
1F
100
AcDbEntity
  8
0
 62
     7
100
AcDbCircle
 10
256.807007
 20
234.650009
 30
0.0
 40
4.5
  0
LINE
  5
3EA
330
1F
100
AcDbEntity
  8
0
 62
     7
100
AcDbLine
 10
177.006973
 20
243.050003
 30
0.0
 11
177.006973
 21
243.150009
 31
0.0
  0
LINE
  5
3EB
330
1F
100
AcDbEntity
  8
0
 62
     7
100
AcDbLine
 10
298.756989
 20
221.850006
 30
0.0
 11
299.756989
 21
221.850006
 31
0.0
  0
LINE
  5
3EC
330
1F
100
AcDbEntity
  8
0
 62
     7
100
AcDbLine
 10
298.756989
 20
221.850006
 30
0.0
 11
287.3302
 21
221.850006
 31
0.0
  0
LINE
  5
3ED
330
1F
100
AcDbEntity
  8
0
 62
     7
100
AcDbLine
 10
284.283783
 20
221.850006
 30
0.0
 11
198.330185
 21
221.850006
 31
0.0
  0
LINE
  5
3EE
330
1F
100
AcDbEntity
  8
0
 62
     7
100
AcDbLine
 10
195.283768
 20
221.850006
 30
0.0
 11
183.856979
 21
221.850006
 31
0.0
  0
LINE
  5
3EF
330
1F
100
AcDbEntity
  8
0
 62
     7
100
AcDbLine
 10
182.856979
 20
221.850006
 30
0.0
 11
183.856979
 21
221.850006
 31
0.0
  0
LINE
  5
3F0
330
1F
100
AcDbEntity
  8
0
 62
     7
100
AcDbLine
 10
298.756989
 20
219.350006
 30
0.0
 11
183.856979
 21
219.350006
 31
0.0
  0
LINE
  5
3F1
330
1F
100
AcDbEntity
  8
0
 62
     7
100
AcDbLine
 10
188.806976
 20
241.550003
 30
0.0
 11
188.806976
 21
243.550003
 31
0.0
  0
LINE
  5
3F2
330
1F
100
AcDbEntity
  8
0
 62
     7
100
AcDbLine
 10
188.806976
 20
244.050003
 30
0.0
 11
188.806976
 21
243.550003
 31
0.0
  0
LINE
  5
3F3
330
1F
100
AcDbEntity
  8
0
 62
     7
100
AcDbLine
 10
188.806976
 20
245.050003
 30
0.0
 11
188.806976
 21
244.050003
 31
0.0
  0
LINE
  5
3F4
330
1F
100
AcDbEntity
  8
0
 62
     7
100
AcDbLine
 10
285.307007
 20
243.050003
 30
0.0
 11
285.307007
 21
243.550003
 31
0.0
  0
LINE
  5
3F5
330
1F
100
AcDbEntity
  8
0
 62
     7
100
AcDbLine
 10
285.307007
 20
244.050003
 30
0.0
 11
285.307007
 21
243.550003
 31
0.0
  0
LINE
  5
3F6
330
1F
100
AcDbEntity
  8
0
 62
     7
100
AcDbLine
 10
285.307007
 20
245.050003
 30
0.0
 11
285.307007
 21
244.050003
 31
0.0
  0
ARC
  5
3F7
330
1F
100
AcDbEntity
  8
0
 62
     7
100
AcDbCircle
 10
190.806976
 20
241.550003
 30
0.0
 40
2.0
100
AcDbArc
 50
180.000009
 51
360.0
  0
LINE
  5
3F8
330
1F
100
AcDbEntity
  8
0
 62
     7
100
AcDbLine
 10
192.806976
 20
241.550003
 30
0.0
 11
192.806976
 21
243.050003
 31
0.0
  0
LINE
  5
3F9
330
1F
100
AcDbEntity
  8
0
 62
     7
100
AcDbLine
 10
193.306976
 20
243.050003
 30
0.0
 11
192.806976
 21
243.050003
 31
0.0
  0
LINE
  5
3FA
330
1F
100
AcDbEntity
  8
0
 62
     7
100
AcDbLine
 10
267.807007
 20
243.050003
 30
0.0
 11
267.307007
 21
243.050003
 31
0.0
  0
LINE
  5
3FB
330
1F
100
AcDbEntity
  8
0
 62
     7
100
AcDbLine
 10
267.807007
 20
241.550003
 30
0.0
 11
267.807007
 21
243.050003
 31
0.0
  0
ARC
  5
3FC
330
1F
100
AcDbEntity
  8
0
 62
     7
100
AcDbCircle
 10
269.807007
 20
241.550003
 30
0.0
 40
2.0
100
AcDbArc
 50
180.000009
 51
360.0
  0
LINE
  5
3FD
330
1F
100
AcDbEntity
  8
0
 62
     7
100
AcDbLine
 10
271.807007
 20
241.550003
 30
0.0
 11
271.807007
 21
243.050003
 31
0.0
  0
LINE
  5
3FE
330
1F
100
AcDbEntity
  8
0
 62
     7
100
AcDbLine
 10
272.307007
 20
243.050003
 30
0.0
 11
271.807007
 21
243.050003
 31
0.0
  0
LINE
  5
3FF
330
1F
100
AcDbEntity
  8
0
 62
     7
100
AcDbLine
 10
182.856979
 20
219.350006
 30
0.0
 11
182.856979
 21
221.850006
 31
0.0
  0
LINE
  5
400
330
1F
100
AcDbEntity
  8
0
 62
     7
100
AcDbLine
 10
299.756989
 20
219.350006
 30
0.0
 11
299.756989
 21
221.850006
 31
0.0
  0
LINE
  5
401
330
1F
100
AcDbEntity
  8
0
 62
     7
100
AcDbLine
 10
298.756989
 20
219.350006
 30
0.0
 11
299.756989
 21
219.350006
 31
0.0
  0
LINE
  5
402
330
1F
100
AcDbEntity
  8
0
 62
     7
100
AcDbLine
 10
182.856979
 20
219.350006
 30
0.0
 11
183.856979
 21
219.350006
 31
0.0
  0
LINE
  5
403
330
1F
100
AcDbEntity
  8
0
 62
     7
100
AcDbLine
 10
285.307007
 20
244.050003
 30
0.0
 11
188.806976
 21
244.050003
 31
0.0
  0
CIRCLE
  5
404
330
1F
100
AcDbEntity
  8
0
 62
     7
100
AcDbCircle
 10
200.806976
 20
234.650009
 30
0.0
 40
4.0
  0
CIRCLE
  5
405
330
1F
100
AcDbEntity
  8
0
 62
     7
100
AcDbCircle
 10
256.807007
 20
234.650009
 30
0.0
 40
4.0
  0
LINE
  5
406
330
1F
100
AcDbEntity
  8
0
 62
     7
100
AcDbLine
 10
176.70697
 20
243.400009
 30
0.0
 11
176.70697
 21
243.049942
 31
0.0
  0
CIRCLE
  5
407
330
1F
100
AcDbEntity
  8
0
 62
     7
100
AcDbCircle
 10
269.807007
 20
241.550003
 30
0.0
 40
1.475000023841858
  0
CIRCLE
  5
408
330
1F
100
AcDbEntity
  8
0
 62
     7
100
AcDbCircle
 10
190.806976
 20
241.550003
 30
0.0
 40
1.475000023841858
  0
LINE
  5
409
330
1F
100
AcDbEntity
  8
0
 62
     7
100
AcDbLine
 10
176.106979
 20
243.400009
 30
0.0
 11
176.106979
 21
243.343246
 31
0.0
  0
LINE
  5
40A
330
1F
100
AcDbEntity
  8
0
 62
     7
100
AcDbLine
 10
175.106979
 20
243.343246
 30
0.0
 11
176.106979
 21
243.343246
 31
0.0
  0
LINE
  5
40B
330
1F
100
AcDbEntity
  8
0
 62
     7
100
AcDbLine
 10
175.106979
 20
243.343246
 30
0.0
 11
175.106979
 21
243.009216
 31
0.0
  0
LINE
  5
40C
330
1F
100
AcDbEntity
  8
0
 62
     7
100
AcDbLine
 10
176.70697
 20
243.400009
 30
0.0
 11
176.106979
 21
243.400009
 31
0.0
  0
LINE
  5
40D
330
1F
100
AcDbEntity
  8
0
 62
     7
100
AcDbLine
 10
175.106979
 20
243.343246
 30
0.0
 11
176.106979
 21
243.343246
 31
0.0
  0
CIRCLE
  5
40E
330
1F
100
AcDbEntity
  8
0
 62
     7
100
AcDbCircle
 10
200.806976
 20
234.650009
 30
0.0
 40
2.549999952316284
  0
CIRCLE
  5
40F
330
1F
100
AcDbEntity
  8
0
 62
     7
100
AcDbCircle
 10
256.807007
 20
234.650009
 30
0.0
 40
2.549999952316284
  0
LINE
  5
410
330
1F
100
AcDbEntity
  8
0
 62
     7
100
AcDbLine
 10
174.906982
 20
243.139999
 30
0.0
 11
175.106979
 21
243.343246
 31
0.0
  0
LINE
  5
411
330
1F
100
AcDbEntity
  8
0
 62
     7
100
AcDbLine
 10
174.906982
 20
243.139999
 30
0.0
 11
174.906982
 21
242.849884
 31
0.0
  0
LINE
  5
412
330
1F
100
AcDbEntity
  8
0
 62
     7
100
AcDbLine
 10
269.606995
 20
242.650009
 30
0.0
 11
270.006989
 21
242.650009
 31
0.0
  0
LINE
  5
413
330
1F
100
AcDbEntity
  8
0
 62
     7
100
AcDbLine
 10
269.606995
 20
242.650009
 30
0.0
 11
269.606995
 21
242.000015
 31
0.0
  0
ARC
  5
414
330
1F
100
AcDbEntity
  8
0
 62
     7
100
AcDbCircle
 10
269.356995
 20
242.000015
 30
0.0
 40
0.25
100
AcDbArc
 50
269.999997
 51
360.0
  0
LINE
  5
415
330
1F
100
AcDbEntity
  8
0
 62
     7
100
AcDbLine
 10
269.356995
 20
241.750015
 30
0.0
 11
268.707001
 21
241.750015
 31
0.0
  0
LINE
  5
416
330
1F
100
AcDbEntity
  8
0
 62
     7
100
AcDbLine
 10
268.707001
 20
241.750015
 30
0.0
 11
268.707001
 21
241.350006
 31
0.0
  0
LINE
  5
417
330
1F
100
AcDbEntity
  8
0
 62
     7
100
AcDbLine
 10
269.356995
 20
241.350006
 30
0.0
 11
268.707001
 21
241.350006
 31
0.0
  0
ARC
  5
418
330
1F
100
AcDbEntity
  8
0
 62
     7
100
AcDbCircle
 10
269.356995
 20
241.100006
 30
0.0
 40
0.25
100
AcDbArc
 50
0.0
 51
90.000003
  0
LINE
  5
419
330
1F
100
AcDbEntity
  8
0
 62
     7
100
AcDbLine
 10
269.606995
 20
240.449997
 30
0.0
 11
269.606995
 21
241.100006
 31
0.0
  0
LINE
  5
41A
330
1F
100
AcDbEntity
  8
0
 62
     7
100
AcDbLine
 10
269.606995
 20
240.449997
 30
0.0
 11
270.006989
 21
240.449997
 31
0.0
  0
LINE
  5
41B
330
1F
100
AcDbEntity
  8
0
 62
     7
100
AcDbLine
 10
270.006989
 20
240.449997
 30
0.0
 11
270.006989
 21
241.100006
 31
0.0
  0
ARC
  5
41C
330
1F
100
AcDbEntity
  8
0
 62
     7
100
AcDbCircle
 10
270.256989
 20
241.100006
 30
0.0
 40
0.25
100
AcDbArc
 50
90.000003
 51
180.000009
  0
LINE
  5
41D
330
1F
100
AcDbEntity
  8
0
 62
     7
100
AcDbLine
 10
270.256989
 20
241.350006
 30
0.0
 11
270.907013
 21
241.350006
 31
0.0
  0
LINE
  5
41E
330
1F
100
AcDbEntity
  8
0
 62
     7
100
AcDbLine
 10
270.907013
 20
241.750015
 30
0.0
 11
270.907013
 21
241.350006
 31
0.0
  0
LINE
  5
41F
330
1F
100
AcDbEntity
  8
0
 62
     7
100
AcDbLine
 10
270.256989
 20
241.750015
 30
0.0
 11
270.907013
 21
241.750015
 31
0.0
  0
ARC
  5
420
330
1F
100
AcDbEntity
  8
0
 62
     7
100
AcDbCircle
 10
270.256989
 20
242.000015
 30
0.0
 40
0.25
100
AcDbArc
 50
180.000009
 51
269.999997
  0
LINE
  5
421
330
1F
100
AcDbEntity
  8
0
 62
     7
100
AcDbLine
 10
270.006989
 20
242.650009
 30
0.0
 11
270.006989
 21
242.000015
 31
0.0
  0
LINE
  5
422
330
1F
100
AcDbEntity
  8
0
 62
     7
100
AcDbLine
 10
190.606979
 20
242.650009
 30
0.0
 11
191.006973
 21
242.650009
 31
0.0
  0
LINE
  5
423
330
1F
100
AcDbEntity
  8
0
 62
     7
100
AcDbLine
 10
190.606979
 20
242.650009
 30
0.0
 11
190.606979
 21
242.000015
 31
0.0
  0
ARC
  5
424
330
1F
100
AcDbEntity
  8
0
 62
     7
100
AcDbCircle
 10
190.356979
 20
242.000015
 30
0.0
 40
0.25
100
AcDbArc
 50
269.999997
 51
360.0
  0
LINE
  5
425
330
1F
100
AcDbEntity
  8
0
 62
     7
100
AcDbLine
 10
190.356979
 20
241.750015
 30
0.0
 11
189.70697
 21
241.750015
 31
0.0
  0
LINE
  5
426
330
1F
100
AcDbEntity
  8
0
 62
     7
100
AcDbLine
 10
189.70697
 20
241.750015
 30
0.0
 11
189.70697
 21
241.350006
 31
0.0
  0
LINE
  5
427
330
1F
100
AcDbEntity
  8
0
 62
     7
100
AcDbLine
 10
190.356979
 20
241.350006
 30
0.0
 11
189.70697
 21
241.350006
 31
0.0
  0
ARC
  5
428
330
1F
100
AcDbEntity
  8
0
 62
     7
100
AcDbCircle
 10
190.356979
 20
241.100006
 30
0.0
 40
0.25
100
AcDbArc
 50
0.0
 51
90.000003
  0
LINE
  5
429
330
1F
100
AcDbEntity
  8
0
 62
     7
100
AcDbLine
 10
190.606979
 20
240.449997
 30
0.0
 11
190.606979
 21
241.100006
 31
0.0
  0
LINE
  5
42A
330
1F
100
AcDbEntity
  8
0
 62
     7
100
AcDbLine
 10
190.606979
 20
240.449997
 30
0.0
 11
191.006973
 21
240.449997
 31
0.0
  0
LINE
  5
42B
330
1F
100
AcDbEntity
  8
0
 62
     7
100
AcDbLine
 10
191.006973
 20
240.449997
 30
0.0
 11
191.006973
 21
241.100006
 31
0.0
  0
ARC
  5
42C
330
1F
100
AcDbEntity
  8
0
 62
     7
100
AcDbCircle
 10
191.256973
 20
241.100006
 30
0.0
 40
0.25
100
AcDbArc
 50
90.000003
 51
180.000009
  0
LINE
  5
42D
330
1F
100
AcDbEntity
  8
0
 62
     7
100
AcDbLine
 10
191.256973
 20
241.350006
 30
0.0
 11
191.906982
 21
241.350006
 31
0.0
  0
LINE
  5
42E
330
1F
100
AcDbEntity
  8
0
 62
     7
100
AcDbLine
 10
191.906982
 20
241.750015
 30
0.0
 11
191.906982
 21
241.350006
 31
0.0
  0
LINE
  5
42F
330
1F
100
AcDbEntity
  8
0
 62
     7
100
AcDbLine
 10
191.256973
 20
241.750015
 30
0.0
 11
191.906982
 21
241.750015
 31
0.0
  0
ARC
  5
430
330
1F
100
AcDbEntity
  8
0
 62
     7
100
AcDbCircle
 10
191.256973
 20
242.000015
 30
0.0
 40
0.25
100
AcDbArc
 50
180.000009
 51
269.999997
  0
LINE
  5
431
330
1F
100
AcDbEntity
  8
0
 62
     7
100
AcDbLine
 10
191.006973
 20
242.650009
 30
0.0
 11
191.006973
 21
242.000015
 31
0.0
  0
LINE
  5
432
330
1F
100
AcDbEntity
  8
0
 62
     7
100
AcDbLine
 10
66.806992
 20
143.150009
 30
0.0
 11
63.40699
 21
143.150009
 31
0.0
  0
LINE
  5
433
330
1F
100
AcDbEntity
  8
0
 62
     7
100
AcDbLine
 10
70.206993
 20
143.150009
 30
0.0
 11
66.806992
 21
143.150009
 31
0.0
  0
LINE
  5
434
330
1F
100
AcDbEntity
  8
0
 62
     7
100
AcDbLine
 10
145.20697
 20
224.750031
 30
0.0
 11
145.20697
 21
224.600006
 31
0.0
  0
LINE
  5
435
330
1F
100
AcDbEntity
  8
0
 62
     7
100
AcDbLine
 10
143.006973
 20
224.750031
 30
0.0
 11
143.006973
 21
224.600006
 31
0.0
  0
LINE
  5
436
330
1F
100
AcDbEntity
  8
0
 62
     7
100
AcDbLine
 10
140.806976
 20
224.743027
 30
0.0
 11
140.806976
 21
224.600006
 31
0.0
  0
LINE
  5
437
330
1F
100
AcDbEntity
  8
0
 62
     7
100
AcDbLine
 10
146.20697
 20
223.437515
 30
0.0
 11
146.20697
 21
227.150009
 31
0.0
  0
LINE
  5
438
330
1F
100
AcDbEntity
  8
0
 62
     7
100
AcDbLine
 10
145.20697
 20
227.150009
 30
0.0
 11
146.20697
 21
227.150009
 31
0.0
  0
LINE
  5
439
330
1F
100
AcDbEntity
  8
0
 62
     7
100
AcDbLine
 10
145.20697
 20
227.150009
 30
0.0
 11
145.20697
 21
223.500015
 31
0.0
  0
LINE
  5
43A
330
1F
100
AcDbEntity
  8
0
 62
     7
100
AcDbLine
 10
144.006973
 20
223.574997
 30
0.0
 11
144.006973
 21
227.150009
 31
0.0
  0
LINE
  5
43B
330
1F
100
AcDbEntity
  8
0
 62
     7
100
AcDbLine
 10
143.006973
 20
227.150009
 30
0.0
 11
144.006973
 21
227.150009
 31
0.0
  0
LINE
  5
43C
330
1F
100
AcDbEntity
  8
0
 62
     7
100
AcDbLine
 10
143.006973
 20
227.150009
 30
0.0
 11
143.006973
 21
223.637497
 31
0.0
  0
LINE
  5
43D
330
1F
100
AcDbEntity
  8
0
 62
     7
100
AcDbLine
 10
141.806976
 20
223.712509
 30
0.0
 11
141.806976
 21
227.150009
 31
0.0
  0
LINE
  5
43E
330
1F
100
AcDbEntity
  8
0
 62
     7
100
AcDbLine
 10
140.806976
 20
227.150009
 30
0.0
 11
141.806976
 21
227.150009
 31
0.0
  0
LINE
  5
43F
330
1F
100
AcDbEntity
  8
0
 62
     7
100
AcDbLine
 10
140.806976
 20
227.150009
 30
0.0
 11
140.806976
 21
223.775009
 31
0.0
  0
LINE
  5
440
330
1F
100
AcDbEntity
  8
0
 62
     7
100
AcDbLine
 10
138.806976
 20
223.900009
 30
0.0
 11
138.806976
 21
231.87973
 31
0.0
  0
LINE
  5
441
330
1F
100
AcDbEntity
  8
0
 62
     7
100
AcDbLine
 10
138.806976
 20
231.87973
 30
0.0
 11
138.806976
 21
232.400009
 31
0.0
  0
LINE
  5
442
330
1F
100
AcDbEntity
  8
0
 62
     7
100
AcDbLine
 10
140.806976
 20
231.989426
 30
0.0
 11
140.806976
 21
229.150009
 31
0.0
  0
LINE
  5
443
330
1F
100
AcDbEntity
  8
0
 62
     7
100
AcDbLine
 10
140.806976
 20
232.525009
 30
0.0
 11
140.806976
 21
231.989426
 31
0.0
  0
LINE
  5
444
330
1F
100
AcDbEntity
  8
0
 62
     7
100
AcDbLine
 10
140.806976
 20
229.150009
 30
0.0
 11
141.806976
 21
229.150009
 31
0.0
  0
LINE
  5
445
330
1F
100
AcDbEntity
  8
0
 62
     7
100
AcDbLine
 10
141.806976
 20
232.044281
 30
0.0
 11
141.806976
 21
232.587509
 31
0.0
  0
LINE
  5
446
330
1F
100
AcDbEntity
  8
0
 62
     7
100
AcDbLine
 10
141.806976
 20
229.150009
 30
0.0
 11
141.806976
 21
232.044281
 31
0.0
  0
LINE
  5
447
330
1F
100
AcDbEntity
  8
0
 62
     7
100
AcDbLine
 10
143.006973
 20
232.110092
 30
0.0
 11
143.006973
 21
229.150009
 31
0.0
  0
LINE
  5
448
330
1F
100
AcDbEntity
  8
0
 62
     7
100
AcDbLine
 10
143.006973
 20
232.662506
 30
0.0
 11
143.006973
 21
232.110092
 31
0.0
  0
LINE
  5
449
330
1F
100
AcDbEntity
  8
0
 62
     7
100
AcDbLine
 10
143.006973
 20
229.150009
 30
0.0
 11
144.006973
 21
229.150009
 31
0.0
  0
LINE
  5
44A
330
1F
100
AcDbEntity
  8
0
 62
     7
100
AcDbLine
 10
144.006973
 20
232.164948
 30
0.0
 11
144.006973
 21
232.725006
 31
0.0
  0
LINE
  5
44B
330
1F
100
AcDbEntity
  8
0
 62
     7
100
AcDbLine
 10
144.006973
 20
229.150009
 30
0.0
 11
144.006973
 21
232.164948
 31
0.0
  0
LINE
  5
44C
330
1F
100
AcDbEntity
  8
0
 62
     7
100
AcDbLine
 10
145.20697
 20
232.230759
 30
0.0
 11
145.20697
 21
229.150009
 31
0.0
  0
LINE
  5
44D
330
1F
100
AcDbEntity
  8
0
 62
     7
100
AcDbLine
 10
145.20697
 20
232.800003
 30
0.0
 11
145.20697
 21
232.230759
 31
0.0
  0
LINE
  5
44E
330
1F
100
AcDbEntity
  8
0
 62
     7
100
AcDbLine
 10
145.20697
 20
229.150009
 30
0.0
 11
146.20697
 21
229.150009
 31
0.0
  0
LINE
  5
44F
330
1F
100
AcDbEntity
  8
0
 62
     7
100
AcDbLine
 10
146.20697
 20
232.285614
 30
0.0
 11
146.20697
 21
232.862503
 31
0.0
  0
LINE
  5
450
330
1F
100
AcDbEntity
  8
0
 62
     7
100
AcDbLine
 10
146.20697
 20
229.150009
 30
0.0
 11
146.20697
 21
232.285614
 31
0.0
  0
LINE
  5
451
330
1F
100
AcDbEntity
  8
0
 62
     7
100
AcDbLine
 10
150.806976
 20
232.537918
 30
0.0
 11
150.806976
 21
233.150009
 31
0.0
  0
LINE
  5
452
330
1F
100
AcDbEntity
  8
0
 62
     7
100
AcDbLine
 10
150.806976
 20
223.150009
 30
0.0
 11
150.806976
 21
232.537918
 31
0.0
  0
LINE
  5
453
330
1F
100
AcDbEntity
  8
0
 62
     7
100
AcDbLine
 10
151.806976
 20
232.801193
 30
0.0
 11
151.806976
 21
233.449997
 31
0.0
  0
LINE
  5
454
330
1F
100
AcDbEntity
  8
0
 62
     7
100
AcDbLine
 10
151.806976
 20
222.850006
 30
0.0
 11
151.806976
 21
232.801193
 31
0.0
  0
LINE
  5
455
330
1F
100
AcDbEntity
  8
0
 62
     7
100
AcDbLine
 10
156.806976
 20
222.250015
 30
0.0
 11
156.806976
 21
225.321396
 31
0.0
  0
LINE
  5
456
330
1F
100
AcDbEntity
  8
0
 62
     7
100
AcDbLine
 10
156.806976
 20
225.321396
 30
0.0
 11
156.806976
 21
234.050003
 31
0.0
  0
LINE
  5
457
330
1F
100
AcDbEntity
  8
0
 62
     7
100
AcDbLine
 10
157.038147
 20
221.850006
 30
0.0
 11
157.038147
 21
221.993393
 31
0.0
  0
ARC
  5
458
330
1F
100
AcDbEntity
  8
0
 62
     7
100
AcDbCircle
 10
159.552567
 20
222.953857
 30
0.0
 40
2.691781044006348
100
AcDbArc
 50
159.093943
 51
200.906016
  0
LINE
  5
459
330
1F
100
AcDbEntity
  8
0
 62
     7
100
AcDbLine
 10
157.038147
 20
225.129623
 30
0.0
 11
157.038147
 21
223.914322
 31
0.0
  0
LINE
  5
45A
330
1F
100
AcDbEntity
  8
0
 62
     7
100
AcDbLine
 10
157.038147
 20
225.129623
 30
0.0
 11
157.038147
 21
226.22908
 31
0.0
  0
ARC
  5
45B
330
1F
100
AcDbEntity
  8
0
 62
     7
100
AcDbCircle
 10
167.364471
 20
228.150009
 30
0.0
 40
10.50419235229492
100
AcDbArc
 50
169.462089
 51
190.537884
  0
LINE
  5
45C
330
1F
100
AcDbEntity
  8
0
 62
     7
100
AcDbLine
 10
157.038147
 20
230.070938
 30
0.0
 11
157.038147
 21
232.385696
 31
0.0
  0
ARC
  5
45D
330
1F
100
AcDbEntity
  8
0
 62
     7
100
AcDbCircle
 10
159.552567
 20
233.346161
 30
0.0
 40
2.691781044006348
100
AcDbArc
 50
159.093943
 51
200.906016
  0
LINE
  5
45E
330
1F
100
AcDbEntity
  8
0
 62
     7
100
AcDbLine
 10
157.038147
 20
234.306625
 30
0.0
 11
157.038147
 21
234.449997
 31
0.0
  0
LINE
  5
45F
330
1F
100
AcDbEntity
  8
0
 62
     7
100
AcDbLine
 10
163.806976
 20
221.850006
 30
0.0
 11
163.806976
 21
221.993393
 31
0.0
  0
LINE
  5
460
330
1F
100
AcDbEntity
  8
0
 62
     7
100
AcDbLine
 10
157.038147
 20
221.993393
 30
0.0
 11
163.806976
 21
221.993393
 31
0.0
  0
LINE
  5
461
330
1F
100
AcDbEntity
  8
0
 62
     7
100
AcDbLine
 10
157.038147
 20
223.914322
 30
0.0
 11
163.806976
 21
223.914322
 31
0.0
  0
LINE
  5
462
330
1F
100
AcDbEntity
  8
0
 62
     7
100
AcDbLine
 10
163.806976
 20
223.914322
 30
0.0
 11
163.806976
 21
226.22908
 31
0.0
  0
LINE
  5
463
330
1F
100
AcDbEntity
  8
0
 62
     7
100
AcDbLine
 10
157.038147
 20
226.22908
 30
0.0
 11
163.806976
 21
226.22908
 31
0.0
  0
LINE
  5
464
330
1F
100
AcDbEntity
  8
0
 62
     7
100
AcDbLine
 10
157.038147
 20
230.070938
 30
0.0
 11
163.806976
 21
230.070938
 31
0.0
  0
LINE
  5
465
330
1F
100
AcDbEntity
  8
0
 62
     7
100
AcDbLine
 10
163.806976
 20
230.070938
 30
0.0
 11
163.806976
 21
232.385696
 31
0.0
  0
LINE
  5
466
330
1F
100
AcDbEntity
  8
0
 62
     7
100
AcDbLine
 10
157.038147
 20
232.385696
 30
0.0
 11
163.806976
 21
232.385696
 31
0.0
  0
LINE
  5
467
330
1F
100
AcDbEntity
  8
0
 62
     7
100
AcDbLine
 10
157.038147
 20
234.306625
 30
0.0
 11
163.806976
 21
234.306625
 31
0.0
  0
LINE
  5
468
330
1F
100
AcDbEntity
  8
0
 62
     7
100
AcDbLine
 10
163.806976
 20
234.306625
 30
0.0
 11
163.806976
 21
234.449997
 31
0.0
  0
ARC
  5
469
330
1F
100
AcDbEntity
  8
0
 62
     7
100
AcDbCircle
 10
212.117722
 20
265.40387
 30
0.0
 40
64.901611328125
100
AcDbArc
 50
221.89505
 51
222.55191
  0
LINE
  5
46A
330
1F
100
AcDbEntity
  8
0
 62
     7
100
AcDbLine
 10
163.806976
 20
222.064682
 30
0.0
 11
163.806976
 21
221.993393
 31
0.0
  0
LINE
  5
46B
330
1F
100
AcDbEntity
  8
0
 62
     7
100
AcDbLine
 10
164.306976
 20
221.350006
 30
0.0
 11
164.306976
 21
221.513672
 31
0.0
  0
LINE
  5
46C
330
1F
100
AcDbEntity
  8
0
 62
     7
100
AcDbLine
 10
163.806976
 20
223.695236
 30
0.0
 11
163.806976
 21
222.064682
 31
0.0
  0
LINE
  5
46D
330
1F
100
AcDbEntity
  8
0
 62
     7
100
AcDbLine
 10
163.806976
 20
223.914322
 30
0.0
 11
163.806976
 21
223.695236
 31
0.0
  0
LINE
  5
46E
330
1F
100
AcDbEntity
  8
0
 62
     7
100
AcDbLine
 10
163.806976
 20
226.519455
 30
0.0
 11
163.806976
 21
226.22908
 31
0.0
  0
LINE
  5
46F
330
1F
100
AcDbEntity
  8
0
 62
     7
100
AcDbLine
 10
163.806976
 20
223.695236
 30
0.0
 11
164.306976
 21
223.547592
 31
0.0
  0
LINE
  5
470
330
1F
100
AcDbEntity
  8
0
 62
     7
100
AcDbLine
 10
164.306976
 20
223.547592
 30
0.0
 11
164.306976
 21
226.116089
 31
0.0
  0
LINE
  5
471
330
1F
100
AcDbEntity
  8
0
 62
     7
100
AcDbLine
 10
163.806976
 20
226.519455
 30
0.0
 11
164.306976
 21
226.116089
 31
0.0
  0
LINE
  5
472
330
1F
100
AcDbEntity
  8
0
 62
     7
100
AcDbLine
 10
163.806976
 20
229.780563
 30
0.0
 11
163.806976
 21
226.519455
 31
0.0
  0
LINE
  5
473
330
1F
100
AcDbEntity
  8
0
 62
     7
100
AcDbLine
 10
163.806976
 20
229.780563
 30
0.0
 11
163.806976
 21
230.070938
 31
0.0
  0
LINE
  5
474
330
1F
100
AcDbEntity
  8
0
 62
     7
100
AcDbLine
 10
164.306976
 20
230.183929
 30
0.0
 11
164.306976
 21
232.752426
 31
0.0
  0
LINE
  5
475
330
1F
100
AcDbEntity
  8
0
 62
     7
100
AcDbLine
 10
163.806976
 20
232.604782
 30
0.0
 11
164.306976
 21
232.752426
 31
0.0
  0
LINE
  5
476
330
1F
100
AcDbEntity
  8
0
 62
     7
100
AcDbLine
 10
163.806976
 20
232.385696
 30
0.0
 11
163.806976
 21
232.604782
 31
0.0
  0
LINE
  5
477
330
1F
100
AcDbEntity
  8
0
 62
     7
100
AcDbLine
 10
163.806976
 20
229.780563
 30
0.0
 11
164.306976
 21
230.183929
 31
0.0
  0
LINE
  5
478
330
1F
100
AcDbEntity
  8
0
 62
     7
100
AcDbLine
 10
163.806976
 20
234.235336
 30
0.0
 11
163.806976
 21
232.604782
 31
0.0
  0
LINE
  5
479
330
1F
100
AcDbEntity
  8
0
 62
     7
100
AcDbLine
 10
163.806976
 20
234.306625
 30
0.0
 11
163.806976
 21
234.235336
 31
0.0
  0
ARC
  5
47A
330
1F
100
AcDbEntity
  8
0
 62
     7
100
AcDbCircle
 10
212.117722
 20
190.896103
 30
0.0
 40
64.901611328125
100
AcDbArc
 50
137.44809
 51
138.10495
  0
LINE
  5
47B
330
1F
100
AcDbEntity
  8
0
 62
     7
100
AcDbLine
 10
164.306976
 20
234.786346
 30
0.0
 11
164.306976
 21
234.949997
 31
0.0
  0
LINE
  5
47C
330
1F
100
AcDbEntity
  8
0
 62
     7
100
AcDbLine
 10
173.806976
 20
234.235336
 30
0.0
 11
173.806976
 21
234.449997
 31
0.0
  0
LINE
  5
47D
330
1F
100
AcDbEntity
  8
0
 62
     7
100
AcDbLine
 10
163.806976
 20
229.780563
 30
0.0
 11
173.806976
 21
229.780563
 31
0.0
  0
LINE
  5
47E
330
1F
100
AcDbEntity
  8
0
 62
     7
100
AcDbLine
 10
163.806976
 20
226.519455
 30
0.0
 11
173.806976
 21
226.519455
 31
0.0
  0
LINE
  5
47F
330
1F
100
AcDbEntity
  8
0
 62
     7
100
AcDbLine
 10
173.806976
 20
223.695236
 30
0.0
 11
173.806976
 21
226.519455
 31
0.0
  0
LINE
  5
480
330
1F
100
AcDbEntity
  8
0
 62
     7
100
AcDbLine
 10
163.806976
 20
222.064682
 30
0.0
 11
173.806976
 21
222.064682
 31
0.0
  0
LINE
  5
481
330
1F
100
AcDbEntity
  8
0
 62
     7
100
AcDbLine
 10
173.806976
 20
221.850006
 30
0.0
 11
173.806976
 21
222.064682
 31
0.0
  0
LINE
  5
482
330
1F
100
AcDbEntity
  8
0
 62
     7
100
AcDbLine
 10
164.306976
 20
221.513672
 30
0.0
 11
173.306976
 21
221.513672
 31
0.0
  0
ARC
  5
483
330
1F
100
AcDbEntity
  8
0
 62
     7
100
AcDbCircle
 10
125.496231
 20
265.40387
 30
0.0
 40
64.901611328125
100
AcDbArc
 50
317.448096
 51
318.104941
  0
LINE
  5
484
330
1F
100
AcDbEntity
  8
0
 62
     7
100
AcDbLine
 10
173.306976
 20
221.350006
 30
0.0
 11
173.306976
 21
221.513672
 31
0.0
  0
LINE
  5
485
330
1F
100
AcDbEntity
  8
0
 62
     7
100
AcDbLine
 10
173.806976
 20
223.695236
 30
0.0
 11
173.306976
 21
223.547592
 31
0.0
  0
LINE
  5
486
330
1F
100
AcDbEntity
  8
0
 62
     7
100
AcDbLine
 10
164.306976
 20
223.547592
 30
0.0
 11
173.306976
 21
223.547592
 31
0.0
  0
LINE
  5
487
330
1F
100
AcDbEntity
  8
0
 62
     7
100
AcDbLine
 10
173.306976
 20
223.547592
 30
0.0
 11
173.306976
 21
226.116089
 31
0.0
  0
LINE
  5
488
330
1F
100
AcDbEntity
  8
0
 62
     7
100
AcDbLine
 10
164.306976
 20
226.116089
 30
0.0
 11
173.306976
 21
226.116089
 31
0.0
  0
LINE
  5
489
330
1F
100
AcDbEntity
  8
0
 62
     7
100
AcDbLine
 10
173.806976
 20
226.519455
 30
0.0
 11
173.306976
 21
226.116089
 31
0.0
  0
LINE
  5
48A
330
1F
100
AcDbEntity
  8
0
 62
     7
100
AcDbLine
 10
173.306976
 20
230.183929
 30
0.0
 11
173.306976
 21
232.752426
 31
0.0
  0
LINE
  5
48B
330
1F
100
AcDbEntity
  8
0
 62
     7
100
AcDbLine
 10
164.306976
 20
232.752426
 30
0.0
 11
173.306976
 21
232.752426
 31
0.0
  0
LINE
  5
48C
330
1F
100
AcDbEntity
  8
0
 62
     7
100
AcDbLine
 10
164.306976
 20
230.183929
 30
0.0
 11
173.306976
 21
230.183929
 31
0.0
  0
LINE
  5
48D
330
1F
100
AcDbEntity
  8
0
 62
     7
100
AcDbLine
 10
173.806976
 20
232.604782
 30
0.0
 11
173.306976
 21
232.752426
 31
0.0
  0
LINE
  5
48E
330
1F
100
AcDbEntity
  8
0
 62
     7
100
AcDbLine
 10
173.806976
 20
229.780563
 30
0.0
 11
173.306976
 21
230.183929
 31
0.0
  0
LINE
  5
48F
330
1F
100
AcDbEntity
  8
0
 62
     7
100
AcDbLine
 10
163.806976
 20
234.235336
 30
0.0
 11
173.806976
 21
234.235336
 31
0.0
  0
ARC
  5
490
330
1F
100
AcDbEntity
  8
0
 62
     7
100
AcDbCircle
 10
125.496231
 20
190.896103
 30
0.0
 40
64.901611328125
100
AcDbArc
 50
41.895052
 51
42.551911
  0
LINE
  5
491
330
1F
100
AcDbEntity
  8
0
 62
     7
100
AcDbLine
 10
164.306976
 20
234.786346
 30
0.0
 11
173.306976
 21
234.786346
 31
0.0
  0
LINE
  5
492
330
1F
100
AcDbEntity
  8
0
 62
     7
100
AcDbLine
 10
173.306976
 20
234.786346
 30
0.0
 11
173.306976
 21
234.949997
 31
0.0
  0
LINE
  5
493
330
1F
100
AcDbEntity
  8
0
 62
     7
100
AcDbLine
 10
173.806976
 20
229.780563
 30
0.0
 11
173.806976
 21
232.604782
 31
0.0
  0
LINE
  5
494
330
1F
100
AcDbEntity
  8
0
 62
     7
100
AcDbLine
 10
305.606995
 20
243.150009
 30
0.0
 11
305.907013
 21
243.150009
 31
0.0
  0
LINE
  5
495
330
1F
100
AcDbEntity
  8
0
 62
     7
100
AcDbLine
 10
198.443573
 20
222.250015
 30
0.0
 11
198.530182
 21
222.100006
 31
0.0
  0
LINE
  5
496
330
1F
100
AcDbEntity
  8
0
 62
     7
100
AcDbLine
 10
195.17038
 20
222.250015
 30
0.0
 11
195.083771
 21
222.100006
 31
0.0
  0
LINE
  5
497
330
1F
100
AcDbEntity
  8
0
 62
     7
100
AcDbLine
 10
284.17041
 20
222.250015
 30
0.0
 11
284.083801
 21
222.100006
 31
0.0
  0
LINE
  5
498
330
1F
100
AcDbEntity
  8
0
 62
     7
100
AcDbLine
 10
287.443604
 20
222.250015
 30
0.0
 11
287.530212
 21
222.100006
 31
0.0
  0
LINE
  5
499
330
1F
100
AcDbEntity
  8
0
 62
     7
100
AcDbLine
 10
287.255768
 20
242.575623
 30
0.0
 11
287.281372
 21
242.601242
 31
0.0
  0
POLYLINE
  5
49A
330
1F
100
AcDbEntity
  8
0
 62
     7
100
AcDb2dPolyline
 66
     1
 10
0.0
 20
0.0
 30
0.0
  0
VERTEX
  5
49B
330
49A
100
AcDbEntity
  8
0
100
AcDbVertex
100
AcDb2dVertex
 10
272.493835
 20
242.582932
 30
0.0
  0
VERTEX
  5
49C
330
49A
100
AcDbEntity
  8
0
100
AcDbVertex
100
AcDb2dVertex
 10
272.49704
 20
242.573135
 30
0.0
  0
VERTEX
  5
49D
330
49A
100
AcDbEntity
  8
0
100
AcDbVertex
100
AcDb2dVertex
 10
272.50415
 20
242.556992
 30
0.0
  0
VERTEX
  5
49E
330
49A
100
AcDbEntity
  8
0
100
AcDbVertex
100
AcDb2dVertex
 10
272.507446
 20
242.550522
 30
0.0
  0
VERTEX
  5
49F
330
49A
100
AcDbEntity
  8
0
100
AcDbVertex
100
AcDb2dVertex
 10
272.508087
 20
242.549057
 30
0.0
  0
VERTEX
  5
4A0
330
49A
100
AcDbEntity
  8
0
100
AcDbVertex
100
AcDb2dVertex
 10
272.490936
 20
242.570541
 30
0.0
  0
VERTEX
  5
4A1
330
49A
100
AcDbEntity
  8
0
100
AcDbVertex
100
AcDb2dVertex
 10
272.487427
 20
242.575699
 30
0.0
  0
VERTEX
  5
4A2
330
49A
100
AcDbEntity
  8
0
100
AcDbVertex
100
AcDb2dVertex
 10
272.489258
 20
242.574448
 30
0.0
  0
VERTEX
  5
4A3
330
49A
100
AcDbEntity
  8
0
100
AcDbVertex
100
AcDb2dVertex
 10
272.497986
 20
242.564194
 30
0.0
  0
VERTEX
  5
4A4
330
49A
100
AcDbEntity
  8
0
100
AcDbVertex
100
AcDb2dVertex
 10
272.506561
 20
242.552368
 30
0.0
  0
VERTEX
  5
4A5
330
49A
100
AcDbEntity
  8
0
100
AcDbVertex
100
AcDb2dVertex
 10
272.507355
 20
242.550735
 30
0.0
  0
VERTEX
  5
4A6
330
49A
100
AcDbEntity
  8
0
100
AcDbVertex
100
AcDb2dVertex
 10
272.507263
 20
242.549545
 30
0.0
  0
VERTEX
  5
4A7
330
49A
100
AcDbEntity
  8
0
100
AcDbVertex
100
AcDb2dVertex
 10
272.506256
 20
242.549667
 30
0.0
  0
VERTEX
  5
4A8
330
49A
100
AcDbEntity
  8
0
100
AcDbVertex
100
AcDb2dVertex
 10
272.504639
 20
242.550446
 30
0.0
  0
VERTEX
  5
4A9
330
49A
100
AcDbEntity
  8
0
100
AcDbVertex
100
AcDb2dVertex
 10
272.492828
 20
242.559006
 30
0.0
  0
VERTEX
  5
4AA
330
49A
100
AcDbEntity
  8
0
100
AcDbVertex
100
AcDb2dVertex
 10
272.482574
 20
242.567764
 30
0.0
  0
VERTEX
  5
4AB
330
49A
100
AcDbEntity
  8
0
100
AcDbVertex
100
AcDb2dVertex
 10
272.480957
 20
242.569382
 30
0.0
  0
VERTEX
  5
4AC
330
49A
100
AcDbEntity
  8
0
100
AcDbVertex
100
AcDb2dVertex
 10
272.48645
 20
242.566055
 30
0.0
  0
VERTEX
  5
4AD
330
49A
100
AcDbEntity
  8
0
100
AcDbVertex
100
AcDb2dVertex
 10
272.507507
 20
242.549728
 30
0.0
  0
VERTEX
  5
4AE
330
49A
100
AcDbEntity
  8
0
100
AcDbVertex
100
AcDb2dVertex
 10
272.508179
 20
242.548935
 30
0.0
  0
VERTEX
  5
4AF
330
49A
100
AcDbEntity
  8
0
100
AcDbVertex
100
AcDb2dVertex
 10
272.5065
 20
242.549576
 30
0.0
  0
VERTEX
  5
4B0
330
49A
100
AcDbEntity
  8
0
100
AcDbVertex
100
AcDb2dVertex
 10
272.5
 20
242.552841
 30
0.0
  0
VERTEX
  5
4B1
330
49A
100
AcDbEntity
  8
0
100
AcDbVertex
100
AcDb2dVertex
 10
272.483856
 20
242.559982
 30
0.0
  0
VERTEX
  5
4B2
330
49A
100
AcDbEntity
  8
0
100
AcDbVertex
100
AcDb2dVertex
 10
272.474091
 20
242.563171
 30
0.0
  0
SEQEND
  5
4B3
330
49A
100
AcDbEntity
  8
0
 62
     7
  0
POLYLINE
  5
4B4
330
1F
100
AcDbEntity
  8
0
 62
     7
100
AcDb2dPolyline
 66
     1
 10
0.0
 20
0.0
 30
0.0
  0
VERTEX
  5
4B5
330
4B4
100
AcDbEntity
  8
0
100
AcDbVertex
100
AcDb2dVertex
 10
193.493805
 20
242.582932
 30
0.0
  0
VERTEX
  5
4B6
330
4B4
100
AcDbEntity
  8
0
100
AcDbVertex
100
AcDb2dVertex
 10
193.497009
 20
242.573135
 30
0.0
  0
VERTEX
  5
4B7
330
4B4
100
AcDbEntity
  8
0
100
AcDbVertex
100
AcDb2dVertex
 10
193.504135
 20
242.556992
 30
0.0
  0
VERTEX
  5
4B8
330
4B4
100
AcDbEntity
  8
0
100
AcDbVertex
100
AcDb2dVertex
 10
193.507416
 20
242.550522
 30
0.0
  0
VERTEX
  5
4B9
330
4B4
100
AcDbEntity
  8
0
100
AcDbVertex
100
AcDb2dVertex
 10
193.508057
 20
242.549057
 30
0.0
  0
VERTEX
  5
4BA
330
4B4
100
AcDbEntity
  8
0
100
AcDbVertex
100
AcDb2dVertex
 10
193.490921
 20
242.570541
 30
0.0
  0
VERTEX
  5
4BB
330
4B4
100
AcDbEntity
  8
0
100
AcDbVertex
100
AcDb2dVertex
 10
193.487396
 20
242.575699
 30
0.0
  0
VERTEX
  5
4BC
330
4B4
100
AcDbEntity
  8
0
100
AcDbVertex
100
AcDb2dVertex
 10
193.489212
 20
242.574448
 30
0.0
  0
VERTEX
  5
4BD
330
4B4
100
AcDbEntity
  8
0
100
AcDbVertex
100
AcDb2dVertex
 10
193.497971
 20
242.564194
 30
0.0
  0
VERTEX
  5
4BE
330
4B4
100
AcDbEntity
  8
0
100
AcDbVertex
100
AcDb2dVertex
 10
193.506531
 20
242.552368
 30
0.0
  0
VERTEX
  5
4BF
330
4B4
100
AcDbEntity
  8
0
100
AcDbVertex
100
AcDb2dVertex
 10
193.507309
 20
242.550735
 30
0.0
  0
VERTEX
  5
4C0
330
4B4
100
AcDbEntity
  8
0
100
AcDbVertex
100
AcDb2dVertex
 10
193.507217
 20
242.549545
 30
0.0
  0
VERTEX
  5
4C1
330
4B4
100
AcDbEntity
  8
0
100
AcDbVertex
100
AcDb2dVertex
 10
193.504608
 20
242.550446
 30
0.0
  0
VERTEX
  5
4C2
330
4B4
100
AcDbEntity
  8
0
100
AcDbVertex
100
AcDb2dVertex
 10
193.492783
 20
242.559006
 30
0.0
  0
VERTEX
  5
4C3
330
4B4
100
AcDbEntity
  8
0
100
AcDbVertex
100
AcDb2dVertex
 10
193.482544
 20
242.567764
 30
0.0
  0
VERTEX
  5
4C4
330
4B4
100
AcDbEntity
  8
0
100
AcDbVertex
100
AcDb2dVertex
 10
193.480911
 20
242.569382
 30
0.0
  0
VERTEX
  5
4C5
330
4B4
100
AcDbEntity
  8
0
100
AcDbVertex
100
AcDb2dVertex
 10
193.486435
 20
242.566055
 30
0.0
  0
VERTEX
  5
4C6
330
4B4
100
AcDbEntity
  8
0
100
AcDbVertex
100
AcDb2dVertex
 10
193.507462
 20
242.549728
 30
0.0
  0
VERTEX
  5
4C7
330
4B4
100
AcDbEntity
  8
0
100
AcDbVertex
100
AcDb2dVertex
 10
193.508148
 20
242.548935
 30
0.0
  0
VERTEX
  5
4C8
330
4B4
100
AcDbEntity
  8
0
100
AcDbVertex
100
AcDb2dVertex
 10
193.506454
 20
242.549576
 30
0.0
  0
VERTEX
  5
4C9
330
4B4
100
AcDbEntity
  8
0
100
AcDbVertex
100
AcDb2dVertex
 10
193.499985
 20
242.552841
 30
0.0
  0
VERTEX
  5
4CA
330
4B4
100
AcDbEntity
  8
0
100
AcDbVertex
100
AcDb2dVertex
 10
193.483841
 20
242.559982
 30
0.0
  0
VERTEX
  5
4CB
330
4B4
100
AcDbEntity
  8
0
100
AcDbVertex
100
AcDb2dVertex
 10
193.47406
 20
242.563171
 30
0.0
  0
SEQEND
  5
4CC
330
4B4
100
AcDbEntity
  8
0
 62
     7
  0
LINE
  5
4CD
330
1F
100
AcDbEntity
  8
0
 62
     7
100
AcDbLine
 10
178.255737
 20
242.575623
 30
0.0
 11
178.281357
 21
242.601242
 31
0.0
  0
LINE
  5
4CE
330
1F
100
AcDbEntity
  8
0
 62
     7
100
AcDbLine
 10
198.530182
 20
221.850006
 30
0.0
 11
198.530182
 21
222.100006
 31
0.0
  0
LINE
  5
4CF
330
1F
100
AcDbEntity
  8
0
 62
     7
100
AcDbLine
 10
195.083771
 20
221.850006
 30
0.0
 11
195.083771
 21
222.100006
 31
0.0
  0
LINE
  5
4D0
330
1F
100
AcDbEntity
  8
0
 62
     7
100
AcDbLine
 10
284.083801
 20
222.100006
 30
0.0
 11
284.083801
 21
221.850006
 31
0.0
  0
LINE
  5
4D1
330
1F
100
AcDbEntity
  8
0
 62
     7
100
AcDbLine
 10
287.530212
 20
222.100006
 30
0.0
 11
287.530212
 21
221.850006
 31
0.0
  0
LINE
  5
4D2
330
1F
100
AcDbEntity
  8
0
 62
     7
100
AcDbLine
 10
176.70697
 20
243.150009
 30
0.0
 11
177.006973
 21
243.150009
 31
0.0
  0
ARC
  5
4D3
330
1F
100
AcDbEntity
  8
0
 62
     7
100
AcDbCircle
 10
141.806976
 20
153.150009
 30
0.0
 40
78.4000015258789
100
AcDbArc
 50
92.192971
 51
179.999991
  0
ARC
  5
4D4
330
1F
100
AcDbEntity
  8
0
 62
     7
100
AcDbCircle
 10
141.807022
 20
153.153839
 30
0.0
 40
78.39616394042969
100
AcDbArc
 50
90.00003
 51
90.730894
  0
ARC
  5
4D5
330
1F
100
AcDbEntity
  8
0
 62
     7
100
AcDbCircle
 10
141.806976
 20
153.150009
 30
0.0
 40
71.5999984741211
100
AcDbArc
 50
92.401354
 51
180.000009
  0
ARC
  5
4D6
330
1F
100
AcDbEntity
  8
0
 62
     7
100
AcDbCircle
 10
141.807022
 20
153.152206
 30
0.0
 40
71.59779357910156
100
AcDbArc
 50
90.000037
 51
90.800303
  0
LINE
  5
4D7
330
1F
100
AcDbEntity
  8
0
 62
     7
100
AcDbLine
 10
143.006973
 20
231.550003
 30
0.0
 11
144.006973
 21
231.550003
 31
0.0
  0
LINE
  5
4D8
330
1F
100
AcDbEntity
  8
0
 62
     7
100
AcDbLine
 10
145.20697
 20
231.550003
 30
0.0
 11
146.20697
 21
231.550003
 31
0.0
  0
LINE
  5
4D9
330
1F
100
AcDbEntity
  8
0
 62
     7
100
AcDbLine
 10
63.40699
 20
143.150009
 30
0.0
 11
63.40699
 21
153.150009
 31
0.0
  0
LINE
  5
4DA
330
1F
100
AcDbEntity
  8
0
 62
     7
100
AcDbLine
 10
143.006973
 20
224.750015
 30
0.0
 11
144.006973
 21
224.750015
 31
0.0
  0
LINE
  5
4DB
330
1F
100
AcDbEntity
  8
0
 62
     7
100
AcDbLine
 10
145.20697
 20
224.750015
 30
0.0
 11
146.20697
 21
224.750015
 31
0.0
  0
LINE
  5
4DC
330
1F
100
AcDbEntity
  8
0
 62
     7
100
AcDbLine
 10
70.206993
 20
143.150009
 30
0.0
 11
70.206993
 21
153.150009
 31
0.0
  0
LINE
  5
4DD
330
1F
100
AcDbEntity
  8
0
 62
     7
100
AcDbLine
 10
138.806976
 20
232.400009
 30
0.0
 11
140.806976
 21
232.525009
 31
0.0
  0
LINE
  5
4DE
330
1F
100
AcDbEntity
  8
0
 62
     7
100
AcDbLine
 10
141.806976
 20
232.587509
 30
0.0
 11
143.006973
 21
232.662506
 31
0.0
  0
LINE
  5
4DF
330
1F
100
AcDbEntity
  8
0
 62
     7
100
AcDbLine
 10
144.006973
 20
232.725006
 30
0.0
 11
145.20697
 21
232.800003
 31
0.0
  0
LINE
  5
4E0
330
1F
100
AcDbEntity
  8
0
 62
     7
100
AcDbLine
 10
146.20697
 20
232.862503
 30
0.0
 11
150.806976
 21
233.150009
 31
0.0
  0
LINE
  5
4E1
330
1F
100
AcDbEntity
  8
0
 62
     7
100
AcDbLine
 10
138.806976
 20
223.900009
 30
0.0
 11
140.806976
 21
223.775009
 31
0.0
  0
LINE
  5
4E2
330
1F
100
AcDbEntity
  8
0
 62
     7
100
AcDbLine
 10
141.806976
 20
223.712509
 30
0.0
 11
143.006973
 21
223.637497
 31
0.0
  0
LINE
  5
4E3
330
1F
100
AcDbEntity
  8
0
 62
     7
100
AcDbLine
 10
144.006973
 20
223.574997
 30
0.0
 11
145.20697
 21
223.500015
 31
0.0
  0
LINE
  5
4E4
330
1F
100
AcDbEntity
  8
0
 62
     7
100
AcDbLine
 10
146.20697
 20
223.437515
 30
0.0
 11
150.806976
 21
223.150009
 31
0.0
  0
LINE
  5
4E5
330
1F
100
AcDbEntity
  8
0
 62
     7
100
AcDbLine
 10
150.806976
 20
233.150009
 30
0.0
 11
151.806976
 21
233.449997
 31
0.0
  0
LINE
  5
4E6
330
1F
100
AcDbEntity
  8
0
 62
     7
100
AcDbLine
 10
150.806976
 20
223.150009
 30
0.0
 11
151.806976
 21
222.850006
 31
0.0
  0
LINE
  5
4E7
330
1F
100
AcDbEntity
  8
0
 62
     7
100
AcDbLine
 10
151.806976
 20
223.150009
 30
0.0
 11
156.806976
 21
223.150009
 31
0.0
  0
LINE
  5
4E8
330
1F
100
AcDbEntity
  8
0
 62
     7
100
AcDbLine
 10
151.806976
 20
233.150009
 30
0.0
 11
156.806976
 21
233.150009
 31
0.0
  0
ARC
  5
4E9
330
1F
100
AcDbEntity
  8
0
 62
     7
100
AcDbCircle
 10
162.113571
 20
225.050003
 30
0.0
 40
6.000001907348633
100
AcDbArc
 50
207.81814
 51
212.230947
  0
ARC
  5
4EA
330
1F
100
AcDbEntity
  8
0
 62
     7
100
AcDbCircle
 10
162.113571
 20
231.250015
 30
0.0
 40
6.000001907348633
100
AcDbArc
 50
147.769053
 51
152.18186
  0
LINE
  5
4EB
330
1F
100
AcDbEntity
  8
0
 62
     7
100
AcDbLine
 10
157.038147
 20
221.850006
 30
0.0
 11
163.806976
 21
221.850006
 31
0.0
  0
LINE
  5
4EC
330
1F
100
AcDbEntity
  8
0
 62
     7
100
AcDbLine
 10
157.038147
 20
234.449997
 30
0.0
 11
163.806976
 21
234.449997
 31
0.0
  0
LINE
  5
4ED
330
1F
100
AcDbEntity
  8
0
 62
     7
100
AcDbLine
 10
163.806976
 20
221.850006
 30
0.0
 11
164.306976
 21
221.350006
 31
0.0
  0
LINE
  5
4EE
330
1F
100
AcDbEntity
  8
0
 62
     7
100
AcDbLine
 10
163.806976
 20
234.449997
 30
0.0
 11
164.306976
 21
234.949997
 31
0.0
  0
LINE
  5
4EF
330
1F
100
AcDbEntity
  8
0
 62
     7
100
AcDbLine
 10
173.806976
 20
221.850006
 30
0.0
 11
174.806976
 21
221.850006
 31
0.0
  0
LINE
  5
4F0
330
1F
100
AcDbEntity
  8
0
 62
     7
100
AcDbLine
 10
173.806976
 20
234.449997
 30
0.0
 11
174.806976
 21
234.449997
 31
0.0
  0
LINE
  5
4F1
330
1F
100
AcDbEntity
  8
0
 62
     7
100
AcDbLine
 10
164.306976
 20
221.350006
 30
0.0
 11
173.306976
 21
221.350006
 31
0.0
  0
LINE
  5
4F2
330
1F
100
AcDbEntity
  8
0
 62
     7
100
AcDbLine
 10
164.306976
 20
234.949997
 30
0.0
 11
173.306976
 21
234.949997
 31
0.0
  0
LINE
  5
4F3
330
1F
100
AcDbEntity
  8
0
 62
     7
100
AcDbLine
 10
173.806976
 20
234.449997
 30
0.0
 11
173.306976
 21
234.949997
 31
0.0
  0
LINE
  5
4F4
330
1F
100
AcDbEntity
  8
0
 62
     7
100
AcDbLine
 10
173.806976
 20
221.850006
 30
0.0
 11
173.306976
 21
221.350006
 31
0.0
  0
LINE
  5
4F5
330
1F
100
AcDbEntity
  8
0
 62
     7
100
AcDbLine
 10
31.293056
 20
245.850006
 30
0.0
 11
31.293056
 21
258.950012
 31
0.0
  0
ARC
  5
4F6
330
1F
100
AcDbEntity
  8
0
 62
     7
100
AcDbCircle
 10
30.493053
 20
245.850006
 30
0.0
 40
0.800000011920929
100
AcDbArc
 50
269.999997
 51
360.0
  0
LINE
  5
4F7
330
1F
100
AcDbEntity
  8
0
 62
     7
100
AcDbLine
 10
31.163765
 20
259.079285
 30
0.0
 11
31.293056
 21
258.950012
 31
0.0
  0
ARC
  5
4F8
330
1F
100
AcDbEntity
  8
0
 62
     7
100
AcDbCircle
 10
29.293056
 20
245.850006
 30
0.0
 40
0.800000011920929
100
AcDbArc
 50
241.044838
 51
269.999997
  0
LINE
  5
4F9
330
1F
100
AcDbEntity
  8
0
 62
     7
100
AcDbLine
 10
30.493053
 20
245.050003
 30
0.0
 11
29.293056
 21
245.050003
 31
0.0
  0
ARC
  5
4FA
330
1F
100
AcDbEntity
  8
0
 62
     7
100
AcDbCircle
 10
31.234478
 20
259.150024
 30
0.0
 40
0.1000000014901161
100
AcDbArc
 50
135.0
 51
225.0
  0
LINE
  5
4FB
330
1F
100
AcDbEntity
  8
0
 62
     7
100
AcDbLine
 10
31.293056
 20
259.349976
 30
0.0
 11
31.163765
 21
259.220703
 31
0.0
  0
LINE
  5
4FC
330
1F
100
AcDbEntity
  8
0
 62
     7
100
AcDbLine
 10
31.293056
 20
259.349976
 30
0.0
 11
31.293056
 21
260.049988
 31
0.0
  0
LINE
  5
4FD
330
1F
100
AcDbEntity
  8
0
 62
     7
100
AcDbLine
 10
31.163765
 20
260.17926
 30
0.0
 11
31.293056
 21
260.049988
 31
0.0
  0
ARC
  5
4FE
330
1F
100
AcDbEntity
  8
0
 62
     7
100
AcDbCircle
 10
31.234478
 20
260.25
 30
0.0
 40
0.1000000014901161
100
AcDbArc
 50
135.0
 51
225.0
  0
LINE
  5
4FF
330
1F
100
AcDbEntity
  8
0
 62
     7
100
AcDbLine
 10
31.293056
 20
260.450012
 30
0.0
 11
31.163765
 21
260.32074
 31
0.0
  0
LINE
  5
500
330
1F
100
AcDbEntity
  8
0
 62
     7
100
AcDbLine
 10
31.293056
 20
260.450012
 30
0.0
 11
31.293056
 21
261.150024
 31
0.0
  0
LINE
  5
501
330
1F
100
AcDbEntity
  8
0
 62
     7
100
AcDbLine
 10
31.163765
 20
261.279297
 30
0.0
 11
31.293056
 21
261.150024
 31
0.0
  0
ARC
  5
502
330
1F
100
AcDbEntity
  8
0
 62
     7
100
AcDbCircle
 10
31.234478
 20
261.349976
 30
0.0
 40
0.1000000014901161
100
AcDbArc
 50
135.0
 51
225.0
  0
LINE
  5
503
330
1F
100
AcDbEntity
  8
0
 62
     7
100
AcDbLine
 10
31.293056
 20
261.549988
 30
0.0
 11
31.163765
 21
261.420715
 31
0.0
  0
LINE
  5
504
330
1F
100
AcDbEntity
  8
0
 62
     7
100
AcDbLine
 10
31.293056
 20
261.549988
 30
0.0
 11
31.293056
 21
262.25
 31
0.0
  0
LINE
  5
505
330
1F
100
AcDbEntity
  8
0
 62
     7
100
AcDbLine
 10
31.163765
 20
262.379272
 30
0.0
 11
31.293056
 21
262.25
 31
0.0
  0
ARC
  5
506
330
1F
100
AcDbEntity
  8
0
 62
     7
100
AcDbCircle
 10
31.234478
 20
262.450012
 30
0.0
 40
0.1000000014901161
100
AcDbArc
 50
135.0
 51
225.0
  0
LINE
  5
507
330
1F
100
AcDbEntity
  8
0
 62
     7
100
AcDbLine
 10
31.293056
 20
262.650024
 30
0.0
 11
31.163765
 21
262.520691
 31
0.0
  0
LINE
  5
508
330
1F
100
AcDbEntity
  8
0
 62
     7
100
AcDbLine
 10
31.293056
 20
262.650024
 30
0.0
 11
31.293056
 21
263.349976
 31
0.0
  0
LINE
  5
509
330
1F
100
AcDbEntity
  8
0
 62
     7
100
AcDbLine
 10
31.163765
 20
263.479309
 30
0.0
 11
31.293056
 21
263.349976
 31
0.0
  0
ARC
  5
50A
330
1F
100
AcDbEntity
  8
0
 62
     7
100
AcDbCircle
 10
31.234478
 20
263.549988
 30
0.0
 40
0.1000000014901161
100
AcDbArc
 50
135.0
 51
225.0
  0
LINE
  5
50B
330
1F
100
AcDbEntity
  8
0
 62
     7
100
AcDbLine
 10
31.293056
 20
263.75
 30
0.0
 11
31.163765
 21
263.620728
 31
0.0
  0
LINE
  5
50C
330
1F
100
AcDbEntity
  8
0
 62
     7
100
AcDbLine
 10
31.293056
 20
263.75
 30
0.0
 11
31.293056
 21
264.450012
 31
0.0
  0
LINE
  5
50D
330
1F
100
AcDbEntity
  8
0
 62
     7
100
AcDbLine
 10
31.163765
 20
264.579285
 30
0.0
 11
31.293056
 21
264.450012
 31
0.0
  0
ARC
  5
50E
330
1F
100
AcDbEntity
  8
0
 62
     7
100
AcDbCircle
 10
31.234478
 20
264.650024
 30
0.0
 40
0.1000000014901161
100
AcDbArc
 50
135.0
 51
225.0
  0
LINE
  5
50F
330
1F
100
AcDbEntity
  8
0
 62
     7
100
AcDbLine
 10
31.293056
 20
264.849976
 30
0.0
 11
31.163765
 21
264.720703
 31
0.0
  0
LINE
  5
510
330
1F
100
AcDbEntity
  8
0
 62
     7
100
AcDbLine
 10
31.293056
 20
264.849976
 30
0.0
 11
31.293056
 21
265.549988
 31
0.0
  0
LINE
  5
511
330
1F
100
AcDbEntity
  8
0
 62
     7
100
AcDbLine
 10
31.163765
 20
265.67926
 30
0.0
 11
31.293056
 21
265.549988
 31
0.0
  0
ARC
  5
512
330
1F
100
AcDbEntity
  8
0
 62
     7
100
AcDbCircle
 10
31.234478
 20
265.75
 30
0.0
 40
0.1000000014901161
100
AcDbArc
 50
135.0
 51
225.0
  0
LINE
  5
513
330
1F
100
AcDbEntity
  8
0
 62
     7
100
AcDbLine
 10
31.293056
 20
265.950012
 30
0.0
 11
31.163765
 21
265.82074
 31
0.0
  0
LINE
  5
514
330
1F
100
AcDbEntity
  8
0
 62
     7
100
AcDbLine
 10
31.293056
 20
265.950012
 30
0.0
 11
31.293056
 21
266.650024
 31
0.0
  0
LINE
  5
515
330
1F
100
AcDbEntity
  8
0
 62
     7
100
AcDbLine
 10
31.163765
 20
266.779297
 30
0.0
 11
31.293056
 21
266.650024
 31
0.0
  0
ARC
  5
516
330
1F
100
AcDbEntity
  8
0
 62
     7
100
AcDbCircle
 10
31.234478
 20
266.849976
 30
0.0
 40
0.1000000014901161
100
AcDbArc
 50
135.0
 51
225.0
  0
LINE
  5
517
330
1F
100
AcDbEntity
  8
0
 62
     7
100
AcDbLine
 10
31.293056
 20
267.049988
 30
0.0
 11
31.163765
 21
266.920715
 31
0.0
  0
LINE
  5
518
330
1F
100
AcDbEntity
  8
0
 62
     7
100
AcDbLine
 10
31.293056
 20
267.049988
 30
0.0
 11
31.293056
 21
267.75
 31
0.0
  0
LINE
  5
519
330
1F
100
AcDbEntity
  8
0
 62
     7
100
AcDbLine
 10
31.163765
 20
267.879272
 30
0.0
 11
31.293056
 21
267.75
 31
0.0
  0
ARC
  5
51A
330
1F
100
AcDbEntity
  8
0
 62
     7
100
AcDbCircle
 10
31.234478
 20
267.950012
 30
0.0
 40
0.1000000014901161
100
AcDbArc
 50
135.0
 51
225.0
  0
LINE
  5
51B
330
1F
100
AcDbEntity
  8
0
 62
     7
100
AcDbLine
 10
31.293056
 20
268.150024
 30
0.0
 11
31.163765
 21
268.020691
 31
0.0
  0
LINE
  5
51C
330
1F
100
AcDbEntity
  8
0
 62
     7
100
AcDbLine
 10
31.293056
 20
268.150024
 30
0.0
 11
31.293056
 21
272.974243
 31
0.0
  0
LINE
  5
51D
330
1F
100
AcDbEntity
  8
0
 62
     7
100
AcDbLine
 10
30.805187
 20
273.462158
 30
0.0
 11
31.293056
 21
272.974243
 31
0.0
  0
ARC
  5
51E
330
1F
100
AcDbEntity
  8
0
 62
     7
100
AcDbCircle
 10
30.593056
 20
273.25
 30
0.0
 40
0.300000011920929
100
AcDbArc
 50
45.000001
 51
106.874504
  0
LINE
  5
51F
330
1F
100
AcDbEntity
  8
0
 62
     7
100
AcDbLine
 10
31.293056
 20
251.050003
 30
0.0
 11
31.493053
 21
251.050003
 31
0.0
  0
LINE
  5
520
330
1F
100
AcDbEntity
  8
0
 62
     7
100
AcDbLine
 10
31.493053
 20
250.550003
 30
0.0
 11
31.493053
 21
251.050003
 31
0.0
  0
LINE
  5
521
330
1F
100
AcDbEntity
  8
0
 62
     7
100
AcDbLine
 10
31.493053
 20
250.550003
 30
0.0
 11
31.493053
 21
246.550003
 31
0.0
  0
LINE
  5
522
330
1F
100
AcDbEntity
  8
0
 62
     7
100
AcDbLine
 10
31.493053
 20
246.050003
 30
0.0
 11
31.493053
 21
246.550003
 31
0.0
  0
LINE
  5
523
330
1F
100
AcDbEntity
  8
0
 62
     7
100
AcDbLine
 10
31.293056
 20
246.050003
 30
0.0
 11
31.493053
 21
246.050003
 31
0.0
  0
ARC
  5
524
330
1F
100
AcDbEntity
  8
0
 62
     7
100
AcDbCircle
 10
27.293056
 20
273.349976
 30
0.0
 40
3.0
100
AcDbArc
 50
8.262821
 51
90.000003
  0
LINE
  5
525
330
1F
100
AcDbEntity
  8
0
 62
     7
100
AcDbLine
 10
31.543056
 20
246.550003
 30
0.0
 11
31.543056
 21
246.680374
 31
0.0
  0
LINE
  5
526
330
1F
100
AcDbEntity
  8
0
 62
     7
100
AcDbLine
 10
31.543056
 20
250.180374
 30
0.0
 11
31.543056
 21
246.680374
 31
0.0
  0
LINE
  5
527
330
1F
100
AcDbEntity
  8
0
 62
     7
100
AcDbLine
 10
31.493053
 20
250.449997
 30
0.0
 11
31.543056
 21
250.449997
 31
0.0
  0
LINE
  5
528
330
1F
100
AcDbEntity
  8
0
 62
     7
100
AcDbLine
 10
31.543056
 20
250.180374
 30
0.0
 11
31.543056
 21
250.449997
 31
0.0
  0
LINE
  5
529
330
1F
100
AcDbEntity
  8
0
 62
     7
100
AcDbLine
 10
30.946606
 20
273.096436
 30
0.0
 11
30.104534
 21
273.938538
 31
0.0
  0
ARC
  5
52A
330
1F
100
AcDbEntity
  8
0
 62
     7
100
AcDbCircle
 10
30.593056
 20
272.74292
 30
0.0
 40
0.5
100
AcDbArc
 50
0.0
 51
45.000001
  0
LINE
  5
52B
330
1F
100
AcDbEntity
  8
0
 62
     7
100
AcDbLine
 10
31.093056
 20
245.650009
 30
0.0
 11
31.093056
 21
272.74292
 31
0.0
  0
ARC
  5
52C
330
1F
100
AcDbEntity
  8
0
 62
     7
100
AcDbCircle
 10
30.593056
 20
245.650009
 30
0.0
 40
0.5
100
AcDbArc
 50
269.999997
 51
360.0
  0
LINE
  5
52D
330
1F
100
AcDbEntity
  8
0
 62
     7
100
AcDbLine
 10
14.993055
 20
245.150009
 30
0.0
 11
30.593056
 21
245.150009
 31
0.0
  0
ARC
  5
52E
330
1F
100
AcDbEntity
  8
0
 62
     7
100
AcDbCircle
 10
14.993055
 20
245.650009
 30
0.0
 40
0.5
100
AcDbArc
 50
180.000009
 51
269.999997
  0
LINE
  5
52F
330
1F
100
AcDbEntity
  8
0
 62
     7
100
AcDbLine
 10
14.493055
 20
272.74292
 30
0.0
 11
14.493055
 21
245.650009
 31
0.0
  0
LINE
  5
530
330
1F
100
AcDbEntity
  8
0
 62
     7
100
AcDbLine
 10
13.693054
 20
255.050003
 30
0.0
 11
13.693054
 21
257.049988
 31
0.0
  0
LINE
  5
531
330
1F
100
AcDbEntity
  8
0
 62
     7
100
AcDbLine
 10
13.693054
 20
255.050003
 30
0.0
 11
14.493052
 21
255.050003
 31
0.0
  0
LINE
  5
532
330
1F
100
AcDbEntity
  8
0
 62
     7
100
AcDbLine
 10
27.293056
 20
276.349976
 30
0.0
 11
18.293055
 21
276.349976
 31
0.0
  0
ARC
  5
533
330
1F
100
AcDbEntity
  8
0
 62
     7
100
AcDbCircle
 10
18.293055
 20
273.349976
 30
0.0
 40
3.0
100
AcDbArc
 50
90.000003
 51
171.737184
  0
ARC
  5
534
330
1F
100
AcDbEntity
  8
0
 62
     7
100
AcDbCircle
 10
30.139889
 20
273.973877
 30
0.0
 40
0.0500000007450581
100
AcDbArc
 50
189.204208
 51
225.0
  0
ARC
  5
535
330
1F
100
AcDbEntity
  8
0
 62
     7
100
AcDbCircle
 10
14.993055
 20
272.74292
 30
0.0
 40
0.5
100
AcDbArc
 50
135.0
 51
180.000009
  0
LINE
  5
536
330
1F
100
AcDbEntity
  8
0
 62
     7
100
AcDbLine
 10
13.693054
 20
271.821106
 30
0.0
 11
13.693054
 21
257.049988
 31
0.0
  0
LINE
  5
537
330
1F
100
AcDbEntity
  8
0
 62
     7
100
AcDbLine
 10
13.693054
 20
271.821106
 30
0.0
 11
13.693054
 21
271.863342
 31
0.0
  0
LINE
  5
538
330
1F
100
AcDbEntity
  8
0
 62
     7
100
AcDbLine
 10
13.693054
 20
271.863342
 30
0.0
 11
13.693054
 21
276.349976
 31
0.0
  0
LINE
  5
539
330
1F
100
AcDbEntity
  8
0
 62
     7
100
AcDbLine
 10
13.893055
 20
255.050003
 30
0.0
 11
13.893055
 21
254.550003
 31
0.0
  0
LINE
  5
53A
330
1F
100
AcDbEntity
  8
0
 62
     7
100
AcDbLine
 10
14.493053
 20
254.550003
 30
0.0
 11
13.893055
 21
254.550003
 31
0.0
  0
LINE
  5
53B
330
1F
100
AcDbEntity
  8
0
 62
     7
100
AcDbLine
 10
13.893055
 20
245.850006
 30
0.0
 11
13.893055
 21
254.550003
 31
0.0
  0
ARC
  5
53C
330
1F
100
AcDbEntity
  8
0
 62
     7
100
AcDbCircle
 10
14.693054
 20
245.850006
 30
0.0
 40
0.800000011920929
100
AcDbArc
 50
180.000009
 51
269.999997
  0
LINE
  5
53D
330
1F
100
AcDbEntity
  8
0
 62
     7
100
AcDbLine
 10
14.693054
 20
245.050003
 30
0.0
 11
15.893055
 21
245.050003
 31
0.0
  0
ARC
  5
53E
330
1F
100
AcDbEntity
  8
0
 62
     7
100
AcDbCircle
 10
15.893055
 20
245.850006
 30
0.0
 40
0.800000011920929
100
AcDbArc
 50
269.999997
 51
298.955164
  0
LINE
  5
53F
330
1F
100
AcDbEntity
  8
0
 62
     7
100
AcDbLine
 10
15.481577
 20
273.938538
 30
0.0
 11
14.639502
 21
273.096436
 31
0.0
  0
ARC
  5
540
330
1F
100
AcDbEntity
  8
0
 62
     7
100
AcDbCircle
 10
15.44622
 20
273.973877
 30
0.0
 40
0.0500000007450581
100
AcDbArc
 50
314.999992
 51
350.795784
  0
ARC
  5
541
330
1F
100
AcDbEntity
  8
0
 62
     7
100
AcDbCircle
 10
18.062101
 20
273.549988
 30
0.0
 40
2.599999904632568
100
AcDbArc
 50
90.000003
 51
170.795792
  0
LINE
  5
542
330
1F
100
AcDbEntity
  8
0
 62
     7
100
AcDbLine
 10
27.524006
 20
276.150024
 30
0.0
 11
18.062101
 21
276.150024
 31
0.0
  0
ARC
  5
543
330
1F
100
AcDbEntity
  8
0
 62
     7
100
AcDbCircle
 10
27.524006
 20
273.549988
 30
0.0
 40
2.599999904632568
100
AcDbArc
 50
9.20421
 51
90.000003
  0
CIRCLE
  5
544
330
1F
100
AcDbEntity
  8
0
 62
     7
100
AcDbCircle
 10
22.793055
 20
253.350006
 30
0.0
 40
5.150000095367432
  0
POLYLINE
  5
545
330
1F
100
AcDbEntity
  8
0
 62
     7
100
AcDb2dPolyline
 66
     1
 10
0.0
 20
0.0
 30
0.0
  0
VERTEX
  5
546
330
545
100
AcDbEntity
  8
0
100
AcDbVertex
100
AcDb2dVertex
 10
14.193054
 20
273.260193
 30
0.0
  0
VERTEX
  5
547
330
545
100
AcDbEntity
  8
0
100
AcDbVertex
100
AcDb2dVertex
 10
14.189186
 20
273.162903
 30
0.0
  0
VERTEX
  5
548
330
545
100
AcDbEntity
  8
0
100
AcDbVertex
100
AcDb2dVertex
 10
14.177589
 20
273.059448
 30
0.0
  0
VERTEX
  5
549
330
545
100
AcDbEntity
  8
0
100
AcDbVertex
100
AcDb2dVertex
 10
14.158237
 20
272.950073
 30
0.0
  0
VERTEX
  5
54A
330
545
100
AcDbEntity
  8
0
100
AcDbVertex
100
AcDb2dVertex
 10
14.131044
 20
272.8349
 30
0.0
  0
VERTEX
  5
54B
330
545
100
AcDbEntity
  8
0
100
AcDbVertex
100
AcDb2dVertex
 10
14.095852
 20
272.713989
 30
0.0
  0
VERTEX
  5
54C
330
545
100
AcDbEntity
  8
0
100
AcDbVertex
100
AcDb2dVertex
 10
14.052399
 20
272.587341
 30
0.0
  0
VERTEX
  5
54D
330
545
100
AcDbEntity
  8
0
100
AcDbVertex
100
AcDb2dVertex
 10
14.000315
 20
272.454895
 30
0.0
  0
VERTEX
  5
54E
330
545
100
AcDbEntity
  8
0
100
AcDbVertex
100
AcDb2dVertex
 10
13.939087
 20
272.316406
 30
0.0
  0
VERTEX
  5
54F
330
545
100
AcDbEntity
  8
0
100
AcDbVertex
100
AcDb2dVertex
 10
13.868057
 20
272.171814
 30
0.0
  0
VERTEX
  5
550
330
545
100
AcDbEntity
  8
0
100
AcDbVertex
100
AcDb2dVertex
 10
13.786388
 20
272.020874
 30
0.0
  0
VERTEX
  5
551
330
545
100
AcDbEntity
  8
0
100
AcDbVertex
100
AcDb2dVertex
 10
13.693054
 20
271.863342
 30
0.0
  0
SEQEND
  5
552
330
545
100
AcDbEntity
  8
0
 62
     7
  0
LINE
  5
553
330
1F
100
AcDbEntity
  8
0
 62
     7
100
AcDbLine
 10
14.193054
 20
273.260193
 30
0.0
 11
14.193054
 21
276.849976
 31
0.0
  0
LINE
  5
554
330
1F
100
AcDbEntity
  8
0
 62
     7
100
AcDbLine
 10
15.293055
 20
273.75
 30
0.0
 11
15.293055
 21
276.849976
 31
0.0
  0
CIRCLE
  5
555
330
1F
100
AcDbEntity
  8
0
 62
     7
100
AcDbCircle
 10
22.793055
 20
253.350006
 30
0.0
 40
4.150000095367432
  0
ARC
  5
556
330
1F
100
AcDbEntity
  8
0
 62
     7
100
AcDbCircle
 10
22.793055
 20
253.350006
 30
0.0
 40
3.75
100
AcDbArc
 50
350.018317
 51
9.981683
  0
ARC
  5
557
330
1F
100
AcDbEntity
  8
0
 62
     7
100
AcDbCircle
 10
22.793055
 20
253.350006
 30
0.0
 40
3.75
100
AcDbArc
 50
189.981688
 51
350.018317
  0
ARC
  5
558
330
1F
100
AcDbEntity
  8
0
 62
     7
100
AcDbCircle
 10
22.793055
 20
253.350006
 30
0.0
 40
3.75
100
AcDbArc
 50
170.018312
 51
189.981688
  0
ARC
  5
559
330
1F
100
AcDbEntity
  8
0
 62
     7
100
AcDbCircle
 10
22.793055
 20
253.350006
 30
0.0
 40
3.75
100
AcDbArc
 50
9.981683
 51
170.018312
  0
LINE
  5
55A
330
1F
100
AcDbEntity
  8
0
 62
     7
100
AcDbLine
 10
26.283039
 20
252.699997
 30
0.0
 11
26.486294
 21
252.699997
 31
0.0
  0
LINE
  5
55B
330
1F
100
AcDbEntity
  8
0
 62
     7
100
AcDbLine
 10
19.30307
 20
252.699997
 30
0.0
 11
19.099817
 21
252.699997
 31
0.0
  0
LINE
  5
55C
330
1F
100
AcDbEntity
  8
0
 62
     7
100
AcDbLine
 10
26.283039
 20
252.699997
 30
0.0
 11
19.30307
 21
252.699997
 31
0.0
  0
ARC
  5
55D
330
1F
100
AcDbEntity
  8
0
 62
     7
100
AcDbCircle
 10
22.793055
 20
253.350006
 30
0.0
 40
3.549999952316284
100
AcDbArc
 50
190.550301
 51
349.44969
  0
LINE
  5
55E
330
1F
100
AcDbEntity
  8
0
 62
     7
100
AcDbLine
 10
19.30307
 20
254.000015
 30
0.0
 11
19.099817
 21
254.000015
 31
0.0
  0
LINE
  5
55F
330
1F
100
AcDbEntity
  8
0
 62
     7
100
AcDbLine
 10
26.283039
 20
254.000015
 30
0.0
 11
26.486294
 21
254.000015
 31
0.0
  0
LINE
  5
560
330
1F
100
AcDbEntity
  8
0
 62
     7
100
AcDbLine
 10
19.30307
 20
254.000015
 30
0.0
 11
26.283039
 21
254.000015
 31
0.0
  0
ARC
  5
561
330
1F
100
AcDbEntity
  8
0
 62
     7
100
AcDbCircle
 10
22.793055
 20
253.350006
 30
0.0
 40
3.549999952316284
100
AcDbArc
 50
10.550303
 51
169.449699
  0
LINE
  5
562
330
1F
100
AcDbEntity
  8
0
 62
     7
100
AcDbLine
 10
31.493053
 20
246.550003
 30
0.0
 11
31.543056
 21
246.550003
 31
0.0
  0
LINE
  5
563
330
1F
100
AcDbEntity
  8
0
 62
     7
100
AcDbLine
 10
31.493053
 20
246.550003
 30
0.0
 11
31.543056
 21
246.550003
 31
0.0
  0
LINE
  5
564
330
1F
100
AcDbEntity
  8
0
 62
     7
100
AcDbLine
 10
13.693054
 20
276.349976
 30
0.0
 11
14.193054
 21
276.849976
 31
0.0
  0
LINE
  5
565
330
1F
100
AcDbEntity
  8
0
 62
     7
100
AcDbLine
 10
14.193054
 20
276.849976
 30
0.0
 11
15.293055
 21
276.849976
 31
0.0
  0
ARC
  5
566
330
1F
100
AcDbEntity
  8
0
 62
     7
100
AcDbCircle
 10
22.493053
 20
228.150009
 30
0.0
 40
7.0
100
AcDbArc
 50
299.059263
 51
240.940746
  0
ARC
  5
567
330
1F
100
AcDbEntity
  8
0
 62
     7
100
AcDbCircle
 10
22.493053
 20
228.150009
 30
0.0
 40
6.900000095367432
100
AcDbArc
 50
299.52166
 51
240.478287
  0
LINE
  5
568
330
1F
100
AcDbEntity
  8
0
 62
     7
100
AcDbLine
 10
13.893055
 20
219.449997
 30
0.0
 11
13.893055
 21
242.550003
 31
0.0
  0
LINE
  5
569
330
1F
100
AcDbEntity
  8
0
 62
     7
100
AcDbLine
 10
13.893055
 20
242.550003
 30
0.0
 11
13.893055
 21
243.550003
 31
0.0
  0
LINE
  5
56A
330
1F
100
AcDbEntity
  8
0
 62
     7
100
AcDbLine
 10
31.093056
 20
242.550003
 30
0.0
 11
31.093056
 21
219.449997
 31
0.0
  0
LINE
  5
56B
330
1F
100
AcDbEntity
  8
0
 62
     7
100
AcDbLine
 10
31.093056
 20
242.550003
 30
0.0
 11
31.093056
 21
243.550003
 31
0.0
  0
LINE
  5
56C
330
1F
100
AcDbEntity
  8
0
 62
     7
100
AcDbLine
 10
14.393055
 20
242.550003
 30
0.0
 11
14.039501
 21
242.903549
 31
0.0
  0
ARC
  5
56D
330
1F
100
AcDbEntity
  8
0
 62
     7
100
AcDbCircle
 10
14.393055
 20
242.550003
 30
0.0
 40
0.5
100
AcDbArc
 50
90.000003
 51
180.000009
  0
ARC
  5
56E
330
1F
100
AcDbEntity
  8
0
 62
     7
100
AcDbCircle
 10
14.393055
 20
219.449997
 30
0.0
 40
0.5
100
AcDbArc
 50
180.000009
 51
270.000353
  0
ARC
  5
56F
330
1F
100
AcDbEntity
  8
0
 62
     7
100
AcDbCircle
 10
14.393057
 20
218.949997
 30
0.0
 40
0.5000079870223999
100
AcDbArc
 50
90.000289
 51
149.999055
  0
ARC
  5
570
330
1F
100
AcDbEntity
  8
0
 62
     7
100
AcDbCircle
 10
14.393055
 20
243.550003
 30
0.0
 40
0.5
100
AcDbArc
 50
90.000003
 51
180.000009
  0
LINE
  5
571
330
1F
100
AcDbEntity
  8
0
 62
     7
100
AcDbLine
 10
13.693054
 20
237.987701
 30
0.0
 11
13.693054
 21
238.950485
 31
0.0
  0
LINE
  5
572
330
1F
100
AcDbEntity
  8
0
 62
     7
100
AcDbLine
 10
13.693054
 20
237.987701
 30
0.0
 11
13.693054
 21
226.250015
 31
0.0
  0
LINE
  5
573
330
1F
100
AcDbEntity
  8
0
 62
     7
100
AcDbLine
 10
13.693054
 20
223.250015
 30
0.0
 11
13.693054
 21
226.250015
 31
0.0
  0
LINE
  5
574
330
1F
100
AcDbEntity
  8
0
 62
     7
100
AcDbLine
 10
13.693054
 20
223.250015
 30
0.0
 11
13.893055
 21
223.250015
 31
0.0
  0
LINE
  5
575
330
1F
100
AcDbEntity
  8
0
 62
     7
100
AcDbLine
 10
13.693054
 20
242.050003
 30
0.0
 11
13.893055
 21
242.050003
 31
0.0
  0
LINE
  5
576
330
1F
100
AcDbEntity
  8
0
 62
     7
100
AcDbLine
 10
13.693054
 20
241.185135
 30
0.0
 11
13.693054
 21
242.050003
 31
0.0
  0
LINE
  5
577
330
1F
100
AcDbEntity
  8
0
 62
     7
100
AcDbLine
 10
18.543371
 20
222.250015
 30
0.0
 11
18.726095
 21
222.250015
 31
0.0
  0
LINE
  5
578
330
1F
100
AcDbEntity
  8
0
 62
     7
100
AcDbLine
 10
26.260006
 20
222.250015
 30
0.0
 11
26.442738
 21
222.250015
 31
0.0
  0
ARC
  5
579
330
1F
100
AcDbEntity
  8
0
 62
     7
100
AcDbCircle
 10
30.593056
 20
219.449997
 30
0.0
 40
0.5
100
AcDbArc
 50
269.999997
 51
359.999901
  0
ARC
  5
57A
330
1F
100
AcDbEntity
  8
0
 62
     7
100
AcDbCircle
 10
30.593056
 20
242.550003
 30
0.0
 40
0.5
100
AcDbArc
 50
0.0
 51
90.000003
  0
LINE
  5
57B
330
1F
100
AcDbEntity
  8
0
 62
     7
100
AcDbLine
 10
30.593056
 20
242.550003
 30
0.0
 11
30.946606
 21
242.903549
 31
0.0
  0
ARC
  5
57C
330
1F
100
AcDbEntity
  8
0
 62
     7
100
AcDbCircle
 10
30.593056
 20
218.950012
 30
0.0
 40
0.4999969899654388
100
AcDbArc
 50
29.999605
 51
90.000201
  0
LINE
  5
57D
330
1F
100
AcDbEntity
  8
0
 62
     7
100
AcDbLine
 10
31.093056
 20
241.185135
 30
0.0
 11
31.093056
 21
238.950485
 31
0.0
  0
LINE
  5
57E
330
1F
100
AcDbEntity
  8
0
 62
     7
100
AcDbLine
 10
31.293056
 20
241.185135
 30
0.0
 11
31.293056
 21
242.050003
 31
0.0
  0
LINE
  5
57F
330
1F
100
AcDbEntity
  8
0
 62
     7
100
AcDbLine
 10
31.093056
 20
242.050003
 30
0.0
 11
31.293056
 21
242.050003
 31
0.0
  0
LINE
  5
580
330
1F
100
AcDbEntity
  8
0
 62
     7
100
AcDbLine
 10
31.093056
 20
223.250015
 30
0.0
 11
31.293056
 21
223.250015
 31
0.0
  0
LINE
  5
581
330
1F
100
AcDbEntity
  8
0
 62
     7
100
AcDbLine
 10
31.293056
 20
223.250015
 30
0.0
 11
31.293056
 21
226.250015
 31
0.0
  0
LINE
  5
582
330
1F
100
AcDbEntity
  8
0
 62
     7
100
AcDbLine
 10
31.293056
 20
237.987701
 30
0.0
 11
31.293056
 21
226.250015
 31
0.0
  0
LINE
  5
583
330
1F
100
AcDbEntity
  8
0
 62
     7
100
AcDbLine
 10
31.293056
 20
237.987701
 30
0.0
 11
31.293056
 21
238.950485
 31
0.0
  0
ARC
  5
584
330
1F
100
AcDbEntity
  8
0
 62
     7
100
AcDbCircle
 10
30.593056
 20
243.550003
 30
0.0
 40
0.5
100
AcDbArc
 50
0.0
 51
90.000003
  0
LINE
  5
585
330
1F
100
AcDbEntity
  8
0
 62
     7
100
AcDbLine
 10
14.393055
 20
219.449997
 30
0.0
 11
19.093004
 21
219.449997
 31
0.0
  0
LINE
  5
586
330
1F
100
AcDbEntity
  8
0
 62
     7
100
AcDbLine
 10
25.893005
 20
219.449997
 30
0.0
 11
30.593056
 21
219.449997
 31
0.0
  0
ARC
  5
587
330
1F
100
AcDbEntity
  8
0
 62
     7
100
AcDbCircle
 10
26.127956
 20
242.550003
 30
0.0
 40
0.5
100
AcDbArc
 50
90.000003
 51
218.583597
  0
ARC
  5
588
330
1F
100
AcDbEntity
  8
0
 62
     7
100
AcDbCircle
 10
22.493053
 20
239.650009
 30
0.0
 40
4.150000095367432
100
AcDbArc
 50
0.0
 51
38.583602
  0
LINE
  5
589
330
1F
100
AcDbEntity
  8
0
 62
     7
100
AcDbLine
 10
26.643055
 20
239.650009
 30
0.0
 11
26.643055
 21
238.650009
 31
0.0
  0
ARC
  5
58A
330
1F
100
AcDbEntity
  8
0
 62
     7
100
AcDbCircle
 10
22.493053
 20
238.650009
 30
0.0
 40
4.150000095367432
100
AcDbArc
 50
327.912246
 51
360.0
  0
POLYLINE
  5
58B
330
1F
100
AcDbEntity
  8
0
 62
     7
100
AcDb2dPolyline
 66
     1
 10
0.0
 20
0.0
 30
0.0
  0
VERTEX
  5
58C
330
58B
100
AcDbEntity
  8
0
100
AcDbVertex
100
AcDb2dVertex
 10
26.419899
 20
234.303833
 30
0.0
  0
VERTEX
  5
58D
330
58B
100
AcDbEntity
  8
0
100
AcDbVertex
100
AcDb2dVertex
 10
26.3456
 20
234.354691
 30
0.0
  0
VERTEX
  5
58E
330
58B
100
AcDbEntity
  8
0
100
AcDbVertex
100
AcDb2dVertex
 10
26.286221
 20
234.40062
 30
0.0
  0
VERTEX
  5
58F
330
58B
100
AcDbEntity
  8
0
100
AcDbVertex
100
AcDb2dVertex
 10
26.229458
 20
234.44957
 30
0.0
  0
VERTEX
  5
590
330
58B
100
AcDbEntity
  8
0
100
AcDbVertex
100
AcDb2dVertex
 10
26.154816
 20
234.522675
 30
0.0
  0
VERTEX
  5
591
330
58B
100
AcDbEntity
  8
0
100
AcDbVertex
100
AcDb2dVertex
 10
26.085899
 20
234.600876
 30
0.0
  0
VERTEX
  5
592
330
58B
100
AcDbEntity
  8
0
100
AcDbVertex
100
AcDb2dVertex
 10
26.023041
 20
234.68364
 30
0.0
  0
VERTEX
  5
593
330
58B
100
AcDbEntity
  8
0
100
AcDbVertex
100
AcDb2dVertex
 10
25.966496
 20
234.770401
 30
0.0
  0
VERTEX
  5
594
330
58B
100
AcDbEntity
  8
0
100
AcDbVertex
100
AcDb2dVertex
 10
25.916454
 20
234.860565
 30
0.0
  0
VERTEX
  5
595
330
58B
100
AcDbEntity
  8
0
100
AcDbVertex
100
AcDb2dVertex
 10
25.873028
 20
234.953598
 30
0.0
  0
VERTEX
  5
596
330
58B
100
AcDbEntity
  8
0
100
AcDbVertex
100
AcDb2dVertex
 10
25.836285
 20
235.04895
 30
0.0
  0
VERTEX
  5
597
330
58B
100
AcDbEntity
  8
0
100
AcDbVertex
100
AcDb2dVertex
 10
25.805145
 20
235.150024
 30
0.0
  0
VERTEX
  5
598
330
58B
100
AcDbEntity
  8
0
100
AcDbVertex
100
AcDb2dVertex
 10
25.781185
 20
235.252487
 30
0.0
  0
VERTEX
  5
599
330
58B
100
AcDbEntity
  8
0
100
AcDbVertex
100
AcDb2dVertex
 10
25.764317
 20
235.35582
 30
0.0
  0
VERTEX
  5
59A
330
58B
100
AcDbEntity
  8
0
100
AcDbVertex
100
AcDb2dVertex
 10
25.754414
 20
235.459503
 30
0.0
  0
VERTEX
  5
59B
330
58B
100
AcDbEntity
  8
0
100
AcDbVertex
100
AcDb2dVertex
 10
25.751335
 20
235.563126
 30
0.0
  0
VERTEX
  5
59C
330
58B
100
AcDbEntity
  8
0
100
AcDbVertex
100
AcDb2dVertex
 10
25.75491
 20
235.666229
 30
0.0
  0
VERTEX
  5
59D
330
58B
100
AcDbEntity
  8
0
100
AcDbVertex
100
AcDb2dVertex
 10
25.764961
 20
235.768463
 30
0.0
  0
VERTEX
  5
59E
330
58B
100
AcDbEntity
  8
0
100
AcDbVertex
100
AcDb2dVertex
 10
25.781712
 20
235.871567
 30
0.0
  0
VERTEX
  5
59F
330
58B
100
AcDbEntity
  8
0
100
AcDbVertex
100
AcDb2dVertex
 10
25.804825
 20
235.973038
 30
0.0
  0
VERTEX
  5
5A0
330
58B
100
AcDbEntity
  8
0
100
AcDbVertex
100
AcDb2dVertex
 10
25.83411
 20
236.072586
 30
0.0
  0
VERTEX
  5
5A1
330
58B
100
AcDbEntity
  8
0
100
AcDbVertex
100
AcDb2dVertex
 10
25.869366
 20
236.169891
 30
0.0
  0
VERTEX
  5
5A2
330
58B
100
AcDbEntity
  8
0
100
AcDbVertex
100
AcDb2dVertex
 10
25.910408
 20
236.264664
 30
0.0
  0
VERTEX
  5
5A3
330
58B
100
AcDbEntity
  8
0
100
AcDbVertex
100
AcDb2dVertex
 10
25.957039
 20
236.356598
 30
0.0
  0
VERTEX
  5
5A4
330
58B
100
AcDbEntity
  8
0
100
AcDbVertex
100
AcDb2dVertex
 10
26.009083
 20
236.44545
 30
0.0
  0
SEQEND
  5
5A5
330
58B
100
AcDbEntity
  8
0
 62
     7
  0
ARC
  5
5A6
330
1F
100
AcDbEntity
  8
0
 62
     7
100
AcDbCircle
 10
22.493053
 20
228.150009
 30
0.0
 40
7.300000190734863
100
AcDbArc
 50
297.758952
 51
57.457471
  0
LINE
  5
5A7
330
1F
100
AcDbEntity
  8
0
 62
     7
100
AcDbLine
 10
18.993248
 20
221.743652
 30
0.0
 11
19.093058
 21
221.690125
 31
0.0
  0
ARC
  5
5A8
330
1F
100
AcDbEntity
  8
0
 62
     7
100
AcDbCircle
 10
22.493053
 20
228.150009
 30
0.0
 40
7.300000190734863
100
AcDbArc
 50
122.542528
 51
241.352115
  0
POLYLINE
  5
5A9
330
1F
100
AcDbEntity
  8
0
 62
     7
100
AcDb2dPolyline
 66
     1
 10
0.0
 20
0.0
 30
0.0
  0
VERTEX
  5
5AA
330
5A9
100
AcDbEntity
  8
0
100
AcDbVertex
100
AcDb2dVertex
 10
18.566198
 20
234.303848
 30
0.0
  0
VERTEX
  5
5AB
330
5A9
100
AcDbEntity
  8
0
100
AcDbVertex
100
AcDb2dVertex
 10
18.645695
 20
234.35849
 30
0.0
  0
VERTEX
  5
5AC
330
5A9
100
AcDbEntity
  8
0
100
AcDbVertex
100
AcDb2dVertex
 10
18.721237
 20
234.418411
 30
0.0
  0
VERTEX
  5
5AD
330
5A9
100
AcDbEntity
  8
0
100
AcDbVertex
100
AcDb2dVertex
 10
18.792439
 20
234.483276
 30
0.0
  0
VERTEX
  5
5AE
330
5A9
100
AcDbEntity
  8
0
100
AcDbVertex
100
AcDb2dVertex
 10
18.858959
 20
234.552704
 30
0.0
  0
VERTEX
  5
5AF
330
5A9
100
AcDbEntity
  8
0
100
AcDbVertex
100
AcDb2dVertex
 10
18.920506
 20
234.626266
 30
0.0
  0
VERTEX
  5
5B0
330
5A9
100
AcDbEntity
  8
0
100
AcDbVertex
100
AcDb2dVertex
 10
18.982073
 20
234.711319
 30
0.0
  0
VERTEX
  5
5B1
330
5A9
100
AcDbEntity
  8
0
100
AcDbVertex
100
AcDb2dVertex
 10
19.037113
 20
234.800247
 30
0.0
  0
VERTEX
  5
5B2
330
5A9
100
AcDbEntity
  8
0
100
AcDbVertex
100
AcDb2dVertex
 10
19.085457
 20
234.892502
 30
0.0
  0
VERTEX
  5
5B3
330
5A9
100
AcDbEntity
  8
0
100
AcDbVertex
100
AcDb2dVertex
 10
19.127001
 20
234.987503
 30
0.0
  0
VERTEX
  5
5B4
330
5A9
100
AcDbEntity
  8
0
100
AcDbVertex
100
AcDb2dVertex
 10
19.161709
 20
235.084656
 30
0.0
  0
VERTEX
  5
5B5
330
5A9
100
AcDbEntity
  8
0
100
AcDbVertex
100
AcDb2dVertex
 10
19.189592
 20
235.183426
 30
0.0
  0
VERTEX
  5
5B6
330
5A9
100
AcDbEntity
  8
0
100
AcDbVertex
100
AcDb2dVertex
 10
19.210712
 20
235.28334
 30
0.0
  0
VERTEX
  5
5B7
330
5A9
100
AcDbEntity
  8
0
100
AcDbVertex
100
AcDb2dVertex
 10
19.22563
 20
235.388199
 30
0.0
  0
VERTEX
  5
5B8
330
5A9
100
AcDbEntity
  8
0
100
AcDbVertex
100
AcDb2dVertex
 10
19.233438
 20
235.493286
 30
0.0
  0
VERTEX
  5
5B9
330
5A9
100
AcDbEntity
  8
0
100
AcDbVertex
100
AcDb2dVertex
 10
19.234299
 20
235.59816
 30
0.0
  0
VERTEX
  5
5BA
330
5A9
100
AcDbEntity
  8
0
100
AcDbVertex
100
AcDb2dVertex
 10
19.228384
 20
235.702408
 30
0.0
  0
VERTEX
  5
5BB
330
5A9
100
AcDbEntity
  8
0
100
AcDbVertex
100
AcDb2dVertex
 10
19.215881
 20
235.805618
 30
0.0
  0
VERTEX
  5
5BC
330
5A9
100
AcDbEntity
  8
0
100
AcDbVertex
100
AcDb2dVertex
 10
19.196985
 20
235.907455
 30
0.0
  0
VERTEX
  5
5BD
330
5A9
100
AcDbEntity
  8
0
100
AcDbVertex
100
AcDb2dVertex
 10
19.171886
 20
236.007553
 30
0.0
  0
VERTEX
  5
5BE
330
5A9
100
AcDbEntity
  8
0
100
AcDbVertex
100
AcDb2dVertex
 10
19.142878
 20
236.099625
 30
0.0
  0
VERTEX
  5
5BF
330
5A9
100
AcDbEntity
  8
0
100
AcDbVertex
100
AcDb2dVertex
 10
19.108734
 20
236.189682
 30
0.0
  0
VERTEX
  5
5C0
330
5A9
100
AcDbEntity
  8
0
100
AcDbVertex
100
AcDb2dVertex
 10
19.069611
 20
236.277481
 30
0.0
  0
VERTEX
  5
5C1
330
5A9
100
AcDbEntity
  8
0
100
AcDbVertex
100
AcDb2dVertex
 10
19.02566
 20
236.362808
 30
0.0
  0
VERTEX
  5
5C2
330
5A9
100
AcDbEntity
  8
0
100
AcDbVertex
100
AcDb2dVertex
 10
18.977028
 20
236.44545
 30
0.0
  0
SEQEND
  5
5C3
330
5A9
100
AcDbEntity
  8
0
 62
     7
  0
ARC
  5
5C4
330
1F
100
AcDbEntity
  8
0
 62
     7
100
AcDbCircle
 10
22.493053
 20
238.650009
 30
0.0
 40
4.150000095367432
100
AcDbArc
 50
180.000009
 51
212.087746
  0
LINE
  5
5C5
330
1F
100
AcDbEntity
  8
0
 62
     7
100
AcDbLine
 10
18.343054
 20
239.650009
 30
0.0
 11
18.343054
 21
238.650009
 31
0.0
  0
ARC
  5
5C6
330
1F
100
AcDbEntity
  8
0
 62
     7
100
AcDbCircle
 10
22.493053
 20
239.650009
 30
0.0
 40
4.150000095367432
100
AcDbArc
 50
141.416403
 51
180.000009
  0
ARC
  5
5C7
330
1F
100
AcDbEntity
  8
0
 62
     7
100
AcDbCircle
 10
18.858154
 20
242.550003
 30
0.0
 40
0.5
100
AcDbArc
 50
321.416408
 51
90.000003
  0
LINE
  5
5C8
330
1F
100
AcDbEntity
  8
0
 62
     7
100
AcDbLine
 10
16.643055
 20
235.350006
 30
0.0
 11
16.243055
 21
235.350006
 31
0.0
  0
ARC
  5
5C9
330
1F
100
AcDbEntity
  8
0
 62
     7
100
AcDbCircle
 10
16.243055
 20
236.699997
 30
0.0
 40
1.350000023841858
100
AcDbArc
 50
90.000003
 51
269.99997
  0
LINE
  5
5CA
330
1F
100
AcDbEntity
  8
0
 62
     7
100
AcDbLine
 10
16.243055
 20
238.050003
 30
0.0
 11
16.643055
 21
238.050003
 31
0.0
  0
ARC
  5
5CB
330
1F
100
AcDbEntity
  8
0
 62
     7
100
AcDbCircle
 10
16.643055
 20
236.699997
 30
0.0
 40
1.350000023841858
100
AcDbArc
 50
269.999997
 51
89.999989
  0
CIRCLE
  5
5CC
330
1F
100
AcDbEntity
  8
0
 62
     7
100
AcDbCircle
 10
28.543056
 20
236.699997
 30
0.0
 40
1.350000023841858
  0
LINE
  5
5CD
330
1F
100
AcDbEntity
  8
0
 62
     7
100
AcDbLine
 10
14.393055
 20
243.050003
 30
0.0
 11
18.858154
 21
243.050003
 31
0.0
  0
LINE
  5
5CE
330
1F
100
AcDbEntity
  8
0
 62
     7
100
AcDbLine
 10
14.393055
 20
218.949997
 30
0.0
 11
19.093004
 21
218.949997
 31
0.0
  0
LINE
  5
5CF
330
1F
100
AcDbEntity
  8
0
 62
     7
100
AcDbLine
 10
25.893002
 20
218.949997
 30
0.0
 11
30.593056
 21
218.949997
 31
0.0
  0
LINE
  5
5D0
330
1F
100
AcDbEntity
  8
0
 62
     7
100
AcDbLine
 10
20.911121
 20
243.050003
 30
0.0
 11
19.183975
 21
243.050003
 31
0.0
  0
LINE
  5
5D1
330
1F
100
AcDbEntity
  8
0
 62
     7
100
AcDbLine
 10
25.802132
 20
243.050003
 30
0.0
 11
24.074986
 21
243.050003
 31
0.0
  0
LINE
  5
5D2
330
1F
100
AcDbEntity
  8
0
 62
     7
100
AcDbLine
 10
25.802132
 20
243.050003
 30
0.0
 11
26.127956
 21
243.050003
 31
0.0
  0
LINE
  5
5D3
330
1F
100
AcDbEntity
  8
0
 62
     7
100
AcDbLine
 10
26.127956
 20
243.050003
 30
0.0
 11
30.593056
 21
243.050003
 31
0.0
  0
LINE
  5
5D4
330
1F
100
AcDbEntity
  8
0
 62
     7
100
AcDbLine
 10
18.858154
 20
243.050003
 30
0.0
 11
19.183975
 21
243.050003
 31
0.0
  0
LINE
  5
5D5
330
1F
100
AcDbEntity
  8
0
 62
     7
100
AcDbLine
 10
14.393055
 20
244.050003
 30
0.0
 11
30.593056
 21
244.050003
 31
0.0
  0
LINE
  5
5D6
330
1F
100
AcDbEntity
  8
0
 62
     7
100
AcDbLine
 10
13.693054
 20
238.950485
 30
0.0
 11
13.693054
 21
241.185135
 31
0.0
  0
LINE
  5
5D7
330
1F
100
AcDbEntity
  8
0
 62
     7
100
AcDbLine
 10
31.293056
 20
238.950485
 30
0.0
 11
31.293056
 21
241.185135
 31
0.0
  0
LINE
  5
5D8
330
1F
100
AcDbEntity
  8
0
 62
     7
100
AcDbLine
 10
25.951115
 20
236.355591
 30
0.0
 11
26.009083
 21
236.44545
 31
0.0
  0
POLYLINE
  5
5D9
330
1F
100
AcDbEntity
  8
0
 62
     7
100
AcDb2dPolyline
 66
     1
 10
0.0
 20
0.0
 30
0.0
  0
VERTEX
  5
5DA
330
5D9
100
AcDbEntity
  8
0
100
AcDbVertex
100
AcDb2dVertex
 10
25.951115
 20
236.355591
 30
0.0
  0
VERTEX
  5
5DB
330
5D9
100
AcDbEntity
  8
0
100
AcDbVertex
100
AcDb2dVertex
 10
25.89539
 20
236.265671
 30
0.0
  0
VERTEX
  5
5DC
330
5D9
100
AcDbEntity
  8
0
100
AcDbVertex
100
AcDb2dVertex
 10
25.845295
 20
236.172363
 30
0.0
  0
VERTEX
  5
5DD
330
5D9
100
AcDbEntity
  8
0
100
AcDbVertex
100
AcDb2dVertex
 10
25.801037
 20
236.075943
 30
0.0
  0
VERTEX
  5
5DE
330
5D9
100
AcDbEntity
  8
0
100
AcDbVertex
100
AcDb2dVertex
 10
25.762825
 20
235.9767
 30
0.0
  0
VERTEX
  5
5DF
330
5D9
100
AcDbEntity
  8
0
100
AcDbVertex
100
AcDb2dVertex
 10
25.730877
 20
235.874969
 30
0.0
  0
VERTEX
  5
5E0
330
5D9
100
AcDbEntity
  8
0
100
AcDbVertex
100
AcDb2dVertex
 10
25.70541
 20
235.771072
 30
0.0
  0
VERTEX
  5
5E1
330
5D9
100
AcDbEntity
  8
0
100
AcDbVertex
100
AcDb2dVertex
 10
25.686649
 20
235.665359
 30
0.0
  0
VERTEX
  5
5E2
330
5D9
100
AcDbEntity
  8
0
100
AcDbVertex
100
AcDb2dVertex
 10
25.674976
 20
235.560333
 30
0.0
  0
VERTEX
  5
5E3
330
5D9
100
AcDbEntity
  8
0
100
AcDbVertex
100
AcDb2dVertex
 10
25.670166
 20
235.454285
 30
0.0
  0
VERTEX
  5
5E4
330
5D9
100
AcDbEntity
  8
0
100
AcDbVertex
100
AcDb2dVertex
 10
25.672417
 20
235.34761
 30
0.0
  0
VERTEX
  5
5E5
330
5D9
100
AcDbEntity
  8
0
100
AcDbVertex
100
AcDb2dVertex
 10
25.681919
 20
235.240784
 30
0.0
  0
VERTEX
  5
5E6
330
5D9
100
AcDbEntity
  8
0
100
AcDbVertex
100
AcDb2dVertex
 10
25.698841
 20
235.134323
 30
0.0
  0
VERTEX
  5
5E7
330
5D9
100
AcDbEntity
  8
0
100
AcDbVertex
100
AcDb2dVertex
 10
25.72332
 20
235.028732
 30
0.0
  0
VERTEX
  5
5E8
330
5D9
100
AcDbEntity
  8
0
100
AcDbVertex
100
AcDb2dVertex
 10
25.755455
 20
234.924622
 30
0.0
  0
VERTEX
  5
5E9
330
5D9
100
AcDbEntity
  8
0
100
AcDbVertex
100
AcDb2dVertex
 10
25.793476
 20
234.826797
 30
0.0
  0
VERTEX
  5
5EA
330
5D9
100
AcDbEntity
  8
0
100
AcDbVertex
100
AcDb2dVertex
 10
25.838562
 20
234.731476
 30
0.0
  0
VERTEX
  5
5EB
330
5D9
100
AcDbEntity
  8
0
100
AcDbVertex
100
AcDb2dVertex
 10
25.89064
 20
234.639236
 30
0.0
  0
VERTEX
  5
5EC
330
5D9
100
AcDbEntity
  8
0
100
AcDbVertex
100
AcDb2dVertex
 10
25.949562
 20
234.550705
 30
0.0
  0
VERTEX
  5
5ED
330
5D9
100
AcDbEntity
  8
0
100
AcDbVertex
100
AcDb2dVertex
 10
25.981525
 20
234.508026
 30
0.0
  0
VERTEX
  5
5EE
330
5D9
100
AcDbEntity
  8
0
100
AcDbVertex
100
AcDb2dVertex
 10
26.01511
 20
234.466507
 30
0.0
  0
VERTEX
  5
5EF
330
5D9
100
AcDbEntity
  8
0
100
AcDbVertex
100
AcDb2dVertex
 10
26.062347
 20
234.413055
 30
0.0
  0
VERTEX
  5
5F0
330
5D9
100
AcDbEntity
  8
0
100
AcDbVertex
100
AcDb2dVertex
 10
26.112286
 20
234.361984
 30
0.0
  0
VERTEX
  5
5F1
330
5D9
100
AcDbEntity
  8
0
100
AcDbVertex
100
AcDb2dVertex
 10
26.164799
 20
234.313446
 30
0.0
  0
VERTEX
  5
5F2
330
5D9
100
AcDbEntity
  8
0
100
AcDbVertex
100
AcDb2dVertex
 10
26.220158
 20
234.267258
 30
0.0
  0
VERTEX
  5
5F3
330
5D9
100
AcDbEntity
  8
0
100
AcDbVertex
100
AcDb2dVertex
 10
26.277885
 20
234.223907
 30
0.0
  0
VERTEX
  5
5F4
330
5D9
100
AcDbEntity
  8
0
100
AcDbVertex
100
AcDb2dVertex
 10
26.337696
 20
234.183609
 30
0.0
  0
SEQEND
  5
5F5
330
5D9
100
AcDbEntity
  8
0
 62
     7
  0
ARC
  5
5F6
330
1F
100
AcDbEntity
  8
0
 62
     7
100
AcDbCircle
 10
22.493053
 20
228.150009
 30
0.0
 40
7.099999904632568
100
AcDbArc
 50
298.611797
 51
241.352115
  0
ARC
  5
5F7
330
1F
100
AcDbEntity
  8
0
 62
     7
100
AcDbCircle
 10
22.492821
 20
228.149612
 30
0.0
 40
7.154872894287109
100
AcDbArc
 50
57.494627
 51
61.351983
  0
ARC
  5
5F8
330
1F
100
AcDbEntity
  8
0
 62
     7
100
AcDbCircle
 10
22.493061
 20
228.149994
 30
0.0
 40
7.154425144195557
100
AcDbArc
 50
61.352113
 51
122.505467
  0
POLYLINE
  5
5F9
330
1F
100
AcDbEntity
  8
0
 62
     7
100
AcDb2dPolyline
 66
     1
 10
0.0
 20
0.0
 30
0.0
  0
VERTEX
  5
5FA
330
5F9
100
AcDbEntity
  8
0
100
AcDbVertex
100
AcDb2dVertex
 10
19.034996
 20
236.355591
 30
0.0
  0
VERTEX
  5
5FB
330
5F9
100
AcDbEntity
  8
0
100
AcDbVertex
100
AcDb2dVertex
 10
19.090717
 20
236.265671
 30
0.0
  0
VERTEX
  5
5FC
330
5F9
100
AcDbEntity
  8
0
100
AcDbVertex
100
AcDb2dVertex
 10
19.140812
 20
236.172363
 30
0.0
  0
VERTEX
  5
5FD
330
5F9
100
AcDbEntity
  8
0
100
AcDbVertex
100
AcDb2dVertex
 10
19.185072
 20
236.075943
 30
0.0
  0
VERTEX
  5
5FE
330
5F9
100
AcDbEntity
  8
0
100
AcDbVertex
100
AcDb2dVertex
 10
19.223284
 20
235.9767
 30
0.0
  0
VERTEX
  5
5FF
330
5F9
100
AcDbEntity
  8
0
100
AcDbVertex
100
AcDb2dVertex
 10
19.255232
 20
235.874969
 30
0.0
  0
VERTEX
  5
600
330
5F9
100
AcDbEntity
  8
0
100
AcDbVertex
100
AcDb2dVertex
 10
19.280697
 20
235.771072
 30
0.0
  0
VERTEX
  5
601
330
5F9
100
AcDbEntity
  8
0
100
AcDbVertex
100
AcDb2dVertex
 10
19.299459
 20
235.665359
 30
0.0
  0
VERTEX
  5
602
330
5F9
100
AcDbEntity
  8
0
100
AcDbVertex
100
AcDb2dVertex
 10
19.311131
 20
235.560333
 30
0.0
  0
VERTEX
  5
603
330
5F9
100
AcDbEntity
  8
0
100
AcDbVertex
100
AcDb2dVertex
 10
19.315943
 20
235.454285
 30
0.0
  0
VERTEX
  5
604
330
5F9
100
AcDbEntity
  8
0
100
AcDbVertex
100
AcDb2dVertex
 10
19.313692
 20
235.34761
 30
0.0
  0
VERTEX
  5
605
330
5F9
100
AcDbEntity
  8
0
100
AcDbVertex
100
AcDb2dVertex
 10
19.30419
 20
235.240784
 30
0.0
  0
VERTEX
  5
606
330
5F9
100
AcDbEntity
  8
0
100
AcDbVertex
100
AcDb2dVertex
 10
19.287268
 20
235.134323
 30
0.0
  0
VERTEX
  5
607
330
5F9
100
AcDbEntity
  8
0
100
AcDbVertex
100
AcDb2dVertex
 10
19.262789
 20
235.028732
 30
0.0
  0
VERTEX
  5
608
330
5F9
100
AcDbEntity
  8
0
100
AcDbVertex
100
AcDb2dVertex
 10
19.230654
 20
234.924622
 30
0.0
  0
VERTEX
  5
609
330
5F9
100
AcDbEntity
  8
0
100
AcDbVertex
100
AcDb2dVertex
 10
19.192635
 20
234.826797
 30
0.0
  0
VERTEX
  5
60A
330
5F9
100
AcDbEntity
  8
0
100
AcDbVertex
100
AcDb2dVertex
 10
19.147549
 20
234.731476
 30
0.0
  0
VERTEX
  5
60B
330
5F9
100
AcDbEntity
  8
0
100
AcDbVertex
100
AcDb2dVertex
 10
19.09547
 20
234.639236
 30
0.0
  0
VERTEX
  5
60C
330
5F9
100
AcDbEntity
  8
0
100
AcDbVertex
100
AcDb2dVertex
 10
19.036547
 20
234.550705
 30
0.0
  0
VERTEX
  5
60D
330
5F9
100
AcDbEntity
  8
0
100
AcDbVertex
100
AcDb2dVertex
 10
19.004583
 20
234.508026
 30
0.0
  0
VERTEX
  5
60E
330
5F9
100
AcDbEntity
  8
0
100
AcDbVertex
100
AcDb2dVertex
 10
18.970997
 20
234.466507
 30
0.0
  0
VERTEX
  5
60F
330
5F9
100
AcDbEntity
  8
0
100
AcDbVertex
100
AcDb2dVertex
 10
18.923763
 20
234.413055
 30
0.0
  0
VERTEX
  5
610
330
5F9
100
AcDbEntity
  8
0
100
AcDbVertex
100
AcDb2dVertex
 10
18.873825
 20
234.361984
 30
0.0
  0
VERTEX
  5
611
330
5F9
100
AcDbEntity
  8
0
100
AcDbVertex
100
AcDb2dVertex
 10
18.82131
 20
234.313446
 30
0.0
  0
VERTEX
  5
612
330
5F9
100
AcDbEntity
  8
0
100
AcDbVertex
100
AcDb2dVertex
 10
18.765949
 20
234.267258
 30
0.0
  0
VERTEX
  5
613
330
5F9
100
AcDbEntity
  8
0
100
AcDbVertex
100
AcDb2dVertex
 10
18.708223
 20
234.223907
 30
0.0
  0
VERTEX
  5
614
330
5F9
100
AcDbEntity
  8
0
100
AcDbVertex
100
AcDb2dVertex
 10
18.648413
 20
234.183609
 30
0.0
  0
SEQEND
  5
615
330
5F9
100
AcDbEntity
  8
0
 62
     7
  0
LINE
  5
616
330
1F
100
AcDbEntity
  8
0
 62
     7
100
AcDbLine
 10
18.977028
 20
236.44545
 30
0.0
 11
19.034996
 21
236.355591
 31
0.0
  0
LINE
  5
617
330
1F
100
AcDbEntity
  8
0
 62
     7
100
AcDbLine
 10
16.643055
 20
235.449997
 30
0.0
 11
16.243055
 21
235.449997
 31
0.0
  0
ARC
  5
618
330
1F
100
AcDbEntity
  8
0
 62
     7
100
AcDbCircle
 10
16.243055
 20
236.699997
 30
0.0
 40
1.25
100
AcDbArc
 50
90.000003
 51
269.999997
  0
LINE
  5
619
330
1F
100
AcDbEntity
  8
0
 62
     7
100
AcDbLine
 10
16.243055
 20
237.949997
 30
0.0
 11
16.643055
 21
237.949997
 31
0.0
  0
ARC
  5
61A
330
1F
100
AcDbEntity
  8
0
 62
     7
100
AcDbCircle
 10
16.643055
 20
236.699997
 30
0.0
 40
1.25
100
AcDbArc
 50
269.999997
 51
90.000003
  0
CIRCLE
  5
61B
330
1F
100
AcDbEntity
  8
0
 62
     7
100
AcDbCircle
 10
28.543056
 20
236.699997
 30
0.0
 40
1.25
  0
ARC
  5
61C
330
1F
100
AcDbEntity
  8
0
 62
     7
100
AcDbCircle
 10
25.802132
 20
242.550003
 30
0.0
 40
0.5
100
AcDbArc
 50
90.000003
 51
221.230582
  0
ARC
  5
61D
330
1F
100
AcDbEntity
  8
0
 62
     7
100
AcDbCircle
 10
19.183975
 20
242.550003
 30
0.0
 40
0.5
100
AcDbArc
 50
318.769437
 51
90.000003
  0
LINE
  5
61E
330
1F
100
AcDbEntity
  8
0
 62
     7
100
AcDbLine
 10
18.393055
 20
245.050003
 30
0.0
 11
18.393055
 21
244.050018
 31
0.0
  0
ARC
  5
61F
330
1F
100
AcDbEntity
  8
0
 62
     7
100
AcDbCircle
 10
16.693054
 20
244.550003
 30
0.0
 40
1.5
100
AcDbArc
 50
340.529081
 51
360.0
  0
LINE
  5
620
330
1F
100
AcDbEntity
  8
0
 62
     7
100
AcDbLine
 10
17.693054
 20
245.050003
 30
0.0
 11
17.693054
 21
245.150009
 31
0.0
  0
ARC
  5
621
330
1F
100
AcDbEntity
  8
0
 62
     7
100
AcDbCircle
 10
16.693054
 20
245.050003
 30
0.0
 40
1.0
100
AcDbArc
 50
269.999997
 51
360.0
  0
LINE
  5
622
330
1F
100
AcDbEntity
  8
0
 62
     7
100
AcDbLine
 10
18.193054
 20
245.150009
 30
0.0
 11
18.193054
 21
244.550003
 31
0.0
  0
LINE
  5
623
330
1F
100
AcDbEntity
  8
0
 62
     7
100
AcDbLine
 10
26.593056
 20
245.150009
 30
0.0
 11
26.593056
 21
245.049957
 31
0.0
  0
LINE
  5
624
330
1F
100
AcDbEntity
  8
0
 62
     7
100
AcDbLine
 10
26.793056
 20
245.150009
 30
0.0
 11
26.793056
 21
244.550003
 31
0.0
  0
ARC
  5
625
330
1F
100
AcDbEntity
  8
0
 62
     7
100
AcDbCircle
 10
28.293056
 20
244.550003
 30
0.0
 40
1.5
100
AcDbArc
 50
180.000009
 51
199.470938
  0
ARC
  5
626
330
1F
100
AcDbEntity
  8
0
 62
     7
100
AcDbCircle
 10
28.293056
 20
245.050003
 30
0.0
 40
1.0
100
AcDbArc
 50
180.000009
 51
269.999997
  0
LINE
  5
627
330
1F
100
AcDbEntity
  8
0
 62
     7
100
AcDbLine
 10
27.293056
 20
245.050003
 30
0.0
 11
27.293056
 21
245.150009
 31
0.0
  0
ARC
  5
628
330
1F
100
AcDbEntity
  8
0
 62
     7
100
AcDbCircle
 10
22.493053
 20
239.650009
 30
0.0
 40
3.900000095367432
100
AcDbArc
 50
138.769418
 51
41.230577
  0
LINE
  5
629
330
1F
100
AcDbEntity
  8
0
 62
     7
100
AcDbLine
 10
26.593056
 20
244.050018
 30
0.0
 11
26.593056
 21
245.050003
 31
0.0
  0
LINE
  5
62A
330
1F
100
AcDbEntity
  8
0
 62
     7
100
AcDbLine
 10
18.393055
 20
245.050003
 30
0.0
 11
18.393055
 21
245.150085
 31
0.0
  0
ARC
  5
62B
330
1F
100
AcDbEntity
  8
0
 62
     7
100
AcDbCircle
 10
26.093056
 20
245.050003
 30
0.0
 40
0.5
100
AcDbArc
 50
0.0
 51
11.538233
  0
ARC
  5
62C
330
1F
100
AcDbEntity
  8
0
 62
     7
100
AcDbCircle
 10
22.493053
 20
239.650009
 30
0.0
 40
3.75
100
AcDbArc
 50
80.018316
 51
99.981682
  0
ARC
  5
62D
330
1F
100
AcDbEntity
  8
0
 62
     7
100
AcDbCircle
 10
22.493053
 20
239.650009
 30
0.0
 40
3.75
100
AcDbArc
 50
279.981697
 51
80.018316
  0
ARC
  5
62E
330
1F
100
AcDbEntity
  8
0
 62
     7
100
AcDbCircle
 10
22.493053
 20
239.650009
 30
0.0
 40
3.75
100
AcDbArc
 50
260.018304
 51
279.981697
  0
ARC
  5
62F
330
1F
100
AcDbEntity
  8
0
 62
     7
100
AcDbCircle
 10
22.493053
 20
239.650009
 30
0.0
 40
3.75
100
AcDbArc
 50
99.981682
 51
260.018304
  0
LINE
  5
630
330
1F
100
AcDbEntity
  8
0
 62
     7
100
AcDbLine
 10
23.143055
 20
243.139999
 30
0.0
 11
23.143055
 21
243.343246
 31
0.0
  0
LINE
  5
631
330
1F
100
AcDbEntity
  8
0
 62
     7
100
AcDbLine
 10
23.143055
 20
236.160019
 30
0.0
 11
23.143055
 21
235.956772
 31
0.0
  0
LINE
  5
632
330
1F
100
AcDbEntity
  8
0
 62
     7
100
AcDbLine
 10
23.143055
 20
243.139999
 30
0.0
 11
23.143055
 21
236.160019
 31
0.0
  0
ARC
  5
633
330
1F
100
AcDbEntity
  8
0
 62
     7
100
AcDbCircle
 10
22.493053
 20
239.650009
 30
0.0
 40
3.549999952316284
100
AcDbArc
 50
280.55029
 51
79.449696
  0
LINE
  5
634
330
1F
100
AcDbEntity
  8
0
 62
     7
100
AcDbLine
 10
21.843056
 20
236.160019
 30
0.0
 11
21.843056
 21
235.956772
 31
0.0
  0
LINE
  5
635
330
1F
100
AcDbEntity
  8
0
 62
     7
100
AcDbLine
 10
21.843056
 20
243.139999
 30
0.0
 11
21.843056
 21
243.343246
 31
0.0
  0
LINE
  5
636
330
1F
100
AcDbEntity
  8
0
 62
     7
100
AcDbLine
 10
21.843056
 20
236.160019
 30
0.0
 11
21.843056
 21
243.139999
 31
0.0
  0
ARC
  5
637
330
1F
100
AcDbEntity
  8
0
 62
     7
100
AcDbCircle
 10
22.493053
 20
239.650009
 30
0.0
 40
3.549999952316284
100
AcDbArc
 50
100.550302
 51
259.449705
  0
LINE
  5
638
330
1F
100
AcDbEntity
  8
0
 62
     7
100
AcDbLine
 10
19.093054
 20
153.150009
 30
0.0
 11
19.093054
 21
228.150009
 31
0.0
  0
ARC
  5
639
330
1F
100
AcDbEntity
  8
0
 62
     7
100
AcDbCircle
 10
22.493053
 20
228.150009
 30
0.0
 40
3.400000095367432
100
AcDbArc
 50
0.0
 51
180.000009
  0
LINE
  5
63A
330
1F
100
AcDbEntity
  8
0
 62
     7
100
AcDbLine
 10
25.893055
 20
153.150009
 30
0.0
 11
25.893055
 21
228.150009
 31
0.0
  0
LINE
  5
63B
330
1F
100
AcDbEntity
  8
0
 62
     7
100
AcDbLine
 10
19.093054
 20
153.150009
 30
0.0
 11
19.093054
 21
143.150009
 31
0.0
  0
LINE
  5
63C
330
1F
100
AcDbEntity
  8
0
 62
     7
100
AcDbLine
 10
25.893055
 20
153.150009
 30
0.0
 11
25.893055
 21
143.150009
 31
0.0
  0
LINE
  5
63D
330
1F
100
AcDbEntity
  8
0
 62
     7
100
AcDbLine
 10
25.893055
 20
143.150009
 30
0.0
 11
19.093054
 21
143.150009
 31
0.0
  0
ARC
  5
63E
330
1F
100
AcDbEntity
  8
0
 62
     7
100
AcDbCircle
 10
22.493053
 20
228.150009
 30
0.0
 40
3.549999952316284
100
AcDbArc
 50
344.596894
 51
195.402372
  0
ARC
  5
63F
330
1F
100
AcDbEntity
  8
0
 62
     7
100
AcDbCircle
 10
22.493053
 20
228.150009
 30
0.0
 40
4.712500095367432
100
AcDbArc
 50
192.251401
 51
223.822666
  0
ARC
  5
640
330
1F
100
AcDbEntity
  8
0
 62
     7
100
AcDbCircle
 10
22.493053
 20
228.150009
 30
0.0
 40
4.712500095367432
100
AcDbArc
 50
316.177161
 51
347.748591
  0
LINE
  5
641
330
1F
100
AcDbEntity
  8
0
 62
     7
100
AcDbLine
 10
27.034256
 20
227.150009
 30
0.0
 11
27.098232
 21
227.150009
 31
0.0
  0
ARC
  5
642
330
1F
100
AcDbEntity
  8
0
 62
     7
100
AcDbCircle
 10
22.493053
 20
228.150009
 30
0.0
 40
4.650000095367432
100
AcDbArc
 50
316.985583
 51
347.581305
  0
ARC
  5
643
330
1F
100
AcDbEntity
  8
0
 62
     7
100
AcDbCircle
 10
22.493053
 20
228.150009
 30
0.0
 40
4.650000095367432
100
AcDbArc
 50
192.418686
 51
223.014354
  0
ARC
  5
644
330
1F
100
AcDbEntity
  8
0
 62
     7
100
AcDbCircle
 10
22.493053
 20
228.150009
 30
0.0
 40
4.574999809265137
100
AcDbArc
 50
192.6256
 51
221.997954
  0
ARC
  5
645
330
1F
100
AcDbEntity
  8
0
 62
     7
100
AcDbCircle
 10
22.493053
 20
228.150009
 30
0.0
 40
4.574999809265137
100
AcDbArc
 50
318.002024
 51
347.374406
  0
LINE
  5
646
330
1F
100
AcDbEntity
  8
0
 62
     7
100
AcDbLine
 10
26.893356
 20
227.150009
 30
0.0
 11
26.957428
 21
227.150009
 31
0.0
  0
ARC
  5
647
330
1F
100
AcDbEntity
  8
0
 62
     7
100
AcDbCircle
 10
22.493053
 20
228.150009
 30
0.0
 40
4.512499809265137
100
AcDbArc
 50
318.891096
 51
347.196575
  0
ARC
  5
648
330
1F
100
AcDbEntity
  8
0
 62
     7
100
AcDbCircle
 10
22.493053
 20
228.150009
 30
0.0
 40
4.512499809265137
100
AcDbArc
 50
192.803417
 51
221.108896
  0
ARC
  5
649
330
1F
100
AcDbEntity
  8
0
 62
     7
100
AcDbCircle
 10
22.493053
 20
228.150009
 30
0.0
 40
4.4375
100
AcDbArc
 50
193.023581
 51
219.986545
  0
ARC
  5
64A
330
1F
100
AcDbEntity
  8
0
 62
     7
100
AcDbCircle
 10
22.493053
 20
228.150009
 30
0.0
 40
4.4375
100
AcDbArc
 50
320.013433
 51
346.976424
  0
LINE
  5
64B
330
1F
100
AcDbEntity
  8
0
 62
     7
100
AcDbLine
 10
26.752235
 20
227.150009
 30
0.0
 11
26.81641
 21
227.150009
 31
0.0
  0
ARC
  5
64C
330
1F
100
AcDbEntity
  8
0
 62
     7
100
AcDbCircle
 10
22.493053
 20
228.150009
 30
0.0
 40
4.375
100
AcDbArc
 50
320.999384
 51
346.787008
  0
ARC
  5
64D
330
1F
100
AcDbEntity
  8
0
 62
     7
100
AcDbCircle
 10
22.493053
 20
228.150009
 30
0.0
 40
4.375
100
AcDbArc
 50
193.212982
 51
219.000594
  0
ARC
  5
64E
330
1F
100
AcDbEntity
  8
0
 62
     7
100
AcDbCircle
 10
22.493053
 20
228.150009
 30
0.0
 40
4.25
100
AcDbArc
 50
323.12972
 51
216.870258
  0
ARC
  5
64F
330
1F
100
AcDbEntity
  8
0
 62
     7
100
AcDbCircle
 10
22.493053
 20
228.150009
 30
0.0
 40
4.375
100
AcDbArc
 50
13.21298
 51
166.787018
  0
LINE
  5
650
330
1F
100
AcDbEntity
  8
0
 62
     7
100
AcDbLine
 10
26.752235
 20
229.150009
 30
0.0
 11
26.81641
 21
229.150009
 31
0.0
  0
ARC
  5
651
330
1F
100
AcDbEntity
  8
0
 62
     7
100
AcDbCircle
 10
22.493053
 20
228.150009
 30
0.0
 40
4.4375
100
AcDbArc
 50
13.023584
 51
166.976419
  0
ARC
  5
652
330
1F
100
AcDbEntity
  8
0
 62
     7
100
AcDbCircle
 10
22.493053
 20
228.150009
 30
0.0
 40
4.512499809265137
100
AcDbArc
 50
12.803414
 51
167.196583
  0
LINE
  5
653
330
1F
100
AcDbEntity
  8
0
 62
     7
100
AcDbLine
 10
26.893356
 20
229.150009
 30
0.0
 11
26.957428
 21
229.150009
 31
0.0
  0
ARC
  5
654
330
1F
100
AcDbEntity
  8
0
 62
     7
100
AcDbCircle
 10
22.493053
 20
228.150009
 30
0.0
 40
4.574999809265137
100
AcDbArc
 50
12.625598
 51
167.3744
  0
ARC
  5
655
330
1F
100
AcDbEntity
  8
0
 62
     7
100
AcDbCircle
 10
22.493053
 20
228.150009
 30
0.0
 40
4.650000095367432
100
AcDbArc
 50
12.418682
 51
167.581314
  0
LINE
  5
656
330
1F
100
AcDbEntity
  8
0
 62
     7
100
AcDbLine
 10
27.034256
 20
229.150009
 30
0.0
 11
27.098232
 21
229.150009
 31
0.0
  0
ARC
  5
657
330
1F
100
AcDbEntity
  8
0
 62
     7
100
AcDbCircle
 10
22.493053
 20
228.150009
 30
0.0
 40
4.712500095367432
100
AcDbArc
 50
12.251403
 51
167.748599
  0
LINE
  5
658
330
1F
100
AcDbEntity
  8
0
 62
     7
100
AcDbLine
 10
17.951855
 20
227.150009
 30
0.0
 11
17.887878
 21
227.150009
 31
0.0
  0
LINE
  5
659
330
1F
100
AcDbEntity
  8
0
 62
     7
100
AcDbLine
 10
17.951855
 20
229.150009
 30
0.0
 11
17.887878
 21
229.150009
 31
0.0
  0
LINE
  5
65A
330
1F
100
AcDbEntity
  8
0
 62
     7
100
AcDbLine
 10
18.092752
 20
229.150009
 30
0.0
 11
18.028683
 21
229.150009
 31
0.0
  0
LINE
  5
65B
330
1F
100
AcDbEntity
  8
0
 62
     7
100
AcDbLine
 10
18.233873
 20
229.150009
 30
0.0
 11
18.169699
 21
229.150009
 31
0.0
  0
LINE
  5
65C
330
1F
100
AcDbEntity
  8
0
 62
     7
100
AcDbLine
 10
18.233873
 20
227.150009
 30
0.0
 11
18.169699
 21
227.150009
 31
0.0
  0
LINE
  5
65D
330
1F
100
AcDbEntity
  8
0
 62
     7
100
AcDbLine
 10
18.092752
 20
227.150009
 30
0.0
 11
18.028683
 21
227.150009
 31
0.0
  0
ARC
  5
65E
330
1F
100
AcDbEntity
  8
0
 62
     7
100
AcDbCircle
 10
22.493053
 20
228.150009
 30
0.0
 40
5.0
100
AcDbArc
 50
312.843537
 51
227.156454
  0
ARC
  5
65F
330
1F
100
AcDbEntity
  8
0
 62
     7
100
AcDbCircle
 10
22.493053
 20
228.150009
 30
0.0
 40
5.300000190734863
100
AcDbArc
 50
309.904343
 51
230.095662
  0
ARC
  5
660
330
1F
100
AcDbEntity
  8
0
 62
     7
100
AcDbCircle
 10
22.493053
 20
228.150009
 30
0.0
 40
5.900000095367432
100
AcDbArc
 50
305.188613
 51
151.352115
  0
ARC
  5
661
330
1F
100
AcDbEntity
  8
0
 62
     7
100
AcDbCircle
 10
22.493053
 20
228.150009
 30
0.0
 40
5.900000095367432
100
AcDbArc
 50
151.352115
 51
234.811389
  0
ARC
  5
662
330
1F
100
AcDbEntity
  8
0
 62
     7
100
AcDbCircle
 10
22.493053
 20
228.150009
 30
0.0
 40
6.300000190734863
100
AcDbArc
 50
137.752785
 51
162.24721
  0
LINE
  5
663
330
1F
100
AcDbEntity
  8
0
 62
     7
100
AcDbLine
 10
16.493055
 20
230.070938
 30
0.0
 11
16.493055
 21
226.229065
 31
0.0
  0
ARC
  5
664
330
1F
100
AcDbEntity
  8
0
 62
     7
100
AcDbCircle
 10
22.493053
 20
228.150009
 30
0.0
 40
6.300000190734863
100
AcDbArc
 50
197.75279
 51
222.247215
  0
LINE
  5
665
330
1F
100
AcDbEntity
  8
0
 62
     7
100
AcDbLine
 10
17.829473
 20
223.914322
 30
0.0
 11
19.092974
 21
223.184845
 31
0.0
  0
LINE
  5
666
330
1F
100
AcDbEntity
  8
0
 62
     7
100
AcDbLine
 10
25.893131
 20
223.184845
 30
0.0
 11
27.156635
 21
223.914322
 31
0.0
  0
ARC
  5
667
330
1F
100
AcDbEntity
  8
0
 62
     7
100
AcDbCircle
 10
22.493053
 20
228.150009
 30
0.0
 40
6.300000190734863
100
AcDbArc
 50
317.752777
 51
342.247199
  0
LINE
  5
668
330
1F
100
AcDbEntity
  8
0
 62
     7
100
AcDbLine
 10
28.493053
 20
226.229065
 30
0.0
 11
28.493053
 21
230.070938
 31
0.0
  0
ARC
  5
669
330
1F
100
AcDbEntity
  8
0
 62
     7
100
AcDbCircle
 10
22.493053
 20
228.150009
 30
0.0
 40
6.300000190734863
100
AcDbArc
 50
17.75279
 51
42.24721
  0
LINE
  5
66A
330
1F
100
AcDbEntity
  8
0
 62
     7
100
AcDbLine
 10
27.156635
 20
232.385696
 30
0.0
 11
23.829475
 21
234.306625
 31
0.0
  0
ARC
  5
66B
330
1F
100
AcDbEntity
  8
0
 62
     7
100
AcDbCircle
 10
22.493053
 20
228.150009
 30
0.0
 40
6.300000190734863
100
AcDbArc
 50
77.75279
 51
102.247215
  0
LINE
  5
66C
330
1F
100
AcDbEntity
  8
0
 62
     7
100
AcDbLine
 10
21.156635
 20
234.306625
 30
0.0
 11
17.829473
 21
232.385696
 31
0.0
  0
ARC
  5
66D
330
1F
100
AcDbEntity
  8
0
 62
     7
100
AcDbCircle
 10
22.493053
 20
228.150009
 30
0.0
 40
6.800000190734863
100
AcDbArc
 50
137.403926
 51
162.596068
  0
LINE
  5
66E
330
1F
100
AcDbEntity
  8
0
 62
     7
100
AcDbLine
 10
16.407722
 20
229.780563
 30
0.0
 11
16.00436
 21
230.183929
 31
0.0
  0
ARC
  5
66F
330
1F
100
AcDbEntity
  8
0
 62
     7
100
AcDbCircle
 10
22.493053
 20
228.150009
 30
0.0
 40
6.300000190734863
100
AcDbArc
 50
162.24721
 51
164.999994
  0
ARC
  5
670
330
1F
100
AcDbEntity
  8
0
 62
     7
100
AcDbCircle
 10
22.493053
 20
228.150009
 30
0.0
 40
6.300000190734863
100
AcDbArc
 50
135.0
 51
137.752785
  0
LINE
  5
671
330
1F
100
AcDbEntity
  8
0
 62
     7
100
AcDbLine
 10
18.038282
 20
232.604782
 30
0.0
 11
17.487278
 21
232.752426
 31
0.0
  0
ARC
  5
672
330
1F
100
AcDbEntity
  8
0
 62
     7
100
AcDbCircle
 10
22.493053
 20
228.150009
 30
0.0
 40
6.300000190734863
100
AcDbArc
 50
164.999994
 51
195.000006
  0
ARC
  5
673
330
1F
100
AcDbEntity
  8
0
 62
     7
100
AcDbCircle
 10
22.493053
 20
228.150009
 30
0.0
 40
6.300000190734863
100
AcDbArc
 50
195.000006
 51
197.75279
  0
LINE
  5
674
330
1F
100
AcDbEntity
  8
0
 62
     7
100
AcDbLine
 10
16.407722
 20
226.519455
 30
0.0
 11
16.00436
 21
226.116089
 31
0.0
  0
ARC
  5
675
330
1F
100
AcDbEntity
  8
0
 62
     7
100
AcDbCircle
 10
22.493053
 20
228.150009
 30
0.0
 40
6.800000190734863
100
AcDbArc
 50
197.403932
 51
222.596074
  0
LINE
  5
676
330
1F
100
AcDbEntity
  8
0
 62
     7
100
AcDbLine
 10
18.038282
 20
223.695236
 30
0.0
 11
17.487278
 21
223.547592
 31
0.0
  0
ARC
  5
677
330
1F
100
AcDbEntity
  8
0
 62
     7
100
AcDbCircle
 10
22.493053
 20
228.150009
 30
0.0
 40
6.300000190734863
100
AcDbArc
 50
222.247215
 51
225.0
  0
ARC
  5
678
330
1F
100
AcDbEntity
  8
0
 62
     7
100
AcDbCircle
 10
22.493053
 20
228.150009
 30
0.0
 40
6.300000190734863
100
AcDbArc
 50
225.0
 51
237.338012
  0
ARC
  5
679
330
1F
100
AcDbEntity
  8
0
 62
     7
100
AcDbCircle
 10
22.493053
 20
228.150009
 30
0.0
 40
6.300000190734863
100
AcDbArc
 50
302.661962
 51
314.999992
  0
ARC
  5
67A
330
1F
100
AcDbEntity
  8
0
 62
     7
100
AcDbCircle
 10
22.493053
 20
228.150009
 30
0.0
 40
6.300000190734863
100
AcDbArc
 50
314.999992
 51
317.752777
  0
ARC
  5
67B
330
1F
100
AcDbEntity
  8
0
 62
     7
100
AcDbCircle
 10
22.493053
 20
228.150009
 30
0.0
 40
6.300000190734863
100
AcDbArc
 50
342.247199
 51
345.000012
  0
LINE
  5
67C
330
1F
100
AcDbEntity
  8
0
 62
     7
100
AcDbLine
 10
26.947826
 20
223.695236
 30
0.0
 11
27.498829
 21
223.547592
 31
0.0
  0
ARC
  5
67D
330
1F
100
AcDbEntity
  8
0
 62
     7
100
AcDbCircle
 10
22.493053
 20
228.150009
 30
0.0
 40
6.800000190734863
100
AcDbArc
 50
317.403918
 51
342.596085
  0
LINE
  5
67E
330
1F
100
AcDbEntity
  8
0
 62
     7
100
AcDbLine
 10
28.578388
 20
226.519455
 30
0.0
 11
28.98175
 21
226.116089
 31
0.0
  0
ARC
  5
67F
330
1F
100
AcDbEntity
  8
0
 62
     7
100
AcDbCircle
 10
22.493053
 20
228.150009
 30
0.0
 40
6.300000190734863
100
AcDbArc
 50
345.000012
 51
15.0
  0
ARC
  5
680
330
1F
100
AcDbEntity
  8
0
 62
     7
100
AcDbCircle
 10
22.493053
 20
228.150009
 30
0.0
 40
6.300000190734863
100
AcDbArc
 50
15.0
 51
17.75279
  0
ARC
  5
681
330
1F
100
AcDbEntity
  8
0
 62
     7
100
AcDbCircle
 10
22.493053
 20
228.150009
 30
0.0
 40
6.800000190734863
100
AcDbArc
 50
17.403926
 51
42.596075
  0
LINE
  5
682
330
1F
100
AcDbEntity
  8
0
 62
     7
100
AcDbLine
 10
26.947826
 20
232.604782
 30
0.0
 11
27.498829
 21
232.752426
 31
0.0
  0
ARC
  5
683
330
1F
100
AcDbEntity
  8
0
 62
     7
100
AcDbCircle
 10
22.493053
 20
228.150009
 30
0.0
 40
6.300000190734863
100
AcDbArc
 50
42.24721
 51
45.000001
  0
LINE
  5
684
330
1F
100
AcDbEntity
  8
0
 62
     7
100
AcDbLine
 10
28.578388
 20
229.780563
 30
0.0
 11
28.98175
 21
230.183929
 31
0.0
  0
ARC
  5
685
330
1F
100
AcDbEntity
  8
0
 62
     7
100
AcDbCircle
 10
22.493053
 20
228.150009
 30
0.0
 40
6.300000190734863
100
AcDbArc
 50
45.000001
 51
74.999999
  0
ARC
  5
686
330
1F
100
AcDbEntity
  8
0
 62
     7
100
AcDbCircle
 10
22.493053
 20
228.150009
 30
0.0
 40
6.300000190734863
100
AcDbArc
 50
74.999999
 51
77.75279
  0
ARC
  5
687
330
1F
100
AcDbEntity
  8
0
 62
     7
100
AcDbCircle
 10
22.493053
 20
228.150009
 30
0.0
 40
6.300000190734863
100
AcDbArc
 50
102.247215
 51
105.0
  0
LINE
  5
688
330
1F
100
AcDbEntity
  8
0
 62
     7
100
AcDbLine
 10
24.123615
 20
234.235336
 30
0.0
 11
23.975975
 21
234.786346
 31
0.0
  0
ARC
  5
689
330
1F
100
AcDbEntity
  8
0
 62
     7
100
AcDbCircle
 10
22.493053
 20
228.150009
 30
0.0
 40
6.800000190734863
100
AcDbArc
 50
77.403925
 51
102.596073
  0
LINE
  5
68A
330
1F
100
AcDbEntity
  8
0
 62
     7
100
AcDbLine
 10
20.862495
 20
234.235336
 30
0.0
 11
21.010136
 21
234.786346
 31
0.0
  0
ARC
  5
68B
330
1F
100
AcDbEntity
  8
0
 62
     7
100
AcDbCircle
 10
22.493053
 20
228.150009
 30
0.0
 40
6.300000190734863
100
AcDbArc
 50
105.0
 51
135.0
  0
LINE
  5
68C
330
1F
100
AcDbEntity
  8
0
 62
     7
100
AcDbLine
 10
31.093033
 20
242.554886
 30
0.0
 11
31.093056
 21
242.550003
 31
0.0
  0
LINE
  5
68D
330
1F
100
AcDbEntity
  8
0
 62
     7
100
AcDbLine
 10
31.091969
 20
242.582932
 30
0.0
 11
31.093056
 21
242.550003
 31
0.0
  0
LINE
  5
68E
330
1F
100
AcDbEntity
  8
0
 62
     7
100
AcDbLine
 10
31.092396
 20
242.575623
 30
0.0
 11
31.093056
 21
242.550003
 31
0.0
  0
ARC
  5
68F
330
1F
100
AcDbEntity
  8
0
 62
     7
100
AcDbCircle
 10
22.493053
 20
228.150009
 30
0.0
 40
7.0
100
AcDbArc
 50
299.059263
 51
61.352113
  0
POLYLINE
  5
690
330
1F
100
AcDbEntity
  8
0
 62
     7
100
AcDb2dPolyline
 66
     1
 10
0.0
 20
0.0
 30
0.0
  0
VERTEX
  5
691
330
690
100
AcDbEntity
  8
0
100
AcDbVertex
100
AcDb2dVertex
 10
216.276794
 20
159.244919
 30
0.0
  0
VERTEX
  5
692
330
690
100
AcDbEntity
  8
0
100
AcDbVertex
100
AcDb2dVertex
 10
215.816788
 20
159.809448
 30
0.0
  0
VERTEX
  5
693
330
690
100
AcDbEntity
  8
0
100
AcDbVertex
100
AcDb2dVertex
 10
215.126801
 20
160.051376
 30
0.0
  0
VERTEX
  5
694
330
690
100
AcDbEntity
  8
0
100
AcDbVertex
100
AcDb2dVertex
 10
214.436798
 20
160.051376
 30
0.0
  0
VERTEX
  5
695
330
690
100
AcDbEntity
  8
0
100
AcDbVertex
100
AcDb2dVertex
 10
213.746796
 20
159.809448
 30
0.0
  0
VERTEX
  5
696
330
690
100
AcDbEntity
  8
0
100
AcDbVertex
100
AcDb2dVertex
 10
213.286789
 20
159.164276
 30
0.0
  0
VERTEX
  5
697
330
690
100
AcDbEntity
  8
0
100
AcDbVertex
100
AcDb2dVertex
 10
213.286789
 20
158.599762
 30
0.0
  0
VERTEX
  5
698
330
690
100
AcDbEntity
  8
0
100
AcDbVertex
100
AcDb2dVertex
 10
213.689301
 20
158.035248
 30
0.0
  0
SEQEND
  5
699
330
690
100
AcDbEntity
  8
0
 62
     7
  0
POLYLINE
  5
69A
330
1F
100
AcDbEntity
  8
0
 62
     7
100
AcDb2dPolyline
 66
     1
 10
0.0
 20
0.0
 30
0.0
  0
VERTEX
  5
69B
330
69A
100
AcDbEntity
  8
0
100
AcDbVertex
100
AcDb2dVertex
 10
214.781799
 20
157.632019
 30
0.0
  0
VERTEX
  5
69C
330
69A
100
AcDbEntity
  8
0
100
AcDbVertex
100
AcDb2dVertex
 10
215.299286
 20
157.470734
 30
0.0
  0
SEQEND
  5
69D
330
69A
100
AcDbEntity
  8
0
 62
     7
  0
POLYLINE
  5
69E
330
1F
100
AcDbEntity
  8
0
 62
     7
100
AcDb2dPolyline
 66
     1
 10
0.0
 20
0.0
 30
0.0
  0
VERTEX
  5
69F
330
69E
100
AcDbEntity
  8
0
100
AcDbVertex
100
AcDb2dVertex
 10
215.816788
 20
155.212662
 30
0.0
  0
VERTEX
  5
6A0
330
69E
100
AcDbEntity
  8
0
100
AcDbVertex
100
AcDb2dVertex
 10
215.126801
 20
155.051376
 30
0.0
  0
VERTEX
  5
6A1
330
69E
100
AcDbEntity
  8
0
100
AcDbVertex
100
AcDb2dVertex
 10
214.436798
 20
155.051376
 30
0.0
  0
VERTEX
  5
6A2
330
69E
100
AcDbEntity
  8
0
100
AcDbVertex
100
AcDb2dVertex
 10
213.746796
 20
155.373962
 30
0.0
  0
VERTEX
  5
6A3
330
69E
100
AcDbEntity
  8
0
100
AcDbVertex
100
AcDb2dVertex
 10
213.286789
 20
155.938477
 30
0.0
  0
SEQEND
  5
6A4
330
69E
100
AcDbEntity
  8
0
 62
     7
  0
POLYLINE
  5
6A5
330
1F
100
AcDbEntity
  8
0
 62
     7
100
AcDb2dPolyline
 66
     1
 10
0.0
 20
0.0
 30
0.0
  0
VERTEX
  5
6A6
330
6A5
100
AcDbEntity
  8
0
100
AcDbVertex
100
AcDb2dVertex
 10
214.321793
 20
157.712662
 30
0.0
  0
VERTEX
  5
6A7
330
6A5
100
AcDbEntity
  8
0
100
AcDbVertex
100
AcDb2dVertex
 10
214.781799
 20
157.632019
 30
0.0
  0
SEQEND
  5
6A8
330
6A5
100
AcDbEntity
  8
0
 62
     7
  0
POLYLINE
  5
6A9
330
1F
100
AcDbEntity
  8
0
 62
     7
100
AcDb2dPolyline
 66
     1
 10
0.0
 20
0.0
 30
0.0
  0
VERTEX
  5
6AA
330
6A9
100
AcDbEntity
  8
0
100
AcDbVertex
100
AcDb2dVertex
 10
213.689301
 20
158.035248
 30
0.0
  0
VERTEX
  5
6AB
330
6A9
100
AcDbEntity
  8
0
100
AcDbVertex
100
AcDb2dVertex
 10
214.321793
 20
157.712662
 30
0.0
  0
SEQEND
  5
6AC
330
6A9
100
AcDbEntity
  8
0
 62
     7
  0
POLYLINE
  5
6AD
330
1F
100
AcDbEntity
  8
0
 62
     7
100
AcDb2dPolyline
 66
     1
 10
0.0
 20
0.0
 30
0.0
  0
VERTEX
  5
6AE
330
6AD
100
AcDbEntity
  8
0
100
AcDbVertex
100
AcDb2dVertex
 10
216.276794
 20
155.857834
 30
0.0
  0
VERTEX
  5
6AF
330
6AD
100
AcDbEntity
  8
0
100
AcDbVertex
100
AcDb2dVertex
 10
215.816788
 20
155.212662
 30
0.0
  0
SEQEND
  5
6B0
330
6AD
100
AcDbEntity
  8
0
 62
     7
  0
POLYLINE
  5
6B1
330
1F
100
AcDbEntity
  8
0
 62
     7
100
AcDb2dPolyline
 66
     1
 10
0.0
 20
0.0
 30
0.0
  0
VERTEX
  5
6B2
330
6B1
100
AcDbEntity
  8
0
100
AcDbVertex
100
AcDb2dVertex
 10
216.276794
 20
156.583633
 30
0.0
  0
VERTEX
  5
6B3
330
6B1
100
AcDbEntity
  8
0
100
AcDbVertex
100
AcDb2dVertex
 10
216.276794
 20
155.857834
 30
0.0
  0
SEQEND
  5
6B4
330
6B1
100
AcDbEntity
  8
0
 62
     7
  0
POLYLINE
  5
6B5
330
1F
100
AcDbEntity
  8
0
 62
     7
100
AcDb2dPolyline
 66
     1
 10
0.0
 20
0.0
 30
0.0
  0
VERTEX
  5
6B6
330
6B5
100
AcDbEntity
  8
0
100
AcDbVertex
100
AcDb2dVertex
 10
215.299286
 20
157.470734
 30
0.0
  0
VERTEX
  5
6B7
330
6B5
100
AcDbEntity
  8
0
100
AcDbVertex
100
AcDb2dVertex
 10
215.816788
 20
157.148148
 30
0.0
  0
VERTEX
  5
6B8
330
6B5
100
AcDbEntity
  8
0
100
AcDbVertex
100
AcDb2dVertex
 10
216.276794
 20
156.583633
 30
0.0
  0
SEQEND
  5
6B9
330
6B5
100
AcDbEntity
  8
0
 62
     7
  0
POLYLINE
  5
6BA
330
1F
100
AcDbEntity
  8
0
 62
     7
100
AcDb2dPolyline
 66
     1
 10
0.0
 20
0.0
 30
0.0
  0
VERTEX
  5
6BB
330
6BA
100
AcDbEntity
  8
0
100
AcDbVertex
100
AcDb2dVertex
 10
219.191788
 20
160.051376
 30
0.0
  0
VERTEX
  5
6BC
330
6BA
100
AcDbEntity
  8
0
100
AcDbVertex
100
AcDb2dVertex
 10
217.236786
 20
160.051376
 30
0.0
  0
SEQEND
  5
6BD
330
6BA
100
AcDbEntity
  8
0
 62
     7
  0
POLYLINE
  5
6BE
330
1F
100
AcDbEntity
  8
0
 62
     7
100
AcDb2dPolyline
 66
     1
 10
0.0
 20
0.0
 30
0.0
  0
VERTEX
  5
6BF
330
6BE
100
AcDbEntity
  8
0
100
AcDbVertex
100
AcDb2dVertex
 10
217.236786
 20
157.632019
 30
0.0
  0
VERTEX
  5
6C0
330
6BE
100
AcDbEntity
  8
0
100
AcDbVertex
100
AcDb2dVertex
 10
219.306793
 20
157.632019
 30
0.0
  0
SEQEND
  5
6C1
330
6BE
100
AcDbEntity
  8
0
 62
     7
  0
POLYLINE
  5
6C2
330
1F
100
AcDbEntity
  8
0
 62
     7
100
AcDb2dPolyline
 66
     1
 10
0.0
 20
0.0
 30
0.0
  0
VERTEX
  5
6C3
330
6C2
100
AcDbEntity
  8
0
100
AcDbVertex
100
AcDb2dVertex
 10
217.236786
 20
160.051376
 30
0.0
  0
VERTEX
  5
6C4
330
6C2
100
AcDbEntity
  8
0
100
AcDbVertex
100
AcDb2dVertex
 10
217.236786
 20
155.051376
 30
0.0
  0
SEQEND
  5
6C5
330
6C2
100
AcDbEntity
  8
0
 62
     7
  0
POLYLINE
  5
6C6
330
1F
100
AcDbEntity
  8
0
 62
     7
100
AcDb2dPolyline
 66
     1
 10
0.0
 20
0.0
 30
0.0
  0
VERTEX
  5
6C7
330
6C6
100
AcDbEntity
  8
0
100
AcDbVertex
100
AcDb2dVertex
 10
219.191788
 20
160.051376
 30
0.0
  0
VERTEX
  5
6C8
330
6C6
100
AcDbEntity
  8
0
100
AcDbVertex
100
AcDb2dVertex
 10
219.594299
 20
159.809448
 30
0.0
  0
VERTEX
  5
6C9
330
6C6
100
AcDbEntity
  8
0
100
AcDbVertex
100
AcDb2dVertex
 10
219.996796
 20
159.244919
 30
0.0
  0
VERTEX
  5
6CA
330
6C6
100
AcDbEntity
  8
0
100
AcDbVertex
100
AcDb2dVertex
 10
219.996796
 20
158.438477
 30
0.0
  0
VERTEX
  5
6CB
330
6C6
100
AcDbEntity
  8
0
100
AcDbVertex
100
AcDb2dVertex
 10
219.70929
 20
157.954605
 30
0.0
  0
VERTEX
  5
6CC
330
6C6
100
AcDbEntity
  8
0
100
AcDbVertex
100
AcDb2dVertex
 10
219.306793
 20
157.632019
 30
0.0
  0
SEQEND
  5
6CD
330
6C6
100
AcDbEntity
  8
0
 62
     7
  0
POLYLINE
  5
6CE
330
1F
100
AcDbEntity
  8
0
 62
     7
100
AcDb2dPolyline
 66
     1
 10
0.0
 20
0.0
 30
0.0
  0
VERTEX
  5
6CF
330
6CE
100
AcDbEntity
  8
0
100
AcDbVertex
100
AcDb2dVertex
 10
218.846786
 20
157.632019
 30
0.0
  0
VERTEX
  5
6D0
330
6CE
100
AcDbEntity
  8
0
100
AcDbVertex
100
AcDb2dVertex
 10
219.996796
 20
155.051376
 30
0.0
  0
SEQEND
  5
6D1
330
6CE
100
AcDbEntity
  8
0
 62
     7
  0
POLYLINE
  5
6D2
330
1F
100
AcDbEntity
  8
0
 62
     7
100
AcDb2dPolyline
 66
     1
 10
0.0
 20
0.0
 30
0.0
  0
VERTEX
  5
6D3
330
6D2
100
AcDbEntity
  8
0
100
AcDbVertex
100
AcDb2dVertex
 10
224.061798
 20
155.051376
 30
0.0
  0
VERTEX
  5
6D4
330
6D2
100
AcDbEntity
  8
0
100
AcDbVertex
100
AcDb2dVertex
 10
221.301788
 20
155.051376
 30
0.0
  0
VERTEX
  5
6D5
330
6D2
100
AcDbEntity
  8
0
100
AcDbVertex
100
AcDb2dVertex
 10
223.25679
 20
157.309448
 30
0.0
  0
VERTEX
  5
6D6
330
6D2
100
AcDbEntity
  8
0
100
AcDbVertex
100
AcDb2dVertex
 10
223.659286
 20
157.954605
 30
0.0
  0
VERTEX
  5
6D7
330
6D2
100
AcDbEntity
  8
0
100
AcDbVertex
100
AcDb2dVertex
 10
223.831787
 20
158.438477
 30
0.0
  0
VERTEX
  5
6D8
330
6D2
100
AcDbEntity
  8
0
100
AcDbVertex
100
AcDb2dVertex
 10
223.831787
 20
158.922348
 30
0.0
  0
VERTEX
  5
6D9
330
6D2
100
AcDbEntity
  8
0
100
AcDbVertex
100
AcDb2dVertex
 10
223.659286
 20
159.486862
 30
0.0
  0
VERTEX
  5
6DA
330
6D2
100
AcDbEntity
  8
0
100
AcDbVertex
100
AcDb2dVertex
 10
223.486786
 20
159.809448
 30
0.0
  0
VERTEX
  5
6DB
330
6D2
100
AcDbEntity
  8
0
100
AcDbVertex
100
AcDb2dVertex
 10
223.08429
 20
160.051376
 30
0.0
  0
VERTEX
  5
6DC
330
6D2
100
AcDbEntity
  8
0
100
AcDbVertex
100
AcDb2dVertex
 10
222.394287
 20
160.051376
 30
0.0
  0
VERTEX
  5
6DD
330
6D2
100
AcDbEntity
  8
0
100
AcDbVertex
100
AcDb2dVertex
 10
221.991791
 20
159.809448
 30
0.0
  0
VERTEX
  5
6DE
330
6D2
100
AcDbEntity
  8
0
100
AcDbVertex
100
AcDb2dVertex
 10
221.81929
 20
159.567505
 30
0.0
  0
VERTEX
  5
6DF
330
6D2
100
AcDbEntity
  8
0
100
AcDbVertex
100
AcDb2dVertex
 10
221.589294
 20
159.083633
 30
0.0
  0
VERTEX
  5
6E0
330
6D2
100
AcDbEntity
  8
0
100
AcDbVertex
100
AcDb2dVertex
 10
221.589294
 20
158.841705
 30
0.0
  0
SEQEND
  5
6E1
330
6D2
100
AcDbEntity
  8
0
 62
     7
  0
POLYLINE
  5
6E2
330
1F
100
AcDbEntity
  8
0
 62
     7
100
AcDb2dPolyline
 66
     1
 10
0.0
 20
0.0
 30
0.0
  0
VERTEX
  5
6E3
330
6E2
100
AcDbEntity
  8
0
100
AcDbVertex
100
AcDb2dVertex
 10
227.89679
 20
156.825577
 30
0.0
  0
VERTEX
  5
6E4
330
6E2
100
AcDbEntity
  8
0
100
AcDbVertex
100
AcDb2dVertex
 10
225.251801
 20
156.825577
 30
0.0
  0
VERTEX
  5
6E5
330
6E2
100
AcDbEntity
  8
0
100
AcDbVertex
100
AcDb2dVertex
 10
227.206787
 20
160.051376
 30
0.0
  0
VERTEX
  5
6E6
330
6E2
100
AcDbEntity
  8
0
100
AcDbVertex
100
AcDb2dVertex
 10
227.206787
 20
157.632019
 30
0.0
  0
VERTEX
  5
6E7
330
6E2
100
AcDbEntity
  8
0
100
AcDbVertex
100
AcDb2dVertex
 10
227.206787
 20
155.051376
 30
0.0
  0
SEQEND
  5
6E8
330
6E2
100
AcDbEntity
  8
0
 62
     7
  0
POLYLINE
  5
6E9
330
1F
100
AcDbEntity
  8
0
 62
     7
100
AcDb2dPolyline
 66
     1
 10
0.0
 20
0.0
 30
0.0
  0
VERTEX
  5
6EA
330
6E9
100
AcDbEntity
  8
0
100
AcDbVertex
100
AcDb2dVertex
 10
229.374298
 20
157.067505
 30
0.0
  0
VERTEX
  5
6EB
330
6E9
100
AcDbEntity
  8
0
100
AcDbVertex
100
AcDb2dVertex
 10
232.019287
 20
157.067505
 30
0.0
  0
SEQEND
  5
6EC
330
6E9
100
AcDbEntity
  8
0
 62
     7
  0
POLYLINE
  5
6ED
330
1F
100
AcDbEntity
  8
0
 62
     7
100
AcDb2dPolyline
 66
     1
 10
0.0
 20
0.0
 30
0.0
 70
     1
  0
VERTEX
  5
6EE
330
6ED
100
AcDbEntity
  8
0
100
AcDbVertex
100
AcDb2dVertex
 10
234.301788
 20
160.051376
 30
0.0
  0
VERTEX
  5
6EF
330
6ED
100
AcDbEntity
  8
0
100
AcDbVertex
100
AcDb2dVertex
 10
233.669296
 20
159.809448
 30
0.0
  0
VERTEX
  5
6F0
330
6ED
100
AcDbEntity
  8
0
100
AcDbVertex
100
AcDb2dVertex
 10
233.266785
 20
159.002991
 30
0.0
  0
VERTEX
  5
6F1
330
6ED
100
AcDbEntity
  8
0
100
AcDbVertex
100
AcDb2dVertex
 10
233.094299
 20
158.196533
 30
0.0
  0
VERTEX
  5
6F2
330
6ED
100
AcDbEntity
  8
0
100
AcDbVertex
100
AcDb2dVertex
 10
233.094299
 20
157.148148
 30
0.0
  0
VERTEX
  5
6F3
330
6ED
100
AcDbEntity
  8
0
100
AcDbVertex
100
AcDb2dVertex
 10
233.266785
 20
156.099762
 30
0.0
  0
VERTEX
  5
6F4
330
6ED
100
AcDbEntity
  8
0
100
AcDbVertex
100
AcDb2dVertex
 10
233.669296
 20
155.293304
 30
0.0
  0
VERTEX
  5
6F5
330
6ED
100
AcDbEntity
  8
0
100
AcDbVertex
100
AcDb2dVertex
 10
234.301788
 20
155.051376
 30
0.0
  0
VERTEX
  5
6F6
330
6ED
100
AcDbEntity
  8
0
100
AcDbVertex
100
AcDb2dVertex
 10
234.761795
 20
155.051376
 30
0.0
  0
VERTEX
  5
6F7
330
6ED
100
AcDbEntity
  8
0
100
AcDbVertex
100
AcDb2dVertex
 10
235.394287
 20
155.293304
 30
0.0
  0
VERTEX
  5
6F8
330
6ED
100
AcDbEntity
  8
0
100
AcDbVertex
100
AcDb2dVertex
 10
235.796783
 20
156.099762
 30
0.0
  0
VERTEX
  5
6F9
330
6ED
100
AcDbEntity
  8
0
100
AcDbVertex
100
AcDb2dVertex
 10
235.969299
 20
157.067505
 30
0.0
  0
VERTEX
  5
6FA
330
6ED
100
AcDbEntity
  8
0
100
AcDbVertex
100
AcDb2dVertex
 10
235.969299
 20
158.196533
 30
0.0
  0
VERTEX
  5
6FB
330
6ED
100
AcDbEntity
  8
0
100
AcDbVertex
100
AcDb2dVertex
 10
235.796783
 20
159.002991
 30
0.0
  0
VERTEX
  5
6FC
330
6ED
100
AcDbEntity
  8
0
100
AcDbVertex
100
AcDb2dVertex
 10
235.394287
 20
159.809448
 30
0.0
  0
VERTEX
  5
6FD
330
6ED
100
AcDbEntity
  8
0
100
AcDbVertex
100
AcDb2dVertex
 10
234.761795
 20
160.051376
 30
0.0
  0
SEQEND
  5
6FE
330
6ED
100
AcDbEntity
  8
0
 62
     7
  0
POLYLINE
  5
6FF
330
1F
100
AcDbEntity
  8
0
 62
     7
100
AcDb2dPolyline
 66
     1
 10
0.0
 20
0.0
 30
0.0
  0
VERTEX
  5
700
330
6FF
100
AcDbEntity
  8
0
100
AcDbVertex
100
AcDb2dVertex
 10
239.861786
 20
155.051376
 30
0.0
  0
VERTEX
  5
701
330
6FF
100
AcDbEntity
  8
0
100
AcDbVertex
100
AcDb2dVertex
 10
237.101791
 20
155.051376
 30
0.0
  0
VERTEX
  5
702
330
6FF
100
AcDbEntity
  8
0
100
AcDbVertex
100
AcDb2dVertex
 10
239.056793
 20
157.309448
 30
0.0
  0
VERTEX
  5
703
330
6FF
100
AcDbEntity
  8
0
100
AcDbVertex
100
AcDb2dVertex
 10
239.45929
 20
157.954605
 30
0.0
  0
VERTEX
  5
704
330
6FF
100
AcDbEntity
  8
0
100
AcDbVertex
100
AcDb2dVertex
 10
239.63179
 20
158.438477
 30
0.0
  0
VERTEX
  5
705
330
6FF
100
AcDbEntity
  8
0
100
AcDbVertex
100
AcDb2dVertex
 10
239.63179
 20
158.922348
 30
0.0
  0
VERTEX
  5
706
330
6FF
100
AcDbEntity
  8
0
100
AcDbVertex
100
AcDb2dVertex
 10
239.45929
 20
159.486862
 30
0.0
  0
VERTEX
  5
707
330
6FF
100
AcDbEntity
  8
0
100
AcDbVertex
100
AcDb2dVertex
 10
239.286789
 20
159.809448
 30
0.0
  0
VERTEX
  5
708
330
6FF
100
AcDbEntity
  8
0
100
AcDbVertex
100
AcDb2dVertex
 10
238.884293
 20
160.051376
 30
0.0
  0
VERTEX
  5
709
330
6FF
100
AcDbEntity
  8
0
100
AcDbVertex
100
AcDb2dVertex
 10
238.19429
 20
160.051376
 30
0.0
  0
VERTEX
  5
70A
330
6FF
100
AcDbEntity
  8
0
100
AcDbVertex
100
AcDb2dVertex
 10
237.791794
 20
159.809448
 30
0.0
  0
VERTEX
  5
70B
330
6FF
100
AcDbEntity
  8
0
100
AcDbVertex
100
AcDb2dVertex
 10
237.619293
 20
159.567505
 30
0.0
  0
VERTEX
  5
70C
330
6FF
100
AcDbEntity
  8
0
100
AcDbVertex
100
AcDb2dVertex
 10
237.389297
 20
159.083633
 30
0.0
  0
VERTEX
  5
70D
330
6FF
100
AcDbEntity
  8
0
100
AcDbVertex
100
AcDb2dVertex
 10
237.389297
 20
158.841705
 30
0.0
  0
SEQEND
  5
70E
330
6FF
100
AcDbEntity
  8
0
 62
     7
  0
POLYLINE
  5
70F
330
1F
100
AcDbEntity
  8
0
 62
     7
100
AcDb2dPolyline
 66
     1
 10
0.0
 20
0.0
 30
0.0
  0
VERTEX
  5
710
330
70F
100
AcDbEntity
  8
0
100
AcDbVertex
100
AcDb2dVertex
 10
241.051788
 20
160.051376
 30
0.0
  0
VERTEX
  5
711
330
70F
100
AcDbEntity
  8
0
100
AcDbVertex
100
AcDb2dVertex
 10
243.811798
 20
160.051376
 30
0.0
  0
VERTEX
  5
712
330
70F
100
AcDbEntity
  8
0
100
AcDbVertex
100
AcDb2dVertex
 10
241.741791
 20
155.051376
 30
0.0
  0
SEQEND
  5
713
330
70F
100
AcDbEntity
  8
0
 62
     7
  0
ENDSEC
  0
SECTION
  2
OBJECTS
  0
DICTIONARY
  5
C
330
0
100
AcDbDictionary
  3
ACAD_GROUP
350
D
  3
ACAD_MLINESTYLE
350
17
  3
ACAD_SCALELIST
350
47
  0
DICTIONARY
  5
D
102
{ACAD_REACTORS
330
C
102
}
330
C
100
AcDbDictionary
  0
DICTIONARY
  5
17
102
{ACAD_REACTORS
330
C
102
}
330
C
100
AcDbDictionary
  3
STANDARD
350
18
  0
DICTIONARY
  5
47
102
{ACAD_REACTORS
330
C
102
}
330
C
100
AcDbDictionary
  0
MLINESTYLE
  5
18
102
{ACAD_REACTORS
330
17
102
}
330
17
100
AcDbMlineStyle
  2
Standard
 70
     0
  3

 62
   256
 51
90.0
 52
90.0
 71
     2
 49
0.5
 62
   256
  6
BYLAYER
 49
-0.5
 62
   256
  6
BYLAYER
  0
ENDSEC
  0
EOF
