  0
SECTION
  2
HEADER
  9
$ACADVER
  1
AC1014
  9
$ACADMAINTVER
 70
     9
  9
$DWGCODEPAGE
  3
ANSI_1252
  9
$INSBASE
 10
0.0
 20
0.0
 30
0.0
  9
$EXTMIN
 10
0.0
 20
0.0
 30
0.0
  9
$EXTMAX
 10
555.306946
 20
276.849976
 30
2.0
  9
$LIMMIN
 10
0.0
 20
0.0
  9
$LIMMAX
 10
420.0
 20
297.0
  9
$ORTHOMODE
 70
     0
  9
$REGENMODE
 70
     1
  9
$FILLMODE
 70
     1
  9
$QTEXTMODE
 70
     0
  9
$MIRRTEXT
 70
     1
  9
$DRAGMODE
 70
     2
  9
$LTSCALE
 40
1.0
  9
$OSMODE
 70
     0
  9
$ATTMODE
 70
     1
  9
$TEXTSIZE
 40
2.5
  9
$TRACEWID
 40
1.0
  9
$TEXTSTYLE
  7
STANDARD
  9
$CLAYER
  8
0
  9
$CELTYPE
  6
BYLAYER
  9
$CECOLOR
 62
   256
  9
$CELTSCALE
 40
1.0
  9
$DELOBJ
 70
     1
  9
$DISPSILH
 70
     0
  9
$DIMSCALE
 40
1.0
  9
$DIMASZ
 40
2.5
  9
$DIMEXO
 40
0.625
  9
$DIMDLI
 40
3.75
  9
$DIMRND
 40
0.0
  9
$DIMDLE
 40
0.0
  9
$DIMEXE
 40
1.25
  9
$DIMTP
 40
0.0
  9
$DIMTM
 40
0.0
  9
$DIMTXT
 40
2.5
  9
$DIMCEN
 40
2.5
  9
$DIMTSZ
 40
0.0
  9
$DIMTOL
 70
     0
  9
$DIMLIM
 70
     0
  9
$DIMTIH
 70
     0
  9
$DIMTOH
 70
     0
  9
$DIMSE1
 70
     0
  9
$DIMSE2
 70
     0
  9
$DIMTAD
 70
     1
  9
$DIMZIN
 70
     8
  9
$DIMBLK
  1

  9
$DIMASO
 70
     1
  9
$DIMSHO
 70
     1
  9
$DIMPOST
  1

  9
$DIMAPOST
  1

  9
$DIMALT
 70
     0
  9
$DIMALTD
 70
     3
  9
$DIMALTF
 40
0.03937
  9
$DIMLFAC
 40
1.0
  9
$DIMTOFL
 70
     1
  9
$DIMTVP
 40
0.0
  9
$DIMTIX
 70
     0
  9
$DIMSOXD
 70
     0
  9
$DIMSAH
 70
     0
  9
$DIMBLK1
  1

  9
$DIMBLK2
  1

  9
$DIMSTYLE
  2
STANDARD
  9
$DIMCLRD
 70
     0
  9
$DIMCLRE
 70
     0
  9
$DIMCLRT
 70
     0
  9
$DIMTFAC
 40
1.0
  9
$DIMGAP
 40
0.625
  9
$DIMJUST
 70
     0
  9
$DIMSD1
 70
     0
  9
$DIMSD2
 70
     0
  9
$DIMTOLJ
 70
     0
  9
$DIMTZIN
 70
     8
  9
$DIMALTZ
 70
     0
  9
$DIMALTTZ
 70
     0
  9
$DIMFIT
 70
     0
  9
$DIMUPT
 70
     0
  9
$DIMUNIT
 70
     2
  9
$DIMDEC
 70
     2
  9
$DIMTDEC
 70
     2
  9
$DIMALTU
 70
     2
  9
$DIMALTTD
 70
     3
  9
$DIMTXSTY
  7
STANDARD
  9
$DIMAUNIT
 70
     0
  9
$LUNITS
 70
     2
  9
$LUPREC
 70
     4
  9
$SKETCHINC
 40
1.0
  9
$FILLETRAD
 40
2.5
  9
$AUNITS
 70
     0
  9
$AUPREC
 70
     0
  9
$MENU
  1
.
  9
$ELEVATION
 40
0.0
  9
$PELEVATION
 40
0.0
  9
$THICKNESS
 40
0.0
  9
$LIMCHECK
 70
     0
  9
$BLIPMODE
 70
     1
  9
$CHAMFERA
 40
2.5
  9
$CHAMFERB
 40
2.5
  9
$CHAMFERC
 40
0.0
  9
$CHAMFERD
 40
0.0
  9
$SKPOLY
 70
     0
  9
$TDCREATE
 40
2447893.375
  9
$TDUPDATE
 40
2460350.631428218
  9
$TDINDWG
 40
0.0
  9
$TDUSRTIMER
 40
0.0
  9
$USRTIMER
 70
     1
  9
$ANGBASE
 50
0.0
  9
$ANGDIR
 70
     0
  9
$PDMODE
 70
     0
  9
$PDSIZE
 40
0.0
  9
$PLINEWID
 40
0.0
  9
$COORDS
 70
     0
  9
$SPLFRAME
 70
     0
  9
$SPLINETYPE
 70
     6
  9
$SPLINESEGS
 70
     8
  9
$ATTDIA
 70
     0
  9
$ATTREQ
 70
     1
  9
$HANDLING
 70
     1
  9
$HANDSEED
  5
71F
  9
$SURFTAB1
 70
     6
  9
$SURFTAB2
 70
     6
  9
$SURFTYPE
 70
     6
  9
$SURFU
 70
     6
  9
$SURFV
 70
     6
  9
$UCSNAME
  2

  9
$UCSORG
 10
0.0
 20
0.0
 30
0.0
  9
$UCSXDIR
 10
1.0
 20
0.0
 30
0.0
  9
$UCSYDIR
 10
0.0
 20
1.0
 30
0.0
  9
$PUCSNAME
  2

  9
$PUCSORG
 10
0.0
 20
0.0
 30
0.0
  9
$PUCSXDIR
 10
1.0
 20
0.0
 30
0.0
  9
$PUCSYDIR
 10
0.0
 20
1.0
 30
0.0
  9
$USERI1
 70
     0
  9
$USERI2
 70
     0
  9
$USERI3
 70
     0
  9
$USERI4
 70
     0
  9
$USERI5
 70
     0
  9
$USERR1
 40
0.0
  9
$USERR2
 40
0.0
  9
$USERR3
 40
0.0
  9
$USERR4
 40
0.0
  9
$USERR5
 40
0.0
  9
$WORLDVIEW
 70
     1
  9
$SHADEDGE
 70
     3
  9
$SHADEDIF
 70
    70
  9
$TILEMODE
 70
     1
  9
$MAXACTVP
 70
    64
  9
$PINSBASE
 10
0.0
 20
0.0
 30
0.0
  9
$PLIMCHECK
 70
     0
  9
$PEXTMIN
 10
0.0
 20
0.0
 30
0.0
  9
$PEXTMAX
 10
555.306946
 20
276.849976
 30
2.0
  9
$PLIMMIN
 10
0.0
 20
0.0
  9
$PLIMMAX
 10
420.0
 20
297.0
  9
$UNITMODE
 70
     0
  9
$VISRETAIN
 70
     0
  9
$PLINEGEN
 70
     0
  9
$PSLTSCALE
 70
     1
  9
$TREEDEPTH
 70
  3020
  9
$PICKSTYLE
 70
     1
  9
$CMLSTYLE
  2
STANDARD
  9
$CMLJUST
 70
     0
  9
$CMLSCALE
 40
20.0
  9
$PROXYGRAPHICS
 70
     1
  9
$MEASUREMENT
 70
     1
  0
ENDSEC
  0
SECTION
  2
CLASSES
  0
CLASS
  1
ACDBDICTIONARYWDFLT
  2
AcDbDictionaryWithDefault
  3
ObjectDBX Classes
 90
        0
280
     0
281
     0
  0
CLASS
  1
VISUALSTYLE
  2
AcDbVisualStyle
  3
ObjectDBX Classes
 90
     4095
280
     0
281
     0
  0
CLASS
  1
MATERIAL
  2
AcDbMaterial
  3
ObjectDBX Classes
 90
     1153
280
     0
281
     0
  0
CLASS
  1
SCALE
  2
AcDbScale
  3
ObjectDBX Classes
 90
     1153
280
     0
281
     0
  0
CLASS
  1
SUN
  2
AcDbSun
  3
SCENEOE
 90
     1153
280
     0
281
     0
  0
CLASS
  1
XRECORD
  2
AcDbXrecord
  3
ObjectDBX Classes
 90
        0
280
     0
281
     0
  0
CLASS
  1
LWPOLYLINE
  2
AcDbPolyline
  3
ObjectDBX Classes
 90
        0
280
     0
281
     1
  0
CLASS
  1
HATCH
  2
AcDbHatch
  3
ObjectDBX Classes
 90
        0
280
     0
281
     1
  0
ENDSEC
  0
SECTION
  2
TABLES
  0
TABLE
  2
VPORT
  5
8
330
0
100
AcDbSymbolTable
 70
     1
  0
VPORT
  5
29
330
8
100
AcDbSymbolTableRecord
100
AcDbViewportTableRecord
  2
*ACTIVE
 70
     0
 10
0.0
 20
0.0
 11
1.0
 21
1.0
 12
10.429907
 22
4.5
 13
0.0
 23
0.0
 14
0.5
 24
0.5
 15
0.5
 25
0.5
 16
0.0
 26
0.0
 36
1.0
 17
0.0
 27
0.0
 37
0.0
 40
9.0
 41
1.972973
 42
50.0
 43
0.0
 44
0.0
 50
0.0
 51
0.0
 71
     0
 72
   100
 73
     1
 74
     3
 75
     0
 76
     0
 77
     0
 78
     0
  0
ENDTAB
  0
TABLE
  2
LTYPE
  5
5
330
0
100
AcDbSymbolTable
 70
     1
  0
LTYPE
  5
14
330
5
100
AcDbSymbolTableRecord
100
AcDbLinetypeTableRecord
  2
BYBLOCK
 70
     0
  3

 72
    65
 73
     0
 40
0.0
  0
LTYPE
  5
15
330
5
100
AcDbSymbolTableRecord
100
AcDbLinetypeTableRecord
  2
BYLAYER
 70
     0
  3

 72
    65
 73
     0
 40
0.0
  0
LTYPE
  5
16
330
5
100
AcDbSymbolTableRecord
100
AcDbLinetypeTableRecord
  2
CONTINUOUS
 70
     0
  3
Solid line
 72
    65
 73
     0
 40
0.0
  0
ENDTAB
  0
TABLE
  2
LAYER
  5
2
330
0
100
AcDbSymbolTable
 70
     1
  0
LAYER
  5
10
330
2
100
AcDbSymbolTableRecord
100
AcDbLayerTableRecord
  2
0
 70
     0
 62
     7
  6
CONTINUOUS
  0
ENDTAB
  0
TABLE
  2
STYLE
  5
3
330
0
100
AcDbSymbolTable
 70
     1
  0
STYLE
  5
11
330
3
100
AcDbSymbolTableRecord
100
AcDbTextStyleTableRecord
  2
STANDARD
 70
     0
 40
0.0
 41
1.0
 50
0.0
 71
     0
 42
2.5
  3
txt
  4

  0
ENDTAB
  0
TABLE
  2
VIEW
  5
6
330
0
100
AcDbSymbolTable
 70
     0
  0
ENDTAB
  0
TABLE
  2
UCS
  5
7
330
0
100
AcDbSymbolTable
 70
     0
  0
ENDTAB
  0
TABLE
  2
APPID
  5
9
330
0
100
AcDbSymbolTable
 70
     1
  0
APPID
  5
12
330
9
100
AcDbSymbolTableRecord
100
AcDbRegAppTableRecord
  2
ACAD
 70
     0
  0
ENDTAB
  0
TABLE
  2
DIMSTYLE
  5
A
330
0
100
AcDbSymbolTable
 70
     1
  0
DIMSTYLE
105
27
330
A
100
AcDbSymbolTableRecord
100
AcDbDimStyleTableRecord
  2
STANDARD
 70
     0
  3

  4

  5

  6

  7

 40
1.0
 41
0.18
 42
0.0625
 43
0.38
 44
0.18
 45
0.0
 46
0.0
 47
0.0
 48
0.0
140
0.18
141
0.09
142
0.0
143
25.4
144
1.0
145
0.0
146
1.0
147
0.09
 71
     0
 72
     0
 73
     1
 74
     1
 75
     0
 76
     0
 77
     0
 78
     0
170
     0
171
     2
172
     0
173
     0
174
     0
175
     0
176
     0
177
     0
178
     0
270
     2
271
     4
272
     4
273
     2
274
     2
340
11
275
     0
280
     0
281
     0
282
     0
283
     1
284
     0
285
     0
286
     0
287
     3
288
     0
  0
ENDTAB
  0
TABLE
  2
BLOCK_RECORD
  5
1
330
0
100
AcDbSymbolTable
 70
     1
  0
BLOCK_RECORD
  5
1F
330
1
100
AcDbSymbolTableRecord
100
AcDbBlockTableRecord
  2
*MODEL_SPACE
  0
BLOCK_RECORD
  5
1B
330
1
100
AcDbSymbolTableRecord
100
AcDbBlockTableRecord
  2
*PAPER_SPACE
  0
BLOCK_RECORD
  5
23
330
1
100
AcDbSymbolTableRecord
100
AcDbBlockTableRecord
  2
*PAPER_SPACE0
  0
ENDTAB
  0
ENDSEC
  0
SECTION
  2
BLOCKS
  0
BLOCK
  5
20
330
1F
100
AcDbEntity
  8
0
100
AcDbBlockBegin
  2
*MODEL_SPACE
 70
     0
 10
0.0
 20
0.0
 30
0.0
  3
*MODEL_SPACE
  1

  0
ENDBLK
  5
21
330
1F
100
AcDbEntity
  8
0
100
AcDbBlockEnd
  0
BLOCK
  5
1C
330
1B
100
AcDbEntity
 67
     1
  8
0
100
AcDbBlockBegin
  2
*PAPER_SPACE
 70
     0
 10
0.0
 20
0.0
 30
0.0
  3
*PAPER_SPACE
  1

  0
ENDBLK
  5
1D
330
1B
100
AcDbEntity
 67
     1
  8
0
100
AcDbBlockEnd
  0
BLOCK
  5
24
330
23
100
AcDbEntity
  8
0
100
AcDbBlockBegin
  2
*PAPER_SPACE0
 70
     0
 10
0.0
 20
0.0
 30
0.0
  3
*PAPER_SPACE0
  1
*PAPER_SPACE0
  0
ENDBLK
  5
25
330
23
100
AcDbEntity
  8
0
100
AcDbBlockEnd
  0
ENDSEC
  0
SECTION
  2
ENTITIES
  0
LINE
  5
6A
330
1F
100
AcDbEntity
  8
0
 62
     7
100
AcDbLine
 10
552.806946
 20
245.850006
 30
0.0
 11
552.806946
 21
258.950012
 31
0.0
  0
LINE
  5
6B
330
1F
100
AcDbEntity
  8
0
 62
     7
100
AcDbLine
 10
552.806946
 20
258.950012
 30
0.0
 11
550.48822
 21
258.950012
 31
0.0
  0
ARC
  5
6C
330
1F
100
AcDbEntity
  8
0
 62
     7
100
AcDbCircle
 10
543.806946
 20
263.349976
 30
0.0
 40
8.0
100
AcDbArc
 50
213.367013
 51
326.632979
  0
LINE
  5
6D
330
1F
100
AcDbEntity
  8
0
 62
     7
100
AcDbLine
 10
537.12561
 20
258.950012
 30
0.0
 11
478.457001
 21
258.950012
 31
0.0
  0
LINE
  5
6E
330
1F
100
AcDbEntity
  8
0
 62
     7
100
AcDbLine
 10
478.457001
 20
255.050003
 30
0.0
 11
478.457001
 21
258.950012
 31
0.0
  0
ARC
  5
6F
330
1F
100
AcDbEntity
  8
0
 62
     7
100
AcDbCircle
 10
477.957001
 20
255.050003
 30
0.0
 40
0.5
100
AcDbArc
 50
180.000009
 51
360.0
  0
LINE
  5
70
330
1F
100
AcDbEntity
  8
0
 62
     7
100
AcDbLine
 10
477.457001
 20
258.950012
 30
0.0
 11
477.457001
 21
255.050003
 31
0.0
  0
LINE
  5
71
330
1F
100
AcDbEntity
  8
0
 62
     7
100
AcDbLine
 10
477.457001
 20
258.950012
 30
0.0
 11
475.157013
 21
258.950012
 31
0.0
  0
LINE
  5
72
330
1F
100
AcDbEntity
  8
0
 62
     7
100
AcDbLine
 10
475.157013
 20
255.050003
 30
0.0
 11
475.157013
 21
258.950012
 31
0.0
  0
ARC
  5
73
330
1F
100
AcDbEntity
  8
0
 62
     7
100
AcDbCircle
 10
474.657013
 20
255.050003
 30
0.0
 40
0.5
100
AcDbArc
 50
180.000009
 51
360.0
  0
LINE
  5
74
330
1F
100
AcDbEntity
  8
0
 62
     7
100
AcDbLine
 10
474.157013
 20
258.950012
 30
0.0
 11
474.157013
 21
255.050003
 31
0.0
  0
LINE
  5
75
330
1F
100
AcDbEntity
  8
0
 62
     7
100
AcDbLine
 10
474.157013
 20
258.950012
 30
0.0
 11
278.457001
 21
258.950012
 31
0.0
  0
LINE
  5
76
330
1F
100
AcDbEntity
  8
0
 62
     7
100
AcDbLine
 10
278.457001
 20
255.050003
 30
0.0
 11
278.457001
 21
258.950012
 31
0.0
  0
ARC
  5
77
330
1F
100
AcDbEntity
  8
0
 62
     7
100
AcDbCircle
 10
277.957001
 20
255.050003
 30
0.0
 40
0.5
100
AcDbArc
 50
180.000009
 51
360.0
  0
LINE
  5
78
330
1F
100
AcDbEntity
  8
0
 62
     7
100
AcDbLine
 10
277.457001
 20
258.950012
 30
0.0
 11
277.457001
 21
255.050003
 31
0.0
  0
LINE
  5
79
330
1F
100
AcDbEntity
  8
0
 62
     7
100
AcDbLine
 10
277.457001
 20
258.950012
 30
0.0
 11
275.157013
 21
258.950012
 31
0.0
  0
LINE
  5
7A
330
1F
100
AcDbEntity
  8
0
 62
     7
100
AcDbLine
 10
275.157013
 20
255.050003
 30
0.0
 11
275.157013
 21
258.950012
 31
0.0
  0
ARC
  5
7B
330
1F
100
AcDbEntity
  8
0
 62
     7
100
AcDbCircle
 10
274.657013
 20
255.050003
 30
0.0
 40
0.5
100
AcDbArc
 50
180.000009
 51
360.0
  0
LINE
  5
7C
330
1F
100
AcDbEntity
  8
0
 62
     7
100
AcDbLine
 10
274.157013
 20
258.950012
 30
0.0
 11
274.157013
 21
255.050003
 31
0.0
  0
LINE
  5
7D
330
1F
100
AcDbEntity
  8
0
 62
     7
100
AcDbLine
 10
274.157013
 20
258.950012
 30
0.0
 11
215.488312
 21
258.950012
 31
0.0
  0
ARC
  5
7E
330
1F
100
AcDbEntity
  8
0
 62
     7
100
AcDbCircle
 10
208.806976
 20
263.349976
 30
0.0
 40
8.0
100
AcDbArc
 50
213.367013
 51
326.632979
  0
LINE
  5
7F
330
1F
100
AcDbEntity
  8
0
 62
     7
100
AcDbLine
 10
202.125671
 20
258.950012
 30
0.0
 11
199.806976
 21
258.950012
 31
0.0
  0
LINE
  5
80
330
1F
100
AcDbEntity
  8
0
 62
     7
100
AcDbLine
 10
199.806976
 20
245.850006
 30
0.0
 11
199.806976
 21
258.950012
 31
0.0
  0
LINE
  5
81
330
1F
100
AcDbEntity
  8
0
 62
     7
100
AcDbLine
 10
552.806946
 20
245.050003
 30
0.0
 11
552.806946
 21
245.850006
 31
0.0
  0
LINE
  5
82
330
1F
100
AcDbEntity
  8
0
 62
     7
100
AcDbLine
 10
199.806976
 20
245.850006
 30
0.0
 11
199.806976
 21
245.050003
 31
0.0
  0
LINE
  5
83
330
1F
100
AcDbEntity
  8
0
 62
     7
100
AcDbLine
 10
199.806976
 20
245.050003
 30
0.0
 11
552.806946
 21
245.050003
 31
0.0
  0
LINE
  5
84
330
1F
100
AcDbEntity
  8
0
 62
     7
100
AcDbLine
 10
552.806946
 20
259.079285
 30
0.0
 11
552.806946
 21
258.950012
 31
0.0
  0
LINE
  5
85
330
1F
100
AcDbEntity
  8
0
 62
     7
100
AcDbLine
 10
552.806946
 20
259.079285
 30
0.0
 11
552.806946
 21
259.220703
 31
0.0
  0
LINE
  5
86
330
1F
100
AcDbEntity
  8
0
 62
     7
100
AcDbLine
 10
552.806946
 20
259.349976
 30
0.0
 11
552.806946
 21
259.220703
 31
0.0
  0
LINE
  5
87
330
1F
100
AcDbEntity
  8
0
 62
     7
100
AcDbLine
 10
552.806946
 20
259.349976
 30
0.0
 11
552.806946
 21
260.049988
 31
0.0
  0
LINE
  5
88
330
1F
100
AcDbEntity
  8
0
 62
     7
100
AcDbLine
 10
552.806946
 20
260.17926
 30
0.0
 11
552.806946
 21
260.049988
 31
0.0
  0
LINE
  5
89
330
1F
100
AcDbEntity
  8
0
 62
     7
100
AcDbLine
 10
552.806946
 20
260.17926
 30
0.0
 11
552.806946
 21
260.320679
 31
0.0
  0
LINE
  5
8A
330
1F
100
AcDbEntity
  8
0
 62
     7
100
AcDbLine
 10
552.806946
 20
260.450012
 30
0.0
 11
552.806946
 21
260.320679
 31
0.0
  0
LINE
  5
8B
330
1F
100
AcDbEntity
  8
0
 62
     7
100
AcDbLine
 10
552.806946
 20
260.450012
 30
0.0
 11
552.806946
 21
261.150024
 31
0.0
  0
LINE
  5
8C
330
1F
100
AcDbEntity
  8
0
 62
     7
100
AcDbLine
 10
552.806946
 20
261.279297
 30
0.0
 11
552.806946
 21
261.150024
 31
0.0
  0
LINE
  5
8D
330
1F
100
AcDbEntity
  8
0
 62
     7
100
AcDbLine
 10
552.806946
 20
261.279297
 30
0.0
 11
552.806946
 21
261.420715
 31
0.0
  0
LINE
  5
8E
330
1F
100
AcDbEntity
  8
0
 62
     7
100
AcDbLine
 10
552.806946
 20
261.549988
 30
0.0
 11
552.806946
 21
261.420715
 31
0.0
  0
LINE
  5
8F
330
1F
100
AcDbEntity
  8
0
 62
     7
100
AcDbLine
 10
552.806946
 20
261.549988
 30
0.0
 11
552.806946
 21
262.25
 31
0.0
  0
LINE
  5
90
330
1F
100
AcDbEntity
  8
0
 62
     7
100
AcDbLine
 10
552.806946
 20
262.379272
 30
0.0
 11
552.806946
 21
262.25
 31
0.0
  0
LINE
  5
91
330
1F
100
AcDbEntity
  8
0
 62
     7
100
AcDbLine
 10
552.806946
 20
262.379272
 30
0.0
 11
552.806946
 21
262.520691
 31
0.0
  0
LINE
  5
92
330
1F
100
AcDbEntity
  8
0
 62
     7
100
AcDbLine
 10
552.806946
 20
262.650024
 30
0.0
 11
552.806946
 21
262.520691
 31
0.0
  0
LINE
  5
93
330
1F
100
AcDbEntity
  8
0
 62
     7
100
AcDbLine
 10
552.806946
 20
262.650024
 30
0.0
 11
552.806946
 21
263.349976
 31
0.0
  0
LINE
  5
94
330
1F
100
AcDbEntity
  8
0
 62
     7
100
AcDbLine
 10
552.806946
 20
263.479309
 30
0.0
 11
552.806946
 21
263.349976
 31
0.0
  0
LINE
  5
95
330
1F
100
AcDbEntity
  8
0
 62
     7
100
AcDbLine
 10
552.806946
 20
263.479309
 30
0.0
 11
552.806946
 21
263.620728
 31
0.0
  0
LINE
  5
96
330
1F
100
AcDbEntity
  8
0
 62
     7
100
AcDbLine
 10
552.806946
 20
263.75
 30
0.0
 11
552.806946
 21
263.620728
 31
0.0
  0
LINE
  5
97
330
1F
100
AcDbEntity
  8
0
 62
     7
100
AcDbLine
 10
552.806946
 20
263.75
 30
0.0
 11
552.806946
 21
264.450012
 31
0.0
  0
LINE
  5
98
330
1F
100
AcDbEntity
  8
0
 62
     7
100
AcDbLine
 10
552.806946
 20
264.579285
 30
0.0
 11
552.806946
 21
264.450012
 31
0.0
  0
LINE
  5
99
330
1F
100
AcDbEntity
  8
0
 62
     7
100
AcDbLine
 10
552.806946
 20
264.579285
 30
0.0
 11
552.806946
 21
264.720703
 31
0.0
  0
LINE
  5
9A
330
1F
100
AcDbEntity
  8
0
 62
     7
100
AcDbLine
 10
552.806946
 20
264.849976
 30
0.0
 11
552.806946
 21
264.720703
 31
0.0
  0
LINE
  5
9B
330
1F
100
AcDbEntity
  8
0
 62
     7
100
AcDbLine
 10
552.806946
 20
264.849976
 30
0.0
 11
552.806946
 21
265.549988
 31
0.0
  0
LINE
  5
9C
330
1F
100
AcDbEntity
  8
0
 62
     7
100
AcDbLine
 10
552.806946
 20
265.67926
 30
0.0
 11
552.806946
 21
265.549988
 31
0.0
  0
LINE
  5
9D
330
1F
100
AcDbEntity
  8
0
 62
     7
100
AcDbLine
 10
552.806946
 20
265.67926
 30
0.0
 11
552.806946
 21
265.820679
 31
0.0
  0
LINE
  5
9E
330
1F
100
AcDbEntity
  8
0
 62
     7
100
AcDbLine
 10
552.806946
 20
265.950012
 30
0.0
 11
552.806946
 21
265.820679
 31
0.0
  0
LINE
  5
9F
330
1F
100
AcDbEntity
  8
0
 62
     7
100
AcDbLine
 10
552.806946
 20
265.950012
 30
0.0
 11
552.806946
 21
266.650024
 31
0.0
  0
LINE
  5
A0
330
1F
100
AcDbEntity
  8
0
 62
     7
100
AcDbLine
 10
552.806946
 20
266.779297
 30
0.0
 11
552.806946
 21
266.650024
 31
0.0
  0
LINE
  5
A1
330
1F
100
AcDbEntity
  8
0
 62
     7
100
AcDbLine
 10
552.806946
 20
266.779297
 30
0.0
 11
552.806946
 21
266.920715
 31
0.0
  0
LINE
  5
A2
330
1F
100
AcDbEntity
  8
0
 62
     7
100
AcDbLine
 10
552.806946
 20
267.049988
 30
0.0
 11
552.806946
 21
266.920715
 31
0.0
  0
LINE
  5
A3
330
1F
100
AcDbEntity
  8
0
 62
     7
100
AcDbLine
 10
552.806946
 20
267.049988
 30
0.0
 11
552.806946
 21
267.75
 31
0.0
  0
LINE
  5
A4
330
1F
100
AcDbEntity
  8
0
 62
     7
100
AcDbLine
 10
552.806946
 20
267.879272
 30
0.0
 11
552.806946
 21
267.75
 31
0.0
  0
LINE
  5
A5
330
1F
100
AcDbEntity
  8
0
 62
     7
100
AcDbLine
 10
552.806946
 20
267.879272
 30
0.0
 11
552.806946
 21
268.020691
 31
0.0
  0
LINE
  5
A6
330
1F
100
AcDbEntity
  8
0
 62
     7
100
AcDbLine
 10
552.806946
 20
268.150024
 30
0.0
 11
552.806946
 21
268.020691
 31
0.0
  0
LINE
  5
A7
330
1F
100
AcDbEntity
  8
0
 62
     7
100
AcDbLine
 10
552.806946
 20
268.150024
 30
0.0
 11
552.806946
 21
272.974243
 31
0.0
  0
LINE
  5
A8
330
1F
100
AcDbEntity
  8
0
 62
     7
100
AcDbLine
 10
552.806946
 20
273.462158
 30
0.0
 11
552.806946
 21
272.974243
 31
0.0
  0
LINE
  5
A9
330
1F
100
AcDbEntity
  8
0
 62
     7
100
AcDbLine
 10
552.806946
 20
273.462158
 30
0.0
 11
552.806946
 21
273.549988
 31
0.0
  0
LINE
  5
AA
330
1F
100
AcDbEntity
  8
0
 62
     7
100
AcDbLine
 10
550.48822
 20
258.950012
 30
0.0
 11
550.571594
 21
259.079285
 31
0.0
  0
ARC
  5
AB
330
1F
100
AcDbEntity
  8
0
 62
     7
100
AcDbCircle
 10
543.806946
 20
263.349976
 30
0.0
 40
8.0
100
AcDbArc
 50
354.980203
 51
360.0
  0
LINE
  5
AC
330
1F
100
AcDbEntity
  8
0
 62
     7
100
AcDbLine
 10
551.763855
 20
262.520691
 30
0.0
 11
551.776245
 21
262.650024
 31
0.0
  0
LINE
  5
AD
330
1F
100
AcDbEntity
  8
0
 62
     7
100
AcDbLine
 10
551.747803
 20
262.379272
 30
0.0
 11
551.763855
 21
262.520691
 31
0.0
  0
LINE
  5
AE
330
1F
100
AcDbEntity
  8
0
 62
     7
100
AcDbLine
 10
551.730957
 20
262.25
 30
0.0
 11
551.747803
 21
262.379272
 31
0.0
  0
ARC
  5
AF
330
1F
100
AcDbEntity
  8
0
 62
     7
100
AcDbCircle
 10
543.806946
 20
263.349976
 30
0.0
 40
8.0
100
AcDbArc
 50
346.997132
 51
352.096798
  0
LINE
  5
B0
330
1F
100
AcDbEntity
  8
0
 62
     7
100
AcDbLine
 10
551.570801
 20
261.420715
 30
0.0
 11
551.601807
 21
261.549988
 31
0.0
  0
LINE
  5
B1
330
1F
100
AcDbEntity
  8
0
 62
     7
100
AcDbLine
 10
551.534302
 20
261.279297
 30
0.0
 11
551.570801
 21
261.420715
 31
0.0
  0
LINE
  5
B2
330
1F
100
AcDbEntity
  8
0
 62
     7
100
AcDbLine
 10
551.498474
 20
261.150024
 30
0.0
 11
551.534302
 21
261.279297
 31
0.0
  0
ARC
  5
B3
330
1F
100
AcDbEntity
  8
0
 62
     7
100
AcDbCircle
 10
543.806946
 20
263.349976
 30
0.0
 40
8.0
100
AcDbArc
 50
338.746183
 51
344.037995
  0
LINE
  5
B4
330
1F
100
AcDbEntity
  8
0
 62
     7
100
AcDbLine
 10
551.211243
 20
260.320679
 30
0.0
 11
551.262817
 21
260.450012
 31
0.0
  0
LINE
  5
B5
330
1F
100
AcDbEntity
  8
0
 62
     7
100
AcDbLine
 10
551.151794
 20
260.17926
 30
0.0
 11
551.211243
 21
260.320679
 31
0.0
  0
LINE
  5
B6
330
1F
100
AcDbEntity
  8
0
 62
     7
100
AcDbLine
 10
551.094604
 20
260.049988
 30
0.0
 11
551.151794
 21
260.17926
 31
0.0
  0
ARC
  5
B7
330
1F
100
AcDbEntity
  8
0
 62
     7
100
AcDbCircle
 10
543.806946
 20
263.349976
 30
0.0
 40
8.0
100
AcDbArc
 50
329.999989
 51
335.63801
  0
LINE
  5
B8
330
1F
100
AcDbEntity
  8
0
 62
     7
100
AcDbLine
 10
550.658875
 20
259.220703
 30
0.0
 11
550.735107
 21
259.349976
 31
0.0
  0
LINE
  5
B9
330
1F
100
AcDbEntity
  8
0
 62
     7
100
AcDbLine
 10
550.571594
 20
259.079285
 30
0.0
 11
550.658875
 21
259.220703
 31
0.0
  0
LINE
  5
BA
330
1F
100
AcDbEntity
  8
0
 62
     7
100
AcDbLine
 10
537.12561
 20
258.950012
 30
0.0
 11
537.042236
 21
259.079285
 31
0.0
  0
LINE
  5
BB
330
1F
100
AcDbEntity
  8
0
 62
     7
100
AcDbLine
 10
537.042236
 20
259.079285
 30
0.0
 11
536.955017
 21
259.220703
 31
0.0
  0
LINE
  5
BC
330
1F
100
AcDbEntity
  8
0
 62
     7
100
AcDbLine
 10
536.955017
 20
259.220703
 30
0.0
 11
536.878723
 21
259.349976
 31
0.0
  0
ARC
  5
BD
330
1F
100
AcDbEntity
  8
0
 62
     7
100
AcDbCircle
 10
543.806946
 20
263.349976
 30
0.0
 40
8.0
100
AcDbArc
 50
204.361982
 51
210.000003
  0
LINE
  5
BE
330
1F
100
AcDbEntity
  8
0
 62
     7
100
AcDbLine
 10
536.519287
 20
260.049988
 30
0.0
 11
536.462097
 21
260.17926
 31
0.0
  0
LINE
  5
BF
330
1F
100
AcDbEntity
  8
0
 62
     7
100
AcDbLine
 10
536.462097
 20
260.17926
 30
0.0
 11
536.402649
 21
260.320679
 31
0.0
  0
LINE
  5
C0
330
1F
100
AcDbEntity
  8
0
 62
     7
100
AcDbLine
 10
536.402649
 20
260.320679
 30
0.0
 11
536.351074
 21
260.450012
 31
0.0
  0
ARC
  5
C1
330
1F
100
AcDbEntity
  8
0
 62
     7
100
AcDbCircle
 10
543.806946
 20
263.349976
 30
0.0
 40
8.0
100
AcDbArc
 50
195.96201
 51
201.253809
  0
LINE
  5
C2
330
1F
100
AcDbEntity
  8
0
 62
     7
100
AcDbLine
 10
536.115356
 20
261.150024
 30
0.0
 11
536.07959
 21
261.279297
 31
0.0
  0
LINE
  5
C3
330
1F
100
AcDbEntity
  8
0
 62
     7
100
AcDbLine
 10
536.07959
 20
261.279297
 30
0.0
 11
536.04303
 21
261.420715
 31
0.0
  0
LINE
  5
C4
330
1F
100
AcDbEntity
  8
0
 62
     7
100
AcDbLine
 10
536.04303
 20
261.420715
 30
0.0
 11
536.012085
 21
261.549988
 31
0.0
  0
ARC
  5
C5
330
1F
100
AcDbEntity
  8
0
 62
     7
100
AcDbCircle
 10
543.806946
 20
263.349976
 30
0.0
 40
8.0
100
AcDbArc
 50
187.903207
 51
193.002872
  0
LINE
  5
C6
330
1F
100
AcDbEntity
  8
0
 62
     7
100
AcDbLine
 10
535.882935
 20
262.25
 30
0.0
 11
535.866028
 21
262.379272
 31
0.0
  0
LINE
  5
C7
330
1F
100
AcDbEntity
  8
0
 62
     7
100
AcDbLine
 10
535.866028
 20
262.379272
 30
0.0
 11
535.850037
 21
262.520691
 31
0.0
  0
LINE
  5
C8
330
1F
100
AcDbEntity
  8
0
 62
     7
100
AcDbLine
 10
535.850037
 20
262.520691
 30
0.0
 11
535.837585
 21
262.650024
 31
0.0
  0
ARC
  5
C9
330
1F
100
AcDbEntity
  8
0
 62
     7
100
AcDbCircle
 10
543.806946
 20
263.349976
 30
0.0
 40
8.0
100
AcDbArc
 50
180.000009
 51
185.019802
  0
LINE
  5
CA
330
1F
100
AcDbEntity
  8
0
 62
     7
100
AcDbLine
 10
478.457001
 20
259.079285
 30
0.0
 11
478.457001
 21
258.950012
 31
0.0
  0
LINE
  5
CB
330
1F
100
AcDbEntity
  8
0
 62
     7
100
AcDbLine
 10
478.457001
 20
259.220703
 30
0.0
 11
478.457001
 21
259.349976
 31
0.0
  0
LINE
  5
CC
330
1F
100
AcDbEntity
  8
0
 62
     7
100
AcDbLine
 10
478.457001
 20
259.220703
 30
0.0
 11
478.457001
 21
259.079285
 31
0.0
  0
LINE
  5
CD
330
1F
100
AcDbEntity
  8
0
 62
     7
100
AcDbLine
 10
478.457001
 20
265.950012
 30
0.0
 11
478.457001
 21
266.349976
 31
0.0
  0
LINE
  5
CE
330
1F
100
AcDbEntity
  8
0
 62
     7
100
AcDbLine
 10
478.457001
 20
265.820679
 30
0.0
 11
478.457001
 21
265.950012
 31
0.0
  0
LINE
  5
CF
330
1F
100
AcDbEntity
  8
0
 62
     7
100
AcDbLine
 10
478.457001
 20
265.820679
 30
0.0
 11
478.457001
 21
265.67926
 31
0.0
  0
LINE
  5
D0
330
1F
100
AcDbEntity
  8
0
 62
     7
100
AcDbLine
 10
478.457001
 20
265.67926
 30
0.0
 11
478.457001
 21
265.549988
 31
0.0
  0
LINE
  5
D1
330
1F
100
AcDbEntity
  8
0
 62
     7
100
AcDbLine
 10
478.457001
 20
264.849976
 30
0.0
 11
478.457001
 21
265.549988
 31
0.0
  0
LINE
  5
D2
330
1F
100
AcDbEntity
  8
0
 62
     7
100
AcDbLine
 10
478.457001
 20
264.720703
 30
0.0
 11
478.457001
 21
264.849976
 31
0.0
  0
LINE
  5
D3
330
1F
100
AcDbEntity
  8
0
 62
     7
100
AcDbLine
 10
478.457001
 20
264.720703
 30
0.0
 11
478.457001
 21
264.579285
 31
0.0
  0
LINE
  5
D4
330
1F
100
AcDbEntity
  8
0
 62
     7
100
AcDbLine
 10
478.457001
 20
264.579285
 30
0.0
 11
478.457001
 21
264.450012
 31
0.0
  0
LINE
  5
D5
330
1F
100
AcDbEntity
  8
0
 62
     7
100
AcDbLine
 10
478.457001
 20
263.75
 30
0.0
 11
478.457001
 21
264.450012
 31
0.0
  0
LINE
  5
D6
330
1F
100
AcDbEntity
  8
0
 62
     7
100
AcDbLine
 10
478.457001
 20
263.620728
 30
0.0
 11
478.457001
 21
263.75
 31
0.0
  0
LINE
  5
D7
330
1F
100
AcDbEntity
  8
0
 62
     7
100
AcDbLine
 10
478.457001
 20
263.620728
 30
0.0
 11
478.457001
 21
263.479309
 31
0.0
  0
LINE
  5
D8
330
1F
100
AcDbEntity
  8
0
 62
     7
100
AcDbLine
 10
478.457001
 20
263.479309
 30
0.0
 11
478.457001
 21
263.349976
 31
0.0
  0
LINE
  5
D9
330
1F
100
AcDbEntity
  8
0
 62
     7
100
AcDbLine
 10
478.457001
 20
262.650024
 30
0.0
 11
478.457001
 21
263.349976
 31
0.0
  0
LINE
  5
DA
330
1F
100
AcDbEntity
  8
0
 62
     7
100
AcDbLine
 10
478.457001
 20
262.520691
 30
0.0
 11
478.457001
 21
262.650024
 31
0.0
  0
LINE
  5
DB
330
1F
100
AcDbEntity
  8
0
 62
     7
100
AcDbLine
 10
478.457001
 20
262.520691
 30
0.0
 11
478.457001
 21
262.379272
 31
0.0
  0
LINE
  5
DC
330
1F
100
AcDbEntity
  8
0
 62
     7
100
AcDbLine
 10
478.457001
 20
262.379272
 30
0.0
 11
478.457001
 21
262.25
 31
0.0
  0
LINE
  5
DD
330
1F
100
AcDbEntity
  8
0
 62
     7
100
AcDbLine
 10
478.457001
 20
261.549988
 30
0.0
 11
478.457001
 21
262.25
 31
0.0
  0
LINE
  5
DE
330
1F
100
AcDbEntity
  8
0
 62
     7
100
AcDbLine
 10
478.457001
 20
261.420715
 30
0.0
 11
478.457001
 21
261.549988
 31
0.0
  0
LINE
  5
DF
330
1F
100
AcDbEntity
  8
0
 62
     7
100
AcDbLine
 10
478.457001
 20
261.420715
 30
0.0
 11
478.457001
 21
261.279297
 31
0.0
  0
LINE
  5
E0
330
1F
100
AcDbEntity
  8
0
 62
     7
100
AcDbLine
 10
478.457001
 20
261.279297
 30
0.0
 11
478.457001
 21
261.150024
 31
0.0
  0
LINE
  5
E1
330
1F
100
AcDbEntity
  8
0
 62
     7
100
AcDbLine
 10
478.457001
 20
260.450012
 30
0.0
 11
478.457001
 21
261.150024
 31
0.0
  0
LINE
  5
E2
330
1F
100
AcDbEntity
  8
0
 62
     7
100
AcDbLine
 10
478.457001
 20
260.320679
 30
0.0
 11
478.457001
 21
260.450012
 31
0.0
  0
LINE
  5
E3
330
1F
100
AcDbEntity
  8
0
 62
     7
100
AcDbLine
 10
478.457001
 20
260.320679
 30
0.0
 11
478.457001
 21
260.17926
 31
0.0
  0
LINE
  5
E4
330
1F
100
AcDbEntity
  8
0
 62
     7
100
AcDbLine
 10
478.457001
 20
260.17926
 30
0.0
 11
478.457001
 21
260.049988
 31
0.0
  0
LINE
  5
E5
330
1F
100
AcDbEntity
  8
0
 62
     7
100
AcDbLine
 10
478.457001
 20
259.349976
 30
0.0
 11
478.457001
 21
260.049988
 31
0.0
  0
LINE
  5
E6
330
1F
100
AcDbEntity
  8
0
 62
     7
100
AcDbLine
 10
477.457001
 20
266.650024
 30
0.0
 11
477.457001
 21
265.950012
 31
0.0
  0
LINE
  5
E7
330
1F
100
AcDbEntity
  8
0
 62
     7
100
AcDbLine
 10
477.457001
 20
266.779297
 30
0.0
 11
477.457001
 21
266.650024
 31
0.0
  0
LINE
  5
E8
330
1F
100
AcDbEntity
  8
0
 62
     7
100
AcDbLine
 10
477.457001
 20
266.779297
 30
0.0
 11
477.457001
 21
266.849976
 31
0.0
  0
LINE
  5
E9
330
1F
100
AcDbEntity
  8
0
 62
     7
100
AcDbLine
 10
477.457001
 20
259.079285
 30
0.0
 11
477.457001
 21
258.950012
 31
0.0
  0
LINE
  5
EA
330
1F
100
AcDbEntity
  8
0
 62
     7
100
AcDbLine
 10
477.457001
 20
259.079285
 30
0.0
 11
477.457001
 21
259.220703
 31
0.0
  0
LINE
  5
EB
330
1F
100
AcDbEntity
  8
0
 62
     7
100
AcDbLine
 10
477.457001
 20
259.220703
 30
0.0
 11
477.457001
 21
259.349976
 31
0.0
  0
LINE
  5
EC
330
1F
100
AcDbEntity
  8
0
 62
     7
100
AcDbLine
 10
477.457001
 20
260.049988
 30
0.0
 11
477.457001
 21
259.349976
 31
0.0
  0
LINE
  5
ED
330
1F
100
AcDbEntity
  8
0
 62
     7
100
AcDbLine
 10
477.457001
 20
260.17926
 30
0.0
 11
477.457001
 21
260.049988
 31
0.0
  0
LINE
  5
EE
330
1F
100
AcDbEntity
  8
0
 62
     7
100
AcDbLine
 10
477.457001
 20
260.17926
 30
0.0
 11
477.457001
 21
260.320679
 31
0.0
  0
LINE
  5
EF
330
1F
100
AcDbEntity
  8
0
 62
     7
100
AcDbLine
 10
477.457001
 20
260.320679
 30
0.0
 11
477.457001
 21
260.450012
 31
0.0
  0
LINE
  5
F0
330
1F
100
AcDbEntity
  8
0
 62
     7
100
AcDbLine
 10
477.457001
 20
261.150024
 30
0.0
 11
477.457001
 21
260.450012
 31
0.0
  0
LINE
  5
F1
330
1F
100
AcDbEntity
  8
0
 62
     7
100
AcDbLine
 10
477.457001
 20
261.279297
 30
0.0
 11
477.457001
 21
261.150024
 31
0.0
  0
LINE
  5
F2
330
1F
100
AcDbEntity
  8
0
 62
     7
100
AcDbLine
 10
477.457001
 20
261.279297
 30
0.0
 11
477.457001
 21
261.420715
 31
0.0
  0
LINE
  5
F3
330
1F
100
AcDbEntity
  8
0
 62
     7
100
AcDbLine
 10
477.457001
 20
261.420715
 30
0.0
 11
477.457001
 21
261.549988
 31
0.0
  0
LINE
  5
F4
330
1F
100
AcDbEntity
  8
0
 62
     7
100
AcDbLine
 10
477.457001
 20
262.25
 30
0.0
 11
477.457001
 21
261.549988
 31
0.0
  0
LINE
  5
F5
330
1F
100
AcDbEntity
  8
0
 62
     7
100
AcDbLine
 10
477.457001
 20
262.379272
 30
0.0
 11
477.457001
 21
262.25
 31
0.0
  0
LINE
  5
F6
330
1F
100
AcDbEntity
  8
0
 62
     7
100
AcDbLine
 10
477.457001
 20
262.379272
 30
0.0
 11
477.457001
 21
262.520691
 31
0.0
  0
LINE
  5
F7
330
1F
100
AcDbEntity
  8
0
 62
     7
100
AcDbLine
 10
477.457001
 20
262.520691
 30
0.0
 11
477.457001
 21
262.650024
 31
0.0
  0
LINE
  5
F8
330
1F
100
AcDbEntity
  8
0
 62
     7
100
AcDbLine
 10
477.457001
 20
263.349976
 30
0.0
 11
477.457001
 21
262.650024
 31
0.0
  0
LINE
  5
F9
330
1F
100
AcDbEntity
  8
0
 62
     7
100
AcDbLine
 10
477.457001
 20
263.479309
 30
0.0
 11
477.457001
 21
263.349976
 31
0.0
  0
LINE
  5
FA
330
1F
100
AcDbEntity
  8
0
 62
     7
100
AcDbLine
 10
477.457001
 20
263.479309
 30
0.0
 11
477.457001
 21
263.620728
 31
0.0
  0
LINE
  5
FB
330
1F
100
AcDbEntity
  8
0
 62
     7
100
AcDbLine
 10
477.457001
 20
263.620728
 30
0.0
 11
477.457001
 21
263.75
 31
0.0
  0
LINE
  5
FC
330
1F
100
AcDbEntity
  8
0
 62
     7
100
AcDbLine
 10
477.457001
 20
264.450012
 30
0.0
 11
477.457001
 21
263.75
 31
0.0
  0
LINE
  5
FD
330
1F
100
AcDbEntity
  8
0
 62
     7
100
AcDbLine
 10
477.457001
 20
264.579285
 30
0.0
 11
477.457001
 21
264.450012
 31
0.0
  0
LINE
  5
FE
330
1F
100
AcDbEntity
  8
0
 62
     7
100
AcDbLine
 10
477.457001
 20
264.579285
 30
0.0
 11
477.457001
 21
264.720703
 31
0.0
  0
LINE
  5
FF
330
1F
100
AcDbEntity
  8
0
 62
     7
100
AcDbLine
 10
477.457001
 20
264.720703
 30
0.0
 11
477.457001
 21
264.849976
 31
0.0
  0
LINE
  5
100
330
1F
100
AcDbEntity
  8
0
 62
     7
100
AcDbLine
 10
477.457001
 20
265.549988
 30
0.0
 11
477.457001
 21
264.849976
 31
0.0
  0
LINE
  5
101
330
1F
100
AcDbEntity
  8
0
 62
     7
100
AcDbLine
 10
477.457001
 20
265.67926
 30
0.0
 11
477.457001
 21
265.549988
 31
0.0
  0
LINE
  5
102
330
1F
100
AcDbEntity
  8
0
 62
     7
100
AcDbLine
 10
477.457001
 20
265.67926
 30
0.0
 11
477.457001
 21
265.820679
 31
0.0
  0
LINE
  5
103
330
1F
100
AcDbEntity
  8
0
 62
     7
100
AcDbLine
 10
477.457001
 20
265.820679
 30
0.0
 11
477.457001
 21
265.950012
 31
0.0
  0
LINE
  5
104
330
1F
100
AcDbEntity
  8
0
 62
     7
100
AcDbLine
 10
475.157013
 20
259.079285
 30
0.0
 11
475.157013
 21
258.950012
 31
0.0
  0
LINE
  5
105
330
1F
100
AcDbEntity
  8
0
 62
     7
100
AcDbLine
 10
475.157013
 20
259.220703
 30
0.0
 11
475.157013
 21
259.349976
 31
0.0
  0
LINE
  5
106
330
1F
100
AcDbEntity
  8
0
 62
     7
100
AcDbLine
 10
475.157013
 20
259.220703
 30
0.0
 11
475.157013
 21
259.079285
 31
0.0
  0
LINE
  5
107
330
1F
100
AcDbEntity
  8
0
 62
     7
100
AcDbLine
 10
475.157013
 20
266.849976
 30
0.0
 11
475.157013
 21
266.779297
 31
0.0
  0
LINE
  5
108
330
1F
100
AcDbEntity
  8
0
 62
     7
100
AcDbLine
 10
475.157013
 20
266.779297
 30
0.0
 11
475.157013
 21
266.650024
 31
0.0
  0
LINE
  5
109
330
1F
100
AcDbEntity
  8
0
 62
     7
100
AcDbLine
 10
475.157013
 20
265.950012
 30
0.0
 11
475.157013
 21
266.650024
 31
0.0
  0
LINE
  5
10A
330
1F
100
AcDbEntity
  8
0
 62
     7
100
AcDbLine
 10
475.157013
 20
265.820679
 30
0.0
 11
475.157013
 21
265.950012
 31
0.0
  0
LINE
  5
10B
330
1F
100
AcDbEntity
  8
0
 62
     7
100
AcDbLine
 10
475.157013
 20
265.820679
 30
0.0
 11
475.157013
 21
265.67926
 31
0.0
  0
LINE
  5
10C
330
1F
100
AcDbEntity
  8
0
 62
     7
100
AcDbLine
 10
475.157013
 20
265.67926
 30
0.0
 11
475.157013
 21
265.549988
 31
0.0
  0
LINE
  5
10D
330
1F
100
AcDbEntity
  8
0
 62
     7
100
AcDbLine
 10
475.157013
 20
264.849976
 30
0.0
 11
475.157013
 21
265.549988
 31
0.0
  0
LINE
  5
10E
330
1F
100
AcDbEntity
  8
0
 62
     7
100
AcDbLine
 10
475.157013
 20
264.720703
 30
0.0
 11
475.157013
 21
264.849976
 31
0.0
  0
LINE
  5
10F
330
1F
100
AcDbEntity
  8
0
 62
     7
100
AcDbLine
 10
475.157013
 20
264.720703
 30
0.0
 11
475.157013
 21
264.579285
 31
0.0
  0
LINE
  5
110
330
1F
100
AcDbEntity
  8
0
 62
     7
100
AcDbLine
 10
475.157013
 20
264.579285
 30
0.0
 11
475.157013
 21
264.450012
 31
0.0
  0
LINE
  5
111
330
1F
100
AcDbEntity
  8
0
 62
     7
100
AcDbLine
 10
475.157013
 20
263.75
 30
0.0
 11
475.157013
 21
264.450012
 31
0.0
  0
LINE
  5
112
330
1F
100
AcDbEntity
  8
0
 62
     7
100
AcDbLine
 10
475.157013
 20
263.620728
 30
0.0
 11
475.157013
 21
263.75
 31
0.0
  0
LINE
  5
113
330
1F
100
AcDbEntity
  8
0
 62
     7
100
AcDbLine
 10
475.157013
 20
263.620728
 30
0.0
 11
475.157013
 21
263.479309
 31
0.0
  0
LINE
  5
114
330
1F
100
AcDbEntity
  8
0
 62
     7
100
AcDbLine
 10
475.157013
 20
263.479309
 30
0.0
 11
475.157013
 21
263.349976
 31
0.0
  0
LINE
  5
115
330
1F
100
AcDbEntity
  8
0
 62
     7
100
AcDbLine
 10
475.157013
 20
262.650024
 30
0.0
 11
475.157013
 21
263.349976
 31
0.0
  0
LINE
  5
116
330
1F
100
AcDbEntity
  8
0
 62
     7
100
AcDbLine
 10
475.157013
 20
262.520691
 30
0.0
 11
475.157013
 21
262.650024
 31
0.0
  0
LINE
  5
117
330
1F
100
AcDbEntity
  8
0
 62
     7
100
AcDbLine
 10
475.157013
 20
262.520691
 30
0.0
 11
475.157013
 21
262.379272
 31
0.0
  0
LINE
  5
118
330
1F
100
AcDbEntity
  8
0
 62
     7
100
AcDbLine
 10
475.157013
 20
262.379272
 30
0.0
 11
475.157013
 21
262.25
 31
0.0
  0
LINE
  5
119
330
1F
100
AcDbEntity
  8
0
 62
     7
100
AcDbLine
 10
475.157013
 20
261.549988
 30
0.0
 11
475.157013
 21
262.25
 31
0.0
  0
LINE
  5
11A
330
1F
100
AcDbEntity
  8
0
 62
     7
100
AcDbLine
 10
475.157013
 20
261.420715
 30
0.0
 11
475.157013
 21
261.549988
 31
0.0
  0
LINE
  5
11B
330
1F
100
AcDbEntity
  8
0
 62
     7
100
AcDbLine
 10
475.157013
 20
261.420715
 30
0.0
 11
475.157013
 21
261.279297
 31
0.0
  0
LINE
  5
11C
330
1F
100
AcDbEntity
  8
0
 62
     7
100
AcDbLine
 10
475.157013
 20
261.279297
 30
0.0
 11
475.157013
 21
261.150024
 31
0.0
  0
LINE
  5
11D
330
1F
100
AcDbEntity
  8
0
 62
     7
100
AcDbLine
 10
475.157013
 20
260.450012
 30
0.0
 11
475.157013
 21
261.150024
 31
0.0
  0
LINE
  5
11E
330
1F
100
AcDbEntity
  8
0
 62
     7
100
AcDbLine
 10
475.157013
 20
260.320679
 30
0.0
 11
475.157013
 21
260.450012
 31
0.0
  0
LINE
  5
11F
330
1F
100
AcDbEntity
  8
0
 62
     7
100
AcDbLine
 10
475.157013
 20
260.320679
 30
0.0
 11
475.157013
 21
260.17926
 31
0.0
  0
LINE
  5
120
330
1F
100
AcDbEntity
  8
0
 62
     7
100
AcDbLine
 10
475.157013
 20
260.17926
 30
0.0
 11
475.157013
 21
260.049988
 31
0.0
  0
LINE
  5
121
330
1F
100
AcDbEntity
  8
0
 62
     7
100
AcDbLine
 10
475.157013
 20
259.349976
 30
0.0
 11
475.157013
 21
260.049988
 31
0.0
  0
LINE
  5
122
330
1F
100
AcDbEntity
  8
0
 62
     7
100
AcDbLine
 10
474.157013
 20
265.67926
 30
0.0
 11
474.157013
 21
265.549988
 31
0.0
  0
LINE
  5
123
330
1F
100
AcDbEntity
  8
0
 62
     7
100
AcDbLine
 10
474.157013
 20
265.67926
 30
0.0
 11
474.157013
 21
265.820679
 31
0.0
  0
LINE
  5
124
330
1F
100
AcDbEntity
  8
0
 62
     7
100
AcDbLine
 10
474.157013
 20
265.820679
 30
0.0
 11
474.157013
 21
265.950012
 31
0.0
  0
LINE
  5
125
330
1F
100
AcDbEntity
  8
0
 62
     7
100
AcDbLine
 10
474.157013
 20
266.349976
 30
0.0
 11
474.157013
 21
265.950012
 31
0.0
  0
LINE
  5
126
330
1F
100
AcDbEntity
  8
0
 62
     7
100
AcDbLine
 10
474.157013
 20
259.079285
 30
0.0
 11
474.157013
 21
258.950012
 31
0.0
  0
LINE
  5
127
330
1F
100
AcDbEntity
  8
0
 62
     7
100
AcDbLine
 10
474.157013
 20
259.079285
 30
0.0
 11
474.157013
 21
259.220703
 31
0.0
  0
LINE
  5
128
330
1F
100
AcDbEntity
  8
0
 62
     7
100
AcDbLine
 10
474.157013
 20
259.220703
 30
0.0
 11
474.157013
 21
259.349976
 31
0.0
  0
LINE
  5
129
330
1F
100
AcDbEntity
  8
0
 62
     7
100
AcDbLine
 10
474.157013
 20
260.049988
 30
0.0
 11
474.157013
 21
259.349976
 31
0.0
  0
LINE
  5
12A
330
1F
100
AcDbEntity
  8
0
 62
     7
100
AcDbLine
 10
474.157013
 20
260.17926
 30
0.0
 11
474.157013
 21
260.049988
 31
0.0
  0
LINE
  5
12B
330
1F
100
AcDbEntity
  8
0
 62
     7
100
AcDbLine
 10
474.157013
 20
260.17926
 30
0.0
 11
474.157013
 21
260.320679
 31
0.0
  0
LINE
  5
12C
330
1F
100
AcDbEntity
  8
0
 62
     7
100
AcDbLine
 10
474.157013
 20
260.320679
 30
0.0
 11
474.157013
 21
260.450012
 31
0.0
  0
LINE
  5
12D
330
1F
100
AcDbEntity
  8
0
 62
     7
100
AcDbLine
 10
474.157013
 20
261.150024
 30
0.0
 11
474.157013
 21
260.450012
 31
0.0
  0
LINE
  5
12E
330
1F
100
AcDbEntity
  8
0
 62
     7
100
AcDbLine
 10
474.157013
 20
261.279297
 30
0.0
 11
474.157013
 21
261.150024
 31
0.0
  0
LINE
  5
12F
330
1F
100
AcDbEntity
  8
0
 62
     7
100
AcDbLine
 10
474.157013
 20
261.279297
 30
0.0
 11
474.157013
 21
261.420715
 31
0.0
  0
LINE
  5
130
330
1F
100
AcDbEntity
  8
0
 62
     7
100
AcDbLine
 10
474.157013
 20
261.420715
 30
0.0
 11
474.157013
 21
261.549988
 31
0.0
  0
LINE
  5
131
330
1F
100
AcDbEntity
  8
0
 62
     7
100
AcDbLine
 10
474.157013
 20
262.25
 30
0.0
 11
474.157013
 21
261.549988
 31
0.0
  0
LINE
  5
132
330
1F
100
AcDbEntity
  8
0
 62
     7
100
AcDbLine
 10
474.157013
 20
262.379272
 30
0.0
 11
474.157013
 21
262.25
 31
0.0
  0
LINE
  5
133
330
1F
100
AcDbEntity
  8
0
 62
     7
100
AcDbLine
 10
474.157013
 20
262.379272
 30
0.0
 11
474.157013
 21
262.520691
 31
0.0
  0
LINE
  5
134
330
1F
100
AcDbEntity
  8
0
 62
     7
100
AcDbLine
 10
474.157013
 20
262.520691
 30
0.0
 11
474.157013
 21
262.650024
 31
0.0
  0
LINE
  5
135
330
1F
100
AcDbEntity
  8
0
 62
     7
100
AcDbLine
 10
474.157013
 20
263.349976
 30
0.0
 11
474.157013
 21
262.650024
 31
0.0
  0
LINE
  5
136
330
1F
100
AcDbEntity
  8
0
 62
     7
100
AcDbLine
 10
474.157013
 20
263.479309
 30
0.0
 11
474.157013
 21
263.349976
 31
0.0
  0
LINE
  5
137
330
1F
100
AcDbEntity
  8
0
 62
     7
100
AcDbLine
 10
474.157013
 20
263.479309
 30
0.0
 11
474.157013
 21
263.620728
 31
0.0
  0
LINE
  5
138
330
1F
100
AcDbEntity
  8
0
 62
     7
100
AcDbLine
 10
474.157013
 20
263.620728
 30
0.0
 11
474.157013
 21
263.75
 31
0.0
  0
LINE
  5
139
330
1F
100
AcDbEntity
  8
0
 62
     7
100
AcDbLine
 10
474.157013
 20
264.450012
 30
0.0
 11
474.157013
 21
263.75
 31
0.0
  0
LINE
  5
13A
330
1F
100
AcDbEntity
  8
0
 62
     7
100
AcDbLine
 10
474.157013
 20
264.579285
 30
0.0
 11
474.157013
 21
264.450012
 31
0.0
  0
LINE
  5
13B
330
1F
100
AcDbEntity
  8
0
 62
     7
100
AcDbLine
 10
474.157013
 20
264.579285
 30
0.0
 11
474.157013
 21
264.720703
 31
0.0
  0
LINE
  5
13C
330
1F
100
AcDbEntity
  8
0
 62
     7
100
AcDbLine
 10
474.157013
 20
264.720703
 30
0.0
 11
474.157013
 21
264.849976
 31
0.0
  0
LINE
  5
13D
330
1F
100
AcDbEntity
  8
0
 62
     7
100
AcDbLine
 10
474.157013
 20
265.549988
 30
0.0
 11
474.157013
 21
264.849976
 31
0.0
  0
LINE
  5
13E
330
1F
100
AcDbEntity
  8
0
 62
     7
100
AcDbLine
 10
278.457001
 20
259.079285
 30
0.0
 11
278.457001
 21
258.950012
 31
0.0
  0
LINE
  5
13F
330
1F
100
AcDbEntity
  8
0
 62
     7
100
AcDbLine
 10
278.457001
 20
259.220703
 30
0.0
 11
278.457001
 21
259.349976
 31
0.0
  0
LINE
  5
140
330
1F
100
AcDbEntity
  8
0
 62
     7
100
AcDbLine
 10
278.457001
 20
259.220703
 30
0.0
 11
278.457001
 21
259.079285
 31
0.0
  0
LINE
  5
141
330
1F
100
AcDbEntity
  8
0
 62
     7
100
AcDbLine
 10
278.457001
 20
265.950012
 30
0.0
 11
278.457001
 21
266.349976
 31
0.0
  0
LINE
  5
142
330
1F
100
AcDbEntity
  8
0
 62
     7
100
AcDbLine
 10
278.457001
 20
265.820679
 30
0.0
 11
278.457001
 21
265.950012
 31
0.0
  0
LINE
  5
143
330
1F
100
AcDbEntity
  8
0
 62
     7
100
AcDbLine
 10
278.457001
 20
265.820679
 30
0.0
 11
278.457001
 21
265.67926
 31
0.0
  0
LINE
  5
144
330
1F
100
AcDbEntity
  8
0
 62
     7
100
AcDbLine
 10
278.457001
 20
265.67926
 30
0.0
 11
278.457001
 21
265.549988
 31
0.0
  0
LINE
  5
145
330
1F
100
AcDbEntity
  8
0
 62
     7
100
AcDbLine
 10
278.457001
 20
264.849976
 30
0.0
 11
278.457001
 21
265.549988
 31
0.0
  0
LINE
  5
146
330
1F
100
AcDbEntity
  8
0
 62
     7
100
AcDbLine
 10
278.457001
 20
264.720703
 30
0.0
 11
278.457001
 21
264.849976
 31
0.0
  0
LINE
  5
147
330
1F
100
AcDbEntity
  8
0
 62
     7
100
AcDbLine
 10
278.457001
 20
264.720703
 30
0.0
 11
278.457001
 21
264.579285
 31
0.0
  0
LINE
  5
148
330
1F
100
AcDbEntity
  8
0
 62
     7
100
AcDbLine
 10
278.457001
 20
264.579285
 30
0.0
 11
278.457001
 21
264.450012
 31
0.0
  0
LINE
  5
149
330
1F
100
AcDbEntity
  8
0
 62
     7
100
AcDbLine
 10
278.457001
 20
263.75
 30
0.0
 11
278.457001
 21
264.450012
 31
0.0
  0
LINE
  5
14A
330
1F
100
AcDbEntity
  8
0
 62
     7
100
AcDbLine
 10
278.457001
 20
263.620728
 30
0.0
 11
278.457001
 21
263.75
 31
0.0
  0
LINE
  5
14B
330
1F
100
AcDbEntity
  8
0
 62
     7
100
AcDbLine
 10
278.457001
 20
263.620728
 30
0.0
 11
278.457001
 21
263.479309
 31
0.0
  0
LINE
  5
14C
330
1F
100
AcDbEntity
  8
0
 62
     7
100
AcDbLine
 10
278.457001
 20
263.479309
 30
0.0
 11
278.457001
 21
263.349976
 31
0.0
  0
LINE
  5
14D
330
1F
100
AcDbEntity
  8
0
 62
     7
100
AcDbLine
 10
278.457001
 20
262.650024
 30
0.0
 11
278.457001
 21
263.349976
 31
0.0
  0
LINE
  5
14E
330
1F
100
AcDbEntity
  8
0
 62
     7
100
AcDbLine
 10
278.457001
 20
262.520691
 30
0.0
 11
278.457001
 21
262.650024
 31
0.0
  0
LINE
  5
14F
330
1F
100
AcDbEntity
  8
0
 62
     7
100
AcDbLine
 10
278.457001
 20
262.520691
 30
0.0
 11
278.457001
 21
262.379272
 31
0.0
  0
LINE
  5
150
330
1F
100
AcDbEntity
  8
0
 62
     7
100
AcDbLine
 10
278.457001
 20
262.379272
 30
0.0
 11
278.457001
 21
262.25
 31
0.0
  0
LINE
  5
151
330
1F
100
AcDbEntity
  8
0
 62
     7
100
AcDbLine
 10
278.457001
 20
261.549988
 30
0.0
 11
278.457001
 21
262.25
 31
0.0
  0
LINE
  5
152
330
1F
100
AcDbEntity
  8
0
 62
     7
100
AcDbLine
 10
278.457001
 20
261.420715
 30
0.0
 11
278.457001
 21
261.549988
 31
0.0
  0
LINE
  5
153
330
1F
100
AcDbEntity
  8
0
 62
     7
100
AcDbLine
 10
278.457001
 20
261.420715
 30
0.0
 11
278.457001
 21
261.279297
 31
0.0
  0
LINE
  5
154
330
1F
100
AcDbEntity
  8
0
 62
     7
100
AcDbLine
 10
278.457001
 20
261.279297
 30
0.0
 11
278.457001
 21
261.150024
 31
0.0
  0
LINE
  5
155
330
1F
100
AcDbEntity
  8
0
 62
     7
100
AcDbLine
 10
278.457001
 20
260.450012
 30
0.0
 11
278.457001
 21
261.150024
 31
0.0
  0
LINE
  5
156
330
1F
100
AcDbEntity
  8
0
 62
     7
100
AcDbLine
 10
278.457001
 20
260.320679
 30
0.0
 11
278.457001
 21
260.450012
 31
0.0
  0
LINE
  5
157
330
1F
100
AcDbEntity
  8
0
 62
     7
100
AcDbLine
 10
278.457001
 20
260.320679
 30
0.0
 11
278.457001
 21
260.17926
 31
0.0
  0
LINE
  5
158
330
1F
100
AcDbEntity
  8
0
 62
     7
100
AcDbLine
 10
278.457001
 20
260.17926
 30
0.0
 11
278.457001
 21
260.049988
 31
0.0
  0
LINE
  5
159
330
1F
100
AcDbEntity
  8
0
 62
     7
100
AcDbLine
 10
278.457001
 20
259.349976
 30
0.0
 11
278.457001
 21
260.049988
 31
0.0
  0
LINE
  5
15A
330
1F
100
AcDbEntity
  8
0
 62
     7
100
AcDbLine
 10
277.457001
 20
266.650024
 30
0.0
 11
277.457001
 21
265.950012
 31
0.0
  0
LINE
  5
15B
330
1F
100
AcDbEntity
  8
0
 62
     7
100
AcDbLine
 10
277.457001
 20
266.779297
 30
0.0
 11
277.457001
 21
266.650024
 31
0.0
  0
LINE
  5
15C
330
1F
100
AcDbEntity
  8
0
 62
     7
100
AcDbLine
 10
277.457001
 20
266.779297
 30
0.0
 11
277.457001
 21
266.849976
 31
0.0
  0
LINE
  5
15D
330
1F
100
AcDbEntity
  8
0
 62
     7
100
AcDbLine
 10
277.457001
 20
259.079285
 30
0.0
 11
277.457001
 21
258.950012
 31
0.0
  0
LINE
  5
15E
330
1F
100
AcDbEntity
  8
0
 62
     7
100
AcDbLine
 10
277.457001
 20
259.079285
 30
0.0
 11
277.457001
 21
259.220703
 31
0.0
  0
LINE
  5
15F
330
1F
100
AcDbEntity
  8
0
 62
     7
100
AcDbLine
 10
277.457001
 20
259.220703
 30
0.0
 11
277.457001
 21
259.349976
 31
0.0
  0
LINE
  5
160
330
1F
100
AcDbEntity
  8
0
 62
     7
100
AcDbLine
 10
277.457001
 20
260.049988
 30
0.0
 11
277.457001
 21
259.349976
 31
0.0
  0
LINE
  5
161
330
1F
100
AcDbEntity
  8
0
 62
     7
100
AcDbLine
 10
277.457001
 20
260.17926
 30
0.0
 11
277.457001
 21
260.049988
 31
0.0
  0
LINE
  5
162
330
1F
100
AcDbEntity
  8
0
 62
     7
100
AcDbLine
 10
277.457001
 20
260.17926
 30
0.0
 11
277.457001
 21
260.320679
 31
0.0
  0
LINE
  5
163
330
1F
100
AcDbEntity
  8
0
 62
     7
100
AcDbLine
 10
277.457001
 20
260.320679
 30
0.0
 11
277.457001
 21
260.450012
 31
0.0
  0
LINE
  5
164
330
1F
100
AcDbEntity
  8
0
 62
     7
100
AcDbLine
 10
277.457001
 20
261.150024
 30
0.0
 11
277.457001
 21
260.450012
 31
0.0
  0
LINE
  5
165
330
1F
100
AcDbEntity
  8
0
 62
     7
100
AcDbLine
 10
277.457001
 20
261.279297
 30
0.0
 11
277.457001
 21
261.150024
 31
0.0
  0
LINE
  5
166
330
1F
100
AcDbEntity
  8
0
 62
     7
100
AcDbLine
 10
277.457001
 20
261.279297
 30
0.0
 11
277.457001
 21
261.420715
 31
0.0
  0
LINE
  5
167
330
1F
100
AcDbEntity
  8
0
 62
     7
100
AcDbLine
 10
277.457001
 20
261.420715
 30
0.0
 11
277.457001
 21
261.549988
 31
0.0
  0
LINE
  5
168
330
1F
100
AcDbEntity
  8
0
 62
     7
100
AcDbLine
 10
277.457001
 20
262.25
 30
0.0
 11
277.457001
 21
261.549988
 31
0.0
  0
LINE
  5
169
330
1F
100
AcDbEntity
  8
0
 62
     7
100
AcDbLine
 10
277.457001
 20
262.379272
 30
0.0
 11
277.457001
 21
262.25
 31
0.0
  0
LINE
  5
16A
330
1F
100
AcDbEntity
  8
0
 62
     7
100
AcDbLine
 10
277.457001
 20
262.379272
 30
0.0
 11
277.457001
 21
262.520691
 31
0.0
  0
LINE
  5
16B
330
1F
100
AcDbEntity
  8
0
 62
     7
100
AcDbLine
 10
277.457001
 20
262.520691
 30
0.0
 11
277.457001
 21
262.650024
 31
0.0
  0
LINE
  5
16C
330
1F
100
AcDbEntity
  8
0
 62
     7
100
AcDbLine
 10
277.457001
 20
263.349976
 30
0.0
 11
277.457001
 21
262.650024
 31
0.0
  0
LINE
  5
16D
330
1F
100
AcDbEntity
  8
0
 62
     7
100
AcDbLine
 10
277.457001
 20
263.479309
 30
0.0
 11
277.457001
 21
263.349976
 31
0.0
  0
LINE
  5
16E
330
1F
100
AcDbEntity
  8
0
 62
     7
100
AcDbLine
 10
277.457001
 20
263.479309
 30
0.0
 11
277.457001
 21
263.620728
 31
0.0
  0
LINE
  5
16F
330
1F
100
AcDbEntity
  8
0
 62
     7
100
AcDbLine
 10
277.457001
 20
263.620728
 30
0.0
 11
277.457001
 21
263.75
 31
0.0
  0
LINE
  5
170
330
1F
100
AcDbEntity
  8
0
 62
     7
100
AcDbLine
 10
277.457001
 20
264.450012
 30
0.0
 11
277.457001
 21
263.75
 31
0.0
  0
LINE
  5
171
330
1F
100
AcDbEntity
  8
0
 62
     7
100
AcDbLine
 10
277.457001
 20
264.579285
 30
0.0
 11
277.457001
 21
264.450012
 31
0.0
  0
LINE
  5
172
330
1F
100
AcDbEntity
  8
0
 62
     7
100
AcDbLine
 10
277.457001
 20
264.579285
 30
0.0
 11
277.457001
 21
264.720703
 31
0.0
  0
LINE
  5
173
330
1F
100
AcDbEntity
  8
0
 62
     7
100
AcDbLine
 10
277.457001
 20
264.720703
 30
0.0
 11
277.457001
 21
264.849976
 31
0.0
  0
LINE
  5
174
330
1F
100
AcDbEntity
  8
0
 62
     7
100
AcDbLine
 10
277.457001
 20
265.549988
 30
0.0
 11
277.457001
 21
264.849976
 31
0.0
  0
LINE
  5
175
330
1F
100
AcDbEntity
  8
0
 62
     7
100
AcDbLine
 10
277.457001
 20
265.67926
 30
0.0
 11
277.457001
 21
265.549988
 31
0.0
  0
LINE
  5
176
330
1F
100
AcDbEntity
  8
0
 62
     7
100
AcDbLine
 10
277.457001
 20
265.67926
 30
0.0
 11
277.457001
 21
265.820679
 31
0.0
  0
LINE
  5
177
330
1F
100
AcDbEntity
  8
0
 62
     7
100
AcDbLine
 10
277.457001
 20
265.820679
 30
0.0
 11
277.457001
 21
265.950012
 31
0.0
  0
LINE
  5
178
330
1F
100
AcDbEntity
  8
0
 62
     7
100
AcDbLine
 10
275.157013
 20
259.079285
 30
0.0
 11
275.157013
 21
258.950012
 31
0.0
  0
LINE
  5
179
330
1F
100
AcDbEntity
  8
0
 62
     7
100
AcDbLine
 10
275.157013
 20
259.220703
 30
0.0
 11
275.157013
 21
259.349976
 31
0.0
  0
LINE
  5
17A
330
1F
100
AcDbEntity
  8
0
 62
     7
100
AcDbLine
 10
275.157013
 20
259.220703
 30
0.0
 11
275.157013
 21
259.079285
 31
0.0
  0
LINE
  5
17B
330
1F
100
AcDbEntity
  8
0
 62
     7
100
AcDbLine
 10
275.157013
 20
266.849976
 30
0.0
 11
275.157013
 21
266.779297
 31
0.0
  0
LINE
  5
17C
330
1F
100
AcDbEntity
  8
0
 62
     7
100
AcDbLine
 10
275.157013
 20
266.779297
 30
0.0
 11
275.157013
 21
266.650024
 31
0.0
  0
LINE
  5
17D
330
1F
100
AcDbEntity
  8
0
 62
     7
100
AcDbLine
 10
275.157013
 20
265.950012
 30
0.0
 11
275.157013
 21
266.650024
 31
0.0
  0
LINE
  5
17E
330
1F
100
AcDbEntity
  8
0
 62
     7
100
AcDbLine
 10
275.157013
 20
265.820679
 30
0.0
 11
275.157013
 21
265.950012
 31
0.0
  0
LINE
  5
17F
330
1F
100
AcDbEntity
  8
0
 62
     7
100
AcDbLine
 10
275.157013
 20
265.820679
 30
0.0
 11
275.157013
 21
265.67926
 31
0.0
  0
LINE
  5
180
330
1F
100
AcDbEntity
  8
0
 62
     7
100
AcDbLine
 10
275.157013
 20
265.67926
 30
0.0
 11
275.157013
 21
265.549988
 31
0.0
  0
LINE
  5
181
330
1F
100
AcDbEntity
  8
0
 62
     7
100
AcDbLine
 10
275.157013
 20
264.849976
 30
0.0
 11
275.157013
 21
265.549988
 31
0.0
  0
LINE
  5
182
330
1F
100
AcDbEntity
  8
0
 62
     7
100
AcDbLine
 10
275.157013
 20
264.720703
 30
0.0
 11
275.157013
 21
264.849976
 31
0.0
  0
LINE
  5
183
330
1F
100
AcDbEntity
  8
0
 62
     7
100
AcDbLine
 10
275.157013
 20
264.720703
 30
0.0
 11
275.157013
 21
264.579285
 31
0.0
  0
LINE
  5
184
330
1F
100
AcDbEntity
  8
0
 62
     7
100
AcDbLine
 10
275.157013
 20
264.579285
 30
0.0
 11
275.157013
 21
264.450012
 31
0.0
  0
LINE
  5
185
330
1F
100
AcDbEntity
  8
0
 62
     7
100
AcDbLine
 10
275.157013
 20
263.75
 30
0.0
 11
275.157013
 21
264.450012
 31
0.0
  0
LINE
  5
186
330
1F
100
AcDbEntity
  8
0
 62
     7
100
AcDbLine
 10
275.157013
 20
263.620728
 30
0.0
 11
275.157013
 21
263.75
 31
0.0
  0
LINE
  5
187
330
1F
100
AcDbEntity
  8
0
 62
     7
100
AcDbLine
 10
275.157013
 20
263.620728
 30
0.0
 11
275.157013
 21
263.479309
 31
0.0
  0
LINE
  5
188
330
1F
100
AcDbEntity
  8
0
 62
     7
100
AcDbLine
 10
275.157013
 20
263.479309
 30
0.0
 11
275.157013
 21
263.349976
 31
0.0
  0
LINE
  5
189
330
1F
100
AcDbEntity
  8
0
 62
     7
100
AcDbLine
 10
275.157013
 20
262.650024
 30
0.0
 11
275.157013
 21
263.349976
 31
0.0
  0
LINE
  5
18A
330
1F
100
AcDbEntity
  8
0
 62
     7
100
AcDbLine
 10
275.157013
 20
262.520691
 30
0.0
 11
275.157013
 21
262.650024
 31
0.0
  0
LINE
  5
18B
330
1F
100
AcDbEntity
  8
0
 62
     7
100
AcDbLine
 10
275.157013
 20
262.520691
 30
0.0
 11
275.157013
 21
262.379272
 31
0.0
  0
LINE
  5
18C
330
1F
100
AcDbEntity
  8
0
 62
     7
100
AcDbLine
 10
275.157013
 20
262.379272
 30
0.0
 11
275.157013
 21
262.25
 31
0.0
  0
LINE
  5
18D
330
1F
100
AcDbEntity
  8
0
 62
     7
100
AcDbLine
 10
275.157013
 20
261.549988
 30
0.0
 11
275.157013
 21
262.25
 31
0.0
  0
LINE
  5
18E
330
1F
100
AcDbEntity
  8
0
 62
     7
100
AcDbLine
 10
275.157013
 20
261.420715
 30
0.0
 11
275.157013
 21
261.549988
 31
0.0
  0
LINE
  5
18F
330
1F
100
AcDbEntity
  8
0
 62
     7
100
AcDbLine
 10
275.157013
 20
261.420715
 30
0.0
 11
275.157013
 21
261.279297
 31
0.0
  0
LINE
  5
190
330
1F
100
AcDbEntity
  8
0
 62
     7
100
AcDbLine
 10
275.157013
 20
261.279297
 30
0.0
 11
275.157013
 21
261.150024
 31
0.0
  0
LINE
  5
191
330
1F
100
AcDbEntity
  8
0
 62
     7
100
AcDbLine
 10
275.157013
 20
260.450012
 30
0.0
 11
275.157013
 21
261.150024
 31
0.0
  0
LINE
  5
192
330
1F
100
AcDbEntity
  8
0
 62
     7
100
AcDbLine
 10
275.157013
 20
260.320679
 30
0.0
 11
275.157013
 21
260.450012
 31
0.0
  0
LINE
  5
193
330
1F
100
AcDbEntity
  8
0
 62
     7
100
AcDbLine
 10
275.157013
 20
260.320679
 30
0.0
 11
275.157013
 21
260.17926
 31
0.0
  0
LINE
  5
194
330
1F
100
AcDbEntity
  8
0
 62
     7
100
AcDbLine
 10
275.157013
 20
260.17926
 30
0.0
 11
275.157013
 21
260.049988
 31
0.0
  0
LINE
  5
195
330
1F
100
AcDbEntity
  8
0
 62
     7
100
AcDbLine
 10
275.157013
 20
259.349976
 30
0.0
 11
275.157013
 21
260.049988
 31
0.0
  0
LINE
  5
196
330
1F
100
AcDbEntity
  8
0
 62
     7
100
AcDbLine
 10
274.157013
 20
265.67926
 30
0.0
 11
274.157013
 21
265.549988
 31
0.0
  0
LINE
  5
197
330
1F
100
AcDbEntity
  8
0
 62
     7
100
AcDbLine
 10
274.157013
 20
265.67926
 30
0.0
 11
274.157013
 21
265.820679
 31
0.0
  0
LINE
  5
198
330
1F
100
AcDbEntity
  8
0
 62
     7
100
AcDbLine
 10
274.157013
 20
265.820679
 30
0.0
 11
274.157013
 21
265.950012
 31
0.0
  0
LINE
  5
199
330
1F
100
AcDbEntity
  8
0
 62
     7
100
AcDbLine
 10
274.157013
 20
266.349976
 30
0.0
 11
274.157013
 21
265.950012
 31
0.0
  0
LINE
  5
19A
330
1F
100
AcDbEntity
  8
0
 62
     7
100
AcDbLine
 10
274.157013
 20
259.079285
 30
0.0
 11
274.157013
 21
258.950012
 31
0.0
  0
LINE
  5
19B
330
1F
100
AcDbEntity
  8
0
 62
     7
100
AcDbLine
 10
274.157013
 20
259.079285
 30
0.0
 11
274.157013
 21
259.220703
 31
0.0
  0
LINE
  5
19C
330
1F
100
AcDbEntity
  8
0
 62
     7
100
AcDbLine
 10
274.157013
 20
259.220703
 30
0.0
 11
274.157013
 21
259.349976
 31
0.0
  0
LINE
  5
19D
330
1F
100
AcDbEntity
  8
0
 62
     7
100
AcDbLine
 10
274.157013
 20
260.049988
 30
0.0
 11
274.157013
 21
259.349976
 31
0.0
  0
LINE
  5
19E
330
1F
100
AcDbEntity
  8
0
 62
     7
100
AcDbLine
 10
274.157013
 20
260.17926
 30
0.0
 11
274.157013
 21
260.049988
 31
0.0
  0
LINE
  5
19F
330
1F
100
AcDbEntity
  8
0
 62
     7
100
AcDbLine
 10
274.157013
 20
260.17926
 30
0.0
 11
274.157013
 21
260.320679
 31
0.0
  0
LINE
  5
1A0
330
1F
100
AcDbEntity
  8
0
 62
     7
100
AcDbLine
 10
274.157013
 20
260.320679
 30
0.0
 11
274.157013
 21
260.450012
 31
0.0
  0
LINE
  5
1A1
330
1F
100
AcDbEntity
  8
0
 62
     7
100
AcDbLine
 10
274.157013
 20
261.150024
 30
0.0
 11
274.157013
 21
260.450012
 31
0.0
  0
LINE
  5
1A2
330
1F
100
AcDbEntity
  8
0
 62
     7
100
AcDbLine
 10
274.157013
 20
261.279297
 30
0.0
 11
274.157013
 21
261.150024
 31
0.0
  0
LINE
  5
1A3
330
1F
100
AcDbEntity
  8
0
 62
     7
100
AcDbLine
 10
274.157013
 20
261.279297
 30
0.0
 11
274.157013
 21
261.420715
 31
0.0
  0
LINE
  5
1A4
330
1F
100
AcDbEntity
  8
0
 62
     7
100
AcDbLine
 10
274.157013
 20
261.420715
 30
0.0
 11
274.157013
 21
261.549988
 31
0.0
  0
LINE
  5
1A5
330
1F
100
AcDbEntity
  8
0
 62
     7
100
AcDbLine
 10
274.157013
 20
262.25
 30
0.0
 11
274.157013
 21
261.549988
 31
0.0
  0
LINE
  5
1A6
330
1F
100
AcDbEntity
  8
0
 62
     7
100
AcDbLine
 10
274.157013
 20
262.379272
 30
0.0
 11
274.157013
 21
262.25
 31
0.0
  0
LINE
  5
1A7
330
1F
100
AcDbEntity
  8
0
 62
     7
100
AcDbLine
 10
274.157013
 20
262.379272
 30
0.0
 11
274.157013
 21
262.520691
 31
0.0
  0
LINE
  5
1A8
330
1F
100
AcDbEntity
  8
0
 62
     7
100
AcDbLine
 10
274.157013
 20
262.520691
 30
0.0
 11
274.157013
 21
262.650024
 31
0.0
  0
LINE
  5
1A9
330
1F
100
AcDbEntity
  8
0
 62
     7
100
AcDbLine
 10
274.157013
 20
263.349976
 30
0.0
 11
274.157013
 21
262.650024
 31
0.0
  0
LINE
  5
1AA
330
1F
100
AcDbEntity
  8
0
 62
     7
100
AcDbLine
 10
274.157013
 20
263.479309
 30
0.0
 11
274.157013
 21
263.349976
 31
0.0
  0
LINE
  5
1AB
330
1F
100
AcDbEntity
  8
0
 62
     7
100
AcDbLine
 10
274.157013
 20
263.479309
 30
0.0
 11
274.157013
 21
263.620728
 31
0.0
  0
LINE
  5
1AC
330
1F
100
AcDbEntity
  8
0
 62
     7
100
AcDbLine
 10
274.157013
 20
263.620728
 30
0.0
 11
274.157013
 21
263.75
 31
0.0
  0
LINE
  5
1AD
330
1F
100
AcDbEntity
  8
0
 62
     7
100
AcDbLine
 10
274.157013
 20
264.450012
 30
0.0
 11
274.157013
 21
263.75
 31
0.0
  0
LINE
  5
1AE
330
1F
100
AcDbEntity
  8
0
 62
     7
100
AcDbLine
 10
274.157013
 20
264.579285
 30
0.0
 11
274.157013
 21
264.450012
 31
0.0
  0
LINE
  5
1AF
330
1F
100
AcDbEntity
  8
0
 62
     7
100
AcDbLine
 10
274.157013
 20
264.579285
 30
0.0
 11
274.157013
 21
264.720703
 31
0.0
  0
LINE
  5
1B0
330
1F
100
AcDbEntity
  8
0
 62
     7
100
AcDbLine
 10
274.157013
 20
264.720703
 30
0.0
 11
274.157013
 21
264.849976
 31
0.0
  0
LINE
  5
1B1
330
1F
100
AcDbEntity
  8
0
 62
     7
100
AcDbLine
 10
274.157013
 20
265.549988
 30
0.0
 11
274.157013
 21
264.849976
 31
0.0
  0
LINE
  5
1B2
330
1F
100
AcDbEntity
  8
0
 62
     7
100
AcDbLine
 10
215.488312
 20
258.950012
 30
0.0
 11
215.571686
 21
259.079285
 31
0.0
  0
ARC
  5
1B3
330
1F
100
AcDbEntity
  8
0
 62
     7
100
AcDbCircle
 10
208.806976
 20
263.349976
 30
0.0
 40
8.0
100
AcDbArc
 50
354.980203
 51
360.0
  0
LINE
  5
1B4
330
1F
100
AcDbEntity
  8
0
 62
     7
100
AcDbLine
 10
216.763885
 20
262.520691
 30
0.0
 11
216.776306
 21
262.650024
 31
0.0
  0
LINE
  5
1B5
330
1F
100
AcDbEntity
  8
0
 62
     7
100
AcDbLine
 10
216.747864
 20
262.379272
 30
0.0
 11
216.763885
 21
262.520691
 31
0.0
  0
LINE
  5
1B6
330
1F
100
AcDbEntity
  8
0
 62
     7
100
AcDbLine
 10
216.730988
 20
262.25
 30
0.0
 11
216.747864
 21
262.379272
 31
0.0
  0
ARC
  5
1B7
330
1F
100
AcDbEntity
  8
0
 62
     7
100
AcDbCircle
 10
208.806976
 20
263.349976
 30
0.0
 40
8.0
100
AcDbArc
 50
346.997132
 51
352.096798
  0
LINE
  5
1B8
330
1F
100
AcDbEntity
  8
0
 62
     7
100
AcDbLine
 10
216.570862
 20
261.420715
 30
0.0
 11
216.601868
 21
261.549988
 31
0.0
  0
LINE
  5
1B9
330
1F
100
AcDbEntity
  8
0
 62
     7
100
AcDbLine
 10
216.534332
 20
261.279297
 30
0.0
 11
216.570862
 21
261.420715
 31
0.0
  0
LINE
  5
1BA
330
1F
100
AcDbEntity
  8
0
 62
     7
100
AcDbLine
 10
216.498535
 20
261.150024
 30
0.0
 11
216.534332
 21
261.279297
 31
0.0
  0
ARC
  5
1BB
330
1F
100
AcDbEntity
  8
0
 62
     7
100
AcDbCircle
 10
208.806976
 20
263.349976
 30
0.0
 40
8.0
100
AcDbArc
 50
338.746183
 51
344.037995
  0
LINE
  5
1BC
330
1F
100
AcDbEntity
  8
0
 62
     7
100
AcDbLine
 10
216.211273
 20
260.320679
 30
0.0
 11
216.262848
 21
260.450012
 31
0.0
  0
LINE
  5
1BD
330
1F
100
AcDbEntity
  8
0
 62
     7
100
AcDbLine
 10
216.151825
 20
260.17926
 30
0.0
 11
216.211273
 21
260.320679
 31
0.0
  0
LINE
  5
1BE
330
1F
100
AcDbEntity
  8
0
 62
     7
100
AcDbLine
 10
216.094635
 20
260.049988
 30
0.0
 11
216.151825
 21
260.17926
 31
0.0
  0
ARC
  5
1BF
330
1F
100
AcDbEntity
  8
0
 62
     7
100
AcDbCircle
 10
208.806976
 20
263.349976
 30
0.0
 40
8.0
100
AcDbArc
 50
329.999989
 51
335.63801
  0
LINE
  5
1C0
330
1F
100
AcDbEntity
  8
0
 62
     7
100
AcDbLine
 10
215.658905
 20
259.220703
 30
0.0
 11
215.735199
 21
259.349976
 31
0.0
  0
LINE
  5
1C1
330
1F
100
AcDbEntity
  8
0
 62
     7
100
AcDbLine
 10
215.571686
 20
259.079285
 30
0.0
 11
215.658905
 21
259.220703
 31
0.0
  0
LINE
  5
1C2
330
1F
100
AcDbEntity
  8
0
 62
     7
100
AcDbLine
 10
202.125671
 20
258.950012
 30
0.0
 11
202.042297
 21
259.079285
 31
0.0
  0
LINE
  5
1C3
330
1F
100
AcDbEntity
  8
0
 62
     7
100
AcDbLine
 10
202.042297
 20
259.079285
 30
0.0
 11
201.955048
 21
259.220703
 31
0.0
  0
LINE
  5
1C4
330
1F
100
AcDbEntity
  8
0
 62
     7
100
AcDbLine
 10
201.955048
 20
259.220703
 30
0.0
 11
201.878784
 21
259.349976
 31
0.0
  0
ARC
  5
1C5
330
1F
100
AcDbEntity
  8
0
 62
     7
100
AcDbCircle
 10
208.806976
 20
263.349976
 30
0.0
 40
8.0
100
AcDbArc
 50
204.361982
 51
210.000003
  0
LINE
  5
1C6
330
1F
100
AcDbEntity
  8
0
 62
     7
100
AcDbLine
 10
201.519318
 20
260.049988
 30
0.0
 11
201.462158
 21
260.17926
 31
0.0
  0
LINE
  5
1C7
330
1F
100
AcDbEntity
  8
0
 62
     7
100
AcDbLine
 10
201.462158
 20
260.17926
 30
0.0
 11
201.40271
 21
260.320679
 31
0.0
  0
LINE
  5
1C8
330
1F
100
AcDbEntity
  8
0
 62
     7
100
AcDbLine
 10
201.40271
 20
260.320679
 30
0.0
 11
201.351105
 21
260.450012
 31
0.0
  0
ARC
  5
1C9
330
1F
100
AcDbEntity
  8
0
 62
     7
100
AcDbCircle
 10
208.806976
 20
263.349976
 30
0.0
 40
8.0
100
AcDbArc
 50
195.96201
 51
201.253809
  0
LINE
  5
1CA
330
1F
100
AcDbEntity
  8
0
 62
     7
100
AcDbLine
 10
201.115417
 20
261.150024
 30
0.0
 11
201.07962
 21
261.279297
 31
0.0
  0
LINE
  5
1CB
330
1F
100
AcDbEntity
  8
0
 62
     7
100
AcDbLine
 10
201.07962
 20
261.279297
 30
0.0
 11
201.043091
 21
261.420715
 31
0.0
  0
LINE
  5
1CC
330
1F
100
AcDbEntity
  8
0
 62
     7
100
AcDbLine
 10
201.043091
 20
261.420715
 30
0.0
 11
201.012115
 21
261.549988
 31
0.0
  0
ARC
  5
1CD
330
1F
100
AcDbEntity
  8
0
 62
     7
100
AcDbCircle
 10
208.806976
 20
263.349976
 30
0.0
 40
8.0
100
AcDbArc
 50
187.903207
 51
193.002872
  0
LINE
  5
1CE
330
1F
100
AcDbEntity
  8
0
 62
     7
100
AcDbLine
 10
200.882965
 20
262.25
 30
0.0
 11
200.866089
 21
262.379272
 31
0.0
  0
LINE
  5
1CF
330
1F
100
AcDbEntity
  8
0
 62
     7
100
AcDbLine
 10
200.866089
 20
262.379272
 30
0.0
 11
200.850098
 21
262.520691
 31
0.0
  0
LINE
  5
1D0
330
1F
100
AcDbEntity
  8
0
 62
     7
100
AcDbLine
 10
200.850098
 20
262.520691
 30
0.0
 11
200.837677
 21
262.650024
 31
0.0
  0
ARC
  5
1D1
330
1F
100
AcDbEntity
  8
0
 62
     7
100
AcDbCircle
 10
208.806976
 20
263.349976
 30
0.0
 40
8.0
100
AcDbArc
 50
180.000009
 51
185.019802
  0
LINE
  5
1D2
330
1F
100
AcDbEntity
  8
0
 62
     7
100
AcDbLine
 10
199.806976
 20
259.079285
 30
0.0
 11
199.806976
 21
258.950012
 31
0.0
  0
LINE
  5
1D3
330
1F
100
AcDbEntity
  8
0
 62
     7
100
AcDbLine
 10
199.806976
 20
259.220703
 30
0.0
 11
199.806976
 21
259.079285
 31
0.0
  0
LINE
  5
1D4
330
1F
100
AcDbEntity
  8
0
 62
     7
100
AcDbLine
 10
199.806976
 20
259.349976
 30
0.0
 11
199.806976
 21
259.220703
 31
0.0
  0
LINE
  5
1D5
330
1F
100
AcDbEntity
  8
0
 62
     7
100
AcDbLine
 10
199.806976
 20
259.349976
 30
0.0
 11
199.806976
 21
260.049988
 31
0.0
  0
LINE
  5
1D6
330
1F
100
AcDbEntity
  8
0
 62
     7
100
AcDbLine
 10
199.806976
 20
260.17926
 30
0.0
 11
199.806976
 21
260.049988
 31
0.0
  0
LINE
  5
1D7
330
1F
100
AcDbEntity
  8
0
 62
     7
100
AcDbLine
 10
199.806976
 20
260.320679
 30
0.0
 11
199.806976
 21
260.17926
 31
0.0
  0
LINE
  5
1D8
330
1F
100
AcDbEntity
  8
0
 62
     7
100
AcDbLine
 10
199.806976
 20
260.450012
 30
0.0
 11
199.806976
 21
260.320679
 31
0.0
  0
LINE
  5
1D9
330
1F
100
AcDbEntity
  8
0
 62
     7
100
AcDbLine
 10
199.806976
 20
260.450012
 30
0.0
 11
199.806976
 21
261.150024
 31
0.0
  0
LINE
  5
1DA
330
1F
100
AcDbEntity
  8
0
 62
     7
100
AcDbLine
 10
199.806976
 20
261.279297
 30
0.0
 11
199.806976
 21
261.150024
 31
0.0
  0
LINE
  5
1DB
330
1F
100
AcDbEntity
  8
0
 62
     7
100
AcDbLine
 10
199.806976
 20
261.420715
 30
0.0
 11
199.806976
 21
261.279297
 31
0.0
  0
LINE
  5
1DC
330
1F
100
AcDbEntity
  8
0
 62
     7
100
AcDbLine
 10
199.806976
 20
261.549988
 30
0.0
 11
199.806976
 21
261.420715
 31
0.0
  0
LINE
  5
1DD
330
1F
100
AcDbEntity
  8
0
 62
     7
100
AcDbLine
 10
199.806976
 20
261.549988
 30
0.0
 11
199.806976
 21
262.25
 31
0.0
  0
LINE
  5
1DE
330
1F
100
AcDbEntity
  8
0
 62
     7
100
AcDbLine
 10
199.806976
 20
262.379272
 30
0.0
 11
199.806976
 21
262.25
 31
0.0
  0
LINE
  5
1DF
330
1F
100
AcDbEntity
  8
0
 62
     7
100
AcDbLine
 10
199.806976
 20
262.520691
 30
0.0
 11
199.806976
 21
262.379272
 31
0.0
  0
LINE
  5
1E0
330
1F
100
AcDbEntity
  8
0
 62
     7
100
AcDbLine
 10
199.806976
 20
262.650024
 30
0.0
 11
199.806976
 21
262.520691
 31
0.0
  0
LINE
  5
1E1
330
1F
100
AcDbEntity
  8
0
 62
     7
100
AcDbLine
 10
199.806976
 20
262.650024
 30
0.0
 11
199.806976
 21
263.349976
 31
0.0
  0
LINE
  5
1E2
330
1F
100
AcDbEntity
  8
0
 62
     7
100
AcDbLine
 10
199.806976
 20
263.479309
 30
0.0
 11
199.806976
 21
263.349976
 31
0.0
  0
LINE
  5
1E3
330
1F
100
AcDbEntity
  8
0
 62
     7
100
AcDbLine
 10
199.806976
 20
263.620728
 30
0.0
 11
199.806976
 21
263.479309
 31
0.0
  0
LINE
  5
1E4
330
1F
100
AcDbEntity
  8
0
 62
     7
100
AcDbLine
 10
199.806976
 20
263.75
 30
0.0
 11
199.806976
 21
263.620728
 31
0.0
  0
LINE
  5
1E5
330
1F
100
AcDbEntity
  8
0
 62
     7
100
AcDbLine
 10
199.806976
 20
263.75
 30
0.0
 11
199.806976
 21
264.450012
 31
0.0
  0
LINE
  5
1E6
330
1F
100
AcDbEntity
  8
0
 62
     7
100
AcDbLine
 10
199.806976
 20
264.579285
 30
0.0
 11
199.806976
 21
264.450012
 31
0.0
  0
LINE
  5
1E7
330
1F
100
AcDbEntity
  8
0
 62
     7
100
AcDbLine
 10
199.806976
 20
264.720703
 30
0.0
 11
199.806976
 21
264.579285
 31
0.0
  0
LINE
  5
1E8
330
1F
100
AcDbEntity
  8
0
 62
     7
100
AcDbLine
 10
199.806976
 20
264.849976
 30
0.0
 11
199.806976
 21
264.720703
 31
0.0
  0
LINE
  5
1E9
330
1F
100
AcDbEntity
  8
0
 62
     7
100
AcDbLine
 10
199.806976
 20
264.849976
 30
0.0
 11
199.806976
 21
265.549988
 31
0.0
  0
LINE
  5
1EA
330
1F
100
AcDbEntity
  8
0
 62
     7
100
AcDbLine
 10
199.806976
 20
265.67926
 30
0.0
 11
199.806976
 21
265.549988
 31
0.0
  0
LINE
  5
1EB
330
1F
100
AcDbEntity
  8
0
 62
     7
100
AcDbLine
 10
199.806976
 20
265.820679
 30
0.0
 11
199.806976
 21
265.67926
 31
0.0
  0
LINE
  5
1EC
330
1F
100
AcDbEntity
  8
0
 62
     7
100
AcDbLine
 10
199.806976
 20
265.950012
 30
0.0
 11
199.806976
 21
265.820679
 31
0.0
  0
LINE
  5
1ED
330
1F
100
AcDbEntity
  8
0
 62
     7
100
AcDbLine
 10
199.806976
 20
265.950012
 30
0.0
 11
199.806976
 21
266.650024
 31
0.0
  0
LINE
  5
1EE
330
1F
100
AcDbEntity
  8
0
 62
     7
100
AcDbLine
 10
199.806976
 20
266.779297
 30
0.0
 11
199.806976
 21
266.650024
 31
0.0
  0
LINE
  5
1EF
330
1F
100
AcDbEntity
  8
0
 62
     7
100
AcDbLine
 10
199.806976
 20
266.920715
 30
0.0
 11
199.806976
 21
266.779297
 31
0.0
  0
LINE
  5
1F0
330
1F
100
AcDbEntity
  8
0
 62
     7
100
AcDbLine
 10
199.806976
 20
267.049988
 30
0.0
 11
199.806976
 21
266.920715
 31
0.0
  0
LINE
  5
1F1
330
1F
100
AcDbEntity
  8
0
 62
     7
100
AcDbLine
 10
199.806976
 20
267.049988
 30
0.0
 11
199.806976
 21
267.75
 31
0.0
  0
LINE
  5
1F2
330
1F
100
AcDbEntity
  8
0
 62
     7
100
AcDbLine
 10
199.806976
 20
267.879272
 30
0.0
 11
199.806976
 21
267.75
 31
0.0
  0
LINE
  5
1F3
330
1F
100
AcDbEntity
  8
0
 62
     7
100
AcDbLine
 10
199.806976
 20
268.020691
 30
0.0
 11
199.806976
 21
267.879272
 31
0.0
  0
LINE
  5
1F4
330
1F
100
AcDbEntity
  8
0
 62
     7
100
AcDbLine
 10
199.806976
 20
268.150024
 30
0.0
 11
199.806976
 21
268.020691
 31
0.0
  0
LINE
  5
1F5
330
1F
100
AcDbEntity
  8
0
 62
     7
100
AcDbLine
 10
199.806976
 20
268.150024
 30
0.0
 11
199.806976
 21
272.974243
 31
0.0
  0
LINE
  5
1F6
330
1F
100
AcDbEntity
  8
0
 62
     7
100
AcDbLine
 10
199.806976
 20
273.462158
 30
0.0
 11
199.806976
 21
272.974243
 31
0.0
  0
LINE
  5
1F7
330
1F
100
AcDbEntity
  8
0
 62
     7
100
AcDbLine
 10
199.806976
 20
273.549988
 30
0.0
 11
199.806976
 21
273.462158
 31
0.0
  0
ARC
  5
1F8
330
1F
100
AcDbEntity
  8
0
 62
     7
100
AcDbCircle
 10
477.307007
 20
250.550003
 30
0.0
 40
0.5
100
AcDbArc
 50
0.0
 51
90.000003
  0
LINE
  5
1F9
330
1F
100
AcDbEntity
  8
0
 62
     7
100
AcDbLine
 10
477.307007
 20
251.050003
 30
0.0
 11
470.307007
 21
251.050003
 31
0.0
  0
ARC
  5
1FA
330
1F
100
AcDbEntity
  8
0
 62
     7
100
AcDbCircle
 10
470.307007
 20
250.550003
 30
0.0
 40
0.5
100
AcDbArc
 50
90.000003
 51
180.000009
  0
LINE
  5
1FB
330
1F
100
AcDbEntity
  8
0
 62
     7
100
AcDbLine
 10
469.807007
 20
250.550003
 30
0.0
 11
469.807007
 21
246.550003
 31
0.0
  0
ARC
  5
1FC
330
1F
100
AcDbEntity
  8
0
 62
     7
100
AcDbCircle
 10
470.307007
 20
246.550003
 30
0.0
 40
0.5
100
AcDbArc
 50
180.000009
 51
269.999997
  0
LINE
  5
1FD
330
1F
100
AcDbEntity
  8
0
 62
     7
100
AcDbLine
 10
470.307007
 20
246.050003
 30
0.0
 11
477.307007
 21
246.050003
 31
0.0
  0
ARC
  5
1FE
330
1F
100
AcDbEntity
  8
0
 62
     7
100
AcDbCircle
 10
477.307007
 20
246.550003
 30
0.0
 40
0.5
100
AcDbArc
 50
269.999997
 51
360.0
  0
LINE
  5
1FF
330
1F
100
AcDbEntity
  8
0
 62
     7
100
AcDbLine
 10
477.807007
 20
246.550003
 30
0.0
 11
477.807007
 21
250.550003
 31
0.0
  0
ARC
  5
200
330
1F
100
AcDbEntity
  8
0
 62
     7
100
AcDbCircle
 10
257.307007
 20
250.550003
 30
0.0
 40
0.5
100
AcDbArc
 50
0.0
 51
90.000003
  0
LINE
  5
201
330
1F
100
AcDbEntity
  8
0
 62
     7
100
AcDbLine
 10
257.307007
 20
251.050003
 30
0.0
 11
250.306976
 21
251.050003
 31
0.0
  0
ARC
  5
202
330
1F
100
AcDbEntity
  8
0
 62
     7
100
AcDbCircle
 10
250.306976
 20
250.550003
 30
0.0
 40
0.5
100
AcDbArc
 50
90.000003
 51
180.000009
  0
LINE
  5
203
330
1F
100
AcDbEntity
  8
0
 62
     7
100
AcDbLine
 10
249.806976
 20
250.550003
 30
0.0
 11
249.806976
 21
246.550003
 31
0.0
  0
ARC
  5
204
330
1F
100
AcDbEntity
  8
0
 62
     7
100
AcDbCircle
 10
250.306976
 20
246.550003
 30
0.0
 40
0.5
100
AcDbArc
 50
180.000009
 51
269.999997
  0
LINE
  5
205
330
1F
100
AcDbEntity
  8
0
 62
     7
100
AcDbLine
 10
250.306976
 20
246.050003
 30
0.0
 11
257.307007
 21
246.050003
 31
0.0
  0
ARC
  5
206
330
1F
100
AcDbEntity
  8
0
 62
     7
100
AcDbCircle
 10
257.307007
 20
246.550003
 30
0.0
 40
0.5
100
AcDbArc
 50
269.999997
 51
360.0
  0
LINE
  5
207
330
1F
100
AcDbEntity
  8
0
 62
     7
100
AcDbLine
 10
257.807007
 20
246.550003
 30
0.0
 11
257.807007
 21
250.550003
 31
0.0
  0
LINE
  5
208
330
1F
100
AcDbEntity
  8
0
 62
     7
100
AcDbLine
 10
553.306946
 20
251.350006
 30
0.0
 11
552.806946
 21
251.350006
 31
0.0
  0
LINE
  5
209
330
1F
100
AcDbEntity
  8
0
 62
     7
100
AcDbLine
 10
552.806946
 20
253.650009
 30
0.0
 11
553.306946
 21
253.650009
 31
0.0
  0
LINE
  5
20A
330
1F
100
AcDbEntity
  8
0
 62
     7
100
AcDbLine
 10
199.306976
 20
253.650009
 30
0.0
 11
199.806976
 21
253.650009
 31
0.0
  0
LINE
  5
20B
330
1F
100
AcDbEntity
  8
0
 62
     7
100
AcDbLine
 10
480.307007
 20
273.462158
 30
0.0
 11
480.307007
 21
273.549988
 31
0.0
  0
LINE
  5
20C
330
1F
100
AcDbEntity
  8
0
 62
     7
100
AcDbLine
 10
480.307007
 20
273.462158
 30
0.0
 11
480.307007
 21
272.974243
 31
0.0
  0
LINE
  5
20D
330
1F
100
AcDbEntity
  8
0
 62
     7
100
AcDbLine
 10
552.806946
 20
272.974243
 30
0.0
 11
480.307007
 21
272.974243
 31
0.0
  0
ARC
  5
20E
330
1F
100
AcDbEntity
  8
0
 62
     7
100
AcDbCircle
 10
543.806946
 20
263.349976
 30
0.0
 40
8.0
100
AcDbArc
 50
36.869897
 51
143.130097
  0
LINE
  5
20F
330
1F
100
AcDbEntity
  8
0
 62
     7
100
AcDbLine
 10
552.806946
 20
268.150024
 30
0.0
 11
550.206909
 21
268.150024
 31
0.0
  0
LINE
  5
210
330
1F
100
AcDbEntity
  8
0
 62
     7
100
AcDbLine
 10
480.307007
 20
268.150024
 30
0.0
 11
480.307007
 21
272.974243
 31
0.0
  0
LINE
  5
211
330
1F
100
AcDbEntity
  8
0
 62
     7
100
AcDbLine
 10
537.406921
 20
268.150024
 30
0.0
 11
480.307007
 21
268.150024
 31
0.0
  0
LINE
  5
212
330
1F
100
AcDbEntity
  8
0
 62
     7
100
AcDbLine
 10
550.206909
 20
268.150024
 30
0.0
 11
550.30188
 21
268.020691
 31
0.0
  0
LINE
  5
213
330
1F
100
AcDbEntity
  8
0
 62
     7
100
AcDbLine
 10
550.30188
 20
268.020691
 30
0.0
 11
550.401306
 21
267.879272
 31
0.0
  0
LINE
  5
214
330
1F
100
AcDbEntity
  8
0
 62
     7
100
AcDbLine
 10
550.401306
 20
267.879272
 30
0.0
 11
550.48822
 21
267.75
 31
0.0
  0
LINE
  5
215
330
1F
100
AcDbEntity
  8
0
 62
     7
100
AcDbLine
 10
552.806946
 20
267.75
 30
0.0
 11
550.48822
 21
267.75
 31
0.0
  0
ARC
  5
216
330
1F
100
AcDbEntity
  8
0
 62
     7
100
AcDbCircle
 10
543.806946
 20
263.349976
 30
0.0
 40
8.0
100
AcDbArc
 50
27.548547
 51
33.367014
  0
LINE
  5
217
330
1F
100
AcDbEntity
  8
0
 62
     7
100
AcDbLine
 10
552.806946
 20
267.049988
 30
0.0
 11
550.899902
 21
267.049988
 31
0.0
  0
LINE
  5
218
330
1F
100
AcDbEntity
  8
0
 62
     7
100
AcDbLine
 10
550.899902
 20
267.049988
 30
0.0
 11
550.96582
 21
266.920715
 31
0.0
  0
LINE
  5
219
330
1F
100
AcDbEntity
  8
0
 62
     7
100
AcDbLine
 10
550.96582
 20
266.920715
 30
0.0
 11
551.034668
 21
266.779297
 31
0.0
  0
LINE
  5
21A
330
1F
100
AcDbEntity
  8
0
 62
     7
100
AcDbLine
 10
551.034668
 20
266.779297
 30
0.0
 11
551.094604
 21
266.650024
 31
0.0
  0
LINE
  5
21B
330
1F
100
AcDbEntity
  8
0
 62
     7
100
AcDbLine
 10
552.806946
 20
266.650024
 30
0.0
 11
551.094604
 21
266.650024
 31
0.0
  0
ARC
  5
21C
330
1F
100
AcDbEntity
  8
0
 62
     7
100
AcDbCircle
 10
543.806946
 20
263.349976
 30
0.0
 40
8.0
100
AcDbArc
 50
18.965574
 51
24.361978
  0
LINE
  5
21D
330
1F
100
AcDbEntity
  8
0
 62
     7
100
AcDbLine
 10
552.806946
 20
265.950012
 30
0.0
 11
551.37262
 21
265.950012
 31
0.0
  0
LINE
  5
21E
330
1F
100
AcDbEntity
  8
0
 62
     7
100
AcDbLine
 10
551.37262
 20
265.950012
 30
0.0
 11
551.415833
 21
265.820679
 31
0.0
  0
LINE
  5
21F
330
1F
100
AcDbEntity
  8
0
 62
     7
100
AcDbLine
 10
551.415833
 20
265.820679
 30
0.0
 11
551.460327
 21
265.67926
 31
0.0
  0
LINE
  5
220
330
1F
100
AcDbEntity
  8
0
 62
     7
100
AcDbLine
 10
551.460327
 20
265.67926
 30
0.0
 11
551.498474
 21
265.549988
 31
0.0
  0
LINE
  5
221
330
1F
100
AcDbEntity
  8
0
 62
     7
100
AcDbLine
 10
552.806946
 20
265.549988
 30
0.0
 11
551.498474
 21
265.549988
 31
0.0
  0
ARC
  5
222
330
1F
100
AcDbEntity
  8
0
 62
     7
100
AcDbCircle
 10
543.806946
 20
263.349976
 30
0.0
 40
8.0
100
AcDbArc
 50
10.806925
 51
15.962019
  0
LINE
  5
223
330
1F
100
AcDbEntity
  8
0
 62
     7
100
AcDbLine
 10
552.806946
 20
264.849976
 30
0.0
 11
551.665039
 21
264.849976
 31
0.0
  0
LINE
  5
224
330
1F
100
AcDbEntity
  8
0
 62
     7
100
AcDbLine
 10
551.665039
 20
264.849976
 30
0.0
 11
551.688599
 21
264.720703
 31
0.0
  0
LINE
  5
225
330
1F
100
AcDbEntity
  8
0
 62
     7
100
AcDbLine
 10
551.688599
 20
264.720703
 30
0.0
 11
551.711914
 21
264.579285
 31
0.0
  0
LINE
  5
226
330
1F
100
AcDbEntity
  8
0
 62
     7
100
AcDbLine
 10
551.711914
 20
264.579285
 30
0.0
 11
551.730957
 21
264.450012
 31
0.0
  0
LINE
  5
227
330
1F
100
AcDbEntity
  8
0
 62
     7
100
AcDbLine
 10
552.806946
 20
264.450012
 30
0.0
 11
551.730957
 21
264.450012
 31
0.0
  0
ARC
  5
228
330
1F
100
AcDbEntity
  8
0
 62
     7
100
AcDbCircle
 10
543.806946
 20
263.349976
 30
0.0
 40
8.0
100
AcDbArc
 50
2.865984
 51
7.903208
  0
LINE
  5
229
330
1F
100
AcDbEntity
  8
0
 62
     7
100
AcDbLine
 10
552.806946
 20
263.75
 30
0.0
 11
551.796936
 21
263.75
 31
0.0
  0
LINE
  5
22A
330
1F
100
AcDbEntity
  8
0
 62
     7
100
AcDbLine
 10
551.796936
 20
263.75
 30
0.0
 11
551.802368
 21
263.620728
 31
0.0
  0
LINE
  5
22B
330
1F
100
AcDbEntity
  8
0
 62
     7
100
AcDbLine
 10
551.802368
 20
263.620728
 30
0.0
 11
551.805908
 21
263.479309
 31
0.0
  0
LINE
  5
22C
330
1F
100
AcDbEntity
  8
0
 62
     7
100
AcDbLine
 10
551.805908
 20
263.479309
 30
0.0
 11
551.806946
 21
263.349976
 31
0.0
  0
LINE
  5
22D
330
1F
100
AcDbEntity
  8
0
 62
     7
100
AcDbLine
 10
552.806946
 20
263.349976
 30
0.0
 11
551.806946
 21
263.349976
 31
0.0
  0
LINE
  5
22E
330
1F
100
AcDbEntity
  8
0
 62
     7
100
AcDbLine
 10
552.806946
 20
262.650024
 30
0.0
 11
551.776245
 21
262.650024
 31
0.0
  0
LINE
  5
22F
330
1F
100
AcDbEntity
  8
0
 62
     7
100
AcDbLine
 10
552.806946
 20
262.25
 30
0.0
 11
551.730957
 21
262.25
 31
0.0
  0
LINE
  5
230
330
1F
100
AcDbEntity
  8
0
 62
     7
100
AcDbLine
 10
552.806946
 20
261.549988
 30
0.0
 11
551.601807
 21
261.549988
 31
0.0
  0
LINE
  5
231
330
1F
100
AcDbEntity
  8
0
 62
     7
100
AcDbLine
 10
552.806946
 20
261.150024
 30
0.0
 11
551.498474
 21
261.150024
 31
0.0
  0
LINE
  5
232
330
1F
100
AcDbEntity
  8
0
 62
     7
100
AcDbLine
 10
552.806946
 20
260.450012
 30
0.0
 11
551.262817
 21
260.450012
 31
0.0
  0
LINE
  5
233
330
1F
100
AcDbEntity
  8
0
 62
     7
100
AcDbLine
 10
552.806946
 20
260.049988
 30
0.0
 11
551.094604
 21
260.049988
 31
0.0
  0
LINE
  5
234
330
1F
100
AcDbEntity
  8
0
 62
     7
100
AcDbLine
 10
552.806946
 20
259.349976
 30
0.0
 11
550.735107
 21
259.349976
 31
0.0
  0
LINE
  5
235
330
1F
100
AcDbEntity
  8
0
 62
     7
100
AcDbLine
 10
536.878723
 20
259.349976
 30
0.0
 11
478.457001
 21
259.349976
 31
0.0
  0
LINE
  5
236
330
1F
100
AcDbEntity
  8
0
 62
     7
100
AcDbLine
 10
536.519287
 20
260.049988
 30
0.0
 11
478.457001
 21
260.049988
 31
0.0
  0
LINE
  5
237
330
1F
100
AcDbEntity
  8
0
 62
     7
100
AcDbLine
 10
536.351074
 20
260.450012
 30
0.0
 11
478.457001
 21
260.450012
 31
0.0
  0
LINE
  5
238
330
1F
100
AcDbEntity
  8
0
 62
     7
100
AcDbLine
 10
536.115356
 20
261.150024
 30
0.0
 11
478.457001
 21
261.150024
 31
0.0
  0
LINE
  5
239
330
1F
100
AcDbEntity
  8
0
 62
     7
100
AcDbLine
 10
536.012085
 20
261.549988
 30
0.0
 11
478.457001
 21
261.549988
 31
0.0
  0
LINE
  5
23A
330
1F
100
AcDbEntity
  8
0
 62
     7
100
AcDbLine
 10
535.882935
 20
262.25
 30
0.0
 11
478.457001
 21
262.25
 31
0.0
  0
LINE
  5
23B
330
1F
100
AcDbEntity
  8
0
 62
     7
100
AcDbLine
 10
535.837585
 20
262.650024
 30
0.0
 11
478.457001
 21
262.650024
 31
0.0
  0
LINE
  5
23C
330
1F
100
AcDbEntity
  8
0
 62
     7
100
AcDbLine
 10
535.806946
 20
263.349976
 30
0.0
 11
478.457001
 21
263.349976
 31
0.0
  0
LINE
  5
23D
330
1F
100
AcDbEntity
  8
0
 62
     7
100
AcDbLine
 10
535.807983
 20
263.479309
 30
0.0
 11
535.806946
 21
263.349976
 31
0.0
  0
LINE
  5
23E
330
1F
100
AcDbEntity
  8
0
 62
     7
100
AcDbLine
 10
535.811523
 20
263.620728
 30
0.0
 11
535.807983
 21
263.479309
 31
0.0
  0
LINE
  5
23F
330
1F
100
AcDbEntity
  8
0
 62
     7
100
AcDbLine
 10
535.816956
 20
263.75
 30
0.0
 11
535.811523
 21
263.620728
 31
0.0
  0
ARC
  5
240
330
1F
100
AcDbEntity
  8
0
 62
     7
100
AcDbCircle
 10
543.806946
 20
263.349976
 30
0.0
 40
8.0
100
AcDbArc
 50
172.096793
 51
177.134017
  0
LINE
  5
241
330
1F
100
AcDbEntity
  8
0
 62
     7
100
AcDbLine
 10
535.901917
 20
264.579285
 30
0.0
 11
535.882935
 21
264.450012
 31
0.0
  0
LINE
  5
242
330
1F
100
AcDbEntity
  8
0
 62
     7
100
AcDbLine
 10
535.925232
 20
264.720703
 30
0.0
 11
535.901917
 21
264.579285
 31
0.0
  0
LINE
  5
243
330
1F
100
AcDbEntity
  8
0
 62
     7
100
AcDbLine
 10
535.948792
 20
264.849976
 30
0.0
 11
535.925232
 21
264.720703
 31
0.0
  0
ARC
  5
244
330
1F
100
AcDbEntity
  8
0
 62
     7
100
AcDbCircle
 10
543.806946
 20
263.349976
 30
0.0
 40
8.0
100
AcDbArc
 50
164.03799
 51
169.193075
  0
LINE
  5
245
330
1F
100
AcDbEntity
  8
0
 62
     7
100
AcDbLine
 10
536.153564
 20
265.67926
 30
0.0
 11
536.115356
 21
265.549988
 31
0.0
  0
LINE
  5
246
330
1F
100
AcDbEntity
  8
0
 62
     7
100
AcDbLine
 10
536.197998
 20
265.820679
 30
0.0
 11
536.153564
 21
265.67926
 31
0.0
  0
LINE
  5
247
330
1F
100
AcDbEntity
  8
0
 62
     7
100
AcDbLine
 10
536.241211
 20
265.950012
 30
0.0
 11
536.197998
 21
265.820679
 31
0.0
  0
ARC
  5
248
330
1F
100
AcDbEntity
  8
0
 62
     7
100
AcDbCircle
 10
543.806946
 20
263.349976
 30
0.0
 40
8.0
100
AcDbArc
 50
155.638018
 51
161.034427
  0
LINE
  5
249
330
1F
100
AcDbEntity
  8
0
 62
     7
100
AcDbLine
 10
536.579224
 20
266.779297
 30
0.0
 11
536.519287
 21
266.650024
 31
0.0
  0
LINE
  5
24A
330
1F
100
AcDbEntity
  8
0
 62
     7
100
AcDbLine
 10
536.64801
 20
266.920715
 30
0.0
 11
536.579224
 21
266.779297
 31
0.0
  0
LINE
  5
24B
330
1F
100
AcDbEntity
  8
0
 62
     7
100
AcDbLine
 10
536.713989
 20
267.049988
 30
0.0
 11
536.64801
 21
266.920715
 31
0.0
  0
ARC
  5
24C
330
1F
100
AcDbEntity
  8
0
 62
     7
100
AcDbCircle
 10
543.806946
 20
263.349976
 30
0.0
 40
8.0
100
AcDbArc
 50
146.632987
 51
152.451448
  0
LINE
  5
24D
330
1F
100
AcDbEntity
  8
0
 62
     7
100
AcDbLine
 10
537.212585
 20
267.879272
 30
0.0
 11
537.12561
 21
267.75
 31
0.0
  0
LINE
  5
24E
330
1F
100
AcDbEntity
  8
0
 62
     7
100
AcDbLine
 10
537.311951
 20
268.020691
 30
0.0
 11
537.212585
 21
267.879272
 31
0.0
  0
LINE
  5
24F
330
1F
100
AcDbEntity
  8
0
 62
     7
100
AcDbLine
 10
537.406921
 20
268.150024
 30
0.0
 11
537.311951
 21
268.020691
 31
0.0
  0
CIRCLE
  5
250
330
1F
100
AcDbEntity
  8
0
 62
     7
100
AcDbCircle
 10
543.806946
 20
263.349976
 30
0.0
 40
7.5
  0
LINE
  5
251
330
1F
100
AcDbEntity
  8
0
 62
     7
100
AcDbLine
 10
478.807007
 20
266.349976
 30
0.0
 11
478.457001
 21
266.349976
 31
0.0
  0
LINE
  5
252
330
1F
100
AcDbEntity
  8
0
 62
     7
100
AcDbLine
 10
536.519287
 20
266.650024
 30
0.0
 11
479.707001
 21
266.650024
 31
0.0
  0
ARC
  5
253
330
1F
100
AcDbEntity
  8
0
 62
     7
100
AcDbCircle
 10
478.807007
 20
267.849976
 30
0.0
 40
1.5
100
AcDbArc
 50
269.999997
 51
314.454478
  0
LINE
  5
254
330
1F
100
AcDbEntity
  8
0
 62
     7
100
AcDbLine
 10
536.241211
 20
265.950012
 30
0.0
 11
478.457001
 21
265.950012
 31
0.0
  0
LINE
  5
255
330
1F
100
AcDbEntity
  8
0
 62
     7
100
AcDbLine
 10
536.115356
 20
265.549988
 30
0.0
 11
478.457001
 21
265.549988
 31
0.0
  0
LINE
  5
256
330
1F
100
AcDbEntity
  8
0
 62
     7
100
AcDbLine
 10
535.948792
 20
264.849976
 30
0.0
 11
478.457001
 21
264.849976
 31
0.0
  0
LINE
  5
257
330
1F
100
AcDbEntity
  8
0
 62
     7
100
AcDbLine
 10
535.882935
 20
264.450012
 30
0.0
 11
478.457001
 21
264.450012
 31
0.0
  0
LINE
  5
258
330
1F
100
AcDbEntity
  8
0
 62
     7
100
AcDbLine
 10
535.816956
 20
263.75
 30
0.0
 11
478.457001
 21
263.75
 31
0.0
  0
LINE
  5
259
330
1F
100
AcDbEntity
  8
0
 62
     7
100
AcDbLine
 10
477.457001
 20
266.650024
 30
0.0
 11
475.157013
 21
266.650024
 31
0.0
  0
LINE
  5
25A
330
1F
100
AcDbEntity
  8
0
 62
     7
100
AcDbLine
 10
477.457001
 20
265.950012
 30
0.0
 11
475.157013
 21
265.950012
 31
0.0
  0
ARC
  5
25B
330
1F
100
AcDbEntity
  8
0
 62
     7
100
AcDbCircle
 10
474.657013
 20
266.849976
 30
0.0
 40
0.5
100
AcDbArc
 50
0.0
 51
8.130103
  0
ARC
  5
25C
330
1F
100
AcDbEntity
  8
0
 62
     7
100
AcDbCircle
 10
477.957001
 20
266.849976
 30
0.0
 40
0.5
100
AcDbArc
 50
171.869894
 51
180.000009
  0
ARC
  5
25D
330
1F
100
AcDbEntity
  8
0
 62
     7
100
AcDbCircle
 10
477.957001
 20
266.849976
 30
0.0
 40
0.5
100
AcDbArc
 50
90.000003
 51
171.869894
  0
LINE
  5
25E
330
1F
100
AcDbEntity
  8
0
 62
     7
100
AcDbLine
 10
477.457001
 20
259.349976
 30
0.0
 11
475.157013
 21
259.349976
 31
0.0
  0
LINE
  5
25F
330
1F
100
AcDbEntity
  8
0
 62
     7
100
AcDbLine
 10
477.457001
 20
260.049988
 30
0.0
 11
475.157013
 21
260.049988
 31
0.0
  0
LINE
  5
260
330
1F
100
AcDbEntity
  8
0
 62
     7
100
AcDbLine
 10
477.457001
 20
260.450012
 30
0.0
 11
475.157013
 21
260.450012
 31
0.0
  0
LINE
  5
261
330
1F
100
AcDbEntity
  8
0
 62
     7
100
AcDbLine
 10
477.457001
 20
261.150024
 30
0.0
 11
475.157013
 21
261.150024
 31
0.0
  0
LINE
  5
262
330
1F
100
AcDbEntity
  8
0
 62
     7
100
AcDbLine
 10
477.457001
 20
261.549988
 30
0.0
 11
475.157013
 21
261.549988
 31
0.0
  0
LINE
  5
263
330
1F
100
AcDbEntity
  8
0
 62
     7
100
AcDbLine
 10
477.457001
 20
262.25
 30
0.0
 11
475.157013
 21
262.25
 31
0.0
  0
LINE
  5
264
330
1F
100
AcDbEntity
  8
0
 62
     7
100
AcDbLine
 10
477.457001
 20
262.650024
 30
0.0
 11
475.157013
 21
262.650024
 31
0.0
  0
LINE
  5
265
330
1F
100
AcDbEntity
  8
0
 62
     7
100
AcDbLine
 10
477.457001
 20
263.349976
 30
0.0
 11
475.157013
 21
263.349976
 31
0.0
  0
LINE
  5
266
330
1F
100
AcDbEntity
  8
0
 62
     7
100
AcDbLine
 10
477.457001
 20
263.75
 30
0.0
 11
475.157013
 21
263.75
 31
0.0
  0
LINE
  5
267
330
1F
100
AcDbEntity
  8
0
 62
     7
100
AcDbLine
 10
477.457001
 20
264.450012
 30
0.0
 11
475.157013
 21
264.450012
 31
0.0
  0
LINE
  5
268
330
1F
100
AcDbEntity
  8
0
 62
     7
100
AcDbLine
 10
477.457001
 20
264.849976
 30
0.0
 11
475.157013
 21
264.849976
 31
0.0
  0
LINE
  5
269
330
1F
100
AcDbEntity
  8
0
 62
     7
100
AcDbLine
 10
477.457001
 20
265.549988
 30
0.0
 11
475.157013
 21
265.549988
 31
0.0
  0
ARC
  5
26A
330
1F
100
AcDbEntity
  8
0
 62
     7
100
AcDbCircle
 10
474.657013
 20
266.849976
 30
0.0
 40
0.5
100
AcDbArc
 50
8.130103
 51
90.000003
  0
LINE
  5
26B
330
1F
100
AcDbEntity
  8
0
 62
     7
100
AcDbLine
 10
474.157013
 20
265.549988
 30
0.0
 11
278.457001
 21
265.549988
 31
0.0
  0
LINE
  5
26C
330
1F
100
AcDbEntity
  8
0
 62
     7
100
AcDbLine
 10
474.157013
 20
265.950012
 30
0.0
 11
278.457001
 21
265.950012
 31
0.0
  0
LINE
  5
26D
330
1F
100
AcDbEntity
  8
0
 62
     7
100
AcDbLine
 10
474.157013
 20
266.349976
 30
0.0
 11
473.807007
 21
266.349976
 31
0.0
  0
ARC
  5
26E
330
1F
100
AcDbEntity
  8
0
 62
     7
100
AcDbCircle
 10
473.807007
 20
267.849976
 30
0.0
 40
1.5
100
AcDbArc
 50
212.230947
 51
269.999997
  0
LINE
  5
26F
330
1F
100
AcDbEntity
  8
0
 62
     7
100
AcDbLine
 10
472.907013
 20
266.650024
 30
0.0
 11
279.707001
 21
266.650024
 31
0.0
  0
ARC
  5
270
330
1F
100
AcDbEntity
  8
0
 62
     7
100
AcDbCircle
 10
278.807007
 20
267.849976
 30
0.0
 40
1.5
100
AcDbArc
 50
269.999997
 51
314.454478
  0
LINE
  5
271
330
1F
100
AcDbEntity
  8
0
 62
     7
100
AcDbLine
 10
278.807007
 20
266.349976
 30
0.0
 11
278.457001
 21
266.349976
 31
0.0
  0
LINE
  5
272
330
1F
100
AcDbEntity
  8
0
 62
     7
100
AcDbLine
 10
474.157013
 20
259.349976
 30
0.0
 11
278.457001
 21
259.349976
 31
0.0
  0
LINE
  5
273
330
1F
100
AcDbEntity
  8
0
 62
     7
100
AcDbLine
 10
474.157013
 20
260.049988
 30
0.0
 11
278.457001
 21
260.049988
 31
0.0
  0
LINE
  5
274
330
1F
100
AcDbEntity
  8
0
 62
     7
100
AcDbLine
 10
474.157013
 20
260.450012
 30
0.0
 11
278.457001
 21
260.450012
 31
0.0
  0
LINE
  5
275
330
1F
100
AcDbEntity
  8
0
 62
     7
100
AcDbLine
 10
474.157013
 20
261.150024
 30
0.0
 11
278.457001
 21
261.150024
 31
0.0
  0
LINE
  5
276
330
1F
100
AcDbEntity
  8
0
 62
     7
100
AcDbLine
 10
474.157013
 20
261.549988
 30
0.0
 11
278.457001
 21
261.549988
 31
0.0
  0
LINE
  5
277
330
1F
100
AcDbEntity
  8
0
 62
     7
100
AcDbLine
 10
474.157013
 20
262.25
 30
0.0
 11
278.457001
 21
262.25
 31
0.0
  0
LINE
  5
278
330
1F
100
AcDbEntity
  8
0
 62
     7
100
AcDbLine
 10
474.157013
 20
262.650024
 30
0.0
 11
278.457001
 21
262.650024
 31
0.0
  0
LINE
  5
279
330
1F
100
AcDbEntity
  8
0
 62
     7
100
AcDbLine
 10
474.157013
 20
263.349976
 30
0.0
 11
278.457001
 21
263.349976
 31
0.0
  0
LINE
  5
27A
330
1F
100
AcDbEntity
  8
0
 62
     7
100
AcDbLine
 10
474.157013
 20
263.75
 30
0.0
 11
278.457001
 21
263.75
 31
0.0
  0
LINE
  5
27B
330
1F
100
AcDbEntity
  8
0
 62
     7
100
AcDbLine
 10
474.157013
 20
264.450012
 30
0.0
 11
278.457001
 21
264.450012
 31
0.0
  0
LINE
  5
27C
330
1F
100
AcDbEntity
  8
0
 62
     7
100
AcDbLine
 10
474.157013
 20
264.849976
 30
0.0
 11
278.457001
 21
264.849976
 31
0.0
  0
LINE
  5
27D
330
1F
100
AcDbEntity
  8
0
 62
     7
100
AcDbLine
 10
277.457001
 20
265.950012
 30
0.0
 11
275.157013
 21
265.950012
 31
0.0
  0
LINE
  5
27E
330
1F
100
AcDbEntity
  8
0
 62
     7
100
AcDbLine
 10
277.457001
 20
266.650024
 30
0.0
 11
275.157013
 21
266.650024
 31
0.0
  0
ARC
  5
27F
330
1F
100
AcDbEntity
  8
0
 62
     7
100
AcDbCircle
 10
277.957001
 20
266.849976
 30
0.0
 40
0.5
100
AcDbArc
 50
171.869894
 51
180.000009
  0
ARC
  5
280
330
1F
100
AcDbEntity
  8
0
 62
     7
100
AcDbCircle
 10
274.657013
 20
266.849976
 30
0.0
 40
0.5
100
AcDbArc
 50
0.0
 51
8.130103
  0
ARC
  5
281
330
1F
100
AcDbEntity
  8
0
 62
     7
100
AcDbCircle
 10
277.957001
 20
266.849976
 30
0.0
 40
0.5
100
AcDbArc
 50
90.000003
 51
171.869894
  0
LINE
  5
282
330
1F
100
AcDbEntity
  8
0
 62
     7
100
AcDbLine
 10
277.457001
 20
259.349976
 30
0.0
 11
275.157013
 21
259.349976
 31
0.0
  0
LINE
  5
283
330
1F
100
AcDbEntity
  8
0
 62
     7
100
AcDbLine
 10
277.457001
 20
260.049988
 30
0.0
 11
275.157013
 21
260.049988
 31
0.0
  0
LINE
  5
284
330
1F
100
AcDbEntity
  8
0
 62
     7
100
AcDbLine
 10
277.457001
 20
260.450012
 30
0.0
 11
275.157013
 21
260.450012
 31
0.0
  0
LINE
  5
285
330
1F
100
AcDbEntity
  8
0
 62
     7
100
AcDbLine
 10
277.457001
 20
261.150024
 30
0.0
 11
275.157013
 21
261.150024
 31
0.0
  0
LINE
  5
286
330
1F
100
AcDbEntity
  8
0
 62
     7
100
AcDbLine
 10
277.457001
 20
261.549988
 30
0.0
 11
275.157013
 21
261.549988
 31
0.0
  0
LINE
  5
287
330
1F
100
AcDbEntity
  8
0
 62
     7
100
AcDbLine
 10
277.457001
 20
262.25
 30
0.0
 11
275.157013
 21
262.25
 31
0.0
  0
LINE
  5
288
330
1F
100
AcDbEntity
  8
0
 62
     7
100
AcDbLine
 10
277.457001
 20
262.650024
 30
0.0
 11
275.157013
 21
262.650024
 31
0.0
  0
LINE
  5
289
330
1F
100
AcDbEntity
  8
0
 62
     7
100
AcDbLine
 10
277.457001
 20
263.349976
 30
0.0
 11
275.157013
 21
263.349976
 31
0.0
  0
LINE
  5
28A
330
1F
100
AcDbEntity
  8
0
 62
     7
100
AcDbLine
 10
277.457001
 20
263.75
 30
0.0
 11
275.157013
 21
263.75
 31
0.0
  0
LINE
  5
28B
330
1F
100
AcDbEntity
  8
0
 62
     7
100
AcDbLine
 10
277.457001
 20
264.450012
 30
0.0
 11
275.157013
 21
264.450012
 31
0.0
  0
LINE
  5
28C
330
1F
100
AcDbEntity
  8
0
 62
     7
100
AcDbLine
 10
277.457001
 20
264.849976
 30
0.0
 11
275.157013
 21
264.849976
 31
0.0
  0
LINE
  5
28D
330
1F
100
AcDbEntity
  8
0
 62
     7
100
AcDbLine
 10
277.457001
 20
265.549988
 30
0.0
 11
275.157013
 21
265.549988
 31
0.0
  0
ARC
  5
28E
330
1F
100
AcDbEntity
  8
0
 62
     7
100
AcDbCircle
 10
274.657013
 20
266.849976
 30
0.0
 40
0.5
100
AcDbArc
 50
8.130103
 51
90.000003
  0
LINE
  5
28F
330
1F
100
AcDbEntity
  8
0
 62
     7
100
AcDbLine
 10
216.460388
 20
265.67926
 30
0.0
 11
216.498535
 21
265.549988
 31
0.0
  0
LINE
  5
290
330
1F
100
AcDbEntity
  8
0
 62
     7
100
AcDbLine
 10
274.157013
 20
265.549988
 30
0.0
 11
216.498535
 21
265.549988
 31
0.0
  0
LINE
  5
291
330
1F
100
AcDbEntity
  8
0
 62
     7
100
AcDbLine
 10
216.415894
 20
265.820679
 30
0.0
 11
216.460388
 21
265.67926
 31
0.0
  0
LINE
  5
292
330
1F
100
AcDbEntity
  8
0
 62
     7
100
AcDbLine
 10
216.372681
 20
265.950012
 30
0.0
 11
216.415894
 21
265.820679
 31
0.0
  0
LINE
  5
293
330
1F
100
AcDbEntity
  8
0
 62
     7
100
AcDbLine
 10
274.157013
 20
265.950012
 30
0.0
 11
216.372681
 21
265.950012
 31
0.0
  0
ARC
  5
294
330
1F
100
AcDbEntity
  8
0
 62
     7
100
AcDbCircle
 10
208.806976
 20
263.349976
 30
0.0
 40
8.0
100
AcDbArc
 50
18.965574
 51
24.361978
  0
LINE
  5
295
330
1F
100
AcDbEntity
  8
0
 62
     7
100
AcDbLine
 10
274.157013
 20
266.349976
 30
0.0
 11
273.807007
 21
266.349976
 31
0.0
  0
ARC
  5
296
330
1F
100
AcDbEntity
  8
0
 62
     7
100
AcDbCircle
 10
273.807007
 20
267.849976
 30
0.0
 40
1.5
100
AcDbArc
 50
212.230947
 51
269.999997
  0
LINE
  5
297
330
1F
100
AcDbEntity
  8
0
 62
     7
100
AcDbLine
 10
272.907013
 20
266.650024
 30
0.0
 11
216.094635
 21
266.650024
 31
0.0
  0
LINE
  5
298
330
1F
100
AcDbEntity
  8
0
 62
     7
100
AcDbLine
 10
274.157013
 20
259.349976
 30
0.0
 11
215.735199
 21
259.349976
 31
0.0
  0
LINE
  5
299
330
1F
100
AcDbEntity
  8
0
 62
     7
100
AcDbLine
 10
274.157013
 20
260.049988
 30
0.0
 11
216.094635
 21
260.049988
 31
0.0
  0
LINE
  5
29A
330
1F
100
AcDbEntity
  8
0
 62
     7
100
AcDbLine
 10
274.157013
 20
260.450012
 30
0.0
 11
216.262848
 21
260.450012
 31
0.0
  0
LINE
  5
29B
330
1F
100
AcDbEntity
  8
0
 62
     7
100
AcDbLine
 10
274.157013
 20
261.150024
 30
0.0
 11
216.498535
 21
261.150024
 31
0.0
  0
LINE
  5
29C
330
1F
100
AcDbEntity
  8
0
 62
     7
100
AcDbLine
 10
274.157013
 20
261.549988
 30
0.0
 11
216.601868
 21
261.549988
 31
0.0
  0
LINE
  5
29D
330
1F
100
AcDbEntity
  8
0
 62
     7
100
AcDbLine
 10
274.157013
 20
262.25
 30
0.0
 11
216.730988
 21
262.25
 31
0.0
  0
LINE
  5
29E
330
1F
100
AcDbEntity
  8
0
 62
     7
100
AcDbLine
 10
274.157013
 20
262.650024
 30
0.0
 11
216.776306
 21
262.650024
 31
0.0
  0
LINE
  5
29F
330
1F
100
AcDbEntity
  8
0
 62
     7
100
AcDbLine
 10
274.157013
 20
263.349976
 30
0.0
 11
216.806976
 21
263.349976
 31
0.0
  0
LINE
  5
2A0
330
1F
100
AcDbEntity
  8
0
 62
     7
100
AcDbLine
 10
216.805939
 20
263.479309
 30
0.0
 11
216.806976
 21
263.349976
 31
0.0
  0
LINE
  5
2A1
330
1F
100
AcDbEntity
  8
0
 62
     7
100
AcDbLine
 10
216.802399
 20
263.620728
 30
0.0
 11
216.805939
 21
263.479309
 31
0.0
  0
LINE
  5
2A2
330
1F
100
AcDbEntity
  8
0
 62
     7
100
AcDbLine
 10
216.796967
 20
263.75
 30
0.0
 11
216.802399
 21
263.620728
 31
0.0
  0
LINE
  5
2A3
330
1F
100
AcDbEntity
  8
0
 62
     7
100
AcDbLine
 10
274.157013
 20
263.75
 30
0.0
 11
216.796967
 21
263.75
 31
0.0
  0
ARC
  5
2A4
330
1F
100
AcDbEntity
  8
0
 62
     7
100
AcDbCircle
 10
208.806976
 20
263.349976
 30
0.0
 40
8.0
100
AcDbArc
 50
2.865984
 51
7.903208
  0
LINE
  5
2A5
330
1F
100
AcDbEntity
  8
0
 62
     7
100
AcDbLine
 10
274.157013
 20
264.450012
 30
0.0
 11
216.730988
 21
264.450012
 31
0.0
  0
LINE
  5
2A6
330
1F
100
AcDbEntity
  8
0
 62
     7
100
AcDbLine
 10
216.711975
 20
264.579285
 30
0.0
 11
216.730988
 21
264.450012
 31
0.0
  0
LINE
  5
2A7
330
1F
100
AcDbEntity
  8
0
 62
     7
100
AcDbLine
 10
216.68869
 20
264.720703
 30
0.0
 11
216.711975
 21
264.579285
 31
0.0
  0
LINE
  5
2A8
330
1F
100
AcDbEntity
  8
0
 62
     7
100
AcDbLine
 10
216.6651
 20
264.849976
 30
0.0
 11
216.68869
 21
264.720703
 31
0.0
  0
LINE
  5
2A9
330
1F
100
AcDbEntity
  8
0
 62
     7
100
AcDbLine
 10
274.157013
 20
264.849976
 30
0.0
 11
216.6651
 21
264.849976
 31
0.0
  0
ARC
  5
2AA
330
1F
100
AcDbEntity
  8
0
 62
     7
100
AcDbCircle
 10
208.806976
 20
263.349976
 30
0.0
 40
8.0
100
AcDbArc
 50
10.806925
 51
15.962019
  0
LINE
  5
2AB
330
1F
100
AcDbEntity
  8
0
 62
     7
100
AcDbLine
 10
201.878784
 20
259.349976
 30
0.0
 11
199.806976
 21
259.349976
 31
0.0
  0
LINE
  5
2AC
330
1F
100
AcDbEntity
  8
0
 62
     7
100
AcDbLine
 10
201.519318
 20
260.049988
 30
0.0
 11
199.806976
 21
260.049988
 31
0.0
  0
LINE
  5
2AD
330
1F
100
AcDbEntity
  8
0
 62
     7
100
AcDbLine
 10
201.351105
 20
260.450012
 30
0.0
 11
199.806976
 21
260.450012
 31
0.0
  0
LINE
  5
2AE
330
1F
100
AcDbEntity
  8
0
 62
     7
100
AcDbLine
 10
201.115417
 20
261.150024
 30
0.0
 11
199.806976
 21
261.150024
 31
0.0
  0
LINE
  5
2AF
330
1F
100
AcDbEntity
  8
0
 62
     7
100
AcDbLine
 10
201.012115
 20
261.549988
 30
0.0
 11
199.806976
 21
261.549988
 31
0.0
  0
LINE
  5
2B0
330
1F
100
AcDbEntity
  8
0
 62
     7
100
AcDbLine
 10
200.882965
 20
262.25
 30
0.0
 11
199.806976
 21
262.25
 31
0.0
  0
LINE
  5
2B1
330
1F
100
AcDbEntity
  8
0
 62
     7
100
AcDbLine
 10
200.837677
 20
262.650024
 30
0.0
 11
199.806976
 21
262.650024
 31
0.0
  0
LINE
  5
2B2
330
1F
100
AcDbEntity
  8
0
 62
     7
100
AcDbLine
 10
200.806976
 20
263.349976
 30
0.0
 11
199.806976
 21
263.349976
 31
0.0
  0
LINE
  5
2B3
330
1F
100
AcDbEntity
  8
0
 62
     7
100
AcDbLine
 10
200.808014
 20
263.479309
 30
0.0
 11
200.806976
 21
263.349976
 31
0.0
  0
LINE
  5
2B4
330
1F
100
AcDbEntity
  8
0
 62
     7
100
AcDbLine
 10
200.811554
 20
263.620728
 30
0.0
 11
200.808014
 21
263.479309
 31
0.0
  0
LINE
  5
2B5
330
1F
100
AcDbEntity
  8
0
 62
     7
100
AcDbLine
 10
200.816986
 20
263.75
 30
0.0
 11
200.811554
 21
263.620728
 31
0.0
  0
ARC
  5
2B6
330
1F
100
AcDbEntity
  8
0
 62
     7
100
AcDbCircle
 10
208.806976
 20
263.349976
 30
0.0
 40
8.0
100
AcDbArc
 50
172.096793
 51
177.134017
  0
LINE
  5
2B7
330
1F
100
AcDbEntity
  8
0
 62
     7
100
AcDbLine
 10
200.902008
 20
264.579285
 30
0.0
 11
200.882965
 21
264.450012
 31
0.0
  0
LINE
  5
2B8
330
1F
100
AcDbEntity
  8
0
 62
     7
100
AcDbLine
 10
200.925293
 20
264.720703
 30
0.0
 11
200.902008
 21
264.579285
 31
0.0
  0
LINE
  5
2B9
330
1F
100
AcDbEntity
  8
0
 62
     7
100
AcDbLine
 10
200.948853
 20
264.849976
 30
0.0
 11
200.925293
 21
264.720703
 31
0.0
  0
ARC
  5
2BA
330
1F
100
AcDbEntity
  8
0
 62
     7
100
AcDbCircle
 10
208.806976
 20
263.349976
 30
0.0
 40
8.0
100
AcDbArc
 50
164.03799
 51
169.193075
  0
LINE
  5
2BB
330
1F
100
AcDbEntity
  8
0
 62
     7
100
AcDbLine
 10
201.153595
 20
265.67926
 30
0.0
 11
201.115417
 21
265.549988
 31
0.0
  0
LINE
  5
2BC
330
1F
100
AcDbEntity
  8
0
 62
     7
100
AcDbLine
 10
201.198059
 20
265.820679
 30
0.0
 11
201.153595
 21
265.67926
 31
0.0
  0
LINE
  5
2BD
330
1F
100
AcDbEntity
  8
0
 62
     7
100
AcDbLine
 10
201.241272
 20
265.950012
 30
0.0
 11
201.198059
 21
265.820679
 31
0.0
  0
ARC
  5
2BE
330
1F
100
AcDbEntity
  8
0
 62
     7
100
AcDbCircle
 10
208.806976
 20
263.349976
 30
0.0
 40
8.0
100
AcDbArc
 50
155.638018
 51
161.034427
  0
LINE
  5
2BF
330
1F
100
AcDbEntity
  8
0
 62
     7
100
AcDbLine
 10
201.579254
 20
266.779297
 30
0.0
 11
201.519318
 21
266.650024
 31
0.0
  0
LINE
  5
2C0
330
1F
100
AcDbEntity
  8
0
 62
     7
100
AcDbLine
 10
201.648071
 20
266.920715
 30
0.0
 11
201.579254
 21
266.779297
 31
0.0
  0
LINE
  5
2C1
330
1F
100
AcDbEntity
  8
0
 62
     7
100
AcDbLine
 10
201.71402
 20
267.049988
 30
0.0
 11
201.648071
 21
266.920715
 31
0.0
  0
ARC
  5
2C2
330
1F
100
AcDbEntity
  8
0
 62
     7
100
AcDbCircle
 10
208.806976
 20
263.349976
 30
0.0
 40
8.0
100
AcDbArc
 50
146.632987
 51
152.451448
  0
LINE
  5
2C3
330
1F
100
AcDbEntity
  8
0
 62
     7
100
AcDbLine
 10
202.212616
 20
267.879272
 30
0.0
 11
202.125671
 21
267.75
 31
0.0
  0
LINE
  5
2C4
330
1F
100
AcDbEntity
  8
0
 62
     7
100
AcDbLine
 10
202.312042
 20
268.020691
 30
0.0
 11
202.212616
 21
267.879272
 31
0.0
  0
LINE
  5
2C5
330
1F
100
AcDbEntity
  8
0
 62
     7
100
AcDbLine
 10
202.406982
 20
268.150024
 30
0.0
 11
202.312042
 21
268.020691
 31
0.0
  0
ARC
  5
2C6
330
1F
100
AcDbEntity
  8
0
 62
     7
100
AcDbCircle
 10
208.806976
 20
263.349976
 30
0.0
 40
8.0
100
AcDbArc
 50
36.869897
 51
143.130097
  0
LINE
  5
2C7
330
1F
100
AcDbEntity
  8
0
 62
     7
100
AcDbLine
 10
215.20697
 20
268.150024
 30
0.0
 11
215.301941
 21
268.020691
 31
0.0
  0
LINE
  5
2C8
330
1F
100
AcDbEntity
  8
0
 62
     7
100
AcDbLine
 10
215.301941
 20
268.020691
 30
0.0
 11
215.401337
 21
267.879272
 31
0.0
  0
LINE
  5
2C9
330
1F
100
AcDbEntity
  8
0
 62
     7
100
AcDbLine
 10
215.401337
 20
267.879272
 30
0.0
 11
215.488312
 21
267.75
 31
0.0
  0
ARC
  5
2CA
330
1F
100
AcDbEntity
  8
0
 62
     7
100
AcDbCircle
 10
208.806976
 20
263.349976
 30
0.0
 40
8.0
100
AcDbArc
 50
27.548547
 51
33.367014
  0
LINE
  5
2CB
330
1F
100
AcDbEntity
  8
0
 62
     7
100
AcDbLine
 10
215.899933
 20
267.049988
 30
0.0
 11
215.965881
 21
266.920715
 31
0.0
  0
LINE
  5
2CC
330
1F
100
AcDbEntity
  8
0
 62
     7
100
AcDbLine
 10
215.965881
 20
266.920715
 30
0.0
 11
216.034698
 21
266.779297
 31
0.0
  0
LINE
  5
2CD
330
1F
100
AcDbEntity
  8
0
 62
     7
100
AcDbLine
 10
216.034698
 20
266.779297
 30
0.0
 11
216.094635
 21
266.650024
 31
0.0
  0
CIRCLE
  5
2CE
330
1F
100
AcDbEntity
  8
0
 62
     7
100
AcDbCircle
 10
208.806976
 20
263.349976
 30
0.0
 40
7.5
  0
LINE
  5
2CF
330
1F
100
AcDbEntity
  8
0
 62
     7
100
AcDbLine
 10
199.306976
 20
251.350006
 30
0.0
 11
199.806976
 21
251.350006
 31
0.0
  0
LINE
  5
2D0
330
1F
100
AcDbEntity
  8
0
 62
     7
100
AcDbLine
 10
200.816986
 20
263.75
 30
0.0
 11
199.806976
 21
263.75
 31
0.0
  0
LINE
  5
2D1
330
1F
100
AcDbEntity
  8
0
 62
     7
100
AcDbLine
 10
200.882965
 20
264.450012
 30
0.0
 11
199.806976
 21
264.450012
 31
0.0
  0
LINE
  5
2D2
330
1F
100
AcDbEntity
  8
0
 62
     7
100
AcDbLine
 10
200.948853
 20
264.849976
 30
0.0
 11
199.806976
 21
264.849976
 31
0.0
  0
LINE
  5
2D3
330
1F
100
AcDbEntity
  8
0
 62
     7
100
AcDbLine
 10
201.115417
 20
265.549988
 30
0.0
 11
199.806976
 21
265.549988
 31
0.0
  0
LINE
  5
2D4
330
1F
100
AcDbEntity
  8
0
 62
     7
100
AcDbLine
 10
201.241272
 20
265.950012
 30
0.0
 11
199.806976
 21
265.950012
 31
0.0
  0
LINE
  5
2D5
330
1F
100
AcDbEntity
  8
0
 62
     7
100
AcDbLine
 10
201.519318
 20
266.650024
 30
0.0
 11
199.806976
 21
266.650024
 31
0.0
  0
LINE
  5
2D6
330
1F
100
AcDbEntity
  8
0
 62
     7
100
AcDbLine
 10
201.71402
 20
267.049988
 30
0.0
 11
199.806976
 21
267.049988
 31
0.0
  0
LINE
  5
2D7
330
1F
100
AcDbEntity
  8
0
 62
     7
100
AcDbLine
 10
202.125671
 20
267.75
 30
0.0
 11
199.806976
 21
267.75
 31
0.0
  0
LINE
  5
2D8
330
1F
100
AcDbEntity
  8
0
 62
     7
100
AcDbLine
 10
202.406982
 20
268.150024
 30
0.0
 11
199.806976
 21
268.150024
 31
0.0
  0
LINE
  5
2D9
330
1F
100
AcDbEntity
  8
0
 62
     7
100
AcDbLine
 10
272.307007
 20
268.150024
 30
0.0
 11
215.20697
 21
268.150024
 31
0.0
  0
LINE
  5
2DA
330
1F
100
AcDbEntity
  8
0
 62
     7
100
AcDbLine
 10
272.307007
 20
268.150024
 30
0.0
 11
272.307007
 21
272.974243
 31
0.0
  0
LINE
  5
2DB
330
1F
100
AcDbEntity
  8
0
 62
     7
100
AcDbLine
 10
272.307007
 20
272.974243
 30
0.0
 11
199.806976
 21
272.974243
 31
0.0
  0
LINE
  5
2DC
330
1F
100
AcDbEntity
  8
0
 62
     7
100
AcDbLine
 10
272.307007
 20
273.462158
 30
0.0
 11
272.307007
 21
272.974243
 31
0.0
  0
LINE
  5
2DD
330
1F
100
AcDbEntity
  8
0
 62
     7
100
AcDbLine
 10
272.307007
 20
273.549988
 30
0.0
 11
272.307007
 21
273.462158
 31
0.0
  0
LINE
  5
2DE
330
1F
100
AcDbEntity
  8
0
 62
     7
100
AcDbLine
 10
553.306946
 20
245.650009
 30
0.0
 11
553.306946
 21
245.150009
 31
0.0
  0
LINE
  5
2DF
330
1F
100
AcDbEntity
  8
0
 62
     7
100
AcDbLine
 10
553.306946
 20
272.74292
 30
0.0
 11
553.306946
 21
245.650009
 31
0.0
  0
LINE
  5
2E0
330
1F
100
AcDbEntity
  8
0
 62
     7
100
AcDbLine
 10
553.306946
 20
273.096436
 30
0.0
 11
553.306946
 21
272.74292
 31
0.0
  0
LINE
  5
2E1
330
1F
100
AcDbEntity
  8
0
 62
     7
100
AcDbLine
 10
553.306946
 20
273.781128
 30
0.0
 11
553.306946
 21
273.096436
 31
0.0
  0
LINE
  5
2E2
330
1F
100
AcDbEntity
  8
0
 62
     7
100
AcDbLine
 10
480.307007
 20
268.020691
 30
0.0
 11
480.307007
 21
268.150024
 31
0.0
  0
LINE
  5
2E3
330
1F
100
AcDbEntity
  8
0
 62
     7
100
AcDbLine
 10
480.307007
 20
267.879272
 30
0.0
 11
480.307007
 21
268.020691
 31
0.0
  0
LINE
  5
2E4
330
1F
100
AcDbEntity
  8
0
 62
     7
100
AcDbLine
 10
480.307007
 20
267.879272
 30
0.0
 11
480.307007
 21
267.849976
 31
0.0
  0
ARC
  5
2E5
330
1F
100
AcDbEntity
  8
0
 62
     7
100
AcDbCircle
 10
478.807007
 20
267.849976
 30
0.0
 40
1.5
100
AcDbArc
 50
314.454478
 51
356.177454
  0
LINE
  5
2E6
330
1F
100
AcDbEntity
  8
0
 62
     7
100
AcDbLine
 10
480.30368
 20
267.75
 30
0.0
 11
480.307007
 21
267.849976
 31
0.0
  0
LINE
  5
2E7
330
1F
100
AcDbEntity
  8
0
 62
     7
100
AcDbLine
 10
477.957001
 20
267.349976
 30
0.0
 11
478.807007
 21
267.349976
 31
0.0
  0
ARC
  5
2E8
330
1F
100
AcDbEntity
  8
0
 62
     7
100
AcDbCircle
 10
478.807007
 20
267.849976
 30
0.0
 40
0.5
100
AcDbArc
 50
269.999997
 51
360.0
  0
LINE
  5
2E9
330
1F
100
AcDbEntity
  8
0
 62
     7
100
AcDbLine
 10
479.307007
 20
268.150024
 30
0.0
 11
479.307007
 21
272.974243
 31
0.0
  0
LINE
  5
2EA
330
1F
100
AcDbEntity
  8
0
 62
     7
100
AcDbLine
 10
479.307007
 20
273.462158
 30
0.0
 11
479.307007
 21
272.974243
 31
0.0
  0
LINE
  5
2EB
330
1F
100
AcDbEntity
  8
0
 62
     7
100
AcDbLine
 10
479.307007
 20
273.549988
 30
0.0
 11
479.307007
 21
273.462158
 31
0.0
  0
LINE
  5
2EC
330
1F
100
AcDbEntity
  8
0
 62
     7
100
AcDbLine
 10
479.307007
 20
267.879272
 30
0.0
 11
479.307007
 21
267.849976
 31
0.0
  0
LINE
  5
2ED
330
1F
100
AcDbEntity
  8
0
 62
     7
100
AcDbLine
 10
479.307007
 20
268.020691
 30
0.0
 11
479.307007
 21
267.879272
 31
0.0
  0
LINE
  5
2EE
330
1F
100
AcDbEntity
  8
0
 62
     7
100
AcDbLine
 10
479.307007
 20
268.020691
 30
0.0
 11
479.307007
 21
268.150024
 31
0.0
  0
LINE
  5
2EF
330
1F
100
AcDbEntity
  8
0
 62
     7
100
AcDbLine
 10
473.307007
 20
273.462158
 30
0.0
 11
473.307007
 21
273.549988
 31
0.0
  0
LINE
  5
2F0
330
1F
100
AcDbEntity
  8
0
 62
     7
100
AcDbLine
 10
473.307007
 20
273.462158
 30
0.0
 11
473.307007
 21
272.974243
 31
0.0
  0
LINE
  5
2F1
330
1F
100
AcDbEntity
  8
0
 62
     7
100
AcDbLine
 10
473.307007
 20
268.150024
 30
0.0
 11
473.307007
 21
272.974243
 31
0.0
  0
LINE
  5
2F2
330
1F
100
AcDbEntity
  8
0
 62
     7
100
AcDbLine
 10
473.307007
 20
268.020691
 30
0.0
 11
473.307007
 21
268.150024
 31
0.0
  0
LINE
  5
2F3
330
1F
100
AcDbEntity
  8
0
 62
     7
100
AcDbLine
 10
473.307007
 20
267.879272
 30
0.0
 11
473.307007
 21
268.020691
 31
0.0
  0
LINE
  5
2F4
330
1F
100
AcDbEntity
  8
0
 62
     7
100
AcDbLine
 10
473.307007
 20
267.879272
 30
0.0
 11
473.307007
 21
267.849976
 31
0.0
  0
ARC
  5
2F5
330
1F
100
AcDbEntity
  8
0
 62
     7
100
AcDbCircle
 10
473.807007
 20
267.849976
 30
0.0
 40
0.5
100
AcDbArc
 50
180.000009
 51
269.999997
  0
LINE
  5
2F6
330
1F
100
AcDbEntity
  8
0
 62
     7
100
AcDbLine
 10
473.807007
 20
267.349976
 30
0.0
 11
474.657013
 21
267.349976
 31
0.0
  0
ARC
  5
2F7
330
1F
100
AcDbEntity
  8
0
 62
     7
100
AcDbCircle
 10
473.807007
 20
267.849976
 30
0.0
 40
1.5
100
AcDbArc
 50
183.822551
 51
212.230947
  0
LINE
  5
2F8
330
1F
100
AcDbEntity
  8
0
 62
     7
100
AcDbLine
 10
472.310333
 20
267.75
 30
0.0
 11
472.307007
 21
267.849976
 31
0.0
  0
LINE
  5
2F9
330
1F
100
AcDbEntity
  8
0
 62
     7
100
AcDbLine
 10
472.307007
 20
268.150024
 30
0.0
 11
472.307007
 21
272.974243
 31
0.0
  0
LINE
  5
2FA
330
1F
100
AcDbEntity
  8
0
 62
     7
100
AcDbLine
 10
472.307007
 20
273.462158
 30
0.0
 11
472.307007
 21
272.974243
 31
0.0
  0
LINE
  5
2FB
330
1F
100
AcDbEntity
  8
0
 62
     7
100
AcDbLine
 10
472.307007
 20
273.549988
 30
0.0
 11
472.307007
 21
273.462158
 31
0.0
  0
LINE
  5
2FC
330
1F
100
AcDbEntity
  8
0
 62
     7
100
AcDbLine
 10
472.307007
 20
267.879272
 30
0.0
 11
472.307007
 21
267.849976
 31
0.0
  0
LINE
  5
2FD
330
1F
100
AcDbEntity
  8
0
 62
     7
100
AcDbLine
 10
472.307007
 20
268.020691
 30
0.0
 11
472.307007
 21
267.879272
 31
0.0
  0
LINE
  5
2FE
330
1F
100
AcDbEntity
  8
0
 62
     7
100
AcDbLine
 10
472.307007
 20
268.020691
 30
0.0
 11
472.307007
 21
268.150024
 31
0.0
  0
LINE
  5
2FF
330
1F
100
AcDbEntity
  8
0
 62
     7
100
AcDbLine
 10
280.307007
 20
273.462158
 30
0.0
 11
280.307007
 21
273.549988
 31
0.0
  0
LINE
  5
300
330
1F
100
AcDbEntity
  8
0
 62
     7
100
AcDbLine
 10
280.307007
 20
273.462158
 30
0.0
 11
280.307007
 21
272.974243
 31
0.0
  0
LINE
  5
301
330
1F
100
AcDbEntity
  8
0
 62
     7
100
AcDbLine
 10
280.307007
 20
268.150024
 30
0.0
 11
280.307007
 21
272.974243
 31
0.0
  0
LINE
  5
302
330
1F
100
AcDbEntity
  8
0
 62
     7
100
AcDbLine
 10
280.307007
 20
268.020691
 30
0.0
 11
280.307007
 21
268.150024
 31
0.0
  0
LINE
  5
303
330
1F
100
AcDbEntity
  8
0
 62
     7
100
AcDbLine
 10
280.307007
 20
267.879272
 30
0.0
 11
280.307007
 21
268.020691
 31
0.0
  0
LINE
  5
304
330
1F
100
AcDbEntity
  8
0
 62
     7
100
AcDbLine
 10
280.307007
 20
267.879272
 30
0.0
 11
280.307007
 21
267.849976
 31
0.0
  0
ARC
  5
305
330
1F
100
AcDbEntity
  8
0
 62
     7
100
AcDbCircle
 10
278.807007
 20
267.849976
 30
0.0
 40
1.5
100
AcDbArc
 50
314.454478
 51
356.177454
  0
LINE
  5
306
330
1F
100
AcDbEntity
  8
0
 62
     7
100
AcDbLine
 10
280.30368
 20
267.75
 30
0.0
 11
280.307007
 21
267.849976
 31
0.0
  0
LINE
  5
307
330
1F
100
AcDbEntity
  8
0
 62
     7
100
AcDbLine
 10
277.957001
 20
267.349976
 30
0.0
 11
278.807007
 21
267.349976
 31
0.0
  0
ARC
  5
308
330
1F
100
AcDbEntity
  8
0
 62
     7
100
AcDbCircle
 10
278.807007
 20
267.849976
 30
0.0
 40
0.5
100
AcDbArc
 50
269.999997
 51
360.0
  0
LINE
  5
309
330
1F
100
AcDbEntity
  8
0
 62
     7
100
AcDbLine
 10
279.307007
 20
268.150024
 30
0.0
 11
279.307007
 21
272.974243
 31
0.0
  0
LINE
  5
30A
330
1F
100
AcDbEntity
  8
0
 62
     7
100
AcDbLine
 10
279.307007
 20
273.462158
 30
0.0
 11
279.307007
 21
272.974243
 31
0.0
  0
LINE
  5
30B
330
1F
100
AcDbEntity
  8
0
 62
     7
100
AcDbLine
 10
279.307007
 20
273.549988
 30
0.0
 11
279.307007
 21
273.462158
 31
0.0
  0
LINE
  5
30C
330
1F
100
AcDbEntity
  8
0
 62
     7
100
AcDbLine
 10
279.307007
 20
267.879272
 30
0.0
 11
279.307007
 21
267.849976
 31
0.0
  0
LINE
  5
30D
330
1F
100
AcDbEntity
  8
0
 62
     7
100
AcDbLine
 10
279.307007
 20
268.020691
 30
0.0
 11
279.307007
 21
267.879272
 31
0.0
  0
LINE
  5
30E
330
1F
100
AcDbEntity
  8
0
 62
     7
100
AcDbLine
 10
279.307007
 20
268.020691
 30
0.0
 11
279.307007
 21
268.150024
 31
0.0
  0
LINE
  5
30F
330
1F
100
AcDbEntity
  8
0
 62
     7
100
AcDbLine
 10
273.307007
 20
273.462158
 30
0.0
 11
273.307007
 21
273.549988
 31
0.0
  0
LINE
  5
310
330
1F
100
AcDbEntity
  8
0
 62
     7
100
AcDbLine
 10
273.307007
 20
273.462158
 30
0.0
 11
273.307007
 21
272.974243
 31
0.0
  0
LINE
  5
311
330
1F
100
AcDbEntity
  8
0
 62
     7
100
AcDbLine
 10
273.307007
 20
268.150024
 30
0.0
 11
273.307007
 21
272.974243
 31
0.0
  0
LINE
  5
312
330
1F
100
AcDbEntity
  8
0
 62
     7
100
AcDbLine
 10
273.307007
 20
268.020691
 30
0.0
 11
273.307007
 21
268.150024
 31
0.0
  0
LINE
  5
313
330
1F
100
AcDbEntity
  8
0
 62
     7
100
AcDbLine
 10
273.307007
 20
267.879272
 30
0.0
 11
273.307007
 21
268.020691
 31
0.0
  0
LINE
  5
314
330
1F
100
AcDbEntity
  8
0
 62
     7
100
AcDbLine
 10
273.307007
 20
267.879272
 30
0.0
 11
273.307007
 21
267.849976
 31
0.0
  0
ARC
  5
315
330
1F
100
AcDbEntity
  8
0
 62
     7
100
AcDbCircle
 10
273.807007
 20
267.849976
 30
0.0
 40
0.5
100
AcDbArc
 50
180.000009
 51
269.999997
  0
LINE
  5
316
330
1F
100
AcDbEntity
  8
0
 62
     7
100
AcDbLine
 10
273.807007
 20
267.349976
 30
0.0
 11
274.657013
 21
267.349976
 31
0.0
  0
ARC
  5
317
330
1F
100
AcDbEntity
  8
0
 62
     7
100
AcDbCircle
 10
273.807007
 20
267.849976
 30
0.0
 40
1.5
100
AcDbArc
 50
183.822551
 51
212.230947
  0
LINE
  5
318
330
1F
100
AcDbEntity
  8
0
 62
     7
100
AcDbLine
 10
272.310333
 20
267.75
 30
0.0
 11
272.307007
 21
267.849976
 31
0.0
  0
LINE
  5
319
330
1F
100
AcDbEntity
  8
0
 62
     7
100
AcDbLine
 10
272.307007
 20
267.879272
 30
0.0
 11
272.307007
 21
267.849976
 31
0.0
  0
LINE
  5
31A
330
1F
100
AcDbEntity
  8
0
 62
     7
100
AcDbLine
 10
272.307007
 20
268.020691
 30
0.0
 11
272.307007
 21
267.879272
 31
0.0
  0
LINE
  5
31B
330
1F
100
AcDbEntity
  8
0
 62
     7
100
AcDbLine
 10
272.307007
 20
268.020691
 30
0.0
 11
272.307007
 21
268.150024
 31
0.0
  0
LINE
  5
31C
330
1F
100
AcDbEntity
  8
0
 62
     7
100
AcDbLine
 10
199.306976
 20
273.096436
 30
0.0
 11
199.306976
 21
273.781128
 31
0.0
  0
LINE
  5
31D
330
1F
100
AcDbEntity
  8
0
 62
     7
100
AcDbLine
 10
199.306976
 20
272.74292
 30
0.0
 11
199.306976
 21
273.096436
 31
0.0
  0
LINE
  5
31E
330
1F
100
AcDbEntity
  8
0
 62
     7
100
AcDbLine
 10
199.306976
 20
245.650009
 30
0.0
 11
199.306976
 21
272.74292
 31
0.0
  0
LINE
  5
31F
330
1F
100
AcDbEntity
  8
0
 62
     7
100
AcDbLine
 10
199.306976
 20
245.150009
 30
0.0
 11
199.306976
 21
245.650009
 31
0.0
  0
LINE
  5
320
330
1F
100
AcDbEntity
  8
0
 62
     7
100
AcDbLine
 10
553.306946
 20
276.349976
 30
0.0
 11
553.306946
 21
273.781128
 31
0.0
  0
LINE
  5
321
330
1F
100
AcDbEntity
  8
0
 62
     7
100
AcDbLine
 10
199.306976
 20
276.349976
 30
0.0
 11
553.306946
 21
276.349976
 31
0.0
  0
LINE
  5
322
330
1F
100
AcDbEntity
  8
0
 62
     7
100
AcDbLine
 10
199.306976
 20
276.349976
 30
0.0
 11
199.306976
 21
273.781128
 31
0.0
  0
LINE
  5
323
330
1F
100
AcDbEntity
  8
0
 62
     7
100
AcDbLine
 10
553.306946
 20
246.850006
 30
0.0
 11
552.806946
 21
246.850006
 31
0.0
  0
LINE
  5
324
330
1F
100
AcDbEntity
  8
0
 62
     7
100
AcDbLine
 10
536.713989
 20
267.049988
 30
0.0
 11
480.075867
 21
267.049988
 31
0.0
  0
LINE
  5
325
330
1F
100
AcDbEntity
  8
0
 62
     7
100
AcDbLine
 10
537.12561
 20
267.75
 30
0.0
 11
480.30368
 21
267.75
 31
0.0
  0
LINE
  5
326
330
1F
100
AcDbEntity
  8
0
 62
     7
100
AcDbLine
 10
477.498749
 20
267.049988
 30
0.0
 11
475.115265
 21
267.049988
 31
0.0
  0
LINE
  5
327
330
1F
100
AcDbEntity
  8
0
 62
     7
100
AcDbLine
 10
479.296906
 20
267.75
 30
0.0
 11
477.201447
 21
267.75
 31
0.0
  0
ARC
  5
328
330
1F
100
AcDbEntity
  8
0
 62
     7
100
AcDbCircle
 10
476.307007
 20
269.650024
 30
0.0
 40
2.099999904632568
100
AcDbArc
 50
237.479124
 51
295.208757
  0
LINE
  5
329
330
1F
100
AcDbEntity
  8
0
 62
     7
100
AcDbLine
 10
475.412567
 20
267.75
 30
0.0
 11
473.317108
 21
267.75
 31
0.0
  0
LINE
  5
32A
330
1F
100
AcDbEntity
  8
0
 62
     7
100
AcDbLine
 10
277.498749
 20
267.049988
 30
0.0
 11
275.115265
 21
267.049988
 31
0.0
  0
LINE
  5
32B
330
1F
100
AcDbEntity
  8
0
 62
     7
100
AcDbLine
 10
279.296906
 20
267.75
 30
0.0
 11
277.201416
 21
267.75
 31
0.0
  0
ARC
  5
32C
330
1F
100
AcDbEntity
  8
0
 62
     7
100
AcDbCircle
 10
276.307007
 20
269.650024
 30
0.0
 40
2.099999904632568
100
AcDbArc
 50
237.479124
 51
295.208757
  0
LINE
  5
32D
330
1F
100
AcDbEntity
  8
0
 62
     7
100
AcDbLine
 10
275.412567
 20
267.75
 30
0.0
 11
273.317108
 21
267.75
 31
0.0
  0
LINE
  5
32E
330
1F
100
AcDbEntity
  8
0
 62
     7
100
AcDbLine
 10
272.310333
 20
267.75
 30
0.0
 11
215.488312
 21
267.75
 31
0.0
  0
LINE
  5
32F
330
1F
100
AcDbEntity
  8
0
 62
     7
100
AcDbLine
 10
272.538147
 20
267.049988
 30
0.0
 11
215.899933
 21
267.049988
 31
0.0
  0
LINE
  5
330
330
1F
100
AcDbEntity
  8
0
 62
     7
100
AcDbLine
 10
199.306976
 20
246.850006
 30
0.0
 11
199.806976
 21
246.850006
 31
0.0
  0
LINE
  5
331
330
1F
100
AcDbEntity
  8
0
 62
     7
100
AcDbLine
 10
473.994507
 20
246.680374
 30
0.0
 11
475.294495
 21
250.180374
 31
0.0
  0
ARC
  5
332
330
1F
100
AcDbEntity
  8
0
 62
     7
100
AcDbCircle
 10
473.807007
 20
246.750015
 30
0.0
 40
0.2000000029802322
100
AcDbArc
 50
200.37643
 51
339.623562
  0
LINE
  5
333
330
1F
100
AcDbEntity
  8
0
 62
     7
100
AcDbLine
 10
472.319519
 20
250.180374
 30
0.0
 11
473.619507
 21
246.680374
 31
0.0
  0
ARC
  5
334
330
1F
100
AcDbEntity
  8
0
 62
     7
100
AcDbCircle
 10
472.507019
 20
250.250015
 30
0.0
 40
0.2000000029802322
100
AcDbArc
 50
90.000003
 51
200.37643
  0
LINE
  5
335
330
1F
100
AcDbEntity
  8
0
 62
     7
100
AcDbLine
 10
475.106995
 20
250.449997
 30
0.0
 11
472.507019
 21
250.449997
 31
0.0
  0
ARC
  5
336
330
1F
100
AcDbEntity
  8
0
 62
     7
100
AcDbCircle
 10
475.106995
 20
250.250015
 30
0.0
 40
0.2000000029802322
100
AcDbArc
 50
339.623562
 51
90.000003
  0
LINE
  5
337
330
1F
100
AcDbEntity
  8
0
 62
     7
100
AcDbLine
 10
253.994476
 20
246.680374
 30
0.0
 11
255.294464
 21
250.180374
 31
0.0
  0
ARC
  5
338
330
1F
100
AcDbEntity
  8
0
 62
     7
100
AcDbCircle
 10
253.806976
 20
246.750015
 30
0.0
 40
0.2000000029802322
100
AcDbArc
 50
200.37643
 51
339.623562
  0
LINE
  5
339
330
1F
100
AcDbEntity
  8
0
 62
     7
100
AcDbLine
 10
252.319489
 20
250.180374
 30
0.0
 11
253.619507
 21
246.680374
 31
0.0
  0
ARC
  5
33A
330
1F
100
AcDbEntity
  8
0
 62
     7
100
AcDbCircle
 10
252.506989
 20
250.250015
 30
0.0
 40
0.2000000029802322
100
AcDbArc
 50
90.000003
 51
200.37643
  0
LINE
  5
33B
330
1F
100
AcDbEntity
  8
0
 62
     7
100
AcDbLine
 10
255.106995
 20
250.449997
 30
0.0
 11
252.506989
 21
250.449997
 31
0.0
  0
ARC
  5
33C
330
1F
100
AcDbEntity
  8
0
 62
     7
100
AcDbCircle
 10
255.106995
 20
250.250015
 30
0.0
 40
0.2000000029802322
100
AcDbArc
 50
339.623562
 51
90.000003
  0
LINE
  5
33D
330
1F
100
AcDbEntity
  8
0
 62
     7
100
AcDbLine
 10
554.306946
 20
245.150009
 30
0.0
 11
553.306946
 21
245.150009
 31
0.0
  0
LINE
  5
33E
330
1F
100
AcDbEntity
  8
0
 62
     7
100
AcDbLine
 10
552.806946
 20
245.350006
 30
0.0
 11
553.306946
 21
245.350006
 31
0.0
  0
LINE
  5
33F
330
1F
100
AcDbEntity
  8
0
 62
     7
100
AcDbLine
 10
477.201447
 20
267.75
 30
0.0
 11
477.313812
 21
267.807068
 31
0.0
  0
ARC
  5
340
330
1F
100
AcDbEntity
  8
0
 62
     7
100
AcDbCircle
 10
476.307007
 20
269.650024
 30
0.0
 40
2.099999904632568
100
AcDbArc
 50
298.647887
 51
314.415304
  0
LINE
  5
341
330
1F
100
AcDbEntity
  8
0
 62
     7
100
AcDbLine
 10
474.837311
 20
268.150024
 30
0.0
 11
473.307007
 21
268.150024
 31
0.0
  0
ARC
  5
342
330
1F
100
AcDbEntity
  8
0
 62
     7
100
AcDbCircle
 10
476.307007
 20
269.650024
 30
0.0
 40
2.099999904632568
100
AcDbArc
 50
314.415304
 51
237.479124
  0
LINE
  5
343
330
1F
100
AcDbEntity
  8
0
 62
     7
100
AcDbLine
 10
479.307007
 20
268.150024
 30
0.0
 11
477.776703
 21
268.150024
 31
0.0
  0
LINE
  5
344
330
1F
100
AcDbEntity
  8
0
 62
     7
100
AcDbLine
 10
479.307007
 20
272.974243
 30
0.0
 11
473.307007
 21
272.974243
 31
0.0
  0
LINE
  5
345
330
1F
100
AcDbEntity
  8
0
 62
     7
100
AcDbLine
 10
472.538147
 20
267.049988
 30
0.0
 11
280.075867
 21
267.049988
 31
0.0
  0
LINE
  5
346
330
1F
100
AcDbEntity
  8
0
 62
     7
100
AcDbLine
 10
472.310333
 20
267.75
 30
0.0
 11
280.30368
 21
267.75
 31
0.0
  0
LINE
  5
347
330
1F
100
AcDbEntity
  8
0
 62
     7
100
AcDbLine
 10
472.307007
 20
268.150024
 30
0.0
 11
280.307007
 21
268.150024
 31
0.0
  0
LINE
  5
348
330
1F
100
AcDbEntity
  8
0
 62
     7
100
AcDbLine
 10
472.307007
 20
272.974243
 30
0.0
 11
280.307007
 21
272.974243
 31
0.0
  0
LINE
  5
349
330
1F
100
AcDbEntity
  8
0
 62
     7
100
AcDbLine
 10
277.201416
 20
267.75
 30
0.0
 11
277.313782
 21
267.807068
 31
0.0
  0
ARC
  5
34A
330
1F
100
AcDbEntity
  8
0
 62
     7
100
AcDbCircle
 10
276.307007
 20
269.650024
 30
0.0
 40
2.099999904632568
100
AcDbArc
 50
298.647887
 51
314.415304
  0
ARC
  5
34B
330
1F
100
AcDbEntity
  8
0
 62
     7
100
AcDbCircle
 10
276.307007
 20
269.650024
 30
0.0
 40
2.099999904632568
100
AcDbArc
 50
314.415304
 51
237.479124
  0
LINE
  5
34C
330
1F
100
AcDbEntity
  8
0
 62
     7
100
AcDbLine
 10
279.307007
 20
268.150024
 30
0.0
 11
277.776703
 21
268.150024
 31
0.0
  0
LINE
  5
34D
330
1F
100
AcDbEntity
  8
0
 62
     7
100
AcDbLine
 10
279.307007
 20
272.974243
 30
0.0
 11
273.307007
 21
272.974243
 31
0.0
  0
LINE
  5
34E
330
1F
100
AcDbEntity
  8
0
 62
     7
100
AcDbLine
 10
274.837311
 20
268.150024
 30
0.0
 11
273.307007
 21
268.150024
 31
0.0
  0
LINE
  5
34F
330
1F
100
AcDbEntity
  8
0
 62
     7
100
AcDbLine
 10
198.306976
 20
245.150009
 30
0.0
 11
199.306976
 21
245.150009
 31
0.0
  0
LINE
  5
350
330
1F
100
AcDbEntity
  8
0
 62
     7
100
AcDbLine
 10
199.306976
 20
245.350006
 30
0.0
 11
199.806976
 21
245.350006
 31
0.0
  0
CIRCLE
  5
351
330
1F
100
AcDbEntity
  8
0
 62
     7
100
AcDbCircle
 10
543.806946
 20
263.349976
 30
0.0
 40
4.5
  0
CIRCLE
  5
352
330
1F
100
AcDbEntity
  8
0
 62
     7
100
AcDbCircle
 10
208.806976
 20
263.349976
 30
0.0
 40
4.5
  0
ARC
  5
353
330
1F
100
AcDbEntity
  8
0
 62
     7
100
AcDbCircle
 10
554.306946
 20
246.150009
 30
0.0
 40
1.0
100
AcDbArc
 50
269.999997
 51
360.0
  0
LINE
  5
354
330
1F
100
AcDbEntity
  8
0
 62
     7
100
AcDbLine
 10
555.306946
 20
272.535767
 30
0.0
 11
555.306946
 21
246.150009
 31
0.0
  0
LINE
  5
355
330
1F
100
AcDbEntity
  8
0
 62
     7
100
AcDbLine
 10
555.306946
 20
273.231384
 30
0.0
 11
555.306946
 21
272.535767
 31
0.0
  0
LINE
  5
356
330
1F
100
AcDbEntity
  8
0
 62
     7
100
AcDbLine
 10
197.306976
 20
272.535767
 30
0.0
 11
197.306976
 21
273.231384
 31
0.0
  0
LINE
  5
357
330
1F
100
AcDbEntity
  8
0
 62
     7
100
AcDbLine
 10
197.306976
 20
246.150009
 30
0.0
 11
197.306976
 21
272.535767
 31
0.0
  0
ARC
  5
358
330
1F
100
AcDbEntity
  8
0
 62
     7
100
AcDbCircle
 10
198.306976
 20
246.150009
 30
0.0
 40
1.0
100
AcDbArc
 50
180.000009
 51
269.999997
  0
LINE
  5
359
330
1F
100
AcDbEntity
  8
0
 62
     7
100
AcDbLine
 10
554.306946
 20
276.150024
 30
0.0
 11
553.306946
 21
276.150024
 31
0.0
  0
LINE
  5
35A
330
1F
100
AcDbEntity
  8
0
 62
     7
100
AcDbLine
 10
198.306976
 20
276.150024
 30
0.0
 11
199.306976
 21
276.150024
 31
0.0
  0
LINE
  5
35B
330
1F
100
AcDbEntity
  8
0
 62
     7
100
AcDbLine
 10
555.306946
 20
273.805908
 30
0.0
 11
555.306946
 21
273.231384
 31
0.0
  0
LINE
  5
35C
330
1F
100
AcDbEntity
  8
0
 62
     7
100
AcDbLine
 10
555.306946
 20
275.150024
 30
0.0
 11
555.306946
 21
273.805908
 31
0.0
  0
LINE
  5
35D
330
1F
100
AcDbEntity
  8
0
 62
     7
100
AcDbLine
 10
197.306976
 20
273.231384
 30
0.0
 11
197.306976
 21
273.805908
 31
0.0
  0
LINE
  5
35E
330
1F
100
AcDbEntity
  8
0
 62
     7
100
AcDbLine
 10
197.306976
 20
273.805908
 30
0.0
 11
197.306976
 21
275.150024
 31
0.0
  0
ARC
  5
35F
330
1F
100
AcDbEntity
  8
0
 62
     7
100
AcDbCircle
 10
543.806946
 20
264.049988
 30
0.0
 40
12.80000019073486
100
AcDbArc
 50
73.932611
 51
106.067387
  0
ARC
  5
360
330
1F
100
AcDbEntity
  8
0
 62
     7
100
AcDbCircle
 10
208.806976
 20
264.049988
 30
0.0
 40
12.80000019073486
100
AcDbArc
 50
73.932611
 51
106.067387
  0
ARC
  5
361
330
1F
100
AcDbEntity
  8
0
 62
     7
100
AcDbCircle
 10
554.306946
 20
275.150024
 30
0.0
 40
1.0
100
AcDbArc
 50
0.0
 51
90.000003
  0
ARC
  5
362
330
1F
100
AcDbEntity
  8
0
 62
     7
100
AcDbCircle
 10
198.306976
 20
275.150024
 30
0.0
 40
1.0
100
AcDbArc
 50
90.000003
 51
180.000009
  0
CIRCLE
  5
363
330
1F
100
AcDbEntity
  8
0
 62
     7
100
AcDbCircle
 10
476.307007
 20
269.650024
 30
0.0
 40
2.0
  0
CIRCLE
  5
364
330
1F
100
AcDbEntity
  8
0
 62
     7
100
AcDbCircle
 10
276.307007
 20
269.650024
 30
0.0
 40
2.0
  0
LINE
  5
365
330
1F
100
AcDbEntity
  8
0
 62
     7
100
AcDbLine
 10
476.507019
 20
270.349976
 30
0.0
 11
476.507019
 21
270.849976
 31
0.0
  0
LINE
  5
366
330
1F
100
AcDbEntity
  8
0
 62
     7
100
AcDbLine
 10
476.507019
 20
270.849976
 30
0.0
 11
476.106995
 21
270.849976
 31
0.0
  0
LINE
  5
367
330
1F
100
AcDbEntity
  8
0
 62
     7
100
AcDbLine
 10
476.106995
 20
270.849976
 30
0.0
 11
476.106995
 21
270.349976
 31
0.0
  0
ARC
  5
368
330
1F
100
AcDbEntity
  8
0
 62
     7
100
AcDbCircle
 10
475.606995
 20
270.349976
 30
0.0
 40
0.5
100
AcDbArc
 50
269.999997
 51
360.0
  0
LINE
  5
369
330
1F
100
AcDbEntity
  8
0
 62
     7
100
AcDbLine
 10
475.606995
 20
269.849976
 30
0.0
 11
475.106995
 21
269.849976
 31
0.0
  0
LINE
  5
36A
330
1F
100
AcDbEntity
  8
0
 62
     7
100
AcDbLine
 10
475.106995
 20
269.849976
 30
0.0
 11
475.106995
 21
269.450012
 31
0.0
  0
LINE
  5
36B
330
1F
100
AcDbEntity
  8
0
 62
     7
100
AcDbLine
 10
475.106995
 20
269.450012
 30
0.0
 11
475.606995
 21
269.450012
 31
0.0
  0
ARC
  5
36C
330
1F
100
AcDbEntity
  8
0
 62
     7
100
AcDbCircle
 10
475.606995
 20
268.950012
 30
0.0
 40
0.5
100
AcDbArc
 50
0.0
 51
90.000003
  0
LINE
  5
36D
330
1F
100
AcDbEntity
  8
0
 62
     7
100
AcDbLine
 10
476.106995
 20
268.950012
 30
0.0
 11
476.106995
 21
268.450012
 31
0.0
  0
LINE
  5
36E
330
1F
100
AcDbEntity
  8
0
 62
     7
100
AcDbLine
 10
476.106995
 20
268.450012
 30
0.0
 11
476.507019
 21
268.450012
 31
0.0
  0
LINE
  5
36F
330
1F
100
AcDbEntity
  8
0
 62
     7
100
AcDbLine
 10
476.507019
 20
268.450012
 30
0.0
 11
476.507019
 21
268.950012
 31
0.0
  0
ARC
  5
370
330
1F
100
AcDbEntity
  8
0
 62
     7
100
AcDbCircle
 10
477.007019
 20
268.950012
 30
0.0
 40
0.5
100
AcDbArc
 50
90.000003
 51
180.000009
  0
LINE
  5
371
330
1F
100
AcDbEntity
  8
0
 62
     7
100
AcDbLine
 10
477.007019
 20
269.450012
 30
0.0
 11
477.507019
 21
269.450012
 31
0.0
  0
LINE
  5
372
330
1F
100
AcDbEntity
  8
0
 62
     7
100
AcDbLine
 10
477.507019
 20
269.450012
 30
0.0
 11
477.507019
 21
269.849976
 31
0.0
  0
LINE
  5
373
330
1F
100
AcDbEntity
  8
0
 62
     7
100
AcDbLine
 10
477.507019
 20
269.849976
 30
0.0
 11
477.007019
 21
269.849976
 31
0.0
  0
ARC
  5
374
330
1F
100
AcDbEntity
  8
0
 62
     7
100
AcDbCircle
 10
477.007019
 20
270.349976
 30
0.0
 40
0.5
100
AcDbArc
 50
180.000009
 51
269.999997
  0
LINE
  5
375
330
1F
100
AcDbEntity
  8
0
 62
     7
100
AcDbLine
 10
276.506989
 20
270.349976
 30
0.0
 11
276.506989
 21
270.849976
 31
0.0
  0
LINE
  5
376
330
1F
100
AcDbEntity
  8
0
 62
     7
100
AcDbLine
 10
276.506989
 20
270.849976
 30
0.0
 11
276.106995
 21
270.849976
 31
0.0
  0
LINE
  5
377
330
1F
100
AcDbEntity
  8
0
 62
     7
100
AcDbLine
 10
276.106995
 20
270.849976
 30
0.0
 11
276.106995
 21
270.349976
 31
0.0
  0
ARC
  5
378
330
1F
100
AcDbEntity
  8
0
 62
     7
100
AcDbCircle
 10
275.606995
 20
270.349976
 30
0.0
 40
0.5
100
AcDbArc
 50
269.999997
 51
360.0
  0
LINE
  5
379
330
1F
100
AcDbEntity
  8
0
 62
     7
100
AcDbLine
 10
275.606995
 20
269.849976
 30
0.0
 11
275.106995
 21
269.849976
 31
0.0
  0
LINE
  5
37A
330
1F
100
AcDbEntity
  8
0
 62
     7
100
AcDbLine
 10
275.106995
 20
269.849976
 30
0.0
 11
275.106995
 21
269.450012
 31
0.0
  0
LINE
  5
37B
330
1F
100
AcDbEntity
  8
0
 62
     7
100
AcDbLine
 10
275.106995
 20
269.450012
 30
0.0
 11
275.606995
 21
269.450012
 31
0.0
  0
ARC
  5
37C
330
1F
100
AcDbEntity
  8
0
 62
     7
100
AcDbCircle
 10
275.606995
 20
268.950012
 30
0.0
 40
0.5
100
AcDbArc
 50
0.0
 51
90.000003
  0
LINE
  5
37D
330
1F
100
AcDbEntity
  8
0
 62
     7
100
AcDbLine
 10
276.106995
 20
268.950012
 30
0.0
 11
276.106995
 21
268.450012
 31
0.0
  0
LINE
  5
37E
330
1F
100
AcDbEntity
  8
0
 62
     7
100
AcDbLine
 10
276.106995
 20
268.450012
 30
0.0
 11
276.506989
 21
268.450012
 31
0.0
  0
LINE
  5
37F
330
1F
100
AcDbEntity
  8
0
 62
     7
100
AcDbLine
 10
276.506989
 20
268.450012
 30
0.0
 11
276.506989
 21
268.950012
 31
0.0
  0
ARC
  5
380
330
1F
100
AcDbEntity
  8
0
 62
     7
100
AcDbCircle
 10
277.006989
 20
268.950012
 30
0.0
 40
0.5
100
AcDbArc
 50
90.000003
 51
180.000009
  0
LINE
  5
381
330
1F
100
AcDbEntity
  8
0
 62
     7
100
AcDbLine
 10
277.006989
 20
269.450012
 30
0.0
 11
277.506989
 21
269.450012
 31
0.0
  0
LINE
  5
382
330
1F
100
AcDbEntity
  8
0
 62
     7
100
AcDbLine
 10
277.506989
 20
269.450012
 30
0.0
 11
277.506989
 21
269.849976
 31
0.0
  0
LINE
  5
383
330
1F
100
AcDbEntity
  8
0
 62
     7
100
AcDbLine
 10
277.506989
 20
269.849976
 30
0.0
 11
277.006989
 21
269.849976
 31
0.0
  0
ARC
  5
384
330
1F
100
AcDbEntity
  8
0
 62
     7
100
AcDbCircle
 10
277.006989
 20
270.349976
 30
0.0
 40
0.5
100
AcDbArc
 50
180.000009
 51
269.999997
  0
LINE
  5
385
330
1F
100
AcDbEntity
  8
0
 62
     7
100
AcDbLine
 10
555.306946
 20
249.800003
 30
0.0
 11
555.306946
 21
252.699997
 31
0.0
  0
LINE
  5
386
330
1F
100
AcDbEntity
  8
0
 62
     7
100
AcDbLine
 10
555.306946
 20
254.000015
 30
0.0
 11
555.306946
 21
256.900024
 31
0.0
  0
LINE
  5
387
330
1F
100
AcDbEntity
  8
0
 62
     7
100
AcDbLine
 10
480.307007
 20
273.549988
 30
0.0
 11
552.806946
 21
273.549988
 31
0.0
  0
LINE
  5
388
330
1F
100
AcDbEntity
  8
0
 62
     7
100
AcDbLine
 10
199.806976
 20
273.549988
 30
0.0
 11
272.307007
 21
273.549988
 31
0.0
  0
LINE
  5
389
330
1F
100
AcDbEntity
  8
0
 62
     7
100
AcDbLine
 10
473.307007
 20
273.549988
 30
0.0
 11
479.307007
 21
273.549988
 31
0.0
  0
LINE
  5
38A
330
1F
100
AcDbEntity
  8
0
 62
     7
100
AcDbLine
 10
280.307007
 20
273.549988
 30
0.0
 11
472.307007
 21
273.549988
 31
0.0
  0
LINE
  5
38B
330
1F
100
AcDbEntity
  8
0
 62
     7
100
AcDbLine
 10
273.307007
 20
273.549988
 30
0.0
 11
279.307007
 21
273.549988
 31
0.0
  0
LINE
  5
38C
330
1F
100
AcDbEntity
  8
0
 62
     7
100
AcDbLine
 10
332.707001
 20
242.849884
 30
0.0
 11
332.707001
 21
243.139999
 31
0.0
  0
LINE
  5
38D
330
1F
100
AcDbEntity
  8
0
 62
     7
100
AcDbLine
 10
332.707001
 20
243.139999
 30
0.0
 11
332.506989
 21
243.343246
 31
0.0
  0
LINE
  5
38E
330
1F
100
AcDbEntity
  8
0
 62
     7
100
AcDbLine
 10
332.506989
 20
243.009216
 30
0.0
 11
332.506989
 21
243.343246
 31
0.0
  0
LINE
  5
38F
330
1F
100
AcDbEntity
  8
0
 62
     7
100
AcDbLine
 10
332.506989
 20
243.343246
 30
0.0
 11
331.506989
 21
243.343246
 31
0.0
  0
LINE
  5
390
330
1F
100
AcDbEntity
  8
0
 62
     7
100
AcDbLine
 10
331.506989
 20
243.343246
 30
0.0
 11
331.506989
 21
243.400009
 31
0.0
  0
LINE
  5
391
330
1F
100
AcDbEntity
  8
0
 62
     7
100
AcDbLine
 10
330.907013
 20
243.400009
 30
0.0
 11
331.506989
 21
243.400009
 31
0.0
  0
LINE
  5
392
330
1F
100
AcDbEntity
  8
0
 62
     7
100
AcDbLine
 10
330.907013
 20
243.049942
 30
0.0
 11
330.907013
 21
243.400009
 31
0.0
  0
LINE
  5
393
330
1F
100
AcDbEntity
  8
0
 62
     7
100
AcDbLine
 10
332.506989
 20
243.343246
 30
0.0
 11
331.506989
 21
243.343246
 31
0.0
  0
LINE
  5
394
330
1F
100
AcDbEntity
  8
0
 62
     7
100
AcDbLine
 10
332.707001
 20
243.139999
 30
0.0
 11
332.506989
 21
243.343246
 31
0.0
  0
LINE
  5
395
330
1F
100
AcDbEntity
  8
0
 62
     7
100
AcDbLine
 10
330.606995
 20
243.050003
 30
0.0
 11
330.606995
 21
243.150009
 31
0.0
  0
LINE
  5
396
330
1F
100
AcDbEntity
  8
0
 62
     7
100
AcDbLine
 10
332.307007
 20
243.050003
 30
0.0
 11
330.307007
 21
243.050003
 31
0.0
  0
ARC
  5
397
330
1F
100
AcDbEntity
  8
0
 62
     7
100
AcDbCircle
 10
330.307007
 20
243.550003
 30
0.0
 40
0.5
100
AcDbArc
 50
180.000009
 51
269.999997
  0
LINE
  5
398
330
1F
100
AcDbEntity
  8
0
 62
     7
100
AcDbLine
 10
332.307007
 20
242.550003
 30
0.0
 11
332.660553
 21
242.903549
 31
0.0
  0
ARC
  5
399
330
1F
100
AcDbEntity
  8
0
 62
     7
100
AcDbCircle
 10
332.307007
 20
242.550003
 30
0.0
 40
0.5
100
AcDbArc
 50
0.0
 51
89.999559
  0
LINE
  5
39A
330
1F
100
AcDbEntity
  8
0
 62
     7
100
AcDbLine
 10
332.807007
 20
219.449997
 30
0.0
 11
332.807007
 21
242.550003
 31
0.0
  0
ARC
  5
39B
330
1F
100
AcDbEntity
  8
0
 62
     7
100
AcDbCircle
 10
329.307007
 20
243.550003
 30
0.0
 40
0.5
100
AcDbArc
 50
0.0
 51
90.000003
  0
LINE
  5
39C
330
1F
100
AcDbEntity
  8
0
 62
     7
100
AcDbLine
 10
325.307007
 20
222.250015
 30
0.0
 11
207.306976
 21
222.250015
 31
0.0
  0
LINE
  5
39D
330
1F
100
AcDbEntity
  8
0
 62
     7
100
AcDbLine
 10
255.456848
 20
237.107986
 30
0.0
 11
253.994476
 21
241.045227
 31
0.0
  0
ARC
  5
39E
330
1F
100
AcDbEntity
  8
0
 62
     7
100
AcDbCircle
 10
255.269348
 20
237.038345
 30
0.0
 40
0.2000000029802322
100
AcDbArc
 50
269.999997
 51
20.376
  0
LINE
  5
39F
330
1F
100
AcDbEntity
  8
0
 62
     7
100
AcDbLine
 10
252.344604
 20
236.838364
 30
0.0
 11
255.269348
 21
236.838364
 31
0.0
  0
ARC
  5
3A0
330
1F
100
AcDbEntity
  8
0
 62
     7
100
AcDbCircle
 10
252.344604
 20
237.038345
 30
0.0
 40
0.2000000029802322
100
AcDbArc
 50
159.624007
 51
269.999997
  0
LINE
  5
3A1
330
1F
100
AcDbEntity
  8
0
 62
     7
100
AcDbLine
 10
253.619507
 20
241.045227
 30
0.0
 11
252.157135
 21
237.107986
 31
0.0
  0
ARC
  5
3A2
330
1F
100
AcDbEntity
  8
0
 62
     7
100
AcDbCircle
 10
253.806976
 20
240.975586
 30
0.0
 40
0.2000000029802322
100
AcDbArc
 50
20.376
 51
159.624007
  0
LINE
  5
3A3
330
1F
100
AcDbEntity
  8
0
 62
     7
100
AcDbLine
 10
332.307007
 20
219.449997
 30
0.0
 11
332.557007
 21
219.199997
 31
0.0
  0
LINE
  5
3A4
330
1F
100
AcDbEntity
  8
0
 62
     7
100
AcDbLine
 10
332.557007
 20
219.199997
 30
0.0
 11
332.807007
 21
219.449997
 31
0.0
  0
LINE
  5
3A5
330
1F
100
AcDbEntity
  8
0
 62
     7
100
AcDbLine
 10
332.307007
 20
218.949997
 30
0.0
 11
332.557007
 21
219.199997
 31
0.0
  0
LINE
  5
3A6
330
1F
100
AcDbEntity
  8
0
 62
     7
100
AcDbLine
 10
310.307007
 20
244.050003
 30
0.0
 11
311.307007
 21
244.050003
 31
0.0
  0
LINE
  5
3A7
330
1F
100
AcDbEntity
  8
0
 62
     7
100
AcDbLine
 10
312.307007
 20
244.050003
 30
0.0
 11
311.307007
 21
244.050003
 31
0.0
  0
LINE
  5
3A8
330
1F
100
AcDbEntity
  8
0
 62
     7
100
AcDbLine
 10
329.307007
 20
244.050003
 30
0.0
 11
312.307007
 21
244.050003
 31
0.0
  0
LINE
  5
3A9
330
1F
100
AcDbEntity
  8
0
 62
     7
100
AcDbLine
 10
200.306976
 20
219.449997
 30
0.0
 11
200.056976
 21
219.199997
 31
0.0
  0
LINE
  5
3AA
330
1F
100
AcDbEntity
  8
0
 62
     7
100
AcDbLine
 10
200.306976
 20
242.550003
 30
0.0
 11
199.95343
 21
242.903549
 31
0.0
  0
ARC
  5
3AB
330
1F
100
AcDbEntity
  8
0
 62
     7
100
AcDbCircle
 10
200.306976
 20
242.550003
 30
0.0
 40
0.5
100
AcDbArc
 50
90.000003
 51
179.999554
  0
LINE
  5
3AC
330
1F
100
AcDbEntity
  8
0
 62
     7
100
AcDbLine
 10
199.806976
 20
242.550003
 30
0.0
 11
199.806976
 21
219.449997
 31
0.0
  0
LINE
  5
3AD
330
1F
100
AcDbEntity
  8
0
 62
     7
100
AcDbLine
 10
199.806976
 20
219.449997
 30
0.0
 11
200.056976
 21
219.199997
 31
0.0
  0
LINE
  5
3AE
330
1F
100
AcDbEntity
  8
0
 62
     7
100
AcDbLine
 10
207.306976
 20
218.949997
 30
0.0
 11
200.306976
 21
218.949997
 31
0.0
  0
LINE
  5
3AF
330
1F
100
AcDbEntity
  8
0
 62
     7
100
AcDbLine
 10
200.056976
 20
219.199997
 30
0.0
 11
200.306976
 21
218.949997
 31
0.0
  0
LINE
  5
3B0
330
1F
100
AcDbEntity
  8
0
 62
     7
100
AcDbLine
 10
207.806976
 20
219.449997
 30
0.0
 11
207.806976
 21
222.250015
 31
0.0
  0
LINE
  5
3B1
330
1F
100
AcDbEntity
  8
0
 62
     7
100
AcDbLine
 10
324.807007
 20
219.449997
 30
0.0
 11
324.807007
 21
222.250015
 31
0.0
  0
LINE
  5
3B2
330
1F
100
AcDbEntity
  8
0
 62
     7
100
AcDbLine
 10
332.307007
 20
218.949997
 30
0.0
 11
325.307007
 21
218.949997
 31
0.0
  0
LINE
  5
3B3
330
1F
100
AcDbEntity
  8
0
 62
     7
100
AcDbLine
 10
311.307007
 20
243.050003
 30
0.0
 11
297.307007
 21
243.050003
 31
0.0
  0
LINE
  5
3B4
330
1F
100
AcDbEntity
  8
0
 62
     7
100
AcDbLine
 10
297.006989
 20
241.550003
 30
0.0
 11
297.006989
 21
242.750015
 31
0.0
  0
ARC
  5
3B5
330
1F
100
AcDbEntity
  8
0
 62
     7
100
AcDbCircle
 10
294.807007
 20
241.550003
 30
0.0
 40
2.200000047683716
100
AcDbArc
 50
180.000009
 51
360.0
  0
LINE
  5
3B6
330
1F
100
AcDbEntity
  8
0
 62
     7
100
AcDbLine
 10
292.606995
 20
242.750015
 30
0.0
 11
292.606995
 21
241.550003
 31
0.0
  0
LINE
  5
3B7
330
1F
100
AcDbEntity
  8
0
 62
     7
100
AcDbLine
 10
292.307007
 20
243.050003
 30
0.0
 11
218.306976
 21
243.050003
 31
0.0
  0
LINE
  5
3B8
330
1F
100
AcDbEntity
  8
0
 62
     7
100
AcDbLine
 10
218.006989
 20
241.550003
 30
0.0
 11
218.006989
 21
242.750015
 31
0.0
  0
ARC
  5
3B9
330
1F
100
AcDbEntity
  8
0
 62
     7
100
AcDbCircle
 10
215.806976
 20
241.550003
 30
0.0
 40
2.200000047683716
100
AcDbArc
 50
180.000009
 51
360.0
  0
ARC
  5
3BA
330
1F
100
AcDbEntity
  8
0
 62
     7
100
AcDbCircle
 10
219.473053
 20
241.050003
 30
0.0
 40
1.0
100
AcDbArc
 50
90.000003
 51
172.233561
  0
LINE
  5
3BB
330
1F
100
AcDbEntity
  8
0
 62
     7
100
AcDbLine
 10
219.473053
 20
242.050003
 30
0.0
 11
232.806976
 21
242.050003
 31
0.0
  0
ARC
  5
3BC
330
1F
100
AcDbEntity
  8
0
 62
     7
100
AcDbCircle
 10
232.806976
 20
239.050003
 30
0.0
 40
3.0
100
AcDbArc
 50
0.0
 51
90.000003
  0
LINE
  5
3BD
330
1F
100
AcDbEntity
  8
0
 62
     7
100
AcDbLine
 10
235.806976
 20
226.250015
 30
0.0
 11
235.806976
 21
239.050003
 31
0.0
  0
ARC
  5
3BE
330
1F
100
AcDbEntity
  8
0
 62
     7
100
AcDbCircle
 10
232.806976
 20
226.250015
 30
0.0
 40
3.0
100
AcDbArc
 50
269.999997
 51
360.0
  0
LINE
  5
3BF
330
1F
100
AcDbEntity
  8
0
 62
     7
100
AcDbLine
 10
232.806976
 20
223.250015
 30
0.0
 11
218.806976
 21
223.250015
 31
0.0
  0
ARC
  5
3C0
330
1F
100
AcDbEntity
  8
0
 62
     7
100
AcDbCircle
 10
218.806976
 20
226.250015
 30
0.0
 40
3.0
100
AcDbArc
 50
180.000009
 51
269.999997
  0
LINE
  5
3C1
330
1F
100
AcDbEntity
  8
0
 62
     7
100
AcDbLine
 10
215.806976
 20
237.987701
 30
0.0
 11
215.806976
 21
226.250015
 31
0.0
  0
ARC
  5
3C2
330
1F
100
AcDbEntity
  8
0
 62
     7
100
AcDbCircle
 10
216.806976
 20
237.987701
 30
0.0
 40
1.0
100
AcDbArc
 50
105.680348
 51
180.000009
  0
LINE
  5
3C3
330
1F
100
AcDbEntity
  8
0
 62
     7
100
AcDbLine
 10
213.606995
 20
242.750015
 30
0.0
 11
213.606995
 21
241.550003
 31
0.0
  0
LINE
  5
3C4
330
1F
100
AcDbEntity
  8
0
 62
     7
100
AcDbLine
 10
213.306976
 20
243.050003
 30
0.0
 11
212.806976
 21
243.050003
 31
0.0
  0
LINE
  5
3C5
330
1F
100
AcDbEntity
  8
0
 62
     7
100
AcDbLine
 10
211.806976
 20
244.050003
 30
0.0
 11
203.306976
 21
244.050003
 31
0.0
  0
LINE
  5
3C6
330
1F
100
AcDbEntity
  8
0
 62
     7
100
AcDbLine
 10
202.306976
 20
243.050003
 30
0.0
 11
200.306976
 21
243.050003
 31
0.0
  0
LINE
  5
3C7
330
1F
100
AcDbEntity
  8
0
 62
     7
100
AcDbLine
 10
274.807007
 20
242.050003
 30
0.0
 11
288.807007
 21
242.050003
 31
0.0
  0
ARC
  5
3C8
330
1F
100
AcDbEntity
  8
0
 62
     7
100
AcDbCircle
 10
288.807007
 20
239.050003
 30
0.0
 40
3.0
100
AcDbArc
 50
0.0
 51
90.000003
  0
LINE
  5
3C9
330
1F
100
AcDbEntity
  8
0
 62
     7
100
AcDbLine
 10
291.807007
 20
226.250015
 30
0.0
 11
291.807007
 21
239.050003
 31
0.0
  0
ARC
  5
3CA
330
1F
100
AcDbEntity
  8
0
 62
     7
100
AcDbCircle
 10
288.807007
 20
226.250015
 30
0.0
 40
3.0
100
AcDbArc
 50
269.999997
 51
360.0
  0
LINE
  5
3CB
330
1F
100
AcDbEntity
  8
0
 62
     7
100
AcDbLine
 10
288.807007
 20
223.250015
 30
0.0
 11
274.807007
 21
223.250015
 31
0.0
  0
ARC
  5
3CC
330
1F
100
AcDbEntity
  8
0
 62
     7
100
AcDbCircle
 10
274.807007
 20
226.250015
 30
0.0
 40
3.0
100
AcDbArc
 50
180.000009
 51
269.999997
  0
LINE
  5
3CD
330
1F
100
AcDbEntity
  8
0
 62
     7
100
AcDbLine
 10
271.807007
 20
239.050003
 30
0.0
 11
271.807007
 21
226.250015
 31
0.0
  0
ARC
  5
3CE
330
1F
100
AcDbEntity
  8
0
 62
     7
100
AcDbCircle
 10
274.807007
 20
239.050003
 30
0.0
 40
3.0
100
AcDbArc
 50
90.000003
 51
180.000009
  0
LINE
  5
3CF
330
1F
100
AcDbEntity
  8
0
 62
     7
100
AcDbLine
 10
212.806976
 20
244.050003
 30
0.0
 11
211.806976
 21
244.050003
 31
0.0
  0
LINE
  5
3D0
330
1F
100
AcDbEntity
  8
0
 62
     7
100
AcDbLine
 10
213.806976
 20
244.050003
 30
0.0
 11
212.806976
 21
244.050003
 31
0.0
  0
LINE
  5
3D1
330
1F
100
AcDbEntity
  8
0
 62
     7
100
AcDbLine
 10
209.056976
 20
221.850006
 30
0.0
 11
209.056976
 21
222.250015
 31
0.0
  0
LINE
  5
3D2
330
1F
100
AcDbEntity
  8
0
 62
     7
100
AcDbLine
 10
323.557007
 20
221.850006
 30
0.0
 11
323.557007
 21
222.250015
 31
0.0
  0
LINE
  5
3D3
330
1F
100
AcDbEntity
  8
0
 62
     7
100
AcDbLine
 10
223.530182
 20
222.100006
 30
0.0
 11
223.3302
 21
222.100006
 31
0.0
  0
LINE
  5
3D4
330
1F
100
AcDbEntity
  8
0
 62
     7
100
AcDbLine
 10
220.283783
 20
222.100006
 30
0.0
 11
223.3302
 21
222.100006
 31
0.0
  0
LINE
  5
3D5
330
1F
100
AcDbEntity
  8
0
 62
     7
100
AcDbLine
 10
220.283783
 20
222.100006
 30
0.0
 11
220.083771
 21
222.100006
 31
0.0
  0
LINE
  5
3D6
330
1F
100
AcDbEntity
  8
0
 62
     7
100
AcDbLine
 10
309.283783
 20
222.100006
 30
0.0
 11
309.083801
 21
222.100006
 31
0.0
  0
LINE
  5
3D7
330
1F
100
AcDbEntity
  8
0
 62
     7
100
AcDbLine
 10
312.530212
 20
222.100006
 30
0.0
 11
312.3302
 21
222.100006
 31
0.0
  0
LINE
  5
3D8
330
1F
100
AcDbEntity
  8
0
 62
     7
100
AcDbLine
 10
309.283783
 20
222.100006
 30
0.0
 11
312.3302
 21
222.100006
 31
0.0
  0
ARC
  5
3D9
330
1F
100
AcDbEntity
  8
0
 62
     7
100
AcDbCircle
 10
312.307007
 20
243.550003
 30
0.0
 40
0.5
100
AcDbArc
 50
90.000003
 51
180.000009
  0
ARC
  5
3DA
330
1F
100
AcDbEntity
  8
0
 62
     7
100
AcDbCircle
 10
207.306976
 20
219.449997
 30
0.0
 40
0.5
100
AcDbArc
 50
269.999997
 51
360.0
  0
ARC
  5
3DB
330
1F
100
AcDbEntity
  8
0
 62
     7
100
AcDbCircle
 10
325.307007
 20
219.449997
 30
0.0
 40
0.5
100
AcDbArc
 50
180.000009
 51
269.999997
  0
ARC
  5
3DC
330
1F
100
AcDbEntity
  8
0
 62
     7
100
AcDbCircle
 10
311.307007
 20
243.550003
 30
0.0
 40
0.5
100
AcDbArc
 50
269.999997
 51
360.0
  0
LINE
  5
3DD
330
1F
100
AcDbEntity
  8
0
 62
     7
100
AcDbLine
 10
213.70697
 20
243.050003
 30
0.0
 11
213.306976
 21
243.050003
 31
0.0
  0
LINE
  5
3DE
330
1F
100
AcDbEntity
  8
0
 62
     7
100
AcDbLine
 10
213.70697
 20
243.050003
 30
0.0
 11
213.806976
 21
243.050003
 31
0.0
  0
ARC
  5
3DF
330
1F
100
AcDbEntity
  8
0
 62
     7
100
AcDbCircle
 10
297.307007
 20
242.750015
 30
0.0
 40
0.300000011920929
100
AcDbArc
 50
90.000003
 51
180.000009
  0
ARC
  5
3E0
330
1F
100
AcDbEntity
  8
0
 62
     7
100
AcDbCircle
 10
292.307007
 20
242.750015
 30
0.0
 40
0.300000011920929
100
AcDbArc
 50
0.0
 51
90.000003
  0
ARC
  5
3E1
330
1F
100
AcDbEntity
  8
0
 62
     7
100
AcDbCircle
 10
218.306976
 20
242.750015
 30
0.0
 40
0.300000011920929
100
AcDbArc
 50
90.000003
 51
180.000009
  0
ARC
  5
3E2
330
1F
100
AcDbEntity
  8
0
 62
     7
100
AcDbCircle
 10
215.806976
 20
241.550003
 30
0.0
 40
2.700000047683716
100
AcDbArc
 50
285.680336
 51
352.233566
  0
CIRCLE
  5
3E3
330
1F
100
AcDbEntity
  8
0
 62
     7
100
AcDbCircle
 10
225.806976
 20
234.650009
 30
0.0
 40
4.5
  0
ARC
  5
3E4
330
1F
100
AcDbEntity
  8
0
 62
     7
100
AcDbCircle
 10
213.306976
 20
242.750015
 30
0.0
 40
0.300000011920929
100
AcDbArc
 50
0.0
 51
90.000003
  0
ARC
  5
3E5
330
1F
100
AcDbEntity
  8
0
 62
     7
100
AcDbCircle
 10
212.806976
 20
243.550003
 30
0.0
 40
0.5
100
AcDbArc
 50
180.000009
 51
269.999997
  0
ARC
  5
3E6
330
1F
100
AcDbEntity
  8
0
 62
     7
100
AcDbCircle
 10
211.806976
 20
243.550003
 30
0.0
 40
0.5
100
AcDbArc
 50
0.0
 51
90.000003
  0
ARC
  5
3E7
330
1F
100
AcDbEntity
  8
0
 62
     7
100
AcDbCircle
 10
203.306976
 20
243.550003
 30
0.0
 40
0.5
100
AcDbArc
 50
90.000003
 51
180.000009
  0
ARC
  5
3E8
330
1F
100
AcDbEntity
  8
0
 62
     7
100
AcDbCircle
 10
202.306976
 20
243.550003
 30
0.0
 40
0.5
100
AcDbArc
 50
269.999997
 51
360.0
  0
CIRCLE
  5
3E9
330
1F
100
AcDbEntity
  8
0
 62
     7
100
AcDbCircle
 10
281.807007
 20
234.650009
 30
0.0
 40
4.5
  0
LINE
  5
3EA
330
1F
100
AcDbEntity
  8
0
 62
     7
100
AcDbLine
 10
202.006989
 20
243.050003
 30
0.0
 11
202.006989
 21
243.150009
 31
0.0
  0
LINE
  5
3EB
330
1F
100
AcDbEntity
  8
0
 62
     7
100
AcDbLine
 10
323.756989
 20
221.850006
 30
0.0
 11
324.756989
 21
221.850006
 31
0.0
  0
LINE
  5
3EC
330
1F
100
AcDbEntity
  8
0
 62
     7
100
AcDbLine
 10
323.756989
 20
221.850006
 30
0.0
 11
312.3302
 21
221.850006
 31
0.0
  0
LINE
  5
3ED
330
1F
100
AcDbEntity
  8
0
 62
     7
100
AcDbLine
 10
309.283783
 20
221.850006
 30
0.0
 11
223.3302
 21
221.850006
 31
0.0
  0
LINE
  5
3EE
330
1F
100
AcDbEntity
  8
0
 62
     7
100
AcDbLine
 10
220.283783
 20
221.850006
 30
0.0
 11
208.856995
 21
221.850006
 31
0.0
  0
LINE
  5
3EF
330
1F
100
AcDbEntity
  8
0
 62
     7
100
AcDbLine
 10
207.856995
 20
221.850006
 30
0.0
 11
208.856995
 21
221.850006
 31
0.0
  0
LINE
  5
3F0
330
1F
100
AcDbEntity
  8
0
 62
     7
100
AcDbLine
 10
323.756989
 20
219.350006
 30
0.0
 11
208.856995
 21
219.350006
 31
0.0
  0
LINE
  5
3F1
330
1F
100
AcDbEntity
  8
0
 62
     7
100
AcDbLine
 10
213.806976
 20
241.550003
 30
0.0
 11
213.806976
 21
243.550003
 31
0.0
  0
LINE
  5
3F2
330
1F
100
AcDbEntity
  8
0
 62
     7
100
AcDbLine
 10
213.806976
 20
244.050003
 30
0.0
 11
213.806976
 21
243.550003
 31
0.0
  0
LINE
  5
3F3
330
1F
100
AcDbEntity
  8
0
 62
     7
100
AcDbLine
 10
213.806976
 20
245.050003
 30
0.0
 11
213.806976
 21
244.050003
 31
0.0
  0
LINE
  5
3F4
330
1F
100
AcDbEntity
  8
0
 62
     7
100
AcDbLine
 10
310.307007
 20
243.050003
 30
0.0
 11
310.307007
 21
243.550003
 31
0.0
  0
LINE
  5
3F5
330
1F
100
AcDbEntity
  8
0
 62
     7
100
AcDbLine
 10
310.307007
 20
244.050003
 30
0.0
 11
310.307007
 21
243.550003
 31
0.0
  0
LINE
  5
3F6
330
1F
100
AcDbEntity
  8
0
 62
     7
100
AcDbLine
 10
310.307007
 20
245.050003
 30
0.0
 11
310.307007
 21
244.050003
 31
0.0
  0
ARC
  5
3F7
330
1F
100
AcDbEntity
  8
0
 62
     7
100
AcDbCircle
 10
215.806976
 20
241.550003
 30
0.0
 40
2.0
100
AcDbArc
 50
180.000009
 51
360.0
  0
LINE
  5
3F8
330
1F
100
AcDbEntity
  8
0
 62
     7
100
AcDbLine
 10
217.806976
 20
241.550003
 30
0.0
 11
217.806976
 21
243.050003
 31
0.0
  0
LINE
  5
3F9
330
1F
100
AcDbEntity
  8
0
 62
     7
100
AcDbLine
 10
218.306976
 20
243.050003
 30
0.0
 11
217.806976
 21
243.050003
 31
0.0
  0
LINE
  5
3FA
330
1F
100
AcDbEntity
  8
0
 62
     7
100
AcDbLine
 10
292.807007
 20
243.050003
 30
0.0
 11
292.307007
 21
243.050003
 31
0.0
  0
LINE
  5
3FB
330
1F
100
AcDbEntity
  8
0
 62
     7
100
AcDbLine
 10
292.807007
 20
241.550003
 30
0.0
 11
292.807007
 21
243.050003
 31
0.0
  0
ARC
  5
3FC
330
1F
100
AcDbEntity
  8
0
 62
     7
100
AcDbCircle
 10
294.807007
 20
241.550003
 30
0.0
 40
2.0
100
AcDbArc
 50
180.000009
 51
360.0
  0
LINE
  5
3FD
330
1F
100
AcDbEntity
  8
0
 62
     7
100
AcDbLine
 10
296.807007
 20
241.550003
 30
0.0
 11
296.807007
 21
243.050003
 31
0.0
  0
LINE
  5
3FE
330
1F
100
AcDbEntity
  8
0
 62
     7
100
AcDbLine
 10
297.307007
 20
243.050003
 30
0.0
 11
296.807007
 21
243.050003
 31
0.0
  0
LINE
  5
3FF
330
1F
100
AcDbEntity
  8
0
 62
     7
100
AcDbLine
 10
207.856995
 20
219.350006
 30
0.0
 11
207.856995
 21
221.850006
 31
0.0
  0
LINE
  5
400
330
1F
100
AcDbEntity
  8
0
 62
     7
100
AcDbLine
 10
324.756989
 20
219.350006
 30
0.0
 11
324.756989
 21
221.850006
 31
0.0
  0
LINE
  5
401
330
1F
100
AcDbEntity
  8
0
 62
     7
100
AcDbLine
 10
323.756989
 20
219.350006
 30
0.0
 11
324.756989
 21
219.350006
 31
0.0
  0
LINE
  5
402
330
1F
100
AcDbEntity
  8
0
 62
     7
100
AcDbLine
 10
207.856995
 20
219.350006
 30
0.0
 11
208.856995
 21
219.350006
 31
0.0
  0
LINE
  5
403
330
1F
100
AcDbEntity
  8
0
 62
     7
100
AcDbLine
 10
310.307007
 20
244.050003
 30
0.0
 11
213.806976
 21
244.050003
 31
0.0
  0
CIRCLE
  5
404
330
1F
100
AcDbEntity
  8
0
 62
     7
100
AcDbCircle
 10
225.806976
 20
234.650009
 30
0.0
 40
4.0
  0
CIRCLE
  5
405
330
1F
100
AcDbEntity
  8
0
 62
     7
100
AcDbCircle
 10
281.807007
 20
234.650009
 30
0.0
 40
4.0
  0
LINE
  5
406
330
1F
100
AcDbEntity
  8
0
 62
     7
100
AcDbLine
 10
201.70697
 20
243.400009
 30
0.0
 11
201.70697
 21
243.049942
 31
0.0
  0
CIRCLE
  5
407
330
1F
100
AcDbEntity
  8
0
 62
     7
100
AcDbCircle
 10
294.807007
 20
241.550003
 30
0.0
 40
1.475000023841858
  0
CIRCLE
  5
408
330
1F
100
AcDbEntity
  8
0
 62
     7
100
AcDbCircle
 10
215.806976
 20
241.550003
 30
0.0
 40
1.475000023841858
  0
LINE
  5
409
330
1F
100
AcDbEntity
  8
0
 62
     7
100
AcDbLine
 10
201.106995
 20
243.400009
 30
0.0
 11
201.106995
 21
243.343246
 31
0.0
  0
LINE
  5
40A
330
1F
100
AcDbEntity
  8
0
 62
     7
100
AcDbLine
 10
200.106995
 20
243.343246
 30
0.0
 11
201.106995
 21
243.343246
 31
0.0
  0
LINE
  5
40B
330
1F
100
AcDbEntity
  8
0
 62
     7
100
AcDbLine
 10
200.106995
 20
243.343246
 30
0.0
 11
200.106995
 21
243.009216
 31
0.0
  0
LINE
  5
40C
330
1F
100
AcDbEntity
  8
0
 62
     7
100
AcDbLine
 10
201.70697
 20
243.400009
 30
0.0
 11
201.106995
 21
243.400009
 31
0.0
  0
LINE
  5
40D
330
1F
100
AcDbEntity
  8
0
 62
     7
100
AcDbLine
 10
200.106995
 20
243.343246
 30
0.0
 11
201.106995
 21
243.343246
 31
0.0
  0
CIRCLE
  5
40E
330
1F
100
AcDbEntity
  8
0
 62
     7
100
AcDbCircle
 10
225.806976
 20
234.650009
 30
0.0
 40
2.549999952316284
  0
CIRCLE
  5
40F
330
1F
100
AcDbEntity
  8
0
 62
     7
100
AcDbCircle
 10
281.807007
 20
234.650009
 30
0.0
 40
2.549999952316284
  0
LINE
  5
410
330
1F
100
AcDbEntity
  8
0
 62
     7
100
AcDbLine
 10
199.906982
 20
243.139999
 30
0.0
 11
200.106995
 21
243.343246
 31
0.0
  0
LINE
  5
411
330
1F
100
AcDbEntity
  8
0
 62
     7
100
AcDbLine
 10
199.906982
 20
243.139999
 30
0.0
 11
199.906982
 21
242.849884
 31
0.0
  0
LINE
  5
412
330
1F
100
AcDbEntity
  8
0
 62
     7
100
AcDbLine
 10
294.606995
 20
242.650009
 30
0.0
 11
295.006989
 21
242.650009
 31
0.0
  0
LINE
  5
413
330
1F
100
AcDbEntity
  8
0
 62
     7
100
AcDbLine
 10
294.606995
 20
242.650009
 30
0.0
 11
294.606995
 21
242.000015
 31
0.0
  0
ARC
  5
414
330
1F
100
AcDbEntity
  8
0
 62
     7
100
AcDbCircle
 10
294.356995
 20
242.000015
 30
0.0
 40
0.25
100
AcDbArc
 50
269.999997
 51
360.0
  0
LINE
  5
415
330
1F
100
AcDbEntity
  8
0
 62
     7
100
AcDbLine
 10
294.356995
 20
241.750015
 30
0.0
 11
293.707001
 21
241.750015
 31
0.0
  0
LINE
  5
416
330
1F
100
AcDbEntity
  8
0
 62
     7
100
AcDbLine
 10
293.707001
 20
241.750015
 30
0.0
 11
293.707001
 21
241.350006
 31
0.0
  0
LINE
  5
417
330
1F
100
AcDbEntity
  8
0
 62
     7
100
AcDbLine
 10
294.356995
 20
241.350006
 30
0.0
 11
293.707001
 21
241.350006
 31
0.0
  0
ARC
  5
418
330
1F
100
AcDbEntity
  8
0
 62
     7
100
AcDbCircle
 10
294.356995
 20
241.100006
 30
0.0
 40
0.25
100
AcDbArc
 50
0.0
 51
90.000003
  0
LINE
  5
419
330
1F
100
AcDbEntity
  8
0
 62
     7
100
AcDbLine
 10
294.606995
 20
240.449997
 30
0.0
 11
294.606995
 21
241.100006
 31
0.0
  0
LINE
  5
41A
330
1F
100
AcDbEntity
  8
0
 62
     7
100
AcDbLine
 10
294.606995
 20
240.449997
 30
0.0
 11
295.006989
 21
240.449997
 31
0.0
  0
LINE
  5
41B
330
1F
100
AcDbEntity
  8
0
 62
     7
100
AcDbLine
 10
295.006989
 20
240.449997
 30
0.0
 11
295.006989
 21
241.100006
 31
0.0
  0
ARC
  5
41C
330
1F
100
AcDbEntity
  8
0
 62
     7
100
AcDbCircle
 10
295.256989
 20
241.100006
 30
0.0
 40
0.25
100
AcDbArc
 50
90.000003
 51
180.000009
  0
LINE
  5
41D
330
1F
100
AcDbEntity
  8
0
 62
     7
100
AcDbLine
 10
295.256989
 20
241.350006
 30
0.0
 11
295.907013
 21
241.350006
 31
0.0
  0
LINE
  5
41E
330
1F
100
AcDbEntity
  8
0
 62
     7
100
AcDbLine
 10
295.907013
 20
241.750015
 30
0.0
 11
295.907013
 21
241.350006
 31
0.0
  0
LINE
  5
41F
330
1F
100
AcDbEntity
  8
0
 62
     7
100
AcDbLine
 10
295.256989
 20
241.750015
 30
0.0
 11
295.907013
 21
241.750015
 31
0.0
  0
ARC
  5
420
330
1F
100
AcDbEntity
  8
0
 62
     7
100
AcDbCircle
 10
295.256989
 20
242.000015
 30
0.0
 40
0.25
100
AcDbArc
 50
180.000009
 51
269.999997
  0
LINE
  5
421
330
1F
100
AcDbEntity
  8
0
 62
     7
100
AcDbLine
 10
295.006989
 20
242.650009
 30
0.0
 11
295.006989
 21
242.000015
 31
0.0
  0
LINE
  5
422
330
1F
100
AcDbEntity
  8
0
 62
     7
100
AcDbLine
 10
215.606995
 20
242.650009
 30
0.0
 11
216.006989
 21
242.650009
 31
0.0
  0
LINE
  5
423
330
1F
100
AcDbEntity
  8
0
 62
     7
100
AcDbLine
 10
215.606995
 20
242.650009
 30
0.0
 11
215.606995
 21
242.000015
 31
0.0
  0
ARC
  5
424
330
1F
100
AcDbEntity
  8
0
 62
     7
100
AcDbCircle
 10
215.356995
 20
242.000015
 30
0.0
 40
0.25
100
AcDbArc
 50
269.999997
 51
360.0
  0
LINE
  5
425
330
1F
100
AcDbEntity
  8
0
 62
     7
100
AcDbLine
 10
215.356995
 20
241.750015
 30
0.0
 11
214.70697
 21
241.750015
 31
0.0
  0
LINE
  5
426
330
1F
100
AcDbEntity
  8
0
 62
     7
100
AcDbLine
 10
214.70697
 20
241.750015
 30
0.0
 11
214.70697
 21
241.350006
 31
0.0
  0
LINE
  5
427
330
1F
100
AcDbEntity
  8
0
 62
     7
100
AcDbLine
 10
215.356995
 20
241.350006
 30
0.0
 11
214.70697
 21
241.350006
 31
0.0
  0
ARC
  5
428
330
1F
100
AcDbEntity
  8
0
 62
     7
100
AcDbCircle
 10
215.356995
 20
241.100006
 30
0.0
 40
0.25
100
AcDbArc
 50
0.0
 51
90.000003
  0
LINE
  5
429
330
1F
100
AcDbEntity
  8
0
 62
     7
100
AcDbLine
 10
215.606995
 20
240.449997
 30
0.0
 11
215.606995
 21
241.100006
 31
0.0
  0
LINE
  5
42A
330
1F
100
AcDbEntity
  8
0
 62
     7
100
AcDbLine
 10
215.606995
 20
240.449997
 30
0.0
 11
216.006989
 21
240.449997
 31
0.0
  0
LINE
  5
42B
330
1F
100
AcDbEntity
  8
0
 62
     7
100
AcDbLine
 10
216.006989
 20
240.449997
 30
0.0
 11
216.006989
 21
241.100006
 31
0.0
  0
ARC
  5
42C
330
1F
100
AcDbEntity
  8
0
 62
     7
100
AcDbCircle
 10
216.256989
 20
241.100006
 30
0.0
 40
0.25
100
AcDbArc
 50
90.000003
 51
180.000009
  0
LINE
  5
42D
330
1F
100
AcDbEntity
  8
0
 62
     7
100
AcDbLine
 10
216.256989
 20
241.350006
 30
0.0
 11
216.906982
 21
241.350006
 31
0.0
  0
LINE
  5
42E
330
1F
100
AcDbEntity
  8
0
 62
     7
100
AcDbLine
 10
216.906982
 20
241.750015
 30
0.0
 11
216.906982
 21
241.350006
 31
0.0
  0
LINE
  5
42F
330
1F
100
AcDbEntity
  8
0
 62
     7
100
AcDbLine
 10
216.256989
 20
241.750015
 30
0.0
 11
216.906982
 21
241.750015
 31
0.0
  0
ARC
  5
430
330
1F
100
AcDbEntity
  8
0
 62
     7
100
AcDbCircle
 10
216.256989
 20
242.000015
 30
0.0
 40
0.25
100
AcDbArc
 50
180.000009
 51
269.999997
  0
LINE
  5
431
330
1F
100
AcDbEntity
  8
0
 62
     7
100
AcDbLine
 10
216.006989
 20
242.650009
 30
0.0
 11
216.006989
 21
242.000015
 31
0.0
  0
LINE
  5
432
330
1F
100
AcDbEntity
  8
0
 62
     7
100
AcDbLine
 10
91.806992
 20
143.150009
 30
0.0
 11
88.40699
 21
143.150009
 31
0.0
  0
LINE
  5
433
330
1F
100
AcDbEntity
  8
0
 62
     7
100
AcDbLine
 10
95.206993
 20
143.150009
 30
0.0
 11
91.806992
 21
143.150009
 31
0.0
  0
LINE
  5
434
330
1F
100
AcDbEntity
  8
0
 62
     7
100
AcDbLine
 10
170.20697
 20
224.750031
 30
0.0
 11
170.20697
 21
224.600006
 31
0.0
  0
LINE
  5
435
330
1F
100
AcDbEntity
  8
0
 62
     7
100
AcDbLine
 10
168.006989
 20
224.750031
 30
0.0
 11
168.006989
 21
224.600006
 31
0.0
  0
LINE
  5
436
330
1F
100
AcDbEntity
  8
0
 62
     7
100
AcDbLine
 10
165.806976
 20
224.743027
 30
0.0
 11
165.806976
 21
224.600006
 31
0.0
  0
LINE
  5
437
330
1F
100
AcDbEntity
  8
0
 62
     7
100
AcDbLine
 10
171.20697
 20
223.437515
 30
0.0
 11
171.20697
 21
227.150009
 31
0.0
  0
LINE
  5
438
330
1F
100
AcDbEntity
  8
0
 62
     7
100
AcDbLine
 10
170.20697
 20
227.150009
 30
0.0
 11
171.20697
 21
227.150009
 31
0.0
  0
LINE
  5
439
330
1F
100
AcDbEntity
  8
0
 62
     7
100
AcDbLine
 10
170.20697
 20
227.150009
 30
0.0
 11
170.20697
 21
223.500015
 31
0.0
  0
LINE
  5
43A
330
1F
100
AcDbEntity
  8
0
 62
     7
100
AcDbLine
 10
169.006989
 20
223.574997
 30
0.0
 11
169.006989
 21
227.150009
 31
0.0
  0
LINE
  5
43B
330
1F
100
AcDbEntity
  8
0
 62
     7
100
AcDbLine
 10
168.006989
 20
227.150009
 30
0.0
 11
169.006989
 21
227.150009
 31
0.0
  0
LINE
  5
43C
330
1F
100
AcDbEntity
  8
0
 62
     7
100
AcDbLine
 10
168.006989
 20
227.150009
 30
0.0
 11
168.006989
 21
223.637497
 31
0.0
  0
LINE
  5
43D
330
1F
100
AcDbEntity
  8
0
 62
     7
100
AcDbLine
 10
166.806976
 20
223.712509
 30
0.0
 11
166.806976
 21
227.150009
 31
0.0
  0
LINE
  5
43E
330
1F
100
AcDbEntity
  8
0
 62
     7
100
AcDbLine
 10
165.806976
 20
227.150009
 30
0.0
 11
166.806976
 21
227.150009
 31
0.0
  0
LINE
  5
43F
330
1F
100
AcDbEntity
  8
0
 62
     7
100
AcDbLine
 10
165.806976
 20
227.150009
 30
0.0
 11
165.806976
 21
223.775009
 31
0.0
  0
LINE
  5
440
330
1F
100
AcDbEntity
  8
0
 62
     7
100
AcDbLine
 10
163.806976
 20
223.900009
 30
0.0
 11
163.806976
 21
231.87973
 31
0.0
  0
LINE
  5
441
330
1F
100
AcDbEntity
  8
0
 62
     7
100
AcDbLine
 10
163.806976
 20
231.87973
 30
0.0
 11
163.806976
 21
232.400009
 31
0.0
  0
LINE
  5
442
330
1F
100
AcDbEntity
  8
0
 62
     7
100
AcDbLine
 10
165.806976
 20
231.989426
 30
0.0
 11
165.806976
 21
229.150009
 31
0.0
  0
LINE
  5
443
330
1F
100
AcDbEntity
  8
0
 62
     7
100
AcDbLine
 10
165.806976
 20
232.525009
 30
0.0
 11
165.806976
 21
231.989426
 31
0.0
  0
LINE
  5
444
330
1F
100
AcDbEntity
  8
0
 62
     7
100
AcDbLine
 10
165.806976
 20
229.150009
 30
0.0
 11
166.806976
 21
229.150009
 31
0.0
  0
LINE
  5
445
330
1F
100
AcDbEntity
  8
0
 62
     7
100
AcDbLine
 10
166.806976
 20
232.044281
 30
0.0
 11
166.806976
 21
232.587509
 31
0.0
  0
LINE
  5
446
330
1F
100
AcDbEntity
  8
0
 62
     7
100
AcDbLine
 10
166.806976
 20
229.150009
 30
0.0
 11
166.806976
 21
232.044281
 31
0.0
  0
LINE
  5
447
330
1F
100
AcDbEntity
  8
0
 62
     7
100
AcDbLine
 10
168.006989
 20
232.110092
 30
0.0
 11
168.006989
 21
229.150009
 31
0.0
  0
LINE
  5
448
330
1F
100
AcDbEntity
  8
0
 62
     7
100
AcDbLine
 10
168.006989
 20
232.662506
 30
0.0
 11
168.006989
 21
232.110092
 31
0.0
  0
LINE
  5
449
330
1F
100
AcDbEntity
  8
0
 62
     7
100
AcDbLine
 10
168.006989
 20
229.150009
 30
0.0
 11
169.006989
 21
229.150009
 31
0.0
  0
LINE
  5
44A
330
1F
100
AcDbEntity
  8
0
 62
     7
100
AcDbLine
 10
169.006989
 20
232.164948
 30
0.0
 11
169.006989
 21
232.725006
 31
0.0
  0
LINE
  5
44B
330
1F
100
AcDbEntity
  8
0
 62
     7
100
AcDbLine
 10
169.006989
 20
229.150009
 30
0.0
 11
169.006989
 21
232.164948
 31
0.0
  0
LINE
  5
44C
330
1F
100
AcDbEntity
  8
0
 62
     7
100
AcDbLine
 10
170.20697
 20
232.230759
 30
0.0
 11
170.20697
 21
229.150009
 31
0.0
  0
LINE
  5
44D
330
1F
100
AcDbEntity
  8
0
 62
     7
100
AcDbLine
 10
170.20697
 20
232.800003
 30
0.0
 11
170.20697
 21
232.230759
 31
0.0
  0
LINE
  5
44E
330
1F
100
AcDbEntity
  8
0
 62
     7
100
AcDbLine
 10
170.20697
 20
229.150009
 30
0.0
 11
171.20697
 21
229.150009
 31
0.0
  0
LINE
  5
44F
330
1F
100
AcDbEntity
  8
0
 62
     7
100
AcDbLine
 10
171.20697
 20
232.285614
 30
0.0
 11
171.20697
 21
232.862503
 31
0.0
  0
LINE
  5
450
330
1F
100
AcDbEntity
  8
0
 62
     7
100
AcDbLine
 10
171.20697
 20
229.150009
 30
0.0
 11
171.20697
 21
232.285614
 31
0.0
  0
LINE
  5
451
330
1F
100
AcDbEntity
  8
0
 62
     7
100
AcDbLine
 10
175.806976
 20
232.537918
 30
0.0
 11
175.806976
 21
233.150009
 31
0.0
  0
LINE
  5
452
330
1F
100
AcDbEntity
  8
0
 62
     7
100
AcDbLine
 10
175.806976
 20
223.150009
 30
0.0
 11
175.806976
 21
232.537918
 31
0.0
  0
LINE
  5
453
330
1F
100
AcDbEntity
  8
0
 62
     7
100
AcDbLine
 10
176.806976
 20
232.801193
 30
0.0
 11
176.806976
 21
233.449997
 31
0.0
  0
LINE
  5
454
330
1F
100
AcDbEntity
  8
0
 62
     7
100
AcDbLine
 10
176.806976
 20
222.850006
 30
0.0
 11
176.806976
 21
232.801193
 31
0.0
  0
LINE
  5
455
330
1F
100
AcDbEntity
  8
0
 62
     7
100
AcDbLine
 10
181.806976
 20
222.250015
 30
0.0
 11
181.806976
 21
225.321396
 31
0.0
  0
LINE
  5
456
330
1F
100
AcDbEntity
  8
0
 62
     7
100
AcDbLine
 10
181.806976
 20
225.321396
 30
0.0
 11
181.806976
 21
234.050003
 31
0.0
  0
LINE
  5
457
330
1F
100
AcDbEntity
  8
0
 62
     7
100
AcDbLine
 10
182.038147
 20
221.850006
 30
0.0
 11
182.038147
 21
221.993393
 31
0.0
  0
ARC
  5
458
330
1F
100
AcDbEntity
  8
0
 62
     7
100
AcDbCircle
 10
184.552582
 20
222.953857
 30
0.0
 40
2.691781044006348
100
AcDbArc
 50
159.093943
 51
200.906016
  0
LINE
  5
459
330
1F
100
AcDbEntity
  8
0
 62
     7
100
AcDbLine
 10
182.038147
 20
225.129623
 30
0.0
 11
182.038147
 21
223.914322
 31
0.0
  0
LINE
  5
45A
330
1F
100
AcDbEntity
  8
0
 62
     7
100
AcDbLine
 10
182.038147
 20
225.129623
 30
0.0
 11
182.038147
 21
226.22908
 31
0.0
  0
ARC
  5
45B
330
1F
100
AcDbEntity
  8
0
 62
     7
100
AcDbCircle
 10
192.364471
 20
228.150009
 30
0.0
 40
10.50419235229492
100
AcDbArc
 50
169.462089
 51
190.537884
  0
LINE
  5
45C
330
1F
100
AcDbEntity
  8
0
 62
     7
100
AcDbLine
 10
182.038147
 20
230.070938
 30
0.0
 11
182.038147
 21
232.385696
 31
0.0
  0
ARC
  5
45D
330
1F
100
AcDbEntity
  8
0
 62
     7
100
AcDbCircle
 10
184.552582
 20
233.346161
 30
0.0
 40
2.691781044006348
100
AcDbArc
 50
159.093943
 51
200.906016
  0
LINE
  5
45E
330
1F
100
AcDbEntity
  8
0
 62
     7
100
AcDbLine
 10
182.038147
 20
234.306625
 30
0.0
 11
182.038147
 21
234.449997
 31
0.0
  0
LINE
  5
45F
330
1F
100
AcDbEntity
  8
0
 62
     7
100
AcDbLine
 10
188.806976
 20
221.850006
 30
0.0
 11
188.806976
 21
221.993393
 31
0.0
  0
LINE
  5
460
330
1F
100
AcDbEntity
  8
0
 62
     7
100
AcDbLine
 10
182.038147
 20
221.993393
 30
0.0
 11
188.806976
 21
221.993393
 31
0.0
  0
LINE
  5
461
330
1F
100
AcDbEntity
  8
0
 62
     7
100
AcDbLine
 10
182.038147
 20
223.914322
 30
0.0
 11
188.806976
 21
223.914322
 31
0.0
  0
LINE
  5
462
330
1F
100
AcDbEntity
  8
0
 62
     7
100
AcDbLine
 10
188.806976
 20
223.914322
 30
0.0
 11
188.806976
 21
226.22908
 31
0.0
  0
LINE
  5
463
330
1F
100
AcDbEntity
  8
0
 62
     7
100
AcDbLine
 10
182.038147
 20
226.22908
 30
0.0
 11
188.806976
 21
226.22908
 31
0.0
  0
LINE
  5
464
330
1F
100
AcDbEntity
  8
0
 62
     7
100
AcDbLine
 10
182.038147
 20
230.070938
 30
0.0
 11
188.806976
 21
230.070938
 31
0.0
  0
LINE
  5
465
330
1F
100
AcDbEntity
  8
0
 62
     7
100
AcDbLine
 10
188.806976
 20
230.070938
 30
0.0
 11
188.806976
 21
232.385696
 31
0.0
  0
LINE
  5
466
330
1F
100
AcDbEntity
  8
0
 62
     7
100
AcDbLine
 10
182.038147
 20
232.385696
 30
0.0
 11
188.806976
 21
232.385696
 31
0.0
  0
LINE
  5
467
330
1F
100
AcDbEntity
  8
0
 62
     7
100
AcDbLine
 10
182.038147
 20
234.306625
 30
0.0
 11
188.806976
 21
234.306625
 31
0.0
  0
LINE
  5
468
330
1F
100
AcDbEntity
  8
0
 62
     7
100
AcDbLine
 10
188.806976
 20
234.306625
 30
0.0
 11
188.806976
 21
234.449997
 31
0.0
  0
ARC
  5
469
330
1F
100
AcDbEntity
  8
0
 62
     7
100
AcDbCircle
 10
237.117737
 20
265.40387
 30
0.0
 40
64.901611328125
100
AcDbArc
 50
221.89505
 51
222.55191
  0
LINE
  5
46A
330
1F
100
AcDbEntity
  8
0
 62
     7
100
AcDbLine
 10
188.806976
 20
222.064682
 30
0.0
 11
188.806976
 21
221.993393
 31
0.0
  0
LINE
  5
46B
330
1F
100
AcDbEntity
  8
0
 62
     7
100
AcDbLine
 10
189.306976
 20
221.350006
 30
0.0
 11
189.306976
 21
221.513672
 31
0.0
  0
LINE
  5
46C
330
1F
100
AcDbEntity
  8
0
 62
     7
100
AcDbLine
 10
188.806976
 20
223.695236
 30
0.0
 11
188.806976
 21
222.064682
 31
0.0
  0
LINE
  5
46D
330
1F
100
AcDbEntity
  8
0
 62
     7
100
AcDbLine
 10
188.806976
 20
223.914322
 30
0.0
 11
188.806976
 21
223.695236
 31
0.0
  0
LINE
  5
46E
330
1F
100
AcDbEntity
  8
0
 62
     7
100
AcDbLine
 10
188.806976
 20
226.519455
 30
0.0
 11
188.806976
 21
226.22908
 31
0.0
  0
LINE
  5
46F
330
1F
100
AcDbEntity
  8
0
 62
     7
100
AcDbLine
 10
188.806976
 20
223.695236
 30
0.0
 11
189.306976
 21
223.547592
 31
0.0
  0
LINE
  5
470
330
1F
100
AcDbEntity
  8
0
 62
     7
100
AcDbLine
 10
189.306976
 20
223.547592
 30
0.0
 11
189.306976
 21
226.116089
 31
0.0
  0
LINE
  5
471
330
1F
100
AcDbEntity
  8
0
 62
     7
100
AcDbLine
 10
188.806976
 20
226.519455
 30
0.0
 11
189.306976
 21
226.116089
 31
0.0
  0
LINE
  5
472
330
1F
100
AcDbEntity
  8
0
 62
     7
100
AcDbLine
 10
188.806976
 20
229.780563
 30
0.0
 11
188.806976
 21
226.519455
 31
0.0
  0
LINE
  5
473
330
1F
100
AcDbEntity
  8
0
 62
     7
100
AcDbLine
 10
188.806976
 20
229.780563
 30
0.0
 11
188.806976
 21
230.070938
 31
0.0
  0
LINE
  5
474
330
1F
100
AcDbEntity
  8
0
 62
     7
100
AcDbLine
 10
189.306976
 20
230.183929
 30
0.0
 11
189.306976
 21
232.752426
 31
0.0
  0
LINE
  5
475
330
1F
100
AcDbEntity
  8
0
 62
     7
100
AcDbLine
 10
188.806976
 20
232.604782
 30
0.0
 11
189.306976
 21
232.752426
 31
0.0
  0
LINE
  5
476
330
1F
100
AcDbEntity
  8
0
 62
     7
100
AcDbLine
 10
188.806976
 20
232.385696
 30
0.0
 11
188.806976
 21
232.604782
 31
0.0
  0
LINE
  5
477
330
1F
100
AcDbEntity
  8
0
 62
     7
100
AcDbLine
 10
188.806976
 20
229.780563
 30
0.0
 11
189.306976
 21
230.183929
 31
0.0
  0
LINE
  5
478
330
1F
100
AcDbEntity
  8
0
 62
     7
100
AcDbLine
 10
188.806976
 20
234.235336
 30
0.0
 11
188.806976
 21
232.604782
 31
0.0
  0
LINE
  5
479
330
1F
100
AcDbEntity
  8
0
 62
     7
100
AcDbLine
 10
188.806976
 20
234.306625
 30
0.0
 11
188.806976
 21
234.235336
 31
0.0
  0
ARC
  5
47A
330
1F
100
AcDbEntity
  8
0
 62
     7
100
AcDbCircle
 10
237.117737
 20
190.896103
 30
0.0
 40
64.901611328125
100
AcDbArc
 50
137.44809
 51
138.10495
  0
LINE
  5
47B
330
1F
100
AcDbEntity
  8
0
 62
     7
100
AcDbLine
 10
189.306976
 20
234.786346
 30
0.0
 11
189.306976
 21
234.949997
 31
0.0
  0
LINE
  5
47C
330
1F
100
AcDbEntity
  8
0
 62
     7
100
AcDbLine
 10
198.806976
 20
234.235336
 30
0.0
 11
198.806976
 21
234.449997
 31
0.0
  0
LINE
  5
47D
330
1F
100
AcDbEntity
  8
0
 62
     7
100
AcDbLine
 10
188.806976
 20
229.780563
 30
0.0
 11
198.806976
 21
229.780563
 31
0.0
  0
LINE
  5
47E
330
1F
100
AcDbEntity
  8
0
 62
     7
100
AcDbLine
 10
188.806976
 20
226.519455
 30
0.0
 11
198.806976
 21
226.519455
 31
0.0
  0
LINE
  5
47F
330
1F
100
AcDbEntity
  8
0
 62
     7
100
AcDbLine
 10
198.806976
 20
223.695236
 30
0.0
 11
198.806976
 21
226.519455
 31
0.0
  0
LINE
  5
480
330
1F
100
AcDbEntity
  8
0
 62
     7
100
AcDbLine
 10
188.806976
 20
222.064682
 30
0.0
 11
198.806976
 21
222.064682
 31
0.0
  0
LINE
  5
481
330
1F
100
AcDbEntity
  8
0
 62
     7
100
AcDbLine
 10
198.806976
 20
221.850006
 30
0.0
 11
198.806976
 21
222.064682
 31
0.0
  0
LINE
  5
482
330
1F
100
AcDbEntity
  8
0
 62
     7
100
AcDbLine
 10
189.306976
 20
221.513672
 30
0.0
 11
198.306976
 21
221.513672
 31
0.0
  0
ARC
  5
483
330
1F
100
AcDbEntity
  8
0
 62
     7
100
AcDbCircle
 10
150.496216
 20
265.40387
 30
0.0
 40
64.901611328125
100
AcDbArc
 50
317.448096
 51
318.104941
  0
LINE
  5
484
330
1F
100
AcDbEntity
  8
0
 62
     7
100
AcDbLine
 10
198.306976
 20
221.350006
 30
0.0
 11
198.306976
 21
221.513672
 31
0.0
  0
LINE
  5
485
330
1F
100
AcDbEntity
  8
0
 62
     7
100
AcDbLine
 10
198.806976
 20
223.695236
 30
0.0
 11
198.306976
 21
223.547592
 31
0.0
  0
LINE
  5
486
330
1F
100
AcDbEntity
  8
0
 62
     7
100
AcDbLine
 10
189.306976
 20
223.547592
 30
0.0
 11
198.306976
 21
223.547592
 31
0.0
  0
LINE
  5
487
330
1F
100
AcDbEntity
  8
0
 62
     7
100
AcDbLine
 10
198.306976
 20
223.547592
 30
0.0
 11
198.306976
 21
226.116089
 31
0.0
  0
LINE
  5
488
330
1F
100
AcDbEntity
  8
0
 62
     7
100
AcDbLine
 10
189.306976
 20
226.116089
 30
0.0
 11
198.306976
 21
226.116089
 31
0.0
  0
LINE
  5
489
330
1F
100
AcDbEntity
  8
0
 62
     7
100
AcDbLine
 10
198.806976
 20
226.519455
 30
0.0
 11
198.306976
 21
226.116089
 31
0.0
  0
LINE
  5
48A
330
1F
100
AcDbEntity
  8
0
 62
     7
100
AcDbLine
 10
198.306976
 20
230.183929
 30
0.0
 11
198.306976
 21
232.752426
 31
0.0
  0
LINE
  5
48B
330
1F
100
AcDbEntity
  8
0
 62
     7
100
AcDbLine
 10
189.306976
 20
232.752426
 30
0.0
 11
198.306976
 21
232.752426
 31
0.0
  0
LINE
  5
48C
330
1F
100
AcDbEntity
  8
0
 62
     7
100
AcDbLine
 10
189.306976
 20
230.183929
 30
0.0
 11
198.306976
 21
230.183929
 31
0.0
  0
LINE
  5
48D
330
1F
100
AcDbEntity
  8
0
 62
     7
100
AcDbLine
 10
198.806976
 20
232.604782
 30
0.0
 11
198.306976
 21
232.752426
 31
0.0
  0
LINE
  5
48E
330
1F
100
AcDbEntity
  8
0
 62
     7
100
AcDbLine
 10
198.806976
 20
229.780563
 30
0.0
 11
198.306976
 21
230.183929
 31
0.0
  0
LINE
  5
48F
330
1F
100
AcDbEntity
  8
0
 62
     7
100
AcDbLine
 10
188.806976
 20
234.235336
 30
0.0
 11
198.806976
 21
234.235336
 31
0.0
  0
ARC
  5
490
330
1F
100
AcDbEntity
  8
0
 62
     7
100
AcDbCircle
 10
150.496216
 20
190.896103
 30
0.0
 40
64.901611328125
100
AcDbArc
 50
41.895052
 51
42.551911
  0
LINE
  5
491
330
1F
100
AcDbEntity
  8
0
 62
     7
100
AcDbLine
 10
189.306976
 20
234.786346
 30
0.0
 11
198.306976
 21
234.786346
 31
0.0
  0
LINE
  5
492
330
1F
100
AcDbEntity
  8
0
 62
     7
100
AcDbLine
 10
198.306976
 20
234.786346
 30
0.0
 11
198.306976
 21
234.949997
 31
0.0
  0
LINE
  5
493
330
1F
100
AcDbEntity
  8
0
 62
     7
100
AcDbLine
 10
198.806976
 20
229.780563
 30
0.0
 11
198.806976
 21
232.604782
 31
0.0
  0
LINE
  5
494
330
1F
100
AcDbEntity
  8
0
 62
     7
100
AcDbLine
 10
330.606995
 20
243.150009
 30
0.0
 11
330.907013
 21
243.150009
 31
0.0
  0
LINE
  5
495
330
1F
100
AcDbEntity
  8
0
 62
     7
100
AcDbLine
 10
223.443573
 20
222.250015
 30
0.0
 11
223.530182
 21
222.100006
 31
0.0
  0
LINE
  5
496
330
1F
100
AcDbEntity
  8
0
 62
     7
100
AcDbLine
 10
220.17038
 20
222.250015
 30
0.0
 11
220.083771
 21
222.100006
 31
0.0
  0
LINE
  5
497
330
1F
100
AcDbEntity
  8
0
 62
     7
100
AcDbLine
 10
309.17041
 20
222.250015
 30
0.0
 11
309.083801
 21
222.100006
 31
0.0
  0
LINE
  5
498
330
1F
100
AcDbEntity
  8
0
 62
     7
100
AcDbLine
 10
312.443604
 20
222.250015
 30
0.0
 11
312.530212
 21
222.100006
 31
0.0
  0
LINE
  5
499
330
1F
100
AcDbEntity
  8
0
 62
     7
100
AcDbLine
 10
312.255768
 20
242.575623
 30
0.0
 11
312.281372
 21
242.601242
 31
0.0
  0
POLYLINE
  5
49A
330
1F
100
AcDbEntity
  8
0
 62
     7
100
AcDb2dPolyline
 66
     1
 10
0.0
 20
0.0
 30
0.0
  0
VERTEX
  5
49B
330
49A
100
AcDbEntity
  8
0
100
AcDbVertex
100
AcDb2dVertex
 10
297.493835
 20
242.582932
 30
0.0
  0
VERTEX
  5
49C
330
49A
100
AcDbEntity
  8
0
100
AcDbVertex
100
AcDb2dVertex
 10
297.49704
 20
242.573135
 30
0.0
  0
VERTEX
  5
49D
330
49A
100
AcDbEntity
  8
0
100
AcDbVertex
100
AcDb2dVertex
 10
297.50415
 20
242.556992
 30
0.0
  0
VERTEX
  5
49E
330
49A
100
AcDbEntity
  8
0
100
AcDbVertex
100
AcDb2dVertex
 10
297.507446
 20
242.550522
 30
0.0
  0
VERTEX
  5
49F
330
49A
100
AcDbEntity
  8
0
100
AcDbVertex
100
AcDb2dVertex
 10
297.508087
 20
242.549057
 30
0.0
  0
VERTEX
  5
4A0
330
49A
100
AcDbEntity
  8
0
100
AcDbVertex
100
AcDb2dVertex
 10
297.490936
 20
242.570541
 30
0.0
  0
VERTEX
  5
4A1
330
49A
100
AcDbEntity
  8
0
100
AcDbVertex
100
AcDb2dVertex
 10
297.487427
 20
242.575699
 30
0.0
  0
VERTEX
  5
4A2
330
49A
100
AcDbEntity
  8
0
100
AcDbVertex
100
AcDb2dVertex
 10
297.489258
 20
242.574448
 30
0.0
  0
VERTEX
  5
4A3
330
49A
100
AcDbEntity
  8
0
100
AcDbVertex
100
AcDb2dVertex
 10
297.497986
 20
242.564194
 30
0.0
  0
VERTEX
  5
4A4
330
49A
100
AcDbEntity
  8
0
100
AcDbVertex
100
AcDb2dVertex
 10
297.506561
 20
242.552368
 30
0.0
  0
VERTEX
  5
4A5
330
49A
100
AcDbEntity
  8
0
100
AcDbVertex
100
AcDb2dVertex
 10
297.507355
 20
242.550735
 30
0.0
  0
VERTEX
  5
4A6
330
49A
100
AcDbEntity
  8
0
100
AcDbVertex
100
AcDb2dVertex
 10
297.507263
 20
242.549545
 30
0.0
  0
VERTEX
  5
4A7
330
49A
100
AcDbEntity
  8
0
100
AcDbVertex
100
AcDb2dVertex
 10
297.506256
 20
242.549667
 30
0.0
  0
VERTEX
  5
4A8
330
49A
100
AcDbEntity
  8
0
100
AcDbVertex
100
AcDb2dVertex
 10
297.504639
 20
242.550446
 30
0.0
  0
VERTEX
  5
4A9
330
49A
100
AcDbEntity
  8
0
100
AcDbVertex
100
AcDb2dVertex
 10
297.492828
 20
242.559006
 30
0.0
  0
VERTEX
  5
4AA
330
49A
100
AcDbEntity
  8
0
100
AcDbVertex
100
AcDb2dVertex
 10
297.482574
 20
242.567764
 30
0.0
  0
VERTEX
  5
4AB
330
49A
100
AcDbEntity
  8
0
100
AcDbVertex
100
AcDb2dVertex
 10
297.480957
 20
242.569382
 30
0.0
  0
VERTEX
  5
4AC
330
49A
100
AcDbEntity
  8
0
100
AcDbVertex
100
AcDb2dVertex
 10
297.48645
 20
242.566055
 30
0.0
  0
VERTEX
  5
4AD
330
49A
100
AcDbEntity
  8
0
100
AcDbVertex
100
AcDb2dVertex
 10
297.507507
 20
242.549728
 30
0.0
  0
VERTEX
  5
4AE
330
49A
100
AcDbEntity
  8
0
100
AcDbVertex
100
AcDb2dVertex
 10
297.508179
 20
242.548935
 30
0.0
  0
VERTEX
  5
4AF
330
49A
100
AcDbEntity
  8
0
100
AcDbVertex
100
AcDb2dVertex
 10
297.5065
 20
242.549576
 30
0.0
  0
VERTEX
  5
4B0
330
49A
100
AcDbEntity
  8
0
100
AcDbVertex
100
AcDb2dVertex
 10
297.5
 20
242.552841
 30
0.0
  0
VERTEX
  5
4B1
330
49A
100
AcDbEntity
  8
0
100
AcDbVertex
100
AcDb2dVertex
 10
297.483856
 20
242.559982
 30
0.0
  0
VERTEX
  5
4B2
330
49A
100
AcDbEntity
  8
0
100
AcDbVertex
100
AcDb2dVertex
 10
297.474091
 20
242.563171
 30
0.0
  0
SEQEND
  5
4B3
330
49A
100
AcDbEntity
  8
0
 62
     7
  0
POLYLINE
  5
4B4
330
1F
100
AcDbEntity
  8
0
 62
     7
100
AcDb2dPolyline
 66
     1
 10
0.0
 20
0.0
 30
0.0
  0
VERTEX
  5
4B5
330
4B4
100
AcDbEntity
  8
0
100
AcDbVertex
100
AcDb2dVertex
 10
218.493805
 20
242.582932
 30
0.0
  0
VERTEX
  5
4B6
330
4B4
100
AcDbEntity
  8
0
100
AcDbVertex
100
AcDb2dVertex
 10
218.497009
 20
242.573135
 30
0.0
  0
VERTEX
  5
4B7
330
4B4
100
AcDbEntity
  8
0
100
AcDbVertex
100
AcDb2dVertex
 10
218.50415
 20
242.556992
 30
0.0
  0
VERTEX
  5
4B8
330
4B4
100
AcDbEntity
  8
0
100
AcDbVertex
100
AcDb2dVertex
 10
218.507416
 20
242.550522
 30
0.0
  0
VERTEX
  5
4B9
330
4B4
100
AcDbEntity
  8
0
100
AcDbVertex
100
AcDb2dVertex
 10
218.508057
 20
242.549057
 30
0.0
  0
VERTEX
  5
4BA
330
4B4
100
AcDbEntity
  8
0
100
AcDbVertex
100
AcDb2dVertex
 10
218.490936
 20
242.570541
 30
0.0
  0
VERTEX
  5
4BB
330
4B4
100
AcDbEntity
  8
0
100
AcDbVertex
100
AcDb2dVertex
 10
218.487396
 20
242.575699
 30
0.0
  0
VERTEX
  5
4BC
330
4B4
100
AcDbEntity
  8
0
100
AcDbVertex
100
AcDb2dVertex
 10
218.489227
 20
242.574448
 30
0.0
  0
VERTEX
  5
4BD
330
4B4
100
AcDbEntity
  8
0
100
AcDbVertex
100
AcDb2dVertex
 10
218.497986
 20
242.564194
 30
0.0
  0
VERTEX
  5
4BE
330
4B4
100
AcDbEntity
  8
0
100
AcDbVertex
100
AcDb2dVertex
 10
218.506531
 20
242.552368
 30
0.0
  0
VERTEX
  5
4BF
330
4B4
100
AcDbEntity
  8
0
100
AcDbVertex
100
AcDb2dVertex
 10
218.507324
 20
242.550735
 30
0.0
  0
VERTEX
  5
4C0
330
4B4
100
AcDbEntity
  8
0
100
AcDbVertex
100
AcDb2dVertex
 10
218.507233
 20
242.549545
 30
0.0
  0
VERTEX
  5
4C1
330
4B4
100
AcDbEntity
  8
0
100
AcDbVertex
100
AcDb2dVertex
 10
218.504608
 20
242.550446
 30
0.0
  0
VERTEX
  5
4C2
330
4B4
100
AcDbEntity
  8
0
100
AcDbVertex
100
AcDb2dVertex
 10
218.492798
 20
242.559006
 30
0.0
  0
VERTEX
  5
4C3
330
4B4
100
AcDbEntity
  8
0
100
AcDbVertex
100
AcDb2dVertex
 10
218.482544
 20
242.567764
 30
0.0
  0
VERTEX
  5
4C4
330
4B4
100
AcDbEntity
  8
0
100
AcDbVertex
100
AcDb2dVertex
 10
218.480927
 20
242.569382
 30
0.0
  0
VERTEX
  5
4C5
330
4B4
100
AcDbEntity
  8
0
100
AcDbVertex
100
AcDb2dVertex
 10
218.48645
 20
242.566055
 30
0.0
  0
VERTEX
  5
4C6
330
4B4
100
AcDbEntity
  8
0
100
AcDbVertex
100
AcDb2dVertex
 10
218.507477
 20
242.549728
 30
0.0
  0
VERTEX
  5
4C7
330
4B4
100
AcDbEntity
  8
0
100
AcDbVertex
100
AcDb2dVertex
 10
218.508148
 20
242.548935
 30
0.0
  0
VERTEX
  5
4C8
330
4B4
100
AcDbEntity
  8
0
100
AcDbVertex
100
AcDb2dVertex
 10
218.50647
 20
242.549576
 30
0.0
  0
VERTEX
  5
4C9
330
4B4
100
AcDbEntity
  8
0
100
AcDbVertex
100
AcDb2dVertex
 10
218.5
 20
242.552841
 30
0.0
  0
VERTEX
  5
4CA
330
4B4
100
AcDbEntity
  8
0
100
AcDbVertex
100
AcDb2dVertex
 10
218.483856
 20
242.559982
 30
0.0
  0
VERTEX
  5
4CB
330
4B4
100
AcDbEntity
  8
0
100
AcDbVertex
100
AcDb2dVertex
 10
218.47406
 20
242.563171
 30
0.0
  0
SEQEND
  5
4CC
330
4B4
100
AcDbEntity
  8
0
 62
     7
  0
LINE
  5
4CD
330
1F
100
AcDbEntity
  8
0
 62
     7
100
AcDbLine
 10
203.255737
 20
242.575623
 30
0.0
 11
203.281372
 21
242.601242
 31
0.0
  0
LINE
  5
4CE
330
1F
100
AcDbEntity
  8
0
 62
     7
100
AcDbLine
 10
223.530182
 20
221.850006
 30
0.0
 11
223.530182
 21
222.100006
 31
0.0
  0
LINE
  5
4CF
330
1F
100
AcDbEntity
  8
0
 62
     7
100
AcDbLine
 10
220.083771
 20
221.850006
 30
0.0
 11
220.083771
 21
222.100006
 31
0.0
  0
LINE
  5
4D0
330
1F
100
AcDbEntity
  8
0
 62
     7
100
AcDbLine
 10
309.083801
 20
222.100006
 30
0.0
 11
309.083801
 21
221.850006
 31
0.0
  0
LINE
  5
4D1
330
1F
100
AcDbEntity
  8
0
 62
     7
100
AcDbLine
 10
312.530212
 20
222.100006
 30
0.0
 11
312.530212
 21
221.850006
 31
0.0
  0
LINE
  5
4D2
330
1F
100
AcDbEntity
  8
0
 62
     7
100
AcDbLine
 10
201.70697
 20
243.150009
 30
0.0
 11
202.006989
 21
243.150009
 31
0.0
  0
ARC
  5
4D3
330
1F
100
AcDbEntity
  8
0
 62
     7
100
AcDbCircle
 10
166.806976
 20
153.150009
 30
0.0
 40
78.4000015258789
100
AcDbArc
 50
92.192971
 51
179.999991
  0
ARC
  5
4D4
330
1F
100
AcDbEntity
  8
0
 62
     7
100
AcDbCircle
 10
166.807037
 20
153.153839
 30
0.0
 40
78.39616394042969
100
AcDbArc
 50
90.00003
 51
90.730894
  0
ARC
  5
4D5
330
1F
100
AcDbEntity
  8
0
 62
     7
100
AcDbCircle
 10
166.806976
 20
153.150009
 30
0.0
 40
71.5999984741211
100
AcDbArc
 50
92.401354
 51
180.000009
  0
ARC
  5
4D6
330
1F
100
AcDbEntity
  8
0
 62
     7
100
AcDbCircle
 10
166.807037
 20
153.152206
 30
0.0
 40
71.59779357910156
100
AcDbArc
 50
90.000037
 51
90.800303
  0
LINE
  5
4D7
330
1F
100
AcDbEntity
  8
0
 62
     7
100
AcDbLine
 10
168.006989
 20
231.550003
 30
0.0
 11
169.006989
 21
231.550003
 31
0.0
  0
LINE
  5
4D8
330
1F
100
AcDbEntity
  8
0
 62
     7
100
AcDbLine
 10
170.20697
 20
231.550003
 30
0.0
 11
171.20697
 21
231.550003
 31
0.0
  0
LINE
  5
4D9
330
1F
100
AcDbEntity
  8
0
 62
     7
100
AcDbLine
 10
88.40699
 20
143.150009
 30
0.0
 11
88.40699
 21
153.150009
 31
0.0
  0
LINE
  5
4DA
330
1F
100
AcDbEntity
  8
0
 62
     7
100
AcDbLine
 10
168.006989
 20
224.750015
 30
0.0
 11
169.006989
 21
224.750015
 31
0.0
  0
LINE
  5
4DB
330
1F
100
AcDbEntity
  8
0
 62
     7
100
AcDbLine
 10
170.20697
 20
224.750015
 30
0.0
 11
171.20697
 21
224.750015
 31
0.0
  0
LINE
  5
4DC
330
1F
100
AcDbEntity
  8
0
 62
     7
100
AcDbLine
 10
95.206993
 20
143.150009
 30
0.0
 11
95.206993
 21
153.150009
 31
0.0
  0
LINE
  5
4DD
330
1F
100
AcDbEntity
  8
0
 62
     7
100
AcDbLine
 10
163.806976
 20
232.400009
 30
0.0
 11
165.806976
 21
232.525009
 31
0.0
  0
LINE
  5
4DE
330
1F
100
AcDbEntity
  8
0
 62
     7
100
AcDbLine
 10
166.806976
 20
232.587509
 30
0.0
 11
168.006989
 21
232.662506
 31
0.0
  0
LINE
  5
4DF
330
1F
100
AcDbEntity
  8
0
 62
     7
100
AcDbLine
 10
169.006989
 20
232.725006
 30
0.0
 11
170.20697
 21
232.800003
 31
0.0
  0
LINE
  5
4E0
330
1F
100
AcDbEntity
  8
0
 62
     7
100
AcDbLine
 10
171.20697
 20
232.862503
 30
0.0
 11
175.806976
 21
233.150009
 31
0.0
  0
LINE
  5
4E1
330
1F
100
AcDbEntity
  8
0
 62
     7
100
AcDbLine
 10
163.806976
 20
223.900009
 30
0.0
 11
165.806976
 21
223.775009
 31
0.0
  0
LINE
  5
4E2
330
1F
100
AcDbEntity
  8
0
 62
     7
100
AcDbLine
 10
166.806976
 20
223.712509
 30
0.0
 11
168.006989
 21
223.637497
 31
0.0
  0
LINE
  5
4E3
330
1F
100
AcDbEntity
  8
0
 62
     7
100
AcDbLine
 10
169.006989
 20
223.574997
 30
0.0
 11
170.20697
 21
223.500015
 31
0.0
  0
LINE
  5
4E4
330
1F
100
AcDbEntity
  8
0
 62
     7
100
AcDbLine
 10
171.20697
 20
223.437515
 30
0.0
 11
175.806976
 21
223.150009
 31
0.0
  0
LINE
  5
4E5
330
1F
100
AcDbEntity
  8
0
 62
     7
100
AcDbLine
 10
175.806976
 20
233.150009
 30
0.0
 11
176.806976
 21
233.449997
 31
0.0
  0
LINE
  5
4E6
330
1F
100
AcDbEntity
  8
0
 62
     7
100
AcDbLine
 10
175.806976
 20
223.150009
 30
0.0
 11
176.806976
 21
222.850006
 31
0.0
  0
LINE
  5
4E7
330
1F
100
AcDbEntity
  8
0
 62
     7
100
AcDbLine
 10
176.806976
 20
223.150009
 30
0.0
 11
181.806976
 21
223.150009
 31
0.0
  0
LINE
  5
4E8
330
1F
100
AcDbEntity
  8
0
 62
     7
100
AcDbLine
 10
176.806976
 20
233.150009
 30
0.0
 11
181.806976
 21
233.150009
 31
0.0
  0
ARC
  5
4E9
330
1F
100
AcDbEntity
  8
0
 62
     7
100
AcDbCircle
 10
187.113586
 20
225.050003
 30
0.0
 40
6.000001907348633
100
AcDbArc
 50
207.81814
 51
212.230947
  0
ARC
  5
4EA
330
1F
100
AcDbEntity
  8
0
 62
     7
100
AcDbCircle
 10
187.113586
 20
231.250015
 30
0.0
 40
6.000001907348633
100
AcDbArc
 50
147.769053
 51
152.18186
  0
LINE
  5
4EB
330
1F
100
AcDbEntity
  8
0
 62
     7
100
AcDbLine
 10
182.038147
 20
221.850006
 30
0.0
 11
188.806976
 21
221.850006
 31
0.0
  0
LINE
  5
4EC
330
1F
100
AcDbEntity
  8
0
 62
     7
100
AcDbLine
 10
182.038147
 20
234.449997
 30
0.0
 11
188.806976
 21
234.449997
 31
0.0
  0
LINE
  5
4ED
330
1F
100
AcDbEntity
  8
0
 62
     7
100
AcDbLine
 10
188.806976
 20
221.850006
 30
0.0
 11
189.306976
 21
221.350006
 31
0.0
  0
LINE
  5
4EE
330
1F
100
AcDbEntity
  8
0
 62
     7
100
AcDbLine
 10
188.806976
 20
234.449997
 30
0.0
 11
189.306976
 21
234.949997
 31
0.0
  0
LINE
  5
4EF
330
1F
100
AcDbEntity
  8
0
 62
     7
100
AcDbLine
 10
198.806976
 20
221.850006
 30
0.0
 11
199.806976
 21
221.850006
 31
0.0
  0
LINE
  5
4F0
330
1F
100
AcDbEntity
  8
0
 62
     7
100
AcDbLine
 10
198.806976
 20
234.449997
 30
0.0
 11
199.806976
 21
234.449997
 31
0.0
  0
LINE
  5
4F1
330
1F
100
AcDbEntity
  8
0
 62
     7
100
AcDbLine
 10
189.306976
 20
221.350006
 30
0.0
 11
198.306976
 21
221.350006
 31
0.0
  0
LINE
  5
4F2
330
1F
100
AcDbEntity
  8
0
 62
     7
100
AcDbLine
 10
189.306976
 20
234.949997
 30
0.0
 11
198.306976
 21
234.949997
 31
0.0
  0
LINE
  5
4F3
330
1F
100
AcDbEntity
  8
0
 62
     7
100
AcDbLine
 10
198.806976
 20
234.449997
 30
0.0
 11
198.306976
 21
234.949997
 31
0.0
  0
LINE
  5
4F4
330
1F
100
AcDbEntity
  8
0
 62
     7
100
AcDbLine
 10
198.806976
 20
221.850006
 30
0.0
 11
198.306976
 21
221.350006
 31
0.0
  0
LINE
  5
4F5
330
1F
100
AcDbEntity
  8
0
 62
     7
100
AcDbLine
 10
56.29306
 20
245.850006
 30
0.0
 11
56.29306
 21
258.950012
 31
0.0
  0
ARC
  5
4F6
330
1F
100
AcDbEntity
  8
0
 62
     7
100
AcDbCircle
 10
55.493057
 20
245.850006
 30
0.0
 40
0.800000011920929
100
AcDbArc
 50
269.999997
 51
360.0
  0
LINE
  5
4F7
330
1F
100
AcDbEntity
  8
0
 62
     7
100
AcDbLine
 10
56.163765
 20
259.079285
 30
0.0
 11
56.29306
 21
258.950012
 31
0.0
  0
ARC
  5
4F8
330
1F
100
AcDbEntity
  8
0
 62
     7
100
AcDbCircle
 10
54.29306
 20
245.850006
 30
0.0
 40
0.800000011920929
100
AcDbArc
 50
241.044838
 51
269.999997
  0
LINE
  5
4F9
330
1F
100
AcDbEntity
  8
0
 62
     7
100
AcDbLine
 10
55.493057
 20
245.050003
 30
0.0
 11
54.29306
 21
245.050003
 31
0.0
  0
ARC
  5
4FA
330
1F
100
AcDbEntity
  8
0
 62
     7
100
AcDbCircle
 10
56.234482
 20
259.150024
 30
0.0
 40
0.1000000014901161
100
AcDbArc
 50
135.0
 51
225.0
  0
LINE
  5
4FB
330
1F
100
AcDbEntity
  8
0
 62
     7
100
AcDbLine
 10
56.29306
 20
259.349976
 30
0.0
 11
56.163765
 21
259.220703
 31
0.0
  0
LINE
  5
4FC
330
1F
100
AcDbEntity
  8
0
 62
     7
100
AcDbLine
 10
56.29306
 20
259.349976
 30
0.0
 11
56.29306
 21
260.049988
 31
0.0
  0
LINE
  5
4FD
330
1F
100
AcDbEntity
  8
0
 62
     7
100
AcDbLine
 10
56.163765
 20
260.17926
 30
0.0
 11
56.29306
 21
260.049988
 31
0.0
  0
ARC
  5
4FE
330
1F
100
AcDbEntity
  8
0
 62
     7
100
AcDbCircle
 10
56.234482
 20
260.25
 30
0.0
 40
0.1000000014901161
100
AcDbArc
 50
135.0
 51
225.0
  0
LINE
  5
4FF
330
1F
100
AcDbEntity
  8
0
 62
     7
100
AcDbLine
 10
56.29306
 20
260.450012
 30
0.0
 11
56.163765
 21
260.32074
 31
0.0
  0
LINE
  5
500
330
1F
100
AcDbEntity
  8
0
 62
     7
100
AcDbLine
 10
56.29306
 20
260.450012
 30
0.0
 11
56.29306
 21
261.150024
 31
0.0
  0
LINE
  5
501
330
1F
100
AcDbEntity
  8
0
 62
     7
100
AcDbLine
 10
56.163765
 20
261.279297
 30
0.0
 11
56.29306
 21
261.150024
 31
0.0
  0
ARC
  5
502
330
1F
100
AcDbEntity
  8
0
 62
     7
100
AcDbCircle
 10
56.234482
 20
261.349976
 30
0.0
 40
0.1000000014901161
100
AcDbArc
 50
135.0
 51
225.0
  0
LINE
  5
503
330
1F
100
AcDbEntity
  8
0
 62
     7
100
AcDbLine
 10
56.29306
 20
261.549988
 30
0.0
 11
56.163765
 21
261.420715
 31
0.0
  0
LINE
  5
504
330
1F
100
AcDbEntity
  8
0
 62
     7
100
AcDbLine
 10
56.29306
 20
261.549988
 30
0.0
 11
56.29306
 21
262.25
 31
0.0
  0
LINE
  5
505
330
1F
100
AcDbEntity
  8
0
 62
     7
100
AcDbLine
 10
56.163765
 20
262.379272
 30
0.0
 11
56.29306
 21
262.25
 31
0.0
  0
ARC
  5
506
330
1F
100
AcDbEntity
  8
0
 62
     7
100
AcDbCircle
 10
56.234482
 20
262.450012
 30
0.0
 40
0.1000000014901161
100
AcDbArc
 50
135.0
 51
225.0
  0
LINE
  5
507
330
1F
100
AcDbEntity
  8
0
 62
     7
100
AcDbLine
 10
56.29306
 20
262.650024
 30
0.0
 11
56.163765
 21
262.520691
 31
0.0
  0
LINE
  5
508
330
1F
100
AcDbEntity
  8
0
 62
     7
100
AcDbLine
 10
56.29306
 20
262.650024
 30
0.0
 11
56.29306
 21
263.349976
 31
0.0
  0
LINE
  5
509
330
1F
100
AcDbEntity
  8
0
 62
     7
100
AcDbLine
 10
56.163765
 20
263.479309
 30
0.0
 11
56.29306
 21
263.349976
 31
0.0
  0
ARC
  5
50A
330
1F
100
AcDbEntity
  8
0
 62
     7
100
AcDbCircle
 10
56.234482
 20
263.549988
 30
0.0
 40
0.1000000014901161
100
AcDbArc
 50
135.0
 51
225.0
  0
LINE
  5
50B
330
1F
100
AcDbEntity
  8
0
 62
     7
100
AcDbLine
 10
56.29306
 20
263.75
 30
0.0
 11
56.163765
 21
263.620728
 31
0.0
  0
LINE
  5
50C
330
1F
100
AcDbEntity
  8
0
 62
     7
100
AcDbLine
 10
56.29306
 20
263.75
 30
0.0
 11
56.29306
 21
264.450012
 31
0.0
  0
LINE
  5
50D
330
1F
100
AcDbEntity
  8
0
 62
     7
100
AcDbLine
 10
56.163765
 20
264.579285
 30
0.0
 11
56.29306
 21
264.450012
 31
0.0
  0
ARC
  5
50E
330
1F
100
AcDbEntity
  8
0
 62
     7
100
AcDbCircle
 10
56.234482
 20
264.650024
 30
0.0
 40
0.1000000014901161
100
AcDbArc
 50
135.0
 51
225.0
  0
LINE
  5
50F
330
1F
100
AcDbEntity
  8
0
 62
     7
100
AcDbLine
 10
56.29306
 20
264.849976
 30
0.0
 11
56.163765
 21
264.720703
 31
0.0
  0
LINE
  5
510
330
1F
100
AcDbEntity
  8
0
 62
     7
100
AcDbLine
 10
56.29306
 20
264.849976
 30
0.0
 11
56.29306
 21
265.549988
 31
0.0
  0
LINE
  5
511
330
1F
100
AcDbEntity
  8
0
 62
     7
100
AcDbLine
 10
56.163765
 20
265.67926
 30
0.0
 11
56.29306
 21
265.549988
 31
0.0
  0
ARC
  5
512
330
1F
100
AcDbEntity
  8
0
 62
     7
100
AcDbCircle
 10
56.234482
 20
265.75
 30
0.0
 40
0.1000000014901161
100
AcDbArc
 50
135.0
 51
225.0
  0
LINE
  5
513
330
1F
100
AcDbEntity
  8
0
 62
     7
100
AcDbLine
 10
56.29306
 20
265.950012
 30
0.0
 11
56.163765
 21
265.82074
 31
0.0
  0
LINE
  5
514
330
1F
100
AcDbEntity
  8
0
 62
     7
100
AcDbLine
 10
56.29306
 20
265.950012
 30
0.0
 11
56.29306
 21
266.650024
 31
0.0
  0
LINE
  5
515
330
1F
100
AcDbEntity
  8
0
 62
     7
100
AcDbLine
 10
56.163765
 20
266.779297
 30
0.0
 11
56.29306
 21
266.650024
 31
0.0
  0
ARC
  5
516
330
1F
100
AcDbEntity
  8
0
 62
     7
100
AcDbCircle
 10
56.234482
 20
266.849976
 30
0.0
 40
0.1000000014901161
100
AcDbArc
 50
135.0
 51
225.0
  0
LINE
  5
517
330
1F
100
AcDbEntity
  8
0
 62
     7
100
AcDbLine
 10
56.29306
 20
267.049988
 30
0.0
 11
56.163765
 21
266.920715
 31
0.0
  0
LINE
  5
518
330
1F
100
AcDbEntity
  8
0
 62
     7
100
AcDbLine
 10
56.29306
 20
267.049988
 30
0.0
 11
56.29306
 21
267.75
 31
0.0
  0
LINE
  5
519
330
1F
100
AcDbEntity
  8
0
 62
     7
100
AcDbLine
 10
56.163765
 20
267.879272
 30
0.0
 11
56.29306
 21
267.75
 31
0.0
  0
ARC
  5
51A
330
1F
100
AcDbEntity
  8
0
 62
     7
100
AcDbCircle
 10
56.234482
 20
267.950012
 30
0.0
 40
0.1000000014901161
100
AcDbArc
 50
135.0
 51
225.0
  0
LINE
  5
51B
330
1F
100
AcDbEntity
  8
0
 62
     7
100
AcDbLine
 10
56.29306
 20
268.150024
 30
0.0
 11
56.163765
 21
268.020691
 31
0.0
  0
LINE
  5
51C
330
1F
100
AcDbEntity
  8
0
 62
     7
100
AcDbLine
 10
56.29306
 20
268.150024
 30
0.0
 11
56.29306
 21
272.974243
 31
0.0
  0
LINE
  5
51D
330
1F
100
AcDbEntity
  8
0
 62
     7
100
AcDbLine
 10
55.805191
 20
273.462158
 30
0.0
 11
56.29306
 21
272.974243
 31
0.0
  0
ARC
  5
51E
330
1F
100
AcDbEntity
  8
0
 62
     7
100
AcDbCircle
 10
55.593056
 20
273.25
 30
0.0
 40
0.300000011920929
100
AcDbArc
 50
45.000001
 51
106.874504
  0
LINE
  5
51F
330
1F
100
AcDbEntity
  8
0
 62
     7
100
AcDbLine
 10
56.29306
 20
251.050003
 30
0.0
 11
56.493057
 21
251.050003
 31
0.0
  0
LINE
  5
520
330
1F
100
AcDbEntity
  8
0
 62
     7
100
AcDbLine
 10
56.493057
 20
250.550003
 30
0.0
 11
56.493057
 21
251.050003
 31
0.0
  0
LINE
  5
521
330
1F
100
AcDbEntity
  8
0
 62
     7
100
AcDbLine
 10
56.493057
 20
250.550003
 30
0.0
 11
56.493057
 21
246.550003
 31
0.0
  0
LINE
  5
522
330
1F
100
AcDbEntity
  8
0
 62
     7
100
AcDbLine
 10
56.493057
 20
246.050003
 30
0.0
 11
56.493057
 21
246.550003
 31
0.0
  0
LINE
  5
523
330
1F
100
AcDbEntity
  8
0
 62
     7
100
AcDbLine
 10
56.29306
 20
246.050003
 30
0.0
 11
56.493057
 21
246.050003
 31
0.0
  0
ARC
  5
524
330
1F
100
AcDbEntity
  8
0
 62
     7
100
AcDbCircle
 10
52.29306
 20
273.349976
 30
0.0
 40
3.0
100
AcDbArc
 50
8.262821
 51
90.000003
  0
LINE
  5
525
330
1F
100
AcDbEntity
  8
0
 62
     7
100
AcDbLine
 10
56.54306
 20
246.550003
 30
0.0
 11
56.54306
 21
246.680374
 31
0.0
  0
LINE
  5
526
330
1F
100
AcDbEntity
  8
0
 62
     7
100
AcDbLine
 10
56.54306
 20
250.180374
 30
0.0
 11
56.54306
 21
246.680374
 31
0.0
  0
LINE
  5
527
330
1F
100
AcDbEntity
  8
0
 62
     7
100
AcDbLine
 10
56.493057
 20
250.449997
 30
0.0
 11
56.54306
 21
250.449997
 31
0.0
  0
LINE
  5
528
330
1F
100
AcDbEntity
  8
0
 62
     7
100
AcDbLine
 10
56.54306
 20
250.180374
 30
0.0
 11
56.54306
 21
250.449997
 31
0.0
  0
LINE
  5
529
330
1F
100
AcDbEntity
  8
0
 62
     7
100
AcDbLine
 10
55.946609
 20
273.096436
 30
0.0
 11
55.104538
 21
273.938538
 31
0.0
  0
ARC
  5
52A
330
1F
100
AcDbEntity
  8
0
 62
     7
100
AcDbCircle
 10
55.593056
 20
272.74292
 30
0.0
 40
0.5
100
AcDbArc
 50
0.0
 51
45.000001
  0
LINE
  5
52B
330
1F
100
AcDbEntity
  8
0
 62
     7
100
AcDbLine
 10
56.093056
 20
245.650009
 30
0.0
 11
56.093056
 21
272.74292
 31
0.0
  0
ARC
  5
52C
330
1F
100
AcDbEntity
  8
0
 62
     7
100
AcDbCircle
 10
55.593056
 20
245.650009
 30
0.0
 40
0.5
100
AcDbArc
 50
269.999997
 51
360.0
  0
LINE
  5
52D
330
1F
100
AcDbEntity
  8
0
 62
     7
100
AcDbLine
 10
39.993057
 20
245.150009
 30
0.0
 11
55.593056
 21
245.150009
 31
0.0
  0
ARC
  5
52E
330
1F
100
AcDbEntity
  8
0
 62
     7
100
AcDbCircle
 10
39.993057
 20
245.650009
 30
0.0
 40
0.5
100
AcDbArc
 50
180.000009
 51
269.999997
  0
LINE
  5
52F
330
1F
100
AcDbEntity
  8
0
 62
     7
100
AcDbLine
 10
39.493057
 20
272.74292
 30
0.0
 11
39.493057
 21
245.650009
 31
0.0
  0
LINE
  5
530
330
1F
100
AcDbEntity
  8
0
 62
     7
100
AcDbLine
 10
38.693054
 20
255.050003
 30
0.0
 11
38.693054
 21
257.049988
 31
0.0
  0
LINE
  5
531
330
1F
100
AcDbEntity
  8
0
 62
     7
100
AcDbLine
 10
38.693054
 20
255.050003
 30
0.0
 11
39.493053
 21
255.050003
 31
0.0
  0
LINE
  5
532
330
1F
100
AcDbEntity
  8
0
 62
     7
100
AcDbLine
 10
52.29306
 20
276.349976
 30
0.0
 11
43.293056
 21
276.349976
 31
0.0
  0
ARC
  5
533
330
1F
100
AcDbEntity
  8
0
 62
     7
100
AcDbCircle
 10
43.293056
 20
273.349976
 30
0.0
 40
3.0
100
AcDbArc
 50
90.000003
 51
171.737184
  0
ARC
  5
534
330
1F
100
AcDbEntity
  8
0
 62
     7
100
AcDbCircle
 10
55.139893
 20
273.973877
 30
0.0
 40
0.0500000007450581
100
AcDbArc
 50
189.204208
 51
225.0
  0
ARC
  5
535
330
1F
100
AcDbEntity
  8
0
 62
     7
100
AcDbCircle
 10
39.993057
 20
272.74292
 30
0.0
 40
0.5
100
AcDbArc
 50
135.0
 51
180.000009
  0
LINE
  5
536
330
1F
100
AcDbEntity
  8
0
 62
     7
100
AcDbLine
 10
38.693054
 20
271.821106
 30
0.0
 11
38.693054
 21
257.049988
 31
0.0
  0
LINE
  5
537
330
1F
100
AcDbEntity
  8
0
 62
     7
100
AcDbLine
 10
38.693054
 20
271.821106
 30
0.0
 11
38.693054
 21
271.863342
 31
0.0
  0
LINE
  5
538
330
1F
100
AcDbEntity
  8
0
 62
     7
100
AcDbLine
 10
38.693054
 20
271.863342
 30
0.0
 11
38.693054
 21
276.349976
 31
0.0
  0
LINE
  5
539
330
1F
100
AcDbEntity
  8
0
 62
     7
100
AcDbLine
 10
38.893059
 20
255.050003
 30
0.0
 11
38.893059
 21
254.550003
 31
0.0
  0
LINE
  5
53A
330
1F
100
AcDbEntity
  8
0
 62
     7
100
AcDbLine
 10
39.493057
 20
254.550003
 30
0.0
 11
38.893059
 21
254.550003
 31
0.0
  0
LINE
  5
53B
330
1F
100
AcDbEntity
  8
0
 62
     7
100
AcDbLine
 10
38.893059
 20
245.850006
 30
0.0
 11
38.893059
 21
254.550003
 31
0.0
  0
ARC
  5
53C
330
1F
100
AcDbEntity
  8
0
 62
     7
100
AcDbCircle
 10
39.693054
 20
245.850006
 30
0.0
 40
0.800000011920929
100
AcDbArc
 50
180.000009
 51
269.999997
  0
LINE
  5
53D
330
1F
100
AcDbEntity
  8
0
 62
     7
100
AcDbLine
 10
39.693054
 20
245.050003
 30
0.0
 11
40.893059
 21
245.050003
 31
0.0
  0
ARC
  5
53E
330
1F
100
AcDbEntity
  8
0
 62
     7
100
AcDbCircle
 10
40.893059
 20
245.850006
 30
0.0
 40
0.800000011920929
100
AcDbArc
 50
269.999997
 51
298.955164
  0
LINE
  5
53F
330
1F
100
AcDbEntity
  8
0
 62
     7
100
AcDbLine
 10
40.481579
 20
273.938538
 30
0.0
 11
39.639503
 21
273.096436
 31
0.0
  0
ARC
  5
540
330
1F
100
AcDbEntity
  8
0
 62
     7
100
AcDbCircle
 10
40.44622
 20
273.973877
 30
0.0
 40
0.0500000007450581
100
AcDbArc
 50
314.999992
 51
350.795784
  0
ARC
  5
541
330
1F
100
AcDbEntity
  8
0
 62
     7
100
AcDbCircle
 10
43.062103
 20
273.549988
 30
0.0
 40
2.599999904632568
100
AcDbArc
 50
90.000003
 51
170.795792
  0
LINE
  5
542
330
1F
100
AcDbEntity
  8
0
 62
     7
100
AcDbLine
 10
52.52401
 20
276.150024
 30
0.0
 11
43.062103
 21
276.150024
 31
0.0
  0
ARC
  5
543
330
1F
100
AcDbEntity
  8
0
 62
     7
100
AcDbCircle
 10
52.52401
 20
273.549988
 30
0.0
 40
2.599999904632568
100
AcDbArc
 50
9.20421
 51
90.000003
  0
CIRCLE
  5
544
330
1F
100
AcDbEntity
  8
0
 62
     7
100
AcDbCircle
 10
47.793056
 20
253.350006
 30
0.0
 40
5.150000095367432
  0
POLYLINE
  5
545
330
1F
100
AcDbEntity
  8
0
 62
     7
100
AcDb2dPolyline
 66
     1
 10
0.0
 20
0.0
 30
0.0
  0
VERTEX
  5
546
330
545
100
AcDbEntity
  8
0
100
AcDbVertex
100
AcDb2dVertex
 10
39.193054
 20
273.260193
 30
0.0
  0
VERTEX
  5
547
330
545
100
AcDbEntity
  8
0
100
AcDbVertex
100
AcDb2dVertex
 10
39.189186
 20
273.162903
 30
0.0
  0
VERTEX
  5
548
330
545
100
AcDbEntity
  8
0
100
AcDbVertex
100
AcDb2dVertex
 10
39.177589
 20
273.059448
 30
0.0
  0
VERTEX
  5
549
330
545
100
AcDbEntity
  8
0
100
AcDbVertex
100
AcDb2dVertex
 10
39.158241
 20
272.950073
 30
0.0
  0
VERTEX
  5
54A
330
545
100
AcDbEntity
  8
0
100
AcDbVertex
100
AcDb2dVertex
 10
39.131046
 20
272.8349
 30
0.0
  0
VERTEX
  5
54B
330
545
100
AcDbEntity
  8
0
100
AcDbVertex
100
AcDb2dVertex
 10
39.095856
 20
272.713989
 30
0.0
  0
VERTEX
  5
54C
330
545
100
AcDbEntity
  8
0
100
AcDbVertex
100
AcDb2dVertex
 10
39.052399
 20
272.587341
 30
0.0
  0
VERTEX
  5
54D
330
545
100
AcDbEntity
  8
0
100
AcDbVertex
100
AcDb2dVertex
 10
39.000317
 20
272.454895
 30
0.0
  0
VERTEX
  5
54E
330
545
100
AcDbEntity
  8
0
100
AcDbVertex
100
AcDb2dVertex
 10
38.939087
 20
272.316406
 30
0.0
  0
VERTEX
  5
54F
330
545
100
AcDbEntity
  8
0
100
AcDbVertex
100
AcDb2dVertex
 10
38.868057
 20
272.171814
 30
0.0
  0
VERTEX
  5
550
330
545
100
AcDbEntity
  8
0
100
AcDbVertex
100
AcDb2dVertex
 10
38.786392
 20
272.020874
 30
0.0
  0
VERTEX
  5
551
330
545
100
AcDbEntity
  8
0
100
AcDbVertex
100
AcDb2dVertex
 10
38.693054
 20
271.863342
 30
0.0
  0
SEQEND
  5
552
330
545
100
AcDbEntity
  8
0
 62
     7
  0
LINE
  5
553
330
1F
100
AcDbEntity
  8
0
 62
     7
100
AcDbLine
 10
39.193054
 20
273.260193
 30
0.0
 11
39.193054
 21
276.849976
 31
0.0
  0
LINE
  5
554
330
1F
100
AcDbEntity
  8
0
 62
     7
100
AcDbLine
 10
40.293056
 20
273.75
 30
0.0
 11
40.293056
 21
276.849976
 31
0.0
  0
CIRCLE
  5
555
330
1F
100
AcDbEntity
  8
0
 62
     7
100
AcDbCircle
 10
47.793056
 20
253.350006
 30
0.0
 40
4.150000095367432
  0
ARC
  5
556
330
1F
100
AcDbEntity
  8
0
 62
     7
100
AcDbCircle
 10
47.793056
 20
253.350006
 30
0.0
 40
3.75
100
AcDbArc
 50
350.018317
 51
9.981683
  0
ARC
  5
557
330
1F
100
AcDbEntity
  8
0
 62
     7
100
AcDbCircle
 10
47.793056
 20
253.350006
 30
0.0
 40
3.75
100
AcDbArc
 50
189.981688
 51
350.018317
  0
ARC
  5
558
330
1F
100
AcDbEntity
  8
0
 62
     7
100
AcDbCircle
 10
47.793056
 20
253.350006
 30
0.0
 40
3.75
100
AcDbArc
 50
170.018312
 51
189.981688
  0
ARC
  5
559
330
1F
100
AcDbEntity
  8
0
 62
     7
100
AcDbCircle
 10
47.793056
 20
253.350006
 30
0.0
 40
3.75
100
AcDbArc
 50
9.981683
 51
170.018312
  0
LINE
  5
55A
330
1F
100
AcDbEntity
  8
0
 62
     7
100
AcDbLine
 10
51.283043
 20
252.699997
 30
0.0
 11
51.486298
 21
252.699997
 31
0.0
  0
LINE
  5
55B
330
1F
100
AcDbEntity
  8
0
 62
     7
100
AcDbLine
 10
44.30307
 20
252.699997
 30
0.0
 11
44.099819
 21
252.699997
 31
0.0
  0
LINE
  5
55C
330
1F
100
AcDbEntity
  8
0
 62
     7
100
AcDbLine
 10
51.283043
 20
252.699997
 30
0.0
 11
44.30307
 21
252.699997
 31
0.0
  0
ARC
  5
55D
330
1F
100
AcDbEntity
  8
0
 62
     7
100
AcDbCircle
 10
47.793056
 20
253.350006
 30
0.0
 40
3.549999952316284
100
AcDbArc
 50
190.550301
 51
349.44969
  0
LINE
  5
55E
330
1F
100
AcDbEntity
  8
0
 62
     7
100
AcDbLine
 10
44.30307
 20
254.000015
 30
0.0
 11
44.099819
 21
254.000015
 31
0.0
  0
LINE
  5
55F
330
1F
100
AcDbEntity
  8
0
 62
     7
100
AcDbLine
 10
51.283043
 20
254.000015
 30
0.0
 11
51.486298
 21
254.000015
 31
0.0
  0
LINE
  5
560
330
1F
100
AcDbEntity
  8
0
 62
     7
100
AcDbLine
 10
44.30307
 20
254.000015
 30
0.0
 11
51.283043
 21
254.000015
 31
0.0
  0
ARC
  5
561
330
1F
100
AcDbEntity
  8
0
 62
     7
100
AcDbCircle
 10
47.793056
 20
253.350006
 30
0.0
 40
3.549999952316284
100
AcDbArc
 50
10.550303
 51
169.449699
  0
LINE
  5
562
330
1F
100
AcDbEntity
  8
0
 62
     7
100
AcDbLine
 10
56.493057
 20
246.550003
 30
0.0
 11
56.54306
 21
246.550003
 31
0.0
  0
LINE
  5
563
330
1F
100
AcDbEntity
  8
0
 62
     7
100
AcDbLine
 10
56.493057
 20
246.550003
 30
0.0
 11
56.54306
 21
246.550003
 31
0.0
  0
LINE
  5
564
330
1F
100
AcDbEntity
  8
0
 62
     7
100
AcDbLine
 10
38.693054
 20
276.349976
 30
0.0
 11
39.193054
 21
276.849976
 31
0.0
  0
LINE
  5
565
330
1F
100
AcDbEntity
  8
0
 62
     7
100
AcDbLine
 10
39.193054
 20
276.849976
 30
0.0
 11
40.293056
 21
276.849976
 31
0.0
  0
ARC
  5
566
330
1F
100
AcDbEntity
  8
0
 62
     7
100
AcDbCircle
 10
47.493057
 20
228.150009
 30
0.0
 40
7.0
100
AcDbArc
 50
299.059263
 51
240.940746
  0
ARC
  5
567
330
1F
100
AcDbEntity
  8
0
 62
     7
100
AcDbCircle
 10
47.493057
 20
228.150009
 30
0.0
 40
6.900000095367432
100
AcDbArc
 50
299.52166
 51
240.478287
  0
LINE
  5
568
330
1F
100
AcDbEntity
  8
0
 62
     7
100
AcDbLine
 10
38.893059
 20
219.449997
 30
0.0
 11
38.893059
 21
242.550003
 31
0.0
  0
LINE
  5
569
330
1F
100
AcDbEntity
  8
0
 62
     7
100
AcDbLine
 10
38.893059
 20
242.550003
 30
0.0
 11
38.893059
 21
243.550003
 31
0.0
  0
LINE
  5
56A
330
1F
100
AcDbEntity
  8
0
 62
     7
100
AcDbLine
 10
56.093056
 20
242.550003
 30
0.0
 11
56.093056
 21
219.449997
 31
0.0
  0
LINE
  5
56B
330
1F
100
AcDbEntity
  8
0
 62
     7
100
AcDbLine
 10
56.093056
 20
242.550003
 30
0.0
 11
56.093056
 21
243.550003
 31
0.0
  0
LINE
  5
56C
330
1F
100
AcDbEntity
  8
0
 62
     7
100
AcDbLine
 10
39.393059
 20
242.550003
 30
0.0
 11
39.039505
 21
242.903549
 31
0.0
  0
ARC
  5
56D
330
1F
100
AcDbEntity
  8
0
 62
     7
100
AcDbCircle
 10
39.393059
 20
242.550003
 30
0.0
 40
0.5
100
AcDbArc
 50
90.000003
 51
180.000009
  0
ARC
  5
56E
330
1F
100
AcDbEntity
  8
0
 62
     7
100
AcDbCircle
 10
39.393059
 20
219.449997
 30
0.0
 40
0.5
100
AcDbArc
 50
180.000009
 51
270.000353
  0
ARC
  5
56F
330
1F
100
AcDbEntity
  8
0
 62
     7
100
AcDbCircle
 10
39.393059
 20
218.949997
 30
0.0
 40
0.5000079870223999
100
AcDbArc
 50
90.000289
 51
149.999055
  0
ARC
  5
570
330
1F
100
AcDbEntity
  8
0
 62
     7
100
AcDbCircle
 10
39.393059
 20
243.550003
 30
0.0
 40
0.5
100
AcDbArc
 50
90.000003
 51
180.000009
  0
LINE
  5
571
330
1F
100
AcDbEntity
  8
0
 62
     7
100
AcDbLine
 10
38.693054
 20
237.987701
 30
0.0
 11
38.693054
 21
238.950485
 31
0.0
  0
LINE
  5
572
330
1F
100
AcDbEntity
  8
0
 62
     7
100
AcDbLine
 10
38.693054
 20
237.987701
 30
0.0
 11
38.693054
 21
226.250015
 31
0.0
  0
LINE
  5
573
330
1F
100
AcDbEntity
  8
0
 62
     7
100
AcDbLine
 10
38.693054
 20
223.250015
 30
0.0
 11
38.693054
 21
226.250015
 31
0.0
  0
LINE
  5
574
330
1F
100
AcDbEntity
  8
0
 62
     7
100
AcDbLine
 10
38.693054
 20
223.250015
 30
0.0
 11
38.893059
 21
223.250015
 31
0.0
  0
LINE
  5
575
330
1F
100
AcDbEntity
  8
0
 62
     7
100
AcDbLine
 10
38.693054
 20
242.050003
 30
0.0
 11
38.893059
 21
242.050003
 31
0.0
  0
LINE
  5
576
330
1F
100
AcDbEntity
  8
0
 62
     7
100
AcDbLine
 10
38.693054
 20
241.185135
 30
0.0
 11
38.693054
 21
242.050003
 31
0.0
  0
LINE
  5
577
330
1F
100
AcDbEntity
  8
0
 62
     7
100
AcDbLine
 10
43.543373
 20
222.250015
 30
0.0
 11
43.726097
 21
222.250015
 31
0.0
  0
LINE
  5
578
330
1F
100
AcDbEntity
  8
0
 62
     7
100
AcDbLine
 10
51.26001
 20
222.250015
 30
0.0
 11
51.442741
 21
222.250015
 31
0.0
  0
ARC
  5
579
330
1F
100
AcDbEntity
  8
0
 62
     7
100
AcDbCircle
 10
55.593056
 20
219.449997
 30
0.0
 40
0.5
100
AcDbArc
 50
269.999997
 51
359.999901
  0
ARC
  5
57A
330
1F
100
AcDbEntity
  8
0
 62
     7
100
AcDbCircle
 10
55.593056
 20
242.550003
 30
0.0
 40
0.5
100
AcDbArc
 50
0.0
 51
90.000003
  0
LINE
  5
57B
330
1F
100
AcDbEntity
  8
0
 62
     7
100
AcDbLine
 10
55.593056
 20
242.550003
 30
0.0
 11
55.946609
 21
242.903549
 31
0.0
  0
ARC
  5
57C
330
1F
100
AcDbEntity
  8
0
 62
     7
100
AcDbCircle
 10
55.593056
 20
218.950012
 30
0.0
 40
0.4999969899654388
100
AcDbArc
 50
29.999605
 51
90.000201
  0
LINE
  5
57D
330
1F
100
AcDbEntity
  8
0
 62
     7
100
AcDbLine
 10
56.093056
 20
241.185135
 30
0.0
 11
56.093056
 21
238.950485
 31
0.0
  0
LINE
  5
57E
330
1F
100
AcDbEntity
  8
0
 62
     7
100
AcDbLine
 10
56.29306
 20
241.185135
 30
0.0
 11
56.29306
 21
242.050003
 31
0.0
  0
LINE
  5
57F
330
1F
100
AcDbEntity
  8
0
 62
     7
100
AcDbLine
 10
56.093056
 20
242.050003
 30
0.0
 11
56.29306
 21
242.050003
 31
0.0
  0
LINE
  5
580
330
1F
100
AcDbEntity
  8
0
 62
     7
100
AcDbLine
 10
56.093056
 20
223.250015
 30
0.0
 11
56.29306
 21
223.250015
 31
0.0
  0
LINE
  5
581
330
1F
100
AcDbEntity
  8
0
 62
     7
100
AcDbLine
 10
56.29306
 20
223.250015
 30
0.0
 11
56.29306
 21
226.250015
 31
0.0
  0
LINE
  5
582
330
1F
100
AcDbEntity
  8
0
 62
     7
100
AcDbLine
 10
56.29306
 20
237.987701
 30
0.0
 11
56.29306
 21
226.250015
 31
0.0
  0
LINE
  5
583
330
1F
100
AcDbEntity
  8
0
 62
     7
100
AcDbLine
 10
56.29306
 20
237.987701
 30
0.0
 11
56.29306
 21
238.950485
 31
0.0
  0
ARC
  5
584
330
1F
100
AcDbEntity
  8
0
 62
     7
100
AcDbCircle
 10
55.593056
 20
243.550003
 30
0.0
 40
0.5
100
AcDbArc
 50
0.0
 51
90.000003
  0
LINE
  5
585
330
1F
100
AcDbEntity
  8
0
 62
     7
100
AcDbLine
 10
39.393059
 20
219.449997
 30
0.0
 11
44.093006
 21
219.449997
 31
0.0
  0
LINE
  5
586
330
1F
100
AcDbEntity
  8
0
 62
     7
100
AcDbLine
 10
50.893005
 20
219.449997
 30
0.0
 11
55.593056
 21
219.449997
 31
0.0
  0
ARC
  5
587
330
1F
100
AcDbEntity
  8
0
 62
     7
100
AcDbCircle
 10
51.12796
 20
242.550003
 30
0.0
 40
0.5
100
AcDbArc
 50
90.000003
 51
218.583597
  0
ARC
  5
588
330
1F
100
AcDbEntity
  8
0
 62
     7
100
AcDbCircle
 10
47.493057
 20
239.650009
 30
0.0
 40
4.150000095367432
100
AcDbArc
 50
0.0
 51
38.583602
  0
LINE
  5
589
330
1F
100
AcDbEntity
  8
0
 62
     7
100
AcDbLine
 10
51.643059
 20
239.650009
 30
0.0
 11
51.643059
 21
238.650009
 31
0.0
  0
ARC
  5
58A
330
1F
100
AcDbEntity
  8
0
 62
     7
100
AcDbCircle
 10
47.493057
 20
238.650009
 30
0.0
 40
4.150000095367432
100
AcDbArc
 50
327.912246
 51
360.0
  0
POLYLINE
  5
58B
330
1F
100
AcDbEntity
  8
0
 62
     7
100
AcDb2dPolyline
 66
     1
 10
0.0
 20
0.0
 30
0.0
  0
VERTEX
  5
58C
330
58B
100
AcDbEntity
  8
0
100
AcDbVertex
100
AcDb2dVertex
 10
51.419899
 20
234.303833
 30
0.0
  0
VERTEX
  5
58D
330
58B
100
AcDbEntity
  8
0
100
AcDbVertex
100
AcDb2dVertex
 10
51.345604
 20
234.354691
 30
0.0
  0
VERTEX
  5
58E
330
58B
100
AcDbEntity
  8
0
100
AcDbVertex
100
AcDb2dVertex
 10
51.286224
 20
234.40062
 30
0.0
  0
VERTEX
  5
58F
330
58B
100
AcDbEntity
  8
0
100
AcDbVertex
100
AcDb2dVertex
 10
51.229462
 20
234.44957
 30
0.0
  0
VERTEX
  5
590
330
58B
100
AcDbEntity
  8
0
100
AcDbVertex
100
AcDb2dVertex
 10
51.154816
 20
234.522675
 30
0.0
  0
VERTEX
  5
591
330
58B
100
AcDbEntity
  8
0
100
AcDbVertex
100
AcDb2dVertex
 10
51.085899
 20
234.600876
 30
0.0
  0
VERTEX
  5
592
330
58B
100
AcDbEntity
  8
0
100
AcDbVertex
100
AcDb2dVertex
 10
51.023041
 20
234.68364
 30
0.0
  0
VERTEX
  5
593
330
58B
100
AcDbEntity
  8
0
100
AcDbVertex
100
AcDb2dVertex
 10
50.966499
 20
234.770401
 30
0.0
  0
VERTEX
  5
594
330
58B
100
AcDbEntity
  8
0
100
AcDbVertex
100
AcDb2dVertex
 10
50.916458
 20
234.860565
 30
0.0
  0
VERTEX
  5
595
330
58B
100
AcDbEntity
  8
0
100
AcDbVertex
100
AcDb2dVertex
 10
50.873032
 20
234.953598
 30
0.0
  0
VERTEX
  5
596
330
58B
100
AcDbEntity
  8
0
100
AcDbVertex
100
AcDb2dVertex
 10
50.836288
 20
235.04895
 30
0.0
  0
VERTEX
  5
597
330
58B
100
AcDbEntity
  8
0
100
AcDbVertex
100
AcDb2dVertex
 10
50.805145
 20
235.150024
 30
0.0
  0
VERTEX
  5
598
330
58B
100
AcDbEntity
  8
0
100
AcDbVertex
100
AcDb2dVertex
 10
50.781189
 20
235.252487
 30
0.0
  0
VERTEX
  5
599
330
58B
100
AcDbEntity
  8
0
100
AcDbVertex
100
AcDb2dVertex
 10
50.76432
 20
235.35582
 30
0.0
  0
VERTEX
  5
59A
330
58B
100
AcDbEntity
  8
0
100
AcDbVertex
100
AcDb2dVertex
 10
50.754417
 20
235.459503
 30
0.0
  0
VERTEX
  5
59B
330
58B
100
AcDbEntity
  8
0
100
AcDbVertex
100
AcDb2dVertex
 10
50.751335
 20
235.563126
 30
0.0
  0
VERTEX
  5
59C
330
58B
100
AcDbEntity
  8
0
100
AcDbVertex
100
AcDb2dVertex
 10
50.754913
 20
235.666229
 30
0.0
  0
VERTEX
  5
59D
330
58B
100
AcDbEntity
  8
0
100
AcDbVertex
100
AcDb2dVertex
 10
50.764961
 20
235.768463
 30
0.0
  0
VERTEX
  5
59E
330
58B
100
AcDbEntity
  8
0
100
AcDbVertex
100
AcDb2dVertex
 10
50.781715
 20
235.871567
 30
0.0
  0
VERTEX
  5
59F
330
58B
100
AcDbEntity
  8
0
100
AcDbVertex
100
AcDb2dVertex
 10
50.804825
 20
235.973038
 30
0.0
  0
VERTEX
  5
5A0
330
58B
100
AcDbEntity
  8
0
100
AcDbVertex
100
AcDb2dVertex
 10
50.834114
 20
236.072586
 30
0.0
  0
VERTEX
  5
5A1
330
58B
100
AcDbEntity
  8
0
100
AcDbVertex
100
AcDb2dVertex
 10
50.86937
 20
236.169891
 30
0.0
  0
VERTEX
  5
5A2
330
58B
100
AcDbEntity
  8
0
100
AcDbVertex
100
AcDb2dVertex
 10
50.910408
 20
236.264664
 30
0.0
  0
VERTEX
  5
5A3
330
58B
100
AcDbEntity
  8
0
100
AcDbVertex
100
AcDb2dVertex
 10
50.957039
 20
236.356598
 30
0.0
  0
VERTEX
  5
5A4
330
58B
100
AcDbEntity
  8
0
100
AcDbVertex
100
AcDb2dVertex
 10
51.009087
 20
236.44545
 30
0.0
  0
SEQEND
  5
5A5
330
58B
100
AcDbEntity
  8
0
 62
     7
  0
ARC
  5
5A6
330
1F
100
AcDbEntity
  8
0
 62
     7
100
AcDbCircle
 10
47.493057
 20
228.150009
 30
0.0
 40
7.300000190734863
100
AcDbArc
 50
297.758952
 51
57.457471
  0
LINE
  5
5A7
330
1F
100
AcDbEntity
  8
0
 62
     7
100
AcDbLine
 10
43.993248
 20
221.743652
 30
0.0
 11
44.09306
 21
221.690125
 31
0.0
  0
ARC
  5
5A8
330
1F
100
AcDbEntity
  8
0
 62
     7
100
AcDbCircle
 10
47.493057
 20
228.150009
 30
0.0
 40
7.300000190734863
100
AcDbArc
 50
122.542528
 51
241.352115
  0
POLYLINE
  5
5A9
330
1F
100
AcDbEntity
  8
0
 62
     7
100
AcDb2dPolyline
 66
     1
 10
0.0
 20
0.0
 30
0.0
  0
VERTEX
  5
5AA
330
5A9
100
AcDbEntity
  8
0
100
AcDbVertex
100
AcDb2dVertex
 10
43.5662
 20
234.303848
 30
0.0
  0
VERTEX
  5
5AB
330
5A9
100
AcDbEntity
  8
0
100
AcDbVertex
100
AcDb2dVertex
 10
43.645699
 20
234.35849
 30
0.0
  0
VERTEX
  5
5AC
330
5A9
100
AcDbEntity
  8
0
100
AcDbVertex
100
AcDb2dVertex
 10
43.721237
 20
234.418411
 30
0.0
  0
VERTEX
  5
5AD
330
5A9
100
AcDbEntity
  8
0
100
AcDbVertex
100
AcDb2dVertex
 10
43.792442
 20
234.483276
 30
0.0
  0
VERTEX
  5
5AE
330
5A9
100
AcDbEntity
  8
0
100
AcDbVertex
100
AcDb2dVertex
 10
43.858963
 20
234.552704
 30
0.0
  0
VERTEX
  5
5AF
330
5A9
100
AcDbEntity
  8
0
100
AcDbVertex
100
AcDb2dVertex
 10
43.920509
 20
234.626266
 30
0.0
  0
VERTEX
  5
5B0
330
5A9
100
AcDbEntity
  8
0
100
AcDbVertex
100
AcDb2dVertex
 10
43.982075
 20
234.711319
 30
0.0
  0
VERTEX
  5
5B1
330
5A9
100
AcDbEntity
  8
0
100
AcDbVertex
100
AcDb2dVertex
 10
44.037117
 20
234.800247
 30
0.0
  0
VERTEX
  5
5B2
330
5A9
100
AcDbEntity
  8
0
100
AcDbVertex
100
AcDb2dVertex
 10
44.085457
 20
234.892502
 30
0.0
  0
VERTEX
  5
5B3
330
5A9
100
AcDbEntity
  8
0
100
AcDbVertex
100
AcDb2dVertex
 10
44.127003
 20
234.987503
 30
0.0
  0
VERTEX
  5
5B4
330
5A9
100
AcDbEntity
  8
0
100
AcDbVertex
100
AcDb2dVertex
 10
44.161713
 20
235.084656
 30
0.0
  0
VERTEX
  5
5B5
330
5A9
100
AcDbEntity
  8
0
100
AcDbVertex
100
AcDb2dVertex
 10
44.189594
 20
235.183426
 30
0.0
  0
VERTEX
  5
5B6
330
5A9
100
AcDbEntity
  8
0
100
AcDbVertex
100
AcDb2dVertex
 10
44.210716
 20
235.28334
 30
0.0
  0
VERTEX
  5
5B7
330
5A9
100
AcDbEntity
  8
0
100
AcDbVertex
100
AcDb2dVertex
 10
44.225632
 20
235.388199
 30
0.0
  0
VERTEX
  5
5B8
330
5A9
100
AcDbEntity
  8
0
100
AcDbVertex
100
AcDb2dVertex
 10
44.23344
 20
235.493286
 30
0.0
  0
VERTEX
  5
5B9
330
5A9
100
AcDbEntity
  8
0
100
AcDbVertex
100
AcDb2dVertex
 10
44.234299
 20
235.59816
 30
0.0
  0
VERTEX
  5
5BA
330
5A9
100
AcDbEntity
  8
0
100
AcDbVertex
100
AcDb2dVertex
 10
44.228386
 20
235.702408
 30
0.0
  0
VERTEX
  5
5BB
330
5A9
100
AcDbEntity
  8
0
100
AcDbVertex
100
AcDb2dVertex
 10
44.215881
 20
235.805618
 30
0.0
  0
VERTEX
  5
5BC
330
5A9
100
AcDbEntity
  8
0
100
AcDbVertex
100
AcDb2dVertex
 10
44.196987
 20
235.907455
 30
0.0
  0
VERTEX
  5
5BD
330
5A9
100
AcDbEntity
  8
0
100
AcDbVertex
100
AcDb2dVertex
 10
44.17189
 20
236.007553
 30
0.0
  0
VERTEX
  5
5BE
330
5A9
100
AcDbEntity
  8
0
100
AcDbVertex
100
AcDb2dVertex
 10
44.142879
 20
236.099625
 30
0.0
  0
VERTEX
  5
5BF
330
5A9
100
AcDbEntity
  8
0
100
AcDbVertex
100
AcDb2dVertex
 10
44.108734
 20
236.189682
 30
0.0
  0
VERTEX
  5
5C0
330
5A9
100
AcDbEntity
  8
0
100
AcDbVertex
100
AcDb2dVertex
 10
44.069611
 20
236.277481
 30
0.0
  0
VERTEX
  5
5C1
330
5A9
100
AcDbEntity
  8
0
100
AcDbVertex
100
AcDb2dVertex
 10
44.025661
 20
236.362808
 30
0.0
  0
VERTEX
  5
5C2
330
5A9
100
AcDbEntity
  8
0
100
AcDbVertex
100
AcDb2dVertex
 10
43.977028
 20
236.44545
 30
0.0
  0
SEQEND
  5
5C3
330
5A9
100
AcDbEntity
  8
0
 62
     7
  0
ARC
  5
5C4
330
1F
100
AcDbEntity
  8
0
 62
     7
100
AcDbCircle
 10
47.493057
 20
238.650009
 30
0.0
 40
4.150000095367432
100
AcDbArc
 50
180.000009
 51
212.087746
  0
LINE
  5
5C5
330
1F
100
AcDbEntity
  8
0
 62
     7
100
AcDbLine
 10
43.343056
 20
239.650009
 30
0.0
 11
43.343056
 21
238.650009
 31
0.0
  0
ARC
  5
5C6
330
1F
100
AcDbEntity
  8
0
 62
     7
100
AcDbCircle
 10
47.493057
 20
239.650009
 30
0.0
 40
4.150000095367432
100
AcDbArc
 50
141.416403
 51
180.000009
  0
ARC
  5
5C7
330
1F
100
AcDbEntity
  8
0
 62
     7
100
AcDbCircle
 10
43.858154
 20
242.550003
 30
0.0
 40
0.5
100
AcDbArc
 50
321.416408
 51
90.000003
  0
LINE
  5
5C8
330
1F
100
AcDbEntity
  8
0
 62
     7
100
AcDbLine
 10
41.643059
 20
235.350006
 30
0.0
 11
41.243057
 21
235.350006
 31
0.0
  0
ARC
  5
5C9
330
1F
100
AcDbEntity
  8
0
 62
     7
100
AcDbCircle
 10
41.243057
 20
236.699997
 30
0.0
 40
1.350000023841858
100
AcDbArc
 50
90.000003
 51
269.99997
  0
LINE
  5
5CA
330
1F
100
AcDbEntity
  8
0
 62
     7
100
AcDbLine
 10
41.243057
 20
238.050003
 30
0.0
 11
41.643059
 21
238.050003
 31
0.0
  0
ARC
  5
5CB
330
1F
100
AcDbEntity
  8
0
 62
     7
100
AcDbCircle
 10
41.643059
 20
236.699997
 30
0.0
 40
1.350000023841858
100
AcDbArc
 50
269.999997
 51
89.999989
  0
CIRCLE
  5
5CC
330
1F
100
AcDbEntity
  8
0
 62
     7
100
AcDbCircle
 10
53.54306
 20
236.699997
 30
0.0
 40
1.350000023841858
  0
LINE
  5
5CD
330
1F
100
AcDbEntity
  8
0
 62
     7
100
AcDbLine
 10
39.393059
 20
243.050003
 30
0.0
 11
43.858154
 21
243.050003
 31
0.0
  0
LINE
  5
5CE
330
1F
100
AcDbEntity
  8
0
 62
     7
100
AcDbLine
 10
39.393059
 20
218.949997
 30
0.0
 11
44.093006
 21
218.949997
 31
0.0
  0
LINE
  5
5CF
330
1F
100
AcDbEntity
  8
0
 62
     7
100
AcDbLine
 10
50.893005
 20
218.949997
 30
0.0
 11
55.593056
 21
218.949997
 31
0.0
  0
LINE
  5
5D0
330
1F
100
AcDbEntity
  8
0
 62
     7
100
AcDbLine
 10
45.911125
 20
243.050003
 30
0.0
 11
44.183975
 21
243.050003
 31
0.0
  0
LINE
  5
5D1
330
1F
100
AcDbEntity
  8
0
 62
     7
100
AcDbLine
 10
50.802132
 20
243.050003
 30
0.0
 11
49.074989
 21
243.050003
 31
0.0
  0
LINE
  5
5D2
330
1F
100
AcDbEntity
  8
0
 62
     7
100
AcDbLine
 10
50.802132
 20
243.050003
 30
0.0
 11
51.12796
 21
243.050003
 31
0.0
  0
LINE
  5
5D3
330
1F
100
AcDbEntity
  8
0
 62
     7
100
AcDbLine
 10
51.12796
 20
243.050003
 30
0.0
 11
55.593056
 21
243.050003
 31
0.0
  0
LINE
  5
5D4
330
1F
100
AcDbEntity
  8
0
 62
     7
100
AcDbLine
 10
43.858154
 20
243.050003
 30
0.0
 11
44.183975
 21
243.050003
 31
0.0
  0
LINE
  5
5D5
330
1F
100
AcDbEntity
  8
0
 62
     7
100
AcDbLine
 10
39.393059
 20
244.050003
 30
0.0
 11
55.593056
 21
244.050003
 31
0.0
  0
LINE
  5
5D6
330
1F
100
AcDbEntity
  8
0
 62
     7
100
AcDbLine
 10
38.693054
 20
238.950485
 30
0.0
 11
38.693054
 21
241.185135
 31
0.0
  0
LINE
  5
5D7
330
1F
100
AcDbEntity
  8
0
 62
     7
100
AcDbLine
 10
56.29306
 20
238.950485
 30
0.0
 11
56.29306
 21
241.185135
 31
0.0
  0
LINE
  5
5D8
330
1F
100
AcDbEntity
  8
0
 62
     7
100
AcDbLine
 10
50.951118
 20
236.355591
 30
0.0
 11
51.009087
 21
236.44545
 31
0.0
  0
POLYLINE
  5
5D9
330
1F
100
AcDbEntity
  8
0
 62
     7
100
AcDb2dPolyline
 66
     1
 10
0.0
 20
0.0
 30
0.0
  0
VERTEX
  5
5DA
330
5D9
100
AcDbEntity
  8
0
100
AcDbVertex
100
AcDb2dVertex
 10
50.951118
 20
236.355591
 30
0.0
  0
VERTEX
  5
5DB
330
5D9
100
AcDbEntity
  8
0
100
AcDbVertex
100
AcDb2dVertex
 10
50.895393
 20
236.265671
 30
0.0
  0
VERTEX
  5
5DC
330
5D9
100
AcDbEntity
  8
0
100
AcDbVertex
100
AcDb2dVertex
 10
50.845299
 20
236.172363
 30
0.0
  0
VERTEX
  5
5DD
330
5D9
100
AcDbEntity
  8
0
100
AcDbVertex
100
AcDb2dVertex
 10
50.801041
 20
236.075943
 30
0.0
  0
VERTEX
  5
5DE
330
5D9
100
AcDbEntity
  8
0
100
AcDbVertex
100
AcDb2dVertex
 10
50.762825
 20
235.9767
 30
0.0
  0
VERTEX
  5
5DF
330
5D9
100
AcDbEntity
  8
0
100
AcDbVertex
100
AcDb2dVertex
 10
50.730881
 20
235.874969
 30
0.0
  0
VERTEX
  5
5E0
330
5D9
100
AcDbEntity
  8
0
100
AcDbVertex
100
AcDb2dVertex
 10
50.705414
 20
235.771072
 30
0.0
  0
VERTEX
  5
5E1
330
5D9
100
AcDbEntity
  8
0
100
AcDbVertex
100
AcDb2dVertex
 10
50.686653
 20
235.665359
 30
0.0
  0
VERTEX
  5
5E2
330
5D9
100
AcDbEntity
  8
0
100
AcDbVertex
100
AcDb2dVertex
 10
50.67498
 20
235.560333
 30
0.0
  0
VERTEX
  5
5E3
330
5D9
100
AcDbEntity
  8
0
100
AcDbVertex
100
AcDb2dVertex
 10
50.670166
 20
235.454285
 30
0.0
  0
VERTEX
  5
5E4
330
5D9
100
AcDbEntity
  8
0
100
AcDbVertex
100
AcDb2dVertex
 10
50.672417
 20
235.34761
 30
0.0
  0
VERTEX
  5
5E5
330
5D9
100
AcDbEntity
  8
0
100
AcDbVertex
100
AcDb2dVertex
 10
50.681923
 20
235.240784
 30
0.0
  0
VERTEX
  5
5E6
330
5D9
100
AcDbEntity
  8
0
100
AcDbVertex
100
AcDb2dVertex
 10
50.698845
 20
235.134323
 30
0.0
  0
VERTEX
  5
5E7
330
5D9
100
AcDbEntity
  8
0
100
AcDbVertex
100
AcDb2dVertex
 10
50.72332
 20
235.028732
 30
0.0
  0
VERTEX
  5
5E8
330
5D9
100
AcDbEntity
  8
0
100
AcDbVertex
100
AcDb2dVertex
 10
50.755455
 20
234.924622
 30
0.0
  0
VERTEX
  5
5E9
330
5D9
100
AcDbEntity
  8
0
100
AcDbVertex
100
AcDb2dVertex
 10
50.79348
 20
234.826797
 30
0.0
  0
VERTEX
  5
5EA
330
5D9
100
AcDbEntity
  8
0
100
AcDbVertex
100
AcDb2dVertex
 10
50.838562
 20
234.731476
 30
0.0
  0
VERTEX
  5
5EB
330
5D9
100
AcDbEntity
  8
0
100
AcDbVertex
100
AcDb2dVertex
 10
50.89064
 20
234.639236
 30
0.0
  0
VERTEX
  5
5EC
330
5D9
100
AcDbEntity
  8
0
100
AcDbVertex
100
AcDb2dVertex
 10
50.949562
 20
234.550705
 30
0.0
  0
VERTEX
  5
5ED
330
5D9
100
AcDbEntity
  8
0
100
AcDbVertex
100
AcDb2dVertex
 10
50.981529
 20
234.508026
 30
0.0
  0
VERTEX
  5
5EE
330
5D9
100
AcDbEntity
  8
0
100
AcDbVertex
100
AcDb2dVertex
 10
51.015114
 20
234.466507
 30
0.0
  0
VERTEX
  5
5EF
330
5D9
100
AcDbEntity
  8
0
100
AcDbVertex
100
AcDb2dVertex
 10
51.062347
 20
234.413055
 30
0.0
  0
VERTEX
  5
5F0
330
5D9
100
AcDbEntity
  8
0
100
AcDbVertex
100
AcDb2dVertex
 10
51.112289
 20
234.361984
 30
0.0
  0
VERTEX
  5
5F1
330
5D9
100
AcDbEntity
  8
0
100
AcDbVertex
100
AcDb2dVertex
 10
51.164803
 20
234.313446
 30
0.0
  0
VERTEX
  5
5F2
330
5D9
100
AcDbEntity
  8
0
100
AcDbVertex
100
AcDb2dVertex
 10
51.220161
 20
234.267258
 30
0.0
  0
VERTEX
  5
5F3
330
5D9
100
AcDbEntity
  8
0
100
AcDbVertex
100
AcDb2dVertex
 10
51.277885
 20
234.223907
 30
0.0
  0
VERTEX
  5
5F4
330
5D9
100
AcDbEntity
  8
0
100
AcDbVertex
100
AcDb2dVertex
 10
51.3377
 20
234.183609
 30
0.0
  0
SEQEND
  5
5F5
330
5D9
100
AcDbEntity
  8
0
 62
     7
  0
ARC
  5
5F6
330
1F
100
AcDbEntity
  8
0
 62
     7
100
AcDbCircle
 10
47.493057
 20
228.150009
 30
0.0
 40
7.099999904632568
100
AcDbArc
 50
298.611797
 51
241.352115
  0
ARC
  5
5F7
330
1F
100
AcDbEntity
  8
0
 62
     7
100
AcDbCircle
 10
47.492821
 20
228.149612
 30
0.0
 40
7.154872894287109
100
AcDbArc
 50
57.494627
 51
61.351983
  0
ARC
  5
5F8
330
1F
100
AcDbEntity
  8
0
 62
     7
100
AcDbCircle
 10
47.493065
 20
228.149994
 30
0.0
 40
7.154425144195557
100
AcDbArc
 50
61.352113
 51
122.505467
  0
POLYLINE
  5
5F9
330
1F
100
AcDbEntity
  8
0
 62
     7
100
AcDb2dPolyline
 66
     1
 10
0.0
 20
0.0
 30
0.0
  0
VERTEX
  5
5FA
330
5F9
100
AcDbEntity
  8
0
100
AcDbVertex
100
AcDb2dVertex
 10
44.034996
 20
236.355591
 30
0.0
  0
VERTEX
  5
5FB
330
5F9
100
AcDbEntity
  8
0
100
AcDbVertex
100
AcDb2dVertex
 10
44.090721
 20
236.265671
 30
0.0
  0
VERTEX
  5
5FC
330
5F9
100
AcDbEntity
  8
0
100
AcDbVertex
100
AcDb2dVertex
 10
44.140816
 20
236.172363
 30
0.0
  0
VERTEX
  5
5FD
330
5F9
100
AcDbEntity
  8
0
100
AcDbVertex
100
AcDb2dVertex
 10
44.185074
 20
236.075943
 30
0.0
  0
VERTEX
  5
5FE
330
5F9
100
AcDbEntity
  8
0
100
AcDbVertex
100
AcDb2dVertex
 10
44.223286
 20
235.9767
 30
0.0
  0
VERTEX
  5
5FF
330
5F9
100
AcDbEntity
  8
0
100
AcDbVertex
100
AcDb2dVertex
 10
44.255234
 20
235.874969
 30
0.0
  0
VERTEX
  5
600
330
5F9
100
AcDbEntity
  8
0
100
AcDbVertex
100
AcDb2dVertex
 10
44.280701
 20
235.771072
 30
0.0
  0
VERTEX
  5
601
330
5F9
100
AcDbEntity
  8
0
100
AcDbVertex
100
AcDb2dVertex
 10
44.299461
 20
235.665359
 30
0.0
  0
VERTEX
  5
602
330
5F9
100
AcDbEntity
  8
0
100
AcDbVertex
100
AcDb2dVertex
 10
44.311134
 20
235.560333
 30
0.0
  0
VERTEX
  5
603
330
5F9
100
AcDbEntity
  8
0
100
AcDbVertex
100
AcDb2dVertex
 10
44.315945
 20
235.454285
 30
0.0
  0
VERTEX
  5
604
330
5F9
100
AcDbEntity
  8
0
100
AcDbVertex
100
AcDb2dVertex
 10
44.313694
 20
235.34761
 30
0.0
  0
VERTEX
  5
605
330
5F9
100
AcDbEntity
  8
0
100
AcDbVertex
100
AcDb2dVertex
 10
44.304192
 20
235.240784
 30
0.0
  0
VERTEX
  5
606
330
5F9
100
AcDbEntity
  8
0
100
AcDbVertex
100
AcDb2dVertex
 10
44.28727
 20
235.134323
 30
0.0
  0
VERTEX
  5
607
330
5F9
100
AcDbEntity
  8
0
100
AcDbVertex
100
AcDb2dVertex
 10
44.262791
 20
235.028732
 30
0.0
  0
VERTEX
  5
608
330
5F9
100
AcDbEntity
  8
0
100
AcDbVertex
100
AcDb2dVertex
 10
44.230656
 20
234.924622
 30
0.0
  0
VERTEX
  5
609
330
5F9
100
AcDbEntity
  8
0
100
AcDbVertex
100
AcDb2dVertex
 10
44.192635
 20
234.826797
 30
0.0
  0
VERTEX
  5
60A
330
5F9
100
AcDbEntity
  8
0
100
AcDbVertex
100
AcDb2dVertex
 10
44.147552
 20
234.731476
 30
0.0
  0
VERTEX
  5
60B
330
5F9
100
AcDbEntity
  8
0
100
AcDbVertex
100
AcDb2dVertex
 10
44.095474
 20
234.639236
 30
0.0
  0
VERTEX
  5
60C
330
5F9
100
AcDbEntity
  8
0
100
AcDbVertex
100
AcDb2dVertex
 10
44.036549
 20
234.550705
 30
0.0
  0
VERTEX
  5
60D
330
5F9
100
AcDbEntity
  8
0
100
AcDbVertex
100
AcDb2dVertex
 10
44.004585
 20
234.508026
 30
0.0
  0
VERTEX
  5
60E
330
5F9
100
AcDbEntity
  8
0
100
AcDbVertex
100
AcDb2dVertex
 10
43.971001
 20
234.466507
 30
0.0
  0
VERTEX
  5
60F
330
5F9
100
AcDbEntity
  8
0
100
AcDbVertex
100
AcDb2dVertex
 10
43.923767
 20
234.413055
 30
0.0
  0
VERTEX
  5
610
330
5F9
100
AcDbEntity
  8
0
100
AcDbVertex
100
AcDb2dVertex
 10
43.873825
 20
234.361984
 30
0.0
  0
VERTEX
  5
611
330
5F9
100
AcDbEntity
  8
0
100
AcDbVertex
100
AcDb2dVertex
 10
43.821312
 20
234.313446
 30
0.0
  0
VERTEX
  5
612
330
5F9
100
AcDbEntity
  8
0
100
AcDbVertex
100
AcDb2dVertex
 10
43.765953
 20
234.267258
 30
0.0
  0
VERTEX
  5
613
330
5F9
100
AcDbEntity
  8
0
100
AcDbVertex
100
AcDb2dVertex
 10
43.708225
 20
234.223907
 30
0.0
  0
VERTEX
  5
614
330
5F9
100
AcDbEntity
  8
0
100
AcDbVertex
100
AcDb2dVertex
 10
43.648415
 20
234.183609
 30
0.0
  0
SEQEND
  5
615
330
5F9
100
AcDbEntity
  8
0
 62
     7
  0
LINE
  5
616
330
1F
100
AcDbEntity
  8
0
 62
     7
100
AcDbLine
 10
43.977028
 20
236.44545
 30
0.0
 11
44.034996
 21
236.355591
 31
0.0
  0
LINE
  5
617
330
1F
100
AcDbEntity
  8
0
 62
     7
100
AcDbLine
 10
41.643059
 20
235.449997
 30
0.0
 11
41.243057
 21
235.449997
 31
0.0
  0
ARC
  5
618
330
1F
100
AcDbEntity
  8
0
 62
     7
100
AcDbCircle
 10
41.243057
 20
236.699997
 30
0.0
 40
1.25
100
AcDbArc
 50
90.000003
 51
269.999997
  0
LINE
  5
619
330
1F
100
AcDbEntity
  8
0
 62
     7
100
AcDbLine
 10
41.243057
 20
237.949997
 30
0.0
 11
41.643059
 21
237.949997
 31
0.0
  0
ARC
  5
61A
330
1F
100
AcDbEntity
  8
0
 62
     7
100
AcDbCircle
 10
41.643059
 20
236.699997
 30
0.0
 40
1.25
100
AcDbArc
 50
269.999997
 51
90.000003
  0
CIRCLE
  5
61B
330
1F
100
AcDbEntity
  8
0
 62
     7
100
AcDbCircle
 10
53.54306
 20
236.699997
 30
0.0
 40
1.25
  0
ARC
  5
61C
330
1F
100
AcDbEntity
  8
0
 62
     7
100
AcDbCircle
 10
50.802132
 20
242.550003
 30
0.0
 40
0.5
100
AcDbArc
 50
90.000003
 51
221.230582
  0
ARC
  5
61D
330
1F
100
AcDbEntity
  8
0
 62
     7
100
AcDbCircle
 10
44.183975
 20
242.550003
 30
0.0
 40
0.5
100
AcDbArc
 50
318.769437
 51
90.000003
  0
LINE
  5
61E
330
1F
100
AcDbEntity
  8
0
 62
     7
100
AcDbLine
 10
43.393059
 20
245.050003
 30
0.0
 11
43.393059
 21
244.050018
 31
0.0
  0
ARC
  5
61F
330
1F
100
AcDbEntity
  8
0
 62
     7
100
AcDbCircle
 10
41.693054
 20
244.550003
 30
0.0
 40
1.5
100
AcDbArc
 50
340.529081
 51
360.0
  0
LINE
  5
620
330
1F
100
AcDbEntity
  8
0
 62
     7
100
AcDbLine
 10
42.693054
 20
245.050003
 30
0.0
 11
42.693054
 21
245.150009
 31
0.0
  0
ARC
  5
621
330
1F
100
AcDbEntity
  8
0
 62
     7
100
AcDbCircle
 10
41.693054
 20
245.050003
 30
0.0
 40
1.0
100
AcDbArc
 50
269.999997
 51
360.0
  0
LINE
  5
622
330
1F
100
AcDbEntity
  8
0
 62
     7
100
AcDbLine
 10
43.193054
 20
245.150009
 30
0.0
 11
43.193054
 21
244.550003
 31
0.0
  0
LINE
  5
623
330
1F
100
AcDbEntity
  8
0
 62
     7
100
AcDbLine
 10
51.593056
 20
245.150009
 30
0.0
 11
51.593056
 21
245.049957
 31
0.0
  0
LINE
  5
624
330
1F
100
AcDbEntity
  8
0
 62
     7
100
AcDbLine
 10
51.79306
 20
245.150009
 30
0.0
 11
51.79306
 21
244.550003
 31
0.0
  0
ARC
  5
625
330
1F
100
AcDbEntity
  8
0
 62
     7
100
AcDbCircle
 10
53.29306
 20
244.550003
 30
0.0
 40
1.5
100
AcDbArc
 50
180.000009
 51
199.470938
  0
ARC
  5
626
330
1F
100
AcDbEntity
  8
0
 62
     7
100
AcDbCircle
 10
53.29306
 20
245.050003
 30
0.0
 40
1.0
100
AcDbArc
 50
180.000009
 51
269.999997
  0
LINE
  5
627
330
1F
100
AcDbEntity
  8
0
 62
     7
100
AcDbLine
 10
52.29306
 20
245.050003
 30
0.0
 11
52.29306
 21
245.150009
 31
0.0
  0
ARC
  5
628
330
1F
100
AcDbEntity
  8
0
 62
     7
100
AcDbCircle
 10
47.493057
 20
239.650009
 30
0.0
 40
3.900000095367432
100
AcDbArc
 50
138.769418
 51
41.230577
  0
LINE
  5
629
330
1F
100
AcDbEntity
  8
0
 62
     7
100
AcDbLine
 10
51.593056
 20
244.050018
 30
0.0
 11
51.593056
 21
245.050003
 31
0.0
  0
LINE
  5
62A
330
1F
100
AcDbEntity
  8
0
 62
     7
100
AcDbLine
 10
43.393059
 20
245.050003
 30
0.0
 11
43.393059
 21
245.150085
 31
0.0
  0
ARC
  5
62B
330
1F
100
AcDbEntity
  8
0
 62
     7
100
AcDbCircle
 10
51.093056
 20
245.050003
 30
0.0
 40
0.5
100
AcDbArc
 50
0.0
 51
11.538233
  0
ARC
  5
62C
330
1F
100
AcDbEntity
  8
0
 62
     7
100
AcDbCircle
 10
47.493057
 20
239.650009
 30
0.0
 40
3.75
100
AcDbArc
 50
80.018316
 51
99.981682
  0
ARC
  5
62D
330
1F
100
AcDbEntity
  8
0
 62
     7
100
AcDbCircle
 10
47.493057
 20
239.650009
 30
0.0
 40
3.75
100
AcDbArc
 50
279.981697
 51
80.018316
  0
ARC
  5
62E
330
1F
100
AcDbEntity
  8
0
 62
     7
100
AcDbCircle
 10
47.493057
 20
239.650009
 30
0.0
 40
3.75
100
AcDbArc
 50
260.018304
 51
279.981697
  0
ARC
  5
62F
330
1F
100
AcDbEntity
  8
0
 62
     7
100
AcDbCircle
 10
47.493057
 20
239.650009
 30
0.0
 40
3.75
100
AcDbArc
 50
99.981682
 51
260.018304
  0
LINE
  5
630
330
1F
100
AcDbEntity
  8
0
 62
     7
100
AcDbLine
 10
48.143059
 20
243.139999
 30
0.0
 11
48.143059
 21
243.343246
 31
0.0
  0
LINE
  5
631
330
1F
100
AcDbEntity
  8
0
 62
     7
100
AcDbLine
 10
48.143059
 20
236.160019
 30
0.0
 11
48.143059
 21
235.956772
 31
0.0
  0
LINE
  5
632
330
1F
100
AcDbEntity
  8
0
 62
     7
100
AcDbLine
 10
48.143059
 20
243.139999
 30
0.0
 11
48.143059
 21
236.160019
 31
0.0
  0
ARC
  5
633
330
1F
100
AcDbEntity
  8
0
 62
     7
100
AcDbCircle
 10
47.493057
 20
239.650009
 30
0.0
 40
3.549999952316284
100
AcDbArc
 50
280.55029
 51
79.449696
  0
LINE
  5
634
330
1F
100
AcDbEntity
  8
0
 62
     7
100
AcDbLine
 10
46.843056
 20
236.160019
 30
0.0
 11
46.843056
 21
235.956772
 31
0.0
  0
LINE
  5
635
330
1F
100
AcDbEntity
  8
0
 62
     7
100
AcDbLine
 10
46.843056
 20
243.139999
 30
0.0
 11
46.843056
 21
243.343246
 31
0.0
  0
LINE
  5
636
330
1F
100
AcDbEntity
  8
0
 62
     7
100
AcDbLine
 10
46.843056
 20
236.160019
 30
0.0
 11
46.843056
 21
243.139999
 31
0.0
  0
ARC
  5
637
330
1F
100
AcDbEntity
  8
0
 62
     7
100
AcDbCircle
 10
47.493057
 20
239.650009
 30
0.0
 40
3.549999952316284
100
AcDbArc
 50
100.550302
 51
259.449705
  0
LINE
  5
638
330
1F
100
AcDbEntity
  8
0
 62
     7
100
AcDbLine
 10
44.093056
 20
153.150009
 30
0.0
 11
44.093056
 21
228.150009
 31
0.0
  0
ARC
  5
639
330
1F
100
AcDbEntity
  8
0
 62
     7
100
AcDbCircle
 10
47.493057
 20
228.150009
 30
0.0
 40
3.400000095367432
100
AcDbArc
 50
0.0
 51
180.000009
  0
LINE
  5
63A
330
1F
100
AcDbEntity
  8
0
 62
     7
100
AcDbLine
 10
50.893059
 20
153.150009
 30
0.0
 11
50.893059
 21
228.150009
 31
0.0
  0
LINE
  5
63B
330
1F
100
AcDbEntity
  8
0
 62
     7
100
AcDbLine
 10
44.093056
 20
153.150009
 30
0.0
 11
44.093056
 21
143.150009
 31
0.0
  0
LINE
  5
63C
330
1F
100
AcDbEntity
  8
0
 62
     7
100
AcDbLine
 10
50.893059
 20
153.150009
 30
0.0
 11
50.893059
 21
143.150009
 31
0.0
  0
LINE
  5
63D
330
1F
100
AcDbEntity
  8
0
 62
     7
100
AcDbLine
 10
50.893059
 20
143.150009
 30
0.0
 11
44.093056
 21
143.150009
 31
0.0
  0
ARC
  5
63E
330
1F
100
AcDbEntity
  8
0
 62
     7
100
AcDbCircle
 10
47.493057
 20
228.150009
 30
0.0
 40
3.549999952316284
100
AcDbArc
 50
344.596894
 51
195.402372
  0
ARC
  5
63F
330
1F
100
AcDbEntity
  8
0
 62
     7
100
AcDbCircle
 10
47.493057
 20
228.150009
 30
0.0
 40
4.712500095367432
100
AcDbArc
 50
192.251401
 51
223.822666
  0
ARC
  5
640
330
1F
100
AcDbEntity
  8
0
 62
     7
100
AcDbCircle
 10
47.493057
 20
228.150009
 30
0.0
 40
4.712500095367432
100
AcDbArc
 50
316.177161
 51
347.748591
  0
LINE
  5
641
330
1F
100
AcDbEntity
  8
0
 62
     7
100
AcDbLine
 10
52.034256
 20
227.150009
 30
0.0
 11
52.098236
 21
227.150009
 31
0.0
  0
ARC
  5
642
330
1F
100
AcDbEntity
  8
0
 62
     7
100
AcDbCircle
 10
47.493057
 20
228.150009
 30
0.0
 40
4.650000095367432
100
AcDbArc
 50
316.985583
 51
347.581305
  0
ARC
  5
643
330
1F
100
AcDbEntity
  8
0
 62
     7
100
AcDbCircle
 10
47.493057
 20
228.150009
 30
0.0
 40
4.650000095367432
100
AcDbArc
 50
192.418686
 51
223.014354
  0
ARC
  5
644
330
1F
100
AcDbEntity
  8
0
 62
     7
100
AcDbCircle
 10
47.493057
 20
228.150009
 30
0.0
 40
4.574999809265137
100
AcDbArc
 50
192.6256
 51
221.997954
  0
ARC
  5
645
330
1F
100
AcDbEntity
  8
0
 62
     7
100
AcDbCircle
 10
47.493057
 20
228.150009
 30
0.0
 40
4.574999809265137
100
AcDbArc
 50
318.002024
 51
347.374406
  0
LINE
  5
646
330
1F
100
AcDbEntity
  8
0
 62
     7
100
AcDbLine
 10
51.893356
 20
227.150009
 30
0.0
 11
51.957428
 21
227.150009
 31
0.0
  0
ARC
  5
647
330
1F
100
AcDbEntity
  8
0
 62
     7
100
AcDbCircle
 10
47.493057
 20
228.150009
 30
0.0
 40
4.512499809265137
100
AcDbArc
 50
318.891096
 51
347.196575
  0
ARC
  5
648
330
1F
100
AcDbEntity
  8
0
 62
     7
100
AcDbCircle
 10
47.493057
 20
228.150009
 30
0.0
 40
4.512499809265137
100
AcDbArc
 50
192.803417
 51
221.108896
  0
ARC
  5
649
330
1F
100
AcDbEntity
  8
0
 62
     7
100
AcDbCircle
 10
47.493057
 20
228.150009
 30
0.0
 40
4.4375
100
AcDbArc
 50
193.023581
 51
219.986545
  0
ARC
  5
64A
330
1F
100
AcDbEntity
  8
0
 62
     7
100
AcDbCircle
 10
47.493057
 20
228.150009
 30
0.0
 40
4.4375
100
AcDbArc
 50
320.013433
 51
346.976424
  0
LINE
  5
64B
330
1F
100
AcDbEntity
  8
0
 62
     7
100
AcDbLine
 10
51.752235
 20
227.150009
 30
0.0
 11
51.816414
 21
227.150009
 31
0.0
  0
ARC
  5
64C
330
1F
100
AcDbEntity
  8
0
 62
     7
100
AcDbCircle
 10
47.493057
 20
228.150009
 30
0.0
 40
4.375
100
AcDbArc
 50
320.999384
 51
346.787008
  0
ARC
  5
64D
330
1F
100
AcDbEntity
  8
0
 62
     7
100
AcDbCircle
 10
47.493057
 20
228.150009
 30
0.0
 40
4.375
100
AcDbArc
 50
193.212982
 51
219.000594
  0
ARC
  5
64E
330
1F
100
AcDbEntity
  8
0
 62
     7
100
AcDbCircle
 10
47.493057
 20
228.150009
 30
0.0
 40
4.25
100
AcDbArc
 50
323.12972
 51
216.870258
  0
ARC
  5
64F
330
1F
100
AcDbEntity
  8
0
 62
     7
100
AcDbCircle
 10
47.493057
 20
228.150009
 30
0.0
 40
4.375
100
AcDbArc
 50
13.21298
 51
166.787018
  0
LINE
  5
650
330
1F
100
AcDbEntity
  8
0
 62
     7
100
AcDbLine
 10
51.752235
 20
229.150009
 30
0.0
 11
51.816414
 21
229.150009
 31
0.0
  0
ARC
  5
651
330
1F
100
AcDbEntity
  8
0
 62
     7
100
AcDbCircle
 10
47.493057
 20
228.150009
 30
0.0
 40
4.4375
100
AcDbArc
 50
13.023584
 51
166.976419
  0
ARC
  5
652
330
1F
100
AcDbEntity
  8
0
 62
     7
100
AcDbCircle
 10
47.493057
 20
228.150009
 30
0.0
 40
4.512499809265137
100
AcDbArc
 50
12.803414
 51
167.196583
  0
LINE
  5
653
330
1F
100
AcDbEntity
  8
0
 62
     7
100
AcDbLine
 10
51.893356
 20
229.150009
 30
0.0
 11
51.957428
 21
229.150009
 31
0.0
  0
ARC
  5
654
330
1F
100
AcDbEntity
  8
0
 62
     7
100
AcDbCircle
 10
47.493057
 20
228.150009
 30
0.0
 40
4.574999809265137
100
AcDbArc
 50
12.625598
 51
167.3744
  0
ARC
  5
655
330
1F
100
AcDbEntity
  8
0
 62
     7
100
AcDbCircle
 10
47.493057
 20
228.150009
 30
0.0
 40
4.650000095367432
100
AcDbArc
 50
12.418682
 51
167.581314
  0
LINE
  5
656
330
1F
100
AcDbEntity
  8
0
 62
     7
100
AcDbLine
 10
52.034256
 20
229.150009
 30
0.0
 11
52.098236
 21
229.150009
 31
0.0
  0
ARC
  5
657
330
1F
100
AcDbEntity
  8
0
 62
     7
100
AcDbCircle
 10
47.493057
 20
228.150009
 30
0.0
 40
4.712500095367432
100
AcDbArc
 50
12.251403
 51
167.748599
  0
LINE
  5
658
330
1F
100
AcDbEntity
  8
0
 62
     7
100
AcDbLine
 10
42.951859
 20
227.150009
 30
0.0
 11
42.887878
 21
227.150009
 31
0.0
  0
LINE
  5
659
330
1F
100
AcDbEntity
  8
0
 62
     7
100
AcDbLine
 10
42.951859
 20
229.150009
 30
0.0
 11
42.887878
 21
229.150009
 31
0.0
  0
LINE
  5
65A
330
1F
100
AcDbEntity
  8
0
 62
     7
100
AcDbLine
 10
43.092754
 20
229.150009
 30
0.0
 11
43.028687
 21
229.150009
 31
0.0
  0
LINE
  5
65B
330
1F
100
AcDbEntity
  8
0
 62
     7
100
AcDbLine
 10
43.233875
 20
229.150009
 30
0.0
 11
43.169701
 21
229.150009
 31
0.0
  0
LINE
  5
65C
330
1F
100
AcDbEntity
  8
0
 62
     7
100
AcDbLine
 10
43.233875
 20
227.150009
 30
0.0
 11
43.169701
 21
227.150009
 31
0.0
  0
LINE
  5
65D
330
1F
100
AcDbEntity
  8
0
 62
     7
100
AcDbLine
 10
43.092754
 20
227.150009
 30
0.0
 11
43.028687
 21
227.150009
 31
0.0
  0
ARC
  5
65E
330
1F
100
AcDbEntity
  8
0
 62
     7
100
AcDbCircle
 10
47.493057
 20
228.150009
 30
0.0
 40
5.0
100
AcDbArc
 50
312.843537
 51
227.156454
  0
ARC
  5
65F
330
1F
100
AcDbEntity
  8
0
 62
     7
100
AcDbCircle
 10
47.493057
 20
228.150009
 30
0.0
 40
5.300000190734863
100
AcDbArc
 50
309.904343
 51
230.095662
  0
ARC
  5
660
330
1F
100
AcDbEntity
  8
0
 62
     7
100
AcDbCircle
 10
47.493057
 20
228.150009
 30
0.0
 40
5.900000095367432
100
AcDbArc
 50
305.188613
 51
151.352115
  0
ARC
  5
661
330
1F
100
AcDbEntity
  8
0
 62
     7
100
AcDbCircle
 10
47.493057
 20
228.150009
 30
0.0
 40
5.900000095367432
100
AcDbArc
 50
151.352115
 51
234.811389
  0
ARC
  5
662
330
1F
100
AcDbEntity
  8
0
 62
     7
100
AcDbCircle
 10
47.493057
 20
228.150009
 30
0.0
 40
6.300000190734863
100
AcDbArc
 50
137.752785
 51
162.24721
  0
LINE
  5
663
330
1F
100
AcDbEntity
  8
0
 62
     7
100
AcDbLine
 10
41.493057
 20
230.070938
 30
0.0
 11
41.493057
 21
226.229065
 31
0.0
  0
ARC
  5
664
330
1F
100
AcDbEntity
  8
0
 62
     7
100
AcDbCircle
 10
47.493057
 20
228.150009
 30
0.0
 40
6.300000190734863
100
AcDbArc
 50
197.75279
 51
222.247215
  0
LINE
  5
665
330
1F
100
AcDbEntity
  8
0
 62
     7
100
AcDbLine
 10
42.829475
 20
223.914322
 30
0.0
 11
44.092976
 21
223.184845
 31
0.0
  0
LINE
  5
666
330
1F
100
AcDbEntity
  8
0
 62
     7
100
AcDbLine
 10
50.893135
 20
223.184845
 30
0.0
 11
52.156639
 21
223.914322
 31
0.0
  0
ARC
  5
667
330
1F
100
AcDbEntity
  8
0
 62
     7
100
AcDbCircle
 10
47.493057
 20
228.150009
 30
0.0
 40
6.300000190734863
100
AcDbArc
 50
317.752777
 51
342.247199
  0
LINE
  5
668
330
1F
100
AcDbEntity
  8
0
 62
     7
100
AcDbLine
 10
53.493057
 20
226.229065
 30
0.0
 11
53.493057
 21
230.070938
 31
0.0
  0
ARC
  5
669
330
1F
100
AcDbEntity
  8
0
 62
     7
100
AcDbCircle
 10
47.493057
 20
228.150009
 30
0.0
 40
6.300000190734863
100
AcDbArc
 50
17.75279
 51
42.24721
  0
LINE
  5
66A
330
1F
100
AcDbEntity
  8
0
 62
     7
100
AcDbLine
 10
52.156639
 20
232.385696
 30
0.0
 11
48.829475
 21
234.306625
 31
0.0
  0
ARC
  5
66B
330
1F
100
AcDbEntity
  8
0
 62
     7
100
AcDbCircle
 10
47.493057
 20
228.150009
 30
0.0
 40
6.300000190734863
100
AcDbArc
 50
77.75279
 51
102.247215
  0
LINE
  5
66C
330
1F
100
AcDbEntity
  8
0
 62
     7
100
AcDbLine
 10
46.156639
 20
234.306625
 30
0.0
 11
42.829475
 21
232.385696
 31
0.0
  0
ARC
  5
66D
330
1F
100
AcDbEntity
  8
0
 62
     7
100
AcDbCircle
 10
47.493057
 20
228.150009
 30
0.0
 40
6.800000190734863
100
AcDbArc
 50
137.403926
 51
162.596068
  0
LINE
  5
66E
330
1F
100
AcDbEntity
  8
0
 62
     7
100
AcDbLine
 10
41.407722
 20
229.780563
 30
0.0
 11
41.004364
 21
230.183929
 31
0.0
  0
ARC
  5
66F
330
1F
100
AcDbEntity
  8
0
 62
     7
100
AcDbCircle
 10
47.493057
 20
228.150009
 30
0.0
 40
6.300000190734863
100
AcDbArc
 50
162.24721
 51
164.999994
  0
ARC
  5
670
330
1F
100
AcDbEntity
  8
0
 62
     7
100
AcDbCircle
 10
47.493057
 20
228.150009
 30
0.0
 40
6.300000190734863
100
AcDbArc
 50
135.0
 51
137.752785
  0
LINE
  5
671
330
1F
100
AcDbEntity
  8
0
 62
     7
100
AcDbLine
 10
43.038284
 20
232.604782
 30
0.0
 11
42.487282
 21
232.752426
 31
0.0
  0
ARC
  5
672
330
1F
100
AcDbEntity
  8
0
 62
     7
100
AcDbCircle
 10
47.493057
 20
228.150009
 30
0.0
 40
6.300000190734863
100
AcDbArc
 50
164.999994
 51
195.000006
  0
ARC
  5
673
330
1F
100
AcDbEntity
  8
0
 62
     7
100
AcDbCircle
 10
47.493057
 20
228.150009
 30
0.0
 40
6.300000190734863
100
AcDbArc
 50
195.000006
 51
197.75279
  0
LINE
  5
674
330
1F
100
AcDbEntity
  8
0
 62
     7
100
AcDbLine
 10
41.407722
 20
226.519455
 30
0.0
 11
41.004364
 21
226.116089
 31
0.0
  0
ARC
  5
675
330
1F
100
AcDbEntity
  8
0
 62
     7
100
AcDbCircle
 10
47.493057
 20
228.150009
 30
0.0
 40
6.800000190734863
100
AcDbArc
 50
197.403932
 51
222.596074
  0
LINE
  5
676
330
1F
100
AcDbEntity
  8
0
 62
     7
100
AcDbLine
 10
43.038284
 20
223.695236
 30
0.0
 11
42.487282
 21
223.547592
 31
0.0
  0
ARC
  5
677
330
1F
100
AcDbEntity
  8
0
 62
     7
100
AcDbCircle
 10
47.493057
 20
228.150009
 30
0.0
 40
6.300000190734863
100
AcDbArc
 50
222.247215
 51
225.0
  0
ARC
  5
678
330
1F
100
AcDbEntity
  8
0
 62
     7
100
AcDbCircle
 10
47.493057
 20
228.150009
 30
0.0
 40
6.300000190734863
100
AcDbArc
 50
225.0
 51
237.338012
  0
ARC
  5
679
330
1F
100
AcDbEntity
  8
0
 62
     7
100
AcDbCircle
 10
47.493057
 20
228.150009
 30
0.0
 40
6.300000190734863
100
AcDbArc
 50
302.661962
 51
314.999992
  0
ARC
  5
67A
330
1F
100
AcDbEntity
  8
0
 62
     7
100
AcDbCircle
 10
47.493057
 20
228.150009
 30
0.0
 40
6.300000190734863
100
AcDbArc
 50
314.999992
 51
317.752777
  0
ARC
  5
67B
330
1F
100
AcDbEntity
  8
0
 62
     7
100
AcDbCircle
 10
47.493057
 20
228.150009
 30
0.0
 40
6.300000190734863
100
AcDbArc
 50
342.247199
 51
345.000012
  0
LINE
  5
67C
330
1F
100
AcDbEntity
  8
0
 62
     7
100
AcDbLine
 10
51.94783
 20
223.695236
 30
0.0
 11
52.498833
 21
223.547592
 31
0.0
  0
ARC
  5
67D
330
1F
100
AcDbEntity
  8
0
 62
     7
100
AcDbCircle
 10
47.493057
 20
228.150009
 30
0.0
 40
6.800000190734863
100
AcDbArc
 50
317.403918
 51
342.596085
  0
LINE
  5
67E
330
1F
100
AcDbEntity
  8
0
 62
     7
100
AcDbLine
 10
53.578392
 20
226.519455
 30
0.0
 11
53.98175
 21
226.116089
 31
0.0
  0
ARC
  5
67F
330
1F
100
AcDbEntity
  8
0
 62
     7
100
AcDbCircle
 10
47.493057
 20
228.150009
 30
0.0
 40
6.300000190734863
100
AcDbArc
 50
345.000012
 51
15.0
  0
ARC
  5
680
330
1F
100
AcDbEntity
  8
0
 62
     7
100
AcDbCircle
 10
47.493057
 20
228.150009
 30
0.0
 40
6.300000190734863
100
AcDbArc
 50
15.0
 51
17.75279
  0
ARC
  5
681
330
1F
100
AcDbEntity
  8
0
 62
     7
100
AcDbCircle
 10
47.493057
 20
228.150009
 30
0.0
 40
6.800000190734863
100
AcDbArc
 50
17.403926
 51
42.596075
  0
LINE
  5
682
330
1F
100
AcDbEntity
  8
0
 62
     7
100
AcDbLine
 10
51.94783
 20
232.604782
 30
0.0
 11
52.498833
 21
232.752426
 31
0.0
  0
ARC
  5
683
330
1F
100
AcDbEntity
  8
0
 62
     7
100
AcDbCircle
 10
47.493057
 20
228.150009
 30
0.0
 40
6.300000190734863
100
AcDbArc
 50
42.24721
 51
45.000001
  0
LINE
  5
684
330
1F
100
AcDbEntity
  8
0
 62
     7
100
AcDbLine
 10
53.578392
 20
229.780563
 30
0.0
 11
53.98175
 21
230.183929
 31
0.0
  0
ARC
  5
685
330
1F
100
AcDbEntity
  8
0
 62
     7
100
AcDbCircle
 10
47.493057
 20
228.150009
 30
0.0
 40
6.300000190734863
100
AcDbArc
 50
45.000001
 51
74.999999
  0
ARC
  5
686
330
1F
100
AcDbEntity
  8
0
 62
     7
100
AcDbCircle
 10
47.493057
 20
228.150009
 30
0.0
 40
6.300000190734863
100
AcDbArc
 50
74.999999
 51
77.75279
  0
ARC
  5
687
330
1F
100
AcDbEntity
  8
0
 62
     7
100
AcDbCircle
 10
47.493057
 20
228.150009
 30
0.0
 40
6.300000190734863
100
AcDbArc
 50
102.247215
 51
105.0
  0
LINE
  5
688
330
1F
100
AcDbEntity
  8
0
 62
     7
100
AcDbLine
 10
49.123619
 20
234.235336
 30
0.0
 11
48.975975
 21
234.786346
 31
0.0
  0
ARC
  5
689
330
1F
100
AcDbEntity
  8
0
 62
     7
100
AcDbCircle
 10
47.493057
 20
228.150009
 30
0.0
 40
6.800000190734863
100
AcDbArc
 50
77.403925
 51
102.596073
  0
LINE
  5
68A
330
1F
100
AcDbEntity
  8
0
 62
     7
100
AcDbLine
 10
45.862495
 20
234.235336
 30
0.0
 11
46.010139
 21
234.786346
 31
0.0
  0
ARC
  5
68B
330
1F
100
AcDbEntity
  8
0
 62
     7
100
AcDbCircle
 10
47.493057
 20
228.150009
 30
0.0
 40
6.300000190734863
100
AcDbArc
 50
105.0
 51
135.0
  0
LINE
  5
68C
330
1F
100
AcDbEntity
  8
0
 62
     7
100
AcDbLine
 10
56.093033
 20
242.554886
 30
0.0
 11
56.093056
 21
242.550003
 31
0.0
  0
LINE
  5
68D
330
1F
100
AcDbEntity
  8
0
 62
     7
100
AcDbLine
 10
56.091972
 20
242.582932
 30
0.0
 11
56.093056
 21
242.550003
 31
0.0
  0
LINE
  5
68E
330
1F
100
AcDbEntity
  8
0
 62
     7
100
AcDbLine
 10
56.0924
 20
242.575623
 30
0.0
 11
56.093056
 21
242.550003
 31
0.0
  0
ARC
  5
68F
330
1F
100
AcDbEntity
  8
0
 62
     7
100
AcDbCircle
 10
47.493057
 20
228.150009
 30
0.0
 40
7.0
100
AcDbArc
 50
299.059263
 51
61.352113
  0
POLYLINE
  5
690
330
1F
100
AcDbEntity
  8
0
 62
     7
100
AcDb2dPolyline
 66
     1
 10
0.0
 20
0.0
 30
0.0
  0
VERTEX
  5
691
330
690
100
AcDbEntity
  8
0
100
AcDbVertex
100
AcDb2dVertex
 10
242.401978
 20
157.862579
 30
0.0
  0
VERTEX
  5
692
330
690
100
AcDbEntity
  8
0
100
AcDbVertex
100
AcDb2dVertex
 10
241.941971
 20
158.427094
 30
0.0
  0
VERTEX
  5
693
330
690
100
AcDbEntity
  8
0
100
AcDbVertex
100
AcDb2dVertex
 10
241.251984
 20
158.669037
 30
0.0
  0
VERTEX
  5
694
330
690
100
AcDbEntity
  8
0
100
AcDbVertex
100
AcDb2dVertex
 10
240.561981
 20
158.669037
 30
0.0
  0
VERTEX
  5
695
330
690
100
AcDbEntity
  8
0
100
AcDbVertex
100
AcDb2dVertex
 10
239.871979
 20
158.427094
 30
0.0
  0
VERTEX
  5
696
330
690
100
AcDbEntity
  8
0
100
AcDbVertex
100
AcDb2dVertex
 10
239.411972
 20
157.781937
 30
0.0
  0
VERTEX
  5
697
330
690
100
AcDbEntity
  8
0
100
AcDbVertex
100
AcDb2dVertex
 10
239.411972
 20
157.217422
 30
0.0
  0
VERTEX
  5
698
330
690
100
AcDbEntity
  8
0
100
AcDbVertex
100
AcDb2dVertex
 10
239.814484
 20
156.652908
 30
0.0
  0
SEQEND
  5
699
330
690
100
AcDbEntity
  8
0
 62
     7
  0
POLYLINE
  5
69A
330
1F
100
AcDbEntity
  8
0
 62
     7
100
AcDb2dPolyline
 66
     1
 10
0.0
 20
0.0
 30
0.0
  0
VERTEX
  5
69B
330
69A
100
AcDbEntity
  8
0
100
AcDbVertex
100
AcDb2dVertex
 10
240.906982
 20
156.24968
 30
0.0
  0
VERTEX
  5
69C
330
69A
100
AcDbEntity
  8
0
100
AcDbVertex
100
AcDb2dVertex
 10
241.424469
 20
156.088394
 30
0.0
  0
SEQEND
  5
69D
330
69A
100
AcDbEntity
  8
0
 62
     7
  0
POLYLINE
  5
69E
330
1F
100
AcDbEntity
  8
0
 62
     7
100
AcDb2dPolyline
 66
     1
 10
0.0
 20
0.0
 30
0.0
  0
VERTEX
  5
69F
330
69E
100
AcDbEntity
  8
0
100
AcDbVertex
100
AcDb2dVertex
 10
241.941971
 20
153.830322
 30
0.0
  0
VERTEX
  5
6A0
330
69E
100
AcDbEntity
  8
0
100
AcDbVertex
100
AcDb2dVertex
 10
241.251984
 20
153.669037
 30
0.0
  0
VERTEX
  5
6A1
330
69E
100
AcDbEntity
  8
0
100
AcDbVertex
100
AcDb2dVertex
 10
240.561981
 20
153.669037
 30
0.0
  0
VERTEX
  5
6A2
330
69E
100
AcDbEntity
  8
0
100
AcDbVertex
100
AcDb2dVertex
 10
239.871979
 20
153.991623
 30
0.0
  0
VERTEX
  5
6A3
330
69E
100
AcDbEntity
  8
0
100
AcDbVertex
100
AcDb2dVertex
 10
239.411972
 20
154.556137
 30
0.0
  0
SEQEND
  5
6A4
330
69E
100
AcDbEntity
  8
0
 62
     7
  0
POLYLINE
  5
6A5
330
1F
100
AcDbEntity
  8
0
 62
     7
100
AcDb2dPolyline
 66
     1
 10
0.0
 20
0.0
 30
0.0
  0
VERTEX
  5
6A6
330
6A5
100
AcDbEntity
  8
0
100
AcDbVertex
100
AcDb2dVertex
 10
240.446976
 20
156.330322
 30
0.0
  0
VERTEX
  5
6A7
330
6A5
100
AcDbEntity
  8
0
100
AcDbVertex
100
AcDb2dVertex
 10
240.906982
 20
156.24968
 30
0.0
  0
SEQEND
  5
6A8
330
6A5
100
AcDbEntity
  8
0
 62
     7
  0
POLYLINE
  5
6A9
330
1F
100
AcDbEntity
  8
0
 62
     7
100
AcDb2dPolyline
 66
     1
 10
0.0
 20
0.0
 30
0.0
  0
VERTEX
  5
6AA
330
6A9
100
AcDbEntity
  8
0
100
AcDbVertex
100
AcDb2dVertex
 10
239.814484
 20
156.652908
 30
0.0
  0
VERTEX
  5
6AB
330
6A9
100
AcDbEntity
  8
0
100
AcDbVertex
100
AcDb2dVertex
 10
240.446976
 20
156.330322
 30
0.0
  0
SEQEND
  5
6AC
330
6A9
100
AcDbEntity
  8
0
 62
     7
  0
POLYLINE
  5
6AD
330
1F
100
AcDbEntity
  8
0
 62
     7
100
AcDb2dPolyline
 66
     1
 10
0.0
 20
0.0
 30
0.0
  0
VERTEX
  5
6AE
330
6AD
100
AcDbEntity
  8
0
100
AcDbVertex
100
AcDb2dVertex
 10
242.401978
 20
154.475494
 30
0.0
  0
VERTEX
  5
6AF
330
6AD
100
AcDbEntity
  8
0
100
AcDbVertex
100
AcDb2dVertex
 10
241.941971
 20
153.830322
 30
0.0
  0
SEQEND
  5
6B0
330
6AD
100
AcDbEntity
  8
0
 62
     7
  0
POLYLINE
  5
6B1
330
1F
100
AcDbEntity
  8
0
 62
     7
100
AcDb2dPolyline
 66
     1
 10
0.0
 20
0.0
 30
0.0
  0
VERTEX
  5
6B2
330
6B1
100
AcDbEntity
  8
0
100
AcDbVertex
100
AcDb2dVertex
 10
242.401978
 20
155.201294
 30
0.0
  0
VERTEX
  5
6B3
330
6B1
100
AcDbEntity
  8
0
100
AcDbVertex
100
AcDb2dVertex
 10
242.401978
 20
154.475494
 30
0.0
  0
SEQEND
  5
6B4
330
6B1
100
AcDbEntity
  8
0
 62
     7
  0
POLYLINE
  5
6B5
330
1F
100
AcDbEntity
  8
0
 62
     7
100
AcDb2dPolyline
 66
     1
 10
0.0
 20
0.0
 30
0.0
  0
VERTEX
  5
6B6
330
6B5
100
AcDbEntity
  8
0
100
AcDbVertex
100
AcDb2dVertex
 10
241.424469
 20
156.088394
 30
0.0
  0
VERTEX
  5
6B7
330
6B5
100
AcDbEntity
  8
0
100
AcDbVertex
100
AcDb2dVertex
 10
241.941971
 20
155.765808
 30
0.0
  0
VERTEX
  5
6B8
330
6B5
100
AcDbEntity
  8
0
100
AcDbVertex
100
AcDb2dVertex
 10
242.401978
 20
155.201294
 30
0.0
  0
SEQEND
  5
6B9
330
6B5
100
AcDbEntity
  8
0
 62
     7
  0
POLYLINE
  5
6BA
330
1F
100
AcDbEntity
  8
0
 62
     7
100
AcDb2dPolyline
 66
     1
 10
0.0
 20
0.0
 30
0.0
  0
VERTEX
  5
6BB
330
6BA
100
AcDbEntity
  8
0
100
AcDbVertex
100
AcDb2dVertex
 10
245.316971
 20
158.669037
 30
0.0
  0
VERTEX
  5
6BC
330
6BA
100
AcDbEntity
  8
0
100
AcDbVertex
100
AcDb2dVertex
 10
243.361969
 20
158.669037
 30
0.0
  0
SEQEND
  5
6BD
330
6BA
100
AcDbEntity
  8
0
 62
     7
  0
POLYLINE
  5
6BE
330
1F
100
AcDbEntity
  8
0
 62
     7
100
AcDb2dPolyline
 66
     1
 10
0.0
 20
0.0
 30
0.0
  0
VERTEX
  5
6BF
330
6BE
100
AcDbEntity
  8
0
100
AcDbVertex
100
AcDb2dVertex
 10
243.361969
 20
156.24968
 30
0.0
  0
VERTEX
  5
6C0
330
6BE
100
AcDbEntity
  8
0
100
AcDbVertex
100
AcDb2dVertex
 10
245.431976
 20
156.24968
 30
0.0
  0
SEQEND
  5
6C1
330
6BE
100
AcDbEntity
  8
0
 62
     7
  0
POLYLINE
  5
6C2
330
1F
100
AcDbEntity
  8
0
 62
     7
100
AcDb2dPolyline
 66
     1
 10
0.0
 20
0.0
 30
0.0
  0
VERTEX
  5
6C3
330
6C2
100
AcDbEntity
  8
0
100
AcDbVertex
100
AcDb2dVertex
 10
243.361969
 20
158.669037
 30
0.0
  0
VERTEX
  5
6C4
330
6C2
100
AcDbEntity
  8
0
100
AcDbVertex
100
AcDb2dVertex
 10
243.361969
 20
153.669037
 30
0.0
  0
SEQEND
  5
6C5
330
6C2
100
AcDbEntity
  8
0
 62
     7
  0
POLYLINE
  5
6C6
330
1F
100
AcDbEntity
  8
0
 62
     7
100
AcDb2dPolyline
 66
     1
 10
0.0
 20
0.0
 30
0.0
  0
VERTEX
  5
6C7
330
6C6
100
AcDbEntity
  8
0
100
AcDbVertex
100
AcDb2dVertex
 10
245.316971
 20
158.669037
 30
0.0
  0
VERTEX
  5
6C8
330
6C6
100
AcDbEntity
  8
0
100
AcDbVertex
100
AcDb2dVertex
 10
245.719482
 20
158.427094
 30
0.0
  0
VERTEX
  5
6C9
330
6C6
100
AcDbEntity
  8
0
100
AcDbVertex
100
AcDb2dVertex
 10
246.121979
 20
157.862579
 30
0.0
  0
VERTEX
  5
6CA
330
6C6
100
AcDbEntity
  8
0
100
AcDbVertex
100
AcDb2dVertex
 10
246.121979
 20
157.056137
 30
0.0
  0
VERTEX
  5
6CB
330
6C6
100
AcDbEntity
  8
0
100
AcDbVertex
100
AcDb2dVertex
 10
245.834473
 20
156.572266
 30
0.0
  0
VERTEX
  5
6CC
330
6C6
100
AcDbEntity
  8
0
100
AcDbVertex
100
AcDb2dVertex
 10
245.431976
 20
156.24968
 30
0.0
  0
SEQEND
  5
6CD
330
6C6
100
AcDbEntity
  8
0
 62
     7
  0
POLYLINE
  5
6CE
330
1F
100
AcDbEntity
  8
0
 62
     7
100
AcDb2dPolyline
 66
     1
 10
0.0
 20
0.0
 30
0.0
  0
VERTEX
  5
6CF
330
6CE
100
AcDbEntity
  8
0
100
AcDbVertex
100
AcDb2dVertex
 10
244.97197
 20
156.24968
 30
0.0
  0
VERTEX
  5
6D0
330
6CE
100
AcDbEntity
  8
0
100
AcDbVertex
100
AcDb2dVertex
 10
246.121979
 20
153.669037
 30
0.0
  0
SEQEND
  5
6D1
330
6CE
100
AcDbEntity
  8
0
 62
     7
  0
POLYLINE
  5
6D2
330
1F
100
AcDbEntity
  8
0
 62
     7
100
AcDb2dPolyline
 66
     1
 10
0.0
 20
0.0
 30
0.0
  0
VERTEX
  5
6D3
330
6D2
100
AcDbEntity
  8
0
100
AcDbVertex
100
AcDb2dVertex
 10
250.186981
 20
153.669037
 30
0.0
  0
VERTEX
  5
6D4
330
6D2
100
AcDbEntity
  8
0
100
AcDbVertex
100
AcDb2dVertex
 10
247.426971
 20
153.669037
 30
0.0
  0
VERTEX
  5
6D5
330
6D2
100
AcDbEntity
  8
0
100
AcDbVertex
100
AcDb2dVertex
 10
249.381973
 20
155.927109
 30
0.0
  0
VERTEX
  5
6D6
330
6D2
100
AcDbEntity
  8
0
100
AcDbVertex
100
AcDb2dVertex
 10
249.78447
 20
156.572266
 30
0.0
  0
VERTEX
  5
6D7
330
6D2
100
AcDbEntity
  8
0
100
AcDbVertex
100
AcDb2dVertex
 10
249.95697
 20
157.056137
 30
0.0
  0
VERTEX
  5
6D8
330
6D2
100
AcDbEntity
  8
0
100
AcDbVertex
100
AcDb2dVertex
 10
249.95697
 20
157.540009
 30
0.0
  0
VERTEX
  5
6D9
330
6D2
100
AcDbEntity
  8
0
100
AcDbVertex
100
AcDb2dVertex
 10
249.78447
 20
158.104523
 30
0.0
  0
VERTEX
  5
6DA
330
6D2
100
AcDbEntity
  8
0
100
AcDbVertex
100
AcDb2dVertex
 10
249.611969
 20
158.427094
 30
0.0
  0
VERTEX
  5
6DB
330
6D2
100
AcDbEntity
  8
0
100
AcDbVertex
100
AcDb2dVertex
 10
249.209473
 20
158.669037
 30
0.0
  0
VERTEX
  5
6DC
330
6D2
100
AcDbEntity
  8
0
100
AcDbVertex
100
AcDb2dVertex
 10
248.51947
 20
158.669037
 30
0.0
  0
VERTEX
  5
6DD
330
6D2
100
AcDbEntity
  8
0
100
AcDbVertex
100
AcDb2dVertex
 10
248.116974
 20
158.427094
 30
0.0
  0
VERTEX
  5
6DE
330
6D2
100
AcDbEntity
  8
0
100
AcDbVertex
100
AcDb2dVertex
 10
247.944473
 20
158.185165
 30
0.0
  0
VERTEX
  5
6DF
330
6D2
100
AcDbEntity
  8
0
100
AcDbVertex
100
AcDb2dVertex
 10
247.714478
 20
157.701294
 30
0.0
  0
VERTEX
  5
6E0
330
6D2
100
AcDbEntity
  8
0
100
AcDbVertex
100
AcDb2dVertex
 10
247.714478
 20
157.459366
 30
0.0
  0
SEQEND
  5
6E1
330
6D2
100
AcDbEntity
  8
0
 62
     7
  0
POLYLINE
  5
6E2
330
1F
100
AcDbEntity
  8
0
 62
     7
100
AcDb2dPolyline
 66
     1
 10
0.0
 20
0.0
 30
0.0
  0
VERTEX
  5
6E3
330
6E2
100
AcDbEntity
  8
0
100
AcDbVertex
100
AcDb2dVertex
 10
254.021973
 20
155.443237
 30
0.0
  0
VERTEX
  5
6E4
330
6E2
100
AcDbEntity
  8
0
100
AcDbVertex
100
AcDb2dVertex
 10
251.376984
 20
155.443237
 30
0.0
  0
VERTEX
  5
6E5
330
6E2
100
AcDbEntity
  8
0
100
AcDbVertex
100
AcDb2dVertex
 10
253.33197
 20
158.669037
 30
0.0
  0
VERTEX
  5
6E6
330
6E2
100
AcDbEntity
  8
0
100
AcDbVertex
100
AcDb2dVertex
 10
253.33197
 20
156.24968
 30
0.0
  0
VERTEX
  5
6E7
330
6E2
100
AcDbEntity
  8
0
100
AcDbVertex
100
AcDb2dVertex
 10
253.33197
 20
153.669037
 30
0.0
  0
SEQEND
  5
6E8
330
6E2
100
AcDbEntity
  8
0
 62
     7
  0
POLYLINE
  5
6E9
330
1F
100
AcDbEntity
  8
0
 62
     7
100
AcDb2dPolyline
 66
     1
 10
0.0
 20
0.0
 30
0.0
  0
VERTEX
  5
6EA
330
6E9
100
AcDbEntity
  8
0
100
AcDbVertex
100
AcDb2dVertex
 10
255.499481
 20
155.685165
 30
0.0
  0
VERTEX
  5
6EB
330
6E9
100
AcDbEntity
  8
0
100
AcDbVertex
100
AcDb2dVertex
 10
258.14447
 20
155.685165
 30
0.0
  0
SEQEND
  5
6EC
330
6E9
100
AcDbEntity
  8
0
 62
     7
  0
POLYLINE
  5
6ED
330
1F
100
AcDbEntity
  8
0
 62
     7
100
AcDb2dPolyline
 66
     1
 10
0.0
 20
0.0
 30
0.0
 70
     1
  0
VERTEX
  5
6EE
330
6ED
100
AcDbEntity
  8
0
100
AcDbVertex
100
AcDb2dVertex
 10
260.426971
 20
158.669037
 30
0.0
  0
VERTEX
  5
6EF
330
6ED
100
AcDbEntity
  8
0
100
AcDbVertex
100
AcDb2dVertex
 10
259.794464
 20
158.427094
 30
0.0
  0
VERTEX
  5
6F0
330
6ED
100
AcDbEntity
  8
0
100
AcDbVertex
100
AcDb2dVertex
 10
259.391968
 20
157.620651
 30
0.0
  0
VERTEX
  5
6F1
330
6ED
100
AcDbEntity
  8
0
100
AcDbVertex
100
AcDb2dVertex
 10
259.219482
 20
156.814194
 30
0.0
  0
VERTEX
  5
6F2
330
6ED
100
AcDbEntity
  8
0
100
AcDbVertex
100
AcDb2dVertex
 10
259.219482
 20
155.765808
 30
0.0
  0
VERTEX
  5
6F3
330
6ED
100
AcDbEntity
  8
0
100
AcDbVertex
100
AcDb2dVertex
 10
259.391968
 20
154.717422
 30
0.0
  0
VERTEX
  5
6F4
330
6ED
100
AcDbEntity
  8
0
100
AcDbVertex
100
AcDb2dVertex
 10
259.794464
 20
153.910965
 30
0.0
  0
VERTEX
  5
6F5
330
6ED
100
AcDbEntity
  8
0
100
AcDbVertex
100
AcDb2dVertex
 10
260.426971
 20
153.669037
 30
0.0
  0
VERTEX
  5
6F6
330
6ED
100
AcDbEntity
  8
0
100
AcDbVertex
100
AcDb2dVertex
 10
260.886963
 20
153.669037
 30
0.0
  0
VERTEX
  5
6F7
330
6ED
100
AcDbEntity
  8
0
100
AcDbVertex
100
AcDb2dVertex
 10
261.51947
 20
153.910965
 30
0.0
  0
VERTEX
  5
6F8
330
6ED
100
AcDbEntity
  8
0
100
AcDbVertex
100
AcDb2dVertex
 10
261.921967
 20
154.717422
 30
0.0
  0
VERTEX
  5
6F9
330
6ED
100
AcDbEntity
  8
0
100
AcDbVertex
100
AcDb2dVertex
 10
262.094482
 20
155.685165
 30
0.0
  0
VERTEX
  5
6FA
330
6ED
100
AcDbEntity
  8
0
100
AcDbVertex
100
AcDb2dVertex
 10
262.094482
 20
156.814194
 30
0.0
  0
VERTEX
  5
6FB
330
6ED
100
AcDbEntity
  8
0
100
AcDbVertex
100
AcDb2dVertex
 10
261.921967
 20
157.620651
 30
0.0
  0
VERTEX
  5
6FC
330
6ED
100
AcDbEntity
  8
0
100
AcDbVertex
100
AcDb2dVertex
 10
261.51947
 20
158.427094
 30
0.0
  0
VERTEX
  5
6FD
330
6ED
100
AcDbEntity
  8
0
100
AcDbVertex
100
AcDb2dVertex
 10
260.886963
 20
158.669037
 30
0.0
  0
SEQEND
  5
6FE
330
6ED
100
AcDbEntity
  8
0
 62
     7
  0
POLYLINE
  5
6FF
330
1F
100
AcDbEntity
  8
0
 62
     7
100
AcDb2dPolyline
 66
     1
 10
0.0
 20
0.0
 30
0.0
  0
VERTEX
  5
700
330
6FF
100
AcDbEntity
  8
0
100
AcDbVertex
100
AcDb2dVertex
 10
265.986969
 20
153.669037
 30
0.0
  0
VERTEX
  5
701
330
6FF
100
AcDbEntity
  8
0
100
AcDbVertex
100
AcDb2dVertex
 10
263.22699
 20
153.669037
 30
0.0
  0
VERTEX
  5
702
330
6FF
100
AcDbEntity
  8
0
100
AcDbVertex
100
AcDb2dVertex
 10
265.181976
 20
155.927109
 30
0.0
  0
VERTEX
  5
703
330
6FF
100
AcDbEntity
  8
0
100
AcDbVertex
100
AcDb2dVertex
 10
265.584473
 20
156.572266
 30
0.0
  0
VERTEX
  5
704
330
6FF
100
AcDbEntity
  8
0
100
AcDbVertex
100
AcDb2dVertex
 10
265.756989
 20
157.056137
 30
0.0
  0
VERTEX
  5
705
330
6FF
100
AcDbEntity
  8
0
100
AcDbVertex
100
AcDb2dVertex
 10
265.756989
 20
157.540009
 30
0.0
  0
VERTEX
  5
706
330
6FF
100
AcDbEntity
  8
0
100
AcDbVertex
100
AcDb2dVertex
 10
265.584473
 20
158.104523
 30
0.0
  0
VERTEX
  5
707
330
6FF
100
AcDbEntity
  8
0
100
AcDbVertex
100
AcDb2dVertex
 10
265.411987
 20
158.427094
 30
0.0
  0
VERTEX
  5
708
330
6FF
100
AcDbEntity
  8
0
100
AcDbVertex
100
AcDb2dVertex
 10
265.00946
 20
158.669037
 30
0.0
  0
VERTEX
  5
709
330
6FF
100
AcDbEntity
  8
0
100
AcDbVertex
100
AcDb2dVertex
 10
264.319489
 20
158.669037
 30
0.0
  0
VERTEX
  5
70A
330
6FF
100
AcDbEntity
  8
0
100
AcDbVertex
100
AcDb2dVertex
 10
263.916962
 20
158.427094
 30
0.0
  0
VERTEX
  5
70B
330
6FF
100
AcDbEntity
  8
0
100
AcDbVertex
100
AcDb2dVertex
 10
263.744476
 20
158.185165
 30
0.0
  0
VERTEX
  5
70C
330
6FF
100
AcDbEntity
  8
0
100
AcDbVertex
100
AcDb2dVertex
 10
263.514465
 20
157.701294
 30
0.0
  0
VERTEX
  5
70D
330
6FF
100
AcDbEntity
  8
0
100
AcDbVertex
100
AcDb2dVertex
 10
263.514465
 20
157.459366
 30
0.0
  0
SEQEND
  5
70E
330
6FF
100
AcDbEntity
  8
0
 62
     7
  0
POLYLINE
  5
70F
330
1F
100
AcDbEntity
  8
0
 62
     7
100
AcDb2dPolyline
 66
     1
 10
0.0
 20
0.0
 30
0.0
  0
VERTEX
  5
710
330
70F
100
AcDbEntity
  8
0
100
AcDbVertex
100
AcDb2dVertex
 10
269.936981
 20
153.669037
 30
0.0
  0
VERTEX
  5
711
330
70F
100
AcDbEntity
  8
0
100
AcDbVertex
100
AcDb2dVertex
 10
267.176971
 20
153.669037
 30
0.0
  0
VERTEX
  5
712
330
70F
100
AcDbEntity
  8
0
100
AcDbVertex
100
AcDb2dVertex
 10
269.131989
 20
155.927109
 30
0.0
  0
VERTEX
  5
713
330
70F
100
AcDbEntity
  8
0
100
AcDbVertex
100
AcDb2dVertex
 10
269.534485
 20
156.572266
 30
0.0
  0
VERTEX
  5
714
330
70F
100
AcDbEntity
  8
0
100
AcDbVertex
100
AcDb2dVertex
 10
269.70697
 20
157.056137
 30
0.0
  0
VERTEX
  5
715
330
70F
100
AcDbEntity
  8
0
100
AcDbVertex
100
AcDb2dVertex
 10
269.70697
 20
157.540009
 30
0.0
  0
VERTEX
  5
716
330
70F
100
AcDbEntity
  8
0
100
AcDbVertex
100
AcDb2dVertex
 10
269.534485
 20
158.104523
 30
0.0
  0
VERTEX
  5
717
330
70F
100
AcDbEntity
  8
0
100
AcDbVertex
100
AcDb2dVertex
 10
269.361969
 20
158.427094
 30
0.0
  0
VERTEX
  5
718
330
70F
100
AcDbEntity
  8
0
100
AcDbVertex
100
AcDb2dVertex
 10
268.959473
 20
158.669037
 30
0.0
  0
VERTEX
  5
719
330
70F
100
AcDbEntity
  8
0
100
AcDbVertex
100
AcDb2dVertex
 10
268.26947
 20
158.669037
 30
0.0
  0
VERTEX
  5
71A
330
70F
100
AcDbEntity
  8
0
100
AcDbVertex
100
AcDb2dVertex
 10
267.866974
 20
158.427094
 30
0.0
  0
VERTEX
  5
71B
330
70F
100
AcDbEntity
  8
0
100
AcDbVertex
100
AcDb2dVertex
 10
267.694489
 20
158.185165
 30
0.0
  0
VERTEX
  5
71C
330
70F
100
AcDbEntity
  8
0
100
AcDbVertex
100
AcDb2dVertex
 10
267.464478
 20
157.701294
 30
0.0
  0
VERTEX
  5
71D
330
70F
100
AcDbEntity
  8
0
100
AcDbVertex
100
AcDb2dVertex
 10
267.464478
 20
157.459366
 30
0.0
  0
SEQEND
  5
71E
330
70F
100
AcDbEntity
  8
0
 62
     7
  0
ENDSEC
  0
SECTION
  2
OBJECTS
  0
DICTIONARY
  5
C
330
0
100
AcDbDictionary
  3
ACAD_GROUP
350
D
  3
ACAD_MLINESTYLE
350
17
  3
ACAD_SCALELIST
350
47
  0
DICTIONARY
  5
D
102
{ACAD_REACTORS
330
C
102
}
330
C
100
AcDbDictionary
  0
DICTIONARY
  5
17
102
{ACAD_REACTORS
330
C
102
}
330
C
100
AcDbDictionary
  3
STANDARD
350
18
  0
DICTIONARY
  5
47
102
{ACAD_REACTORS
330
C
102
}
330
C
100
AcDbDictionary
  0
MLINESTYLE
  5
18
102
{ACAD_REACTORS
330
17
102
}
330
17
100
AcDbMlineStyle
  2
Standard
 70
     0
  3

 62
   256
 51
90.0
 52
90.0
 71
     2
 49
0.5
 62
   256
  6
BYLAYER
 49
-0.5
 62
   256
  6
BYLAYER
  0
ENDSEC
  0
EOF
