  0
SECTION
  2
HEADER
  9
$ACADVER
  1
AC1014
  9
$ACADMAINTVER
 70
     9
  9
$DWGCODEPAGE
  3
ANSI_1252
  9
$INSBASE
 10
0.0
 20
0.0
 30
0.0
  9
$EXTMIN
 10
0.0
 20
0.0
 30
0.0
  9
$EXTMAX
 10
418.306976
 20
215.350006
 30
2.0
  9
$LIMMIN
 10
0.0
 20
0.0
  9
$LIMMAX
 10
420.0
 20
297.0
  9
$ORTHOMODE
 70
     0
  9
$REGENMODE
 70
     1
  9
$FILLMODE
 70
     1
  9
$QTEXTMODE
 70
     0
  9
$MIRRTEXT
 70
     1
  9
$DRAGMODE
 70
     2
  9
$LTSCALE
 40
1.0
  9
$OSMODE
 70
     0
  9
$ATTMODE
 70
     1
  9
$TEXTSIZE
 40
2.5
  9
$TRACEWID
 40
1.0
  9
$TEXTSTYLE
  7
STANDARD
  9
$CLAYER
  8
0
  9
$CELTYPE
  6
BYLAYER
  9
$CECOLOR
 62
   256
  9
$CELTSCALE
 40
1.0
  9
$DELOBJ
 70
     1
  9
$DISPSILH
 70
     0
  9
$DIMSCALE
 40
1.0
  9
$DIMASZ
 40
2.5
  9
$DIMEXO
 40
0.625
  9
$DIMDLI
 40
3.75
  9
$DIMRND
 40
0.0
  9
$DIMDLE
 40
0.0
  9
$DIMEXE
 40
1.25
  9
$DIMTP
 40
0.0
  9
$DIMTM
 40
0.0
  9
$DIMTXT
 40
2.5
  9
$DIMCEN
 40
2.5
  9
$DIMTSZ
 40
0.0
  9
$DIMTOL
 70
     0
  9
$DIMLIM
 70
     0
  9
$DIMTIH
 70
     0
  9
$DIMTOH
 70
     0
  9
$DIMSE1
 70
     0
  9
$DIMSE2
 70
     0
  9
$DIMTAD
 70
     1
  9
$DIMZIN
 70
     8
  9
$DIMBLK
  1

  9
$DIMASO
 70
     1
  9
$DIMSHO
 70
     1
  9
$DIMPOST
  1

  9
$DIMAPOST
  1

  9
$DIMALT
 70
     0
  9
$DIMALTD
 70
     3
  9
$DIMALTF
 40
0.03937
  9
$DIMLFAC
 40
1.0
  9
$DIMTOFL
 70
     1
  9
$DIMTVP
 40
0.0
  9
$DIMTIX
 70
     0
  9
$DIMSOXD
 70
     0
  9
$DIMSAH
 70
     0
  9
$DIMBLK1
  1

  9
$DIMBLK2
  1

  9
$DIMSTYLE
  2
STANDARD
  9
$DIMCLRD
 70
     0
  9
$DIMCLRE
 70
     0
  9
$DIMCLRT
 70
     0
  9
$DIMTFAC
 40
1.0
  9
$DIMGAP
 40
0.625
  9
$DIMJUST
 70
     0
  9
$DIMSD1
 70
     0
  9
$DIMSD2
 70
     0
  9
$DIMTOLJ
 70
     0
  9
$DIMTZIN
 70
     8
  9
$DIMALTZ
 70
     0
  9
$DIMALTTZ
 70
     0
  9
$DIMFIT
 70
     0
  9
$DIMUPT
 70
     0
  9
$DIMUNIT
 70
     2
  9
$DIMDEC
 70
     2
  9
$DIMTDEC
 70
     2
  9
$DIMALTU
 70
     2
  9
$DIMALTTD
 70
     3
  9
$DIMTXSTY
  7
STANDARD
  9
$DIMAUNIT
 70
     0
  9
$LUNITS
 70
     2
  9
$LUPREC
 70
     4
  9
$SKETCHINC
 40
1.0
  9
$FILLETRAD
 40
2.5
  9
$AUNITS
 70
     0
  9
$AUPREC
 70
     0
  9
$MENU
  1
.
  9
$ELEVATION
 40
0.0
  9
$PELEVATION
 40
0.0
  9
$THICKNESS
 40
0.0
  9
$LIMCHECK
 70
     0
  9
$BLIPMODE
 70
     1
  9
$CHAMFERA
 40
2.5
  9
$CHAMFERB
 40
2.5
  9
$CHAMFERC
 40
0.0
  9
$CHAMFERD
 40
0.0
  9
$SKPOLY
 70
     0
  9
$TDCREATE
 40
2447893.375
  9
$TDUPDATE
 40
2460350.622318171
  9
$TDINDWG
 40
0.0
  9
$TDUSRTIMER
 40
0.0
  9
$USRTIMER
 70
     1
  9
$ANGBASE
 50
0.0
  9
$ANGDIR
 70
     0
  9
$PDMODE
 70
     0
  9
$PDSIZE
 40
0.0
  9
$PLINEWID
 40
0.0
  9
$COORDS
 70
     0
  9
$SPLFRAME
 70
     0
  9
$SPLINETYPE
 70
     6
  9
$SPLINESEGS
 70
     8
  9
$ATTDIA
 70
     0
  9
$ATTREQ
 70
     1
  9
$HANDLING
 70
     1
  9
$HANDSEED
  5
719
  9
$SURFTAB1
 70
     6
  9
$SURFTAB2
 70
     6
  9
$SURFTYPE
 70
     6
  9
$SURFU
 70
     6
  9
$SURFV
 70
     6
  9
$UCSNAME
  2

  9
$UCSORG
 10
0.0
 20
0.0
 30
0.0
  9
$UCSXDIR
 10
1.0
 20
0.0
 30
0.0
  9
$UCSYDIR
 10
0.0
 20
1.0
 30
0.0
  9
$PUCSNAME
  2

  9
$PUCSORG
 10
0.0
 20
0.0
 30
0.0
  9
$PUCSXDIR
 10
1.0
 20
0.0
 30
0.0
  9
$PUCSYDIR
 10
0.0
 20
1.0
 30
0.0
  9
$USERI1
 70
     0
  9
$USERI2
 70
     0
  9
$USERI3
 70
     0
  9
$USERI4
 70
     0
  9
$USERI5
 70
     0
  9
$USERR1
 40
0.0
  9
$USERR2
 40
0.0
  9
$USERR3
 40
0.0
  9
$USERR4
 40
0.0
  9
$USERR5
 40
0.0
  9
$WORLDVIEW
 70
     1
  9
$SHADEDGE
 70
     3
  9
$SHADEDIF
 70
    70
  9
$TILEMODE
 70
     1
  9
$MAXACTVP
 70
    64
  9
$PINSBASE
 10
0.0
 20
0.0
 30
0.0
  9
$PLIMCHECK
 70
     0
  9
$PEXTMIN
 10
0.0
 20
0.0
 30
0.0
  9
$PEXTMAX
 10
418.306976
 20
215.350006
 30
2.0
  9
$PLIMMIN
 10
0.0
 20
0.0
  9
$PLIMMAX
 10
420.0
 20
297.0
  9
$UNITMODE
 70
     0
  9
$VISRETAIN
 70
     0
  9
$PLINEGEN
 70
     0
  9
$PSLTSCALE
 70
     1
  9
$TREEDEPTH
 70
  3020
  9
$PICKSTYLE
 70
     1
  9
$CMLSTYLE
  2
STANDARD
  9
$CMLJUST
 70
     0
  9
$CMLSCALE
 40
20.0
  9
$PROXYGRAPHICS
 70
     1
  9
$MEASUREMENT
 70
     1
  0
ENDSEC
  0
SECTION
  2
CLASSES
  0
CLASS
  1
ACDBDICTIONARYWDFLT
  2
AcDbDictionaryWithDefault
  3
ObjectDBX Classes
 90
        0
280
     0
281
     0
  0
CLASS
  1
VISUALSTYLE
  2
AcDbVisualStyle
  3
ObjectDBX Classes
 90
     4095
280
     0
281
     0
  0
CLASS
  1
MATERIAL
  2
AcDbMaterial
  3
ObjectDBX Classes
 90
     1153
280
     0
281
     0
  0
CLASS
  1
SCALE
  2
AcDbScale
  3
ObjectDBX Classes
 90
     1153
280
     0
281
     0
  0
CLASS
  1
SUN
  2
AcDbSun
  3
SCENEOE
 90
     1153
280
     0
281
     0
  0
CLASS
  1
XRECORD
  2
AcDbXrecord
  3
ObjectDBX Classes
 90
        0
280
     0
281
     0
  0
CLASS
  1
LWPOLYLINE
  2
AcDbPolyline
  3
ObjectDBX Classes
 90
        0
280
     0
281
     1
  0
CLASS
  1
HATCH
  2
AcDbHatch
  3
ObjectDBX Classes
 90
        0
280
     0
281
     1
  0
ENDSEC
  0
SECTION
  2
TABLES
  0
TABLE
  2
VPORT
  5
8
330
0
100
AcDbSymbolTable
 70
     1
  0
VPORT
  5
29
330
8
100
AcDbSymbolTableRecord
100
AcDbViewportTableRecord
  2
*ACTIVE
 70
     0
 10
0.0
 20
0.0
 11
1.0
 21
1.0
 12
10.429907
 22
4.5
 13
0.0
 23
0.0
 14
0.5
 24
0.5
 15
0.5
 25
0.5
 16
0.0
 26
0.0
 36
1.0
 17
0.0
 27
0.0
 37
0.0
 40
9.0
 41
1.972973
 42
50.0
 43
0.0
 44
0.0
 50
0.0
 51
0.0
 71
     0
 72
   100
 73
     1
 74
     3
 75
     0
 76
     0
 77
     0
 78
     0
  0
ENDTAB
  0
TABLE
  2
LTYPE
  5
5
330
0
100
AcDbSymbolTable
 70
     1
  0
LTYPE
  5
14
330
5
100
AcDbSymbolTableRecord
100
AcDbLinetypeTableRecord
  2
BYBLOCK
 70
     0
  3

 72
    65
 73
     0
 40
0.0
  0
LTYPE
  5
15
330
5
100
AcDbSymbolTableRecord
100
AcDbLinetypeTableRecord
  2
BYLAYER
 70
     0
  3

 72
    65
 73
     0
 40
0.0
  0
LTYPE
  5
16
330
5
100
AcDbSymbolTableRecord
100
AcDbLinetypeTableRecord
  2
CONTINUOUS
 70
     0
  3
Solid line
 72
    65
 73
     0
 40
0.0
  0
ENDTAB
  0
TABLE
  2
LAYER
  5
2
330
0
100
AcDbSymbolTable
 70
     1
  0
LAYER
  5
10
330
2
100
AcDbSymbolTableRecord
100
AcDbLayerTableRecord
  2
0
 70
     0
 62
     7
  6
CONTINUOUS
  0
ENDTAB
  0
TABLE
  2
STYLE
  5
3
330
0
100
AcDbSymbolTable
 70
     1
  0
STYLE
  5
11
330
3
100
AcDbSymbolTableRecord
100
AcDbTextStyleTableRecord
  2
STANDARD
 70
     0
 40
0.0
 41
1.0
 50
0.0
 71
     0
 42
2.5
  3
txt
  4

  0
ENDTAB
  0
TABLE
  2
VIEW
  5
6
330
0
100
AcDbSymbolTable
 70
     0
  0
ENDTAB
  0
TABLE
  2
UCS
  5
7
330
0
100
AcDbSymbolTable
 70
     0
  0
ENDTAB
  0
TABLE
  2
APPID
  5
9
330
0
100
AcDbSymbolTable
 70
     1
  0
APPID
  5
12
330
9
100
AcDbSymbolTableRecord
100
AcDbRegAppTableRecord
  2
ACAD
 70
     0
  0
ENDTAB
  0
TABLE
  2
DIMSTYLE
  5
A
330
0
100
AcDbSymbolTable
 70
     1
  0
DIMSTYLE
105
27
330
A
100
AcDbSymbolTableRecord
100
AcDbDimStyleTableRecord
  2
STANDARD
 70
     0
  3

  4

  5

  6

  7

 40
1.0
 41
0.18
 42
0.0625
 43
0.38
 44
0.18
 45
0.0
 46
0.0
 47
0.0
 48
0.0
140
0.18
141
0.09
142
0.0
143
25.4
144
1.0
145
0.0
146
1.0
147
0.09
 71
     0
 72
     0
 73
     1
 74
     1
 75
     0
 76
     0
 77
     0
 78
     0
170
     0
171
     2
172
     0
173
     0
174
     0
175
     0
176
     0
177
     0
178
     0
270
     2
271
     4
272
     4
273
     2
274
     2
340
11
275
     0
280
     0
281
     0
282
     0
283
     1
284
     0
285
     0
286
     0
287
     3
288
     0
  0
ENDTAB
  0
TABLE
  2
BLOCK_RECORD
  5
1
330
0
100
AcDbSymbolTable
 70
     1
  0
BLOCK_RECORD
  5
1F
330
1
100
AcDbSymbolTableRecord
100
AcDbBlockTableRecord
  2
*MODEL_SPACE
  0
BLOCK_RECORD
  5
1B
330
1
100
AcDbSymbolTableRecord
100
AcDbBlockTableRecord
  2
*PAPER_SPACE
  0
BLOCK_RECORD
  5
23
330
1
100
AcDbSymbolTableRecord
100
AcDbBlockTableRecord
  2
*PAPER_SPACE0
  0
ENDTAB
  0
ENDSEC
  0
SECTION
  2
BLOCKS
  0
BLOCK
  5
20
330
1F
100
AcDbEntity
  8
0
100
AcDbBlockBegin
  2
*MODEL_SPACE
 70
     0
 10
0.0
 20
0.0
 30
0.0
  3
*MODEL_SPACE
  1

  0
ENDBLK
  5
21
330
1F
100
AcDbEntity
  8
0
100
AcDbBlockEnd
  0
BLOCK
  5
1C
330
1B
100
AcDbEntity
 67
     1
  8
0
100
AcDbBlockBegin
  2
*PAPER_SPACE
 70
     0
 10
0.0
 20
0.0
 30
0.0
  3
*PAPER_SPACE
  1

  0
ENDBLK
  5
1D
330
1B
100
AcDbEntity
 67
     1
  8
0
100
AcDbBlockEnd
  0
BLOCK
  5
24
330
23
100
AcDbEntity
  8
0
100
AcDbBlockBegin
  2
*PAPER_SPACE0
 70
     0
 10
0.0
 20
0.0
 30
0.0
  3
*PAPER_SPACE0
  1
*PAPER_SPACE0
  0
ENDBLK
  5
25
330
23
100
AcDbEntity
  8
0
100
AcDbBlockEnd
  0
ENDSEC
  0
SECTION
  2
ENTITIES
  0
LINE
  5
6A
330
1F
100
AcDbEntity
  8
0
 62
     7
100
AcDbLine
 10
415.806976
 20
184.350006
 30
0.0
 11
415.806976
 21
197.449982
 31
0.0
  0
LINE
  5
6B
330
1F
100
AcDbEntity
  8
0
 62
     7
100
AcDbLine
 10
415.806976
 20
197.449982
 30
0.0
 11
413.488281
 21
197.449982
 31
0.0
  0
ARC
  5
6C
330
1F
100
AcDbEntity
  8
0
 62
     7
100
AcDbCircle
 10
406.806976
 20
201.850006
 30
0.0
 40
8.0
100
AcDbArc
 50
213.367013
 51
326.632979
  0
LINE
  5
6D
330
1F
100
AcDbEntity
  8
0
 62
     7
100
AcDbLine
 10
400.125641
 20
197.449982
 30
0.0
 11
341.45697
 21
197.449982
 31
0.0
  0
LINE
  5
6E
330
1F
100
AcDbEntity
  8
0
 62
     7
100
AcDbLine
 10
341.45697
 20
193.549988
 30
0.0
 11
341.45697
 21
197.449982
 31
0.0
  0
ARC
  5
6F
330
1F
100
AcDbEntity
  8
0
 62
     7
100
AcDbCircle
 10
340.95697
 20
193.549988
 30
0.0
 40
0.5
100
AcDbArc
 50
180.000009
 51
360.0
  0
LINE
  5
70
330
1F
100
AcDbEntity
  8
0
 62
     7
100
AcDbLine
 10
340.45697
 20
197.449982
 30
0.0
 11
340.45697
 21
193.549988
 31
0.0
  0
LINE
  5
71
330
1F
100
AcDbEntity
  8
0
 62
     7
100
AcDbLine
 10
340.45697
 20
197.449982
 30
0.0
 11
338.156982
 21
197.449982
 31
0.0
  0
LINE
  5
72
330
1F
100
AcDbEntity
  8
0
 62
     7
100
AcDbLine
 10
338.156982
 20
193.549988
 30
0.0
 11
338.156982
 21
197.449982
 31
0.0
  0
ARC
  5
73
330
1F
100
AcDbEntity
  8
0
 62
     7
100
AcDbCircle
 10
337.656982
 20
193.549988
 30
0.0
 40
0.5
100
AcDbArc
 50
180.000009
 51
360.0
  0
LINE
  5
74
330
1F
100
AcDbEntity
  8
0
 62
     7
100
AcDbLine
 10
337.156982
 20
197.449982
 30
0.0
 11
337.156982
 21
193.549988
 31
0.0
  0
LINE
  5
75
330
1F
100
AcDbEntity
  8
0
 62
     7
100
AcDbLine
 10
337.156982
 20
197.449982
 30
0.0
 11
241.45694
 21
197.449982
 31
0.0
  0
LINE
  5
76
330
1F
100
AcDbEntity
  8
0
 62
     7
100
AcDbLine
 10
241.45694
 20
193.549988
 30
0.0
 11
241.45694
 21
197.449982
 31
0.0
  0
ARC
  5
77
330
1F
100
AcDbEntity
  8
0
 62
     7
100
AcDbCircle
 10
240.95694
 20
193.549988
 30
0.0
 40
0.5
100
AcDbArc
 50
180.000009
 51
360.0
  0
LINE
  5
78
330
1F
100
AcDbEntity
  8
0
 62
     7
100
AcDbLine
 10
240.45694
 20
197.449982
 30
0.0
 11
240.45694
 21
193.549988
 31
0.0
  0
LINE
  5
79
330
1F
100
AcDbEntity
  8
0
 62
     7
100
AcDbLine
 10
240.45694
 20
197.449982
 30
0.0
 11
238.156952
 21
197.449982
 31
0.0
  0
LINE
  5
7A
330
1F
100
AcDbEntity
  8
0
 62
     7
100
AcDbLine
 10
238.156952
 20
193.549988
 30
0.0
 11
238.156952
 21
197.449982
 31
0.0
  0
ARC
  5
7B
330
1F
100
AcDbEntity
  8
0
 62
     7
100
AcDbCircle
 10
237.656952
 20
193.549988
 30
0.0
 40
0.5
100
AcDbArc
 50
180.000009
 51
360.0
  0
LINE
  5
7C
330
1F
100
AcDbEntity
  8
0
 62
     7
100
AcDbLine
 10
237.156952
 20
197.449982
 30
0.0
 11
237.156952
 21
193.549988
 31
0.0
  0
LINE
  5
7D
330
1F
100
AcDbEntity
  8
0
 62
     7
100
AcDbLine
 10
237.156952
 20
197.449982
 30
0.0
 11
178.488266
 21
197.449982
 31
0.0
  0
ARC
  5
7E
330
1F
100
AcDbEntity
  8
0
 62
     7
100
AcDbCircle
 10
171.806946
 20
201.850006
 30
0.0
 40
8.0
100
AcDbArc
 50
213.367013
 51
326.632979
  0
LINE
  5
7F
330
1F
100
AcDbEntity
  8
0
 62
     7
100
AcDbLine
 10
165.125626
 20
197.449982
 30
0.0
 11
162.806946
 21
197.449982
 31
0.0
  0
LINE
  5
80
330
1F
100
AcDbEntity
  8
0
 62
     7
100
AcDbLine
 10
162.806946
 20
184.350006
 30
0.0
 11
162.806946
 21
197.449982
 31
0.0
  0
LINE
  5
81
330
1F
100
AcDbEntity
  8
0
 62
     7
100
AcDbLine
 10
415.806976
 20
183.549988
 30
0.0
 11
415.806976
 21
184.350006
 31
0.0
  0
LINE
  5
82
330
1F
100
AcDbEntity
  8
0
 62
     7
100
AcDbLine
 10
162.806946
 20
184.350006
 30
0.0
 11
162.806946
 21
183.549988
 31
0.0
  0
LINE
  5
83
330
1F
100
AcDbEntity
  8
0
 62
     7
100
AcDbLine
 10
162.806946
 20
183.549988
 30
0.0
 11
415.806976
 21
183.549988
 31
0.0
  0
LINE
  5
84
330
1F
100
AcDbEntity
  8
0
 62
     7
100
AcDbLine
 10
415.806976
 20
197.579285
 30
0.0
 11
415.806976
 21
197.449982
 31
0.0
  0
LINE
  5
85
330
1F
100
AcDbEntity
  8
0
 62
     7
100
AcDbLine
 10
415.806976
 20
197.579285
 30
0.0
 11
415.806976
 21
197.720703
 31
0.0
  0
LINE
  5
86
330
1F
100
AcDbEntity
  8
0
 62
     7
100
AcDbLine
 10
415.806976
 20
197.850006
 30
0.0
 11
415.806976
 21
197.720703
 31
0.0
  0
LINE
  5
87
330
1F
100
AcDbEntity
  8
0
 62
     7
100
AcDbLine
 10
415.806976
 20
197.850006
 30
0.0
 11
415.806976
 21
198.549988
 31
0.0
  0
LINE
  5
88
330
1F
100
AcDbEntity
  8
0
 62
     7
100
AcDbLine
 10
415.806976
 20
198.679291
 30
0.0
 11
415.806976
 21
198.549988
 31
0.0
  0
LINE
  5
89
330
1F
100
AcDbEntity
  8
0
 62
     7
100
AcDbLine
 10
415.806976
 20
198.679291
 30
0.0
 11
415.806976
 21
198.820709
 31
0.0
  0
LINE
  5
8A
330
1F
100
AcDbEntity
  8
0
 62
     7
100
AcDbLine
 10
415.806976
 20
198.950012
 30
0.0
 11
415.806976
 21
198.820709
 31
0.0
  0
LINE
  5
8B
330
1F
100
AcDbEntity
  8
0
 62
     7
100
AcDbLine
 10
415.806976
 20
198.950012
 30
0.0
 11
415.806976
 21
199.649994
 31
0.0
  0
LINE
  5
8C
330
1F
100
AcDbEntity
  8
0
 62
     7
100
AcDbLine
 10
415.806976
 20
199.779297
 30
0.0
 11
415.806976
 21
199.649994
 31
0.0
  0
LINE
  5
8D
330
1F
100
AcDbEntity
  8
0
 62
     7
100
AcDbLine
 10
415.806976
 20
199.779297
 30
0.0
 11
415.806976
 21
199.920715
 31
0.0
  0
LINE
  5
8E
330
1F
100
AcDbEntity
  8
0
 62
     7
100
AcDbLine
 10
415.806976
 20
200.049988
 30
0.0
 11
415.806976
 21
199.920715
 31
0.0
  0
LINE
  5
8F
330
1F
100
AcDbEntity
  8
0
 62
     7
100
AcDbLine
 10
415.806976
 20
200.049988
 30
0.0
 11
415.806976
 21
200.75
 31
0.0
  0
LINE
  5
90
330
1F
100
AcDbEntity
  8
0
 62
     7
100
AcDbLine
 10
415.806976
 20
200.879272
 30
0.0
 11
415.806976
 21
200.75
 31
0.0
  0
LINE
  5
91
330
1F
100
AcDbEntity
  8
0
 62
     7
100
AcDbLine
 10
415.806976
 20
200.879272
 30
0.0
 11
415.806976
 21
201.020721
 31
0.0
  0
LINE
  5
92
330
1F
100
AcDbEntity
  8
0
 62
     7
100
AcDbLine
 10
415.806976
 20
201.149994
 30
0.0
 11
415.806976
 21
201.020721
 31
0.0
  0
LINE
  5
93
330
1F
100
AcDbEntity
  8
0
 62
     7
100
AcDbLine
 10
415.806976
 20
201.149994
 30
0.0
 11
415.806976
 21
201.850006
 31
0.0
  0
LINE
  5
94
330
1F
100
AcDbEntity
  8
0
 62
     7
100
AcDbLine
 10
415.806976
 20
201.979279
 30
0.0
 11
415.806976
 21
201.850006
 31
0.0
  0
LINE
  5
95
330
1F
100
AcDbEntity
  8
0
 62
     7
100
AcDbLine
 10
415.806976
 20
201.979279
 30
0.0
 11
415.806976
 21
202.120697
 31
0.0
  0
LINE
  5
96
330
1F
100
AcDbEntity
  8
0
 62
     7
100
AcDbLine
 10
415.806976
 20
202.25
 30
0.0
 11
415.806976
 21
202.120697
 31
0.0
  0
LINE
  5
97
330
1F
100
AcDbEntity
  8
0
 62
     7
100
AcDbLine
 10
415.806976
 20
202.25
 30
0.0
 11
415.806976
 21
202.950012
 31
0.0
  0
LINE
  5
98
330
1F
100
AcDbEntity
  8
0
 62
     7
100
AcDbLine
 10
415.806976
 20
203.079285
 30
0.0
 11
415.806976
 21
202.950012
 31
0.0
  0
LINE
  5
99
330
1F
100
AcDbEntity
  8
0
 62
     7
100
AcDbLine
 10
415.806976
 20
203.079285
 30
0.0
 11
415.806976
 21
203.220703
 31
0.0
  0
LINE
  5
9A
330
1F
100
AcDbEntity
  8
0
 62
     7
100
AcDbLine
 10
415.806976
 20
203.350006
 30
0.0
 11
415.806976
 21
203.220703
 31
0.0
  0
LINE
  5
9B
330
1F
100
AcDbEntity
  8
0
 62
     7
100
AcDbLine
 10
415.806976
 20
203.350006
 30
0.0
 11
415.806976
 21
204.049988
 31
0.0
  0
LINE
  5
9C
330
1F
100
AcDbEntity
  8
0
 62
     7
100
AcDbLine
 10
415.806976
 20
204.179291
 30
0.0
 11
415.806976
 21
204.049988
 31
0.0
  0
LINE
  5
9D
330
1F
100
AcDbEntity
  8
0
 62
     7
100
AcDbLine
 10
415.806976
 20
204.179291
 30
0.0
 11
415.806976
 21
204.320709
 31
0.0
  0
LINE
  5
9E
330
1F
100
AcDbEntity
  8
0
 62
     7
100
AcDbLine
 10
415.806976
 20
204.450012
 30
0.0
 11
415.806976
 21
204.320709
 31
0.0
  0
LINE
  5
9F
330
1F
100
AcDbEntity
  8
0
 62
     7
100
AcDbLine
 10
415.806976
 20
204.450012
 30
0.0
 11
415.806976
 21
205.149994
 31
0.0
  0
LINE
  5
A0
330
1F
100
AcDbEntity
  8
0
 62
     7
100
AcDbLine
 10
415.806976
 20
205.279297
 30
0.0
 11
415.806976
 21
205.149994
 31
0.0
  0
LINE
  5
A1
330
1F
100
AcDbEntity
  8
0
 62
     7
100
AcDbLine
 10
415.806976
 20
205.279297
 30
0.0
 11
415.806976
 21
205.420715
 31
0.0
  0
LINE
  5
A2
330
1F
100
AcDbEntity
  8
0
 62
     7
100
AcDbLine
 10
415.806976
 20
205.549988
 30
0.0
 11
415.806976
 21
205.420715
 31
0.0
  0
LINE
  5
A3
330
1F
100
AcDbEntity
  8
0
 62
     7
100
AcDbLine
 10
415.806976
 20
205.549988
 30
0.0
 11
415.806976
 21
206.25
 31
0.0
  0
LINE
  5
A4
330
1F
100
AcDbEntity
  8
0
 62
     7
100
AcDbLine
 10
415.806976
 20
206.379272
 30
0.0
 11
415.806976
 21
206.25
 31
0.0
  0
LINE
  5
A5
330
1F
100
AcDbEntity
  8
0
 62
     7
100
AcDbLine
 10
415.806976
 20
206.379272
 30
0.0
 11
415.806976
 21
206.520721
 31
0.0
  0
LINE
  5
A6
330
1F
100
AcDbEntity
  8
0
 62
     7
100
AcDbLine
 10
415.806976
 20
206.649994
 30
0.0
 11
415.806976
 21
206.520721
 31
0.0
  0
LINE
  5
A7
330
1F
100
AcDbEntity
  8
0
 62
     7
100
AcDbLine
 10
415.806976
 20
206.649994
 30
0.0
 11
415.806976
 21
211.474274
 31
0.0
  0
LINE
  5
A8
330
1F
100
AcDbEntity
  8
0
 62
     7
100
AcDbLine
 10
415.806976
 20
211.962128
 30
0.0
 11
415.806976
 21
211.474274
 31
0.0
  0
LINE
  5
A9
330
1F
100
AcDbEntity
  8
0
 62
     7
100
AcDbLine
 10
415.806976
 20
211.962128
 30
0.0
 11
415.806976
 21
212.049988
 31
0.0
  0
LINE
  5
AA
330
1F
100
AcDbEntity
  8
0
 62
     7
100
AcDbLine
 10
413.488281
 20
197.449982
 30
0.0
 11
413.571655
 21
197.579285
 31
0.0
  0
ARC
  5
AB
330
1F
100
AcDbEntity
  8
0
 62
     7
100
AcDbCircle
 10
406.806976
 20
201.850006
 30
0.0
 40
8.0
100
AcDbArc
 50
354.980203
 51
360.0
  0
LINE
  5
AC
330
1F
100
AcDbEntity
  8
0
 62
     7
100
AcDbLine
 10
414.763855
 20
201.020721
 30
0.0
 11
414.776276
 21
201.149994
 31
0.0
  0
LINE
  5
AD
330
1F
100
AcDbEntity
  8
0
 62
     7
100
AcDbLine
 10
414.747864
 20
200.879272
 30
0.0
 11
414.763855
 21
201.020721
 31
0.0
  0
LINE
  5
AE
330
1F
100
AcDbEntity
  8
0
 62
     7
100
AcDbLine
 10
414.730988
 20
200.75
 30
0.0
 11
414.747864
 21
200.879272
 31
0.0
  0
ARC
  5
AF
330
1F
100
AcDbEntity
  8
0
 62
     7
100
AcDbCircle
 10
406.806976
 20
201.850006
 30
0.0
 40
8.0
100
AcDbArc
 50
346.997132
 51
352.096798
  0
LINE
  5
B0
330
1F
100
AcDbEntity
  8
0
 62
     7
100
AcDbLine
 10
414.570862
 20
199.920715
 30
0.0
 11
414.601837
 21
200.049988
 31
0.0
  0
LINE
  5
B1
330
1F
100
AcDbEntity
  8
0
 62
     7
100
AcDbLine
 10
414.534332
 20
199.779297
 30
0.0
 11
414.570862
 21
199.920715
 31
0.0
  0
LINE
  5
B2
330
1F
100
AcDbEntity
  8
0
 62
     7
100
AcDbLine
 10
414.498535
 20
199.649994
 30
0.0
 11
414.534332
 21
199.779297
 31
0.0
  0
ARC
  5
B3
330
1F
100
AcDbEntity
  8
0
 62
     7
100
AcDbCircle
 10
406.806976
 20
201.850006
 30
0.0
 40
8.0
100
AcDbArc
 50
338.746183
 51
344.037995
  0
LINE
  5
B4
330
1F
100
AcDbEntity
  8
0
 62
     7
100
AcDbLine
 10
414.211243
 20
198.820709
 30
0.0
 11
414.262848
 21
198.950012
 31
0.0
  0
LINE
  5
B5
330
1F
100
AcDbEntity
  8
0
 62
     7
100
AcDbLine
 10
414.151794
 20
198.679291
 30
0.0
 11
414.211243
 21
198.820709
 31
0.0
  0
LINE
  5
B6
330
1F
100
AcDbEntity
  8
0
 62
     7
100
AcDbLine
 10
414.094635
 20
198.549988
 30
0.0
 11
414.151794
 21
198.679291
 31
0.0
  0
ARC
  5
B7
330
1F
100
AcDbEntity
  8
0
 62
     7
100
AcDbCircle
 10
406.806976
 20
201.850006
 30
0.0
 40
8.0
100
AcDbArc
 50
329.999989
 51
335.63801
  0
LINE
  5
B8
330
1F
100
AcDbEntity
  8
0
 62
     7
100
AcDbLine
 10
413.658905
 20
197.720703
 30
0.0
 11
413.735168
 21
197.850006
 31
0.0
  0
LINE
  5
B9
330
1F
100
AcDbEntity
  8
0
 62
     7
100
AcDbLine
 10
413.571655
 20
197.579285
 30
0.0
 11
413.658905
 21
197.720703
 31
0.0
  0
LINE
  5
BA
330
1F
100
AcDbEntity
  8
0
 62
     7
100
AcDbLine
 10
400.125641
 20
197.449982
 30
0.0
 11
400.042267
 21
197.579285
 31
0.0
  0
LINE
  5
BB
330
1F
100
AcDbEntity
  8
0
 62
     7
100
AcDbLine
 10
400.042267
 20
197.579285
 30
0.0
 11
399.955048
 21
197.720703
 31
0.0
  0
LINE
  5
BC
330
1F
100
AcDbEntity
  8
0
 62
     7
100
AcDbLine
 10
399.955048
 20
197.720703
 30
0.0
 11
399.878754
 21
197.850006
 31
0.0
  0
ARC
  5
BD
330
1F
100
AcDbEntity
  8
0
 62
     7
100
AcDbCircle
 10
406.806976
 20
201.850006
 30
0.0
 40
8.0
100
AcDbArc
 50
204.361982
 51
210.000003
  0
LINE
  5
BE
330
1F
100
AcDbEntity
  8
0
 62
     7
100
AcDbLine
 10
399.519318
 20
198.549988
 30
0.0
 11
399.462128
 21
198.679291
 31
0.0
  0
LINE
  5
BF
330
1F
100
AcDbEntity
  8
0
 62
     7
100
AcDbLine
 10
399.462128
 20
198.679291
 30
0.0
 11
399.402679
 21
198.820709
 31
0.0
  0
LINE
  5
C0
330
1F
100
AcDbEntity
  8
0
 62
     7
100
AcDbLine
 10
399.402679
 20
198.820709
 30
0.0
 11
399.351105
 21
198.950012
 31
0.0
  0
ARC
  5
C1
330
1F
100
AcDbEntity
  8
0
 62
     7
100
AcDbCircle
 10
406.806976
 20
201.850006
 30
0.0
 40
8.0
100
AcDbArc
 50
195.96201
 51
201.253809
  0
LINE
  5
C2
330
1F
100
AcDbEntity
  8
0
 62
     7
100
AcDbLine
 10
399.115417
 20
199.649994
 30
0.0
 11
399.07959
 21
199.779297
 31
0.0
  0
LINE
  5
C3
330
1F
100
AcDbEntity
  8
0
 62
     7
100
AcDbLine
 10
399.07959
 20
199.779297
 30
0.0
 11
399.043091
 21
199.920715
 31
0.0
  0
LINE
  5
C4
330
1F
100
AcDbEntity
  8
0
 62
     7
100
AcDbLine
 10
399.043091
 20
199.920715
 30
0.0
 11
399.012085
 21
200.049988
 31
0.0
  0
ARC
  5
C5
330
1F
100
AcDbEntity
  8
0
 62
     7
100
AcDbCircle
 10
406.806976
 20
201.850006
 30
0.0
 40
8.0
100
AcDbArc
 50
187.903207
 51
193.002872
  0
LINE
  5
C6
330
1F
100
AcDbEntity
  8
0
 62
     7
100
AcDbLine
 10
398.882965
 20
200.75
 30
0.0
 11
398.866089
 21
200.879272
 31
0.0
  0
LINE
  5
C7
330
1F
100
AcDbEntity
  8
0
 62
     7
100
AcDbLine
 10
398.866089
 20
200.879272
 30
0.0
 11
398.850067
 21
201.020721
 31
0.0
  0
LINE
  5
C8
330
1F
100
AcDbEntity
  8
0
 62
     7
100
AcDbLine
 10
398.850067
 20
201.020721
 30
0.0
 11
398.837646
 21
201.149994
 31
0.0
  0
ARC
  5
C9
330
1F
100
AcDbEntity
  8
0
 62
     7
100
AcDbCircle
 10
406.806976
 20
201.850006
 30
0.0
 40
8.0
100
AcDbArc
 50
180.000009
 51
185.019802
  0
LINE
  5
CA
330
1F
100
AcDbEntity
  8
0
 62
     7
100
AcDbLine
 10
341.45697
 20
197.579285
 30
0.0
 11
341.45697
 21
197.449982
 31
0.0
  0
LINE
  5
CB
330
1F
100
AcDbEntity
  8
0
 62
     7
100
AcDbLine
 10
341.45697
 20
197.720703
 30
0.0
 11
341.45697
 21
197.850006
 31
0.0
  0
LINE
  5
CC
330
1F
100
AcDbEntity
  8
0
 62
     7
100
AcDbLine
 10
341.45697
 20
197.720703
 30
0.0
 11
341.45697
 21
197.579285
 31
0.0
  0
LINE
  5
CD
330
1F
100
AcDbEntity
  8
0
 62
     7
100
AcDbLine
 10
341.45697
 20
204.450012
 30
0.0
 11
341.45697
 21
204.850006
 31
0.0
  0
LINE
  5
CE
330
1F
100
AcDbEntity
  8
0
 62
     7
100
AcDbLine
 10
341.45697
 20
204.320709
 30
0.0
 11
341.45697
 21
204.450012
 31
0.0
  0
LINE
  5
CF
330
1F
100
AcDbEntity
  8
0
 62
     7
100
AcDbLine
 10
341.45697
 20
204.320709
 30
0.0
 11
341.45697
 21
204.179291
 31
0.0
  0
LINE
  5
D0
330
1F
100
AcDbEntity
  8
0
 62
     7
100
AcDbLine
 10
341.45697
 20
204.179291
 30
0.0
 11
341.45697
 21
204.049988
 31
0.0
  0
LINE
  5
D1
330
1F
100
AcDbEntity
  8
0
 62
     7
100
AcDbLine
 10
341.45697
 20
203.350006
 30
0.0
 11
341.45697
 21
204.049988
 31
0.0
  0
LINE
  5
D2
330
1F
100
AcDbEntity
  8
0
 62
     7
100
AcDbLine
 10
341.45697
 20
203.220703
 30
0.0
 11
341.45697
 21
203.350006
 31
0.0
  0
LINE
  5
D3
330
1F
100
AcDbEntity
  8
0
 62
     7
100
AcDbLine
 10
341.45697
 20
203.220703
 30
0.0
 11
341.45697
 21
203.079285
 31
0.0
  0
LINE
  5
D4
330
1F
100
AcDbEntity
  8
0
 62
     7
100
AcDbLine
 10
341.45697
 20
203.079285
 30
0.0
 11
341.45697
 21
202.950012
 31
0.0
  0
LINE
  5
D5
330
1F
100
AcDbEntity
  8
0
 62
     7
100
AcDbLine
 10
341.45697
 20
202.25
 30
0.0
 11
341.45697
 21
202.950012
 31
0.0
  0
LINE
  5
D6
330
1F
100
AcDbEntity
  8
0
 62
     7
100
AcDbLine
 10
341.45697
 20
202.120697
 30
0.0
 11
341.45697
 21
202.25
 31
0.0
  0
LINE
  5
D7
330
1F
100
AcDbEntity
  8
0
 62
     7
100
AcDbLine
 10
341.45697
 20
202.120697
 30
0.0
 11
341.45697
 21
201.979279
 31
0.0
  0
LINE
  5
D8
330
1F
100
AcDbEntity
  8
0
 62
     7
100
AcDbLine
 10
341.45697
 20
201.979279
 30
0.0
 11
341.45697
 21
201.850006
 31
0.0
  0
LINE
  5
D9
330
1F
100
AcDbEntity
  8
0
 62
     7
100
AcDbLine
 10
341.45697
 20
201.149994
 30
0.0
 11
341.45697
 21
201.850006
 31
0.0
  0
LINE
  5
DA
330
1F
100
AcDbEntity
  8
0
 62
     7
100
AcDbLine
 10
341.45697
 20
201.020721
 30
0.0
 11
341.45697
 21
201.149994
 31
0.0
  0
LINE
  5
DB
330
1F
100
AcDbEntity
  8
0
 62
     7
100
AcDbLine
 10
341.45697
 20
201.020721
 30
0.0
 11
341.45697
 21
200.879272
 31
0.0
  0
LINE
  5
DC
330
1F
100
AcDbEntity
  8
0
 62
     7
100
AcDbLine
 10
341.45697
 20
200.879272
 30
0.0
 11
341.45697
 21
200.75
 31
0.0
  0
LINE
  5
DD
330
1F
100
AcDbEntity
  8
0
 62
     7
100
AcDbLine
 10
341.45697
 20
200.049988
 30
0.0
 11
341.45697
 21
200.75
 31
0.0
  0
LINE
  5
DE
330
1F
100
AcDbEntity
  8
0
 62
     7
100
AcDbLine
 10
341.45697
 20
199.920715
 30
0.0
 11
341.45697
 21
200.049988
 31
0.0
  0
LINE
  5
DF
330
1F
100
AcDbEntity
  8
0
 62
     7
100
AcDbLine
 10
341.45697
 20
199.920715
 30
0.0
 11
341.45697
 21
199.779297
 31
0.0
  0
LINE
  5
E0
330
1F
100
AcDbEntity
  8
0
 62
     7
100
AcDbLine
 10
341.45697
 20
199.779297
 30
0.0
 11
341.45697
 21
199.649994
 31
0.0
  0
LINE
  5
E1
330
1F
100
AcDbEntity
  8
0
 62
     7
100
AcDbLine
 10
341.45697
 20
198.950012
 30
0.0
 11
341.45697
 21
199.649994
 31
0.0
  0
LINE
  5
E2
330
1F
100
AcDbEntity
  8
0
 62
     7
100
AcDbLine
 10
341.45697
 20
198.820709
 30
0.0
 11
341.45697
 21
198.950012
 31
0.0
  0
LINE
  5
E3
330
1F
100
AcDbEntity
  8
0
 62
     7
100
AcDbLine
 10
341.45697
 20
198.820709
 30
0.0
 11
341.45697
 21
198.679291
 31
0.0
  0
LINE
  5
E4
330
1F
100
AcDbEntity
  8
0
 62
     7
100
AcDbLine
 10
341.45697
 20
198.679291
 30
0.0
 11
341.45697
 21
198.549988
 31
0.0
  0
LINE
  5
E5
330
1F
100
AcDbEntity
  8
0
 62
     7
100
AcDbLine
 10
341.45697
 20
197.850006
 30
0.0
 11
341.45697
 21
198.549988
 31
0.0
  0
LINE
  5
E6
330
1F
100
AcDbEntity
  8
0
 62
     7
100
AcDbLine
 10
340.45697
 20
205.149994
 30
0.0
 11
340.45697
 21
204.450012
 31
0.0
  0
LINE
  5
E7
330
1F
100
AcDbEntity
  8
0
 62
     7
100
AcDbLine
 10
340.45697
 20
205.279297
 30
0.0
 11
340.45697
 21
205.149994
 31
0.0
  0
LINE
  5
E8
330
1F
100
AcDbEntity
  8
0
 62
     7
100
AcDbLine
 10
340.45697
 20
205.279297
 30
0.0
 11
340.45697
 21
205.350006
 31
0.0
  0
LINE
  5
E9
330
1F
100
AcDbEntity
  8
0
 62
     7
100
AcDbLine
 10
340.45697
 20
197.579285
 30
0.0
 11
340.45697
 21
197.449982
 31
0.0
  0
LINE
  5
EA
330
1F
100
AcDbEntity
  8
0
 62
     7
100
AcDbLine
 10
340.45697
 20
197.579285
 30
0.0
 11
340.45697
 21
197.720703
 31
0.0
  0
LINE
  5
EB
330
1F
100
AcDbEntity
  8
0
 62
     7
100
AcDbLine
 10
340.45697
 20
197.720703
 30
0.0
 11
340.45697
 21
197.850006
 31
0.0
  0
LINE
  5
EC
330
1F
100
AcDbEntity
  8
0
 62
     7
100
AcDbLine
 10
340.45697
 20
198.549988
 30
0.0
 11
340.45697
 21
197.850006
 31
0.0
  0
LINE
  5
ED
330
1F
100
AcDbEntity
  8
0
 62
     7
100
AcDbLine
 10
340.45697
 20
198.679291
 30
0.0
 11
340.45697
 21
198.549988
 31
0.0
  0
LINE
  5
EE
330
1F
100
AcDbEntity
  8
0
 62
     7
100
AcDbLine
 10
340.45697
 20
198.679291
 30
0.0
 11
340.45697
 21
198.820709
 31
0.0
  0
LINE
  5
EF
330
1F
100
AcDbEntity
  8
0
 62
     7
100
AcDbLine
 10
340.45697
 20
198.820709
 30
0.0
 11
340.45697
 21
198.950012
 31
0.0
  0
LINE
  5
F0
330
1F
100
AcDbEntity
  8
0
 62
     7
100
AcDbLine
 10
340.45697
 20
199.649994
 30
0.0
 11
340.45697
 21
198.950012
 31
0.0
  0
LINE
  5
F1
330
1F
100
AcDbEntity
  8
0
 62
     7
100
AcDbLine
 10
340.45697
 20
199.779297
 30
0.0
 11
340.45697
 21
199.649994
 31
0.0
  0
LINE
  5
F2
330
1F
100
AcDbEntity
  8
0
 62
     7
100
AcDbLine
 10
340.45697
 20
199.779297
 30
0.0
 11
340.45697
 21
199.920715
 31
0.0
  0
LINE
  5
F3
330
1F
100
AcDbEntity
  8
0
 62
     7
100
AcDbLine
 10
340.45697
 20
199.920715
 30
0.0
 11
340.45697
 21
200.049988
 31
0.0
  0
LINE
  5
F4
330
1F
100
AcDbEntity
  8
0
 62
     7
100
AcDbLine
 10
340.45697
 20
200.75
 30
0.0
 11
340.45697
 21
200.049988
 31
0.0
  0
LINE
  5
F5
330
1F
100
AcDbEntity
  8
0
 62
     7
100
AcDbLine
 10
340.45697
 20
200.879272
 30
0.0
 11
340.45697
 21
200.75
 31
0.0
  0
LINE
  5
F6
330
1F
100
AcDbEntity
  8
0
 62
     7
100
AcDbLine
 10
340.45697
 20
200.879272
 30
0.0
 11
340.45697
 21
201.020721
 31
0.0
  0
LINE
  5
F7
330
1F
100
AcDbEntity
  8
0
 62
     7
100
AcDbLine
 10
340.45697
 20
201.020721
 30
0.0
 11
340.45697
 21
201.149994
 31
0.0
  0
LINE
  5
F8
330
1F
100
AcDbEntity
  8
0
 62
     7
100
AcDbLine
 10
340.45697
 20
201.850006
 30
0.0
 11
340.45697
 21
201.149994
 31
0.0
  0
LINE
  5
F9
330
1F
100
AcDbEntity
  8
0
 62
     7
100
AcDbLine
 10
340.45697
 20
201.979279
 30
0.0
 11
340.45697
 21
201.850006
 31
0.0
  0
LINE
  5
FA
330
1F
100
AcDbEntity
  8
0
 62
     7
100
AcDbLine
 10
340.45697
 20
201.979279
 30
0.0
 11
340.45697
 21
202.120697
 31
0.0
  0
LINE
  5
FB
330
1F
100
AcDbEntity
  8
0
 62
     7
100
AcDbLine
 10
340.45697
 20
202.120697
 30
0.0
 11
340.45697
 21
202.25
 31
0.0
  0
LINE
  5
FC
330
1F
100
AcDbEntity
  8
0
 62
     7
100
AcDbLine
 10
340.45697
 20
202.950012
 30
0.0
 11
340.45697
 21
202.25
 31
0.0
  0
LINE
  5
FD
330
1F
100
AcDbEntity
  8
0
 62
     7
100
AcDbLine
 10
340.45697
 20
203.079285
 30
0.0
 11
340.45697
 21
202.950012
 31
0.0
  0
LINE
  5
FE
330
1F
100
AcDbEntity
  8
0
 62
     7
100
AcDbLine
 10
340.45697
 20
203.079285
 30
0.0
 11
340.45697
 21
203.220703
 31
0.0
  0
LINE
  5
FF
330
1F
100
AcDbEntity
  8
0
 62
     7
100
AcDbLine
 10
340.45697
 20
203.220703
 30
0.0
 11
340.45697
 21
203.350006
 31
0.0
  0
LINE
  5
100
330
1F
100
AcDbEntity
  8
0
 62
     7
100
AcDbLine
 10
340.45697
 20
204.049988
 30
0.0
 11
340.45697
 21
203.350006
 31
0.0
  0
LINE
  5
101
330
1F
100
AcDbEntity
  8
0
 62
     7
100
AcDbLine
 10
340.45697
 20
204.179291
 30
0.0
 11
340.45697
 21
204.049988
 31
0.0
  0
LINE
  5
102
330
1F
100
AcDbEntity
  8
0
 62
     7
100
AcDbLine
 10
340.45697
 20
204.179291
 30
0.0
 11
340.45697
 21
204.320709
 31
0.0
  0
LINE
  5
103
330
1F
100
AcDbEntity
  8
0
 62
     7
100
AcDbLine
 10
340.45697
 20
204.320709
 30
0.0
 11
340.45697
 21
204.450012
 31
0.0
  0
LINE
  5
104
330
1F
100
AcDbEntity
  8
0
 62
     7
100
AcDbLine
 10
338.156982
 20
197.579285
 30
0.0
 11
338.156982
 21
197.449982
 31
0.0
  0
LINE
  5
105
330
1F
100
AcDbEntity
  8
0
 62
     7
100
AcDbLine
 10
338.156982
 20
197.720703
 30
0.0
 11
338.156982
 21
197.850006
 31
0.0
  0
LINE
  5
106
330
1F
100
AcDbEntity
  8
0
 62
     7
100
AcDbLine
 10
338.156982
 20
197.720703
 30
0.0
 11
338.156982
 21
197.579285
 31
0.0
  0
LINE
  5
107
330
1F
100
AcDbEntity
  8
0
 62
     7
100
AcDbLine
 10
338.156982
 20
205.350006
 30
0.0
 11
338.156982
 21
205.279297
 31
0.0
  0
LINE
  5
108
330
1F
100
AcDbEntity
  8
0
 62
     7
100
AcDbLine
 10
338.156982
 20
205.279297
 30
0.0
 11
338.156982
 21
205.149994
 31
0.0
  0
LINE
  5
109
330
1F
100
AcDbEntity
  8
0
 62
     7
100
AcDbLine
 10
338.156982
 20
204.450012
 30
0.0
 11
338.156982
 21
205.149994
 31
0.0
  0
LINE
  5
10A
330
1F
100
AcDbEntity
  8
0
 62
     7
100
AcDbLine
 10
338.156982
 20
204.320709
 30
0.0
 11
338.156982
 21
204.450012
 31
0.0
  0
LINE
  5
10B
330
1F
100
AcDbEntity
  8
0
 62
     7
100
AcDbLine
 10
338.156982
 20
204.320709
 30
0.0
 11
338.156982
 21
204.179291
 31
0.0
  0
LINE
  5
10C
330
1F
100
AcDbEntity
  8
0
 62
     7
100
AcDbLine
 10
338.156982
 20
204.179291
 30
0.0
 11
338.156982
 21
204.049988
 31
0.0
  0
LINE
  5
10D
330
1F
100
AcDbEntity
  8
0
 62
     7
100
AcDbLine
 10
338.156982
 20
203.350006
 30
0.0
 11
338.156982
 21
204.049988
 31
0.0
  0
LINE
  5
10E
330
1F
100
AcDbEntity
  8
0
 62
     7
100
AcDbLine
 10
338.156982
 20
203.220703
 30
0.0
 11
338.156982
 21
203.350006
 31
0.0
  0
LINE
  5
10F
330
1F
100
AcDbEntity
  8
0
 62
     7
100
AcDbLine
 10
338.156982
 20
203.220703
 30
0.0
 11
338.156982
 21
203.079285
 31
0.0
  0
LINE
  5
110
330
1F
100
AcDbEntity
  8
0
 62
     7
100
AcDbLine
 10
338.156982
 20
203.079285
 30
0.0
 11
338.156982
 21
202.950012
 31
0.0
  0
LINE
  5
111
330
1F
100
AcDbEntity
  8
0
 62
     7
100
AcDbLine
 10
338.156982
 20
202.25
 30
0.0
 11
338.156982
 21
202.950012
 31
0.0
  0
LINE
  5
112
330
1F
100
AcDbEntity
  8
0
 62
     7
100
AcDbLine
 10
338.156982
 20
202.120697
 30
0.0
 11
338.156982
 21
202.25
 31
0.0
  0
LINE
  5
113
330
1F
100
AcDbEntity
  8
0
 62
     7
100
AcDbLine
 10
338.156982
 20
202.120697
 30
0.0
 11
338.156982
 21
201.979279
 31
0.0
  0
LINE
  5
114
330
1F
100
AcDbEntity
  8
0
 62
     7
100
AcDbLine
 10
338.156982
 20
201.979279
 30
0.0
 11
338.156982
 21
201.850006
 31
0.0
  0
LINE
  5
115
330
1F
100
AcDbEntity
  8
0
 62
     7
100
AcDbLine
 10
338.156982
 20
201.149994
 30
0.0
 11
338.156982
 21
201.850006
 31
0.0
  0
LINE
  5
116
330
1F
100
AcDbEntity
  8
0
 62
     7
100
AcDbLine
 10
338.156982
 20
201.020721
 30
0.0
 11
338.156982
 21
201.149994
 31
0.0
  0
LINE
  5
117
330
1F
100
AcDbEntity
  8
0
 62
     7
100
AcDbLine
 10
338.156982
 20
201.020721
 30
0.0
 11
338.156982
 21
200.879272
 31
0.0
  0
LINE
  5
118
330
1F
100
AcDbEntity
  8
0
 62
     7
100
AcDbLine
 10
338.156982
 20
200.879272
 30
0.0
 11
338.156982
 21
200.75
 31
0.0
  0
LINE
  5
119
330
1F
100
AcDbEntity
  8
0
 62
     7
100
AcDbLine
 10
338.156982
 20
200.049988
 30
0.0
 11
338.156982
 21
200.75
 31
0.0
  0
LINE
  5
11A
330
1F
100
AcDbEntity
  8
0
 62
     7
100
AcDbLine
 10
338.156982
 20
199.920715
 30
0.0
 11
338.156982
 21
200.049988
 31
0.0
  0
LINE
  5
11B
330
1F
100
AcDbEntity
  8
0
 62
     7
100
AcDbLine
 10
338.156982
 20
199.920715
 30
0.0
 11
338.156982
 21
199.779297
 31
0.0
  0
LINE
  5
11C
330
1F
100
AcDbEntity
  8
0
 62
     7
100
AcDbLine
 10
338.156982
 20
199.779297
 30
0.0
 11
338.156982
 21
199.649994
 31
0.0
  0
LINE
  5
11D
330
1F
100
AcDbEntity
  8
0
 62
     7
100
AcDbLine
 10
338.156982
 20
198.950012
 30
0.0
 11
338.156982
 21
199.649994
 31
0.0
  0
LINE
  5
11E
330
1F
100
AcDbEntity
  8
0
 62
     7
100
AcDbLine
 10
338.156982
 20
198.820709
 30
0.0
 11
338.156982
 21
198.950012
 31
0.0
  0
LINE
  5
11F
330
1F
100
AcDbEntity
  8
0
 62
     7
100
AcDbLine
 10
338.156982
 20
198.820709
 30
0.0
 11
338.156982
 21
198.679291
 31
0.0
  0
LINE
  5
120
330
1F
100
AcDbEntity
  8
0
 62
     7
100
AcDbLine
 10
338.156982
 20
198.679291
 30
0.0
 11
338.156982
 21
198.549988
 31
0.0
  0
LINE
  5
121
330
1F
100
AcDbEntity
  8
0
 62
     7
100
AcDbLine
 10
338.156982
 20
197.850006
 30
0.0
 11
338.156982
 21
198.549988
 31
0.0
  0
LINE
  5
122
330
1F
100
AcDbEntity
  8
0
 62
     7
100
AcDbLine
 10
337.156982
 20
204.179291
 30
0.0
 11
337.156982
 21
204.049988
 31
0.0
  0
LINE
  5
123
330
1F
100
AcDbEntity
  8
0
 62
     7
100
AcDbLine
 10
337.156982
 20
204.179291
 30
0.0
 11
337.156982
 21
204.320709
 31
0.0
  0
LINE
  5
124
330
1F
100
AcDbEntity
  8
0
 62
     7
100
AcDbLine
 10
337.156982
 20
204.320709
 30
0.0
 11
337.156982
 21
204.450012
 31
0.0
  0
LINE
  5
125
330
1F
100
AcDbEntity
  8
0
 62
     7
100
AcDbLine
 10
337.156982
 20
204.850006
 30
0.0
 11
337.156982
 21
204.450012
 31
0.0
  0
LINE
  5
126
330
1F
100
AcDbEntity
  8
0
 62
     7
100
AcDbLine
 10
337.156982
 20
197.579285
 30
0.0
 11
337.156982
 21
197.449982
 31
0.0
  0
LINE
  5
127
330
1F
100
AcDbEntity
  8
0
 62
     7
100
AcDbLine
 10
337.156982
 20
197.579285
 30
0.0
 11
337.156982
 21
197.720703
 31
0.0
  0
LINE
  5
128
330
1F
100
AcDbEntity
  8
0
 62
     7
100
AcDbLine
 10
337.156982
 20
197.720703
 30
0.0
 11
337.156982
 21
197.850006
 31
0.0
  0
LINE
  5
129
330
1F
100
AcDbEntity
  8
0
 62
     7
100
AcDbLine
 10
337.156982
 20
198.549988
 30
0.0
 11
337.156982
 21
197.850006
 31
0.0
  0
LINE
  5
12A
330
1F
100
AcDbEntity
  8
0
 62
     7
100
AcDbLine
 10
337.156982
 20
198.679291
 30
0.0
 11
337.156982
 21
198.549988
 31
0.0
  0
LINE
  5
12B
330
1F
100
AcDbEntity
  8
0
 62
     7
100
AcDbLine
 10
337.156982
 20
198.679291
 30
0.0
 11
337.156982
 21
198.820709
 31
0.0
  0
LINE
  5
12C
330
1F
100
AcDbEntity
  8
0
 62
     7
100
AcDbLine
 10
337.156982
 20
198.820709
 30
0.0
 11
337.156982
 21
198.950012
 31
0.0
  0
LINE
  5
12D
330
1F
100
AcDbEntity
  8
0
 62
     7
100
AcDbLine
 10
337.156982
 20
199.649994
 30
0.0
 11
337.156982
 21
198.950012
 31
0.0
  0
LINE
  5
12E
330
1F
100
AcDbEntity
  8
0
 62
     7
100
AcDbLine
 10
337.156982
 20
199.779297
 30
0.0
 11
337.156982
 21
199.649994
 31
0.0
  0
LINE
  5
12F
330
1F
100
AcDbEntity
  8
0
 62
     7
100
AcDbLine
 10
337.156982
 20
199.779297
 30
0.0
 11
337.156982
 21
199.920715
 31
0.0
  0
LINE
  5
130
330
1F
100
AcDbEntity
  8
0
 62
     7
100
AcDbLine
 10
337.156982
 20
199.920715
 30
0.0
 11
337.156982
 21
200.049988
 31
0.0
  0
LINE
  5
131
330
1F
100
AcDbEntity
  8
0
 62
     7
100
AcDbLine
 10
337.156982
 20
200.75
 30
0.0
 11
337.156982
 21
200.049988
 31
0.0
  0
LINE
  5
132
330
1F
100
AcDbEntity
  8
0
 62
     7
100
AcDbLine
 10
337.156982
 20
200.879272
 30
0.0
 11
337.156982
 21
200.75
 31
0.0
  0
LINE
  5
133
330
1F
100
AcDbEntity
  8
0
 62
     7
100
AcDbLine
 10
337.156982
 20
200.879272
 30
0.0
 11
337.156982
 21
201.020721
 31
0.0
  0
LINE
  5
134
330
1F
100
AcDbEntity
  8
0
 62
     7
100
AcDbLine
 10
337.156982
 20
201.020721
 30
0.0
 11
337.156982
 21
201.149994
 31
0.0
  0
LINE
  5
135
330
1F
100
AcDbEntity
  8
0
 62
     7
100
AcDbLine
 10
337.156982
 20
201.850006
 30
0.0
 11
337.156982
 21
201.149994
 31
0.0
  0
LINE
  5
136
330
1F
100
AcDbEntity
  8
0
 62
     7
100
AcDbLine
 10
337.156982
 20
201.979279
 30
0.0
 11
337.156982
 21
201.850006
 31
0.0
  0
LINE
  5
137
330
1F
100
AcDbEntity
  8
0
 62
     7
100
AcDbLine
 10
337.156982
 20
201.979279
 30
0.0
 11
337.156982
 21
202.120697
 31
0.0
  0
LINE
  5
138
330
1F
100
AcDbEntity
  8
0
 62
     7
100
AcDbLine
 10
337.156982
 20
202.120697
 30
0.0
 11
337.156982
 21
202.25
 31
0.0
  0
LINE
  5
139
330
1F
100
AcDbEntity
  8
0
 62
     7
100
AcDbLine
 10
337.156982
 20
202.950012
 30
0.0
 11
337.156982
 21
202.25
 31
0.0
  0
LINE
  5
13A
330
1F
100
AcDbEntity
  8
0
 62
     7
100
AcDbLine
 10
337.156982
 20
203.079285
 30
0.0
 11
337.156982
 21
202.950012
 31
0.0
  0
LINE
  5
13B
330
1F
100
AcDbEntity
  8
0
 62
     7
100
AcDbLine
 10
337.156982
 20
203.079285
 30
0.0
 11
337.156982
 21
203.220703
 31
0.0
  0
LINE
  5
13C
330
1F
100
AcDbEntity
  8
0
 62
     7
100
AcDbLine
 10
337.156982
 20
203.220703
 30
0.0
 11
337.156982
 21
203.350006
 31
0.0
  0
LINE
  5
13D
330
1F
100
AcDbEntity
  8
0
 62
     7
100
AcDbLine
 10
337.156982
 20
204.049988
 30
0.0
 11
337.156982
 21
203.350006
 31
0.0
  0
LINE
  5
13E
330
1F
100
AcDbEntity
  8
0
 62
     7
100
AcDbLine
 10
241.45694
 20
197.579285
 30
0.0
 11
241.45694
 21
197.449982
 31
0.0
  0
LINE
  5
13F
330
1F
100
AcDbEntity
  8
0
 62
     7
100
AcDbLine
 10
241.45694
 20
197.720703
 30
0.0
 11
241.45694
 21
197.850006
 31
0.0
  0
LINE
  5
140
330
1F
100
AcDbEntity
  8
0
 62
     7
100
AcDbLine
 10
241.45694
 20
197.720703
 30
0.0
 11
241.45694
 21
197.579285
 31
0.0
  0
LINE
  5
141
330
1F
100
AcDbEntity
  8
0
 62
     7
100
AcDbLine
 10
241.45694
 20
204.450012
 30
0.0
 11
241.45694
 21
204.850006
 31
0.0
  0
LINE
  5
142
330
1F
100
AcDbEntity
  8
0
 62
     7
100
AcDbLine
 10
241.45694
 20
204.320709
 30
0.0
 11
241.45694
 21
204.450012
 31
0.0
  0
LINE
  5
143
330
1F
100
AcDbEntity
  8
0
 62
     7
100
AcDbLine
 10
241.45694
 20
204.320709
 30
0.0
 11
241.45694
 21
204.179291
 31
0.0
  0
LINE
  5
144
330
1F
100
AcDbEntity
  8
0
 62
     7
100
AcDbLine
 10
241.45694
 20
204.179291
 30
0.0
 11
241.45694
 21
204.049988
 31
0.0
  0
LINE
  5
145
330
1F
100
AcDbEntity
  8
0
 62
     7
100
AcDbLine
 10
241.45694
 20
203.350006
 30
0.0
 11
241.45694
 21
204.049988
 31
0.0
  0
LINE
  5
146
330
1F
100
AcDbEntity
  8
0
 62
     7
100
AcDbLine
 10
241.45694
 20
203.220703
 30
0.0
 11
241.45694
 21
203.350006
 31
0.0
  0
LINE
  5
147
330
1F
100
AcDbEntity
  8
0
 62
     7
100
AcDbLine
 10
241.45694
 20
203.220703
 30
0.0
 11
241.45694
 21
203.079285
 31
0.0
  0
LINE
  5
148
330
1F
100
AcDbEntity
  8
0
 62
     7
100
AcDbLine
 10
241.45694
 20
203.079285
 30
0.0
 11
241.45694
 21
202.950012
 31
0.0
  0
LINE
  5
149
330
1F
100
AcDbEntity
  8
0
 62
     7
100
AcDbLine
 10
241.45694
 20
202.25
 30
0.0
 11
241.45694
 21
202.950012
 31
0.0
  0
LINE
  5
14A
330
1F
100
AcDbEntity
  8
0
 62
     7
100
AcDbLine
 10
241.45694
 20
202.120697
 30
0.0
 11
241.45694
 21
202.25
 31
0.0
  0
LINE
  5
14B
330
1F
100
AcDbEntity
  8
0
 62
     7
100
AcDbLine
 10
241.45694
 20
202.120697
 30
0.0
 11
241.45694
 21
201.979279
 31
0.0
  0
LINE
  5
14C
330
1F
100
AcDbEntity
  8
0
 62
     7
100
AcDbLine
 10
241.45694
 20
201.979279
 30
0.0
 11
241.45694
 21
201.850006
 31
0.0
  0
LINE
  5
14D
330
1F
100
AcDbEntity
  8
0
 62
     7
100
AcDbLine
 10
241.45694
 20
201.149994
 30
0.0
 11
241.45694
 21
201.850006
 31
0.0
  0
LINE
  5
14E
330
1F
100
AcDbEntity
  8
0
 62
     7
100
AcDbLine
 10
241.45694
 20
201.020721
 30
0.0
 11
241.45694
 21
201.149994
 31
0.0
  0
LINE
  5
14F
330
1F
100
AcDbEntity
  8
0
 62
     7
100
AcDbLine
 10
241.45694
 20
201.020721
 30
0.0
 11
241.45694
 21
200.879272
 31
0.0
  0
LINE
  5
150
330
1F
100
AcDbEntity
  8
0
 62
     7
100
AcDbLine
 10
241.45694
 20
200.879272
 30
0.0
 11
241.45694
 21
200.75
 31
0.0
  0
LINE
  5
151
330
1F
100
AcDbEntity
  8
0
 62
     7
100
AcDbLine
 10
241.45694
 20
200.049988
 30
0.0
 11
241.45694
 21
200.75
 31
0.0
  0
LINE
  5
152
330
1F
100
AcDbEntity
  8
0
 62
     7
100
AcDbLine
 10
241.45694
 20
199.920715
 30
0.0
 11
241.45694
 21
200.049988
 31
0.0
  0
LINE
  5
153
330
1F
100
AcDbEntity
  8
0
 62
     7
100
AcDbLine
 10
241.45694
 20
199.920715
 30
0.0
 11
241.45694
 21
199.779297
 31
0.0
  0
LINE
  5
154
330
1F
100
AcDbEntity
  8
0
 62
     7
100
AcDbLine
 10
241.45694
 20
199.779297
 30
0.0
 11
241.45694
 21
199.649994
 31
0.0
  0
LINE
  5
155
330
1F
100
AcDbEntity
  8
0
 62
     7
100
AcDbLine
 10
241.45694
 20
198.950012
 30
0.0
 11
241.45694
 21
199.649994
 31
0.0
  0
LINE
  5
156
330
1F
100
AcDbEntity
  8
0
 62
     7
100
AcDbLine
 10
241.45694
 20
198.820709
 30
0.0
 11
241.45694
 21
198.950012
 31
0.0
  0
LINE
  5
157
330
1F
100
AcDbEntity
  8
0
 62
     7
100
AcDbLine
 10
241.45694
 20
198.820709
 30
0.0
 11
241.45694
 21
198.679291
 31
0.0
  0
LINE
  5
158
330
1F
100
AcDbEntity
  8
0
 62
     7
100
AcDbLine
 10
241.45694
 20
198.679291
 30
0.0
 11
241.45694
 21
198.549988
 31
0.0
  0
LINE
  5
159
330
1F
100
AcDbEntity
  8
0
 62
     7
100
AcDbLine
 10
241.45694
 20
197.850006
 30
0.0
 11
241.45694
 21
198.549988
 31
0.0
  0
LINE
  5
15A
330
1F
100
AcDbEntity
  8
0
 62
     7
100
AcDbLine
 10
240.45694
 20
205.149994
 30
0.0
 11
240.45694
 21
204.450012
 31
0.0
  0
LINE
  5
15B
330
1F
100
AcDbEntity
  8
0
 62
     7
100
AcDbLine
 10
240.45694
 20
205.279297
 30
0.0
 11
240.45694
 21
205.149994
 31
0.0
  0
LINE
  5
15C
330
1F
100
AcDbEntity
  8
0
 62
     7
100
AcDbLine
 10
240.45694
 20
205.279297
 30
0.0
 11
240.45694
 21
205.350006
 31
0.0
  0
LINE
  5
15D
330
1F
100
AcDbEntity
  8
0
 62
     7
100
AcDbLine
 10
240.45694
 20
197.579285
 30
0.0
 11
240.45694
 21
197.449982
 31
0.0
  0
LINE
  5
15E
330
1F
100
AcDbEntity
  8
0
 62
     7
100
AcDbLine
 10
240.45694
 20
197.579285
 30
0.0
 11
240.45694
 21
197.720703
 31
0.0
  0
LINE
  5
15F
330
1F
100
AcDbEntity
  8
0
 62
     7
100
AcDbLine
 10
240.45694
 20
197.720703
 30
0.0
 11
240.45694
 21
197.850006
 31
0.0
  0
LINE
  5
160
330
1F
100
AcDbEntity
  8
0
 62
     7
100
AcDbLine
 10
240.45694
 20
198.549988
 30
0.0
 11
240.45694
 21
197.850006
 31
0.0
  0
LINE
  5
161
330
1F
100
AcDbEntity
  8
0
 62
     7
100
AcDbLine
 10
240.45694
 20
198.679291
 30
0.0
 11
240.45694
 21
198.549988
 31
0.0
  0
LINE
  5
162
330
1F
100
AcDbEntity
  8
0
 62
     7
100
AcDbLine
 10
240.45694
 20
198.679291
 30
0.0
 11
240.45694
 21
198.820709
 31
0.0
  0
LINE
  5
163
330
1F
100
AcDbEntity
  8
0
 62
     7
100
AcDbLine
 10
240.45694
 20
198.820709
 30
0.0
 11
240.45694
 21
198.950012
 31
0.0
  0
LINE
  5
164
330
1F
100
AcDbEntity
  8
0
 62
     7
100
AcDbLine
 10
240.45694
 20
199.649994
 30
0.0
 11
240.45694
 21
198.950012
 31
0.0
  0
LINE
  5
165
330
1F
100
AcDbEntity
  8
0
 62
     7
100
AcDbLine
 10
240.45694
 20
199.779297
 30
0.0
 11
240.45694
 21
199.649994
 31
0.0
  0
LINE
  5
166
330
1F
100
AcDbEntity
  8
0
 62
     7
100
AcDbLine
 10
240.45694
 20
199.779297
 30
0.0
 11
240.45694
 21
199.920715
 31
0.0
  0
LINE
  5
167
330
1F
100
AcDbEntity
  8
0
 62
     7
100
AcDbLine
 10
240.45694
 20
199.920715
 30
0.0
 11
240.45694
 21
200.049988
 31
0.0
  0
LINE
  5
168
330
1F
100
AcDbEntity
  8
0
 62
     7
100
AcDbLine
 10
240.45694
 20
200.75
 30
0.0
 11
240.45694
 21
200.049988
 31
0.0
  0
LINE
  5
169
330
1F
100
AcDbEntity
  8
0
 62
     7
100
AcDbLine
 10
240.45694
 20
200.879272
 30
0.0
 11
240.45694
 21
200.75
 31
0.0
  0
LINE
  5
16A
330
1F
100
AcDbEntity
  8
0
 62
     7
100
AcDbLine
 10
240.45694
 20
200.879272
 30
0.0
 11
240.45694
 21
201.020721
 31
0.0
  0
LINE
  5
16B
330
1F
100
AcDbEntity
  8
0
 62
     7
100
AcDbLine
 10
240.45694
 20
201.020721
 30
0.0
 11
240.45694
 21
201.149994
 31
0.0
  0
LINE
  5
16C
330
1F
100
AcDbEntity
  8
0
 62
     7
100
AcDbLine
 10
240.45694
 20
201.850006
 30
0.0
 11
240.45694
 21
201.149994
 31
0.0
  0
LINE
  5
16D
330
1F
100
AcDbEntity
  8
0
 62
     7
100
AcDbLine
 10
240.45694
 20
201.979279
 30
0.0
 11
240.45694
 21
201.850006
 31
0.0
  0
LINE
  5
16E
330
1F
100
AcDbEntity
  8
0
 62
     7
100
AcDbLine
 10
240.45694
 20
201.979279
 30
0.0
 11
240.45694
 21
202.120697
 31
0.0
  0
LINE
  5
16F
330
1F
100
AcDbEntity
  8
0
 62
     7
100
AcDbLine
 10
240.45694
 20
202.120697
 30
0.0
 11
240.45694
 21
202.25
 31
0.0
  0
LINE
  5
170
330
1F
100
AcDbEntity
  8
0
 62
     7
100
AcDbLine
 10
240.45694
 20
202.950012
 30
0.0
 11
240.45694
 21
202.25
 31
0.0
  0
LINE
  5
171
330
1F
100
AcDbEntity
  8
0
 62
     7
100
AcDbLine
 10
240.45694
 20
203.079285
 30
0.0
 11
240.45694
 21
202.950012
 31
0.0
  0
LINE
  5
172
330
1F
100
AcDbEntity
  8
0
 62
     7
100
AcDbLine
 10
240.45694
 20
203.079285
 30
0.0
 11
240.45694
 21
203.220703
 31
0.0
  0
LINE
  5
173
330
1F
100
AcDbEntity
  8
0
 62
     7
100
AcDbLine
 10
240.45694
 20
203.220703
 30
0.0
 11
240.45694
 21
203.350006
 31
0.0
  0
LINE
  5
174
330
1F
100
AcDbEntity
  8
0
 62
     7
100
AcDbLine
 10
240.45694
 20
204.049988
 30
0.0
 11
240.45694
 21
203.350006
 31
0.0
  0
LINE
  5
175
330
1F
100
AcDbEntity
  8
0
 62
     7
100
AcDbLine
 10
240.45694
 20
204.179291
 30
0.0
 11
240.45694
 21
204.049988
 31
0.0
  0
LINE
  5
176
330
1F
100
AcDbEntity
  8
0
 62
     7
100
AcDbLine
 10
240.45694
 20
204.179291
 30
0.0
 11
240.45694
 21
204.320709
 31
0.0
  0
LINE
  5
177
330
1F
100
AcDbEntity
  8
0
 62
     7
100
AcDbLine
 10
240.45694
 20
204.320709
 30
0.0
 11
240.45694
 21
204.450012
 31
0.0
  0
LINE
  5
178
330
1F
100
AcDbEntity
  8
0
 62
     7
100
AcDbLine
 10
238.156952
 20
197.579285
 30
0.0
 11
238.156952
 21
197.449982
 31
0.0
  0
LINE
  5
179
330
1F
100
AcDbEntity
  8
0
 62
     7
100
AcDbLine
 10
238.156952
 20
197.720703
 30
0.0
 11
238.156952
 21
197.850006
 31
0.0
  0
LINE
  5
17A
330
1F
100
AcDbEntity
  8
0
 62
     7
100
AcDbLine
 10
238.156952
 20
197.720703
 30
0.0
 11
238.156952
 21
197.579285
 31
0.0
  0
LINE
  5
17B
330
1F
100
AcDbEntity
  8
0
 62
     7
100
AcDbLine
 10
238.156952
 20
205.350006
 30
0.0
 11
238.156952
 21
205.279297
 31
0.0
  0
LINE
  5
17C
330
1F
100
AcDbEntity
  8
0
 62
     7
100
AcDbLine
 10
238.156952
 20
205.279297
 30
0.0
 11
238.156952
 21
205.149994
 31
0.0
  0
LINE
  5
17D
330
1F
100
AcDbEntity
  8
0
 62
     7
100
AcDbLine
 10
238.156952
 20
204.450012
 30
0.0
 11
238.156952
 21
205.149994
 31
0.0
  0
LINE
  5
17E
330
1F
100
AcDbEntity
  8
0
 62
     7
100
AcDbLine
 10
238.156952
 20
204.320709
 30
0.0
 11
238.156952
 21
204.450012
 31
0.0
  0
LINE
  5
17F
330
1F
100
AcDbEntity
  8
0
 62
     7
100
AcDbLine
 10
238.156952
 20
204.320709
 30
0.0
 11
238.156952
 21
204.179291
 31
0.0
  0
LINE
  5
180
330
1F
100
AcDbEntity
  8
0
 62
     7
100
AcDbLine
 10
238.156952
 20
204.179291
 30
0.0
 11
238.156952
 21
204.049988
 31
0.0
  0
LINE
  5
181
330
1F
100
AcDbEntity
  8
0
 62
     7
100
AcDbLine
 10
238.156952
 20
203.350006
 30
0.0
 11
238.156952
 21
204.049988
 31
0.0
  0
LINE
  5
182
330
1F
100
AcDbEntity
  8
0
 62
     7
100
AcDbLine
 10
238.156952
 20
203.220703
 30
0.0
 11
238.156952
 21
203.350006
 31
0.0
  0
LINE
  5
183
330
1F
100
AcDbEntity
  8
0
 62
     7
100
AcDbLine
 10
238.156952
 20
203.220703
 30
0.0
 11
238.156952
 21
203.079285
 31
0.0
  0
LINE
  5
184
330
1F
100
AcDbEntity
  8
0
 62
     7
100
AcDbLine
 10
238.156952
 20
203.079285
 30
0.0
 11
238.156952
 21
202.950012
 31
0.0
  0
LINE
  5
185
330
1F
100
AcDbEntity
  8
0
 62
     7
100
AcDbLine
 10
238.156952
 20
202.25
 30
0.0
 11
238.156952
 21
202.950012
 31
0.0
  0
LINE
  5
186
330
1F
100
AcDbEntity
  8
0
 62
     7
100
AcDbLine
 10
238.156952
 20
202.120697
 30
0.0
 11
238.156952
 21
202.25
 31
0.0
  0
LINE
  5
187
330
1F
100
AcDbEntity
  8
0
 62
     7
100
AcDbLine
 10
238.156952
 20
202.120697
 30
0.0
 11
238.156952
 21
201.979279
 31
0.0
  0
LINE
  5
188
330
1F
100
AcDbEntity
  8
0
 62
     7
100
AcDbLine
 10
238.156952
 20
201.979279
 30
0.0
 11
238.156952
 21
201.850006
 31
0.0
  0
LINE
  5
189
330
1F
100
AcDbEntity
  8
0
 62
     7
100
AcDbLine
 10
238.156952
 20
201.149994
 30
0.0
 11
238.156952
 21
201.850006
 31
0.0
  0
LINE
  5
18A
330
1F
100
AcDbEntity
  8
0
 62
     7
100
AcDbLine
 10
238.156952
 20
201.020721
 30
0.0
 11
238.156952
 21
201.149994
 31
0.0
  0
LINE
  5
18B
330
1F
100
AcDbEntity
  8
0
 62
     7
100
AcDbLine
 10
238.156952
 20
201.020721
 30
0.0
 11
238.156952
 21
200.879272
 31
0.0
  0
LINE
  5
18C
330
1F
100
AcDbEntity
  8
0
 62
     7
100
AcDbLine
 10
238.156952
 20
200.879272
 30
0.0
 11
238.156952
 21
200.75
 31
0.0
  0
LINE
  5
18D
330
1F
100
AcDbEntity
  8
0
 62
     7
100
AcDbLine
 10
238.156952
 20
200.049988
 30
0.0
 11
238.156952
 21
200.75
 31
0.0
  0
LINE
  5
18E
330
1F
100
AcDbEntity
  8
0
 62
     7
100
AcDbLine
 10
238.156952
 20
199.920715
 30
0.0
 11
238.156952
 21
200.049988
 31
0.0
  0
LINE
  5
18F
330
1F
100
AcDbEntity
  8
0
 62
     7
100
AcDbLine
 10
238.156952
 20
199.920715
 30
0.0
 11
238.156952
 21
199.779297
 31
0.0
  0
LINE
  5
190
330
1F
100
AcDbEntity
  8
0
 62
     7
100
AcDbLine
 10
238.156952
 20
199.779297
 30
0.0
 11
238.156952
 21
199.649994
 31
0.0
  0
LINE
  5
191
330
1F
100
AcDbEntity
  8
0
 62
     7
100
AcDbLine
 10
238.156952
 20
198.950012
 30
0.0
 11
238.156952
 21
199.649994
 31
0.0
  0
LINE
  5
192
330
1F
100
AcDbEntity
  8
0
 62
     7
100
AcDbLine
 10
238.156952
 20
198.820709
 30
0.0
 11
238.156952
 21
198.950012
 31
0.0
  0
LINE
  5
193
330
1F
100
AcDbEntity
  8
0
 62
     7
100
AcDbLine
 10
238.156952
 20
198.820709
 30
0.0
 11
238.156952
 21
198.679291
 31
0.0
  0
LINE
  5
194
330
1F
100
AcDbEntity
  8
0
 62
     7
100
AcDbLine
 10
238.156952
 20
198.679291
 30
0.0
 11
238.156952
 21
198.549988
 31
0.0
  0
LINE
  5
195
330
1F
100
AcDbEntity
  8
0
 62
     7
100
AcDbLine
 10
238.156952
 20
197.850006
 30
0.0
 11
238.156952
 21
198.549988
 31
0.0
  0
LINE
  5
196
330
1F
100
AcDbEntity
  8
0
 62
     7
100
AcDbLine
 10
237.156952
 20
204.179291
 30
0.0
 11
237.156952
 21
204.049988
 31
0.0
  0
LINE
  5
197
330
1F
100
AcDbEntity
  8
0
 62
     7
100
AcDbLine
 10
237.156952
 20
204.179291
 30
0.0
 11
237.156952
 21
204.320709
 31
0.0
  0
LINE
  5
198
330
1F
100
AcDbEntity
  8
0
 62
     7
100
AcDbLine
 10
237.156952
 20
204.320709
 30
0.0
 11
237.156952
 21
204.450012
 31
0.0
  0
LINE
  5
199
330
1F
100
AcDbEntity
  8
0
 62
     7
100
AcDbLine
 10
237.156952
 20
204.850006
 30
0.0
 11
237.156952
 21
204.450012
 31
0.0
  0
LINE
  5
19A
330
1F
100
AcDbEntity
  8
0
 62
     7
100
AcDbLine
 10
237.156952
 20
197.579285
 30
0.0
 11
237.156952
 21
197.449982
 31
0.0
  0
LINE
  5
19B
330
1F
100
AcDbEntity
  8
0
 62
     7
100
AcDbLine
 10
237.156952
 20
197.579285
 30
0.0
 11
237.156952
 21
197.720703
 31
0.0
  0
LINE
  5
19C
330
1F
100
AcDbEntity
  8
0
 62
     7
100
AcDbLine
 10
237.156952
 20
197.720703
 30
0.0
 11
237.156952
 21
197.850006
 31
0.0
  0
LINE
  5
19D
330
1F
100
AcDbEntity
  8
0
 62
     7
100
AcDbLine
 10
237.156952
 20
198.549988
 30
0.0
 11
237.156952
 21
197.850006
 31
0.0
  0
LINE
  5
19E
330
1F
100
AcDbEntity
  8
0
 62
     7
100
AcDbLine
 10
237.156952
 20
198.679291
 30
0.0
 11
237.156952
 21
198.549988
 31
0.0
  0
LINE
  5
19F
330
1F
100
AcDbEntity
  8
0
 62
     7
100
AcDbLine
 10
237.156952
 20
198.679291
 30
0.0
 11
237.156952
 21
198.820709
 31
0.0
  0
LINE
  5
1A0
330
1F
100
AcDbEntity
  8
0
 62
     7
100
AcDbLine
 10
237.156952
 20
198.820709
 30
0.0
 11
237.156952
 21
198.950012
 31
0.0
  0
LINE
  5
1A1
330
1F
100
AcDbEntity
  8
0
 62
     7
100
AcDbLine
 10
237.156952
 20
199.649994
 30
0.0
 11
237.156952
 21
198.950012
 31
0.0
  0
LINE
  5
1A2
330
1F
100
AcDbEntity
  8
0
 62
     7
100
AcDbLine
 10
237.156952
 20
199.779297
 30
0.0
 11
237.156952
 21
199.649994
 31
0.0
  0
LINE
  5
1A3
330
1F
100
AcDbEntity
  8
0
 62
     7
100
AcDbLine
 10
237.156952
 20
199.779297
 30
0.0
 11
237.156952
 21
199.920715
 31
0.0
  0
LINE
  5
1A4
330
1F
100
AcDbEntity
  8
0
 62
     7
100
AcDbLine
 10
237.156952
 20
199.920715
 30
0.0
 11
237.156952
 21
200.049988
 31
0.0
  0
LINE
  5
1A5
330
1F
100
AcDbEntity
  8
0
 62
     7
100
AcDbLine
 10
237.156952
 20
200.75
 30
0.0
 11
237.156952
 21
200.049988
 31
0.0
  0
LINE
  5
1A6
330
1F
100
AcDbEntity
  8
0
 62
     7
100
AcDbLine
 10
237.156952
 20
200.879272
 30
0.0
 11
237.156952
 21
200.75
 31
0.0
  0
LINE
  5
1A7
330
1F
100
AcDbEntity
  8
0
 62
     7
100
AcDbLine
 10
237.156952
 20
200.879272
 30
0.0
 11
237.156952
 21
201.020721
 31
0.0
  0
LINE
  5
1A8
330
1F
100
AcDbEntity
  8
0
 62
     7
100
AcDbLine
 10
237.156952
 20
201.020721
 30
0.0
 11
237.156952
 21
201.149994
 31
0.0
  0
LINE
  5
1A9
330
1F
100
AcDbEntity
  8
0
 62
     7
100
AcDbLine
 10
237.156952
 20
201.850006
 30
0.0
 11
237.156952
 21
201.149994
 31
0.0
  0
LINE
  5
1AA
330
1F
100
AcDbEntity
  8
0
 62
     7
100
AcDbLine
 10
237.156952
 20
201.979279
 30
0.0
 11
237.156952
 21
201.850006
 31
0.0
  0
LINE
  5
1AB
330
1F
100
AcDbEntity
  8
0
 62
     7
100
AcDbLine
 10
237.156952
 20
201.979279
 30
0.0
 11
237.156952
 21
202.120697
 31
0.0
  0
LINE
  5
1AC
330
1F
100
AcDbEntity
  8
0
 62
     7
100
AcDbLine
 10
237.156952
 20
202.120697
 30
0.0
 11
237.156952
 21
202.25
 31
0.0
  0
LINE
  5
1AD
330
1F
100
AcDbEntity
  8
0
 62
     7
100
AcDbLine
 10
237.156952
 20
202.950012
 30
0.0
 11
237.156952
 21
202.25
 31
0.0
  0
LINE
  5
1AE
330
1F
100
AcDbEntity
  8
0
 62
     7
100
AcDbLine
 10
237.156952
 20
203.079285
 30
0.0
 11
237.156952
 21
202.950012
 31
0.0
  0
LINE
  5
1AF
330
1F
100
AcDbEntity
  8
0
 62
     7
100
AcDbLine
 10
237.156952
 20
203.079285
 30
0.0
 11
237.156952
 21
203.220703
 31
0.0
  0
LINE
  5
1B0
330
1F
100
AcDbEntity
  8
0
 62
     7
100
AcDbLine
 10
237.156952
 20
203.220703
 30
0.0
 11
237.156952
 21
203.350006
 31
0.0
  0
LINE
  5
1B1
330
1F
100
AcDbEntity
  8
0
 62
     7
100
AcDbLine
 10
237.156952
 20
204.049988
 30
0.0
 11
237.156952
 21
203.350006
 31
0.0
  0
LINE
  5
1B2
330
1F
100
AcDbEntity
  8
0
 62
     7
100
AcDbLine
 10
178.488266
 20
197.449982
 30
0.0
 11
178.57164
 21
197.579285
 31
0.0
  0
ARC
  5
1B3
330
1F
100
AcDbEntity
  8
0
 62
     7
100
AcDbCircle
 10
171.806946
 20
201.850006
 30
0.0
 40
8.0
100
AcDbArc
 50
354.980203
 51
360.0
  0
LINE
  5
1B4
330
1F
100
AcDbEntity
  8
0
 62
     7
100
AcDbLine
 10
179.76384
 20
201.020721
 30
0.0
 11
179.77626
 21
201.149994
 31
0.0
  0
LINE
  5
1B5
330
1F
100
AcDbEntity
  8
0
 62
     7
100
AcDbLine
 10
179.747833
 20
200.879272
 30
0.0
 11
179.76384
 21
201.020721
 31
0.0
  0
LINE
  5
1B6
330
1F
100
AcDbEntity
  8
0
 62
     7
100
AcDbLine
 10
179.730957
 20
200.75
 30
0.0
 11
179.747833
 21
200.879272
 31
0.0
  0
ARC
  5
1B7
330
1F
100
AcDbEntity
  8
0
 62
     7
100
AcDbCircle
 10
171.806946
 20
201.850006
 30
0.0
 40
8.0
100
AcDbArc
 50
346.997132
 51
352.096798
  0
LINE
  5
1B8
330
1F
100
AcDbEntity
  8
0
 62
     7
100
AcDbLine
 10
179.570831
 20
199.920715
 30
0.0
 11
179.601822
 21
200.049988
 31
0.0
  0
LINE
  5
1B9
330
1F
100
AcDbEntity
  8
0
 62
     7
100
AcDbLine
 10
179.534302
 20
199.779297
 30
0.0
 11
179.570831
 21
199.920715
 31
0.0
  0
LINE
  5
1BA
330
1F
100
AcDbEntity
  8
0
 62
     7
100
AcDbLine
 10
179.498505
 20
199.649994
 30
0.0
 11
179.534302
 21
199.779297
 31
0.0
  0
ARC
  5
1BB
330
1F
100
AcDbEntity
  8
0
 62
     7
100
AcDbCircle
 10
171.806946
 20
201.850006
 30
0.0
 40
8.0
100
AcDbArc
 50
338.746183
 51
344.037995
  0
LINE
  5
1BC
330
1F
100
AcDbEntity
  8
0
 62
     7
100
AcDbLine
 10
179.211227
 20
198.820709
 30
0.0
 11
179.262817
 21
198.950012
 31
0.0
  0
LINE
  5
1BD
330
1F
100
AcDbEntity
  8
0
 62
     7
100
AcDbLine
 10
179.151779
 20
198.679291
 30
0.0
 11
179.211227
 21
198.820709
 31
0.0
  0
LINE
  5
1BE
330
1F
100
AcDbEntity
  8
0
 62
     7
100
AcDbLine
 10
179.094604
 20
198.549988
 30
0.0
 11
179.151779
 21
198.679291
 31
0.0
  0
ARC
  5
1BF
330
1F
100
AcDbEntity
  8
0
 62
     7
100
AcDbCircle
 10
171.806946
 20
201.850006
 30
0.0
 40
8.0
100
AcDbArc
 50
329.999989
 51
335.63801
  0
LINE
  5
1C0
330
1F
100
AcDbEntity
  8
0
 62
     7
100
AcDbLine
 10
178.658875
 20
197.720703
 30
0.0
 11
178.735153
 21
197.850006
 31
0.0
  0
LINE
  5
1C1
330
1F
100
AcDbEntity
  8
0
 62
     7
100
AcDbLine
 10
178.57164
 20
197.579285
 30
0.0
 11
178.658875
 21
197.720703
 31
0.0
  0
LINE
  5
1C2
330
1F
100
AcDbEntity
  8
0
 62
     7
100
AcDbLine
 10
165.125626
 20
197.449982
 30
0.0
 11
165.042252
 21
197.579285
 31
0.0
  0
LINE
  5
1C3
330
1F
100
AcDbEntity
  8
0
 62
     7
100
AcDbLine
 10
165.042252
 20
197.579285
 30
0.0
 11
164.955017
 21
197.720703
 31
0.0
  0
LINE
  5
1C4
330
1F
100
AcDbEntity
  8
0
 62
     7
100
AcDbLine
 10
164.955017
 20
197.720703
 30
0.0
 11
164.878738
 21
197.850006
 31
0.0
  0
ARC
  5
1C5
330
1F
100
AcDbEntity
  8
0
 62
     7
100
AcDbCircle
 10
171.806946
 20
201.850006
 30
0.0
 40
8.0
100
AcDbArc
 50
204.361982
 51
210.000003
  0
LINE
  5
1C6
330
1F
100
AcDbEntity
  8
0
 62
     7
100
AcDbLine
 10
164.519287
 20
198.549988
 30
0.0
 11
164.462112
 21
198.679291
 31
0.0
  0
LINE
  5
1C7
330
1F
100
AcDbEntity
  8
0
 62
     7
100
AcDbLine
 10
164.462112
 20
198.679291
 30
0.0
 11
164.402664
 21
198.820709
 31
0.0
  0
LINE
  5
1C8
330
1F
100
AcDbEntity
  8
0
 62
     7
100
AcDbLine
 10
164.402664
 20
198.820709
 30
0.0
 11
164.351074
 21
198.950012
 31
0.0
  0
ARC
  5
1C9
330
1F
100
AcDbEntity
  8
0
 62
     7
100
AcDbCircle
 10
171.806946
 20
201.850006
 30
0.0
 40
8.0
100
AcDbArc
 50
195.96201
 51
201.253809
  0
LINE
  5
1CA
330
1F
100
AcDbEntity
  8
0
 62
     7
100
AcDbLine
 10
164.115387
 20
199.649994
 30
0.0
 11
164.079575
 21
199.779297
 31
0.0
  0
LINE
  5
1CB
330
1F
100
AcDbEntity
  8
0
 62
     7
100
AcDbLine
 10
164.079575
 20
199.779297
 30
0.0
 11
164.04306
 21
199.920715
 31
0.0
  0
LINE
  5
1CC
330
1F
100
AcDbEntity
  8
0
 62
     7
100
AcDbLine
 10
164.04306
 20
199.920715
 30
0.0
 11
164.01207
 21
200.049988
 31
0.0
  0
ARC
  5
1CD
330
1F
100
AcDbEntity
  8
0
 62
     7
100
AcDbCircle
 10
171.806946
 20
201.850006
 30
0.0
 40
8.0
100
AcDbArc
 50
187.903207
 51
193.002872
  0
LINE
  5
1CE
330
1F
100
AcDbEntity
  8
0
 62
     7
100
AcDbLine
 10
163.882935
 20
200.75
 30
0.0
 11
163.866058
 21
200.879272
 31
0.0
  0
LINE
  5
1CF
330
1F
100
AcDbEntity
  8
0
 62
     7
100
AcDbLine
 10
163.866058
 20
200.879272
 30
0.0
 11
163.850052
 21
201.020721
 31
0.0
  0
LINE
  5
1D0
330
1F
100
AcDbEntity
  8
0
 62
     7
100
AcDbLine
 10
163.850052
 20
201.020721
 30
0.0
 11
163.837631
 21
201.149994
 31
0.0
  0
ARC
  5
1D1
330
1F
100
AcDbEntity
  8
0
 62
     7
100
AcDbCircle
 10
171.806946
 20
201.850006
 30
0.0
 40
8.0
100
AcDbArc
 50
180.000009
 51
185.019802
  0
LINE
  5
1D2
330
1F
100
AcDbEntity
  8
0
 62
     7
100
AcDbLine
 10
162.806946
 20
197.579285
 30
0.0
 11
162.806946
 21
197.449982
 31
0.0
  0
LINE
  5
1D3
330
1F
100
AcDbEntity
  8
0
 62
     7
100
AcDbLine
 10
162.806946
 20
197.720703
 30
0.0
 11
162.806946
 21
197.579285
 31
0.0
  0
LINE
  5
1D4
330
1F
100
AcDbEntity
  8
0
 62
     7
100
AcDbLine
 10
162.806946
 20
197.850006
 30
0.0
 11
162.806946
 21
197.720703
 31
0.0
  0
LINE
  5
1D5
330
1F
100
AcDbEntity
  8
0
 62
     7
100
AcDbLine
 10
162.806946
 20
197.850006
 30
0.0
 11
162.806946
 21
198.549988
 31
0.0
  0
LINE
  5
1D6
330
1F
100
AcDbEntity
  8
0
 62
     7
100
AcDbLine
 10
162.806946
 20
198.679291
 30
0.0
 11
162.806946
 21
198.549988
 31
0.0
  0
LINE
  5
1D7
330
1F
100
AcDbEntity
  8
0
 62
     7
100
AcDbLine
 10
162.806946
 20
198.820709
 30
0.0
 11
162.806946
 21
198.679291
 31
0.0
  0
LINE
  5
1D8
330
1F
100
AcDbEntity
  8
0
 62
     7
100
AcDbLine
 10
162.806946
 20
198.950012
 30
0.0
 11
162.806946
 21
198.820709
 31
0.0
  0
LINE
  5
1D9
330
1F
100
AcDbEntity
  8
0
 62
     7
100
AcDbLine
 10
162.806946
 20
198.950012
 30
0.0
 11
162.806946
 21
199.649994
 31
0.0
  0
LINE
  5
1DA
330
1F
100
AcDbEntity
  8
0
 62
     7
100
AcDbLine
 10
162.806946
 20
199.779297
 30
0.0
 11
162.806946
 21
199.649994
 31
0.0
  0
LINE
  5
1DB
330
1F
100
AcDbEntity
  8
0
 62
     7
100
AcDbLine
 10
162.806946
 20
199.920715
 30
0.0
 11
162.806946
 21
199.779297
 31
0.0
  0
LINE
  5
1DC
330
1F
100
AcDbEntity
  8
0
 62
     7
100
AcDbLine
 10
162.806946
 20
200.049988
 30
0.0
 11
162.806946
 21
199.920715
 31
0.0
  0
LINE
  5
1DD
330
1F
100
AcDbEntity
  8
0
 62
     7
100
AcDbLine
 10
162.806946
 20
200.049988
 30
0.0
 11
162.806946
 21
200.75
 31
0.0
  0
LINE
  5
1DE
330
1F
100
AcDbEntity
  8
0
 62
     7
100
AcDbLine
 10
162.806946
 20
200.879272
 30
0.0
 11
162.806946
 21
200.75
 31
0.0
  0
LINE
  5
1DF
330
1F
100
AcDbEntity
  8
0
 62
     7
100
AcDbLine
 10
162.806946
 20
201.020721
 30
0.0
 11
162.806946
 21
200.879272
 31
0.0
  0
LINE
  5
1E0
330
1F
100
AcDbEntity
  8
0
 62
     7
100
AcDbLine
 10
162.806946
 20
201.149994
 30
0.0
 11
162.806946
 21
201.020721
 31
0.0
  0
LINE
  5
1E1
330
1F
100
AcDbEntity
  8
0
 62
     7
100
AcDbLine
 10
162.806946
 20
201.149994
 30
0.0
 11
162.806946
 21
201.850006
 31
0.0
  0
LINE
  5
1E2
330
1F
100
AcDbEntity
  8
0
 62
     7
100
AcDbLine
 10
162.806946
 20
201.979279
 30
0.0
 11
162.806946
 21
201.850006
 31
0.0
  0
LINE
  5
1E3
330
1F
100
AcDbEntity
  8
0
 62
     7
100
AcDbLine
 10
162.806946
 20
202.120697
 30
0.0
 11
162.806946
 21
201.979279
 31
0.0
  0
LINE
  5
1E4
330
1F
100
AcDbEntity
  8
0
 62
     7
100
AcDbLine
 10
162.806946
 20
202.25
 30
0.0
 11
162.806946
 21
202.120697
 31
0.0
  0
LINE
  5
1E5
330
1F
100
AcDbEntity
  8
0
 62
     7
100
AcDbLine
 10
162.806946
 20
202.25
 30
0.0
 11
162.806946
 21
202.950012
 31
0.0
  0
LINE
  5
1E6
330
1F
100
AcDbEntity
  8
0
 62
     7
100
AcDbLine
 10
162.806946
 20
203.079285
 30
0.0
 11
162.806946
 21
202.950012
 31
0.0
  0
LINE
  5
1E7
330
1F
100
AcDbEntity
  8
0
 62
     7
100
AcDbLine
 10
162.806946
 20
203.220703
 30
0.0
 11
162.806946
 21
203.079285
 31
0.0
  0
LINE
  5
1E8
330
1F
100
AcDbEntity
  8
0
 62
     7
100
AcDbLine
 10
162.806946
 20
203.350006
 30
0.0
 11
162.806946
 21
203.220703
 31
0.0
  0
LINE
  5
1E9
330
1F
100
AcDbEntity
  8
0
 62
     7
100
AcDbLine
 10
162.806946
 20
203.350006
 30
0.0
 11
162.806946
 21
204.049988
 31
0.0
  0
LINE
  5
1EA
330
1F
100
AcDbEntity
  8
0
 62
     7
100
AcDbLine
 10
162.806946
 20
204.179291
 30
0.0
 11
162.806946
 21
204.049988
 31
0.0
  0
LINE
  5
1EB
330
1F
100
AcDbEntity
  8
0
 62
     7
100
AcDbLine
 10
162.806946
 20
204.320709
 30
0.0
 11
162.806946
 21
204.179291
 31
0.0
  0
LINE
  5
1EC
330
1F
100
AcDbEntity
  8
0
 62
     7
100
AcDbLine
 10
162.806946
 20
204.450012
 30
0.0
 11
162.806946
 21
204.320709
 31
0.0
  0
LINE
  5
1ED
330
1F
100
AcDbEntity
  8
0
 62
     7
100
AcDbLine
 10
162.806946
 20
204.450012
 30
0.0
 11
162.806946
 21
205.149994
 31
0.0
  0
LINE
  5
1EE
330
1F
100
AcDbEntity
  8
0
 62
     7
100
AcDbLine
 10
162.806946
 20
205.279297
 30
0.0
 11
162.806946
 21
205.149994
 31
0.0
  0
LINE
  5
1EF
330
1F
100
AcDbEntity
  8
0
 62
     7
100
AcDbLine
 10
162.806946
 20
205.420715
 30
0.0
 11
162.806946
 21
205.279297
 31
0.0
  0
LINE
  5
1F0
330
1F
100
AcDbEntity
  8
0
 62
     7
100
AcDbLine
 10
162.806946
 20
205.549988
 30
0.0
 11
162.806946
 21
205.420715
 31
0.0
  0
LINE
  5
1F1
330
1F
100
AcDbEntity
  8
0
 62
     7
100
AcDbLine
 10
162.806946
 20
205.549988
 30
0.0
 11
162.806946
 21
206.25
 31
0.0
  0
LINE
  5
1F2
330
1F
100
AcDbEntity
  8
0
 62
     7
100
AcDbLine
 10
162.806946
 20
206.379272
 30
0.0
 11
162.806946
 21
206.25
 31
0.0
  0
LINE
  5
1F3
330
1F
100
AcDbEntity
  8
0
 62
     7
100
AcDbLine
 10
162.806946
 20
206.520721
 30
0.0
 11
162.806946
 21
206.379272
 31
0.0
  0
LINE
  5
1F4
330
1F
100
AcDbEntity
  8
0
 62
     7
100
AcDbLine
 10
162.806946
 20
206.649994
 30
0.0
 11
162.806946
 21
206.520721
 31
0.0
  0
LINE
  5
1F5
330
1F
100
AcDbEntity
  8
0
 62
     7
100
AcDbLine
 10
162.806946
 20
206.649994
 30
0.0
 11
162.806946
 21
211.474274
 31
0.0
  0
LINE
  5
1F6
330
1F
100
AcDbEntity
  8
0
 62
     7
100
AcDbLine
 10
162.806946
 20
211.962128
 30
0.0
 11
162.806946
 21
211.474274
 31
0.0
  0
LINE
  5
1F7
330
1F
100
AcDbEntity
  8
0
 62
     7
100
AcDbLine
 10
162.806946
 20
212.049988
 30
0.0
 11
162.806946
 21
211.962128
 31
0.0
  0
ARC
  5
1F8
330
1F
100
AcDbEntity
  8
0
 62
     7
100
AcDbCircle
 10
340.306976
 20
189.049988
 30
0.0
 40
0.5
100
AcDbArc
 50
0.0
 51
90.000003
  0
LINE
  5
1F9
330
1F
100
AcDbEntity
  8
0
 62
     7
100
AcDbLine
 10
340.306976
 20
189.549988
 30
0.0
 11
333.306976
 21
189.549988
 31
0.0
  0
ARC
  5
1FA
330
1F
100
AcDbEntity
  8
0
 62
     7
100
AcDbCircle
 10
333.306976
 20
189.049988
 30
0.0
 40
0.5
100
AcDbArc
 50
90.000003
 51
180.000009
  0
LINE
  5
1FB
330
1F
100
AcDbEntity
  8
0
 62
     7
100
AcDbLine
 10
332.806976
 20
189.049988
 30
0.0
 11
332.806976
 21
185.049988
 31
0.0
  0
ARC
  5
1FC
330
1F
100
AcDbEntity
  8
0
 62
     7
100
AcDbCircle
 10
333.306976
 20
185.049988
 30
0.0
 40
0.5
100
AcDbArc
 50
180.000009
 51
269.999997
  0
LINE
  5
1FD
330
1F
100
AcDbEntity
  8
0
 62
     7
100
AcDbLine
 10
333.306976
 20
184.549988
 30
0.0
 11
340.306976
 21
184.549988
 31
0.0
  0
ARC
  5
1FE
330
1F
100
AcDbEntity
  8
0
 62
     7
100
AcDbCircle
 10
340.306976
 20
185.049988
 30
0.0
 40
0.5
100
AcDbArc
 50
269.999997
 51
360.0
  0
LINE
  5
1FF
330
1F
100
AcDbEntity
  8
0
 62
     7
100
AcDbLine
 10
340.806976
 20
185.049988
 30
0.0
 11
340.806976
 21
189.049988
 31
0.0
  0
ARC
  5
200
330
1F
100
AcDbEntity
  8
0
 62
     7
100
AcDbCircle
 10
220.306946
 20
189.049988
 30
0.0
 40
0.5
100
AcDbArc
 50
0.0
 51
90.000003
  0
LINE
  5
201
330
1F
100
AcDbEntity
  8
0
 62
     7
100
AcDbLine
 10
220.306946
 20
189.549988
 30
0.0
 11
213.306946
 21
189.549988
 31
0.0
  0
ARC
  5
202
330
1F
100
AcDbEntity
  8
0
 62
     7
100
AcDbCircle
 10
213.306946
 20
189.049988
 30
0.0
 40
0.5
100
AcDbArc
 50
90.000003
 51
180.000009
  0
LINE
  5
203
330
1F
100
AcDbEntity
  8
0
 62
     7
100
AcDbLine
 10
212.806946
 20
189.049988
 30
0.0
 11
212.806946
 21
185.049988
 31
0.0
  0
ARC
  5
204
330
1F
100
AcDbEntity
  8
0
 62
     7
100
AcDbCircle
 10
213.306946
 20
185.049988
 30
0.0
 40
0.5
100
AcDbArc
 50
180.000009
 51
269.999997
  0
LINE
  5
205
330
1F
100
AcDbEntity
  8
0
 62
     7
100
AcDbLine
 10
213.306946
 20
184.549988
 30
0.0
 11
220.306946
 21
184.549988
 31
0.0
  0
ARC
  5
206
330
1F
100
AcDbEntity
  8
0
 62
     7
100
AcDbCircle
 10
220.306946
 20
185.049988
 30
0.0
 40
0.5
100
AcDbArc
 50
269.999997
 51
360.0
  0
LINE
  5
207
330
1F
100
AcDbEntity
  8
0
 62
     7
100
AcDbLine
 10
220.806946
 20
185.049988
 30
0.0
 11
220.806946
 21
189.049988
 31
0.0
  0
LINE
  5
208
330
1F
100
AcDbEntity
  8
0
 62
     7
100
AcDbLine
 10
416.306976
 20
189.850006
 30
0.0
 11
415.806976
 21
189.850006
 31
0.0
  0
LINE
  5
209
330
1F
100
AcDbEntity
  8
0
 62
     7
100
AcDbLine
 10
415.806976
 20
192.149994
 30
0.0
 11
416.306976
 21
192.149994
 31
0.0
  0
LINE
  5
20A
330
1F
100
AcDbEntity
  8
0
 62
     7
100
AcDbLine
 10
162.306946
 20
192.149994
 30
0.0
 11
162.806946
 21
192.149994
 31
0.0
  0
LINE
  5
20B
330
1F
100
AcDbEntity
  8
0
 62
     7
100
AcDbLine
 10
343.306976
 20
211.962128
 30
0.0
 11
343.306976
 21
212.049988
 31
0.0
  0
LINE
  5
20C
330
1F
100
AcDbEntity
  8
0
 62
     7
100
AcDbLine
 10
343.306976
 20
211.962128
 30
0.0
 11
343.306976
 21
211.474274
 31
0.0
  0
LINE
  5
20D
330
1F
100
AcDbEntity
  8
0
 62
     7
100
AcDbLine
 10
415.806976
 20
211.474274
 30
0.0
 11
343.306976
 21
211.474274
 31
0.0
  0
ARC
  5
20E
330
1F
100
AcDbEntity
  8
0
 62
     7
100
AcDbCircle
 10
406.806976
 20
201.850006
 30
0.0
 40
8.0
100
AcDbArc
 50
36.869897
 51
143.130097
  0
LINE
  5
20F
330
1F
100
AcDbEntity
  8
0
 62
     7
100
AcDbLine
 10
415.806976
 20
206.649994
 30
0.0
 11
413.20697
 21
206.649994
 31
0.0
  0
LINE
  5
210
330
1F
100
AcDbEntity
  8
0
 62
     7
100
AcDbLine
 10
343.306976
 20
206.649994
 30
0.0
 11
343.306976
 21
211.474274
 31
0.0
  0
LINE
  5
211
330
1F
100
AcDbEntity
  8
0
 62
     7
100
AcDbLine
 10
400.406982
 20
206.649994
 30
0.0
 11
343.306976
 21
206.649994
 31
0.0
  0
LINE
  5
212
330
1F
100
AcDbEntity
  8
0
 62
     7
100
AcDbLine
 10
413.20697
 20
206.649994
 30
0.0
 11
413.30191
 21
206.520721
 31
0.0
  0
LINE
  5
213
330
1F
100
AcDbEntity
  8
0
 62
     7
100
AcDbLine
 10
413.30191
 20
206.520721
 30
0.0
 11
413.401337
 21
206.379272
 31
0.0
  0
LINE
  5
214
330
1F
100
AcDbEntity
  8
0
 62
     7
100
AcDbLine
 10
413.401337
 20
206.379272
 30
0.0
 11
413.488281
 21
206.25
 31
0.0
  0
LINE
  5
215
330
1F
100
AcDbEntity
  8
0
 62
     7
100
AcDbLine
 10
415.806976
 20
206.25
 30
0.0
 11
413.488281
 21
206.25
 31
0.0
  0
ARC
  5
216
330
1F
100
AcDbEntity
  8
0
 62
     7
100
AcDbCircle
 10
406.806976
 20
201.850006
 30
0.0
 40
8.0
100
AcDbArc
 50
27.548547
 51
33.367014
  0
LINE
  5
217
330
1F
100
AcDbEntity
  8
0
 62
     7
100
AcDbLine
 10
415.806976
 20
205.549988
 30
0.0
 11
413.899933
 21
205.549988
 31
0.0
  0
LINE
  5
218
330
1F
100
AcDbEntity
  8
0
 62
     7
100
AcDbLine
 10
413.899933
 20
205.549988
 30
0.0
 11
413.965881
 21
205.420715
 31
0.0
  0
LINE
  5
219
330
1F
100
AcDbEntity
  8
0
 62
     7
100
AcDbLine
 10
413.965881
 20
205.420715
 30
0.0
 11
414.034698
 21
205.279297
 31
0.0
  0
LINE
  5
21A
330
1F
100
AcDbEntity
  8
0
 62
     7
100
AcDbLine
 10
414.034698
 20
205.279297
 30
0.0
 11
414.094635
 21
205.149994
 31
0.0
  0
LINE
  5
21B
330
1F
100
AcDbEntity
  8
0
 62
     7
100
AcDbLine
 10
415.806976
 20
205.149994
 30
0.0
 11
414.094635
 21
205.149994
 31
0.0
  0
ARC
  5
21C
330
1F
100
AcDbEntity
  8
0
 62
     7
100
AcDbCircle
 10
406.806976
 20
201.850006
 30
0.0
 40
8.0
100
AcDbArc
 50
18.965574
 51
24.361978
  0
LINE
  5
21D
330
1F
100
AcDbEntity
  8
0
 62
     7
100
AcDbLine
 10
415.806976
 20
204.450012
 30
0.0
 11
414.372681
 21
204.450012
 31
0.0
  0
LINE
  5
21E
330
1F
100
AcDbEntity
  8
0
 62
     7
100
AcDbLine
 10
414.372681
 20
204.450012
 30
0.0
 11
414.415894
 21
204.320709
 31
0.0
  0
LINE
  5
21F
330
1F
100
AcDbEntity
  8
0
 62
     7
100
AcDbLine
 10
414.415894
 20
204.320709
 30
0.0
 11
414.460358
 21
204.179291
 31
0.0
  0
LINE
  5
220
330
1F
100
AcDbEntity
  8
0
 62
     7
100
AcDbLine
 10
414.460358
 20
204.179291
 30
0.0
 11
414.498535
 21
204.049988
 31
0.0
  0
LINE
  5
221
330
1F
100
AcDbEntity
  8
0
 62
     7
100
AcDbLine
 10
415.806976
 20
204.049988
 30
0.0
 11
414.498535
 21
204.049988
 31
0.0
  0
ARC
  5
222
330
1F
100
AcDbEntity
  8
0
 62
     7
100
AcDbCircle
 10
406.806976
 20
201.850006
 30
0.0
 40
8.0
100
AcDbArc
 50
10.806925
 51
15.962019
  0
LINE
  5
223
330
1F
100
AcDbEntity
  8
0
 62
     7
100
AcDbLine
 10
415.806976
 20
203.350006
 30
0.0
 11
414.6651
 21
203.350006
 31
0.0
  0
LINE
  5
224
330
1F
100
AcDbEntity
  8
0
 62
     7
100
AcDbLine
 10
414.6651
 20
203.350006
 30
0.0
 11
414.68866
 21
203.220703
 31
0.0
  0
LINE
  5
225
330
1F
100
AcDbEntity
  8
0
 62
     7
100
AcDbLine
 10
414.68866
 20
203.220703
 30
0.0
 11
414.711945
 21
203.079285
 31
0.0
  0
LINE
  5
226
330
1F
100
AcDbEntity
  8
0
 62
     7
100
AcDbLine
 10
414.711945
 20
203.079285
 30
0.0
 11
414.730988
 21
202.950012
 31
0.0
  0
LINE
  5
227
330
1F
100
AcDbEntity
  8
0
 62
     7
100
AcDbLine
 10
415.806976
 20
202.950012
 30
0.0
 11
414.730988
 21
202.950012
 31
0.0
  0
ARC
  5
228
330
1F
100
AcDbEntity
  8
0
 62
     7
100
AcDbCircle
 10
406.806976
 20
201.850006
 30
0.0
 40
8.0
100
AcDbArc
 50
2.865984
 51
7.903208
  0
LINE
  5
229
330
1F
100
AcDbEntity
  8
0
 62
     7
100
AcDbLine
 10
415.806976
 20
202.25
 30
0.0
 11
414.796967
 21
202.25
 31
0.0
  0
LINE
  5
22A
330
1F
100
AcDbEntity
  8
0
 62
     7
100
AcDbLine
 10
414.796967
 20
202.25
 30
0.0
 11
414.802399
 21
202.120697
 31
0.0
  0
LINE
  5
22B
330
1F
100
AcDbEntity
  8
0
 62
     7
100
AcDbLine
 10
414.802399
 20
202.120697
 30
0.0
 11
414.805939
 21
201.979279
 31
0.0
  0
LINE
  5
22C
330
1F
100
AcDbEntity
  8
0
 62
     7
100
AcDbLine
 10
414.805939
 20
201.979279
 30
0.0
 11
414.806976
 21
201.850006
 31
0.0
  0
LINE
  5
22D
330
1F
100
AcDbEntity
  8
0
 62
     7
100
AcDbLine
 10
415.806976
 20
201.850006
 30
0.0
 11
414.806976
 21
201.850006
 31
0.0
  0
LINE
  5
22E
330
1F
100
AcDbEntity
  8
0
 62
     7
100
AcDbLine
 10
415.806976
 20
201.149994
 30
0.0
 11
414.776276
 21
201.149994
 31
0.0
  0
LINE
  5
22F
330
1F
100
AcDbEntity
  8
0
 62
     7
100
AcDbLine
 10
415.806976
 20
200.75
 30
0.0
 11
414.730988
 21
200.75
 31
0.0
  0
LINE
  5
230
330
1F
100
AcDbEntity
  8
0
 62
     7
100
AcDbLine
 10
415.806976
 20
200.049988
 30
0.0
 11
414.601837
 21
200.049988
 31
0.0
  0
LINE
  5
231
330
1F
100
AcDbEntity
  8
0
 62
     7
100
AcDbLine
 10
415.806976
 20
199.649994
 30
0.0
 11
414.498535
 21
199.649994
 31
0.0
  0
LINE
  5
232
330
1F
100
AcDbEntity
  8
0
 62
     7
100
AcDbLine
 10
415.806976
 20
198.950012
 30
0.0
 11
414.262848
 21
198.950012
 31
0.0
  0
LINE
  5
233
330
1F
100
AcDbEntity
  8
0
 62
     7
100
AcDbLine
 10
415.806976
 20
198.549988
 30
0.0
 11
414.094635
 21
198.549988
 31
0.0
  0
LINE
  5
234
330
1F
100
AcDbEntity
  8
0
 62
     7
100
AcDbLine
 10
415.806976
 20
197.850006
 30
0.0
 11
413.735168
 21
197.850006
 31
0.0
  0
LINE
  5
235
330
1F
100
AcDbEntity
  8
0
 62
     7
100
AcDbLine
 10
399.878754
 20
197.850006
 30
0.0
 11
341.45697
 21
197.850006
 31
0.0
  0
LINE
  5
236
330
1F
100
AcDbEntity
  8
0
 62
     7
100
AcDbLine
 10
399.519318
 20
198.549988
 30
0.0
 11
341.45697
 21
198.549988
 31
0.0
  0
LINE
  5
237
330
1F
100
AcDbEntity
  8
0
 62
     7
100
AcDbLine
 10
399.351105
 20
198.950012
 30
0.0
 11
341.45697
 21
198.950012
 31
0.0
  0
LINE
  5
238
330
1F
100
AcDbEntity
  8
0
 62
     7
100
AcDbLine
 10
399.115417
 20
199.649994
 30
0.0
 11
341.45697
 21
199.649994
 31
0.0
  0
LINE
  5
239
330
1F
100
AcDbEntity
  8
0
 62
     7
100
AcDbLine
 10
399.012085
 20
200.049988
 30
0.0
 11
341.45697
 21
200.049988
 31
0.0
  0
LINE
  5
23A
330
1F
100
AcDbEntity
  8
0
 62
     7
100
AcDbLine
 10
398.882965
 20
200.75
 30
0.0
 11
341.45697
 21
200.75
 31
0.0
  0
LINE
  5
23B
330
1F
100
AcDbEntity
  8
0
 62
     7
100
AcDbLine
 10
398.837646
 20
201.149994
 30
0.0
 11
341.45697
 21
201.149994
 31
0.0
  0
LINE
  5
23C
330
1F
100
AcDbEntity
  8
0
 62
     7
100
AcDbLine
 10
398.806976
 20
201.850006
 30
0.0
 11
341.45697
 21
201.850006
 31
0.0
  0
LINE
  5
23D
330
1F
100
AcDbEntity
  8
0
 62
     7
100
AcDbLine
 10
398.808014
 20
201.979279
 30
0.0
 11
398.806976
 21
201.850006
 31
0.0
  0
LINE
  5
23E
330
1F
100
AcDbEntity
  8
0
 62
     7
100
AcDbLine
 10
398.811554
 20
202.120697
 30
0.0
 11
398.808014
 21
201.979279
 31
0.0
  0
LINE
  5
23F
330
1F
100
AcDbEntity
  8
0
 62
     7
100
AcDbLine
 10
398.816986
 20
202.25
 30
0.0
 11
398.811554
 21
202.120697
 31
0.0
  0
ARC
  5
240
330
1F
100
AcDbEntity
  8
0
 62
     7
100
AcDbCircle
 10
406.806976
 20
201.850006
 30
0.0
 40
8.0
100
AcDbArc
 50
172.096793
 51
177.134017
  0
LINE
  5
241
330
1F
100
AcDbEntity
  8
0
 62
     7
100
AcDbLine
 10
398.901978
 20
203.079285
 30
0.0
 11
398.882965
 21
202.950012
 31
0.0
  0
LINE
  5
242
330
1F
100
AcDbEntity
  8
0
 62
     7
100
AcDbLine
 10
398.925262
 20
203.220703
 30
0.0
 11
398.901978
 21
203.079285
 31
0.0
  0
LINE
  5
243
330
1F
100
AcDbEntity
  8
0
 62
     7
100
AcDbLine
 10
398.948853
 20
203.350006
 30
0.0
 11
398.925262
 21
203.220703
 31
0.0
  0
ARC
  5
244
330
1F
100
AcDbEntity
  8
0
 62
     7
100
AcDbCircle
 10
406.806976
 20
201.850006
 30
0.0
 40
8.0
100
AcDbArc
 50
164.03799
 51
169.193075
  0
LINE
  5
245
330
1F
100
AcDbEntity
  8
0
 62
     7
100
AcDbLine
 10
399.153564
 20
204.179291
 30
0.0
 11
399.115417
 21
204.049988
 31
0.0
  0
LINE
  5
246
330
1F
100
AcDbEntity
  8
0
 62
     7
100
AcDbLine
 10
399.198059
 20
204.320709
 30
0.0
 11
399.153564
 21
204.179291
 31
0.0
  0
LINE
  5
247
330
1F
100
AcDbEntity
  8
0
 62
     7
100
AcDbLine
 10
399.241241
 20
204.450012
 30
0.0
 11
399.198059
 21
204.320709
 31
0.0
  0
ARC
  5
248
330
1F
100
AcDbEntity
  8
0
 62
     7
100
AcDbCircle
 10
406.806976
 20
201.850006
 30
0.0
 40
8.0
100
AcDbArc
 50
155.638018
 51
161.034427
  0
LINE
  5
249
330
1F
100
AcDbEntity
  8
0
 62
     7
100
AcDbLine
 10
399.579254
 20
205.279297
 30
0.0
 11
399.519318
 21
205.149994
 31
0.0
  0
LINE
  5
24A
330
1F
100
AcDbEntity
  8
0
 62
     7
100
AcDbLine
 10
399.648071
 20
205.420715
 30
0.0
 11
399.579254
 21
205.279297
 31
0.0
  0
LINE
  5
24B
330
1F
100
AcDbEntity
  8
0
 62
     7
100
AcDbLine
 10
399.71402
 20
205.549988
 30
0.0
 11
399.648071
 21
205.420715
 31
0.0
  0
ARC
  5
24C
330
1F
100
AcDbEntity
  8
0
 62
     7
100
AcDbCircle
 10
406.806976
 20
201.850006
 30
0.0
 40
8.0
100
AcDbArc
 50
146.632987
 51
152.451448
  0
LINE
  5
24D
330
1F
100
AcDbEntity
  8
0
 62
     7
100
AcDbLine
 10
400.212616
 20
206.379272
 30
0.0
 11
400.125641
 21
206.25
 31
0.0
  0
LINE
  5
24E
330
1F
100
AcDbEntity
  8
0
 62
     7
100
AcDbLine
 10
400.312012
 20
206.520721
 30
0.0
 11
400.212616
 21
206.379272
 31
0.0
  0
LINE
  5
24F
330
1F
100
AcDbEntity
  8
0
 62
     7
100
AcDbLine
 10
400.406982
 20
206.649994
 30
0.0
 11
400.312012
 21
206.520721
 31
0.0
  0
CIRCLE
  5
250
330
1F
100
AcDbEntity
  8
0
 62
     7
100
AcDbCircle
 10
406.806976
 20
201.850006
 30
0.0
 40
7.5
  0
LINE
  5
251
330
1F
100
AcDbEntity
  8
0
 62
     7
100
AcDbLine
 10
341.806976
 20
204.850006
 30
0.0
 11
341.45697
 21
204.850006
 31
0.0
  0
LINE
  5
252
330
1F
100
AcDbEntity
  8
0
 62
     7
100
AcDbLine
 10
399.519318
 20
205.149994
 30
0.0
 11
342.70697
 21
205.149994
 31
0.0
  0
ARC
  5
253
330
1F
100
AcDbEntity
  8
0
 62
     7
100
AcDbCircle
 10
341.806976
 20
206.350006
 30
0.0
 40
1.5
100
AcDbArc
 50
269.999997
 51
314.454478
  0
LINE
  5
254
330
1F
100
AcDbEntity
  8
0
 62
     7
100
AcDbLine
 10
399.241241
 20
204.450012
 30
0.0
 11
341.45697
 21
204.450012
 31
0.0
  0
LINE
  5
255
330
1F
100
AcDbEntity
  8
0
 62
     7
100
AcDbLine
 10
399.115417
 20
204.049988
 30
0.0
 11
341.45697
 21
204.049988
 31
0.0
  0
LINE
  5
256
330
1F
100
AcDbEntity
  8
0
 62
     7
100
AcDbLine
 10
398.948853
 20
203.350006
 30
0.0
 11
341.45697
 21
203.350006
 31
0.0
  0
LINE
  5
257
330
1F
100
AcDbEntity
  8
0
 62
     7
100
AcDbLine
 10
398.882965
 20
202.950012
 30
0.0
 11
341.45697
 21
202.950012
 31
0.0
  0
LINE
  5
258
330
1F
100
AcDbEntity
  8
0
 62
     7
100
AcDbLine
 10
398.816986
 20
202.25
 30
0.0
 11
341.45697
 21
202.25
 31
0.0
  0
LINE
  5
259
330
1F
100
AcDbEntity
  8
0
 62
     7
100
AcDbLine
 10
340.45697
 20
205.149994
 30
0.0
 11
338.156982
 21
205.149994
 31
0.0
  0
LINE
  5
25A
330
1F
100
AcDbEntity
  8
0
 62
     7
100
AcDbLine
 10
340.45697
 20
204.450012
 30
0.0
 11
338.156982
 21
204.450012
 31
0.0
  0
ARC
  5
25B
330
1F
100
AcDbEntity
  8
0
 62
     7
100
AcDbCircle
 10
337.656982
 20
205.350006
 30
0.0
 40
0.5
100
AcDbArc
 50
0.0
 51
8.130103
  0
ARC
  5
25C
330
1F
100
AcDbEntity
  8
0
 62
     7
100
AcDbCircle
 10
340.95697
 20
205.350006
 30
0.0
 40
0.5
100
AcDbArc
 50
171.869894
 51
180.000009
  0
ARC
  5
25D
330
1F
100
AcDbEntity
  8
0
 62
     7
100
AcDbCircle
 10
340.95697
 20
205.350006
 30
0.0
 40
0.5
100
AcDbArc
 50
90.000003
 51
171.869894
  0
LINE
  5
25E
330
1F
100
AcDbEntity
  8
0
 62
     7
100
AcDbLine
 10
340.45697
 20
197.850006
 30
0.0
 11
338.156982
 21
197.850006
 31
0.0
  0
LINE
  5
25F
330
1F
100
AcDbEntity
  8
0
 62
     7
100
AcDbLine
 10
340.45697
 20
198.549988
 30
0.0
 11
338.156982
 21
198.549988
 31
0.0
  0
LINE
  5
260
330
1F
100
AcDbEntity
  8
0
 62
     7
100
AcDbLine
 10
340.45697
 20
198.950012
 30
0.0
 11
338.156982
 21
198.950012
 31
0.0
  0
LINE
  5
261
330
1F
100
AcDbEntity
  8
0
 62
     7
100
AcDbLine
 10
340.45697
 20
199.649994
 30
0.0
 11
338.156982
 21
199.649994
 31
0.0
  0
LINE
  5
262
330
1F
100
AcDbEntity
  8
0
 62
     7
100
AcDbLine
 10
340.45697
 20
200.049988
 30
0.0
 11
338.156982
 21
200.049988
 31
0.0
  0
LINE
  5
263
330
1F
100
AcDbEntity
  8
0
 62
     7
100
AcDbLine
 10
340.45697
 20
200.75
 30
0.0
 11
338.156982
 21
200.75
 31
0.0
  0
LINE
  5
264
330
1F
100
AcDbEntity
  8
0
 62
     7
100
AcDbLine
 10
340.45697
 20
201.149994
 30
0.0
 11
338.156982
 21
201.149994
 31
0.0
  0
LINE
  5
265
330
1F
100
AcDbEntity
  8
0
 62
     7
100
AcDbLine
 10
340.45697
 20
201.850006
 30
0.0
 11
338.156982
 21
201.850006
 31
0.0
  0
LINE
  5
266
330
1F
100
AcDbEntity
  8
0
 62
     7
100
AcDbLine
 10
340.45697
 20
202.25
 30
0.0
 11
338.156982
 21
202.25
 31
0.0
  0
LINE
  5
267
330
1F
100
AcDbEntity
  8
0
 62
     7
100
AcDbLine
 10
340.45697
 20
202.950012
 30
0.0
 11
338.156982
 21
202.950012
 31
0.0
  0
LINE
  5
268
330
1F
100
AcDbEntity
  8
0
 62
     7
100
AcDbLine
 10
340.45697
 20
203.350006
 30
0.0
 11
338.156982
 21
203.350006
 31
0.0
  0
LINE
  5
269
330
1F
100
AcDbEntity
  8
0
 62
     7
100
AcDbLine
 10
340.45697
 20
204.049988
 30
0.0
 11
338.156982
 21
204.049988
 31
0.0
  0
ARC
  5
26A
330
1F
100
AcDbEntity
  8
0
 62
     7
100
AcDbCircle
 10
337.656982
 20
205.350006
 30
0.0
 40
0.5
100
AcDbArc
 50
8.130103
 51
90.000003
  0
LINE
  5
26B
330
1F
100
AcDbEntity
  8
0
 62
     7
100
AcDbLine
 10
337.156982
 20
204.049988
 30
0.0
 11
241.45694
 21
204.049988
 31
0.0
  0
LINE
  5
26C
330
1F
100
AcDbEntity
  8
0
 62
     7
100
AcDbLine
 10
337.156982
 20
204.450012
 30
0.0
 11
241.45694
 21
204.450012
 31
0.0
  0
LINE
  5
26D
330
1F
100
AcDbEntity
  8
0
 62
     7
100
AcDbLine
 10
337.156982
 20
204.850006
 30
0.0
 11
336.806976
 21
204.850006
 31
0.0
  0
ARC
  5
26E
330
1F
100
AcDbEntity
  8
0
 62
     7
100
AcDbCircle
 10
336.806976
 20
206.350006
 30
0.0
 40
1.5
100
AcDbArc
 50
212.230947
 51
269.999997
  0
LINE
  5
26F
330
1F
100
AcDbEntity
  8
0
 62
     7
100
AcDbLine
 10
335.906982
 20
205.149994
 30
0.0
 11
242.70694
 21
205.149994
 31
0.0
  0
ARC
  5
270
330
1F
100
AcDbEntity
  8
0
 62
     7
100
AcDbCircle
 10
241.806946
 20
206.350006
 30
0.0
 40
1.5
100
AcDbArc
 50
269.999997
 51
314.454478
  0
LINE
  5
271
330
1F
100
AcDbEntity
  8
0
 62
     7
100
AcDbLine
 10
241.806946
 20
204.850006
 30
0.0
 11
241.45694
 21
204.850006
 31
0.0
  0
LINE
  5
272
330
1F
100
AcDbEntity
  8
0
 62
     7
100
AcDbLine
 10
337.156982
 20
197.850006
 30
0.0
 11
241.45694
 21
197.850006
 31
0.0
  0
LINE
  5
273
330
1F
100
AcDbEntity
  8
0
 62
     7
100
AcDbLine
 10
337.156982
 20
198.549988
 30
0.0
 11
241.45694
 21
198.549988
 31
0.0
  0
LINE
  5
274
330
1F
100
AcDbEntity
  8
0
 62
     7
100
AcDbLine
 10
337.156982
 20
198.950012
 30
0.0
 11
241.45694
 21
198.950012
 31
0.0
  0
LINE
  5
275
330
1F
100
AcDbEntity
  8
0
 62
     7
100
AcDbLine
 10
337.156982
 20
199.649994
 30
0.0
 11
241.45694
 21
199.649994
 31
0.0
  0
LINE
  5
276
330
1F
100
AcDbEntity
  8
0
 62
     7
100
AcDbLine
 10
337.156982
 20
200.049988
 30
0.0
 11
241.45694
 21
200.049988
 31
0.0
  0
LINE
  5
277
330
1F
100
AcDbEntity
  8
0
 62
     7
100
AcDbLine
 10
337.156982
 20
200.75
 30
0.0
 11
241.45694
 21
200.75
 31
0.0
  0
LINE
  5
278
330
1F
100
AcDbEntity
  8
0
 62
     7
100
AcDbLine
 10
337.156982
 20
201.149994
 30
0.0
 11
241.45694
 21
201.149994
 31
0.0
  0
LINE
  5
279
330
1F
100
AcDbEntity
  8
0
 62
     7
100
AcDbLine
 10
337.156982
 20
201.850006
 30
0.0
 11
241.45694
 21
201.850006
 31
0.0
  0
LINE
  5
27A
330
1F
100
AcDbEntity
  8
0
 62
     7
100
AcDbLine
 10
337.156982
 20
202.25
 30
0.0
 11
241.45694
 21
202.25
 31
0.0
  0
LINE
  5
27B
330
1F
100
AcDbEntity
  8
0
 62
     7
100
AcDbLine
 10
337.156982
 20
202.950012
 30
0.0
 11
241.45694
 21
202.950012
 31
0.0
  0
LINE
  5
27C
330
1F
100
AcDbEntity
  8
0
 62
     7
100
AcDbLine
 10
337.156982
 20
203.350006
 30
0.0
 11
241.45694
 21
203.350006
 31
0.0
  0
LINE
  5
27D
330
1F
100
AcDbEntity
  8
0
 62
     7
100
AcDbLine
 10
240.45694
 20
204.450012
 30
0.0
 11
238.156952
 21
204.450012
 31
0.0
  0
LINE
  5
27E
330
1F
100
AcDbEntity
  8
0
 62
     7
100
AcDbLine
 10
240.45694
 20
205.149994
 30
0.0
 11
238.156952
 21
205.149994
 31
0.0
  0
ARC
  5
27F
330
1F
100
AcDbEntity
  8
0
 62
     7
100
AcDbCircle
 10
240.95694
 20
205.350006
 30
0.0
 40
0.5
100
AcDbArc
 50
171.869894
 51
180.000009
  0
ARC
  5
280
330
1F
100
AcDbEntity
  8
0
 62
     7
100
AcDbCircle
 10
237.656952
 20
205.350006
 30
0.0
 40
0.5
100
AcDbArc
 50
0.0
 51
8.130103
  0
ARC
  5
281
330
1F
100
AcDbEntity
  8
0
 62
     7
100
AcDbCircle
 10
240.95694
 20
205.350006
 30
0.0
 40
0.5
100
AcDbArc
 50
90.000003
 51
171.869894
  0
LINE
  5
282
330
1F
100
AcDbEntity
  8
0
 62
     7
100
AcDbLine
 10
240.45694
 20
197.850006
 30
0.0
 11
238.156952
 21
197.850006
 31
0.0
  0
LINE
  5
283
330
1F
100
AcDbEntity
  8
0
 62
     7
100
AcDbLine
 10
240.45694
 20
198.549988
 30
0.0
 11
238.156952
 21
198.549988
 31
0.0
  0
LINE
  5
284
330
1F
100
AcDbEntity
  8
0
 62
     7
100
AcDbLine
 10
240.45694
 20
198.950012
 30
0.0
 11
238.156952
 21
198.950012
 31
0.0
  0
LINE
  5
285
330
1F
100
AcDbEntity
  8
0
 62
     7
100
AcDbLine
 10
240.45694
 20
199.649994
 30
0.0
 11
238.156952
 21
199.649994
 31
0.0
  0
LINE
  5
286
330
1F
100
AcDbEntity
  8
0
 62
     7
100
AcDbLine
 10
240.45694
 20
200.049988
 30
0.0
 11
238.156952
 21
200.049988
 31
0.0
  0
LINE
  5
287
330
1F
100
AcDbEntity
  8
0
 62
     7
100
AcDbLine
 10
240.45694
 20
200.75
 30
0.0
 11
238.156952
 21
200.75
 31
0.0
  0
LINE
  5
288
330
1F
100
AcDbEntity
  8
0
 62
     7
100
AcDbLine
 10
240.45694
 20
201.149994
 30
0.0
 11
238.156952
 21
201.149994
 31
0.0
  0
LINE
  5
289
330
1F
100
AcDbEntity
  8
0
 62
     7
100
AcDbLine
 10
240.45694
 20
201.850006
 30
0.0
 11
238.156952
 21
201.850006
 31
0.0
  0
LINE
  5
28A
330
1F
100
AcDbEntity
  8
0
 62
     7
100
AcDbLine
 10
240.45694
 20
202.25
 30
0.0
 11
238.156952
 21
202.25
 31
0.0
  0
LINE
  5
28B
330
1F
100
AcDbEntity
  8
0
 62
     7
100
AcDbLine
 10
240.45694
 20
202.950012
 30
0.0
 11
238.156952
 21
202.950012
 31
0.0
  0
LINE
  5
28C
330
1F
100
AcDbEntity
  8
0
 62
     7
100
AcDbLine
 10
240.45694
 20
203.350006
 30
0.0
 11
238.156952
 21
203.350006
 31
0.0
  0
LINE
  5
28D
330
1F
100
AcDbEntity
  8
0
 62
     7
100
AcDbLine
 10
240.45694
 20
204.049988
 30
0.0
 11
238.156952
 21
204.049988
 31
0.0
  0
ARC
  5
28E
330
1F
100
AcDbEntity
  8
0
 62
     7
100
AcDbCircle
 10
237.656952
 20
205.350006
 30
0.0
 40
0.5
100
AcDbArc
 50
8.130103
 51
90.000003
  0
LINE
  5
28F
330
1F
100
AcDbEntity
  8
0
 62
     7
100
AcDbLine
 10
179.460342
 20
204.179291
 30
0.0
 11
179.498505
 21
204.049988
 31
0.0
  0
LINE
  5
290
330
1F
100
AcDbEntity
  8
0
 62
     7
100
AcDbLine
 10
237.156952
 20
204.049988
 30
0.0
 11
179.498505
 21
204.049988
 31
0.0
  0
LINE
  5
291
330
1F
100
AcDbEntity
  8
0
 62
     7
100
AcDbLine
 10
179.415863
 20
204.320709
 30
0.0
 11
179.460342
 21
204.179291
 31
0.0
  0
LINE
  5
292
330
1F
100
AcDbEntity
  8
0
 62
     7
100
AcDbLine
 10
179.37265
 20
204.450012
 30
0.0
 11
179.415863
 21
204.320709
 31
0.0
  0
LINE
  5
293
330
1F
100
AcDbEntity
  8
0
 62
     7
100
AcDbLine
 10
237.156952
 20
204.450012
 30
0.0
 11
179.37265
 21
204.450012
 31
0.0
  0
ARC
  5
294
330
1F
100
AcDbEntity
  8
0
 62
     7
100
AcDbCircle
 10
171.806946
 20
201.850006
 30
0.0
 40
8.0
100
AcDbArc
 50
18.965574
 51
24.361978
  0
LINE
  5
295
330
1F
100
AcDbEntity
  8
0
 62
     7
100
AcDbLine
 10
237.156952
 20
204.850006
 30
0.0
 11
236.806946
 21
204.850006
 31
0.0
  0
ARC
  5
296
330
1F
100
AcDbEntity
  8
0
 62
     7
100
AcDbCircle
 10
236.806946
 20
206.350006
 30
0.0
 40
1.5
100
AcDbArc
 50
212.230947
 51
269.999997
  0
LINE
  5
297
330
1F
100
AcDbEntity
  8
0
 62
     7
100
AcDbLine
 10
235.906952
 20
205.149994
 30
0.0
 11
179.094604
 21
205.149994
 31
0.0
  0
LINE
  5
298
330
1F
100
AcDbEntity
  8
0
 62
     7
100
AcDbLine
 10
237.156952
 20
197.850006
 30
0.0
 11
178.735153
 21
197.850006
 31
0.0
  0
LINE
  5
299
330
1F
100
AcDbEntity
  8
0
 62
     7
100
AcDbLine
 10
237.156952
 20
198.549988
 30
0.0
 11
179.094604
 21
198.549988
 31
0.0
  0
LINE
  5
29A
330
1F
100
AcDbEntity
  8
0
 62
     7
100
AcDbLine
 10
237.156952
 20
198.950012
 30
0.0
 11
179.262817
 21
198.950012
 31
0.0
  0
LINE
  5
29B
330
1F
100
AcDbEntity
  8
0
 62
     7
100
AcDbLine
 10
237.156952
 20
199.649994
 30
0.0
 11
179.498505
 21
199.649994
 31
0.0
  0
LINE
  5
29C
330
1F
100
AcDbEntity
  8
0
 62
     7
100
AcDbLine
 10
237.156952
 20
200.049988
 30
0.0
 11
179.601822
 21
200.049988
 31
0.0
  0
LINE
  5
29D
330
1F
100
AcDbEntity
  8
0
 62
     7
100
AcDbLine
 10
237.156952
 20
200.75
 30
0.0
 11
179.730957
 21
200.75
 31
0.0
  0
LINE
  5
29E
330
1F
100
AcDbEntity
  8
0
 62
     7
100
AcDbLine
 10
237.156952
 20
201.149994
 30
0.0
 11
179.77626
 21
201.149994
 31
0.0
  0
LINE
  5
29F
330
1F
100
AcDbEntity
  8
0
 62
     7
100
AcDbLine
 10
237.156952
 20
201.850006
 30
0.0
 11
179.806946
 21
201.850006
 31
0.0
  0
LINE
  5
2A0
330
1F
100
AcDbEntity
  8
0
 62
     7
100
AcDbLine
 10
179.805893
 20
201.979279
 30
0.0
 11
179.806946
 21
201.850006
 31
0.0
  0
LINE
  5
2A1
330
1F
100
AcDbEntity
  8
0
 62
     7
100
AcDbLine
 10
179.802368
 20
202.120697
 30
0.0
 11
179.805893
 21
201.979279
 31
0.0
  0
LINE
  5
2A2
330
1F
100
AcDbEntity
  8
0
 62
     7
100
AcDbLine
 10
179.796936
 20
202.25
 30
0.0
 11
179.802368
 21
202.120697
 31
0.0
  0
LINE
  5
2A3
330
1F
100
AcDbEntity
  8
0
 62
     7
100
AcDbLine
 10
237.156952
 20
202.25
 30
0.0
 11
179.796936
 21
202.25
 31
0.0
  0
ARC
  5
2A4
330
1F
100
AcDbEntity
  8
0
 62
     7
100
AcDbCircle
 10
171.806946
 20
201.850006
 30
0.0
 40
8.0
100
AcDbArc
 50
2.865984
 51
7.903208
  0
LINE
  5
2A5
330
1F
100
AcDbEntity
  8
0
 62
     7
100
AcDbLine
 10
237.156952
 20
202.950012
 30
0.0
 11
179.730957
 21
202.950012
 31
0.0
  0
LINE
  5
2A6
330
1F
100
AcDbEntity
  8
0
 62
     7
100
AcDbLine
 10
179.711929
 20
203.079285
 30
0.0
 11
179.730957
 21
202.950012
 31
0.0
  0
LINE
  5
2A7
330
1F
100
AcDbEntity
  8
0
 62
     7
100
AcDbLine
 10
179.688644
 20
203.220703
 30
0.0
 11
179.711929
 21
203.079285
 31
0.0
  0
LINE
  5
2A8
330
1F
100
AcDbEntity
  8
0
 62
     7
100
AcDbLine
 10
179.665054
 20
203.350006
 30
0.0
 11
179.688644
 21
203.220703
 31
0.0
  0
LINE
  5
2A9
330
1F
100
AcDbEntity
  8
0
 62
     7
100
AcDbLine
 10
237.156952
 20
203.350006
 30
0.0
 11
179.665054
 21
203.350006
 31
0.0
  0
ARC
  5
2AA
330
1F
100
AcDbEntity
  8
0
 62
     7
100
AcDbCircle
 10
171.806946
 20
201.850006
 30
0.0
 40
8.0
100
AcDbArc
 50
10.806925
 51
15.962019
  0
LINE
  5
2AB
330
1F
100
AcDbEntity
  8
0
 62
     7
100
AcDbLine
 10
164.878738
 20
197.850006
 30
0.0
 11
162.806946
 21
197.850006
 31
0.0
  0
LINE
  5
2AC
330
1F
100
AcDbEntity
  8
0
 62
     7
100
AcDbLine
 10
164.519287
 20
198.549988
 30
0.0
 11
162.806946
 21
198.549988
 31
0.0
  0
LINE
  5
2AD
330
1F
100
AcDbEntity
  8
0
 62
     7
100
AcDbLine
 10
164.351074
 20
198.950012
 30
0.0
 11
162.806946
 21
198.950012
 31
0.0
  0
LINE
  5
2AE
330
1F
100
AcDbEntity
  8
0
 62
     7
100
AcDbLine
 10
164.115387
 20
199.649994
 30
0.0
 11
162.806946
 21
199.649994
 31
0.0
  0
LINE
  5
2AF
330
1F
100
AcDbEntity
  8
0
 62
     7
100
AcDbLine
 10
164.01207
 20
200.049988
 30
0.0
 11
162.806946
 21
200.049988
 31
0.0
  0
LINE
  5
2B0
330
1F
100
AcDbEntity
  8
0
 62
     7
100
AcDbLine
 10
163.882935
 20
200.75
 30
0.0
 11
162.806946
 21
200.75
 31
0.0
  0
LINE
  5
2B1
330
1F
100
AcDbEntity
  8
0
 62
     7
100
AcDbLine
 10
163.837631
 20
201.149994
 30
0.0
 11
162.806946
 21
201.149994
 31
0.0
  0
LINE
  5
2B2
330
1F
100
AcDbEntity
  8
0
 62
     7
100
AcDbLine
 10
163.806946
 20
201.850006
 30
0.0
 11
162.806946
 21
201.850006
 31
0.0
  0
LINE
  5
2B3
330
1F
100
AcDbEntity
  8
0
 62
     7
100
AcDbLine
 10
163.807983
 20
201.979279
 30
0.0
 11
163.806946
 21
201.850006
 31
0.0
  0
LINE
  5
2B4
330
1F
100
AcDbEntity
  8
0
 62
     7
100
AcDbLine
 10
163.811523
 20
202.120697
 30
0.0
 11
163.807983
 21
201.979279
 31
0.0
  0
LINE
  5
2B5
330
1F
100
AcDbEntity
  8
0
 62
     7
100
AcDbLine
 10
163.816956
 20
202.25
 30
0.0
 11
163.811523
 21
202.120697
 31
0.0
  0
ARC
  5
2B6
330
1F
100
AcDbEntity
  8
0
 62
     7
100
AcDbCircle
 10
171.806946
 20
201.850006
 30
0.0
 40
8.0
100
AcDbArc
 50
172.096793
 51
177.134017
  0
LINE
  5
2B7
330
1F
100
AcDbEntity
  8
0
 62
     7
100
AcDbLine
 10
163.901962
 20
203.079285
 30
0.0
 11
163.882935
 21
202.950012
 31
0.0
  0
LINE
  5
2B8
330
1F
100
AcDbEntity
  8
0
 62
     7
100
AcDbLine
 10
163.925247
 20
203.220703
 30
0.0
 11
163.901962
 21
203.079285
 31
0.0
  0
LINE
  5
2B9
330
1F
100
AcDbEntity
  8
0
 62
     7
100
AcDbLine
 10
163.948822
 20
203.350006
 30
0.0
 11
163.925247
 21
203.220703
 31
0.0
  0
ARC
  5
2BA
330
1F
100
AcDbEntity
  8
0
 62
     7
100
AcDbCircle
 10
171.806946
 20
201.850006
 30
0.0
 40
8.0
100
AcDbArc
 50
164.03799
 51
169.193075
  0
LINE
  5
2BB
330
1F
100
AcDbEntity
  8
0
 62
     7
100
AcDbLine
 10
164.153549
 20
204.179291
 30
0.0
 11
164.115387
 21
204.049988
 31
0.0
  0
LINE
  5
2BC
330
1F
100
AcDbEntity
  8
0
 62
     7
100
AcDbLine
 10
164.198029
 20
204.320709
 30
0.0
 11
164.153549
 21
204.179291
 31
0.0
  0
LINE
  5
2BD
330
1F
100
AcDbEntity
  8
0
 62
     7
100
AcDbLine
 10
164.241226
 20
204.450012
 30
0.0
 11
164.198029
 21
204.320709
 31
0.0
  0
ARC
  5
2BE
330
1F
100
AcDbEntity
  8
0
 62
     7
100
AcDbCircle
 10
171.806946
 20
201.850006
 30
0.0
 40
8.0
100
AcDbArc
 50
155.638018
 51
161.034427
  0
LINE
  5
2BF
330
1F
100
AcDbEntity
  8
0
 62
     7
100
AcDbLine
 10
164.579224
 20
205.279297
 30
0.0
 11
164.519287
 21
205.149994
 31
0.0
  0
LINE
  5
2C0
330
1F
100
AcDbEntity
  8
0
 62
     7
100
AcDbLine
 10
164.648041
 20
205.420715
 30
0.0
 11
164.579224
 21
205.279297
 31
0.0
  0
LINE
  5
2C1
330
1F
100
AcDbEntity
  8
0
 62
     7
100
AcDbLine
 10
164.713989
 20
205.549988
 30
0.0
 11
164.648041
 21
205.420715
 31
0.0
  0
ARC
  5
2C2
330
1F
100
AcDbEntity
  8
0
 62
     7
100
AcDbCircle
 10
171.806946
 20
201.850006
 30
0.0
 40
8.0
100
AcDbArc
 50
146.632987
 51
152.451448
  0
LINE
  5
2C3
330
1F
100
AcDbEntity
  8
0
 62
     7
100
AcDbLine
 10
165.212585
 20
206.379272
 30
0.0
 11
165.125626
 21
206.25
 31
0.0
  0
LINE
  5
2C4
330
1F
100
AcDbEntity
  8
0
 62
     7
100
AcDbLine
 10
165.311996
 20
206.520721
 30
0.0
 11
165.212585
 21
206.379272
 31
0.0
  0
LINE
  5
2C5
330
1F
100
AcDbEntity
  8
0
 62
     7
100
AcDbLine
 10
165.406952
 20
206.649994
 30
0.0
 11
165.311996
 21
206.520721
 31
0.0
  0
ARC
  5
2C6
330
1F
100
AcDbEntity
  8
0
 62
     7
100
AcDbCircle
 10
171.806946
 20
201.850006
 30
0.0
 40
8.0
100
AcDbArc
 50
36.869897
 51
143.130097
  0
LINE
  5
2C7
330
1F
100
AcDbEntity
  8
0
 62
     7
100
AcDbLine
 10
178.20694
 20
206.649994
 30
0.0
 11
178.301895
 21
206.520721
 31
0.0
  0
LINE
  5
2C8
330
1F
100
AcDbEntity
  8
0
 62
     7
100
AcDbLine
 10
178.301895
 20
206.520721
 30
0.0
 11
178.401306
 21
206.379272
 31
0.0
  0
LINE
  5
2C9
330
1F
100
AcDbEntity
  8
0
 62
     7
100
AcDbLine
 10
178.401306
 20
206.379272
 30
0.0
 11
178.488266
 21
206.25
 31
0.0
  0
ARC
  5
2CA
330
1F
100
AcDbEntity
  8
0
 62
     7
100
AcDbCircle
 10
171.806946
 20
201.850006
 30
0.0
 40
8.0
100
AcDbArc
 50
27.548547
 51
33.367014
  0
LINE
  5
2CB
330
1F
100
AcDbEntity
  8
0
 62
     7
100
AcDbLine
 10
178.899902
 20
205.549988
 30
0.0
 11
178.965851
 21
205.420715
 31
0.0
  0
LINE
  5
2CC
330
1F
100
AcDbEntity
  8
0
 62
     7
100
AcDbLine
 10
178.965851
 20
205.420715
 30
0.0
 11
179.034668
 21
205.279297
 31
0.0
  0
LINE
  5
2CD
330
1F
100
AcDbEntity
  8
0
 62
     7
100
AcDbLine
 10
179.034668
 20
205.279297
 30
0.0
 11
179.094604
 21
205.149994
 31
0.0
  0
CIRCLE
  5
2CE
330
1F
100
AcDbEntity
  8
0
 62
     7
100
AcDbCircle
 10
171.806946
 20
201.850006
 30
0.0
 40
7.5
  0
LINE
  5
2CF
330
1F
100
AcDbEntity
  8
0
 62
     7
100
AcDbLine
 10
162.306946
 20
189.850006
 30
0.0
 11
162.806946
 21
189.850006
 31
0.0
  0
LINE
  5
2D0
330
1F
100
AcDbEntity
  8
0
 62
     7
100
AcDbLine
 10
163.816956
 20
202.25
 30
0.0
 11
162.806946
 21
202.25
 31
0.0
  0
LINE
  5
2D1
330
1F
100
AcDbEntity
  8
0
 62
     7
100
AcDbLine
 10
163.882935
 20
202.950012
 30
0.0
 11
162.806946
 21
202.950012
 31
0.0
  0
LINE
  5
2D2
330
1F
100
AcDbEntity
  8
0
 62
     7
100
AcDbLine
 10
163.948822
 20
203.350006
 30
0.0
 11
162.806946
 21
203.350006
 31
0.0
  0
LINE
  5
2D3
330
1F
100
AcDbEntity
  8
0
 62
     7
100
AcDbLine
 10
164.115387
 20
204.049988
 30
0.0
 11
162.806946
 21
204.049988
 31
0.0
  0
LINE
  5
2D4
330
1F
100
AcDbEntity
  8
0
 62
     7
100
AcDbLine
 10
164.241226
 20
204.450012
 30
0.0
 11
162.806946
 21
204.450012
 31
0.0
  0
LINE
  5
2D5
330
1F
100
AcDbEntity
  8
0
 62
     7
100
AcDbLine
 10
164.519287
 20
205.149994
 30
0.0
 11
162.806946
 21
205.149994
 31
0.0
  0
LINE
  5
2D6
330
1F
100
AcDbEntity
  8
0
 62
     7
100
AcDbLine
 10
164.713989
 20
205.549988
 30
0.0
 11
162.806946
 21
205.549988
 31
0.0
  0
LINE
  5
2D7
330
1F
100
AcDbEntity
  8
0
 62
     7
100
AcDbLine
 10
165.125626
 20
206.25
 30
0.0
 11
162.806946
 21
206.25
 31
0.0
  0
LINE
  5
2D8
330
1F
100
AcDbEntity
  8
0
 62
     7
100
AcDbLine
 10
165.406952
 20
206.649994
 30
0.0
 11
162.806946
 21
206.649994
 31
0.0
  0
LINE
  5
2D9
330
1F
100
AcDbEntity
  8
0
 62
     7
100
AcDbLine
 10
235.306946
 20
206.649994
 30
0.0
 11
178.20694
 21
206.649994
 31
0.0
  0
LINE
  5
2DA
330
1F
100
AcDbEntity
  8
0
 62
     7
100
AcDbLine
 10
235.306946
 20
206.649994
 30
0.0
 11
235.306946
 21
211.474274
 31
0.0
  0
LINE
  5
2DB
330
1F
100
AcDbEntity
  8
0
 62
     7
100
AcDbLine
 10
235.306946
 20
211.474274
 30
0.0
 11
162.806946
 21
211.474274
 31
0.0
  0
LINE
  5
2DC
330
1F
100
AcDbEntity
  8
0
 62
     7
100
AcDbLine
 10
235.306946
 20
211.962128
 30
0.0
 11
235.306946
 21
211.474274
 31
0.0
  0
LINE
  5
2DD
330
1F
100
AcDbEntity
  8
0
 62
     7
100
AcDbLine
 10
235.306946
 20
212.049988
 30
0.0
 11
235.306946
 21
211.962128
 31
0.0
  0
LINE
  5
2DE
330
1F
100
AcDbEntity
  8
0
 62
     7
100
AcDbLine
 10
416.306976
 20
184.149994
 30
0.0
 11
416.306976
 21
183.649994
 31
0.0
  0
LINE
  5
2DF
330
1F
100
AcDbEntity
  8
0
 62
     7
100
AcDbLine
 10
416.306976
 20
211.242889
 30
0.0
 11
416.306976
 21
184.149994
 31
0.0
  0
LINE
  5
2E0
330
1F
100
AcDbEntity
  8
0
 62
     7
100
AcDbLine
 10
416.306976
 20
211.596436
 30
0.0
 11
416.306976
 21
211.242889
 31
0.0
  0
LINE
  5
2E1
330
1F
100
AcDbEntity
  8
0
 62
     7
100
AcDbLine
 10
416.306976
 20
212.281128
 30
0.0
 11
416.306976
 21
211.596436
 31
0.0
  0
LINE
  5
2E2
330
1F
100
AcDbEntity
  8
0
 62
     7
100
AcDbLine
 10
343.306976
 20
206.520721
 30
0.0
 11
343.306976
 21
206.649994
 31
0.0
  0
LINE
  5
2E3
330
1F
100
AcDbEntity
  8
0
 62
     7
100
AcDbLine
 10
343.306976
 20
206.379272
 30
0.0
 11
343.306976
 21
206.520721
 31
0.0
  0
LINE
  5
2E4
330
1F
100
AcDbEntity
  8
0
 62
     7
100
AcDbLine
 10
343.306976
 20
206.379272
 30
0.0
 11
343.306976
 21
206.350006
 31
0.0
  0
ARC
  5
2E5
330
1F
100
AcDbEntity
  8
0
 62
     7
100
AcDbCircle
 10
341.806976
 20
206.350006
 30
0.0
 40
1.5
100
AcDbArc
 50
314.454478
 51
356.177454
  0
LINE
  5
2E6
330
1F
100
AcDbEntity
  8
0
 62
     7
100
AcDbLine
 10
343.303619
 20
206.25
 30
0.0
 11
343.306976
 21
206.350006
 31
0.0
  0
LINE
  5
2E7
330
1F
100
AcDbEntity
  8
0
 62
     7
100
AcDbLine
 10
340.95697
 20
205.850006
 30
0.0
 11
341.806976
 21
205.850006
 31
0.0
  0
ARC
  5
2E8
330
1F
100
AcDbEntity
  8
0
 62
     7
100
AcDbCircle
 10
341.806976
 20
206.350006
 30
0.0
 40
0.5
100
AcDbArc
 50
269.999997
 51
360.0
  0
LINE
  5
2E9
330
1F
100
AcDbEntity
  8
0
 62
     7
100
AcDbLine
 10
342.306976
 20
206.649994
 30
0.0
 11
342.306976
 21
211.474274
 31
0.0
  0
LINE
  5
2EA
330
1F
100
AcDbEntity
  8
0
 62
     7
100
AcDbLine
 10
342.306976
 20
211.962128
 30
0.0
 11
342.306976
 21
211.474274
 31
0.0
  0
LINE
  5
2EB
330
1F
100
AcDbEntity
  8
0
 62
     7
100
AcDbLine
 10
342.306976
 20
212.049988
 30
0.0
 11
342.306976
 21
211.962128
 31
0.0
  0
LINE
  5
2EC
330
1F
100
AcDbEntity
  8
0
 62
     7
100
AcDbLine
 10
342.306976
 20
206.379272
 30
0.0
 11
342.306976
 21
206.350006
 31
0.0
  0
LINE
  5
2ED
330
1F
100
AcDbEntity
  8
0
 62
     7
100
AcDbLine
 10
342.306976
 20
206.520721
 30
0.0
 11
342.306976
 21
206.379272
 31
0.0
  0
LINE
  5
2EE
330
1F
100
AcDbEntity
  8
0
 62
     7
100
AcDbLine
 10
342.306976
 20
206.520721
 30
0.0
 11
342.306976
 21
206.649994
 31
0.0
  0
LINE
  5
2EF
330
1F
100
AcDbEntity
  8
0
 62
     7
100
AcDbLine
 10
336.306976
 20
211.962128
 30
0.0
 11
336.306976
 21
212.049988
 31
0.0
  0
LINE
  5
2F0
330
1F
100
AcDbEntity
  8
0
 62
     7
100
AcDbLine
 10
336.306976
 20
211.962128
 30
0.0
 11
336.306976
 21
211.474274
 31
0.0
  0
LINE
  5
2F1
330
1F
100
AcDbEntity
  8
0
 62
     7
100
AcDbLine
 10
336.306976
 20
206.649994
 30
0.0
 11
336.306976
 21
211.474274
 31
0.0
  0
LINE
  5
2F2
330
1F
100
AcDbEntity
  8
0
 62
     7
100
AcDbLine
 10
336.306976
 20
206.520721
 30
0.0
 11
336.306976
 21
206.649994
 31
0.0
  0
LINE
  5
2F3
330
1F
100
AcDbEntity
  8
0
 62
     7
100
AcDbLine
 10
336.306976
 20
206.379272
 30
0.0
 11
336.306976
 21
206.520721
 31
0.0
  0
LINE
  5
2F4
330
1F
100
AcDbEntity
  8
0
 62
     7
100
AcDbLine
 10
336.306976
 20
206.379272
 30
0.0
 11
336.306976
 21
206.350006
 31
0.0
  0
ARC
  5
2F5
330
1F
100
AcDbEntity
  8
0
 62
     7
100
AcDbCircle
 10
336.806976
 20
206.350006
 30
0.0
 40
0.5
100
AcDbArc
 50
180.000009
 51
269.999997
  0
LINE
  5
2F6
330
1F
100
AcDbEntity
  8
0
 62
     7
100
AcDbLine
 10
336.806976
 20
205.850006
 30
0.0
 11
337.656982
 21
205.850006
 31
0.0
  0
ARC
  5
2F7
330
1F
100
AcDbEntity
  8
0
 62
     7
100
AcDbCircle
 10
336.806976
 20
206.350006
 30
0.0
 40
1.5
100
AcDbArc
 50
183.822551
 51
212.230947
  0
LINE
  5
2F8
330
1F
100
AcDbEntity
  8
0
 62
     7
100
AcDbLine
 10
335.310303
 20
206.25
 30
0.0
 11
335.306976
 21
206.350006
 31
0.0
  0
LINE
  5
2F9
330
1F
100
AcDbEntity
  8
0
 62
     7
100
AcDbLine
 10
335.306976
 20
206.649994
 30
0.0
 11
335.306976
 21
211.474274
 31
0.0
  0
LINE
  5
2FA
330
1F
100
AcDbEntity
  8
0
 62
     7
100
AcDbLine
 10
335.306976
 20
211.962128
 30
0.0
 11
335.306976
 21
211.474274
 31
0.0
  0
LINE
  5
2FB
330
1F
100
AcDbEntity
  8
0
 62
     7
100
AcDbLine
 10
335.306976
 20
212.049988
 30
0.0
 11
335.306976
 21
211.962128
 31
0.0
  0
LINE
  5
2FC
330
1F
100
AcDbEntity
  8
0
 62
     7
100
AcDbLine
 10
335.306976
 20
206.379272
 30
0.0
 11
335.306976
 21
206.350006
 31
0.0
  0
LINE
  5
2FD
330
1F
100
AcDbEntity
  8
0
 62
     7
100
AcDbLine
 10
335.306976
 20
206.520721
 30
0.0
 11
335.306976
 21
206.379272
 31
0.0
  0
LINE
  5
2FE
330
1F
100
AcDbEntity
  8
0
 62
     7
100
AcDbLine
 10
335.306976
 20
206.520721
 30
0.0
 11
335.306976
 21
206.649994
 31
0.0
  0
LINE
  5
2FF
330
1F
100
AcDbEntity
  8
0
 62
     7
100
AcDbLine
 10
243.306946
 20
211.962128
 30
0.0
 11
243.306946
 21
212.049988
 31
0.0
  0
LINE
  5
300
330
1F
100
AcDbEntity
  8
0
 62
     7
100
AcDbLine
 10
243.306946
 20
211.962128
 30
0.0
 11
243.306946
 21
211.474274
 31
0.0
  0
LINE
  5
301
330
1F
100
AcDbEntity
  8
0
 62
     7
100
AcDbLine
 10
243.306946
 20
206.649994
 30
0.0
 11
243.306946
 21
211.474274
 31
0.0
  0
LINE
  5
302
330
1F
100
AcDbEntity
  8
0
 62
     7
100
AcDbLine
 10
243.306946
 20
206.520721
 30
0.0
 11
243.306946
 21
206.649994
 31
0.0
  0
LINE
  5
303
330
1F
100
AcDbEntity
  8
0
 62
     7
100
AcDbLine
 10
243.306946
 20
206.379272
 30
0.0
 11
243.306946
 21
206.520721
 31
0.0
  0
LINE
  5
304
330
1F
100
AcDbEntity
  8
0
 62
     7
100
AcDbLine
 10
243.306946
 20
206.379272
 30
0.0
 11
243.306946
 21
206.350006
 31
0.0
  0
ARC
  5
305
330
1F
100
AcDbEntity
  8
0
 62
     7
100
AcDbCircle
 10
241.806946
 20
206.350006
 30
0.0
 40
1.5
100
AcDbArc
 50
314.454478
 51
356.177454
  0
LINE
  5
306
330
1F
100
AcDbEntity
  8
0
 62
     7
100
AcDbLine
 10
243.303619
 20
206.25
 30
0.0
 11
243.306946
 21
206.350006
 31
0.0
  0
LINE
  5
307
330
1F
100
AcDbEntity
  8
0
 62
     7
100
AcDbLine
 10
240.95694
 20
205.850006
 30
0.0
 11
241.806946
 21
205.850006
 31
0.0
  0
ARC
  5
308
330
1F
100
AcDbEntity
  8
0
 62
     7
100
AcDbCircle
 10
241.806946
 20
206.350006
 30
0.0
 40
0.5
100
AcDbArc
 50
269.999997
 51
360.0
  0
LINE
  5
309
330
1F
100
AcDbEntity
  8
0
 62
     7
100
AcDbLine
 10
242.306946
 20
206.649994
 30
0.0
 11
242.306946
 21
211.474274
 31
0.0
  0
LINE
  5
30A
330
1F
100
AcDbEntity
  8
0
 62
     7
100
AcDbLine
 10
242.306946
 20
211.962128
 30
0.0
 11
242.306946
 21
211.474274
 31
0.0
  0
LINE
  5
30B
330
1F
100
AcDbEntity
  8
0
 62
     7
100
AcDbLine
 10
242.306946
 20
212.049988
 30
0.0
 11
242.306946
 21
211.962128
 31
0.0
  0
LINE
  5
30C
330
1F
100
AcDbEntity
  8
0
 62
     7
100
AcDbLine
 10
242.306946
 20
206.379272
 30
0.0
 11
242.306946
 21
206.350006
 31
0.0
  0
LINE
  5
30D
330
1F
100
AcDbEntity
  8
0
 62
     7
100
AcDbLine
 10
242.306946
 20
206.520721
 30
0.0
 11
242.306946
 21
206.379272
 31
0.0
  0
LINE
  5
30E
330
1F
100
AcDbEntity
  8
0
 62
     7
100
AcDbLine
 10
242.306946
 20
206.520721
 30
0.0
 11
242.306946
 21
206.649994
 31
0.0
  0
LINE
  5
30F
330
1F
100
AcDbEntity
  8
0
 62
     7
100
AcDbLine
 10
236.306946
 20
211.962128
 30
0.0
 11
236.306946
 21
212.049988
 31
0.0
  0
LINE
  5
310
330
1F
100
AcDbEntity
  8
0
 62
     7
100
AcDbLine
 10
236.306946
 20
211.962128
 30
0.0
 11
236.306946
 21
211.474274
 31
0.0
  0
LINE
  5
311
330
1F
100
AcDbEntity
  8
0
 62
     7
100
AcDbLine
 10
236.306946
 20
206.649994
 30
0.0
 11
236.306946
 21
211.474274
 31
0.0
  0
LINE
  5
312
330
1F
100
AcDbEntity
  8
0
 62
     7
100
AcDbLine
 10
236.306946
 20
206.520721
 30
0.0
 11
236.306946
 21
206.649994
 31
0.0
  0
LINE
  5
313
330
1F
100
AcDbEntity
  8
0
 62
     7
100
AcDbLine
 10
236.306946
 20
206.379272
 30
0.0
 11
236.306946
 21
206.520721
 31
0.0
  0
LINE
  5
314
330
1F
100
AcDbEntity
  8
0
 62
     7
100
AcDbLine
 10
236.306946
 20
206.379272
 30
0.0
 11
236.306946
 21
206.350006
 31
0.0
  0
ARC
  5
315
330
1F
100
AcDbEntity
  8
0
 62
     7
100
AcDbCircle
 10
236.806946
 20
206.350006
 30
0.0
 40
0.5
100
AcDbArc
 50
180.000009
 51
269.999997
  0
LINE
  5
316
330
1F
100
AcDbEntity
  8
0
 62
     7
100
AcDbLine
 10
236.806946
 20
205.850006
 30
0.0
 11
237.656952
 21
205.850006
 31
0.0
  0
ARC
  5
317
330
1F
100
AcDbEntity
  8
0
 62
     7
100
AcDbCircle
 10
236.806946
 20
206.350006
 30
0.0
 40
1.5
100
AcDbArc
 50
183.822551
 51
212.230947
  0
LINE
  5
318
330
1F
100
AcDbEntity
  8
0
 62
     7
100
AcDbLine
 10
235.310272
 20
206.25
 30
0.0
 11
235.306946
 21
206.350006
 31
0.0
  0
LINE
  5
319
330
1F
100
AcDbEntity
  8
0
 62
     7
100
AcDbLine
 10
235.306946
 20
206.379272
 30
0.0
 11
235.306946
 21
206.350006
 31
0.0
  0
LINE
  5
31A
330
1F
100
AcDbEntity
  8
0
 62
     7
100
AcDbLine
 10
235.306946
 20
206.520721
 30
0.0
 11
235.306946
 21
206.379272
 31
0.0
  0
LINE
  5
31B
330
1F
100
AcDbEntity
  8
0
 62
     7
100
AcDbLine
 10
235.306946
 20
206.520721
 30
0.0
 11
235.306946
 21
206.649994
 31
0.0
  0
LINE
  5
31C
330
1F
100
AcDbEntity
  8
0
 62
     7
100
AcDbLine
 10
162.306946
 20
211.596436
 30
0.0
 11
162.306946
 21
212.281128
 31
0.0
  0
LINE
  5
31D
330
1F
100
AcDbEntity
  8
0
 62
     7
100
AcDbLine
 10
162.306946
 20
211.242889
 30
0.0
 11
162.306946
 21
211.596436
 31
0.0
  0
LINE
  5
31E
330
1F
100
AcDbEntity
  8
0
 62
     7
100
AcDbLine
 10
162.306946
 20
184.149994
 30
0.0
 11
162.306946
 21
211.242889
 31
0.0
  0
LINE
  5
31F
330
1F
100
AcDbEntity
  8
0
 62
     7
100
AcDbLine
 10
162.306946
 20
183.649994
 30
0.0
 11
162.306946
 21
184.149994
 31
0.0
  0
LINE
  5
320
330
1F
100
AcDbEntity
  8
0
 62
     7
100
AcDbLine
 10
416.306976
 20
214.850006
 30
0.0
 11
416.306976
 21
212.281128
 31
0.0
  0
LINE
  5
321
330
1F
100
AcDbEntity
  8
0
 62
     7
100
AcDbLine
 10
162.306946
 20
214.850006
 30
0.0
 11
416.306976
 21
214.850006
 31
0.0
  0
LINE
  5
322
330
1F
100
AcDbEntity
  8
0
 62
     7
100
AcDbLine
 10
162.306946
 20
214.850006
 30
0.0
 11
162.306946
 21
212.281128
 31
0.0
  0
LINE
  5
323
330
1F
100
AcDbEntity
  8
0
 62
     7
100
AcDbLine
 10
416.306976
 20
185.350006
 30
0.0
 11
415.806976
 21
185.350006
 31
0.0
  0
LINE
  5
324
330
1F
100
AcDbEntity
  8
0
 62
     7
100
AcDbLine
 10
399.71402
 20
205.549988
 30
0.0
 11
343.075836
 21
205.549988
 31
0.0
  0
LINE
  5
325
330
1F
100
AcDbEntity
  8
0
 62
     7
100
AcDbLine
 10
400.125641
 20
206.25
 30
0.0
 11
343.303619
 21
206.25
 31
0.0
  0
LINE
  5
326
330
1F
100
AcDbEntity
  8
0
 62
     7
100
AcDbLine
 10
340.498718
 20
205.549988
 30
0.0
 11
338.115234
 21
205.549988
 31
0.0
  0
LINE
  5
327
330
1F
100
AcDbEntity
  8
0
 62
     7
100
AcDbLine
 10
342.296875
 20
206.25
 30
0.0
 11
340.201385
 21
206.25
 31
0.0
  0
ARC
  5
328
330
1F
100
AcDbEntity
  8
0
 62
     7
100
AcDbCircle
 10
339.306976
 20
208.149994
 30
0.0
 40
2.099999904632568
100
AcDbArc
 50
237.479124
 51
295.208757
  0
LINE
  5
329
330
1F
100
AcDbEntity
  8
0
 62
     7
100
AcDbLine
 10
338.412537
 20
206.25
 30
0.0
 11
336.317078
 21
206.25
 31
0.0
  0
LINE
  5
32A
330
1F
100
AcDbEntity
  8
0
 62
     7
100
AcDbLine
 10
240.498688
 20
205.549988
 30
0.0
 11
238.115204
 21
205.549988
 31
0.0
  0
LINE
  5
32B
330
1F
100
AcDbEntity
  8
0
 62
     7
100
AcDbLine
 10
242.296844
 20
206.25
 30
0.0
 11
240.201355
 21
206.25
 31
0.0
  0
ARC
  5
32C
330
1F
100
AcDbEntity
  8
0
 62
     7
100
AcDbCircle
 10
239.306946
 20
208.149994
 30
0.0
 40
2.099999904632568
100
AcDbArc
 50
237.479124
 51
295.208757
  0
LINE
  5
32D
330
1F
100
AcDbEntity
  8
0
 62
     7
100
AcDbLine
 10
238.412506
 20
206.25
 30
0.0
 11
236.317047
 21
206.25
 31
0.0
  0
LINE
  5
32E
330
1F
100
AcDbEntity
  8
0
 62
     7
100
AcDbLine
 10
235.310272
 20
206.25
 30
0.0
 11
178.488266
 21
206.25
 31
0.0
  0
LINE
  5
32F
330
1F
100
AcDbEntity
  8
0
 62
     7
100
AcDbLine
 10
235.538086
 20
205.549988
 30
0.0
 11
178.899902
 21
205.549988
 31
0.0
  0
LINE
  5
330
330
1F
100
AcDbEntity
  8
0
 62
     7
100
AcDbLine
 10
162.306946
 20
185.350006
 30
0.0
 11
162.806946
 21
185.350006
 31
0.0
  0
LINE
  5
331
330
1F
100
AcDbEntity
  8
0
 62
     7
100
AcDbLine
 10
336.994446
 20
185.180359
 30
0.0
 11
338.294464
 21
188.680359
 31
0.0
  0
ARC
  5
332
330
1F
100
AcDbEntity
  8
0
 62
     7
100
AcDbCircle
 10
336.806976
 20
185.25
 30
0.0
 40
0.2000000029802322
100
AcDbArc
 50
200.37643
 51
339.623562
  0
LINE
  5
333
330
1F
100
AcDbEntity
  8
0
 62
     7
100
AcDbLine
 10
335.319489
 20
188.680359
 30
0.0
 11
336.619476
 21
185.180359
 31
0.0
  0
ARC
  5
334
330
1F
100
AcDbEntity
  8
0
 62
     7
100
AcDbCircle
 10
335.506958
 20
188.75
 30
0.0
 40
0.2000000029802322
100
AcDbArc
 50
90.000003
 51
200.37643
  0
LINE
  5
335
330
1F
100
AcDbEntity
  8
0
 62
     7
100
AcDbLine
 10
338.106964
 20
188.949982
 30
0.0
 11
335.506958
 21
188.949982
 31
0.0
  0
ARC
  5
336
330
1F
100
AcDbEntity
  8
0
 62
     7
100
AcDbCircle
 10
338.106964
 20
188.75
 30
0.0
 40
0.2000000029802322
100
AcDbArc
 50
339.623562
 51
90.000003
  0
LINE
  5
337
330
1F
100
AcDbEntity
  8
0
 62
     7
100
AcDbLine
 10
216.994431
 20
185.180359
 30
0.0
 11
218.294434
 21
188.680359
 31
0.0
  0
ARC
  5
338
330
1F
100
AcDbEntity
  8
0
 62
     7
100
AcDbCircle
 10
216.806946
 20
185.25
 30
0.0
 40
0.2000000029802322
100
AcDbArc
 50
200.37643
 51
339.623562
  0
LINE
  5
339
330
1F
100
AcDbEntity
  8
0
 62
     7
100
AcDbLine
 10
215.319458
 20
188.680359
 30
0.0
 11
216.619461
 21
185.180359
 31
0.0
  0
ARC
  5
33A
330
1F
100
AcDbEntity
  8
0
 62
     7
100
AcDbCircle
 10
215.506943
 20
188.75
 30
0.0
 40
0.2000000029802322
100
AcDbArc
 50
90.000003
 51
200.37643
  0
LINE
  5
33B
330
1F
100
AcDbEntity
  8
0
 62
     7
100
AcDbLine
 10
218.106949
 20
188.949982
 30
0.0
 11
215.506943
 21
188.949982
 31
0.0
  0
ARC
  5
33C
330
1F
100
AcDbEntity
  8
0
 62
     7
100
AcDbCircle
 10
218.106949
 20
188.75
 30
0.0
 40
0.2000000029802322
100
AcDbArc
 50
339.623562
 51
90.000003
  0
LINE
  5
33D
330
1F
100
AcDbEntity
  8
0
 62
     7
100
AcDbLine
 10
417.306976
 20
183.649994
 30
0.0
 11
416.306976
 21
183.649994
 31
0.0
  0
LINE
  5
33E
330
1F
100
AcDbEntity
  8
0
 62
     7
100
AcDbLine
 10
415.806976
 20
183.850006
 30
0.0
 11
416.306976
 21
183.850006
 31
0.0
  0
LINE
  5
33F
330
1F
100
AcDbEntity
  8
0
 62
     7
100
AcDbLine
 10
340.201385
 20
206.25
 30
0.0
 11
340.313751
 21
206.307068
 31
0.0
  0
ARC
  5
340
330
1F
100
AcDbEntity
  8
0
 62
     7
100
AcDbCircle
 10
339.306976
 20
208.149994
 30
0.0
 40
2.099999904632568
100
AcDbArc
 50
298.647887
 51
314.415304
  0
LINE
  5
341
330
1F
100
AcDbEntity
  8
0
 62
     7
100
AcDbLine
 10
337.83728
 20
206.649994
 30
0.0
 11
336.306976
 21
206.649994
 31
0.0
  0
ARC
  5
342
330
1F
100
AcDbEntity
  8
0
 62
     7
100
AcDbCircle
 10
339.306976
 20
208.149994
 30
0.0
 40
2.099999904632568
100
AcDbArc
 50
314.415304
 51
237.479124
  0
LINE
  5
343
330
1F
100
AcDbEntity
  8
0
 62
     7
100
AcDbLine
 10
342.306976
 20
206.649994
 30
0.0
 11
340.776672
 21
206.649994
 31
0.0
  0
LINE
  5
344
330
1F
100
AcDbEntity
  8
0
 62
     7
100
AcDbLine
 10
342.306976
 20
211.474274
 30
0.0
 11
336.306976
 21
211.474274
 31
0.0
  0
LINE
  5
345
330
1F
100
AcDbEntity
  8
0
 62
     7
100
AcDbLine
 10
335.538116
 20
205.549988
 30
0.0
 11
243.075806
 21
205.549988
 31
0.0
  0
LINE
  5
346
330
1F
100
AcDbEntity
  8
0
 62
     7
100
AcDbLine
 10
335.310303
 20
206.25
 30
0.0
 11
243.303619
 21
206.25
 31
0.0
  0
LINE
  5
347
330
1F
100
AcDbEntity
  8
0
 62
     7
100
AcDbLine
 10
335.306976
 20
206.649994
 30
0.0
 11
243.306946
 21
206.649994
 31
0.0
  0
LINE
  5
348
330
1F
100
AcDbEntity
  8
0
 62
     7
100
AcDbLine
 10
335.306976
 20
211.474274
 30
0.0
 11
243.306946
 21
211.474274
 31
0.0
  0
LINE
  5
349
330
1F
100
AcDbEntity
  8
0
 62
     7
100
AcDbLine
 10
240.201355
 20
206.25
 30
0.0
 11
240.313721
 21
206.307068
 31
0.0
  0
ARC
  5
34A
330
1F
100
AcDbEntity
  8
0
 62
     7
100
AcDbCircle
 10
239.306946
 20
208.149994
 30
0.0
 40
2.099999904632568
100
AcDbArc
 50
298.647887
 51
314.415304
  0
ARC
  5
34B
330
1F
100
AcDbEntity
  8
0
 62
     7
100
AcDbCircle
 10
239.306946
 20
208.149994
 30
0.0
 40
2.099999904632568
100
AcDbArc
 50
314.415304
 51
237.479124
  0
LINE
  5
34C
330
1F
100
AcDbEntity
  8
0
 62
     7
100
AcDbLine
 10
242.306946
 20
206.649994
 30
0.0
 11
240.776642
 21
206.649994
 31
0.0
  0
LINE
  5
34D
330
1F
100
AcDbEntity
  8
0
 62
     7
100
AcDbLine
 10
242.306946
 20
211.474274
 30
0.0
 11
236.306946
 21
211.474274
 31
0.0
  0
LINE
  5
34E
330
1F
100
AcDbEntity
  8
0
 62
     7
100
AcDbLine
 10
237.83725
 20
206.649994
 30
0.0
 11
236.306946
 21
206.649994
 31
0.0
  0
LINE
  5
34F
330
1F
100
AcDbEntity
  8
0
 62
     7
100
AcDbLine
 10
161.306946
 20
183.649994
 30
0.0
 11
162.306946
 21
183.649994
 31
0.0
  0
LINE
  5
350
330
1F
100
AcDbEntity
  8
0
 62
     7
100
AcDbLine
 10
162.306946
 20
183.850006
 30
0.0
 11
162.806946
 21
183.850006
 31
0.0
  0
CIRCLE
  5
351
330
1F
100
AcDbEntity
  8
0
 62
     7
100
AcDbCircle
 10
406.806976
 20
201.850006
 30
0.0
 40
4.5
  0
CIRCLE
  5
352
330
1F
100
AcDbEntity
  8
0
 62
     7
100
AcDbCircle
 10
171.806946
 20
201.850006
 30
0.0
 40
4.5
  0
ARC
  5
353
330
1F
100
AcDbEntity
  8
0
 62
     7
100
AcDbCircle
 10
417.306976
 20
184.649994
 30
0.0
 40
1.0
100
AcDbArc
 50
269.999997
 51
360.0
  0
LINE
  5
354
330
1F
100
AcDbEntity
  8
0
 62
     7
100
AcDbLine
 10
418.306976
 20
211.035797
 30
0.0
 11
418.306976
 21
184.649994
 31
0.0
  0
LINE
  5
355
330
1F
100
AcDbEntity
  8
0
 62
     7
100
AcDbLine
 10
418.306976
 20
211.731415
 30
0.0
 11
418.306976
 21
211.035797
 31
0.0
  0
LINE
  5
356
330
1F
100
AcDbEntity
  8
0
 62
     7
100
AcDbLine
 10
160.306946
 20
211.035797
 30
0.0
 11
160.306946
 21
211.731415
 31
0.0
  0
LINE
  5
357
330
1F
100
AcDbEntity
  8
0
 62
     7
100
AcDbLine
 10
160.306946
 20
184.649994
 30
0.0
 11
160.306946
 21
211.035797
 31
0.0
  0
ARC
  5
358
330
1F
100
AcDbEntity
  8
0
 62
     7
100
AcDbCircle
 10
161.306946
 20
184.649994
 30
0.0
 40
1.0
100
AcDbArc
 50
180.000009
 51
269.999997
  0
LINE
  5
359
330
1F
100
AcDbEntity
  8
0
 62
     7
100
AcDbLine
 10
417.306976
 20
214.649994
 30
0.0
 11
416.306976
 21
214.649994
 31
0.0
  0
LINE
  5
35A
330
1F
100
AcDbEntity
  8
0
 62
     7
100
AcDbLine
 10
161.306946
 20
214.649994
 30
0.0
 11
162.306946
 21
214.649994
 31
0.0
  0
LINE
  5
35B
330
1F
100
AcDbEntity
  8
0
 62
     7
100
AcDbLine
 10
418.306976
 20
212.305939
 30
0.0
 11
418.306976
 21
211.731415
 31
0.0
  0
LINE
  5
35C
330
1F
100
AcDbEntity
  8
0
 62
     7
100
AcDbLine
 10
418.306976
 20
213.649994
 30
0.0
 11
418.306976
 21
212.305939
 31
0.0
  0
LINE
  5
35D
330
1F
100
AcDbEntity
  8
0
 62
     7
100
AcDbLine
 10
160.306946
 20
211.731415
 30
0.0
 11
160.306946
 21
212.305939
 31
0.0
  0
LINE
  5
35E
330
1F
100
AcDbEntity
  8
0
 62
     7
100
AcDbLine
 10
160.306946
 20
212.305939
 30
0.0
 11
160.306946
 21
213.649994
 31
0.0
  0
ARC
  5
35F
330
1F
100
AcDbEntity
  8
0
 62
     7
100
AcDbCircle
 10
406.806976
 20
202.549988
 30
0.0
 40
12.80000019073486
100
AcDbArc
 50
73.932611
 51
106.067387
  0
ARC
  5
360
330
1F
100
AcDbEntity
  8
0
 62
     7
100
AcDbCircle
 10
171.806946
 20
202.549988
 30
0.0
 40
12.80000019073486
100
AcDbArc
 50
73.932611
 51
106.067387
  0
ARC
  5
361
330
1F
100
AcDbEntity
  8
0
 62
     7
100
AcDbCircle
 10
417.306976
 20
213.649994
 30
0.0
 40
1.0
100
AcDbArc
 50
0.0
 51
90.000003
  0
ARC
  5
362
330
1F
100
AcDbEntity
  8
0
 62
     7
100
AcDbCircle
 10
161.306946
 20
213.649994
 30
0.0
 40
1.0
100
AcDbArc
 50
90.000003
 51
180.000009
  0
CIRCLE
  5
363
330
1F
100
AcDbEntity
  8
0
 62
     7
100
AcDbCircle
 10
339.306976
 20
208.149994
 30
0.0
 40
2.0
  0
CIRCLE
  5
364
330
1F
100
AcDbEntity
  8
0
 62
     7
100
AcDbCircle
 10
239.306946
 20
208.149994
 30
0.0
 40
2.0
  0
LINE
  5
365
330
1F
100
AcDbEntity
  8
0
 62
     7
100
AcDbLine
 10
339.506958
 20
208.850006
 30
0.0
 11
339.506958
 21
209.350006
 31
0.0
  0
LINE
  5
366
330
1F
100
AcDbEntity
  8
0
 62
     7
100
AcDbLine
 10
339.506958
 20
209.350006
 30
0.0
 11
339.106964
 21
209.350006
 31
0.0
  0
LINE
  5
367
330
1F
100
AcDbEntity
  8
0
 62
     7
100
AcDbLine
 10
339.106964
 20
209.350006
 30
0.0
 11
339.106964
 21
208.850006
 31
0.0
  0
ARC
  5
368
330
1F
100
AcDbEntity
  8
0
 62
     7
100
AcDbCircle
 10
338.606964
 20
208.850006
 30
0.0
 40
0.5
100
AcDbArc
 50
269.999997
 51
360.0
  0
LINE
  5
369
330
1F
100
AcDbEntity
  8
0
 62
     7
100
AcDbLine
 10
338.606964
 20
208.350006
 30
0.0
 11
338.106964
 21
208.350006
 31
0.0
  0
LINE
  5
36A
330
1F
100
AcDbEntity
  8
0
 62
     7
100
AcDbLine
 10
338.106964
 20
208.350006
 30
0.0
 11
338.106964
 21
207.950012
 31
0.0
  0
LINE
  5
36B
330
1F
100
AcDbEntity
  8
0
 62
     7
100
AcDbLine
 10
338.106964
 20
207.950012
 30
0.0
 11
338.606964
 21
207.950012
 31
0.0
  0
ARC
  5
36C
330
1F
100
AcDbEntity
  8
0
 62
     7
100
AcDbCircle
 10
338.606964
 20
207.450012
 30
0.0
 40
0.5
100
AcDbArc
 50
0.0
 51
90.000003
  0
LINE
  5
36D
330
1F
100
AcDbEntity
  8
0
 62
     7
100
AcDbLine
 10
339.106964
 20
207.450012
 30
0.0
 11
339.106964
 21
206.950012
 31
0.0
  0
LINE
  5
36E
330
1F
100
AcDbEntity
  8
0
 62
     7
100
AcDbLine
 10
339.106964
 20
206.950012
 30
0.0
 11
339.506958
 21
206.950012
 31
0.0
  0
LINE
  5
36F
330
1F
100
AcDbEntity
  8
0
 62
     7
100
AcDbLine
 10
339.506958
 20
206.950012
 30
0.0
 11
339.506958
 21
207.450012
 31
0.0
  0
ARC
  5
370
330
1F
100
AcDbEntity
  8
0
 62
     7
100
AcDbCircle
 10
340.006958
 20
207.450012
 30
0.0
 40
0.5
100
AcDbArc
 50
90.000003
 51
180.000009
  0
LINE
  5
371
330
1F
100
AcDbEntity
  8
0
 62
     7
100
AcDbLine
 10
340.006958
 20
207.950012
 30
0.0
 11
340.506958
 21
207.950012
 31
0.0
  0
LINE
  5
372
330
1F
100
AcDbEntity
  8
0
 62
     7
100
AcDbLine
 10
340.506958
 20
207.950012
 30
0.0
 11
340.506958
 21
208.350006
 31
0.0
  0
LINE
  5
373
330
1F
100
AcDbEntity
  8
0
 62
     7
100
AcDbLine
 10
340.506958
 20
208.350006
 30
0.0
 11
340.006958
 21
208.350006
 31
0.0
  0
ARC
  5
374
330
1F
100
AcDbEntity
  8
0
 62
     7
100
AcDbCircle
 10
340.006958
 20
208.850006
 30
0.0
 40
0.5
100
AcDbArc
 50
180.000009
 51
269.999997
  0
LINE
  5
375
330
1F
100
AcDbEntity
  8
0
 62
     7
100
AcDbLine
 10
239.506927
 20
208.850006
 30
0.0
 11
239.506927
 21
209.350006
 31
0.0
  0
LINE
  5
376
330
1F
100
AcDbEntity
  8
0
 62
     7
100
AcDbLine
 10
239.506927
 20
209.350006
 30
0.0
 11
239.106934
 21
209.350006
 31
0.0
  0
LINE
  5
377
330
1F
100
AcDbEntity
  8
0
 62
     7
100
AcDbLine
 10
239.106934
 20
209.350006
 30
0.0
 11
239.106934
 21
208.850006
 31
0.0
  0
ARC
  5
378
330
1F
100
AcDbEntity
  8
0
 62
     7
100
AcDbCircle
 10
238.606934
 20
208.850006
 30
0.0
 40
0.5
100
AcDbArc
 50
269.999997
 51
360.0
  0
LINE
  5
379
330
1F
100
AcDbEntity
  8
0
 62
     7
100
AcDbLine
 10
238.606934
 20
208.350006
 30
0.0
 11
238.106934
 21
208.350006
 31
0.0
  0
LINE
  5
37A
330
1F
100
AcDbEntity
  8
0
 62
     7
100
AcDbLine
 10
238.106934
 20
208.350006
 30
0.0
 11
238.106934
 21
207.950012
 31
0.0
  0
LINE
  5
37B
330
1F
100
AcDbEntity
  8
0
 62
     7
100
AcDbLine
 10
238.106934
 20
207.950012
 30
0.0
 11
238.606934
 21
207.950012
 31
0.0
  0
ARC
  5
37C
330
1F
100
AcDbEntity
  8
0
 62
     7
100
AcDbCircle
 10
238.606934
 20
207.450012
 30
0.0
 40
0.5
100
AcDbArc
 50
0.0
 51
90.000003
  0
LINE
  5
37D
330
1F
100
AcDbEntity
  8
0
 62
     7
100
AcDbLine
 10
239.106934
 20
207.450012
 30
0.0
 11
239.106934
 21
206.950012
 31
0.0
  0
LINE
  5
37E
330
1F
100
AcDbEntity
  8
0
 62
     7
100
AcDbLine
 10
239.106934
 20
206.950012
 30
0.0
 11
239.506927
 21
206.950012
 31
0.0
  0
LINE
  5
37F
330
1F
100
AcDbEntity
  8
0
 62
     7
100
AcDbLine
 10
239.506927
 20
206.950012
 30
0.0
 11
239.506927
 21
207.450012
 31
0.0
  0
ARC
  5
380
330
1F
100
AcDbEntity
  8
0
 62
     7
100
AcDbCircle
 10
240.006927
 20
207.450012
 30
0.0
 40
0.5
100
AcDbArc
 50
90.000003
 51
180.000009
  0
LINE
  5
381
330
1F
100
AcDbEntity
  8
0
 62
     7
100
AcDbLine
 10
240.006927
 20
207.950012
 30
0.0
 11
240.506927
 21
207.950012
 31
0.0
  0
LINE
  5
382
330
1F
100
AcDbEntity
  8
0
 62
     7
100
AcDbLine
 10
240.506927
 20
207.950012
 30
0.0
 11
240.506927
 21
208.350006
 31
0.0
  0
LINE
  5
383
330
1F
100
AcDbEntity
  8
0
 62
     7
100
AcDbLine
 10
240.506927
 20
208.350006
 30
0.0
 11
240.006927
 21
208.350006
 31
0.0
  0
ARC
  5
384
330
1F
100
AcDbEntity
  8
0
 62
     7
100
AcDbCircle
 10
240.006927
 20
208.850006
 30
0.0
 40
0.5
100
AcDbArc
 50
180.000009
 51
269.999997
  0
LINE
  5
385
330
1F
100
AcDbEntity
  8
0
 62
     7
100
AcDbLine
 10
418.306976
 20
188.299988
 30
0.0
 11
418.306976
 21
191.199982
 31
0.0
  0
LINE
  5
386
330
1F
100
AcDbEntity
  8
0
 62
     7
100
AcDbLine
 10
418.306976
 20
192.5
 30
0.0
 11
418.306976
 21
195.399994
 31
0.0
  0
LINE
  5
387
330
1F
100
AcDbEntity
  8
0
 62
     7
100
AcDbLine
 10
343.306976
 20
212.049988
 30
0.0
 11
415.806976
 21
212.049988
 31
0.0
  0
LINE
  5
388
330
1F
100
AcDbEntity
  8
0
 62
     7
100
AcDbLine
 10
162.806946
 20
212.049988
 30
0.0
 11
235.306946
 21
212.049988
 31
0.0
  0
LINE
  5
389
330
1F
100
AcDbEntity
  8
0
 62
     7
100
AcDbLine
 10
336.306976
 20
212.049988
 30
0.0
 11
342.306976
 21
212.049988
 31
0.0
  0
LINE
  5
38A
330
1F
100
AcDbEntity
  8
0
 62
     7
100
AcDbLine
 10
243.306946
 20
212.049988
 30
0.0
 11
335.306976
 21
212.049988
 31
0.0
  0
LINE
  5
38B
330
1F
100
AcDbEntity
  8
0
 62
     7
100
AcDbLine
 10
236.306946
 20
212.049988
 30
0.0
 11
242.306946
 21
212.049988
 31
0.0
  0
LINE
  5
38C
330
1F
100
AcDbEntity
  8
0
 62
     7
100
AcDbLine
 10
295.70697
 20
181.349884
 30
0.0
 11
295.70697
 21
181.639984
 31
0.0
  0
LINE
  5
38D
330
1F
100
AcDbEntity
  8
0
 62
     7
100
AcDbLine
 10
295.70697
 20
181.639984
 30
0.0
 11
295.506958
 21
181.843231
 31
0.0
  0
LINE
  5
38E
330
1F
100
AcDbEntity
  8
0
 62
     7
100
AcDbLine
 10
295.506958
 20
181.509216
 30
0.0
 11
295.506958
 21
181.843231
 31
0.0
  0
LINE
  5
38F
330
1F
100
AcDbEntity
  8
0
 62
     7
100
AcDbLine
 10
295.506958
 20
181.843231
 30
0.0
 11
294.506958
 21
181.843231
 31
0.0
  0
LINE
  5
390
330
1F
100
AcDbEntity
  8
0
 62
     7
100
AcDbLine
 10
294.506958
 20
181.843231
 30
0.0
 11
294.506958
 21
181.899994
 31
0.0
  0
LINE
  5
391
330
1F
100
AcDbEntity
  8
0
 62
     7
100
AcDbLine
 10
293.906982
 20
181.899994
 30
0.0
 11
294.506958
 21
181.899994
 31
0.0
  0
LINE
  5
392
330
1F
100
AcDbEntity
  8
0
 62
     7
100
AcDbLine
 10
293.906982
 20
181.549927
 30
0.0
 11
293.906982
 21
181.899994
 31
0.0
  0
LINE
  5
393
330
1F
100
AcDbEntity
  8
0
 62
     7
100
AcDbLine
 10
295.506958
 20
181.843231
 30
0.0
 11
294.506958
 21
181.843231
 31
0.0
  0
LINE
  5
394
330
1F
100
AcDbEntity
  8
0
 62
     7
100
AcDbLine
 10
295.70697
 20
181.639984
 30
0.0
 11
295.506958
 21
181.843231
 31
0.0
  0
LINE
  5
395
330
1F
100
AcDbEntity
  8
0
 62
     7
100
AcDbLine
 10
162.906952
 20
181.639984
 30
0.0
 11
162.906952
 21
181.349884
 31
0.0
  0
LINE
  5
396
330
1F
100
AcDbEntity
  8
0
 62
     7
100
AcDbLine
 10
163.106949
 20
181.843231
 30
0.0
 11
163.106949
 21
181.509216
 31
0.0
  0
LINE
  5
397
330
1F
100
AcDbEntity
  8
0
 62
     7
100
AcDbLine
 10
162.906952
 20
181.639984
 30
0.0
 11
163.106949
 21
181.843231
 31
0.0
  0
LINE
  5
398
330
1F
100
AcDbEntity
  8
0
 62
     7
100
AcDbLine
 10
163.106949
 20
181.843231
 30
0.0
 11
164.106949
 21
181.843231
 31
0.0
  0
LINE
  5
399
330
1F
100
AcDbEntity
  8
0
 62
     7
100
AcDbLine
 10
164.106949
 20
181.899994
 30
0.0
 11
164.106949
 21
181.843231
 31
0.0
  0
LINE
  5
39A
330
1F
100
AcDbEntity
  8
0
 62
     7
100
AcDbLine
 10
164.70694
 20
181.899994
 30
0.0
 11
164.70694
 21
181.549927
 31
0.0
  0
LINE
  5
39B
330
1F
100
AcDbEntity
  8
0
 62
     7
100
AcDbLine
 10
164.70694
 20
181.899994
 30
0.0
 11
164.106949
 21
181.899994
 31
0.0
  0
LINE
  5
39C
330
1F
100
AcDbEntity
  8
0
 62
     7
100
AcDbLine
 10
163.106949
 20
181.843231
 30
0.0
 11
164.106949
 21
181.843231
 31
0.0
  0
LINE
  5
39D
330
1F
100
AcDbEntity
  8
0
 62
     7
100
AcDbLine
 10
165.006943
 20
181.549988
 30
0.0
 11
165.006943
 21
181.649994
 31
0.0
  0
LINE
  5
39E
330
1F
100
AcDbEntity
  8
0
 62
     7
100
AcDbLine
 10
165.306946
 20
181.549988
 30
0.0
 11
163.306946
 21
181.549988
 31
0.0
  0
ARC
  5
39F
330
1F
100
AcDbEntity
  8
0
 62
     7
100
AcDbCircle
 10
163.306946
 20
181.049988
 30
0.0
 40
0.5
100
AcDbArc
 50
90.000003
 51
179.999554
  0
LINE
  5
3A0
330
1F
100
AcDbEntity
  8
0
 62
     7
100
AcDbLine
 10
163.306946
 20
181.049988
 30
0.0
 11
162.9534
 21
181.403534
 31
0.0
  0
ARC
  5
3A1
330
1F
100
AcDbEntity
  8
0
 62
     7
100
AcDbCircle
 10
165.306946
 20
182.049988
 30
0.0
 40
0.5
100
AcDbArc
 50
269.999997
 51
360.0
  0
LINE
  5
3A2
330
1F
100
AcDbEntity
  8
0
 62
     7
100
AcDbLine
 10
162.806946
 20
181.049988
 30
0.0
 11
162.806946
 21
157.949982
 31
0.0
  0
LINE
  5
3A3
330
1F
100
AcDbEntity
  8
0
 62
     7
100
AcDbLine
 10
163.306946
 20
157.949982
 30
0.0
 11
163.056946
 21
157.699982
 31
0.0
  0
LINE
  5
3A4
330
1F
100
AcDbEntity
  8
0
 62
     7
100
AcDbLine
 10
162.806946
 20
157.949982
 30
0.0
 11
163.056946
 21
157.699982
 31
0.0
  0
ARC
  5
3A5
330
1F
100
AcDbEntity
  8
0
 62
     7
100
AcDbCircle
 10
166.306946
 20
182.049988
 30
0.0
 40
0.5
100
AcDbArc
 50
90.000003
 51
180.000009
  0
LINE
  5
3A6
330
1F
100
AcDbEntity
  8
0
 62
     7
100
AcDbLine
 10
163.056946
 20
157.699982
 30
0.0
 11
163.306946
 21
157.449982
 31
0.0
  0
LINE
  5
3A7
330
1F
100
AcDbEntity
  8
0
 62
     7
100
AcDbLine
 10
170.306946
 20
157.449982
 30
0.0
 11
163.306946
 21
157.449982
 31
0.0
  0
LINE
  5
3A8
330
1F
100
AcDbEntity
  8
0
 62
     7
100
AcDbLine
 10
174.806946
 20
182.549988
 30
0.0
 11
166.306946
 21
182.549988
 31
0.0
  0
LINE
  5
3A9
330
1F
100
AcDbEntity
  8
0
 62
     7
100
AcDbLine
 10
176.306946
 20
181.549988
 30
0.0
 11
175.806946
 21
181.549988
 31
0.0
  0
LINE
  5
3AA
330
1F
100
AcDbEntity
  8
0
 62
     7
100
AcDbLine
 10
176.606949
 20
181.25
 30
0.0
 11
176.606949
 21
180.049988
 31
0.0
  0
ARC
  5
3AB
330
1F
100
AcDbEntity
  8
0
 62
     7
100
AcDbCircle
 10
178.806946
 20
180.049988
 30
0.0
 40
2.200000047683716
100
AcDbArc
 50
180.000009
 51
360.0
  0
ARC
  5
3AC
330
1F
100
AcDbEntity
  8
0
 62
     7
100
AcDbCircle
 10
179.806946
 20
176.487701
 30
0.0
 40
1.0
100
AcDbArc
 50
105.680348
 51
180.000009
  0
LINE
  5
3AD
330
1F
100
AcDbEntity
  8
0
 62
     7
100
AcDbLine
 10
178.806946
 20
176.487701
 30
0.0
 11
178.806946
 21
164.75
 31
0.0
  0
ARC
  5
3AE
330
1F
100
AcDbEntity
  8
0
 62
     7
100
AcDbCircle
 10
181.806946
 20
164.75
 30
0.0
 40
3.0
100
AcDbArc
 50
180.000009
 51
269.999997
  0
LINE
  5
3AF
330
1F
100
AcDbEntity
  8
0
 62
     7
100
AcDbLine
 10
195.806946
 20
161.75
 30
0.0
 11
181.806946
 21
161.75
 31
0.0
  0
ARC
  5
3B0
330
1F
100
AcDbEntity
  8
0
 62
     7
100
AcDbCircle
 10
195.806946
 20
164.75
 30
0.0
 40
3.0
100
AcDbArc
 50
269.999997
 51
360.0
  0
LINE
  5
3B1
330
1F
100
AcDbEntity
  8
0
 62
     7
100
AcDbLine
 10
198.806946
 20
164.75
 30
0.0
 11
198.806946
 21
177.549988
 31
0.0
  0
ARC
  5
3B2
330
1F
100
AcDbEntity
  8
0
 62
     7
100
AcDbCircle
 10
195.806946
 20
177.549988
 30
0.0
 40
3.0
100
AcDbArc
 50
0.0
 51
90.000003
  0
LINE
  5
3B3
330
1F
100
AcDbEntity
  8
0
 62
     7
100
AcDbLine
 10
182.473007
 20
180.549988
 30
0.0
 11
195.806946
 21
180.549988
 31
0.0
  0
ARC
  5
3B4
330
1F
100
AcDbEntity
  8
0
 62
     7
100
AcDbCircle
 10
182.473007
 20
179.549988
 30
0.0
 40
1.0
100
AcDbArc
 50
90.000003
 51
172.233561
  0
LINE
  5
3B5
330
1F
100
AcDbEntity
  8
0
 62
     7
100
AcDbLine
 10
181.006943
 20
180.049988
 30
0.0
 11
181.006943
 21
181.25
 31
0.0
  0
LINE
  5
3B6
330
1F
100
AcDbEntity
  8
0
 62
     7
100
AcDbLine
 10
255.306946
 20
181.549988
 30
0.0
 11
181.306946
 21
181.549988
 31
0.0
  0
LINE
  5
3B7
330
1F
100
AcDbEntity
  8
0
 62
     7
100
AcDbLine
 10
255.606934
 20
181.25
 30
0.0
 11
255.606934
 21
180.049988
 31
0.0
  0
ARC
  5
3B8
330
1F
100
AcDbEntity
  8
0
 62
     7
100
AcDbCircle
 10
257.806976
 20
180.049988
 30
0.0
 40
2.200000047683716
100
AcDbArc
 50
180.000009
 51
360.0
  0
LINE
  5
3B9
330
1F
100
AcDbEntity
  8
0
 62
     7
100
AcDbLine
 10
260.006958
 20
180.049988
 30
0.0
 11
260.006958
 21
181.25
 31
0.0
  0
LINE
  5
3BA
330
1F
100
AcDbEntity
  8
0
 62
     7
100
AcDbLine
 10
274.306976
 20
181.549988
 30
0.0
 11
260.306976
 21
181.549988
 31
0.0
  0
LINE
  5
3BB
330
1F
100
AcDbEntity
  8
0
 62
     7
100
AcDbLine
 10
292.306976
 20
182.549988
 30
0.0
 11
275.306976
 21
182.549988
 31
0.0
  0
LINE
  5
3BC
330
1F
100
AcDbEntity
  8
0
 62
     7
100
AcDbLine
 10
295.306976
 20
181.549988
 30
0.0
 11
293.306976
 21
181.549988
 31
0.0
  0
LINE
  5
3BD
330
1F
100
AcDbEntity
  8
0
 62
     7
100
AcDbLine
 10
295.306976
 20
181.049988
 30
0.0
 11
295.660522
 21
181.403534
 31
0.0
  0
ARC
  5
3BE
330
1F
100
AcDbEntity
  8
0
 62
     7
100
AcDbCircle
 10
295.306976
 20
181.049988
 30
0.0
 40
0.5
100
AcDbArc
 50
0.0
 51
89.999559
  0
LINE
  5
3BF
330
1F
100
AcDbEntity
  8
0
 62
     7
100
AcDbLine
 10
295.806976
 20
157.949982
 30
0.0
 11
295.806976
 21
181.049988
 31
0.0
  0
LINE
  5
3C0
330
1F
100
AcDbEntity
  8
0
 62
     7
100
AcDbLine
 10
295.306976
 20
157.949982
 30
0.0
 11
295.556976
 21
157.699982
 31
0.0
  0
LINE
  5
3C1
330
1F
100
AcDbEntity
  8
0
 62
     7
100
AcDbLine
 10
295.556976
 20
157.699982
 30
0.0
 11
295.806976
 21
157.949982
 31
0.0
  0
LINE
  5
3C2
330
1F
100
AcDbEntity
  8
0
 62
     7
100
AcDbLine
 10
295.306976
 20
157.449982
 30
0.0
 11
288.306976
 21
157.449982
 31
0.0
  0
LINE
  5
3C3
330
1F
100
AcDbEntity
  8
0
 62
     7
100
AcDbLine
 10
295.306976
 20
157.449982
 30
0.0
 11
295.556976
 21
157.699982
 31
0.0
  0
LINE
  5
3C4
330
1F
100
AcDbEntity
  8
0
 62
     7
100
AcDbLine
 10
287.806976
 20
157.949982
 30
0.0
 11
287.806976
 21
160.75
 31
0.0
  0
LINE
  5
3C5
330
1F
100
AcDbEntity
  8
0
 62
     7
100
AcDbLine
 10
288.306976
 20
160.75
 30
0.0
 11
170.306946
 21
160.75
 31
0.0
  0
LINE
  5
3C6
330
1F
100
AcDbEntity
  8
0
 62
     7
100
AcDbLine
 10
170.806946
 20
157.949982
 30
0.0
 11
170.806946
 21
160.75
 31
0.0
  0
LINE
  5
3C7
330
1F
100
AcDbEntity
  8
0
 62
     7
100
AcDbLine
 10
237.806946
 20
180.549988
 30
0.0
 11
251.806946
 21
180.549988
 31
0.0
  0
ARC
  5
3C8
330
1F
100
AcDbEntity
  8
0
 62
     7
100
AcDbCircle
 10
251.806946
 20
177.549988
 30
0.0
 40
3.0
100
AcDbArc
 50
0.0
 51
90.000003
  0
LINE
  5
3C9
330
1F
100
AcDbEntity
  8
0
 62
     7
100
AcDbLine
 10
254.806946
 20
164.75
 30
0.0
 11
254.806946
 21
177.549988
 31
0.0
  0
ARC
  5
3CA
330
1F
100
AcDbEntity
  8
0
 62
     7
100
AcDbCircle
 10
251.806946
 20
164.75
 30
0.0
 40
3.0
100
AcDbArc
 50
269.999997
 51
360.0
  0
LINE
  5
3CB
330
1F
100
AcDbEntity
  8
0
 62
     7
100
AcDbLine
 10
251.806946
 20
161.75
 30
0.0
 11
237.806946
 21
161.75
 31
0.0
  0
ARC
  5
3CC
330
1F
100
AcDbEntity
  8
0
 62
     7
100
AcDbCircle
 10
237.806946
 20
164.75
 30
0.0
 40
3.0
100
AcDbArc
 50
180.000009
 51
269.999997
  0
LINE
  5
3CD
330
1F
100
AcDbEntity
  8
0
 62
     7
100
AcDbLine
 10
234.806946
 20
177.549988
 30
0.0
 11
234.806946
 21
164.75
 31
0.0
  0
ARC
  5
3CE
330
1F
100
AcDbEntity
  8
0
 62
     7
100
AcDbCircle
 10
237.806946
 20
177.549988
 30
0.0
 40
3.0
100
AcDbArc
 50
90.000003
 51
180.000009
  0
LINE
  5
3CF
330
1F
100
AcDbEntity
  8
0
 62
     7
100
AcDbLine
 10
175.806946
 20
182.549988
 30
0.0
 11
174.806946
 21
182.549988
 31
0.0
  0
LINE
  5
3D0
330
1F
100
AcDbEntity
  8
0
 62
     7
100
AcDbLine
 10
176.806946
 20
182.549988
 30
0.0
 11
175.806946
 21
182.549988
 31
0.0
  0
ARC
  5
3D1
330
1F
100
AcDbEntity
  8
0
 62
     7
100
AcDbCircle
 10
170.306946
 20
157.949982
 30
0.0
 40
0.5
100
AcDbArc
 50
269.999997
 51
360.0
  0
ARC
  5
3D2
330
1F
100
AcDbEntity
  8
0
 62
     7
100
AcDbCircle
 10
174.806946
 20
182.049988
 30
0.0
 40
0.5
100
AcDbArc
 50
0.0
 51
90.000003
  0
ARC
  5
3D3
330
1F
100
AcDbEntity
  8
0
 62
     7
100
AcDbCircle
 10
175.806946
 20
182.049988
 30
0.0
 40
0.5
100
AcDbArc
 50
180.000009
 51
269.999997
  0
LINE
  5
3D4
330
1F
100
AcDbEntity
  8
0
 62
     7
100
AcDbLine
 10
176.70694
 20
181.549988
 30
0.0
 11
176.306946
 21
181.549988
 31
0.0
  0
LINE
  5
3D5
330
1F
100
AcDbEntity
  8
0
 62
     7
100
AcDbLine
 10
176.70694
 20
181.549988
 30
0.0
 11
176.806946
 21
181.549988
 31
0.0
  0
ARC
  5
3D6
330
1F
100
AcDbEntity
  8
0
 62
     7
100
AcDbCircle
 10
176.306946
 20
181.25
 30
0.0
 40
0.300000011920929
100
AcDbArc
 50
0.0
 51
90.000003
  0
ARC
  5
3D7
330
1F
100
AcDbEntity
  8
0
 62
     7
100
AcDbCircle
 10
178.806946
 20
180.049988
 30
0.0
 40
2.700000047683716
100
AcDbArc
 50
285.680336
 51
352.233566
  0
CIRCLE
  5
3D8
330
1F
100
AcDbEntity
  8
0
 62
     7
100
AcDbCircle
 10
188.806946
 20
173.149994
 30
0.0
 40
4.5
  0
ARC
  5
3D9
330
1F
100
AcDbEntity
  8
0
 62
     7
100
AcDbCircle
 10
181.306946
 20
181.25
 30
0.0
 40
0.300000011920929
100
AcDbArc
 50
90.000003
 51
180.000009
  0
ARC
  5
3DA
330
1F
100
AcDbEntity
  8
0
 62
     7
100
AcDbCircle
 10
255.306946
 20
181.25
 30
0.0
 40
0.300000011920929
100
AcDbArc
 50
0.0
 51
90.000003
  0
ARC
  5
3DB
330
1F
100
AcDbEntity
  8
0
 62
     7
100
AcDbCircle
 10
260.306976
 20
181.25
 30
0.0
 40
0.300000011920929
100
AcDbArc
 50
90.000003
 51
180.000009
  0
ARC
  5
3DC
330
1F
100
AcDbEntity
  8
0
 62
     7
100
AcDbCircle
 10
274.306976
 20
182.049988
 30
0.0
 40
0.5
100
AcDbArc
 50
269.999997
 51
360.0
  0
ARC
  5
3DD
330
1F
100
AcDbEntity
  8
0
 62
     7
100
AcDbCircle
 10
275.306976
 20
182.049988
 30
0.0
 40
0.5
100
AcDbArc
 50
90.000003
 51
180.000009
  0
LINE
  5
3DE
330
1F
100
AcDbEntity
  8
0
 62
     7
100
AcDbLine
 10
273.306976
 20
182.549988
 30
0.0
 11
274.306976
 21
182.549988
 31
0.0
  0
LINE
  5
3DF
330
1F
100
AcDbEntity
  8
0
 62
     7
100
AcDbLine
 10
275.306976
 20
182.549988
 30
0.0
 11
274.306976
 21
182.549988
 31
0.0
  0
ARC
  5
3E0
330
1F
100
AcDbEntity
  8
0
 62
     7
100
AcDbCircle
 10
292.306976
 20
182.049988
 30
0.0
 40
0.5
100
AcDbArc
 50
0.0
 51
90.000003
  0
ARC
  5
3E1
330
1F
100
AcDbEntity
  8
0
 62
     7
100
AcDbCircle
 10
293.306976
 20
182.049988
 30
0.0
 40
0.5
100
AcDbArc
 50
180.000009
 51
269.999997
  0
ARC
  5
3E2
330
1F
100
AcDbEntity
  8
0
 62
     7
100
AcDbCircle
 10
288.306976
 20
157.949982
 30
0.0
 40
0.5
100
AcDbArc
 50
180.000009
 51
269.999997
  0
LINE
  5
3E3
330
1F
100
AcDbEntity
  8
0
 62
     7
100
AcDbLine
 10
172.056946
 20
160.350006
 30
0.0
 11
172.056946
 21
160.75
 31
0.0
  0
LINE
  5
3E4
330
1F
100
AcDbEntity
  8
0
 62
     7
100
AcDbLine
 10
286.556976
 20
160.350006
 30
0.0
 11
286.556976
 21
160.75
 31
0.0
  0
LINE
  5
3E5
330
1F
100
AcDbEntity
  8
0
 62
     7
100
AcDbLine
 10
186.530151
 20
160.600006
 30
0.0
 11
186.330154
 21
160.600006
 31
0.0
  0
LINE
  5
3E6
330
1F
100
AcDbEntity
  8
0
 62
     7
100
AcDbLine
 10
183.283737
 20
160.600006
 30
0.0
 11
186.330154
 21
160.600006
 31
0.0
  0
LINE
  5
3E7
330
1F
100
AcDbEntity
  8
0
 62
     7
100
AcDbLine
 10
183.283737
 20
160.600006
 30
0.0
 11
183.08374
 21
160.600006
 31
0.0
  0
LINE
  5
3E8
330
1F
100
AcDbEntity
  8
0
 62
     7
100
AcDbLine
 10
272.283752
 20
160.600006
 30
0.0
 11
272.083771
 21
160.600006
 31
0.0
  0
LINE
  5
3E9
330
1F
100
AcDbEntity
  8
0
 62
     7
100
AcDbLine
 10
275.530182
 20
160.600006
 30
0.0
 11
275.33017
 21
160.600006
 31
0.0
  0
LINE
  5
3EA
330
1F
100
AcDbEntity
  8
0
 62
     7
100
AcDbLine
 10
272.283752
 20
160.600006
 30
0.0
 11
275.33017
 21
160.600006
 31
0.0
  0
CIRCLE
  5
3EB
330
1F
100
AcDbEntity
  8
0
 62
     7
100
AcDbCircle
 10
244.806946
 20
173.149994
 30
0.0
 40
4.5
  0
LINE
  5
3EC
330
1F
100
AcDbEntity
  8
0
 62
     7
100
AcDbLine
 10
176.806946
 20
180.049988
 30
0.0
 11
176.806946
 21
182.049988
 31
0.0
  0
LINE
  5
3ED
330
1F
100
AcDbEntity
  8
0
 62
     7
100
AcDbLine
 10
176.806946
 20
182.549988
 30
0.0
 11
176.806946
 21
182.049988
 31
0.0
  0
LINE
  5
3EE
330
1F
100
AcDbEntity
  8
0
 62
     7
100
AcDbLine
 10
176.806946
 20
183.549988
 30
0.0
 11
176.806946
 21
182.549988
 31
0.0
  0
LINE
  5
3EF
330
1F
100
AcDbEntity
  8
0
 62
     7
100
AcDbLine
 10
273.306976
 20
181.549988
 30
0.0
 11
273.306976
 21
182.049988
 31
0.0
  0
LINE
  5
3F0
330
1F
100
AcDbEntity
  8
0
 62
     7
100
AcDbLine
 10
273.306976
 20
182.549988
 30
0.0
 11
273.306976
 21
182.049988
 31
0.0
  0
LINE
  5
3F1
330
1F
100
AcDbEntity
  8
0
 62
     7
100
AcDbLine
 10
273.306976
 20
183.549988
 30
0.0
 11
273.306976
 21
182.549988
 31
0.0
  0
ARC
  5
3F2
330
1F
100
AcDbEntity
  8
0
 62
     7
100
AcDbCircle
 10
178.806946
 20
180.049988
 30
0.0
 40
2.0
100
AcDbArc
 50
180.000009
 51
360.0
  0
LINE
  5
3F3
330
1F
100
AcDbEntity
  8
0
 62
     7
100
AcDbLine
 10
180.806946
 20
180.049988
 30
0.0
 11
180.806946
 21
181.549988
 31
0.0
  0
LINE
  5
3F4
330
1F
100
AcDbEntity
  8
0
 62
     7
100
AcDbLine
 10
181.306946
 20
181.549988
 30
0.0
 11
180.806946
 21
181.549988
 31
0.0
  0
LINE
  5
3F5
330
1F
100
AcDbEntity
  8
0
 62
     7
100
AcDbLine
 10
255.806946
 20
181.549988
 30
0.0
 11
255.306946
 21
181.549988
 31
0.0
  0
LINE
  5
3F6
330
1F
100
AcDbEntity
  8
0
 62
     7
100
AcDbLine
 10
255.806946
 20
180.049988
 30
0.0
 11
255.806946
 21
181.549988
 31
0.0
  0
ARC
  5
3F7
330
1F
100
AcDbEntity
  8
0
 62
     7
100
AcDbCircle
 10
257.806976
 20
180.049988
 30
0.0
 40
2.0
100
AcDbArc
 50
180.000009
 51
360.0
  0
LINE
  5
3F8
330
1F
100
AcDbEntity
  8
0
 62
     7
100
AcDbLine
 10
259.806976
 20
180.049988
 30
0.0
 11
259.806976
 21
181.549988
 31
0.0
  0
LINE
  5
3F9
330
1F
100
AcDbEntity
  8
0
 62
     7
100
AcDbLine
 10
260.306976
 20
181.549988
 30
0.0
 11
259.806976
 21
181.549988
 31
0.0
  0
LINE
  5
3FA
330
1F
100
AcDbEntity
  8
0
 62
     7
100
AcDbLine
 10
293.606964
 20
181.549988
 30
0.0
 11
293.606964
 21
181.649994
 31
0.0
  0
LINE
  5
3FB
330
1F
100
AcDbEntity
  8
0
 62
     7
100
AcDbLine
 10
286.756958
 20
160.350006
 30
0.0
 11
287.756958
 21
160.350006
 31
0.0
  0
LINE
  5
3FC
330
1F
100
AcDbEntity
  8
0
 62
     7
100
AcDbLine
 10
286.756958
 20
160.350006
 30
0.0
 11
275.33017
 21
160.350006
 31
0.0
  0
LINE
  5
3FD
330
1F
100
AcDbEntity
  8
0
 62
     7
100
AcDbLine
 10
272.283752
 20
160.350006
 30
0.0
 11
186.330154
 21
160.350006
 31
0.0
  0
LINE
  5
3FE
330
1F
100
AcDbEntity
  8
0
 62
     7
100
AcDbLine
 10
183.283737
 20
160.350006
 30
0.0
 11
171.856949
 21
160.350006
 31
0.0
  0
LINE
  5
3FF
330
1F
100
AcDbEntity
  8
0
 62
     7
100
AcDbLine
 10
170.856949
 20
160.350006
 30
0.0
 11
171.856949
 21
160.350006
 31
0.0
  0
LINE
  5
400
330
1F
100
AcDbEntity
  8
0
 62
     7
100
AcDbLine
 10
286.756958
 20
157.850006
 30
0.0
 11
171.856949
 21
157.850006
 31
0.0
  0
LINE
  5
401
330
1F
100
AcDbEntity
  8
0
 62
     7
100
AcDbLine
 10
273.306976
 20
182.549988
 30
0.0
 11
176.806946
 21
182.549988
 31
0.0
  0
CIRCLE
  5
402
330
1F
100
AcDbEntity
  8
0
 62
     7
100
AcDbCircle
 10
188.806946
 20
173.149994
 30
0.0
 40
4.0
  0
LINE
  5
403
330
1F
100
AcDbEntity
  8
0
 62
     7
100
AcDbLine
 10
170.856949
 20
157.850006
 30
0.0
 11
170.856949
 21
160.350006
 31
0.0
  0
LINE
  5
404
330
1F
100
AcDbEntity
  8
0
 62
     7
100
AcDbLine
 10
287.756958
 20
157.850006
 30
0.0
 11
287.756958
 21
160.350006
 31
0.0
  0
LINE
  5
405
330
1F
100
AcDbEntity
  8
0
 62
     7
100
AcDbLine
 10
286.756958
 20
157.850006
 30
0.0
 11
287.756958
 21
157.850006
 31
0.0
  0
LINE
  5
406
330
1F
100
AcDbEntity
  8
0
 62
     7
100
AcDbLine
 10
170.856949
 20
157.850006
 30
0.0
 11
171.856949
 21
157.850006
 31
0.0
  0
CIRCLE
  5
407
330
1F
100
AcDbEntity
  8
0
 62
     7
100
AcDbCircle
 10
244.806946
 20
173.149994
 30
0.0
 40
4.0
  0
CIRCLE
  5
408
330
1F
100
AcDbEntity
  8
0
 62
     7
100
AcDbCircle
 10
257.806976
 20
180.049988
 30
0.0
 40
1.475000023841858
  0
CIRCLE
  5
409
330
1F
100
AcDbEntity
  8
0
 62
     7
100
AcDbCircle
 10
178.806946
 20
180.049988
 30
0.0
 40
1.475000023841858
  0
CIRCLE
  5
40A
330
1F
100
AcDbEntity
  8
0
 62
     7
100
AcDbCircle
 10
188.806946
 20
173.149994
 30
0.0
 40
2.549999952316284
  0
CIRCLE
  5
40B
330
1F
100
AcDbEntity
  8
0
 62
     7
100
AcDbCircle
 10
244.806946
 20
173.149994
 30
0.0
 40
2.549999952316284
  0
LINE
  5
40C
330
1F
100
AcDbEntity
  8
0
 62
     7
100
AcDbLine
 10
257.606964
 20
181.149994
 30
0.0
 11
258.006958
 21
181.149994
 31
0.0
  0
LINE
  5
40D
330
1F
100
AcDbEntity
  8
0
 62
     7
100
AcDbLine
 10
257.606964
 20
181.149994
 30
0.0
 11
257.606964
 21
180.5
 31
0.0
  0
ARC
  5
40E
330
1F
100
AcDbEntity
  8
0
 62
     7
100
AcDbCircle
 10
257.356964
 20
180.5
 30
0.0
 40
0.25
100
AcDbArc
 50
269.999997
 51
360.0
  0
LINE
  5
40F
330
1F
100
AcDbEntity
  8
0
 62
     7
100
AcDbLine
 10
257.356964
 20
180.25
 30
0.0
 11
256.70697
 21
180.25
 31
0.0
  0
LINE
  5
410
330
1F
100
AcDbEntity
  8
0
 62
     7
100
AcDbLine
 10
256.70697
 20
180.25
 30
0.0
 11
256.70697
 21
179.850006
 31
0.0
  0
LINE
  5
411
330
1F
100
AcDbEntity
  8
0
 62
     7
100
AcDbLine
 10
257.356964
 20
179.850006
 30
0.0
 11
256.70697
 21
179.850006
 31
0.0
  0
ARC
  5
412
330
1F
100
AcDbEntity
  8
0
 62
     7
100
AcDbCircle
 10
257.356964
 20
179.600006
 30
0.0
 40
0.25
100
AcDbArc
 50
0.0
 51
90.000003
  0
LINE
  5
413
330
1F
100
AcDbEntity
  8
0
 62
     7
100
AcDbLine
 10
257.606964
 20
178.949982
 30
0.0
 11
257.606964
 21
179.600006
 31
0.0
  0
LINE
  5
414
330
1F
100
AcDbEntity
  8
0
 62
     7
100
AcDbLine
 10
257.606964
 20
178.949982
 30
0.0
 11
258.006958
 21
178.949982
 31
0.0
  0
LINE
  5
415
330
1F
100
AcDbEntity
  8
0
 62
     7
100
AcDbLine
 10
258.006958
 20
178.949982
 30
0.0
 11
258.006958
 21
179.600006
 31
0.0
  0
ARC
  5
416
330
1F
100
AcDbEntity
  8
0
 62
     7
100
AcDbCircle
 10
258.256958
 20
179.600006
 30
0.0
 40
0.25
100
AcDbArc
 50
90.000003
 51
180.000009
  0
LINE
  5
417
330
1F
100
AcDbEntity
  8
0
 62
     7
100
AcDbLine
 10
258.256958
 20
179.850006
 30
0.0
 11
258.906982
 21
179.850006
 31
0.0
  0
LINE
  5
418
330
1F
100
AcDbEntity
  8
0
 62
     7
100
AcDbLine
 10
258.906982
 20
180.25
 30
0.0
 11
258.906982
 21
179.850006
 31
0.0
  0
LINE
  5
419
330
1F
100
AcDbEntity
  8
0
 62
     7
100
AcDbLine
 10
258.256958
 20
180.25
 30
0.0
 11
258.906982
 21
180.25
 31
0.0
  0
ARC
  5
41A
330
1F
100
AcDbEntity
  8
0
 62
     7
100
AcDbCircle
 10
258.256958
 20
180.5
 30
0.0
 40
0.25
100
AcDbArc
 50
180.000009
 51
269.999997
  0
LINE
  5
41B
330
1F
100
AcDbEntity
  8
0
 62
     7
100
AcDbLine
 10
258.006958
 20
181.149994
 30
0.0
 11
258.006958
 21
180.5
 31
0.0
  0
LINE
  5
41C
330
1F
100
AcDbEntity
  8
0
 62
     7
100
AcDbLine
 10
178.606949
 20
181.149994
 30
0.0
 11
179.006943
 21
181.149994
 31
0.0
  0
LINE
  5
41D
330
1F
100
AcDbEntity
  8
0
 62
     7
100
AcDbLine
 10
178.606949
 20
181.149994
 30
0.0
 11
178.606949
 21
180.5
 31
0.0
  0
ARC
  5
41E
330
1F
100
AcDbEntity
  8
0
 62
     7
100
AcDbCircle
 10
178.356949
 20
180.5
 30
0.0
 40
0.25
100
AcDbArc
 50
269.999997
 51
360.0
  0
LINE
  5
41F
330
1F
100
AcDbEntity
  8
0
 62
     7
100
AcDbLine
 10
178.356949
 20
180.25
 30
0.0
 11
177.70694
 21
180.25
 31
0.0
  0
LINE
  5
420
330
1F
100
AcDbEntity
  8
0
 62
     7
100
AcDbLine
 10
177.70694
 20
180.25
 30
0.0
 11
177.70694
 21
179.850006
 31
0.0
  0
LINE
  5
421
330
1F
100
AcDbEntity
  8
0
 62
     7
100
AcDbLine
 10
178.356949
 20
179.850006
 30
0.0
 11
177.70694
 21
179.850006
 31
0.0
  0
ARC
  5
422
330
1F
100
AcDbEntity
  8
0
 62
     7
100
AcDbCircle
 10
178.356949
 20
179.600006
 30
0.0
 40
0.25
100
AcDbArc
 50
0.0
 51
90.000003
  0
LINE
  5
423
330
1F
100
AcDbEntity
  8
0
 62
     7
100
AcDbLine
 10
178.606949
 20
178.949982
 30
0.0
 11
178.606949
 21
179.600006
 31
0.0
  0
LINE
  5
424
330
1F
100
AcDbEntity
  8
0
 62
     7
100
AcDbLine
 10
178.606949
 20
178.949982
 30
0.0
 11
179.006943
 21
178.949982
 31
0.0
  0
LINE
  5
425
330
1F
100
AcDbEntity
  8
0
 62
     7
100
AcDbLine
 10
179.006943
 20
178.949982
 30
0.0
 11
179.006943
 21
179.600006
 31
0.0
  0
ARC
  5
426
330
1F
100
AcDbEntity
  8
0
 62
     7
100
AcDbCircle
 10
179.256943
 20
179.600006
 30
0.0
 40
0.25
100
AcDbArc
 50
90.000003
 51
180.000009
  0
LINE
  5
427
330
1F
100
AcDbEntity
  8
0
 62
     7
100
AcDbLine
 10
179.256943
 20
179.850006
 30
0.0
 11
179.906952
 21
179.850006
 31
0.0
  0
LINE
  5
428
330
1F
100
AcDbEntity
  8
0
 62
     7
100
AcDbLine
 10
179.906952
 20
180.25
 30
0.0
 11
179.906952
 21
179.850006
 31
0.0
  0
LINE
  5
429
330
1F
100
AcDbEntity
  8
0
 62
     7
100
AcDbLine
 10
179.256943
 20
180.25
 30
0.0
 11
179.906952
 21
180.25
 31
0.0
  0
ARC
  5
42A
330
1F
100
AcDbEntity
  8
0
 62
     7
100
AcDbCircle
 10
179.256943
 20
180.5
 30
0.0
 40
0.25
100
AcDbArc
 50
180.000009
 51
269.999997
  0
LINE
  5
42B
330
1F
100
AcDbEntity
  8
0
 62
     7
100
AcDbLine
 10
179.006943
 20
181.149994
 30
0.0
 11
179.006943
 21
180.5
 31
0.0
  0
LINE
  5
42C
330
1F
100
AcDbEntity
  8
0
 62
     7
100
AcDbLine
 10
218.456802
 20
175.607971
 30
0.0
 11
216.994431
 21
179.545227
 31
0.0
  0
ARC
  5
42D
330
1F
100
AcDbEntity
  8
0
 62
     7
100
AcDbCircle
 10
218.269318
 20
175.53833
 30
0.0
 40
0.2000000029802322
100
AcDbArc
 50
269.999997
 51
20.376
  0
LINE
  5
42E
330
1F
100
AcDbEntity
  8
0
 62
     7
100
AcDbLine
 10
215.344574
 20
175.338348
 30
0.0
 11
218.269318
 21
175.338348
 31
0.0
  0
ARC
  5
42F
330
1F
100
AcDbEntity
  8
0
 62
     7
100
AcDbCircle
 10
215.344574
 20
175.53833
 30
0.0
 40
0.2000000029802322
100
AcDbArc
 50
159.624007
 51
269.999997
  0
LINE
  5
430
330
1F
100
AcDbEntity
  8
0
 62
     7
100
AcDbLine
 10
216.619461
 20
179.545227
 30
0.0
 11
215.157089
 21
175.607971
 31
0.0
  0
ARC
  5
431
330
1F
100
AcDbEntity
  8
0
 62
     7
100
AcDbCircle
 10
216.806946
 20
179.475586
 30
0.0
 40
0.2000000029802322
100
AcDbArc
 50
20.376
 51
159.624007
  0
LINE
  5
432
330
1F
100
AcDbEntity
  8
0
 62
     7
100
AcDbLine
 10
164.70694
 20
181.649994
 30
0.0
 11
165.006943
 21
181.649994
 31
0.0
  0
LINE
  5
433
330
1F
100
AcDbEntity
  8
0
 62
     7
100
AcDbLine
 10
166.255707
 20
181.075623
 30
0.0
 11
166.281326
 21
181.101227
 31
0.0
  0
POLYLINE
  5
434
330
1F
100
AcDbEntity
  8
0
 62
     7
100
AcDb2dPolyline
 66
     1
 10
0.0
 20
0.0
 30
0.0
  0
VERTEX
  5
435
330
434
100
AcDbEntity
  8
0
100
AcDbVertex
100
AcDb2dVertex
 10
181.493774
 20
181.082916
 30
0.0
  0
VERTEX
  5
436
330
434
100
AcDbEntity
  8
0
100
AcDbVertex
100
AcDb2dVertex
 10
181.496979
 20
181.07312
 30
0.0
  0
VERTEX
  5
437
330
434
100
AcDbEntity
  8
0
100
AcDbVertex
100
AcDb2dVertex
 10
181.504105
 20
181.056976
 30
0.0
  0
VERTEX
  5
438
330
434
100
AcDbEntity
  8
0
100
AcDbVertex
100
AcDb2dVertex
 10
181.507385
 20
181.050507
 30
0.0
  0
VERTEX
  5
439
330
434
100
AcDbEntity
  8
0
100
AcDbVertex
100
AcDb2dVertex
 10
181.508026
 20
181.049042
 30
0.0
  0
VERTEX
  5
43A
330
434
100
AcDbEntity
  8
0
100
AcDbVertex
100
AcDb2dVertex
 10
181.490891
 20
181.070526
 30
0.0
  0
VERTEX
  5
43B
330
434
100
AcDbEntity
  8
0
100
AcDbVertex
100
AcDb2dVertex
 10
181.487366
 20
181.075684
 30
0.0
  0
VERTEX
  5
43C
330
434
100
AcDbEntity
  8
0
100
AcDbVertex
100
AcDb2dVertex
 10
181.489182
 20
181.074432
 30
0.0
  0
VERTEX
  5
43D
330
434
100
AcDbEntity
  8
0
100
AcDbVertex
100
AcDb2dVertex
 10
181.49794
 20
181.064178
 30
0.0
  0
VERTEX
  5
43E
330
434
100
AcDbEntity
  8
0
100
AcDbVertex
100
AcDb2dVertex
 10
181.5065
 20
181.052368
 30
0.0
  0
VERTEX
  5
43F
330
434
100
AcDbEntity
  8
0
100
AcDbVertex
100
AcDb2dVertex
 10
181.507278
 20
181.05072
 30
0.0
  0
VERTEX
  5
440
330
434
100
AcDbEntity
  8
0
100
AcDbVertex
100
AcDb2dVertex
 10
181.507187
 20
181.04953
 30
0.0
  0
VERTEX
  5
441
330
434
100
AcDbEntity
  8
0
100
AcDbVertex
100
AcDb2dVertex
 10
181.504578
 20
181.050446
 30
0.0
  0
VERTEX
  5
442
330
434
100
AcDbEntity
  8
0
100
AcDbVertex
100
AcDb2dVertex
 10
181.492752
 20
181.05899
 30
0.0
  0
VERTEX
  5
443
330
434
100
AcDbEntity
  8
0
100
AcDbVertex
100
AcDb2dVertex
 10
181.482513
 20
181.067749
 30
0.0
  0
VERTEX
  5
444
330
434
100
AcDbEntity
  8
0
100
AcDbVertex
100
AcDb2dVertex
 10
181.480881
 20
181.069366
 30
0.0
  0
VERTEX
  5
445
330
434
100
AcDbEntity
  8
0
100
AcDbVertex
100
AcDb2dVertex
 10
181.486404
 20
181.06604
 30
0.0
  0
VERTEX
  5
446
330
434
100
AcDbEntity
  8
0
100
AcDbVertex
100
AcDb2dVertex
 10
181.507431
 20
181.049713
 30
0.0
  0
VERTEX
  5
447
330
434
100
AcDbEntity
  8
0
100
AcDbVertex
100
AcDb2dVertex
 10
181.508118
 20
181.04892
 30
0.0
  0
VERTEX
  5
448
330
434
100
AcDbEntity
  8
0
100
AcDbVertex
100
AcDb2dVertex
 10
181.506424
 20
181.049561
 30
0.0
  0
VERTEX
  5
449
330
434
100
AcDbEntity
  8
0
100
AcDbVertex
100
AcDb2dVertex
 10
181.499954
 20
181.052826
 30
0.0
  0
VERTEX
  5
44A
330
434
100
AcDbEntity
  8
0
100
AcDbVertex
100
AcDb2dVertex
 10
181.48381
 20
181.059967
 30
0.0
  0
VERTEX
  5
44B
330
434
100
AcDbEntity
  8
0
100
AcDbVertex
100
AcDb2dVertex
 10
181.47403
 20
181.063171
 30
0.0
  0
SEQEND
  5
44C
330
434
100
AcDbEntity
  8
0
 62
     7
  0
POLYLINE
  5
44D
330
1F
100
AcDbEntity
  8
0
 62
     7
100
AcDb2dPolyline
 66
     1
 10
0.0
 20
0.0
 30
0.0
  0
VERTEX
  5
44E
330
44D
100
AcDbEntity
  8
0
100
AcDbVertex
100
AcDb2dVertex
 10
260.493805
 20
181.082916
 30
0.0
  0
VERTEX
  5
44F
330
44D
100
AcDbEntity
  8
0
100
AcDbVertex
100
AcDb2dVertex
 10
260.497009
 20
181.07312
 30
0.0
  0
VERTEX
  5
450
330
44D
100
AcDbEntity
  8
0
100
AcDbVertex
100
AcDb2dVertex
 10
260.50412
 20
181.056976
 30
0.0
  0
VERTEX
  5
451
330
44D
100
AcDbEntity
  8
0
100
AcDbVertex
100
AcDb2dVertex
 10
260.507416
 20
181.050507
 30
0.0
  0
VERTEX
  5
452
330
44D
100
AcDbEntity
  8
0
100
AcDbVertex
100
AcDb2dVertex
 10
260.508057
 20
181.049042
 30
0.0
  0
VERTEX
  5
453
330
44D
100
AcDbEntity
  8
0
100
AcDbVertex
100
AcDb2dVertex
 10
260.490906
 20
181.070526
 30
0.0
  0
VERTEX
  5
454
330
44D
100
AcDbEntity
  8
0
100
AcDbVertex
100
AcDb2dVertex
 10
260.487396
 20
181.075684
 30
0.0
  0
VERTEX
  5
455
330
44D
100
AcDbEntity
  8
0
100
AcDbVertex
100
AcDb2dVertex
 10
260.489227
 20
181.074432
 30
0.0
  0
VERTEX
  5
456
330
44D
100
AcDbEntity
  8
0
100
AcDbVertex
100
AcDb2dVertex
 10
260.497955
 20
181.064178
 30
0.0
  0
VERTEX
  5
457
330
44D
100
AcDbEntity
  8
0
100
AcDbVertex
100
AcDb2dVertex
 10
260.506531
 20
181.052368
 30
0.0
  0
VERTEX
  5
458
330
44D
100
AcDbEntity
  8
0
100
AcDbVertex
100
AcDb2dVertex
 10
260.507324
 20
181.05072
 30
0.0
  0
VERTEX
  5
459
330
44D
100
AcDbEntity
  8
0
100
AcDbVertex
100
AcDb2dVertex
 10
260.507233
 20
181.04953
 30
0.0
  0
VERTEX
  5
45A
330
44D
100
AcDbEntity
  8
0
100
AcDbVertex
100
AcDb2dVertex
 10
260.506226
 20
181.049652
 30
0.0
  0
VERTEX
  5
45B
330
44D
100
AcDbEntity
  8
0
100
AcDbVertex
100
AcDb2dVertex
 10
260.504608
 20
181.050446
 30
0.0
  0
VERTEX
  5
45C
330
44D
100
AcDbEntity
  8
0
100
AcDbVertex
100
AcDb2dVertex
 10
260.492798
 20
181.05899
 30
0.0
  0
VERTEX
  5
45D
330
44D
100
AcDbEntity
  8
0
100
AcDbVertex
100
AcDb2dVertex
 10
260.482544
 20
181.067749
 30
0.0
  0
VERTEX
  5
45E
330
44D
100
AcDbEntity
  8
0
100
AcDbVertex
100
AcDb2dVertex
 10
260.480927
 20
181.069366
 30
0.0
  0
VERTEX
  5
45F
330
44D
100
AcDbEntity
  8
0
100
AcDbVertex
100
AcDb2dVertex
 10
260.48642
 20
181.06604
 30
0.0
  0
VERTEX
  5
460
330
44D
100
AcDbEntity
  8
0
100
AcDbVertex
100
AcDb2dVertex
 10
260.507477
 20
181.049713
 30
0.0
  0
VERTEX
  5
461
330
44D
100
AcDbEntity
  8
0
100
AcDbVertex
100
AcDb2dVertex
 10
260.508148
 20
181.04892
 30
0.0
  0
VERTEX
  5
462
330
44D
100
AcDbEntity
  8
0
100
AcDbVertex
100
AcDb2dVertex
 10
260.50647
 20
181.049561
 30
0.0
  0
VERTEX
  5
463
330
44D
100
AcDbEntity
  8
0
100
AcDbVertex
100
AcDb2dVertex
 10
260.499969
 20
181.052826
 30
0.0
  0
VERTEX
  5
464
330
44D
100
AcDbEntity
  8
0
100
AcDbVertex
100
AcDb2dVertex
 10
260.483826
 20
181.059967
 30
0.0
  0
VERTEX
  5
465
330
44D
100
AcDbEntity
  8
0
100
AcDbVertex
100
AcDb2dVertex
 10
260.47406
 20
181.063171
 30
0.0
  0
SEQEND
  5
466
330
44D
100
AcDbEntity
  8
0
 62
     7
  0
LINE
  5
467
330
1F
100
AcDbEntity
  8
0
 62
     7
100
AcDbLine
 10
275.255737
 20
181.075623
 30
0.0
 11
275.281342
 21
181.101227
 31
0.0
  0
LINE
  5
468
330
1F
100
AcDbEntity
  8
0
 62
     7
100
AcDbLine
 10
186.443542
 20
160.75
 30
0.0
 11
186.530151
 21
160.600006
 31
0.0
  0
LINE
  5
469
330
1F
100
AcDbEntity
  8
0
 62
     7
100
AcDbLine
 10
183.170349
 20
160.75
 30
0.0
 11
183.08374
 21
160.600006
 31
0.0
  0
LINE
  5
46A
330
1F
100
AcDbEntity
  8
0
 62
     7
100
AcDbLine
 10
272.17038
 20
160.75
 30
0.0
 11
272.083771
 21
160.600006
 31
0.0
  0
LINE
  5
46B
330
1F
100
AcDbEntity
  8
0
 62
     7
100
AcDbLine
 10
275.443573
 20
160.75
 30
0.0
 11
275.530182
 21
160.600006
 31
0.0
  0
LINE
  5
46C
330
1F
100
AcDbEntity
  8
0
 62
     7
100
AcDbLine
 10
186.530151
 20
160.350006
 30
0.0
 11
186.530151
 21
160.600006
 31
0.0
  0
LINE
  5
46D
330
1F
100
AcDbEntity
  8
0
 62
     7
100
AcDbLine
 10
183.08374
 20
160.350006
 30
0.0
 11
183.08374
 21
160.600006
 31
0.0
  0
LINE
  5
46E
330
1F
100
AcDbEntity
  8
0
 62
     7
100
AcDbLine
 10
272.083771
 20
160.600006
 30
0.0
 11
272.083771
 21
160.350006
 31
0.0
  0
LINE
  5
46F
330
1F
100
AcDbEntity
  8
0
 62
     7
100
AcDbLine
 10
275.530182
 20
160.600006
 30
0.0
 11
275.530182
 21
160.350006
 31
0.0
  0
LINE
  5
470
330
1F
100
AcDbEntity
  8
0
 62
     7
100
AcDbLine
 10
293.606964
 20
181.649994
 30
0.0
 11
293.906982
 21
181.649994
 31
0.0
  0
LINE
  5
471
330
1F
100
AcDbEntity
  8
0
 62
     7
100
AcDbLine
 10
54.806961
 20
81.649994
 30
0.0
 11
51.40696
 21
81.649994
 31
0.0
  0
LINE
  5
472
330
1F
100
AcDbEntity
  8
0
 62
     7
100
AcDbLine
 10
58.206963
 20
81.649994
 30
0.0
 11
54.806961
 21
81.649994
 31
0.0
  0
LINE
  5
473
330
1F
100
AcDbEntity
  8
0
 62
     7
100
AcDbLine
 10
133.20694
 20
163.250031
 30
0.0
 11
133.20694
 21
163.100006
 31
0.0
  0
LINE
  5
474
330
1F
100
AcDbEntity
  8
0
 62
     7
100
AcDbLine
 10
131.006943
 20
163.250031
 30
0.0
 11
131.006943
 21
163.100006
 31
0.0
  0
LINE
  5
475
330
1F
100
AcDbEntity
  8
0
 62
     7
100
AcDbLine
 10
128.806946
 20
163.243011
 30
0.0
 11
128.806946
 21
163.100006
 31
0.0
  0
LINE
  5
476
330
1F
100
AcDbEntity
  8
0
 62
     7
100
AcDbLine
 10
134.20694
 20
170.785614
 30
0.0
 11
134.20694
 21
171.362488
 31
0.0
  0
LINE
  5
477
330
1F
100
AcDbEntity
  8
0
 62
     7
100
AcDbLine
 10
134.20694
 20
167.649994
 30
0.0
 11
134.20694
 21
170.785614
 31
0.0
  0
LINE
  5
478
330
1F
100
AcDbEntity
  8
0
 62
     7
100
AcDbLine
 10
133.20694
 20
167.649994
 30
0.0
 11
134.20694
 21
167.649994
 31
0.0
  0
LINE
  5
479
330
1F
100
AcDbEntity
  8
0
 62
     7
100
AcDbLine
 10
133.20694
 20
170.730743
 30
0.0
 11
133.20694
 21
167.649994
 31
0.0
  0
LINE
  5
47A
330
1F
100
AcDbEntity
  8
0
 62
     7
100
AcDbLine
 10
133.20694
 20
171.299988
 30
0.0
 11
133.20694
 21
170.730743
 31
0.0
  0
LINE
  5
47B
330
1F
100
AcDbEntity
  8
0
 62
     7
100
AcDbLine
 10
132.006943
 20
170.664948
 30
0.0
 11
132.006943
 21
171.225006
 31
0.0
  0
LINE
  5
47C
330
1F
100
AcDbEntity
  8
0
 62
     7
100
AcDbLine
 10
132.006943
 20
167.649994
 30
0.0
 11
132.006943
 21
170.664948
 31
0.0
  0
LINE
  5
47D
330
1F
100
AcDbEntity
  8
0
 62
     7
100
AcDbLine
 10
131.006943
 20
167.649994
 30
0.0
 11
132.006943
 21
167.649994
 31
0.0
  0
LINE
  5
47E
330
1F
100
AcDbEntity
  8
0
 62
     7
100
AcDbLine
 10
131.006943
 20
170.610077
 30
0.0
 11
131.006943
 21
167.649994
 31
0.0
  0
LINE
  5
47F
330
1F
100
AcDbEntity
  8
0
 62
     7
100
AcDbLine
 10
131.006943
 20
171.162506
 30
0.0
 11
131.006943
 21
170.610077
 31
0.0
  0
LINE
  5
480
330
1F
100
AcDbEntity
  8
0
 62
     7
100
AcDbLine
 10
129.806946
 20
170.544281
 30
0.0
 11
129.806946
 21
171.087494
 31
0.0
  0
LINE
  5
481
330
1F
100
AcDbEntity
  8
0
 62
     7
100
AcDbLine
 10
129.806946
 20
167.649994
 30
0.0
 11
129.806946
 21
170.544281
 31
0.0
  0
LINE
  5
482
330
1F
100
AcDbEntity
  8
0
 62
     7
100
AcDbLine
 10
128.806946
 20
167.649994
 30
0.0
 11
129.806946
 21
167.649994
 31
0.0
  0
LINE
  5
483
330
1F
100
AcDbEntity
  8
0
 62
     7
100
AcDbLine
 10
128.806946
 20
170.48941
 30
0.0
 11
128.806946
 21
167.649994
 31
0.0
  0
LINE
  5
484
330
1F
100
AcDbEntity
  8
0
 62
     7
100
AcDbLine
 10
128.806946
 20
171.024994
 30
0.0
 11
128.806946
 21
170.48941
 31
0.0
  0
LINE
  5
485
330
1F
100
AcDbEntity
  8
0
 62
     7
100
AcDbLine
 10
126.806961
 20
162.399994
 30
0.0
 11
126.806961
 21
170.37973
 31
0.0
  0
LINE
  5
486
330
1F
100
AcDbEntity
  8
0
 62
     7
100
AcDbLine
 10
126.806961
 20
170.37973
 30
0.0
 11
126.806961
 21
170.899994
 31
0.0
  0
LINE
  5
487
330
1F
100
AcDbEntity
  8
0
 62
     7
100
AcDbLine
 10
128.806946
 20
165.649994
 30
0.0
 11
128.806946
 21
162.274994
 31
0.0
  0
LINE
  5
488
330
1F
100
AcDbEntity
  8
0
 62
     7
100
AcDbLine
 10
128.806946
 20
165.649994
 30
0.0
 11
129.806946
 21
165.649994
 31
0.0
  0
LINE
  5
489
330
1F
100
AcDbEntity
  8
0
 62
     7
100
AcDbLine
 10
129.806946
 20
162.212494
 30
0.0
 11
129.806946
 21
165.649994
 31
0.0
  0
LINE
  5
48A
330
1F
100
AcDbEntity
  8
0
 62
     7
100
AcDbLine
 10
131.006943
 20
165.649994
 30
0.0
 11
131.006943
 21
162.137482
 31
0.0
  0
LINE
  5
48B
330
1F
100
AcDbEntity
  8
0
 62
     7
100
AcDbLine
 10
131.006943
 20
165.649994
 30
0.0
 11
132.006943
 21
165.649994
 31
0.0
  0
LINE
  5
48C
330
1F
100
AcDbEntity
  8
0
 62
     7
100
AcDbLine
 10
132.006943
 20
162.074982
 30
0.0
 11
132.006943
 21
165.649994
 31
0.0
  0
LINE
  5
48D
330
1F
100
AcDbEntity
  8
0
 62
     7
100
AcDbLine
 10
133.20694
 20
165.649994
 30
0.0
 11
133.20694
 21
162.0
 31
0.0
  0
LINE
  5
48E
330
1F
100
AcDbEntity
  8
0
 62
     7
100
AcDbLine
 10
133.20694
 20
165.649994
 30
0.0
 11
134.20694
 21
165.649994
 31
0.0
  0
LINE
  5
48F
330
1F
100
AcDbEntity
  8
0
 62
     7
100
AcDbLine
 10
134.20694
 20
161.9375
 30
0.0
 11
134.20694
 21
165.649994
 31
0.0
  0
LINE
  5
490
330
1F
100
AcDbEntity
  8
0
 62
     7
100
AcDbLine
 10
138.806946
 20
171.037903
 30
0.0
 11
138.806946
 21
171.649994
 31
0.0
  0
LINE
  5
491
330
1F
100
AcDbEntity
  8
0
 62
     7
100
AcDbLine
 10
138.806946
 20
161.649994
 30
0.0
 11
138.806946
 21
171.037903
 31
0.0
  0
LINE
  5
492
330
1F
100
AcDbEntity
  8
0
 62
     7
100
AcDbLine
 10
139.806946
 20
171.301178
 30
0.0
 11
139.806946
 21
171.949982
 31
0.0
  0
LINE
  5
493
330
1F
100
AcDbEntity
  8
0
 62
     7
100
AcDbLine
 10
139.806946
 20
161.350006
 30
0.0
 11
139.806946
 21
171.301178
 31
0.0
  0
LINE
  5
494
330
1F
100
AcDbEntity
  8
0
 62
     7
100
AcDbLine
 10
161.806946
 20
168.280548
 30
0.0
 11
161.806946
 21
171.104767
 31
0.0
  0
LINE
  5
495
330
1F
100
AcDbEntity
  8
0
 62
     7
100
AcDbLine
 10
161.806946
 20
172.735321
 30
0.0
 11
161.806946
 21
172.949982
 31
0.0
  0
LINE
  5
496
330
1F
100
AcDbEntity
  8
0
 62
     7
100
AcDbLine
 10
151.806946
 20
168.280548
 30
0.0
 11
161.806946
 21
168.280548
 31
0.0
  0
LINE
  5
497
330
1F
100
AcDbEntity
  8
0
 62
     7
100
AcDbLine
 10
151.806946
 20
168.280548
 30
0.0
 11
151.806946
 21
165.01944
 31
0.0
  0
LINE
  5
498
330
1F
100
AcDbEntity
  8
0
 62
     7
100
AcDbLine
 10
151.806946
 20
165.01944
 30
0.0
 11
161.806946
 21
165.01944
 31
0.0
  0
LINE
  5
499
330
1F
100
AcDbEntity
  8
0
 62
     7
100
AcDbLine
 10
161.806946
 20
162.195221
 30
0.0
 11
161.806946
 21
165.01944
 31
0.0
  0
LINE
  5
49A
330
1F
100
AcDbEntity
  8
0
 62
     7
100
AcDbLine
 10
151.806946
 20
162.195221
 30
0.0
 11
151.806946
 21
160.564667
 31
0.0
  0
LINE
  5
49B
330
1F
100
AcDbEntity
  8
0
 62
     7
100
AcDbLine
 10
151.806946
 20
160.564667
 30
0.0
 11
161.806946
 21
160.564667
 31
0.0
  0
LINE
  5
49C
330
1F
100
AcDbEntity
  8
0
 62
     7
100
AcDbLine
 10
161.806946
 20
160.350006
 30
0.0
 11
161.806946
 21
160.564667
 31
0.0
  0
LINE
  5
49D
330
1F
100
AcDbEntity
  8
0
 62
     7
100
AcDbLine
 10
151.806946
 20
172.735321
 30
0.0
 11
151.806946
 21
171.104767
 31
0.0
  0
LINE
  5
49E
330
1F
100
AcDbEntity
  8
0
 62
     7
100
AcDbLine
 10
151.806946
 20
172.735321
 30
0.0
 11
161.806946
 21
172.735321
 31
0.0
  0
LINE
  5
49F
330
1F
100
AcDbEntity
  8
0
 62
     7
100
AcDbLine
 10
161.806946
 20
171.104767
 30
0.0
 11
161.306946
 21
171.252411
 31
0.0
  0
LINE
  5
4A0
330
1F
100
AcDbEntity
  8
0
 62
     7
100
AcDbLine
 10
161.306946
 20
168.683929
 30
0.0
 11
161.306946
 21
171.252411
 31
0.0
  0
LINE
  5
4A1
330
1F
100
AcDbEntity
  8
0
 62
     7
100
AcDbLine
 10
161.806946
 20
168.280548
 30
0.0
 11
161.306946
 21
168.683929
 31
0.0
  0
LINE
  5
4A2
330
1F
100
AcDbEntity
  8
0
 62
     7
100
AcDbLine
 10
161.306946
 20
173.286346
 30
0.0
 11
161.306946
 21
173.449982
 31
0.0
  0
ARC
  5
4A3
330
1F
100
AcDbEntity
  8
0
 62
     7
100
AcDbCircle
 10
113.496201
 20
129.396088
 30
0.0
 40
64.901611328125
100
AcDbArc
 50
41.895052
 51
42.551911
  0
LINE
  5
4A4
330
1F
100
AcDbEntity
  8
0
 62
     7
100
AcDbLine
 10
152.306946
 20
168.683929
 30
0.0
 11
161.306946
 21
168.683929
 31
0.0
  0
LINE
  5
4A5
330
1F
100
AcDbEntity
  8
0
 62
     7
100
AcDbLine
 10
151.806946
 20
168.280548
 30
0.0
 11
152.306946
 21
168.683929
 31
0.0
  0
LINE
  5
4A6
330
1F
100
AcDbEntity
  8
0
 62
     7
100
AcDbLine
 10
151.806946
 20
165.01944
 30
0.0
 11
151.806946
 21
164.729065
 31
0.0
  0
LINE
  5
4A7
330
1F
100
AcDbEntity
  8
0
 62
     7
100
AcDbLine
 10
151.806946
 20
168.280548
 30
0.0
 11
151.806946
 21
168.570923
 31
0.0
  0
LINE
  5
4A8
330
1F
100
AcDbEntity
  8
0
 62
     7
100
AcDbLine
 10
151.806946
 20
165.01944
 30
0.0
 11
152.306946
 21
164.616089
 31
0.0
  0
LINE
  5
4A9
330
1F
100
AcDbEntity
  8
0
 62
     7
100
AcDbLine
 10
152.306946
 20
164.616089
 30
0.0
 11
161.306946
 21
164.616089
 31
0.0
  0
LINE
  5
4AA
330
1F
100
AcDbEntity
  8
0
 62
     7
100
AcDbLine
 10
161.806946
 20
165.01944
 30
0.0
 11
161.306946
 21
164.616089
 31
0.0
  0
LINE
  5
4AB
330
1F
100
AcDbEntity
  8
0
 62
     7
100
AcDbLine
 10
161.306946
 20
162.047577
 30
0.0
 11
161.306946
 21
164.616089
 31
0.0
  0
LINE
  5
4AC
330
1F
100
AcDbEntity
  8
0
 62
     7
100
AcDbLine
 10
161.806946
 20
162.195221
 30
0.0
 11
161.306946
 21
162.047577
 31
0.0
  0
LINE
  5
4AD
330
1F
100
AcDbEntity
  8
0
 62
     7
100
AcDbLine
 10
152.306946
 20
162.047577
 30
0.0
 11
161.306946
 21
162.047577
 31
0.0
  0
LINE
  5
4AE
330
1F
100
AcDbEntity
  8
0
 62
     7
100
AcDbLine
 10
151.806946
 20
162.195221
 30
0.0
 11
152.306946
 21
162.047577
 31
0.0
  0
LINE
  5
4AF
330
1F
100
AcDbEntity
  8
0
 62
     7
100
AcDbLine
 10
151.806946
 20
160.564667
 30
0.0
 11
151.806946
 21
160.493378
 31
0.0
  0
LINE
  5
4B0
330
1F
100
AcDbEntity
  8
0
 62
     7
100
AcDbLine
 10
151.806946
 20
162.414307
 30
0.0
 11
151.806946
 21
162.195221
 31
0.0
  0
ARC
  5
4B1
330
1F
100
AcDbEntity
  8
0
 62
     7
100
AcDbCircle
 10
200.117691
 20
203.9039
 30
0.0
 40
64.901611328125
100
AcDbArc
 50
221.89505
 51
222.55191
  0
LINE
  5
4B2
330
1F
100
AcDbEntity
  8
0
 62
     7
100
AcDbLine
 10
152.306946
 20
160.013672
 30
0.0
 11
161.306946
 21
160.013672
 31
0.0
  0
ARC
  5
4B3
330
1F
100
AcDbEntity
  8
0
 62
     7
100
AcDbCircle
 10
113.496201
 20
203.9039
 30
0.0
 40
64.901611328125
100
AcDbArc
 50
317.448096
 51
318.104941
  0
LINE
  5
4B4
330
1F
100
AcDbEntity
  8
0
 62
     7
100
AcDbLine
 10
161.306946
 20
159.850006
 30
0.0
 11
161.306946
 21
160.013672
 31
0.0
  0
LINE
  5
4B5
330
1F
100
AcDbEntity
  8
0
 62
     7
100
AcDbLine
 10
151.806946
 20
170.885681
 30
0.0
 11
151.806946
 21
171.104767
 31
0.0
  0
LINE
  5
4B6
330
1F
100
AcDbEntity
  8
0
 62
     7
100
AcDbLine
 10
151.806946
 20
172.80661
 30
0.0
 11
151.806946
 21
172.735321
 31
0.0
  0
LINE
  5
4B7
330
1F
100
AcDbEntity
  8
0
 62
     7
100
AcDbLine
 10
151.806946
 20
171.104767
 30
0.0
 11
152.306946
 21
171.252411
 31
0.0
  0
LINE
  5
4B8
330
1F
100
AcDbEntity
  8
0
 62
     7
100
AcDbLine
 10
152.306946
 20
171.252411
 30
0.0
 11
161.306946
 21
171.252411
 31
0.0
  0
LINE
  5
4B9
330
1F
100
AcDbEntity
  8
0
 62
     7
100
AcDbLine
 10
152.306946
 20
173.286346
 30
0.0
 11
161.306946
 21
173.286346
 31
0.0
  0
ARC
  5
4BA
330
1F
100
AcDbEntity
  8
0
 62
     7
100
AcDbCircle
 10
200.117691
 20
129.396088
 30
0.0
 40
64.901611328125
100
AcDbArc
 50
137.44809
 51
138.10495
  0
LINE
  5
4BB
330
1F
100
AcDbEntity
  8
0
 62
     7
100
AcDbLine
 10
152.306946
 20
168.683929
 30
0.0
 11
152.306946
 21
171.252411
 31
0.0
  0
LINE
  5
4BC
330
1F
100
AcDbEntity
  8
0
 62
     7
100
AcDbLine
 10
151.806946
 20
172.80661
 30
0.0
 11
151.806946
 21
172.949982
 31
0.0
  0
LINE
  5
4BD
330
1F
100
AcDbEntity
  8
0
 62
     7
100
AcDbLine
 10
152.306946
 20
173.286346
 30
0.0
 11
152.306946
 21
173.449982
 31
0.0
  0
LINE
  5
4BE
330
1F
100
AcDbEntity
  8
0
 62
     7
100
AcDbLine
 10
151.806946
 20
168.570923
 30
0.0
 11
151.806946
 21
170.885681
 31
0.0
  0
LINE
  5
4BF
330
1F
100
AcDbEntity
  8
0
 62
     7
100
AcDbLine
 10
151.806946
 20
162.414307
 30
0.0
 11
151.806946
 21
164.729065
 31
0.0
  0
LINE
  5
4C0
330
1F
100
AcDbEntity
  8
0
 62
     7
100
AcDbLine
 10
152.306946
 20
162.047577
 30
0.0
 11
152.306946
 21
164.616089
 31
0.0
  0
LINE
  5
4C1
330
1F
100
AcDbEntity
  8
0
 62
     7
100
AcDbLine
 10
145.038116
 20
168.570923
 30
0.0
 11
151.806946
 21
168.570923
 31
0.0
  0
LINE
  5
4C2
330
1F
100
AcDbEntity
  8
0
 62
     7
100
AcDbLine
 10
145.038116
 20
164.729065
 30
0.0
 11
151.806946
 21
164.729065
 31
0.0
  0
ARC
  5
4C3
330
1F
100
AcDbEntity
  8
0
 62
     7
100
AcDbCircle
 10
155.364441
 20
166.649994
 30
0.0
 40
10.50419235229492
100
AcDbArc
 50
169.462089
 51
190.537884
  0
LINE
  5
4C4
330
1F
100
AcDbEntity
  8
0
 62
     7
100
AcDbLine
 10
145.038116
 20
162.414307
 30
0.0
 11
151.806946
 21
162.414307
 31
0.0
  0
LINE
  5
4C5
330
1F
100
AcDbEntity
  8
0
 62
     7
100
AcDbLine
 10
145.038116
 20
160.493378
 30
0.0
 11
151.806946
 21
160.493378
 31
0.0
  0
ARC
  5
4C6
330
1F
100
AcDbEntity
  8
0
 62
     7
100
AcDbCircle
 10
147.552536
 20
161.453857
 30
0.0
 40
2.691781044006348
100
AcDbArc
 50
159.093943
 51
200.906016
  0
LINE
  5
4C7
330
1F
100
AcDbEntity
  8
0
 62
     7
100
AcDbLine
 10
151.806946
 20
160.350006
 30
0.0
 11
151.806946
 21
160.493378
 31
0.0
  0
LINE
  5
4C8
330
1F
100
AcDbEntity
  8
0
 62
     7
100
AcDbLine
 10
152.306946
 20
159.850006
 30
0.0
 11
152.306946
 21
160.013672
 31
0.0
  0
LINE
  5
4C9
330
1F
100
AcDbEntity
  8
0
 62
     7
100
AcDbLine
 10
145.038116
 20
172.80661
 30
0.0
 11
151.806946
 21
172.80661
 31
0.0
  0
LINE
  5
4CA
330
1F
100
AcDbEntity
  8
0
 62
     7
100
AcDbLine
 10
145.038116
 20
170.885681
 30
0.0
 11
151.806946
 21
170.885681
 31
0.0
  0
ARC
  5
4CB
330
1F
100
AcDbEntity
  8
0
 62
     7
100
AcDbCircle
 10
147.552536
 20
171.846161
 30
0.0
 40
2.691781044006348
100
AcDbArc
 50
159.093943
 51
200.906016
  0
LINE
  5
4CC
330
1F
100
AcDbEntity
  8
0
 62
     7
100
AcDbLine
 10
145.038116
 20
172.80661
 30
0.0
 11
145.038116
 21
172.949982
 31
0.0
  0
LINE
  5
4CD
330
1F
100
AcDbEntity
  8
0
 62
     7
100
AcDbLine
 10
144.806946
 20
163.821381
 30
0.0
 11
144.806946
 21
172.549988
 31
0.0
  0
LINE
  5
4CE
330
1F
100
AcDbEntity
  8
0
 62
     7
100
AcDbLine
 10
145.038116
 20
163.629608
 30
0.0
 11
145.038116
 21
164.729065
 31
0.0
  0
LINE
  5
4CF
330
1F
100
AcDbEntity
  8
0
 62
     7
100
AcDbLine
 10
145.038116
 20
168.570923
 30
0.0
 11
145.038116
 21
170.885681
 31
0.0
  0
LINE
  5
4D0
330
1F
100
AcDbEntity
  8
0
 62
     7
100
AcDbLine
 10
145.038116
 20
163.629608
 30
0.0
 11
145.038116
 21
162.414307
 31
0.0
  0
LINE
  5
4D1
330
1F
100
AcDbEntity
  8
0
 62
     7
100
AcDbLine
 10
145.038116
 20
160.350006
 30
0.0
 11
145.038116
 21
160.493378
 31
0.0
  0
LINE
  5
4D2
330
1F
100
AcDbEntity
  8
0
 62
     7
100
AcDbLine
 10
144.806946
 20
160.75
 30
0.0
 11
144.806946
 21
163.821381
 31
0.0
  0
ARC
  5
4D3
330
1F
100
AcDbEntity
  8
0
 62
     7
100
AcDbCircle
 10
129.806946
 20
91.649986
 30
0.0
 40
78.4000015258789
100
AcDbArc
 50
92.192971
 51
179.999991
  0
ARC
  5
4D4
330
1F
100
AcDbEntity
  8
0
 62
     7
100
AcDbCircle
 10
129.806992
 20
91.653824
 30
0.0
 40
78.39616394042969
100
AcDbArc
 50
90.00003
 51
90.730894
  0
ARC
  5
4D5
330
1F
100
AcDbEntity
  8
0
 62
     7
100
AcDbCircle
 10
129.806946
 20
91.649986
 30
0.0
 40
71.5999984741211
100
AcDbArc
 50
92.401354
 51
180.000009
  0
ARC
  5
4D6
330
1F
100
AcDbEntity
  8
0
 62
     7
100
AcDbCircle
 10
129.806992
 20
91.652191
 30
0.0
 40
71.59779357910156
100
AcDbArc
 50
90.000037
 51
90.800303
  0
LINE
  5
4D7
330
1F
100
AcDbEntity
  8
0
 62
     7
100
AcDbLine
 10
131.006943
 20
170.049988
 30
0.0
 11
132.006943
 21
170.049988
 31
0.0
  0
LINE
  5
4D8
330
1F
100
AcDbEntity
  8
0
 62
     7
100
AcDbLine
 10
133.20694
 20
170.049988
 30
0.0
 11
134.20694
 21
170.049988
 31
0.0
  0
LINE
  5
4D9
330
1F
100
AcDbEntity
  8
0
 62
     7
100
AcDbLine
 10
51.40696
 20
81.649994
 30
0.0
 11
51.40696
 21
91.649994
 31
0.0
  0
LINE
  5
4DA
330
1F
100
AcDbEntity
  8
0
 62
     7
100
AcDbLine
 10
131.006943
 20
163.25
 30
0.0
 11
132.006943
 21
163.25
 31
0.0
  0
LINE
  5
4DB
330
1F
100
AcDbEntity
  8
0
 62
     7
100
AcDbLine
 10
133.20694
 20
163.25
 30
0.0
 11
134.20694
 21
163.25
 31
0.0
  0
LINE
  5
4DC
330
1F
100
AcDbEntity
  8
0
 62
     7
100
AcDbLine
 10
58.206963
 20
81.649994
 30
0.0
 11
58.206963
 21
91.649994
 31
0.0
  0
LINE
  5
4DD
330
1F
100
AcDbEntity
  8
0
 62
     7
100
AcDbLine
 10
126.806961
 20
170.899994
 30
0.0
 11
128.806946
 21
171.024994
 31
0.0
  0
LINE
  5
4DE
330
1F
100
AcDbEntity
  8
0
 62
     7
100
AcDbLine
 10
129.806946
 20
171.087494
 30
0.0
 11
131.006943
 21
171.162506
 31
0.0
  0
LINE
  5
4DF
330
1F
100
AcDbEntity
  8
0
 62
     7
100
AcDbLine
 10
132.006943
 20
171.225006
 30
0.0
 11
133.20694
 21
171.299988
 31
0.0
  0
LINE
  5
4E0
330
1F
100
AcDbEntity
  8
0
 62
     7
100
AcDbLine
 10
134.20694
 20
171.362488
 30
0.0
 11
138.806946
 21
171.649994
 31
0.0
  0
LINE
  5
4E1
330
1F
100
AcDbEntity
  8
0
 62
     7
100
AcDbLine
 10
126.806961
 20
162.399994
 30
0.0
 11
128.806946
 21
162.274994
 31
0.0
  0
LINE
  5
4E2
330
1F
100
AcDbEntity
  8
0
 62
     7
100
AcDbLine
 10
129.806946
 20
162.212494
 30
0.0
 11
131.006943
 21
162.137482
 31
0.0
  0
LINE
  5
4E3
330
1F
100
AcDbEntity
  8
0
 62
     7
100
AcDbLine
 10
132.006943
 20
162.074982
 30
0.0
 11
133.20694
 21
162.0
 31
0.0
  0
LINE
  5
4E4
330
1F
100
AcDbEntity
  8
0
 62
     7
100
AcDbLine
 10
134.20694
 20
161.9375
 30
0.0
 11
138.806946
 21
161.649994
 31
0.0
  0
LINE
  5
4E5
330
1F
100
AcDbEntity
  8
0
 62
     7
100
AcDbLine
 10
138.806946
 20
171.649994
 30
0.0
 11
139.806946
 21
171.949982
 31
0.0
  0
LINE
  5
4E6
330
1F
100
AcDbEntity
  8
0
 62
     7
100
AcDbLine
 10
138.806946
 20
161.649994
 30
0.0
 11
139.806946
 21
161.350006
 31
0.0
  0
LINE
  5
4E7
330
1F
100
AcDbEntity
  8
0
 62
     7
100
AcDbLine
 10
139.806946
 20
161.649994
 30
0.0
 11
144.806946
 21
161.649994
 31
0.0
  0
LINE
  5
4E8
330
1F
100
AcDbEntity
  8
0
 62
     7
100
AcDbLine
 10
139.806946
 20
171.649994
 30
0.0
 11
144.806946
 21
171.649994
 31
0.0
  0
LINE
  5
4E9
330
1F
100
AcDbEntity
  8
0
 62
     7
100
AcDbLine
 10
161.806946
 20
160.350006
 30
0.0
 11
162.806946
 21
160.350006
 31
0.0
  0
LINE
  5
4EA
330
1F
100
AcDbEntity
  8
0
 62
     7
100
AcDbLine
 10
161.806946
 20
172.949982
 30
0.0
 11
162.806946
 21
172.949982
 31
0.0
  0
LINE
  5
4EB
330
1F
100
AcDbEntity
  8
0
 62
     7
100
AcDbLine
 10
161.806946
 20
172.949982
 30
0.0
 11
161.306946
 21
173.449982
 31
0.0
  0
LINE
  5
4EC
330
1F
100
AcDbEntity
  8
0
 62
     7
100
AcDbLine
 10
161.806946
 20
160.350006
 30
0.0
 11
161.306946
 21
159.850006
 31
0.0
  0
LINE
  5
4ED
330
1F
100
AcDbEntity
  8
0
 62
     7
100
AcDbLine
 10
151.806946
 20
172.949982
 30
0.0
 11
152.306946
 21
173.449982
 31
0.0
  0
LINE
  5
4EE
330
1F
100
AcDbEntity
  8
0
 62
     7
100
AcDbLine
 10
152.306946
 20
173.449982
 30
0.0
 11
161.306946
 21
173.449982
 31
0.0
  0
LINE
  5
4EF
330
1F
100
AcDbEntity
  8
0
 62
     7
100
AcDbLine
 10
151.806946
 20
160.350006
 30
0.0
 11
152.306946
 21
159.850006
 31
0.0
  0
LINE
  5
4F0
330
1F
100
AcDbEntity
  8
0
 62
     7
100
AcDbLine
 10
152.306946
 20
159.850006
 30
0.0
 11
161.306946
 21
159.850006
 31
0.0
  0
LINE
  5
4F1
330
1F
100
AcDbEntity
  8
0
 62
     7
100
AcDbLine
 10
145.038116
 20
172.949982
 30
0.0
 11
151.806946
 21
172.949982
 31
0.0
  0
ARC
  5
4F2
330
1F
100
AcDbEntity
  8
0
 62
     7
100
AcDbCircle
 10
150.113541
 20
169.75
 30
0.0
 40
6.000001907348633
100
AcDbArc
 50
147.769053
 51
152.18186
  0
LINE
  5
4F3
330
1F
100
AcDbEntity
  8
0
 62
     7
100
AcDbLine
 10
145.038116
 20
160.350006
 30
0.0
 11
151.806946
 21
160.350006
 31
0.0
  0
ARC
  5
4F4
330
1F
100
AcDbEntity
  8
0
 62
     7
100
AcDbCircle
 10
150.113541
 20
163.549988
 30
0.0
 40
6.000001907348633
100
AcDbArc
 50
207.81814
 51
212.230947
  0
LINE
  5
4F5
330
1F
100
AcDbEntity
  8
0
 62
     7
100
AcDbLine
 10
19.293026
 20
184.350006
 30
0.0
 11
19.293026
 21
197.449982
 31
0.0
  0
ARC
  5
4F6
330
1F
100
AcDbEntity
  8
0
 62
     7
100
AcDbCircle
 10
18.493023
 20
184.350006
 30
0.0
 40
0.800000011920929
100
AcDbArc
 50
269.999997
 51
360.0
  0
LINE
  5
4F7
330
1F
100
AcDbEntity
  8
0
 62
     7
100
AcDbLine
 10
19.163734
 20
197.579285
 30
0.0
 11
19.293026
 21
197.449982
 31
0.0
  0
ARC
  5
4F8
330
1F
100
AcDbEntity
  8
0
 62
     7
100
AcDbCircle
 10
17.293026
 20
184.350006
 30
0.0
 40
0.800000011920929
100
AcDbArc
 50
241.044838
 51
269.999997
  0
LINE
  5
4F9
330
1F
100
AcDbEntity
  8
0
 62
     7
100
AcDbLine
 10
18.493023
 20
183.549988
 30
0.0
 11
17.293026
 21
183.549988
 31
0.0
  0
ARC
  5
4FA
330
1F
100
AcDbEntity
  8
0
 62
     7
100
AcDbCircle
 10
19.234447
 20
197.649994
 30
0.0
 40
0.1000000014901161
100
AcDbArc
 50
135.0
 51
225.0
  0
LINE
  5
4FB
330
1F
100
AcDbEntity
  8
0
 62
     7
100
AcDbLine
 10
19.293026
 20
197.850006
 30
0.0
 11
19.163734
 21
197.720703
 31
0.0
  0
LINE
  5
4FC
330
1F
100
AcDbEntity
  8
0
 62
     7
100
AcDbLine
 10
19.293026
 20
197.850006
 30
0.0
 11
19.293026
 21
198.549988
 31
0.0
  0
LINE
  5
4FD
330
1F
100
AcDbEntity
  8
0
 62
     7
100
AcDbLine
 10
19.163734
 20
198.679291
 30
0.0
 11
19.293026
 21
198.549988
 31
0.0
  0
ARC
  5
4FE
330
1F
100
AcDbEntity
  8
0
 62
     7
100
AcDbCircle
 10
19.234447
 20
198.75
 30
0.0
 40
0.1000000014901161
100
AcDbArc
 50
135.0
 51
225.0
  0
LINE
  5
4FF
330
1F
100
AcDbEntity
  8
0
 62
     7
100
AcDbLine
 10
19.293026
 20
198.950012
 30
0.0
 11
19.163734
 21
198.820709
 31
0.0
  0
LINE
  5
500
330
1F
100
AcDbEntity
  8
0
 62
     7
100
AcDbLine
 10
19.293026
 20
198.950012
 30
0.0
 11
19.293026
 21
199.649994
 31
0.0
  0
LINE
  5
501
330
1F
100
AcDbEntity
  8
0
 62
     7
100
AcDbLine
 10
19.163734
 20
199.779297
 30
0.0
 11
19.293026
 21
199.649994
 31
0.0
  0
ARC
  5
502
330
1F
100
AcDbEntity
  8
0
 62
     7
100
AcDbCircle
 10
19.234447
 20
199.850006
 30
0.0
 40
0.1000000014901161
100
AcDbArc
 50
135.0
 51
225.0
  0
LINE
  5
503
330
1F
100
AcDbEntity
  8
0
 62
     7
100
AcDbLine
 10
19.293026
 20
200.049988
 30
0.0
 11
19.163734
 21
199.920715
 31
0.0
  0
LINE
  5
504
330
1F
100
AcDbEntity
  8
0
 62
     7
100
AcDbLine
 10
19.293026
 20
200.049988
 30
0.0
 11
19.293026
 21
200.75
 31
0.0
  0
LINE
  5
505
330
1F
100
AcDbEntity
  8
0
 62
     7
100
AcDbLine
 10
19.163734
 20
200.879272
 30
0.0
 11
19.293026
 21
200.75
 31
0.0
  0
ARC
  5
506
330
1F
100
AcDbEntity
  8
0
 62
     7
100
AcDbCircle
 10
19.234447
 20
200.950012
 30
0.0
 40
0.1000000014901161
100
AcDbArc
 50
135.0
 51
225.0
  0
LINE
  5
507
330
1F
100
AcDbEntity
  8
0
 62
     7
100
AcDbLine
 10
19.293026
 20
201.149994
 30
0.0
 11
19.163734
 21
201.020721
 31
0.0
  0
LINE
  5
508
330
1F
100
AcDbEntity
  8
0
 62
     7
100
AcDbLine
 10
19.293026
 20
201.149994
 30
0.0
 11
19.293026
 21
201.850006
 31
0.0
  0
LINE
  5
509
330
1F
100
AcDbEntity
  8
0
 62
     7
100
AcDbLine
 10
19.163734
 20
201.979279
 30
0.0
 11
19.293026
 21
201.850006
 31
0.0
  0
ARC
  5
50A
330
1F
100
AcDbEntity
  8
0
 62
     7
100
AcDbCircle
 10
19.234447
 20
202.049988
 30
0.0
 40
0.1000000014901161
100
AcDbArc
 50
135.0
 51
225.0
  0
LINE
  5
50B
330
1F
100
AcDbEntity
  8
0
 62
     7
100
AcDbLine
 10
19.293026
 20
202.25
 30
0.0
 11
19.163734
 21
202.120697
 31
0.0
  0
LINE
  5
50C
330
1F
100
AcDbEntity
  8
0
 62
     7
100
AcDbLine
 10
19.293026
 20
202.25
 30
0.0
 11
19.293026
 21
202.950012
 31
0.0
  0
LINE
  5
50D
330
1F
100
AcDbEntity
  8
0
 62
     7
100
AcDbLine
 10
19.163734
 20
203.079285
 30
0.0
 11
19.293026
 21
202.950012
 31
0.0
  0
ARC
  5
50E
330
1F
100
AcDbEntity
  8
0
 62
     7
100
AcDbCircle
 10
19.234447
 20
203.149994
 30
0.0
 40
0.1000000014901161
100
AcDbArc
 50
135.0
 51
225.0
  0
LINE
  5
50F
330
1F
100
AcDbEntity
  8
0
 62
     7
100
AcDbLine
 10
19.293026
 20
203.350006
 30
0.0
 11
19.163734
 21
203.220703
 31
0.0
  0
LINE
  5
510
330
1F
100
AcDbEntity
  8
0
 62
     7
100
AcDbLine
 10
19.293026
 20
203.350006
 30
0.0
 11
19.293026
 21
204.049988
 31
0.0
  0
LINE
  5
511
330
1F
100
AcDbEntity
  8
0
 62
     7
100
AcDbLine
 10
19.163734
 20
204.179291
 30
0.0
 11
19.293026
 21
204.049988
 31
0.0
  0
ARC
  5
512
330
1F
100
AcDbEntity
  8
0
 62
     7
100
AcDbCircle
 10
19.234447
 20
204.25
 30
0.0
 40
0.1000000014901161
100
AcDbArc
 50
135.0
 51
225.0
  0
LINE
  5
513
330
1F
100
AcDbEntity
  8
0
 62
     7
100
AcDbLine
 10
19.293026
 20
204.450012
 30
0.0
 11
19.163734
 21
204.320709
 31
0.0
  0
LINE
  5
514
330
1F
100
AcDbEntity
  8
0
 62
     7
100
AcDbLine
 10
19.293026
 20
204.450012
 30
0.0
 11
19.293026
 21
205.149994
 31
0.0
  0
LINE
  5
515
330
1F
100
AcDbEntity
  8
0
 62
     7
100
AcDbLine
 10
19.163734
 20
205.279297
 30
0.0
 11
19.293026
 21
205.149994
 31
0.0
  0
ARC
  5
516
330
1F
100
AcDbEntity
  8
0
 62
     7
100
AcDbCircle
 10
19.234447
 20
205.350006
 30
0.0
 40
0.1000000014901161
100
AcDbArc
 50
135.0
 51
225.0
  0
LINE
  5
517
330
1F
100
AcDbEntity
  8
0
 62
     7
100
AcDbLine
 10
19.293026
 20
205.549988
 30
0.0
 11
19.163734
 21
205.420715
 31
0.0
  0
LINE
  5
518
330
1F
100
AcDbEntity
  8
0
 62
     7
100
AcDbLine
 10
19.293026
 20
205.549988
 30
0.0
 11
19.293026
 21
206.25
 31
0.0
  0
LINE
  5
519
330
1F
100
AcDbEntity
  8
0
 62
     7
100
AcDbLine
 10
19.163734
 20
206.379272
 30
0.0
 11
19.293026
 21
206.25
 31
0.0
  0
ARC
  5
51A
330
1F
100
AcDbEntity
  8
0
 62
     7
100
AcDbCircle
 10
19.234447
 20
206.450012
 30
0.0
 40
0.1000000014901161
100
AcDbArc
 50
135.0
 51
225.0
  0
LINE
  5
51B
330
1F
100
AcDbEntity
  8
0
 62
     7
100
AcDbLine
 10
19.293026
 20
206.649994
 30
0.0
 11
19.163734
 21
206.520721
 31
0.0
  0
LINE
  5
51C
330
1F
100
AcDbEntity
  8
0
 62
     7
100
AcDbLine
 10
19.293026
 20
206.649994
 30
0.0
 11
19.293026
 21
211.474274
 31
0.0
  0
LINE
  5
51D
330
1F
100
AcDbEntity
  8
0
 62
     7
100
AcDbLine
 10
18.805157
 20
211.962128
 30
0.0
 11
19.293026
 21
211.474274
 31
0.0
  0
ARC
  5
51E
330
1F
100
AcDbEntity
  8
0
 62
     7
100
AcDbCircle
 10
18.593025
 20
211.75
 30
0.0
 40
0.300000011920929
100
AcDbArc
 50
45.000001
 51
106.874504
  0
LINE
  5
51F
330
1F
100
AcDbEntity
  8
0
 62
     7
100
AcDbLine
 10
19.293026
 20
189.549988
 30
0.0
 11
19.493023
 21
189.549988
 31
0.0
  0
LINE
  5
520
330
1F
100
AcDbEntity
  8
0
 62
     7
100
AcDbLine
 10
19.493023
 20
189.049988
 30
0.0
 11
19.493023
 21
189.549988
 31
0.0
  0
LINE
  5
521
330
1F
100
AcDbEntity
  8
0
 62
     7
100
AcDbLine
 10
19.493023
 20
189.049988
 30
0.0
 11
19.493023
 21
185.049988
 31
0.0
  0
LINE
  5
522
330
1F
100
AcDbEntity
  8
0
 62
     7
100
AcDbLine
 10
19.493023
 20
184.549988
 30
0.0
 11
19.493023
 21
185.049988
 31
0.0
  0
LINE
  5
523
330
1F
100
AcDbEntity
  8
0
 62
     7
100
AcDbLine
 10
19.293026
 20
184.549988
 30
0.0
 11
19.493023
 21
184.549988
 31
0.0
  0
ARC
  5
524
330
1F
100
AcDbEntity
  8
0
 62
     7
100
AcDbCircle
 10
15.293027
 20
211.850006
 30
0.0
 40
3.0
100
AcDbArc
 50
8.262821
 51
90.000003
  0
LINE
  5
525
330
1F
100
AcDbEntity
  8
0
 62
     7
100
AcDbLine
 10
19.543026
 20
185.049988
 30
0.0
 11
19.543026
 21
185.180359
 31
0.0
  0
LINE
  5
526
330
1F
100
AcDbEntity
  8
0
 62
     7
100
AcDbLine
 10
19.543026
 20
188.680359
 30
0.0
 11
19.543026
 21
185.180359
 31
0.0
  0
LINE
  5
527
330
1F
100
AcDbEntity
  8
0
 62
     7
100
AcDbLine
 10
19.493023
 20
188.949982
 30
0.0
 11
19.543026
 21
188.949982
 31
0.0
  0
LINE
  5
528
330
1F
100
AcDbEntity
  8
0
 62
     7
100
AcDbLine
 10
19.543026
 20
188.680359
 30
0.0
 11
19.543026
 21
188.949982
 31
0.0
  0
LINE
  5
529
330
1F
100
AcDbEntity
  8
0
 62
     7
100
AcDbLine
 10
18.946575
 20
211.596436
 30
0.0
 11
18.104504
 21
212.438507
 31
0.0
  0
ARC
  5
52A
330
1F
100
AcDbEntity
  8
0
 62
     7
100
AcDbCircle
 10
18.593025
 20
211.242889
 30
0.0
 40
0.5
100
AcDbArc
 50
0.0
 51
45.000001
  0
LINE
  5
52B
330
1F
100
AcDbEntity
  8
0
 62
     7
100
AcDbLine
 10
19.093025
 20
184.149994
 30
0.0
 11
19.093025
 21
211.242889
 31
0.0
  0
ARC
  5
52C
330
1F
100
AcDbEntity
  8
0
 62
     7
100
AcDbCircle
 10
18.593025
 20
184.149994
 30
0.0
 40
0.5
100
AcDbArc
 50
269.999997
 51
360.0
  0
LINE
  5
52D
330
1F
100
AcDbEntity
  8
0
 62
     7
100
AcDbLine
 10
2.993025
 20
183.649994
 30
0.0
 11
18.593025
 21
183.649994
 31
0.0
  0
ARC
  5
52E
330
1F
100
AcDbEntity
  8
0
 62
     7
100
AcDbCircle
 10
2.993025
 20
184.149994
 30
0.0
 40
0.5
100
AcDbArc
 50
180.000009
 51
269.999997
  0
LINE
  5
52F
330
1F
100
AcDbEntity
  8
0
 62
     7
100
AcDbLine
 10
2.493025
 20
211.242889
 30
0.0
 11
2.493025
 21
184.149994
 31
0.0
  0
LINE
  5
530
330
1F
100
AcDbEntity
  8
0
 62
     7
100
AcDbLine
 10
1.693024
 20
193.549988
 30
0.0
 11
1.693024
 21
195.549988
 31
0.0
  0
LINE
  5
531
330
1F
100
AcDbEntity
  8
0
 62
     7
100
AcDbLine
 10
1.693024
 20
193.549988
 30
0.0
 11
2.493022
 21
193.549988
 31
0.0
  0
LINE
  5
532
330
1F
100
AcDbEntity
  8
0
 62
     7
100
AcDbLine
 10
15.293027
 20
214.850006
 30
0.0
 11
6.293025
 21
214.850006
 31
0.0
  0
ARC
  5
533
330
1F
100
AcDbEntity
  8
0
 62
     7
100
AcDbCircle
 10
6.293025
 20
211.850006
 30
0.0
 40
3.0
100
AcDbArc
 50
90.000003
 51
171.737184
  0
ARC
  5
534
330
1F
100
AcDbEntity
  8
0
 62
     7
100
AcDbCircle
 10
18.139858
 20
212.473877
 30
0.0
 40
0.0500000007450581
100
AcDbArc
 50
189.204208
 51
225.0
  0
ARC
  5
535
330
1F
100
AcDbEntity
  8
0
 62
     7
100
AcDbCircle
 10
2.993025
 20
211.242889
 30
0.0
 40
0.5
100
AcDbArc
 50
135.0
 51
180.000009
  0
LINE
  5
536
330
1F
100
AcDbEntity
  8
0
 62
     7
100
AcDbLine
 10
1.693024
 20
210.321106
 30
0.0
 11
1.693024
 21
195.549988
 31
0.0
  0
LINE
  5
537
330
1F
100
AcDbEntity
  8
0
 62
     7
100
AcDbLine
 10
1.693024
 20
210.321106
 30
0.0
 11
1.693024
 21
210.363342
 31
0.0
  0
LINE
  5
538
330
1F
100
AcDbEntity
  8
0
 62
     7
100
AcDbLine
 10
1.693024
 20
210.363342
 30
0.0
 11
1.693024
 21
214.850006
 31
0.0
  0
LINE
  5
539
330
1F
100
AcDbEntity
  8
0
 62
     7
100
AcDbLine
 10
1.893025
 20
193.549988
 30
0.0
 11
1.893025
 21
193.049988
 31
0.0
  0
LINE
  5
53A
330
1F
100
AcDbEntity
  8
0
 62
     7
100
AcDbLine
 10
2.493023
 20
193.049988
 30
0.0
 11
1.893025
 21
193.049988
 31
0.0
  0
LINE
  5
53B
330
1F
100
AcDbEntity
  8
0
 62
     7
100
AcDbLine
 10
1.893025
 20
184.350006
 30
0.0
 11
1.893025
 21
193.049988
 31
0.0
  0
ARC
  5
53C
330
1F
100
AcDbEntity
  8
0
 62
     7
100
AcDbCircle
 10
2.693024
 20
184.350006
 30
0.0
 40
0.800000011920929
100
AcDbArc
 50
180.000009
 51
269.999997
  0
LINE
  5
53D
330
1F
100
AcDbEntity
  8
0
 62
     7
100
AcDbLine
 10
2.693024
 20
183.549988
 30
0.0
 11
3.893025
 21
183.549988
 31
0.0
  0
ARC
  5
53E
330
1F
100
AcDbEntity
  8
0
 62
     7
100
AcDbCircle
 10
3.893025
 20
184.350006
 30
0.0
 40
0.800000011920929
100
AcDbArc
 50
269.999997
 51
298.955164
  0
LINE
  5
53F
330
1F
100
AcDbEntity
  8
0
 62
     7
100
AcDbLine
 10
3.481547
 20
212.438507
 30
0.0
 11
2.639472
 21
211.596436
 31
0.0
  0
ARC
  5
540
330
1F
100
AcDbEntity
  8
0
 62
     7
100
AcDbCircle
 10
3.44619
 20
212.473877
 30
0.0
 40
0.0500000007450581
100
AcDbArc
 50
314.999992
 51
350.795784
  0
ARC
  5
541
330
1F
100
AcDbEntity
  8
0
 62
     7
100
AcDbCircle
 10
6.062071
 20
212.049988
 30
0.0
 40
2.599999904632568
100
AcDbArc
 50
90.000003
 51
170.795792
  0
LINE
  5
542
330
1F
100
AcDbEntity
  8
0
 62
     7
100
AcDbLine
 10
15.523975
 20
214.649994
 30
0.0
 11
6.062071
 21
214.649994
 31
0.0
  0
ARC
  5
543
330
1F
100
AcDbEntity
  8
0
 62
     7
100
AcDbCircle
 10
15.523975
 20
212.049988
 30
0.0
 40
2.599999904632568
100
AcDbArc
 50
9.20421
 51
90.000003
  0
CIRCLE
  5
544
330
1F
100
AcDbEntity
  8
0
 62
     7
100
AcDbCircle
 10
10.793024
 20
191.850006
 30
0.0
 40
5.150000095367432
  0
POLYLINE
  5
545
330
1F
100
AcDbEntity
  8
0
 62
     7
100
AcDb2dPolyline
 66
     1
 10
0.0
 20
0.0
 30
0.0
  0
VERTEX
  5
546
330
545
100
AcDbEntity
  8
0
100
AcDbVertex
100
AcDb2dVertex
 10
2.193024
 20
211.760193
 30
0.0
  0
VERTEX
  5
547
330
545
100
AcDbEntity
  8
0
100
AcDbVertex
100
AcDb2dVertex
 10
2.189156
 20
211.662903
 30
0.0
  0
VERTEX
  5
548
330
545
100
AcDbEntity
  8
0
100
AcDbVertex
100
AcDb2dVertex
 10
2.177559
 20
211.559448
 30
0.0
  0
VERTEX
  5
549
330
545
100
AcDbEntity
  8
0
100
AcDbVertex
100
AcDb2dVertex
 10
2.158207
 20
211.450043
 30
0.0
  0
VERTEX
  5
54A
330
545
100
AcDbEntity
  8
0
100
AcDbVertex
100
AcDb2dVertex
 10
2.131014
 20
211.334869
 30
0.0
  0
VERTEX
  5
54B
330
545
100
AcDbEntity
  8
0
100
AcDbVertex
100
AcDb2dVertex
 10
2.095822
 20
211.213989
 30
0.0
  0
VERTEX
  5
54C
330
545
100
AcDbEntity
  8
0
100
AcDbVertex
100
AcDb2dVertex
 10
2.052369
 20
211.087341
 30
0.0
  0
VERTEX
  5
54D
330
545
100
AcDbEntity
  8
0
100
AcDbVertex
100
AcDb2dVertex
 10
2.000285
 20
210.954865
 30
0.0
  0
VERTEX
  5
54E
330
545
100
AcDbEntity
  8
0
100
AcDbVertex
100
AcDb2dVertex
 10
1.939057
 20
210.816437
 30
0.0
  0
VERTEX
  5
54F
330
545
100
AcDbEntity
  8
0
100
AcDbVertex
100
AcDb2dVertex
 10
1.868027
 20
210.671814
 30
0.0
  0
VERTEX
  5
550
330
545
100
AcDbEntity
  8
0
100
AcDbVertex
100
AcDb2dVertex
 10
1.786358
 20
210.520874
 30
0.0
  0
VERTEX
  5
551
330
545
100
AcDbEntity
  8
0
100
AcDbVertex
100
AcDb2dVertex
 10
1.693024
 20
210.363342
 30
0.0
  0
SEQEND
  5
552
330
545
100
AcDbEntity
  8
0
 62
     7
  0
LINE
  5
553
330
1F
100
AcDbEntity
  8
0
 62
     7
100
AcDbLine
 10
2.193024
 20
211.760193
 30
0.0
 11
2.193024
 21
215.350006
 31
0.0
  0
LINE
  5
554
330
1F
100
AcDbEntity
  8
0
 62
     7
100
AcDbLine
 10
3.293025
 20
212.25
 30
0.0
 11
3.293025
 21
215.350006
 31
0.0
  0
CIRCLE
  5
555
330
1F
100
AcDbEntity
  8
0
 62
     7
100
AcDbCircle
 10
10.793024
 20
191.850006
 30
0.0
 40
4.150000095367432
  0
ARC
  5
556
330
1F
100
AcDbEntity
  8
0
 62
     7
100
AcDbCircle
 10
10.793024
 20
191.850006
 30
0.0
 40
3.75
100
AcDbArc
 50
350.018317
 51
9.981683
  0
ARC
  5
557
330
1F
100
AcDbEntity
  8
0
 62
     7
100
AcDbCircle
 10
10.793024
 20
191.850006
 30
0.0
 40
3.75
100
AcDbArc
 50
189.981688
 51
350.018317
  0
ARC
  5
558
330
1F
100
AcDbEntity
  8
0
 62
     7
100
AcDbCircle
 10
10.793024
 20
191.850006
 30
0.0
 40
3.75
100
AcDbArc
 50
170.018312
 51
189.981688
  0
ARC
  5
559
330
1F
100
AcDbEntity
  8
0
 62
     7
100
AcDbCircle
 10
10.793024
 20
191.850006
 30
0.0
 40
3.75
100
AcDbArc
 50
9.981683
 51
170.018312
  0
LINE
  5
55A
330
1F
100
AcDbEntity
  8
0
 62
     7
100
AcDbLine
 10
14.283009
 20
191.199982
 30
0.0
 11
14.486263
 21
191.199982
 31
0.0
  0
LINE
  5
55B
330
1F
100
AcDbEntity
  8
0
 62
     7
100
AcDbLine
 10
7.30304
 20
191.199982
 30
0.0
 11
7.099787
 21
191.199982
 31
0.0
  0
LINE
  5
55C
330
1F
100
AcDbEntity
  8
0
 62
     7
100
AcDbLine
 10
14.283009
 20
191.199982
 30
0.0
 11
7.30304
 21
191.199982
 31
0.0
  0
ARC
  5
55D
330
1F
100
AcDbEntity
  8
0
 62
     7
100
AcDbCircle
 10
10.793024
 20
191.850006
 30
0.0
 40
3.549999952316284
100
AcDbArc
 50
190.550301
 51
349.44969
  0
LINE
  5
55E
330
1F
100
AcDbEntity
  8
0
 62
     7
100
AcDbLine
 10
7.30304
 20
192.5
 30
0.0
 11
7.099787
 21
192.5
 31
0.0
  0
LINE
  5
55F
330
1F
100
AcDbEntity
  8
0
 62
     7
100
AcDbLine
 10
14.283009
 20
192.5
 30
0.0
 11
14.486263
 21
192.5
 31
0.0
  0
LINE
  5
560
330
1F
100
AcDbEntity
  8
0
 62
     7
100
AcDbLine
 10
7.30304
 20
192.5
 30
0.0
 11
14.283009
 21
192.5
 31
0.0
  0
ARC
  5
561
330
1F
100
AcDbEntity
  8
0
 62
     7
100
AcDbCircle
 10
10.793024
 20
191.850006
 30
0.0
 40
3.549999952316284
100
AcDbArc
 50
10.550303
 51
169.449699
  0
LINE
  5
562
330
1F
100
AcDbEntity
  8
0
 62
     7
100
AcDbLine
 10
19.493023
 20
185.049988
 30
0.0
 11
19.543026
 21
185.049988
 31
0.0
  0
LINE
  5
563
330
1F
100
AcDbEntity
  8
0
 62
     7
100
AcDbLine
 10
19.493023
 20
185.049988
 30
0.0
 11
19.543026
 21
185.049988
 31
0.0
  0
LINE
  5
564
330
1F
100
AcDbEntity
  8
0
 62
     7
100
AcDbLine
 10
1.693024
 20
214.850006
 30
0.0
 11
2.193024
 21
215.350006
 31
0.0
  0
LINE
  5
565
330
1F
100
AcDbEntity
  8
0
 62
     7
100
AcDbLine
 10
2.193024
 20
215.350006
 30
0.0
 11
3.293025
 21
215.350006
 31
0.0
  0
ARC
  5
566
330
1F
100
AcDbEntity
  8
0
 62
     7
100
AcDbCircle
 10
10.493023
 20
178.149994
 30
0.0
 40
3.549999952316284
100
AcDbArc
 50
280.55029
 51
79.449696
  0
LINE
  5
567
330
1F
100
AcDbEntity
  8
0
 62
     7
100
AcDbLine
 10
11.143024
 20
174.660004
 30
0.0
 11
11.143024
 21
174.456757
 31
0.0
  0
ARC
  5
568
330
1F
100
AcDbEntity
  8
0
 62
     7
100
AcDbCircle
 10
10.493023
 20
178.149994
 30
0.0
 40
3.75
100
AcDbArc
 50
279.981697
 51
80.018316
  0
LINE
  5
569
330
1F
100
AcDbEntity
  8
0
 62
     7
100
AcDbLine
 10
11.143024
 20
181.639984
 30
0.0
 11
11.143024
 21
181.843231
 31
0.0
  0
LINE
  5
56A
330
1F
100
AcDbEntity
  8
0
 62
     7
100
AcDbLine
 10
11.143024
 20
181.639984
 30
0.0
 11
11.143024
 21
174.660004
 31
0.0
  0
ARC
  5
56B
330
1F
100
AcDbEntity
  8
0
 62
     7
100
AcDbCircle
 10
10.493023
 20
178.149994
 30
0.0
 40
3.75
100
AcDbArc
 50
80.018316
 51
99.981682
  0
ARC
  5
56C
330
1F
100
AcDbEntity
  8
0
 62
     7
100
AcDbCircle
 10
10.493023
 20
178.149994
 30
0.0
 40
3.75
100
AcDbArc
 50
260.018304
 51
279.981697
  0
ARC
  5
56D
330
1F
100
AcDbEntity
  8
0
 62
     7
100
AcDbCircle
 10
10.493023
 20
178.149994
 30
0.0
 40
3.75
100
AcDbArc
 50
99.981682
 51
260.018304
  0
LINE
  5
56E
330
1F
100
AcDbEntity
  8
0
 62
     7
100
AcDbLine
 10
9.843025
 20
174.660004
 30
0.0
 11
9.843025
 21
174.456757
 31
0.0
  0
LINE
  5
56F
330
1F
100
AcDbEntity
  8
0
 62
     7
100
AcDbLine
 10
9.843025
 20
181.639984
 30
0.0
 11
9.843025
 21
181.843231
 31
0.0
  0
LINE
  5
570
330
1F
100
AcDbEntity
  8
0
 62
     7
100
AcDbLine
 10
9.843025
 20
174.660004
 30
0.0
 11
9.843025
 21
181.639984
 31
0.0
  0
ARC
  5
571
330
1F
100
AcDbEntity
  8
0
 62
     7
100
AcDbCircle
 10
10.493023
 20
178.149994
 30
0.0
 40
3.549999952316284
100
AcDbArc
 50
100.550302
 51
259.449705
  0
LINE
  5
572
330
1F
100
AcDbEntity
  8
0
 62
     7
100
AcDbLine
 10
8.911091
 20
181.549988
 30
0.0
 11
7.183945
 21
181.549988
 31
0.0
  0
LINE
  5
573
330
1F
100
AcDbEntity
  8
0
 62
     7
100
AcDbLine
 10
13.802101
 20
181.549988
 30
0.0
 11
12.074955
 21
181.549988
 31
0.0
  0
LINE
  5
574
330
1F
100
AcDbEntity
  8
0
 62
     7
100
AcDbLine
 10
13.802101
 20
181.549988
 30
0.0
 11
14.127926
 21
181.549988
 31
0.0
  0
LINE
  5
575
330
1F
100
AcDbEntity
  8
0
 62
     7
100
AcDbLine
 10
14.127926
 20
181.549988
 30
0.0
 11
18.593025
 21
181.549988
 31
0.0
  0
LINE
  5
576
330
1F
100
AcDbEntity
  8
0
 62
     7
100
AcDbLine
 10
2.393025
 20
181.549988
 30
0.0
 11
6.858124
 21
181.549988
 31
0.0
  0
LINE
  5
577
330
1F
100
AcDbEntity
  8
0
 62
     7
100
AcDbLine
 10
6.858124
 20
181.549988
 30
0.0
 11
7.183945
 21
181.549988
 31
0.0
  0
ARC
  5
578
330
1F
100
AcDbEntity
  8
0
 62
     7
100
AcDbCircle
 10
7.183945
 20
181.049988
 30
0.0
 40
0.5
100
AcDbArc
 50
318.769437
 51
90.000003
  0
ARC
  5
579
330
1F
100
AcDbEntity
  8
0
 62
     7
100
AcDbCircle
 10
10.493023
 20
178.149994
 30
0.0
 40
3.900000095367432
100
AcDbArc
 50
138.769418
 51
41.230577
  0
ARC
  5
57A
330
1F
100
AcDbEntity
  8
0
 62
     7
100
AcDbCircle
 10
13.802101
 20
181.049988
 30
0.0
 40
0.5
100
AcDbArc
 50
90.000003
 51
221.230582
  0
ARC
  5
57B
330
1F
100
AcDbEntity
  8
0
 62
     7
100
AcDbCircle
 10
14.127926
 20
181.049988
 30
0.0
 40
0.5
100
AcDbArc
 50
90.000003
 51
218.583597
  0
LINE
  5
57C
330
1F
100
AcDbEntity
  8
0
 62
     7
100
AcDbLine
 10
18.593025
 20
181.049988
 30
0.0
 11
18.946575
 21
181.403534
 31
0.0
  0
ARC
  5
57D
330
1F
100
AcDbEntity
  8
0
 62
     7
100
AcDbCircle
 10
18.593025
 20
181.049988
 30
0.0
 40
0.5
100
AcDbArc
 50
0.0
 51
90.000003
  0
ARC
  5
57E
330
1F
100
AcDbEntity
  8
0
 62
     7
100
AcDbCircle
 10
2.393025
 20
181.049988
 30
0.0
 40
0.5
100
AcDbArc
 50
90.000003
 51
180.000009
  0
ARC
  5
57F
330
1F
100
AcDbEntity
  8
0
 62
     7
100
AcDbCircle
 10
6.858124
 20
181.049988
 30
0.0
 40
0.5
100
AcDbArc
 50
321.416408
 51
90.000003
  0
LINE
  5
580
330
1F
100
AcDbEntity
  8
0
 62
     7
100
AcDbLine
 10
2.393025
 20
181.049988
 30
0.0
 11
2.039471
 21
181.403534
 31
0.0
  0
POLYLINE
  5
581
330
1F
100
AcDbEntity
  8
0
 62
     7
100
AcDb2dPolyline
 66
     1
 10
0.0
 20
0.0
 30
0.0
  0
VERTEX
  5
582
330
581
100
AcDbEntity
  8
0
100
AcDbVertex
100
AcDb2dVertex
 10
7.034966
 20
174.855591
 30
0.0
  0
VERTEX
  5
583
330
581
100
AcDbEntity
  8
0
100
AcDbVertex
100
AcDb2dVertex
 10
7.090687
 20
174.765656
 30
0.0
  0
VERTEX
  5
584
330
581
100
AcDbEntity
  8
0
100
AcDbVertex
100
AcDb2dVertex
 10
7.140781
 20
174.672363
 30
0.0
  0
VERTEX
  5
585
330
581
100
AcDbEntity
  8
0
100
AcDbVertex
100
AcDb2dVertex
 10
7.185041
 20
174.575928
 30
0.0
  0
VERTEX
  5
586
330
581
100
AcDbEntity
  8
0
100
AcDbVertex
100
AcDb2dVertex
 10
7.223253
 20
174.476685
 30
0.0
  0
VERTEX
  5
587
330
581
100
AcDbEntity
  8
0
100
AcDbVertex
100
AcDb2dVertex
 10
7.255201
 20
174.374969
 30
0.0
  0
VERTEX
  5
588
330
581
100
AcDbEntity
  8
0
100
AcDbVertex
100
AcDb2dVertex
 10
7.280666
 20
174.271057
 30
0.0
  0
VERTEX
  5
589
330
581
100
AcDbEntity
  8
0
100
AcDbVertex
100
AcDb2dVertex
 10
7.299429
 20
174.165344
 30
0.0
  0
VERTEX
  5
58A
330
581
100
AcDbEntity
  8
0
100
AcDbVertex
100
AcDb2dVertex
 10
7.311101
 20
174.060333
 30
0.0
  0
VERTEX
  5
58B
330
581
100
AcDbEntity
  8
0
100
AcDbVertex
100
AcDb2dVertex
 10
7.315912
 20
173.954285
 30
0.0
  0
VERTEX
  5
58C
330
581
100
AcDbEntity
  8
0
100
AcDbVertex
100
AcDb2dVertex
 10
7.313662
 20
173.847595
 30
0.0
  0
VERTEX
  5
58D
330
581
100
AcDbEntity
  8
0
100
AcDbVertex
100
AcDb2dVertex
 10
7.30416
 20
173.740784
 30
0.0
  0
VERTEX
  5
58E
330
581
100
AcDbEntity
  8
0
100
AcDbVertex
100
AcDb2dVertex
 10
7.287238
 20
173.634308
 30
0.0
  0
VERTEX
  5
58F
330
581
100
AcDbEntity
  8
0
100
AcDbVertex
100
AcDb2dVertex
 10
7.262758
 20
173.528717
 30
0.0
  0
VERTEX
  5
590
330
581
100
AcDbEntity
  8
0
100
AcDbVertex
100
AcDb2dVertex
 10
7.230623
 20
173.424622
 30
0.0
  0
VERTEX
  5
591
330
581
100
AcDbEntity
  8
0
100
AcDbVertex
100
AcDb2dVertex
 10
7.192605
 20
173.326782
 30
0.0
  0
VERTEX
  5
592
330
581
100
AcDbEntity
  8
0
100
AcDbVertex
100
AcDb2dVertex
 10
7.147519
 20
173.231476
 30
0.0
  0
VERTEX
  5
593
330
581
100
AcDbEntity
  8
0
100
AcDbVertex
100
AcDb2dVertex
 10
7.09544
 20
173.139221
 30
0.0
  0
VERTEX
  5
594
330
581
100
AcDbEntity
  8
0
100
AcDbVertex
100
AcDb2dVertex
 10
7.036517
 20
173.05069
 30
0.0
  0
VERTEX
  5
595
330
581
100
AcDbEntity
  8
0
100
AcDbVertex
100
AcDb2dVertex
 10
7.004553
 20
173.008026
 30
0.0
  0
VERTEX
  5
596
330
581
100
AcDbEntity
  8
0
100
AcDbVertex
100
AcDb2dVertex
 10
6.970966
 20
172.966492
 30
0.0
  0
VERTEX
  5
597
330
581
100
AcDbEntity
  8
0
100
AcDbVertex
100
AcDb2dVertex
 10
6.923733
 20
172.913055
 30
0.0
  0
VERTEX
  5
598
330
581
100
AcDbEntity
  8
0
100
AcDbVertex
100
AcDb2dVertex
 10
6.873795
 20
172.861969
 30
0.0
  0
VERTEX
  5
599
330
581
100
AcDbEntity
  8
0
100
AcDbVertex
100
AcDb2dVertex
 10
6.82128
 20
172.813446
 30
0.0
  0
VERTEX
  5
59A
330
581
100
AcDbEntity
  8
0
100
AcDbVertex
100
AcDb2dVertex
 10
6.765919
 20
172.767242
 30
0.0
  0
VERTEX
  5
59B
330
581
100
AcDbEntity
  8
0
100
AcDbVertex
100
AcDb2dVertex
 10
6.708193
 20
172.723907
 30
0.0
  0
VERTEX
  5
59C
330
581
100
AcDbEntity
  8
0
100
AcDbVertex
100
AcDb2dVertex
 10
6.648383
 20
172.683594
 30
0.0
  0
SEQEND
  5
59D
330
581
100
AcDbEntity
  8
0
 62
     7
  0
ARC
  5
59E
330
1F
100
AcDbEntity
  8
0
 62
     7
100
AcDbCircle
 10
10.493031
 20
166.649994
 30
0.0
 40
7.154425144195557
100
AcDbArc
 50
57.494627
 51
122.50533
  0
POLYLINE
  5
59F
330
1F
100
AcDbEntity
  8
0
 62
     7
100
AcDb2dPolyline
 66
     1
 10
0.0
 20
0.0
 30
0.0
  0
VERTEX
  5
5A0
330
59F
100
AcDbEntity
  8
0
100
AcDbVertex
100
AcDb2dVertex
 10
13.951084
 20
174.855591
 30
0.0
  0
VERTEX
  5
5A1
330
59F
100
AcDbEntity
  8
0
100
AcDbVertex
100
AcDb2dVertex
 10
13.895359
 20
174.765656
 30
0.0
  0
VERTEX
  5
5A2
330
59F
100
AcDbEntity
  8
0
100
AcDbVertex
100
AcDb2dVertex
 10
13.845264
 20
174.672363
 30
0.0
  0
VERTEX
  5
5A3
330
59F
100
AcDbEntity
  8
0
100
AcDbVertex
100
AcDb2dVertex
 10
13.801006
 20
174.575928
 30
0.0
  0
VERTEX
  5
5A4
330
59F
100
AcDbEntity
  8
0
100
AcDbVertex
100
AcDb2dVertex
 10
13.762794
 20
174.476685
 30
0.0
  0
VERTEX
  5
5A5
330
59F
100
AcDbEntity
  8
0
100
AcDbVertex
100
AcDb2dVertex
 10
13.730846
 20
174.374969
 30
0.0
  0
VERTEX
  5
5A6
330
59F
100
AcDbEntity
  8
0
100
AcDbVertex
100
AcDb2dVertex
 10
13.705379
 20
174.271057
 30
0.0
  0
VERTEX
  5
5A7
330
59F
100
AcDbEntity
  8
0
100
AcDbVertex
100
AcDb2dVertex
 10
13.686619
 20
174.165344
 30
0.0
  0
VERTEX
  5
5A8
330
59F
100
AcDbEntity
  8
0
100
AcDbVertex
100
AcDb2dVertex
 10
13.674946
 20
174.060333
 30
0.0
  0
VERTEX
  5
5A9
330
59F
100
AcDbEntity
  8
0
100
AcDbVertex
100
AcDb2dVertex
 10
13.670135
 20
173.954285
 30
0.0
  0
VERTEX
  5
5AA
330
59F
100
AcDbEntity
  8
0
100
AcDbVertex
100
AcDb2dVertex
 10
13.672386
 20
173.847595
 30
0.0
  0
VERTEX
  5
5AB
330
59F
100
AcDbEntity
  8
0
100
AcDbVertex
100
AcDb2dVertex
 10
13.681889
 20
173.740784
 30
0.0
  0
VERTEX
  5
5AC
330
59F
100
AcDbEntity
  8
0
100
AcDbVertex
100
AcDb2dVertex
 10
13.698811
 20
173.634308
 30
0.0
  0
VERTEX
  5
5AD
330
59F
100
AcDbEntity
  8
0
100
AcDbVertex
100
AcDb2dVertex
 10
13.723289
 20
173.528717
 30
0.0
  0
VERTEX
  5
5AE
330
59F
100
AcDbEntity
  8
0
100
AcDbVertex
100
AcDb2dVertex
 10
13.755424
 20
173.424622
 30
0.0
  0
VERTEX
  5
5AF
330
59F
100
AcDbEntity
  8
0
100
AcDbVertex
100
AcDb2dVertex
 10
13.793446
 20
173.326782
 30
0.0
  0
VERTEX
  5
5B0
330
59F
100
AcDbEntity
  8
0
100
AcDbVertex
100
AcDb2dVertex
 10
13.838531
 20
173.231476
 30
0.0
  0
VERTEX
  5
5B1
330
59F
100
AcDbEntity
  8
0
100
AcDbVertex
100
AcDb2dVertex
 10
13.89061
 20
173.139221
 30
0.0
  0
VERTEX
  5
5B2
330
59F
100
AcDbEntity
  8
0
100
AcDbVertex
100
AcDb2dVertex
 10
13.949532
 20
173.05069
 30
0.0
  0
VERTEX
  5
5B3
330
59F
100
AcDbEntity
  8
0
100
AcDbVertex
100
AcDb2dVertex
 10
13.981495
 20
173.008026
 30
0.0
  0
VERTEX
  5
5B4
330
59F
100
AcDbEntity
  8
0
100
AcDbVertex
100
AcDb2dVertex
 10
14.015079
 20
172.966492
 30
0.0
  0
VERTEX
  5
5B5
330
59F
100
AcDbEntity
  8
0
100
AcDbVertex
100
AcDb2dVertex
 10
14.062317
 20
172.913055
 30
0.0
  0
VERTEX
  5
5B6
330
59F
100
AcDbEntity
  8
0
100
AcDbVertex
100
AcDb2dVertex
 10
14.112255
 20
172.861969
 30
0.0
  0
VERTEX
  5
5B7
330
59F
100
AcDbEntity
  8
0
100
AcDbVertex
100
AcDb2dVertex
 10
14.164768
 20
172.813446
 30
0.0
  0
VERTEX
  5
5B8
330
59F
100
AcDbEntity
  8
0
100
AcDbVertex
100
AcDb2dVertex
 10
14.220127
 20
172.767242
 30
0.0
  0
VERTEX
  5
5B9
330
59F
100
AcDbEntity
  8
0
100
AcDbVertex
100
AcDb2dVertex
 10
14.277855
 20
172.723907
 30
0.0
  0
VERTEX
  5
5BA
330
59F
100
AcDbEntity
  8
0
100
AcDbVertex
100
AcDb2dVertex
 10
14.337666
 20
172.683594
 30
0.0
  0
SEQEND
  5
5BB
330
59F
100
AcDbEntity
  8
0
 62
     7
  0
ARC
  5
5BC
330
1F
100
AcDbEntity
  8
0
 62
     7
100
AcDbCircle
 10
10.493023
 20
178.149994
 30
0.0
 40
4.150000095367432
100
AcDbArc
 50
0.0
 51
38.583602
  0
LINE
  5
5BD
330
1F
100
AcDbEntity
  8
0
 62
     7
100
AcDbLine
 10
2.393025
 20
157.949982
 30
0.0
 11
7.092974
 21
157.949982
 31
0.0
  0
LINE
  5
5BE
330
1F
100
AcDbEntity
  8
0
 62
     7
100
AcDbLine
 10
13.892975
 20
157.949982
 30
0.0
 11
18.593025
 21
157.949982
 31
0.0
  0
LINE
  5
5BF
330
1F
100
AcDbEntity
  8
0
 62
     7
100
AcDbLine
 10
14.643024
 20
178.149994
 30
0.0
 11
14.643024
 21
177.149994
 31
0.0
  0
ARC
  5
5C0
330
1F
100
AcDbEntity
  8
0
 62
     7
100
AcDbCircle
 10
10.493023
 20
177.149994
 30
0.0
 40
4.150000095367432
100
AcDbArc
 50
327.912246
 51
360.0
  0
POLYLINE
  5
5C1
330
1F
100
AcDbEntity
  8
0
 62
     7
100
AcDb2dPolyline
 66
     1
 10
0.0
 20
0.0
 30
0.0
  0
VERTEX
  5
5C2
330
5C1
100
AcDbEntity
  8
0
100
AcDbVertex
100
AcDb2dVertex
 10
14.419868
 20
172.803833
 30
0.0
  0
VERTEX
  5
5C3
330
5C1
100
AcDbEntity
  8
0
100
AcDbVertex
100
AcDb2dVertex
 10
14.34557
 20
172.854675
 30
0.0
  0
VERTEX
  5
5C4
330
5C1
100
AcDbEntity
  8
0
100
AcDbVertex
100
AcDb2dVertex
 10
14.28619
 20
172.900604
 30
0.0
  0
VERTEX
  5
5C5
330
5C1
100
AcDbEntity
  8
0
100
AcDbVertex
100
AcDb2dVertex
 10
14.229427
 20
172.949554
 30
0.0
  0
VERTEX
  5
5C6
330
5C1
100
AcDbEntity
  8
0
100
AcDbVertex
100
AcDb2dVertex
 10
14.154785
 20
173.022675
 30
0.0
  0
VERTEX
  5
5C7
330
5C1
100
AcDbEntity
  8
0
100
AcDbVertex
100
AcDb2dVertex
 10
14.085869
 20
173.100861
 30
0.0
  0
VERTEX
  5
5C8
330
5C1
100
AcDbEntity
  8
0
100
AcDbVertex
100
AcDb2dVertex
 10
14.02301
 20
173.183624
 30
0.0
  0
VERTEX
  5
5C9
330
5C1
100
AcDbEntity
  8
0
100
AcDbVertex
100
AcDb2dVertex
 10
13.966465
 20
173.270386
 30
0.0
  0
VERTEX
  5
5CA
330
5C1
100
AcDbEntity
  8
0
100
AcDbVertex
100
AcDb2dVertex
 10
13.916424
 20
173.360565
 30
0.0
  0
VERTEX
  5
5CB
330
5C1
100
AcDbEntity
  8
0
100
AcDbVertex
100
AcDb2dVertex
 10
13.872997
 20
173.453583
 30
0.0
  0
VERTEX
  5
5CC
330
5C1
100
AcDbEntity
  8
0
100
AcDbVertex
100
AcDb2dVertex
 10
13.836254
 20
173.54895
 30
0.0
  0
VERTEX
  5
5CD
330
5C1
100
AcDbEntity
  8
0
100
AcDbVertex
100
AcDb2dVertex
 10
13.805115
 20
173.650024
 30
0.0
  0
VERTEX
  5
5CE
330
5C1
100
AcDbEntity
  8
0
100
AcDbVertex
100
AcDb2dVertex
 10
13.781155
 20
173.752472
 30
0.0
  0
VERTEX
  5
5CF
330
5C1
100
AcDbEntity
  8
0
100
AcDbVertex
100
AcDb2dVertex
 10
13.764286
 20
173.855804
 30
0.0
  0
VERTEX
  5
5D0
330
5C1
100
AcDbEntity
  8
0
100
AcDbVertex
100
AcDb2dVertex
 10
13.754383
 20
173.959503
 30
0.0
  0
VERTEX
  5
5D1
330
5C1
100
AcDbEntity
  8
0
100
AcDbVertex
100
AcDb2dVertex
 10
13.751305
 20
174.06311
 30
0.0
  0
VERTEX
  5
5D2
330
5C1
100
AcDbEntity
  8
0
100
AcDbVertex
100
AcDb2dVertex
 10
13.754879
 20
174.166229
 30
0.0
  0
VERTEX
  5
5D3
330
5C1
100
AcDbEntity
  8
0
100
AcDbVertex
100
AcDb2dVertex
 10
13.764931
 20
174.268463
 30
0.0
  0
VERTEX
  5
5D4
330
5C1
100
AcDbEntity
  8
0
100
AcDbVertex
100
AcDb2dVertex
 10
13.781681
 20
174.371552
 30
0.0
  0
VERTEX
  5
5D5
330
5C1
100
AcDbEntity
  8
0
100
AcDbVertex
100
AcDb2dVertex
 10
13.804794
 20
174.473022
 30
0.0
  0
VERTEX
  5
5D6
330
5C1
100
AcDbEntity
  8
0
100
AcDbVertex
100
AcDb2dVertex
 10
13.83408
 20
174.572571
 30
0.0
  0
VERTEX
  5
5D7
330
5C1
100
AcDbEntity
  8
0
100
AcDbVertex
100
AcDb2dVertex
 10
13.869335
 20
174.669891
 30
0.0
  0
VERTEX
  5
5D8
330
5C1
100
AcDbEntity
  8
0
100
AcDbVertex
100
AcDb2dVertex
 10
13.910378
 20
174.764648
 30
0.0
  0
VERTEX
  5
5D9
330
5C1
100
AcDbEntity
  8
0
100
AcDbVertex
100
AcDb2dVertex
 10
13.957008
 20
174.856598
 30
0.0
  0
VERTEX
  5
5DA
330
5C1
100
AcDbEntity
  8
0
100
AcDbVertex
100
AcDb2dVertex
 10
14.009052
 20
174.945435
 30
0.0
  0
SEQEND
  5
5DB
330
5C1
100
AcDbEntity
  8
0
 62
     7
  0
ARC
  5
5DC
330
1F
100
AcDbEntity
  8
0
 62
     7
100
AcDbCircle
 10
10.493023
 20
166.649994
 30
0.0
 40
7.300000190734863
100
AcDbArc
 50
297.758952
 51
57.457471
  0
LINE
  5
5DD
330
1F
100
AcDbEntity
  8
0
 62
     7
100
AcDbLine
 10
6.993217
 20
160.243652
 30
0.0
 11
7.093028
 21
160.190125
 31
0.0
  0
ARC
  5
5DE
330
1F
100
AcDbEntity
  8
0
 62
     7
100
AcDbCircle
 10
10.493023
 20
166.649994
 30
0.0
 40
7.300000190734863
100
AcDbArc
 50
122.542528
 51
241.352115
  0
POLYLINE
  5
5DF
330
1F
100
AcDbEntity
  8
0
 62
     7
100
AcDb2dPolyline
 66
     1
 10
0.0
 20
0.0
 30
0.0
  0
VERTEX
  5
5E0
330
5DF
100
AcDbEntity
  8
0
100
AcDbVertex
100
AcDb2dVertex
 10
6.566168
 20
172.803833
 30
0.0
  0
VERTEX
  5
5E1
330
5DF
100
AcDbEntity
  8
0
100
AcDbVertex
100
AcDb2dVertex
 10
6.645665
 20
172.85849
 30
0.0
  0
VERTEX
  5
5E2
330
5DF
100
AcDbEntity
  8
0
100
AcDbVertex
100
AcDb2dVertex
 10
6.721207
 20
172.918396
 30
0.0
  0
VERTEX
  5
5E3
330
5DF
100
AcDbEntity
  8
0
100
AcDbVertex
100
AcDb2dVertex
 10
6.792409
 20
172.983276
 30
0.0
  0
VERTEX
  5
5E4
330
5DF
100
AcDbEntity
  8
0
100
AcDbVertex
100
AcDb2dVertex
 10
6.858929
 20
173.052704
 30
0.0
  0
VERTEX
  5
5E5
330
5DF
100
AcDbEntity
  8
0
100
AcDbVertex
100
AcDb2dVertex
 10
6.920476
 20
173.126251
 30
0.0
  0
VERTEX
  5
5E6
330
5DF
100
AcDbEntity
  8
0
100
AcDbVertex
100
AcDb2dVertex
 10
6.982042
 20
173.211304
 30
0.0
  0
VERTEX
  5
5E7
330
5DF
100
AcDbEntity
  8
0
100
AcDbVertex
100
AcDb2dVertex
 10
7.037083
 20
173.300232
 30
0.0
  0
VERTEX
  5
5E8
330
5DF
100
AcDbEntity
  8
0
100
AcDbVertex
100
AcDb2dVertex
 10
7.085426
 20
173.392487
 30
0.0
  0
VERTEX
  5
5E9
330
5DF
100
AcDbEntity
  8
0
100
AcDbVertex
100
AcDb2dVertex
 10
7.12697
 20
173.487488
 30
0.0
  0
VERTEX
  5
5EA
330
5DF
100
AcDbEntity
  8
0
100
AcDbVertex
100
AcDb2dVertex
 10
7.161678
 20
173.584656
 30
0.0
  0
VERTEX
  5
5EB
330
5DF
100
AcDbEntity
  8
0
100
AcDbVertex
100
AcDb2dVertex
 10
7.189562
 20
173.683411
 30
0.0
  0
VERTEX
  5
5EC
330
5DF
100
AcDbEntity
  8
0
100
AcDbVertex
100
AcDb2dVertex
 10
7.210682
 20
173.783325
 30
0.0
  0
VERTEX
  5
5ED
330
5DF
100
AcDbEntity
  8
0
100
AcDbVertex
100
AcDb2dVertex
 10
7.225599
 20
173.888184
 30
0.0
  0
VERTEX
  5
5EE
330
5DF
100
AcDbEntity
  8
0
100
AcDbVertex
100
AcDb2dVertex
 10
7.233409
 20
173.993286
 30
0.0
  0
VERTEX
  5
5EF
330
5DF
100
AcDbEntity
  8
0
100
AcDbVertex
100
AcDb2dVertex
 10
7.234269
 20
174.098145
 30
0.0
  0
VERTEX
  5
5F0
330
5DF
100
AcDbEntity
  8
0
100
AcDbVertex
100
AcDb2dVertex
 10
7.228354
 20
174.202393
 30
0.0
  0
VERTEX
  5
5F1
330
5DF
100
AcDbEntity
  8
0
100
AcDbVertex
100
AcDb2dVertex
 10
7.215851
 20
174.305603
 30
0.0
  0
VERTEX
  5
5F2
330
5DF
100
AcDbEntity
  8
0
100
AcDbVertex
100
AcDb2dVertex
 10
7.196955
 20
174.40744
 30
0.0
  0
VERTEX
  5
5F3
330
5DF
100
AcDbEntity
  8
0
100
AcDbVertex
100
AcDb2dVertex
 10
7.171856
 20
174.507538
 30
0.0
  0
VERTEX
  5
5F4
330
5DF
100
AcDbEntity
  8
0
100
AcDbVertex
100
AcDb2dVertex
 10
7.142848
 20
174.599609
 30
0.0
  0
VERTEX
  5
5F5
330
5DF
100
AcDbEntity
  8
0
100
AcDbVertex
100
AcDb2dVertex
 10
7.108704
 20
174.689667
 30
0.0
  0
VERTEX
  5
5F6
330
5DF
100
AcDbEntity
  8
0
100
AcDbVertex
100
AcDb2dVertex
 10
7.069581
 20
174.777466
 30
0.0
  0
VERTEX
  5
5F7
330
5DF
100
AcDbEntity
  8
0
100
AcDbVertex
100
AcDb2dVertex
 10
7.02563
 20
174.862793
 30
0.0
  0
VERTEX
  5
5F8
330
5DF
100
AcDbEntity
  8
0
100
AcDbVertex
100
AcDb2dVertex
 10
6.976997
 20
174.945435
 30
0.0
  0
SEQEND
  5
5F9
330
5DF
100
AcDbEntity
  8
0
 62
     7
  0
ARC
  5
5FA
330
1F
100
AcDbEntity
  8
0
 62
     7
100
AcDbCircle
 10
10.493023
 20
177.149994
 30
0.0
 40
4.150000095367432
100
AcDbArc
 50
180.000009
 51
212.087746
  0
LINE
  5
5FB
330
1F
100
AcDbEntity
  8
0
 62
     7
100
AcDbLine
 10
6.343023
 20
178.149994
 30
0.0
 11
6.343023
 21
177.149994
 31
0.0
  0
ARC
  5
5FC
330
1F
100
AcDbEntity
  8
0
 62
     7
100
AcDbCircle
 10
10.493023
 20
178.149994
 30
0.0
 40
4.150000095367432
100
AcDbArc
 50
141.416403
 51
180.000009
  0
LINE
  5
5FD
330
1F
100
AcDbEntity
  8
0
 62
     7
100
AcDbLine
 10
4.643024
 20
173.850006
 30
0.0
 11
4.243025
 21
173.850006
 31
0.0
  0
ARC
  5
5FE
330
1F
100
AcDbEntity
  8
0
 62
     7
100
AcDbCircle
 10
4.243025
 20
175.199982
 30
0.0
 40
1.350000023841858
100
AcDbArc
 50
90.000003
 51
269.99997
  0
LINE
  5
5FF
330
1F
100
AcDbEntity
  8
0
 62
     7
100
AcDbLine
 10
4.243025
 20
176.549988
 30
0.0
 11
4.643024
 21
176.549988
 31
0.0
  0
ARC
  5
600
330
1F
100
AcDbEntity
  8
0
 62
     7
100
AcDbCircle
 10
4.643024
 20
175.199982
 30
0.0
 40
1.350000023841858
100
AcDbArc
 50
269.999997
 51
89.999989
  0
CIRCLE
  5
601
330
1F
100
AcDbEntity
  8
0
 62
     7
100
AcDbCircle
 10
16.543026
 20
175.199982
 30
0.0
 40
1.350000023841858
  0
ARC
  5
602
330
1F
100
AcDbEntity
  8
0
 62
     7
100
AcDbCircle
 10
18.593025
 20
157.949982
 30
0.0
 40
0.5
100
AcDbArc
 50
269.999997
 51
359.999901
  0
LINE
  5
603
330
1F
100
AcDbEntity
  8
0
 62
     7
100
AcDbLine
 10
19.093025
 20
181.049988
 30
0.0
 11
19.093025
 21
157.949982
 31
0.0
  0
ARC
  5
604
330
1F
100
AcDbEntity
  8
0
 62
     7
100
AcDbCircle
 10
18.593025
 20
157.450012
 30
0.0
 40
0.4999969899654388
100
AcDbArc
 50
29.999605
 51
90.000201
  0
LINE
  5
605
330
1F
100
AcDbEntity
  8
0
 62
     7
100
AcDbLine
 10
2.393025
 20
182.549988
 30
0.0
 11
18.593025
 21
182.549988
 31
0.0
  0
LINE
  5
606
330
1F
100
AcDbEntity
  8
0
 62
     7
100
AcDbLine
 10
1.893025
 20
157.949982
 30
0.0
 11
1.893025
 21
181.049988
 31
0.0
  0
LINE
  5
607
330
1F
100
AcDbEntity
  8
0
 62
     7
100
AcDbLine
 10
1.893025
 20
181.049988
 30
0.0
 11
1.893025
 21
182.049988
 31
0.0
  0
ARC
  5
608
330
1F
100
AcDbEntity
  8
0
 62
     7
100
AcDbCircle
 10
2.393025
 20
157.949982
 30
0.0
 40
0.5
100
AcDbArc
 50
180.000009
 51
270.000353
  0
ARC
  5
609
330
1F
100
AcDbEntity
  8
0
 62
     7
100
AcDbCircle
 10
2.393027
 20
157.449982
 30
0.0
 40
0.5000079870223999
100
AcDbArc
 50
90.000289
 51
149.999055
  0
LINE
  5
60A
330
1F
100
AcDbEntity
  8
0
 62
     7
100
AcDbLine
 10
6.976997
 20
174.945435
 30
0.0
 11
7.034966
 21
174.855591
 31
0.0
  0
ARC
  5
60B
330
1F
100
AcDbEntity
  8
0
 62
     7
100
AcDbCircle
 10
10.493023
 20
166.649994
 30
0.0
 40
7.099999904632568
100
AcDbArc
 50
0.0
 51
241.352115
  0
ARC
  5
60C
330
1F
100
AcDbEntity
  8
0
 62
     7
100
AcDbCircle
 10
10.493023
 20
166.649994
 30
0.0
 40
7.099999904632568
100
AcDbArc
 50
298.611797
 51
360.0
  0
LINE
  5
60D
330
1F
100
AcDbEntity
  8
0
 62
     7
100
AcDbLine
 10
13.951084
 20
174.855591
 30
0.0
 11
14.009052
 21
174.945435
 31
0.0
  0
LINE
  5
60E
330
1F
100
AcDbEntity
  8
0
 62
     7
100
AcDbLine
 10
2.393025
 20
157.449982
 30
0.0
 11
7.092974
 21
157.449982
 31
0.0
  0
LINE
  5
60F
330
1F
100
AcDbEntity
  8
0
 62
     7
100
AcDbLine
 10
13.892971
 20
157.449982
 30
0.0
 11
18.593025
 21
157.449982
 31
0.0
  0
LINE
  5
610
330
1F
100
AcDbEntity
  8
0
 62
     7
100
AcDbLine
 10
4.643024
 20
173.949982
 30
0.0
 11
4.243025
 21
173.949982
 31
0.0
  0
ARC
  5
611
330
1F
100
AcDbEntity
  8
0
 62
     7
100
AcDbCircle
 10
4.243025
 20
175.199982
 30
0.0
 40
1.25
100
AcDbArc
 50
90.000003
 51
269.999997
  0
LINE
  5
612
330
1F
100
AcDbEntity
  8
0
 62
     7
100
AcDbLine
 10
4.243025
 20
176.449982
 30
0.0
 11
4.643024
 21
176.449982
 31
0.0
  0
ARC
  5
613
330
1F
100
AcDbEntity
  8
0
 62
     7
100
AcDbCircle
 10
4.643024
 20
175.199982
 30
0.0
 40
1.25
100
AcDbArc
 50
269.999997
 51
90.000003
  0
CIRCLE
  5
614
330
1F
100
AcDbEntity
  8
0
 62
     7
100
AcDbCircle
 10
16.543026
 20
175.199982
 30
0.0
 40
1.25
  0
LINE
  5
615
330
1F
100
AcDbEntity
  8
0
 62
     7
100
AcDbLine
 10
19.093025
 20
181.049988
 30
0.0
 11
19.093025
 21
182.049988
 31
0.0
  0
ARC
  5
616
330
1F
100
AcDbEntity
  8
0
 62
     7
100
AcDbCircle
 10
18.593025
 20
182.049988
 30
0.0
 40
0.5
100
AcDbArc
 50
0.0
 51
90.000003
  0
LINE
  5
617
330
1F
100
AcDbEntity
  8
0
 62
     7
100
AcDbLine
 10
19.093025
 20
179.68512
 30
0.0
 11
19.093025
 21
177.45047
 31
0.0
  0
LINE
  5
618
330
1F
100
AcDbEntity
  8
0
 62
     7
100
AcDbLine
 10
19.293026
 20
176.487701
 30
0.0
 11
19.293026
 21
177.45047
 31
0.0
  0
LINE
  5
619
330
1F
100
AcDbEntity
  8
0
 62
     7
100
AcDbLine
 10
19.293026
 20
176.487701
 30
0.0
 11
19.293026
 21
164.75
 31
0.0
  0
LINE
  5
61A
330
1F
100
AcDbEntity
  8
0
 62
     7
100
AcDbLine
 10
19.293026
 20
161.75
 30
0.0
 11
19.293026
 21
164.75
 31
0.0
  0
LINE
  5
61B
330
1F
100
AcDbEntity
  8
0
 62
     7
100
AcDbLine
 10
19.093025
 20
161.75
 30
0.0
 11
19.293026
 21
161.75
 31
0.0
  0
LINE
  5
61C
330
1F
100
AcDbEntity
  8
0
 62
     7
100
AcDbLine
 10
19.093025
 20
180.549988
 30
0.0
 11
19.293026
 21
180.549988
 31
0.0
  0
LINE
  5
61D
330
1F
100
AcDbEntity
  8
0
 62
     7
100
AcDbLine
 10
19.293026
 20
179.68512
 30
0.0
 11
19.293026
 21
180.549988
 31
0.0
  0
LINE
  5
61E
330
1F
100
AcDbEntity
  8
0
 62
     7
100
AcDbLine
 10
6.543341
 20
160.75
 30
0.0
 11
6.726065
 21
160.75
 31
0.0
  0
LINE
  5
61F
330
1F
100
AcDbEntity
  8
0
 62
     7
100
AcDbLine
 10
14.259975
 20
160.75
 30
0.0
 11
14.442707
 21
160.75
 31
0.0
  0
ARC
  5
620
330
1F
100
AcDbEntity
  8
0
 62
     7
100
AcDbCircle
 10
2.393025
 20
182.049988
 30
0.0
 40
0.5
100
AcDbArc
 50
90.000003
 51
180.000009
  0
LINE
  5
621
330
1F
100
AcDbEntity
  8
0
 62
     7
100
AcDbLine
 10
1.693024
 20
180.549988
 30
0.0
 11
1.893025
 21
180.549988
 31
0.0
  0
LINE
  5
622
330
1F
100
AcDbEntity
  8
0
 62
     7
100
AcDbLine
 10
1.693024
 20
179.68512
 30
0.0
 11
1.693024
 21
180.549988
 31
0.0
  0
LINE
  5
623
330
1F
100
AcDbEntity
  8
0
 62
     7
100
AcDbLine
 10
1.693024
 20
161.75
 30
0.0
 11
1.893025
 21
161.75
 31
0.0
  0
LINE
  5
624
330
1F
100
AcDbEntity
  8
0
 62
     7
100
AcDbLine
 10
1.693024
 20
161.75
 30
0.0
 11
1.693024
 21
164.75
 31
0.0
  0
LINE
  5
625
330
1F
100
AcDbEntity
  8
0
 62
     7
100
AcDbLine
 10
1.693024
 20
176.487701
 30
0.0
 11
1.693024
 21
164.75
 31
0.0
  0
LINE
  5
626
330
1F
100
AcDbEntity
  8
0
 62
     7
100
AcDbLine
 10
1.693024
 20
176.487701
 30
0.0
 11
1.693024
 21
177.45047
 31
0.0
  0
LINE
  5
627
330
1F
100
AcDbEntity
  8
0
 62
     7
100
AcDbLine
 10
19.293026
 20
177.45047
 30
0.0
 11
19.293026
 21
179.68512
 31
0.0
  0
LINE
  5
628
330
1F
100
AcDbEntity
  8
0
 62
     7
100
AcDbLine
 10
6.393024
 20
183.549988
 30
0.0
 11
6.393024
 21
182.550018
 31
0.0
  0
LINE
  5
629
330
1F
100
AcDbEntity
  8
0
 62
     7
100
AcDbLine
 10
1.693024
 20
177.45047
 30
0.0
 11
1.693024
 21
179.68512
 31
0.0
  0
LINE
  5
62A
330
1F
100
AcDbEntity
  8
0
 62
     7
100
AcDbLine
 10
14.793027
 20
183.649994
 30
0.0
 11
14.793027
 21
183.049988
 31
0.0
  0
ARC
  5
62B
330
1F
100
AcDbEntity
  8
0
 62
     7
100
AcDbCircle
 10
16.293026
 20
183.049988
 30
0.0
 40
1.5
100
AcDbArc
 50
180.000009
 51
199.470938
  0
ARC
  5
62C
330
1F
100
AcDbEntity
  8
0
 62
     7
100
AcDbCircle
 10
16.293026
 20
183.549988
 30
0.0
 40
1.0
100
AcDbArc
 50
180.000009
 51
269.999997
  0
LINE
  5
62D
330
1F
100
AcDbEntity
  8
0
 62
     7
100
AcDbLine
 10
15.293027
 20
183.549988
 30
0.0
 11
15.293027
 21
183.649994
 31
0.0
  0
LINE
  5
62E
330
1F
100
AcDbEntity
  8
0
 62
     7
100
AcDbLine
 10
14.593025
 20
182.550018
 30
0.0
 11
14.593025
 21
183.549988
 31
0.0
  0
LINE
  5
62F
330
1F
100
AcDbEntity
  8
0
 62
     7
100
AcDbLine
 10
6.393024
 20
183.549988
 30
0.0
 11
6.393024
 21
183.650085
 31
0.0
  0
ARC
  5
630
330
1F
100
AcDbEntity
  8
0
 62
     7
100
AcDbCircle
 10
4.693024
 20
183.049988
 30
0.0
 40
1.5
100
AcDbArc
 50
340.529081
 51
360.0
  0
LINE
  5
631
330
1F
100
AcDbEntity
  8
0
 62
     7
100
AcDbLine
 10
5.693024
 20
183.549988
 30
0.0
 11
5.693024
 21
183.649994
 31
0.0
  0
ARC
  5
632
330
1F
100
AcDbEntity
  8
0
 62
     7
100
AcDbCircle
 10
4.693024
 20
183.549988
 30
0.0
 40
1.0
100
AcDbArc
 50
269.999997
 51
360.0
  0
LINE
  5
633
330
1F
100
AcDbEntity
  8
0
 62
     7
100
AcDbLine
 10
6.193024
 20
183.649994
 30
0.0
 11
6.193024
 21
183.049988
 31
0.0
  0
LINE
  5
634
330
1F
100
AcDbEntity
  8
0
 62
     7
100
AcDbLine
 10
14.593025
 20
183.649994
 30
0.0
 11
14.593025
 21
183.549957
 31
0.0
  0
ARC
  5
635
330
1F
100
AcDbEntity
  8
0
 62
     7
100
AcDbCircle
 10
14.093025
 20
183.549988
 30
0.0
 40
0.5
100
AcDbArc
 50
0.0
 51
11.538233
  0
ARC
  5
636
330
1F
100
AcDbEntity
  8
0
 62
     7
100
AcDbCircle
 10
10.493023
 20
166.649994
 30
0.0
 40
7.0
100
AcDbArc
 50
299.059263
 51
240.940746
  0
ARC
  5
637
330
1F
100
AcDbEntity
  8
0
 62
     7
100
AcDbCircle
 10
10.493023
 20
166.649994
 30
0.0
 40
6.900000095367432
100
AcDbArc
 50
299.52166
 51
240.478287
  0
LINE
  5
638
330
1F
100
AcDbEntity
  8
0
 62
     7
100
AcDbLine
 10
19.092365
 20
181.075623
 30
0.0
 11
19.093025
 21
181.049988
 31
0.0
  0
LINE
  5
639
330
1F
100
AcDbEntity
  8
0
 62
     7
100
AcDbLine
 10
19.091938
 20
181.082916
 30
0.0
 11
19.093025
 21
181.049988
 31
0.0
  0
LINE
  5
63A
330
1F
100
AcDbEntity
  8
0
 62
     7
100
AcDbLine
 10
19.093002
 20
181.054871
 30
0.0
 11
19.093025
 21
181.049988
 31
0.0
  0
LINE
  5
63B
330
1F
100
AcDbEntity
  8
0
 62
     7
100
AcDbLine
 10
7.093023
 20
91.649994
 30
0.0
 11
7.093023
 21
166.649994
 31
0.0
  0
ARC
  5
63C
330
1F
100
AcDbEntity
  8
0
 62
     7
100
AcDbCircle
 10
10.493023
 20
166.649994
 30
0.0
 40
3.400000095367432
100
AcDbArc
 50
0.0
 51
180.000009
  0
LINE
  5
63D
330
1F
100
AcDbEntity
  8
0
 62
     7
100
AcDbLine
 10
13.893024
 20
91.649994
 30
0.0
 11
13.893024
 21
166.649994
 31
0.0
  0
LINE
  5
63E
330
1F
100
AcDbEntity
  8
0
 62
     7
100
AcDbLine
 10
7.093023
 20
91.649994
 30
0.0
 11
7.093023
 21
81.649994
 31
0.0
  0
LINE
  5
63F
330
1F
100
AcDbEntity
  8
0
 62
     7
100
AcDbLine
 10
13.893024
 20
91.649994
 30
0.0
 11
13.893024
 21
81.649994
 31
0.0
  0
LINE
  5
640
330
1F
100
AcDbEntity
  8
0
 62
     7
100
AcDbLine
 10
13.893024
 20
81.649994
 30
0.0
 11
7.093023
 21
81.649994
 31
0.0
  0
ARC
  5
641
330
1F
100
AcDbEntity
  8
0
 62
     7
100
AcDbCircle
 10
10.493023
 20
166.649994
 30
0.0
 40
3.549999952316284
100
AcDbArc
 50
344.596894
 51
195.402372
  0
ARC
  5
642
330
1F
100
AcDbEntity
  8
0
 62
     7
100
AcDbCircle
 10
10.493023
 20
166.649994
 30
0.0
 40
4.712500095367432
100
AcDbArc
 50
12.251403
 51
167.748599
  0
LINE
  5
643
330
1F
100
AcDbEntity
  8
0
 62
     7
100
AcDbLine
 10
15.034225
 20
167.649994
 30
0.0
 11
15.098202
 21
167.649994
 31
0.0
  0
ARC
  5
644
330
1F
100
AcDbEntity
  8
0
 62
     7
100
AcDbCircle
 10
10.493023
 20
166.649994
 30
0.0
 40
4.650000095367432
100
AcDbArc
 50
12.418682
 51
167.581314
  0
ARC
  5
645
330
1F
100
AcDbEntity
  8
0
 62
     7
100
AcDbCircle
 10
10.493023
 20
166.649994
 30
0.0
 40
4.574999809265137
100
AcDbArc
 50
12.625598
 51
167.3744
  0
LINE
  5
646
330
1F
100
AcDbEntity
  8
0
 62
     7
100
AcDbLine
 10
14.893326
 20
167.649994
 30
0.0
 11
14.957397
 21
167.649994
 31
0.0
  0
ARC
  5
647
330
1F
100
AcDbEntity
  8
0
 62
     7
100
AcDbCircle
 10
10.493023
 20
166.649994
 30
0.0
 40
4.512499809265137
100
AcDbArc
 50
12.803414
 51
167.196583
  0
ARC
  5
648
330
1F
100
AcDbEntity
  8
0
 62
     7
100
AcDbCircle
 10
10.493023
 20
166.649994
 30
0.0
 40
4.4375
100
AcDbArc
 50
13.023584
 51
166.976419
  0
LINE
  5
649
330
1F
100
AcDbEntity
  8
0
 62
     7
100
AcDbLine
 10
14.752205
 20
167.649994
 30
0.0
 11
14.81638
 21
167.649994
 31
0.0
  0
ARC
  5
64A
330
1F
100
AcDbEntity
  8
0
 62
     7
100
AcDbCircle
 10
10.493023
 20
166.649994
 30
0.0
 40
4.375
100
AcDbArc
 50
13.21298
 51
166.787018
  0
ARC
  5
64B
330
1F
100
AcDbEntity
  8
0
 62
     7
100
AcDbCircle
 10
10.493023
 20
166.649994
 30
0.0
 40
4.25
100
AcDbArc
 50
323.12972
 51
216.870258
  0
ARC
  5
64C
330
1F
100
AcDbEntity
  8
0
 62
     7
100
AcDbCircle
 10
10.493023
 20
166.649994
 30
0.0
 40
4.375
100
AcDbArc
 50
320.999384
 51
346.787008
  0
ARC
  5
64D
330
1F
100
AcDbEntity
  8
0
 62
     7
100
AcDbCircle
 10
10.493023
 20
166.649994
 30
0.0
 40
4.375
100
AcDbArc
 50
193.212982
 51
219.000594
  0
LINE
  5
64E
330
1F
100
AcDbEntity
  8
0
 62
     7
100
AcDbLine
 10
14.752205
 20
165.649994
 30
0.0
 11
14.81638
 21
165.649994
 31
0.0
  0
ARC
  5
64F
330
1F
100
AcDbEntity
  8
0
 62
     7
100
AcDbCircle
 10
10.493023
 20
166.649994
 30
0.0
 40
4.4375
100
AcDbArc
 50
193.023581
 51
219.986545
  0
ARC
  5
650
330
1F
100
AcDbEntity
  8
0
 62
     7
100
AcDbCircle
 10
10.493023
 20
166.649994
 30
0.0
 40
4.4375
100
AcDbArc
 50
320.013433
 51
346.976424
  0
ARC
  5
651
330
1F
100
AcDbEntity
  8
0
 62
     7
100
AcDbCircle
 10
10.493023
 20
166.649994
 30
0.0
 40
4.512499809265137
100
AcDbArc
 50
318.891096
 51
347.196575
  0
ARC
  5
652
330
1F
100
AcDbEntity
  8
0
 62
     7
100
AcDbCircle
 10
10.493023
 20
166.649994
 30
0.0
 40
4.512499809265137
100
AcDbArc
 50
192.803417
 51
221.108896
  0
LINE
  5
653
330
1F
100
AcDbEntity
  8
0
 62
     7
100
AcDbLine
 10
14.893326
 20
165.649994
 30
0.0
 11
14.957397
 21
165.649994
 31
0.0
  0
ARC
  5
654
330
1F
100
AcDbEntity
  8
0
 62
     7
100
AcDbCircle
 10
10.493023
 20
166.649994
 30
0.0
 40
4.574999809265137
100
AcDbArc
 50
192.6256
 51
221.997954
  0
ARC
  5
655
330
1F
100
AcDbEntity
  8
0
 62
     7
100
AcDbCircle
 10
10.493023
 20
166.649994
 30
0.0
 40
4.574999809265137
100
AcDbArc
 50
318.002024
 51
347.374406
  0
ARC
  5
656
330
1F
100
AcDbEntity
  8
0
 62
     7
100
AcDbCircle
 10
10.493023
 20
166.649994
 30
0.0
 40
4.650000095367432
100
AcDbArc
 50
316.985583
 51
347.581305
  0
ARC
  5
657
330
1F
100
AcDbEntity
  8
0
 62
     7
100
AcDbCircle
 10
10.493023
 20
166.649994
 30
0.0
 40
4.650000095367432
100
AcDbArc
 50
192.418686
 51
223.014354
  0
LINE
  5
658
330
1F
100
AcDbEntity
  8
0
 62
     7
100
AcDbLine
 10
15.034225
 20
165.649994
 30
0.0
 11
15.098202
 21
165.649994
 31
0.0
  0
ARC
  5
659
330
1F
100
AcDbEntity
  8
0
 62
     7
100
AcDbCircle
 10
10.493023
 20
166.649994
 30
0.0
 40
4.712500095367432
100
AcDbArc
 50
192.251401
 51
223.822666
  0
ARC
  5
65A
330
1F
100
AcDbEntity
  8
0
 62
     7
100
AcDbCircle
 10
10.493023
 20
166.649994
 30
0.0
 40
4.712500095367432
100
AcDbArc
 50
316.177161
 51
347.748591
  0
LINE
  5
65B
330
1F
100
AcDbEntity
  8
0
 62
     7
100
AcDbLine
 10
6.092722
 20
165.649994
 30
0.0
 11
6.028653
 21
165.649994
 31
0.0
  0
LINE
  5
65C
330
1F
100
AcDbEntity
  8
0
 62
     7
100
AcDbLine
 10
6.233843
 20
165.649994
 30
0.0
 11
6.169669
 21
165.649994
 31
0.0
  0
LINE
  5
65D
330
1F
100
AcDbEntity
  8
0
 62
     7
100
AcDbLine
 10
6.233843
 20
167.649994
 30
0.0
 11
6.169669
 21
167.649994
 31
0.0
  0
LINE
  5
65E
330
1F
100
AcDbEntity
  8
0
 62
     7
100
AcDbLine
 10
6.092722
 20
167.649994
 30
0.0
 11
6.028653
 21
167.649994
 31
0.0
  0
LINE
  5
65F
330
1F
100
AcDbEntity
  8
0
 62
     7
100
AcDbLine
 10
5.951825
 20
167.649994
 30
0.0
 11
5.887848
 21
167.649994
 31
0.0
  0
LINE
  5
660
330
1F
100
AcDbEntity
  8
0
 62
     7
100
AcDbLine
 10
5.951825
 20
165.649994
 30
0.0
 11
5.887848
 21
165.649994
 31
0.0
  0
ARC
  5
661
330
1F
100
AcDbEntity
  8
0
 62
     7
100
AcDbCircle
 10
10.493023
 20
166.649994
 30
0.0
 40
5.0
100
AcDbArc
 50
312.843537
 51
227.156454
  0
ARC
  5
662
330
1F
100
AcDbEntity
  8
0
 62
     7
100
AcDbCircle
 10
10.493023
 20
166.649994
 30
0.0
 40
5.300000190734863
100
AcDbArc
 50
309.904343
 51
230.095662
  0
ARC
  5
663
330
1F
100
AcDbEntity
  8
0
 62
     7
100
AcDbCircle
 10
10.493023
 20
166.649994
 30
0.0
 40
7.0
100
AcDbArc
 50
299.059263
 51
240.940746
  0
ARC
  5
664
330
1F
100
AcDbEntity
  8
0
 62
     7
100
AcDbCircle
 10
10.493023
 20
166.649994
 30
0.0
 40
6.900000095367432
100
AcDbArc
 50
299.52166
 51
240.478287
  0
ARC
  5
665
330
1F
100
AcDbEntity
  8
0
 62
     7
100
AcDbCircle
 10
10.493023
 20
166.649994
 30
0.0
 40
6.300000190734863
100
AcDbArc
 50
105.0
 51
135.0
  0
ARC
  5
666
330
1F
100
AcDbEntity
  8
0
 62
     7
100
AcDbCircle
 10
10.493023
 20
166.649994
 30
0.0
 40
6.300000190734863
100
AcDbArc
 50
345.000012
 51
15.0
  0
ARC
  5
667
330
1F
100
AcDbEntity
  8
0
 62
     7
100
AcDbCircle
 10
10.493023
 20
166.649994
 30
0.0
 40
6.300000190734863
100
AcDbArc
 50
302.661962
 51
314.999992
  0
ARC
  5
668
330
1F
100
AcDbEntity
  8
0
 62
     7
100
AcDbCircle
 10
10.493023
 20
166.649994
 30
0.0
 40
6.300000190734863
100
AcDbArc
 50
225.0
 51
237.338012
  0
ARC
  5
669
330
1F
100
AcDbEntity
  8
0
 62
     7
100
AcDbCircle
 10
10.493023
 20
166.649994
 30
0.0
 40
6.300000190734863
100
AcDbArc
 50
164.999994
 51
195.000006
  0
ARC
  5
66A
330
1F
100
AcDbEntity
  8
0
 62
     7
100
AcDbCircle
 10
10.493023
 20
166.649994
 30
0.0
 40
6.300000190734863
100
AcDbArc
 50
45.000001
 51
74.999999
  0
ARC
  5
66B
330
1F
100
AcDbEntity
  8
0
 62
     7
100
AcDbCircle
 10
10.493023
 20
166.649994
 30
0.0
 40
6.300000190734863
100
AcDbArc
 50
102.247215
 51
105.0
  0
ARC
  5
66C
330
1F
100
AcDbEntity
  8
0
 62
     7
100
AcDbCircle
 10
10.493023
 20
166.649994
 30
0.0
 40
6.300000190734863
100
AcDbArc
 50
135.0
 51
137.752785
  0
LINE
  5
66D
330
1F
100
AcDbEntity
  8
0
 62
     7
100
AcDbLine
 10
8.862465
 20
172.735321
 30
0.0
 11
9.010105
 21
173.286346
 31
0.0
  0
LINE
  5
66E
330
1F
100
AcDbEntity
  8
0
 62
     7
100
AcDbLine
 10
16.578358
 20
168.280548
 30
0.0
 11
16.98172
 21
168.683929
 31
0.0
  0
ARC
  5
66F
330
1F
100
AcDbEntity
  8
0
 62
     7
100
AcDbCircle
 10
10.493023
 20
166.649994
 30
0.0
 40
6.300000190734863
100
AcDbArc
 50
342.247199
 51
345.000012
  0
ARC
  5
670
330
1F
100
AcDbEntity
  8
0
 62
     7
100
AcDbCircle
 10
10.493023
 20
166.649994
 30
0.0
 40
6.300000190734863
100
AcDbArc
 50
15.0
 51
17.75279
  0
LINE
  5
671
330
1F
100
AcDbEntity
  8
0
 62
     7
100
AcDbLine
 10
16.578358
 20
165.01944
 30
0.0
 11
16.98172
 21
164.616089
 31
0.0
  0
LINE
  5
672
330
1F
100
AcDbEntity
  8
0
 62
     7
100
AcDbLine
 10
14.947796
 20
162.195221
 30
0.0
 11
15.498798
 21
162.047577
 31
0.0
  0
ARC
  5
673
330
1F
100
AcDbEntity
  8
0
 62
     7
100
AcDbCircle
 10
10.493023
 20
166.649994
 30
0.0
 40
6.300000190734863
100
AcDbArc
 50
314.999992
 51
317.752777
  0
ARC
  5
674
330
1F
100
AcDbEntity
  8
0
 62
     7
100
AcDbCircle
 10
10.493023
 20
166.649994
 30
0.0
 40
6.300000190734863
100
AcDbArc
 50
222.247215
 51
225.0
  0
LINE
  5
675
330
1F
100
AcDbEntity
  8
0
 62
     7
100
AcDbLine
 10
6.038252
 20
162.195221
 30
0.0
 11
5.487247
 21
162.047577
 31
0.0
  0
LINE
  5
676
330
1F
100
AcDbEntity
  8
0
 62
     7
100
AcDbLine
 10
4.407692
 20
165.01944
 30
0.0
 11
4.00433
 21
164.616089
 31
0.0
  0
ARC
  5
677
330
1F
100
AcDbEntity
  8
0
 62
     7
100
AcDbCircle
 10
10.493023
 20
166.649994
 30
0.0
 40
6.300000190734863
100
AcDbArc
 50
162.24721
 51
164.999994
  0
ARC
  5
678
330
1F
100
AcDbEntity
  8
0
 62
     7
100
AcDbCircle
 10
10.493023
 20
166.649994
 30
0.0
 40
6.300000190734863
100
AcDbArc
 50
195.000006
 51
197.75279
  0
LINE
  5
679
330
1F
100
AcDbEntity
  8
0
 62
     7
100
AcDbLine
 10
4.407692
 20
168.280548
 30
0.0
 11
4.00433
 21
168.683929
 31
0.0
  0
LINE
  5
67A
330
1F
100
AcDbEntity
  8
0
 62
     7
100
AcDbLine
 10
6.038252
 20
171.104767
 30
0.0
 11
5.487247
 21
171.252411
 31
0.0
  0
ARC
  5
67B
330
1F
100
AcDbEntity
  8
0
 62
     7
100
AcDbCircle
 10
10.493023
 20
166.649994
 30
0.0
 40
6.300000190734863
100
AcDbArc
 50
42.24721
 51
45.000001
  0
ARC
  5
67C
330
1F
100
AcDbEntity
  8
0
 62
     7
100
AcDbCircle
 10
10.493023
 20
166.649994
 30
0.0
 40
6.300000190734863
100
AcDbArc
 50
74.999999
 51
77.75279
  0
LINE
  5
67D
330
1F
100
AcDbEntity
  8
0
 62
     7
100
AcDbLine
 10
14.947796
 20
171.104767
 30
0.0
 11
15.498798
 21
171.252411
 31
0.0
  0
LINE
  5
67E
330
1F
100
AcDbEntity
  8
0
 62
     7
100
AcDbLine
 10
12.123585
 20
172.735321
 30
0.0
 11
11.975945
 21
173.286346
 31
0.0
  0
ARC
  5
67F
330
1F
100
AcDbEntity
  8
0
 62
     7
100
AcDbCircle
 10
10.493023
 20
166.649994
 30
0.0
 40
6.800000190734863
100
AcDbArc
 50
17.403926
 51
42.596075
  0
ARC
  5
680
330
1F
100
AcDbEntity
  8
0
 62
     7
100
AcDbCircle
 10
10.493023
 20
166.649994
 30
0.0
 40
6.800000190734863
100
AcDbArc
 50
77.403925
 51
102.596073
  0
ARC
  5
681
330
1F
100
AcDbEntity
  8
0
 62
     7
100
AcDbCircle
 10
10.493023
 20
166.649994
 30
0.0
 40
6.800000190734863
100
AcDbArc
 50
137.403926
 51
162.596068
  0
LINE
  5
682
330
1F
100
AcDbEntity
  8
0
 62
     7
100
AcDbLine
 10
9.156605
 20
172.80661
 30
0.0
 11
5.829444
 21
170.885681
 31
0.0
  0
ARC
  5
683
330
1F
100
AcDbEntity
  8
0
 62
     7
100
AcDbCircle
 10
10.493023
 20
166.649994
 30
0.0
 40
6.800000190734863
100
AcDbArc
 50
317.403918
 51
342.596085
  0
LINE
  5
684
330
1F
100
AcDbEntity
  8
0
 62
     7
100
AcDbLine
 10
16.493023
 20
164.729065
 30
0.0
 11
16.493023
 21
168.570923
 31
0.0
  0
LINE
  5
685
330
1F
100
AcDbEntity
  8
0
 62
     7
100
AcDbLine
 10
13.893101
 20
161.684845
 30
0.0
 11
15.156605
 21
162.414307
 31
0.0
  0
ARC
  5
686
330
1F
100
AcDbEntity
  8
0
 62
     7
100
AcDbCircle
 10
10.493023
 20
166.649994
 30
0.0
 40
6.800000190734863
100
AcDbArc
 50
197.403932
 51
222.596074
  0
LINE
  5
687
330
1F
100
AcDbEntity
  8
0
 62
     7
100
AcDbLine
 10
5.829444
 20
162.414307
 30
0.0
 11
7.092944
 21
161.684845
 31
0.0
  0
LINE
  5
688
330
1F
100
AcDbEntity
  8
0
 62
     7
100
AcDbLine
 10
4.493025
 20
168.570923
 30
0.0
 11
4.493025
 21
164.729065
 31
0.0
  0
LINE
  5
689
330
1F
100
AcDbEntity
  8
0
 62
     7
100
AcDbLine
 10
15.156605
 20
170.885681
 30
0.0
 11
11.829445
 21
172.80661
 31
0.0
  0
ARC
  5
68A
330
1F
100
AcDbEntity
  8
0
 62
     7
100
AcDbCircle
 10
10.493023
 20
166.649994
 30
0.0
 40
6.300000190734863
100
AcDbArc
 50
77.75279
 51
102.247215
  0
ARC
  5
68B
330
1F
100
AcDbEntity
  8
0
 62
     7
100
AcDbCircle
 10
10.493023
 20
166.649994
 30
0.0
 40
6.300000190734863
100
AcDbArc
 50
137.752785
 51
162.24721
  0
ARC
  5
68C
330
1F
100
AcDbEntity
  8
0
 62
     7
100
AcDbCircle
 10
10.493023
 20
166.649994
 30
0.0
 40
5.900000095367432
100
AcDbArc
 50
305.188613
 51
234.811389
  0
ARC
  5
68D
330
1F
100
AcDbEntity
  8
0
 62
     7
100
AcDbCircle
 10
10.493023
 20
166.649994
 30
0.0
 40
6.300000190734863
100
AcDbArc
 50
317.752777
 51
342.247199
  0
ARC
  5
68E
330
1F
100
AcDbEntity
  8
0
 62
     7
100
AcDbCircle
 10
10.493023
 20
166.649994
 30
0.0
 40
6.300000190734863
100
AcDbArc
 50
17.75279
 51
42.24721
  0
ARC
  5
68F
330
1F
100
AcDbEntity
  8
0
 62
     7
100
AcDbCircle
 10
10.493023
 20
166.649994
 30
0.0
 40
6.300000190734863
100
AcDbArc
 50
197.75279
 51
222.247215
  0
ARC
  5
690
330
1F
100
AcDbEntity
  8
0
 62
     7
100
AcDbCircle
 10
10.493023
 20
166.649994
 30
0.0
 40
7.0
100
AcDbArc
 50
299.059263
 51
61.352113
  0
POLYLINE
  5
691
330
1F
100
AcDbEntity
  8
0
 62
     7
100
AcDb2dPolyline
 66
     1
 10
0.0
 20
0.0
 30
0.0
  0
VERTEX
  5
692
330
691
100
AcDbEntity
  8
0
100
AcDbVertex
100
AcDb2dVertex
 10
204.199631
 20
84.309486
 30
0.0
  0
VERTEX
  5
693
330
691
100
AcDbEntity
  8
0
100
AcDbVertex
100
AcDb2dVertex
 10
203.739624
 20
84.874001
 30
0.0
  0
VERTEX
  5
694
330
691
100
AcDbEntity
  8
0
100
AcDbVertex
100
AcDb2dVertex
 10
203.049637
 20
85.115936
 30
0.0
  0
VERTEX
  5
695
330
691
100
AcDbEntity
  8
0
100
AcDbVertex
100
AcDb2dVertex
 10
202.359634
 20
85.115936
 30
0.0
  0
VERTEX
  5
696
330
691
100
AcDbEntity
  8
0
100
AcDbVertex
100
AcDb2dVertex
 10
201.669632
 20
84.874001
 30
0.0
  0
VERTEX
  5
697
330
691
100
AcDbEntity
  8
0
100
AcDbVertex
100
AcDb2dVertex
 10
201.209625
 20
84.228836
 30
0.0
  0
VERTEX
  5
698
330
691
100
AcDbEntity
  8
0
100
AcDbVertex
100
AcDb2dVertex
 10
201.209625
 20
83.664322
 30
0.0
  0
VERTEX
  5
699
330
691
100
AcDbEntity
  8
0
100
AcDbVertex
100
AcDb2dVertex
 10
201.612137
 20
83.099808
 30
0.0
  0
SEQEND
  5
69A
330
691
100
AcDbEntity
  8
0
 62
     7
  0
POLYLINE
  5
69B
330
1F
100
AcDbEntity
  8
0
 62
     7
100
AcDb2dPolyline
 66
     1
 10
0.0
 20
0.0
 30
0.0
  0
VERTEX
  5
69C
330
69B
100
AcDbEntity
  8
0
100
AcDbVertex
100
AcDb2dVertex
 10
202.704636
 20
82.696579
 30
0.0
  0
VERTEX
  5
69D
330
69B
100
AcDbEntity
  8
0
100
AcDbVertex
100
AcDb2dVertex
 10
203.222122
 20
82.535294
 30
0.0
  0
SEQEND
  5
69E
330
69B
100
AcDbEntity
  8
0
 62
     7
  0
POLYLINE
  5
69F
330
1F
100
AcDbEntity
  8
0
 62
     7
100
AcDb2dPolyline
 66
     1
 10
0.0
 20
0.0
 30
0.0
  0
VERTEX
  5
6A0
330
69F
100
AcDbEntity
  8
0
100
AcDbVertex
100
AcDb2dVertex
 10
203.739624
 20
80.277229
 30
0.0
  0
VERTEX
  5
6A1
330
69F
100
AcDbEntity
  8
0
100
AcDbVertex
100
AcDb2dVertex
 10
203.049637
 20
80.115936
 30
0.0
  0
VERTEX
  5
6A2
330
69F
100
AcDbEntity
  8
0
100
AcDbVertex
100
AcDb2dVertex
 10
202.359634
 20
80.115936
 30
0.0
  0
VERTEX
  5
6A3
330
69F
100
AcDbEntity
  8
0
100
AcDbVertex
100
AcDb2dVertex
 10
201.669632
 20
80.438515
 30
0.0
  0
VERTEX
  5
6A4
330
69F
100
AcDbEntity
  8
0
100
AcDbVertex
100
AcDb2dVertex
 10
201.209625
 20
81.003036
 30
0.0
  0
SEQEND
  5
6A5
330
69F
100
AcDbEntity
  8
0
 62
     7
  0
POLYLINE
  5
6A6
330
1F
100
AcDbEntity
  8
0
 62
     7
100
AcDb2dPolyline
 66
     1
 10
0.0
 20
0.0
 30
0.0
  0
VERTEX
  5
6A7
330
6A6
100
AcDbEntity
  8
0
100
AcDbVertex
100
AcDb2dVertex
 10
202.244629
 20
82.777229
 30
0.0
  0
VERTEX
  5
6A8
330
6A6
100
AcDbEntity
  8
0
100
AcDbVertex
100
AcDb2dVertex
 10
202.704636
 20
82.696579
 30
0.0
  0
SEQEND
  5
6A9
330
6A6
100
AcDbEntity
  8
0
 62
     7
  0
POLYLINE
  5
6AA
330
1F
100
AcDbEntity
  8
0
 62
     7
100
AcDb2dPolyline
 66
     1
 10
0.0
 20
0.0
 30
0.0
  0
VERTEX
  5
6AB
330
6AA
100
AcDbEntity
  8
0
100
AcDbVertex
100
AcDb2dVertex
 10
201.612137
 20
83.099808
 30
0.0
  0
VERTEX
  5
6AC
330
6AA
100
AcDbEntity
  8
0
100
AcDbVertex
100
AcDb2dVertex
 10
202.244629
 20
82.777229
 30
0.0
  0
SEQEND
  5
6AD
330
6AA
100
AcDbEntity
  8
0
 62
     7
  0
POLYLINE
  5
6AE
330
1F
100
AcDbEntity
  8
0
 62
     7
100
AcDb2dPolyline
 66
     1
 10
0.0
 20
0.0
 30
0.0
  0
VERTEX
  5
6AF
330
6AE
100
AcDbEntity
  8
0
100
AcDbVertex
100
AcDb2dVertex
 10
204.199631
 20
80.922386
 30
0.0
  0
VERTEX
  5
6B0
330
6AE
100
AcDbEntity
  8
0
100
AcDbVertex
100
AcDb2dVertex
 10
203.739624
 20
80.277229
 30
0.0
  0
SEQEND
  5
6B1
330
6AE
100
AcDbEntity
  8
0
 62
     7
  0
POLYLINE
  5
6B2
330
1F
100
AcDbEntity
  8
0
 62
     7
100
AcDb2dPolyline
 66
     1
 10
0.0
 20
0.0
 30
0.0
  0
VERTEX
  5
6B3
330
6B2
100
AcDbEntity
  8
0
100
AcDbVertex
100
AcDb2dVertex
 10
204.199631
 20
81.648193
 30
0.0
  0
VERTEX
  5
6B4
330
6B2
100
AcDbEntity
  8
0
100
AcDbVertex
100
AcDb2dVertex
 10
204.199631
 20
80.922386
 30
0.0
  0
SEQEND
  5
6B5
330
6B2
100
AcDbEntity
  8
0
 62
     7
  0
POLYLINE
  5
6B6
330
1F
100
AcDbEntity
  8
0
 62
     7
100
AcDb2dPolyline
 66
     1
 10
0.0
 20
0.0
 30
0.0
  0
VERTEX
  5
6B7
330
6B6
100
AcDbEntity
  8
0
100
AcDbVertex
100
AcDb2dVertex
 10
203.222122
 20
82.535294
 30
0.0
  0
VERTEX
  5
6B8
330
6B6
100
AcDbEntity
  8
0
100
AcDbVertex
100
AcDb2dVertex
 10
203.739624
 20
82.212708
 30
0.0
  0
VERTEX
  5
6B9
330
6B6
100
AcDbEntity
  8
0
100
AcDbVertex
100
AcDb2dVertex
 10
204.199631
 20
81.648193
 30
0.0
  0
SEQEND
  5
6BA
330
6B6
100
AcDbEntity
  8
0
 62
     7
  0
POLYLINE
  5
6BB
330
1F
100
AcDbEntity
  8
0
 62
     7
100
AcDb2dPolyline
 66
     1
 10
0.0
 20
0.0
 30
0.0
  0
VERTEX
  5
6BC
330
6BB
100
AcDbEntity
  8
0
100
AcDbVertex
100
AcDb2dVertex
 10
207.114624
 20
85.115936
 30
0.0
  0
VERTEX
  5
6BD
330
6BB
100
AcDbEntity
  8
0
100
AcDbVertex
100
AcDb2dVertex
 10
205.159622
 20
85.115936
 30
0.0
  0
SEQEND
  5
6BE
330
6BB
100
AcDbEntity
  8
0
 62
     7
  0
POLYLINE
  5
6BF
330
1F
100
AcDbEntity
  8
0
 62
     7
100
AcDb2dPolyline
 66
     1
 10
0.0
 20
0.0
 30
0.0
  0
VERTEX
  5
6C0
330
6BF
100
AcDbEntity
  8
0
100
AcDbVertex
100
AcDb2dVertex
 10
205.159622
 20
82.696579
 30
0.0
  0
VERTEX
  5
6C1
330
6BF
100
AcDbEntity
  8
0
100
AcDbVertex
100
AcDb2dVertex
 10
207.22963
 20
82.696579
 30
0.0
  0
SEQEND
  5
6C2
330
6BF
100
AcDbEntity
  8
0
 62
     7
  0
POLYLINE
  5
6C3
330
1F
100
AcDbEntity
  8
0
 62
     7
100
AcDb2dPolyline
 66
     1
 10
0.0
 20
0.0
 30
0.0
  0
VERTEX
  5
6C4
330
6C3
100
AcDbEntity
  8
0
100
AcDbVertex
100
AcDb2dVertex
 10
205.159622
 20
85.115936
 30
0.0
  0
VERTEX
  5
6C5
330
6C3
100
AcDbEntity
  8
0
100
AcDbVertex
100
AcDb2dVertex
 10
205.159622
 20
80.115936
 30
0.0
  0
SEQEND
  5
6C6
330
6C3
100
AcDbEntity
  8
0
 62
     7
  0
POLYLINE
  5
6C7
330
1F
100
AcDbEntity
  8
0
 62
     7
100
AcDb2dPolyline
 66
     1
 10
0.0
 20
0.0
 30
0.0
  0
VERTEX
  5
6C8
330
6C7
100
AcDbEntity
  8
0
100
AcDbVertex
100
AcDb2dVertex
 10
207.114624
 20
85.115936
 30
0.0
  0
VERTEX
  5
6C9
330
6C7
100
AcDbEntity
  8
0
100
AcDbVertex
100
AcDb2dVertex
 10
207.517136
 20
84.874001
 30
0.0
  0
VERTEX
  5
6CA
330
6C7
100
AcDbEntity
  8
0
100
AcDbVertex
100
AcDb2dVertex
 10
207.919632
 20
84.309486
 30
0.0
  0
VERTEX
  5
6CB
330
6C7
100
AcDbEntity
  8
0
100
AcDbVertex
100
AcDb2dVertex
 10
207.919632
 20
83.503036
 30
0.0
  0
VERTEX
  5
6CC
330
6C7
100
AcDbEntity
  8
0
100
AcDbVertex
100
AcDb2dVertex
 10
207.632126
 20
83.019165
 30
0.0
  0
VERTEX
  5
6CD
330
6C7
100
AcDbEntity
  8
0
100
AcDbVertex
100
AcDb2dVertex
 10
207.22963
 20
82.696579
 30
0.0
  0
SEQEND
  5
6CE
330
6C7
100
AcDbEntity
  8
0
 62
     7
  0
POLYLINE
  5
6CF
330
1F
100
AcDbEntity
  8
0
 62
     7
100
AcDb2dPolyline
 66
     1
 10
0.0
 20
0.0
 30
0.0
  0
VERTEX
  5
6D0
330
6CF
100
AcDbEntity
  8
0
100
AcDbVertex
100
AcDb2dVertex
 10
206.769623
 20
82.696579
 30
0.0
  0
VERTEX
  5
6D1
330
6CF
100
AcDbEntity
  8
0
100
AcDbVertex
100
AcDb2dVertex
 10
207.919632
 20
80.115936
 30
0.0
  0
SEQEND
  5
6D2
330
6CF
100
AcDbEntity
  8
0
 62
     7
  0
POLYLINE
  5
6D3
330
1F
100
AcDbEntity
  8
0
 62
     7
100
AcDb2dPolyline
 66
     1
 10
0.0
 20
0.0
 30
0.0
  0
VERTEX
  5
6D4
330
6D3
100
AcDbEntity
  8
0
100
AcDbVertex
100
AcDb2dVertex
 10
211.984634
 20
80.115936
 30
0.0
  0
VERTEX
  5
6D5
330
6D3
100
AcDbEntity
  8
0
100
AcDbVertex
100
AcDb2dVertex
 10
209.224625
 20
80.115936
 30
0.0
  0
VERTEX
  5
6D6
330
6D3
100
AcDbEntity
  8
0
100
AcDbVertex
100
AcDb2dVertex
 10
211.179626
 20
82.374001
 30
0.0
  0
VERTEX
  5
6D7
330
6D3
100
AcDbEntity
  8
0
100
AcDbVertex
100
AcDb2dVertex
 10
211.582123
 20
83.019165
 30
0.0
  0
VERTEX
  5
6D8
330
6D3
100
AcDbEntity
  8
0
100
AcDbVertex
100
AcDb2dVertex
 10
211.754623
 20
83.503036
 30
0.0
  0
VERTEX
  5
6D9
330
6D3
100
AcDbEntity
  8
0
100
AcDbVertex
100
AcDb2dVertex
 10
211.754623
 20
83.9869
 30
0.0
  0
VERTEX
  5
6DA
330
6D3
100
AcDbEntity
  8
0
100
AcDbVertex
100
AcDb2dVertex
 10
211.582123
 20
84.551422
 30
0.0
  0
VERTEX
  5
6DB
330
6D3
100
AcDbEntity
  8
0
100
AcDbVertex
100
AcDb2dVertex
 10
211.409637
 20
84.874001
 30
0.0
  0
VERTEX
  5
6DC
330
6D3
100
AcDbEntity
  8
0
100
AcDbVertex
100
AcDb2dVertex
 10
211.007126
 20
85.115936
 30
0.0
  0
VERTEX
  5
6DD
330
6D3
100
AcDbEntity
  8
0
100
AcDbVertex
100
AcDb2dVertex
 10
210.317123
 20
85.115936
 30
0.0
  0
VERTEX
  5
6DE
330
6D3
100
AcDbEntity
  8
0
100
AcDbVertex
100
AcDb2dVertex
 10
209.914627
 20
84.874001
 30
0.0
  0
VERTEX
  5
6DF
330
6D3
100
AcDbEntity
  8
0
100
AcDbVertex
100
AcDb2dVertex
 10
209.742126
 20
84.632065
 30
0.0
  0
VERTEX
  5
6E0
330
6D3
100
AcDbEntity
  8
0
100
AcDbVertex
100
AcDb2dVertex
 10
209.512131
 20
84.148193
 30
0.0
  0
VERTEX
  5
6E1
330
6D3
100
AcDbEntity
  8
0
100
AcDbVertex
100
AcDb2dVertex
 10
209.512131
 20
83.906258
 30
0.0
  0
SEQEND
  5
6E2
330
6D3
100
AcDbEntity
  8
0
 62
     7
  0
POLYLINE
  5
6E3
330
1F
100
AcDbEntity
  8
0
 62
     7
100
AcDb2dPolyline
 66
     1
 10
0.0
 20
0.0
 30
0.0
  0
VERTEX
  5
6E4
330
6E3
100
AcDbEntity
  8
0
100
AcDbVertex
100
AcDb2dVertex
 10
215.819626
 20
81.890129
 30
0.0
  0
VERTEX
  5
6E5
330
6E3
100
AcDbEntity
  8
0
100
AcDbVertex
100
AcDb2dVertex
 10
213.174622
 20
81.890129
 30
0.0
  0
VERTEX
  5
6E6
330
6E3
100
AcDbEntity
  8
0
100
AcDbVertex
100
AcDb2dVertex
 10
215.129623
 20
85.115936
 30
0.0
  0
VERTEX
  5
6E7
330
6E3
100
AcDbEntity
  8
0
100
AcDbVertex
100
AcDb2dVertex
 10
215.129623
 20
82.696579
 30
0.0
  0
VERTEX
  5
6E8
330
6E3
100
AcDbEntity
  8
0
100
AcDbVertex
100
AcDb2dVertex
 10
215.129623
 20
80.115936
 30
0.0
  0
SEQEND
  5
6E9
330
6E3
100
AcDbEntity
  8
0
 62
     7
  0
POLYLINE
  5
6EA
330
1F
100
AcDbEntity
  8
0
 62
     7
100
AcDb2dPolyline
 66
     1
 10
0.0
 20
0.0
 30
0.0
  0
VERTEX
  5
6EB
330
6EA
100
AcDbEntity
  8
0
100
AcDbVertex
100
AcDb2dVertex
 10
217.297134
 20
82.132065
 30
0.0
  0
VERTEX
  5
6EC
330
6EA
100
AcDbEntity
  8
0
100
AcDbVertex
100
AcDb2dVertex
 10
219.942123
 20
82.132065
 30
0.0
  0
SEQEND
  5
6ED
330
6EA
100
AcDbEntity
  8
0
 62
     7
  0
POLYLINE
  5
6EE
330
1F
100
AcDbEntity
  8
0
 62
     7
100
AcDb2dPolyline
 66
     1
 10
0.0
 20
0.0
 30
0.0
 70
     1
  0
VERTEX
  5
6EF
330
6EE
100
AcDbEntity
  8
0
100
AcDbVertex
100
AcDb2dVertex
 10
222.224625
 20
85.115936
 30
0.0
  0
VERTEX
  5
6F0
330
6EE
100
AcDbEntity
  8
0
100
AcDbVertex
100
AcDb2dVertex
 10
221.592133
 20
84.874001
 30
0.0
  0
VERTEX
  5
6F1
330
6EE
100
AcDbEntity
  8
0
100
AcDbVertex
100
AcDb2dVertex
 10
221.189636
 20
84.067551
 30
0.0
  0
VERTEX
  5
6F2
330
6EE
100
AcDbEntity
  8
0
100
AcDbVertex
100
AcDb2dVertex
 10
221.01712
 20
83.261101
 30
0.0
  0
VERTEX
  5
6F3
330
6EE
100
AcDbEntity
  8
0
100
AcDbVertex
100
AcDb2dVertex
 10
221.01712
 20
82.212708
 30
0.0
  0
VERTEX
  5
6F4
330
6EE
100
AcDbEntity
  8
0
100
AcDbVertex
100
AcDb2dVertex
 10
221.189636
 20
81.164322
 30
0.0
  0
VERTEX
  5
6F5
330
6EE
100
AcDbEntity
  8
0
100
AcDbVertex
100
AcDb2dVertex
 10
221.592133
 20
80.357872
 30
0.0
  0
VERTEX
  5
6F6
330
6EE
100
AcDbEntity
  8
0
100
AcDbVertex
100
AcDb2dVertex
 10
222.224625
 20
80.115936
 30
0.0
  0
VERTEX
  5
6F7
330
6EE
100
AcDbEntity
  8
0
100
AcDbVertex
100
AcDb2dVertex
 10
222.684631
 20
80.115936
 30
0.0
  0
VERTEX
  5
6F8
330
6EE
100
AcDbEntity
  8
0
100
AcDbVertex
100
AcDb2dVertex
 10
223.317123
 20
80.357872
 30
0.0
  0
VERTEX
  5
6F9
330
6EE
100
AcDbEntity
  8
0
100
AcDbVertex
100
AcDb2dVertex
 10
223.719635
 20
81.164322
 30
0.0
  0
VERTEX
  5
6FA
330
6EE
100
AcDbEntity
  8
0
100
AcDbVertex
100
AcDb2dVertex
 10
223.89212
 20
82.132065
 30
0.0
  0
VERTEX
  5
6FB
330
6EE
100
AcDbEntity
  8
0
100
AcDbVertex
100
AcDb2dVertex
 10
223.89212
 20
83.261101
 30
0.0
  0
VERTEX
  5
6FC
330
6EE
100
AcDbEntity
  8
0
100
AcDbVertex
100
AcDb2dVertex
 10
223.719635
 20
84.067551
 30
0.0
  0
VERTEX
  5
6FD
330
6EE
100
AcDbEntity
  8
0
100
AcDbVertex
100
AcDb2dVertex
 10
223.317123
 20
84.874001
 30
0.0
  0
VERTEX
  5
6FE
330
6EE
100
AcDbEntity
  8
0
100
AcDbVertex
100
AcDb2dVertex
 10
222.684631
 20
85.115936
 30
0.0
  0
SEQEND
  5
6FF
330
6EE
100
AcDbEntity
  8
0
 62
     7
  0
POLYLINE
  5
700
330
1F
100
AcDbEntity
  8
0
 62
     7
100
AcDb2dPolyline
 66
     1
 10
0.0
 20
0.0
 30
0.0
  0
VERTEX
  5
701
330
700
100
AcDbEntity
  8
0
100
AcDbVertex
100
AcDb2dVertex
 10
225.887131
 20
84.470772
 30
0.0
  0
VERTEX
  5
702
330
700
100
AcDbEntity
  8
0
100
AcDbVertex
100
AcDb2dVertex
 10
226.519623
 20
85.115936
 30
0.0
  0
VERTEX
  5
703
330
700
100
AcDbEntity
  8
0
100
AcDbVertex
100
AcDb2dVertex
 10
226.519623
 20
80.115936
 30
0.0
  0
SEQEND
  5
704
330
700
100
AcDbEntity
  8
0
 62
     7
  0
POLYLINE
  5
705
330
1F
100
AcDbEntity
  8
0
 62
     7
100
AcDb2dPolyline
 66
     1
 10
0.0
 20
0.0
 30
0.0
  0
VERTEX
  5
706
330
705
100
AcDbEntity
  8
0
100
AcDbVertex
100
AcDb2dVertex
 10
225.54213
 20
84.228836
 30
0.0
  0
VERTEX
  5
707
330
705
100
AcDbEntity
  8
0
100
AcDbVertex
100
AcDb2dVertex
 10
225.887131
 20
84.470772
 30
0.0
  0
SEQEND
  5
708
330
705
100
AcDbEntity
  8
0
 62
     7
  0
POLYLINE
  5
709
330
1F
100
AcDbEntity
  8
0
 62
     7
100
AcDb2dPolyline
 66
     1
 10
0.0
 20
0.0
 30
0.0
  0
VERTEX
  5
70A
330
709
100
AcDbEntity
  8
0
100
AcDbVertex
100
AcDb2dVertex
 10
231.734634
 20
80.115936
 30
0.0
  0
VERTEX
  5
70B
330
709
100
AcDbEntity
  8
0
100
AcDbVertex
100
AcDb2dVertex
 10
228.974625
 20
80.115936
 30
0.0
  0
VERTEX
  5
70C
330
709
100
AcDbEntity
  8
0
100
AcDbVertex
100
AcDb2dVertex
 10
230.929626
 20
82.374001
 30
0.0
  0
VERTEX
  5
70D
330
709
100
AcDbEntity
  8
0
100
AcDbVertex
100
AcDb2dVertex
 10
231.332123
 20
83.019165
 30
0.0
  0
VERTEX
  5
70E
330
709
100
AcDbEntity
  8
0
100
AcDbVertex
100
AcDb2dVertex
 10
231.504623
 20
83.503036
 30
0.0
  0
VERTEX
  5
70F
330
709
100
AcDbEntity
  8
0
100
AcDbVertex
100
AcDb2dVertex
 10
231.504623
 20
83.9869
 30
0.0
  0
VERTEX
  5
710
330
709
100
AcDbEntity
  8
0
100
AcDbVertex
100
AcDb2dVertex
 10
231.332123
 20
84.551422
 30
0.0
  0
VERTEX
  5
711
330
709
100
AcDbEntity
  8
0
100
AcDbVertex
100
AcDb2dVertex
 10
231.159637
 20
84.874001
 30
0.0
  0
VERTEX
  5
712
330
709
100
AcDbEntity
  8
0
100
AcDbVertex
100
AcDb2dVertex
 10
230.757126
 20
85.115936
 30
0.0
  0
VERTEX
  5
713
330
709
100
AcDbEntity
  8
0
100
AcDbVertex
100
AcDb2dVertex
 10
230.067123
 20
85.115936
 30
0.0
  0
VERTEX
  5
714
330
709
100
AcDbEntity
  8
0
100
AcDbVertex
100
AcDb2dVertex
 10
229.664627
 20
84.874001
 30
0.0
  0
VERTEX
  5
715
330
709
100
AcDbEntity
  8
0
100
AcDbVertex
100
AcDb2dVertex
 10
229.492126
 20
84.632065
 30
0.0
  0
VERTEX
  5
716
330
709
100
AcDbEntity
  8
0
100
AcDbVertex
100
AcDb2dVertex
 10
229.262131
 20
84.148193
 30
0.0
  0
VERTEX
  5
717
330
709
100
AcDbEntity
  8
0
100
AcDbVertex
100
AcDb2dVertex
 10
229.262131
 20
83.906258
 30
0.0
  0
SEQEND
  5
718
330
709
100
AcDbEntity
  8
0
 62
     7
  0
ENDSEC
  0
SECTION
  2
OBJECTS
  0
DICTIONARY
  5
C
330
0
100
AcDbDictionary
  3
ACAD_GROUP
350
D
  3
ACAD_MLINESTYLE
350
17
  3
ACAD_SCALELIST
350
47
  0
DICTIONARY
  5
D
102
{ACAD_REACTORS
330
C
102
}
330
C
100
AcDbDictionary
  0
DICTIONARY
  5
17
102
{ACAD_REACTORS
330
C
102
}
330
C
100
AcDbDictionary
  3
STANDARD
350
18
  0
DICTIONARY
  5
47
102
{ACAD_REACTORS
330
C
102
}
330
C
100
AcDbDictionary
  0
MLINESTYLE
  5
18
102
{ACAD_REACTORS
330
17
102
}
330
17
100
AcDbMlineStyle
  2
Standard
 70
     0
  3

 62
   256
 51
90.0
 52
90.0
 71
     2
 49
0.5
 62
   256
  6
BYLAYER
 49
-0.5
 62
   256
  6
BYLAYER
  0
ENDSEC
  0
EOF
