  0
SECTION
  2
HEADER
  9
$ACADVER
  1
AC1014
  9
$ACADMAINTVER
 70
     9
  9
$DWGCODEPAGE
  3
ANSI_1252
  9
$INSBASE
 10
0.0
 20
0.0
 30
0.0
  9
$EXTMIN
 10
0.0
 20
0.0
 30
0.0
  9
$EXTMAX
 10
297.597046
 20
171.850006
 30
2.0
  9
$LIMMIN
 10
0.0
 20
0.0
  9
$LIMMAX
 10
420.0
 20
297.0
  9
$ORTHOMODE
 70
     0
  9
$REGENMODE
 70
     1
  9
$FILLMODE
 70
     1
  9
$QTEXTMODE
 70
     0
  9
$MIRRTEXT
 70
     1
  9
$DRAGMODE
 70
     2
  9
$LTSCALE
 40
1.0
  9
$OSMODE
 70
     0
  9
$ATTMODE
 70
     1
  9
$TEXTSIZE
 40
2.5
  9
$TRACEWID
 40
1.0
  9
$TEXTSTYLE
  7
STANDARD
  9
$CLAYER
  8
0
  9
$CELTYPE
  6
BYLAYER
  9
$CECOLOR
 62
   256
  9
$CELTSCALE
 40
1.0
  9
$DELOBJ
 70
     1
  9
$DISPSILH
 70
     0
  9
$DIMSCALE
 40
1.0
  9
$DIMASZ
 40
2.5
  9
$DIMEXO
 40
0.625
  9
$DIMDLI
 40
3.75
  9
$DIMRND
 40
0.0
  9
$DIMDLE
 40
0.0
  9
$DIMEXE
 40
1.25
  9
$DIMTP
 40
0.0
  9
$DIMTM
 40
0.0
  9
$DIMTXT
 40
2.5
  9
$DIMCEN
 40
2.5
  9
$DIMTSZ
 40
0.0
  9
$DIMTOL
 70
     0
  9
$DIMLIM
 70
     0
  9
$DIMTIH
 70
     0
  9
$DIMTOH
 70
     0
  9
$DIMSE1
 70
     0
  9
$DIMSE2
 70
     0
  9
$DIMTAD
 70
     1
  9
$DIMZIN
 70
     8
  9
$DIMBLK
  1

  9
$DIMASO
 70
     1
  9
$DIMSHO
 70
     1
  9
$DIMPOST
  1

  9
$DIMAPOST
  1

  9
$DIMALT
 70
     0
  9
$DIMALTD
 70
     3
  9
$DIMALTF
 40
0.03937
  9
$DIMLFAC
 40
1.0
  9
$DIMTOFL
 70
     1
  9
$DIMTVP
 40
0.0
  9
$DIMTIX
 70
     0
  9
$DIMSOXD
 70
     0
  9
$DIMSAH
 70
     0
  9
$DIMBLK1
  1

  9
$DIMBLK2
  1

  9
$DIMSTYLE
  2
STANDARD
  9
$DIMCLRD
 70
     0
  9
$DIMCLRE
 70
     0
  9
$DIMCLRT
 70
     0
  9
$DIMTFAC
 40
1.0
  9
$DIMGAP
 40
0.625
  9
$DIMJUST
 70
     0
  9
$DIMSD1
 70
     0
  9
$DIMSD2
 70
     0
  9
$DIMTOLJ
 70
     0
  9
$DIMTZIN
 70
     8
  9
$DIMALTZ
 70
     0
  9
$DIMALTTZ
 70
     0
  9
$DIMFIT
 70
     0
  9
$DIMUPT
 70
     0
  9
$DIMUNIT
 70
     2
  9
$DIMDEC
 70
     2
  9
$DIMTDEC
 70
     2
  9
$DIMALTU
 70
     2
  9
$DIMALTTD
 70
     3
  9
$DIMTXSTY
  7
STANDARD
  9
$DIMAUNIT
 70
     0
  9
$LUNITS
 70
     2
  9
$LUPREC
 70
     4
  9
$SKETCHINC
 40
1.0
  9
$FILLETRAD
 40
2.5
  9
$AUNITS
 70
     0
  9
$AUPREC
 70
     0
  9
$MENU
  1
.
  9
$ELEVATION
 40
0.0
  9
$PELEVATION
 40
0.0
  9
$THICKNESS
 40
0.0
  9
$LIMCHECK
 70
     0
  9
$BLIPMODE
 70
     1
  9
$CHAMFERA
 40
2.5
  9
$CHAMFERB
 40
2.5
  9
$CHAMFERC
 40
0.0
  9
$CHAMFERD
 40
0.0
  9
$SKPOLY
 70
     0
  9
$TDCREATE
 40
2447893.375
  9
$TDUPDATE
 40
2460350.621709919
  9
$TDINDWG
 40
0.0
  9
$TDUSRTIMER
 40
0.0
  9
$USRTIMER
 70
     1
  9
$ANGBASE
 50
0.0
  9
$ANGDIR
 70
     0
  9
$PDMODE
 70
     0
  9
$PDSIZE
 40
0.0
  9
$PLINEWID
 40
0.0
  9
$COORDS
 70
     0
  9
$SPLFRAME
 70
     0
  9
$SPLINETYPE
 70
     6
  9
$SPLINESEGS
 70
     8
  9
$ATTDIA
 70
     0
  9
$ATTREQ
 70
     1
  9
$HANDLING
 70
     1
  9
$HANDSEED
  5
6E2
  9
$SURFTAB1
 70
     6
  9
$SURFTAB2
 70
     6
  9
$SURFTYPE
 70
     6
  9
$SURFU
 70
     6
  9
$SURFV
 70
     6
  9
$UCSNAME
  2

  9
$UCSORG
 10
0.0
 20
0.0
 30
0.0
  9
$UCSXDIR
 10
1.0
 20
0.0
 30
0.0
  9
$UCSYDIR
 10
0.0
 20
1.0
 30
0.0
  9
$PUCSNAME
  2

  9
$PUCSORG
 10
0.0
 20
0.0
 30
0.0
  9
$PUCSXDIR
 10
1.0
 20
0.0
 30
0.0
  9
$PUCSYDIR
 10
0.0
 20
1.0
 30
0.0
  9
$USERI1
 70
     0
  9
$USERI2
 70
     0
  9
$USERI3
 70
     0
  9
$USERI4
 70
     0
  9
$USERI5
 70
     0
  9
$USERR1
 40
0.0
  9
$USERR2
 40
0.0
  9
$USERR3
 40
0.0
  9
$USERR4
 40
0.0
  9
$USERR5
 40
0.0
  9
$WORLDVIEW
 70
     1
  9
$SHADEDGE
 70
     3
  9
$SHADEDIF
 70
    70
  9
$TILEMODE
 70
     1
  9
$MAXACTVP
 70
    64
  9
$PINSBASE
 10
0.0
 20
0.0
 30
0.0
  9
$PLIMCHECK
 70
     0
  9
$PEXTMIN
 10
0.0
 20
0.0
 30
0.0
  9
$PEXTMAX
 10
297.597046
 20
171.850006
 30
2.0
  9
$PLIMMIN
 10
0.0
 20
0.0
  9
$PLIMMAX
 10
420.0
 20
297.0
  9
$UNITMODE
 70
     0
  9
$VISRETAIN
 70
     0
  9
$PLINEGEN
 70
     0
  9
$PSLTSCALE
 70
     1
  9
$TREEDEPTH
 70
  3020
  9
$PICKSTYLE
 70
     1
  9
$CMLSTYLE
  2
STANDARD
  9
$CMLJUST
 70
     0
  9
$CMLSCALE
 40
20.0
  9
$PROXYGRAPHICS
 70
     1
  9
$MEASUREMENT
 70
     1
  0
ENDSEC
  0
SECTION
  2
CLASSES
  0
CLASS
  1
ACDBDICTIONARYWDFLT
  2
AcDbDictionaryWithDefault
  3
ObjectDBX Classes
 90
        0
280
     0
281
     0
  0
CLASS
  1
VISUALSTYLE
  2
AcDbVisualStyle
  3
ObjectDBX Classes
 90
     4095
280
     0
281
     0
  0
CLASS
  1
MATERIAL
  2
AcDbMaterial
  3
ObjectDBX Classes
 90
     1153
280
     0
281
     0
  0
CLASS
  1
SCALE
  2
AcDbScale
  3
ObjectDBX Classes
 90
     1153
280
     0
281
     0
  0
CLASS
  1
SUN
  2
AcDbSun
  3
SCENEOE
 90
     1153
280
     0
281
     0
  0
CLASS
  1
XRECORD
  2
AcDbXrecord
  3
ObjectDBX Classes
 90
        0
280
     0
281
     0
  0
CLASS
  1
LWPOLYLINE
  2
AcDbPolyline
  3
ObjectDBX Classes
 90
        0
280
     0
281
     1
  0
CLASS
  1
HATCH
  2
AcDbHatch
  3
ObjectDBX Classes
 90
        0
280
     0
281
     1
  0
ENDSEC
  0
SECTION
  2
TABLES
  0
TABLE
  2
VPORT
  5
8
330
0
100
AcDbSymbolTable
 70
     1
  0
VPORT
  5
29
330
8
100
AcDbSymbolTableRecord
100
AcDbViewportTableRecord
  2
*ACTIVE
 70
     0
 10
0.0
 20
0.0
 11
1.0
 21
1.0
 12
10.429907
 22
4.5
 13
0.0
 23
0.0
 14
0.5
 24
0.5
 15
0.5
 25
0.5
 16
0.0
 26
0.0
 36
1.0
 17
0.0
 27
0.0
 37
0.0
 40
9.0
 41
1.972973
 42
50.0
 43
0.0
 44
0.0
 50
0.0
 51
0.0
 71
     0
 72
   100
 73
     1
 74
     3
 75
     0
 76
     0
 77
     0
 78
     0
  0
ENDTAB
  0
TABLE
  2
LTYPE
  5
5
330
0
100
AcDbSymbolTable
 70
     1
  0
LTYPE
  5
14
330
5
100
AcDbSymbolTableRecord
100
AcDbLinetypeTableRecord
  2
BYBLOCK
 70
     0
  3

 72
    65
 73
     0
 40
0.0
  0
LTYPE
  5
15
330
5
100
AcDbSymbolTableRecord
100
AcDbLinetypeTableRecord
  2
BYLAYER
 70
     0
  3

 72
    65
 73
     0
 40
0.0
  0
LTYPE
  5
16
330
5
100
AcDbSymbolTableRecord
100
AcDbLinetypeTableRecord
  2
CONTINUOUS
 70
     0
  3
Solid line
 72
    65
 73
     0
 40
0.0
  0
ENDTAB
  0
TABLE
  2
LAYER
  5
2
330
0
100
AcDbSymbolTable
 70
     1
  0
LAYER
  5
10
330
2
100
AcDbSymbolTableRecord
100
AcDbLayerTableRecord
  2
0
 70
     0
 62
     7
  6
CONTINUOUS
  0
ENDTAB
  0
TABLE
  2
STYLE
  5
3
330
0
100
AcDbSymbolTable
 70
     1
  0
STYLE
  5
11
330
3
100
AcDbSymbolTableRecord
100
AcDbTextStyleTableRecord
  2
STANDARD
 70
     0
 40
0.0
 41
1.0
 50
0.0
 71
     0
 42
2.5
  3
txt
  4

  0
ENDTAB
  0
TABLE
  2
VIEW
  5
6
330
0
100
AcDbSymbolTable
 70
     0
  0
ENDTAB
  0
TABLE
  2
UCS
  5
7
330
0
100
AcDbSymbolTable
 70
     0
  0
ENDTAB
  0
TABLE
  2
APPID
  5
9
330
0
100
AcDbSymbolTable
 70
     1
  0
APPID
  5
12
330
9
100
AcDbSymbolTableRecord
100
AcDbRegAppTableRecord
  2
ACAD
 70
     0
  0
ENDTAB
  0
TABLE
  2
DIMSTYLE
  5
A
330
0
100
AcDbSymbolTable
 70
     1
  0
DIMSTYLE
105
27
330
A
100
AcDbSymbolTableRecord
100
AcDbDimStyleTableRecord
  2
STANDARD
 70
     0
  3

  4

  5

  6

  7

 40
1.0
 41
0.18
 42
0.0625
 43
0.38
 44
0.18
 45
0.0
 46
0.0
 47
0.0
 48
0.0
140
0.18
141
0.09
142
0.0
143
25.4
144
1.0
145
0.0
146
1.0
147
0.09
 71
     0
 72
     0
 73
     1
 74
     1
 75
     0
 76
     0
 77
     0
 78
     0
170
     0
171
     2
172
     0
173
     0
174
     0
175
     0
176
     0
177
     0
178
     0
270
     2
271
     4
272
     4
273
     2
274
     2
340
11
275
     0
280
     0
281
     0
282
     0
283
     1
284
     0
285
     0
286
     0
287
     3
288
     0
  0
ENDTAB
  0
TABLE
  2
BLOCK_RECORD
  5
1
330
0
100
AcDbSymbolTable
 70
     1
  0
BLOCK_RECORD
  5
1F
330
1
100
AcDbSymbolTableRecord
100
AcDbBlockTableRecord
  2
*MODEL_SPACE
  0
BLOCK_RECORD
  5
1B
330
1
100
AcDbSymbolTableRecord
100
AcDbBlockTableRecord
  2
*PAPER_SPACE
  0
BLOCK_RECORD
  5
23
330
1
100
AcDbSymbolTableRecord
100
AcDbBlockTableRecord
  2
*PAPER_SPACE0
  0
ENDTAB
  0
ENDSEC
  0
SECTION
  2
BLOCKS
  0
BLOCK
  5
20
330
1F
100
AcDbEntity
  8
0
100
AcDbBlockBegin
  2
*MODEL_SPACE
 70
     0
 10
0.0
 20
0.0
 30
0.0
  3
*MODEL_SPACE
  1

  0
ENDBLK
  5
21
330
1F
100
AcDbEntity
  8
0
100
AcDbBlockEnd
  0
BLOCK
  5
1C
330
1B
100
AcDbEntity
 67
     1
  8
0
100
AcDbBlockBegin
  2
*PAPER_SPACE
 70
     0
 10
0.0
 20
0.0
 30
0.0
  3
*PAPER_SPACE
  1

  0
ENDBLK
  5
1D
330
1B
100
AcDbEntity
 67
     1
  8
0
100
AcDbBlockEnd
  0
BLOCK
  5
24
330
23
100
AcDbEntity
  8
0
100
AcDbBlockBegin
  2
*PAPER_SPACE0
 70
     0
 10
0.0
 20
0.0
 30
0.0
  3
*PAPER_SPACE0
  1
*PAPER_SPACE0
  0
ENDBLK
  5
25
330
23
100
AcDbEntity
  8
0
100
AcDbBlockEnd
  0
ENDSEC
  0
SECTION
  2
ENTITIES
  0
LINE
  5
6A
330
1F
100
AcDbEntity
  8
0
 62
     7
100
AcDbLine
 10
256.197021
 20
140.850006
 30
0.0
 11
256.197021
 21
153.950012
 31
0.0
  0
LINE
  5
6B
330
1F
100
AcDbEntity
  8
0
 62
     7
100
AcDbLine
 10
256.197021
 20
153.950012
 30
0.0
 11
253.878357
 21
153.950012
 31
0.0
  0
ARC
  5
6C
330
1F
100
AcDbEntity
  8
0
 62
     7
100
AcDbCircle
 10
247.197021
 20
158.350006
 30
0.0
 40
8.0
100
AcDbArc
 50
213.367013
 51
326.632979
  0
LINE
  5
6D
330
1F
100
AcDbEntity
  8
0
 62
     7
100
AcDbLine
 10
240.515717
 20
153.950012
 30
0.0
 11
181.847046
 21
153.950012
 31
0.0
  0
LINE
  5
6E
330
1F
100
AcDbEntity
  8
0
 62
     7
100
AcDbLine
 10
181.847046
 20
150.049988
 30
0.0
 11
181.847046
 21
153.950012
 31
0.0
  0
ARC
  5
6F
330
1F
100
AcDbEntity
  8
0
 62
     7
100
AcDbCircle
 10
181.347046
 20
150.049988
 30
0.0
 40
0.5
100
AcDbArc
 50
180.000009
 51
360.0
  0
LINE
  5
70
330
1F
100
AcDbEntity
  8
0
 62
     7
100
AcDbLine
 10
180.847046
 20
153.950012
 30
0.0
 11
180.847046
 21
150.049988
 31
0.0
  0
LINE
  5
71
330
1F
100
AcDbEntity
  8
0
 62
     7
100
AcDbLine
 10
180.847046
 20
153.950012
 30
0.0
 11
178.547028
 21
153.950012
 31
0.0
  0
LINE
  5
72
330
1F
100
AcDbEntity
  8
0
 62
     7
100
AcDbLine
 10
178.547028
 20
150.049988
 30
0.0
 11
178.547028
 21
153.950012
 31
0.0
  0
ARC
  5
73
330
1F
100
AcDbEntity
  8
0
 62
     7
100
AcDbCircle
 10
178.047028
 20
150.049988
 30
0.0
 40
0.5
100
AcDbArc
 50
180.000009
 51
360.0
  0
LINE
  5
74
330
1F
100
AcDbEntity
  8
0
 62
     7
100
AcDbLine
 10
177.547028
 20
153.950012
 30
0.0
 11
177.547028
 21
150.049988
 31
0.0
  0
LINE
  5
75
330
1F
100
AcDbEntity
  8
0
 62
     7
100
AcDbLine
 10
177.547028
 20
153.950012
 30
0.0
 11
131.847046
 21
153.950012
 31
0.0
  0
LINE
  5
76
330
1F
100
AcDbEntity
  8
0
 62
     7
100
AcDbLine
 10
131.847046
 20
150.049988
 30
0.0
 11
131.847046
 21
153.950012
 31
0.0
  0
ARC
  5
77
330
1F
100
AcDbEntity
  8
0
 62
     7
100
AcDbCircle
 10
131.347046
 20
150.049988
 30
0.0
 40
0.5
100
AcDbArc
 50
180.000009
 51
360.0
  0
LINE
  5
78
330
1F
100
AcDbEntity
  8
0
 62
     7
100
AcDbLine
 10
130.847046
 20
153.950012
 30
0.0
 11
130.847046
 21
150.049988
 31
0.0
  0
LINE
  5
79
330
1F
100
AcDbEntity
  8
0
 62
     7
100
AcDbLine
 10
130.847046
 20
153.950012
 30
0.0
 11
128.547028
 21
153.950012
 31
0.0
  0
LINE
  5
7A
330
1F
100
AcDbEntity
  8
0
 62
     7
100
AcDbLine
 10
128.547028
 20
150.049988
 30
0.0
 11
128.547028
 21
153.950012
 31
0.0
  0
ARC
  5
7B
330
1F
100
AcDbEntity
  8
0
 62
     7
100
AcDbCircle
 10
128.047028
 20
150.049988
 30
0.0
 40
0.5
100
AcDbArc
 50
180.000009
 51
360.0
  0
LINE
  5
7C
330
1F
100
AcDbEntity
  8
0
 62
     7
100
AcDbLine
 10
127.54705
 20
153.950012
 30
0.0
 11
127.54705
 21
150.049988
 31
0.0
  0
LINE
  5
7D
330
1F
100
AcDbEntity
  8
0
 62
     7
100
AcDbLine
 10
127.54705
 20
153.950012
 30
0.0
 11
68.878372
 21
153.950012
 31
0.0
  0
ARC
  5
7E
330
1F
100
AcDbEntity
  8
0
 62
     7
100
AcDbCircle
 10
62.197052
 20
158.350006
 30
0.0
 40
8.0
100
AcDbArc
 50
213.367013
 51
326.632979
  0
LINE
  5
7F
330
1F
100
AcDbEntity
  8
0
 62
     7
100
AcDbLine
 10
55.515732
 20
153.950012
 30
0.0
 11
53.197052
 21
153.950012
 31
0.0
  0
LINE
  5
80
330
1F
100
AcDbEntity
  8
0
 62
     7
100
AcDbLine
 10
53.197052
 20
140.850006
 30
0.0
 11
53.197052
 21
153.950012
 31
0.0
  0
LINE
  5
81
330
1F
100
AcDbEntity
  8
0
 62
     7
100
AcDbLine
 10
256.197021
 20
140.049988
 30
0.0
 11
256.197021
 21
140.850006
 31
0.0
  0
LINE
  5
82
330
1F
100
AcDbEntity
  8
0
 62
     7
100
AcDbLine
 10
53.197052
 20
140.850006
 30
0.0
 11
53.197052
 21
140.049988
 31
0.0
  0
LINE
  5
83
330
1F
100
AcDbEntity
  8
0
 62
     7
100
AcDbLine
 10
53.197052
 20
140.049988
 30
0.0
 11
256.197021
 21
140.049988
 31
0.0
  0
LINE
  5
84
330
1F
100
AcDbEntity
  8
0
 62
     7
100
AcDbLine
 10
256.197021
 20
154.079285
 30
0.0
 11
256.197021
 21
153.950012
 31
0.0
  0
LINE
  5
85
330
1F
100
AcDbEntity
  8
0
 62
     7
100
AcDbLine
 10
256.197021
 20
154.079285
 30
0.0
 11
256.197021
 21
154.220703
 31
0.0
  0
LINE
  5
86
330
1F
100
AcDbEntity
  8
0
 62
     7
100
AcDbLine
 10
256.197021
 20
154.350006
 30
0.0
 11
256.197021
 21
154.220703
 31
0.0
  0
LINE
  5
87
330
1F
100
AcDbEntity
  8
0
 62
     7
100
AcDbLine
 10
256.197021
 20
154.350006
 30
0.0
 11
256.197021
 21
155.049988
 31
0.0
  0
LINE
  5
88
330
1F
100
AcDbEntity
  8
0
 62
     7
100
AcDbLine
 10
256.197021
 20
155.179291
 30
0.0
 11
256.197021
 21
155.049988
 31
0.0
  0
LINE
  5
89
330
1F
100
AcDbEntity
  8
0
 62
     7
100
AcDbLine
 10
256.197021
 20
155.179291
 30
0.0
 11
256.197021
 21
155.320709
 31
0.0
  0
LINE
  5
8A
330
1F
100
AcDbEntity
  8
0
 62
     7
100
AcDbLine
 10
256.197021
 20
155.450012
 30
0.0
 11
256.197021
 21
155.320709
 31
0.0
  0
LINE
  5
8B
330
1F
100
AcDbEntity
  8
0
 62
     7
100
AcDbLine
 10
256.197021
 20
155.450012
 30
0.0
 11
256.197021
 21
156.149994
 31
0.0
  0
LINE
  5
8C
330
1F
100
AcDbEntity
  8
0
 62
     7
100
AcDbLine
 10
256.197021
 20
156.279297
 30
0.0
 11
256.197021
 21
156.149994
 31
0.0
  0
LINE
  5
8D
330
1F
100
AcDbEntity
  8
0
 62
     7
100
AcDbLine
 10
256.197021
 20
156.279297
 30
0.0
 11
256.197021
 21
156.420715
 31
0.0
  0
LINE
  5
8E
330
1F
100
AcDbEntity
  8
0
 62
     7
100
AcDbLine
 10
256.197021
 20
156.549988
 30
0.0
 11
256.197021
 21
156.420715
 31
0.0
  0
LINE
  5
8F
330
1F
100
AcDbEntity
  8
0
 62
     7
100
AcDbLine
 10
256.197021
 20
156.549988
 30
0.0
 11
256.197021
 21
157.25
 31
0.0
  0
LINE
  5
90
330
1F
100
AcDbEntity
  8
0
 62
     7
100
AcDbLine
 10
256.197021
 20
157.379272
 30
0.0
 11
256.197021
 21
157.25
 31
0.0
  0
LINE
  5
91
330
1F
100
AcDbEntity
  8
0
 62
     7
100
AcDbLine
 10
256.197021
 20
157.379272
 30
0.0
 11
256.197021
 21
157.520721
 31
0.0
  0
LINE
  5
92
330
1F
100
AcDbEntity
  8
0
 62
     7
100
AcDbLine
 10
256.197021
 20
157.649994
 30
0.0
 11
256.197021
 21
157.520721
 31
0.0
  0
LINE
  5
93
330
1F
100
AcDbEntity
  8
0
 62
     7
100
AcDbLine
 10
256.197021
 20
157.649994
 30
0.0
 11
256.197021
 21
158.350006
 31
0.0
  0
LINE
  5
94
330
1F
100
AcDbEntity
  8
0
 62
     7
100
AcDbLine
 10
256.197021
 20
158.479279
 30
0.0
 11
256.197021
 21
158.350006
 31
0.0
  0
LINE
  5
95
330
1F
100
AcDbEntity
  8
0
 62
     7
100
AcDbLine
 10
256.197021
 20
158.479279
 30
0.0
 11
256.197021
 21
158.620697
 31
0.0
  0
LINE
  5
96
330
1F
100
AcDbEntity
  8
0
 62
     7
100
AcDbLine
 10
256.197021
 20
158.75
 30
0.0
 11
256.197021
 21
158.620697
 31
0.0
  0
LINE
  5
97
330
1F
100
AcDbEntity
  8
0
 62
     7
100
AcDbLine
 10
256.197021
 20
158.75
 30
0.0
 11
256.197021
 21
159.450012
 31
0.0
  0
LINE
  5
98
330
1F
100
AcDbEntity
  8
0
 62
     7
100
AcDbLine
 10
256.197021
 20
159.579285
 30
0.0
 11
256.197021
 21
159.450012
 31
0.0
  0
LINE
  5
99
330
1F
100
AcDbEntity
  8
0
 62
     7
100
AcDbLine
 10
256.197021
 20
159.579285
 30
0.0
 11
256.197021
 21
159.720703
 31
0.0
  0
LINE
  5
9A
330
1F
100
AcDbEntity
  8
0
 62
     7
100
AcDbLine
 10
256.197021
 20
159.850006
 30
0.0
 11
256.197021
 21
159.720703
 31
0.0
  0
LINE
  5
9B
330
1F
100
AcDbEntity
  8
0
 62
     7
100
AcDbLine
 10
256.197021
 20
159.850006
 30
0.0
 11
256.197021
 21
160.549988
 31
0.0
  0
LINE
  5
9C
330
1F
100
AcDbEntity
  8
0
 62
     7
100
AcDbLine
 10
256.197021
 20
160.679291
 30
0.0
 11
256.197021
 21
160.549988
 31
0.0
  0
LINE
  5
9D
330
1F
100
AcDbEntity
  8
0
 62
     7
100
AcDbLine
 10
256.197021
 20
160.679291
 30
0.0
 11
256.197021
 21
160.820709
 31
0.0
  0
LINE
  5
9E
330
1F
100
AcDbEntity
  8
0
 62
     7
100
AcDbLine
 10
256.197021
 20
160.950012
 30
0.0
 11
256.197021
 21
160.820709
 31
0.0
  0
LINE
  5
9F
330
1F
100
AcDbEntity
  8
0
 62
     7
100
AcDbLine
 10
256.197021
 20
160.950012
 30
0.0
 11
256.197021
 21
161.649994
 31
0.0
  0
LINE
  5
A0
330
1F
100
AcDbEntity
  8
0
 62
     7
100
AcDbLine
 10
256.197021
 20
161.779297
 30
0.0
 11
256.197021
 21
161.649994
 31
0.0
  0
LINE
  5
A1
330
1F
100
AcDbEntity
  8
0
 62
     7
100
AcDbLine
 10
256.197021
 20
161.779297
 30
0.0
 11
256.197021
 21
161.920715
 31
0.0
  0
LINE
  5
A2
330
1F
100
AcDbEntity
  8
0
 62
     7
100
AcDbLine
 10
256.197021
 20
162.049988
 30
0.0
 11
256.197021
 21
161.920715
 31
0.0
  0
LINE
  5
A3
330
1F
100
AcDbEntity
  8
0
 62
     7
100
AcDbLine
 10
256.197021
 20
162.049988
 30
0.0
 11
256.197021
 21
162.75
 31
0.0
  0
LINE
  5
A4
330
1F
100
AcDbEntity
  8
0
 62
     7
100
AcDbLine
 10
256.197021
 20
162.879272
 30
0.0
 11
256.197021
 21
162.75
 31
0.0
  0
LINE
  5
A5
330
1F
100
AcDbEntity
  8
0
 62
     7
100
AcDbLine
 10
256.197021
 20
162.879272
 30
0.0
 11
256.197021
 21
163.020721
 31
0.0
  0
LINE
  5
A6
330
1F
100
AcDbEntity
  8
0
 62
     7
100
AcDbLine
 10
256.197021
 20
163.149994
 30
0.0
 11
256.197021
 21
163.020721
 31
0.0
  0
LINE
  5
A7
330
1F
100
AcDbEntity
  8
0
 62
     7
100
AcDbLine
 10
256.197021
 20
163.149994
 30
0.0
 11
256.197021
 21
167.974274
 31
0.0
  0
LINE
  5
A8
330
1F
100
AcDbEntity
  8
0
 62
     7
100
AcDbLine
 10
256.197021
 20
168.462128
 30
0.0
 11
256.197021
 21
167.974274
 31
0.0
  0
LINE
  5
A9
330
1F
100
AcDbEntity
  8
0
 62
     7
100
AcDbLine
 10
256.197021
 20
168.462128
 30
0.0
 11
256.197021
 21
168.549988
 31
0.0
  0
LINE
  5
AA
330
1F
100
AcDbEntity
  8
0
 62
     7
100
AcDbLine
 10
253.878357
 20
153.950012
 30
0.0
 11
253.961731
 21
154.079285
 31
0.0
  0
ARC
  5
AB
330
1F
100
AcDbEntity
  8
0
 62
     7
100
AcDbCircle
 10
247.197021
 20
158.350006
 30
0.0
 40
8.0
100
AcDbArc
 50
354.980203
 51
360.0
  0
LINE
  5
AC
330
1F
100
AcDbEntity
  8
0
 62
     7
100
AcDbLine
 10
255.153931
 20
157.520721
 30
0.0
 11
255.166351
 21
157.649994
 31
0.0
  0
LINE
  5
AD
330
1F
100
AcDbEntity
  8
0
 62
     7
100
AcDbLine
 10
255.137909
 20
157.379272
 30
0.0
 11
255.153931
 21
157.520721
 31
0.0
  0
LINE
  5
AE
330
1F
100
AcDbEntity
  8
0
 62
     7
100
AcDbLine
 10
255.121033
 20
157.25
 30
0.0
 11
255.137909
 21
157.379272
 31
0.0
  0
ARC
  5
AF
330
1F
100
AcDbEntity
  8
0
 62
     7
100
AcDbCircle
 10
247.197021
 20
158.350006
 30
0.0
 40
8.0
100
AcDbArc
 50
346.997132
 51
352.096798
  0
LINE
  5
B0
330
1F
100
AcDbEntity
  8
0
 62
     7
100
AcDbLine
 10
254.960907
 20
156.420715
 30
0.0
 11
254.991913
 21
156.549988
 31
0.0
  0
LINE
  5
B1
330
1F
100
AcDbEntity
  8
0
 62
     7
100
AcDbLine
 10
254.924408
 20
156.279297
 30
0.0
 11
254.960907
 21
156.420715
 31
0.0
  0
LINE
  5
B2
330
1F
100
AcDbEntity
  8
0
 62
     7
100
AcDbLine
 10
254.88858
 20
156.149994
 30
0.0
 11
254.924408
 21
156.279297
 31
0.0
  0
ARC
  5
B3
330
1F
100
AcDbEntity
  8
0
 62
     7
100
AcDbCircle
 10
247.197021
 20
158.350006
 30
0.0
 40
8.0
100
AcDbArc
 50
338.746183
 51
344.037995
  0
LINE
  5
B4
330
1F
100
AcDbEntity
  8
0
 62
     7
100
AcDbLine
 10
254.601318
 20
155.320709
 30
0.0
 11
254.652893
 21
155.450012
 31
0.0
  0
LINE
  5
B5
330
1F
100
AcDbEntity
  8
0
 62
     7
100
AcDbLine
 10
254.54187
 20
155.179291
 30
0.0
 11
254.601318
 21
155.320709
 31
0.0
  0
LINE
  5
B6
330
1F
100
AcDbEntity
  8
0
 62
     7
100
AcDbLine
 10
254.48468
 20
155.049988
 30
0.0
 11
254.54187
 21
155.179291
 31
0.0
  0
ARC
  5
B7
330
1F
100
AcDbEntity
  8
0
 62
     7
100
AcDbCircle
 10
247.197021
 20
158.350006
 30
0.0
 40
8.0
100
AcDbArc
 50
329.999989
 51
335.63801
  0
LINE
  5
B8
330
1F
100
AcDbEntity
  8
0
 62
     7
100
AcDbLine
 10
254.04895
 20
154.220703
 30
0.0
 11
254.125244
 21
154.350006
 31
0.0
  0
LINE
  5
B9
330
1F
100
AcDbEntity
  8
0
 62
     7
100
AcDbLine
 10
253.961731
 20
154.079285
 30
0.0
 11
254.04895
 21
154.220703
 31
0.0
  0
LINE
  5
BA
330
1F
100
AcDbEntity
  8
0
 62
     7
100
AcDbLine
 10
240.515717
 20
153.950012
 30
0.0
 11
240.432343
 21
154.079285
 31
0.0
  0
LINE
  5
BB
330
1F
100
AcDbEntity
  8
0
 62
     7
100
AcDbLine
 10
240.432343
 20
154.079285
 30
0.0
 11
240.345093
 21
154.220703
 31
0.0
  0
LINE
  5
BC
330
1F
100
AcDbEntity
  8
0
 62
     7
100
AcDbLine
 10
240.345093
 20
154.220703
 30
0.0
 11
240.268829
 21
154.350006
 31
0.0
  0
ARC
  5
BD
330
1F
100
AcDbEntity
  8
0
 62
     7
100
AcDbCircle
 10
247.197021
 20
158.350006
 30
0.0
 40
8.0
100
AcDbArc
 50
204.361982
 51
210.000003
  0
LINE
  5
BE
330
1F
100
AcDbEntity
  8
0
 62
     7
100
AcDbLine
 10
239.909363
 20
155.049988
 30
0.0
 11
239.852203
 21
155.179291
 31
0.0
  0
LINE
  5
BF
330
1F
100
AcDbEntity
  8
0
 62
     7
100
AcDbLine
 10
239.852203
 20
155.179291
 30
0.0
 11
239.792755
 21
155.320709
 31
0.0
  0
LINE
  5
C0
330
1F
100
AcDbEntity
  8
0
 62
     7
100
AcDbLine
 10
239.792755
 20
155.320709
 30
0.0
 11
239.74115
 21
155.450012
 31
0.0
  0
ARC
  5
C1
330
1F
100
AcDbEntity
  8
0
 62
     7
100
AcDbCircle
 10
247.197021
 20
158.350006
 30
0.0
 40
8.0
100
AcDbArc
 50
195.96201
 51
201.253809
  0
LINE
  5
C2
330
1F
100
AcDbEntity
  8
0
 62
     7
100
AcDbLine
 10
239.505463
 20
156.149994
 30
0.0
 11
239.469666
 21
156.279297
 31
0.0
  0
LINE
  5
C3
330
1F
100
AcDbEntity
  8
0
 62
     7
100
AcDbLine
 10
239.469666
 20
156.279297
 30
0.0
 11
239.433136
 21
156.420715
 31
0.0
  0
LINE
  5
C4
330
1F
100
AcDbEntity
  8
0
 62
     7
100
AcDbLine
 10
239.433136
 20
156.420715
 30
0.0
 11
239.402161
 21
156.549988
 31
0.0
  0
ARC
  5
C5
330
1F
100
AcDbEntity
  8
0
 62
     7
100
AcDbCircle
 10
247.197021
 20
158.350006
 30
0.0
 40
8.0
100
AcDbArc
 50
187.903207
 51
193.002872
  0
LINE
  5
C6
330
1F
100
AcDbEntity
  8
0
 62
     7
100
AcDbLine
 10
239.27301
 20
157.25
 30
0.0
 11
239.256134
 21
157.379272
 31
0.0
  0
LINE
  5
C7
330
1F
100
AcDbEntity
  8
0
 62
     7
100
AcDbLine
 10
239.256134
 20
157.379272
 30
0.0
 11
239.240143
 21
157.520721
 31
0.0
  0
LINE
  5
C8
330
1F
100
AcDbEntity
  8
0
 62
     7
100
AcDbLine
 10
239.240143
 20
157.520721
 30
0.0
 11
239.227722
 21
157.649994
 31
0.0
  0
ARC
  5
C9
330
1F
100
AcDbEntity
  8
0
 62
     7
100
AcDbCircle
 10
247.197021
 20
158.350006
 30
0.0
 40
8.0
100
AcDbArc
 50
180.000009
 51
185.019802
  0
LINE
  5
CA
330
1F
100
AcDbEntity
  8
0
 62
     7
100
AcDbLine
 10
181.847046
 20
154.079285
 30
0.0
 11
181.847046
 21
153.950012
 31
0.0
  0
LINE
  5
CB
330
1F
100
AcDbEntity
  8
0
 62
     7
100
AcDbLine
 10
181.847046
 20
154.220703
 30
0.0
 11
181.847046
 21
154.350006
 31
0.0
  0
LINE
  5
CC
330
1F
100
AcDbEntity
  8
0
 62
     7
100
AcDbLine
 10
181.847046
 20
154.220703
 30
0.0
 11
181.847046
 21
154.079285
 31
0.0
  0
LINE
  5
CD
330
1F
100
AcDbEntity
  8
0
 62
     7
100
AcDbLine
 10
181.847046
 20
160.950012
 30
0.0
 11
181.847046
 21
161.350006
 31
0.0
  0
LINE
  5
CE
330
1F
100
AcDbEntity
  8
0
 62
     7
100
AcDbLine
 10
181.847046
 20
160.820709
 30
0.0
 11
181.847046
 21
160.950012
 31
0.0
  0
LINE
  5
CF
330
1F
100
AcDbEntity
  8
0
 62
     7
100
AcDbLine
 10
181.847046
 20
160.820709
 30
0.0
 11
181.847046
 21
160.679291
 31
0.0
  0
LINE
  5
D0
330
1F
100
AcDbEntity
  8
0
 62
     7
100
AcDbLine
 10
181.847046
 20
160.679291
 30
0.0
 11
181.847046
 21
160.549988
 31
0.0
  0
LINE
  5
D1
330
1F
100
AcDbEntity
  8
0
 62
     7
100
AcDbLine
 10
181.847046
 20
159.850006
 30
0.0
 11
181.847046
 21
160.549988
 31
0.0
  0
LINE
  5
D2
330
1F
100
AcDbEntity
  8
0
 62
     7
100
AcDbLine
 10
181.847046
 20
159.720703
 30
0.0
 11
181.847046
 21
159.850006
 31
0.0
  0
LINE
  5
D3
330
1F
100
AcDbEntity
  8
0
 62
     7
100
AcDbLine
 10
181.847046
 20
159.720703
 30
0.0
 11
181.847046
 21
159.579285
 31
0.0
  0
LINE
  5
D4
330
1F
100
AcDbEntity
  8
0
 62
     7
100
AcDbLine
 10
181.847046
 20
159.579285
 30
0.0
 11
181.847046
 21
159.450012
 31
0.0
  0
LINE
  5
D5
330
1F
100
AcDbEntity
  8
0
 62
     7
100
AcDbLine
 10
181.847046
 20
158.75
 30
0.0
 11
181.847046
 21
159.450012
 31
0.0
  0
LINE
  5
D6
330
1F
100
AcDbEntity
  8
0
 62
     7
100
AcDbLine
 10
181.847046
 20
158.620697
 30
0.0
 11
181.847046
 21
158.75
 31
0.0
  0
LINE
  5
D7
330
1F
100
AcDbEntity
  8
0
 62
     7
100
AcDbLine
 10
181.847046
 20
158.620697
 30
0.0
 11
181.847046
 21
158.479279
 31
0.0
  0
LINE
  5
D8
330
1F
100
AcDbEntity
  8
0
 62
     7
100
AcDbLine
 10
181.847046
 20
158.479279
 30
0.0
 11
181.847046
 21
158.350006
 31
0.0
  0
LINE
  5
D9
330
1F
100
AcDbEntity
  8
0
 62
     7
100
AcDbLine
 10
181.847046
 20
157.649994
 30
0.0
 11
181.847046
 21
158.350006
 31
0.0
  0
LINE
  5
DA
330
1F
100
AcDbEntity
  8
0
 62
     7
100
AcDbLine
 10
181.847046
 20
157.520721
 30
0.0
 11
181.847046
 21
157.649994
 31
0.0
  0
LINE
  5
DB
330
1F
100
AcDbEntity
  8
0
 62
     7
100
AcDbLine
 10
181.847046
 20
157.520721
 30
0.0
 11
181.847046
 21
157.379272
 31
0.0
  0
LINE
  5
DC
330
1F
100
AcDbEntity
  8
0
 62
     7
100
AcDbLine
 10
181.847046
 20
157.379272
 30
0.0
 11
181.847046
 21
157.25
 31
0.0
  0
LINE
  5
DD
330
1F
100
AcDbEntity
  8
0
 62
     7
100
AcDbLine
 10
181.847046
 20
156.549988
 30
0.0
 11
181.847046
 21
157.25
 31
0.0
  0
LINE
  5
DE
330
1F
100
AcDbEntity
  8
0
 62
     7
100
AcDbLine
 10
181.847046
 20
156.420715
 30
0.0
 11
181.847046
 21
156.549988
 31
0.0
  0
LINE
  5
DF
330
1F
100
AcDbEntity
  8
0
 62
     7
100
AcDbLine
 10
181.847046
 20
156.420715
 30
0.0
 11
181.847046
 21
156.279297
 31
0.0
  0
LINE
  5
E0
330
1F
100
AcDbEntity
  8
0
 62
     7
100
AcDbLine
 10
181.847046
 20
156.279297
 30
0.0
 11
181.847046
 21
156.149994
 31
0.0
  0
LINE
  5
E1
330
1F
100
AcDbEntity
  8
0
 62
     7
100
AcDbLine
 10
181.847046
 20
155.450012
 30
0.0
 11
181.847046
 21
156.149994
 31
0.0
  0
LINE
  5
E2
330
1F
100
AcDbEntity
  8
0
 62
     7
100
AcDbLine
 10
181.847046
 20
155.320709
 30
0.0
 11
181.847046
 21
155.450012
 31
0.0
  0
LINE
  5
E3
330
1F
100
AcDbEntity
  8
0
 62
     7
100
AcDbLine
 10
181.847046
 20
155.320709
 30
0.0
 11
181.847046
 21
155.179291
 31
0.0
  0
LINE
  5
E4
330
1F
100
AcDbEntity
  8
0
 62
     7
100
AcDbLine
 10
181.847046
 20
155.179291
 30
0.0
 11
181.847046
 21
155.049988
 31
0.0
  0
LINE
  5
E5
330
1F
100
AcDbEntity
  8
0
 62
     7
100
AcDbLine
 10
181.847046
 20
154.350006
 30
0.0
 11
181.847046
 21
155.049988
 31
0.0
  0
LINE
  5
E6
330
1F
100
AcDbEntity
  8
0
 62
     7
100
AcDbLine
 10
180.847046
 20
161.649994
 30
0.0
 11
180.847046
 21
160.950012
 31
0.0
  0
LINE
  5
E7
330
1F
100
AcDbEntity
  8
0
 62
     7
100
AcDbLine
 10
180.847046
 20
161.779297
 30
0.0
 11
180.847046
 21
161.649994
 31
0.0
  0
LINE
  5
E8
330
1F
100
AcDbEntity
  8
0
 62
     7
100
AcDbLine
 10
180.847046
 20
161.779297
 30
0.0
 11
180.847046
 21
161.850006
 31
0.0
  0
LINE
  5
E9
330
1F
100
AcDbEntity
  8
0
 62
     7
100
AcDbLine
 10
180.847046
 20
154.079285
 30
0.0
 11
180.847046
 21
153.950012
 31
0.0
  0
LINE
  5
EA
330
1F
100
AcDbEntity
  8
0
 62
     7
100
AcDbLine
 10
180.847046
 20
154.079285
 30
0.0
 11
180.847046
 21
154.220703
 31
0.0
  0
LINE
  5
EB
330
1F
100
AcDbEntity
  8
0
 62
     7
100
AcDbLine
 10
180.847046
 20
154.220703
 30
0.0
 11
180.847046
 21
154.350006
 31
0.0
  0
LINE
  5
EC
330
1F
100
AcDbEntity
  8
0
 62
     7
100
AcDbLine
 10
180.847046
 20
155.049988
 30
0.0
 11
180.847046
 21
154.350006
 31
0.0
  0
LINE
  5
ED
330
1F
100
AcDbEntity
  8
0
 62
     7
100
AcDbLine
 10
180.847046
 20
155.179291
 30
0.0
 11
180.847046
 21
155.049988
 31
0.0
  0
LINE
  5
EE
330
1F
100
AcDbEntity
  8
0
 62
     7
100
AcDbLine
 10
180.847046
 20
155.179291
 30
0.0
 11
180.847046
 21
155.320709
 31
0.0
  0
LINE
  5
EF
330
1F
100
AcDbEntity
  8
0
 62
     7
100
AcDbLine
 10
180.847046
 20
155.320709
 30
0.0
 11
180.847046
 21
155.450012
 31
0.0
  0
LINE
  5
F0
330
1F
100
AcDbEntity
  8
0
 62
     7
100
AcDbLine
 10
180.847046
 20
156.149994
 30
0.0
 11
180.847046
 21
155.450012
 31
0.0
  0
LINE
  5
F1
330
1F
100
AcDbEntity
  8
0
 62
     7
100
AcDbLine
 10
180.847046
 20
156.279297
 30
0.0
 11
180.847046
 21
156.149994
 31
0.0
  0
LINE
  5
F2
330
1F
100
AcDbEntity
  8
0
 62
     7
100
AcDbLine
 10
180.847046
 20
156.279297
 30
0.0
 11
180.847046
 21
156.420715
 31
0.0
  0
LINE
  5
F3
330
1F
100
AcDbEntity
  8
0
 62
     7
100
AcDbLine
 10
180.847046
 20
156.420715
 30
0.0
 11
180.847046
 21
156.549988
 31
0.0
  0
LINE
  5
F4
330
1F
100
AcDbEntity
  8
0
 62
     7
100
AcDbLine
 10
180.847046
 20
157.25
 30
0.0
 11
180.847046
 21
156.549988
 31
0.0
  0
LINE
  5
F5
330
1F
100
AcDbEntity
  8
0
 62
     7
100
AcDbLine
 10
180.847046
 20
157.379272
 30
0.0
 11
180.847046
 21
157.25
 31
0.0
  0
LINE
  5
F6
330
1F
100
AcDbEntity
  8
0
 62
     7
100
AcDbLine
 10
180.847046
 20
157.379272
 30
0.0
 11
180.847046
 21
157.520721
 31
0.0
  0
LINE
  5
F7
330
1F
100
AcDbEntity
  8
0
 62
     7
100
AcDbLine
 10
180.847046
 20
157.520721
 30
0.0
 11
180.847046
 21
157.649994
 31
0.0
  0
LINE
  5
F8
330
1F
100
AcDbEntity
  8
0
 62
     7
100
AcDbLine
 10
180.847046
 20
158.350006
 30
0.0
 11
180.847046
 21
157.649994
 31
0.0
  0
LINE
  5
F9
330
1F
100
AcDbEntity
  8
0
 62
     7
100
AcDbLine
 10
180.847046
 20
158.479279
 30
0.0
 11
180.847046
 21
158.350006
 31
0.0
  0
LINE
  5
FA
330
1F
100
AcDbEntity
  8
0
 62
     7
100
AcDbLine
 10
180.847046
 20
158.479279
 30
0.0
 11
180.847046
 21
158.620697
 31
0.0
  0
LINE
  5
FB
330
1F
100
AcDbEntity
  8
0
 62
     7
100
AcDbLine
 10
180.847046
 20
158.620697
 30
0.0
 11
180.847046
 21
158.75
 31
0.0
  0
LINE
  5
FC
330
1F
100
AcDbEntity
  8
0
 62
     7
100
AcDbLine
 10
180.847046
 20
159.450012
 30
0.0
 11
180.847046
 21
158.75
 31
0.0
  0
LINE
  5
FD
330
1F
100
AcDbEntity
  8
0
 62
     7
100
AcDbLine
 10
180.847046
 20
159.579285
 30
0.0
 11
180.847046
 21
159.450012
 31
0.0
  0
LINE
  5
FE
330
1F
100
AcDbEntity
  8
0
 62
     7
100
AcDbLine
 10
180.847046
 20
159.579285
 30
0.0
 11
180.847046
 21
159.720703
 31
0.0
  0
LINE
  5
FF
330
1F
100
AcDbEntity
  8
0
 62
     7
100
AcDbLine
 10
180.847046
 20
159.720703
 30
0.0
 11
180.847046
 21
159.850006
 31
0.0
  0
LINE
  5
100
330
1F
100
AcDbEntity
  8
0
 62
     7
100
AcDbLine
 10
180.847046
 20
160.549988
 30
0.0
 11
180.847046
 21
159.850006
 31
0.0
  0
LINE
  5
101
330
1F
100
AcDbEntity
  8
0
 62
     7
100
AcDbLine
 10
180.847046
 20
160.679291
 30
0.0
 11
180.847046
 21
160.549988
 31
0.0
  0
LINE
  5
102
330
1F
100
AcDbEntity
  8
0
 62
     7
100
AcDbLine
 10
180.847046
 20
160.679291
 30
0.0
 11
180.847046
 21
160.820709
 31
0.0
  0
LINE
  5
103
330
1F
100
AcDbEntity
  8
0
 62
     7
100
AcDbLine
 10
180.847046
 20
160.820709
 30
0.0
 11
180.847046
 21
160.950012
 31
0.0
  0
LINE
  5
104
330
1F
100
AcDbEntity
  8
0
 62
     7
100
AcDbLine
 10
178.547028
 20
154.079285
 30
0.0
 11
178.547028
 21
153.950012
 31
0.0
  0
LINE
  5
105
330
1F
100
AcDbEntity
  8
0
 62
     7
100
AcDbLine
 10
178.547028
 20
154.220703
 30
0.0
 11
178.547028
 21
154.350006
 31
0.0
  0
LINE
  5
106
330
1F
100
AcDbEntity
  8
0
 62
     7
100
AcDbLine
 10
178.547028
 20
154.220703
 30
0.0
 11
178.547028
 21
154.079285
 31
0.0
  0
LINE
  5
107
330
1F
100
AcDbEntity
  8
0
 62
     7
100
AcDbLine
 10
178.547028
 20
161.850006
 30
0.0
 11
178.547028
 21
161.779297
 31
0.0
  0
LINE
  5
108
330
1F
100
AcDbEntity
  8
0
 62
     7
100
AcDbLine
 10
178.547028
 20
161.779297
 30
0.0
 11
178.547028
 21
161.649994
 31
0.0
  0
LINE
  5
109
330
1F
100
AcDbEntity
  8
0
 62
     7
100
AcDbLine
 10
178.547028
 20
160.950012
 30
0.0
 11
178.547028
 21
161.649994
 31
0.0
  0
LINE
  5
10A
330
1F
100
AcDbEntity
  8
0
 62
     7
100
AcDbLine
 10
178.547028
 20
160.820709
 30
0.0
 11
178.547028
 21
160.950012
 31
0.0
  0
LINE
  5
10B
330
1F
100
AcDbEntity
  8
0
 62
     7
100
AcDbLine
 10
178.547028
 20
160.820709
 30
0.0
 11
178.547028
 21
160.679291
 31
0.0
  0
LINE
  5
10C
330
1F
100
AcDbEntity
  8
0
 62
     7
100
AcDbLine
 10
178.547028
 20
160.679291
 30
0.0
 11
178.547028
 21
160.549988
 31
0.0
  0
LINE
  5
10D
330
1F
100
AcDbEntity
  8
0
 62
     7
100
AcDbLine
 10
178.547028
 20
159.850006
 30
0.0
 11
178.547028
 21
160.549988
 31
0.0
  0
LINE
  5
10E
330
1F
100
AcDbEntity
  8
0
 62
     7
100
AcDbLine
 10
178.547028
 20
159.720703
 30
0.0
 11
178.547028
 21
159.850006
 31
0.0
  0
LINE
  5
10F
330
1F
100
AcDbEntity
  8
0
 62
     7
100
AcDbLine
 10
178.547028
 20
159.720703
 30
0.0
 11
178.547028
 21
159.579285
 31
0.0
  0
LINE
  5
110
330
1F
100
AcDbEntity
  8
0
 62
     7
100
AcDbLine
 10
178.547028
 20
159.579285
 30
0.0
 11
178.547028
 21
159.450012
 31
0.0
  0
LINE
  5
111
330
1F
100
AcDbEntity
  8
0
 62
     7
100
AcDbLine
 10
178.547028
 20
158.75
 30
0.0
 11
178.547028
 21
159.450012
 31
0.0
  0
LINE
  5
112
330
1F
100
AcDbEntity
  8
0
 62
     7
100
AcDbLine
 10
178.547028
 20
158.620697
 30
0.0
 11
178.547028
 21
158.75
 31
0.0
  0
LINE
  5
113
330
1F
100
AcDbEntity
  8
0
 62
     7
100
AcDbLine
 10
178.547028
 20
158.620697
 30
0.0
 11
178.547028
 21
158.479279
 31
0.0
  0
LINE
  5
114
330
1F
100
AcDbEntity
  8
0
 62
     7
100
AcDbLine
 10
178.547028
 20
158.479279
 30
0.0
 11
178.547028
 21
158.350006
 31
0.0
  0
LINE
  5
115
330
1F
100
AcDbEntity
  8
0
 62
     7
100
AcDbLine
 10
178.547028
 20
157.649994
 30
0.0
 11
178.547028
 21
158.350006
 31
0.0
  0
LINE
  5
116
330
1F
100
AcDbEntity
  8
0
 62
     7
100
AcDbLine
 10
178.547028
 20
157.520721
 30
0.0
 11
178.547028
 21
157.649994
 31
0.0
  0
LINE
  5
117
330
1F
100
AcDbEntity
  8
0
 62
     7
100
AcDbLine
 10
178.547028
 20
157.520721
 30
0.0
 11
178.547028
 21
157.379272
 31
0.0
  0
LINE
  5
118
330
1F
100
AcDbEntity
  8
0
 62
     7
100
AcDbLine
 10
178.547028
 20
157.379272
 30
0.0
 11
178.547028
 21
157.25
 31
0.0
  0
LINE
  5
119
330
1F
100
AcDbEntity
  8
0
 62
     7
100
AcDbLine
 10
178.547028
 20
156.549988
 30
0.0
 11
178.547028
 21
157.25
 31
0.0
  0
LINE
  5
11A
330
1F
100
AcDbEntity
  8
0
 62
     7
100
AcDbLine
 10
178.547028
 20
156.420715
 30
0.0
 11
178.547028
 21
156.549988
 31
0.0
  0
LINE
  5
11B
330
1F
100
AcDbEntity
  8
0
 62
     7
100
AcDbLine
 10
178.547028
 20
156.420715
 30
0.0
 11
178.547028
 21
156.279297
 31
0.0
  0
LINE
  5
11C
330
1F
100
AcDbEntity
  8
0
 62
     7
100
AcDbLine
 10
178.547028
 20
156.279297
 30
0.0
 11
178.547028
 21
156.149994
 31
0.0
  0
LINE
  5
11D
330
1F
100
AcDbEntity
  8
0
 62
     7
100
AcDbLine
 10
178.547028
 20
155.450012
 30
0.0
 11
178.547028
 21
156.149994
 31
0.0
  0
LINE
  5
11E
330
1F
100
AcDbEntity
  8
0
 62
     7
100
AcDbLine
 10
178.547028
 20
155.320709
 30
0.0
 11
178.547028
 21
155.450012
 31
0.0
  0
LINE
  5
11F
330
1F
100
AcDbEntity
  8
0
 62
     7
100
AcDbLine
 10
178.547028
 20
155.320709
 30
0.0
 11
178.547028
 21
155.179291
 31
0.0
  0
LINE
  5
120
330
1F
100
AcDbEntity
  8
0
 62
     7
100
AcDbLine
 10
178.547028
 20
155.179291
 30
0.0
 11
178.547028
 21
155.049988
 31
0.0
  0
LINE
  5
121
330
1F
100
AcDbEntity
  8
0
 62
     7
100
AcDbLine
 10
178.547028
 20
154.350006
 30
0.0
 11
178.547028
 21
155.049988
 31
0.0
  0
LINE
  5
122
330
1F
100
AcDbEntity
  8
0
 62
     7
100
AcDbLine
 10
177.547028
 20
160.679291
 30
0.0
 11
177.547028
 21
160.549988
 31
0.0
  0
LINE
  5
123
330
1F
100
AcDbEntity
  8
0
 62
     7
100
AcDbLine
 10
177.547028
 20
160.679291
 30
0.0
 11
177.547028
 21
160.820709
 31
0.0
  0
LINE
  5
124
330
1F
100
AcDbEntity
  8
0
 62
     7
100
AcDbLine
 10
177.547028
 20
160.820709
 30
0.0
 11
177.547028
 21
160.950012
 31
0.0
  0
LINE
  5
125
330
1F
100
AcDbEntity
  8
0
 62
     7
100
AcDbLine
 10
177.547028
 20
161.350006
 30
0.0
 11
177.547028
 21
160.950012
 31
0.0
  0
LINE
  5
126
330
1F
100
AcDbEntity
  8
0
 62
     7
100
AcDbLine
 10
177.547028
 20
154.079285
 30
0.0
 11
177.547028
 21
153.950012
 31
0.0
  0
LINE
  5
127
330
1F
100
AcDbEntity
  8
0
 62
     7
100
AcDbLine
 10
177.547028
 20
154.079285
 30
0.0
 11
177.547028
 21
154.220703
 31
0.0
  0
LINE
  5
128
330
1F
100
AcDbEntity
  8
0
 62
     7
100
AcDbLine
 10
177.547028
 20
154.220703
 30
0.0
 11
177.547028
 21
154.350006
 31
0.0
  0
LINE
  5
129
330
1F
100
AcDbEntity
  8
0
 62
     7
100
AcDbLine
 10
177.547028
 20
155.049988
 30
0.0
 11
177.547028
 21
154.350006
 31
0.0
  0
LINE
  5
12A
330
1F
100
AcDbEntity
  8
0
 62
     7
100
AcDbLine
 10
177.547028
 20
155.179291
 30
0.0
 11
177.547028
 21
155.049988
 31
0.0
  0
LINE
  5
12B
330
1F
100
AcDbEntity
  8
0
 62
     7
100
AcDbLine
 10
177.547028
 20
155.179291
 30
0.0
 11
177.547028
 21
155.320709
 31
0.0
  0
LINE
  5
12C
330
1F
100
AcDbEntity
  8
0
 62
     7
100
AcDbLine
 10
177.547028
 20
155.320709
 30
0.0
 11
177.547028
 21
155.450012
 31
0.0
  0
LINE
  5
12D
330
1F
100
AcDbEntity
  8
0
 62
     7
100
AcDbLine
 10
177.547028
 20
156.149994
 30
0.0
 11
177.547028
 21
155.450012
 31
0.0
  0
LINE
  5
12E
330
1F
100
AcDbEntity
  8
0
 62
     7
100
AcDbLine
 10
177.547028
 20
156.279297
 30
0.0
 11
177.547028
 21
156.149994
 31
0.0
  0
LINE
  5
12F
330
1F
100
AcDbEntity
  8
0
 62
     7
100
AcDbLine
 10
177.547028
 20
156.279297
 30
0.0
 11
177.547028
 21
156.420715
 31
0.0
  0
LINE
  5
130
330
1F
100
AcDbEntity
  8
0
 62
     7
100
AcDbLine
 10
177.547028
 20
156.420715
 30
0.0
 11
177.547028
 21
156.549988
 31
0.0
  0
LINE
  5
131
330
1F
100
AcDbEntity
  8
0
 62
     7
100
AcDbLine
 10
177.547028
 20
157.25
 30
0.0
 11
177.547028
 21
156.549988
 31
0.0
  0
LINE
  5
132
330
1F
100
AcDbEntity
  8
0
 62
     7
100
AcDbLine
 10
177.547028
 20
157.379272
 30
0.0
 11
177.547028
 21
157.25
 31
0.0
  0
LINE
  5
133
330
1F
100
AcDbEntity
  8
0
 62
     7
100
AcDbLine
 10
177.547028
 20
157.379272
 30
0.0
 11
177.547028
 21
157.520721
 31
0.0
  0
LINE
  5
134
330
1F
100
AcDbEntity
  8
0
 62
     7
100
AcDbLine
 10
177.547028
 20
157.520721
 30
0.0
 11
177.547028
 21
157.649994
 31
0.0
  0
LINE
  5
135
330
1F
100
AcDbEntity
  8
0
 62
     7
100
AcDbLine
 10
177.547028
 20
158.350006
 30
0.0
 11
177.547028
 21
157.649994
 31
0.0
  0
LINE
  5
136
330
1F
100
AcDbEntity
  8
0
 62
     7
100
AcDbLine
 10
177.547028
 20
158.479279
 30
0.0
 11
177.547028
 21
158.350006
 31
0.0
  0
LINE
  5
137
330
1F
100
AcDbEntity
  8
0
 62
     7
100
AcDbLine
 10
177.547028
 20
158.479279
 30
0.0
 11
177.547028
 21
158.620697
 31
0.0
  0
LINE
  5
138
330
1F
100
AcDbEntity
  8
0
 62
     7
100
AcDbLine
 10
177.547028
 20
158.620697
 30
0.0
 11
177.547028
 21
158.75
 31
0.0
  0
LINE
  5
139
330
1F
100
AcDbEntity
  8
0
 62
     7
100
AcDbLine
 10
177.547028
 20
159.450012
 30
0.0
 11
177.547028
 21
158.75
 31
0.0
  0
LINE
  5
13A
330
1F
100
AcDbEntity
  8
0
 62
     7
100
AcDbLine
 10
177.547028
 20
159.579285
 30
0.0
 11
177.547028
 21
159.450012
 31
0.0
  0
LINE
  5
13B
330
1F
100
AcDbEntity
  8
0
 62
     7
100
AcDbLine
 10
177.547028
 20
159.579285
 30
0.0
 11
177.547028
 21
159.720703
 31
0.0
  0
LINE
  5
13C
330
1F
100
AcDbEntity
  8
0
 62
     7
100
AcDbLine
 10
177.547028
 20
159.720703
 30
0.0
 11
177.547028
 21
159.850006
 31
0.0
  0
LINE
  5
13D
330
1F
100
AcDbEntity
  8
0
 62
     7
100
AcDbLine
 10
177.547028
 20
160.549988
 30
0.0
 11
177.547028
 21
159.850006
 31
0.0
  0
LINE
  5
13E
330
1F
100
AcDbEntity
  8
0
 62
     7
100
AcDbLine
 10
131.847046
 20
154.079285
 30
0.0
 11
131.847046
 21
153.950012
 31
0.0
  0
LINE
  5
13F
330
1F
100
AcDbEntity
  8
0
 62
     7
100
AcDbLine
 10
131.847046
 20
154.220703
 30
0.0
 11
131.847046
 21
154.350006
 31
0.0
  0
LINE
  5
140
330
1F
100
AcDbEntity
  8
0
 62
     7
100
AcDbLine
 10
131.847046
 20
154.220703
 30
0.0
 11
131.847046
 21
154.079285
 31
0.0
  0
LINE
  5
141
330
1F
100
AcDbEntity
  8
0
 62
     7
100
AcDbLine
 10
131.847046
 20
160.950012
 30
0.0
 11
131.847046
 21
161.350006
 31
0.0
  0
LINE
  5
142
330
1F
100
AcDbEntity
  8
0
 62
     7
100
AcDbLine
 10
131.847046
 20
160.820709
 30
0.0
 11
131.847046
 21
160.950012
 31
0.0
  0
LINE
  5
143
330
1F
100
AcDbEntity
  8
0
 62
     7
100
AcDbLine
 10
131.847046
 20
160.820709
 30
0.0
 11
131.847046
 21
160.679291
 31
0.0
  0
LINE
  5
144
330
1F
100
AcDbEntity
  8
0
 62
     7
100
AcDbLine
 10
131.847046
 20
160.679291
 30
0.0
 11
131.847046
 21
160.549988
 31
0.0
  0
LINE
  5
145
330
1F
100
AcDbEntity
  8
0
 62
     7
100
AcDbLine
 10
131.847046
 20
159.850006
 30
0.0
 11
131.847046
 21
160.549988
 31
0.0
  0
LINE
  5
146
330
1F
100
AcDbEntity
  8
0
 62
     7
100
AcDbLine
 10
131.847046
 20
159.720703
 30
0.0
 11
131.847046
 21
159.850006
 31
0.0
  0
LINE
  5
147
330
1F
100
AcDbEntity
  8
0
 62
     7
100
AcDbLine
 10
131.847046
 20
159.720703
 30
0.0
 11
131.847046
 21
159.579285
 31
0.0
  0
LINE
  5
148
330
1F
100
AcDbEntity
  8
0
 62
     7
100
AcDbLine
 10
131.847046
 20
159.579285
 30
0.0
 11
131.847046
 21
159.450012
 31
0.0
  0
LINE
  5
149
330
1F
100
AcDbEntity
  8
0
 62
     7
100
AcDbLine
 10
131.847046
 20
158.75
 30
0.0
 11
131.847046
 21
159.450012
 31
0.0
  0
LINE
  5
14A
330
1F
100
AcDbEntity
  8
0
 62
     7
100
AcDbLine
 10
131.847046
 20
158.620697
 30
0.0
 11
131.847046
 21
158.75
 31
0.0
  0
LINE
  5
14B
330
1F
100
AcDbEntity
  8
0
 62
     7
100
AcDbLine
 10
131.847046
 20
158.620697
 30
0.0
 11
131.847046
 21
158.479279
 31
0.0
  0
LINE
  5
14C
330
1F
100
AcDbEntity
  8
0
 62
     7
100
AcDbLine
 10
131.847046
 20
158.479279
 30
0.0
 11
131.847046
 21
158.350006
 31
0.0
  0
LINE
  5
14D
330
1F
100
AcDbEntity
  8
0
 62
     7
100
AcDbLine
 10
131.847046
 20
157.649994
 30
0.0
 11
131.847046
 21
158.350006
 31
0.0
  0
LINE
  5
14E
330
1F
100
AcDbEntity
  8
0
 62
     7
100
AcDbLine
 10
131.847046
 20
157.520721
 30
0.0
 11
131.847046
 21
157.649994
 31
0.0
  0
LINE
  5
14F
330
1F
100
AcDbEntity
  8
0
 62
     7
100
AcDbLine
 10
131.847046
 20
157.520721
 30
0.0
 11
131.847046
 21
157.379272
 31
0.0
  0
LINE
  5
150
330
1F
100
AcDbEntity
  8
0
 62
     7
100
AcDbLine
 10
131.847046
 20
157.379272
 30
0.0
 11
131.847046
 21
157.25
 31
0.0
  0
LINE
  5
151
330
1F
100
AcDbEntity
  8
0
 62
     7
100
AcDbLine
 10
131.847046
 20
156.549988
 30
0.0
 11
131.847046
 21
157.25
 31
0.0
  0
LINE
  5
152
330
1F
100
AcDbEntity
  8
0
 62
     7
100
AcDbLine
 10
131.847046
 20
156.420715
 30
0.0
 11
131.847046
 21
156.549988
 31
0.0
  0
LINE
  5
153
330
1F
100
AcDbEntity
  8
0
 62
     7
100
AcDbLine
 10
131.847046
 20
156.420715
 30
0.0
 11
131.847046
 21
156.279297
 31
0.0
  0
LINE
  5
154
330
1F
100
AcDbEntity
  8
0
 62
     7
100
AcDbLine
 10
131.847046
 20
156.279297
 30
0.0
 11
131.847046
 21
156.149994
 31
0.0
  0
LINE
  5
155
330
1F
100
AcDbEntity
  8
0
 62
     7
100
AcDbLine
 10
131.847046
 20
155.450012
 30
0.0
 11
131.847046
 21
156.149994
 31
0.0
  0
LINE
  5
156
330
1F
100
AcDbEntity
  8
0
 62
     7
100
AcDbLine
 10
131.847046
 20
155.320709
 30
0.0
 11
131.847046
 21
155.450012
 31
0.0
  0
LINE
  5
157
330
1F
100
AcDbEntity
  8
0
 62
     7
100
AcDbLine
 10
131.847046
 20
155.320709
 30
0.0
 11
131.847046
 21
155.179291
 31
0.0
  0
LINE
  5
158
330
1F
100
AcDbEntity
  8
0
 62
     7
100
AcDbLine
 10
131.847046
 20
155.179291
 30
0.0
 11
131.847046
 21
155.049988
 31
0.0
  0
LINE
  5
159
330
1F
100
AcDbEntity
  8
0
 62
     7
100
AcDbLine
 10
131.847046
 20
154.350006
 30
0.0
 11
131.847046
 21
155.049988
 31
0.0
  0
LINE
  5
15A
330
1F
100
AcDbEntity
  8
0
 62
     7
100
AcDbLine
 10
130.847046
 20
161.649994
 30
0.0
 11
130.847046
 21
160.950012
 31
0.0
  0
LINE
  5
15B
330
1F
100
AcDbEntity
  8
0
 62
     7
100
AcDbLine
 10
130.847046
 20
161.779297
 30
0.0
 11
130.847046
 21
161.649994
 31
0.0
  0
LINE
  5
15C
330
1F
100
AcDbEntity
  8
0
 62
     7
100
AcDbLine
 10
130.847046
 20
161.779297
 30
0.0
 11
130.847046
 21
161.850006
 31
0.0
  0
LINE
  5
15D
330
1F
100
AcDbEntity
  8
0
 62
     7
100
AcDbLine
 10
130.847046
 20
154.079285
 30
0.0
 11
130.847046
 21
153.950012
 31
0.0
  0
LINE
  5
15E
330
1F
100
AcDbEntity
  8
0
 62
     7
100
AcDbLine
 10
130.847046
 20
154.079285
 30
0.0
 11
130.847046
 21
154.220703
 31
0.0
  0
LINE
  5
15F
330
1F
100
AcDbEntity
  8
0
 62
     7
100
AcDbLine
 10
130.847046
 20
154.220703
 30
0.0
 11
130.847046
 21
154.350006
 31
0.0
  0
LINE
  5
160
330
1F
100
AcDbEntity
  8
0
 62
     7
100
AcDbLine
 10
130.847046
 20
155.049988
 30
0.0
 11
130.847046
 21
154.350006
 31
0.0
  0
LINE
  5
161
330
1F
100
AcDbEntity
  8
0
 62
     7
100
AcDbLine
 10
130.847046
 20
155.179291
 30
0.0
 11
130.847046
 21
155.049988
 31
0.0
  0
LINE
  5
162
330
1F
100
AcDbEntity
  8
0
 62
     7
100
AcDbLine
 10
130.847046
 20
155.179291
 30
0.0
 11
130.847046
 21
155.320709
 31
0.0
  0
LINE
  5
163
330
1F
100
AcDbEntity
  8
0
 62
     7
100
AcDbLine
 10
130.847046
 20
155.320709
 30
0.0
 11
130.847046
 21
155.450012
 31
0.0
  0
LINE
  5
164
330
1F
100
AcDbEntity
  8
0
 62
     7
100
AcDbLine
 10
130.847046
 20
156.149994
 30
0.0
 11
130.847046
 21
155.450012
 31
0.0
  0
LINE
  5
165
330
1F
100
AcDbEntity
  8
0
 62
     7
100
AcDbLine
 10
130.847046
 20
156.279297
 30
0.0
 11
130.847046
 21
156.149994
 31
0.0
  0
LINE
  5
166
330
1F
100
AcDbEntity
  8
0
 62
     7
100
AcDbLine
 10
130.847046
 20
156.279297
 30
0.0
 11
130.847046
 21
156.420715
 31
0.0
  0
LINE
  5
167
330
1F
100
AcDbEntity
  8
0
 62
     7
100
AcDbLine
 10
130.847046
 20
156.420715
 30
0.0
 11
130.847046
 21
156.549988
 31
0.0
  0
LINE
  5
168
330
1F
100
AcDbEntity
  8
0
 62
     7
100
AcDbLine
 10
130.847046
 20
157.25
 30
0.0
 11
130.847046
 21
156.549988
 31
0.0
  0
LINE
  5
169
330
1F
100
AcDbEntity
  8
0
 62
     7
100
AcDbLine
 10
130.847046
 20
157.379272
 30
0.0
 11
130.847046
 21
157.25
 31
0.0
  0
LINE
  5
16A
330
1F
100
AcDbEntity
  8
0
 62
     7
100
AcDbLine
 10
130.847046
 20
157.379272
 30
0.0
 11
130.847046
 21
157.520721
 31
0.0
  0
LINE
  5
16B
330
1F
100
AcDbEntity
  8
0
 62
     7
100
AcDbLine
 10
130.847046
 20
157.520721
 30
0.0
 11
130.847046
 21
157.649994
 31
0.0
  0
LINE
  5
16C
330
1F
100
AcDbEntity
  8
0
 62
     7
100
AcDbLine
 10
130.847046
 20
158.350006
 30
0.0
 11
130.847046
 21
157.649994
 31
0.0
  0
LINE
  5
16D
330
1F
100
AcDbEntity
  8
0
 62
     7
100
AcDbLine
 10
130.847046
 20
158.479279
 30
0.0
 11
130.847046
 21
158.350006
 31
0.0
  0
LINE
  5
16E
330
1F
100
AcDbEntity
  8
0
 62
     7
100
AcDbLine
 10
130.847046
 20
158.479279
 30
0.0
 11
130.847046
 21
158.620697
 31
0.0
  0
LINE
  5
16F
330
1F
100
AcDbEntity
  8
0
 62
     7
100
AcDbLine
 10
130.847046
 20
158.620697
 30
0.0
 11
130.847046
 21
158.75
 31
0.0
  0
LINE
  5
170
330
1F
100
AcDbEntity
  8
0
 62
     7
100
AcDbLine
 10
130.847046
 20
159.450012
 30
0.0
 11
130.847046
 21
158.75
 31
0.0
  0
LINE
  5
171
330
1F
100
AcDbEntity
  8
0
 62
     7
100
AcDbLine
 10
130.847046
 20
159.579285
 30
0.0
 11
130.847046
 21
159.450012
 31
0.0
  0
LINE
  5
172
330
1F
100
AcDbEntity
  8
0
 62
     7
100
AcDbLine
 10
130.847046
 20
159.579285
 30
0.0
 11
130.847046
 21
159.720703
 31
0.0
  0
LINE
  5
173
330
1F
100
AcDbEntity
  8
0
 62
     7
100
AcDbLine
 10
130.847046
 20
159.720703
 30
0.0
 11
130.847046
 21
159.850006
 31
0.0
  0
LINE
  5
174
330
1F
100
AcDbEntity
  8
0
 62
     7
100
AcDbLine
 10
130.847046
 20
160.549988
 30
0.0
 11
130.847046
 21
159.850006
 31
0.0
  0
LINE
  5
175
330
1F
100
AcDbEntity
  8
0
 62
     7
100
AcDbLine
 10
130.847046
 20
160.679291
 30
0.0
 11
130.847046
 21
160.549988
 31
0.0
  0
LINE
  5
176
330
1F
100
AcDbEntity
  8
0
 62
     7
100
AcDbLine
 10
130.847046
 20
160.679291
 30
0.0
 11
130.847046
 21
160.820709
 31
0.0
  0
LINE
  5
177
330
1F
100
AcDbEntity
  8
0
 62
     7
100
AcDbLine
 10
130.847046
 20
160.820709
 30
0.0
 11
130.847046
 21
160.950012
 31
0.0
  0
LINE
  5
178
330
1F
100
AcDbEntity
  8
0
 62
     7
100
AcDbLine
 10
128.547028
 20
154.079285
 30
0.0
 11
128.547028
 21
153.950012
 31
0.0
  0
LINE
  5
179
330
1F
100
AcDbEntity
  8
0
 62
     7
100
AcDbLine
 10
128.547028
 20
154.220703
 30
0.0
 11
128.547028
 21
154.350006
 31
0.0
  0
LINE
  5
17A
330
1F
100
AcDbEntity
  8
0
 62
     7
100
AcDbLine
 10
128.547028
 20
154.220703
 30
0.0
 11
128.547028
 21
154.079285
 31
0.0
  0
LINE
  5
17B
330
1F
100
AcDbEntity
  8
0
 62
     7
100
AcDbLine
 10
128.547028
 20
161.850006
 30
0.0
 11
128.547028
 21
161.779297
 31
0.0
  0
LINE
  5
17C
330
1F
100
AcDbEntity
  8
0
 62
     7
100
AcDbLine
 10
128.547028
 20
161.779297
 30
0.0
 11
128.547028
 21
161.649994
 31
0.0
  0
LINE
  5
17D
330
1F
100
AcDbEntity
  8
0
 62
     7
100
AcDbLine
 10
128.547028
 20
160.950012
 30
0.0
 11
128.547028
 21
161.649994
 31
0.0
  0
LINE
  5
17E
330
1F
100
AcDbEntity
  8
0
 62
     7
100
AcDbLine
 10
128.547028
 20
160.820709
 30
0.0
 11
128.547028
 21
160.950012
 31
0.0
  0
LINE
  5
17F
330
1F
100
AcDbEntity
  8
0
 62
     7
100
AcDbLine
 10
128.547028
 20
160.820709
 30
0.0
 11
128.547028
 21
160.679291
 31
0.0
  0
LINE
  5
180
330
1F
100
AcDbEntity
  8
0
 62
     7
100
AcDbLine
 10
128.547028
 20
160.679291
 30
0.0
 11
128.547028
 21
160.549988
 31
0.0
  0
LINE
  5
181
330
1F
100
AcDbEntity
  8
0
 62
     7
100
AcDbLine
 10
128.547028
 20
159.850006
 30
0.0
 11
128.547028
 21
160.549988
 31
0.0
  0
LINE
  5
182
330
1F
100
AcDbEntity
  8
0
 62
     7
100
AcDbLine
 10
128.547028
 20
159.720703
 30
0.0
 11
128.547028
 21
159.850006
 31
0.0
  0
LINE
  5
183
330
1F
100
AcDbEntity
  8
0
 62
     7
100
AcDbLine
 10
128.547028
 20
159.720703
 30
0.0
 11
128.547028
 21
159.579285
 31
0.0
  0
LINE
  5
184
330
1F
100
AcDbEntity
  8
0
 62
     7
100
AcDbLine
 10
128.547028
 20
159.579285
 30
0.0
 11
128.547028
 21
159.450012
 31
0.0
  0
LINE
  5
185
330
1F
100
AcDbEntity
  8
0
 62
     7
100
AcDbLine
 10
128.547028
 20
158.75
 30
0.0
 11
128.547028
 21
159.450012
 31
0.0
  0
LINE
  5
186
330
1F
100
AcDbEntity
  8
0
 62
     7
100
AcDbLine
 10
128.547028
 20
158.620697
 30
0.0
 11
128.547028
 21
158.75
 31
0.0
  0
LINE
  5
187
330
1F
100
AcDbEntity
  8
0
 62
     7
100
AcDbLine
 10
128.547028
 20
158.620697
 30
0.0
 11
128.547028
 21
158.479279
 31
0.0
  0
LINE
  5
188
330
1F
100
AcDbEntity
  8
0
 62
     7
100
AcDbLine
 10
128.547028
 20
158.479279
 30
0.0
 11
128.547028
 21
158.350006
 31
0.0
  0
LINE
  5
189
330
1F
100
AcDbEntity
  8
0
 62
     7
100
AcDbLine
 10
128.547028
 20
157.649994
 30
0.0
 11
128.547028
 21
158.350006
 31
0.0
  0
LINE
  5
18A
330
1F
100
AcDbEntity
  8
0
 62
     7
100
AcDbLine
 10
128.547028
 20
157.520721
 30
0.0
 11
128.547028
 21
157.649994
 31
0.0
  0
LINE
  5
18B
330
1F
100
AcDbEntity
  8
0
 62
     7
100
AcDbLine
 10
128.547028
 20
157.520721
 30
0.0
 11
128.547028
 21
157.379272
 31
0.0
  0
LINE
  5
18C
330
1F
100
AcDbEntity
  8
0
 62
     7
100
AcDbLine
 10
128.547028
 20
157.379272
 30
0.0
 11
128.547028
 21
157.25
 31
0.0
  0
LINE
  5
18D
330
1F
100
AcDbEntity
  8
0
 62
     7
100
AcDbLine
 10
128.547028
 20
156.549988
 30
0.0
 11
128.547028
 21
157.25
 31
0.0
  0
LINE
  5
18E
330
1F
100
AcDbEntity
  8
0
 62
     7
100
AcDbLine
 10
128.547028
 20
156.420715
 30
0.0
 11
128.547028
 21
156.549988
 31
0.0
  0
LINE
  5
18F
330
1F
100
AcDbEntity
  8
0
 62
     7
100
AcDbLine
 10
128.547028
 20
156.420715
 30
0.0
 11
128.547028
 21
156.279297
 31
0.0
  0
LINE
  5
190
330
1F
100
AcDbEntity
  8
0
 62
     7
100
AcDbLine
 10
128.547028
 20
156.279297
 30
0.0
 11
128.547028
 21
156.149994
 31
0.0
  0
LINE
  5
191
330
1F
100
AcDbEntity
  8
0
 62
     7
100
AcDbLine
 10
128.547028
 20
155.450012
 30
0.0
 11
128.547028
 21
156.149994
 31
0.0
  0
LINE
  5
192
330
1F
100
AcDbEntity
  8
0
 62
     7
100
AcDbLine
 10
128.547028
 20
155.320709
 30
0.0
 11
128.547028
 21
155.450012
 31
0.0
  0
LINE
  5
193
330
1F
100
AcDbEntity
  8
0
 62
     7
100
AcDbLine
 10
128.547028
 20
155.320709
 30
0.0
 11
128.547028
 21
155.179291
 31
0.0
  0
LINE
  5
194
330
1F
100
AcDbEntity
  8
0
 62
     7
100
AcDbLine
 10
128.547028
 20
155.179291
 30
0.0
 11
128.547028
 21
155.049988
 31
0.0
  0
LINE
  5
195
330
1F
100
AcDbEntity
  8
0
 62
     7
100
AcDbLine
 10
128.547028
 20
154.350006
 30
0.0
 11
128.547028
 21
155.049988
 31
0.0
  0
LINE
  5
196
330
1F
100
AcDbEntity
  8
0
 62
     7
100
AcDbLine
 10
127.54705
 20
160.679291
 30
0.0
 11
127.54705
 21
160.549988
 31
0.0
  0
LINE
  5
197
330
1F
100
AcDbEntity
  8
0
 62
     7
100
AcDbLine
 10
127.54705
 20
160.679291
 30
0.0
 11
127.54705
 21
160.820709
 31
0.0
  0
LINE
  5
198
330
1F
100
AcDbEntity
  8
0
 62
     7
100
AcDbLine
 10
127.54705
 20
160.820709
 30
0.0
 11
127.54705
 21
160.950012
 31
0.0
  0
LINE
  5
199
330
1F
100
AcDbEntity
  8
0
 62
     7
100
AcDbLine
 10
127.54705
 20
161.350006
 30
0.0
 11
127.54705
 21
160.950012
 31
0.0
  0
LINE
  5
19A
330
1F
100
AcDbEntity
  8
0
 62
     7
100
AcDbLine
 10
127.54705
 20
154.079285
 30
0.0
 11
127.54705
 21
153.950012
 31
0.0
  0
LINE
  5
19B
330
1F
100
AcDbEntity
  8
0
 62
     7
100
AcDbLine
 10
127.54705
 20
154.079285
 30
0.0
 11
127.54705
 21
154.220703
 31
0.0
  0
LINE
  5
19C
330
1F
100
AcDbEntity
  8
0
 62
     7
100
AcDbLine
 10
127.54705
 20
154.220703
 30
0.0
 11
127.54705
 21
154.350006
 31
0.0
  0
LINE
  5
19D
330
1F
100
AcDbEntity
  8
0
 62
     7
100
AcDbLine
 10
127.54705
 20
155.049988
 30
0.0
 11
127.54705
 21
154.350006
 31
0.0
  0
LINE
  5
19E
330
1F
100
AcDbEntity
  8
0
 62
     7
100
AcDbLine
 10
127.54705
 20
155.179291
 30
0.0
 11
127.54705
 21
155.049988
 31
0.0
  0
LINE
  5
19F
330
1F
100
AcDbEntity
  8
0
 62
     7
100
AcDbLine
 10
127.54705
 20
155.179291
 30
0.0
 11
127.54705
 21
155.320709
 31
0.0
  0
LINE
  5
1A0
330
1F
100
AcDbEntity
  8
0
 62
     7
100
AcDbLine
 10
127.54705
 20
155.320709
 30
0.0
 11
127.54705
 21
155.450012
 31
0.0
  0
LINE
  5
1A1
330
1F
100
AcDbEntity
  8
0
 62
     7
100
AcDbLine
 10
127.54705
 20
156.149994
 30
0.0
 11
127.54705
 21
155.450012
 31
0.0
  0
LINE
  5
1A2
330
1F
100
AcDbEntity
  8
0
 62
     7
100
AcDbLine
 10
127.54705
 20
156.279297
 30
0.0
 11
127.54705
 21
156.149994
 31
0.0
  0
LINE
  5
1A3
330
1F
100
AcDbEntity
  8
0
 62
     7
100
AcDbLine
 10
127.54705
 20
156.279297
 30
0.0
 11
127.54705
 21
156.420715
 31
0.0
  0
LINE
  5
1A4
330
1F
100
AcDbEntity
  8
0
 62
     7
100
AcDbLine
 10
127.54705
 20
156.420715
 30
0.0
 11
127.54705
 21
156.549988
 31
0.0
  0
LINE
  5
1A5
330
1F
100
AcDbEntity
  8
0
 62
     7
100
AcDbLine
 10
127.54705
 20
157.25
 30
0.0
 11
127.54705
 21
156.549988
 31
0.0
  0
LINE
  5
1A6
330
1F
100
AcDbEntity
  8
0
 62
     7
100
AcDbLine
 10
127.54705
 20
157.379272
 30
0.0
 11
127.54705
 21
157.25
 31
0.0
  0
LINE
  5
1A7
330
1F
100
AcDbEntity
  8
0
 62
     7
100
AcDbLine
 10
127.54705
 20
157.379272
 30
0.0
 11
127.54705
 21
157.520721
 31
0.0
  0
LINE
  5
1A8
330
1F
100
AcDbEntity
  8
0
 62
     7
100
AcDbLine
 10
127.54705
 20
157.520721
 30
0.0
 11
127.54705
 21
157.649994
 31
0.0
  0
LINE
  5
1A9
330
1F
100
AcDbEntity
  8
0
 62
     7
100
AcDbLine
 10
127.54705
 20
158.350006
 30
0.0
 11
127.54705
 21
157.649994
 31
0.0
  0
LINE
  5
1AA
330
1F
100
AcDbEntity
  8
0
 62
     7
100
AcDbLine
 10
127.54705
 20
158.479279
 30
0.0
 11
127.54705
 21
158.350006
 31
0.0
  0
LINE
  5
1AB
330
1F
100
AcDbEntity
  8
0
 62
     7
100
AcDbLine
 10
127.54705
 20
158.479279
 30
0.0
 11
127.54705
 21
158.620697
 31
0.0
  0
LINE
  5
1AC
330
1F
100
AcDbEntity
  8
0
 62
     7
100
AcDbLine
 10
127.54705
 20
158.620697
 30
0.0
 11
127.54705
 21
158.75
 31
0.0
  0
LINE
  5
1AD
330
1F
100
AcDbEntity
  8
0
 62
     7
100
AcDbLine
 10
127.54705
 20
159.450012
 30
0.0
 11
127.54705
 21
158.75
 31
0.0
  0
LINE
  5
1AE
330
1F
100
AcDbEntity
  8
0
 62
     7
100
AcDbLine
 10
127.54705
 20
159.579285
 30
0.0
 11
127.54705
 21
159.450012
 31
0.0
  0
LINE
  5
1AF
330
1F
100
AcDbEntity
  8
0
 62
     7
100
AcDbLine
 10
127.54705
 20
159.579285
 30
0.0
 11
127.54705
 21
159.720703
 31
0.0
  0
LINE
  5
1B0
330
1F
100
AcDbEntity
  8
0
 62
     7
100
AcDbLine
 10
127.54705
 20
159.720703
 30
0.0
 11
127.54705
 21
159.850006
 31
0.0
  0
LINE
  5
1B1
330
1F
100
AcDbEntity
  8
0
 62
     7
100
AcDbLine
 10
127.54705
 20
160.549988
 30
0.0
 11
127.54705
 21
159.850006
 31
0.0
  0
LINE
  5
1B2
330
1F
100
AcDbEntity
  8
0
 62
     7
100
AcDbLine
 10
68.878372
 20
153.950012
 30
0.0
 11
68.961746
 21
154.079285
 31
0.0
  0
ARC
  5
1B3
330
1F
100
AcDbEntity
  8
0
 62
     7
100
AcDbCircle
 10
62.197052
 20
158.350006
 30
0.0
 40
8.0
100
AcDbArc
 50
354.980203
 51
360.0
  0
LINE
  5
1B4
330
1F
100
AcDbEntity
  8
0
 62
     7
100
AcDbLine
 10
70.153961
 20
157.520721
 30
0.0
 11
70.166374
 21
157.649994
 31
0.0
  0
LINE
  5
1B5
330
1F
100
AcDbEntity
  8
0
 62
     7
100
AcDbLine
 10
70.137947
 20
157.379272
 30
0.0
 11
70.153961
 21
157.520721
 31
0.0
  0
LINE
  5
1B6
330
1F
100
AcDbEntity
  8
0
 62
     7
100
AcDbLine
 10
70.121071
 20
157.25
 30
0.0
 11
70.137947
 21
157.379272
 31
0.0
  0
ARC
  5
1B7
330
1F
100
AcDbEntity
  8
0
 62
     7
100
AcDbCircle
 10
62.197052
 20
158.350006
 30
0.0
 40
8.0
100
AcDbArc
 50
346.997132
 51
352.096798
  0
LINE
  5
1B8
330
1F
100
AcDbEntity
  8
0
 62
     7
100
AcDbLine
 10
69.960938
 20
156.420715
 30
0.0
 11
69.991928
 21
156.549988
 31
0.0
  0
LINE
  5
1B9
330
1F
100
AcDbEntity
  8
0
 62
     7
100
AcDbLine
 10
69.924423
 20
156.279297
 30
0.0
 11
69.960938
 21
156.420715
 31
0.0
  0
LINE
  5
1BA
330
1F
100
AcDbEntity
  8
0
 62
     7
100
AcDbLine
 10
69.888611
 20
156.149994
 30
0.0
 11
69.924423
 21
156.279297
 31
0.0
  0
ARC
  5
1BB
330
1F
100
AcDbEntity
  8
0
 62
     7
100
AcDbCircle
 10
62.197052
 20
158.350006
 30
0.0
 40
8.0
100
AcDbArc
 50
338.746183
 51
344.037995
  0
LINE
  5
1BC
330
1F
100
AcDbEntity
  8
0
 62
     7
100
AcDbLine
 10
69.601341
 20
155.320709
 30
0.0
 11
69.652931
 21
155.450012
 31
0.0
  0
LINE
  5
1BD
330
1F
100
AcDbEntity
  8
0
 62
     7
100
AcDbLine
 10
69.541893
 20
155.179291
 30
0.0
 11
69.601341
 21
155.320709
 31
0.0
  0
LINE
  5
1BE
330
1F
100
AcDbEntity
  8
0
 62
     7
100
AcDbLine
 10
69.484718
 20
155.049988
 30
0.0
 11
69.541893
 21
155.179291
 31
0.0
  0
ARC
  5
1BF
330
1F
100
AcDbEntity
  8
0
 62
     7
100
AcDbCircle
 10
62.197052
 20
158.350006
 30
0.0
 40
8.0
100
AcDbArc
 50
329.999989
 51
335.63801
  0
LINE
  5
1C0
330
1F
100
AcDbEntity
  8
0
 62
     7
100
AcDbLine
 10
69.048988
 20
154.220703
 30
0.0
 11
69.125259
 21
154.350006
 31
0.0
  0
LINE
  5
1C1
330
1F
100
AcDbEntity
  8
0
 62
     7
100
AcDbLine
 10
68.961746
 20
154.079285
 30
0.0
 11
69.048988
 21
154.220703
 31
0.0
  0
LINE
  5
1C2
330
1F
100
AcDbEntity
  8
0
 62
     7
100
AcDbLine
 10
55.515732
 20
153.950012
 30
0.0
 11
55.432365
 21
154.079285
 31
0.0
  0
LINE
  5
1C3
330
1F
100
AcDbEntity
  8
0
 62
     7
100
AcDbLine
 10
55.432365
 20
154.079285
 30
0.0
 11
55.345123
 21
154.220703
 31
0.0
  0
LINE
  5
1C4
330
1F
100
AcDbEntity
  8
0
 62
     7
100
AcDbLine
 10
55.345123
 20
154.220703
 30
0.0
 11
55.268852
 21
154.350006
 31
0.0
  0
ARC
  5
1C5
330
1F
100
AcDbEntity
  8
0
 62
     7
100
AcDbCircle
 10
62.197052
 20
158.350006
 30
0.0
 40
8.0
100
AcDbArc
 50
204.361982
 51
210.000003
  0
LINE
  5
1C6
330
1F
100
AcDbEntity
  8
0
 62
     7
100
AcDbLine
 10
54.909393
 20
155.049988
 30
0.0
 11
54.852219
 21
155.179291
 31
0.0
  0
LINE
  5
1C7
330
1F
100
AcDbEntity
  8
0
 62
     7
100
AcDbLine
 10
54.852219
 20
155.179291
 30
0.0
 11
54.79277
 21
155.320709
 31
0.0
  0
LINE
  5
1C8
330
1F
100
AcDbEntity
  8
0
 62
     7
100
AcDbLine
 10
54.79277
 20
155.320709
 30
0.0
 11
54.74118
 21
155.450012
 31
0.0
  0
ARC
  5
1C9
330
1F
100
AcDbEntity
  8
0
 62
     7
100
AcDbCircle
 10
62.197052
 20
158.350006
 30
0.0
 40
8.0
100
AcDbArc
 50
195.96201
 51
201.253809
  0
LINE
  5
1CA
330
1F
100
AcDbEntity
  8
0
 62
     7
100
AcDbLine
 10
54.505501
 20
156.149994
 30
0.0
 11
54.469688
 21
156.279297
 31
0.0
  0
LINE
  5
1CB
330
1F
100
AcDbEntity
  8
0
 62
     7
100
AcDbLine
 10
54.469688
 20
156.279297
 30
0.0
 11
54.433174
 21
156.420715
 31
0.0
  0
LINE
  5
1CC
330
1F
100
AcDbEntity
  8
0
 62
     7
100
AcDbLine
 10
54.433174
 20
156.420715
 30
0.0
 11
54.402184
 21
156.549988
 31
0.0
  0
ARC
  5
1CD
330
1F
100
AcDbEntity
  8
0
 62
     7
100
AcDbCircle
 10
62.197052
 20
158.350006
 30
0.0
 40
8.0
100
AcDbArc
 50
187.903207
 51
193.002872
  0
LINE
  5
1CE
330
1F
100
AcDbEntity
  8
0
 62
     7
100
AcDbLine
 10
54.273041
 20
157.25
 30
0.0
 11
54.256165
 21
157.379272
 31
0.0
  0
LINE
  5
1CF
330
1F
100
AcDbEntity
  8
0
 62
     7
100
AcDbLine
 10
54.256165
 20
157.379272
 30
0.0
 11
54.24015
 21
157.520721
 31
0.0
  0
LINE
  5
1D0
330
1F
100
AcDbEntity
  8
0
 62
     7
100
AcDbLine
 10
54.24015
 20
157.520721
 30
0.0
 11
54.227737
 21
157.649994
 31
0.0
  0
ARC
  5
1D1
330
1F
100
AcDbEntity
  8
0
 62
     7
100
AcDbCircle
 10
62.197052
 20
158.350006
 30
0.0
 40
8.0
100
AcDbArc
 50
180.000009
 51
185.019802
  0
LINE
  5
1D2
330
1F
100
AcDbEntity
  8
0
 62
     7
100
AcDbLine
 10
53.197052
 20
154.079285
 30
0.0
 11
53.197052
 21
153.950012
 31
0.0
  0
LINE
  5
1D3
330
1F
100
AcDbEntity
  8
0
 62
     7
100
AcDbLine
 10
53.197052
 20
154.220703
 30
0.0
 11
53.197052
 21
154.079285
 31
0.0
  0
LINE
  5
1D4
330
1F
100
AcDbEntity
  8
0
 62
     7
100
AcDbLine
 10
53.197052
 20
154.350006
 30
0.0
 11
53.197052
 21
154.220703
 31
0.0
  0
LINE
  5
1D5
330
1F
100
AcDbEntity
  8
0
 62
     7
100
AcDbLine
 10
53.197052
 20
154.350006
 30
0.0
 11
53.197052
 21
155.049988
 31
0.0
  0
LINE
  5
1D6
330
1F
100
AcDbEntity
  8
0
 62
     7
100
AcDbLine
 10
53.197052
 20
155.179291
 30
0.0
 11
53.197052
 21
155.049988
 31
0.0
  0
LINE
  5
1D7
330
1F
100
AcDbEntity
  8
0
 62
     7
100
AcDbLine
 10
53.197052
 20
155.320709
 30
0.0
 11
53.197052
 21
155.179291
 31
0.0
  0
LINE
  5
1D8
330
1F
100
AcDbEntity
  8
0
 62
     7
100
AcDbLine
 10
53.197052
 20
155.450012
 30
0.0
 11
53.197052
 21
155.320709
 31
0.0
  0
LINE
  5
1D9
330
1F
100
AcDbEntity
  8
0
 62
     7
100
AcDbLine
 10
53.197052
 20
155.450012
 30
0.0
 11
53.197052
 21
156.149994
 31
0.0
  0
LINE
  5
1DA
330
1F
100
AcDbEntity
  8
0
 62
     7
100
AcDbLine
 10
53.197052
 20
156.279297
 30
0.0
 11
53.197052
 21
156.149994
 31
0.0
  0
LINE
  5
1DB
330
1F
100
AcDbEntity
  8
0
 62
     7
100
AcDbLine
 10
53.197052
 20
156.420715
 30
0.0
 11
53.197052
 21
156.279297
 31
0.0
  0
LINE
  5
1DC
330
1F
100
AcDbEntity
  8
0
 62
     7
100
AcDbLine
 10
53.197052
 20
156.549988
 30
0.0
 11
53.197052
 21
156.420715
 31
0.0
  0
LINE
  5
1DD
330
1F
100
AcDbEntity
  8
0
 62
     7
100
AcDbLine
 10
53.197052
 20
156.549988
 30
0.0
 11
53.197052
 21
157.25
 31
0.0
  0
LINE
  5
1DE
330
1F
100
AcDbEntity
  8
0
 62
     7
100
AcDbLine
 10
53.197052
 20
157.379272
 30
0.0
 11
53.197052
 21
157.25
 31
0.0
  0
LINE
  5
1DF
330
1F
100
AcDbEntity
  8
0
 62
     7
100
AcDbLine
 10
53.197052
 20
157.520721
 30
0.0
 11
53.197052
 21
157.379272
 31
0.0
  0
LINE
  5
1E0
330
1F
100
AcDbEntity
  8
0
 62
     7
100
AcDbLine
 10
53.197052
 20
157.649994
 30
0.0
 11
53.197052
 21
157.520721
 31
0.0
  0
LINE
  5
1E1
330
1F
100
AcDbEntity
  8
0
 62
     7
100
AcDbLine
 10
53.197052
 20
157.649994
 30
0.0
 11
53.197052
 21
158.350006
 31
0.0
  0
LINE
  5
1E2
330
1F
100
AcDbEntity
  8
0
 62
     7
100
AcDbLine
 10
53.197052
 20
158.479279
 30
0.0
 11
53.197052
 21
158.350006
 31
0.0
  0
LINE
  5
1E3
330
1F
100
AcDbEntity
  8
0
 62
     7
100
AcDbLine
 10
53.197052
 20
158.620697
 30
0.0
 11
53.197052
 21
158.479279
 31
0.0
  0
LINE
  5
1E4
330
1F
100
AcDbEntity
  8
0
 62
     7
100
AcDbLine
 10
53.197052
 20
158.75
 30
0.0
 11
53.197052
 21
158.620697
 31
0.0
  0
LINE
  5
1E5
330
1F
100
AcDbEntity
  8
0
 62
     7
100
AcDbLine
 10
53.197052
 20
158.75
 30
0.0
 11
53.197052
 21
159.450012
 31
0.0
  0
LINE
  5
1E6
330
1F
100
AcDbEntity
  8
0
 62
     7
100
AcDbLine
 10
53.197052
 20
159.579285
 30
0.0
 11
53.197052
 21
159.450012
 31
0.0
  0
LINE
  5
1E7
330
1F
100
AcDbEntity
  8
0
 62
     7
100
AcDbLine
 10
53.197052
 20
159.720703
 30
0.0
 11
53.197052
 21
159.579285
 31
0.0
  0
LINE
  5
1E8
330
1F
100
AcDbEntity
  8
0
 62
     7
100
AcDbLine
 10
53.197052
 20
159.850006
 30
0.0
 11
53.197052
 21
159.720703
 31
0.0
  0
LINE
  5
1E9
330
1F
100
AcDbEntity
  8
0
 62
     7
100
AcDbLine
 10
53.197052
 20
159.850006
 30
0.0
 11
53.197052
 21
160.549988
 31
0.0
  0
LINE
  5
1EA
330
1F
100
AcDbEntity
  8
0
 62
     7
100
AcDbLine
 10
53.197052
 20
160.679291
 30
0.0
 11
53.197052
 21
160.549988
 31
0.0
  0
LINE
  5
1EB
330
1F
100
AcDbEntity
  8
0
 62
     7
100
AcDbLine
 10
53.197052
 20
160.820709
 30
0.0
 11
53.197052
 21
160.679291
 31
0.0
  0
LINE
  5
1EC
330
1F
100
AcDbEntity
  8
0
 62
     7
100
AcDbLine
 10
53.197052
 20
160.950012
 30
0.0
 11
53.197052
 21
160.820709
 31
0.0
  0
LINE
  5
1ED
330
1F
100
AcDbEntity
  8
0
 62
     7
100
AcDbLine
 10
53.197052
 20
160.950012
 30
0.0
 11
53.197052
 21
161.649994
 31
0.0
  0
LINE
  5
1EE
330
1F
100
AcDbEntity
  8
0
 62
     7
100
AcDbLine
 10
53.197052
 20
161.779297
 30
0.0
 11
53.197052
 21
161.649994
 31
0.0
  0
LINE
  5
1EF
330
1F
100
AcDbEntity
  8
0
 62
     7
100
AcDbLine
 10
53.197052
 20
161.920715
 30
0.0
 11
53.197052
 21
161.779297
 31
0.0
  0
LINE
  5
1F0
330
1F
100
AcDbEntity
  8
0
 62
     7
100
AcDbLine
 10
53.197052
 20
162.049988
 30
0.0
 11
53.197052
 21
161.920715
 31
0.0
  0
LINE
  5
1F1
330
1F
100
AcDbEntity
  8
0
 62
     7
100
AcDbLine
 10
53.197052
 20
162.049988
 30
0.0
 11
53.197052
 21
162.75
 31
0.0
  0
LINE
  5
1F2
330
1F
100
AcDbEntity
  8
0
 62
     7
100
AcDbLine
 10
53.197052
 20
162.879272
 30
0.0
 11
53.197052
 21
162.75
 31
0.0
  0
LINE
  5
1F3
330
1F
100
AcDbEntity
  8
0
 62
     7
100
AcDbLine
 10
53.197052
 20
163.020721
 30
0.0
 11
53.197052
 21
162.879272
 31
0.0
  0
LINE
  5
1F4
330
1F
100
AcDbEntity
  8
0
 62
     7
100
AcDbLine
 10
53.197052
 20
163.149994
 30
0.0
 11
53.197052
 21
163.020721
 31
0.0
  0
LINE
  5
1F5
330
1F
100
AcDbEntity
  8
0
 62
     7
100
AcDbLine
 10
53.197052
 20
163.149994
 30
0.0
 11
53.197052
 21
167.974274
 31
0.0
  0
LINE
  5
1F6
330
1F
100
AcDbEntity
  8
0
 62
     7
100
AcDbLine
 10
53.197052
 20
168.462128
 30
0.0
 11
53.197052
 21
167.974274
 31
0.0
  0
LINE
  5
1F7
330
1F
100
AcDbEntity
  8
0
 62
     7
100
AcDbLine
 10
53.197052
 20
168.549988
 30
0.0
 11
53.197052
 21
168.462128
 31
0.0
  0
ARC
  5
1F8
330
1F
100
AcDbEntity
  8
0
 62
     7
100
AcDbCircle
 10
180.697052
 20
145.549988
 30
0.0
 40
0.5
100
AcDbArc
 50
0.0
 51
90.000003
  0
LINE
  5
1F9
330
1F
100
AcDbEntity
  8
0
 62
     7
100
AcDbLine
 10
180.697052
 20
146.049988
 30
0.0
 11
173.697052
 21
146.049988
 31
0.0
  0
ARC
  5
1FA
330
1F
100
AcDbEntity
  8
0
 62
     7
100
AcDbCircle
 10
173.697052
 20
145.549988
 30
0.0
 40
0.5
100
AcDbArc
 50
90.000003
 51
180.000009
  0
LINE
  5
1FB
330
1F
100
AcDbEntity
  8
0
 62
     7
100
AcDbLine
 10
173.197052
 20
145.549988
 30
0.0
 11
173.197052
 21
141.549988
 31
0.0
  0
ARC
  5
1FC
330
1F
100
AcDbEntity
  8
0
 62
     7
100
AcDbCircle
 10
173.697052
 20
141.549988
 30
0.0
 40
0.5
100
AcDbArc
 50
180.000009
 51
269.999997
  0
LINE
  5
1FD
330
1F
100
AcDbEntity
  8
0
 62
     7
100
AcDbLine
 10
173.697052
 20
141.049988
 30
0.0
 11
180.697052
 21
141.049988
 31
0.0
  0
ARC
  5
1FE
330
1F
100
AcDbEntity
  8
0
 62
     7
100
AcDbCircle
 10
180.697052
 20
141.549988
 30
0.0
 40
0.5
100
AcDbArc
 50
269.999997
 51
360.0
  0
LINE
  5
1FF
330
1F
100
AcDbEntity
  8
0
 62
     7
100
AcDbLine
 10
181.197052
 20
141.549988
 30
0.0
 11
181.197052
 21
145.549988
 31
0.0
  0
ARC
  5
200
330
1F
100
AcDbEntity
  8
0
 62
     7
100
AcDbCircle
 10
110.69706
 20
145.549988
 30
0.0
 40
0.5
100
AcDbArc
 50
0.0
 51
90.000003
  0
LINE
  5
201
330
1F
100
AcDbEntity
  8
0
 62
     7
100
AcDbLine
 10
110.69706
 20
146.049988
 30
0.0
 11
103.69706
 21
146.049988
 31
0.0
  0
ARC
  5
202
330
1F
100
AcDbEntity
  8
0
 62
     7
100
AcDbCircle
 10
103.69706
 20
145.549988
 30
0.0
 40
0.5
100
AcDbArc
 50
90.000003
 51
180.000009
  0
LINE
  5
203
330
1F
100
AcDbEntity
  8
0
 62
     7
100
AcDbLine
 10
103.19706
 20
145.549988
 30
0.0
 11
103.19706
 21
141.549988
 31
0.0
  0
ARC
  5
204
330
1F
100
AcDbEntity
  8
0
 62
     7
100
AcDbCircle
 10
103.69706
 20
141.549988
 30
0.0
 40
0.5
100
AcDbArc
 50
180.000009
 51
269.999997
  0
LINE
  5
205
330
1F
100
AcDbEntity
  8
0
 62
     7
100
AcDbLine
 10
103.69706
 20
141.049988
 30
0.0
 11
110.69706
 21
141.049988
 31
0.0
  0
ARC
  5
206
330
1F
100
AcDbEntity
  8
0
 62
     7
100
AcDbCircle
 10
110.69706
 20
141.549988
 30
0.0
 40
0.5
100
AcDbArc
 50
269.999997
 51
360.0
  0
LINE
  5
207
330
1F
100
AcDbEntity
  8
0
 62
     7
100
AcDbLine
 10
111.19706
 20
141.549988
 30
0.0
 11
111.19706
 21
145.549988
 31
0.0
  0
LINE
  5
208
330
1F
100
AcDbEntity
  8
0
 62
     7
100
AcDbLine
 10
256.697021
 20
146.350006
 30
0.0
 11
256.197021
 21
146.350006
 31
0.0
  0
LINE
  5
209
330
1F
100
AcDbEntity
  8
0
 62
     7
100
AcDbLine
 10
256.197021
 20
148.649994
 30
0.0
 11
256.697021
 21
148.649994
 31
0.0
  0
LINE
  5
20A
330
1F
100
AcDbEntity
  8
0
 62
     7
100
AcDbLine
 10
52.697052
 20
148.649994
 30
0.0
 11
53.197052
 21
148.649994
 31
0.0
  0
LINE
  5
20B
330
1F
100
AcDbEntity
  8
0
 62
     7
100
AcDbLine
 10
183.697052
 20
168.462128
 30
0.0
 11
183.697052
 21
168.549988
 31
0.0
  0
LINE
  5
20C
330
1F
100
AcDbEntity
  8
0
 62
     7
100
AcDbLine
 10
183.697052
 20
168.462128
 30
0.0
 11
183.697052
 21
167.974274
 31
0.0
  0
LINE
  5
20D
330
1F
100
AcDbEntity
  8
0
 62
     7
100
AcDbLine
 10
256.197021
 20
167.974274
 30
0.0
 11
183.697052
 21
167.974274
 31
0.0
  0
ARC
  5
20E
330
1F
100
AcDbEntity
  8
0
 62
     7
100
AcDbCircle
 10
247.197021
 20
158.350006
 30
0.0
 40
8.0
100
AcDbArc
 50
36.869897
 51
143.130097
  0
LINE
  5
20F
330
1F
100
AcDbEntity
  8
0
 62
     7
100
AcDbLine
 10
256.197021
 20
163.149994
 30
0.0
 11
253.597015
 21
163.149994
 31
0.0
  0
LINE
  5
210
330
1F
100
AcDbEntity
  8
0
 62
     7
100
AcDbLine
 10
183.697052
 20
163.149994
 30
0.0
 11
183.697052
 21
167.974274
 31
0.0
  0
LINE
  5
211
330
1F
100
AcDbEntity
  8
0
 62
     7
100
AcDbLine
 10
240.797028
 20
163.149994
 30
0.0
 11
183.697052
 21
163.149994
 31
0.0
  0
LINE
  5
212
330
1F
100
AcDbEntity
  8
0
 62
     7
100
AcDbLine
 10
253.597015
 20
163.149994
 30
0.0
 11
253.691986
 21
163.020721
 31
0.0
  0
LINE
  5
213
330
1F
100
AcDbEntity
  8
0
 62
     7
100
AcDbLine
 10
253.691986
 20
163.020721
 30
0.0
 11
253.791382
 21
162.879272
 31
0.0
  0
LINE
  5
214
330
1F
100
AcDbEntity
  8
0
 62
     7
100
AcDbLine
 10
253.791382
 20
162.879272
 30
0.0
 11
253.878357
 21
162.75
 31
0.0
  0
LINE
  5
215
330
1F
100
AcDbEntity
  8
0
 62
     7
100
AcDbLine
 10
256.197021
 20
162.75
 30
0.0
 11
253.878357
 21
162.75
 31
0.0
  0
ARC
  5
216
330
1F
100
AcDbEntity
  8
0
 62
     7
100
AcDbCircle
 10
247.197021
 20
158.350006
 30
0.0
 40
8.0
100
AcDbArc
 50
27.548547
 51
33.367014
  0
LINE
  5
217
330
1F
100
AcDbEntity
  8
0
 62
     7
100
AcDbLine
 10
256.197021
 20
162.049988
 30
0.0
 11
254.289978
 21
162.049988
 31
0.0
  0
LINE
  5
218
330
1F
100
AcDbEntity
  8
0
 62
     7
100
AcDbLine
 10
254.289978
 20
162.049988
 30
0.0
 11
254.355927
 21
161.920715
 31
0.0
  0
LINE
  5
219
330
1F
100
AcDbEntity
  8
0
 62
     7
100
AcDbLine
 10
254.355927
 20
161.920715
 30
0.0
 11
254.424744
 21
161.779297
 31
0.0
  0
LINE
  5
21A
330
1F
100
AcDbEntity
  8
0
 62
     7
100
AcDbLine
 10
254.424744
 20
161.779297
 30
0.0
 11
254.48468
 21
161.649994
 31
0.0
  0
LINE
  5
21B
330
1F
100
AcDbEntity
  8
0
 62
     7
100
AcDbLine
 10
256.197021
 20
161.649994
 30
0.0
 11
254.48468
 21
161.649994
 31
0.0
  0
ARC
  5
21C
330
1F
100
AcDbEntity
  8
0
 62
     7
100
AcDbCircle
 10
247.197021
 20
158.350006
 30
0.0
 40
8.0
100
AcDbArc
 50
18.965574
 51
24.361978
  0
LINE
  5
21D
330
1F
100
AcDbEntity
  8
0
 62
     7
100
AcDbLine
 10
256.197021
 20
160.950012
 30
0.0
 11
254.762756
 21
160.950012
 31
0.0
  0
LINE
  5
21E
330
1F
100
AcDbEntity
  8
0
 62
     7
100
AcDbLine
 10
254.762756
 20
160.950012
 30
0.0
 11
254.805939
 21
160.820709
 31
0.0
  0
LINE
  5
21F
330
1F
100
AcDbEntity
  8
0
 62
     7
100
AcDbLine
 10
254.805939
 20
160.820709
 30
0.0
 11
254.850433
 21
160.679291
 31
0.0
  0
LINE
  5
220
330
1F
100
AcDbEntity
  8
0
 62
     7
100
AcDbLine
 10
254.850433
 20
160.679291
 30
0.0
 11
254.88858
 21
160.549988
 31
0.0
  0
LINE
  5
221
330
1F
100
AcDbEntity
  8
0
 62
     7
100
AcDbLine
 10
256.197021
 20
160.549988
 30
0.0
 11
254.88858
 21
160.549988
 31
0.0
  0
ARC
  5
222
330
1F
100
AcDbEntity
  8
0
 62
     7
100
AcDbCircle
 10
247.197021
 20
158.350006
 30
0.0
 40
8.0
100
AcDbArc
 50
10.806926
 51
15.962019
  0
LINE
  5
223
330
1F
100
AcDbEntity
  8
0
 62
     7
100
AcDbLine
 10
256.197021
 20
159.850006
 30
0.0
 11
255.055145
 21
159.850006
 31
0.0
  0
LINE
  5
224
330
1F
100
AcDbEntity
  8
0
 62
     7
100
AcDbLine
 10
255.055145
 20
159.850006
 30
0.0
 11
255.078735
 21
159.720703
 31
0.0
  0
LINE
  5
225
330
1F
100
AcDbEntity
  8
0
 62
     7
100
AcDbLine
 10
255.078735
 20
159.720703
 30
0.0
 11
255.10202
 21
159.579285
 31
0.0
  0
LINE
  5
226
330
1F
100
AcDbEntity
  8
0
 62
     7
100
AcDbLine
 10
255.10202
 20
159.579285
 30
0.0
 11
255.121033
 21
159.450012
 31
0.0
  0
LINE
  5
227
330
1F
100
AcDbEntity
  8
0
 62
     7
100
AcDbLine
 10
256.197021
 20
159.450012
 30
0.0
 11
255.121033
 21
159.450012
 31
0.0
  0
ARC
  5
228
330
1F
100
AcDbEntity
  8
0
 62
     7
100
AcDbCircle
 10
247.197021
 20
158.350006
 30
0.0
 40
8.0
100
AcDbArc
 50
2.865984
 51
7.903208
  0
LINE
  5
229
330
1F
100
AcDbEntity
  8
0
 62
     7
100
AcDbLine
 10
256.197021
 20
158.75
 30
0.0
 11
255.187012
 21
158.75
 31
0.0
  0
LINE
  5
22A
330
1F
100
AcDbEntity
  8
0
 62
     7
100
AcDbLine
 10
255.187012
 20
158.75
 30
0.0
 11
255.192444
 21
158.620697
 31
0.0
  0
LINE
  5
22B
330
1F
100
AcDbEntity
  8
0
 62
     7
100
AcDbLine
 10
255.192444
 20
158.620697
 30
0.0
 11
255.195984
 21
158.479279
 31
0.0
  0
LINE
  5
22C
330
1F
100
AcDbEntity
  8
0
 62
     7
100
AcDbLine
 10
255.195984
 20
158.479279
 30
0.0
 11
255.197021
 21
158.350006
 31
0.0
  0
LINE
  5
22D
330
1F
100
AcDbEntity
  8
0
 62
     7
100
AcDbLine
 10
256.197021
 20
158.350006
 30
0.0
 11
255.197021
 21
158.350006
 31
0.0
  0
LINE
  5
22E
330
1F
100
AcDbEntity
  8
0
 62
     7
100
AcDbLine
 10
256.197021
 20
157.649994
 30
0.0
 11
255.166351
 21
157.649994
 31
0.0
  0
LINE
  5
22F
330
1F
100
AcDbEntity
  8
0
 62
     7
100
AcDbLine
 10
256.197021
 20
157.25
 30
0.0
 11
255.121033
 21
157.25
 31
0.0
  0
LINE
  5
230
330
1F
100
AcDbEntity
  8
0
 62
     7
100
AcDbLine
 10
256.197021
 20
156.549988
 30
0.0
 11
254.991913
 21
156.549988
 31
0.0
  0
LINE
  5
231
330
1F
100
AcDbEntity
  8
0
 62
     7
100
AcDbLine
 10
256.197021
 20
156.149994
 30
0.0
 11
254.88858
 21
156.149994
 31
0.0
  0
LINE
  5
232
330
1F
100
AcDbEntity
  8
0
 62
     7
100
AcDbLine
 10
256.197021
 20
155.450012
 30
0.0
 11
254.652893
 21
155.450012
 31
0.0
  0
LINE
  5
233
330
1F
100
AcDbEntity
  8
0
 62
     7
100
AcDbLine
 10
256.197021
 20
155.049988
 30
0.0
 11
254.48468
 21
155.049988
 31
0.0
  0
LINE
  5
234
330
1F
100
AcDbEntity
  8
0
 62
     7
100
AcDbLine
 10
256.197021
 20
154.350006
 30
0.0
 11
254.125244
 21
154.350006
 31
0.0
  0
LINE
  5
235
330
1F
100
AcDbEntity
  8
0
 62
     7
100
AcDbLine
 10
240.268829
 20
154.350006
 30
0.0
 11
181.847046
 21
154.350006
 31
0.0
  0
LINE
  5
236
330
1F
100
AcDbEntity
  8
0
 62
     7
100
AcDbLine
 10
239.909363
 20
155.049988
 30
0.0
 11
181.847046
 21
155.049988
 31
0.0
  0
LINE
  5
237
330
1F
100
AcDbEntity
  8
0
 62
     7
100
AcDbLine
 10
239.74115
 20
155.450012
 30
0.0
 11
181.847046
 21
155.450012
 31
0.0
  0
LINE
  5
238
330
1F
100
AcDbEntity
  8
0
 62
     7
100
AcDbLine
 10
239.505463
 20
156.149994
 30
0.0
 11
181.847046
 21
156.149994
 31
0.0
  0
LINE
  5
239
330
1F
100
AcDbEntity
  8
0
 62
     7
100
AcDbLine
 10
239.402161
 20
156.549988
 30
0.0
 11
181.847046
 21
156.549988
 31
0.0
  0
LINE
  5
23A
330
1F
100
AcDbEntity
  8
0
 62
     7
100
AcDbLine
 10
239.27301
 20
157.25
 30
0.0
 11
181.847046
 21
157.25
 31
0.0
  0
LINE
  5
23B
330
1F
100
AcDbEntity
  8
0
 62
     7
100
AcDbLine
 10
239.227722
 20
157.649994
 30
0.0
 11
181.847046
 21
157.649994
 31
0.0
  0
LINE
  5
23C
330
1F
100
AcDbEntity
  8
0
 62
     7
100
AcDbLine
 10
239.197021
 20
158.350006
 30
0.0
 11
181.847046
 21
158.350006
 31
0.0
  0
LINE
  5
23D
330
1F
100
AcDbEntity
  8
0
 62
     7
100
AcDbLine
 10
239.198059
 20
158.479279
 30
0.0
 11
239.197021
 21
158.350006
 31
0.0
  0
LINE
  5
23E
330
1F
100
AcDbEntity
  8
0
 62
     7
100
AcDbLine
 10
239.201599
 20
158.620697
 30
0.0
 11
239.198059
 21
158.479279
 31
0.0
  0
LINE
  5
23F
330
1F
100
AcDbEntity
  8
0
 62
     7
100
AcDbLine
 10
239.207031
 20
158.75
 30
0.0
 11
239.201599
 21
158.620697
 31
0.0
  0
ARC
  5
240
330
1F
100
AcDbEntity
  8
0
 62
     7
100
AcDbCircle
 10
247.197021
 20
158.350006
 30
0.0
 40
8.0
100
AcDbArc
 50
172.096793
 51
177.134017
  0
LINE
  5
241
330
1F
100
AcDbEntity
  8
0
 62
     7
100
AcDbLine
 10
239.292053
 20
159.579285
 30
0.0
 11
239.27301
 21
159.450012
 31
0.0
  0
LINE
  5
242
330
1F
100
AcDbEntity
  8
0
 62
     7
100
AcDbLine
 10
239.315338
 20
159.720703
 30
0.0
 11
239.292053
 21
159.579285
 31
0.0
  0
LINE
  5
243
330
1F
100
AcDbEntity
  8
0
 62
     7
100
AcDbLine
 10
239.338898
 20
159.850006
 30
0.0
 11
239.315338
 21
159.720703
 31
0.0
  0
ARC
  5
244
330
1F
100
AcDbEntity
  8
0
 62
     7
100
AcDbCircle
 10
247.197021
 20
158.350006
 30
0.0
 40
8.0
100
AcDbArc
 50
164.03799
 51
169.193075
  0
LINE
  5
245
330
1F
100
AcDbEntity
  8
0
 62
     7
100
AcDbLine
 10
239.54364
 20
160.679291
 30
0.0
 11
239.505463
 21
160.549988
 31
0.0
  0
LINE
  5
246
330
1F
100
AcDbEntity
  8
0
 62
     7
100
AcDbLine
 10
239.588104
 20
160.820709
 30
0.0
 11
239.54364
 21
160.679291
 31
0.0
  0
LINE
  5
247
330
1F
100
AcDbEntity
  8
0
 62
     7
100
AcDbLine
 10
239.631317
 20
160.950012
 30
0.0
 11
239.588104
 21
160.820709
 31
0.0
  0
ARC
  5
248
330
1F
100
AcDbEntity
  8
0
 62
     7
100
AcDbCircle
 10
247.197021
 20
158.350006
 30
0.0
 40
8.0
100
AcDbArc
 50
155.638018
 51
161.034427
  0
LINE
  5
249
330
1F
100
AcDbEntity
  8
0
 62
     7
100
AcDbLine
 10
239.969299
 20
161.779297
 30
0.0
 11
239.909363
 21
161.649994
 31
0.0
  0
LINE
  5
24A
330
1F
100
AcDbEntity
  8
0
 62
     7
100
AcDbLine
 10
240.038116
 20
161.920715
 30
0.0
 11
239.969299
 21
161.779297
 31
0.0
  0
LINE
  5
24B
330
1F
100
AcDbEntity
  8
0
 62
     7
100
AcDbLine
 10
240.104065
 20
162.049988
 30
0.0
 11
240.038116
 21
161.920715
 31
0.0
  0
ARC
  5
24C
330
1F
100
AcDbEntity
  8
0
 62
     7
100
AcDbCircle
 10
247.197021
 20
158.350006
 30
0.0
 40
8.0
100
AcDbArc
 50
146.632987
 51
152.451448
  0
LINE
  5
24D
330
1F
100
AcDbEntity
  8
0
 62
     7
100
AcDbLine
 10
240.602661
 20
162.879272
 30
0.0
 11
240.515717
 21
162.75
 31
0.0
  0
LINE
  5
24E
330
1F
100
AcDbEntity
  8
0
 62
     7
100
AcDbLine
 10
240.702087
 20
163.020721
 30
0.0
 11
240.602661
 21
162.879272
 31
0.0
  0
LINE
  5
24F
330
1F
100
AcDbEntity
  8
0
 62
     7
100
AcDbLine
 10
240.797028
 20
163.149994
 30
0.0
 11
240.702087
 21
163.020721
 31
0.0
  0
CIRCLE
  5
250
330
1F
100
AcDbEntity
  8
0
 62
     7
100
AcDbCircle
 10
247.197021
 20
158.350006
 30
0.0
 40
7.5
  0
LINE
  5
251
330
1F
100
AcDbEntity
  8
0
 62
     7
100
AcDbLine
 10
182.197052
 20
161.350006
 30
0.0
 11
181.847046
 21
161.350006
 31
0.0
  0
LINE
  5
252
330
1F
100
AcDbEntity
  8
0
 62
     7
100
AcDbLine
 10
239.909363
 20
161.649994
 30
0.0
 11
183.097046
 21
161.649994
 31
0.0
  0
ARC
  5
253
330
1F
100
AcDbEntity
  8
0
 62
     7
100
AcDbCircle
 10
182.197052
 20
162.850006
 30
0.0
 40
1.5
100
AcDbArc
 50
269.999997
 51
314.454478
  0
LINE
  5
254
330
1F
100
AcDbEntity
  8
0
 62
     7
100
AcDbLine
 10
239.631317
 20
160.950012
 30
0.0
 11
181.847046
 21
160.950012
 31
0.0
  0
LINE
  5
255
330
1F
100
AcDbEntity
  8
0
 62
     7
100
AcDbLine
 10
239.505463
 20
160.549988
 30
0.0
 11
181.847046
 21
160.549988
 31
0.0
  0
LINE
  5
256
330
1F
100
AcDbEntity
  8
0
 62
     7
100
AcDbLine
 10
239.338898
 20
159.850006
 30
0.0
 11
181.847046
 21
159.850006
 31
0.0
  0
LINE
  5
257
330
1F
100
AcDbEntity
  8
0
 62
     7
100
AcDbLine
 10
239.27301
 20
159.450012
 30
0.0
 11
181.847046
 21
159.450012
 31
0.0
  0
LINE
  5
258
330
1F
100
AcDbEntity
  8
0
 62
     7
100
AcDbLine
 10
239.207031
 20
158.75
 30
0.0
 11
181.847046
 21
158.75
 31
0.0
  0
LINE
  5
259
330
1F
100
AcDbEntity
  8
0
 62
     7
100
AcDbLine
 10
180.847046
 20
161.649994
 30
0.0
 11
178.547028
 21
161.649994
 31
0.0
  0
LINE
  5
25A
330
1F
100
AcDbEntity
  8
0
 62
     7
100
AcDbLine
 10
180.847046
 20
160.950012
 30
0.0
 11
178.547028
 21
160.950012
 31
0.0
  0
ARC
  5
25B
330
1F
100
AcDbEntity
  8
0
 62
     7
100
AcDbCircle
 10
178.047028
 20
161.850006
 30
0.0
 40
0.5
100
AcDbArc
 50
0.0
 51
8.130103
  0
ARC
  5
25C
330
1F
100
AcDbEntity
  8
0
 62
     7
100
AcDbCircle
 10
181.347046
 20
161.850006
 30
0.0
 40
0.5
100
AcDbArc
 50
171.869894
 51
180.000009
  0
ARC
  5
25D
330
1F
100
AcDbEntity
  8
0
 62
     7
100
AcDbCircle
 10
181.347046
 20
161.850006
 30
0.0
 40
0.5
100
AcDbArc
 50
90.000003
 51
171.869894
  0
LINE
  5
25E
330
1F
100
AcDbEntity
  8
0
 62
     7
100
AcDbLine
 10
180.847046
 20
154.350006
 30
0.0
 11
178.547028
 21
154.350006
 31
0.0
  0
LINE
  5
25F
330
1F
100
AcDbEntity
  8
0
 62
     7
100
AcDbLine
 10
180.847046
 20
155.049988
 30
0.0
 11
178.547028
 21
155.049988
 31
0.0
  0
LINE
  5
260
330
1F
100
AcDbEntity
  8
0
 62
     7
100
AcDbLine
 10
180.847046
 20
155.450012
 30
0.0
 11
178.547028
 21
155.450012
 31
0.0
  0
LINE
  5
261
330
1F
100
AcDbEntity
  8
0
 62
     7
100
AcDbLine
 10
180.847046
 20
156.149994
 30
0.0
 11
178.547028
 21
156.149994
 31
0.0
  0
LINE
  5
262
330
1F
100
AcDbEntity
  8
0
 62
     7
100
AcDbLine
 10
180.847046
 20
156.549988
 30
0.0
 11
178.547028
 21
156.549988
 31
0.0
  0
LINE
  5
263
330
1F
100
AcDbEntity
  8
0
 62
     7
100
AcDbLine
 10
180.847046
 20
157.25
 30
0.0
 11
178.547028
 21
157.25
 31
0.0
  0
LINE
  5
264
330
1F
100
AcDbEntity
  8
0
 62
     7
100
AcDbLine
 10
180.847046
 20
157.649994
 30
0.0
 11
178.547028
 21
157.649994
 31
0.0
  0
LINE
  5
265
330
1F
100
AcDbEntity
  8
0
 62
     7
100
AcDbLine
 10
180.847046
 20
158.350006
 30
0.0
 11
178.547028
 21
158.350006
 31
0.0
  0
LINE
  5
266
330
1F
100
AcDbEntity
  8
0
 62
     7
100
AcDbLine
 10
180.847046
 20
158.75
 30
0.0
 11
178.547028
 21
158.75
 31
0.0
  0
LINE
  5
267
330
1F
100
AcDbEntity
  8
0
 62
     7
100
AcDbLine
 10
180.847046
 20
159.450012
 30
0.0
 11
178.547028
 21
159.450012
 31
0.0
  0
LINE
  5
268
330
1F
100
AcDbEntity
  8
0
 62
     7
100
AcDbLine
 10
180.847046
 20
159.850006
 30
0.0
 11
178.547028
 21
159.850006
 31
0.0
  0
LINE
  5
269
330
1F
100
AcDbEntity
  8
0
 62
     7
100
AcDbLine
 10
180.847046
 20
160.549988
 30
0.0
 11
178.547028
 21
160.549988
 31
0.0
  0
ARC
  5
26A
330
1F
100
AcDbEntity
  8
0
 62
     7
100
AcDbCircle
 10
178.047028
 20
161.850006
 30
0.0
 40
0.5
100
AcDbArc
 50
8.130103
 51
90.000003
  0
LINE
  5
26B
330
1F
100
AcDbEntity
  8
0
 62
     7
100
AcDbLine
 10
177.547028
 20
160.549988
 30
0.0
 11
131.847046
 21
160.549988
 31
0.0
  0
LINE
  5
26C
330
1F
100
AcDbEntity
  8
0
 62
     7
100
AcDbLine
 10
177.547028
 20
160.950012
 30
0.0
 11
131.847046
 21
160.950012
 31
0.0
  0
LINE
  5
26D
330
1F
100
AcDbEntity
  8
0
 62
     7
100
AcDbLine
 10
177.547028
 20
161.350006
 30
0.0
 11
177.197052
 21
161.350006
 31
0.0
  0
ARC
  5
26E
330
1F
100
AcDbEntity
  8
0
 62
     7
100
AcDbCircle
 10
177.197052
 20
162.850006
 30
0.0
 40
1.5
100
AcDbArc
 50
212.230947
 51
269.999997
  0
LINE
  5
26F
330
1F
100
AcDbEntity
  8
0
 62
     7
100
AcDbLine
 10
176.297028
 20
161.649994
 30
0.0
 11
133.097046
 21
161.649994
 31
0.0
  0
ARC
  5
270
330
1F
100
AcDbEntity
  8
0
 62
     7
100
AcDbCircle
 10
132.197052
 20
162.850006
 30
0.0
 40
1.5
100
AcDbArc
 50
269.999997
 51
314.454478
  0
LINE
  5
271
330
1F
100
AcDbEntity
  8
0
 62
     7
100
AcDbLine
 10
132.197052
 20
161.350006
 30
0.0
 11
131.847046
 21
161.350006
 31
0.0
  0
LINE
  5
272
330
1F
100
AcDbEntity
  8
0
 62
     7
100
AcDbLine
 10
177.547028
 20
154.350006
 30
0.0
 11
131.847046
 21
154.350006
 31
0.0
  0
LINE
  5
273
330
1F
100
AcDbEntity
  8
0
 62
     7
100
AcDbLine
 10
177.547028
 20
155.049988
 30
0.0
 11
131.847046
 21
155.049988
 31
0.0
  0
LINE
  5
274
330
1F
100
AcDbEntity
  8
0
 62
     7
100
AcDbLine
 10
177.547028
 20
155.450012
 30
0.0
 11
131.847046
 21
155.450012
 31
0.0
  0
LINE
  5
275
330
1F
100
AcDbEntity
  8
0
 62
     7
100
AcDbLine
 10
177.547028
 20
156.149994
 30
0.0
 11
131.847046
 21
156.149994
 31
0.0
  0
LINE
  5
276
330
1F
100
AcDbEntity
  8
0
 62
     7
100
AcDbLine
 10
177.547028
 20
156.549988
 30
0.0
 11
131.847046
 21
156.549988
 31
0.0
  0
LINE
  5
277
330
1F
100
AcDbEntity
  8
0
 62
     7
100
AcDbLine
 10
177.547028
 20
157.25
 30
0.0
 11
131.847046
 21
157.25
 31
0.0
  0
LINE
  5
278
330
1F
100
AcDbEntity
  8
0
 62
     7
100
AcDbLine
 10
177.547028
 20
157.649994
 30
0.0
 11
131.847046
 21
157.649994
 31
0.0
  0
LINE
  5
279
330
1F
100
AcDbEntity
  8
0
 62
     7
100
AcDbLine
 10
177.547028
 20
158.350006
 30
0.0
 11
131.847046
 21
158.350006
 31
0.0
  0
LINE
  5
27A
330
1F
100
AcDbEntity
  8
0
 62
     7
100
AcDbLine
 10
177.547028
 20
158.75
 30
0.0
 11
131.847046
 21
158.75
 31
0.0
  0
LINE
  5
27B
330
1F
100
AcDbEntity
  8
0
 62
     7
100
AcDbLine
 10
177.547028
 20
159.450012
 30
0.0
 11
131.847046
 21
159.450012
 31
0.0
  0
LINE
  5
27C
330
1F
100
AcDbEntity
  8
0
 62
     7
100
AcDbLine
 10
177.547028
 20
159.850006
 30
0.0
 11
131.847046
 21
159.850006
 31
0.0
  0
LINE
  5
27D
330
1F
100
AcDbEntity
  8
0
 62
     7
100
AcDbLine
 10
130.847046
 20
160.950012
 30
0.0
 11
128.547028
 21
160.950012
 31
0.0
  0
LINE
  5
27E
330
1F
100
AcDbEntity
  8
0
 62
     7
100
AcDbLine
 10
130.847046
 20
161.649994
 30
0.0
 11
128.547028
 21
161.649994
 31
0.0
  0
ARC
  5
27F
330
1F
100
AcDbEntity
  8
0
 62
     7
100
AcDbCircle
 10
131.347046
 20
161.850006
 30
0.0
 40
0.5
100
AcDbArc
 50
171.869894
 51
180.000009
  0
ARC
  5
280
330
1F
100
AcDbEntity
  8
0
 62
     7
100
AcDbCircle
 10
128.047028
 20
161.850006
 30
0.0
 40
0.5
100
AcDbArc
 50
0.0
 51
8.130103
  0
ARC
  5
281
330
1F
100
AcDbEntity
  8
0
 62
     7
100
AcDbCircle
 10
131.347046
 20
161.850006
 30
0.0
 40
0.5
100
AcDbArc
 50
90.000003
 51
171.869894
  0
LINE
  5
282
330
1F
100
AcDbEntity
  8
0
 62
     7
100
AcDbLine
 10
130.847046
 20
154.350006
 30
0.0
 11
128.547028
 21
154.350006
 31
0.0
  0
LINE
  5
283
330
1F
100
AcDbEntity
  8
0
 62
     7
100
AcDbLine
 10
130.847046
 20
155.049988
 30
0.0
 11
128.547028
 21
155.049988
 31
0.0
  0
LINE
  5
284
330
1F
100
AcDbEntity
  8
0
 62
     7
100
AcDbLine
 10
130.847046
 20
155.450012
 30
0.0
 11
128.547028
 21
155.450012
 31
0.0
  0
LINE
  5
285
330
1F
100
AcDbEntity
  8
0
 62
     7
100
AcDbLine
 10
130.847046
 20
156.149994
 30
0.0
 11
128.547028
 21
156.149994
 31
0.0
  0
LINE
  5
286
330
1F
100
AcDbEntity
  8
0
 62
     7
100
AcDbLine
 10
130.847046
 20
156.549988
 30
0.0
 11
128.547028
 21
156.549988
 31
0.0
  0
LINE
  5
287
330
1F
100
AcDbEntity
  8
0
 62
     7
100
AcDbLine
 10
130.847046
 20
157.25
 30
0.0
 11
128.547028
 21
157.25
 31
0.0
  0
LINE
  5
288
330
1F
100
AcDbEntity
  8
0
 62
     7
100
AcDbLine
 10
130.847046
 20
157.649994
 30
0.0
 11
128.547028
 21
157.649994
 31
0.0
  0
LINE
  5
289
330
1F
100
AcDbEntity
  8
0
 62
     7
100
AcDbLine
 10
130.847046
 20
158.350006
 30
0.0
 11
128.547028
 21
158.350006
 31
0.0
  0
LINE
  5
28A
330
1F
100
AcDbEntity
  8
0
 62
     7
100
AcDbLine
 10
130.847046
 20
158.75
 30
0.0
 11
128.547028
 21
158.75
 31
0.0
  0
LINE
  5
28B
330
1F
100
AcDbEntity
  8
0
 62
     7
100
AcDbLine
 10
130.847046
 20
159.450012
 30
0.0
 11
128.547028
 21
159.450012
 31
0.0
  0
LINE
  5
28C
330
1F
100
AcDbEntity
  8
0
 62
     7
100
AcDbLine
 10
130.847046
 20
159.850006
 30
0.0
 11
128.547028
 21
159.850006
 31
0.0
  0
LINE
  5
28D
330
1F
100
AcDbEntity
  8
0
 62
     7
100
AcDbLine
 10
130.847046
 20
160.549988
 30
0.0
 11
128.547028
 21
160.549988
 31
0.0
  0
ARC
  5
28E
330
1F
100
AcDbEntity
  8
0
 62
     7
100
AcDbCircle
 10
128.047028
 20
161.850006
 30
0.0
 40
0.5
100
AcDbArc
 50
8.130103
 51
90.000003
  0
LINE
  5
28F
330
1F
100
AcDbEntity
  8
0
 62
     7
100
AcDbLine
 10
69.850449
 20
160.679291
 30
0.0
 11
69.888611
 21
160.549988
 31
0.0
  0
LINE
  5
290
330
1F
100
AcDbEntity
  8
0
 62
     7
100
AcDbLine
 10
127.54705
 20
160.549988
 30
0.0
 11
69.888611
 21
160.549988
 31
0.0
  0
LINE
  5
291
330
1F
100
AcDbEntity
  8
0
 62
     7
100
AcDbLine
 10
69.805977
 20
160.820709
 30
0.0
 11
69.850449
 21
160.679291
 31
0.0
  0
LINE
  5
292
330
1F
100
AcDbEntity
  8
0
 62
     7
100
AcDbLine
 10
69.762772
 20
160.950012
 30
0.0
 11
69.805977
 21
160.820709
 31
0.0
  0
LINE
  5
293
330
1F
100
AcDbEntity
  8
0
 62
     7
100
AcDbLine
 10
127.54705
 20
160.950012
 30
0.0
 11
69.762772
 21
160.950012
 31
0.0
  0
ARC
  5
294
330
1F
100
AcDbEntity
  8
0
 62
     7
100
AcDbCircle
 10
62.197052
 20
158.350006
 30
0.0
 40
8.0
100
AcDbArc
 50
18.965574
 51
24.361978
  0
LINE
  5
295
330
1F
100
AcDbEntity
  8
0
 62
     7
100
AcDbLine
 10
127.54705
 20
161.350006
 30
0.0
 11
127.19706
 21
161.350006
 31
0.0
  0
ARC
  5
296
330
1F
100
AcDbEntity
  8
0
 62
     7
100
AcDbCircle
 10
127.19706
 20
162.850006
 30
0.0
 40
1.5
100
AcDbArc
 50
212.230947
 51
269.999997
  0
LINE
  5
297
330
1F
100
AcDbEntity
  8
0
 62
     7
100
AcDbLine
 10
126.29705
 20
161.649994
 30
0.0
 11
69.484718
 21
161.649994
 31
0.0
  0
LINE
  5
298
330
1F
100
AcDbEntity
  8
0
 62
     7
100
AcDbLine
 10
127.54705
 20
154.350006
 30
0.0
 11
69.125259
 21
154.350006
 31
0.0
  0
LINE
  5
299
330
1F
100
AcDbEntity
  8
0
 62
     7
100
AcDbLine
 10
127.54705
 20
155.049988
 30
0.0
 11
69.484718
 21
155.049988
 31
0.0
  0
LINE
  5
29A
330
1F
100
AcDbEntity
  8
0
 62
     7
100
AcDbLine
 10
127.54705
 20
155.450012
 30
0.0
 11
69.652931
 21
155.450012
 31
0.0
  0
LINE
  5
29B
330
1F
100
AcDbEntity
  8
0
 62
     7
100
AcDbLine
 10
127.54705
 20
156.149994
 30
0.0
 11
69.888611
 21
156.149994
 31
0.0
  0
LINE
  5
29C
330
1F
100
AcDbEntity
  8
0
 62
     7
100
AcDbLine
 10
127.54705
 20
156.549988
 30
0.0
 11
69.991928
 21
156.549988
 31
0.0
  0
LINE
  5
29D
330
1F
100
AcDbEntity
  8
0
 62
     7
100
AcDbLine
 10
127.54705
 20
157.25
 30
0.0
 11
70.121071
 21
157.25
 31
0.0
  0
LINE
  5
29E
330
1F
100
AcDbEntity
  8
0
 62
     7
100
AcDbLine
 10
127.54705
 20
157.649994
 30
0.0
 11
70.166374
 21
157.649994
 31
0.0
  0
LINE
  5
29F
330
1F
100
AcDbEntity
  8
0
 62
     7
100
AcDbLine
 10
127.54705
 20
158.350006
 30
0.0
 11
70.19706
 21
158.350006
 31
0.0
  0
LINE
  5
2A0
330
1F
100
AcDbEntity
  8
0
 62
     7
100
AcDbLine
 10
70.196014
 20
158.479279
 30
0.0
 11
70.19706
 21
158.350006
 31
0.0
  0
LINE
  5
2A1
330
1F
100
AcDbEntity
  8
0
 62
     7
100
AcDbLine
 10
70.192474
 20
158.620697
 30
0.0
 11
70.196014
 21
158.479279
 31
0.0
  0
LINE
  5
2A2
330
1F
100
AcDbEntity
  8
0
 62
     7
100
AcDbLine
 10
70.18705
 20
158.75
 30
0.0
 11
70.192474
 21
158.620697
 31
0.0
  0
LINE
  5
2A3
330
1F
100
AcDbEntity
  8
0
 62
     7
100
AcDbLine
 10
127.54705
 20
158.75
 30
0.0
 11
70.18705
 21
158.75
 31
0.0
  0
ARC
  5
2A4
330
1F
100
AcDbEntity
  8
0
 62
     7
100
AcDbCircle
 10
62.197052
 20
158.350006
 30
0.0
 40
8.0
100
AcDbArc
 50
2.865984
 51
7.903208
  0
LINE
  5
2A5
330
1F
100
AcDbEntity
  8
0
 62
     7
100
AcDbLine
 10
127.54705
 20
159.450012
 30
0.0
 11
70.121071
 21
159.450012
 31
0.0
  0
LINE
  5
2A6
330
1F
100
AcDbEntity
  8
0
 62
     7
100
AcDbLine
 10
70.102051
 20
159.579285
 30
0.0
 11
70.121071
 21
159.450012
 31
0.0
  0
LINE
  5
2A7
330
1F
100
AcDbEntity
  8
0
 62
     7
100
AcDbLine
 10
70.078758
 20
159.720703
 30
0.0
 11
70.102051
 21
159.579285
 31
0.0
  0
LINE
  5
2A8
330
1F
100
AcDbEntity
  8
0
 62
     7
100
AcDbLine
 10
70.055176
 20
159.850006
 30
0.0
 11
70.078758
 21
159.720703
 31
0.0
  0
LINE
  5
2A9
330
1F
100
AcDbEntity
  8
0
 62
     7
100
AcDbLine
 10
127.54705
 20
159.850006
 30
0.0
 11
70.055176
 21
159.850006
 31
0.0
  0
ARC
  5
2AA
330
1F
100
AcDbEntity
  8
0
 62
     7
100
AcDbCircle
 10
62.197052
 20
158.350006
 30
0.0
 40
8.0
100
AcDbArc
 50
10.806926
 51
15.962019
  0
LINE
  5
2AB
330
1F
100
AcDbEntity
  8
0
 62
     7
100
AcDbLine
 10
55.268852
 20
154.350006
 30
0.0
 11
53.197052
 21
154.350006
 31
0.0
  0
LINE
  5
2AC
330
1F
100
AcDbEntity
  8
0
 62
     7
100
AcDbLine
 10
54.909393
 20
155.049988
 30
0.0
 11
53.197052
 21
155.049988
 31
0.0
  0
LINE
  5
2AD
330
1F
100
AcDbEntity
  8
0
 62
     7
100
AcDbLine
 10
54.74118
 20
155.450012
 30
0.0
 11
53.197052
 21
155.450012
 31
0.0
  0
LINE
  5
2AE
330
1F
100
AcDbEntity
  8
0
 62
     7
100
AcDbLine
 10
54.505501
 20
156.149994
 30
0.0
 11
53.197052
 21
156.149994
 31
0.0
  0
LINE
  5
2AF
330
1F
100
AcDbEntity
  8
0
 62
     7
100
AcDbLine
 10
54.402184
 20
156.549988
 30
0.0
 11
53.197052
 21
156.549988
 31
0.0
  0
LINE
  5
2B0
330
1F
100
AcDbEntity
  8
0
 62
     7
100
AcDbLine
 10
54.273041
 20
157.25
 30
0.0
 11
53.197052
 21
157.25
 31
0.0
  0
LINE
  5
2B1
330
1F
100
AcDbEntity
  8
0
 62
     7
100
AcDbLine
 10
54.227737
 20
157.649994
 30
0.0
 11
53.197052
 21
157.649994
 31
0.0
  0
LINE
  5
2B2
330
1F
100
AcDbEntity
  8
0
 62
     7
100
AcDbLine
 10
54.197052
 20
158.350006
 30
0.0
 11
53.197052
 21
158.350006
 31
0.0
  0
LINE
  5
2B3
330
1F
100
AcDbEntity
  8
0
 62
     7
100
AcDbLine
 10
54.198097
 20
158.479279
 30
0.0
 11
54.197052
 21
158.350006
 31
0.0
  0
LINE
  5
2B4
330
1F
100
AcDbEntity
  8
0
 62
     7
100
AcDbLine
 10
54.201637
 20
158.620697
 30
0.0
 11
54.198097
 21
158.479279
 31
0.0
  0
LINE
  5
2B5
330
1F
100
AcDbEntity
  8
0
 62
     7
100
AcDbLine
 10
54.207062
 20
158.75
 30
0.0
 11
54.201637
 21
158.620697
 31
0.0
  0
ARC
  5
2B6
330
1F
100
AcDbEntity
  8
0
 62
     7
100
AcDbCircle
 10
62.197052
 20
158.350006
 30
0.0
 40
8.0
100
AcDbArc
 50
172.096793
 51
177.134017
  0
LINE
  5
2B7
330
1F
100
AcDbEntity
  8
0
 62
     7
100
AcDbLine
 10
54.292061
 20
159.579285
 30
0.0
 11
54.273041
 21
159.450012
 31
0.0
  0
LINE
  5
2B8
330
1F
100
AcDbEntity
  8
0
 62
     7
100
AcDbLine
 10
54.315353
 20
159.720703
 30
0.0
 11
54.292061
 21
159.579285
 31
0.0
  0
LINE
  5
2B9
330
1F
100
AcDbEntity
  8
0
 62
     7
100
AcDbLine
 10
54.338936
 20
159.850006
 30
0.0
 11
54.315353
 21
159.720703
 31
0.0
  0
ARC
  5
2BA
330
1F
100
AcDbEntity
  8
0
 62
     7
100
AcDbCircle
 10
62.197052
 20
158.350006
 30
0.0
 40
8.0
100
AcDbArc
 50
164.03799
 51
169.193075
  0
LINE
  5
2BB
330
1F
100
AcDbEntity
  8
0
 62
     7
100
AcDbLine
 10
54.543663
 20
160.679291
 30
0.0
 11
54.505501
 21
160.549988
 31
0.0
  0
LINE
  5
2BC
330
1F
100
AcDbEntity
  8
0
 62
     7
100
AcDbLine
 10
54.588135
 20
160.820709
 30
0.0
 11
54.543663
 21
160.679291
 31
0.0
  0
LINE
  5
2BD
330
1F
100
AcDbEntity
  8
0
 62
     7
100
AcDbLine
 10
54.63134
 20
160.950012
 30
0.0
 11
54.588135
 21
160.820709
 31
0.0
  0
ARC
  5
2BE
330
1F
100
AcDbEntity
  8
0
 62
     7
100
AcDbCircle
 10
62.197052
 20
158.350006
 30
0.0
 40
8.0
100
AcDbArc
 50
155.638018
 51
161.034427
  0
LINE
  5
2BF
330
1F
100
AcDbEntity
  8
0
 62
     7
100
AcDbLine
 10
54.96933
 20
161.779297
 30
0.0
 11
54.909393
 21
161.649994
 31
0.0
  0
LINE
  5
2C0
330
1F
100
AcDbEntity
  8
0
 62
     7
100
AcDbLine
 10
55.038139
 20
161.920715
 30
0.0
 11
54.96933
 21
161.779297
 31
0.0
  0
LINE
  5
2C1
330
1F
100
AcDbEntity
  8
0
 62
     7
100
AcDbLine
 10
55.104095
 20
162.049988
 30
0.0
 11
55.038139
 21
161.920715
 31
0.0
  0
ARC
  5
2C2
330
1F
100
AcDbEntity
  8
0
 62
     7
100
AcDbCircle
 10
62.197052
 20
158.350006
 30
0.0
 40
8.0
100
AcDbArc
 50
146.632987
 51
152.451448
  0
LINE
  5
2C3
330
1F
100
AcDbEntity
  8
0
 62
     7
100
AcDbLine
 10
55.602692
 20
162.879272
 30
0.0
 11
55.515732
 21
162.75
 31
0.0
  0
LINE
  5
2C4
330
1F
100
AcDbEntity
  8
0
 62
     7
100
AcDbLine
 10
55.702095
 20
163.020721
 30
0.0
 11
55.602692
 21
162.879272
 31
0.0
  0
LINE
  5
2C5
330
1F
100
AcDbEntity
  8
0
 62
     7
100
AcDbLine
 10
55.79705
 20
163.149994
 30
0.0
 11
55.702095
 21
163.020721
 31
0.0
  0
ARC
  5
2C6
330
1F
100
AcDbEntity
  8
0
 62
     7
100
AcDbCircle
 10
62.197052
 20
158.350006
 30
0.0
 40
8.0
100
AcDbArc
 50
36.869897
 51
143.130097
  0
LINE
  5
2C7
330
1F
100
AcDbEntity
  8
0
 62
     7
100
AcDbLine
 10
68.597061
 20
163.149994
 30
0.0
 11
68.692017
 21
163.020721
 31
0.0
  0
LINE
  5
2C8
330
1F
100
AcDbEntity
  8
0
 62
     7
100
AcDbLine
 10
68.692017
 20
163.020721
 30
0.0
 11
68.791412
 21
162.879272
 31
0.0
  0
LINE
  5
2C9
330
1F
100
AcDbEntity
  8
0
 62
     7
100
AcDbLine
 10
68.791412
 20
162.879272
 30
0.0
 11
68.878372
 21
162.75
 31
0.0
  0
ARC
  5
2CA
330
1F
100
AcDbEntity
  8
0
 62
     7
100
AcDbCircle
 10
62.197052
 20
158.350006
 30
0.0
 40
8.0
100
AcDbArc
 50
27.548547
 51
33.367014
  0
LINE
  5
2CB
330
1F
100
AcDbEntity
  8
0
 62
     7
100
AcDbLine
 10
69.290016
 20
162.049988
 30
0.0
 11
69.355972
 21
161.920715
 31
0.0
  0
LINE
  5
2CC
330
1F
100
AcDbEntity
  8
0
 62
     7
100
AcDbLine
 10
69.355972
 20
161.920715
 30
0.0
 11
69.424782
 21
161.779297
 31
0.0
  0
LINE
  5
2CD
330
1F
100
AcDbEntity
  8
0
 62
     7
100
AcDbLine
 10
69.424782
 20
161.779297
 30
0.0
 11
69.484718
 21
161.649994
 31
0.0
  0
CIRCLE
  5
2CE
330
1F
100
AcDbEntity
  8
0
 62
     7
100
AcDbCircle
 10
62.197052
 20
158.350006
 30
0.0
 40
7.5
  0
LINE
  5
2CF
330
1F
100
AcDbEntity
  8
0
 62
     7
100
AcDbLine
 10
52.697052
 20
146.350006
 30
0.0
 11
53.197052
 21
146.350006
 31
0.0
  0
LINE
  5
2D0
330
1F
100
AcDbEntity
  8
0
 62
     7
100
AcDbLine
 10
54.207062
 20
158.75
 30
0.0
 11
53.197052
 21
158.75
 31
0.0
  0
LINE
  5
2D1
330
1F
100
AcDbEntity
  8
0
 62
     7
100
AcDbLine
 10
54.273041
 20
159.450012
 30
0.0
 11
53.197052
 21
159.450012
 31
0.0
  0
LINE
  5
2D2
330
1F
100
AcDbEntity
  8
0
 62
     7
100
AcDbLine
 10
54.338936
 20
159.850006
 30
0.0
 11
53.197052
 21
159.850006
 31
0.0
  0
LINE
  5
2D3
330
1F
100
AcDbEntity
  8
0
 62
     7
100
AcDbLine
 10
54.505501
 20
160.549988
 30
0.0
 11
53.197052
 21
160.549988
 31
0.0
  0
LINE
  5
2D4
330
1F
100
AcDbEntity
  8
0
 62
     7
100
AcDbLine
 10
54.63134
 20
160.950012
 30
0.0
 11
53.197052
 21
160.950012
 31
0.0
  0
LINE
  5
2D5
330
1F
100
AcDbEntity
  8
0
 62
     7
100
AcDbLine
 10
54.909393
 20
161.649994
 30
0.0
 11
53.197052
 21
161.649994
 31
0.0
  0
LINE
  5
2D6
330
1F
100
AcDbEntity
  8
0
 62
     7
100
AcDbLine
 10
55.104095
 20
162.049988
 30
0.0
 11
53.197052
 21
162.049988
 31
0.0
  0
LINE
  5
2D7
330
1F
100
AcDbEntity
  8
0
 62
     7
100
AcDbLine
 10
55.515732
 20
162.75
 30
0.0
 11
53.197052
 21
162.75
 31
0.0
  0
LINE
  5
2D8
330
1F
100
AcDbEntity
  8
0
 62
     7
100
AcDbLine
 10
55.79705
 20
163.149994
 30
0.0
 11
53.197052
 21
163.149994
 31
0.0
  0
LINE
  5
2D9
330
1F
100
AcDbEntity
  8
0
 62
     7
100
AcDbLine
 10
125.69706
 20
163.149994
 30
0.0
 11
68.597061
 21
163.149994
 31
0.0
  0
LINE
  5
2DA
330
1F
100
AcDbEntity
  8
0
 62
     7
100
AcDbLine
 10
125.69706
 20
163.149994
 30
0.0
 11
125.69706
 21
167.974274
 31
0.0
  0
LINE
  5
2DB
330
1F
100
AcDbEntity
  8
0
 62
     7
100
AcDbLine
 10
125.69706
 20
167.974274
 30
0.0
 11
53.197052
 21
167.974274
 31
0.0
  0
LINE
  5
2DC
330
1F
100
AcDbEntity
  8
0
 62
     7
100
AcDbLine
 10
125.69706
 20
168.462128
 30
0.0
 11
125.69706
 21
167.974274
 31
0.0
  0
LINE
  5
2DD
330
1F
100
AcDbEntity
  8
0
 62
     7
100
AcDbLine
 10
125.69706
 20
168.549988
 30
0.0
 11
125.69706
 21
168.462128
 31
0.0
  0
LINE
  5
2DE
330
1F
100
AcDbEntity
  8
0
 62
     7
100
AcDbLine
 10
256.697021
 20
140.649994
 30
0.0
 11
256.697021
 21
140.149994
 31
0.0
  0
LINE
  5
2DF
330
1F
100
AcDbEntity
  8
0
 62
     7
100
AcDbLine
 10
256.697021
 20
167.742889
 30
0.0
 11
256.697021
 21
140.649994
 31
0.0
  0
LINE
  5
2E0
330
1F
100
AcDbEntity
  8
0
 62
     7
100
AcDbLine
 10
256.697021
 20
168.096436
 30
0.0
 11
256.697021
 21
167.742889
 31
0.0
  0
LINE
  5
2E1
330
1F
100
AcDbEntity
  8
0
 62
     7
100
AcDbLine
 10
256.697021
 20
168.781128
 30
0.0
 11
256.697021
 21
168.096436
 31
0.0
  0
LINE
  5
2E2
330
1F
100
AcDbEntity
  8
0
 62
     7
100
AcDbLine
 10
183.697052
 20
163.020721
 30
0.0
 11
183.697052
 21
163.149994
 31
0.0
  0
LINE
  5
2E3
330
1F
100
AcDbEntity
  8
0
 62
     7
100
AcDbLine
 10
183.697052
 20
162.879272
 30
0.0
 11
183.697052
 21
163.020721
 31
0.0
  0
LINE
  5
2E4
330
1F
100
AcDbEntity
  8
0
 62
     7
100
AcDbLine
 10
183.697052
 20
162.879272
 30
0.0
 11
183.697052
 21
162.850006
 31
0.0
  0
ARC
  5
2E5
330
1F
100
AcDbEntity
  8
0
 62
     7
100
AcDbCircle
 10
182.197052
 20
162.850006
 30
0.0
 40
1.5
100
AcDbArc
 50
314.454478
 51
356.177454
  0
LINE
  5
2E6
330
1F
100
AcDbEntity
  8
0
 62
     7
100
AcDbLine
 10
183.693695
 20
162.75
 30
0.0
 11
183.697052
 21
162.850006
 31
0.0
  0
LINE
  5
2E7
330
1F
100
AcDbEntity
  8
0
 62
     7
100
AcDbLine
 10
181.347046
 20
162.350006
 30
0.0
 11
182.197052
 21
162.350006
 31
0.0
  0
ARC
  5
2E8
330
1F
100
AcDbEntity
  8
0
 62
     7
100
AcDbCircle
 10
182.197052
 20
162.850006
 30
0.0
 40
0.5
100
AcDbArc
 50
269.999997
 51
360.0
  0
LINE
  5
2E9
330
1F
100
AcDbEntity
  8
0
 62
     7
100
AcDbLine
 10
182.697052
 20
163.149994
 30
0.0
 11
182.697052
 21
167.974274
 31
0.0
  0
LINE
  5
2EA
330
1F
100
AcDbEntity
  8
0
 62
     7
100
AcDbLine
 10
182.697052
 20
168.462128
 30
0.0
 11
182.697052
 21
167.974274
 31
0.0
  0
LINE
  5
2EB
330
1F
100
AcDbEntity
  8
0
 62
     7
100
AcDbLine
 10
182.697052
 20
168.549988
 30
0.0
 11
182.697052
 21
168.462128
 31
0.0
  0
LINE
  5
2EC
330
1F
100
AcDbEntity
  8
0
 62
     7
100
AcDbLine
 10
182.697052
 20
162.879272
 30
0.0
 11
182.697052
 21
162.850006
 31
0.0
  0
LINE
  5
2ED
330
1F
100
AcDbEntity
  8
0
 62
     7
100
AcDbLine
 10
182.697052
 20
163.020721
 30
0.0
 11
182.697052
 21
162.879272
 31
0.0
  0
LINE
  5
2EE
330
1F
100
AcDbEntity
  8
0
 62
     7
100
AcDbLine
 10
182.697052
 20
163.020721
 30
0.0
 11
182.697052
 21
163.149994
 31
0.0
  0
LINE
  5
2EF
330
1F
100
AcDbEntity
  8
0
 62
     7
100
AcDbLine
 10
176.697052
 20
168.462128
 30
0.0
 11
176.697052
 21
168.549988
 31
0.0
  0
LINE
  5
2F0
330
1F
100
AcDbEntity
  8
0
 62
     7
100
AcDbLine
 10
176.697052
 20
168.462128
 30
0.0
 11
176.697052
 21
167.974274
 31
0.0
  0
LINE
  5
2F1
330
1F
100
AcDbEntity
  8
0
 62
     7
100
AcDbLine
 10
176.697052
 20
163.149994
 30
0.0
 11
176.697052
 21
167.974274
 31
0.0
  0
LINE
  5
2F2
330
1F
100
AcDbEntity
  8
0
 62
     7
100
AcDbLine
 10
176.697052
 20
163.020721
 30
0.0
 11
176.697052
 21
163.149994
 31
0.0
  0
LINE
  5
2F3
330
1F
100
AcDbEntity
  8
0
 62
     7
100
AcDbLine
 10
176.697052
 20
162.879272
 30
0.0
 11
176.697052
 21
163.020721
 31
0.0
  0
LINE
  5
2F4
330
1F
100
AcDbEntity
  8
0
 62
     7
100
AcDbLine
 10
176.697052
 20
162.879272
 30
0.0
 11
176.697052
 21
162.850006
 31
0.0
  0
ARC
  5
2F5
330
1F
100
AcDbEntity
  8
0
 62
     7
100
AcDbCircle
 10
177.197052
 20
162.850006
 30
0.0
 40
0.5
100
AcDbArc
 50
180.000009
 51
269.999997
  0
LINE
  5
2F6
330
1F
100
AcDbEntity
  8
0
 62
     7
100
AcDbLine
 10
177.197052
 20
162.350006
 30
0.0
 11
178.047028
 21
162.350006
 31
0.0
  0
ARC
  5
2F7
330
1F
100
AcDbEntity
  8
0
 62
     7
100
AcDbCircle
 10
177.197052
 20
162.850006
 30
0.0
 40
1.5
100
AcDbArc
 50
183.822551
 51
212.230947
  0
LINE
  5
2F8
330
1F
100
AcDbEntity
  8
0
 62
     7
100
AcDbLine
 10
175.700378
 20
162.75
 30
0.0
 11
175.697052
 21
162.850006
 31
0.0
  0
LINE
  5
2F9
330
1F
100
AcDbEntity
  8
0
 62
     7
100
AcDbLine
 10
175.697052
 20
163.149994
 30
0.0
 11
175.697052
 21
167.974274
 31
0.0
  0
LINE
  5
2FA
330
1F
100
AcDbEntity
  8
0
 62
     7
100
AcDbLine
 10
175.697052
 20
168.462128
 30
0.0
 11
175.697052
 21
167.974274
 31
0.0
  0
LINE
  5
2FB
330
1F
100
AcDbEntity
  8
0
 62
     7
100
AcDbLine
 10
175.697052
 20
168.549988
 30
0.0
 11
175.697052
 21
168.462128
 31
0.0
  0
LINE
  5
2FC
330
1F
100
AcDbEntity
  8
0
 62
     7
100
AcDbLine
 10
175.697052
 20
162.879272
 30
0.0
 11
175.697052
 21
162.850006
 31
0.0
  0
LINE
  5
2FD
330
1F
100
AcDbEntity
  8
0
 62
     7
100
AcDbLine
 10
175.697052
 20
163.020721
 30
0.0
 11
175.697052
 21
162.879272
 31
0.0
  0
LINE
  5
2FE
330
1F
100
AcDbEntity
  8
0
 62
     7
100
AcDbLine
 10
175.697052
 20
163.020721
 30
0.0
 11
175.697052
 21
163.149994
 31
0.0
  0
LINE
  5
2FF
330
1F
100
AcDbEntity
  8
0
 62
     7
100
AcDbLine
 10
133.697052
 20
168.462128
 30
0.0
 11
133.697052
 21
168.549988
 31
0.0
  0
LINE
  5
300
330
1F
100
AcDbEntity
  8
0
 62
     7
100
AcDbLine
 10
133.697052
 20
168.462128
 30
0.0
 11
133.697052
 21
167.974274
 31
0.0
  0
LINE
  5
301
330
1F
100
AcDbEntity
  8
0
 62
     7
100
AcDbLine
 10
133.697052
 20
163.149994
 30
0.0
 11
133.697052
 21
167.974274
 31
0.0
  0
LINE
  5
302
330
1F
100
AcDbEntity
  8
0
 62
     7
100
AcDbLine
 10
133.697052
 20
163.020721
 30
0.0
 11
133.697052
 21
163.149994
 31
0.0
  0
LINE
  5
303
330
1F
100
AcDbEntity
  8
0
 62
     7
100
AcDbLine
 10
133.697052
 20
162.879272
 30
0.0
 11
133.697052
 21
163.020721
 31
0.0
  0
LINE
  5
304
330
1F
100
AcDbEntity
  8
0
 62
     7
100
AcDbLine
 10
133.697052
 20
162.879272
 30
0.0
 11
133.697052
 21
162.850006
 31
0.0
  0
ARC
  5
305
330
1F
100
AcDbEntity
  8
0
 62
     7
100
AcDbCircle
 10
132.197052
 20
162.850006
 30
0.0
 40
1.5
100
AcDbArc
 50
314.454478
 51
356.177454
  0
LINE
  5
306
330
1F
100
AcDbEntity
  8
0
 62
     7
100
AcDbLine
 10
133.693695
 20
162.75
 30
0.0
 11
133.697052
 21
162.850006
 31
0.0
  0
LINE
  5
307
330
1F
100
AcDbEntity
  8
0
 62
     7
100
AcDbLine
 10
131.347046
 20
162.350006
 30
0.0
 11
132.197052
 21
162.350006
 31
0.0
  0
ARC
  5
308
330
1F
100
AcDbEntity
  8
0
 62
     7
100
AcDbCircle
 10
132.197052
 20
162.850006
 30
0.0
 40
0.5
100
AcDbArc
 50
269.999997
 51
360.0
  0
LINE
  5
309
330
1F
100
AcDbEntity
  8
0
 62
     7
100
AcDbLine
 10
132.697052
 20
163.149994
 30
0.0
 11
132.697052
 21
167.974274
 31
0.0
  0
LINE
  5
30A
330
1F
100
AcDbEntity
  8
0
 62
     7
100
AcDbLine
 10
132.697052
 20
168.462128
 30
0.0
 11
132.697052
 21
167.974274
 31
0.0
  0
LINE
  5
30B
330
1F
100
AcDbEntity
  8
0
 62
     7
100
AcDbLine
 10
132.697052
 20
168.549988
 30
0.0
 11
132.697052
 21
168.462128
 31
0.0
  0
LINE
  5
30C
330
1F
100
AcDbEntity
  8
0
 62
     7
100
AcDbLine
 10
132.697052
 20
162.879272
 30
0.0
 11
132.697052
 21
162.850006
 31
0.0
  0
LINE
  5
30D
330
1F
100
AcDbEntity
  8
0
 62
     7
100
AcDbLine
 10
132.697052
 20
163.020721
 30
0.0
 11
132.697052
 21
162.879272
 31
0.0
  0
LINE
  5
30E
330
1F
100
AcDbEntity
  8
0
 62
     7
100
AcDbLine
 10
132.697052
 20
163.020721
 30
0.0
 11
132.697052
 21
163.149994
 31
0.0
  0
LINE
  5
30F
330
1F
100
AcDbEntity
  8
0
 62
     7
100
AcDbLine
 10
126.69706
 20
168.462128
 30
0.0
 11
126.69706
 21
168.549988
 31
0.0
  0
LINE
  5
310
330
1F
100
AcDbEntity
  8
0
 62
     7
100
AcDbLine
 10
126.69706
 20
168.462128
 30
0.0
 11
126.69706
 21
167.974274
 31
0.0
  0
LINE
  5
311
330
1F
100
AcDbEntity
  8
0
 62
     7
100
AcDbLine
 10
126.69706
 20
163.149994
 30
0.0
 11
126.69706
 21
167.974274
 31
0.0
  0
LINE
  5
312
330
1F
100
AcDbEntity
  8
0
 62
     7
100
AcDbLine
 10
126.69706
 20
163.020721
 30
0.0
 11
126.69706
 21
163.149994
 31
0.0
  0
LINE
  5
313
330
1F
100
AcDbEntity
  8
0
 62
     7
100
AcDbLine
 10
126.69706
 20
162.879272
 30
0.0
 11
126.69706
 21
163.020721
 31
0.0
  0
LINE
  5
314
330
1F
100
AcDbEntity
  8
0
 62
     7
100
AcDbLine
 10
126.69706
 20
162.879272
 30
0.0
 11
126.69706
 21
162.850006
 31
0.0
  0
ARC
  5
315
330
1F
100
AcDbEntity
  8
0
 62
     7
100
AcDbCircle
 10
127.19706
 20
162.850006
 30
0.0
 40
0.5
100
AcDbArc
 50
180.000009
 51
269.999997
  0
LINE
  5
316
330
1F
100
AcDbEntity
  8
0
 62
     7
100
AcDbLine
 10
127.19706
 20
162.350006
 30
0.0
 11
128.047028
 21
162.350006
 31
0.0
  0
ARC
  5
317
330
1F
100
AcDbEntity
  8
0
 62
     7
100
AcDbCircle
 10
127.19706
 20
162.850006
 30
0.0
 40
1.5
100
AcDbArc
 50
183.822551
 51
212.230947
  0
LINE
  5
318
330
1F
100
AcDbEntity
  8
0
 62
     7
100
AcDbLine
 10
125.700386
 20
162.75
 30
0.0
 11
125.69706
 21
162.850006
 31
0.0
  0
LINE
  5
319
330
1F
100
AcDbEntity
  8
0
 62
     7
100
AcDbLine
 10
125.69706
 20
162.879272
 30
0.0
 11
125.69706
 21
162.850006
 31
0.0
  0
LINE
  5
31A
330
1F
100
AcDbEntity
  8
0
 62
     7
100
AcDbLine
 10
125.69706
 20
163.020721
 30
0.0
 11
125.69706
 21
162.879272
 31
0.0
  0
LINE
  5
31B
330
1F
100
AcDbEntity
  8
0
 62
     7
100
AcDbLine
 10
125.69706
 20
163.020721
 30
0.0
 11
125.69706
 21
163.149994
 31
0.0
  0
LINE
  5
31C
330
1F
100
AcDbEntity
  8
0
 62
     7
100
AcDbLine
 10
52.697052
 20
168.096436
 30
0.0
 11
52.697052
 21
168.781128
 31
0.0
  0
LINE
  5
31D
330
1F
100
AcDbEntity
  8
0
 62
     7
100
AcDbLine
 10
52.697052
 20
167.742889
 30
0.0
 11
52.697052
 21
168.096436
 31
0.0
  0
LINE
  5
31E
330
1F
100
AcDbEntity
  8
0
 62
     7
100
AcDbLine
 10
52.697052
 20
140.649994
 30
0.0
 11
52.697052
 21
167.742889
 31
0.0
  0
LINE
  5
31F
330
1F
100
AcDbEntity
  8
0
 62
     7
100
AcDbLine
 10
52.697052
 20
140.149994
 30
0.0
 11
52.697052
 21
140.649994
 31
0.0
  0
LINE
  5
320
330
1F
100
AcDbEntity
  8
0
 62
     7
100
AcDbLine
 10
256.697021
 20
171.350006
 30
0.0
 11
256.697021
 21
168.781128
 31
0.0
  0
LINE
  5
321
330
1F
100
AcDbEntity
  8
0
 62
     7
100
AcDbLine
 10
52.697052
 20
171.350006
 30
0.0
 11
256.697021
 21
171.350006
 31
0.0
  0
LINE
  5
322
330
1F
100
AcDbEntity
  8
0
 62
     7
100
AcDbLine
 10
52.697052
 20
171.350006
 30
0.0
 11
52.697052
 21
168.781128
 31
0.0
  0
LINE
  5
323
330
1F
100
AcDbEntity
  8
0
 62
     7
100
AcDbLine
 10
256.697021
 20
141.850006
 30
0.0
 11
256.197021
 21
141.850006
 31
0.0
  0
LINE
  5
324
330
1F
100
AcDbEntity
  8
0
 62
     7
100
AcDbLine
 10
240.104065
 20
162.049988
 30
0.0
 11
183.465912
 21
162.049988
 31
0.0
  0
LINE
  5
325
330
1F
100
AcDbEntity
  8
0
 62
     7
100
AcDbLine
 10
240.515717
 20
162.75
 30
0.0
 11
183.693695
 21
162.75
 31
0.0
  0
LINE
  5
326
330
1F
100
AcDbEntity
  8
0
 62
     7
100
AcDbLine
 10
180.888794
 20
162.049988
 30
0.0
 11
178.50531
 21
162.049988
 31
0.0
  0
LINE
  5
327
330
1F
100
AcDbEntity
  8
0
 62
     7
100
AcDbLine
 10
182.686951
 20
162.75
 30
0.0
 11
180.591461
 21
162.75
 31
0.0
  0
ARC
  5
328
330
1F
100
AcDbEntity
  8
0
 62
     7
100
AcDbCircle
 10
179.697052
 20
164.649994
 30
0.0
 40
2.099999904632568
100
AcDbArc
 50
237.479124
 51
295.208757
  0
LINE
  5
329
330
1F
100
AcDbEntity
  8
0
 62
     7
100
AcDbLine
 10
178.802612
 20
162.75
 30
0.0
 11
176.707153
 21
162.75
 31
0.0
  0
LINE
  5
32A
330
1F
100
AcDbEntity
  8
0
 62
     7
100
AcDbLine
 10
130.888794
 20
162.049988
 30
0.0
 11
128.50531
 21
162.049988
 31
0.0
  0
LINE
  5
32B
330
1F
100
AcDbEntity
  8
0
 62
     7
100
AcDbLine
 10
132.686951
 20
162.75
 30
0.0
 11
130.591461
 21
162.75
 31
0.0
  0
ARC
  5
32C
330
1F
100
AcDbEntity
  8
0
 62
     7
100
AcDbCircle
 10
129.697052
 20
164.649994
 30
0.0
 40
2.099999904632568
100
AcDbArc
 50
237.479124
 51
295.208757
  0
LINE
  5
32D
330
1F
100
AcDbEntity
  8
0
 62
     7
100
AcDbLine
 10
128.802612
 20
162.75
 30
0.0
 11
126.707161
 21
162.75
 31
0.0
  0
LINE
  5
32E
330
1F
100
AcDbEntity
  8
0
 62
     7
100
AcDbLine
 10
125.700386
 20
162.75
 30
0.0
 11
68.878372
 21
162.75
 31
0.0
  0
LINE
  5
32F
330
1F
100
AcDbEntity
  8
0
 62
     7
100
AcDbLine
 10
125.9282
 20
162.049988
 30
0.0
 11
69.290016
 21
162.049988
 31
0.0
  0
LINE
  5
330
330
1F
100
AcDbEntity
  8
0
 62
     7
100
AcDbLine
 10
52.697052
 20
141.850006
 30
0.0
 11
53.197052
 21
141.850006
 31
0.0
  0
LINE
  5
331
330
1F
100
AcDbEntity
  8
0
 62
     7
100
AcDbLine
 10
177.384521
 20
141.680359
 30
0.0
 11
178.68454
 21
145.180359
 31
0.0
  0
ARC
  5
332
330
1F
100
AcDbEntity
  8
0
 62
     7
100
AcDbCircle
 10
177.197052
 20
141.75
 30
0.0
 40
0.2000000029802322
100
AcDbArc
 50
200.37643
 51
339.623562
  0
LINE
  5
333
330
1F
100
AcDbEntity
  8
0
 62
     7
100
AcDbLine
 10
175.709564
 20
145.180359
 30
0.0
 11
177.009552
 21
141.680359
 31
0.0
  0
ARC
  5
334
330
1F
100
AcDbEntity
  8
0
 62
     7
100
AcDbCircle
 10
175.897034
 20
145.25
 30
0.0
 40
0.2000000029802322
100
AcDbArc
 50
90.000003
 51
200.37643
  0
LINE
  5
335
330
1F
100
AcDbEntity
  8
0
 62
     7
100
AcDbLine
 10
178.49704
 20
145.450012
 30
0.0
 11
175.897034
 21
145.450012
 31
0.0
  0
ARC
  5
336
330
1F
100
AcDbEntity
  8
0
 62
     7
100
AcDbCircle
 10
178.49704
 20
145.25
 30
0.0
 40
0.2000000029802322
100
AcDbArc
 50
339.623562
 51
90.000003
  0
LINE
  5
337
330
1F
100
AcDbEntity
  8
0
 62
     7
100
AcDbLine
 10
107.384544
 20
141.680359
 30
0.0
 11
108.684547
 21
145.180359
 31
0.0
  0
ARC
  5
338
330
1F
100
AcDbEntity
  8
0
 62
     7
100
AcDbCircle
 10
107.19706
 20
141.75
 30
0.0
 40
0.2000000029802322
100
AcDbArc
 50
200.37643
 51
339.623562
  0
LINE
  5
339
330
1F
100
AcDbEntity
  8
0
 62
     7
100
AcDbLine
 10
105.709572
 20
145.180359
 30
0.0
 11
107.009575
 21
141.680359
 31
0.0
  0
ARC
  5
33A
330
1F
100
AcDbEntity
  8
0
 62
     7
100
AcDbCircle
 10
105.897057
 20
145.25
 30
0.0
 40
0.2000000029802322
100
AcDbArc
 50
90.000003
 51
200.37643
  0
LINE
  5
33B
330
1F
100
AcDbEntity
  8
0
 62
     7
100
AcDbLine
 10
108.497063
 20
145.450012
 30
0.0
 11
105.897057
 21
145.450012
 31
0.0
  0
ARC
  5
33C
330
1F
100
AcDbEntity
  8
0
 62
     7
100
AcDbCircle
 10
108.497063
 20
145.25
 30
0.0
 40
0.2000000029802322
100
AcDbArc
 50
339.623562
 51
90.000003
  0
LINE
  5
33D
330
1F
100
AcDbEntity
  8
0
 62
     7
100
AcDbLine
 10
257.697021
 20
140.149994
 30
0.0
 11
256.697021
 21
140.149994
 31
0.0
  0
LINE
  5
33E
330
1F
100
AcDbEntity
  8
0
 62
     7
100
AcDbLine
 10
256.197021
 20
140.350006
 30
0.0
 11
256.697021
 21
140.350006
 31
0.0
  0
LINE
  5
33F
330
1F
100
AcDbEntity
  8
0
 62
     7
100
AcDbLine
 10
180.591461
 20
162.75
 30
0.0
 11
180.703827
 21
162.807068
 31
0.0
  0
ARC
  5
340
330
1F
100
AcDbEntity
  8
0
 62
     7
100
AcDbCircle
 10
179.697052
 20
164.649994
 30
0.0
 40
2.099999904632568
100
AcDbArc
 50
298.647887
 51
314.415304
  0
LINE
  5
341
330
1F
100
AcDbEntity
  8
0
 62
     7
100
AcDbLine
 10
178.227356
 20
163.149994
 30
0.0
 11
176.697052
 21
163.149994
 31
0.0
  0
ARC
  5
342
330
1F
100
AcDbEntity
  8
0
 62
     7
100
AcDbCircle
 10
179.697052
 20
164.649994
 30
0.0
 40
2.099999904632568
100
AcDbArc
 50
314.415304
 51
237.479124
  0
LINE
  5
343
330
1F
100
AcDbEntity
  8
0
 62
     7
100
AcDbLine
 10
182.697052
 20
163.149994
 30
0.0
 11
181.166748
 21
163.149994
 31
0.0
  0
LINE
  5
344
330
1F
100
AcDbEntity
  8
0
 62
     7
100
AcDbLine
 10
182.697052
 20
167.974274
 30
0.0
 11
176.697052
 21
167.974274
 31
0.0
  0
LINE
  5
345
330
1F
100
AcDbEntity
  8
0
 62
     7
100
AcDbLine
 10
175.928192
 20
162.049988
 30
0.0
 11
133.465912
 21
162.049988
 31
0.0
  0
LINE
  5
346
330
1F
100
AcDbEntity
  8
0
 62
     7
100
AcDbLine
 10
175.700378
 20
162.75
 30
0.0
 11
133.693695
 21
162.75
 31
0.0
  0
LINE
  5
347
330
1F
100
AcDbEntity
  8
0
 62
     7
100
AcDbLine
 10
175.697052
 20
163.149994
 30
0.0
 11
133.697052
 21
163.149994
 31
0.0
  0
LINE
  5
348
330
1F
100
AcDbEntity
  8
0
 62
     7
100
AcDbLine
 10
175.697052
 20
167.974274
 30
0.0
 11
133.697052
 21
167.974274
 31
0.0
  0
LINE
  5
349
330
1F
100
AcDbEntity
  8
0
 62
     7
100
AcDbLine
 10
130.591461
 20
162.75
 30
0.0
 11
130.703827
 21
162.807068
 31
0.0
  0
ARC
  5
34A
330
1F
100
AcDbEntity
  8
0
 62
     7
100
AcDbCircle
 10
129.697052
 20
164.649994
 30
0.0
 40
2.099999904632568
100
AcDbArc
 50
298.647887
 51
314.415304
  0
ARC
  5
34B
330
1F
100
AcDbEntity
  8
0
 62
     7
100
AcDbCircle
 10
129.697052
 20
164.649994
 30
0.0
 40
2.099999904632568
100
AcDbArc
 50
314.415304
 51
237.479124
  0
LINE
  5
34C
330
1F
100
AcDbEntity
  8
0
 62
     7
100
AcDbLine
 10
132.697052
 20
163.149994
 30
0.0
 11
131.166748
 21
163.149994
 31
0.0
  0
LINE
  5
34D
330
1F
100
AcDbEntity
  8
0
 62
     7
100
AcDbLine
 10
132.697052
 20
167.974274
 30
0.0
 11
126.69706
 21
167.974274
 31
0.0
  0
LINE
  5
34E
330
1F
100
AcDbEntity
  8
0
 62
     7
100
AcDbLine
 10
128.227356
 20
163.149994
 30
0.0
 11
126.69706
 21
163.149994
 31
0.0
  0
LINE
  5
34F
330
1F
100
AcDbEntity
  8
0
 62
     7
100
AcDbLine
 10
51.697052
 20
140.149994
 30
0.0
 11
52.697052
 21
140.149994
 31
0.0
  0
LINE
  5
350
330
1F
100
AcDbEntity
  8
0
 62
     7
100
AcDbLine
 10
52.697052
 20
140.350006
 30
0.0
 11
53.197052
 21
140.350006
 31
0.0
  0
CIRCLE
  5
351
330
1F
100
AcDbEntity
  8
0
 62
     7
100
AcDbCircle
 10
247.197021
 20
158.350006
 30
0.0
 40
4.5
  0
CIRCLE
  5
352
330
1F
100
AcDbEntity
  8
0
 62
     7
100
AcDbCircle
 10
62.197052
 20
158.350006
 30
0.0
 40
4.5
  0
ARC
  5
353
330
1F
100
AcDbEntity
  8
0
 62
     7
100
AcDbCircle
 10
257.697021
 20
141.149994
 30
0.0
 40
1.0
100
AcDbArc
 50
269.999997
 51
360.0
  0
LINE
  5
354
330
1F
100
AcDbEntity
  8
0
 62
     7
100
AcDbLine
 10
258.697021
 20
167.535797
 30
0.0
 11
258.697021
 21
141.149994
 31
0.0
  0
LINE
  5
355
330
1F
100
AcDbEntity
  8
0
 62
     7
100
AcDbLine
 10
258.697021
 20
168.231415
 30
0.0
 11
258.697021
 21
167.535797
 31
0.0
  0
LINE
  5
356
330
1F
100
AcDbEntity
  8
0
 62
     7
100
AcDbLine
 10
50.697052
 20
167.535797
 30
0.0
 11
50.697052
 21
168.231415
 31
0.0
  0
LINE
  5
357
330
1F
100
AcDbEntity
  8
0
 62
     7
100
AcDbLine
 10
50.697052
 20
141.149994
 30
0.0
 11
50.697052
 21
167.535797
 31
0.0
  0
ARC
  5
358
330
1F
100
AcDbEntity
  8
0
 62
     7
100
AcDbCircle
 10
51.697052
 20
141.149994
 30
0.0
 40
1.0
100
AcDbArc
 50
180.000009
 51
269.999997
  0
LINE
  5
359
330
1F
100
AcDbEntity
  8
0
 62
     7
100
AcDbLine
 10
257.697021
 20
171.149994
 30
0.0
 11
256.697021
 21
171.149994
 31
0.0
  0
LINE
  5
35A
330
1F
100
AcDbEntity
  8
0
 62
     7
100
AcDbLine
 10
51.697052
 20
171.149994
 30
0.0
 11
52.697052
 21
171.149994
 31
0.0
  0
LINE
  5
35B
330
1F
100
AcDbEntity
  8
0
 62
     7
100
AcDbLine
 10
258.697021
 20
168.805939
 30
0.0
 11
258.697021
 21
168.231415
 31
0.0
  0
LINE
  5
35C
330
1F
100
AcDbEntity
  8
0
 62
     7
100
AcDbLine
 10
258.697021
 20
170.149994
 30
0.0
 11
258.697021
 21
168.805939
 31
0.0
  0
LINE
  5
35D
330
1F
100
AcDbEntity
  8
0
 62
     7
100
AcDbLine
 10
50.697052
 20
168.231415
 30
0.0
 11
50.697052
 21
168.805939
 31
0.0
  0
LINE
  5
35E
330
1F
100
AcDbEntity
  8
0
 62
     7
100
AcDbLine
 10
50.697052
 20
168.805939
 30
0.0
 11
50.697052
 21
170.149994
 31
0.0
  0
ARC
  5
35F
330
1F
100
AcDbEntity
  8
0
 62
     7
100
AcDbCircle
 10
247.197021
 20
159.049988
 30
0.0
 40
12.80000019073486
100
AcDbArc
 50
73.932611
 51
106.067387
  0
ARC
  5
360
330
1F
100
AcDbEntity
  8
0
 62
     7
100
AcDbCircle
 10
62.197052
 20
159.049988
 30
0.0
 40
12.80000019073486
100
AcDbArc
 50
73.932611
 51
106.067387
  0
ARC
  5
361
330
1F
100
AcDbEntity
  8
0
 62
     7
100
AcDbCircle
 10
257.697021
 20
170.149994
 30
0.0
 40
1.0
100
AcDbArc
 50
0.0
 51
90.000003
  0
ARC
  5
362
330
1F
100
AcDbEntity
  8
0
 62
     7
100
AcDbCircle
 10
51.697052
 20
170.149994
 30
0.0
 40
1.0
100
AcDbArc
 50
90.000003
 51
180.000009
  0
CIRCLE
  5
363
330
1F
100
AcDbEntity
  8
0
 62
     7
100
AcDbCircle
 10
179.697052
 20
164.649994
 30
0.0
 40
2.0
  0
CIRCLE
  5
364
330
1F
100
AcDbEntity
  8
0
 62
     7
100
AcDbCircle
 10
129.697052
 20
164.649994
 30
0.0
 40
2.0
  0
LINE
  5
365
330
1F
100
AcDbEntity
  8
0
 62
     7
100
AcDbLine
 10
179.897034
 20
165.350006
 30
0.0
 11
179.897034
 21
165.850006
 31
0.0
  0
LINE
  5
366
330
1F
100
AcDbEntity
  8
0
 62
     7
100
AcDbLine
 10
179.897034
 20
165.850006
 30
0.0
 11
179.49704
 21
165.850006
 31
0.0
  0
LINE
  5
367
330
1F
100
AcDbEntity
  8
0
 62
     7
100
AcDbLine
 10
179.49704
 20
165.850006
 30
0.0
 11
179.49704
 21
165.350006
 31
0.0
  0
ARC
  5
368
330
1F
100
AcDbEntity
  8
0
 62
     7
100
AcDbCircle
 10
178.99704
 20
165.350006
 30
0.0
 40
0.5
100
AcDbArc
 50
269.999997
 51
360.0
  0
LINE
  5
369
330
1F
100
AcDbEntity
  8
0
 62
     7
100
AcDbLine
 10
178.99704
 20
164.850006
 30
0.0
 11
178.49704
 21
164.850006
 31
0.0
  0
LINE
  5
36A
330
1F
100
AcDbEntity
  8
0
 62
     7
100
AcDbLine
 10
178.49704
 20
164.850006
 30
0.0
 11
178.49704
 21
164.450012
 31
0.0
  0
LINE
  5
36B
330
1F
100
AcDbEntity
  8
0
 62
     7
100
AcDbLine
 10
178.49704
 20
164.450012
 30
0.0
 11
178.99704
 21
164.450012
 31
0.0
  0
ARC
  5
36C
330
1F
100
AcDbEntity
  8
0
 62
     7
100
AcDbCircle
 10
178.99704
 20
163.950012
 30
0.0
 40
0.5
100
AcDbArc
 50
0.0
 51
90.000003
  0
LINE
  5
36D
330
1F
100
AcDbEntity
  8
0
 62
     7
100
AcDbLine
 10
179.49704
 20
163.950012
 30
0.0
 11
179.49704
 21
163.450012
 31
0.0
  0
LINE
  5
36E
330
1F
100
AcDbEntity
  8
0
 62
     7
100
AcDbLine
 10
179.49704
 20
163.450012
 30
0.0
 11
179.897034
 21
163.450012
 31
0.0
  0
LINE
  5
36F
330
1F
100
AcDbEntity
  8
0
 62
     7
100
AcDbLine
 10
179.897034
 20
163.450012
 30
0.0
 11
179.897034
 21
163.950012
 31
0.0
  0
ARC
  5
370
330
1F
100
AcDbEntity
  8
0
 62
     7
100
AcDbCircle
 10
180.397034
 20
163.950012
 30
0.0
 40
0.5
100
AcDbArc
 50
90.000003
 51
180.000009
  0
LINE
  5
371
330
1F
100
AcDbEntity
  8
0
 62
     7
100
AcDbLine
 10
180.397034
 20
164.450012
 30
0.0
 11
180.897034
 21
164.450012
 31
0.0
  0
LINE
  5
372
330
1F
100
AcDbEntity
  8
0
 62
     7
100
AcDbLine
 10
180.897034
 20
164.450012
 30
0.0
 11
180.897034
 21
164.850006
 31
0.0
  0
LINE
  5
373
330
1F
100
AcDbEntity
  8
0
 62
     7
100
AcDbLine
 10
180.897034
 20
164.850006
 30
0.0
 11
180.397034
 21
164.850006
 31
0.0
  0
ARC
  5
374
330
1F
100
AcDbEntity
  8
0
 62
     7
100
AcDbCircle
 10
180.397034
 20
165.350006
 30
0.0
 40
0.5
100
AcDbArc
 50
180.000009
 51
269.999997
  0
LINE
  5
375
330
1F
100
AcDbEntity
  8
0
 62
     7
100
AcDbLine
 10
129.897034
 20
165.350006
 30
0.0
 11
129.897034
 21
165.850006
 31
0.0
  0
LINE
  5
376
330
1F
100
AcDbEntity
  8
0
 62
     7
100
AcDbLine
 10
129.897034
 20
165.850006
 30
0.0
 11
129.49704
 21
165.850006
 31
0.0
  0
LINE
  5
377
330
1F
100
AcDbEntity
  8
0
 62
     7
100
AcDbLine
 10
129.49704
 20
165.850006
 30
0.0
 11
129.49704
 21
165.350006
 31
0.0
  0
ARC
  5
378
330
1F
100
AcDbEntity
  8
0
 62
     7
100
AcDbCircle
 10
128.99704
 20
165.350006
 30
0.0
 40
0.5
100
AcDbArc
 50
269.999997
 51
360.0
  0
LINE
  5
379
330
1F
100
AcDbEntity
  8
0
 62
     7
100
AcDbLine
 10
128.99704
 20
164.850006
 30
0.0
 11
128.49704
 21
164.850006
 31
0.0
  0
LINE
  5
37A
330
1F
100
AcDbEntity
  8
0
 62
     7
100
AcDbLine
 10
128.49704
 20
164.850006
 30
0.0
 11
128.49704
 21
164.450012
 31
0.0
  0
LINE
  5
37B
330
1F
100
AcDbEntity
  8
0
 62
     7
100
AcDbLine
 10
128.49704
 20
164.450012
 30
0.0
 11
128.99704
 21
164.450012
 31
0.0
  0
ARC
  5
37C
330
1F
100
AcDbEntity
  8
0
 62
     7
100
AcDbCircle
 10
128.99704
 20
163.950012
 30
0.0
 40
0.5
100
AcDbArc
 50
0.0
 51
90.000003
  0
LINE
  5
37D
330
1F
100
AcDbEntity
  8
0
 62
     7
100
AcDbLine
 10
129.49704
 20
163.950012
 30
0.0
 11
129.49704
 21
163.450012
 31
0.0
  0
LINE
  5
37E
330
1F
100
AcDbEntity
  8
0
 62
     7
100
AcDbLine
 10
129.49704
 20
163.450012
 30
0.0
 11
129.897034
 21
163.450012
 31
0.0
  0
LINE
  5
37F
330
1F
100
AcDbEntity
  8
0
 62
     7
100
AcDbLine
 10
129.897034
 20
163.450012
 30
0.0
 11
129.897034
 21
163.950012
 31
0.0
  0
ARC
  5
380
330
1F
100
AcDbEntity
  8
0
 62
     7
100
AcDbCircle
 10
130.397034
 20
163.950012
 30
0.0
 40
0.5
100
AcDbArc
 50
90.000003
 51
180.000009
  0
LINE
  5
381
330
1F
100
AcDbEntity
  8
0
 62
     7
100
AcDbLine
 10
130.397034
 20
164.450012
 30
0.0
 11
130.897034
 21
164.450012
 31
0.0
  0
LINE
  5
382
330
1F
100
AcDbEntity
  8
0
 62
     7
100
AcDbLine
 10
130.897034
 20
164.450012
 30
0.0
 11
130.897034
 21
164.850006
 31
0.0
  0
LINE
  5
383
330
1F
100
AcDbEntity
  8
0
 62
     7
100
AcDbLine
 10
130.897034
 20
164.850006
 30
0.0
 11
130.397034
 21
164.850006
 31
0.0
  0
ARC
  5
384
330
1F
100
AcDbEntity
  8
0
 62
     7
100
AcDbCircle
 10
130.397034
 20
165.350006
 30
0.0
 40
0.5
100
AcDbArc
 50
180.000009
 51
269.999997
  0
LINE
  5
385
330
1F
100
AcDbEntity
  8
0
 62
     7
100
AcDbLine
 10
258.697021
 20
144.799988
 30
0.0
 11
258.697021
 21
147.700012
 31
0.0
  0
LINE
  5
386
330
1F
100
AcDbEntity
  8
0
 62
     7
100
AcDbLine
 10
258.697021
 20
149.0
 30
0.0
 11
258.697021
 21
151.899994
 31
0.0
  0
LINE
  5
387
330
1F
100
AcDbEntity
  8
0
 62
     7
100
AcDbLine
 10
183.697052
 20
168.549988
 30
0.0
 11
256.197021
 21
168.549988
 31
0.0
  0
LINE
  5
388
330
1F
100
AcDbEntity
  8
0
 62
     7
100
AcDbLine
 10
53.197052
 20
168.549988
 30
0.0
 11
125.69706
 21
168.549988
 31
0.0
  0
LINE
  5
389
330
1F
100
AcDbEntity
  8
0
 62
     7
100
AcDbLine
 10
176.697052
 20
168.549988
 30
0.0
 11
182.697052
 21
168.549988
 31
0.0
  0
LINE
  5
38A
330
1F
100
AcDbEntity
  8
0
 62
     7
100
AcDbLine
 10
133.697052
 20
168.549988
 30
0.0
 11
175.697052
 21
168.549988
 31
0.0
  0
LINE
  5
38B
330
1F
100
AcDbEntity
  8
0
 62
     7
100
AcDbLine
 10
126.69706
 20
168.549988
 30
0.0
 11
132.697052
 21
168.549988
 31
0.0
  0
LINE
  5
38C
330
1F
100
AcDbEntity
  8
0
 62
     7
100
AcDbLine
 10
186.097046
 20
137.849884
 30
0.0
 11
186.097046
 21
138.139984
 31
0.0
  0
LINE
  5
38D
330
1F
100
AcDbEntity
  8
0
 62
     7
100
AcDbLine
 10
186.097046
 20
138.139984
 30
0.0
 11
185.897034
 21
138.343231
 31
0.0
  0
LINE
  5
38E
330
1F
100
AcDbEntity
  8
0
 62
     7
100
AcDbLine
 10
185.897034
 20
138.009216
 30
0.0
 11
185.897034
 21
138.343231
 31
0.0
  0
LINE
  5
38F
330
1F
100
AcDbEntity
  8
0
 62
     7
100
AcDbLine
 10
185.897034
 20
138.343231
 30
0.0
 11
184.897034
 21
138.343231
 31
0.0
  0
LINE
  5
390
330
1F
100
AcDbEntity
  8
0
 62
     7
100
AcDbLine
 10
184.897034
 20
138.343231
 30
0.0
 11
184.897034
 21
138.399994
 31
0.0
  0
LINE
  5
391
330
1F
100
AcDbEntity
  8
0
 62
     7
100
AcDbLine
 10
184.297058
 20
138.399994
 30
0.0
 11
184.897034
 21
138.399994
 31
0.0
  0
LINE
  5
392
330
1F
100
AcDbEntity
  8
0
 62
     7
100
AcDbLine
 10
184.297058
 20
138.049927
 30
0.0
 11
184.297058
 21
138.399994
 31
0.0
  0
LINE
  5
393
330
1F
100
AcDbEntity
  8
0
 62
     7
100
AcDbLine
 10
185.897034
 20
138.343231
 30
0.0
 11
184.897034
 21
138.343231
 31
0.0
  0
LINE
  5
394
330
1F
100
AcDbEntity
  8
0
 62
     7
100
AcDbLine
 10
186.097046
 20
138.139984
 30
0.0
 11
185.897034
 21
138.343231
 31
0.0
  0
LINE
  5
395
330
1F
100
AcDbEntity
  8
0
 62
     7
100
AcDbLine
 10
183.99704
 20
138.049988
 30
0.0
 11
183.99704
 21
138.149994
 31
0.0
  0
LINE
  5
396
330
1F
100
AcDbEntity
  8
0
 62
     7
100
AcDbLine
 10
185.697052
 20
138.049988
 30
0.0
 11
183.697052
 21
138.049988
 31
0.0
  0
ARC
  5
397
330
1F
100
AcDbEntity
  8
0
 62
     7
100
AcDbCircle
 10
183.697052
 20
138.549988
 30
0.0
 40
0.5
100
AcDbArc
 50
180.000009
 51
269.999997
  0
LINE
  5
398
330
1F
100
AcDbEntity
  8
0
 62
     7
100
AcDbLine
 10
185.697052
 20
137.549988
 30
0.0
 11
186.050598
 21
137.903564
 31
0.0
  0
ARC
  5
399
330
1F
100
AcDbEntity
  8
0
 62
     7
100
AcDbCircle
 10
185.697052
 20
137.549988
 30
0.0
 40
0.5
100
AcDbArc
 50
0.0
 51
89.999559
  0
LINE
  5
39A
330
1F
100
AcDbEntity
  8
0
 62
     7
100
AcDbLine
 10
186.197052
 20
114.449989
 30
0.0
 11
186.197052
 21
137.549988
 31
0.0
  0
ARC
  5
39B
330
1F
100
AcDbEntity
  8
0
 62
     7
100
AcDbCircle
 10
182.697052
 20
138.549988
 30
0.0
 40
0.5
100
AcDbArc
 50
0.0
 51
90.000003
  0
LINE
  5
39C
330
1F
100
AcDbEntity
  8
0
 62
     7
100
AcDbLine
 10
178.697052
 20
117.249992
 30
0.0
 11
60.697052
 21
117.249992
 31
0.0
  0
LINE
  5
39D
330
1F
100
AcDbEntity
  8
0
 62
     7
100
AcDbLine
 10
108.846916
 20
132.107971
 30
0.0
 11
107.384544
 21
136.045227
 31
0.0
  0
ARC
  5
39E
330
1F
100
AcDbEntity
  8
0
 62
     7
100
AcDbCircle
 10
108.659431
 20
132.03833
 30
0.0
 40
0.2000000029802322
100
AcDbArc
 50
269.999997
 51
20.376
  0
LINE
  5
39F
330
1F
100
AcDbEntity
  8
0
 62
     7
100
AcDbLine
 10
105.734688
 20
131.838348
 30
0.0
 11
108.659431
 21
131.838348
 31
0.0
  0
ARC
  5
3A0
330
1F
100
AcDbEntity
  8
0
 62
     7
100
AcDbCircle
 10
105.734688
 20
132.03833
 30
0.0
 40
0.2000000029802322
100
AcDbArc
 50
159.624007
 51
269.999997
  0
LINE
  5
3A1
330
1F
100
AcDbEntity
  8
0
 62
     7
100
AcDbLine
 10
107.009575
 20
136.045227
 30
0.0
 11
105.547203
 21
132.107971
 31
0.0
  0
ARC
  5
3A2
330
1F
100
AcDbEntity
  8
0
 62
     7
100
AcDbCircle
 10
107.19706
 20
135.975586
 30
0.0
 40
0.2000000029802322
100
AcDbArc
 50
20.376
 51
159.624007
  0
LINE
  5
3A3
330
1F
100
AcDbEntity
  8
0
 62
     7
100
AcDbLine
 10
185.697052
 20
114.449989
 30
0.0
 11
185.947052
 21
114.199989
 31
0.0
  0
LINE
  5
3A4
330
1F
100
AcDbEntity
  8
0
 62
     7
100
AcDbLine
 10
185.947052
 20
114.199989
 30
0.0
 11
186.197052
 21
114.449989
 31
0.0
  0
LINE
  5
3A5
330
1F
100
AcDbEntity
  8
0
 62
     7
100
AcDbLine
 10
185.697052
 20
113.949989
 30
0.0
 11
185.947052
 21
114.199989
 31
0.0
  0
LINE
  5
3A6
330
1F
100
AcDbEntity
  8
0
 62
     7
100
AcDbLine
 10
163.697052
 20
139.049988
 30
0.0
 11
164.697052
 21
139.049988
 31
0.0
  0
LINE
  5
3A7
330
1F
100
AcDbEntity
  8
0
 62
     7
100
AcDbLine
 10
165.697052
 20
139.049988
 30
0.0
 11
164.697052
 21
139.049988
 31
0.0
  0
LINE
  5
3A8
330
1F
100
AcDbEntity
  8
0
 62
     7
100
AcDbLine
 10
182.697052
 20
139.049988
 30
0.0
 11
165.697052
 21
139.049988
 31
0.0
  0
LINE
  5
3A9
330
1F
100
AcDbEntity
  8
0
 62
     7
100
AcDbLine
 10
53.697052
 20
114.449989
 30
0.0
 11
53.447052
 21
114.199989
 31
0.0
  0
LINE
  5
3AA
330
1F
100
AcDbEntity
  8
0
 62
     7
100
AcDbLine
 10
53.697052
 20
137.549988
 30
0.0
 11
53.343498
 21
137.903564
 31
0.0
  0
ARC
  5
3AB
330
1F
100
AcDbEntity
  8
0
 62
     7
100
AcDbCircle
 10
53.697052
 20
137.549988
 30
0.0
 40
0.5
100
AcDbArc
 50
90.000003
 51
179.999554
  0
LINE
  5
3AC
330
1F
100
AcDbEntity
  8
0
 62
     7
100
AcDbLine
 10
53.197052
 20
137.549988
 30
0.0
 11
53.197052
 21
114.449989
 31
0.0
  0
LINE
  5
3AD
330
1F
100
AcDbEntity
  8
0
 62
     7
100
AcDbLine
 10
53.197052
 20
114.449989
 30
0.0
 11
53.447052
 21
114.199989
 31
0.0
  0
LINE
  5
3AE
330
1F
100
AcDbEntity
  8
0
 62
     7
100
AcDbLine
 10
60.697052
 20
113.949989
 30
0.0
 11
53.697052
 21
113.949989
 31
0.0
  0
LINE
  5
3AF
330
1F
100
AcDbEntity
  8
0
 62
     7
100
AcDbLine
 10
53.447052
 20
114.199989
 30
0.0
 11
53.697052
 21
113.949989
 31
0.0
  0
LINE
  5
3B0
330
1F
100
AcDbEntity
  8
0
 62
     7
100
AcDbLine
 10
61.197052
 20
114.449989
 30
0.0
 11
61.197052
 21
117.249992
 31
0.0
  0
LINE
  5
3B1
330
1F
100
AcDbEntity
  8
0
 62
     7
100
AcDbLine
 10
178.197052
 20
114.449989
 30
0.0
 11
178.197052
 21
117.249992
 31
0.0
  0
LINE
  5
3B2
330
1F
100
AcDbEntity
  8
0
 62
     7
100
AcDbLine
 10
185.697052
 20
113.949989
 30
0.0
 11
178.697052
 21
113.949989
 31
0.0
  0
LINE
  5
3B3
330
1F
100
AcDbEntity
  8
0
 62
     7
100
AcDbLine
 10
164.697052
 20
138.049988
 30
0.0
 11
150.697052
 21
138.049988
 31
0.0
  0
LINE
  5
3B4
330
1F
100
AcDbEntity
  8
0
 62
     7
100
AcDbLine
 10
150.397034
 20
136.549988
 30
0.0
 11
150.397034
 21
137.75
 31
0.0
  0
ARC
  5
3B5
330
1F
100
AcDbEntity
  8
0
 62
     7
100
AcDbCircle
 10
148.197052
 20
136.549988
 30
0.0
 40
2.200000047683716
100
AcDbArc
 50
180.000009
 51
360.0
  0
LINE
  5
3B6
330
1F
100
AcDbEntity
  8
0
 62
     7
100
AcDbLine
 10
145.99704
 20
137.75
 30
0.0
 11
145.99704
 21
136.549988
 31
0.0
  0
LINE
  5
3B7
330
1F
100
AcDbEntity
  8
0
 62
     7
100
AcDbLine
 10
145.697052
 20
138.049988
 30
0.0
 11
71.69706
 21
138.049988
 31
0.0
  0
LINE
  5
3B8
330
1F
100
AcDbEntity
  8
0
 62
     7
100
AcDbLine
 10
71.397057
 20
136.549988
 30
0.0
 11
71.397057
 21
137.75
 31
0.0
  0
ARC
  5
3B9
330
1F
100
AcDbEntity
  8
0
 62
     7
100
AcDbCircle
 10
69.19706
 20
136.549988
 30
0.0
 40
2.200000047683716
100
AcDbArc
 50
180.000009
 51
360.0
  0
ARC
  5
3BA
330
1F
100
AcDbEntity
  8
0
 62
     7
100
AcDbCircle
 10
72.863121
 20
136.049988
 30
0.0
 40
1.0
100
AcDbArc
 50
90.000003
 51
172.233561
  0
LINE
  5
3BB
330
1F
100
AcDbEntity
  8
0
 62
     7
100
AcDbLine
 10
72.863121
 20
137.049988
 30
0.0
 11
86.19706
 21
137.049988
 31
0.0
  0
ARC
  5
3BC
330
1F
100
AcDbEntity
  8
0
 62
     7
100
AcDbCircle
 10
86.19706
 20
134.049988
 30
0.0
 40
3.0
100
AcDbArc
 50
0.0
 51
90.000003
  0
LINE
  5
3BD
330
1F
100
AcDbEntity
  8
0
 62
     7
100
AcDbLine
 10
89.19706
 20
121.249992
 30
0.0
 11
89.19706
 21
134.049988
 31
0.0
  0
ARC
  5
3BE
330
1F
100
AcDbEntity
  8
0
 62
     7
100
AcDbCircle
 10
86.19706
 20
121.249992
 30
0.0
 40
3.0
100
AcDbArc
 50
269.999997
 51
360.0
  0
LINE
  5
3BF
330
1F
100
AcDbEntity
  8
0
 62
     7
100
AcDbLine
 10
86.19706
 20
118.249992
 30
0.0
 11
72.19706
 21
118.249992
 31
0.0
  0
ARC
  5
3C0
330
1F
100
AcDbEntity
  8
0
 62
     7
100
AcDbCircle
 10
72.19706
 20
121.249992
 30
0.0
 40
3.0
100
AcDbArc
 50
180.000009
 51
269.999997
  0
LINE
  5
3C1
330
1F
100
AcDbEntity
  8
0
 62
     7
100
AcDbLine
 10
69.19706
 20
132.987701
 30
0.0
 11
69.19706
 21
121.249992
 31
0.0
  0
ARC
  5
3C2
330
1F
100
AcDbEntity
  8
0
 62
     7
100
AcDbCircle
 10
70.19706
 20
132.987701
 30
0.0
 40
1.0
100
AcDbArc
 50
105.680348
 51
180.000009
  0
LINE
  5
3C3
330
1F
100
AcDbEntity
  8
0
 62
     7
100
AcDbLine
 10
66.997063
 20
137.75
 30
0.0
 11
66.997063
 21
136.549988
 31
0.0
  0
LINE
  5
3C4
330
1F
100
AcDbEntity
  8
0
 62
     7
100
AcDbLine
 10
66.69706
 20
138.049988
 30
0.0
 11
66.19706
 21
138.049988
 31
0.0
  0
LINE
  5
3C5
330
1F
100
AcDbEntity
  8
0
 62
     7
100
AcDbLine
 10
65.19706
 20
139.049988
 30
0.0
 11
56.697052
 21
139.049988
 31
0.0
  0
LINE
  5
3C6
330
1F
100
AcDbEntity
  8
0
 62
     7
100
AcDbLine
 10
55.697052
 20
138.049988
 30
0.0
 11
53.697052
 21
138.049988
 31
0.0
  0
LINE
  5
3C7
330
1F
100
AcDbEntity
  8
0
 62
     7
100
AcDbLine
 10
128.197052
 20
137.049988
 30
0.0
 11
142.197052
 21
137.049988
 31
0.0
  0
ARC
  5
3C8
330
1F
100
AcDbEntity
  8
0
 62
     7
100
AcDbCircle
 10
142.197052
 20
134.049988
 30
0.0
 40
3.0
100
AcDbArc
 50
0.0
 51
90.000003
  0
LINE
  5
3C9
330
1F
100
AcDbEntity
  8
0
 62
     7
100
AcDbLine
 10
145.197052
 20
121.249992
 30
0.0
 11
145.197052
 21
134.049988
 31
0.0
  0
ARC
  5
3CA
330
1F
100
AcDbEntity
  8
0
 62
     7
100
AcDbCircle
 10
142.197052
 20
121.249992
 30
0.0
 40
3.0
100
AcDbArc
 50
269.999997
 51
360.0
  0
LINE
  5
3CB
330
1F
100
AcDbEntity
  8
0
 62
     7
100
AcDbLine
 10
142.197052
 20
118.249992
 30
0.0
 11
128.197052
 21
118.249992
 31
0.0
  0
ARC
  5
3CC
330
1F
100
AcDbEntity
  8
0
 62
     7
100
AcDbCircle
 10
128.197052
 20
121.249992
 30
0.0
 40
3.0
100
AcDbArc
 50
180.000009
 51
269.999997
  0
LINE
  5
3CD
330
1F
100
AcDbEntity
  8
0
 62
     7
100
AcDbLine
 10
125.19706
 20
134.049988
 30
0.0
 11
125.19706
 21
121.249992
 31
0.0
  0
ARC
  5
3CE
330
1F
100
AcDbEntity
  8
0
 62
     7
100
AcDbCircle
 10
128.197052
 20
134.049988
 30
0.0
 40
3.0
100
AcDbArc
 50
90.000003
 51
180.000009
  0
LINE
  5
3CF
330
1F
100
AcDbEntity
  8
0
 62
     7
100
AcDbLine
 10
66.19706
 20
139.049988
 30
0.0
 11
65.19706
 21
139.049988
 31
0.0
  0
LINE
  5
3D0
330
1F
100
AcDbEntity
  8
0
 62
     7
100
AcDbLine
 10
67.19706
 20
139.049988
 30
0.0
 11
66.19706
 21
139.049988
 31
0.0
  0
LINE
  5
3D1
330
1F
100
AcDbEntity
  8
0
 62
     7
100
AcDbLine
 10
62.447052
 20
116.849991
 30
0.0
 11
62.447052
 21
117.249992
 31
0.0
  0
LINE
  5
3D2
330
1F
100
AcDbEntity
  8
0
 62
     7
100
AcDbLine
 10
176.947052
 20
116.849991
 30
0.0
 11
176.947052
 21
117.249992
 31
0.0
  0
LINE
  5
3D3
330
1F
100
AcDbEntity
  8
0
 62
     7
100
AcDbLine
 10
76.920265
 20
117.099991
 30
0.0
 11
76.720261
 21
117.099991
 31
0.0
  0
LINE
  5
3D4
330
1F
100
AcDbEntity
  8
0
 62
     7
100
AcDbLine
 10
73.673851
 20
117.099991
 30
0.0
 11
76.720261
 21
117.099991
 31
0.0
  0
LINE
  5
3D5
330
1F
100
AcDbEntity
  8
0
 62
     7
100
AcDbLine
 10
73.673851
 20
117.099991
 30
0.0
 11
73.473854
 21
117.099991
 31
0.0
  0
LINE
  5
3D6
330
1F
100
AcDbEntity
  8
0
 62
     7
100
AcDbLine
 10
162.673828
 20
117.099991
 30
0.0
 11
162.473846
 21
117.099991
 31
0.0
  0
LINE
  5
3D7
330
1F
100
AcDbEntity
  8
0
 62
     7
100
AcDbLine
 10
165.920258
 20
117.099991
 30
0.0
 11
165.720245
 21
117.099991
 31
0.0
  0
LINE
  5
3D8
330
1F
100
AcDbEntity
  8
0
 62
     7
100
AcDbLine
 10
162.673828
 20
117.099991
 30
0.0
 11
165.720245
 21
117.099991
 31
0.0
  0
ARC
  5
3D9
330
1F
100
AcDbEntity
  8
0
 62
     7
100
AcDbCircle
 10
165.697052
 20
138.549988
 30
0.0
 40
0.5
100
AcDbArc
 50
90.000003
 51
180.000009
  0
ARC
  5
3DA
330
1F
100
AcDbEntity
  8
0
 62
     7
100
AcDbCircle
 10
60.697052
 20
114.449989
 30
0.0
 40
0.5
100
AcDbArc
 50
269.999997
 51
360.0
  0
ARC
  5
3DB
330
1F
100
AcDbEntity
  8
0
 62
     7
100
AcDbCircle
 10
178.697052
 20
114.449989
 30
0.0
 40
0.5
100
AcDbArc
 50
180.000009
 51
269.999997
  0
ARC
  5
3DC
330
1F
100
AcDbEntity
  8
0
 62
     7
100
AcDbCircle
 10
164.697052
 20
138.549988
 30
0.0
 40
0.5
100
AcDbArc
 50
269.999997
 51
360.0
  0
LINE
  5
3DD
330
1F
100
AcDbEntity
  8
0
 62
     7
100
AcDbLine
 10
67.097061
 20
138.049988
 30
0.0
 11
66.69706
 21
138.049988
 31
0.0
  0
LINE
  5
3DE
330
1F
100
AcDbEntity
  8
0
 62
     7
100
AcDbLine
 10
67.097061
 20
138.049988
 30
0.0
 11
67.19706
 21
138.049988
 31
0.0
  0
ARC
  5
3DF
330
1F
100
AcDbEntity
  8
0
 62
     7
100
AcDbCircle
 10
150.697052
 20
137.75
 30
0.0
 40
0.300000011920929
100
AcDbArc
 50
90.000003
 51
180.000009
  0
ARC
  5
3E0
330
1F
100
AcDbEntity
  8
0
 62
     7
100
AcDbCircle
 10
145.697052
 20
137.75
 30
0.0
 40
0.300000011920929
100
AcDbArc
 50
0.0
 51
90.000003
  0
ARC
  5
3E1
330
1F
100
AcDbEntity
  8
0
 62
     7
100
AcDbCircle
 10
71.69706
 20
137.75
 30
0.0
 40
0.300000011920929
100
AcDbArc
 50
90.000003
 51
180.000009
  0
ARC
  5
3E2
330
1F
100
AcDbEntity
  8
0
 62
     7
100
AcDbCircle
 10
69.19706
 20
136.549988
 30
0.0
 40
2.700000047683716
100
AcDbArc
 50
285.680336
 51
352.233566
  0
CIRCLE
  5
3E3
330
1F
100
AcDbEntity
  8
0
 62
     7
100
AcDbCircle
 10
79.19706
 20
129.649994
 30
0.0
 40
4.5
  0
ARC
  5
3E4
330
1F
100
AcDbEntity
  8
0
 62
     7
100
AcDbCircle
 10
66.69706
 20
137.75
 30
0.0
 40
0.300000011920929
100
AcDbArc
 50
0.0
 51
90.000003
  0
ARC
  5
3E5
330
1F
100
AcDbEntity
  8
0
 62
     7
100
AcDbCircle
 10
66.19706
 20
138.549988
 30
0.0
 40
0.5
100
AcDbArc
 50
180.000009
 51
269.999997
  0
ARC
  5
3E6
330
1F
100
AcDbEntity
  8
0
 62
     7
100
AcDbCircle
 10
65.19706
 20
138.549988
 30
0.0
 40
0.5
100
AcDbArc
 50
0.0
 51
90.000003
  0
ARC
  5
3E7
330
1F
100
AcDbEntity
  8
0
 62
     7
100
AcDbCircle
 10
56.697052
 20
138.549988
 30
0.0
 40
0.5
100
AcDbArc
 50
90.000003
 51
180.000009
  0
ARC
  5
3E8
330
1F
100
AcDbEntity
  8
0
 62
     7
100
AcDbCircle
 10
55.697052
 20
138.549988
 30
0.0
 40
0.5
100
AcDbArc
 50
269.999997
 51
360.0
  0
CIRCLE
  5
3E9
330
1F
100
AcDbEntity
  8
0
 62
     7
100
AcDbCircle
 10
135.197052
 20
129.649994
 30
0.0
 40
4.5
  0
LINE
  5
3EA
330
1F
100
AcDbEntity
  8
0
 62
     7
100
AcDbLine
 10
55.397049
 20
138.049988
 30
0.0
 11
55.397049
 21
138.149994
 31
0.0
  0
LINE
  5
3EB
330
1F
100
AcDbEntity
  8
0
 62
     7
100
AcDbLine
 10
177.147034
 20
116.849991
 30
0.0
 11
178.147034
 21
116.849991
 31
0.0
  0
LINE
  5
3EC
330
1F
100
AcDbEntity
  8
0
 62
     7
100
AcDbLine
 10
177.147034
 20
116.849991
 30
0.0
 11
165.720245
 21
116.849991
 31
0.0
  0
LINE
  5
3ED
330
1F
100
AcDbEntity
  8
0
 62
     7
100
AcDbLine
 10
162.673828
 20
116.849991
 30
0.0
 11
76.720261
 21
116.849991
 31
0.0
  0
LINE
  5
3EE
330
1F
100
AcDbEntity
  8
0
 62
     7
100
AcDbLine
 10
73.673851
 20
116.849991
 30
0.0
 11
62.247055
 21
116.849991
 31
0.0
  0
LINE
  5
3EF
330
1F
100
AcDbEntity
  8
0
 62
     7
100
AcDbLine
 10
61.247055
 20
116.849991
 30
0.0
 11
62.247055
 21
116.849991
 31
0.0
  0
LINE
  5
3F0
330
1F
100
AcDbEntity
  8
0
 62
     7
100
AcDbLine
 10
177.147034
 20
114.349991
 30
0.0
 11
62.247055
 21
114.349991
 31
0.0
  0
LINE
  5
3F1
330
1F
100
AcDbEntity
  8
0
 62
     7
100
AcDbLine
 10
67.19706
 20
136.549988
 30
0.0
 11
67.19706
 21
138.549988
 31
0.0
  0
LINE
  5
3F2
330
1F
100
AcDbEntity
  8
0
 62
     7
100
AcDbLine
 10
67.19706
 20
139.049988
 30
0.0
 11
67.19706
 21
138.549988
 31
0.0
  0
LINE
  5
3F3
330
1F
100
AcDbEntity
  8
0
 62
     7
100
AcDbLine
 10
67.19706
 20
140.049988
 30
0.0
 11
67.19706
 21
139.049988
 31
0.0
  0
LINE
  5
3F4
330
1F
100
AcDbEntity
  8
0
 62
     7
100
AcDbLine
 10
163.697052
 20
138.049988
 30
0.0
 11
163.697052
 21
138.549988
 31
0.0
  0
LINE
  5
3F5
330
1F
100
AcDbEntity
  8
0
 62
     7
100
AcDbLine
 10
163.697052
 20
139.049988
 30
0.0
 11
163.697052
 21
138.549988
 31
0.0
  0
LINE
  5
3F6
330
1F
100
AcDbEntity
  8
0
 62
     7
100
AcDbLine
 10
163.697052
 20
140.049988
 30
0.0
 11
163.697052
 21
139.049988
 31
0.0
  0
ARC
  5
3F7
330
1F
100
AcDbEntity
  8
0
 62
     7
100
AcDbCircle
 10
69.19706
 20
136.549988
 30
0.0
 40
2.0
100
AcDbArc
 50
180.000009
 51
360.0
  0
LINE
  5
3F8
330
1F
100
AcDbEntity
  8
0
 62
     7
100
AcDbLine
 10
71.19706
 20
136.549988
 30
0.0
 11
71.19706
 21
138.049988
 31
0.0
  0
LINE
  5
3F9
330
1F
100
AcDbEntity
  8
0
 62
     7
100
AcDbLine
 10
71.69706
 20
138.049988
 30
0.0
 11
71.19706
 21
138.049988
 31
0.0
  0
LINE
  5
3FA
330
1F
100
AcDbEntity
  8
0
 62
     7
100
AcDbLine
 10
146.197052
 20
138.049988
 30
0.0
 11
145.697052
 21
138.049988
 31
0.0
  0
LINE
  5
3FB
330
1F
100
AcDbEntity
  8
0
 62
     7
100
AcDbLine
 10
146.197052
 20
136.549988
 30
0.0
 11
146.197052
 21
138.049988
 31
0.0
  0
ARC
  5
3FC
330
1F
100
AcDbEntity
  8
0
 62
     7
100
AcDbCircle
 10
148.197052
 20
136.549988
 30
0.0
 40
2.0
100
AcDbArc
 50
180.000009
 51
360.0
  0
LINE
  5
3FD
330
1F
100
AcDbEntity
  8
0
 62
     7
100
AcDbLine
 10
150.197052
 20
136.549988
 30
0.0
 11
150.197052
 21
138.049988
 31
0.0
  0
LINE
  5
3FE
330
1F
100
AcDbEntity
  8
0
 62
     7
100
AcDbLine
 10
150.697052
 20
138.049988
 30
0.0
 11
150.197052
 21
138.049988
 31
0.0
  0
LINE
  5
3FF
330
1F
100
AcDbEntity
  8
0
 62
     7
100
AcDbLine
 10
61.247055
 20
114.349991
 30
0.0
 11
61.247055
 21
116.849991
 31
0.0
  0
LINE
  5
400
330
1F
100
AcDbEntity
  8
0
 62
     7
100
AcDbLine
 10
178.147034
 20
114.349991
 30
0.0
 11
178.147034
 21
116.849991
 31
0.0
  0
LINE
  5
401
330
1F
100
AcDbEntity
  8
0
 62
     7
100
AcDbLine
 10
177.147034
 20
114.349991
 30
0.0
 11
178.147034
 21
114.349991
 31
0.0
  0
LINE
  5
402
330
1F
100
AcDbEntity
  8
0
 62
     7
100
AcDbLine
 10
61.247055
 20
114.349991
 30
0.0
 11
62.247055
 21
114.349991
 31
0.0
  0
LINE
  5
403
330
1F
100
AcDbEntity
  8
0
 62
     7
100
AcDbLine
 10
163.697052
 20
139.049988
 30
0.0
 11
67.19706
 21
139.049988
 31
0.0
  0
CIRCLE
  5
404
330
1F
100
AcDbEntity
  8
0
 62
     7
100
AcDbCircle
 10
79.19706
 20
129.649994
 30
0.0
 40
4.0
  0
CIRCLE
  5
405
330
1F
100
AcDbEntity
  8
0
 62
     7
100
AcDbCircle
 10
135.197052
 20
129.649994
 30
0.0
 40
4.0
  0
LINE
  5
406
330
1F
100
AcDbEntity
  8
0
 62
     7
100
AcDbLine
 10
55.097054
 20
138.399994
 30
0.0
 11
55.097054
 21
138.049927
 31
0.0
  0
CIRCLE
  5
407
330
1F
100
AcDbEntity
  8
0
 62
     7
100
AcDbCircle
 10
148.197052
 20
136.549988
 30
0.0
 40
1.475000023841858
  0
CIRCLE
  5
408
330
1F
100
AcDbEntity
  8
0
 62
     7
100
AcDbCircle
 10
69.19706
 20
136.549988
 30
0.0
 40
1.475000023841858
  0
LINE
  5
409
330
1F
100
AcDbEntity
  8
0
 62
     7
100
AcDbLine
 10
54.497055
 20
138.399994
 30
0.0
 11
54.497055
 21
138.343231
 31
0.0
  0
LINE
  5
40A
330
1F
100
AcDbEntity
  8
0
 62
     7
100
AcDbLine
 10
53.497055
 20
138.343231
 30
0.0
 11
54.497055
 21
138.343231
 31
0.0
  0
LINE
  5
40B
330
1F
100
AcDbEntity
  8
0
 62
     7
100
AcDbLine
 10
53.497055
 20
138.343231
 30
0.0
 11
53.497055
 21
138.009216
 31
0.0
  0
LINE
  5
40C
330
1F
100
AcDbEntity
  8
0
 62
     7
100
AcDbLine
 10
55.097054
 20
138.399994
 30
0.0
 11
54.497055
 21
138.399994
 31
0.0
  0
LINE
  5
40D
330
1F
100
AcDbEntity
  8
0
 62
     7
100
AcDbLine
 10
53.497055
 20
138.343231
 30
0.0
 11
54.497055
 21
138.343231
 31
0.0
  0
CIRCLE
  5
40E
330
1F
100
AcDbEntity
  8
0
 62
     7
100
AcDbCircle
 10
79.19706
 20
129.649994
 30
0.0
 40
2.549999952316284
  0
CIRCLE
  5
40F
330
1F
100
AcDbEntity
  8
0
 62
     7
100
AcDbCircle
 10
135.197052
 20
129.649994
 30
0.0
 40
2.549999952316284
  0
LINE
  5
410
330
1F
100
AcDbEntity
  8
0
 62
     7
100
AcDbLine
 10
53.29705
 20
138.139984
 30
0.0
 11
53.497055
 21
138.343231
 31
0.0
  0
LINE
  5
411
330
1F
100
AcDbEntity
  8
0
 62
     7
100
AcDbLine
 10
53.29705
 20
138.139984
 30
0.0
 11
53.29705
 21
137.849884
 31
0.0
  0
LINE
  5
412
330
1F
100
AcDbEntity
  8
0
 62
     7
100
AcDbLine
 10
147.99704
 20
137.649994
 30
0.0
 11
148.397034
 21
137.649994
 31
0.0
  0
LINE
  5
413
330
1F
100
AcDbEntity
  8
0
 62
     7
100
AcDbLine
 10
147.99704
 20
137.649994
 30
0.0
 11
147.99704
 21
137.0
 31
0.0
  0
ARC
  5
414
330
1F
100
AcDbEntity
  8
0
 62
     7
100
AcDbCircle
 10
147.74704
 20
137.0
 30
0.0
 40
0.25
100
AcDbArc
 50
269.999997
 51
360.0
  0
LINE
  5
415
330
1F
100
AcDbEntity
  8
0
 62
     7
100
AcDbLine
 10
147.74704
 20
136.75
 30
0.0
 11
147.097046
 21
136.75
 31
0.0
  0
LINE
  5
416
330
1F
100
AcDbEntity
  8
0
 62
     7
100
AcDbLine
 10
147.097046
 20
136.75
 30
0.0
 11
147.097046
 21
136.350006
 31
0.0
  0
LINE
  5
417
330
1F
100
AcDbEntity
  8
0
 62
     7
100
AcDbLine
 10
147.74704
 20
136.350006
 30
0.0
 11
147.097046
 21
136.350006
 31
0.0
  0
ARC
  5
418
330
1F
100
AcDbEntity
  8
0
 62
     7
100
AcDbCircle
 10
147.74704
 20
136.100006
 30
0.0
 40
0.25
100
AcDbArc
 50
0.0
 51
90.000003
  0
LINE
  5
419
330
1F
100
AcDbEntity
  8
0
 62
     7
100
AcDbLine
 10
147.99704
 20
135.449982
 30
0.0
 11
147.99704
 21
136.100006
 31
0.0
  0
LINE
  5
41A
330
1F
100
AcDbEntity
  8
0
 62
     7
100
AcDbLine
 10
147.99704
 20
135.449982
 30
0.0
 11
148.397034
 21
135.449982
 31
0.0
  0
LINE
  5
41B
330
1F
100
AcDbEntity
  8
0
 62
     7
100
AcDbLine
 10
148.397034
 20
135.449982
 30
0.0
 11
148.397034
 21
136.100006
 31
0.0
  0
ARC
  5
41C
330
1F
100
AcDbEntity
  8
0
 62
     7
100
AcDbCircle
 10
148.647034
 20
136.100006
 30
0.0
 40
0.25
100
AcDbArc
 50
90.000003
 51
180.000009
  0
LINE
  5
41D
330
1F
100
AcDbEntity
  8
0
 62
     7
100
AcDbLine
 10
148.647034
 20
136.350006
 30
0.0
 11
149.297028
 21
136.350006
 31
0.0
  0
LINE
  5
41E
330
1F
100
AcDbEntity
  8
0
 62
     7
100
AcDbLine
 10
149.297028
 20
136.75
 30
0.0
 11
149.297028
 21
136.350006
 31
0.0
  0
LINE
  5
41F
330
1F
100
AcDbEntity
  8
0
 62
     7
100
AcDbLine
 10
148.647034
 20
136.75
 30
0.0
 11
149.297028
 21
136.75
 31
0.0
  0
ARC
  5
420
330
1F
100
AcDbEntity
  8
0
 62
     7
100
AcDbCircle
 10
148.647034
 20
137.0
 30
0.0
 40
0.25
100
AcDbArc
 50
180.000009
 51
269.999997
  0
LINE
  5
421
330
1F
100
AcDbEntity
  8
0
 62
     7
100
AcDbLine
 10
148.397034
 20
137.649994
 30
0.0
 11
148.397034
 21
137.0
 31
0.0
  0
LINE
  5
422
330
1F
100
AcDbEntity
  8
0
 62
     7
100
AcDbLine
 10
68.997055
 20
137.649994
 30
0.0
 11
69.397057
 21
137.649994
 31
0.0
  0
LINE
  5
423
330
1F
100
AcDbEntity
  8
0
 62
     7
100
AcDbLine
 10
68.997055
 20
137.649994
 30
0.0
 11
68.997055
 21
137.0
 31
0.0
  0
ARC
  5
424
330
1F
100
AcDbEntity
  8
0
 62
     7
100
AcDbCircle
 10
68.747055
 20
137.0
 30
0.0
 40
0.25
100
AcDbArc
 50
269.999997
 51
360.0
  0
LINE
  5
425
330
1F
100
AcDbEntity
  8
0
 62
     7
100
AcDbLine
 10
68.747055
 20
136.75
 30
0.0
 11
68.097061
 21
136.75
 31
0.0
  0
LINE
  5
426
330
1F
100
AcDbEntity
  8
0
 62
     7
100
AcDbLine
 10
68.097061
 20
136.75
 30
0.0
 11
68.097061
 21
136.350006
 31
0.0
  0
LINE
  5
427
330
1F
100
AcDbEntity
  8
0
 62
     7
100
AcDbLine
 10
68.747055
 20
136.350006
 30
0.0
 11
68.097061
 21
136.350006
 31
0.0
  0
ARC
  5
428
330
1F
100
AcDbEntity
  8
0
 62
     7
100
AcDbCircle
 10
68.747055
 20
136.100006
 30
0.0
 40
0.25
100
AcDbArc
 50
0.0
 51
90.000003
  0
LINE
  5
429
330
1F
100
AcDbEntity
  8
0
 62
     7
100
AcDbLine
 10
68.997055
 20
135.449982
 30
0.0
 11
68.997055
 21
136.100006
 31
0.0
  0
LINE
  5
42A
330
1F
100
AcDbEntity
  8
0
 62
     7
100
AcDbLine
 10
68.997055
 20
135.449982
 30
0.0
 11
69.397057
 21
135.449982
 31
0.0
  0
LINE
  5
42B
330
1F
100
AcDbEntity
  8
0
 62
     7
100
AcDbLine
 10
69.397057
 20
135.449982
 30
0.0
 11
69.397057
 21
136.100006
 31
0.0
  0
ARC
  5
42C
330
1F
100
AcDbEntity
  8
0
 62
     7
100
AcDbCircle
 10
69.647057
 20
136.100006
 30
0.0
 40
0.25
100
AcDbArc
 50
90.000003
 51
180.000009
  0
LINE
  5
42D
330
1F
100
AcDbEntity
  8
0
 62
     7
100
AcDbLine
 10
69.647057
 20
136.350006
 30
0.0
 11
70.297058
 21
136.350006
 31
0.0
  0
LINE
  5
42E
330
1F
100
AcDbEntity
  8
0
 62
     7
100
AcDbLine
 10
70.297058
 20
136.75
 30
0.0
 11
70.297058
 21
136.350006
 31
0.0
  0
LINE
  5
42F
330
1F
100
AcDbEntity
  8
0
 62
     7
100
AcDbLine
 10
69.647057
 20
136.75
 30
0.0
 11
70.297058
 21
136.75
 31
0.0
  0
ARC
  5
430
330
1F
100
AcDbEntity
  8
0
 62
     7
100
AcDbCircle
 10
69.647057
 20
137.0
 30
0.0
 40
0.25
100
AcDbArc
 50
180.000009
 51
269.999997
  0
LINE
  5
431
330
1F
100
AcDbEntity
  8
0
 62
     7
100
AcDbLine
 10
69.397057
 20
137.649994
 30
0.0
 11
69.397057
 21
137.0
 31
0.0
  0
LINE
  5
432
330
1F
100
AcDbEntity
  8
0
 62
     7
100
AcDbLine
 10
297.597015
 20
38.149994
 30
0.0
 11
294.197021
 21
38.149994
 31
0.0
  0
LINE
  5
433
330
1F
100
AcDbEntity
  8
0
 62
     7
100
AcDbLine
 10
294.197021
 20
38.149994
 30
0.0
 11
290.797028
 21
38.149994
 31
0.0
  0
LINE
  5
434
330
1F
100
AcDbEntity
  8
0
 62
     7
100
AcDbLine
 10
214.797058
 20
126.699989
 30
0.0
 11
214.797058
 21
126.549965
 31
0.0
  0
LINE
  5
435
330
1F
100
AcDbEntity
  8
0
 62
     7
100
AcDbLine
 10
216.99704
 20
126.699989
 30
0.0
 11
216.99704
 21
126.549965
 31
0.0
  0
LINE
  5
436
330
1F
100
AcDbEntity
  8
0
 62
     7
100
AcDbLine
 10
219.197052
 20
126.699989
 30
0.0
 11
219.197052
 21
126.549965
 31
0.0
  0
LINE
  5
437
330
1F
100
AcDbEntity
  8
0
 62
     7
100
AcDbLine
 10
214.797058
 20
122.149986
 30
0.0
 11
214.797058
 21
119.014381
 31
0.0
  0
LINE
  5
438
330
1F
100
AcDbEntity
  8
0
 62
     7
100
AcDbLine
 10
214.797058
 20
119.014381
 30
0.0
 11
214.797058
 21
118.437492
 31
0.0
  0
LINE
  5
439
330
1F
100
AcDbEntity
  8
0
 62
     7
100
AcDbLine
 10
215.797058
 20
118.499992
 30
0.0
 11
215.797058
 21
119.069229
 31
0.0
  0
LINE
  5
43A
330
1F
100
AcDbEntity
  8
0
 62
     7
100
AcDbLine
 10
215.797058
 20
119.069229
 30
0.0
 11
215.797058
 21
122.149986
 31
0.0
  0
LINE
  5
43B
330
1F
100
AcDbEntity
  8
0
 62
     7
100
AcDbLine
 10
216.99704
 20
122.149986
 30
0.0
 11
216.99704
 21
119.135048
 31
0.0
  0
LINE
  5
43C
330
1F
100
AcDbEntity
  8
0
 62
     7
100
AcDbLine
 10
216.99704
 20
119.135048
 30
0.0
 11
216.99704
 21
118.574989
 31
0.0
  0
LINE
  5
43D
330
1F
100
AcDbEntity
  8
0
 62
     7
100
AcDbLine
 10
217.99704
 20
118.637489
 30
0.0
 11
217.99704
 21
119.189896
 31
0.0
  0
LINE
  5
43E
330
1F
100
AcDbEntity
  8
0
 62
     7
100
AcDbLine
 10
217.99704
 20
119.189896
 30
0.0
 11
217.99704
 21
122.149986
 31
0.0
  0
LINE
  5
43F
330
1F
100
AcDbEntity
  8
0
 62
     7
100
AcDbLine
 10
219.197052
 20
122.149986
 30
0.0
 11
219.197052
 21
119.255714
 31
0.0
  0
LINE
  5
440
330
1F
100
AcDbEntity
  8
0
 62
     7
100
AcDbLine
 10
219.197052
 20
119.255714
 30
0.0
 11
219.197052
 21
118.712486
 31
0.0
  0
LINE
  5
441
330
1F
100
AcDbEntity
  8
0
 62
     7
100
AcDbLine
 10
220.197052
 20
118.774986
 30
0.0
 11
220.197052
 21
119.310562
 31
0.0
  0
LINE
  5
442
330
1F
100
AcDbEntity
  8
0
 62
     7
100
AcDbLine
 10
220.197052
 20
119.310562
 30
0.0
 11
220.197052
 21
122.149986
 31
0.0
  0
LINE
  5
443
330
1F
100
AcDbEntity
  8
0
 62
     7
100
AcDbLine
 10
222.197052
 20
119.420265
 30
0.0
 11
222.197052
 21
118.899986
 31
0.0
  0
LINE
  5
444
330
1F
100
AcDbEntity
  8
0
 62
     7
100
AcDbLine
 10
222.197052
 20
127.399986
 30
0.0
 11
222.197052
 21
119.420265
 31
0.0
  0
LINE
  5
445
330
1F
100
AcDbEntity
  8
0
 62
     7
100
AcDbLine
 10
220.197052
 20
124.149986
 30
0.0
 11
220.197052
 21
127.524986
 31
0.0
  0
LINE
  5
446
330
1F
100
AcDbEntity
  8
0
 62
     7
100
AcDbLine
 10
219.197052
 20
127.587486
 30
0.0
 11
219.197052
 21
124.149986
 31
0.0
  0
LINE
  5
447
330
1F
100
AcDbEntity
  8
0
 62
     7
100
AcDbLine
 10
217.99704
 20
124.149986
 30
0.0
 11
217.99704
 21
127.662491
 31
0.0
  0
LINE
  5
448
330
1F
100
AcDbEntity
  8
0
 62
     7
100
AcDbLine
 10
216.99704
 20
127.724991
 30
0.0
 11
216.99704
 21
124.149986
 31
0.0
  0
LINE
  5
449
330
1F
100
AcDbEntity
  8
0
 62
     7
100
AcDbLine
 10
215.797058
 20
124.149986
 30
0.0
 11
215.797058
 21
127.799988
 31
0.0
  0
LINE
  5
44A
330
1F
100
AcDbEntity
  8
0
 62
     7
100
AcDbLine
 10
214.797058
 20
127.862488
 30
0.0
 11
214.797058
 21
124.149986
 31
0.0
  0
LINE
  5
44B
330
1F
100
AcDbEntity
  8
0
 62
     7
100
AcDbLine
 10
215.797058
 20
122.149986
 30
0.0
 11
214.797058
 21
122.149986
 31
0.0
  0
LINE
  5
44C
330
1F
100
AcDbEntity
  8
0
 62
     7
100
AcDbLine
 10
215.797058
 20
124.149986
 30
0.0
 11
214.797058
 21
124.149986
 31
0.0
  0
LINE
  5
44D
330
1F
100
AcDbEntity
  8
0
 62
     7
100
AcDbLine
 10
217.99704
 20
124.149986
 30
0.0
 11
216.99704
 21
124.149986
 31
0.0
  0
LINE
  5
44E
330
1F
100
AcDbEntity
  8
0
 62
     7
100
AcDbLine
 10
220.197052
 20
124.149986
 30
0.0
 11
219.197052
 21
124.149986
 31
0.0
  0
LINE
  5
44F
330
1F
100
AcDbEntity
  8
0
 62
     7
100
AcDbLine
 10
220.197052
 20
122.149986
 30
0.0
 11
219.197052
 21
122.149986
 31
0.0
  0
LINE
  5
450
330
1F
100
AcDbEntity
  8
0
 62
     7
100
AcDbLine
 10
217.99704
 20
122.149986
 30
0.0
 11
216.99704
 21
122.149986
 31
0.0
  0
LINE
  5
451
330
1F
100
AcDbEntity
  8
0
 62
     7
100
AcDbLine
 10
210.197052
 20
128.149994
 30
0.0
 11
210.197052
 21
118.762077
 31
0.0
  0
LINE
  5
452
330
1F
100
AcDbEntity
  8
0
 62
     7
100
AcDbLine
 10
210.197052
 20
118.762077
 30
0.0
 11
210.197052
 21
118.149986
 31
0.0
  0
LINE
  5
453
330
1F
100
AcDbEntity
  8
0
 62
     7
100
AcDbLine
 10
209.197052
 20
128.449982
 30
0.0
 11
209.197052
 21
118.498802
 31
0.0
  0
LINE
  5
454
330
1F
100
AcDbEntity
  8
0
 62
     7
100
AcDbLine
 10
209.197052
 20
118.498802
 30
0.0
 11
209.197052
 21
117.849991
 31
0.0
  0
LINE
  5
455
330
1F
100
AcDbEntity
  8
0
 62
     7
100
AcDbLine
 10
204.197052
 20
125.9786
 30
0.0
 11
204.197052
 21
117.249992
 31
0.0
  0
LINE
  5
456
330
1F
100
AcDbEntity
  8
0
 62
     7
100
AcDbLine
 10
204.197052
 20
129.049988
 30
0.0
 11
204.197052
 21
125.9786
 31
0.0
  0
LINE
  5
457
330
1F
100
AcDbEntity
  8
0
 62
     7
100
AcDbLine
 10
203.965881
 20
126.170372
 30
0.0
 11
203.965881
 21
125.070923
 31
0.0
  0
ARC
  5
458
330
1F
100
AcDbEntity
  8
0
 62
     7
100
AcDbCircle
 10
193.639557
 20
123.149994
 30
0.0
 40
10.50419235229492
100
AcDbArc
 50
349.462094
 51
10.537886
  0
LINE
  5
459
330
1F
100
AcDbEntity
  8
0
 62
     7
100
AcDbLine
 10
203.965881
 20
121.22905
 30
0.0
 11
203.965881
 21
118.914307
 31
0.0
  0
ARC
  5
45A
330
1F
100
AcDbEntity
  8
0
 62
     7
100
AcDbCircle
 10
201.451447
 20
117.953835
 30
0.0
 40
2.691781044006348
100
AcDbArc
 50
339.093949
 51
20.906017
  0
LINE
  5
45B
330
1F
100
AcDbEntity
  8
0
 62
     7
100
AcDbLine
 10
203.965881
 20
116.99337
 30
0.0
 11
203.965881
 21
116.849991
 31
0.0
  0
LINE
  5
45C
330
1F
100
AcDbEntity
  8
0
 62
     7
100
AcDbLine
 10
203.965881
 20
129.449982
 30
0.0
 11
203.965881
 21
129.30661
 31
0.0
  0
ARC
  5
45D
330
1F
100
AcDbEntity
  8
0
 62
     7
100
AcDbCircle
 10
201.451447
 20
128.346161
 30
0.0
 40
2.691781044006348
100
AcDbArc
 50
339.093949
 51
20.906017
  0
LINE
  5
45E
330
1F
100
AcDbEntity
  8
0
 62
     7
100
AcDbLine
 10
203.965881
 20
126.170372
 30
0.0
 11
203.965881
 21
127.385674
 31
0.0
  0
LINE
  5
45F
330
1F
100
AcDbEntity
  8
0
 62
     7
100
AcDbLine
 10
203.965881
 20
127.385674
 30
0.0
 11
197.197052
 21
127.385674
 31
0.0
  0
LINE
  5
460
330
1F
100
AcDbEntity
  8
0
 62
     7
100
AcDbLine
 10
197.197052
 20
127.385674
 30
0.0
 11
197.197052
 21
125.070923
 31
0.0
  0
LINE
  5
461
330
1F
100
AcDbEntity
  8
0
 62
     7
100
AcDbLine
 10
203.965881
 20
125.070923
 30
0.0
 11
197.197052
 21
125.070923
 31
0.0
  0
LINE
  5
462
330
1F
100
AcDbEntity
  8
0
 62
     7
100
AcDbLine
 10
197.197052
 20
121.22905
 30
0.0
 11
203.965881
 21
121.22905
 31
0.0
  0
LINE
  5
463
330
1F
100
AcDbEntity
  8
0
 62
     7
100
AcDbLine
 10
197.197052
 20
121.22905
 30
0.0
 11
197.197052
 21
118.914307
 31
0.0
  0
LINE
  5
464
330
1F
100
AcDbEntity
  8
0
 62
     7
100
AcDbLine
 10
203.965881
 20
118.914307
 30
0.0
 11
197.197052
 21
118.914307
 31
0.0
  0
LINE
  5
465
330
1F
100
AcDbEntity
  8
0
 62
     7
100
AcDbLine
 10
197.197052
 20
116.99337
 30
0.0
 11
203.965881
 21
116.99337
 31
0.0
  0
LINE
  5
466
330
1F
100
AcDbEntity
  8
0
 62
     7
100
AcDbLine
 10
197.197052
 20
116.99337
 30
0.0
 11
197.197052
 21
116.849991
 31
0.0
  0
LINE
  5
467
330
1F
100
AcDbEntity
  8
0
 62
     7
100
AcDbLine
 10
197.197052
 20
129.449982
 30
0.0
 11
197.197052
 21
129.30661
 31
0.0
  0
LINE
  5
468
330
1F
100
AcDbEntity
  8
0
 62
     7
100
AcDbLine
 10
203.965881
 20
129.30661
 30
0.0
 11
197.197052
 21
129.30661
 31
0.0
  0
LINE
  5
469
330
1F
100
AcDbEntity
  8
0
 62
     7
100
AcDbLine
 10
196.697052
 20
127.752403
 30
0.0
 11
196.697052
 21
125.183914
 31
0.0
  0
LINE
  5
46A
330
1F
100
AcDbEntity
  8
0
 62
     7
100
AcDbLine
 10
197.197052
 20
124.780548
 30
0.0
 11
196.697052
 21
125.183914
 31
0.0
  0
LINE
  5
46B
330
1F
100
AcDbEntity
  8
0
 62
     7
100
AcDbLine
 10
197.197052
 20
124.780548
 30
0.0
 11
197.197052
 21
125.070923
 31
0.0
  0
LINE
  5
46C
330
1F
100
AcDbEntity
  8
0
 62
     7
100
AcDbLine
 10
197.197052
 20
127.385674
 30
0.0
 11
197.197052
 21
127.604759
 31
0.0
  0
LINE
  5
46D
330
1F
100
AcDbEntity
  8
0
 62
     7
100
AcDbLine
 10
197.197052
 20
127.604759
 30
0.0
 11
196.697052
 21
127.752403
 31
0.0
  0
LINE
  5
46E
330
1F
100
AcDbEntity
  8
0
 62
     7
100
AcDbLine
 10
197.197052
 20
121.519432
 30
0.0
 11
197.197052
 21
124.780548
 31
0.0
  0
LINE
  5
46F
330
1F
100
AcDbEntity
  8
0
 62
     7
100
AcDbLine
 10
197.197052
 20
121.22905
 30
0.0
 11
197.197052
 21
121.519432
 31
0.0
  0
LINE
  5
470
330
1F
100
AcDbEntity
  8
0
 62
     7
100
AcDbLine
 10
197.197052
 20
121.519432
 30
0.0
 11
196.697052
 21
121.116066
 31
0.0
  0
LINE
  5
471
330
1F
100
AcDbEntity
  8
0
 62
     7
100
AcDbLine
 10
196.697052
 20
121.116066
 30
0.0
 11
196.697052
 21
118.547577
 31
0.0
  0
LINE
  5
472
330
1F
100
AcDbEntity
  8
0
 62
     7
100
AcDbLine
 10
197.197052
 20
118.695213
 30
0.0
 11
196.697052
 21
118.547577
 31
0.0
  0
LINE
  5
473
330
1F
100
AcDbEntity
  8
0
 62
     7
100
AcDbLine
 10
197.197052
 20
118.695213
 30
0.0
 11
197.197052
 21
118.914307
 31
0.0
  0
LINE
  5
474
330
1F
100
AcDbEntity
  8
0
 62
     7
100
AcDbLine
 10
197.197052
 20
117.064659
 30
0.0
 11
197.197052
 21
118.695213
 31
0.0
  0
LINE
  5
475
330
1F
100
AcDbEntity
  8
0
 62
     7
100
AcDbLine
 10
197.197052
 20
116.99337
 30
0.0
 11
197.197052
 21
117.064659
 31
0.0
  0
ARC
  5
476
330
1F
100
AcDbEntity
  8
0
 62
     7
100
AcDbCircle
 10
148.886292
 20
160.4039
 30
0.0
 40
64.901611328125
100
AcDbArc
 50
317.448096
 51
318.104941
  0
LINE
  5
477
330
1F
100
AcDbEntity
  8
0
 62
     7
100
AcDbLine
 10
196.697052
 20
116.513657
 30
0.0
 11
196.697052
 21
116.349991
 31
0.0
  0
LINE
  5
478
330
1F
100
AcDbEntity
  8
0
 62
     7
100
AcDbLine
 10
197.197052
 20
129.235321
 30
0.0
 11
197.197052
 21
129.30661
 31
0.0
  0
LINE
  5
479
330
1F
100
AcDbEntity
  8
0
 62
     7
100
AcDbLine
 10
196.697052
 20
129.949982
 30
0.0
 11
196.697052
 21
129.786316
 31
0.0
  0
ARC
  5
47A
330
1F
100
AcDbEntity
  8
0
 62
     7
100
AcDbCircle
 10
148.886292
 20
85.896088
 30
0.0
 40
64.901611328125
100
AcDbArc
 50
41.895052
 51
42.551911
  0
LINE
  5
47B
330
1F
100
AcDbEntity
  8
0
 62
     7
100
AcDbLine
 10
197.197052
 20
127.604759
 30
0.0
 11
197.197052
 21
129.235321
 31
0.0
  0
LINE
  5
47C
330
1F
100
AcDbEntity
  8
0
 62
     7
100
AcDbLine
 10
187.697052
 20
127.752403
 30
0.0
 11
187.697052
 21
125.183914
 31
0.0
  0
LINE
  5
47D
330
1F
100
AcDbEntity
  8
0
 62
     7
100
AcDbLine
 10
196.697052
 20
125.183914
 30
0.0
 11
187.697052
 21
125.183914
 31
0.0
  0
LINE
  5
47E
330
1F
100
AcDbEntity
  8
0
 62
     7
100
AcDbLine
 10
196.697052
 20
127.752403
 30
0.0
 11
187.697052
 21
127.752403
 31
0.0
  0
LINE
  5
47F
330
1F
100
AcDbEntity
  8
0
 62
     7
100
AcDbLine
 10
187.197052
 20
124.780548
 30
0.0
 11
187.697052
 21
125.183914
 31
0.0
  0
LINE
  5
480
330
1F
100
AcDbEntity
  8
0
 62
     7
100
AcDbLine
 10
197.197052
 20
124.780548
 30
0.0
 11
187.197052
 21
124.780548
 31
0.0
  0
LINE
  5
481
330
1F
100
AcDbEntity
  8
0
 62
     7
100
AcDbLine
 10
187.197052
 20
127.604759
 30
0.0
 11
187.697052
 21
127.752403
 31
0.0
  0
LINE
  5
482
330
1F
100
AcDbEntity
  8
0
 62
     7
100
AcDbLine
 10
197.197052
 20
129.235321
 30
0.0
 11
187.197052
 21
129.235321
 31
0.0
  0
LINE
  5
483
330
1F
100
AcDbEntity
  8
0
 62
     7
100
AcDbLine
 10
187.197052
 20
129.449982
 30
0.0
 11
187.197052
 21
129.235321
 31
0.0
  0
LINE
  5
484
330
1F
100
AcDbEntity
  8
0
 62
     7
100
AcDbLine
 10
187.197052
 20
117.064659
 30
0.0
 11
187.197052
 21
116.849991
 31
0.0
  0
LINE
  5
485
330
1F
100
AcDbEntity
  8
0
 62
     7
100
AcDbLine
 10
197.197052
 20
117.064659
 30
0.0
 11
187.197052
 21
117.064659
 31
0.0
  0
LINE
  5
486
330
1F
100
AcDbEntity
  8
0
 62
     7
100
AcDbLine
 10
187.197052
 20
121.519432
 30
0.0
 11
187.197052
 21
118.695213
 31
0.0
  0
LINE
  5
487
330
1F
100
AcDbEntity
  8
0
 62
     7
100
AcDbLine
 10
197.197052
 20
121.519432
 30
0.0
 11
187.197052
 21
121.519432
 31
0.0
  0
LINE
  5
488
330
1F
100
AcDbEntity
  8
0
 62
     7
100
AcDbLine
 10
187.197052
 20
127.604759
 30
0.0
 11
187.197052
 21
124.780548
 31
0.0
  0
LINE
  5
489
330
1F
100
AcDbEntity
  8
0
 62
     7
100
AcDbLine
 10
187.197052
 20
121.519432
 30
0.0
 11
187.697052
 21
121.116066
 31
0.0
  0
LINE
  5
48A
330
1F
100
AcDbEntity
  8
0
 62
     7
100
AcDbLine
 10
196.697052
 20
121.116066
 30
0.0
 11
187.697052
 21
121.116066
 31
0.0
  0
LINE
  5
48B
330
1F
100
AcDbEntity
  8
0
 62
     7
100
AcDbLine
 10
187.697052
 20
121.116066
 30
0.0
 11
187.697052
 21
118.547577
 31
0.0
  0
LINE
  5
48C
330
1F
100
AcDbEntity
  8
0
 62
     7
100
AcDbLine
 10
196.697052
 20
118.547577
 30
0.0
 11
187.697052
 21
118.547577
 31
0.0
  0
LINE
  5
48D
330
1F
100
AcDbEntity
  8
0
 62
     7
100
AcDbLine
 10
187.197052
 20
118.695213
 30
0.0
 11
187.697052
 21
118.547577
 31
0.0
  0
ARC
  5
48E
330
1F
100
AcDbEntity
  8
0
 62
     7
100
AcDbCircle
 10
235.507782
 20
160.4039
 30
0.0
 40
64.901611328125
100
AcDbArc
 50
221.89505
 51
222.55191
  0
LINE
  5
48F
330
1F
100
AcDbEntity
  8
0
 62
     7
100
AcDbLine
 10
196.697052
 20
116.513657
 30
0.0
 11
187.697052
 21
116.513657
 31
0.0
  0
LINE
  5
490
330
1F
100
AcDbEntity
  8
0
 62
     7
100
AcDbLine
 10
187.697052
 20
116.513657
 30
0.0
 11
187.697052
 21
116.349991
 31
0.0
  0
LINE
  5
491
330
1F
100
AcDbEntity
  8
0
 62
     7
100
AcDbLine
 10
187.697052
 20
129.949982
 30
0.0
 11
187.697052
 21
129.786316
 31
0.0
  0
LINE
  5
492
330
1F
100
AcDbEntity
  8
0
 62
     7
100
AcDbLine
 10
196.697052
 20
129.786316
 30
0.0
 11
187.697052
 21
129.786316
 31
0.0
  0
ARC
  5
493
330
1F
100
AcDbEntity
  8
0
 62
     7
100
AcDbCircle
 10
235.507782
 20
85.896088
 30
0.0
 40
64.901611328125
100
AcDbArc
 50
137.44809
 51
138.10495
  0
LINE
  5
494
330
1F
100
AcDbEntity
  8
0
 62
     7
100
AcDbLine
 10
183.99704
 20
138.149994
 30
0.0
 11
184.297058
 21
138.149994
 31
0.0
  0
LINE
  5
495
330
1F
100
AcDbEntity
  8
0
 62
     7
100
AcDbLine
 10
76.833664
 20
117.249992
 30
0.0
 11
76.920265
 21
117.099991
 31
0.0
  0
LINE
  5
496
330
1F
100
AcDbEntity
  8
0
 62
     7
100
AcDbLine
 10
73.560455
 20
117.249992
 30
0.0
 11
73.473854
 21
117.099991
 31
0.0
  0
LINE
  5
497
330
1F
100
AcDbEntity
  8
0
 62
     7
100
AcDbLine
 10
162.560425
 20
117.249992
 30
0.0
 11
162.473846
 21
117.099991
 31
0.0
  0
LINE
  5
498
330
1F
100
AcDbEntity
  8
0
 62
     7
100
AcDbLine
 10
165.833649
 20
117.249992
 30
0.0
 11
165.920258
 21
117.099991
 31
0.0
  0
LINE
  5
499
330
1F
100
AcDbEntity
  8
0
 62
     7
100
AcDbLine
 10
165.645813
 20
137.575623
 30
0.0
 11
165.671417
 21
137.601227
 31
0.0
  0
POLYLINE
  5
49A
330
1F
100
AcDbEntity
  8
0
 62
     7
100
AcDb2dPolyline
 66
     1
 10
0.0
 20
0.0
 30
0.0
  0
VERTEX
  5
49B
330
49A
100
AcDbEntity
  8
0
100
AcDbVertex
100
AcDb2dVertex
 10
150.883881
 20
137.582916
 30
0.0
  0
VERTEX
  5
49C
330
49A
100
AcDbEntity
  8
0
100
AcDbVertex
100
AcDb2dVertex
 10
150.887085
 20
137.57312
 30
0.0
  0
VERTEX
  5
49D
330
49A
100
AcDbEntity
  8
0
100
AcDbVertex
100
AcDb2dVertex
 10
150.894196
 20
137.556976
 30
0.0
  0
VERTEX
  5
49E
330
49A
100
AcDbEntity
  8
0
100
AcDbVertex
100
AcDb2dVertex
 10
150.897461
 20
137.550507
 30
0.0
  0
VERTEX
  5
49F
330
49A
100
AcDbEntity
  8
0
100
AcDbVertex
100
AcDb2dVertex
 10
150.898132
 20
137.549042
 30
0.0
  0
VERTEX
  5
4A0
330
49A
100
AcDbEntity
  8
0
100
AcDbVertex
100
AcDb2dVertex
 10
150.880981
 20
137.570526
 30
0.0
  0
VERTEX
  5
4A1
330
49A
100
AcDbEntity
  8
0
100
AcDbVertex
100
AcDb2dVertex
 10
150.877472
 20
137.575684
 30
0.0
  0
VERTEX
  5
4A2
330
49A
100
AcDbEntity
  8
0
100
AcDbVertex
100
AcDb2dVertex
 10
150.879272
 20
137.574432
 30
0.0
  0
VERTEX
  5
4A3
330
49A
100
AcDbEntity
  8
0
100
AcDbVertex
100
AcDb2dVertex
 10
150.888031
 20
137.564178
 30
0.0
  0
VERTEX
  5
4A4
330
49A
100
AcDbEntity
  8
0
100
AcDbVertex
100
AcDb2dVertex
 10
150.896606
 20
137.552368
 30
0.0
  0
VERTEX
  5
4A5
330
49A
100
AcDbEntity
  8
0
100
AcDbVertex
100
AcDb2dVertex
 10
150.897369
 20
137.55072
 30
0.0
  0
VERTEX
  5
4A6
330
49A
100
AcDbEntity
  8
0
100
AcDbVertex
100
AcDb2dVertex
 10
150.897278
 20
137.54953
 30
0.0
  0
VERTEX
  5
4A7
330
49A
100
AcDbEntity
  8
0
100
AcDbVertex
100
AcDb2dVertex
 10
150.894684
 20
137.550446
 30
0.0
  0
VERTEX
  5
4A8
330
49A
100
AcDbEntity
  8
0
100
AcDbVertex
100
AcDb2dVertex
 10
150.882843
 20
137.55899
 30
0.0
  0
VERTEX
  5
4A9
330
49A
100
AcDbEntity
  8
0
100
AcDbVertex
100
AcDb2dVertex
 10
150.872589
 20
137.567749
 30
0.0
  0
VERTEX
  5
4AA
330
49A
100
AcDbEntity
  8
0
100
AcDbVertex
100
AcDb2dVertex
 10
150.870972
 20
137.569366
 30
0.0
  0
VERTEX
  5
4AB
330
49A
100
AcDbEntity
  8
0
100
AcDbVertex
100
AcDb2dVertex
 10
150.876495
 20
137.56604
 30
0.0
  0
VERTEX
  5
4AC
330
49A
100
AcDbEntity
  8
0
100
AcDbVertex
100
AcDb2dVertex
 10
150.897522
 20
137.549713
 30
0.0
  0
VERTEX
  5
4AD
330
49A
100
AcDbEntity
  8
0
100
AcDbVertex
100
AcDb2dVertex
 10
150.898224
 20
137.54892
 30
0.0
  0
VERTEX
  5
4AE
330
49A
100
AcDbEntity
  8
0
100
AcDbVertex
100
AcDb2dVertex
 10
150.896515
 20
137.549561
 30
0.0
  0
VERTEX
  5
4AF
330
49A
100
AcDbEntity
  8
0
100
AcDbVertex
100
AcDb2dVertex
 10
150.890045
 20
137.552826
 30
0.0
  0
VERTEX
  5
4B0
330
49A
100
AcDbEntity
  8
0
100
AcDbVertex
100
AcDb2dVertex
 10
150.873901
 20
137.559967
 30
0.0
  0
VERTEX
  5
4B1
330
49A
100
AcDbEntity
  8
0
100
AcDbVertex
100
AcDb2dVertex
 10
150.864136
 20
137.563171
 30
0.0
  0
SEQEND
  5
4B2
330
49A
100
AcDbEntity
  8
0
 62
     7
  0
POLYLINE
  5
4B3
330
1F
100
AcDbEntity
  8
0
 62
     7
100
AcDb2dPolyline
 66
     1
 10
0.0
 20
0.0
 30
0.0
  0
VERTEX
  5
4B4
330
4B3
100
AcDbEntity
  8
0
100
AcDbVertex
100
AcDb2dVertex
 10
71.883888
 20
137.582916
 30
0.0
  0
VERTEX
  5
4B5
330
4B3
100
AcDbEntity
  8
0
100
AcDbVertex
100
AcDb2dVertex
 10
71.887093
 20
137.57312
 30
0.0
  0
VERTEX
  5
4B6
330
4B3
100
AcDbEntity
  8
0
100
AcDbVertex
100
AcDb2dVertex
 10
71.894211
 20
137.556976
 30
0.0
  0
VERTEX
  5
4B7
330
4B3
100
AcDbEntity
  8
0
100
AcDbVertex
100
AcDb2dVertex
 10
71.897491
 20
137.550507
 30
0.0
  0
VERTEX
  5
4B8
330
4B3
100
AcDbEntity
  8
0
100
AcDbVertex
100
AcDb2dVertex
 10
71.898132
 20
137.549042
 30
0.0
  0
VERTEX
  5
4B9
330
4B3
100
AcDbEntity
  8
0
100
AcDbVertex
100
AcDb2dVertex
 10
71.881004
 20
137.570526
 30
0.0
  0
VERTEX
  5
4BA
330
4B3
100
AcDbEntity
  8
0
100
AcDbVertex
100
AcDb2dVertex
 10
71.87748
 20
137.575684
 30
0.0
  0
VERTEX
  5
4BB
330
4B3
100
AcDbEntity
  8
0
100
AcDbVertex
100
AcDb2dVertex
 10
71.879303
 20
137.574432
 30
0.0
  0
VERTEX
  5
4BC
330
4B3
100
AcDbEntity
  8
0
100
AcDbVertex
100
AcDb2dVertex
 10
71.888046
 20
137.564178
 30
0.0
  0
VERTEX
  5
4BD
330
4B3
100
AcDbEntity
  8
0
100
AcDbVertex
100
AcDb2dVertex
 10
71.896614
 20
137.552368
 30
0.0
  0
VERTEX
  5
4BE
330
4B3
100
AcDbEntity
  8
0
100
AcDbVertex
100
AcDb2dVertex
 10
71.897392
 20
137.55072
 30
0.0
  0
VERTEX
  5
4BF
330
4B3
100
AcDbEntity
  8
0
100
AcDbVertex
100
AcDb2dVertex
 10
71.897308
 20
137.54953
 30
0.0
  0
VERTEX
  5
4C0
330
4B3
100
AcDbEntity
  8
0
100
AcDbVertex
100
AcDb2dVertex
 10
71.894699
 20
137.550446
 30
0.0
  0
VERTEX
  5
4C1
330
4B3
100
AcDbEntity
  8
0
100
AcDbVertex
100
AcDb2dVertex
 10
71.882874
 20
137.55899
 30
0.0
  0
VERTEX
  5
4C2
330
4B3
100
AcDbEntity
  8
0
100
AcDbVertex
100
AcDb2dVertex
 10
71.87262
 20
137.567749
 30
0.0
  0
VERTEX
  5
4C3
330
4B3
100
AcDbEntity
  8
0
100
AcDbVertex
100
AcDb2dVertex
 10
71.870995
 20
137.569366
 30
0.0
  0
VERTEX
  5
4C4
330
4B3
100
AcDbEntity
  8
0
100
AcDbVertex
100
AcDb2dVertex
 10
71.876511
 20
137.56604
 30
0.0
  0
VERTEX
  5
4C5
330
4B3
100
AcDbEntity
  8
0
100
AcDbVertex
100
AcDb2dVertex
 10
71.897545
 20
137.549713
 30
0.0
  0
VERTEX
  5
4C6
330
4B3
100
AcDbEntity
  8
0
100
AcDbVertex
100
AcDb2dVertex
 10
71.898232
 20
137.54892
 30
0.0
  0
VERTEX
  5
4C7
330
4B3
100
AcDbEntity
  8
0
100
AcDbVertex
100
AcDb2dVertex
 10
71.896538
 20
137.549561
 30
0.0
  0
VERTEX
  5
4C8
330
4B3
100
AcDbEntity
  8
0
100
AcDbVertex
100
AcDb2dVertex
 10
71.89006
 20
137.552826
 30
0.0
  0
VERTEX
  5
4C9
330
4B3
100
AcDbEntity
  8
0
100
AcDbVertex
100
AcDb2dVertex
 10
71.873917
 20
137.559967
 30
0.0
  0
VERTEX
  5
4CA
330
4B3
100
AcDbEntity
  8
0
100
AcDbVertex
100
AcDb2dVertex
 10
71.864143
 20
137.563171
 30
0.0
  0
SEQEND
  5
4CB
330
4B3
100
AcDbEntity
  8
0
 62
     7
  0
LINE
  5
4CC
330
1F
100
AcDbEntity
  8
0
 62
     7
100
AcDbLine
 10
56.645813
 20
137.575623
 30
0.0
 11
56.671432
 21
137.601227
 31
0.0
  0
LINE
  5
4CD
330
1F
100
AcDbEntity
  8
0
 62
     7
100
AcDbLine
 10
76.920265
 20
116.849991
 30
0.0
 11
76.920265
 21
117.099991
 31
0.0
  0
LINE
  5
4CE
330
1F
100
AcDbEntity
  8
0
 62
     7
100
AcDbLine
 10
73.473854
 20
116.849991
 30
0.0
 11
73.473854
 21
117.099991
 31
0.0
  0
LINE
  5
4CF
330
1F
100
AcDbEntity
  8
0
 62
     7
100
AcDbLine
 10
162.473846
 20
117.099991
 30
0.0
 11
162.473846
 21
116.849991
 31
0.0
  0
LINE
  5
4D0
330
1F
100
AcDbEntity
  8
0
 62
     7
100
AcDbLine
 10
165.920258
 20
117.099991
 30
0.0
 11
165.920258
 21
116.849991
 31
0.0
  0
LINE
  5
4D1
330
1F
100
AcDbEntity
  8
0
 62
     7
100
AcDbLine
 10
55.097054
 20
138.149994
 30
0.0
 11
55.397049
 21
138.149994
 31
0.0
  0
ARC
  5
4D2
330
1F
100
AcDbEntity
  8
0
 62
     7
100
AcDbCircle
 10
219.197052
 20
48.149986
 30
0.0
 40
78.4000015258789
100
AcDbArc
 50
0.000002
 51
87.807034
  0
ARC
  5
4D3
330
1F
100
AcDbEntity
  8
0
 62
     7
100
AcDbCircle
 10
219.196991
 20
48.153824
 30
0.0
 40
78.39616394042969
100
AcDbArc
 50
89.269111
 51
89.999968
  0
ARC
  5
4D4
330
1F
100
AcDbEntity
  8
0
 62
     7
100
AcDbCircle
 10
219.197052
 20
48.149986
 30
0.0
 40
71.5999984741211
100
AcDbArc
 50
0.000002
 51
87.598651
  0
ARC
  5
4D5
330
1F
100
AcDbEntity
  8
0
 62
     7
100
AcDbCircle
 10
219.196991
 20
48.152191
 30
0.0
 40
71.59779357910156
100
AcDbArc
 50
89.199702
 51
89.999962
  0
LINE
  5
4D6
330
1F
100
AcDbEntity
  8
0
 62
     7
100
AcDbLine
 10
217.99704
 20
126.549988
 30
0.0
 11
216.99704
 21
126.549988
 31
0.0
  0
LINE
  5
4D7
330
1F
100
AcDbEntity
  8
0
 62
     7
100
AcDbLine
 10
215.797028
 20
126.549988
 30
0.0
 11
214.797028
 21
126.549988
 31
0.0
  0
LINE
  5
4D8
330
1F
100
AcDbEntity
  8
0
 62
     7
100
AcDbLine
 10
297.597015
 20
38.149994
 30
0.0
 11
297.597015
 21
48.149994
 31
0.0
  0
LINE
  5
4D9
330
1F
100
AcDbEntity
  8
0
 62
     7
100
AcDbLine
 10
217.99704
 20
119.749992
 30
0.0
 11
216.99704
 21
119.749992
 31
0.0
  0
LINE
  5
4DA
330
1F
100
AcDbEntity
  8
0
 62
     7
100
AcDbLine
 10
215.797028
 20
119.749992
 30
0.0
 11
214.797028
 21
119.749992
 31
0.0
  0
LINE
  5
4DB
330
1F
100
AcDbEntity
  8
0
 62
     7
100
AcDbLine
 10
290.797028
 20
38.149994
 30
0.0
 11
290.797028
 21
48.149994
 31
0.0
  0
LINE
  5
4DC
330
1F
100
AcDbEntity
  8
0
 62
     7
100
AcDbLine
 10
222.197052
 20
127.399986
 30
0.0
 11
220.197052
 21
127.524986
 31
0.0
  0
LINE
  5
4DD
330
1F
100
AcDbEntity
  8
0
 62
     7
100
AcDbLine
 10
219.197052
 20
127.587486
 30
0.0
 11
217.99704
 21
127.662491
 31
0.0
  0
LINE
  5
4DE
330
1F
100
AcDbEntity
  8
0
 62
     7
100
AcDbLine
 10
216.99704
 20
127.724991
 30
0.0
 11
215.797058
 21
127.799988
 31
0.0
  0
LINE
  5
4DF
330
1F
100
AcDbEntity
  8
0
 62
     7
100
AcDbLine
 10
214.797058
 20
127.862488
 30
0.0
 11
210.197052
 21
128.149994
 31
0.0
  0
LINE
  5
4E0
330
1F
100
AcDbEntity
  8
0
 62
     7
100
AcDbLine
 10
222.197052
 20
118.899986
 30
0.0
 11
220.197052
 21
118.774986
 31
0.0
  0
LINE
  5
4E1
330
1F
100
AcDbEntity
  8
0
 62
     7
100
AcDbLine
 10
219.197052
 20
118.712486
 30
0.0
 11
217.99704
 21
118.637489
 31
0.0
  0
LINE
  5
4E2
330
1F
100
AcDbEntity
  8
0
 62
     7
100
AcDbLine
 10
216.99704
 20
118.574989
 30
0.0
 11
215.797058
 21
118.499992
 31
0.0
  0
LINE
  5
4E3
330
1F
100
AcDbEntity
  8
0
 62
     7
100
AcDbLine
 10
214.797058
 20
118.437492
 30
0.0
 11
210.197052
 21
118.149986
 31
0.0
  0
LINE
  5
4E4
330
1F
100
AcDbEntity
  8
0
 62
     7
100
AcDbLine
 10
210.197052
 20
128.149994
 30
0.0
 11
209.197052
 21
128.449982
 31
0.0
  0
LINE
  5
4E5
330
1F
100
AcDbEntity
  8
0
 62
     7
100
AcDbLine
 10
210.197052
 20
118.149986
 30
0.0
 11
209.197052
 21
117.849991
 31
0.0
  0
LINE
  5
4E6
330
1F
100
AcDbEntity
  8
0
 62
     7
100
AcDbLine
 10
209.197052
 20
118.149986
 30
0.0
 11
204.197052
 21
118.149986
 31
0.0
  0
LINE
  5
4E7
330
1F
100
AcDbEntity
  8
0
 62
     7
100
AcDbLine
 10
209.197052
 20
128.149994
 30
0.0
 11
204.197052
 21
128.149994
 31
0.0
  0
ARC
  5
4E8
330
1F
100
AcDbEntity
  8
0
 62
     7
100
AcDbCircle
 10
198.890442
 20
120.049988
 30
0.0
 40
6.000001907348633
100
AcDbArc
 50
327.769058
 51
332.181852
  0
ARC
  5
4E9
330
1F
100
AcDbEntity
  8
0
 62
     7
100
AcDbCircle
 10
198.890442
 20
126.249985
 30
0.0
 40
6.000001907348633
100
AcDbArc
 50
27.81814
 51
32.230949
  0
LINE
  5
4EA
330
1F
100
AcDbEntity
  8
0
 62
     7
100
AcDbLine
 10
203.965881
 20
116.849991
 30
0.0
 11
197.197052
 21
116.849991
 31
0.0
  0
LINE
  5
4EB
330
1F
100
AcDbEntity
  8
0
 62
     7
100
AcDbLine
 10
203.965881
 20
129.449982
 30
0.0
 11
197.197052
 21
129.449982
 31
0.0
  0
LINE
  5
4EC
330
1F
100
AcDbEntity
  8
0
 62
     7
100
AcDbLine
 10
197.197052
 20
116.849991
 30
0.0
 11
196.697052
 21
116.349991
 31
0.0
  0
LINE
  5
4ED
330
1F
100
AcDbEntity
  8
0
 62
     7
100
AcDbLine
 10
197.197052
 20
129.449982
 30
0.0
 11
196.697052
 21
129.949982
 31
0.0
  0
LINE
  5
4EE
330
1F
100
AcDbEntity
  8
0
 62
     7
100
AcDbLine
 10
187.197052
 20
116.849991
 30
0.0
 11
186.197052
 21
116.849991
 31
0.0
  0
LINE
  5
4EF
330
1F
100
AcDbEntity
  8
0
 62
     7
100
AcDbLine
 10
187.197052
 20
129.449982
 30
0.0
 11
186.197052
 21
129.449982
 31
0.0
  0
LINE
  5
4F0
330
1F
100
AcDbEntity
  8
0
 62
     7
100
AcDbLine
 10
196.697052
 20
116.349991
 30
0.0
 11
187.697052
 21
116.349991
 31
0.0
  0
LINE
  5
4F1
330
1F
100
AcDbEntity
  8
0
 62
     7
100
AcDbLine
 10
196.697052
 20
129.949982
 30
0.0
 11
187.697052
 21
129.949982
 31
0.0
  0
LINE
  5
4F2
330
1F
100
AcDbEntity
  8
0
 62
     7
100
AcDbLine
 10
187.197052
 20
129.449982
 30
0.0
 11
187.697052
 21
129.949982
 31
0.0
  0
LINE
  5
4F3
330
1F
100
AcDbEntity
  8
0
 62
     7
100
AcDbLine
 10
187.197052
 20
116.849991
 30
0.0
 11
187.697052
 21
116.349991
 31
0.0
  0
LINE
  5
4F4
330
1F
100
AcDbEntity
  8
0
 62
     7
100
AcDbLine
 10
17.002953
 20
140.850006
 30
0.0
 11
17.002953
 21
153.950012
 31
0.0
  0
ARC
  5
4F5
330
1F
100
AcDbEntity
  8
0
 62
     7
100
AcDbCircle
 10
16.202953
 20
140.850006
 30
0.0
 40
0.800000011920929
100
AcDbArc
 50
269.999997
 51
360.0
  0
LINE
  5
4F6
330
1F
100
AcDbEntity
  8
0
 62
     7
100
AcDbLine
 10
16.873665
 20
154.079285
 30
0.0
 11
17.002953
 21
153.950012
 31
0.0
  0
ARC
  5
4F7
330
1F
100
AcDbEntity
  8
0
 62
     7
100
AcDbCircle
 10
15.002953
 20
140.850006
 30
0.0
 40
0.800000011920929
100
AcDbArc
 50
241.044838
 51
269.999997
  0
LINE
  5
4F8
330
1F
100
AcDbEntity
  8
0
 62
     7
100
AcDbLine
 10
16.202953
 20
140.049988
 30
0.0
 11
15.002953
 21
140.049988
 31
0.0
  0
ARC
  5
4F9
330
1F
100
AcDbEntity
  8
0
 62
     7
100
AcDbCircle
 10
16.944374
 20
154.149994
 30
0.0
 40
0.1000000014901161
100
AcDbArc
 50
135.0
 51
225.0
  0
LINE
  5
4FA
330
1F
100
AcDbEntity
  8
0
 62
     7
100
AcDbLine
 10
17.002953
 20
154.350006
 30
0.0
 11
16.873665
 21
154.220703
 31
0.0
  0
LINE
  5
4FB
330
1F
100
AcDbEntity
  8
0
 62
     7
100
AcDbLine
 10
17.002953
 20
154.350006
 30
0.0
 11
17.002953
 21
155.049988
 31
0.0
  0
LINE
  5
4FC
330
1F
100
AcDbEntity
  8
0
 62
     7
100
AcDbLine
 10
16.873665
 20
155.179291
 30
0.0
 11
17.002953
 21
155.049988
 31
0.0
  0
ARC
  5
4FD
330
1F
100
AcDbEntity
  8
0
 62
     7
100
AcDbCircle
 10
16.944374
 20
155.25
 30
0.0
 40
0.1000000014901161
100
AcDbArc
 50
135.0
 51
225.0
  0
LINE
  5
4FE
330
1F
100
AcDbEntity
  8
0
 62
     7
100
AcDbLine
 10
17.002953
 20
155.450012
 30
0.0
 11
16.873665
 21
155.320709
 31
0.0
  0
LINE
  5
4FF
330
1F
100
AcDbEntity
  8
0
 62
     7
100
AcDbLine
 10
17.002953
 20
155.450012
 30
0.0
 11
17.002953
 21
156.149994
 31
0.0
  0
LINE
  5
500
330
1F
100
AcDbEntity
  8
0
 62
     7
100
AcDbLine
 10
16.873665
 20
156.279297
 30
0.0
 11
17.002953
 21
156.149994
 31
0.0
  0
ARC
  5
501
330
1F
100
AcDbEntity
  8
0
 62
     7
100
AcDbCircle
 10
16.944374
 20
156.350006
 30
0.0
 40
0.1000000014901161
100
AcDbArc
 50
135.0
 51
225.0
  0
LINE
  5
502
330
1F
100
AcDbEntity
  8
0
 62
     7
100
AcDbLine
 10
17.002953
 20
156.549988
 30
0.0
 11
16.873665
 21
156.420715
 31
0.0
  0
LINE
  5
503
330
1F
100
AcDbEntity
  8
0
 62
     7
100
AcDbLine
 10
17.002953
 20
156.549988
 30
0.0
 11
17.002953
 21
157.25
 31
0.0
  0
LINE
  5
504
330
1F
100
AcDbEntity
  8
0
 62
     7
100
AcDbLine
 10
16.873665
 20
157.379303
 30
0.0
 11
17.002953
 21
157.25
 31
0.0
  0
ARC
  5
505
330
1F
100
AcDbEntity
  8
0
 62
     7
100
AcDbCircle
 10
16.944374
 20
157.450012
 30
0.0
 40
0.1000000014901161
100
AcDbArc
 50
135.0
 51
225.0
  0
LINE
  5
506
330
1F
100
AcDbEntity
  8
0
 62
     7
100
AcDbLine
 10
17.002953
 20
157.649994
 30
0.0
 11
16.873665
 21
157.520721
 31
0.0
  0
LINE
  5
507
330
1F
100
AcDbEntity
  8
0
 62
     7
100
AcDbLine
 10
17.002953
 20
157.649994
 30
0.0
 11
17.002953
 21
158.350006
 31
0.0
  0
LINE
  5
508
330
1F
100
AcDbEntity
  8
0
 62
     7
100
AcDbLine
 10
16.873665
 20
158.479279
 30
0.0
 11
17.002953
 21
158.350006
 31
0.0
  0
ARC
  5
509
330
1F
100
AcDbEntity
  8
0
 62
     7
100
AcDbCircle
 10
16.944374
 20
158.549988
 30
0.0
 40
0.1000000014901161
100
AcDbArc
 50
135.0
 51
225.0
  0
LINE
  5
50A
330
1F
100
AcDbEntity
  8
0
 62
     7
100
AcDbLine
 10
17.002953
 20
158.75
 30
0.0
 11
16.873665
 21
158.620697
 31
0.0
  0
LINE
  5
50B
330
1F
100
AcDbEntity
  8
0
 62
     7
100
AcDbLine
 10
17.002953
 20
158.75
 30
0.0
 11
17.002953
 21
159.450012
 31
0.0
  0
LINE
  5
50C
330
1F
100
AcDbEntity
  8
0
 62
     7
100
AcDbLine
 10
16.873665
 20
159.579285
 30
0.0
 11
17.002953
 21
159.450012
 31
0.0
  0
ARC
  5
50D
330
1F
100
AcDbEntity
  8
0
 62
     7
100
AcDbCircle
 10
16.944374
 20
159.649994
 30
0.0
 40
0.1000000014901161
100
AcDbArc
 50
135.0
 51
225.0
  0
LINE
  5
50E
330
1F
100
AcDbEntity
  8
0
 62
     7
100
AcDbLine
 10
17.002953
 20
159.850006
 30
0.0
 11
16.873665
 21
159.720703
 31
0.0
  0
LINE
  5
50F
330
1F
100
AcDbEntity
  8
0
 62
     7
100
AcDbLine
 10
17.002953
 20
159.850006
 30
0.0
 11
17.002953
 21
160.549988
 31
0.0
  0
LINE
  5
510
330
1F
100
AcDbEntity
  8
0
 62
     7
100
AcDbLine
 10
16.873665
 20
160.679291
 30
0.0
 11
17.002953
 21
160.549988
 31
0.0
  0
ARC
  5
511
330
1F
100
AcDbEntity
  8
0
 62
     7
100
AcDbCircle
 10
16.944374
 20
160.75
 30
0.0
 40
0.1000000014901161
100
AcDbArc
 50
135.0
 51
225.0
  0
LINE
  5
512
330
1F
100
AcDbEntity
  8
0
 62
     7
100
AcDbLine
 10
17.002953
 20
160.950012
 30
0.0
 11
16.873665
 21
160.820709
 31
0.0
  0
LINE
  5
513
330
1F
100
AcDbEntity
  8
0
 62
     7
100
AcDbLine
 10
17.002953
 20
160.950012
 30
0.0
 11
17.002953
 21
161.649994
 31
0.0
  0
LINE
  5
514
330
1F
100
AcDbEntity
  8
0
 62
     7
100
AcDbLine
 10
16.873665
 20
161.779297
 30
0.0
 11
17.002953
 21
161.649994
 31
0.0
  0
ARC
  5
515
330
1F
100
AcDbEntity
  8
0
 62
     7
100
AcDbCircle
 10
16.944374
 20
161.850006
 30
0.0
 40
0.1000000014901161
100
AcDbArc
 50
135.0
 51
225.0
  0
LINE
  5
516
330
1F
100
AcDbEntity
  8
0
 62
     7
100
AcDbLine
 10
17.002953
 20
162.049988
 30
0.0
 11
16.873665
 21
161.920715
 31
0.0
  0
LINE
  5
517
330
1F
100
AcDbEntity
  8
0
 62
     7
100
AcDbLine
 10
17.002953
 20
162.049988
 30
0.0
 11
17.002953
 21
162.75
 31
0.0
  0
LINE
  5
518
330
1F
100
AcDbEntity
  8
0
 62
     7
100
AcDbLine
 10
16.873665
 20
162.879303
 30
0.0
 11
17.002953
 21
162.75
 31
0.0
  0
ARC
  5
519
330
1F
100
AcDbEntity
  8
0
 62
     7
100
AcDbCircle
 10
16.944374
 20
162.950012
 30
0.0
 40
0.1000000014901161
100
AcDbArc
 50
135.0
 51
225.0
  0
LINE
  5
51A
330
1F
100
AcDbEntity
  8
0
 62
     7
100
AcDbLine
 10
17.002953
 20
163.149994
 30
0.0
 11
16.873665
 21
163.020721
 31
0.0
  0
LINE
  5
51B
330
1F
100
AcDbEntity
  8
0
 62
     7
100
AcDbLine
 10
17.002953
 20
163.149994
 30
0.0
 11
17.002953
 21
167.974274
 31
0.0
  0
LINE
  5
51C
330
1F
100
AcDbEntity
  8
0
 62
     7
100
AcDbLine
 10
16.515087
 20
168.462128
 30
0.0
 11
17.002953
 21
167.974274
 31
0.0
  0
ARC
  5
51D
330
1F
100
AcDbEntity
  8
0
 62
     7
100
AcDbCircle
 10
16.302956
 20
168.25
 30
0.0
 40
0.300000011920929
100
AcDbArc
 50
45.000001
 51
106.874504
  0
LINE
  5
51E
330
1F
100
AcDbEntity
  8
0
 62
     7
100
AcDbLine
 10
17.002953
 20
146.049988
 30
0.0
 11
17.202957
 21
146.049988
 31
0.0
  0
LINE
  5
51F
330
1F
100
AcDbEntity
  8
0
 62
     7
100
AcDbLine
 10
17.202957
 20
145.549988
 30
0.0
 11
17.202957
 21
146.049988
 31
0.0
  0
LINE
  5
520
330
1F
100
AcDbEntity
  8
0
 62
     7
100
AcDbLine
 10
17.202957
 20
145.549988
 30
0.0
 11
17.202957
 21
141.549988
 31
0.0
  0
LINE
  5
521
330
1F
100
AcDbEntity
  8
0
 62
     7
100
AcDbLine
 10
17.202957
 20
141.049988
 30
0.0
 11
17.202957
 21
141.549988
 31
0.0
  0
LINE
  5
522
330
1F
100
AcDbEntity
  8
0
 62
     7
100
AcDbLine
 10
17.002953
 20
141.049988
 30
0.0
 11
17.202957
 21
141.049988
 31
0.0
  0
ARC
  5
523
330
1F
100
AcDbEntity
  8
0
 62
     7
100
AcDbCircle
 10
13.002953
 20
168.350006
 30
0.0
 40
3.0
100
AcDbArc
 50
8.262821
 51
90.000003
  0
LINE
  5
524
330
1F
100
AcDbEntity
  8
0
 62
     7
100
AcDbLine
 10
17.252953
 20
141.549988
 30
0.0
 11
17.252953
 21
141.680359
 31
0.0
  0
LINE
  5
525
330
1F
100
AcDbEntity
  8
0
 62
     7
100
AcDbLine
 10
17.252953
 20
145.180359
 30
0.0
 11
17.252953
 21
141.680359
 31
0.0
  0
LINE
  5
526
330
1F
100
AcDbEntity
  8
0
 62
     7
100
AcDbLine
 10
17.202957
 20
145.450012
 30
0.0
 11
17.252953
 21
145.450012
 31
0.0
  0
LINE
  5
527
330
1F
100
AcDbEntity
  8
0
 62
     7
100
AcDbLine
 10
17.252953
 20
145.180359
 30
0.0
 11
17.252953
 21
145.450012
 31
0.0
  0
LINE
  5
528
330
1F
100
AcDbEntity
  8
0
 62
     7
100
AcDbLine
 10
16.656509
 20
168.096436
 30
0.0
 11
15.81443
 21
168.938507
 31
0.0
  0
ARC
  5
529
330
1F
100
AcDbEntity
  8
0
 62
     7
100
AcDbCircle
 10
16.302956
 20
167.742889
 30
0.0
 40
0.5
100
AcDbArc
 50
0.0
 51
45.000001
  0
LINE
  5
52A
330
1F
100
AcDbEntity
  8
0
 62
     7
100
AcDbLine
 10
16.802956
 20
140.649994
 30
0.0
 11
16.802956
 21
167.742889
 31
0.0
  0
ARC
  5
52B
330
1F
100
AcDbEntity
  8
0
 62
     7
100
AcDbCircle
 10
16.302956
 20
140.649994
 30
0.0
 40
0.5
100
AcDbArc
 50
269.999997
 51
360.0
  0
LINE
  5
52C
330
1F
100
AcDbEntity
  8
0
 62
     7
100
AcDbLine
 10
0.702956
 20
140.149994
 30
0.0
 11
16.302956
 21
140.149994
 31
0.0
  0
ARC
  5
52D
330
1F
100
AcDbEntity
  8
0
 62
     7
100
AcDbCircle
 10
0.702956
 20
140.649994
 30
0.0
 40
0.5
100
AcDbArc
 50
180.000009
 51
269.999997
  0
LINE
  5
52E
330
1F
100
AcDbEntity
  8
0
 62
     7
100
AcDbLine
 10
0.202956
 20
167.742889
 30
0.0
 11
0.202956
 21
140.649994
 31
0.0
  0
LINE
  5
52F
330
1F
100
AcDbEntity
  8
0
 62
     7
100
AcDbLine
 10
-0.597046
 20
150.049988
 30
0.0
 11
-0.597046
 21
152.049988
 31
0.0
  0
LINE
  5
530
330
1F
100
AcDbEntity
  8
0
 62
     7
100
AcDbLine
 10
-0.597046
 20
150.049988
 30
0.0
 11
0.202952
 21
150.049988
 31
0.0
  0
LINE
  5
531
330
1F
100
AcDbEntity
  8
0
 62
     7
100
AcDbLine
 10
13.002953
 20
171.350006
 30
0.0
 11
4.002954
 21
171.350006
 31
0.0
  0
ARC
  5
532
330
1F
100
AcDbEntity
  8
0
 62
     7
100
AcDbCircle
 10
4.002954
 20
168.350006
 30
0.0
 40
3.0
100
AcDbArc
 50
90.000003
 51
171.737184
  0
ARC
  5
533
330
1F
100
AcDbEntity
  8
0
 62
     7
100
AcDbCircle
 10
15.849789
 20
168.973877
 30
0.0
 40
0.0500000007450581
100
AcDbArc
 50
189.204208
 51
225.0
  0
ARC
  5
534
330
1F
100
AcDbEntity
  8
0
 62
     7
100
AcDbCircle
 10
0.702956
 20
167.742889
 30
0.0
 40
0.5
100
AcDbArc
 50
135.0
 51
180.000009
  0
LINE
  5
535
330
1F
100
AcDbEntity
  8
0
 62
     7
100
AcDbLine
 10
-0.597046
 20
166.821106
 30
0.0
 11
-0.597046
 21
152.049988
 31
0.0
  0
LINE
  5
536
330
1F
100
AcDbEntity
  8
0
 62
     7
100
AcDbLine
 10
-0.597046
 20
166.821106
 30
0.0
 11
-0.597046
 21
166.863342
 31
0.0
  0
LINE
  5
537
330
1F
100
AcDbEntity
  8
0
 62
     7
100
AcDbLine
 10
-0.597046
 20
166.863342
 30
0.0
 11
-0.597046
 21
171.350006
 31
0.0
  0
LINE
  5
538
330
1F
100
AcDbEntity
  8
0
 62
     7
100
AcDbLine
 10
-0.397045
 20
150.049988
 30
0.0
 11
-0.397045
 21
149.549988
 31
0.0
  0
LINE
  5
539
330
1F
100
AcDbEntity
  8
0
 62
     7
100
AcDbLine
 10
0.202954
 20
149.549988
 30
0.0
 11
-0.397045
 21
149.549988
 31
0.0
  0
LINE
  5
53A
330
1F
100
AcDbEntity
  8
0
 62
     7
100
AcDbLine
 10
-0.397045
 20
140.850006
 30
0.0
 11
-0.397045
 21
149.549988
 31
0.0
  0
ARC
  5
53B
330
1F
100
AcDbEntity
  8
0
 62
     7
100
AcDbCircle
 10
0.402954
 20
140.850006
 30
0.0
 40
0.800000011920929
100
AcDbArc
 50
180.000009
 51
269.999997
  0
LINE
  5
53C
330
1F
100
AcDbEntity
  8
0
 62
     7
100
AcDbLine
 10
0.402954
 20
140.049988
 30
0.0
 11
1.602955
 21
140.049988
 31
0.0
  0
ARC
  5
53D
330
1F
100
AcDbEntity
  8
0
 62
     7
100
AcDbCircle
 10
1.602955
 20
140.850006
 30
0.0
 40
0.800000011920929
100
AcDbArc
 50
269.999997
 51
298.955164
  0
LINE
  5
53E
330
1F
100
AcDbEntity
  8
0
 62
     7
100
AcDbLine
 10
1.191477
 20
168.938507
 30
0.0
 11
0.349402
 21
168.096436
 31
0.0
  0
ARC
  5
53F
330
1F
100
AcDbEntity
  8
0
 62
     7
100
AcDbCircle
 10
1.156121
 20
168.973877
 30
0.0
 40
0.0500000007450581
100
AcDbArc
 50
314.999992
 51
350.795784
  0
ARC
  5
540
330
1F
100
AcDbEntity
  8
0
 62
     7
100
AcDbCircle
 10
3.772
 20
168.549988
 30
0.0
 40
2.599999904632568
100
AcDbArc
 50
90.000003
 51
170.795792
  0
LINE
  5
541
330
1F
100
AcDbEntity
  8
0
 62
     7
100
AcDbLine
 10
13.23391
 20
171.149994
 30
0.0
 11
3.772
 21
171.149994
 31
0.0
  0
ARC
  5
542
330
1F
100
AcDbEntity
  8
0
 62
     7
100
AcDbCircle
 10
13.23391
 20
168.549988
 30
0.0
 40
2.599999904632568
100
AcDbArc
 50
9.204211
 51
90.000003
  0
CIRCLE
  5
543
330
1F
100
AcDbEntity
  8
0
 62
     7
100
AcDbCircle
 10
8.502953
 20
148.350006
 30
0.0
 40
5.150000095367432
  0
POLYLINE
  5
544
330
1F
100
AcDbEntity
  8
0
 62
     7
100
AcDb2dPolyline
 66
     1
 10
0.0
 20
0.0
 30
0.0
  0
VERTEX
  5
545
330
544
100
AcDbEntity
  8
0
100
AcDbVertex
100
AcDb2dVertex
 10
-0.097046
 20
168.260193
 30
0.0
  0
VERTEX
  5
546
330
544
100
AcDbEntity
  8
0
100
AcDbVertex
100
AcDb2dVertex
 10
-0.100914
 20
168.162903
 30
0.0
  0
VERTEX
  5
547
330
544
100
AcDbEntity
  8
0
100
AcDbVertex
100
AcDb2dVertex
 10
-0.11251
 20
168.059448
 30
0.0
  0
VERTEX
  5
548
330
544
100
AcDbEntity
  8
0
100
AcDbVertex
100
AcDb2dVertex
 10
-0.131862
 20
167.950043
 30
0.0
  0
VERTEX
  5
549
330
544
100
AcDbEntity
  8
0
100
AcDbVertex
100
AcDb2dVertex
 10
-0.159055
 20
167.834869
 30
0.0
  0
VERTEX
  5
54A
330
544
100
AcDbEntity
  8
0
100
AcDbVertex
100
AcDb2dVertex
 10
-0.194248
 20
167.713989
 30
0.0
  0
VERTEX
  5
54B
330
544
100
AcDbEntity
  8
0
100
AcDbVertex
100
AcDb2dVertex
 10
-0.237701
 20
167.587341
 30
0.0
  0
VERTEX
  5
54C
330
544
100
AcDbEntity
  8
0
100
AcDbVertex
100
AcDb2dVertex
 10
-0.289785
 20
167.454865
 30
0.0
  0
VERTEX
  5
54D
330
544
100
AcDbEntity
  8
0
100
AcDbVertex
100
AcDb2dVertex
 10
-0.351013
 20
167.316437
 30
0.0
  0
VERTEX
  5
54E
330
544
100
AcDbEntity
  8
0
100
AcDbVertex
100
AcDb2dVertex
 10
-0.422042
 20
167.171814
 30
0.0
  0
VERTEX
  5
54F
330
544
100
AcDbEntity
  8
0
100
AcDbVertex
100
AcDb2dVertex
 10
-0.503711
 20
167.020874
 30
0.0
  0
VERTEX
  5
550
330
544
100
AcDbEntity
  8
0
100
AcDbVertex
100
AcDb2dVertex
 10
-0.597046
 20
166.863342
 30
0.0
  0
SEQEND
  5
551
330
544
100
AcDbEntity
  8
0
 62
     7
  0
LINE
  5
552
330
1F
100
AcDbEntity
  8
0
 62
     7
100
AcDbLine
 10
-0.097046
 20
168.260193
 30
0.0
 11
-0.097046
 21
171.850006
 31
0.0
  0
LINE
  5
553
330
1F
100
AcDbEntity
  8
0
 62
     7
100
AcDbLine
 10
1.002955
 20
168.75
 30
0.0
 11
1.002955
 21
171.850006
 31
0.0
  0
CIRCLE
  5
554
330
1F
100
AcDbEntity
  8
0
 62
     7
100
AcDbCircle
 10
8.502953
 20
148.350006
 30
0.0
 40
4.150000095367432
  0
ARC
  5
555
330
1F
100
AcDbEntity
  8
0
 62
     7
100
AcDbCircle
 10
8.502953
 20
148.350006
 30
0.0
 40
3.75
100
AcDbArc
 50
350.018317
 51
9.981683
  0
ARC
  5
556
330
1F
100
AcDbEntity
  8
0
 62
     7
100
AcDbCircle
 10
8.502953
 20
148.350006
 30
0.0
 40
3.75
100
AcDbArc
 50
189.981688
 51
350.018317
  0
ARC
  5
557
330
1F
100
AcDbEntity
  8
0
 62
     7
100
AcDbCircle
 10
8.502953
 20
148.350006
 30
0.0
 40
3.75
100
AcDbArc
 50
170.018312
 51
189.981688
  0
ARC
  5
558
330
1F
100
AcDbEntity
  8
0
 62
     7
100
AcDbCircle
 10
8.502953
 20
148.350006
 30
0.0
 40
3.75
100
AcDbArc
 50
9.981683
 51
170.018312
  0
LINE
  5
559
330
1F
100
AcDbEntity
  8
0
 62
     7
100
AcDbLine
 10
11.992939
 20
147.700012
 30
0.0
 11
12.19619
 21
147.700012
 31
0.0
  0
LINE
  5
55A
330
1F
100
AcDbEntity
  8
0
 62
     7
100
AcDbLine
 10
5.01297
 20
147.700012
 30
0.0
 11
4.809719
 21
147.700012
 31
0.0
  0
LINE
  5
55B
330
1F
100
AcDbEntity
  8
0
 62
     7
100
AcDbLine
 10
11.992939
 20
147.700012
 30
0.0
 11
5.01297
 21
147.700012
 31
0.0
  0
ARC
  5
55C
330
1F
100
AcDbEntity
  8
0
 62
     7
100
AcDbCircle
 10
8.502953
 20
148.350006
 30
0.0
 40
3.549999952316284
100
AcDbArc
 50
190.550301
 51
349.44969
  0
LINE
  5
55D
330
1F
100
AcDbEntity
  8
0
 62
     7
100
AcDbLine
 10
5.01297
 20
149.0
 30
0.0
 11
4.809719
 21
149.0
 31
0.0
  0
LINE
  5
55E
330
1F
100
AcDbEntity
  8
0
 62
     7
100
AcDbLine
 10
11.992939
 20
149.0
 30
0.0
 11
12.19619
 21
149.0
 31
0.0
  0
LINE
  5
55F
330
1F
100
AcDbEntity
  8
0
 62
     7
100
AcDbLine
 10
5.01297
 20
149.0
 30
0.0
 11
11.992939
 21
149.0
 31
0.0
  0
ARC
  5
560
330
1F
100
AcDbEntity
  8
0
 62
     7
100
AcDbCircle
 10
8.502953
 20
148.350006
 30
0.0
 40
3.549999952316284
100
AcDbArc
 50
10.550303
 51
169.449699
  0
LINE
  5
561
330
1F
100
AcDbEntity
  8
0
 62
     7
100
AcDbLine
 10
17.202957
 20
141.549988
 30
0.0
 11
17.252953
 21
141.549988
 31
0.0
  0
LINE
  5
562
330
1F
100
AcDbEntity
  8
0
 62
     7
100
AcDbLine
 10
17.202957
 20
141.549988
 30
0.0
 11
17.252953
 21
141.549988
 31
0.0
  0
LINE
  5
563
330
1F
100
AcDbEntity
  8
0
 62
     7
100
AcDbLine
 10
-0.597046
 20
171.350006
 30
0.0
 11
-0.097046
 21
171.850006
 31
0.0
  0
LINE
  5
564
330
1F
100
AcDbEntity
  8
0
 62
     7
100
AcDbLine
 10
-0.097046
 20
171.850006
 30
0.0
 11
1.002955
 21
171.850006
 31
0.0
  0
LINE
  5
565
330
1F
100
AcDbEntity
  8
0
 62
     7
100
AcDbLine
 10
-0.397045
 20
114.449989
 30
0.0
 11
-0.397045
 21
137.549988
 31
0.0
  0
LINE
  5
566
330
1F
100
AcDbEntity
  8
0
 62
     7
100
AcDbLine
 10
-0.397045
 20
137.549988
 30
0.0
 11
-0.397045
 21
138.549988
 31
0.0
  0
LINE
  5
567
330
1F
100
AcDbEntity
  8
0
 62
     7
100
AcDbLine
 10
16.802956
 20
137.549988
 30
0.0
 11
16.802956
 21
114.449989
 31
0.0
  0
LINE
  5
568
330
1F
100
AcDbEntity
  8
0
 62
     7
100
AcDbLine
 10
16.802956
 20
137.549988
 30
0.0
 11
16.802956
 21
138.549988
 31
0.0
  0
LINE
  5
569
330
1F
100
AcDbEntity
  8
0
 62
     7
100
AcDbLine
 10
0.102955
 20
137.549988
 30
0.0
 11
-0.250599
 21
137.903564
 31
0.0
  0
ARC
  5
56A
330
1F
100
AcDbEntity
  8
0
 62
     7
100
AcDbCircle
 10
0.102955
 20
137.549988
 30
0.0
 40
0.5
100
AcDbArc
 50
90.000003
 51
180.000009
  0
ARC
  5
56B
330
1F
100
AcDbEntity
  8
0
 62
     7
100
AcDbCircle
 10
0.102955
 20
114.449989
 30
0.0
 40
0.5
100
AcDbArc
 50
180.000009
 51
270.000353
  0
ARC
  5
56C
330
1F
100
AcDbEntity
  8
0
 62
     7
100
AcDbCircle
 10
0.102957
 20
113.949982
 30
0.0
 40
0.5000079870223999
100
AcDbArc
 50
90.000289
 51
149.999055
  0
ARC
  5
56D
330
1F
100
AcDbEntity
  8
0
 62
     7
100
AcDbCircle
 10
0.102955
 20
138.549988
 30
0.0
 40
0.5
100
AcDbArc
 50
90.000003
 51
180.000009
  0
LINE
  5
56E
330
1F
100
AcDbEntity
  8
0
 62
     7
100
AcDbLine
 10
-0.597046
 20
132.987701
 30
0.0
 11
-0.597046
 21
133.95047
 31
0.0
  0
LINE
  5
56F
330
1F
100
AcDbEntity
  8
0
 62
     7
100
AcDbLine
 10
-0.597046
 20
132.987701
 30
0.0
 11
-0.597046
 21
121.249992
 31
0.0
  0
LINE
  5
570
330
1F
100
AcDbEntity
  8
0
 62
     7
100
AcDbLine
 10
-0.597046
 20
118.249992
 30
0.0
 11
-0.597046
 21
121.249992
 31
0.0
  0
LINE
  5
571
330
1F
100
AcDbEntity
  8
0
 62
     7
100
AcDbLine
 10
-0.597046
 20
118.249992
 30
0.0
 11
-0.397045
 21
118.249992
 31
0.0
  0
LINE
  5
572
330
1F
100
AcDbEntity
  8
0
 62
     7
100
AcDbLine
 10
-0.597046
 20
137.049988
 30
0.0
 11
-0.397045
 21
137.049988
 31
0.0
  0
LINE
  5
573
330
1F
100
AcDbEntity
  8
0
 62
     7
100
AcDbLine
 10
-0.597046
 20
136.18512
 30
0.0
 11
-0.597046
 21
137.049988
 31
0.0
  0
LINE
  5
574
330
1F
100
AcDbEntity
  8
0
 62
     7
100
AcDbLine
 10
4.25327
 20
117.249992
 30
0.0
 11
4.435997
 21
117.249992
 31
0.0
  0
LINE
  5
575
330
1F
100
AcDbEntity
  8
0
 62
     7
100
AcDbLine
 10
11.969902
 20
117.249992
 30
0.0
 11
12.152637
 21
117.249992
 31
0.0
  0
ARC
  5
576
330
1F
100
AcDbEntity
  8
0
 62
     7
100
AcDbCircle
 10
16.302956
 20
114.449989
 30
0.0
 40
0.5
100
AcDbArc
 50
269.999997
 51
359.999901
  0
ARC
  5
577
330
1F
100
AcDbEntity
  8
0
 62
     7
100
AcDbCircle
 10
16.302956
 20
137.549988
 30
0.0
 40
0.5
100
AcDbArc
 50
0.0
 51
90.000003
  0
LINE
  5
578
330
1F
100
AcDbEntity
  8
0
 62
     7
100
AcDbLine
 10
16.302956
 20
137.549988
 30
0.0
 11
16.656509
 21
137.903564
 31
0.0
  0
ARC
  5
579
330
1F
100
AcDbEntity
  8
0
 62
     7
100
AcDbCircle
 10
16.302956
 20
113.949997
 30
0.0
 40
0.4999969899654388
100
AcDbArc
 50
29.999605
 51
90.000201
  0
LINE
  5
57A
330
1F
100
AcDbEntity
  8
0
 62
     7
100
AcDbLine
 10
16.802956
 20
136.18512
 30
0.0
 11
16.802956
 21
133.95047
 31
0.0
  0
LINE
  5
57B
330
1F
100
AcDbEntity
  8
0
 62
     7
100
AcDbLine
 10
17.002953
 20
136.18512
 30
0.0
 11
17.002953
 21
137.049988
 31
0.0
  0
LINE
  5
57C
330
1F
100
AcDbEntity
  8
0
 62
     7
100
AcDbLine
 10
16.802956
 20
137.049988
 30
0.0
 11
17.002953
 21
137.049988
 31
0.0
  0
LINE
  5
57D
330
1F
100
AcDbEntity
  8
0
 62
     7
100
AcDbLine
 10
16.802956
 20
118.249992
 30
0.0
 11
17.002953
 21
118.249992
 31
0.0
  0
LINE
  5
57E
330
1F
100
AcDbEntity
  8
0
 62
     7
100
AcDbLine
 10
17.002953
 20
118.249992
 30
0.0
 11
17.002953
 21
121.249992
 31
0.0
  0
LINE
  5
57F
330
1F
100
AcDbEntity
  8
0
 62
     7
100
AcDbLine
 10
17.002953
 20
132.987701
 30
0.0
 11
17.002953
 21
121.249992
 31
0.0
  0
LINE
  5
580
330
1F
100
AcDbEntity
  8
0
 62
     7
100
AcDbLine
 10
17.002953
 20
132.987701
 30
0.0
 11
17.002953
 21
133.95047
 31
0.0
  0
ARC
  5
581
330
1F
100
AcDbEntity
  8
0
 62
     7
100
AcDbCircle
 10
16.302956
 20
138.549988
 30
0.0
 40
0.5
100
AcDbArc
 50
0.0
 51
90.000003
  0
LINE
  5
582
330
1F
100
AcDbEntity
  8
0
 62
     7
100
AcDbLine
 10
0.102955
 20
114.449989
 30
0.0
 11
7.602955
 21
114.449989
 31
0.0
  0
LINE
  5
583
330
1F
100
AcDbEntity
  8
0
 62
     7
100
AcDbLine
 10
7.602955
 20
115.149994
 30
0.0
 11
7.602955
 21
114.449989
 31
0.0
  0
LINE
  5
584
330
1F
100
AcDbEntity
  8
0
 62
     7
100
AcDbLine
 10
7.602955
 20
115.149994
 30
0.0
 11
8.802956
 21
115.149994
 31
0.0
  0
LINE
  5
585
330
1F
100
AcDbEntity
  8
0
 62
     7
100
AcDbLine
 10
8.802956
 20
115.149994
 30
0.0
 11
8.802956
 21
114.449989
 31
0.0
  0
LINE
  5
586
330
1F
100
AcDbEntity
  8
0
 62
     7
100
AcDbLine
 10
8.802956
 20
114.449989
 30
0.0
 11
16.302956
 21
114.449989
 31
0.0
  0
ARC
  5
587
330
1F
100
AcDbEntity
  8
0
 62
     7
100
AcDbCircle
 10
11.837852
 20
137.549988
 30
0.0
 40
0.5
100
AcDbArc
 50
90.000003
 51
218.583597
  0
ARC
  5
588
330
1F
100
AcDbEntity
  8
0
 62
     7
100
AcDbCircle
 10
8.202953
 20
134.649994
 30
0.0
 40
4.150000095367432
100
AcDbArc
 50
0.0
 51
38.583602
  0
LINE
  5
589
330
1F
100
AcDbEntity
  8
0
 62
     7
100
AcDbLine
 10
12.352955
 20
134.649994
 30
0.0
 11
12.352955
 21
133.649994
 31
0.0
  0
ARC
  5
58A
330
1F
100
AcDbEntity
  8
0
 62
     7
100
AcDbCircle
 10
8.202953
 20
133.649994
 30
0.0
 40
4.150000095367432
100
AcDbArc
 50
327.912246
 51
360.0
  0
POLYLINE
  5
58B
330
1F
100
AcDbEntity
  8
0
 62
     7
100
AcDb2dPolyline
 66
     1
 10
0.0
 20
0.0
 30
0.0
  0
VERTEX
  5
58C
330
58B
100
AcDbEntity
  8
0
100
AcDbVertex
100
AcDb2dVertex
 10
12.129799
 20
129.303833
 30
0.0
  0
VERTEX
  5
58D
330
58B
100
AcDbEntity
  8
0
100
AcDbVertex
100
AcDb2dVertex
 10
12.055504
 20
129.354675
 30
0.0
  0
VERTEX
  5
58E
330
58B
100
AcDbEntity
  8
0
100
AcDbVertex
100
AcDb2dVertex
 10
11.996117
 20
129.400604
 30
0.0
  0
VERTEX
  5
58F
330
58B
100
AcDbEntity
  8
0
100
AcDbVertex
100
AcDb2dVertex
 10
11.939358
 20
129.449554
 30
0.0
  0
VERTEX
  5
590
330
58B
100
AcDbEntity
  8
0
100
AcDbVertex
100
AcDb2dVertex
 10
11.864716
 20
129.522675
 30
0.0
  0
VERTEX
  5
591
330
58B
100
AcDbEntity
  8
0
100
AcDbVertex
100
AcDb2dVertex
 10
11.795799
 20
129.600861
 30
0.0
  0
VERTEX
  5
592
330
58B
100
AcDbEntity
  8
0
100
AcDbVertex
100
AcDb2dVertex
 10
11.732941
 20
129.683624
 30
0.0
  0
VERTEX
  5
593
330
58B
100
AcDbEntity
  8
0
100
AcDbVertex
100
AcDb2dVertex
 10
11.676399
 20
129.770386
 30
0.0
  0
VERTEX
  5
594
330
58B
100
AcDbEntity
  8
0
100
AcDbVertex
100
AcDb2dVertex
 10
11.62635
 20
129.860565
 30
0.0
  0
VERTEX
  5
595
330
58B
100
AcDbEntity
  8
0
100
AcDbVertex
100
AcDb2dVertex
 10
11.582928
 20
129.953583
 30
0.0
  0
VERTEX
  5
596
330
58B
100
AcDbEntity
  8
0
100
AcDbVertex
100
AcDb2dVertex
 10
11.546181
 20
130.04895
 30
0.0
  0
VERTEX
  5
597
330
58B
100
AcDbEntity
  8
0
100
AcDbVertex
100
AcDb2dVertex
 10
11.515045
 20
130.150024
 30
0.0
  0
VERTEX
  5
598
330
58B
100
AcDbEntity
  8
0
100
AcDbVertex
100
AcDb2dVertex
 10
11.491085
 20
130.252472
 30
0.0
  0
VERTEX
  5
599
330
58B
100
AcDbEntity
  8
0
100
AcDbVertex
100
AcDb2dVertex
 10
11.474216
 20
130.355804
 30
0.0
  0
VERTEX
  5
59A
330
58B
100
AcDbEntity
  8
0
100
AcDbVertex
100
AcDb2dVertex
 10
11.464318
 20
130.459503
 30
0.0
  0
VERTEX
  5
59B
330
58B
100
AcDbEntity
  8
0
100
AcDbVertex
100
AcDb2dVertex
 10
11.461235
 20
130.56311
 30
0.0
  0
VERTEX
  5
59C
330
58B
100
AcDbEntity
  8
0
100
AcDbVertex
100
AcDb2dVertex
 10
11.464809
 20
130.666229
 30
0.0
  0
VERTEX
  5
59D
330
58B
100
AcDbEntity
  8
0
100
AcDbVertex
100
AcDb2dVertex
 10
11.474862
 20
130.768463
 30
0.0
  0
VERTEX
  5
59E
330
58B
100
AcDbEntity
  8
0
100
AcDbVertex
100
AcDb2dVertex
 10
11.491611
 20
130.871552
 30
0.0
  0
VERTEX
  5
59F
330
58B
100
AcDbEntity
  8
0
100
AcDbVertex
100
AcDb2dVertex
 10
11.514725
 20
130.973022
 30
0.0
  0
VERTEX
  5
5A0
330
58B
100
AcDbEntity
  8
0
100
AcDbVertex
100
AcDb2dVertex
 10
11.544006
 20
131.072571
 30
0.0
  0
VERTEX
  5
5A1
330
58B
100
AcDbEntity
  8
0
100
AcDbVertex
100
AcDb2dVertex
 10
11.579266
 20
131.169891
 30
0.0
  0
VERTEX
  5
5A2
330
58B
100
AcDbEntity
  8
0
100
AcDbVertex
100
AcDb2dVertex
 10
11.620308
 20
131.264648
 30
0.0
  0
VERTEX
  5
5A3
330
58B
100
AcDbEntity
  8
0
100
AcDbVertex
100
AcDb2dVertex
 10
11.666939
 20
131.356598
 30
0.0
  0
VERTEX
  5
5A4
330
58B
100
AcDbEntity
  8
0
100
AcDbVertex
100
AcDb2dVertex
 10
11.718983
 20
131.445435
 30
0.0
  0
SEQEND
  5
5A5
330
58B
100
AcDbEntity
  8
0
 62
     7
  0
ARC
  5
5A6
330
1F
100
AcDbEntity
  8
0
 62
     7
100
AcDbCircle
 10
8.202953
 20
123.149994
 30
0.0
 40
7.300000190734863
100
AcDbArc
 50
122.542528
 51
57.457471
  0
POLYLINE
  5
5A7
330
1F
100
AcDbEntity
  8
0
 62
     7
100
AcDb2dPolyline
 66
     1
 10
0.0
 20
0.0
 30
0.0
  0
VERTEX
  5
5A8
330
5A7
100
AcDbEntity
  8
0
100
AcDbVertex
100
AcDb2dVertex
 10
4.276101
 20
129.303833
 30
0.0
  0
VERTEX
  5
5A9
330
5A7
100
AcDbEntity
  8
0
100
AcDbVertex
100
AcDb2dVertex
 10
4.355595
 20
129.35849
 30
0.0
  0
VERTEX
  5
5AA
330
5A7
100
AcDbEntity
  8
0
100
AcDbVertex
100
AcDb2dVertex
 10
4.431137
 20
129.418396
 30
0.0
  0
VERTEX
  5
5AB
330
5A7
100
AcDbEntity
  8
0
100
AcDbVertex
100
AcDb2dVertex
 10
4.502339
 20
129.483276
 30
0.0
  0
VERTEX
  5
5AC
330
5A7
100
AcDbEntity
  8
0
100
AcDbVertex
100
AcDb2dVertex
 10
4.568859
 20
129.552704
 30
0.0
  0
VERTEX
  5
5AD
330
5A7
100
AcDbEntity
  8
0
100
AcDbVertex
100
AcDb2dVertex
 10
4.630406
 20
129.626251
 30
0.0
  0
VERTEX
  5
5AE
330
5A7
100
AcDbEntity
  8
0
100
AcDbVertex
100
AcDb2dVertex
 10
4.691975
 20
129.711304
 30
0.0
  0
VERTEX
  5
5AF
330
5A7
100
AcDbEntity
  8
0
100
AcDbVertex
100
AcDb2dVertex
 10
4.747013
 20
129.800232
 30
0.0
  0
VERTEX
  5
5B0
330
5A7
100
AcDbEntity
  8
0
100
AcDbVertex
100
AcDb2dVertex
 10
4.795357
 20
129.892487
 30
0.0
  0
VERTEX
  5
5B1
330
5A7
100
AcDbEntity
  8
0
100
AcDbVertex
100
AcDb2dVertex
 10
4.836903
 20
129.987488
 30
0.0
  0
VERTEX
  5
5B2
330
5A7
100
AcDbEntity
  8
0
100
AcDbVertex
100
AcDb2dVertex
 10
4.871609
 20
130.084656
 30
0.0
  0
VERTEX
  5
5B3
330
5A7
100
AcDbEntity
  8
0
100
AcDbVertex
100
AcDb2dVertex
 10
4.899495
 20
130.183411
 30
0.0
  0
VERTEX
  5
5B4
330
5A7
100
AcDbEntity
  8
0
100
AcDbVertex
100
AcDb2dVertex
 10
4.920613
 20
130.283325
 30
0.0
  0
VERTEX
  5
5B5
330
5A7
100
AcDbEntity
  8
0
100
AcDbVertex
100
AcDb2dVertex
 10
4.935528
 20
130.388184
 30
0.0
  0
VERTEX
  5
5B6
330
5A7
100
AcDbEntity
  8
0
100
AcDbVertex
100
AcDb2dVertex
 10
4.943337
 20
130.493286
 30
0.0
  0
VERTEX
  5
5B7
330
5A7
100
AcDbEntity
  8
0
100
AcDbVertex
100
AcDb2dVertex
 10
4.944199
 20
130.598145
 30
0.0
  0
VERTEX
  5
5B8
330
5A7
100
AcDbEntity
  8
0
100
AcDbVertex
100
AcDb2dVertex
 10
4.938282
 20
130.702393
 30
0.0
  0
VERTEX
  5
5B9
330
5A7
100
AcDbEntity
  8
0
100
AcDbVertex
100
AcDb2dVertex
 10
4.925782
 20
130.805603
 30
0.0
  0
VERTEX
  5
5BA
330
5A7
100
AcDbEntity
  8
0
100
AcDbVertex
100
AcDb2dVertex
 10
4.906884
 20
130.90744
 30
0.0
  0
VERTEX
  5
5BB
330
5A7
100
AcDbEntity
  8
0
100
AcDbVertex
100
AcDb2dVertex
 10
4.881787
 20
131.007538
 30
0.0
  0
VERTEX
  5
5BC
330
5A7
100
AcDbEntity
  8
0
100
AcDbVertex
100
AcDb2dVertex
 10
4.852777
 20
131.099609
 30
0.0
  0
VERTEX
  5
5BD
330
5A7
100
AcDbEntity
  8
0
100
AcDbVertex
100
AcDb2dVertex
 10
4.818635
 20
131.189667
 30
0.0
  0
VERTEX
  5
5BE
330
5A7
100
AcDbEntity
  8
0
100
AcDbVertex
100
AcDb2dVertex
 10
4.779511
 20
131.277466
 30
0.0
  0
VERTEX
  5
5BF
330
5A7
100
AcDbEntity
  8
0
100
AcDbVertex
100
AcDb2dVertex
 10
4.735559
 20
131.362793
 30
0.0
  0
VERTEX
  5
5C0
330
5A7
100
AcDbEntity
  8
0
100
AcDbVertex
100
AcDb2dVertex
 10
4.686928
 20
131.445435
 30
0.0
  0
SEQEND
  5
5C1
330
5A7
100
AcDbEntity
  8
0
 62
     7
  0
ARC
  5
5C2
330
1F
100
AcDbEntity
  8
0
 62
     7
100
AcDbCircle
 10
8.202953
 20
133.649994
 30
0.0
 40
4.150000095367432
100
AcDbArc
 50
180.000009
 51
212.087746
  0
LINE
  5
5C3
330
1F
100
AcDbEntity
  8
0
 62
     7
100
AcDbLine
 10
4.052956
 20
134.649994
 30
0.0
 11
4.052956
 21
133.649994
 31
0.0
  0
ARC
  5
5C4
330
1F
100
AcDbEntity
  8
0
 62
     7
100
AcDbCircle
 10
8.202953
 20
134.649994
 30
0.0
 40
4.150000095367432
100
AcDbArc
 50
141.416403
 51
180.000009
  0
ARC
  5
5C5
330
1F
100
AcDbEntity
  8
0
 62
     7
100
AcDbCircle
 10
4.568055
 20
137.549988
 30
0.0
 40
0.5
100
AcDbArc
 50
321.416408
 51
90.000003
  0
LINE
  5
5C6
330
1F
100
AcDbEntity
  8
0
 62
     7
100
AcDbLine
 10
2.352955
 20
130.350006
 30
0.0
 11
1.952954
 21
130.350006
 31
0.0
  0
ARC
  5
5C7
330
1F
100
AcDbEntity
  8
0
 62
     7
100
AcDbCircle
 10
1.952954
 20
131.699982
 30
0.0
 40
1.350000023841858
100
AcDbArc
 50
90.000003
 51
269.99997
  0
LINE
  5
5C8
330
1F
100
AcDbEntity
  8
0
 62
     7
100
AcDbLine
 10
1.952954
 20
133.049988
 30
0.0
 11
2.352955
 21
133.049988
 31
0.0
  0
ARC
  5
5C9
330
1F
100
AcDbEntity
  8
0
 62
     7
100
AcDbCircle
 10
2.352955
 20
131.699982
 30
0.0
 40
1.350000023841858
100
AcDbArc
 50
269.999997
 51
89.999989
  0
CIRCLE
  5
5CA
330
1F
100
AcDbEntity
  8
0
 62
     7
100
AcDbCircle
 10
14.252953
 20
131.699982
 30
0.0
 40
1.350000023841858
  0
LINE
  5
5CB
330
1F
100
AcDbEntity
  8
0
 62
     7
100
AcDbLine
 10
0.102955
 20
138.049988
 30
0.0
 11
4.568055
 21
138.049988
 31
0.0
  0
LINE
  5
5CC
330
1F
100
AcDbEntity
  8
0
 62
     7
100
AcDbLine
 10
8.802956
 20
114.449989
 30
0.0
 11
8.802956
 21
114.149994
 31
0.0
  0
LINE
  5
5CD
330
1F
100
AcDbEntity
  8
0
 62
     7
100
AcDbLine
 10
7.602955
 20
114.149994
 30
0.0
 11
8.802956
 21
114.149994
 31
0.0
  0
LINE
  5
5CE
330
1F
100
AcDbEntity
  8
0
 62
     7
100
AcDbLine
 10
7.602955
 20
114.449989
 30
0.0
 11
7.602955
 21
114.149994
 31
0.0
  0
LINE
  5
5CF
330
1F
100
AcDbEntity
  8
0
 62
     7
100
AcDbLine
 10
0.102955
 20
113.949989
 30
0.0
 11
16.302956
 21
113.949989
 31
0.0
  0
LINE
  5
5D0
330
1F
100
AcDbEntity
  8
0
 62
     7
100
AcDbLine
 10
6.621022
 20
138.049988
 30
0.0
 11
4.893875
 21
138.049988
 31
0.0
  0
LINE
  5
5D1
330
1F
100
AcDbEntity
  8
0
 62
     7
100
AcDbLine
 10
11.512032
 20
138.049988
 30
0.0
 11
9.784885
 21
138.049988
 31
0.0
  0
LINE
  5
5D2
330
1F
100
AcDbEntity
  8
0
 62
     7
100
AcDbLine
 10
11.512032
 20
138.049988
 30
0.0
 11
11.837852
 21
138.049988
 31
0.0
  0
LINE
  5
5D3
330
1F
100
AcDbEntity
  8
0
 62
     7
100
AcDbLine
 10
11.837852
 20
138.049988
 30
0.0
 11
16.302956
 21
138.049988
 31
0.0
  0
LINE
  5
5D4
330
1F
100
AcDbEntity
  8
0
 62
     7
100
AcDbLine
 10
4.568055
 20
138.049988
 30
0.0
 11
4.893875
 21
138.049988
 31
0.0
  0
LINE
  5
5D5
330
1F
100
AcDbEntity
  8
0
 62
     7
100
AcDbLine
 10
0.102955
 20
139.049988
 30
0.0
 11
16.302956
 21
139.049988
 31
0.0
  0
LINE
  5
5D6
330
1F
100
AcDbEntity
  8
0
 62
     7
100
AcDbLine
 10
-0.597046
 20
133.95047
 30
0.0
 11
-0.597046
 21
136.18512
 31
0.0
  0
LINE
  5
5D7
330
1F
100
AcDbEntity
  8
0
 62
     7
100
AcDbLine
 10
17.002953
 20
133.95047
 30
0.0
 11
17.002953
 21
136.18512
 31
0.0
  0
LINE
  5
5D8
330
1F
100
AcDbEntity
  8
0
 62
     7
100
AcDbLine
 10
11.661011
 20
131.355591
 30
0.0
 11
11.718983
 21
131.445435
 31
0.0
  0
POLYLINE
  5
5D9
330
1F
100
AcDbEntity
  8
0
 62
     7
100
AcDb2dPolyline
 66
     1
 10
0.0
 20
0.0
 30
0.0
  0
VERTEX
  5
5DA
330
5D9
100
AcDbEntity
  8
0
100
AcDbVertex
100
AcDb2dVertex
 10
11.661011
 20
131.355591
 30
0.0
  0
VERTEX
  5
5DB
330
5D9
100
AcDbEntity
  8
0
100
AcDbVertex
100
AcDb2dVertex
 10
11.605289
 20
131.265656
 30
0.0
  0
VERTEX
  5
5DC
330
5D9
100
AcDbEntity
  8
0
100
AcDbVertex
100
AcDb2dVertex
 10
11.555199
 20
131.172363
 30
0.0
  0
VERTEX
  5
5DD
330
5D9
100
AcDbEntity
  8
0
100
AcDbVertex
100
AcDb2dVertex
 10
11.510937
 20
131.075928
 30
0.0
  0
VERTEX
  5
5DE
330
5D9
100
AcDbEntity
  8
0
100
AcDbVertex
100
AcDb2dVertex
 10
11.472725
 20
130.976685
 30
0.0
  0
VERTEX
  5
5DF
330
5D9
100
AcDbEntity
  8
0
100
AcDbVertex
100
AcDb2dVertex
 10
11.440777
 20
130.874969
 30
0.0
  0
VERTEX
  5
5E0
330
5D9
100
AcDbEntity
  8
0
100
AcDbVertex
100
AcDb2dVertex
 10
11.415314
 20
130.771057
 30
0.0
  0
VERTEX
  5
5E1
330
5D9
100
AcDbEntity
  8
0
100
AcDbVertex
100
AcDb2dVertex
 10
11.396549
 20
130.665344
 30
0.0
  0
VERTEX
  5
5E2
330
5D9
100
AcDbEntity
  8
0
100
AcDbVertex
100
AcDb2dVertex
 10
11.38488
 20
130.560333
 30
0.0
  0
VERTEX
  5
5E3
330
5D9
100
AcDbEntity
  8
0
100
AcDbVertex
100
AcDb2dVertex
 10
11.380066
 20
130.454285
 30
0.0
  0
VERTEX
  5
5E4
330
5D9
100
AcDbEntity
  8
0
100
AcDbVertex
100
AcDb2dVertex
 10
11.382317
 20
130.347595
 30
0.0
  0
VERTEX
  5
5E5
330
5D9
100
AcDbEntity
  8
0
100
AcDbVertex
100
AcDb2dVertex
 10
11.391819
 20
130.240784
 30
0.0
  0
VERTEX
  5
5E6
330
5D9
100
AcDbEntity
  8
0
100
AcDbVertex
100
AcDb2dVertex
 10
11.408741
 20
130.134308
 30
0.0
  0
VERTEX
  5
5E7
330
5D9
100
AcDbEntity
  8
0
100
AcDbVertex
100
AcDb2dVertex
 10
11.43322
 20
130.028717
 30
0.0
  0
VERTEX
  5
5E8
330
5D9
100
AcDbEntity
  8
0
100
AcDbVertex
100
AcDb2dVertex
 10
11.465355
 20
129.924622
 30
0.0
  0
VERTEX
  5
5E9
330
5D9
100
AcDbEntity
  8
0
100
AcDbVertex
100
AcDb2dVertex
 10
11.503372
 20
129.826782
 30
0.0
  0
VERTEX
  5
5EA
330
5D9
100
AcDbEntity
  8
0
100
AcDbVertex
100
AcDb2dVertex
 10
11.548462
 20
129.731476
 30
0.0
  0
VERTEX
  5
5EB
330
5D9
100
AcDbEntity
  8
0
100
AcDbVertex
100
AcDb2dVertex
 10
11.60054
 20
129.639221
 30
0.0
  0
VERTEX
  5
5EC
330
5D9
100
AcDbEntity
  8
0
100
AcDbVertex
100
AcDb2dVertex
 10
11.659462
 20
129.55069
 30
0.0
  0
VERTEX
  5
5ED
330
5D9
100
AcDbEntity
  8
0
100
AcDbVertex
100
AcDb2dVertex
 10
11.691426
 20
129.508026
 30
0.0
  0
VERTEX
  5
5EE
330
5D9
100
AcDbEntity
  8
0
100
AcDbVertex
100
AcDb2dVertex
 10
11.725014
 20
129.466492
 30
0.0
  0
VERTEX
  5
5EF
330
5D9
100
AcDbEntity
  8
0
100
AcDbVertex
100
AcDb2dVertex
 10
11.772246
 20
129.413055
 30
0.0
  0
VERTEX
  5
5F0
330
5D9
100
AcDbEntity
  8
0
100
AcDbVertex
100
AcDb2dVertex
 10
11.822186
 20
129.361969
 30
0.0
  0
VERTEX
  5
5F1
330
5D9
100
AcDbEntity
  8
0
100
AcDbVertex
100
AcDb2dVertex
 10
11.874699
 20
129.313446
 30
0.0
  0
VERTEX
  5
5F2
330
5D9
100
AcDbEntity
  8
0
100
AcDbVertex
100
AcDb2dVertex
 10
11.930061
 20
129.267242
 30
0.0
  0
VERTEX
  5
5F3
330
5D9
100
AcDbEntity
  8
0
100
AcDbVertex
100
AcDb2dVertex
 10
11.987785
 20
129.223907
 30
0.0
  0
VERTEX
  5
5F4
330
5D9
100
AcDbEntity
  8
0
100
AcDbVertex
100
AcDb2dVertex
 10
12.047596
 20
129.183594
 30
0.0
  0
SEQEND
  5
5F5
330
5D9
100
AcDbEntity
  8
0
 62
     7
  0
CIRCLE
  5
5F6
330
1F
100
AcDbEntity
  8
0
 62
     7
100
AcDbCircle
 10
8.202953
 20
123.149994
 30
0.0
 40
7.099999904632568
  0
ARC
  5
5F7
330
1F
100
AcDbEntity
  8
0
 62
     7
100
AcDbCircle
 10
8.202721
 20
123.149597
 30
0.0
 40
7.154872894287109
100
AcDbArc
 50
57.494627
 51
61.351983
  0
ARC
  5
5F8
330
1F
100
AcDbEntity
  8
0
 62
     7
100
AcDbCircle
 10
8.202961
 20
123.149979
 30
0.0
 40
7.154425144195557
100
AcDbArc
 50
61.352113
 51
122.505467
  0
POLYLINE
  5
5F9
330
1F
100
AcDbEntity
  8
0
 62
     7
100
AcDb2dPolyline
 66
     1
 10
0.0
 20
0.0
 30
0.0
  0
VERTEX
  5
5FA
330
5F9
100
AcDbEntity
  8
0
100
AcDbVertex
100
AcDb2dVertex
 10
4.744896
 20
131.355591
 30
0.0
  0
VERTEX
  5
5FB
330
5F9
100
AcDbEntity
  8
0
100
AcDbVertex
100
AcDb2dVertex
 10
4.800618
 20
131.265656
 30
0.0
  0
VERTEX
  5
5FC
330
5F9
100
AcDbEntity
  8
0
100
AcDbVertex
100
AcDb2dVertex
 10
4.850712
 20
131.172363
 30
0.0
  0
VERTEX
  5
5FD
330
5F9
100
AcDbEntity
  8
0
100
AcDbVertex
100
AcDb2dVertex
 10
4.894974
 20
131.075928
 30
0.0
  0
VERTEX
  5
5FE
330
5F9
100
AcDbEntity
  8
0
100
AcDbVertex
100
AcDb2dVertex
 10
4.933186
 20
130.976685
 30
0.0
  0
VERTEX
  5
5FF
330
5F9
100
AcDbEntity
  8
0
100
AcDbVertex
100
AcDb2dVertex
 10
4.965134
 20
130.874969
 30
0.0
  0
VERTEX
  5
600
330
5F9
100
AcDbEntity
  8
0
100
AcDbVertex
100
AcDb2dVertex
 10
4.990597
 20
130.771057
 30
0.0
  0
VERTEX
  5
601
330
5F9
100
AcDbEntity
  8
0
100
AcDbVertex
100
AcDb2dVertex
 10
5.009358
 20
130.665344
 30
0.0
  0
VERTEX
  5
602
330
5F9
100
AcDbEntity
  8
0
100
AcDbVertex
100
AcDb2dVertex
 10
5.021031
 20
130.560333
 30
0.0
  0
VERTEX
  5
603
330
5F9
100
AcDbEntity
  8
0
100
AcDbVertex
100
AcDb2dVertex
 10
5.025841
 20
130.454285
 30
0.0
  0
VERTEX
  5
604
330
5F9
100
AcDbEntity
  8
0
100
AcDbVertex
100
AcDb2dVertex
 10
5.02359
 20
130.347595
 30
0.0
  0
VERTEX
  5
605
330
5F9
100
AcDbEntity
  8
0
100
AcDbVertex
100
AcDb2dVertex
 10
5.014092
 20
130.240784
 30
0.0
  0
VERTEX
  5
606
330
5F9
100
AcDbEntity
  8
0
100
AcDbVertex
100
AcDb2dVertex
 10
4.99717
 20
130.134308
 30
0.0
  0
VERTEX
  5
607
330
5F9
100
AcDbEntity
  8
0
100
AcDbVertex
100
AcDb2dVertex
 10
4.972691
 20
130.028717
 30
0.0
  0
VERTEX
  5
608
330
5F9
100
AcDbEntity
  8
0
100
AcDbVertex
100
AcDb2dVertex
 10
4.940557
 20
129.924622
 30
0.0
  0
VERTEX
  5
609
330
5F9
100
AcDbEntity
  8
0
100
AcDbVertex
100
AcDb2dVertex
 10
4.902535
 20
129.826782
 30
0.0
  0
VERTEX
  5
60A
330
5F9
100
AcDbEntity
  8
0
100
AcDbVertex
100
AcDb2dVertex
 10
4.857449
 20
129.731476
 30
0.0
  0
VERTEX
  5
60B
330
5F9
100
AcDbEntity
  8
0
100
AcDbVertex
100
AcDb2dVertex
 10
4.805371
 20
129.639221
 30
0.0
  0
VERTEX
  5
60C
330
5F9
100
AcDbEntity
  8
0
100
AcDbVertex
100
AcDb2dVertex
 10
4.746445
 20
129.55069
 30
0.0
  0
VERTEX
  5
60D
330
5F9
100
AcDbEntity
  8
0
100
AcDbVertex
100
AcDb2dVertex
 10
4.714482
 20
129.508026
 30
0.0
  0
VERTEX
  5
60E
330
5F9
100
AcDbEntity
  8
0
100
AcDbVertex
100
AcDb2dVertex
 10
4.680897
 20
129.466492
 30
0.0
  0
VERTEX
  5
60F
330
5F9
100
AcDbEntity
  8
0
100
AcDbVertex
100
AcDb2dVertex
 10
4.633664
 20
129.413055
 30
0.0
  0
VERTEX
  5
610
330
5F9
100
AcDbEntity
  8
0
100
AcDbVertex
100
AcDb2dVertex
 10
4.583725
 20
129.361969
 30
0.0
  0
VERTEX
  5
611
330
5F9
100
AcDbEntity
  8
0
100
AcDbVertex
100
AcDb2dVertex
 10
4.531209
 20
129.313446
 30
0.0
  0
VERTEX
  5
612
330
5F9
100
AcDbEntity
  8
0
100
AcDbVertex
100
AcDb2dVertex
 10
4.47585
 20
129.267242
 30
0.0
  0
VERTEX
  5
613
330
5F9
100
AcDbEntity
  8
0
100
AcDbVertex
100
AcDb2dVertex
 10
4.418122
 20
129.223907
 30
0.0
  0
VERTEX
  5
614
330
5F9
100
AcDbEntity
  8
0
100
AcDbVertex
100
AcDb2dVertex
 10
4.358315
 20
129.183594
 30
0.0
  0
SEQEND
  5
615
330
5F9
100
AcDbEntity
  8
0
 62
     7
  0
LINE
  5
616
330
1F
100
AcDbEntity
  8
0
 62
     7
100
AcDbLine
 10
4.686928
 20
131.445435
 30
0.0
 11
4.744896
 21
131.355591
 31
0.0
  0
LINE
  5
617
330
1F
100
AcDbEntity
  8
0
 62
     7
100
AcDbLine
 10
2.352955
 20
130.449982
 30
0.0
 11
1.952954
 21
130.449982
 31
0.0
  0
ARC
  5
618
330
1F
100
AcDbEntity
  8
0
 62
     7
100
AcDbCircle
 10
1.952954
 20
131.699982
 30
0.0
 40
1.25
100
AcDbArc
 50
90.000003
 51
269.999997
  0
LINE
  5
619
330
1F
100
AcDbEntity
  8
0
 62
     7
100
AcDbLine
 10
1.952954
 20
132.949982
 30
0.0
 11
2.352955
 21
132.949982
 31
0.0
  0
ARC
  5
61A
330
1F
100
AcDbEntity
  8
0
 62
     7
100
AcDbCircle
 10
2.352955
 20
131.699982
 30
0.0
 40
1.25
100
AcDbArc
 50
269.999997
 51
90.000003
  0
CIRCLE
  5
61B
330
1F
100
AcDbEntity
  8
0
 62
     7
100
AcDbCircle
 10
14.252953
 20
131.699982
 30
0.0
 40
1.25
  0
ARC
  5
61C
330
1F
100
AcDbEntity
  8
0
 62
     7
100
AcDbCircle
 10
11.512032
 20
137.549988
 30
0.0
 40
0.5
100
AcDbArc
 50
90.000003
 51
221.230582
  0
ARC
  5
61D
330
1F
100
AcDbEntity
  8
0
 62
     7
100
AcDbCircle
 10
4.893875
 20
137.549988
 30
0.0
 40
0.5
100
AcDbArc
 50
318.769437
 51
90.000003
  0
LINE
  5
61E
330
1F
100
AcDbEntity
  8
0
 62
     7
100
AcDbLine
 10
4.102955
 20
140.049988
 30
0.0
 11
4.102955
 21
139.050018
 31
0.0
  0
ARC
  5
61F
330
1F
100
AcDbEntity
  8
0
 62
     7
100
AcDbCircle
 10
2.402954
 20
139.549988
 30
0.0
 40
1.5
100
AcDbArc
 50
340.529081
 51
360.0
  0
LINE
  5
620
330
1F
100
AcDbEntity
  8
0
 62
     7
100
AcDbLine
 10
3.402954
 20
140.049988
 30
0.0
 11
3.402954
 21
140.150024
 31
0.0
  0
ARC
  5
621
330
1F
100
AcDbEntity
  8
0
 62
     7
100
AcDbCircle
 10
2.402954
 20
140.049988
 30
0.0
 40
1.0
100
AcDbArc
 50
269.999997
 51
360.0
  0
LINE
  5
622
330
1F
100
AcDbEntity
  8
0
 62
     7
100
AcDbLine
 10
3.902954
 20
140.150024
 30
0.0
 11
3.902954
 21
139.549988
 31
0.0
  0
LINE
  5
623
330
1F
100
AcDbEntity
  8
0
 62
     7
100
AcDbLine
 10
4.928814
 20
116.849991
 30
0.0
 11
5.15173
 21
116.849991
 31
0.0
  0
LINE
  5
624
330
1F
100
AcDbEntity
  8
0
 62
     7
100
AcDbLine
 10
11.254169
 20
116.849991
 30
0.0
 11
11.477097
 21
116.849991
 31
0.0
  0
LINE
  5
625
330
1F
100
AcDbEntity
  8
0
 62
     7
100
AcDbLine
 10
12.302956
 20
140.149994
 30
0.0
 11
12.302956
 21
140.049957
 31
0.0
  0
LINE
  5
626
330
1F
100
AcDbEntity
  8
0
 62
     7
100
AcDbLine
 10
12.502953
 20
140.150024
 30
0.0
 11
12.502953
 21
139.549988
 31
0.0
  0
ARC
  5
627
330
1F
100
AcDbEntity
  8
0
 62
     7
100
AcDbCircle
 10
14.002953
 20
139.549988
 30
0.0
 40
1.5
100
AcDbArc
 50
180.000009
 51
199.470938
  0
ARC
  5
628
330
1F
100
AcDbEntity
  8
0
 62
     7
100
AcDbCircle
 10
14.002953
 20
140.049988
 30
0.0
 40
1.0
100
AcDbArc
 50
180.000009
 51
269.999997
  0
LINE
  5
629
330
1F
100
AcDbEntity
  8
0
 62
     7
100
AcDbLine
 10
13.002953
 20
140.049988
 30
0.0
 11
13.002953
 21
140.150024
 31
0.0
  0
ARC
  5
62A
330
1F
100
AcDbEntity
  8
0
 62
     7
100
AcDbCircle
 10
8.202953
 20
134.649994
 30
0.0
 40
3.900000095367432
100
AcDbArc
 50
138.769418
 51
41.230577
  0
LINE
  5
62B
330
1F
100
AcDbEntity
  8
0
 62
     7
100
AcDbLine
 10
12.302956
 20
139.050018
 30
0.0
 11
12.302956
 21
140.049988
 31
0.0
  0
LINE
  5
62C
330
1F
100
AcDbEntity
  8
0
 62
     7
100
AcDbLine
 10
4.102955
 20
140.049988
 30
0.0
 11
4.102955
 21
140.150085
 31
0.0
  0
ARC
  5
62D
330
1F
100
AcDbEntity
  8
0
 62
     7
100
AcDbCircle
 10
11.802956
 20
140.049988
 30
0.0
 40
0.5
100
AcDbArc
 50
0.0
 51
11.538233
  0
ARC
  5
62E
330
1F
100
AcDbEntity
  8
0
 62
     7
100
AcDbCircle
 10
8.202953
 20
134.649994
 30
0.0
 40
3.75
100
AcDbArc
 50
80.018316
 51
99.981682
  0
ARC
  5
62F
330
1F
100
AcDbEntity
  8
0
 62
     7
100
AcDbCircle
 10
8.202953
 20
134.649994
 30
0.0
 40
3.75
100
AcDbArc
 50
279.981697
 51
80.018316
  0
ARC
  5
630
330
1F
100
AcDbEntity
  8
0
 62
     7
100
AcDbCircle
 10
8.202953
 20
134.649994
 30
0.0
 40
3.75
100
AcDbArc
 50
260.018304
 51
279.981697
  0
ARC
  5
631
330
1F
100
AcDbEntity
  8
0
 62
     7
100
AcDbCircle
 10
8.202953
 20
134.649994
 30
0.0
 40
3.75
100
AcDbArc
 50
99.981682
 51
260.018304
  0
LINE
  5
632
330
1F
100
AcDbEntity
  8
0
 62
     7
100
AcDbLine
 10
8.852955
 20
138.139984
 30
0.0
 11
8.852955
 21
138.343231
 31
0.0
  0
LINE
  5
633
330
1F
100
AcDbEntity
  8
0
 62
     7
100
AcDbLine
 10
8.852955
 20
131.160004
 30
0.0
 11
8.852955
 21
130.956757
 31
0.0
  0
LINE
  5
634
330
1F
100
AcDbEntity
  8
0
 62
     7
100
AcDbLine
 10
8.852955
 20
138.139984
 30
0.0
 11
8.852955
 21
131.160004
 31
0.0
  0
ARC
  5
635
330
1F
100
AcDbEntity
  8
0
 62
     7
100
AcDbCircle
 10
8.202953
 20
134.649994
 30
0.0
 40
3.549999952316284
100
AcDbArc
 50
280.55029
 51
79.449696
  0
LINE
  5
636
330
1F
100
AcDbEntity
  8
0
 62
     7
100
AcDbLine
 10
7.552956
 20
131.160004
 30
0.0
 11
7.552956
 21
130.956757
 31
0.0
  0
LINE
  5
637
330
1F
100
AcDbEntity
  8
0
 62
     7
100
AcDbLine
 10
7.552956
 20
138.139984
 30
0.0
 11
7.552956
 21
138.343231
 31
0.0
  0
LINE
  5
638
330
1F
100
AcDbEntity
  8
0
 62
     7
100
AcDbLine
 10
7.552956
 20
131.160004
 30
0.0
 11
7.552956
 21
138.139984
 31
0.0
  0
ARC
  5
639
330
1F
100
AcDbEntity
  8
0
 62
     7
100
AcDbCircle
 10
8.202953
 20
134.649994
 30
0.0
 40
3.549999952316284
100
AcDbArc
 50
100.550302
 51
259.449705
  0
CIRCLE
  5
63A
330
1F
100
AcDbEntity
  8
0
 62
     7
100
AcDbCircle
 10
8.202953
 20
123.149994
 30
0.0
 40
7.0
  0
CIRCLE
  5
63B
330
1F
100
AcDbEntity
  8
0
 62
     7
100
AcDbCircle
 10
8.202953
 20
123.149994
 30
0.0
 40
6.900000095367432
  0
LINE
  5
63C
330
1F
100
AcDbEntity
  8
0
 62
     7
100
AcDbLine
 10
10.570091
 20
119.249992
 30
0.0
 11
12.764023
 21
123.049988
 31
0.0
  0
ARC
  5
63D
330
1F
100
AcDbEntity
  8
0
 62
     7
100
AcDbCircle
 10
10.396885
 20
119.349991
 30
0.0
 40
0.2000000029802322
100
AcDbArc
 50
269.999997
 51
329.999989
  0
LINE
  5
63E
330
1F
100
AcDbEntity
  8
0
 62
     7
100
AcDbLine
 10
6.009027
 20
119.149994
 30
0.0
 11
10.396885
 21
119.149994
 31
0.0
  0
ARC
  5
63F
330
1F
100
AcDbEntity
  8
0
 62
     7
100
AcDbCircle
 10
6.009027
 20
119.349991
 30
0.0
 40
0.2000000029802322
100
AcDbArc
 50
210.000003
 51
269.999997
  0
LINE
  5
640
330
1F
100
AcDbEntity
  8
0
 62
     7
100
AcDbLine
 10
3.641888
 20
123.049988
 30
0.0
 11
5.83582
 21
119.249992
 31
0.0
  0
ARC
  5
641
330
1F
100
AcDbEntity
  8
0
 62
     7
100
AcDbCircle
 10
3.815094
 20
123.149994
 30
0.0
 40
0.2000000029802322
100
AcDbArc
 50
149.999997
 51
210.000003
  0
LINE
  5
642
330
1F
100
AcDbEntity
  8
0
 62
     7
100
AcDbLine
 10
5.83582
 20
127.049988
 30
0.0
 11
3.641888
 21
123.249992
 31
0.0
  0
ARC
  5
643
330
1F
100
AcDbEntity
  8
0
 62
     7
100
AcDbCircle
 10
6.009027
 20
126.949989
 30
0.0
 40
0.2000000029802322
100
AcDbArc
 50
90.000003
 51
149.999997
  0
LINE
  5
644
330
1F
100
AcDbEntity
  8
0
 62
     7
100
AcDbLine
 10
10.396885
 20
127.149994
 30
0.0
 11
6.009027
 21
127.149994
 31
0.0
  0
ARC
  5
645
330
1F
100
AcDbEntity
  8
0
 62
     7
100
AcDbCircle
 10
10.396885
 20
126.949989
 30
0.0
 40
0.2000000029802322
100
AcDbArc
 50
30.000001
 51
90.000003
  0
LINE
  5
646
330
1F
100
AcDbEntity
  8
0
 62
     7
100
AcDbLine
 10
12.764023
 20
123.249992
 30
0.0
 11
10.570091
 21
127.049988
 31
0.0
  0
ARC
  5
647
330
1F
100
AcDbEntity
  8
0
 62
     7
100
AcDbCircle
 10
12.590816
 20
123.149994
 30
0.0
 40
0.2000000029802322
100
AcDbArc
 50
329.999989
 51
30.000001
  0
ARC
  5
648
330
1F
100
AcDbEntity
  8
0
 62
     7
100
AcDbCircle
 10
8.202953
 20
120.494179
 30
0.0
 40
0.2000000029802322
100
AcDbArc
 50
240.00001
 51
299.999992
  0
LINE
  5
649
330
1F
100
AcDbEntity
  8
0
 62
     7
100
AcDbLine
 10
5.802956
 20
121.64888
 30
0.0
 11
8.102955
 21
120.320976
 31
0.0
  0
ARC
  5
64A
330
1F
100
AcDbEntity
  8
0
 62
     7
100
AcDbCircle
 10
5.902954
 20
121.822083
 30
0.0
 40
0.2000000029802322
100
AcDbArc
 50
179.999991
 51
240.00001
  0
LINE
  5
64B
330
1F
100
AcDbEntity
  8
0
 62
     7
100
AcDbLine
 10
5.702954
 20
124.477898
 30
0.0
 11
5.702954
 21
121.822083
 31
0.0
  0
ARC
  5
64C
330
1F
100
AcDbEntity
  8
0
 62
     7
100
AcDbCircle
 10
5.902954
 20
124.477898
 30
0.0
 40
0.2000000029802322
100
AcDbArc
 50
120.000003
 51
179.999991
  0
LINE
  5
64D
330
1F
100
AcDbEntity
  8
0
 62
     7
100
AcDbLine
 10
8.102955
 20
125.979004
 30
0.0
 11
5.802956
 21
124.6511
 31
0.0
  0
ARC
  5
64E
330
1F
100
AcDbEntity
  8
0
 62
     7
100
AcDbCircle
 10
8.202953
 20
125.805801
 30
0.0
 40
0.2000000029802322
100
AcDbArc
 50
60.000002
 51
120.000003
  0
LINE
  5
64F
330
1F
100
AcDbEntity
  8
0
 62
     7
100
AcDbLine
 10
10.602955
 20
124.6511
 30
0.0
 11
8.302956
 21
125.979004
 31
0.0
  0
ARC
  5
650
330
1F
100
AcDbEntity
  8
0
 62
     7
100
AcDbCircle
 10
10.502953
 20
124.477898
 30
0.0
 40
0.2000000029802322
100
AcDbArc
 50
0.0
 51
60.000002
  0
LINE
  5
651
330
1F
100
AcDbEntity
  8
0
 62
     7
100
AcDbLine
 10
10.702953
 20
121.822083
 30
0.0
 11
10.702953
 21
124.477898
 31
0.0
  0
ARC
  5
652
330
1F
100
AcDbEntity
  8
0
 62
     7
100
AcDbCircle
 10
10.502953
 20
121.822083
 30
0.0
 40
0.2000000029802322
100
AcDbArc
 50
299.999992
 51
360.0
  0
LINE
  5
653
330
1F
100
AcDbEntity
  8
0
 62
     7
100
AcDbLine
 10
8.302956
 20
120.320976
 30
0.0
 11
10.602955
 21
121.64888
 31
0.0
  0
LINE
  5
654
330
1F
100
AcDbEntity
  8
0
 62
     7
100
AcDbLine
 10
11.602955
 20
113.949974
 30
0.0
 11
11.602955
 21
48.149994
 31
0.0
  0
LINE
  5
655
330
1F
100
AcDbEntity
  8
0
 62
     7
100
AcDbLine
 10
4.802956
 20
113.949974
 30
0.0
 11
4.802956
 21
48.149994
 31
0.0
  0
LINE
  5
656
330
1F
100
AcDbEntity
  8
0
 62
     7
100
AcDbLine
 10
11.602955
 20
48.149994
 30
0.0
 11
11.602955
 21
38.149994
 31
0.0
  0
LINE
  5
657
330
1F
100
AcDbEntity
  8
0
 62
     7
100
AcDbLine
 10
4.802956
 20
48.149994
 30
0.0
 11
4.802956
 21
38.149994
 31
0.0
  0
LINE
  5
658
330
1F
100
AcDbEntity
  8
0
 62
     7
100
AcDbLine
 10
11.602955
 20
38.149994
 30
0.0
 11
4.802956
 21
38.149994
 31
0.0
  0
LINE
  5
659
330
1F
100
AcDbEntity
  8
0
 62
     7
100
AcDbLine
 10
16.802933
 20
137.554871
 30
0.0
 11
16.802956
 21
137.549988
 31
0.0
  0
LINE
  5
65A
330
1F
100
AcDbEntity
  8
0
 62
     7
100
AcDbLine
 10
16.801868
 20
137.582916
 30
0.0
 11
16.802956
 21
137.549988
 31
0.0
  0
LINE
  5
65B
330
1F
100
AcDbEntity
  8
0
 62
     7
100
AcDbLine
 10
16.802299
 20
137.575623
 30
0.0
 11
16.802956
 21
137.549988
 31
0.0
  0
POLYLINE
  5
65C
330
1F
100
AcDbEntity
  8
0
 62
     7
100
AcDb2dPolyline
 66
     1
 10
0.0
 20
0.0
 30
0.0
  0
VERTEX
  5
65D
330
65C
100
AcDbEntity
  8
0
100
AcDbVertex
100
AcDb2dVertex
 10
139.215729
 20
43.961952
 30
0.0
  0
VERTEX
  5
65E
330
65C
100
AcDbEntity
  8
0
100
AcDbVertex
100
AcDb2dVertex
 10
138.755722
 20
44.52647
 30
0.0
  0
VERTEX
  5
65F
330
65C
100
AcDbEntity
  8
0
100
AcDbVertex
100
AcDb2dVertex
 10
138.065735
 20
44.768406
 30
0.0
  0
VERTEX
  5
660
330
65C
100
AcDbEntity
  8
0
100
AcDbVertex
100
AcDb2dVertex
 10
137.375732
 20
44.768406
 30
0.0
  0
VERTEX
  5
661
330
65C
100
AcDbEntity
  8
0
100
AcDbVertex
100
AcDb2dVertex
 10
136.68573
 20
44.52647
 30
0.0
  0
VERTEX
  5
662
330
65C
100
AcDbEntity
  8
0
100
AcDbVertex
100
AcDb2dVertex
 10
136.225723
 20
43.88131
 30
0.0
  0
VERTEX
  5
663
330
65C
100
AcDbEntity
  8
0
100
AcDbVertex
100
AcDb2dVertex
 10
136.225723
 20
43.316792
 30
0.0
  0
VERTEX
  5
664
330
65C
100
AcDbEntity
  8
0
100
AcDbVertex
100
AcDb2dVertex
 10
136.628235
 20
42.752277
 30
0.0
  0
SEQEND
  5
665
330
65C
100
AcDbEntity
  8
0
 62
     7
  0
POLYLINE
  5
666
330
1F
100
AcDbEntity
  8
0
 62
     7
100
AcDb2dPolyline
 66
     1
 10
0.0
 20
0.0
 30
0.0
  0
VERTEX
  5
667
330
666
100
AcDbEntity
  8
0
100
AcDbVertex
100
AcDb2dVertex
 10
137.720734
 20
42.349052
 30
0.0
  0
VERTEX
  5
668
330
666
100
AcDbEntity
  8
0
100
AcDbVertex
100
AcDb2dVertex
 10
138.23822
 20
42.187759
 30
0.0
  0
SEQEND
  5
669
330
666
100
AcDbEntity
  8
0
 62
     7
  0
POLYLINE
  5
66A
330
1F
100
AcDbEntity
  8
0
 62
     7
100
AcDb2dPolyline
 66
     1
 10
0.0
 20
0.0
 30
0.0
  0
VERTEX
  5
66B
330
66A
100
AcDbEntity
  8
0
100
AcDbVertex
100
AcDb2dVertex
 10
138.755722
 20
39.929695
 30
0.0
  0
VERTEX
  5
66C
330
66A
100
AcDbEntity
  8
0
100
AcDbVertex
100
AcDb2dVertex
 10
138.065735
 20
39.768406
 30
0.0
  0
VERTEX
  5
66D
330
66A
100
AcDbEntity
  8
0
100
AcDbVertex
100
AcDb2dVertex
 10
137.375732
 20
39.768406
 30
0.0
  0
VERTEX
  5
66E
330
66A
100
AcDbEntity
  8
0
100
AcDbVertex
100
AcDb2dVertex
 10
136.68573
 20
40.090988
 30
0.0
  0
VERTEX
  5
66F
330
66A
100
AcDbEntity
  8
0
100
AcDbVertex
100
AcDb2dVertex
 10
136.225723
 20
40.655502
 30
0.0
  0
SEQEND
  5
670
330
66A
100
AcDbEntity
  8
0
 62
     7
  0
POLYLINE
  5
671
330
1F
100
AcDbEntity
  8
0
 62
     7
100
AcDb2dPolyline
 66
     1
 10
0.0
 20
0.0
 30
0.0
  0
VERTEX
  5
672
330
671
100
AcDbEntity
  8
0
100
AcDbVertex
100
AcDb2dVertex
 10
137.260727
 20
42.429695
 30
0.0
  0
VERTEX
  5
673
330
671
100
AcDbEntity
  8
0
100
AcDbVertex
100
AcDb2dVertex
 10
137.720734
 20
42.349052
 30
0.0
  0
SEQEND
  5
674
330
671
100
AcDbEntity
  8
0
 62
     7
  0
POLYLINE
  5
675
330
1F
100
AcDbEntity
  8
0
 62
     7
100
AcDb2dPolyline
 66
     1
 10
0.0
 20
0.0
 30
0.0
  0
VERTEX
  5
676
330
675
100
AcDbEntity
  8
0
100
AcDbVertex
100
AcDb2dVertex
 10
136.628235
 20
42.752277
 30
0.0
  0
VERTEX
  5
677
330
675
100
AcDbEntity
  8
0
100
AcDbVertex
100
AcDb2dVertex
 10
137.260727
 20
42.429695
 30
0.0
  0
SEQEND
  5
678
330
675
100
AcDbEntity
  8
0
 62
     7
  0
POLYLINE
  5
679
330
1F
100
AcDbEntity
  8
0
 62
     7
100
AcDb2dPolyline
 66
     1
 10
0.0
 20
0.0
 30
0.0
  0
VERTEX
  5
67A
330
679
100
AcDbEntity
  8
0
100
AcDbVertex
100
AcDb2dVertex
 10
139.215729
 20
40.574856
 30
0.0
  0
VERTEX
  5
67B
330
679
100
AcDbEntity
  8
0
100
AcDbVertex
100
AcDb2dVertex
 10
138.755722
 20
39.929695
 30
0.0
  0
SEQEND
  5
67C
330
679
100
AcDbEntity
  8
0
 62
     7
  0
POLYLINE
  5
67D
330
1F
100
AcDbEntity
  8
0
 62
     7
100
AcDb2dPolyline
 66
     1
 10
0.0
 20
0.0
 30
0.0
  0
VERTEX
  5
67E
330
67D
100
AcDbEntity
  8
0
100
AcDbVertex
100
AcDb2dVertex
 10
139.215729
 20
41.300663
 30
0.0
  0
VERTEX
  5
67F
330
67D
100
AcDbEntity
  8
0
100
AcDbVertex
100
AcDb2dVertex
 10
139.215729
 20
40.574856
 30
0.0
  0
SEQEND
  5
680
330
67D
100
AcDbEntity
  8
0
 62
     7
  0
POLYLINE
  5
681
330
1F
100
AcDbEntity
  8
0
 62
     7
100
AcDb2dPolyline
 66
     1
 10
0.0
 20
0.0
 30
0.0
  0
VERTEX
  5
682
330
681
100
AcDbEntity
  8
0
100
AcDbVertex
100
AcDb2dVertex
 10
138.23822
 20
42.187759
 30
0.0
  0
VERTEX
  5
683
330
681
100
AcDbEntity
  8
0
100
AcDbVertex
100
AcDb2dVertex
 10
138.755722
 20
41.865181
 30
0.0
  0
VERTEX
  5
684
330
681
100
AcDbEntity
  8
0
100
AcDbVertex
100
AcDb2dVertex
 10
139.215729
 20
41.300663
 30
0.0
  0
SEQEND
  5
685
330
681
100
AcDbEntity
  8
0
 62
     7
  0
POLYLINE
  5
686
330
1F
100
AcDbEntity
  8
0
 62
     7
100
AcDb2dPolyline
 66
     1
 10
0.0
 20
0.0
 30
0.0
  0
VERTEX
  5
687
330
686
100
AcDbEntity
  8
0
100
AcDbVertex
100
AcDb2dVertex
 10
142.130722
 20
44.768406
 30
0.0
  0
VERTEX
  5
688
330
686
100
AcDbEntity
  8
0
100
AcDbVertex
100
AcDb2dVertex
 10
140.17572
 20
44.768406
 30
0.0
  0
SEQEND
  5
689
330
686
100
AcDbEntity
  8
0
 62
     7
  0
POLYLINE
  5
68A
330
1F
100
AcDbEntity
  8
0
 62
     7
100
AcDb2dPolyline
 66
     1
 10
0.0
 20
0.0
 30
0.0
  0
VERTEX
  5
68B
330
68A
100
AcDbEntity
  8
0
100
AcDbVertex
100
AcDb2dVertex
 10
140.17572
 20
42.349052
 30
0.0
  0
VERTEX
  5
68C
330
68A
100
AcDbEntity
  8
0
100
AcDbVertex
100
AcDb2dVertex
 10
142.245728
 20
42.349052
 30
0.0
  0
SEQEND
  5
68D
330
68A
100
AcDbEntity
  8
0
 62
     7
  0
POLYLINE
  5
68E
330
1F
100
AcDbEntity
  8
0
 62
     7
100
AcDb2dPolyline
 66
     1
 10
0.0
 20
0.0
 30
0.0
  0
VERTEX
  5
68F
330
68E
100
AcDbEntity
  8
0
100
AcDbVertex
100
AcDb2dVertex
 10
140.17572
 20
44.768406
 30
0.0
  0
VERTEX
  5
690
330
68E
100
AcDbEntity
  8
0
100
AcDbVertex
100
AcDb2dVertex
 10
140.17572
 20
39.768406
 30
0.0
  0
SEQEND
  5
691
330
68E
100
AcDbEntity
  8
0
 62
     7
  0
POLYLINE
  5
692
330
1F
100
AcDbEntity
  8
0
 62
     7
100
AcDb2dPolyline
 66
     1
 10
0.0
 20
0.0
 30
0.0
  0
VERTEX
  5
693
330
692
100
AcDbEntity
  8
0
100
AcDbVertex
100
AcDb2dVertex
 10
142.130722
 20
44.768406
 30
0.0
  0
VERTEX
  5
694
330
692
100
AcDbEntity
  8
0
100
AcDbVertex
100
AcDb2dVertex
 10
142.533234
 20
44.52647
 30
0.0
  0
VERTEX
  5
695
330
692
100
AcDbEntity
  8
0
100
AcDbVertex
100
AcDb2dVertex
 10
142.93573
 20
43.961952
 30
0.0
  0
VERTEX
  5
696
330
692
100
AcDbEntity
  8
0
100
AcDbVertex
100
AcDb2dVertex
 10
142.93573
 20
43.155502
 30
0.0
  0
VERTEX
  5
697
330
692
100
AcDbEntity
  8
0
100
AcDbVertex
100
AcDb2dVertex
 10
142.648224
 20
42.671631
 30
0.0
  0
VERTEX
  5
698
330
692
100
AcDbEntity
  8
0
100
AcDbVertex
100
AcDb2dVertex
 10
142.245728
 20
42.349052
 30
0.0
  0
SEQEND
  5
699
330
692
100
AcDbEntity
  8
0
 62
     7
  0
POLYLINE
  5
69A
330
1F
100
AcDbEntity
  8
0
 62
     7
100
AcDb2dPolyline
 66
     1
 10
0.0
 20
0.0
 30
0.0
  0
VERTEX
  5
69B
330
69A
100
AcDbEntity
  8
0
100
AcDbVertex
100
AcDb2dVertex
 10
141.785721
 20
42.349052
 30
0.0
  0
VERTEX
  5
69C
330
69A
100
AcDbEntity
  8
0
100
AcDbVertex
100
AcDb2dVertex
 10
142.93573
 20
39.768406
 30
0.0
  0
SEQEND
  5
69D
330
69A
100
AcDbEntity
  8
0
 62
     7
  0
POLYLINE
  5
69E
330
1F
100
AcDbEntity
  8
0
 62
     7
100
AcDb2dPolyline
 66
     1
 10
0.0
 20
0.0
 30
0.0
  0
VERTEX
  5
69F
330
69E
100
AcDbEntity
  8
0
100
AcDbVertex
100
AcDb2dVertex
 10
147.000732
 20
39.768406
 30
0.0
  0
VERTEX
  5
6A0
330
69E
100
AcDbEntity
  8
0
100
AcDbVertex
100
AcDb2dVertex
 10
144.240723
 20
39.768406
 30
0.0
  0
VERTEX
  5
6A1
330
69E
100
AcDbEntity
  8
0
100
AcDbVertex
100
AcDb2dVertex
 10
146.195724
 20
42.02647
 30
0.0
  0
VERTEX
  5
6A2
330
69E
100
AcDbEntity
  8
0
100
AcDbVertex
100
AcDb2dVertex
 10
146.598221
 20
42.671631
 30
0.0
  0
VERTEX
  5
6A3
330
69E
100
AcDbEntity
  8
0
100
AcDbVertex
100
AcDb2dVertex
 10
146.770721
 20
43.155502
 30
0.0
  0
VERTEX
  5
6A4
330
69E
100
AcDbEntity
  8
0
100
AcDbVertex
100
AcDb2dVertex
 10
146.770721
 20
43.639374
 30
0.0
  0
VERTEX
  5
6A5
330
69E
100
AcDbEntity
  8
0
100
AcDbVertex
100
AcDb2dVertex
 10
146.598221
 20
44.203888
 30
0.0
  0
VERTEX
  5
6A6
330
69E
100
AcDbEntity
  8
0
100
AcDbVertex
100
AcDb2dVertex
 10
146.42572
 20
44.52647
 30
0.0
  0
VERTEX
  5
6A7
330
69E
100
AcDbEntity
  8
0
100
AcDbVertex
100
AcDb2dVertex
 10
146.023224
 20
44.768406
 30
0.0
  0
VERTEX
  5
6A8
330
69E
100
AcDbEntity
  8
0
100
AcDbVertex
100
AcDb2dVertex
 10
145.333221
 20
44.768406
 30
0.0
  0
VERTEX
  5
6A9
330
69E
100
AcDbEntity
  8
0
100
AcDbVertex
100
AcDb2dVertex
 10
144.930725
 20
44.52647
 30
0.0
  0
VERTEX
  5
6AA
330
69E
100
AcDbEntity
  8
0
100
AcDbVertex
100
AcDb2dVertex
 10
144.758224
 20
44.284534
 30
0.0
  0
VERTEX
  5
6AB
330
69E
100
AcDbEntity
  8
0
100
AcDbVertex
100
AcDb2dVertex
 10
144.528229
 20
43.800663
 30
0.0
  0
VERTEX
  5
6AC
330
69E
100
AcDbEntity
  8
0
100
AcDbVertex
100
AcDb2dVertex
 10
144.528229
 20
43.558727
 30
0.0
  0
SEQEND
  5
6AD
330
69E
100
AcDbEntity
  8
0
 62
     7
  0
POLYLINE
  5
6AE
330
1F
100
AcDbEntity
  8
0
 62
     7
100
AcDb2dPolyline
 66
     1
 10
0.0
 20
0.0
 30
0.0
  0
VERTEX
  5
6AF
330
6AE
100
AcDbEntity
  8
0
100
AcDbVertex
100
AcDb2dVertex
 10
150.835724
 20
41.542599
 30
0.0
  0
VERTEX
  5
6B0
330
6AE
100
AcDbEntity
  8
0
100
AcDbVertex
100
AcDb2dVertex
 10
148.190735
 20
41.542599
 30
0.0
  0
VERTEX
  5
6B1
330
6AE
100
AcDbEntity
  8
0
100
AcDbVertex
100
AcDb2dVertex
 10
150.145721
 20
44.768406
 30
0.0
  0
VERTEX
  5
6B2
330
6AE
100
AcDbEntity
  8
0
100
AcDbVertex
100
AcDb2dVertex
 10
150.145721
 20
42.349052
 30
0.0
  0
VERTEX
  5
6B3
330
6AE
100
AcDbEntity
  8
0
100
AcDbVertex
100
AcDb2dVertex
 10
150.145721
 20
39.768406
 30
0.0
  0
SEQEND
  5
6B4
330
6AE
100
AcDbEntity
  8
0
 62
     7
  0
POLYLINE
  5
6B5
330
1F
100
AcDbEntity
  8
0
 62
     7
100
AcDb2dPolyline
 66
     1
 10
0.0
 20
0.0
 30
0.0
  0
VERTEX
  5
6B6
330
6B5
100
AcDbEntity
  8
0
100
AcDbVertex
100
AcDb2dVertex
 10
152.313232
 20
41.784534
 30
0.0
  0
VERTEX
  5
6B7
330
6B5
100
AcDbEntity
  8
0
100
AcDbVertex
100
AcDb2dVertex
 10
154.958221
 20
41.784534
 30
0.0
  0
SEQEND
  5
6B8
330
6B5
100
AcDbEntity
  8
0
 62
     7
  0
POLYLINE
  5
6B9
330
1F
100
AcDbEntity
  8
0
 62
     7
100
AcDb2dPolyline
 66
     1
 10
0.0
 20
0.0
 30
0.0
 70
     1
  0
VERTEX
  5
6BA
330
6B9
100
AcDbEntity
  8
0
100
AcDbVertex
100
AcDb2dVertex
 10
157.240723
 20
44.768406
 30
0.0
  0
VERTEX
  5
6BB
330
6B9
100
AcDbEntity
  8
0
100
AcDbVertex
100
AcDb2dVertex
 10
156.608231
 20
44.52647
 30
0.0
  0
VERTEX
  5
6BC
330
6B9
100
AcDbEntity
  8
0
100
AcDbVertex
100
AcDb2dVertex
 10
156.205719
 20
43.72002
 30
0.0
  0
VERTEX
  5
6BD
330
6B9
100
AcDbEntity
  8
0
100
AcDbVertex
100
AcDb2dVertex
 10
156.033234
 20
42.913567
 30
0.0
  0
VERTEX
  5
6BE
330
6B9
100
AcDbEntity
  8
0
100
AcDbVertex
100
AcDb2dVertex
 10
156.033234
 20
41.865181
 30
0.0
  0
VERTEX
  5
6BF
330
6B9
100
AcDbEntity
  8
0
100
AcDbVertex
100
AcDb2dVertex
 10
156.205719
 20
40.816792
 30
0.0
  0
VERTEX
  5
6C0
330
6B9
100
AcDbEntity
  8
0
100
AcDbVertex
100
AcDb2dVertex
 10
156.608231
 20
40.010342
 30
0.0
  0
VERTEX
  5
6C1
330
6B9
100
AcDbEntity
  8
0
100
AcDbVertex
100
AcDb2dVertex
 10
157.240723
 20
39.768406
 30
0.0
  0
VERTEX
  5
6C2
330
6B9
100
AcDbEntity
  8
0
100
AcDbVertex
100
AcDb2dVertex
 10
157.700729
 20
39.768406
 30
0.0
  0
VERTEX
  5
6C3
330
6B9
100
AcDbEntity
  8
0
100
AcDbVertex
100
AcDb2dVertex
 10
158.333221
 20
40.010342
 30
0.0
  0
VERTEX
  5
6C4
330
6B9
100
AcDbEntity
  8
0
100
AcDbVertex
100
AcDb2dVertex
 10
158.735718
 20
40.816792
 30
0.0
  0
VERTEX
  5
6C5
330
6B9
100
AcDbEntity
  8
0
100
AcDbVertex
100
AcDb2dVertex
 10
158.908234
 20
41.784534
 30
0.0
  0
VERTEX
  5
6C6
330
6B9
100
AcDbEntity
  8
0
100
AcDbVertex
100
AcDb2dVertex
 10
158.908234
 20
42.913567
 30
0.0
  0
VERTEX
  5
6C7
330
6B9
100
AcDbEntity
  8
0
100
AcDbVertex
100
AcDb2dVertex
 10
158.735718
 20
43.72002
 30
0.0
  0
VERTEX
  5
6C8
330
6B9
100
AcDbEntity
  8
0
100
AcDbVertex
100
AcDb2dVertex
 10
158.333221
 20
44.52647
 30
0.0
  0
VERTEX
  5
6C9
330
6B9
100
AcDbEntity
  8
0
100
AcDbVertex
100
AcDb2dVertex
 10
157.700729
 20
44.768406
 30
0.0
  0
SEQEND
  5
6CA
330
6B9
100
AcDbEntity
  8
0
 62
     7
  0
POLYLINE
  5
6CB
330
1F
100
AcDbEntity
  8
0
 62
     7
100
AcDb2dPolyline
 66
     1
 10
0.0
 20
0.0
 30
0.0
 70
     1
  0
VERTEX
  5
6CC
330
6CB
100
AcDbEntity
  8
0
100
AcDbVertex
100
AcDb2dVertex
 10
161.190735
 20
44.768406
 30
0.0
  0
VERTEX
  5
6CD
330
6CB
100
AcDbEntity
  8
0
100
AcDbVertex
100
AcDb2dVertex
 10
160.558228
 20
44.52647
 30
0.0
  0
VERTEX
  5
6CE
330
6CB
100
AcDbEntity
  8
0
100
AcDbVertex
100
AcDb2dVertex
 10
160.155731
 20
43.72002
 30
0.0
  0
VERTEX
  5
6CF
330
6CB
100
AcDbEntity
  8
0
100
AcDbVertex
100
AcDb2dVertex
 10
159.983231
 20
42.913567
 30
0.0
  0
VERTEX
  5
6D0
330
6CB
100
AcDbEntity
  8
0
100
AcDbVertex
100
AcDb2dVertex
 10
159.983231
 20
41.865181
 30
0.0
  0
VERTEX
  5
6D1
330
6CB
100
AcDbEntity
  8
0
100
AcDbVertex
100
AcDb2dVertex
 10
160.155731
 20
40.816792
 30
0.0
  0
VERTEX
  5
6D2
330
6CB
100
AcDbEntity
  8
0
100
AcDbVertex
100
AcDb2dVertex
 10
160.558228
 20
40.010342
 30
0.0
  0
VERTEX
  5
6D3
330
6CB
100
AcDbEntity
  8
0
100
AcDbVertex
100
AcDb2dVertex
 10
161.190735
 20
39.768406
 30
0.0
  0
VERTEX
  5
6D4
330
6CB
100
AcDbEntity
  8
0
100
AcDbVertex
100
AcDb2dVertex
 10
161.650726
 20
39.768406
 30
0.0
  0
VERTEX
  5
6D5
330
6CB
100
AcDbEntity
  8
0
100
AcDbVertex
100
AcDb2dVertex
 10
162.283234
 20
40.010342
 30
0.0
  0
VERTEX
  5
6D6
330
6CB
100
AcDbEntity
  8
0
100
AcDbVertex
100
AcDb2dVertex
 10
162.68573
 20
40.816792
 30
0.0
  0
VERTEX
  5
6D7
330
6CB
100
AcDbEntity
  8
0
100
AcDbVertex
100
AcDb2dVertex
 10
162.858231
 20
41.784534
 30
0.0
  0
VERTEX
  5
6D8
330
6CB
100
AcDbEntity
  8
0
100
AcDbVertex
100
AcDb2dVertex
 10
162.858231
 20
42.913567
 30
0.0
  0
VERTEX
  5
6D9
330
6CB
100
AcDbEntity
  8
0
100
AcDbVertex
100
AcDb2dVertex
 10
162.68573
 20
43.72002
 30
0.0
  0
VERTEX
  5
6DA
330
6CB
100
AcDbEntity
  8
0
100
AcDbVertex
100
AcDb2dVertex
 10
162.283234
 20
44.52647
 30
0.0
  0
VERTEX
  5
6DB
330
6CB
100
AcDbEntity
  8
0
100
AcDbVertex
100
AcDb2dVertex
 10
161.650726
 20
44.768406
 30
0.0
  0
SEQEND
  5
6DC
330
6CB
100
AcDbEntity
  8
0
 62
     7
  0
POLYLINE
  5
6DD
330
1F
100
AcDbEntity
  8
0
 62
     7
100
AcDb2dPolyline
 66
     1
 10
0.0
 20
0.0
 30
0.0
  0
VERTEX
  5
6DE
330
6DD
100
AcDbEntity
  8
0
100
AcDbVertex
100
AcDb2dVertex
 10
163.990723
 20
44.768406
 30
0.0
  0
VERTEX
  5
6DF
330
6DD
100
AcDbEntity
  8
0
100
AcDbVertex
100
AcDb2dVertex
 10
166.750732
 20
44.768406
 30
0.0
  0
VERTEX
  5
6E0
330
6DD
100
AcDbEntity
  8
0
100
AcDbVertex
100
AcDb2dVertex
 10
164.680725
 20
39.768406
 30
0.0
  0
SEQEND
  5
6E1
330
6DD
100
AcDbEntity
  8
0
 62
     7
  0
ENDSEC
  0
SECTION
  2
OBJECTS
  0
DICTIONARY
  5
C
330
0
100
AcDbDictionary
  3
ACAD_GROUP
350
D
  3
ACAD_MLINESTYLE
350
17
  3
ACAD_SCALELIST
350
47
  0
DICTIONARY
  5
D
102
{ACAD_REACTORS
330
C
102
}
330
C
100
AcDbDictionary
  0
DICTIONARY
  5
17
102
{ACAD_REACTORS
330
C
102
}
330
C
100
AcDbDictionary
  3
STANDARD
350
18
  0
DICTIONARY
  5
47
102
{ACAD_REACTORS
330
C
102
}
330
C
100
AcDbDictionary
  0
MLINESTYLE
  5
18
102
{ACAD_REACTORS
330
17
102
}
330
17
100
AcDbMlineStyle
  2
Standard
 70
     0
  3

 62
   256
 51
90.0
 52
90.0
 71
     2
 49
0.5
 62
   256
  6
BYLAYER
 49
-0.5
 62
   256
  6
BYLAYER
  0
ENDSEC
  0
EOF
