  0
SECTION
  2
HEADER
  9
$ACADVER
  1
AC1015
  9
$ACADMAINTVER
 70
     6
  9
$DWGCODEPAGE
  3
ANSI_1252
  9
$INSBASE
 10
0.0
 20
0.0
 30
0.0
  9
$EXTMIN
 10
0.0
 20
0.0
 30
0.0
  9
$EXTMAX
 10
328.001221
 20
177.125015
 30
2.0
  9
$LIMMIN
 10
0.0
 20
0.0
  9
$LIMMAX
 10
420.0
 20
297.0
  9
$ORTHOMODE
 70
     0
  9
$REGENMODE
 70
     1
  9
$FILLMODE
 70
     1
  9
$QTEXTMODE
 70
     0
  9
$MIRRTEXT
 70
     1
  9
$LTSCALE
 40
1.0
  9
$ATTMODE
 70
     1
  9
$TEXTSIZE
 40
2.5
  9
$TRACEWID
 40
1.0
  9
$TEXTSTYLE
  7
Standard
  9
$CLAYER
  8
0
  9
$CELTYPE
  6
ByLayer
  9
$CECOLOR
 62
   256
  9
$CELTSCALE
 40
1.0
  9
$DISPSILH
 70
     0
  9
$DIMSCALE
 40
1.0
  9
$DIMASZ
 40
2.5
  9
$DIMEXO
 40
0.625
  9
$DIMDLI
 40
3.75
  9
$DIMRND
 40
0.0
  9
$DIMDLE
 40
0.0
  9
$DIMEXE
 40
1.25
  9
$DIMTP
 40
0.0
  9
$DIMTM
 40
0.0
  9
$DIMTXT
 40
2.5
  9
$DIMCEN
 40
2.5
  9
$DIMTSZ
 40
0.0
  9
$DIMTOL
 70
     0
  9
$DIMLIM
 70
     0
  9
$DIMTIH
 70
     0
  9
$DIMTOH
 70
     0
  9
$DIMSE1
 70
     0
  9
$DIMSE2
 70
     0
  9
$DIMTAD
 70
     1
  9
$DIMZIN
 70
     8
  9
$DIMBLK
  1

  9
$DIMASO
 70
     1
  9
$DIMSHO
 70
     1
  9
$DIMPOST
  1

  9
$DIMAPOST
  1

  9
$DIMALT
 70
     0
  9
$DIMALTD
 70
     3
  9
$DIMALTF
 40
0.03937
  9
$DIMLFAC
 40
1.0
  9
$DIMTOFL
 70
     1
  9
$DIMTVP
 40
0.0
  9
$DIMTIX
 70
     0
  9
$DIMSOXD
 70
     0
  9
$DIMSAH
 70
     0
  9
$DIMBLK1
  1

  9
$DIMBLK2
  1

  9
$DIMSTYLE
  2
Standard
  9
$DIMCLRD
 70
     0
  9
$DIMCLRE
 70
     0
  9
$DIMCLRT
 70
     0
  9
$DIMTFAC
 40
1.0
  9
$DIMGAP
 40
0.625
  9
$DIMJUST
 70
     0
  9
$DIMSD1
 70
     0
  9
$DIMSD2
 70
     0
  9
$DIMTOLJ
 70
     0
  9
$DIMTZIN
 70
     8
  9
$DIMALTZ
 70
     0
  9
$DIMALTTZ
 70
     0
  9
$DIMUPT
 70
     0
  9
$DIMDEC
 70
     2
  9
$DIMTDEC
 70
     2
  9
$DIMALTU
 70
     2
  9
$DIMALTTD
 70
     3
  9
$DIMTXSTY
  7
Standard
  9
$DIMAUNIT
 70
     0
  9
$DIMADEC
 70
     0
  9
$DIMALTRND
 40
0.0
  9
$DIMAZIN
 70
     0
  9
$DIMDSEP
 70
    44
  9
$DIMATFIT
 70
     0
  9
$DIMFRAC
 70
     0
  9
$DIMLDRBLK
  1

  9
$DIMLUNIT
 70
     2
  9
$DIMLWD
 70
    -2
  9
$DIMLWE
 70
    -2
  9
$DIMTMOVE
 70
     0
  9
$LUNITS
 70
     2
  9
$LUPREC
 70
     4
  9
$SKETCHINC
 40
1.0
  9
$FILLETRAD
 40
2.5
  9
$AUNITS
 70
     0
  9
$AUPREC
 70
     0
  9
$MENU
  1
.
  9
$ELEVATION
 40
0.0
  9
$PELEVATION
 40
0.0
  9
$THICKNESS
 40
0.0
  9
$LIMCHECK
 70
     0
  9
$CHAMFERA
 40
2.5
  9
$CHAMFERB
 40
2.5
  9
$CHAMFERC
 40
0.0
  9
$CHAMFERD
 40
0.0
  9
$SKPOLY
 70
     0
  9
$TDCREATE
 40
2447893.375
  9
$TDUCREATE
 40
0.0
  9
$TDUPDATE
 40
2459564.415676377
  9
$TDUUPDATE
 40
2459564.040676377
  9
$TDINDWG
 40
0.0
  9
$TDUSRTIMER
 40
0.0
  9
$USRTIMER
 70
     1
  9
$ANGBASE
 50
0.0
  9
$ANGDIR
 70
     0
  9
$PDMODE
 70
     0
  9
$PDSIZE
 40
0.0
  9
$PLINEWID
 40
0.0
  9
$SPLFRAME
 70
     0
  9
$SPLINETYPE
 70
     6
  9
$SPLINESEGS
 70
     8
  9
$HANDSEED
  5
2E3
  9
$SURFTAB1
 70
     6
  9
$SURFTAB2
 70
     6
  9
$SURFTYPE
 70
     6
  9
$SURFU
 70
     6
  9
$SURFV
 70
     6
  9
$UCSBASE
  2

  9
$UCSNAME
  2

  9
$UCSORG
 10
0.0
 20
0.0
 30
0.0
  9
$UCSXDIR
 10
1.0
 20
0.0
 30
0.0
  9
$UCSYDIR
 10
0.0
 20
1.0
 30
0.0
  9
$UCSORTHOREF
  2

  9
$UCSORTHOVIEW
 70
     1
  9
$UCSORGTOP
 10
0.0
 20
0.0
 30
0.0
  9
$UCSORGBOTTOM
 10
0.0
 20
0.0
 30
0.0
  9
$UCSORGLEFT
 10
0.0
 20
0.0
 30
0.0
  9
$UCSORGRIGHT
 10
0.0
 20
0.0
 30
0.0
  9
$UCSORGFRONT
 10
0.0
 20
0.0
 30
0.0
  9
$UCSORGBACK
 10
0.0
 20
0.0
 30
0.0
  9
$PUCSBASE
  2

  9
$PUCSNAME
  2

  9
$PUCSORG
 10
0.0
 20
0.0
 30
0.0
  9
$PUCSXDIR
 10
1.0
 20
0.0
 30
0.0
  9
$PUCSYDIR
 10
0.0
 20
1.0
 30
0.0
  9
$PUCSORTHOREF
  2

  9
$PUCSORTHOVIEW
 70
     0
  9
$PUCSORGTOP
 10
0.0
 20
0.0
 30
0.0
  9
$PUCSORGBOTTOM
 10
0.0
 20
0.0
 30
0.0
  9
$PUCSORGLEFT
 10
0.0
 20
0.0
 30
0.0
  9
$PUCSORGRIGHT
 10
0.0
 20
0.0
 30
0.0
  9
$PUCSORGFRONT
 10
0.0
 20
0.0
 30
0.0
  9
$PUCSORGBACK
 10
0.0
 20
0.0
 30
0.0
  9
$USERI1
 70
     0
  9
$USERI2
 70
     0
  9
$USERI3
 70
     0
  9
$USERI4
 70
     0
  9
$USERI5
 70
     0
  9
$USERR1
 40
0.0
  9
$USERR2
 40
0.0
  9
$USERR3
 40
0.0
  9
$USERR4
 40
0.0
  9
$USERR5
 40
0.0
  9
$WORLDVIEW
 70
     1
  9
$SHADEDGE
 70
     3
  9
$SHADEDIF
 70
    70
  9
$TILEMODE
 70
     1
  9
$MAXACTVP
 70
    64
  9
$PINSBASE
 10
0.0
 20
0.0
 30
0.0
  9
$PLIMCHECK
 70
     0
  9
$PEXTMIN
 10
0.0
 20
0.0
 30
0.0
  9
$PEXTMAX
 10
328.001221
 20
177.125015
 30
2.0
  9
$PLIMMIN
 10
0.0
 20
0.0
  9
$PLIMMAX
 10
420.0
 20
297.0
  9
$UNITMODE
 70
     0
  9
$VISRETAIN
 70
     0
  9
$PLINEGEN
 70
     0
  9
$PSLTSCALE
 70
     1
  9
$TREEDEPTH
 70
  3020
  9
$CMLSTYLE
  2
Standard
  9
$CMLJUST
 70
     0
  9
$CMLSCALE
 40
20.0
  9
$PROXYGRAPHICS
 70
     1
  9
$MEASUREMENT
 70
     1
  9
$CELWEIGHT
370
    -1
  9
$ENDCAPS
280
     0
  9
$JOINSTYLE
280
     0
  9
$LWDISPLAY
290
     0
  9
$INSUNITS
 70
     0
  9
$HYPERLINKBASE
  1

  9
$STYLESHEET
  1

  9
$XEDIT
290
     1
  9
$CEPSNTYPE
380
     0
  9
$PSTYLEMODE
290
     0
  9
$FINGERPRINTGUID
  2
{C503B1D1-60C0-4897-94C4-44E92D859EC6}
  9
$VERSIONGUID
  2
{FAEB1C32-E019-11D5-929B-00C0DF256EC4}
  9
$EXTNAMES
290
     1
  9
$PSVPSCALE
 40
0.0
  9
$OLESTARTUP
290
     0
  0
ENDSEC
  0
SECTION
  2
CLASSES
  0
CLASS
  1
ACDBDICTIONARYWDFLT
  2
AcDbDictionaryWithDefault
  3
ObjectDBX Classes
 90
        0
280
     0
281
     0
  0
CLASS
  1
VISUALSTYLE
  2
AcDbVisualStyle
  3
ObjectDBX Classes
 90
     4095
280
     0
281
     0
  0
CLASS
  1
MATERIAL
  2
AcDbMaterial
  3
ObjectDBX Classes
 90
     1153
280
     0
281
     0
  0
CLASS
  1
SCALE
  2
AcDbScale
  3
ObjectDBX Classes
 90
     1153
280
     0
281
     0
  0
CLASS
  1
SUN
  2
AcDbSun
  3
SCENEOE
 90
     1153
280
     0
281
     0
  0
CLASS
  1
ACDBPLACEHOLDER
  2
AcDbPlaceHolder
  3
ObjectDBX Classes
 90
        0
280
     0
281
     0
  0
CLASS
  1
LAYOUT
  2
AcDbLayout
  3
ObjectDBX Classes
 90
        0
280
     0
281
     0
  0
ENDSEC
  0
SECTION
  2
TABLES
  0
TABLE
  2
VPORT
  5
8
330
0
100
AcDbSymbolTable
 70
     1
  0
VPORT
  5
29
330
8
100
AcDbSymbolTableRecord
100
AcDbViewportTableRecord
  2
*Active
 70
     0
 10
0.0
 20
0.0
 11
1.0
 21
1.0
 12
10.429907
 22
4.5
 13
0.0
 23
0.0
 14
0.5
 24
0.5
 15
0.5
 25
0.5
 16
0.0
 26
0.0
 36
1.0
 17
0.0
 27
0.0
 37
0.0
 40
9.0
 41
1.972973
 42
50.0
 43
0.0
 44
0.0
 50
0.0
 51
0.0
 71
     0
 72
   100
 73
     1
 74
     3
 75
     0
 76
     0
 77
     0
 78
     0
281
     0
 65
     1
110
0.0
120
0.0
130
0.0
111
1.0
121
0.0
131
0.0
112
0.0
122
1.0
132
0.0
 79
     0
146
0.0
  0
ENDTAB
  0
TABLE
  2
LTYPE
  5
5
330
0
100
AcDbSymbolTable
 70
     1
  0
LTYPE
  5
14
330
5
100
AcDbSymbolTableRecord
100
AcDbLinetypeTableRecord
  2
ByBlock
 70
     0
  3

 72
    65
 73
     0
 40
0.0
  0
LTYPE
  5
15
330
5
100
AcDbSymbolTableRecord
100
AcDbLinetypeTableRecord
  2
ByLayer
 70
     0
  3

 72
    65
 73
     0
 40
0.0
  0
LTYPE
  5
16
330
5
100
AcDbSymbolTableRecord
100
AcDbLinetypeTableRecord
  2
Continuous
 70
     0
  3
Solid line
 72
    65
 73
     0
 40
0.0
  0
ENDTAB
  0
TABLE
  2
LAYER
  5
2
330
0
100
AcDbSymbolTable
 70
     1
  0
LAYER
  5
10
330
2
100
AcDbSymbolTableRecord
100
AcDbLayerTableRecord
  2
0
 70
     0
 62
     7
  6
Continuous
370
    -3
390
F
  0
ENDTAB
  0
TABLE
  2
STYLE
  5
3
330
0
100
AcDbSymbolTable
 70
     1
  0
STYLE
  5
11
330
3
100
AcDbSymbolTableRecord
100
AcDbTextStyleTableRecord
  2
Standard
 70
     0
 40
0.0
 41
1.0
 50
0.0
 71
     0
 42
2.5
  3
txt
  4

  0
ENDTAB
  0
TABLE
  2
VIEW
  5
6
330
0
100
AcDbSymbolTable
 70
     0
  0
ENDTAB
  0
TABLE
  2
UCS
  5
7
330
0
100
AcDbSymbolTable
 70
     0
  0
ENDTAB
  0
TABLE
  2
APPID
  5
9
330
0
100
AcDbSymbolTable
 70
     1
  0
APPID
  5
12
330
9
100
AcDbSymbolTableRecord
100
AcDbRegAppTableRecord
  2
ACAD
 70
     0
  0
ENDTAB
  0
TABLE
  2
DIMSTYLE
  5
A
330
0
100
AcDbSymbolTable
 70
     1
100
AcDbDimStyleTable
  0
DIMSTYLE
105
27
330
A
100
AcDbSymbolTableRecord
100
AcDbDimStyleTableRecord
  2
Standard
 70
     0
178
     0
340
11
  0
ENDTAB
  0
TABLE
  2
BLOCK_RECORD
  5
1
330
0
100
AcDbSymbolTable
 70
     1
  0
BLOCK_RECORD
  5
1F
330
1
100
AcDbSymbolTableRecord
100
AcDbBlockTableRecord
  2
*Model_Space
340
22
  0
BLOCK_RECORD
  5
1B
330
1
100
AcDbSymbolTableRecord
100
AcDbBlockTableRecord
  2
*Paper_Space
340
1E
  0
BLOCK_RECORD
  5
23
330
1
100
AcDbSymbolTableRecord
100
AcDbBlockTableRecord
  2
*Paper_Space0
340
26
  0
ENDTAB
  0
ENDSEC
  0
SECTION
  2
BLOCKS
  0
BLOCK
  5
20
330
1F
100
AcDbEntity
  8
0
100
AcDbBlockBegin
  2
*Model_Space
 70
     0
 10
0.0
 20
0.0
 30
0.0
  3
*Model_Space
  1
*Model_Space
  0
ENDBLK
  5
21
330
1F
100
AcDbEntity
  8
0
100
AcDbBlockEnd
  0
BLOCK
  5
1C
330
1B
100
AcDbEntity
 67
     1
  8
0
100
AcDbBlockBegin
  2
*Paper_Space
 70
     0
 10
0.0
 20
0.0
 30
0.0
  3
*Paper_Space
  1
*Paper_Space
  0
ENDBLK
  5
1D
330
1B
100
AcDbEntity
 67
     1
  8
0
100
AcDbBlockEnd
  0
BLOCK
  5
24
330
23
100
AcDbEntity
  8
0
100
AcDbBlockBegin
  2
*Paper_Space0
 70
     0
 10
0.0
 20
0.0
 30
0.0
  3
*Paper_Space0
  1
*Paper_Space0
  0
ENDBLK
  5
25
330
23
100
AcDbEntity
  8
0
100
AcDbBlockEnd
  0
ENDSEC
  0
SECTION
  2
ENTITIES
  0
LINE
  5
6A
330
1F
100
AcDbEntity
  8
0
 62
     7
370
    35
100
AcDbLine
 10
292.501221
 20
159.125015
 30
0.0
 11
292.501221
 21
167.125015
 31
0.0
  0
LINE
  5
6B
330
1F
100
AcDbEntity
  8
0
 62
     7
370
    35
100
AcDbLine
 10
328.001221
 20
158.125015
 30
0.0
 11
328.001221
 21
168.125015
 31
0.0
  0
LINE
  5
6C
330
1F
100
AcDbEntity
  8
0
 62
     7
370
    35
100
AcDbLine
 10
321.801208
 20
157.225052
 30
0.0
 11
321.801208
 21
169.02504
 31
0.0
  0
LINE
  5
6D
330
1F
100
AcDbEntity
  8
0
 62
     7
370
    35
100
AcDbLine
 10
278.501221
 20
159.625015
 30
0.0
 11
278.501221
 21
166.625015
 31
0.0
  0
LINE
  5
6E
330
1F
100
AcDbEntity
  8
0
 62
     7
370
    35
100
AcDbLine
 10
297.501221
 20
156.625015
 30
0.0
 11
297.501221
 21
169.625015
 31
0.0
  0
LINE
  5
6F
330
1F
100
AcDbEntity
  8
0
 62
     7
370
    35
100
AcDbLine
 10
317.001221
 20
156.625015
 30
0.0
 11
317.001221
 21
169.625015
 31
0.0
  0
LINE
  5
70
330
1F
100
AcDbEntity
  8
0
 62
     7
370
    35
100
AcDbLine
 10
317.001221
 20
156.625015
 30
0.0
 11
297.501221
 21
156.625015
 31
0.0
  0
LINE
  5
71
330
1F
100
AcDbEntity
  8
0
 62
     7
370
    35
100
AcDbLine
 10
317.001221
 20
169.625015
 30
0.0
 11
297.501221
 21
169.625015
 31
0.0
  0
LINE
  5
72
330
1F
100
AcDbEntity
  8
0
 62
     7
370
    35
100
AcDbLine
 10
321.801208
 20
157.225052
 30
0.0
 11
317.001221
 21
157.225052
 31
0.0
  0
LINE
  5
73
330
1F
100
AcDbEntity
  8
0
 62
     7
370
    35
100
AcDbLine
 10
321.801208
 20
169.02504
 30
0.0
 11
317.001221
 21
169.02504
 31
0.0
  0
LINE
  5
74
330
1F
100
AcDbEntity
  8
0
 62
     7
370
    35
100
AcDbLine
 10
328.001221
 20
158.125015
 30
0.0
 11
321.801208
 21
158.125015
 31
0.0
  0
LINE
  5
75
330
1F
100
AcDbEntity
  8
0
 62
     7
370
    35
100
AcDbLine
 10
328.001221
 20
168.125015
 30
0.0
 11
321.801208
 21
168.125015
 31
0.0
  0
LINE
  5
76
330
1F
100
AcDbEntity
  8
0
 62
     7
370
    35
100
AcDbLine
 10
278.501282
 20
159.625015
 30
0.0
 11
292.501282
 21
159.125015
 31
0.0
  0
LINE
  5
77
330
1F
100
AcDbEntity
  8
0
 62
     7
370
    35
100
AcDbLine
 10
297.501282
 20
157.224991
 30
0.0
 11
292.501282
 21
159.125015
 31
0.0
  0
LINE
  5
78
330
1F
100
AcDbEntity
  8
0
 62
     7
370
    35
100
AcDbLine
 10
278.501221
 20
166.625015
 30
0.0
 11
292.501221
 21
167.125015
 31
0.0
  0
LINE
  5
79
330
1F
100
AcDbEntity
  8
0
 62
     7
370
    35
100
AcDbLine
 10
297.501282
 20
169.024918
 30
0.0
 11
292.501282
 21
167.124893
 31
0.0
  0
LINE
  5
7A
330
1F
100
AcDbEntity
  8
0
 62
     7
370
    35
100
AcDbLine
 10
313.801208
 20
159.875015
 30
0.0
 11
313.801208
 21
166.375015
 31
0.0
  0
LINE
  5
7B
330
1F
100
AcDbEntity
  8
0
 62
     7
370
    35
100
AcDbLine
 10
307.301208
 20
159.875015
 30
0.0
 11
307.301208
 21
166.375015
 31
0.0
  0
LINE
  5
7C
330
1F
100
AcDbEntity
  8
0
 62
     7
370
    35
100
AcDbLine
 10
313.801208
 20
159.875015
 30
0.0
 11
307.301208
 21
159.875015
 31
0.0
  0
LINE
  5
7D
330
1F
100
AcDbEntity
  8
0
 62
     7
370
    35
100
AcDbLine
 10
313.801208
 20
166.375015
 30
0.0
 11
307.301208
 21
166.375015
 31
0.0
  0
LINE
  5
7E
330
1F
100
AcDbEntity
  8
0
 62
     7
370
    35
100
AcDbLine
 10
291.464233
 20
165.125015
 30
0.0
 11
291.982727
 21
163.125015
 31
0.0
  0
LINE
  5
7F
330
1F
100
AcDbEntity
  8
0
 62
     7
370
    35
100
AcDbLine
 10
290.959961
 20
159.180069
 30
0.0
 11
291.464172
 21
161.125015
 31
0.0
  0
LINE
  5
80
330
1F
100
AcDbEntity
  8
0
 62
     7
370
    35
100
AcDbLine
 10
291.464233
 20
161.125015
 30
0.0
 11
290.945679
 21
163.125015
 31
0.0
  0
LINE
  5
81
330
1F
100
AcDbEntity
  8
0
 62
     7
370
    35
100
AcDbLine
 10
290.945679
 20
163.125015
 30
0.0
 11
290.427185
 21
161.125015
 31
0.0
  0
LINE
  5
82
330
1F
100
AcDbEntity
  8
0
 62
     7
370
    35
100
AcDbLine
 10
290.427124
 20
161.125015
 30
0.0
 11
290.931091
 21
159.181107
 31
0.0
  0
LINE
  5
83
330
1F
100
AcDbEntity
  8
0
 62
     7
370
    35
100
AcDbLine
 10
289.908752
 20
163.125015
 30
0.0
 11
290.427246
 21
165.125015
 31
0.0
  0
LINE
  5
84
330
1F
100
AcDbEntity
  8
0
 62
     7
370
    35
100
AcDbLine
 10
290.427185
 20
165.125015
 30
0.0
 11
289.932434
 21
167.033279
 31
0.0
  0
LINE
  5
85
330
1F
100
AcDbEntity
  8
0
 62
     7
370
    35
100
AcDbLine
 10
289.88446
 20
167.03157
 30
0.0
 11
289.390137
 21
165.125015
 31
0.0
  0
LINE
  5
86
330
1F
100
AcDbEntity
  8
0
 62
     7
370
    35
100
AcDbLine
 10
289.390137
 20
165.125015
 30
0.0
 11
289.90863
 21
163.125015
 31
0.0
  0
LINE
  5
87
330
1F
100
AcDbEntity
  8
0
 62
     7
370
    35
100
AcDbLine
 10
288.904968
 20
159.253433
 30
0.0
 11
289.390198
 21
161.125015
 31
0.0
  0
LINE
  5
88
330
1F
100
AcDbEntity
  8
0
 62
     7
370
    35
100
AcDbLine
 10
289.390137
 20
161.125015
 30
0.0
 11
288.871643
 21
163.125015
 31
0.0
  0
LINE
  5
89
330
1F
100
AcDbEntity
  8
0
 62
     7
370
    35
100
AcDbLine
 10
288.871643
 20
163.125015
 30
0.0
 11
288.353088
 21
161.125015
 31
0.0
  0
LINE
  5
8A
330
1F
100
AcDbEntity
  8
0
 62
     7
370
    35
100
AcDbLine
 10
288.353088
 20
161.125015
 30
0.0
 11
288.837708
 21
159.255875
 31
0.0
  0
LINE
  5
8B
330
1F
100
AcDbEntity
  8
0
 62
     7
370
    35
100
AcDbLine
 10
287.834595
 20
163.125015
 30
0.0
 11
288.353088
 21
165.125015
 31
0.0
  0
LINE
  5
8C
330
1F
100
AcDbEntity
  8
0
 62
     7
370
    35
100
AcDbLine
 10
291.977905
 20
167.106339
 30
0.0
 11
291.464233
 21
165.125015
 31
0.0
  0
LINE
  5
8D
330
1F
100
AcDbEntity
  8
0
 62
     7
370
    35
100
AcDbLine
 10
291.982727
 20
163.125015
 30
0.0
 11
292.501221
 21
165.125015
 31
0.0
  0
LINE
  5
8E
330
1F
100
AcDbEntity
  8
0
 62
     7
370
    35
100
AcDbLine
 10
292.501343
 20
165.125015
 30
0.0
 11
291.987549
 21
167.106705
 31
0.0
  0
LINE
  5
8F
330
1F
100
AcDbEntity
  8
0
 62
     7
370
    35
100
AcDbLine
 10
288.353088
 20
165.125015
 30
0.0
 11
287.877441
 21
166.959854
 31
0.0
  0
LINE
  5
90
330
1F
100
AcDbEntity
  8
0
 62
     7
370
    35
100
AcDbLine
 10
287.791016
 20
166.956802
 30
0.0
 11
287.316101
 21
165.125015
 31
0.0
  0
LINE
  5
91
330
1F
100
AcDbEntity
  8
0
 62
     7
370
    35
100
AcDbLine
 10
287.316101
 20
165.125015
 30
0.0
 11
287.834656
 21
163.125015
 31
0.0
  0
LINE
  5
92
330
1F
100
AcDbEntity
  8
0
 62
     7
370
    35
100
AcDbLine
 10
286.849915
 20
159.326859
 30
0.0
 11
287.316101
 21
161.125015
 31
0.0
  0
LINE
  5
93
330
1F
100
AcDbEntity
  8
0
 62
     7
370
    35
100
AcDbLine
 10
287.316101
 20
161.125015
 30
0.0
 11
286.797607
 21
163.125015
 31
0.0
  0
LINE
  5
94
330
1F
100
AcDbEntity
  8
0
 62
     7
370
    35
100
AcDbLine
 10
286.797546
 20
163.125015
 30
0.0
 11
286.279053
 21
161.125015
 31
0.0
  0
LINE
  5
95
330
1F
100
AcDbEntity
  8
0
 62
     7
370
    35
100
AcDbLine
 10
286.278992
 20
161.125015
 30
0.0
 11
286.744202
 21
159.330643
 31
0.0
  0
LINE
  5
96
330
1F
100
AcDbEntity
  8
0
 62
     7
370
    35
100
AcDbLine
 10
285.760559
 20
163.125015
 30
0.0
 11
286.279053
 21
165.125015
 31
0.0
  0
LINE
  5
97
330
1F
100
AcDbEntity
  8
0
 62
     7
370
    35
100
AcDbLine
 10
286.279053
 20
165.125015
 30
0.0
 11
285.822388
 21
166.88649
 31
0.0
  0
LINE
  5
98
330
1F
100
AcDbEntity
  8
0
 62
     7
370
    35
100
AcDbLine
 10
285.697449
 20
166.882034
 30
0.0
 11
285.241943
 21
165.125015
 31
0.0
  0
LINE
  5
99
330
1F
100
AcDbEntity
  8
0
 62
     7
370
    35
100
AcDbLine
 10
285.242004
 20
165.125015
 30
0.0
 11
285.760498
 21
163.125015
 31
0.0
  0
LINE
  5
9A
330
1F
100
AcDbEntity
  8
0
 62
     7
370
    35
100
AcDbLine
 10
284.794861
 20
159.400223
 30
0.0
 11
285.242065
 21
161.125015
 31
0.0
  0
LINE
  5
9B
330
1F
100
AcDbEntity
  8
0
 62
     7
370
    35
100
AcDbLine
 10
247.807114
 20
167.024979
 30
0.0
 11
247.807114
 21
159.224991
 31
0.0
  0
LINE
  5
9C
330
1F
100
AcDbEntity
  8
0
 62
     7
370
    35
100
AcDbLine
 10
237.857086
 20
159.41188
 30
0.0
 11
238.357086
 21
159.427628
 31
0.0
  0
LINE
  5
9D
330
1F
100
AcDbEntity
  8
0
 62
     7
370
    35
100
AcDbLine
 10
237.857086
 20
166.83815
 30
0.0
 11
238.357086
 21
166.822403
 31
0.0
  0
LINE
  5
9E
330
1F
100
AcDbEntity
  8
0
 62
     7
370
    35
100
AcDbLine
 10
239.357086
 20
167.291153
 30
0.0
 11
239.357086
 21
158.958878
 31
0.0
  0
LINE
  5
9F
330
1F
100
AcDbEntity
  8
0
 62
     7
370
    35
100
AcDbLine
 10
238.357086
 20
167.322647
 30
0.0
 11
238.357086
 21
158.927383
 31
0.0
  0
LINE
  5
A0
330
1F
100
AcDbEntity
  8
0
 62
     7
370
    35
100
AcDbLine
 10
236.707092
 20
158.875381
 30
0.0
 11
237.857086
 21
158.911636
 31
0.0
  0
LINE
  5
A1
330
1F
100
AcDbEntity
  8
0
 62
     7
370
    35
100
AcDbLine
 10
237.857086
 20
167.338394
 30
0.0
 11
237.857086
 21
158.911636
 31
0.0
  0
LINE
  5
A2
330
1F
100
AcDbEntity
  8
0
 62
     7
370
    35
100
AcDbLine
 10
236.707092
 20
167.374588
 30
0.0
 11
237.857086
 21
167.338394
 31
0.0
  0
LINE
  5
A3
330
1F
100
AcDbEntity
  8
0
 62
     7
370
    35
100
AcDbLine
 10
239.857086
 20
167.275406
 30
0.0
 11
239.857086
 21
158.974625
 31
0.0
  0
LINE
  5
A4
330
1F
100
AcDbEntity
  8
0
 62
     7
370
    35
100
AcDbLine
 10
241.357086
 20
167.228165
 30
0.0
 11
241.357086
 21
159.021866
 31
0.0
  0
LINE
  5
A5
330
1F
100
AcDbEntity
  8
0
 62
     7
370
    35
100
AcDbLine
 10
240.857086
 20
167.243912
 30
0.0
 11
240.857086
 21
159.006119
 31
0.0
  0
LINE
  5
A6
330
1F
100
AcDbEntity
  8
0
 62
     7
370
    35
100
AcDbLine
 10
242.357086
 20
167.196671
 30
0.0
 11
242.357086
 21
159.05336
 31
0.0
  0
LINE
  5
A7
330
1F
100
AcDbEntity
  8
0
 62
     7
370
    35
100
AcDbLine
 10
242.857086
 20
167.180923
 30
0.0
 11
242.857086
 21
159.069107
 31
0.0
  0
LINE
  5
A8
330
1F
100
AcDbEntity
  8
0
 62
     7
370
    35
100
AcDbLine
 10
244.357086
 20
167.133682
 30
0.0
 11
244.357086
 21
159.116348
 31
0.0
  0
LINE
  5
A9
330
1F
100
AcDbEntity
  8
0
 62
     7
370
    35
100
AcDbLine
 10
243.857086
 20
167.149429
 30
0.0
 11
243.857086
 21
159.100601
 31
0.0
  0
LINE
  5
AA
330
1F
100
AcDbEntity
  8
0
 62
     7
370
    35
100
AcDbLine
 10
244.357086
 20
159.116348
 30
0.0
 11
247.807114
 21
159.224991
 31
0.0
  0
LINE
  5
AB
330
1F
100
AcDbEntity
  8
0
 62
     7
370
    35
100
AcDbLine
 10
242.857086
 20
159.069107
 30
0.0
 11
243.857086
 21
159.100601
 31
0.0
  0
LINE
  5
AC
330
1F
100
AcDbEntity
  8
0
 62
     7
370
    35
100
AcDbLine
 10
241.357086
 20
159.021866
 30
0.0
 11
242.357086
 21
159.05336
 31
0.0
  0
LINE
  5
AD
330
1F
100
AcDbEntity
  8
0
 62
     7
370
    35
100
AcDbLine
 10
239.857086
 20
158.974625
 30
0.0
 11
240.857086
 21
159.006119
 31
0.0
  0
LINE
  5
AE
330
1F
100
AcDbEntity
  8
0
 62
     7
370
    35
100
AcDbLine
 10
238.357086
 20
158.927383
 30
0.0
 11
239.357086
 21
158.958878
 31
0.0
  0
LINE
  5
AF
330
1F
100
AcDbEntity
  8
0
 62
     7
370
    35
100
AcDbLine
 10
238.357086
 20
167.322647
 30
0.0
 11
239.357086
 21
167.291153
 31
0.0
  0
LINE
  5
B0
330
1F
100
AcDbEntity
  8
0
 62
     7
370
    35
100
AcDbLine
 10
239.857086
 20
167.275406
 30
0.0
 11
240.857086
 21
167.243912
 31
0.0
  0
LINE
  5
B1
330
1F
100
AcDbEntity
  8
0
 62
     7
370
    35
100
AcDbLine
 10
241.357086
 20
167.228165
 30
0.0
 11
242.357086
 21
167.196671
 31
0.0
  0
LINE
  5
B2
330
1F
100
AcDbEntity
  8
0
 62
     7
370
    35
100
AcDbLine
 10
242.857086
 20
167.180923
 30
0.0
 11
243.857086
 21
167.149429
 31
0.0
  0
LINE
  5
B3
330
1F
100
AcDbEntity
  8
0
 62
     7
370
    35
100
AcDbLine
 10
244.357086
 20
167.133682
 30
0.0
 11
247.807114
 21
167.024979
 31
0.0
  0
LINE
  5
B4
330
1F
100
AcDbEntity
  8
0
 62
     7
370
    35
100
AcDbLine
 10
285.242004
 20
161.125015
 30
0.0
 11
284.72345
 21
163.125015
 31
0.0
  0
LINE
  5
B5
330
1F
100
AcDbEntity
  8
0
 62
     7
370
    35
100
AcDbLine
 10
284.723511
 20
163.125015
 30
0.0
 11
284.204956
 21
161.125015
 31
0.0
  0
LINE
  5
B6
330
1F
100
AcDbEntity
  8
0
 62
     7
370
    35
100
AcDbLine
 10
284.204956
 20
161.125015
 30
0.0
 11
284.650757
 21
159.405411
 31
0.0
  0
LINE
  5
B7
330
1F
100
AcDbEntity
  8
0
 62
     7
370
    35
100
AcDbLine
 10
283.686462
 20
163.125015
 30
0.0
 11
284.205017
 21
165.125015
 31
0.0
  0
LINE
  5
B8
330
1F
100
AcDbEntity
  8
0
 62
     7
370
    35
100
AcDbLine
 10
284.204956
 20
165.125015
 30
0.0
 11
283.767273
 21
166.813065
 31
0.0
  0
LINE
  5
B9
330
1F
100
AcDbEntity
  8
0
 62
     7
370
    35
100
AcDbLine
 10
283.604065
 20
166.807266
 30
0.0
 11
283.167908
 21
165.125015
 31
0.0
  0
LINE
  5
BA
330
1F
100
AcDbEntity
  8
0
 62
     7
370
    35
100
AcDbLine
 10
283.167908
 20
165.125015
 30
0.0
 11
283.686401
 21
163.125015
 31
0.0
  0
LINE
  5
BB
330
1F
100
AcDbEntity
  8
0
 62
     7
370
    35
100
AcDbLine
 10
282.739746
 20
159.473648
 30
0.0
 11
283.167908
 21
161.125015
 31
0.0
  0
LINE
  5
BC
330
1F
100
AcDbEntity
  8
0
 62
     7
370
    35
100
AcDbLine
 10
283.167847
 20
161.125015
 30
0.0
 11
282.649353
 21
163.125015
 31
0.0
  0
LINE
  5
BD
330
1F
100
AcDbEntity
  8
0
 62
     7
370
    35
100
AcDbLine
 10
282.649414
 20
163.125015
 30
0.0
 11
282.130859
 21
161.125015
 31
0.0
  0
LINE
  5
BE
330
1F
100
AcDbEntity
  8
0
 62
     7
370
    35
100
AcDbLine
 10
282.13092
 20
161.125015
 30
0.0
 11
282.557373
 21
159.480179
 31
0.0
  0
LINE
  5
BF
330
1F
100
AcDbEntity
  8
0
 62
     7
370
    35
100
AcDbLine
 10
281.612366
 20
163.125015
 30
0.0
 11
282.13092
 21
165.125015
 31
0.0
  0
LINE
  5
C0
330
1F
100
AcDbEntity
  8
0
 62
     7
370
    35
100
AcDbLine
 10
282.13092
 20
165.125015
 30
0.0
 11
281.71228
 21
166.7397
 31
0.0
  0
LINE
  5
C1
330
1F
100
AcDbEntity
  8
0
 62
     7
370
    35
100
AcDbLine
 10
281.510559
 20
166.732498
 30
0.0
 11
281.093811
 21
165.125015
 31
0.0
  0
LINE
  5
C2
330
1F
100
AcDbEntity
  8
0
 62
     7
370
    35
100
AcDbLine
 10
281.093872
 20
165.125015
 30
0.0
 11
281.612366
 21
163.125015
 31
0.0
  0
LINE
  5
C3
330
1F
100
AcDbEntity
  8
0
 62
     7
370
    35
100
AcDbLine
 10
280.684753
 20
159.547012
 30
0.0
 11
281.093872
 21
161.125015
 31
0.0
  0
LINE
  5
C4
330
1F
100
AcDbEntity
  8
0
 62
     7
370
    35
100
AcDbLine
 10
281.093872
 20
161.125015
 30
0.0
 11
280.575317
 21
163.125015
 31
0.0
  0
LINE
  5
C5
330
1F
100
AcDbEntity
  8
0
 62
     7
370
    35
100
AcDbLine
 10
280.575317
 20
163.125015
 30
0.0
 11
280.056824
 21
161.125015
 31
0.0
  0
LINE
  5
C6
330
1F
100
AcDbEntity
  8
0
 62
     7
370
    35
100
AcDbLine
 10
280.056763
 20
161.125015
 30
0.0
 11
280.463806
 21
159.554947
 31
0.0
  0
LINE
  5
C7
330
1F
100
AcDbEntity
  8
0
 62
     7
370
    35
100
AcDbLine
 10
279.53833
 20
163.125015
 30
0.0
 11
280.056824
 21
165.125015
 31
0.0
  0
LINE
  5
C8
330
1F
100
AcDbEntity
  8
0
 62
     7
370
    35
100
AcDbLine
 10
280.056824
 20
165.125015
 30
0.0
 11
279.657227
 21
166.666336
 31
0.0
  0
LINE
  5
C9
330
1F
100
AcDbEntity
  8
0
 62
     7
370
    35
100
AcDbLine
 10
279.417175
 20
166.65773
 30
0.0
 11
279.019775
 21
165.125015
 31
0.0
  0
LINE
  5
CA
330
1F
100
AcDbEntity
  8
0
 62
     7
370
    35
100
AcDbLine
 10
279.019836
 20
165.125015
 30
0.0
 11
279.53833
 21
163.125015
 31
0.0
  0
LINE
  5
CB
330
1F
100
AcDbEntity
  8
0
 62
     7
370
    35
100
AcDbLine
 10
301.801208
 20
159.875015
 30
0.0
 11
301.801208
 21
166.375015
 31
0.0
  0
LINE
  5
CC
330
1F
100
AcDbEntity
  8
0
 62
     7
370
    35
100
AcDbLine
 10
303.301208
 20
159.875015
 30
0.0
 11
303.301208
 21
166.375015
 31
0.0
  0
LINE
  5
CD
330
1F
100
AcDbEntity
  8
0
 62
     7
370
    35
100
AcDbLine
 10
303.801208
 20
159.875015
 30
0.0
 11
303.801208
 21
166.375015
 31
0.0
  0
LINE
  5
CE
330
1F
100
AcDbEntity
  8
0
 62
     7
370
    35
100
AcDbLine
 10
305.301208
 20
159.875015
 30
0.0
 11
305.301208
 21
166.375015
 31
0.0
  0
LINE
  5
CF
330
1F
100
AcDbEntity
  8
0
 62
     7
370
    35
100
AcDbLine
 10
305.801208
 20
159.875015
 30
0.0
 11
305.801208
 21
166.375015
 31
0.0
  0
LINE
  5
D0
330
1F
100
AcDbEntity
  8
0
 62
     7
370
    35
100
AcDbLine
 10
301.301208
 20
159.875015
 30
0.0
 11
301.301208
 21
166.375015
 31
0.0
  0
LINE
  5
D1
330
1F
100
AcDbEntity
  8
0
 62
     7
370
    35
100
AcDbLine
 10
305.801208
 20
159.875015
 30
0.0
 11
305.301208
 21
159.875015
 31
0.0
  0
LINE
  5
D2
330
1F
100
AcDbEntity
  8
0
 62
     7
370
    35
100
AcDbLine
 10
305.801208
 20
166.375015
 30
0.0
 11
305.301208
 21
166.375015
 31
0.0
  0
LINE
  5
D3
330
1F
100
AcDbEntity
  8
0
 62
     7
370
    35
100
AcDbLine
 10
303.801208
 20
159.875015
 30
0.0
 11
303.301208
 21
159.875015
 31
0.0
  0
LINE
  5
D4
330
1F
100
AcDbEntity
  8
0
 62
     7
370
    35
100
AcDbLine
 10
303.801208
 20
166.375015
 30
0.0
 11
303.301208
 21
166.375015
 31
0.0
  0
LINE
  5
D5
330
1F
100
AcDbEntity
  8
0
 62
     7
370
    35
100
AcDbLine
 10
301.801208
 20
159.875015
 30
0.0
 11
301.301208
 21
159.875015
 31
0.0
  0
LINE
  5
D6
330
1F
100
AcDbEntity
  8
0
 62
     7
370
    35
100
AcDbLine
 10
301.801208
 20
166.375015
 30
0.0
 11
301.301208
 21
166.375015
 31
0.0
  0
LINE
  5
D7
330
1F
100
AcDbEntity
  8
0
 62
     7
370
    35
100
AcDbLine
 10
312.80127
 20
163.125015
 30
0.0
 11
310.30127
 21
165.375015
 31
0.0
  0
LINE
  5
D8
330
1F
100
AcDbEntity
  8
0
 62
     7
370
    35
100
AcDbLine
 10
308.301208
 20
162.125015
 30
0.0
 11
308.301208
 21
164.125015
 31
0.0
  0
LINE
  5
D9
330
1F
100
AcDbEntity
  8
0
 62
     7
370
    35
100
AcDbLine
 10
310.301331
 20
160.874954
 30
0.0
 11
312.801331
 21
163.124954
 31
0.0
  0
LINE
  5
DA
330
1F
100
AcDbEntity
  8
0
 62
     7
370
    35
100
AcDbLine
 10
310.301208
 20
164.125015
 30
0.0
 11
310.301208
 21
165.375015
 31
0.0
  0
LINE
  5
DB
330
1F
100
AcDbEntity
  8
0
 62
     7
370
    35
100
AcDbLine
 10
310.301208
 20
162.125015
 30
0.0
 11
308.301208
 21
162.125015
 31
0.0
  0
LINE
  5
DC
330
1F
100
AcDbEntity
  8
0
 62
     7
370
    35
100
AcDbLine
 10
310.301208
 20
164.125015
 30
0.0
 11
308.301208
 21
164.125015
 31
0.0
  0
LINE
  5
DD
330
1F
100
AcDbEntity
  8
0
 62
     7
370
    35
100
AcDbLine
 10
310.301208
 20
160.875015
 30
0.0
 11
310.301208
 21
162.125015
 31
0.0
  0
LINE
  5
DE
330
1F
100
AcDbEntity
  8
0
 62
     7
370
    35
100
AcDbLine
 10
133.057098
 20
166.790909
 30
0.0
 11
132.557098
 21
166.775162
 31
0.0
  0
LINE
  5
DF
330
1F
100
AcDbEntity
  8
0
 62
     7
370
    35
100
AcDbLine
 10
131.557098
 20
166.743668
 30
0.0
 11
131.057098
 21
166.727921
 31
0.0
  0
LINE
  5
E0
330
1F
100
AcDbEntity
  8
0
 62
     7
370
    35
100
AcDbLine
 10
130.057098
 20
166.696426
 30
0.0
 11
129.557098
 21
166.680679
 31
0.0
  0
LINE
  5
E1
330
1F
100
AcDbEntity
  8
0
 62
     7
370
    35
100
AcDbLine
 10
128.557098
 20
166.649185
 30
0.0
 11
128.057098
 21
166.633438
 31
0.0
  0
LINE
  5
E2
330
1F
100
AcDbEntity
  8
0
 62
     7
370
    35
100
AcDbLine
 10
133.057098
 20
159.459122
 30
0.0
 11
132.557098
 21
159.474869
 31
0.0
  0
LINE
  5
E3
330
1F
100
AcDbEntity
  8
0
 62
     7
370
    35
100
AcDbLine
 10
131.557098
 20
159.506363
 30
0.0
 11
131.057098
 21
159.52211
 31
0.0
  0
LINE
  5
E4
330
1F
100
AcDbEntity
  8
0
 62
     7
370
    35
100
AcDbLine
 10
130.057098
 20
159.553604
 30
0.0
 11
129.557098
 21
159.569351
 31
0.0
  0
LINE
  5
E5
330
1F
100
AcDbEntity
  8
0
 62
     7
370
    35
100
AcDbLine
 10
128.557098
 20
159.600845
 30
0.0
 11
128.057098
 21
159.616592
 31
0.0
  0
LINE
  5
E6
330
1F
100
AcDbEntity
  8
0
 62
     7
370
    35
100
AcDbLine
 10
128.057098
 20
167.133682
 30
0.0
 11
124.607086
 21
167.024979
 31
0.0
  0
LINE
  5
E7
330
1F
100
AcDbEntity
  8
0
 62
     7
370
    35
100
AcDbLine
 10
129.557098
 20
167.180923
 30
0.0
 11
128.557098
 21
167.149429
 31
0.0
  0
LINE
  5
E8
330
1F
100
AcDbEntity
  8
0
 62
     7
370
    35
100
AcDbLine
 10
131.057098
 20
167.228165
 30
0.0
 11
130.057098
 21
167.196671
 31
0.0
  0
LINE
  5
E9
330
1F
100
AcDbEntity
  8
0
 62
     7
370
    35
100
AcDbLine
 10
132.557098
 20
167.275406
 30
0.0
 11
131.557098
 21
167.243912
 31
0.0
  0
LINE
  5
EA
330
1F
100
AcDbEntity
  8
0
 62
     7
370
    35
100
AcDbLine
 10
134.057098
 20
167.322647
 30
0.0
 11
133.057098
 21
167.291153
 31
0.0
  0
LINE
  5
EB
330
1F
100
AcDbEntity
  8
0
 62
     7
370
    35
100
AcDbLine
 10
134.057098
 20
158.927383
 30
0.0
 11
133.057098
 21
158.958878
 31
0.0
  0
LINE
  5
EC
330
1F
100
AcDbEntity
  8
0
 62
     7
370
    35
100
AcDbLine
 10
132.557098
 20
158.974625
 30
0.0
 11
131.557098
 21
159.006119
 31
0.0
  0
LINE
  5
ED
330
1F
100
AcDbEntity
  8
0
 62
     7
370
    35
100
AcDbLine
 10
131.057098
 20
159.021866
 30
0.0
 11
130.057098
 21
159.05336
 31
0.0
  0
LINE
  5
EE
330
1F
100
AcDbEntity
  8
0
 62
     7
370
    35
100
AcDbLine
 10
129.557098
 20
159.069107
 30
0.0
 11
128.557098
 21
159.100601
 31
0.0
  0
LINE
  5
EF
330
1F
100
AcDbEntity
  8
0
 62
     7
370
    35
100
AcDbLine
 10
128.057098
 20
159.116348
 30
0.0
 11
124.607086
 21
159.224991
 31
0.0
  0
LINE
  5
F0
330
1F
100
AcDbEntity
  8
0
 62
     7
370
    35
100
AcDbLine
 10
128.557098
 20
167.149429
 30
0.0
 11
128.557098
 21
159.100601
 31
0.0
  0
LINE
  5
F1
330
1F
100
AcDbEntity
  8
0
 62
     7
370
    35
100
AcDbLine
 10
128.057098
 20
167.133682
 30
0.0
 11
128.057098
 21
159.116348
 31
0.0
  0
LINE
  5
F2
330
1F
100
AcDbEntity
  8
0
 62
     7
370
    35
100
AcDbLine
 10
129.557098
 20
167.180923
 30
0.0
 11
129.557098
 21
159.069107
 31
0.0
  0
LINE
  5
F3
330
1F
100
AcDbEntity
  8
0
 62
     7
370
    35
100
AcDbLine
 10
130.057098
 20
167.196671
 30
0.0
 11
130.057098
 21
159.05336
 31
0.0
  0
LINE
  5
F4
330
1F
100
AcDbEntity
  8
0
 62
     7
370
    35
100
AcDbLine
 10
131.557098
 20
167.243912
 30
0.0
 11
131.557098
 21
159.006119
 31
0.0
  0
LINE
  5
F5
330
1F
100
AcDbEntity
  8
0
 62
     7
370
    35
100
AcDbLine
 10
131.057098
 20
167.228165
 30
0.0
 11
131.057098
 21
159.021866
 31
0.0
  0
LINE
  5
F6
330
1F
100
AcDbEntity
  8
0
 62
     7
370
    35
100
AcDbLine
 10
132.557098
 20
167.275406
 30
0.0
 11
132.557098
 21
158.974625
 31
0.0
  0
LINE
  5
F7
330
1F
100
AcDbEntity
  8
0
 62
     7
370
    35
100
AcDbLine
 10
135.707092
 20
167.374588
 30
0.0
 11
134.557098
 21
167.338394
 31
0.0
  0
LINE
  5
F8
330
1F
100
AcDbEntity
  8
0
 62
     7
370
    35
100
AcDbLine
 10
134.557098
 20
167.338394
 30
0.0
 11
134.557098
 21
158.911636
 31
0.0
  0
LINE
  5
F9
330
1F
100
AcDbEntity
  8
0
 62
     7
370
    35
100
AcDbLine
 10
135.707092
 20
158.875381
 30
0.0
 11
134.557098
 21
158.911636
 31
0.0
  0
LINE
  5
FA
330
1F
100
AcDbEntity
  8
0
 62
     7
370
    35
100
AcDbLine
 10
134.057098
 20
167.322647
 30
0.0
 11
134.057098
 21
158.927383
 31
0.0
  0
LINE
  5
FB
330
1F
100
AcDbEntity
  8
0
 62
     7
370
    35
100
AcDbLine
 10
133.057098
 20
167.291153
 30
0.0
 11
133.057098
 21
158.958878
 31
0.0
  0
LINE
  5
FC
330
1F
100
AcDbEntity
  8
0
 62
     7
370
    35
100
AcDbLine
 10
243.857086
 20
159.600845
 30
0.0
 11
244.357086
 21
159.616592
 31
0.0
  0
LINE
  5
FD
330
1F
100
AcDbEntity
  8
0
 62
     7
370
    35
100
AcDbLine
 10
134.557098
 20
166.83815
 30
0.0
 11
134.057098
 21
166.822403
 31
0.0
  0
LINE
  5
FE
330
1F
100
AcDbEntity
  8
0
 62
     7
370
    35
100
AcDbLine
 10
242.357086
 20
159.553604
 30
0.0
 11
242.857086
 21
159.569351
 31
0.0
  0
LINE
  5
FF
330
1F
100
AcDbEntity
  8
0
 62
     7
370
    35
100
AcDbLine
 10
240.857086
 20
159.506363
 30
0.0
 11
241.357086
 21
159.52211
 31
0.0
  0
LINE
  5
100
330
1F
100
AcDbEntity
  8
0
 62
     7
370
    35
100
AcDbLine
 10
239.357086
 20
159.459122
 30
0.0
 11
239.857086
 21
159.474869
 31
0.0
  0
LINE
  5
101
330
1F
100
AcDbEntity
  8
0
 62
     7
370
    35
100
AcDbLine
 10
243.857086
 20
166.649185
 30
0.0
 11
244.357086
 21
166.633438
 31
0.0
  0
LINE
  5
102
330
1F
100
AcDbEntity
  8
0
 62
     7
370
    35
100
AcDbLine
 10
235.902069
 20
176.324966
 30
0.0
 11
236.707092
 21
176.324966
 31
0.0
  0
LINE
  5
103
330
1F
100
AcDbEntity
  8
0
 62
     7
370
    35
100
AcDbLine
 10
235.907074
 20
176.320023
 30
0.0
 11
236.707092
 21
176.320023
 31
0.0
  0
LINE
  5
104
330
1F
100
AcDbEntity
  8
0
 62
     7
370
    35
100
AcDbLine
 10
242.357086
 20
166.696426
 30
0.0
 11
242.857086
 21
166.680679
 31
0.0
  0
LINE
  5
105
330
1F
100
AcDbEntity
  8
0
 62
     7
370
    35
100
AcDbLine
 10
240.857086
 20
166.743668
 30
0.0
 11
241.357086
 21
166.727921
 31
0.0
  0
LINE
  5
106
330
1F
100
AcDbEntity
  8
0
 62
     7
370
    35
100
AcDbLine
 10
134.557098
 20
159.41188
 30
0.0
 11
134.057098
 21
159.427628
 31
0.0
  0
LINE
  5
107
330
1F
100
AcDbEntity
  8
0
 62
     7
370
    35
100
AcDbLine
 10
239.357086
 20
166.790909
 30
0.0
 11
239.857086
 21
166.775162
 31
0.0
  0
LINE
  5
108
330
1F
100
AcDbEntity
  8
0
 62
     7
370
    35
100
AcDbLine
 10
136.512085
 20
177.125015
 30
0.0
 11
235.902069
 21
177.125015
 31
0.0
  0
LINE
  5
109
330
1F
100
AcDbEntity
  8
0
 62
     7
370
    35
100
AcDbLine
 10
235.902069
 20
177.125015
 30
0.0
 11
236.707092
 21
177.125015
 31
0.0
  0
LINE
  5
10A
330
1F
100
AcDbEntity
  8
0
 62
     7
370
    35
100
AcDbLine
 10
135.707092
 20
177.125015
 30
0.0
 11
136.512085
 21
177.125015
 31
0.0
  0
LINE
  5
10B
330
1F
100
AcDbEntity
  8
0
 62
     7
370
    35
100
AcDbLine
 10
235.902069
 20
176.320023
 30
0.0
 11
235.907074
 21
176.320023
 31
0.0
  0
LINE
  5
10C
330
1F
100
AcDbEntity
  8
0
 62
     7
370
    35
100
AcDbLine
 10
124.607086
 20
167.024979
 30
0.0
 11
124.607086
 21
159.224991
 31
0.0
  0
LINE
  5
10D
330
1F
100
AcDbEntity
  8
0
 62
     7
370
    35
100
AcDbLine
 10
135.707092
 20
176.324966
 30
0.0
 11
136.512085
 21
176.324966
 31
0.0
  0
LINE
  5
10E
330
1F
100
AcDbEntity
  8
0
 62
     7
370
    35
100
AcDbLine
 10
235.902069
 20
176.320023
 30
0.0
 11
235.902069
 21
177.125015
 31
0.0
  0
LINE
  5
10F
330
1F
100
AcDbEntity
  8
0
 62
     7
370
    35
100
AcDbLine
 10
135.707092
 20
176.324966
 30
0.0
 11
135.707092
 21
177.125015
 31
0.0
  0
LINE
  5
110
330
1F
100
AcDbEntity
  8
0
 62
     7
370
    35
100
AcDbLine
 10
236.707092
 20
176.324966
 30
0.0
 11
236.707092
 21
177.125015
 31
0.0
  0
LINE
  5
111
330
1F
100
AcDbEntity
  8
0
 62
     7
370
    35
100
AcDbLine
 10
135.707092
 20
149.125015
 30
0.0
 11
236.707092
 21
149.125015
 31
0.0
  0
LINE
  5
112
330
1F
100
AcDbEntity
  8
0
 62
     7
370
    35
100
AcDbLine
 10
128.707092
 20
176.320023
 30
0.0
 11
135.707092
 21
176.320023
 31
0.0
  0
LINE
  5
113
330
1F
100
AcDbEntity
  8
0
 62
     7
370
    35
100
AcDbLine
 10
235.902069
 20
149.925003
 30
0.0
 11
236.707092
 21
149.925003
 31
0.0
  0
LINE
  5
114
330
1F
100
AcDbEntity
  8
0
 62
     7
370
    35
100
AcDbLine
 10
135.707092
 20
176.320023
 30
0.0
 11
135.707092
 21
167.425003
 31
0.0
  0
LINE
  5
115
330
1F
100
AcDbEntity
  8
0
 62
     7
370
    35
100
AcDbLine
 10
135.707092
 20
176.320023
 30
0.0
 11
136.507095
 21
176.320023
 31
0.0
  0
LINE
  5
116
330
1F
100
AcDbEntity
  8
0
 62
     7
370
    35
100
AcDbLine
 10
245.707077
 20
151.930008
 30
0.0
 11
245.707077
 21
156.824966
 31
0.0
  0
LINE
  5
117
330
1F
100
AcDbEntity
  8
0
 62
     7
370
    35
100
AcDbLine
 10
135.707092
 20
167.425003
 30
0.0
 11
128.707092
 21
167.425003
 31
0.0
  0
LINE
  5
118
330
1F
100
AcDbEntity
  8
0
 62
     7
370
    35
100
AcDbLine
 10
236.707092
 20
158.824966
 30
0.0
 11
236.707092
 21
149.930008
 31
0.0
  0
LINE
  5
119
330
1F
100
AcDbEntity
  8
0
 62
     7
370
    35
100
AcDbLine
 10
235.907074
 20
149.930008
 30
0.0
 11
236.707092
 21
149.930008
 31
0.0
  0
LINE
  5
11A
330
1F
100
AcDbEntity
  8
0
 62
     7
370
    35
100
AcDbLine
 10
243.707092
 20
149.930008
 30
0.0
 11
236.707092
 21
149.930008
 31
0.0
  0
LINE
  5
11B
330
1F
100
AcDbEntity
  8
0
 62
     7
370
    35
100
AcDbLine
 10
243.707092
 20
158.824966
 30
0.0
 11
236.707092
 21
158.824966
 31
0.0
  0
LINE
  5
11C
330
1F
100
AcDbEntity
  8
0
 62
     7
370
    35
100
AcDbLine
 10
126.707092
 20
174.320023
 30
0.0
 11
126.707092
 21
169.425003
 31
0.0
  0
LINE
  5
11D
330
1F
100
AcDbEntity
  8
0
 62
     7
370
    35
100
AcDbLine
 10
236.707092
 20
149.930008
 30
0.0
 11
236.707092
 21
167.425003
 31
0.0
  0
LINE
  5
11E
330
1F
100
AcDbEntity
  8
0
 62
     7
370
    35
100
AcDbLine
 10
135.707092
 20
158.824966
 30
0.0
 11
135.707092
 21
157.824966
 31
0.0
  0
LINE
  5
11F
330
1F
100
AcDbEntity
  8
0
 62
     7
370
    35
100
AcDbLine
 10
135.707092
 20
157.824966
 30
0.0
 11
135.707092
 21
149.930008
 31
0.0
  0
LINE
  5
120
330
1F
100
AcDbEntity
  8
0
 62
     7
370
    35
100
AcDbLine
 10
236.707092
 20
167.425003
 30
0.0
 11
236.707092
 21
168.425003
 31
0.0
  0
LINE
  5
121
330
1F
100
AcDbEntity
  8
0
 62
     7
370
    35
100
AcDbLine
 10
236.707092
 20
168.425003
 30
0.0
 11
236.707092
 21
176.320023
 31
0.0
  0
LINE
  5
122
330
1F
100
AcDbEntity
  8
0
 62
     7
370
    35
100
AcDbLine
 10
235.902069
 20
149.930008
 30
0.0
 11
235.907074
 21
149.930008
 31
0.0
  0
LINE
  5
123
330
1F
100
AcDbEntity
  8
0
 62
     7
370
    35
100
AcDbLine
 10
135.707092
 20
149.925003
 30
0.0
 11
136.512085
 21
149.925003
 31
0.0
  0
LINE
  5
124
330
1F
100
AcDbEntity
  8
0
 62
     7
370
    35
100
AcDbLine
 10
136.507095
 20
149.930008
 30
0.0
 11
135.707092
 21
149.930008
 31
0.0
  0
LINE
  5
125
330
1F
100
AcDbEntity
  8
0
 62
     7
370
    35
100
AcDbLine
 10
136.507095
 20
149.930008
 30
0.0
 11
136.512085
 21
149.930008
 31
0.0
  0
LINE
  5
126
330
1F
100
AcDbEntity
  8
0
 62
     7
370
    35
100
AcDbLine
 10
135.707092
 20
176.320023
 30
0.0
 11
135.707092
 21
158.824966
 31
0.0
  0
LINE
  5
127
330
1F
100
AcDbEntity
  8
0
 62
     7
370
    35
100
AcDbLine
 10
135.707092
 20
149.125015
 30
0.0
 11
135.707092
 21
149.925003
 31
0.0
  0
LINE
  5
128
330
1F
100
AcDbEntity
  8
0
 62
     7
370
    35
100
AcDbLine
 10
236.707092
 20
149.125015
 30
0.0
 11
236.707092
 21
149.925003
 31
0.0
  0
LINE
  5
129
330
1F
100
AcDbEntity
  8
0
 62
     7
370
    35
100
AcDbLine
 10
235.902069
 20
149.125015
 30
0.0
 11
235.902069
 21
149.930008
 31
0.0
  0
LINE
  5
12A
330
1F
100
AcDbEntity
  8
0
 62
     7
370
    35
100
AcDbLine
 10
136.507095
 20
176.320023
 30
0.0
 11
136.512085
 21
176.320023
 31
0.0
  0
LINE
  5
12B
330
1F
100
AcDbEntity
  8
0
 62
     7
370
    35
100
AcDbLine
 10
136.512085
 20
176.320023
 30
0.0
 11
136.512085
 21
177.125015
 31
0.0
  0
LINE
  5
12C
330
1F
100
AcDbEntity
  8
0
 62
     7
370
    35
100
AcDbLine
 10
136.512085
 20
149.125015
 30
0.0
 11
136.512085
 21
149.930008
 31
0.0
  0
LINE
  5
12D
330
1F
100
AcDbEntity
  8
0
 62
     7
370
    35
100
AcDbLine
 10
292.501221
 20
99.125015
 30
0.0
 11
292.501221
 21
107.124985
 31
0.0
  0
LINE
  5
12E
330
1F
100
AcDbEntity
  8
0
 62
     7
370
    35
100
AcDbLine
 10
328.001221
 20
98.125015
 30
0.0
 11
328.001221
 21
108.125015
 31
0.0
  0
LINE
  5
12F
330
1F
100
AcDbEntity
  8
0
 62
     7
370
    35
100
AcDbLine
 10
321.801208
 20
97.225021
 30
0.0
 11
321.801208
 21
109.02504
 31
0.0
  0
LINE
  5
130
330
1F
100
AcDbEntity
  8
0
 62
     7
370
    35
100
AcDbLine
 10
278.501221
 20
99.625015
 30
0.0
 11
278.501221
 21
106.625015
 31
0.0
  0
LINE
  5
131
330
1F
100
AcDbEntity
  8
0
 62
     7
370
    35
100
AcDbLine
 10
297.501221
 20
96.625015
 30
0.0
 11
297.501221
 21
109.625015
 31
0.0
  0
LINE
  5
132
330
1F
100
AcDbEntity
  8
0
 62
     7
370
    35
100
AcDbLine
 10
317.001221
 20
96.625015
 30
0.0
 11
317.001221
 21
109.625015
 31
0.0
  0
LINE
  5
133
330
1F
100
AcDbEntity
  8
0
 62
     7
370
    35
100
AcDbLine
 10
317.001221
 20
96.625015
 30
0.0
 11
297.501221
 21
96.625015
 31
0.0
  0
LINE
  5
134
330
1F
100
AcDbEntity
  8
0
 62
     7
370
    35
100
AcDbLine
 10
317.001221
 20
109.625015
 30
0.0
 11
297.501221
 21
109.625015
 31
0.0
  0
LINE
  5
135
330
1F
100
AcDbEntity
  8
0
 62
     7
370
    35
100
AcDbLine
 10
321.801208
 20
97.225021
 30
0.0
 11
317.001221
 21
97.225021
 31
0.0
  0
LINE
  5
136
330
1F
100
AcDbEntity
  8
0
 62
     7
370
    35
100
AcDbLine
 10
321.801208
 20
109.02504
 30
0.0
 11
317.001221
 21
109.02504
 31
0.0
  0
LINE
  5
137
330
1F
100
AcDbEntity
  8
0
 62
     7
370
    35
100
AcDbLine
 10
328.001221
 20
98.125015
 30
0.0
 11
321.801208
 21
98.125015
 31
0.0
  0
LINE
  5
138
330
1F
100
AcDbEntity
  8
0
 62
     7
370
    35
100
AcDbLine
 10
328.001221
 20
108.125015
 30
0.0
 11
321.801208
 21
108.125015
 31
0.0
  0
LINE
  5
139
330
1F
100
AcDbEntity
  8
0
 62
     7
370
    35
100
AcDbLine
 10
278.501282
 20
99.624985
 30
0.0
 11
292.501282
 21
99.124985
 31
0.0
  0
LINE
  5
13A
330
1F
100
AcDbEntity
  8
0
 62
     7
370
    35
100
AcDbLine
 10
297.501282
 20
97.225021
 30
0.0
 11
292.501282
 21
99.125015
 31
0.0
  0
LINE
  5
13B
330
1F
100
AcDbEntity
  8
0
 62
     7
370
    35
100
AcDbLine
 10
278.501221
 20
106.624985
 30
0.0
 11
292.501221
 21
107.124985
 31
0.0
  0
LINE
  5
13C
330
1F
100
AcDbEntity
  8
0
 62
     7
370
    35
100
AcDbLine
 10
297.501282
 20
109.024918
 30
0.0
 11
292.501282
 21
107.124924
 31
0.0
  0
LINE
  5
13D
330
1F
100
AcDbEntity
  8
0
 62
     7
370
    35
100
AcDbLine
 10
291.464233
 20
105.125046
 30
0.0
 11
291.982727
 21
103.125015
 31
0.0
  0
LINE
  5
13E
330
1F
100
AcDbEntity
  8
0
 62
     7
370
    35
100
AcDbLine
 10
290.959961
 20
99.180069
 30
0.0
 11
291.464172
 21
101.125015
 31
0.0
  0
LINE
  5
13F
330
1F
100
AcDbEntity
  8
0
 62
     7
370
    35
100
AcDbLine
 10
291.464233
 20
101.125015
 30
0.0
 11
290.945679
 21
103.125046
 31
0.0
  0
LINE
  5
140
330
1F
100
AcDbEntity
  8
0
 62
     7
370
    35
100
AcDbLine
 10
290.945679
 20
103.125015
 30
0.0
 11
290.427185
 21
101.125015
 31
0.0
  0
LINE
  5
141
330
1F
100
AcDbEntity
  8
0
 62
     7
370
    35
100
AcDbLine
 10
290.427124
 20
101.125015
 30
0.0
 11
290.931091
 21
99.181107
 31
0.0
  0
LINE
  5
142
330
1F
100
AcDbEntity
  8
0
 62
     7
370
    35
100
AcDbLine
 10
289.908752
 20
103.125015
 30
0.0
 11
290.427246
 21
105.125015
 31
0.0
  0
LINE
  5
143
330
1F
100
AcDbEntity
  8
0
 62
     7
370
    35
100
AcDbLine
 10
290.427185
 20
105.125046
 30
0.0
 11
289.932434
 21
107.033279
 31
0.0
  0
LINE
  5
144
330
1F
100
AcDbEntity
  8
0
 62
     7
370
    35
100
AcDbLine
 10
289.88446
 20
107.03157
 30
0.0
 11
289.390137
 21
105.125015
 31
0.0
  0
LINE
  5
145
330
1F
100
AcDbEntity
  8
0
 62
     7
370
    35
100
AcDbLine
 10
289.390137
 20
105.125015
 30
0.0
 11
289.90863
 21
103.125015
 31
0.0
  0
LINE
  5
146
330
1F
100
AcDbEntity
  8
0
 62
     7
370
    35
100
AcDbLine
 10
288.904968
 20
99.253464
 30
0.0
 11
289.390198
 21
101.125015
 31
0.0
  0
LINE
  5
147
330
1F
100
AcDbEntity
  8
0
 62
     7
370
    35
100
AcDbLine
 10
289.390137
 20
101.125015
 30
0.0
 11
288.871643
 21
103.125015
 31
0.0
  0
LINE
  5
148
330
1F
100
AcDbEntity
  8
0
 62
     7
370
    35
100
AcDbLine
 10
288.871643
 20
103.125015
 30
0.0
 11
288.353088
 21
101.125015
 31
0.0
  0
LINE
  5
149
330
1F
100
AcDbEntity
  8
0
 62
     7
370
    35
100
AcDbLine
 10
288.353088
 20
101.125015
 30
0.0
 11
288.837708
 21
99.255875
 31
0.0
  0
LINE
  5
14A
330
1F
100
AcDbEntity
  8
0
 62
     7
370
    35
100
AcDbLine
 10
287.834595
 20
103.125015
 30
0.0
 11
288.353088
 21
105.125015
 31
0.0
  0
LINE
  5
14B
330
1F
100
AcDbEntity
  8
0
 62
     7
370
    35
100
AcDbLine
 10
291.977905
 20
107.106308
 30
0.0
 11
291.464233
 21
105.125015
 31
0.0
  0
LINE
  5
14C
330
1F
100
AcDbEntity
  8
0
 62
     7
370
    35
100
AcDbLine
 10
291.982727
 20
103.125015
 30
0.0
 11
292.501221
 21
105.125015
 31
0.0
  0
LINE
  5
14D
330
1F
100
AcDbEntity
  8
0
 62
     7
370
    35
100
AcDbLine
 10
292.501343
 20
105.125046
 30
0.0
 11
291.987549
 21
107.106705
 31
0.0
  0
LINE
  5
14E
330
1F
100
AcDbEntity
  8
0
 62
     7
370
    35
100
AcDbLine
 10
288.353088
 20
105.125015
 30
0.0
 11
287.877441
 21
106.959885
 31
0.0
  0
LINE
  5
14F
330
1F
100
AcDbEntity
  8
0
 62
     7
370
    35
100
AcDbLine
 10
287.791016
 20
106.956802
 30
0.0
 11
287.316101
 21
105.125015
 31
0.0
  0
LINE
  5
150
330
1F
100
AcDbEntity
  8
0
 62
     7
370
    35
100
AcDbLine
 10
287.316101
 20
105.125015
 30
0.0
 11
287.834656
 21
103.125015
 31
0.0
  0
LINE
  5
151
330
1F
100
AcDbEntity
  8
0
 62
     7
370
    35
100
AcDbLine
 10
286.849915
 20
99.326859
 30
0.0
 11
287.316101
 21
101.125015
 31
0.0
  0
LINE
  5
152
330
1F
100
AcDbEntity
  8
0
 62
     7
370
    35
100
AcDbLine
 10
287.316101
 20
101.125046
 30
0.0
 11
286.797607
 21
103.125046
 31
0.0
  0
LINE
  5
153
330
1F
100
AcDbEntity
  8
0
 62
     7
370
    35
100
AcDbLine
 10
286.797546
 20
103.125015
 30
0.0
 11
286.279053
 21
101.125015
 31
0.0
  0
LINE
  5
154
330
1F
100
AcDbEntity
  8
0
 62
     7
370
    35
100
AcDbLine
 10
286.278992
 20
101.125015
 30
0.0
 11
286.744202
 21
99.330612
 31
0.0
  0
LINE
  5
155
330
1F
100
AcDbEntity
  8
0
 62
     7
370
    35
100
AcDbLine
 10
285.760559
 20
103.125015
 30
0.0
 11
286.279053
 21
105.125015
 31
0.0
  0
LINE
  5
156
330
1F
100
AcDbEntity
  8
0
 62
     7
370
    35
100
AcDbLine
 10
286.279053
 20
105.125046
 30
0.0
 11
285.822388
 21
106.88652
 31
0.0
  0
LINE
  5
157
330
1F
100
AcDbEntity
  8
0
 62
     7
370
    35
100
AcDbLine
 10
285.697449
 20
106.882034
 30
0.0
 11
285.241943
 21
105.125015
 31
0.0
  0
LINE
  5
158
330
1F
100
AcDbEntity
  8
0
 62
     7
370
    35
100
AcDbLine
 10
285.242004
 20
105.125015
 30
0.0
 11
285.760498
 21
103.125015
 31
0.0
  0
LINE
  5
159
330
1F
100
AcDbEntity
  8
0
 62
     7
370
    35
100
AcDbLine
 10
284.794861
 20
99.400253
 30
0.0
 11
285.242065
 21
101.125015
 31
0.0
  0
LINE
  5
15A
330
1F
100
AcDbEntity
  8
0
 62
     7
370
    35
100
AcDbLine
 10
247.807114
 20
107.025009
 30
0.0
 11
247.807114
 21
99.224991
 31
0.0
  0
LINE
  5
15B
330
1F
100
AcDbEntity
  8
0
 62
     7
370
    35
100
AcDbLine
 10
237.857086
 20
99.41185
 30
0.0
 11
238.357086
 21
99.427597
 31
0.0
  0
LINE
  5
15C
330
1F
100
AcDbEntity
  8
0
 62
     7
370
    35
100
AcDbLine
 10
237.857086
 20
106.83812
 30
0.0
 11
238.357086
 21
106.822372
 31
0.0
  0
LINE
  5
15D
330
1F
100
AcDbEntity
  8
0
 62
     7
370
    35
100
AcDbLine
 10
239.357086
 20
107.291153
 30
0.0
 11
239.357086
 21
98.958847
 31
0.0
  0
LINE
  5
15E
330
1F
100
AcDbEntity
  8
0
 62
     7
370
    35
100
AcDbLine
 10
238.357086
 20
107.322647
 30
0.0
 11
238.357086
 21
98.927353
 31
0.0
  0
LINE
  5
15F
330
1F
100
AcDbEntity
  8
0
 62
     7
370
    35
100
AcDbLine
 10
236.707092
 20
98.875381
 30
0.0
 11
237.857086
 21
98.911606
 31
0.0
  0
LINE
  5
160
330
1F
100
AcDbEntity
  8
0
 62
     7
370
    35
100
AcDbLine
 10
237.857086
 20
107.338394
 30
0.0
 11
237.857086
 21
98.911606
 31
0.0
  0
LINE
  5
161
330
1F
100
AcDbEntity
  8
0
 62
     7
370
    35
100
AcDbLine
 10
236.707092
 20
107.374588
 30
0.0
 11
237.857086
 21
107.338394
 31
0.0
  0
LINE
  5
162
330
1F
100
AcDbEntity
  8
0
 62
     7
370
    35
100
AcDbLine
 10
239.857086
 20
107.275375
 30
0.0
 11
239.857086
 21
98.974594
 31
0.0
  0
LINE
  5
163
330
1F
100
AcDbEntity
  8
0
 62
     7
370
    35
100
AcDbLine
 10
241.357086
 20
107.228134
 30
0.0
 11
241.357086
 21
99.021835
 31
0.0
  0
LINE
  5
164
330
1F
100
AcDbEntity
  8
0
 62
     7
370
    35
100
AcDbLine
 10
240.857086
 20
107.243881
 30
0.0
 11
240.857086
 21
99.006088
 31
0.0
  0
LINE
  5
165
330
1F
100
AcDbEntity
  8
0
 62
     7
370
    35
100
AcDbLine
 10
242.357086
 20
107.19664
 30
0.0
 11
242.357086
 21
99.053329
 31
0.0
  0
LINE
  5
166
330
1F
100
AcDbEntity
  8
0
 62
     7
370
    35
100
AcDbLine
 10
242.857086
 20
107.180893
 30
0.0
 11
242.857086
 21
99.069077
 31
0.0
  0
LINE
  5
167
330
1F
100
AcDbEntity
  8
0
 62
     7
370
    35
100
AcDbLine
 10
244.357086
 20
107.133652
 30
0.0
 11
244.357086
 21
99.116348
 31
0.0
  0
LINE
  5
168
330
1F
100
AcDbEntity
  8
0
 62
     7
370
    35
100
AcDbLine
 10
243.857086
 20
107.149399
 30
0.0
 11
243.857086
 21
99.100601
 31
0.0
  0
LINE
  5
169
330
1F
100
AcDbEntity
  8
0
 62
     7
370
    35
100
AcDbLine
 10
244.357086
 20
99.116348
 30
0.0
 11
247.807114
 21
99.224991
 31
0.0
  0
LINE
  5
16A
330
1F
100
AcDbEntity
  8
0
 62
     7
370
    35
100
AcDbLine
 10
242.857086
 20
99.069077
 30
0.0
 11
243.857086
 21
99.100601
 31
0.0
  0
LINE
  5
16B
330
1F
100
AcDbEntity
  8
0
 62
     7
370
    35
100
AcDbLine
 10
241.357086
 20
99.021835
 30
0.0
 11
242.357086
 21
99.053329
 31
0.0
  0
LINE
  5
16C
330
1F
100
AcDbEntity
  8
0
 62
     7
370
    35
100
AcDbLine
 10
239.857086
 20
98.974594
 30
0.0
 11
240.857086
 21
99.006088
 31
0.0
  0
LINE
  5
16D
330
1F
100
AcDbEntity
  8
0
 62
     7
370
    35
100
AcDbLine
 10
238.357086
 20
98.927353
 30
0.0
 11
239.357086
 21
98.958847
 31
0.0
  0
LINE
  5
16E
330
1F
100
AcDbEntity
  8
0
 62
     7
370
    35
100
AcDbLine
 10
238.357086
 20
107.322647
 30
0.0
 11
239.357086
 21
107.291153
 31
0.0
  0
LINE
  5
16F
330
1F
100
AcDbEntity
  8
0
 62
     7
370
    35
100
AcDbLine
 10
239.857086
 20
107.275375
 30
0.0
 11
240.857086
 21
107.243881
 31
0.0
  0
LINE
  5
170
330
1F
100
AcDbEntity
  8
0
 62
     7
370
    35
100
AcDbLine
 10
241.357086
 20
107.228134
 30
0.0
 11
242.357086
 21
107.19664
 31
0.0
  0
LINE
  5
171
330
1F
100
AcDbEntity
  8
0
 62
     7
370
    35
100
AcDbLine
 10
242.857086
 20
107.180893
 30
0.0
 11
243.857086
 21
107.149399
 31
0.0
  0
LINE
  5
172
330
1F
100
AcDbEntity
  8
0
 62
     7
370
    35
100
AcDbLine
 10
244.357086
 20
107.133652
 30
0.0
 11
247.807114
 21
107.025009
 31
0.0
  0
LINE
  5
173
330
1F
100
AcDbEntity
  8
0
 62
     7
370
    35
100
AcDbLine
 10
285.242004
 20
101.125015
 30
0.0
 11
284.72345
 21
103.125015
 31
0.0
  0
LINE
  5
174
330
1F
100
AcDbEntity
  8
0
 62
     7
370
    35
100
AcDbLine
 10
284.723511
 20
103.125015
 30
0.0
 11
284.204956
 21
101.125015
 31
0.0
  0
LINE
  5
175
330
1F
100
AcDbEntity
  8
0
 62
     7
370
    35
100
AcDbLine
 10
284.204956
 20
101.125015
 30
0.0
 11
284.650757
 21
99.405411
 31
0.0
  0
LINE
  5
176
330
1F
100
AcDbEntity
  8
0
 62
     7
370
    35
100
AcDbLine
 10
283.686462
 20
103.125015
 30
0.0
 11
284.205017
 21
105.125015
 31
0.0
  0
LINE
  5
177
330
1F
100
AcDbEntity
  8
0
 62
     7
370
    35
100
AcDbLine
 10
284.204956
 20
105.125015
 30
0.0
 11
283.767273
 21
106.813095
 31
0.0
  0
LINE
  5
178
330
1F
100
AcDbEntity
  8
0
 62
     7
370
    35
100
AcDbLine
 10
283.604065
 20
106.807266
 30
0.0
 11
283.167908
 21
105.125015
 31
0.0
  0
LINE
  5
179
330
1F
100
AcDbEntity
  8
0
 62
     7
370
    35
100
AcDbLine
 10
283.167908
 20
105.125015
 30
0.0
 11
283.686401
 21
103.125046
 31
0.0
  0
LINE
  5
17A
330
1F
100
AcDbEntity
  8
0
 62
     7
370
    35
100
AcDbLine
 10
282.739746
 20
99.473648
 30
0.0
 11
283.167908
 21
101.125015
 31
0.0
  0
LINE
  5
17B
330
1F
100
AcDbEntity
  8
0
 62
     7
370
    35
100
AcDbLine
 10
283.167847
 20
101.125015
 30
0.0
 11
282.649353
 21
103.125015
 31
0.0
  0
LINE
  5
17C
330
1F
100
AcDbEntity
  8
0
 62
     7
370
    35
100
AcDbLine
 10
282.649414
 20
103.125015
 30
0.0
 11
282.130859
 21
101.125015
 31
0.0
  0
LINE
  5
17D
330
1F
100
AcDbEntity
  8
0
 62
     7
370
    35
100
AcDbLine
 10
282.13092
 20
101.125015
 30
0.0
 11
282.557373
 21
99.480179
 31
0.0
  0
LINE
  5
17E
330
1F
100
AcDbEntity
  8
0
 62
     7
370
    35
100
AcDbLine
 10
281.612366
 20
103.125015
 30
0.0
 11
282.13092
 21
105.125015
 31
0.0
  0
LINE
  5
17F
330
1F
100
AcDbEntity
  8
0
 62
     7
370
    35
100
AcDbLine
 10
282.13092
 20
105.125046
 30
0.0
 11
281.71228
 21
106.7397
 31
0.0
  0
LINE
  5
180
330
1F
100
AcDbEntity
  8
0
 62
     7
370
    35
100
AcDbLine
 10
281.510559
 20
106.732498
 30
0.0
 11
281.093811
 21
105.125015
 31
0.0
  0
LINE
  5
181
330
1F
100
AcDbEntity
  8
0
 62
     7
370
    35
100
AcDbLine
 10
281.093872
 20
105.125015
 30
0.0
 11
281.612366
 21
103.125046
 31
0.0
  0
LINE
  5
182
330
1F
100
AcDbEntity
  8
0
 62
     7
370
    35
100
AcDbLine
 10
280.684753
 20
99.547043
 30
0.0
 11
281.093872
 21
101.125015
 31
0.0
  0
LINE
  5
183
330
1F
100
AcDbEntity
  8
0
 62
     7
370
    35
100
AcDbLine
 10
281.093872
 20
101.125046
 30
0.0
 11
280.575317
 21
103.125015
 31
0.0
  0
LINE
  5
184
330
1F
100
AcDbEntity
  8
0
 62
     7
370
    35
100
AcDbLine
 10
280.575317
 20
103.125046
 30
0.0
 11
280.056824
 21
101.125046
 31
0.0
  0
LINE
  5
185
330
1F
100
AcDbEntity
  8
0
 62
     7
370
    35
100
AcDbLine
 10
280.056763
 20
101.125015
 30
0.0
 11
280.463806
 21
99.554916
 31
0.0
  0
LINE
  5
186
330
1F
100
AcDbEntity
  8
0
 62
     7
370
    35
100
AcDbLine
 10
279.53833
 20
103.125015
 30
0.0
 11
280.056824
 21
105.125015
 31
0.0
  0
LINE
  5
187
330
1F
100
AcDbEntity
  8
0
 62
     7
370
    35
100
AcDbLine
 10
280.056824
 20
105.125015
 30
0.0
 11
279.657227
 21
106.666336
 31
0.0
  0
LINE
  5
188
330
1F
100
AcDbEntity
  8
0
 62
     7
370
    35
100
AcDbLine
 10
279.417175
 20
106.65773
 30
0.0
 11
279.019775
 21
105.125015
 31
0.0
  0
LINE
  5
189
330
1F
100
AcDbEntity
  8
0
 62
     7
370
    35
100
AcDbLine
 10
279.019836
 20
105.125046
 30
0.0
 11
279.53833
 21
103.125046
 31
0.0
  0
LINE
  5
18A
330
1F
100
AcDbEntity
  8
0
 62
     7
370
    35
100
AcDbLine
 10
297.501221
 20
104.124985
 30
0.0
 11
302.501221
 21
104.124985
 31
0.0
  0
LINE
  5
18B
330
1F
100
AcDbEntity
  8
0
 62
     7
370
    35
100
AcDbLine
 10
297.501221
 20
102.124985
 30
0.0
 11
302.501221
 21
102.124985
 31
0.0
  0
LINE
  5
18C
330
1F
100
AcDbEntity
  8
0
 62
     7
370
    35
100
AcDbLine
 10
133.057098
 20
106.790878
 30
0.0
 11
132.557098
 21
106.775131
 31
0.0
  0
LINE
  5
18D
330
1F
100
AcDbEntity
  8
0
 62
     7
370
    35
100
AcDbLine
 10
131.557098
 20
106.743637
 30
0.0
 11
131.057098
 21
106.72789
 31
0.0
  0
LINE
  5
18E
330
1F
100
AcDbEntity
  8
0
 62
     7
370
    35
100
AcDbLine
 10
130.057098
 20
106.696396
 30
0.0
 11
129.557098
 21
106.680649
 31
0.0
  0
LINE
  5
18F
330
1F
100
AcDbEntity
  8
0
 62
     7
370
    35
100
AcDbLine
 10
128.557098
 20
106.649155
 30
0.0
 11
128.057098
 21
106.633408
 31
0.0
  0
LINE
  5
190
330
1F
100
AcDbEntity
  8
0
 62
     7
370
    35
100
AcDbLine
 10
133.057098
 20
99.459091
 30
0.0
 11
132.557098
 21
99.474838
 31
0.0
  0
LINE
  5
191
330
1F
100
AcDbEntity
  8
0
 62
     7
370
    35
100
AcDbLine
 10
131.557098
 20
99.506332
 30
0.0
 11
131.057098
 21
99.52211
 31
0.0
  0
LINE
  5
192
330
1F
100
AcDbEntity
  8
0
 62
     7
370
    35
100
AcDbLine
 10
130.057098
 20
99.553604
 30
0.0
 11
129.557098
 21
99.569351
 31
0.0
  0
LINE
  5
193
330
1F
100
AcDbEntity
  8
0
 62
     7
370
    35
100
AcDbLine
 10
128.557098
 20
99.600845
 30
0.0
 11
128.057098
 21
99.616592
 31
0.0
  0
LINE
  5
194
330
1F
100
AcDbEntity
  8
0
 62
     7
370
    35
100
AcDbLine
 10
128.057098
 20
107.133652
 30
0.0
 11
124.607086
 21
107.025009
 31
0.0
  0
LINE
  5
195
330
1F
100
AcDbEntity
  8
0
 62
     7
370
    35
100
AcDbLine
 10
129.557098
 20
107.180893
 30
0.0
 11
128.557098
 21
107.149399
 31
0.0
  0
LINE
  5
196
330
1F
100
AcDbEntity
  8
0
 62
     7
370
    35
100
AcDbLine
 10
131.057098
 20
107.228134
 30
0.0
 11
130.057098
 21
107.19664
 31
0.0
  0
LINE
  5
197
330
1F
100
AcDbEntity
  8
0
 62
     7
370
    35
100
AcDbLine
 10
132.557098
 20
107.275375
 30
0.0
 11
131.557098
 21
107.243881
 31
0.0
  0
LINE
  5
198
330
1F
100
AcDbEntity
  8
0
 62
     7
370
    35
100
AcDbLine
 10
134.057098
 20
107.322647
 30
0.0
 11
133.057098
 21
107.291153
 31
0.0
  0
LINE
  5
199
330
1F
100
AcDbEntity
  8
0
 62
     7
370
    35
100
AcDbLine
 10
134.057098
 20
98.927353
 30
0.0
 11
133.057098
 21
98.958847
 31
0.0
  0
LINE
  5
19A
330
1F
100
AcDbEntity
  8
0
 62
     7
370
    35
100
AcDbLine
 10
132.557098
 20
98.974594
 30
0.0
 11
131.557098
 21
99.006088
 31
0.0
  0
LINE
  5
19B
330
1F
100
AcDbEntity
  8
0
 62
     7
370
    35
100
AcDbLine
 10
131.057098
 20
99.021835
 30
0.0
 11
130.057098
 21
99.053329
 31
0.0
  0
LINE
  5
19C
330
1F
100
AcDbEntity
  8
0
 62
     7
370
    35
100
AcDbLine
 10
129.557098
 20
99.069077
 30
0.0
 11
128.557098
 21
99.100601
 31
0.0
  0
LINE
  5
19D
330
1F
100
AcDbEntity
  8
0
 62
     7
370
    35
100
AcDbLine
 10
128.057098
 20
99.116348
 30
0.0
 11
124.607086
 21
99.224991
 31
0.0
  0
LINE
  5
19E
330
1F
100
AcDbEntity
  8
0
 62
     7
370
    35
100
AcDbLine
 10
128.557098
 20
107.149399
 30
0.0
 11
128.557098
 21
99.100601
 31
0.0
  0
LINE
  5
19F
330
1F
100
AcDbEntity
  8
0
 62
     7
370
    35
100
AcDbLine
 10
128.057098
 20
107.133652
 30
0.0
 11
128.057098
 21
99.116348
 31
0.0
  0
LINE
  5
1A0
330
1F
100
AcDbEntity
  8
0
 62
     7
370
    35
100
AcDbLine
 10
129.557098
 20
107.180893
 30
0.0
 11
129.557098
 21
99.069077
 31
0.0
  0
LINE
  5
1A1
330
1F
100
AcDbEntity
  8
0
 62
     7
370
    35
100
AcDbLine
 10
130.057098
 20
107.19664
 30
0.0
 11
130.057098
 21
99.053329
 31
0.0
  0
LINE
  5
1A2
330
1F
100
AcDbEntity
  8
0
 62
     7
370
    35
100
AcDbLine
 10
131.557098
 20
107.243881
 30
0.0
 11
131.557098
 21
99.006088
 31
0.0
  0
LINE
  5
1A3
330
1F
100
AcDbEntity
  8
0
 62
     7
370
    35
100
AcDbLine
 10
131.057098
 20
107.228134
 30
0.0
 11
131.057098
 21
99.021835
 31
0.0
  0
LINE
  5
1A4
330
1F
100
AcDbEntity
  8
0
 62
     7
370
    35
100
AcDbLine
 10
132.557098
 20
107.275375
 30
0.0
 11
132.557098
 21
98.974594
 31
0.0
  0
LINE
  5
1A5
330
1F
100
AcDbEntity
  8
0
 62
     7
370
    35
100
AcDbLine
 10
135.707092
 20
107.374588
 30
0.0
 11
134.557098
 21
107.338394
 31
0.0
  0
LINE
  5
1A6
330
1F
100
AcDbEntity
  8
0
 62
     7
370
    35
100
AcDbLine
 10
134.557098
 20
107.338394
 30
0.0
 11
134.557098
 21
98.911606
 31
0.0
  0
LINE
  5
1A7
330
1F
100
AcDbEntity
  8
0
 62
     7
370
    35
100
AcDbLine
 10
135.707092
 20
98.875381
 30
0.0
 11
134.557098
 21
98.911606
 31
0.0
  0
LINE
  5
1A8
330
1F
100
AcDbEntity
  8
0
 62
     7
370
    35
100
AcDbLine
 10
134.057098
 20
107.322647
 30
0.0
 11
134.057098
 21
98.927353
 31
0.0
  0
LINE
  5
1A9
330
1F
100
AcDbEntity
  8
0
 62
     7
370
    35
100
AcDbLine
 10
133.057098
 20
107.291153
 30
0.0
 11
133.057098
 21
98.958847
 31
0.0
  0
LINE
  5
1AA
330
1F
100
AcDbEntity
  8
0
 62
     7
370
    35
100
AcDbLine
 10
243.857086
 20
99.600845
 30
0.0
 11
244.357086
 21
99.616592
 31
0.0
  0
LINE
  5
1AB
330
1F
100
AcDbEntity
  8
0
 62
     7
370
    35
100
AcDbLine
 10
134.557098
 20
106.83812
 30
0.0
 11
134.057098
 21
106.822372
 31
0.0
  0
LINE
  5
1AC
330
1F
100
AcDbEntity
  8
0
 62
     7
370
    35
100
AcDbLine
 10
242.357086
 20
99.553604
 30
0.0
 11
242.857086
 21
99.569351
 31
0.0
  0
LINE
  5
1AD
330
1F
100
AcDbEntity
  8
0
 62
     7
370
    35
100
AcDbLine
 10
240.857086
 20
99.506332
 30
0.0
 11
241.357086
 21
99.52211
 31
0.0
  0
LINE
  5
1AE
330
1F
100
AcDbEntity
  8
0
 62
     7
370
    35
100
AcDbLine
 10
239.357086
 20
99.459091
 30
0.0
 11
239.857086
 21
99.474838
 31
0.0
  0
LINE
  5
1AF
330
1F
100
AcDbEntity
  8
0
 62
     7
370
    35
100
AcDbLine
 10
243.857086
 20
106.649155
 30
0.0
 11
244.357086
 21
106.633408
 31
0.0
  0
LINE
  5
1B0
330
1F
100
AcDbEntity
  8
0
 62
     7
370
    35
100
AcDbLine
 10
242.357086
 20
106.696396
 30
0.0
 11
242.857086
 21
106.680649
 31
0.0
  0
LINE
  5
1B1
330
1F
100
AcDbEntity
  8
0
 62
     7
370
    35
100
AcDbLine
 10
240.857086
 20
106.743637
 30
0.0
 11
241.357086
 21
106.72789
 31
0.0
  0
LINE
  5
1B2
330
1F
100
AcDbEntity
  8
0
 62
     7
370
    35
100
AcDbLine
 10
134.557098
 20
99.41185
 30
0.0
 11
134.057098
 21
99.427597
 31
0.0
  0
LINE
  5
1B3
330
1F
100
AcDbEntity
  8
0
 62
     7
370
    35
100
AcDbLine
 10
239.357086
 20
106.790878
 30
0.0
 11
239.857086
 21
106.775131
 31
0.0
  0
LINE
  5
1B4
330
1F
100
AcDbEntity
  8
0
 62
     7
370
    35
100
AcDbLine
 10
124.607086
 20
107.025009
 30
0.0
 11
124.607086
 21
99.224991
 31
0.0
  0
LINE
  5
1B5
330
1F
100
AcDbEntity
  8
0
 62
     7
370
    35
100
AcDbLine
 10
136.507095
 20
96.124985
 30
0.0
 11
136.507095
 21
95.925003
 31
0.0
  0
LINE
  5
1B6
330
1F
100
AcDbEntity
  8
0
 62
     7
370
    35
100
AcDbLine
 10
243.707092
 20
95.925003
 30
0.0
 11
245.707077
 21
95.925003
 31
0.0
  0
LINE
  5
1B7
330
1F
100
AcDbEntity
  8
0
 62
     7
370
    35
100
AcDbLine
 10
243.707092
 20
95.124985
 30
0.0
 11
245.707077
 21
95.124985
 31
0.0
  0
LINE
  5
1B8
330
1F
100
AcDbEntity
  8
0
 62
     7
370
    35
100
AcDbLine
 10
128.707092
 20
95.124985
 30
0.0
 11
135.707092
 21
95.124985
 31
0.0
  0
LINE
  5
1B9
330
1F
100
AcDbEntity
  8
0
 62
     7
370
    35
100
AcDbLine
 10
126.707092
 20
95.925003
 30
0.0
 11
128.707092
 21
95.925003
 31
0.0
  0
LINE
  5
1BA
330
1F
100
AcDbEntity
  8
0
 62
     7
370
    35
100
AcDbLine
 10
236.707092
 20
109.124985
 30
0.0
 11
236.707092
 21
109.12001
 31
0.0
  0
LINE
  5
1BB
330
1F
100
AcDbEntity
  8
0
 62
     7
370
    35
100
AcDbLine
 10
235.907074
 20
95.124985
 30
0.0
 11
235.907074
 21
96.124985
 31
0.0
  0
LINE
  5
1BC
330
1F
100
AcDbEntity
  8
0
 62
     7
370
    35
100
AcDbLine
 10
236.707092
 20
96.124985
 30
0.0
 11
236.707092
 21
95.124985
 31
0.0
  0
LINE
  5
1BD
330
1F
100
AcDbEntity
  8
0
 62
     7
370
    35
100
AcDbLine
 10
235.902069
 20
109.925003
 30
0.0
 11
235.907074
 21
109.925003
 31
0.0
  0
LINE
  5
1BE
330
1F
100
AcDbEntity
  8
0
 62
     7
370
    35
100
AcDbLine
 10
235.902069
 20
109.124985
 30
0.0
 11
235.907074
 21
109.124985
 31
0.0
  0
LINE
  5
1BF
330
1F
100
AcDbEntity
  8
0
 62
     7
370
    35
100
AcDbLine
 10
235.907074
 20
109.12001
 30
0.0
 11
235.907074
 21
109.124985
 31
0.0
  0
LINE
  5
1C0
330
1F
100
AcDbEntity
  8
0
 62
     7
370
    35
100
AcDbLine
 10
235.907074
 20
95.124985
 30
0.0
 11
236.707092
 21
95.124985
 31
0.0
  0
LINE
  5
1C1
330
1F
100
AcDbEntity
  8
0
 62
     7
370
    35
100
AcDbLine
 10
135.707092
 20
96.124985
 30
0.0
 11
136.512085
 21
96.124985
 31
0.0
  0
LINE
  5
1C2
330
1F
100
AcDbEntity
  8
0
 62
     7
370
    35
100
AcDbLine
 10
235.902069
 20
109.124985
 30
0.0
 11
235.902069
 21
109.925003
 31
0.0
  0
LINE
  5
1C3
330
1F
100
AcDbEntity
  8
0
 62
     7
370
    35
100
AcDbLine
 10
235.902069
 20
109.124985
 30
0.0
 11
235.902069
 21
109.12001
 31
0.0
  0
LINE
  5
1C4
330
1F
100
AcDbEntity
  8
0
 62
     7
370
    35
100
AcDbLine
 10
136.507095
 20
109.925003
 30
0.0
 11
136.512085
 21
109.925003
 31
0.0
  0
LINE
  5
1C5
330
1F
100
AcDbEntity
  8
0
 62
     7
370
    35
100
AcDbLine
 10
235.902069
 20
109.925003
 30
0.0
 11
136.512085
 21
109.925003
 31
0.0
  0
LINE
  5
1C6
330
1F
100
AcDbEntity
  8
0
 62
     7
370
    35
100
AcDbLine
 10
136.512085
 20
96.124985
 30
0.0
 11
235.902069
 21
96.124985
 31
0.0
  0
LINE
  5
1C7
330
1F
100
AcDbEntity
  8
0
 62
     7
370
    35
100
AcDbLine
 10
135.707092
 20
109.12001
 30
0.0
 11
135.707092
 21
96.124985
 31
0.0
  0
LINE
  5
1C8
330
1F
100
AcDbEntity
  8
0
 62
     7
370
    35
100
AcDbLine
 10
136.512085
 20
109.124985
 30
0.0
 11
136.512085
 21
109.925003
 31
0.0
  0
LINE
  5
1C9
330
1F
100
AcDbEntity
  8
0
 62
     7
370
    35
100
AcDbLine
 10
136.512085
 20
109.12001
 30
0.0
 11
135.707092
 21
109.12001
 31
0.0
  0
LINE
  5
1CA
330
1F
100
AcDbEntity
  8
0
 62
     7
370
    35
100
AcDbLine
 10
136.512085
 20
109.124985
 30
0.0
 11
136.512085
 21
109.12001
 31
0.0
  0
LINE
  5
1CB
330
1F
100
AcDbEntity
  8
0
 62
     7
370
    35
100
AcDbLine
 10
235.902069
 20
109.12001
 30
0.0
 11
236.707092
 21
109.12001
 31
0.0
  0
LINE
  5
1CC
330
1F
100
AcDbEntity
  8
0
 62
     7
370
    35
100
AcDbLine
 10
236.707092
 20
109.12001
 30
0.0
 11
236.707092
 21
96.124985
 31
0.0
  0
LINE
  5
1CD
330
1F
100
AcDbEntity
  8
0
 62
     7
370
    35
100
AcDbLine
 10
235.902069
 20
96.124985
 30
0.0
 11
236.707092
 21
96.124985
 31
0.0
  0
LINE
  5
1CE
330
1F
100
AcDbEntity
  8
0
 62
     7
370
    35
100
AcDbLine
 10
136.507095
 20
109.124985
 30
0.0
 11
136.512085
 21
109.124985
 31
0.0
  0
LINE
  5
1CF
330
1F
100
AcDbEntity
  8
0
 62
     7
370
    35
100
AcDbLine
 10
135.707092
 20
95.925003
 30
0.0
 11
128.707092
 21
95.925003
 31
0.0
  0
LINE
  5
1D0
330
1F
100
AcDbEntity
  8
0
 62
     7
370
    35
100
AcDbLine
 10
135.707092
 20
109.124985
 30
0.0
 11
135.707092
 21
109.12001
 31
0.0
  0
LINE
  5
1D1
330
1F
100
AcDbEntity
  8
0
 62
     7
370
    35
100
AcDbLine
 10
135.707092
 20
96.124985
 30
0.0
 11
135.707092
 21
95.925003
 31
0.0
  0
LINE
  5
1D2
330
1F
100
AcDbEntity
  8
0
 62
     7
370
    35
100
AcDbLine
 10
136.507095
 20
95.124985
 30
0.0
 11
135.707092
 21
95.124985
 31
0.0
  0
LINE
  5
1D3
330
1F
100
AcDbEntity
  8
0
 62
     7
370
    35
100
AcDbLine
 10
136.507095
 20
95.929916
 30
0.0
 11
136.507095
 21
95.124985
 31
0.0
  0
LINE
  5
1D4
330
1F
100
AcDbEntity
  8
0
 62
     7
370
    35
100
AcDbLine
 10
126.707092
 20
95.124985
 30
0.0
 11
126.707092
 21
95.925003
 31
0.0
  0
LINE
  5
1D5
330
1F
100
AcDbEntity
  8
0
 62
     7
370
    35
100
AcDbLine
 10
126.707092
 20
95.124985
 30
0.0
 11
128.707092
 21
95.124985
 31
0.0
  0
LINE
  5
1D6
330
1F
100
AcDbEntity
  8
0
 62
     7
370
    35
100
AcDbLine
 10
245.707077
 20
95.124985
 30
0.0
 11
245.707077
 21
95.925003
 31
0.0
  0
LINE
  5
1D7
330
1F
100
AcDbEntity
  8
0
 62
     7
370
    35
100
AcDbLine
 10
243.707092
 20
95.925003
 30
0.0
 11
236.707092
 21
95.925003
 31
0.0
  0
LINE
  5
1D8
330
1F
100
AcDbEntity
  8
0
 62
     7
370
    35
100
AcDbLine
 10
243.707092
 20
95.124985
 30
0.0
 11
236.707092
 21
95.124985
 31
0.0
  0
LINE
  5
1D9
330
1F
100
AcDbEntity
  8
0
 62
     7
370
    35
100
AcDbLine
 10
137.607086
 20
96.124985
 30
0.0
 11
137.607086
 21
95.724991
 31
0.0
  0
LINE
  5
1DA
330
1F
100
AcDbEntity
  8
0
 62
     7
370
    35
100
AcDbLine
 10
136.607086
 20
95.724991
 30
0.0
 11
136.607086
 21
96.124985
 31
0.0
  0
LINE
  5
1DB
330
1F
100
AcDbEntity
  8
0
 62
     7
370
    35
100
AcDbLine
 10
137.657089
 20
94.724991
 30
0.0
 11
137.607086
 21
94.724991
 31
0.0
  0
LINE
  5
1DC
330
1F
100
AcDbEntity
  8
0
 62
     7
370
    35
100
AcDbLine
 10
234.757111
 20
94.724991
 30
0.0
 11
137.657089
 21
94.724991
 31
0.0
  0
LINE
  5
1DD
330
1F
100
AcDbEntity
  8
0
 62
     7
370
    35
100
AcDbLine
 10
137.657089
 20
94.724991
 30
0.0
 11
137.657089
 21
95.724991
 31
0.0
  0
LINE
  5
1DE
330
1F
100
AcDbEntity
  8
0
 62
     7
370
    35
100
AcDbLine
 10
137.657089
 20
95.724991
 30
0.0
 11
137.657089
 21
96.124985
 31
0.0
  0
LINE
  5
1DF
330
1F
100
AcDbEntity
  8
0
 62
     7
370
    35
100
AcDbLine
 10
234.757111
 20
94.724991
 30
0.0
 11
234.807098
 21
94.724991
 31
0.0
  0
LINE
  5
1E0
330
1F
100
AcDbEntity
  8
0
 62
     7
370
    35
100
AcDbLine
 10
234.757111
 20
95.724991
 30
0.0
 11
234.757111
 21
96.124985
 31
0.0
  0
LINE
  5
1E1
330
1F
100
AcDbEntity
  8
0
 62
     7
370
    35
100
AcDbLine
 10
234.757111
 20
94.724991
 30
0.0
 11
234.757111
 21
95.724991
 31
0.0
  0
LINE
  5
1E2
330
1F
100
AcDbEntity
  8
0
 62
     7
370
    35
100
AcDbLine
 10
234.807098
 20
95.724991
 30
0.0
 11
234.807098
 21
96.124985
 31
0.0
  0
LINE
  5
1E3
330
1F
100
AcDbEntity
  8
0
 62
     7
370
    35
100
AcDbLine
 10
235.807098
 20
95.724991
 30
0.0
 11
235.807098
 21
96.124985
 31
0.0
  0
LINE
  5
1E4
330
1F
100
AcDbEntity
  8
0
 62
     7
370
    35
100
AcDbLine
 10
137.657089
 20
95.724991
 30
0.0
 11
137.607086
 21
95.724991
 31
0.0
  0
LINE
  5
1E5
330
1F
100
AcDbEntity
  8
0
 62
     7
370
    35
100
AcDbLine
 10
234.807098
 20
95.724991
 30
0.0
 11
234.757111
 21
95.724991
 31
0.0
  0
LINE
  5
1E6
330
1F
100
AcDbEntity
  8
0
 62
     7
370
    35
100
AcDbLine
 10
146.787857
 20
99.361404
 30
0.0
 11
147.141403
 21
99.007828
 31
0.0
  0
LINE
  5
1E7
330
1F
100
AcDbEntity
  8
0
 62
     7
370
    35
100
AcDbLine
 10
147.070694
 20
99.644241
 30
0.0
 11
147.424255
 21
99.290695
 31
0.0
  0
LINE
  5
1E8
330
1F
100
AcDbEntity
  8
0
 62
     7
370
    35
100
AcDbLine
 10
146.787857
 20
98.088608
 30
0.0
 11
147.141403
 21
98.442154
 31
0.0
  0
LINE
  5
1E9
330
1F
100
AcDbEntity
  8
0
 62
     7
370
    35
100
AcDbLine
 10
147.070694
 20
97.805771
 30
0.0
 11
147.424255
 21
98.159317
 31
0.0
  0
LINE
  5
1EA
330
1F
100
AcDbEntity
  8
0
 62
     7
370
    35
100
AcDbLine
 10
147.989929
 20
99.290695
 30
0.0
 11
148.343491
 21
99.644241
 31
0.0
  0
LINE
  5
1EB
330
1F
100
AcDbEntity
  8
0
 62
     7
370
    35
100
AcDbLine
 10
148.272781
 20
99.007828
 30
0.0
 11
148.626328
 21
99.361404
 31
0.0
  0
LINE
  5
1EC
330
1F
100
AcDbEntity
  8
0
 62
     7
370
    35
100
AcDbLine
 10
148.272781
 20
98.442154
 30
0.0
 11
148.626328
 21
98.088608
 31
0.0
  0
LINE
  5
1ED
330
1F
100
AcDbEntity
  8
0
 62
     7
370
    35
100
AcDbLine
 10
147.989929
 20
98.159317
 30
0.0
 11
148.343491
 21
97.805771
 31
0.0
  0
LINE
  5
1EE
330
1F
100
AcDbEntity
  8
0
 62
     7
370
    35
100
AcDbLine
 10
148.343491
 20
99.644241
 30
0.0
 11
148.626328
 21
99.361404
 31
0.0
  0
LINE
  5
1EF
330
1F
100
AcDbEntity
  8
0
 62
     7
370
    35
100
AcDbLine
 10
146.787857
 20
98.088608
 30
0.0
 11
147.070694
 21
97.805771
 31
0.0
  0
LINE
  5
1F0
330
1F
100
AcDbEntity
  8
0
 62
     7
370
    35
100
AcDbLine
 10
146.787857
 20
99.361404
 30
0.0
 11
147.070694
 21
99.644241
 31
0.0
  0
LINE
  5
1F1
330
1F
100
AcDbEntity
  8
0
 62
     7
370
    35
100
AcDbLine
 10
148.343491
 20
97.805771
 30
0.0
 11
148.626328
 21
98.088608
 31
0.0
  0
LINE
  5
1F2
330
1F
100
AcDbEntity
  8
0
 62
     7
370
    35
100
AcDbLine
 10
223.070709
 20
99.644241
 30
0.0
 11
223.424255
 21
99.290695
 31
0.0
  0
LINE
  5
1F3
330
1F
100
AcDbEntity
  8
0
 62
     7
370
    35
100
AcDbLine
 10
222.787872
 20
99.361404
 30
0.0
 11
223.141388
 21
99.007828
 31
0.0
  0
LINE
  5
1F4
330
1F
100
AcDbEntity
  8
0
 62
     7
370
    35
100
AcDbLine
 10
222.787872
 20
98.088608
 30
0.0
 11
223.141388
 21
98.442154
 31
0.0
  0
LINE
  5
1F5
330
1F
100
AcDbEntity
  8
0
 62
     7
370
    35
100
AcDbLine
 10
223.070709
 20
97.805771
 30
0.0
 11
223.424255
 21
98.159317
 31
0.0
  0
LINE
  5
1F6
330
1F
100
AcDbEntity
  8
0
 62
     7
370
    35
100
AcDbLine
 10
223.989929
 20
99.290695
 30
0.0
 11
224.343475
 21
99.644241
 31
0.0
  0
LINE
  5
1F7
330
1F
100
AcDbEntity
  8
0
 62
     7
370
    35
100
AcDbLine
 10
224.272797
 20
99.007828
 30
0.0
 11
224.626312
 21
99.361404
 31
0.0
  0
LINE
  5
1F8
330
1F
100
AcDbEntity
  8
0
 62
     7
370
    35
100
AcDbLine
 10
224.272797
 20
98.442154
 30
0.0
 11
224.626312
 21
98.088608
 31
0.0
  0
LINE
  5
1F9
330
1F
100
AcDbEntity
  8
0
 62
     7
370
    35
100
AcDbLine
 10
223.989929
 20
98.159317
 30
0.0
 11
224.343475
 21
97.805771
 31
0.0
  0
LINE
  5
1FA
330
1F
100
AcDbEntity
  8
0
 62
     7
370
    35
100
AcDbLine
 10
224.343475
 20
99.644241
 30
0.0
 11
224.626312
 21
99.361404
 31
0.0
  0
LINE
  5
1FB
330
1F
100
AcDbEntity
  8
0
 62
     7
370
    35
100
AcDbLine
 10
222.787872
 20
98.088608
 30
0.0
 11
223.070709
 21
97.805771
 31
0.0
  0
LINE
  5
1FC
330
1F
100
AcDbEntity
  8
0
 62
     7
370
    35
100
AcDbLine
 10
222.787872
 20
99.361404
 30
0.0
 11
223.070709
 21
99.644241
 31
0.0
  0
LINE
  5
1FD
330
1F
100
AcDbEntity
  8
0
 62
     7
370
    35
100
AcDbLine
 10
224.343475
 20
97.805771
 30
0.0
 11
224.626312
 21
98.088608
 31
0.0
  0
LINE
  5
1FE
330
1F
100
AcDbEntity
  8
0
 62
     7
370
    35
100
AcDbLine
 10
35.49881
 20
84.874985
 30
0.0
 11
41.49881
 21
84.874985
 31
0.0
  0
LINE
  5
1FF
330
1F
100
AcDbEntity
  8
0
 62
     7
370
    35
100
AcDbLine
 10
41.49881
 20
96.374985
 30
0.0
 11
41.49881
 21
84.874985
 31
0.0
  0
LINE
  5
200
330
1F
100
AcDbEntity
  8
0
 62
     7
370
    35
100
AcDbLine
 10
35.49881
 20
96.374985
 30
0.0
 11
35.49881
 21
84.874985
 31
0.0
  0
LINE
  5
201
330
1F
100
AcDbEntity
  8
0
 62
     7
370
    35
100
AcDbLine
 10
28.49881
 20
118.624985
 30
0.0
 11
48.49881
 21
118.624985
 31
0.0
  0
LINE
  5
202
330
1F
100
AcDbEntity
  8
0
 62
     7
370
    35
100
AcDbLine
 10
48.49881
 20
98.374985
 30
0.0
 11
48.49881
 21
117.624985
 31
0.0
  0
LINE
  5
203
330
1F
100
AcDbEntity
  8
0
 62
     7
370
    35
100
AcDbLine
 10
28.49881
 20
98.374985
 30
0.0
 11
28.49881
 21
117.624985
 31
0.0
  0
LINE
  5
204
330
1F
100
AcDbEntity
  8
0
 62
     7
370
    35
100
AcDbLine
 10
28.598816
 20
117.624985
 30
0.0
 11
28.598816
 21
118.624985
 31
0.0
  0
LINE
  5
205
330
1F
100
AcDbEntity
  8
0
 62
     7
370
    35
100
AcDbLine
 10
48.398804
 20
117.624985
 30
0.0
 11
48.398804
 21
118.624985
 31
0.0
  0
LINE
  5
206
330
1F
100
AcDbEntity
  8
0
 62
     7
370
    35
100
AcDbLine
 10
28.49881
 20
117.624985
 30
0.0
 11
48.49881
 21
117.624985
 31
0.0
  0
LINE
  5
207
330
1F
100
AcDbEntity
  8
0
 62
     7
370
    35
100
AcDbLine
 10
47.49881
 20
97.374985
 30
0.0
 11
48.49881
 21
98.374985
 31
0.0
  0
LINE
  5
208
330
1F
100
AcDbEntity
  8
0
 62
     7
370
    35
100
AcDbLine
 10
29.49881
 20
97.374985
 30
0.0
 11
28.49881
 21
98.374985
 31
0.0
  0
LINE
  5
209
330
1F
100
AcDbEntity
  8
0
 62
     7
370
    35
100
AcDbLine
 10
48.49881
 20
118.624985
 30
0.0
 11
48.49881
 21
131.624985
 31
0.0
  0
LINE
  5
20A
330
1F
100
AcDbEntity
  8
0
 62
     7
370
    35
100
AcDbLine
 10
28.49881
 20
118.624985
 30
0.0
 11
28.49881
 21
131.624985
 31
0.0
  0
LINE
  5
20B
330
1F
100
AcDbEntity
  8
0
 62
     7
370
    35
100
AcDbLine
 10
48.398804
 20
131.624985
 30
0.0
 11
48.398804
 21
139.625015
 31
0.0
  0
LINE
  5
20C
330
1F
100
AcDbEntity
  8
0
 62
     7
370
    35
100
AcDbLine
 10
28.598816
 20
131.624985
 30
0.0
 11
28.598816
 21
139.625015
 31
0.0
  0
LINE
  5
20D
330
1F
100
AcDbEntity
  8
0
 62
     7
370
    35
100
AcDbLine
 10
48.49881
 20
139.625015
 30
0.0
 11
48.49881
 21
149.125015
 31
0.0
  0
LINE
  5
20E
330
1F
100
AcDbEntity
  8
0
 62
     7
370
    35
100
AcDbLine
 10
28.49881
 20
131.624985
 30
0.0
 11
48.49881
 21
131.624985
 31
0.0
  0
LINE
  5
20F
330
1F
100
AcDbEntity
  8
0
 62
     7
370
    35
100
AcDbLine
 10
28.49881
 20
139.625015
 30
0.0
 11
48.49881
 21
139.625015
 31
0.0
  0
LINE
  5
210
330
1F
100
AcDbEntity
  8
0
 62
     7
370
    35
100
AcDbLine
 10
28.49881
 20
139.625015
 30
0.0
 11
28.49881
 21
149.125015
 31
0.0
  0
LINE
  5
211
330
1F
100
AcDbEntity
  8
0
 62
     7
370
    35
100
AcDbLine
 10
29.49881
 20
97.374985
 30
0.0
 11
47.49881
 21
97.374985
 31
0.0
  0
LINE
  5
212
330
1F
100
AcDbEntity
  8
0
 62
     7
370
    35
100
AcDbLine
 10
75.49881
 20
167.875015
 30
0.0
 11
76.49881
 21
167.875015
 31
0.0
  0
LINE
  5
213
330
1F
100
AcDbEntity
  8
0
 62
     7
370
    35
100
AcDbLine
 10
75.49881
 20
158.375015
 30
0.0
 11
76.49881
 21
158.375015
 31
0.0
  0
LINE
  5
214
330
1F
100
AcDbEntity
  8
0
 62
     7
370
    35
100
AcDbLine
 10
95.49881
 20
167.125015
 30
0.0
 11
95.49881
 21
159.125015
 31
0.0
  0
LINE
  5
215
330
1F
100
AcDbEntity
  8
0
 62
     7
370
    35
100
AcDbLine
 10
76.49881
 20
167.875015
 30
0.0
 11
79.24881
 21
167.766434
 31
0.0
  0
LINE
  5
216
330
1F
100
AcDbEntity
  8
0
 62
     7
370
    35
100
AcDbLine
 10
76.49881
 20
158.375015
 30
0.0
 11
79.24881
 21
158.483536
 31
0.0
  0
LINE
  5
217
330
1F
100
AcDbEntity
  8
0
 62
     7
370
    35
100
AcDbLine
 10
33.99881
 20
96.374985
 30
0.0
 11
42.99881
 21
96.374985
 31
0.0
  0
LINE
  5
218
330
1F
100
AcDbEntity
  8
0
 62
     7
370
    35
100
AcDbLine
 10
33.99881
 20
96.374985
 30
0.0
 11
33.49881
 21
97.374985
 31
0.0
  0
LINE
  5
219
330
1F
100
AcDbEntity
  8
0
 62
     7
370
    35
100
AcDbLine
 10
42.99881
 20
96.374985
 30
0.0
 11
43.49881
 21
97.374985
 31
0.0
  0
LINE
  5
21A
330
1F
100
AcDbEntity
  8
0
 62
     7
370
    35
100
AcDbLine
 10
35.49881
 20
79.874985
 30
0.0
 11
41.49881
 21
79.874985
 31
0.0
  0
LINE
  5
21B
330
1F
100
AcDbEntity
  8
0
 62
     7
370
    35
100
AcDbLine
 10
34.99881
 20
80.449997
 30
0.0
 11
34.99881
 21
84.374985
 31
0.0
  0
LINE
  5
21C
330
1F
100
AcDbEntity
  8
0
 62
     7
370
    35
100
AcDbLine
 10
34.99881
 20
80.374985
 30
0.0
 11
34.99881
 21
84.374985
 31
0.0
  0
LINE
  5
21D
330
1F
100
AcDbEntity
  8
0
 62
     7
370
    35
100
AcDbLine
 10
41.99881
 20
80.374985
 30
0.0
 11
41.99881
 21
84.374985
 31
0.0
  0
LINE
  5
21E
330
1F
100
AcDbEntity
  8
0
 62
     7
370
    35
100
AcDbLine
 10
34.99881
 20
84.374985
 30
0.0
 11
41.99881
 21
84.374985
 31
0.0
  0
LINE
  5
21F
330
1F
100
AcDbEntity
  8
0
 62
     7
370
    35
100
AcDbLine
 10
34.99881
 20
80.374985
 30
0.0
 11
41.99881
 21
80.374985
 31
0.0
  0
LINE
  5
220
330
1F
100
AcDbEntity
  8
0
 62
     7
370
    35
100
AcDbLine
 10
41.49881
 20
79.874985
 30
0.0
 11
41.99881
 21
80.374985
 31
0.0
  0
LINE
  5
221
330
1F
100
AcDbEntity
  8
0
 62
     7
370
    35
100
AcDbLine
 10
35.49881
 20
79.874985
 30
0.0
 11
34.99881
 21
80.374985
 31
0.0
  0
LINE
  5
222
330
1F
100
AcDbEntity
  8
0
 62
     7
370
    35
100
AcDbLine
 10
34.99881
 20
84.374985
 30
0.0
 11
35.49881
 21
84.874985
 31
0.0
  0
LINE
  5
223
330
1F
100
AcDbEntity
  8
0
 62
     7
370
    35
100
AcDbLine
 10
41.99881
 20
84.374985
 30
0.0
 11
41.49881
 21
84.874985
 31
0.0
  0
LINE
  5
224
330
1F
100
AcDbEntity
  8
0
 62
     7
370
    35
100
AcDbLine
 10
36.99881
 20
73.874985
 30
0.0
 11
39.99881
 21
73.874985
 31
0.0
  0
LINE
  5
225
330
1F
100
AcDbEntity
  8
0
 62
     7
370
    35
100
AcDbLine
 10
40.99881
 20
79.874985
 30
0.0
 11
39.99881
 21
73.874985
 31
0.0
  0
LINE
  5
226
330
1F
100
AcDbEntity
  8
0
 62
     7
370
    35
100
AcDbLine
 10
35.99881
 20
79.874985
 30
0.0
 11
36.99881
 21
73.874985
 31
0.0
  0
LINE
  5
227
330
1F
100
AcDbEntity
  8
0
 62
     7
370
    35
100
AcDbLine
 10
35.49881
 20
80.374985
 30
0.0
 11
35.49881
 21
84.374985
 31
0.0
  0
LINE
  5
228
330
1F
100
AcDbEntity
  8
0
 62
     7
370
    35
100
AcDbLine
 10
35.99881
 20
80.374985
 30
0.0
 11
35.99881
 21
84.374985
 31
0.0
  0
LINE
  5
229
330
1F
100
AcDbEntity
  8
0
 62
     7
370
    35
100
AcDbLine
 10
36.49881
 20
80.374985
 30
0.0
 11
36.49881
 21
84.374985
 31
0.0
  0
LINE
  5
22A
330
1F
100
AcDbEntity
  8
0
 62
     7
370
    35
100
AcDbLine
 10
36.99881
 20
80.374985
 30
0.0
 11
36.99881
 21
84.374985
 31
0.0
  0
LINE
  5
22B
330
1F
100
AcDbEntity
  8
0
 62
     7
370
    35
100
AcDbLine
 10
37.49881
 20
80.374985
 30
0.0
 11
37.49881
 21
84.374985
 31
0.0
  0
LINE
  5
22C
330
1F
100
AcDbEntity
  8
0
 62
     7
370
    35
100
AcDbLine
 10
37.99881
 20
80.374985
 30
0.0
 11
37.99881
 21
84.374985
 31
0.0
  0
LINE
  5
22D
330
1F
100
AcDbEntity
  8
0
 62
     7
370
    35
100
AcDbLine
 10
38.49881
 20
80.374985
 30
0.0
 11
38.49881
 21
84.374985
 31
0.0
  0
LINE
  5
22E
330
1F
100
AcDbEntity
  8
0
 62
     7
370
    35
100
AcDbLine
 10
38.99881
 20
80.374985
 30
0.0
 11
38.99881
 21
84.374985
 31
0.0
  0
LINE
  5
22F
330
1F
100
AcDbEntity
  8
0
 62
     7
370
    35
100
AcDbLine
 10
39.49881
 20
80.374985
 30
0.0
 11
39.49881
 21
84.374985
 31
0.0
  0
LINE
  5
230
330
1F
100
AcDbEntity
  8
0
 62
     7
370
    35
100
AcDbLine
 10
39.99881
 20
80.374985
 30
0.0
 11
39.99881
 21
84.374985
 31
0.0
  0
LINE
  5
231
330
1F
100
AcDbEntity
  8
0
 62
     7
370
    35
100
AcDbLine
 10
40.49881
 20
80.374985
 30
0.0
 11
40.49881
 21
84.374985
 31
0.0
  0
LINE
  5
232
330
1F
100
AcDbEntity
  8
0
 62
     7
370
    35
100
AcDbLine
 10
40.99881
 20
80.374985
 30
0.0
 11
40.99881
 21
84.374985
 31
0.0
  0
LINE
  5
233
330
1F
100
AcDbEntity
  8
0
 62
     7
370
    35
100
AcDbLine
 10
41.49881
 20
80.374985
 30
0.0
 11
41.49881
 21
84.374985
 31
0.0
  0
LINE
  5
234
330
1F
100
AcDbEntity
  8
0
 62
     7
370
    35
100
AcDbLine
 10
48.49881
 20
98.374985
 30
0.0
 11
28.49881
 21
98.374985
 31
0.0
  0
LINE
  5
235
330
1F
100
AcDbEntity
  8
0
 62
     7
370
    35
100
AcDbLine
 10
79.24881
 20
167.766434
 30
0.0
 11
79.24881
 21
167.266068
 31
0.0
  0
LINE
  5
236
330
1F
100
AcDbEntity
  8
0
 62
     7
370
    35
100
AcDbLine
 10
79.74881
 20
167.746719
 30
0.0
 11
79.74881
 21
167.246292
 31
0.0
  0
LINE
  5
237
330
1F
100
AcDbEntity
  8
0
 62
     7
370
    35
100
AcDbLine
 10
81.24881
 20
167.687515
 30
0.0
 11
81.24881
 21
167.187088
 31
0.0
  0
LINE
  5
238
330
1F
100
AcDbEntity
  8
0
 62
     7
370
    35
100
AcDbLine
 10
80.74881
 20
167.70723
 30
0.0
 11
80.74881
 21
167.206863
 31
0.0
  0
LINE
  5
239
330
1F
100
AcDbEntity
  8
0
 62
     7
370
    35
100
AcDbLine
 10
82.24881
 20
167.648026
 30
0.0
 11
82.24881
 21
167.147659
 31
0.0
  0
LINE
  5
23A
330
1F
100
AcDbEntity
  8
0
 62
     7
370
    35
100
AcDbLine
 10
82.74881
 20
167.628311
 30
0.0
 11
82.74881
 21
167.127884
 31
0.0
  0
LINE
  5
23B
330
1F
100
AcDbEntity
  8
0
 62
     7
370
    35
100
AcDbLine
 10
84.24881
 20
167.569046
 30
0.0
 11
84.24881
 21
167.06868
 31
0.0
  0
LINE
  5
23C
330
1F
100
AcDbEntity
  8
0
 62
     7
370
    35
100
AcDbLine
 10
83.74881
 20
167.588821
 30
0.0
 11
83.74881
 21
167.088394
 31
0.0
  0
LINE
  5
23D
330
1F
100
AcDbEntity
  8
0
 62
     7
370
    35
100
AcDbLine
 10
85.24881
 20
167.529617
 30
0.0
 11
85.24881
 21
167.02919
 31
0.0
  0
LINE
  5
23E
330
1F
100
AcDbEntity
  8
0
 62
     7
370
    35
100
AcDbLine
 10
85.74881
 20
167.509842
 30
0.0
 11
85.74881
 21
167.009476
 31
0.0
  0
LINE
  5
23F
330
1F
100
AcDbEntity
  8
0
 62
     7
370
    35
100
AcDbLine
 10
87.24881
 20
167.450638
 30
0.0
 11
87.24881
 21
166.950272
 31
0.0
  0
LINE
  5
240
330
1F
100
AcDbEntity
  8
0
 62
     7
370
    35
100
AcDbLine
 10
86.74881
 20
167.470413
 30
0.0
 11
86.74881
 21
166.969986
 31
0.0
  0
LINE
  5
241
330
1F
100
AcDbEntity
  8
0
 62
     7
370
    35
100
AcDbLine
 10
89.74881
 20
167.351944
 30
0.0
 11
89.74881
 21
166.851578
 31
0.0
  0
LINE
  5
242
330
1F
100
AcDbEntity
  8
0
 62
     7
370
    35
100
AcDbLine
 10
90.24881
 20
167.33223
 30
0.0
 11
90.24881
 21
166.831863
 31
0.0
  0
LINE
  5
243
330
1F
100
AcDbEntity
  8
0
 62
     7
370
    35
100
AcDbLine
 10
91.74881
 20
167.273026
 30
0.0
 11
91.74881
 21
166.772659
 31
0.0
  0
LINE
  5
244
330
1F
100
AcDbEntity
  8
0
 62
     7
370
    35
100
AcDbLine
 10
91.24881
 20
167.29274
 30
0.0
 11
91.24881
 21
166.792374
 31
0.0
  0
LINE
  5
245
330
1F
100
AcDbEntity
  8
0
 62
     7
370
    35
100
AcDbLine
 10
79.24881
 20
158.983963
 30
0.0
 11
79.74881
 21
159.003677
 31
0.0
  0
LINE
  5
246
330
1F
100
AcDbEntity
  8
0
 62
     7
370
    35
100
AcDbLine
 10
79.24881
 20
167.266068
 30
0.0
 11
79.74881
 21
167.246292
 31
0.0
  0
LINE
  5
247
330
1F
100
AcDbEntity
  8
0
 62
     7
370
    35
100
AcDbLine
 10
79.24881
 20
167.266068
 30
0.0
 11
79.24881
 21
158.483536
 31
0.0
  0
LINE
  5
248
330
1F
100
AcDbEntity
  8
0
 62
     7
370
    35
100
AcDbLine
 10
79.74881
 20
167.246292
 30
0.0
 11
79.74881
 21
158.503311
 31
0.0
  0
LINE
  5
249
330
1F
100
AcDbEntity
  8
0
 62
     7
370
    35
100
AcDbLine
 10
80.74881
 20
167.206863
 30
0.0
 11
80.74881
 21
158.54274
 31
0.0
  0
LINE
  5
24A
330
1F
100
AcDbEntity
  8
0
 62
     7
370
    35
100
AcDbLine
 10
81.24881
 20
167.187088
 30
0.0
 11
81.24881
 21
158.562515
 31
0.0
  0
LINE
  5
24B
330
1F
100
AcDbEntity
  8
0
 62
     7
370
    35
100
AcDbLine
 10
82.24881
 20
167.147659
 30
0.0
 11
82.24881
 21
158.601944
 31
0.0
  0
LINE
  5
24C
330
1F
100
AcDbEntity
  8
0
 62
     7
370
    35
100
AcDbLine
 10
82.74881
 20
167.127884
 30
0.0
 11
82.74881
 21
158.621719
 31
0.0
  0
LINE
  5
24D
330
1F
100
AcDbEntity
  8
0
 62
     7
370
    35
100
AcDbLine
 10
83.74881
 20
167.088394
 30
0.0
 11
83.74881
 21
158.661209
 31
0.0
  0
LINE
  5
24E
330
1F
100
AcDbEntity
  8
0
 62
     7
370
    35
100
AcDbLine
 10
84.24881
 20
167.06868
 30
0.0
 11
84.24881
 21
158.680923
 31
0.0
  0
LINE
  5
24F
330
1F
100
AcDbEntity
  8
0
 62
     7
370
    35
100
AcDbLine
 10
85.24881
 20
167.02919
 30
0.0
 11
85.24881
 21
158.720413
 31
0.0
  0
LINE
  5
250
330
1F
100
AcDbEntity
  8
0
 62
     7
370
    35
100
AcDbLine
 10
85.74881
 20
167.009476
 30
0.0
 11
85.74881
 21
158.740128
 31
0.0
  0
LINE
  5
251
330
1F
100
AcDbEntity
  8
0
 62
     7
370
    35
100
AcDbLine
 10
86.74881
 20
166.969986
 30
0.0
 11
86.74881
 21
158.779617
 31
0.0
  0
LINE
  5
252
330
1F
100
AcDbEntity
  8
0
 62
     7
370
    35
100
AcDbLine
 10
87.24881
 20
166.950272
 30
0.0
 11
87.24881
 21
158.799332
 31
0.0
  0
LINE
  5
253
330
1F
100
AcDbEntity
  8
0
 62
     7
370
    35
100
AcDbLine
 10
89.74881
 20
166.851578
 30
0.0
 11
89.74881
 21
158.898026
 31
0.0
  0
LINE
  5
254
330
1F
100
AcDbEntity
  8
0
 62
     7
370
    35
100
AcDbLine
 10
90.24881
 20
166.831863
 30
0.0
 11
90.24881
 21
158.91774
 31
0.0
  0
LINE
  5
255
330
1F
100
AcDbEntity
  8
0
 62
     7
370
    35
100
AcDbLine
 10
91.24881
 20
166.792374
 30
0.0
 11
91.24881
 21
158.95723
 31
0.0
  0
LINE
  5
256
330
1F
100
AcDbEntity
  8
0
 62
     7
370
    35
100
AcDbLine
 10
91.74881
 20
166.772659
 30
0.0
 11
91.74881
 21
158.976944
 31
0.0
  0
LINE
  5
257
330
1F
100
AcDbEntity
  8
0
 62
     7
370
    35
100
AcDbLine
 10
80.74881
 20
159.043167
 30
0.0
 11
81.24881
 21
159.062881
 31
0.0
  0
LINE
  5
258
330
1F
100
AcDbEntity
  8
0
 62
     7
370
    35
100
AcDbLine
 10
82.24881
 20
159.102371
 30
0.0
 11
82.74881
 21
159.122086
 31
0.0
  0
LINE
  5
259
330
1F
100
AcDbEntity
  8
0
 62
     7
370
    35
100
AcDbLine
 10
83.74881
 20
159.161575
 30
0.0
 11
84.24881
 21
159.18129
 31
0.0
  0
LINE
  5
25A
330
1F
100
AcDbEntity
  8
0
 62
     7
370
    35
100
AcDbLine
 10
85.24881
 20
159.220779
 30
0.0
 11
85.74881
 21
159.240494
 31
0.0
  0
LINE
  5
25B
330
1F
100
AcDbEntity
  8
0
 62
     7
370
    35
100
AcDbLine
 10
86.74881
 20
159.279984
 30
0.0
 11
87.24881
 21
159.299698
 31
0.0
  0
LINE
  5
25C
330
1F
100
AcDbEntity
  8
0
 62
     7
370
    35
100
AcDbLine
 10
89.74881
 20
159.398392
 30
0.0
 11
90.24881
 21
159.418167
 31
0.0
  0
LINE
  5
25D
330
1F
100
AcDbEntity
  8
0
 62
     7
370
    35
100
AcDbLine
 10
91.24881
 20
159.457596
 30
0.0
 11
91.74881
 21
159.477371
 31
0.0
  0
LINE
  5
25E
330
1F
100
AcDbEntity
  8
0
 62
     7
370
    35
100
AcDbLine
 10
91.24881
 20
166.792374
 30
0.0
 11
91.74881
 21
166.772659
 31
0.0
  0
LINE
  5
25F
330
1F
100
AcDbEntity
  8
0
 62
     7
370
    35
100
AcDbLine
 10
89.74881
 20
166.851578
 30
0.0
 11
90.24881
 21
166.831863
 31
0.0
  0
LINE
  5
260
330
1F
100
AcDbEntity
  8
0
 62
     7
370
    35
100
AcDbLine
 10
86.74881
 20
166.969986
 30
0.0
 11
87.24881
 21
166.950272
 31
0.0
  0
LINE
  5
261
330
1F
100
AcDbEntity
  8
0
 62
     7
370
    35
100
AcDbLine
 10
85.24881
 20
167.02919
 30
0.0
 11
85.74881
 21
167.009476
 31
0.0
  0
LINE
  5
262
330
1F
100
AcDbEntity
  8
0
 62
     7
370
    35
100
AcDbLine
 10
83.74881
 20
167.088394
 30
0.0
 11
84.24881
 21
167.06868
 31
0.0
  0
LINE
  5
263
330
1F
100
AcDbEntity
  8
0
 62
     7
370
    35
100
AcDbLine
 10
82.24881
 20
167.147659
 30
0.0
 11
82.74881
 21
167.127884
 31
0.0
  0
LINE
  5
264
330
1F
100
AcDbEntity
  8
0
 62
     7
370
    35
100
AcDbLine
 10
80.74881
 20
167.206863
 30
0.0
 11
81.24881
 21
167.187088
 31
0.0
  0
LINE
  5
265
330
1F
100
AcDbEntity
  8
0
 62
     7
370
    35
100
AcDbLine
 10
79.74881
 20
158.503311
 30
0.0
 11
80.74881
 21
158.54274
 31
0.0
  0
LINE
  5
266
330
1F
100
AcDbEntity
  8
0
 62
     7
370
    35
100
AcDbLine
 10
81.24881
 20
158.562515
 30
0.0
 11
82.24881
 21
158.601944
 31
0.0
  0
LINE
  5
267
330
1F
100
AcDbEntity
  8
0
 62
     7
370
    35
100
AcDbLine
 10
82.74881
 20
158.621719
 30
0.0
 11
83.74881
 21
158.661209
 31
0.0
  0
LINE
  5
268
330
1F
100
AcDbEntity
  8
0
 62
     7
370
    35
100
AcDbLine
 10
84.24881
 20
158.680923
 30
0.0
 11
85.24881
 21
158.720413
 31
0.0
  0
LINE
  5
269
330
1F
100
AcDbEntity
  8
0
 62
     7
370
    35
100
AcDbLine
 10
85.74881
 20
158.740128
 30
0.0
 11
86.74881
 21
158.779617
 31
0.0
  0
LINE
  5
26A
330
1F
100
AcDbEntity
  8
0
 62
     7
370
    35
100
AcDbLine
 10
87.24881
 20
158.799332
 30
0.0
 11
89.74881
 21
158.898026
 31
0.0
  0
LINE
  5
26B
330
1F
100
AcDbEntity
  8
0
 62
     7
370
    35
100
AcDbLine
 10
90.24881
 20
158.91774
 30
0.0
 11
91.24881
 21
158.95723
 31
0.0
  0
LINE
  5
26C
330
1F
100
AcDbEntity
  8
0
 62
     7
370
    35
100
AcDbLine
 10
91.74881
 20
158.976944
 30
0.0
 11
95.49881
 21
159.125015
 31
0.0
  0
LINE
  5
26D
330
1F
100
AcDbEntity
  8
0
 62
     7
370
    35
100
AcDbLine
 10
91.74881
 20
167.273026
 30
0.0
 11
95.49881
 21
167.125015
 31
0.0
  0
LINE
  5
26E
330
1F
100
AcDbEntity
  8
0
 62
     7
370
    35
100
AcDbLine
 10
90.24881
 20
167.33223
 30
0.0
 11
91.24881
 21
167.29274
 31
0.0
  0
LINE
  5
26F
330
1F
100
AcDbEntity
  8
0
 62
     7
370
    35
100
AcDbLine
 10
87.24881
 20
167.450638
 30
0.0
 11
89.74881
 21
167.351944
 31
0.0
  0
LINE
  5
270
330
1F
100
AcDbEntity
  8
0
 62
     7
370
    35
100
AcDbLine
 10
85.74881
 20
167.509842
 30
0.0
 11
86.74881
 21
167.470413
 31
0.0
  0
LINE
  5
271
330
1F
100
AcDbEntity
  8
0
 62
     7
370
    35
100
AcDbLine
 10
84.24881
 20
167.569046
 30
0.0
 11
85.24881
 21
167.529617
 31
0.0
  0
LINE
  5
272
330
1F
100
AcDbEntity
  8
0
 62
     7
370
    35
100
AcDbLine
 10
82.74881
 20
167.628311
 30
0.0
 11
83.74881
 21
167.588821
 31
0.0
  0
LINE
  5
273
330
1F
100
AcDbEntity
  8
0
 62
     7
370
    35
100
AcDbLine
 10
81.24881
 20
167.687515
 30
0.0
 11
82.24881
 21
167.648026
 31
0.0
  0
LINE
  5
274
330
1F
100
AcDbEntity
  8
0
 62
     7
370
    35
100
AcDbLine
 10
79.74881
 20
167.746719
 30
0.0
 11
80.74881
 21
167.70723
 31
0.0
  0
LINE
  5
275
330
1F
100
AcDbEntity
  8
0
 62
     7
370
    35
100
AcDbLine
 10
50.99881
 20
174.125015
 30
0.0
 11
73.49881
 21
174.125015
 31
0.0
  0
LINE
  5
276
330
1F
100
AcDbEntity
  8
0
 62
     7
370
    35
100
AcDbLine
 10
50.99881
 20
152.125015
 30
0.0
 11
73.49881
 21
152.125015
 31
0.0
  0
LINE
  5
277
330
1F
100
AcDbEntity
  8
0
 62
     7
370
    35
100
AcDbLine
 10
25.99881
 20
174.125015
 30
0.0
 11
25.99881
 21
149.625015
 31
0.0
  0
LINE
  5
278
330
1F
100
AcDbEntity
  8
0
 62
     7
370
    35
100
AcDbLine
 10
26.49881
 20
149.125015
 30
0.0
 11
50.49881
 21
149.125015
 31
0.0
  0
LINE
  5
279
330
1F
100
AcDbEntity
  8
0
 62
     7
370
    35
100
AcDbLine
 10
26.49881
 20
174.625015
 30
0.0
 11
50.49881
 21
174.625015
 31
0.0
  0
LINE
  5
27A
330
1F
100
AcDbEntity
  8
0
 62
     7
370
    35
100
AcDbLine
 10
73.99881
 20
173.625015
 30
0.0
 11
73.99881
 21
152.625015
 31
0.0
  0
LINE
  5
27B
330
1F
100
AcDbEntity
  8
0
 62
     7
370
    35
100
AcDbLine
 10
50.99881
 20
152.125015
 30
0.0
 11
50.99881
 21
149.625015
 31
0.0
  0
LINE
  5
27C
330
1F
100
AcDbEntity
  8
0
 62
     7
370
    35
100
AcDbLine
 10
75.49881
 20
171.625015
 30
0.0
 11
75.49881
 21
154.625015
 31
0.0
  0
LINE
  5
27D
330
1F
100
AcDbEntity
  8
0
 62
     7
370
    35
100
AcDbLine
 10
75.49881
 20
154.625015
 30
0.0
 11
73.99881
 21
154.062515
 31
0.0
  0
LINE
  5
27E
330
1F
100
AcDbEntity
  8
0
 62
     7
370
    35
100
AcDbLine
 10
75.49881
 20
171.625015
 30
0.0
 11
73.99881
 21
172.187515
 31
0.0
  0
LINE
  5
27F
330
1F
100
AcDbEntity
  8
0
 62
     7
370
    35
100
AcDbLine
 10
26.49881
 20
175.074905
 30
0.0
 11
26.798798
 21
175.374954
 31
0.0
  0
LINE
  5
280
330
1F
100
AcDbEntity
  8
0
 62
     7
370
    35
100
AcDbLine
 10
50.498657
 20
175.074966
 30
0.0
 11
50.198608
 21
175.375015
 31
0.0
  0
LINE
  5
281
330
1F
100
AcDbEntity
  8
0
 62
     7
370
    35
100
AcDbLine
 10
26.49881
 20
174.625015
 30
0.0
 11
26.49881
 21
175.074966
 31
0.0
  0
LINE
  5
282
330
1F
100
AcDbEntity
  8
0
 62
     7
370
    35
100
AcDbLine
 10
50.49881
 20
174.625015
 30
0.0
 11
50.49881
 21
175.074966
 31
0.0
  0
LINE
  5
283
330
1F
100
AcDbEntity
  8
0
 62
     7
370
    35
100
AcDbLine
 10
26.798615
 20
175.375015
 30
0.0
 11
50.198761
 21
175.375015
 31
0.0
  0
LINE
  5
284
330
1F
100
AcDbEntity
  8
0
 62
     7
370
    35
100
AcDbLine
 10
26.49881
 20
175.074966
 30
0.0
 11
50.49881
 21
175.074966
 31
0.0
  0
ARC
  5
285
330
1F
100
AcDbEntity
  8
0
 62
     7
370
    35
100
AcDbCircle
 10
324.501221
 20
168.02504
 30
0.0
 40
1.0
100
AcDbArc
 50
5.73902
 51
174.260966
  0
ARC
  5
286
330
1F
100
AcDbEntity
  8
0
 62
     7
370
    35
100
AcDbCircle
 10
324.501221
 20
158.225052
 30
0.0
 40
1.0
100
AcDbArc
 50
185.739048
 51
354.260985
  0
CIRCLE
  5
287
330
1F
100
AcDbEntity
  8
0
 62
     7
370
    35
100
AcDbCircle
 10
241.207092
 20
154.430008
 30
0.0
 40
2.099999904632568
  0
CIRCLE
  5
288
330
1F
100
AcDbEntity
  8
0
 62
     7
370
    35
100
AcDbCircle
 10
131.207092
 20
171.820023
 30
0.0
 40
2.099999904632568
  0
ARC
  5
289
330
1F
100
AcDbEntity
  8
0
 62
     7
370
    35
100
AcDbCircle
 10
128.707092
 20
174.320023
 30
0.0
 40
2.0
100
AcDbArc
 50
90.000003
 51
180.000009
  0
ARC
  5
28A
330
1F
100
AcDbEntity
  8
0
 62
     7
370
    35
100
AcDbCircle
 10
243.707092
 20
151.930008
 30
0.0
 40
2.0
100
AcDbArc
 50
269.999997
 51
360.0
  0
ARC
  5
28B
330
1F
100
AcDbEntity
  8
0
 62
     7
370
    35
100
AcDbCircle
 10
243.707092
 20
156.824966
 30
0.0
 40
2.0
100
AcDbArc
 50
0.0
 51
90.000003
  0
ARC
  5
28C
330
1F
100
AcDbEntity
  8
0
 62
     7
370
    35
100
AcDbCircle
 10
128.707092
 20
169.425003
 30
0.0
 40
2.0
100
AcDbArc
 50
180.000009
 51
269.999997
  0
ARC
  5
28D
330
1F
100
AcDbEntity
  8
0
 62
     7
370
    35
100
AcDbCircle
 10
302.501221
 20
103.124985
 30
0.0
 40
1.0
100
AcDbArc
 50
269.999997
 51
90.000003
  0
CIRCLE
  5
28E
330
1F
100
AcDbEntity
  8
0
 62
     7
370
    35
100
AcDbCircle
 10
324.501221
 20
103.124985
 30
0.0
 40
1.0
  0
CIRCLE
  5
28F
330
1F
100
AcDbEntity
  8
0
 62
     7
370
    35
100
AcDbCircle
 10
223.707092
 20
98.724991
 30
0.0
 40
1.950000047683716
  0
ARC
  5
290
330
1F
100
AcDbEntity
  8
0
 62
     7
370
    35
100
AcDbCircle
 10
235.907074
 20
109.124985
 30
0.0
 40
0.800000011920929
100
AcDbArc
 50
0.0
 51
90.000003
  0
CIRCLE
  5
291
330
1F
100
AcDbEntity
  8
0
 62
     7
370
    35
100
AcDbCircle
 10
147.707092
 20
98.724991
 30
0.0
 40
1.950000047683716
  0
ARC
  5
292
330
1F
100
AcDbEntity
  8
0
 62
     7
370
    35
100
AcDbCircle
 10
136.507095
 20
109.124985
 30
0.0
 40
0.800000011920929
100
AcDbArc
 50
90.000003
 51
180.000009
  0
ARC
  5
293
330
1F
100
AcDbEntity
  8
0
 62
     7
370
    35
100
AcDbCircle
 10
135.707092
 20
95.925003
 30
0.0
 40
0.800000011920929
100
AcDbArc
 50
269.999997
 51
360.0
  0
ARC
  5
294
330
1F
100
AcDbEntity
  8
0
 62
     7
370
    35
100
AcDbCircle
 10
234.807098
 20
95.724991
 30
0.0
 40
1.0
100
AcDbArc
 50
269.999997
 51
360.0
  0
ARC
  5
295
330
1F
100
AcDbEntity
  8
0
 62
     7
370
    35
100
AcDbCircle
 10
137.607086
 20
95.724991
 30
0.0
 40
1.0
100
AcDbArc
 50
180.000009
 51
269.999997
  0
CIRCLE
  5
296
330
1F
100
AcDbEntity
  8
0
 62
     7
370
    35
100
AcDbCircle
 10
147.707092
 20
98.724991
 30
0.0
 40
2.0
  0
ARC
  5
297
330
1F
100
AcDbEntity
  8
0
 62
     7
370
    35
100
AcDbCircle
 10
148.555618
 20
98.724991
 30
0.0
 40
0.4000000059604645
100
AcDbArc
 50
135.0
 51
224.999986
  0
ARC
  5
298
330
1F
100
AcDbEntity
  8
0
 62
     7
370
    35
100
AcDbCircle
 10
147.707092
 20
99.573532
 30
0.0
 40
0.4000000059604645
100
AcDbArc
 50
225.0
 51
314.999992
  0
ARC
  5
299
330
1F
100
AcDbEntity
  8
0
 62
     7
370
    35
100
AcDbCircle
 10
146.858566
 20
98.724991
 30
0.0
 40
0.4000000059604645
100
AcDbArc
 50
314.999992
 51
44.999998
  0
ARC
  5
29A
330
1F
100
AcDbEntity
  8
0
 62
     7
370
    35
100
AcDbCircle
 10
147.707092
 20
97.87648
 30
0.0
 40
0.4000000059604645
100
AcDbArc
 50
45.000001
 51
135.0
  0
CIRCLE
  5
29B
330
1F
100
AcDbEntity
  8
0
 62
     7
370
    35
100
AcDbCircle
 10
223.707092
 20
98.724991
 30
0.0
 40
2.0
  0
ARC
  5
29C
330
1F
100
AcDbEntity
  8
0
 62
     7
370
    35
100
AcDbCircle
 10
224.555634
 20
98.724991
 30
0.0
 40
0.4000000059604645
100
AcDbArc
 50
135.0
 51
224.999986
  0
ARC
  5
29D
330
1F
100
AcDbEntity
  8
0
 62
     7
370
    35
100
AcDbCircle
 10
223.707092
 20
99.573532
 30
0.0
 40
0.4000000059604645
100
AcDbArc
 50
225.0
 51
314.999992
  0
ARC
  5
29E
330
1F
100
AcDbEntity
  8
0
 62
     7
370
    35
100
AcDbCircle
 10
222.858551
 20
98.724991
 30
0.0
 40
0.4000000059604645
100
AcDbArc
 50
314.999992
 51
44.999998
  0
ARC
  5
29F
330
1F
100
AcDbEntity
  8
0
 62
     7
370
    35
100
AcDbCircle
 10
223.707092
 20
97.87648
 30
0.0
 40
0.4000000059604645
100
AcDbArc
 50
45.000001
 51
135.0
  0
ARC
  5
2A0
330
1F
100
AcDbEntity
  8
0
 62
     7
370
    35
100
AcDbCircle
 10
38.49881
 20
74.094986
 30
0.0
 40
1.220000028610229
100
AcDbArc
 50
190.388849
 51
349.611155
  0
ARC
  5
2A1
330
1F
100
AcDbEntity
  8
0
 62
     7
370
    35
100
AcDbCircle
 10
26.49881
 20
149.625015
 30
0.0
 40
0.5
100
AcDbArc
 50
180.000009
 51
269.999997
  0
ARC
  5
2A2
330
1F
100
AcDbEntity
  8
0
 62
     7
370
    35
100
AcDbCircle
 10
50.49881
 20
149.625015
 30
0.0
 40
0.5
100
AcDbArc
 50
269.999997
 51
360.0
  0
ARC
  5
2A3
330
1F
100
AcDbEntity
  8
0
 62
     7
370
    35
100
AcDbCircle
 10
26.49881
 20
174.125015
 30
0.0
 40
0.5
100
AcDbArc
 50
90.000003
 51
180.000009
  0
ARC
  5
2A4
330
1F
100
AcDbEntity
  8
0
 62
     7
370
    35
100
AcDbCircle
 10
50.49881
 20
174.125015
 30
0.0
 40
0.5
100
AcDbArc
 50
0.0
 51
90.000003
  0
ARC
  5
2A5
330
1F
100
AcDbEntity
  8
0
 62
     7
370
    35
100
AcDbCircle
 10
73.49881
 20
173.625015
 30
0.0
 40
0.5
100
AcDbArc
 50
0.0
 51
90.000003
  0
ARC
  5
2A6
330
1F
100
AcDbEntity
  8
0
 62
     7
370
    35
100
AcDbCircle
 10
73.49881
 20
152.625015
 30
0.0
 40
0.5
100
AcDbArc
 50
269.999997
 51
360.0
  0
ARC
  5
2A7
330
1F
100
AcDbEntity
  8
0
 62
     7
370
    35
100
AcDbCircle
 10
50.99881
 20
154.125015
 30
0.0
 40
2.0
100
AcDbArc
 50
214.783662
 51
269.999997
  0
ARC
  5
2A8
330
1F
100
AcDbEntity
  8
0
 62
     7
370
    35
100
AcDbCircle
 10
50.99881
 20
172.125015
 30
0.0
 40
2.0
100
AcDbArc
 50
90.000003
 51
155.813527
  0
LINE
  5
2A9
330
1F
100
AcDbEntity
  8
0
 62
     7
370
    35
100
AcDbLine
 10
278.501221
 20
159.625015
 30
0.0
 11
278.501221
 21
166.625015
 31
0.0
  0
LINE
  5
2AA
330
1F
100
AcDbEntity
  8
0
 62
     7
370
    35
100
AcDbLine
 10
247.807083
 20
167.024979
 30
0.0
 11
247.807083
 21
159.224991
 31
0.0
  0
LINE
  5
2AB
330
1F
100
AcDbEntity
  8
0
 62
     7
370
    35
100
AcDbLine
 10
278.501221
 20
159.625015
 30
0.0
 11
278.501221
 21
166.625015
 31
0.0
  0
LINE
  5
2AC
330
1F
100
AcDbEntity
  8
0
 62
     7
370
    35
100
AcDbLine
 10
247.807083
 20
167.024979
 30
0.0
 11
247.807083
 21
159.224991
 31
0.0
  0
LINE
  5
2AD
330
1F
100
AcDbEntity
  8
0
 62
     7
370
    35
100
AcDbLine
 10
278.501221
 20
159.625015
 30
0.0
 11
278.501221
 21
166.625015
 31
0.0
  0
LINE
  5
2AE
330
1F
100
AcDbEntity
  8
0
 62
     7
370
    35
100
AcDbLine
 10
247.807083
 20
167.024994
 30
0.0
 11
247.807083
 21
159.224976
 31
0.0
  0
ARC
  5
2AF
330
1F
100
AcDbEntity
  8
0
 62
     7
370
    35
100
AcDbCircle
 10
267.913391
 20
164.349991
 30
0.0
 40
1.417995452880859
100
AcDbArc
 50
120.240317
 51
239.758276
  0
ARC
  5
2B0
330
1F
100
AcDbEntity
  8
0
 62
     7
370
    35
100
AcDbCircle
 10
266.485046
 20
164.349991
 30
0.0
 40
1.417995452880859
100
AcDbArc
 50
300.241732
 51
59.758274
  0
ARC
  5
2B1
330
1F
100
AcDbEntity
  8
0
 62
     7
370
    35
100
AcDbCircle
 10
267.913391
 20
161.899948
 30
0.0
 40
1.417995452880859
100
AcDbArc
 50
120.241724
 51
239.752457
  0
ARC
  5
2B2
330
1F
100
AcDbEntity
  8
0
 62
     7
370
    35
100
AcDbCircle
 10
260.976379
 20
164.350006
 30
0.0
 40
1.417995452880859
100
AcDbArc
 50
300.241732
 51
59.757311
  0
ARC
  5
2B3
330
1F
100
AcDbEntity
  8
0
 62
     7
370
    35
100
AcDbCircle
 10
262.404724
 20
161.899979
 30
0.0
 40
1.417995452880859
100
AcDbArc
 50
120.241724
 51
239.753932
  0
ARC
  5
2B4
330
1F
100
AcDbEntity
  8
0
 62
     7
370
    35
100
AcDbCircle
 10
262.404724
 20
161.899979
 30
0.0
 40
1.417995452880859
100
AcDbArc
 50
120.241724
 51
239.758276
  0
ARC
  5
2B5
330
1F
100
AcDbEntity
  8
0
 62
     7
370
    35
100
AcDbCircle
 10
260.976379
 20
161.899979
 30
0.0
 40
1.417995452880859
100
AcDbArc
 50
300.243966
 51
59.758274
  0
LINE
  5
2B6
330
1F
100
AcDbEntity
  8
0
 62
     7
370
    35
100
AcDbLine
 10
247.807083
 20
165.575012
 30
0.0
 11
261.690552
 21
165.575012
 31
0.0
  0
LINE
  5
2B7
330
1F
100
AcDbEntity
  8
0
 62
     7
370
    35
100
AcDbLine
 10
247.807083
 20
160.674988
 30
0.0
 11
261.690552
 21
160.674988
 31
0.0
  0
LINE
  5
2B8
330
1F
100
AcDbEntity
  8
0
 62
     7
370
    35
100
AcDbLine
 10
267.199097
 20
160.675003
 30
0.0
 11
278.501221
 21
160.675003
 31
0.0
  0
LINE
  5
2B9
330
1F
100
AcDbEntity
  8
0
 62
     7
370
    35
100
AcDbLine
 10
267.199219
 20
165.575027
 30
0.0
 11
278.501221
 21
165.575027
 31
0.0
  0
LINE
  5
2BA
330
1F
100
AcDbEntity
  8
0
 62
     7
370
    35
100
AcDbLine
 10
278.501221
 20
99.625015
 30
0.0
 11
278.501221
 21
106.625015
 31
0.0
  0
LINE
  5
2BB
330
1F
100
AcDbEntity
  8
0
 62
     7
370
    35
100
AcDbLine
 10
247.807083
 20
107.024979
 30
0.0
 11
247.807083
 21
99.224991
 31
0.0
  0
LINE
  5
2BC
330
1F
100
AcDbEntity
  8
0
 62
     7
370
    35
100
AcDbLine
 10
278.501221
 20
99.625015
 30
0.0
 11
278.501221
 21
106.625015
 31
0.0
  0
LINE
  5
2BD
330
1F
100
AcDbEntity
  8
0
 62
     7
370
    35
100
AcDbLine
 10
247.807083
 20
107.024979
 30
0.0
 11
247.807083
 21
99.224991
 31
0.0
  0
LINE
  5
2BE
330
1F
100
AcDbEntity
  8
0
 62
     7
370
    35
100
AcDbLine
 10
278.501221
 20
99.625015
 30
0.0
 11
278.501221
 21
106.625015
 31
0.0
  0
LINE
  5
2BF
330
1F
100
AcDbEntity
  8
0
 62
     7
370
    35
100
AcDbLine
 10
247.807083
 20
107.024994
 30
0.0
 11
247.807083
 21
99.224976
 31
0.0
  0
ARC
  5
2C0
330
1F
100
AcDbEntity
  8
0
 62
     7
370
    35
100
AcDbCircle
 10
267.913391
 20
104.349991
 30
0.0
 40
1.417995452880859
100
AcDbArc
 50
120.240317
 51
239.758276
  0
ARC
  5
2C1
330
1F
100
AcDbEntity
  8
0
 62
     7
370
    35
100
AcDbCircle
 10
266.485046
 20
104.349991
 30
0.0
 40
1.417995452880859
100
AcDbArc
 50
300.241732
 51
59.758274
  0
ARC
  5
2C2
330
1F
100
AcDbEntity
  8
0
 62
     7
370
    35
100
AcDbCircle
 10
267.913391
 20
101.899948
 30
0.0
 40
1.417995452880859
100
AcDbArc
 50
120.241724
 51
239.752457
  0
ARC
  5
2C3
330
1F
100
AcDbEntity
  8
0
 62
     7
370
    35
100
AcDbCircle
 10
260.976379
 20
104.350006
 30
0.0
 40
1.417995452880859
100
AcDbArc
 50
300.241732
 51
59.757311
  0
ARC
  5
2C4
330
1F
100
AcDbEntity
  8
0
 62
     7
370
    35
100
AcDbCircle
 10
262.404724
 20
101.899979
 30
0.0
 40
1.417995452880859
100
AcDbArc
 50
120.241724
 51
239.753932
  0
ARC
  5
2C5
330
1F
100
AcDbEntity
  8
0
 62
     7
370
    35
100
AcDbCircle
 10
262.404724
 20
101.899979
 30
0.0
 40
1.417995452880859
100
AcDbArc
 50
120.241724
 51
239.758276
  0
ARC
  5
2C6
330
1F
100
AcDbEntity
  8
0
 62
     7
370
    35
100
AcDbCircle
 10
260.976379
 20
101.899979
 30
0.0
 40
1.417995452880859
100
AcDbArc
 50
300.243966
 51
59.758274
  0
LINE
  5
2C7
330
1F
100
AcDbEntity
  8
0
 62
     7
370
    35
100
AcDbLine
 10
247.807083
 20
105.575012
 30
0.0
 11
261.690552
 21
105.575012
 31
0.0
  0
LINE
  5
2C8
330
1F
100
AcDbEntity
  8
0
 62
     7
370
    35
100
AcDbLine
 10
247.807083
 20
100.674988
 30
0.0
 11
261.690552
 21
100.674988
 31
0.0
  0
LINE
  5
2C9
330
1F
100
AcDbEntity
  8
0
 62
     7
370
    35
100
AcDbLine
 10
267.199097
 20
100.675003
 30
0.0
 11
278.501221
 21
100.675003
 31
0.0
  0
LINE
  5
2CA
330
1F
100
AcDbEntity
  8
0
 62
     7
370
    35
100
AcDbLine
 10
267.199219
 20
105.575027
 30
0.0
 11
278.501221
 21
105.575027
 31
0.0
  0
LINE
  5
2CB
330
1F
100
AcDbEntity
  8
0
 62
     7
370
    35
100
AcDbLine
 10
124.607086
 20
99.625
 30
0.0
 11
124.607086
 21
106.625
 31
0.0
  0
LINE
  5
2CC
330
1F
100
AcDbEntity
  8
0
 62
     7
370
    35
100
AcDbLine
 10
124.607086
 20
99.625
 30
0.0
 11
124.607086
 21
106.625
 31
0.0
  0
LINE
  5
2CD
330
1F
100
AcDbEntity
  8
0
 62
     7
370
    35
100
AcDbLine
 10
124.607086
 20
99.625
 30
0.0
 11
124.607086
 21
106.625
 31
0.0
  0
LINE
  5
2CE
330
1F
100
AcDbEntity
  8
0
 62
     7
370
    35
100
AcDbLine
 10
124.607086
 20
99.625
 30
0.0
 11
124.607086
 21
106.625
 31
0.0
  0
ARC
  5
2CF
330
1F
100
AcDbEntity
  8
0
 62
     7
370
    35
100
AcDbCircle
 10
114.019249
 20
104.349976
 30
0.0
 40
1.417995452880859
100
AcDbArc
 50
120.240317
 51
239.758276
  0
ARC
  5
2D0
330
1F
100
AcDbEntity
  8
0
 62
     7
370
    35
100
AcDbCircle
 10
112.590904
 20
104.349976
 30
0.0
 40
1.417995452880859
100
AcDbArc
 50
300.241732
 51
59.758274
  0
ARC
  5
2D1
330
1F
100
AcDbEntity
  8
0
 62
     7
370
    35
100
AcDbCircle
 10
114.019249
 20
101.899933
 30
0.0
 40
1.417995452880859
100
AcDbArc
 50
120.241724
 51
239.752457
  0
LINE
  5
2D2
330
1F
100
AcDbEntity
  8
0
 62
     7
370
    35
100
AcDbLine
 10
113.304955
 20
100.674988
 30
0.0
 11
124.607086
 21
100.674988
 31
0.0
  0
LINE
  5
2D3
330
1F
100
AcDbEntity
  8
0
 62
     7
370
    35
100
AcDbLine
 10
113.305107
 20
105.575012
 30
0.0
 11
124.607086
 21
105.575012
 31
0.0
  0
LINE
  5
2D4
330
1F
100
AcDbEntity
  8
0
 62
     7
370
    35
100
AcDbLine
 10
95.498825
 20
167.025009
 30
0.0
 11
95.498825
 21
159.225021
 31
0.0
  0
LINE
  5
2D5
330
1F
100
AcDbEntity
  8
0
 62
     7
370
    35
100
AcDbLine
 10
95.49881
 20
167.025009
 30
0.0
 11
95.49881
 21
159.225021
 31
0.0
  0
LINE
  5
2D6
330
1F
100
AcDbEntity
  8
0
 62
     7
370
    35
100
AcDbLine
 10
95.49881
 20
167.025009
 30
0.0
 11
95.49881
 21
159.225021
 31
0.0
  0
LINE
  5
2D7
330
1F
100
AcDbEntity
  8
0
 62
     7
370
    35
100
AcDbLine
 10
95.49881
 20
167.025024
 30
0.0
 11
95.49881
 21
159.225006
 31
0.0
  0
ARC
  5
2D8
330
1F
100
AcDbEntity
  8
0
 62
     7
370
    35
100
AcDbCircle
 10
114.234169
 20
164.350021
 30
0.0
 40
1.417995452880859
100
AcDbArc
 50
120.240317
 51
239.758276
  0
ARC
  5
2D9
330
1F
100
AcDbEntity
  8
0
 62
     7
370
    35
100
AcDbCircle
 10
112.805824
 20
164.350021
 30
0.0
 40
1.417995452880859
100
AcDbArc
 50
300.241732
 51
59.758274
  0
ARC
  5
2DA
330
1F
100
AcDbEntity
  8
0
 62
     7
370
    35
100
AcDbCircle
 10
114.234169
 20
161.899979
 30
0.0
 40
1.417995452880859
100
AcDbArc
 50
120.241724
 51
239.752457
  0
ARC
  5
2DB
330
1F
100
AcDbEntity
  8
0
 62
     7
370
    35
100
AcDbCircle
 10
107.297157
 20
164.350037
 30
0.0
 40
1.417995452880859
100
AcDbArc
 50
300.241732
 51
59.757311
  0
ARC
  5
2DC
330
1F
100
AcDbEntity
  8
0
 62
     7
370
    35
100
AcDbCircle
 10
108.725502
 20
161.900009
 30
0.0
 40
1.417995452880859
100
AcDbArc
 50
120.241724
 51
239.753932
  0
ARC
  5
2DD
330
1F
100
AcDbEntity
  8
0
 62
     7
370
    35
100
AcDbCircle
 10
108.725502
 20
161.900009
 30
0.0
 40
1.417995452880859
100
AcDbArc
 50
120.241724
 51
239.758276
  0
ARC
  5
2DE
330
1F
100
AcDbEntity
  8
0
 62
     7
370
    35
100
AcDbCircle
 10
107.297157
 20
161.900009
 30
0.0
 40
1.417995452880859
100
AcDbArc
 50
300.243966
 51
59.758274
  0
LINE
  5
2DF
330
1F
100
AcDbEntity
  8
0
 62
     7
370
    35
100
AcDbLine
 10
95.49881
 20
165.575043
 30
0.0
 11
108.011353
 21
165.575043
 31
0.0
  0
LINE
  5
2E0
330
1F
100
AcDbEntity
  8
0
 62
     7
370
    35
100
AcDbLine
 10
95.49881
 20
160.675018
 30
0.0
 11
108.011375
 21
160.675018
 31
0.0
  0
LINE
  5
2E1
330
1F
100
AcDbEntity
  8
0
 62
     7
370
    35
100
AcDbLine
 10
113.519875
 20
160.675034
 30
0.0
 11
124.607086
 21
160.675034
 31
0.0
  0
LINE
  5
2E2
330
1F
100
AcDbEntity
  8
0
 62
     7
370
    35
100
AcDbLine
 10
113.520027
 20
165.575058
 30
0.0
 11
124.607086
 21
165.575058
 31
0.0
  0
ENDSEC
  0
SECTION
  2
OBJECTS
  0
DICTIONARY
  5
C
330
0
100
AcDbDictionary
281
     1
  3
ACAD_GROUP
350
D
  3
ACAD_LAYOUT
350
1A
  3
ACAD_MLINESTYLE
350
17
  3
ACAD_PLOTSETTINGS
350
19
  3
ACAD_PLOTSTYLENAME
350
E
  3
ACAD_SCALELIST
350
47
  0
DICTIONARY
  5
D
102
{ACAD_REACTORS
330
C
102
}
330
C
100
AcDbDictionary
281
     1
  0
DICTIONARY
  5
1A
102
{ACAD_REACTORS
330
C
102
}
330
C
100
AcDbDictionary
281
     1
  3
Layout1
350
1E
  3
Layout2
350
26
  3
Model
350
22
  0
DICTIONARY
  5
17
102
{ACAD_REACTORS
330
C
102
}
330
C
100
AcDbDictionary
281
     1
  3
Standard
350
18
  0
DICTIONARY
  5
19
102
{ACAD_REACTORS
330
C
102
}
330
C
100
AcDbDictionary
281
     1
  0
ACDBDICTIONARYWDFLT
  5
E
102
{ACAD_REACTORS
330
C
102
}
330
C
100
AcDbDictionary
281
     1
  3
Normal
350
F
100
AcDbDictionaryWithDefault
340
F
  0
DICTIONARY
  5
47
102
{ACAD_REACTORS
330
C
102
}
330
C
100
AcDbDictionary
281
     1
  3
A0
350
48
  3
A1
350
49
  3
A2
350
4A
  3
A3
350
4B
  3
A4
350
4C
  3
A5
350
4D
  3
A6
350
4E
  3
A7
350
4F
  3
A8
350
50
  3
A9
350
51
  3
B0
350
52
  3
B1
350
53
  3
B2
350
54
  3
B3
350
55
  3
B4
350
56
  3
B5
350
57
  3
B6
350
58
  3
B7
350
59
  3
B8
350
5A
  3
B9
350
5B
  3
C0
350
5C
  3
C1
350
5D
  3
C2
350
5E
  3
C3
350
5F
  3
C4
350
60
  3
C5
350
61
  3
C6
350
62
  3
C7
350
63
  3
C8
350
64
  3
C9
350
65
  3
D0
350
66
  3
D1
350
67
  3
D2
350
68
  0
LAYOUT
  5
1E
102
{ACAD_REACTORS
330
1A
102
}
330
1A
100
AcDbPlotSettings
  1

  2
none_device
  4

  6

 40
0.0
 41
0.0
 42
0.0
 43
0.0
 44
0.0
 45
0.0
 46
0.0
 47
0.0
 48
0.0
 49
0.0
140
0.0
141
0.0
142
1.0
143
1.0
 70
  4784
 72
     0
 73
     0
 74
     5
  7

 75
    16
147
1.0
148
0.0
149
0.0
100
AcDbLayout
  1
Layout1
 70
     1
 71
     1
 10
0.0
 20
0.0
 11
420.0
 21
297.0
 12
0.0
 22
0.0
 32
0.0
 14
0.0
 24
0.0
 34
0.0
 15
328.001221
 25
177.125015
 35
2.0
146
0.0
 13
0.0
 23
0.0
 33
0.0
 16
1.0
 26
0.0
 36
0.0
 17
0.0
 27
1.0
 37
0.0
 76
     0
330
1B
  0
LAYOUT
  5
26
102
{ACAD_REACTORS
330
1A
102
}
330
1A
100
AcDbPlotSettings
  1

  2
none_device
  4

  6

 40
0.0
 41
0.0
 42
0.0
 43
0.0
 44
0.0
 45
0.0
 46
0.0
 47
0.0
 48
0.0
 49
0.0
140
0.0
141
0.0
142
1.0
143
1.0
 70
  4784
 72
     0
 73
     0
 74
     5
  7

 75
    16
147
1.0
148
0.0
149
0.0
100
AcDbLayout
  1
Layout2
 70
     1
 71
     2
 10
0.0
 20
0.0
 11
0.0
 21
0.0
 12
0.0
 22
0.0
 32
0.0
 14
0.0
 24
0.0
 34
0.0
 15
0.0
 25
0.0
 35
0.0
146
0.0
 13
0.0
 23
0.0
 33
0.0
 16
1.0
 26
0.0
 36
0.0
 17
0.0
 27
1.0
 37
0.0
 76
     0
330
23
  0
LAYOUT
  5
22
102
{ACAD_REACTORS
330
1A
102
}
330
1A
100
AcDbPlotSettings
  1

  2
none_device
  4
Letter_(8.50_x_11.00_Inches)
  6

 40
6.35
 41
6.35
 42
6.350005
 43
6.350005
 44
215.9
 45
279.4
 46
0.0
 47
0.0
 48
0.0
 49
0.0
140
0.0
141
0.0
142
1.0
143
1.0
 70
  5808
 72
     0
 73
     0
 74
     0
  7

 75
     0
147
1.0
148
0.0
149
0.0
100
AcDbLayout
  1
Model
 70
     1
 71
     0
 10
0.0
 20
0.0
 11
420.0
 21
297.0
 12
0.0
 22
0.0
 32
0.0
 14
0.0
 24
0.0
 34
0.0
 15
328.001221
 25
177.125015
 35
2.0
146
0.0
 13
0.0
 23
0.0
 33
0.0
 16
1.0
 26
0.0
 36
0.0
 17
0.0
 27
1.0
 37
0.0
 76
     0
330
1F
331
29
  0
MLINESTYLE
  5
18
102
{ACAD_REACTORS
330
17
102
}
330
17
100
AcDbMlineStyle
  2
Standard
 70
     0
  3

 62
   256
 51
90.0
 52
90.0
 71
     2
 49
0.5
 62
   256
  6
BYLAYER
 49
-0.5
 62
   256
  6
BYLAYER
  0
ACDBPLACEHOLDER
  5
F
102
{ACAD_REACTORS
330
E
102
}
330
E
  0
SCALE
  5
48
102
{ACAD_REACTORS
330
47
102
}
330
47
100
AcDbScale
 70
     0
300
1:1
140
1.0
141
1.0
290
     1
  0
SCALE
  5
49
102
{ACAD_REACTORS
330
47
102
}
330
47
100
AcDbScale
 70
     0
300
1:2
140
1.0
141
2.0
290
     0
  0
SCALE
  5
4A
102
{ACAD_REACTORS
330
47
102
}
330
47
100
AcDbScale
 70
     0
300
1:4
140
1.0
141
4.0
290
     0
  0
SCALE
  5
4B
102
{ACAD_REACTORS
330
47
102
}
330
47
100
AcDbScale
 70
     0
300
1:5
140
1.0
141
5.0
290
     0
  0
SCALE
  5
4C
102
{ACAD_REACTORS
330
47
102
}
330
47
100
AcDbScale
 70
     0
300
1:8
140
1.0
141
8.0
290
     0
  0
SCALE
  5
4D
102
{ACAD_REACTORS
330
47
102
}
330
47
100
AcDbScale
 70
     0
300
1:10
140
1.0
141
10.0
290
     0
  0
SCALE
  5
4E
102
{ACAD_REACTORS
330
47
102
}
330
47
100
AcDbScale
 70
     0
300
1:16
140
1.0
141
16.0
290
     0
  0
SCALE
  5
4F
102
{ACAD_REACTORS
330
47
102
}
330
47
100
AcDbScale
 70
     0
300
1:20
140
1.0
141
20.0
290
     0
  0
SCALE
  5
50
102
{ACAD_REACTORS
330
47
102
}
330
47
100
AcDbScale
 70
     0
300
1:30
140
1.0
141
30.0
290
     0
  0
SCALE
  5
51
102
{ACAD_REACTORS
330
47
102
}
330
47
100
AcDbScale
 70
     0
300
1:40
140
1.0
141
40.0
290
     0
  0
SCALE
  5
52
102
{ACAD_REACTORS
330
47
102
}
330
47
100
AcDbScale
 70
     0
300
1:50
140
1.0
141
50.0
290
     0
  0
SCALE
  5
53
102
{ACAD_REACTORS
330
47
102
}
330
47
100
AcDbScale
 70
     0
300
1:100
140
1.0
141
100.0
290
     0
  0
SCALE
  5
54
102
{ACAD_REACTORS
330
47
102
}
330
47
100
AcDbScale
 70
     0
300
2:1
140
2.0
141
1.0
290
     0
  0
SCALE
  5
55
102
{ACAD_REACTORS
330
47
102
}
330
47
100
AcDbScale
 70
     0
300
4:1
140
4.0
141
1.0
290
     0
  0
SCALE
  5
56
102
{ACAD_REACTORS
330
47
102
}
330
47
100
AcDbScale
 70
     0
300
8:1
140
8.0
141
1.0
290
     0
  0
SCALE
  5
57
102
{ACAD_REACTORS
330
47
102
}
330
47
100
AcDbScale
 70
     0
300
10:1
140
10.0
141
1.0
290
     0
  0
SCALE
  5
58
102
{ACAD_REACTORS
330
47
102
}
330
47
100
AcDbScale
 70
     0
300
100:1
140
100.0
141
1.0
290
     0
  0
SCALE
  5
59
102
{ACAD_REACTORS
330
47
102
}
330
47
100
AcDbScale
 70
     0
300
1/128" = 1'-0"
140
0.007812
141
12.0
290
     0
  0
SCALE
  5
5A
102
{ACAD_REACTORS
330
47
102
}
330
47
100
AcDbScale
 70
     0
300
1/64" = 1'-0"
140
0.015625
141
12.0
290
     0
  0
SCALE
  5
5B
102
{ACAD_REACTORS
330
47
102
}
330
47
100
AcDbScale
 70
     0
300
1/32" = 1'-0"
140
0.03125
141
12.0
290
     0
  0
SCALE
  5
5C
102
{ACAD_REACTORS
330
47
102
}
330
47
100
AcDbScale
 70
     0
300
1/16" = 1'-0"
140
0.0625
141
12.0
290
     0
  0
SCALE
  5
5D
102
{ACAD_REACTORS
330
47
102
}
330
47
100
AcDbScale
 70
     0
300
3/32" = 1'-0"
140
0.09375
141
12.0
290
     0
  0
SCALE
  5
5E
102
{ACAD_REACTORS
330
47
102
}
330
47
100
AcDbScale
 70
     0
300
1/8" = 1'-0"
140
0.125
141
12.0
290
     0
  0
SCALE
  5
5F
102
{ACAD_REACTORS
330
47
102
}
330
47
100
AcDbScale
 70
     0
300
3/16" = 1'-0"
140
0.1875
141
12.0
290
     0
  0
SCALE
  5
60
102
{ACAD_REACTORS
330
47
102
}
330
47
100
AcDbScale
 70
     0
300
1/4" = 1'-0"
140
0.25
141
12.0
290
     0
  0
SCALE
  5
61
102
{ACAD_REACTORS
330
47
102
}
330
47
100
AcDbScale
 70
     0
300
3/8" = 1'-0"
140
0.375
141
12.0
290
     0
  0
SCALE
  5
62
102
{ACAD_REACTORS
330
47
102
}
330
47
100
AcDbScale
 70
     0
300
1/2" = 1'-0"
140
0.5
141
12.0
290
     0
  0
SCALE
  5
63
102
{ACAD_REACTORS
330
47
102
}
330
47
100
AcDbScale
 70
     0
300
3/4" = 1'-0"
140
0.75
141
12.0
290
     0
  0
SCALE
  5
64
102
{ACAD_REACTORS
330
47
102
}
330
47
100
AcDbScale
 70
     0
300
1" = 1'-0"
140
1.0
141
12.0
290
     0
  0
SCALE
  5
65
102
{ACAD_REACTORS
330
47
102
}
330
47
100
AcDbScale
 70
     0
300
1-1/2" = 1'-0"
140
1.5
141
12.0
290
     0
  0
SCALE
  5
66
102
{ACAD_REACTORS
330
47
102
}
330
47
100
AcDbScale
 70
     0
300
3" = 1'-0"
140
3.0
141
12.0
290
     0
  0
SCALE
  5
67
102
{ACAD_REACTORS
330
47
102
}
330
47
100
AcDbScale
 70
     0
300
6" = 1'-0"
140
6.0
141
12.0
290
     0
  0
SCALE
  5
68
102
{ACAD_REACTORS
330
47
102
}
330
47
100
AcDbScale
 70
     0
300
1'-0" = 1'-0"
140
12.0
141
12.0
290
     0
  0
ENDSEC
  0
EOF
