  0
SECTION
  2
HEADER
  9
$ACADVER
  1
AC1015
  9
$ACADMAINTVER
 70
     6
  9
$DWGCODEPAGE
  3
ANSI_1252
  9
$INSBASE
 10
0.0
 20
0.0
 30
0.0
  9
$EXTMIN
 10
0.0
 20
0.0
 30
0.0
  9
$EXTMAX
 10
582.375244
 20
355.449982
 30
2.0
  9
$LIMMIN
 10
0.0
 20
0.0
  9
$LIMMAX
 10
420.0
 20
297.0
  9
$ORTHOMODE
 70
     0
  9
$REGENMODE
 70
     1
  9
$FILLMODE
 70
     1
  9
$QTEXTMODE
 70
     0
  9
$MIRRTEXT
 70
     1
  9
$LTSCALE
 40
1.0
  9
$ATTMODE
 70
     1
  9
$TEXTSIZE
 40
2.5
  9
$TRACEWID
 40
1.0
  9
$TEXTSTYLE
  7
Standard
  9
$CLAYER
  8
0
  9
$CELTYPE
  6
ByLayer
  9
$CECOLOR
 62
   256
  9
$CELTSCALE
 40
1.0
  9
$DISPSILH
 70
     0
  9
$DIMSCALE
 40
1.0
  9
$DIMASZ
 40
2.5
  9
$DIMEXO
 40
0.625
  9
$DIMDLI
 40
3.75
  9
$DIMRND
 40
0.0
  9
$DIMDLE
 40
0.0
  9
$DIMEXE
 40
1.25
  9
$DIMTP
 40
0.0
  9
$DIMTM
 40
0.0
  9
$DIMTXT
 40
2.5
  9
$DIMCEN
 40
2.5
  9
$DIMTSZ
 40
0.0
  9
$DIMTOL
 70
     0
  9
$DIMLIM
 70
     0
  9
$DIMTIH
 70
     0
  9
$DIMTOH
 70
     0
  9
$DIMSE1
 70
     0
  9
$DIMSE2
 70
     0
  9
$DIMTAD
 70
     1
  9
$DIMZIN
 70
     8
  9
$DIMBLK
  1

  9
$DIMASO
 70
     1
  9
$DIMSHO
 70
     1
  9
$DIMPOST
  1

  9
$DIMAPOST
  1

  9
$DIMALT
 70
     0
  9
$DIMALTD
 70
     3
  9
$DIMALTF
 40
0.03937
  9
$DIMLFAC
 40
1.0
  9
$DIMTOFL
 70
     1
  9
$DIMTVP
 40
0.0
  9
$DIMTIX
 70
     0
  9
$DIMSOXD
 70
     0
  9
$DIMSAH
 70
     0
  9
$DIMBLK1
  1

  9
$DIMBLK2
  1

  9
$DIMSTYLE
  2
Standard
  9
$DIMCLRD
 70
     0
  9
$DIMCLRE
 70
     0
  9
$DIMCLRT
 70
     0
  9
$DIMTFAC
 40
1.0
  9
$DIMGAP
 40
0.625
  9
$DIMJUST
 70
     0
  9
$DIMSD1
 70
     0
  9
$DIMSD2
 70
     0
  9
$DIMTOLJ
 70
     0
  9
$DIMTZIN
 70
     8
  9
$DIMALTZ
 70
     0
  9
$DIMALTTZ
 70
     0
  9
$DIMUPT
 70
     0
  9
$DIMDEC
 70
     2
  9
$DIMTDEC
 70
     2
  9
$DIMALTU
 70
     2
  9
$DIMALTTD
 70
     3
  9
$DIMTXSTY
  7
Standard
  9
$DIMAUNIT
 70
     0
  9
$DIMADEC
 70
     0
  9
$DIMALTRND
 40
0.0
  9
$DIMAZIN
 70
     0
  9
$DIMDSEP
 70
    44
  9
$DIMATFIT
 70
     0
  9
$DIMFRAC
 70
     0
  9
$DIMLDRBLK
  1

  9
$DIMLUNIT
 70
     2
  9
$DIMLWD
 70
    -2
  9
$DIMLWE
 70
    -2
  9
$DIMTMOVE
 70
     0
  9
$LUNITS
 70
     2
  9
$LUPREC
 70
     4
  9
$SKETCHINC
 40
1.0
  9
$FILLETRAD
 40
2.5
  9
$AUNITS
 70
     0
  9
$AUPREC
 70
     0
  9
$MENU
  1
.
  9
$ELEVATION
 40
0.0
  9
$PELEVATION
 40
0.0
  9
$THICKNESS
 40
0.0
  9
$LIMCHECK
 70
     0
  9
$CHAMFERA
 40
2.5
  9
$CHAMFERB
 40
2.5
  9
$CHAMFERC
 40
0.0
  9
$CHAMFERD
 40
0.0
  9
$SKPOLY
 70
     0
  9
$TDCREATE
 40
2447893.375
  9
$TDUCREATE
 40
0.0
  9
$TDUPDATE
 40
2459564.407494734
  9
$TDUUPDATE
 40
2459564.032494734
  9
$TDINDWG
 40
0.0
  9
$TDUSRTIMER
 40
0.0
  9
$USRTIMER
 70
     1
  9
$ANGBASE
 50
0.0
  9
$ANGDIR
 70
     0
  9
$PDMODE
 70
     0
  9
$PDSIZE
 40
0.0
  9
$PLINEWID
 40
0.0
  9
$SPLFRAME
 70
     0
  9
$SPLINETYPE
 70
     6
  9
$SPLINESEGS
 70
     8
  9
$HANDSEED
  5
2DE
  9
$SURFTAB1
 70
     6
  9
$SURFTAB2
 70
     6
  9
$SURFTYPE
 70
     6
  9
$SURFU
 70
     6
  9
$SURFV
 70
     6
  9
$UCSBASE
  2

  9
$UCSNAME
  2

  9
$UCSORG
 10
0.0
 20
0.0
 30
0.0
  9
$UCSXDIR
 10
1.0
 20
0.0
 30
0.0
  9
$UCSYDIR
 10
0.0
 20
1.0
 30
0.0
  9
$UCSORTHOREF
  2

  9
$UCSORTHOVIEW
 70
     1
  9
$UCSORGTOP
 10
0.0
 20
0.0
 30
0.0
  9
$UCSORGBOTTOM
 10
0.0
 20
0.0
 30
0.0
  9
$UCSORGLEFT
 10
0.0
 20
0.0
 30
0.0
  9
$UCSORGRIGHT
 10
0.0
 20
0.0
 30
0.0
  9
$UCSORGFRONT
 10
0.0
 20
0.0
 30
0.0
  9
$UCSORGBACK
 10
0.0
 20
0.0
 30
0.0
  9
$PUCSBASE
  2

  9
$PUCSNAME
  2

  9
$PUCSORG
 10
0.0
 20
0.0
 30
0.0
  9
$PUCSXDIR
 10
1.0
 20
0.0
 30
0.0
  9
$PUCSYDIR
 10
0.0
 20
1.0
 30
0.0
  9
$PUCSORTHOREF
  2

  9
$PUCSORTHOVIEW
 70
     0
  9
$PUCSORGTOP
 10
0.0
 20
0.0
 30
0.0
  9
$PUCSORGBOTTOM
 10
0.0
 20
0.0
 30
0.0
  9
$PUCSORGLEFT
 10
0.0
 20
0.0
 30
0.0
  9
$PUCSORGRIGHT
 10
0.0
 20
0.0
 30
0.0
  9
$PUCSORGFRONT
 10
0.0
 20
0.0
 30
0.0
  9
$PUCSORGBACK
 10
0.0
 20
0.0
 30
0.0
  9
$USERI1
 70
     0
  9
$USERI2
 70
     0
  9
$USERI3
 70
     0
  9
$USERI4
 70
     0
  9
$USERI5
 70
     0
  9
$USERR1
 40
0.0
  9
$USERR2
 40
0.0
  9
$USERR3
 40
0.0
  9
$USERR4
 40
0.0
  9
$USERR5
 40
0.0
  9
$WORLDVIEW
 70
     1
  9
$SHADEDGE
 70
     3
  9
$SHADEDIF
 70
    70
  9
$TILEMODE
 70
     1
  9
$MAXACTVP
 70
    64
  9
$PINSBASE
 10
0.0
 20
0.0
 30
0.0
  9
$PLIMCHECK
 70
     0
  9
$PEXTMIN
 10
0.0
 20
0.0
 30
0.0
  9
$PEXTMAX
 10
582.375244
 20
355.449982
 30
2.0
  9
$PLIMMIN
 10
0.0
 20
0.0
  9
$PLIMMAX
 10
420.0
 20
297.0
  9
$UNITMODE
 70
     0
  9
$VISRETAIN
 70
     0
  9
$PLINEGEN
 70
     0
  9
$PSLTSCALE
 70
     1
  9
$TREEDEPTH
 70
  3020
  9
$CMLSTYLE
  2
Standard
  9
$CMLJUST
 70
     0
  9
$CMLSCALE
 40
20.0
  9
$PROXYGRAPHICS
 70
     1
  9
$MEASUREMENT
 70
     1
  9
$CELWEIGHT
370
    -1
  9
$ENDCAPS
280
     0
  9
$JOINSTYLE
280
     0
  9
$LWDISPLAY
290
     0
  9
$INSUNITS
 70
     0
  9
$HYPERLINKBASE
  1

  9
$STYLESHEET
  1

  9
$XEDIT
290
     1
  9
$CEPSNTYPE
380
     0
  9
$PSTYLEMODE
290
     0
  9
$FINGERPRINTGUID
  2
{20D43586-4DF9-41B9-854F-7BA3073EBA37}
  9
$VERSIONGUID
  2
{FAEB1C32-E019-11D5-929B-00C0DF256EC4}
  9
$EXTNAMES
290
     1
  9
$PSVPSCALE
 40
0.0
  9
$OLESTARTUP
290
     0
  0
ENDSEC
  0
SECTION
  2
CLASSES
  0
CLASS
  1
ACDBDICTIONARYWDFLT
  2
AcDbDictionaryWithDefault
  3
ObjectDBX Classes
 90
        0
280
     0
281
     0
  0
CLASS
  1
VISUALSTYLE
  2
AcDbVisualStyle
  3
ObjectDBX Classes
 90
     4095
280
     0
281
     0
  0
CLASS
  1
MATERIAL
  2
AcDbMaterial
  3
ObjectDBX Classes
 90
     1153
280
     0
281
     0
  0
CLASS
  1
SCALE
  2
AcDbScale
  3
ObjectDBX Classes
 90
     1153
280
     0
281
     0
  0
CLASS
  1
SUN
  2
AcDbSun
  3
SCENEOE
 90
     1153
280
     0
281
     0
  0
CLASS
  1
ACDBPLACEHOLDER
  2
AcDbPlaceHolder
  3
ObjectDBX Classes
 90
        0
280
     0
281
     0
  0
CLASS
  1
LAYOUT
  2
AcDbLayout
  3
ObjectDBX Classes
 90
        0
280
     0
281
     0
  0
ENDSEC
  0
SECTION
  2
TABLES
  0
TABLE
  2
VPORT
  5
8
330
0
100
AcDbSymbolTable
 70
     1
  0
VPORT
  5
29
330
8
100
AcDbSymbolTableRecord
100
AcDbViewportTableRecord
  2
*Active
 70
     0
 10
0.0
 20
0.0
 11
1.0
 21
1.0
 12
10.429907
 22
4.5
 13
0.0
 23
0.0
 14
0.5
 24
0.5
 15
0.5
 25
0.5
 16
0.0
 26
0.0
 36
1.0
 17
0.0
 27
0.0
 37
0.0
 40
9.0
 41
1.972973
 42
50.0
 43
0.0
 44
0.0
 50
0.0
 51
0.0
 71
     0
 72
   100
 73
     1
 74
     3
 75
     0
 76
     0
 77
     0
 78
     0
281
     0
 65
     1
110
0.0
120
0.0
130
0.0
111
1.0
121
0.0
131
0.0
112
0.0
122
1.0
132
0.0
 79
     0
146
0.0
  0
ENDTAB
  0
TABLE
  2
LTYPE
  5
5
330
0
100
AcDbSymbolTable
 70
     1
  0
LTYPE
  5
14
330
5
100
AcDbSymbolTableRecord
100
AcDbLinetypeTableRecord
  2
ByBlock
 70
     0
  3

 72
    65
 73
     0
 40
0.0
  0
LTYPE
  5
15
330
5
100
AcDbSymbolTableRecord
100
AcDbLinetypeTableRecord
  2
ByLayer
 70
     0
  3

 72
    65
 73
     0
 40
0.0
  0
LTYPE
  5
16
330
5
100
AcDbSymbolTableRecord
100
AcDbLinetypeTableRecord
  2
Continuous
 70
     0
  3
Solid line
 72
    65
 73
     0
 40
0.0
  0
ENDTAB
  0
TABLE
  2
LAYER
  5
2
330
0
100
AcDbSymbolTable
 70
     1
  0
LAYER
  5
10
330
2
100
AcDbSymbolTableRecord
100
AcDbLayerTableRecord
  2
0
 70
     0
 62
     7
  6
Continuous
370
    -3
390
F
  0
ENDTAB
  0
TABLE
  2
STYLE
  5
3
330
0
100
AcDbSymbolTable
 70
     1
  0
STYLE
  5
11
330
3
100
AcDbSymbolTableRecord
100
AcDbTextStyleTableRecord
  2
Standard
 70
     0
 40
0.0
 41
1.0
 50
0.0
 71
     0
 42
2.5
  3
txt
  4

  0
ENDTAB
  0
TABLE
  2
VIEW
  5
6
330
0
100
AcDbSymbolTable
 70
     0
  0
ENDTAB
  0
TABLE
  2
UCS
  5
7
330
0
100
AcDbSymbolTable
 70
     0
  0
ENDTAB
  0
TABLE
  2
APPID
  5
9
330
0
100
AcDbSymbolTable
 70
     1
  0
APPID
  5
12
330
9
100
AcDbSymbolTableRecord
100
AcDbRegAppTableRecord
  2
ACAD
 70
     0
  0
ENDTAB
  0
TABLE
  2
DIMSTYLE
  5
A
330
0
100
AcDbSymbolTable
 70
     1
100
AcDbDimStyleTable
  0
DIMSTYLE
105
27
330
A
100
AcDbSymbolTableRecord
100
AcDbDimStyleTableRecord
  2
Standard
 70
     0
178
     0
340
11
  0
ENDTAB
  0
TABLE
  2
BLOCK_RECORD
  5
1
330
0
100
AcDbSymbolTable
 70
     1
  0
BLOCK_RECORD
  5
1F
330
1
100
AcDbSymbolTableRecord
100
AcDbBlockTableRecord
  2
*Model_Space
340
22
  0
BLOCK_RECORD
  5
1B
330
1
100
AcDbSymbolTableRecord
100
AcDbBlockTableRecord
  2
*Paper_Space
340
1E
  0
BLOCK_RECORD
  5
23
330
1
100
AcDbSymbolTableRecord
100
AcDbBlockTableRecord
  2
*Paper_Space0
340
26
  0
ENDTAB
  0
ENDSEC
  0
SECTION
  2
BLOCKS
  0
BLOCK
  5
20
330
1F
100
AcDbEntity
  8
0
100
AcDbBlockBegin
  2
*Model_Space
 70
     0
 10
0.0
 20
0.0
 30
0.0
  3
*Model_Space
  1
*Model_Space
  0
ENDBLK
  5
21
330
1F
100
AcDbEntity
  8
0
100
AcDbBlockEnd
  0
BLOCK
  5
1C
330
1B
100
AcDbEntity
 67
     1
  8
0
100
AcDbBlockBegin
  2
*Paper_Space
 70
     0
 10
0.0
 20
0.0
 30
0.0
  3
*Paper_Space
  1
*Paper_Space
  0
ENDBLK
  5
1D
330
1B
100
AcDbEntity
 67
     1
  8
0
100
AcDbBlockEnd
  0
BLOCK
  5
24
330
23
100
AcDbEntity
  8
0
100
AcDbBlockBegin
  2
*Paper_Space0
 70
     0
 10
0.0
 20
0.0
 30
0.0
  3
*Paper_Space0
  1
*Paper_Space0
  0
ENDBLK
  5
25
330
23
100
AcDbEntity
  8
0
100
AcDbBlockEnd
  0
ENDSEC
  0
SECTION
  2
ENTITIES
  0
LINE
  5
6A
330
1F
100
AcDbEntity
  8
0
 62
     7
370
    35
100
AcDbLine
 10
475.22467
 20
346.949982
 30
0.0
 11
475.22467
 21
338.949982
 31
0.0
  0
LINE
  5
6B
330
1F
100
AcDbEntity
  8
0
 62
     7
370
    35
100
AcDbLine
 10
455.22467
 20
347.699982
 30
0.0
 11
456.22467
 21
347.699982
 31
0.0
  0
LINE
  5
6C
330
1F
100
AcDbEntity
  8
0
 62
     7
370
    35
100
AcDbLine
 10
455.22467
 20
338.199982
 30
0.0
 11
456.22467
 21
338.199982
 31
0.0
  0
LINE
  5
6D
330
1F
100
AcDbEntity
  8
0
 62
     7
370
    35
100
AcDbLine
 10
456.22467
 20
347.699982
 30
0.0
 11
458.97467
 21
347.591461
 31
0.0
  0
LINE
  5
6E
330
1F
100
AcDbEntity
  8
0
 62
     7
370
    35
100
AcDbLine
 10
456.22467
 20
338.199982
 30
0.0
 11
458.97467
 21
338.308563
 31
0.0
  0
LINE
  5
6F
330
1F
100
AcDbEntity
  8
0
 62
     7
370
    35
100
AcDbLine
 10
489.127075
 20
168.950043
 30
0.0
 11
489.127075
 21
176.950043
 31
0.0
  0
LINE
  5
70
330
1F
100
AcDbEntity
  8
0
 62
     7
370
    35
100
AcDbLine
 10
524.627075
 20
167.950043
 30
0.0
 11
524.627075
 21
177.950043
 31
0.0
  0
LINE
  5
71
330
1F
100
AcDbEntity
  8
0
 62
     7
370
    35
100
AcDbLine
 10
518.427002
 20
167.050049
 30
0.0
 11
518.427002
 21
178.850067
 31
0.0
  0
LINE
  5
72
330
1F
100
AcDbEntity
  8
0
 62
     7
370
    35
100
AcDbLine
 10
475.127075
 20
169.450043
 30
0.0
 11
475.127075
 21
176.450043
 31
0.0
  0
LINE
  5
73
330
1F
100
AcDbEntity
  8
0
 62
     7
370
    35
100
AcDbLine
 10
494.127075
 20
166.450043
 30
0.0
 11
494.127075
 21
179.450043
 31
0.0
  0
LINE
  5
74
330
1F
100
AcDbEntity
  8
0
 62
     7
370
    35
100
AcDbLine
 10
513.627075
 20
166.450043
 30
0.0
 11
513.627075
 21
179.450043
 31
0.0
  0
LINE
  5
75
330
1F
100
AcDbEntity
  8
0
 62
     7
370
    35
100
AcDbLine
 10
513.627075
 20
166.450043
 30
0.0
 11
494.127075
 21
166.450043
 31
0.0
  0
LINE
  5
76
330
1F
100
AcDbEntity
  8
0
 62
     7
370
    35
100
AcDbLine
 10
513.627075
 20
179.450043
 30
0.0
 11
494.127075
 21
179.450043
 31
0.0
  0
LINE
  5
77
330
1F
100
AcDbEntity
  8
0
 62
     7
370
    35
100
AcDbLine
 10
518.427002
 20
167.050049
 30
0.0
 11
513.627075
 21
167.050049
 31
0.0
  0
LINE
  5
78
330
1F
100
AcDbEntity
  8
0
 62
     7
370
    35
100
AcDbLine
 10
518.427002
 20
178.850067
 30
0.0
 11
513.627075
 21
178.850067
 31
0.0
  0
LINE
  5
79
330
1F
100
AcDbEntity
  8
0
 62
     7
370
    35
100
AcDbLine
 10
524.627075
 20
167.950043
 30
0.0
 11
518.427002
 21
167.950043
 31
0.0
  0
LINE
  5
7A
330
1F
100
AcDbEntity
  8
0
 62
     7
370
    35
100
AcDbLine
 10
524.627075
 20
177.950043
 30
0.0
 11
518.427002
 21
177.950043
 31
0.0
  0
LINE
  5
7B
330
1F
100
AcDbEntity
  8
0
 62
     7
370
    35
100
AcDbLine
 10
475.127136
 20
169.450043
 30
0.0
 11
489.127136
 21
168.950043
 31
0.0
  0
LINE
  5
7C
330
1F
100
AcDbEntity
  8
0
 62
     7
370
    35
100
AcDbLine
 10
494.127136
 20
167.050049
 30
0.0
 11
489.127136
 21
168.950043
 31
0.0
  0
LINE
  5
7D
330
1F
100
AcDbEntity
  8
0
 62
     7
370
    35
100
AcDbLine
 10
475.127075
 20
176.450043
 30
0.0
 11
489.127075
 21
176.950043
 31
0.0
  0
LINE
  5
7E
330
1F
100
AcDbEntity
  8
0
 62
     7
370
    35
100
AcDbLine
 10
494.127136
 20
178.849945
 30
0.0
 11
489.127136
 21
176.949951
 31
0.0
  0
LINE
  5
7F
330
1F
100
AcDbEntity
  8
0
 62
     7
370
    35
100
AcDbLine
 10
510.427063
 20
169.700043
 30
0.0
 11
510.427063
 21
176.200043
 31
0.0
  0
LINE
  5
80
330
1F
100
AcDbEntity
  8
0
 62
     7
370
    35
100
AcDbLine
 10
503.927063
 20
169.700043
 30
0.0
 11
503.927063
 21
176.200043
 31
0.0
  0
LINE
  5
81
330
1F
100
AcDbEntity
  8
0
 62
     7
370
    35
100
AcDbLine
 10
510.427063
 20
169.700043
 30
0.0
 11
503.927063
 21
169.700043
 31
0.0
  0
LINE
  5
82
330
1F
100
AcDbEntity
  8
0
 62
     7
370
    35
100
AcDbLine
 10
510.427063
 20
176.200043
 30
0.0
 11
503.927063
 21
176.200043
 31
0.0
  0
LINE
  5
83
330
1F
100
AcDbEntity
  8
0
 62
     7
370
    35
100
AcDbLine
 10
488.090088
 20
174.950073
 30
0.0
 11
488.608582
 21
172.950073
 31
0.0
  0
LINE
  5
84
330
1F
100
AcDbEntity
  8
0
 62
     7
370
    35
100
AcDbLine
 10
487.585754
 20
169.005096
 30
0.0
 11
488.090027
 21
170.950043
 31
0.0
  0
LINE
  5
85
330
1F
100
AcDbEntity
  8
0
 62
     7
370
    35
100
AcDbLine
 10
488.090027
 20
170.950073
 30
0.0
 11
487.571533
 21
172.950073
 31
0.0
  0
LINE
  5
86
330
1F
100
AcDbEntity
  8
0
 62
     7
370
    35
100
AcDbLine
 10
487.571472
 20
172.950073
 30
0.0
 11
487.05304
 21
170.950073
 31
0.0
  0
LINE
  5
87
330
1F
100
AcDbEntity
  8
0
 62
     7
370
    35
100
AcDbLine
 10
487.052979
 20
170.950043
 30
0.0
 11
487.556946
 21
169.006134
 31
0.0
  0
LINE
  5
88
330
1F
100
AcDbEntity
  8
0
 62
     7
370
    35
100
AcDbLine
 10
486.534607
 20
172.950043
 30
0.0
 11
487.053101
 21
174.950043
 31
0.0
  0
LINE
  5
89
330
1F
100
AcDbEntity
  8
0
 62
     7
370
    35
100
AcDbLine
 10
487.05304
 20
174.950073
 30
0.0
 11
486.558289
 21
176.858307
 31
0.0
  0
LINE
  5
8A
330
1F
100
AcDbEntity
  8
0
 62
     7
370
    35
100
AcDbLine
 10
486.510315
 20
176.856598
 30
0.0
 11
486.015991
 21
174.950043
 31
0.0
  0
LINE
  5
8B
330
1F
100
AcDbEntity
  8
0
 62
     7
370
    35
100
AcDbLine
 10
486.015991
 20
174.950043
 30
0.0
 11
486.534485
 21
172.950073
 31
0.0
  0
LINE
  5
8C
330
1F
100
AcDbEntity
  8
0
 62
     7
370
    35
100
AcDbLine
 10
485.530823
 20
169.078491
 30
0.0
 11
486.016052
 21
170.950043
 31
0.0
  0
LINE
  5
8D
330
1F
100
AcDbEntity
  8
0
 62
     7
370
    35
100
AcDbLine
 10
486.015991
 20
170.950043
 30
0.0
 11
485.497498
 21
172.950073
 31
0.0
  0
LINE
  5
8E
330
1F
100
AcDbEntity
  8
0
 62
     7
370
    35
100
AcDbLine
 10
485.497498
 20
172.950043
 30
0.0
 11
484.978943
 21
170.950043
 31
0.0
  0
LINE
  5
8F
330
1F
100
AcDbEntity
  8
0
 62
     7
370
    35
100
AcDbLine
 10
484.978943
 20
170.950073
 30
0.0
 11
485.463562
 21
169.080933
 31
0.0
  0
LINE
  5
90
330
1F
100
AcDbEntity
  8
0
 62
     7
370
    35
100
AcDbLine
 10
484.460388
 20
172.950073
 30
0.0
 11
484.978943
 21
174.950073
 31
0.0
  0
LINE
  5
91
330
1F
100
AcDbEntity
  8
0
 62
     7
370
    35
100
AcDbLine
 10
488.60376
 20
176.931366
 30
0.0
 11
488.090088
 21
174.950043
 31
0.0
  0
LINE
  5
92
330
1F
100
AcDbEntity
  8
0
 62
     7
370
    35
100
AcDbLine
 10
488.608582
 20
172.950043
 30
0.0
 11
489.127075
 21
174.950043
 31
0.0
  0
LINE
  5
93
330
1F
100
AcDbEntity
  8
0
 62
     7
370
    35
100
AcDbLine
 10
489.127136
 20
174.950073
 30
0.0
 11
488.613403
 21
176.931732
 31
0.0
  0
LINE
  5
94
330
1F
100
AcDbEntity
  8
0
 62
     7
370
    35
100
AcDbLine
 10
484.978943
 20
174.950043
 30
0.0
 11
484.503296
 21
176.784912
 31
0.0
  0
LINE
  5
95
330
1F
100
AcDbEntity
  8
0
 62
     7
370
    35
100
AcDbLine
 10
484.41687
 20
176.78183
 30
0.0
 11
483.941956
 21
174.950073
 31
0.0
  0
LINE
  5
96
330
1F
100
AcDbEntity
  8
0
 62
     7
370
    35
100
AcDbLine
 10
483.941956
 20
174.950073
 30
0.0
 11
484.46051
 21
172.950043
 31
0.0
  0
LINE
  5
97
330
1F
100
AcDbEntity
  8
0
 62
     7
370
    35
100
AcDbLine
 10
483.475769
 20
169.151886
 30
0.0
 11
483.941956
 21
170.950043
 31
0.0
  0
LINE
  5
98
330
1F
100
AcDbEntity
  8
0
 62
     7
370
    35
100
AcDbLine
 10
483.941956
 20
170.950073
 30
0.0
 11
483.423401
 21
172.950073
 31
0.0
  0
LINE
  5
99
330
1F
100
AcDbEntity
  8
0
 62
     7
370
    35
100
AcDbLine
 10
483.423401
 20
172.950073
 30
0.0
 11
482.904907
 21
170.950073
 31
0.0
  0
LINE
  5
9A
330
1F
100
AcDbEntity
  8
0
 62
     7
370
    35
100
AcDbLine
 10
482.904846
 20
170.950043
 30
0.0
 11
483.370056
 21
169.15564
 31
0.0
  0
LINE
  5
9B
330
1F
100
AcDbEntity
  8
0
 62
     7
370
    35
100
AcDbLine
 10
482.386414
 20
172.950043
 30
0.0
 11
482.904907
 21
174.950043
 31
0.0
  0
LINE
  5
9C
330
1F
100
AcDbEntity
  8
0
 62
     7
370
    35
100
AcDbLine
 10
482.904907
 20
174.950073
 30
0.0
 11
482.448181
 21
176.711548
 31
0.0
  0
LINE
  5
9D
330
1F
100
AcDbEntity
  8
0
 62
     7
370
    35
100
AcDbLine
 10
482.323303
 20
176.707062
 30
0.0
 11
481.867798
 21
174.950073
 31
0.0
  0
LINE
  5
9E
330
1F
100
AcDbEntity
  8
0
 62
     7
370
    35
100
AcDbLine
 10
481.867859
 20
174.950043
 30
0.0
 11
482.386353
 21
172.950043
 31
0.0
  0
LINE
  5
9F
330
1F
100
AcDbEntity
  8
0
 62
     7
370
    35
100
AcDbLine
 10
481.420715
 20
169.225281
 30
0.0
 11
481.867859
 21
170.950043
 31
0.0
  0
LINE
  5
A0
330
1F
100
AcDbEntity
  8
0
 62
     7
370
    35
100
AcDbLine
 10
404.432922
 20
176.850037
 30
0.0
 11
404.432922
 21
169.050018
 31
0.0
  0
LINE
  5
A1
330
1F
100
AcDbEntity
  8
0
 62
     7
370
    35
100
AcDbLine
 10
394.482971
 20
169.236908
 30
0.0
 11
394.982971
 21
169.252655
 31
0.0
  0
LINE
  5
A2
330
1F
100
AcDbEntity
  8
0
 62
     7
370
    35
100
AcDbLine
 10
394.482971
 20
176.663177
 30
0.0
 11
394.982971
 21
176.64743
 31
0.0
  0
LINE
  5
A3
330
1F
100
AcDbEntity
  8
0
 62
     7
370
    35
100
AcDbLine
 10
395.982971
 20
177.11618
 30
0.0
 11
395.982971
 21
168.783905
 31
0.0
  0
LINE
  5
A4
330
1F
100
AcDbEntity
  8
0
 62
     7
370
    35
100
AcDbLine
 10
394.982971
 20
177.147675
 30
0.0
 11
394.982971
 21
168.75238
 31
0.0
  0
LINE
  5
A5
330
1F
100
AcDbEntity
  8
0
 62
     7
370
    35
100
AcDbLine
 10
393.332947
 20
168.700439
 30
0.0
 11
394.482971
 21
168.736633
 31
0.0
  0
LINE
  5
A6
330
1F
100
AcDbEntity
  8
0
 62
     7
370
    35
100
AcDbLine
 10
394.482971
 20
177.163422
 30
0.0
 11
394.482971
 21
168.736633
 31
0.0
  0
LINE
  5
A7
330
1F
100
AcDbEntity
  8
0
 62
     7
370
    35
100
AcDbLine
 10
393.332947
 20
177.199646
 30
0.0
 11
394.482971
 21
177.163422
 31
0.0
  0
LINE
  5
A8
330
1F
100
AcDbEntity
  8
0
 62
     7
370
    35
100
AcDbLine
 10
396.482971
 20
177.100433
 30
0.0
 11
396.482971
 21
168.799652
 31
0.0
  0
LINE
  5
A9
330
1F
100
AcDbEntity
  8
0
 62
     7
370
    35
100
AcDbLine
 10
397.982971
 20
177.053192
 30
0.0
 11
397.982971
 21
168.846893
 31
0.0
  0
LINE
  5
AA
330
1F
100
AcDbEntity
  8
0
 62
     7
370
    35
100
AcDbLine
 10
397.482971
 20
177.068939
 30
0.0
 11
397.482971
 21
168.831146
 31
0.0
  0
LINE
  5
AB
330
1F
100
AcDbEntity
  8
0
 62
     7
370
    35
100
AcDbLine
 10
398.982971
 20
177.021698
 30
0.0
 11
398.982971
 21
168.878387
 31
0.0
  0
LINE
  5
AC
330
1F
100
AcDbEntity
  8
0
 62
     7
370
    35
100
AcDbLine
 10
399.482971
 20
177.005951
 30
0.0
 11
399.482971
 21
168.894135
 31
0.0
  0
LINE
  5
AD
330
1F
100
AcDbEntity
  8
0
 62
     7
370
    35
100
AcDbLine
 10
400.982971
 20
176.95871
 30
0.0
 11
400.982971
 21
168.941376
 31
0.0
  0
LINE
  5
AE
330
1F
100
AcDbEntity
  8
0
 62
     7
370
    35
100
AcDbLine
 10
400.482971
 20
176.974457
 30
0.0
 11
400.482971
 21
168.925629
 31
0.0
  0
LINE
  5
AF
330
1F
100
AcDbEntity
  8
0
 62
     7
370
    35
100
AcDbLine
 10
400.982971
 20
168.941376
 30
0.0
 11
404.432922
 21
169.050018
 31
0.0
  0
LINE
  5
B0
330
1F
100
AcDbEntity
  8
0
 62
     7
370
    35
100
AcDbLine
 10
399.482971
 20
168.894135
 30
0.0
 11
400.482971
 21
168.925629
 31
0.0
  0
LINE
  5
B1
330
1F
100
AcDbEntity
  8
0
 62
     7
370
    35
100
AcDbLine
 10
397.982971
 20
168.846893
 30
0.0
 11
398.982971
 21
168.878387
 31
0.0
  0
LINE
  5
B2
330
1F
100
AcDbEntity
  8
0
 62
     7
370
    35
100
AcDbLine
 10
396.482971
 20
168.799652
 30
0.0
 11
397.482971
 21
168.831146
 31
0.0
  0
LINE
  5
B3
330
1F
100
AcDbEntity
  8
0
 62
     7
370
    35
100
AcDbLine
 10
394.982971
 20
168.75238
 30
0.0
 11
395.982971
 21
168.783905
 31
0.0
  0
LINE
  5
B4
330
1F
100
AcDbEntity
  8
0
 62
     7
370
    35
100
AcDbLine
 10
394.982971
 20
177.147675
 30
0.0
 11
395.982971
 21
177.11618
 31
0.0
  0
LINE
  5
B5
330
1F
100
AcDbEntity
  8
0
 62
     7
370
    35
100
AcDbLine
 10
396.482971
 20
177.100433
 30
0.0
 11
397.482971
 21
177.068939
 31
0.0
  0
LINE
  5
B6
330
1F
100
AcDbEntity
  8
0
 62
     7
370
    35
100
AcDbLine
 10
397.982971
 20
177.053192
 30
0.0
 11
398.982971
 21
177.021698
 31
0.0
  0
LINE
  5
B7
330
1F
100
AcDbEntity
  8
0
 62
     7
370
    35
100
AcDbLine
 10
399.482971
 20
177.005951
 30
0.0
 11
400.482971
 21
176.974457
 31
0.0
  0
LINE
  5
B8
330
1F
100
AcDbEntity
  8
0
 62
     7
370
    35
100
AcDbLine
 10
400.982971
 20
176.95871
 30
0.0
 11
404.432922
 21
176.850037
 31
0.0
  0
LINE
  5
B9
330
1F
100
AcDbEntity
  8
0
 62
     7
370
    35
100
AcDbLine
 10
481.867859
 20
170.950043
 30
0.0
 11
481.349304
 21
172.950073
 31
0.0
  0
LINE
  5
BA
330
1F
100
AcDbEntity
  8
0
 62
     7
370
    35
100
AcDbLine
 10
481.349365
 20
172.950043
 30
0.0
 11
480.830811
 21
170.950043
 31
0.0
  0
LINE
  5
BB
330
1F
100
AcDbEntity
  8
0
 62
     7
370
    35
100
AcDbLine
 10
480.83075
 20
170.950073
 30
0.0
 11
481.276611
 21
169.230438
 31
0.0
  0
LINE
  5
BC
330
1F
100
AcDbEntity
  8
0
 62
     7
370
    35
100
AcDbLine
 10
480.312317
 20
172.950073
 30
0.0
 11
480.830872
 21
174.950073
 31
0.0
  0
LINE
  5
BD
330
1F
100
AcDbEntity
  8
0
 62
     7
370
    35
100
AcDbLine
 10
480.83075
 20
174.950043
 30
0.0
 11
480.393127
 21
176.638123
 31
0.0
  0
LINE
  5
BE
330
1F
100
AcDbEntity
  8
0
 62
     7
370
    35
100
AcDbLine
 10
480.229919
 20
176.632294
 30
0.0
 11
479.793762
 21
174.950073
 31
0.0
  0
LINE
  5
BF
330
1F
100
AcDbEntity
  8
0
 62
     7
370
    35
100
AcDbLine
 10
479.793762
 20
174.950073
 30
0.0
 11
480.312256
 21
172.950073
 31
0.0
  0
LINE
  5
C0
330
1F
100
AcDbEntity
  8
0
 62
     7
370
    35
100
AcDbLine
 10
479.365601
 20
169.298676
 30
0.0
 11
479.793762
 21
170.950073
 31
0.0
  0
LINE
  5
C1
330
1F
100
AcDbEntity
  8
0
 62
     7
370
    35
100
AcDbLine
 10
479.793701
 20
170.950073
 30
0.0
 11
479.275208
 21
172.950073
 31
0.0
  0
LINE
  5
C2
330
1F
100
AcDbEntity
  8
0
 62
     7
370
    35
100
AcDbLine
 10
479.275269
 20
172.950073
 30
0.0
 11
478.756714
 21
170.950073
 31
0.0
  0
LINE
  5
C3
330
1F
100
AcDbEntity
  8
0
 62
     7
370
    35
100
AcDbLine
 10
478.756775
 20
170.950073
 30
0.0
 11
479.183167
 21
169.305206
 31
0.0
  0
LINE
  5
C4
330
1F
100
AcDbEntity
  8
0
 62
     7
370
    35
100
AcDbLine
 10
478.23822
 20
172.950043
 30
0.0
 11
478.756714
 21
174.950043
 31
0.0
  0
LINE
  5
C5
330
1F
100
AcDbEntity
  8
0
 62
     7
370
    35
100
AcDbLine
 10
478.756775
 20
174.950073
 30
0.0
 11
478.338135
 21
176.564758
 31
0.0
  0
LINE
  5
C6
330
1F
100
AcDbEntity
  8
0
 62
     7
370
    35
100
AcDbLine
 10
478.136414
 20
176.557526
 30
0.0
 11
477.719666
 21
174.950043
 31
0.0
  0
LINE
  5
C7
330
1F
100
AcDbEntity
  8
0
 62
     7
370
    35
100
AcDbLine
 10
477.719666
 20
174.950073
 30
0.0
 11
478.23822
 21
172.950073
 31
0.0
  0
LINE
  5
C8
330
1F
100
AcDbEntity
  8
0
 62
     7
370
    35
100
AcDbLine
 10
477.310608
 20
169.37207
 30
0.0
 11
477.719666
 21
170.950043
 31
0.0
  0
LINE
  5
C9
330
1F
100
AcDbEntity
  8
0
 62
     7
370
    35
100
AcDbLine
 10
477.719727
 20
170.950073
 30
0.0
 11
477.201172
 21
172.950073
 31
0.0
  0
LINE
  5
CA
330
1F
100
AcDbEntity
  8
0
 62
     7
370
    35
100
AcDbLine
 10
477.201111
 20
172.950073
 30
0.0
 11
476.682678
 21
170.950073
 31
0.0
  0
LINE
  5
CB
330
1F
100
AcDbEntity
  8
0
 62
     7
370
    35
100
AcDbLine
 10
476.682617
 20
170.950073
 30
0.0
 11
477.089661
 21
169.379974
 31
0.0
  0
LINE
  5
CC
330
1F
100
AcDbEntity
  8
0
 62
     7
370
    35
100
AcDbLine
 10
476.164185
 20
172.950043
 30
0.0
 11
476.682678
 21
174.950043
 31
0.0
  0
LINE
  5
CD
330
1F
100
AcDbEntity
  8
0
 62
     7
370
    35
100
AcDbLine
 10
476.682678
 20
174.950073
 30
0.0
 11
476.283081
 21
176.491364
 31
0.0
  0
LINE
  5
CE
330
1F
100
AcDbEntity
  8
0
 62
     7
370
    35
100
AcDbLine
 10
476.04303
 20
176.482758
 30
0.0
 11
475.64563
 21
174.950043
 31
0.0
  0
LINE
  5
CF
330
1F
100
AcDbEntity
  8
0
 62
     7
370
    35
100
AcDbLine
 10
475.645691
 20
174.950073
 30
0.0
 11
476.164185
 21
172.950073
 31
0.0
  0
LINE
  5
D0
330
1F
100
AcDbEntity
  8
0
 62
     7
370
    35
100
AcDbLine
 10
498.427063
 20
169.700043
 30
0.0
 11
498.427063
 21
176.200043
 31
0.0
  0
LINE
  5
D1
330
1F
100
AcDbEntity
  8
0
 62
     7
370
    35
100
AcDbLine
 10
499.927063
 20
169.700043
 30
0.0
 11
499.927063
 21
176.200043
 31
0.0
  0
LINE
  5
D2
330
1F
100
AcDbEntity
  8
0
 62
     7
370
    35
100
AcDbLine
 10
500.427063
 20
169.700043
 30
0.0
 11
500.427063
 21
176.200043
 31
0.0
  0
LINE
  5
D3
330
1F
100
AcDbEntity
  8
0
 62
     7
370
    35
100
AcDbLine
 10
501.927063
 20
169.700043
 30
0.0
 11
501.927063
 21
176.200043
 31
0.0
  0
LINE
  5
D4
330
1F
100
AcDbEntity
  8
0
 62
     7
370
    35
100
AcDbLine
 10
502.427063
 20
169.700043
 30
0.0
 11
502.427063
 21
176.200043
 31
0.0
  0
LINE
  5
D5
330
1F
100
AcDbEntity
  8
0
 62
     7
370
    35
100
AcDbLine
 10
497.927063
 20
169.700043
 30
0.0
 11
497.927063
 21
176.200043
 31
0.0
  0
LINE
  5
D6
330
1F
100
AcDbEntity
  8
0
 62
     7
370
    35
100
AcDbLine
 10
502.427063
 20
169.700043
 30
0.0
 11
501.927063
 21
169.700043
 31
0.0
  0
LINE
  5
D7
330
1F
100
AcDbEntity
  8
0
 62
     7
370
    35
100
AcDbLine
 10
502.427063
 20
176.200043
 30
0.0
 11
501.927063
 21
176.200043
 31
0.0
  0
LINE
  5
D8
330
1F
100
AcDbEntity
  8
0
 62
     7
370
    35
100
AcDbLine
 10
500.427063
 20
169.700043
 30
0.0
 11
499.927063
 21
169.700043
 31
0.0
  0
LINE
  5
D9
330
1F
100
AcDbEntity
  8
0
 62
     7
370
    35
100
AcDbLine
 10
500.427063
 20
176.200043
 30
0.0
 11
499.927063
 21
176.200043
 31
0.0
  0
LINE
  5
DA
330
1F
100
AcDbEntity
  8
0
 62
     7
370
    35
100
AcDbLine
 10
498.427063
 20
169.700043
 30
0.0
 11
497.927063
 21
169.700043
 31
0.0
  0
LINE
  5
DB
330
1F
100
AcDbEntity
  8
0
 62
     7
370
    35
100
AcDbLine
 10
498.427063
 20
176.200043
 30
0.0
 11
497.927063
 21
176.200043
 31
0.0
  0
LINE
  5
DC
330
1F
100
AcDbEntity
  8
0
 62
     7
370
    35
100
AcDbLine
 10
509.427124
 20
172.950073
 30
0.0
 11
506.927124
 21
175.200073
 31
0.0
  0
LINE
  5
DD
330
1F
100
AcDbEntity
  8
0
 62
     7
370
    35
100
AcDbLine
 10
504.927063
 20
171.950043
 30
0.0
 11
504.927063
 21
173.950043
 31
0.0
  0
LINE
  5
DE
330
1F
100
AcDbEntity
  8
0
 62
     7
370
    35
100
AcDbLine
 10
506.927185
 20
170.699982
 30
0.0
 11
509.427185
 21
172.949982
 31
0.0
  0
LINE
  5
DF
330
1F
100
AcDbEntity
  8
0
 62
     7
370
    35
100
AcDbLine
 10
506.927063
 20
173.950043
 30
0.0
 11
506.927063
 21
175.200043
 31
0.0
  0
LINE
  5
E0
330
1F
100
AcDbEntity
  8
0
 62
     7
370
    35
100
AcDbLine
 10
506.927063
 20
171.950043
 30
0.0
 11
504.927063
 21
171.950043
 31
0.0
  0
LINE
  5
E1
330
1F
100
AcDbEntity
  8
0
 62
     7
370
    35
100
AcDbLine
 10
506.927063
 20
173.950043
 30
0.0
 11
504.927063
 21
173.950043
 31
0.0
  0
LINE
  5
E2
330
1F
100
AcDbEntity
  8
0
 62
     7
370
    35
100
AcDbLine
 10
506.927063
 20
170.700043
 30
0.0
 11
506.927063
 21
171.950043
 31
0.0
  0
LINE
  5
E3
330
1F
100
AcDbEntity
  8
0
 62
     7
370
    35
100
AcDbLine
 10
289.682953
 20
176.615936
 30
0.0
 11
289.182953
 21
176.600189
 31
0.0
  0
LINE
  5
E4
330
1F
100
AcDbEntity
  8
0
 62
     7
370
    35
100
AcDbLine
 10
288.182953
 20
176.568695
 30
0.0
 11
287.682953
 21
176.552948
 31
0.0
  0
LINE
  5
E5
330
1F
100
AcDbEntity
  8
0
 62
     7
370
    35
100
AcDbLine
 10
286.682953
 20
176.521454
 30
0.0
 11
286.182953
 21
176.505676
 31
0.0
  0
LINE
  5
E6
330
1F
100
AcDbEntity
  8
0
 62
     7
370
    35
100
AcDbLine
 10
285.182953
 20
176.474182
 30
0.0
 11
284.682953
 21
176.458435
 31
0.0
  0
LINE
  5
E7
330
1F
100
AcDbEntity
  8
0
 62
     7
370
    35
100
AcDbLine
 10
289.682953
 20
169.284149
 30
0.0
 11
289.182953
 21
169.299896
 31
0.0
  0
LINE
  5
E8
330
1F
100
AcDbEntity
  8
0
 62
     7
370
    35
100
AcDbLine
 10
288.182953
 20
169.33139
 30
0.0
 11
287.682953
 21
169.347137
 31
0.0
  0
LINE
  5
E9
330
1F
100
AcDbEntity
  8
0
 62
     7
370
    35
100
AcDbLine
 10
286.682953
 20
169.378632
 30
0.0
 11
286.182953
 21
169.394379
 31
0.0
  0
LINE
  5
EA
330
1F
100
AcDbEntity
  8
0
 62
     7
370
    35
100
AcDbLine
 10
285.182953
 20
169.425873
 30
0.0
 11
284.682953
 21
169.44162
 31
0.0
  0
LINE
  5
EB
330
1F
100
AcDbEntity
  8
0
 62
     7
370
    35
100
AcDbLine
 10
284.682953
 20
176.95871
 30
0.0
 11
281.232941
 21
176.850037
 31
0.0
  0
LINE
  5
EC
330
1F
100
AcDbEntity
  8
0
 62
     7
370
    35
100
AcDbLine
 10
286.182953
 20
177.005951
 30
0.0
 11
285.182953
 21
176.974457
 31
0.0
  0
LINE
  5
ED
330
1F
100
AcDbEntity
  8
0
 62
     7
370
    35
100
AcDbLine
 10
287.682953
 20
177.053192
 30
0.0
 11
286.682953
 21
177.021698
 31
0.0
  0
LINE
  5
EE
330
1F
100
AcDbEntity
  8
0
 62
     7
370
    35
100
AcDbLine
 10
289.182953
 20
177.100433
 30
0.0
 11
288.182953
 21
177.068939
 31
0.0
  0
LINE
  5
EF
330
1F
100
AcDbEntity
  8
0
 62
     7
370
    35
100
AcDbLine
 10
290.682953
 20
177.147675
 30
0.0
 11
289.682953
 21
177.11618
 31
0.0
  0
LINE
  5
F0
330
1F
100
AcDbEntity
  8
0
 62
     7
370
    35
100
AcDbLine
 10
290.682953
 20
168.75238
 30
0.0
 11
289.682953
 21
168.783905
 31
0.0
  0
LINE
  5
F1
330
1F
100
AcDbEntity
  8
0
 62
     7
370
    35
100
AcDbLine
 10
289.182953
 20
168.799652
 30
0.0
 11
288.182953
 21
168.831146
 31
0.0
  0
LINE
  5
F2
330
1F
100
AcDbEntity
  8
0
 62
     7
370
    35
100
AcDbLine
 10
287.682953
 20
168.846893
 30
0.0
 11
286.682953
 21
168.878387
 31
0.0
  0
LINE
  5
F3
330
1F
100
AcDbEntity
  8
0
 62
     7
370
    35
100
AcDbLine
 10
286.182953
 20
168.894135
 30
0.0
 11
285.182953
 21
168.925629
 31
0.0
  0
LINE
  5
F4
330
1F
100
AcDbEntity
  8
0
 62
     7
370
    35
100
AcDbLine
 10
284.682953
 20
168.941376
 30
0.0
 11
281.232941
 21
169.050018
 31
0.0
  0
LINE
  5
F5
330
1F
100
AcDbEntity
  8
0
 62
     7
370
    35
100
AcDbLine
 10
285.182953
 20
176.974457
 30
0.0
 11
285.182953
 21
168.925629
 31
0.0
  0
LINE
  5
F6
330
1F
100
AcDbEntity
  8
0
 62
     7
370
    35
100
AcDbLine
 10
284.682953
 20
176.95871
 30
0.0
 11
284.682953
 21
168.941376
 31
0.0
  0
LINE
  5
F7
330
1F
100
AcDbEntity
  8
0
 62
     7
370
    35
100
AcDbLine
 10
286.182953
 20
177.005951
 30
0.0
 11
286.182953
 21
168.894135
 31
0.0
  0
LINE
  5
F8
330
1F
100
AcDbEntity
  8
0
 62
     7
370
    35
100
AcDbLine
 10
286.682953
 20
177.021698
 30
0.0
 11
286.682953
 21
168.878387
 31
0.0
  0
LINE
  5
F9
330
1F
100
AcDbEntity
  8
0
 62
     7
370
    35
100
AcDbLine
 10
288.182953
 20
177.068939
 30
0.0
 11
288.182953
 21
168.831146
 31
0.0
  0
LINE
  5
FA
330
1F
100
AcDbEntity
  8
0
 62
     7
370
    35
100
AcDbLine
 10
287.682953
 20
177.053192
 30
0.0
 11
287.682953
 21
168.846893
 31
0.0
  0
LINE
  5
FB
330
1F
100
AcDbEntity
  8
0
 62
     7
370
    35
100
AcDbLine
 10
289.182953
 20
177.100433
 30
0.0
 11
289.182953
 21
168.799652
 31
0.0
  0
LINE
  5
FC
330
1F
100
AcDbEntity
  8
0
 62
     7
370
    35
100
AcDbLine
 10
292.332977
 20
177.199646
 30
0.0
 11
291.182953
 21
177.163422
 31
0.0
  0
LINE
  5
FD
330
1F
100
AcDbEntity
  8
0
 62
     7
370
    35
100
AcDbLine
 10
291.182953
 20
177.163422
 30
0.0
 11
291.182953
 21
168.736633
 31
0.0
  0
LINE
  5
FE
330
1F
100
AcDbEntity
  8
0
 62
     7
370
    35
100
AcDbLine
 10
292.332977
 20
168.700439
 30
0.0
 11
291.182953
 21
168.736633
 31
0.0
  0
LINE
  5
FF
330
1F
100
AcDbEntity
  8
0
 62
     7
370
    35
100
AcDbLine
 10
290.682953
 20
177.147675
 30
0.0
 11
290.682953
 21
168.75238
 31
0.0
  0
LINE
  5
100
330
1F
100
AcDbEntity
  8
0
 62
     7
370
    35
100
AcDbLine
 10
289.682953
 20
177.11618
 30
0.0
 11
289.682953
 21
168.783905
 31
0.0
  0
LINE
  5
101
330
1F
100
AcDbEntity
  8
0
 62
     7
370
    35
100
AcDbLine
 10
400.482971
 20
169.425873
 30
0.0
 11
400.982971
 21
169.44162
 31
0.0
  0
LINE
  5
102
330
1F
100
AcDbEntity
  8
0
 62
     7
370
    35
100
AcDbLine
 10
291.182953
 20
176.663177
 30
0.0
 11
290.682953
 21
176.64743
 31
0.0
  0
LINE
  5
103
330
1F
100
AcDbEntity
  8
0
 62
     7
370
    35
100
AcDbLine
 10
398.982971
 20
169.378632
 30
0.0
 11
399.482971
 21
169.394379
 31
0.0
  0
LINE
  5
104
330
1F
100
AcDbEntity
  8
0
 62
     7
370
    35
100
AcDbLine
 10
397.482971
 20
169.33139
 30
0.0
 11
397.982971
 21
169.347137
 31
0.0
  0
LINE
  5
105
330
1F
100
AcDbEntity
  8
0
 62
     7
370
    35
100
AcDbLine
 10
395.982971
 20
169.284149
 30
0.0
 11
396.482971
 21
169.299896
 31
0.0
  0
LINE
  5
106
330
1F
100
AcDbEntity
  8
0
 62
     7
370
    35
100
AcDbLine
 10
459.47467
 20
347.571686
 30
0.0
 11
460.47467
 21
347.532257
 31
0.0
  0
LINE
  5
107
330
1F
100
AcDbEntity
  8
0
 62
     7
370
    35
100
AcDbLine
 10
460.97467
 20
347.512482
 30
0.0
 11
461.97467
 21
347.473053
 31
0.0
  0
LINE
  5
108
330
1F
100
AcDbEntity
  8
0
 62
     7
370
    35
100
AcDbLine
 10
462.47467
 20
347.453278
 30
0.0
 11
463.47467
 21
347.413788
 31
0.0
  0
LINE
  5
109
330
1F
100
AcDbEntity
  8
0
 62
     7
370
    35
100
AcDbLine
 10
463.97467
 20
347.394073
 30
0.0
 11
464.97467
 21
347.354584
 31
0.0
  0
LINE
  5
10A
330
1F
100
AcDbEntity
  8
0
 62
     7
370
    35
100
AcDbLine
 10
465.47467
 20
347.334869
 30
0.0
 11
466.47467
 21
347.29538
 31
0.0
  0
LINE
  5
10B
330
1F
100
AcDbEntity
  8
0
 62
     7
370
    35
100
AcDbLine
 10
466.97467
 20
347.275665
 30
0.0
 11
469.47467
 21
347.176971
 31
0.0
  0
LINE
  5
10C
330
1F
100
AcDbEntity
  8
0
 62
     7
370
    35
100
AcDbLine
 10
469.97467
 20
347.157257
 30
0.0
 11
470.97467
 21
347.117767
 31
0.0
  0
LINE
  5
10D
330
1F
100
AcDbEntity
  8
0
 62
     7
370
    35
100
AcDbLine
 10
471.47467
 20
347.098053
 30
0.0
 11
475.22467
 21
346.949982
 31
0.0
  0
LINE
  5
10E
330
1F
100
AcDbEntity
  8
0
 62
     7
370
    35
100
AcDbLine
 10
471.47467
 20
338.801971
 30
0.0
 11
475.22467
 21
338.949982
 31
0.0
  0
LINE
  5
10F
330
1F
100
AcDbEntity
  8
0
 62
     7
370
    35
100
AcDbLine
 10
469.97467
 20
338.742767
 30
0.0
 11
470.97467
 21
338.782257
 31
0.0
  0
LINE
  5
110
330
1F
100
AcDbEntity
  8
0
 62
     7
370
    35
100
AcDbLine
 10
466.97467
 20
338.624359
 30
0.0
 11
469.47467
 21
338.723053
 31
0.0
  0
LINE
  5
111
330
1F
100
AcDbEntity
  8
0
 62
     7
370
    35
100
AcDbLine
 10
465.47467
 20
338.565155
 30
0.0
 11
466.47467
 21
338.604584
 31
0.0
  0
LINE
  5
112
330
1F
100
AcDbEntity
  8
0
 62
     7
370
    35
100
AcDbLine
 10
463.97467
 20
338.505951
 30
0.0
 11
464.97467
 21
338.54538
 31
0.0
  0
LINE
  5
113
330
1F
100
AcDbEntity
  8
0
 62
     7
370
    35
100
AcDbLine
 10
462.47467
 20
338.446686
 30
0.0
 11
463.47467
 21
338.486176
 31
0.0
  0
LINE
  5
114
330
1F
100
AcDbEntity
  8
0
 62
     7
370
    35
100
AcDbLine
 10
460.97467
 20
338.387482
 30
0.0
 11
461.97467
 21
338.426971
 31
0.0
  0
LINE
  5
115
330
1F
100
AcDbEntity
  8
0
 62
     7
370
    35
100
AcDbLine
 10
459.47467
 20
338.328278
 30
0.0
 11
460.47467
 21
338.367767
 31
0.0
  0
LINE
  5
116
330
1F
100
AcDbEntity
  8
0
 62
     7
370
    35
100
AcDbLine
 10
460.47467
 20
347.03183
 30
0.0
 11
460.97467
 21
347.012115
 31
0.0
  0
LINE
  5
117
330
1F
100
AcDbEntity
  8
0
 62
     7
370
    35
100
AcDbLine
 10
461.97467
 20
346.972626
 30
0.0
 11
462.47467
 21
346.952911
 31
0.0
  0
LINE
  5
118
330
1F
100
AcDbEntity
  8
0
 62
     7
370
    35
100
AcDbLine
 10
463.47467
 20
346.913422
 30
0.0
 11
463.97467
 21
346.893707
 31
0.0
  0
LINE
  5
119
330
1F
100
AcDbEntity
  8
0
 62
     7
370
    35
100
AcDbLine
 10
464.97467
 20
346.854218
 30
0.0
 11
465.47467
 21
346.834503
 31
0.0
  0
LINE
  5
11A
330
1F
100
AcDbEntity
  8
0
 62
     7
370
    35
100
AcDbLine
 10
466.47467
 20
346.795013
 30
0.0
 11
466.97467
 21
346.775299
 31
0.0
  0
LINE
  5
11B
330
1F
100
AcDbEntity
  8
0
 62
     7
370
    35
100
AcDbLine
 10
469.47467
 20
346.676605
 30
0.0
 11
469.97467
 21
346.65683
 31
0.0
  0
LINE
  5
11C
330
1F
100
AcDbEntity
  8
0
 62
     7
370
    35
100
AcDbLine
 10
470.97467
 20
346.617401
 30
0.0
 11
471.47467
 21
346.597626
 31
0.0
  0
LINE
  5
11D
330
1F
100
AcDbEntity
  8
0
 62
     7
370
    35
100
AcDbLine
 10
470.97467
 20
339.282623
 30
0.0
 11
471.47467
 21
339.302338
 31
0.0
  0
LINE
  5
11E
330
1F
100
AcDbEntity
  8
0
 62
     7
370
    35
100
AcDbLine
 10
469.47467
 20
339.223419
 30
0.0
 11
469.97467
 21
339.243134
 31
0.0
  0
LINE
  5
11F
330
1F
100
AcDbEntity
  8
0
 62
     7
370
    35
100
AcDbLine
 10
466.47467
 20
339.105011
 30
0.0
 11
466.97467
 21
339.124725
 31
0.0
  0
LINE
  5
120
330
1F
100
AcDbEntity
  8
0
 62
     7
370
    35
100
AcDbLine
 10
464.97467
 20
339.045807
 30
0.0
 11
465.47467
 21
339.065521
 31
0.0
  0
LINE
  5
121
330
1F
100
AcDbEntity
  8
0
 62
     7
370
    35
100
AcDbLine
 10
463.47467
 20
338.986603
 30
0.0
 11
463.97467
 21
339.006317
 31
0.0
  0
LINE
  5
122
330
1F
100
AcDbEntity
  8
0
 62
     7
370
    35
100
AcDbLine
 10
461.97467
 20
338.927338
 30
0.0
 11
462.47467
 21
338.947113
 31
0.0
  0
LINE
  5
123
330
1F
100
AcDbEntity
  8
0
 62
     7
370
    35
100
AcDbLine
 10
460.47467
 20
338.868134
 30
0.0
 11
460.97467
 21
338.887909
 31
0.0
  0
LINE
  5
124
330
1F
100
AcDbEntity
  8
0
 62
     7
370
    35
100
AcDbLine
 10
471.47467
 20
346.597626
 30
0.0
 11
471.47467
 21
338.801971
 31
0.0
  0
LINE
  5
125
330
1F
100
AcDbEntity
  8
0
 62
     7
370
    35
100
AcDbLine
 10
470.97467
 20
346.617401
 30
0.0
 11
470.97467
 21
338.782257
 31
0.0
  0
LINE
  5
126
330
1F
100
AcDbEntity
  8
0
 62
     7
370
    35
100
AcDbLine
 10
469.97467
 20
346.65683
 30
0.0
 11
469.97467
 21
338.742767
 31
0.0
  0
LINE
  5
127
330
1F
100
AcDbEntity
  8
0
 62
     7
370
    35
100
AcDbLine
 10
469.47467
 20
346.676605
 30
0.0
 11
469.47467
 21
338.723053
 31
0.0
  0
LINE
  5
128
330
1F
100
AcDbEntity
  8
0
 62
     7
370
    35
100
AcDbLine
 10
466.97467
 20
346.775299
 30
0.0
 11
466.97467
 21
338.624359
 31
0.0
  0
LINE
  5
129
330
1F
100
AcDbEntity
  8
0
 62
     7
370
    35
100
AcDbLine
 10
466.47467
 20
346.795013
 30
0.0
 11
466.47467
 21
338.604584
 31
0.0
  0
LINE
  5
12A
330
1F
100
AcDbEntity
  8
0
 62
     7
370
    35
100
AcDbLine
 10
465.47467
 20
346.834503
 30
0.0
 11
465.47467
 21
338.565155
 31
0.0
  0
LINE
  5
12B
330
1F
100
AcDbEntity
  8
0
 62
     7
370
    35
100
AcDbLine
 10
464.97467
 20
346.854218
 30
0.0
 11
464.97467
 21
338.54538
 31
0.0
  0
LINE
  5
12C
330
1F
100
AcDbEntity
  8
0
 62
     7
370
    35
100
AcDbLine
 10
463.97467
 20
346.893707
 30
0.0
 11
463.97467
 21
338.505951
 31
0.0
  0
LINE
  5
12D
330
1F
100
AcDbEntity
  8
0
 62
     7
370
    35
100
AcDbLine
 10
463.47467
 20
346.913422
 30
0.0
 11
463.47467
 21
338.486176
 31
0.0
  0
LINE
  5
12E
330
1F
100
AcDbEntity
  8
0
 62
     7
370
    35
100
AcDbLine
 10
462.47467
 20
346.952911
 30
0.0
 11
462.47467
 21
338.446686
 31
0.0
  0
LINE
  5
12F
330
1F
100
AcDbEntity
  8
0
 62
     7
370
    35
100
AcDbLine
 10
461.97467
 20
346.972626
 30
0.0
 11
461.97467
 21
338.426971
 31
0.0
  0
LINE
  5
130
330
1F
100
AcDbEntity
  8
0
 62
     7
370
    35
100
AcDbLine
 10
460.97467
 20
347.012115
 30
0.0
 11
460.97467
 21
338.387482
 31
0.0
  0
LINE
  5
131
330
1F
100
AcDbEntity
  8
0
 62
     7
370
    35
100
AcDbLine
 10
460.47467
 20
347.03183
 30
0.0
 11
460.47467
 21
338.367767
 31
0.0
  0
LINE
  5
132
330
1F
100
AcDbEntity
  8
0
 62
     7
370
    35
100
AcDbLine
 10
459.47467
 20
347.07132
 30
0.0
 11
459.47467
 21
338.328278
 31
0.0
  0
LINE
  5
133
330
1F
100
AcDbEntity
  8
0
 62
     7
370
    35
100
AcDbLine
 10
458.97467
 20
347.091034
 30
0.0
 11
458.97467
 21
338.308563
 31
0.0
  0
LINE
  5
134
330
1F
100
AcDbEntity
  8
0
 62
     7
370
    35
100
AcDbLine
 10
470.97467
 20
347.117767
 30
0.0
 11
470.97467
 21
346.617401
 31
0.0
  0
LINE
  5
135
330
1F
100
AcDbEntity
  8
0
 62
     7
370
    35
100
AcDbLine
 10
471.47467
 20
347.098053
 30
0.0
 11
471.47467
 21
346.597626
 31
0.0
  0
LINE
  5
136
330
1F
100
AcDbEntity
  8
0
 62
     7
370
    35
100
AcDbLine
 10
469.97467
 20
347.157257
 30
0.0
 11
469.97467
 21
346.65683
 31
0.0
  0
LINE
  5
137
330
1F
100
AcDbEntity
  8
0
 62
     7
370
    35
100
AcDbLine
 10
469.47467
 20
347.176971
 30
0.0
 11
469.47467
 21
346.676605
 31
0.0
  0
LINE
  5
138
330
1F
100
AcDbEntity
  8
0
 62
     7
370
    35
100
AcDbLine
 10
466.47467
 20
347.29538
 30
0.0
 11
466.47467
 21
346.795013
 31
0.0
  0
LINE
  5
139
330
1F
100
AcDbEntity
  8
0
 62
     7
370
    35
100
AcDbLine
 10
466.97467
 20
347.275665
 30
0.0
 11
466.97467
 21
346.775299
 31
0.0
  0
LINE
  5
13A
330
1F
100
AcDbEntity
  8
0
 62
     7
370
    35
100
AcDbLine
 10
465.47467
 20
347.334869
 30
0.0
 11
465.47467
 21
346.834503
 31
0.0
  0
LINE
  5
13B
330
1F
100
AcDbEntity
  8
0
 62
     7
370
    35
100
AcDbLine
 10
464.97467
 20
347.354584
 30
0.0
 11
464.97467
 21
346.854218
 31
0.0
  0
LINE
  5
13C
330
1F
100
AcDbEntity
  8
0
 62
     7
370
    35
100
AcDbLine
 10
463.47467
 20
347.413788
 30
0.0
 11
463.47467
 21
346.913422
 31
0.0
  0
LINE
  5
13D
330
1F
100
AcDbEntity
  8
0
 62
     7
370
    35
100
AcDbLine
 10
463.97467
 20
347.394073
 30
0.0
 11
463.97467
 21
346.893707
 31
0.0
  0
LINE
  5
13E
330
1F
100
AcDbEntity
  8
0
 62
     7
370
    35
100
AcDbLine
 10
459.47467
 20
347.571686
 30
0.0
 11
459.47467
 21
347.07132
 31
0.0
  0
LINE
  5
13F
330
1F
100
AcDbEntity
  8
0
 62
     7
370
    35
100
AcDbLine
 10
462.47467
 20
347.453278
 30
0.0
 11
462.47467
 21
346.952911
 31
0.0
  0
LINE
  5
140
330
1F
100
AcDbEntity
  8
0
 62
     7
370
    35
100
AcDbLine
 10
461.97467
 20
347.473053
 30
0.0
 11
461.97467
 21
346.972626
 31
0.0
  0
LINE
  5
141
330
1F
100
AcDbEntity
  8
0
 62
     7
370
    35
100
AcDbLine
 10
460.47467
 20
347.532257
 30
0.0
 11
460.47467
 21
347.03183
 31
0.0
  0
LINE
  5
142
330
1F
100
AcDbEntity
  8
0
 62
     7
370
    35
100
AcDbLine
 10
460.97467
 20
347.512482
 30
0.0
 11
460.97467
 21
347.012115
 31
0.0
  0
LINE
  5
143
330
1F
100
AcDbEntity
  8
0
 62
     7
370
    35
100
AcDbLine
 10
458.97467
 20
347.591461
 30
0.0
 11
458.97467
 21
347.091034
 31
0.0
  0
LINE
  5
144
330
1F
100
AcDbEntity
  8
0
 62
     7
370
    35
100
AcDbLine
 10
458.97467
 20
347.091034
 30
0.0
 11
459.47467
 21
347.07132
 31
0.0
  0
LINE
  5
145
330
1F
100
AcDbEntity
  8
0
 62
     7
370
    35
100
AcDbLine
 10
400.482971
 20
176.474182
 30
0.0
 11
400.982971
 21
176.458435
 31
0.0
  0
LINE
  5
146
330
1F
100
AcDbEntity
  8
0
 62
     7
370
    35
100
AcDbLine
 10
392.527954
 20
186.150024
 30
0.0
 11
393.332947
 21
186.150024
 31
0.0
  0
LINE
  5
147
330
1F
100
AcDbEntity
  8
0
 62
     7
370
    35
100
AcDbLine
 10
392.532959
 20
186.14502
 30
0.0
 11
393.332947
 21
186.14502
 31
0.0
  0
LINE
  5
148
330
1F
100
AcDbEntity
  8
0
 62
     7
370
    35
100
AcDbLine
 10
398.982971
 20
176.521454
 30
0.0
 11
399.482971
 21
176.505676
 31
0.0
  0
LINE
  5
149
330
1F
100
AcDbEntity
  8
0
 62
     7
370
    35
100
AcDbLine
 10
397.482971
 20
176.568695
 30
0.0
 11
397.982971
 21
176.552948
 31
0.0
  0
LINE
  5
14A
330
1F
100
AcDbEntity
  8
0
 62
     7
370
    35
100
AcDbLine
 10
291.182953
 20
169.236908
 30
0.0
 11
290.682953
 21
169.252655
 31
0.0
  0
LINE
  5
14B
330
1F
100
AcDbEntity
  8
0
 62
     7
370
    35
100
AcDbLine
 10
395.982971
 20
176.615936
 30
0.0
 11
396.482971
 21
176.600189
 31
0.0
  0
LINE
  5
14C
330
1F
100
AcDbEntity
  8
0
 62
     7
370
    35
100
AcDbLine
 10
293.13797
 20
186.950043
 30
0.0
 11
392.527954
 21
186.950043
 31
0.0
  0
LINE
  5
14D
330
1F
100
AcDbEntity
  8
0
 62
     7
370
    35
100
AcDbLine
 10
458.97467
 20
338.808929
 30
0.0
 11
459.47467
 21
338.828705
 31
0.0
  0
LINE
  5
14E
330
1F
100
AcDbEntity
  8
0
 62
     7
370
    35
100
AcDbLine
 10
392.527954
 20
186.950043
 30
0.0
 11
393.332947
 21
186.950043
 31
0.0
  0
LINE
  5
14F
330
1F
100
AcDbEntity
  8
0
 62
     7
370
    35
100
AcDbLine
 10
292.332977
 20
186.950043
 30
0.0
 11
293.13797
 21
186.950043
 31
0.0
  0
LINE
  5
150
330
1F
100
AcDbEntity
  8
0
 62
     7
370
    35
100
AcDbLine
 10
392.527954
 20
186.14502
 30
0.0
 11
392.532959
 21
186.14502
 31
0.0
  0
LINE
  5
151
330
1F
100
AcDbEntity
  8
0
 62
     7
370
    35
100
AcDbLine
 10
281.232941
 20
176.850037
 30
0.0
 11
281.232941
 21
169.050018
 31
0.0
  0
LINE
  5
152
330
1F
100
AcDbEntity
  8
0
 62
     7
370
    35
100
AcDbLine
 10
292.332977
 20
186.150024
 30
0.0
 11
293.13797
 21
186.150024
 31
0.0
  0
LINE
  5
153
330
1F
100
AcDbEntity
  8
0
 62
     7
370
    35
100
AcDbLine
 10
392.527954
 20
186.14502
 30
0.0
 11
392.527954
 21
186.950043
 31
0.0
  0
LINE
  5
154
330
1F
100
AcDbEntity
  8
0
 62
     7
370
    35
100
AcDbLine
 10
292.332977
 20
186.150024
 30
0.0
 11
292.332977
 21
186.950043
 31
0.0
  0
LINE
  5
155
330
1F
100
AcDbEntity
  8
0
 62
     7
370
    35
100
AcDbLine
 10
393.332947
 20
186.150024
 30
0.0
 11
393.332947
 21
186.950043
 31
0.0
  0
LINE
  5
156
330
1F
100
AcDbEntity
  8
0
 62
     7
370
    35
100
AcDbLine
 10
292.332977
 20
158.950043
 30
0.0
 11
393.332947
 21
158.950043
 31
0.0
  0
LINE
  5
157
330
1F
100
AcDbEntity
  8
0
 62
     7
370
    35
100
AcDbLine
 10
285.332977
 20
186.14502
 30
0.0
 11
292.332977
 21
186.14502
 31
0.0
  0
LINE
  5
158
330
1F
100
AcDbEntity
  8
0
 62
     7
370
    35
100
AcDbLine
 10
392.527954
 20
159.750031
 30
0.0
 11
393.332947
 21
159.750031
 31
0.0
  0
LINE
  5
159
330
1F
100
AcDbEntity
  8
0
 62
     7
370
    35
100
AcDbLine
 10
292.332977
 20
186.14502
 30
0.0
 11
292.332977
 21
177.250031
 31
0.0
  0
LINE
  5
15A
330
1F
100
AcDbEntity
  8
0
 62
     7
370
    35
100
AcDbLine
 10
292.332977
 20
186.14502
 30
0.0
 11
293.132965
 21
186.14502
 31
0.0
  0
LINE
  5
15B
330
1F
100
AcDbEntity
  8
0
 62
     7
370
    35
100
AcDbLine
 10
402.332947
 20
161.755035
 30
0.0
 11
402.332947
 21
166.650024
 31
0.0
  0
LINE
  5
15C
330
1F
100
AcDbEntity
  8
0
 62
     7
370
    35
100
AcDbLine
 10
292.332977
 20
177.250031
 30
0.0
 11
285.332977
 21
177.250031
 31
0.0
  0
LINE
  5
15D
330
1F
100
AcDbEntity
  8
0
 62
     7
370
    35
100
AcDbLine
 10
393.332947
 20
168.650024
 30
0.0
 11
393.332947
 21
159.755035
 31
0.0
  0
LINE
  5
15E
330
1F
100
AcDbEntity
  8
0
 62
     7
370
    35
100
AcDbLine
 10
392.532959
 20
159.755035
 30
0.0
 11
393.332947
 21
159.755035
 31
0.0
  0
LINE
  5
15F
330
1F
100
AcDbEntity
  8
0
 62
     7
370
    35
100
AcDbLine
 10
400.332947
 20
159.755035
 30
0.0
 11
393.332947
 21
159.755035
 31
0.0
  0
LINE
  5
160
330
1F
100
AcDbEntity
  8
0
 62
     7
370
    35
100
AcDbLine
 10
400.332947
 20
168.650024
 30
0.0
 11
393.332947
 21
168.650024
 31
0.0
  0
LINE
  5
161
330
1F
100
AcDbEntity
  8
0
 62
     7
370
    35
100
AcDbLine
 10
283.332977
 20
184.14502
 30
0.0
 11
283.332977
 21
179.250031
 31
0.0
  0
LINE
  5
162
330
1F
100
AcDbEntity
  8
0
 62
     7
370
    35
100
AcDbLine
 10
393.332947
 20
159.755035
 30
0.0
 11
393.332947
 21
177.250031
 31
0.0
  0
LINE
  5
163
330
1F
100
AcDbEntity
  8
0
 62
     7
370
    35
100
AcDbLine
 10
292.332977
 20
168.650024
 30
0.0
 11
292.332977
 21
167.650024
 31
0.0
  0
LINE
  5
164
330
1F
100
AcDbEntity
  8
0
 62
     7
370
    35
100
AcDbLine
 10
292.332977
 20
167.650024
 30
0.0
 11
292.332977
 21
159.755035
 31
0.0
  0
LINE
  5
165
330
1F
100
AcDbEntity
  8
0
 62
     7
370
    35
100
AcDbLine
 10
393.332947
 20
177.250031
 30
0.0
 11
393.332947
 21
178.250031
 31
0.0
  0
LINE
  5
166
330
1F
100
AcDbEntity
  8
0
 62
     7
370
    35
100
AcDbLine
 10
393.332947
 20
178.250031
 30
0.0
 11
393.332947
 21
186.14502
 31
0.0
  0
LINE
  5
167
330
1F
100
AcDbEntity
  8
0
 62
     7
370
    35
100
AcDbLine
 10
392.527954
 20
159.755035
 30
0.0
 11
392.532959
 21
159.755035
 31
0.0
  0
LINE
  5
168
330
1F
100
AcDbEntity
  8
0
 62
     7
370
    35
100
AcDbLine
 10
292.332977
 20
159.750031
 30
0.0
 11
293.13797
 21
159.750031
 31
0.0
  0
LINE
  5
169
330
1F
100
AcDbEntity
  8
0
 62
     7
370
    35
100
AcDbLine
 10
293.132965
 20
159.755035
 30
0.0
 11
292.332977
 21
159.755035
 31
0.0
  0
LINE
  5
16A
330
1F
100
AcDbEntity
  8
0
 62
     7
370
    35
100
AcDbLine
 10
293.132965
 20
159.755035
 30
0.0
 11
293.13797
 21
159.755035
 31
0.0
  0
LINE
  5
16B
330
1F
100
AcDbEntity
  8
0
 62
     7
370
    35
100
AcDbLine
 10
292.332977
 20
186.14502
 30
0.0
 11
292.332977
 21
168.650024
 31
0.0
  0
LINE
  5
16C
330
1F
100
AcDbEntity
  8
0
 62
     7
370
    35
100
AcDbLine
 10
292.332977
 20
158.950043
 30
0.0
 11
292.332977
 21
159.750031
 31
0.0
  0
LINE
  5
16D
330
1F
100
AcDbEntity
  8
0
 62
     7
370
    35
100
AcDbLine
 10
393.332947
 20
158.950043
 30
0.0
 11
393.332947
 21
159.750031
 31
0.0
  0
LINE
  5
16E
330
1F
100
AcDbEntity
  8
0
 62
     7
370
    35
100
AcDbLine
 10
392.527954
 20
158.950043
 30
0.0
 11
392.527954
 21
159.755035
 31
0.0
  0
LINE
  5
16F
330
1F
100
AcDbEntity
  8
0
 62
     7
370
    35
100
AcDbLine
 10
293.132965
 20
186.14502
 30
0.0
 11
293.13797
 21
186.14502
 31
0.0
  0
LINE
  5
170
330
1F
100
AcDbEntity
  8
0
 62
     7
370
    35
100
AcDbLine
 10
293.13797
 20
186.14502
 30
0.0
 11
293.13797
 21
186.950043
 31
0.0
  0
LINE
  5
171
330
1F
100
AcDbEntity
  8
0
 62
     7
370
    35
100
AcDbLine
 10
293.13797
 20
158.950043
 30
0.0
 11
293.13797
 21
159.755035
 31
0.0
  0
LINE
  5
172
330
1F
100
AcDbEntity
  8
0
 62
     7
370
    35
100
AcDbLine
 10
489.127075
 20
68.950043
 30
0.0
 11
489.127075
 21
76.950027
 31
0.0
  0
LINE
  5
173
330
1F
100
AcDbEntity
  8
0
 62
     7
370
    35
100
AcDbLine
 10
524.627075
 20
67.950043
 30
0.0
 11
524.627075
 21
77.950027
 31
0.0
  0
LINE
  5
174
330
1F
100
AcDbEntity
  8
0
 62
     7
370
    35
100
AcDbLine
 10
518.427002
 20
67.050049
 30
0.0
 11
518.427002
 21
78.850052
 31
0.0
  0
LINE
  5
175
330
1F
100
AcDbEntity
  8
0
 62
     7
370
    35
100
AcDbLine
 10
475.127075
 20
69.450043
 30
0.0
 11
475.127075
 21
76.450027
 31
0.0
  0
LINE
  5
176
330
1F
100
AcDbEntity
  8
0
 62
     7
370
    35
100
AcDbLine
 10
494.127075
 20
66.450043
 30
0.0
 11
494.127075
 21
79.450027
 31
0.0
  0
LINE
  5
177
330
1F
100
AcDbEntity
  8
0
 62
     7
370
    35
100
AcDbLine
 10
513.627075
 20
66.450043
 30
0.0
 11
513.627075
 21
79.450027
 31
0.0
  0
LINE
  5
178
330
1F
100
AcDbEntity
  8
0
 62
     7
370
    35
100
AcDbLine
 10
513.627075
 20
66.450043
 30
0.0
 11
494.127075
 21
66.450043
 31
0.0
  0
LINE
  5
179
330
1F
100
AcDbEntity
  8
0
 62
     7
370
    35
100
AcDbLine
 10
513.627075
 20
79.450027
 30
0.0
 11
494.127075
 21
79.450027
 31
0.0
  0
LINE
  5
17A
330
1F
100
AcDbEntity
  8
0
 62
     7
370
    35
100
AcDbLine
 10
518.427002
 20
67.050049
 30
0.0
 11
513.627075
 21
67.050049
 31
0.0
  0
LINE
  5
17B
330
1F
100
AcDbEntity
  8
0
 62
     7
370
    35
100
AcDbLine
 10
518.427002
 20
78.850052
 30
0.0
 11
513.627075
 21
78.850052
 31
0.0
  0
LINE
  5
17C
330
1F
100
AcDbEntity
  8
0
 62
     7
370
    35
100
AcDbLine
 10
524.627075
 20
67.950043
 30
0.0
 11
518.427002
 21
67.950043
 31
0.0
  0
LINE
  5
17D
330
1F
100
AcDbEntity
  8
0
 62
     7
370
    35
100
AcDbLine
 10
524.627075
 20
77.950027
 30
0.0
 11
518.427002
 21
77.950027
 31
0.0
  0
LINE
  5
17E
330
1F
100
AcDbEntity
  8
0
 62
     7
370
    35
100
AcDbLine
 10
475.127136
 20
69.450027
 30
0.0
 11
489.127136
 21
68.950027
 31
0.0
  0
LINE
  5
17F
330
1F
100
AcDbEntity
  8
0
 62
     7
370
    35
100
AcDbLine
 10
494.127136
 20
67.050034
 30
0.0
 11
489.127136
 21
68.950027
 31
0.0
  0
LINE
  5
180
330
1F
100
AcDbEntity
  8
0
 62
     7
370
    35
100
AcDbLine
 10
475.127075
 20
76.450027
 30
0.0
 11
489.127075
 21
76.950027
 31
0.0
  0
LINE
  5
181
330
1F
100
AcDbEntity
  8
0
 62
     7
370
    35
100
AcDbLine
 10
494.127136
 20
78.84993
 30
0.0
 11
489.127136
 21
76.949936
 31
0.0
  0
LINE
  5
182
330
1F
100
AcDbEntity
  8
0
 62
     7
370
    35
100
AcDbLine
 10
488.090088
 20
74.950058
 30
0.0
 11
488.608582
 21
72.950058
 31
0.0
  0
LINE
  5
183
330
1F
100
AcDbEntity
  8
0
 62
     7
370
    35
100
AcDbLine
 10
487.585754
 20
69.005081
 30
0.0
 11
488.090027
 21
70.950027
 31
0.0
  0
LINE
  5
184
330
1F
100
AcDbEntity
  8
0
 62
     7
370
    35
100
AcDbLine
 10
488.090027
 20
70.950058
 30
0.0
 11
487.571533
 21
72.950058
 31
0.0
  0
LINE
  5
185
330
1F
100
AcDbEntity
  8
0
 62
     7
370
    35
100
AcDbLine
 10
487.571472
 20
72.950058
 30
0.0
 11
487.05304
 21
70.950058
 31
0.0
  0
LINE
  5
186
330
1F
100
AcDbEntity
  8
0
 62
     7
370
    35
100
AcDbLine
 10
487.052979
 20
70.950027
 30
0.0
 11
487.556946
 21
69.006119
 31
0.0
  0
LINE
  5
187
330
1F
100
AcDbEntity
  8
0
 62
     7
370
    35
100
AcDbLine
 10
486.534607
 20
72.950027
 30
0.0
 11
487.053101
 21
74.950027
 31
0.0
  0
LINE
  5
188
330
1F
100
AcDbEntity
  8
0
 62
     7
370
    35
100
AcDbLine
 10
487.05304
 20
74.950058
 30
0.0
 11
486.558289
 21
76.858292
 31
0.0
  0
LINE
  5
189
330
1F
100
AcDbEntity
  8
0
 62
     7
370
    35
100
AcDbLine
 10
486.510315
 20
76.856583
 30
0.0
 11
486.015991
 21
74.950027
 31
0.0
  0
LINE
  5
18A
330
1F
100
AcDbEntity
  8
0
 62
     7
370
    35
100
AcDbLine
 10
486.015991
 20
74.950027
 30
0.0
 11
486.534485
 21
72.950058
 31
0.0
  0
LINE
  5
18B
330
1F
100
AcDbEntity
  8
0
 62
     7
370
    35
100
AcDbLine
 10
485.530823
 20
69.078476
 30
0.0
 11
486.016052
 21
70.950027
 31
0.0
  0
LINE
  5
18C
330
1F
100
AcDbEntity
  8
0
 62
     7
370
    35
100
AcDbLine
 10
486.015991
 20
70.950027
 30
0.0
 11
485.497498
 21
72.950058
 31
0.0
  0
LINE
  5
18D
330
1F
100
AcDbEntity
  8
0
 62
     7
370
    35
100
AcDbLine
 10
485.497498
 20
72.950027
 30
0.0
 11
484.978943
 21
70.950027
 31
0.0
  0
LINE
  5
18E
330
1F
100
AcDbEntity
  8
0
 62
     7
370
    35
100
AcDbLine
 10
484.978943
 20
70.950058
 30
0.0
 11
485.463562
 21
69.080902
 31
0.0
  0
LINE
  5
18F
330
1F
100
AcDbEntity
  8
0
 62
     7
370
    35
100
AcDbLine
 10
484.460388
 20
72.950058
 30
0.0
 11
484.978943
 21
74.950058
 31
0.0
  0
LINE
  5
190
330
1F
100
AcDbEntity
  8
0
 62
     7
370
    35
100
AcDbLine
 10
488.60376
 20
76.931351
 30
0.0
 11
488.090088
 21
74.950027
 31
0.0
  0
LINE
  5
191
330
1F
100
AcDbEntity
  8
0
 62
     7
370
    35
100
AcDbLine
 10
488.608582
 20
72.950027
 30
0.0
 11
489.127075
 21
74.950027
 31
0.0
  0
LINE
  5
192
330
1F
100
AcDbEntity
  8
0
 62
     7
370
    35
100
AcDbLine
 10
489.127136
 20
74.950058
 30
0.0
 11
488.613403
 21
76.931717
 31
0.0
  0
LINE
  5
193
330
1F
100
AcDbEntity
  8
0
 62
     7
370
    35
100
AcDbLine
 10
484.978943
 20
74.950027
 30
0.0
 11
484.503296
 21
76.784897
 31
0.0
  0
LINE
  5
194
330
1F
100
AcDbEntity
  8
0
 62
     7
370
    35
100
AcDbLine
 10
484.41687
 20
76.781815
 30
0.0
 11
483.941956
 21
74.950058
 31
0.0
  0
LINE
  5
195
330
1F
100
AcDbEntity
  8
0
 62
     7
370
    35
100
AcDbLine
 10
483.941956
 20
74.950058
 30
0.0
 11
484.46051
 21
72.950027
 31
0.0
  0
LINE
  5
196
330
1F
100
AcDbEntity
  8
0
 62
     7
370
    35
100
AcDbLine
 10
483.475769
 20
69.151886
 30
0.0
 11
483.941956
 21
70.950027
 31
0.0
  0
LINE
  5
197
330
1F
100
AcDbEntity
  8
0
 62
     7
370
    35
100
AcDbLine
 10
483.941956
 20
70.950058
 30
0.0
 11
483.423401
 21
72.950058
 31
0.0
  0
LINE
  5
198
330
1F
100
AcDbEntity
  8
0
 62
     7
370
    35
100
AcDbLine
 10
483.423401
 20
72.950058
 30
0.0
 11
482.904907
 21
70.950058
 31
0.0
  0
LINE
  5
199
330
1F
100
AcDbEntity
  8
0
 62
     7
370
    35
100
AcDbLine
 10
482.904846
 20
70.950027
 30
0.0
 11
483.370056
 21
69.15564
 31
0.0
  0
LINE
  5
19A
330
1F
100
AcDbEntity
  8
0
 62
     7
370
    35
100
AcDbLine
 10
482.386414
 20
72.950027
 30
0.0
 11
482.904907
 21
74.950027
 31
0.0
  0
LINE
  5
19B
330
1F
100
AcDbEntity
  8
0
 62
     7
370
    35
100
AcDbLine
 10
482.904907
 20
74.950058
 30
0.0
 11
482.448181
 21
76.711533
 31
0.0
  0
LINE
  5
19C
330
1F
100
AcDbEntity
  8
0
 62
     7
370
    35
100
AcDbLine
 10
482.323303
 20
76.707047
 30
0.0
 11
481.867798
 21
74.950058
 31
0.0
  0
LINE
  5
19D
330
1F
100
AcDbEntity
  8
0
 62
     7
370
    35
100
AcDbLine
 10
481.867859
 20
74.950027
 30
0.0
 11
482.386353
 21
72.950027
 31
0.0
  0
LINE
  5
19E
330
1F
100
AcDbEntity
  8
0
 62
     7
370
    35
100
AcDbLine
 10
481.420715
 20
69.225266
 30
0.0
 11
481.867859
 21
70.950027
 31
0.0
  0
LINE
  5
19F
330
1F
100
AcDbEntity
  8
0
 62
     7
370
    35
100
AcDbLine
 10
404.432922
 20
76.850021
 30
0.0
 11
404.432922
 21
69.050018
 31
0.0
  0
LINE
  5
1A0
330
1F
100
AcDbEntity
  8
0
 62
     7
370
    35
100
AcDbLine
 10
394.482971
 20
69.236877
 30
0.0
 11
394.982971
 21
69.252625
 31
0.0
  0
LINE
  5
1A1
330
1F
100
AcDbEntity
  8
0
 62
     7
370
    35
100
AcDbLine
 10
394.482971
 20
76.663162
 30
0.0
 11
394.982971
 21
76.647415
 31
0.0
  0
LINE
  5
1A2
330
1F
100
AcDbEntity
  8
0
 62
     7
370
    35
100
AcDbLine
 10
395.982971
 20
77.116165
 30
0.0
 11
395.982971
 21
68.783875
 31
0.0
  0
LINE
  5
1A3
330
1F
100
AcDbEntity
  8
0
 62
     7
370
    35
100
AcDbLine
 10
394.982971
 20
77.147659
 30
0.0
 11
394.982971
 21
68.75238
 31
0.0
  0
LINE
  5
1A4
330
1F
100
AcDbEntity
  8
0
 62
     7
370
    35
100
AcDbLine
 10
393.332947
 20
68.700409
 30
0.0
 11
394.482971
 21
68.736633
 31
0.0
  0
LINE
  5
1A5
330
1F
100
AcDbEntity
  8
0
 62
     7
370
    35
100
AcDbLine
 10
394.482971
 20
77.163406
 30
0.0
 11
394.482971
 21
68.736633
 31
0.0
  0
LINE
  5
1A6
330
1F
100
AcDbEntity
  8
0
 62
     7
370
    35
100
AcDbLine
 10
393.332947
 20
77.199631
 30
0.0
 11
394.482971
 21
77.163406
 31
0.0
  0
LINE
  5
1A7
330
1F
100
AcDbEntity
  8
0
 62
     7
370
    35
100
AcDbLine
 10
396.482971
 20
77.100418
 30
0.0
 11
396.482971
 21
68.799622
 31
0.0
  0
LINE
  5
1A8
330
1F
100
AcDbEntity
  8
0
 62
     7
370
    35
100
AcDbLine
 10
397.982971
 20
77.053177
 30
0.0
 11
397.982971
 21
68.846863
 31
0.0
  0
LINE
  5
1A9
330
1F
100
AcDbEntity
  8
0
 62
     7
370
    35
100
AcDbLine
 10
397.482971
 20
77.068924
 30
0.0
 11
397.482971
 21
68.831116
 31
0.0
  0
LINE
  5
1AA
330
1F
100
AcDbEntity
  8
0
 62
     7
370
    35
100
AcDbLine
 10
398.982971
 20
77.021683
 30
0.0
 11
398.982971
 21
68.878357
 31
0.0
  0
LINE
  5
1AB
330
1F
100
AcDbEntity
  8
0
 62
     7
370
    35
100
AcDbLine
 10
399.482971
 20
77.005936
 30
0.0
 11
399.482971
 21
68.894119
 31
0.0
  0
LINE
  5
1AC
330
1F
100
AcDbEntity
  8
0
 62
     7
370
    35
100
AcDbLine
 10
400.982971
 20
76.958694
 30
0.0
 11
400.982971
 21
68.94136
 31
0.0
  0
LINE
  5
1AD
330
1F
100
AcDbEntity
  8
0
 62
     7
370
    35
100
AcDbLine
 10
400.482971
 20
76.974442
 30
0.0
 11
400.482971
 21
68.925613
 31
0.0
  0
LINE
  5
1AE
330
1F
100
AcDbEntity
  8
0
 62
     7
370
    35
100
AcDbLine
 10
400.982971
 20
68.94136
 30
0.0
 11
404.432922
 21
69.050018
 31
0.0
  0
LINE
  5
1AF
330
1F
100
AcDbEntity
  8
0
 62
     7
370
    35
100
AcDbLine
 10
399.482971
 20
68.894119
 30
0.0
 11
400.482971
 21
68.925613
 31
0.0
  0
LINE
  5
1B0
330
1F
100
AcDbEntity
  8
0
 62
     7
370
    35
100
AcDbLine
 10
397.982971
 20
68.846863
 30
0.0
 11
398.982971
 21
68.878357
 31
0.0
  0
LINE
  5
1B1
330
1F
100
AcDbEntity
  8
0
 62
     7
370
    35
100
AcDbLine
 10
396.482971
 20
68.799622
 30
0.0
 11
397.482971
 21
68.831116
 31
0.0
  0
LINE
  5
1B2
330
1F
100
AcDbEntity
  8
0
 62
     7
370
    35
100
AcDbLine
 10
394.982971
 20
68.75238
 30
0.0
 11
395.982971
 21
68.783875
 31
0.0
  0
LINE
  5
1B3
330
1F
100
AcDbEntity
  8
0
 62
     7
370
    35
100
AcDbLine
 10
394.982971
 20
77.147659
 30
0.0
 11
395.982971
 21
77.116165
 31
0.0
  0
LINE
  5
1B4
330
1F
100
AcDbEntity
  8
0
 62
     7
370
    35
100
AcDbLine
 10
396.482971
 20
77.100418
 30
0.0
 11
397.482971
 21
77.068924
 31
0.0
  0
LINE
  5
1B5
330
1F
100
AcDbEntity
  8
0
 62
     7
370
    35
100
AcDbLine
 10
397.982971
 20
77.053177
 30
0.0
 11
398.982971
 21
77.021683
 31
0.0
  0
LINE
  5
1B6
330
1F
100
AcDbEntity
  8
0
 62
     7
370
    35
100
AcDbLine
 10
399.482971
 20
77.005936
 30
0.0
 11
400.482971
 21
76.974442
 31
0.0
  0
LINE
  5
1B7
330
1F
100
AcDbEntity
  8
0
 62
     7
370
    35
100
AcDbLine
 10
400.982971
 20
76.958694
 30
0.0
 11
404.432922
 21
76.850021
 31
0.0
  0
LINE
  5
1B8
330
1F
100
AcDbEntity
  8
0
 62
     7
370
    35
100
AcDbLine
 10
481.867859
 20
70.950027
 30
0.0
 11
481.349304
 21
72.950058
 31
0.0
  0
LINE
  5
1B9
330
1F
100
AcDbEntity
  8
0
 62
     7
370
    35
100
AcDbLine
 10
481.349365
 20
72.950027
 30
0.0
 11
480.830811
 21
70.950027
 31
0.0
  0
LINE
  5
1BA
330
1F
100
AcDbEntity
  8
0
 62
     7
370
    35
100
AcDbLine
 10
480.83075
 20
70.950058
 30
0.0
 11
481.276611
 21
69.230423
 31
0.0
  0
LINE
  5
1BB
330
1F
100
AcDbEntity
  8
0
 62
     7
370
    35
100
AcDbLine
 10
480.312317
 20
72.950058
 30
0.0
 11
480.830872
 21
74.950058
 31
0.0
  0
LINE
  5
1BC
330
1F
100
AcDbEntity
  8
0
 62
     7
370
    35
100
AcDbLine
 10
480.83075
 20
74.950027
 30
0.0
 11
480.393127
 21
76.638107
 31
0.0
  0
LINE
  5
1BD
330
1F
100
AcDbEntity
  8
0
 62
     7
370
    35
100
AcDbLine
 10
480.229919
 20
76.632278
 30
0.0
 11
479.793762
 21
74.950058
 31
0.0
  0
LINE
  5
1BE
330
1F
100
AcDbEntity
  8
0
 62
     7
370
    35
100
AcDbLine
 10
479.793762
 20
74.950058
 30
0.0
 11
480.312256
 21
72.950058
 31
0.0
  0
LINE
  5
1BF
330
1F
100
AcDbEntity
  8
0
 62
     7
370
    35
100
AcDbLine
 10
479.365601
 20
69.298676
 30
0.0
 11
479.793762
 21
70.950058
 31
0.0
  0
LINE
  5
1C0
330
1F
100
AcDbEntity
  8
0
 62
     7
370
    35
100
AcDbLine
 10
479.793701
 20
70.950058
 30
0.0
 11
479.275208
 21
72.950058
 31
0.0
  0
LINE
  5
1C1
330
1F
100
AcDbEntity
  8
0
 62
     7
370
    35
100
AcDbLine
 10
479.275269
 20
72.950058
 30
0.0
 11
478.756714
 21
70.950058
 31
0.0
  0
LINE
  5
1C2
330
1F
100
AcDbEntity
  8
0
 62
     7
370
    35
100
AcDbLine
 10
478.756775
 20
70.950058
 30
0.0
 11
479.183167
 21
69.305191
 31
0.0
  0
LINE
  5
1C3
330
1F
100
AcDbEntity
  8
0
 62
     7
370
    35
100
AcDbLine
 10
478.23822
 20
72.950027
 30
0.0
 11
478.756714
 21
74.950027
 31
0.0
  0
LINE
  5
1C4
330
1F
100
AcDbEntity
  8
0
 62
     7
370
    35
100
AcDbLine
 10
478.756775
 20
74.950058
 30
0.0
 11
478.338135
 21
76.564743
 31
0.0
  0
LINE
  5
1C5
330
1F
100
AcDbEntity
  8
0
 62
     7
370
    35
100
AcDbLine
 10
478.136414
 20
76.55751
 30
0.0
 11
477.719666
 21
74.950027
 31
0.0
  0
LINE
  5
1C6
330
1F
100
AcDbEntity
  8
0
 62
     7
370
    35
100
AcDbLine
 10
477.719666
 20
74.950058
 30
0.0
 11
478.23822
 21
72.950058
 31
0.0
  0
LINE
  5
1C7
330
1F
100
AcDbEntity
  8
0
 62
     7
370
    35
100
AcDbLine
 10
477.310608
 20
69.372055
 30
0.0
 11
477.719666
 21
70.950027
 31
0.0
  0
LINE
  5
1C8
330
1F
100
AcDbEntity
  8
0
 62
     7
370
    35
100
AcDbLine
 10
477.719727
 20
70.950058
 30
0.0
 11
477.201172
 21
72.950058
 31
0.0
  0
LINE
  5
1C9
330
1F
100
AcDbEntity
  8
0
 62
     7
370
    35
100
AcDbLine
 10
477.201111
 20
72.950058
 30
0.0
 11
476.682678
 21
70.950058
 31
0.0
  0
LINE
  5
1CA
330
1F
100
AcDbEntity
  8
0
 62
     7
370
    35
100
AcDbLine
 10
476.682617
 20
70.950058
 30
0.0
 11
477.089661
 21
69.379944
 31
0.0
  0
LINE
  5
1CB
330
1F
100
AcDbEntity
  8
0
 62
     7
370
    35
100
AcDbLine
 10
476.164185
 20
72.950027
 30
0.0
 11
476.682678
 21
74.950027
 31
0.0
  0
LINE
  5
1CC
330
1F
100
AcDbEntity
  8
0
 62
     7
370
    35
100
AcDbLine
 10
476.682678
 20
74.950058
 30
0.0
 11
476.283081
 21
76.491348
 31
0.0
  0
LINE
  5
1CD
330
1F
100
AcDbEntity
  8
0
 62
     7
370
    35
100
AcDbLine
 10
476.04303
 20
76.482742
 30
0.0
 11
475.64563
 21
74.950027
 31
0.0
  0
LINE
  5
1CE
330
1F
100
AcDbEntity
  8
0
 62
     7
370
    35
100
AcDbLine
 10
475.645691
 20
74.950058
 30
0.0
 11
476.164185
 21
72.950058
 31
0.0
  0
LINE
  5
1CF
330
1F
100
AcDbEntity
  8
0
 62
     7
370
    35
100
AcDbLine
 10
494.127075
 20
73.950027
 30
0.0
 11
499.127075
 21
73.950027
 31
0.0
  0
LINE
  5
1D0
330
1F
100
AcDbEntity
  8
0
 62
     7
370
    35
100
AcDbLine
 10
494.127075
 20
71.950027
 30
0.0
 11
499.127075
 21
71.950027
 31
0.0
  0
LINE
  5
1D1
330
1F
100
AcDbEntity
  8
0
 62
     7
370
    35
100
AcDbLine
 10
289.682953
 20
76.615921
 30
0.0
 11
289.182953
 21
76.600174
 31
0.0
  0
LINE
  5
1D2
330
1F
100
AcDbEntity
  8
0
 62
     7
370
    35
100
AcDbLine
 10
288.182953
 20
76.56868
 30
0.0
 11
287.682953
 21
76.552933
 31
0.0
  0
LINE
  5
1D3
330
1F
100
AcDbEntity
  8
0
 62
     7
370
    35
100
AcDbLine
 10
286.682953
 20
76.521439
 30
0.0
 11
286.182953
 21
76.505661
 31
0.0
  0
LINE
  5
1D4
330
1F
100
AcDbEntity
  8
0
 62
     7
370
    35
100
AcDbLine
 10
285.182953
 20
76.474167
 30
0.0
 11
284.682953
 21
76.45842
 31
0.0
  0
LINE
  5
1D5
330
1F
100
AcDbEntity
  8
0
 62
     7
370
    35
100
AcDbLine
 10
289.682953
 20
69.284119
 30
0.0
 11
289.182953
 21
69.299866
 31
0.0
  0
LINE
  5
1D6
330
1F
100
AcDbEntity
  8
0
 62
     7
370
    35
100
AcDbLine
 10
288.182953
 20
69.331375
 30
0.0
 11
287.682953
 21
69.347122
 31
0.0
  0
LINE
  5
1D7
330
1F
100
AcDbEntity
  8
0
 62
     7
370
    35
100
AcDbLine
 10
286.682953
 20
69.378616
 30
0.0
 11
286.182953
 21
69.394363
 31
0.0
  0
LINE
  5
1D8
330
1F
100
AcDbEntity
  8
0
 62
     7
370
    35
100
AcDbLine
 10
285.182953
 20
69.425858
 30
0.0
 11
284.682953
 21
69.441605
 31
0.0
  0
LINE
  5
1D9
330
1F
100
AcDbEntity
  8
0
 62
     7
370
    35
100
AcDbLine
 10
284.682953
 20
76.958694
 30
0.0
 11
281.232941
 21
76.850021
 31
0.0
  0
LINE
  5
1DA
330
1F
100
AcDbEntity
  8
0
 62
     7
370
    35
100
AcDbLine
 10
286.182953
 20
77.005936
 30
0.0
 11
285.182953
 21
76.974442
 31
0.0
  0
LINE
  5
1DB
330
1F
100
AcDbEntity
  8
0
 62
     7
370
    35
100
AcDbLine
 10
287.682953
 20
77.053177
 30
0.0
 11
286.682953
 21
77.021683
 31
0.0
  0
LINE
  5
1DC
330
1F
100
AcDbEntity
  8
0
 62
     7
370
    35
100
AcDbLine
 10
289.182953
 20
77.100418
 30
0.0
 11
288.182953
 21
77.068924
 31
0.0
  0
LINE
  5
1DD
330
1F
100
AcDbEntity
  8
0
 62
     7
370
    35
100
AcDbLine
 10
290.682953
 20
77.147659
 30
0.0
 11
289.682953
 21
77.116165
 31
0.0
  0
LINE
  5
1DE
330
1F
100
AcDbEntity
  8
0
 62
     7
370
    35
100
AcDbLine
 10
290.682953
 20
68.75238
 30
0.0
 11
289.682953
 21
68.783875
 31
0.0
  0
LINE
  5
1DF
330
1F
100
AcDbEntity
  8
0
 62
     7
370
    35
100
AcDbLine
 10
289.182953
 20
68.799622
 30
0.0
 11
288.182953
 21
68.831116
 31
0.0
  0
LINE
  5
1E0
330
1F
100
AcDbEntity
  8
0
 62
     7
370
    35
100
AcDbLine
 10
287.682953
 20
68.846863
 30
0.0
 11
286.682953
 21
68.878357
 31
0.0
  0
LINE
  5
1E1
330
1F
100
AcDbEntity
  8
0
 62
     7
370
    35
100
AcDbLine
 10
286.182953
 20
68.894119
 30
0.0
 11
285.182953
 21
68.925613
 31
0.0
  0
LINE
  5
1E2
330
1F
100
AcDbEntity
  8
0
 62
     7
370
    35
100
AcDbLine
 10
284.682953
 20
68.94136
 30
0.0
 11
281.232941
 21
69.050018
 31
0.0
  0
LINE
  5
1E3
330
1F
100
AcDbEntity
  8
0
 62
     7
370
    35
100
AcDbLine
 10
285.182953
 20
76.974442
 30
0.0
 11
285.182953
 21
68.925613
 31
0.0
  0
LINE
  5
1E4
330
1F
100
AcDbEntity
  8
0
 62
     7
370
    35
100
AcDbLine
 10
284.682953
 20
76.958694
 30
0.0
 11
284.682953
 21
68.94136
 31
0.0
  0
LINE
  5
1E5
330
1F
100
AcDbEntity
  8
0
 62
     7
370
    35
100
AcDbLine
 10
286.182953
 20
77.005936
 30
0.0
 11
286.182953
 21
68.894119
 31
0.0
  0
LINE
  5
1E6
330
1F
100
AcDbEntity
  8
0
 62
     7
370
    35
100
AcDbLine
 10
286.682953
 20
77.021683
 30
0.0
 11
286.682953
 21
68.878357
 31
0.0
  0
LINE
  5
1E7
330
1F
100
AcDbEntity
  8
0
 62
     7
370
    35
100
AcDbLine
 10
288.182953
 20
77.068924
 30
0.0
 11
288.182953
 21
68.831116
 31
0.0
  0
LINE
  5
1E8
330
1F
100
AcDbEntity
  8
0
 62
     7
370
    35
100
AcDbLine
 10
287.682953
 20
77.053177
 30
0.0
 11
287.682953
 21
68.846863
 31
0.0
  0
LINE
  5
1E9
330
1F
100
AcDbEntity
  8
0
 62
     7
370
    35
100
AcDbLine
 10
289.182953
 20
77.100418
 30
0.0
 11
289.182953
 21
68.799622
 31
0.0
  0
LINE
  5
1EA
330
1F
100
AcDbEntity
  8
0
 62
     7
370
    35
100
AcDbLine
 10
292.332977
 20
77.199631
 30
0.0
 11
291.182953
 21
77.163406
 31
0.0
  0
LINE
  5
1EB
330
1F
100
AcDbEntity
  8
0
 62
     7
370
    35
100
AcDbLine
 10
291.182953
 20
77.163406
 30
0.0
 11
291.182953
 21
68.736633
 31
0.0
  0
LINE
  5
1EC
330
1F
100
AcDbEntity
  8
0
 62
     7
370
    35
100
AcDbLine
 10
292.332977
 20
68.700409
 30
0.0
 11
291.182953
 21
68.736633
 31
0.0
  0
LINE
  5
1ED
330
1F
100
AcDbEntity
  8
0
 62
     7
370
    35
100
AcDbLine
 10
290.682953
 20
77.147659
 30
0.0
 11
290.682953
 21
68.75238
 31
0.0
  0
LINE
  5
1EE
330
1F
100
AcDbEntity
  8
0
 62
     7
370
    35
100
AcDbLine
 10
289.682953
 20
77.116165
 30
0.0
 11
289.682953
 21
68.783875
 31
0.0
  0
LINE
  5
1EF
330
1F
100
AcDbEntity
  8
0
 62
     7
370
    35
100
AcDbLine
 10
400.482971
 20
69.425858
 30
0.0
 11
400.982971
 21
69.441605
 31
0.0
  0
LINE
  5
1F0
330
1F
100
AcDbEntity
  8
0
 62
     7
370
    35
100
AcDbLine
 10
291.182953
 20
76.663162
 30
0.0
 11
290.682953
 21
76.647415
 31
0.0
  0
LINE
  5
1F1
330
1F
100
AcDbEntity
  8
0
 62
     7
370
    35
100
AcDbLine
 10
398.982971
 20
69.378616
 30
0.0
 11
399.482971
 21
69.394363
 31
0.0
  0
LINE
  5
1F2
330
1F
100
AcDbEntity
  8
0
 62
     7
370
    35
100
AcDbLine
 10
397.482971
 20
69.331375
 30
0.0
 11
397.982971
 21
69.347122
 31
0.0
  0
LINE
  5
1F3
330
1F
100
AcDbEntity
  8
0
 62
     7
370
    35
100
AcDbLine
 10
395.982971
 20
69.284119
 30
0.0
 11
396.482971
 21
69.299866
 31
0.0
  0
LINE
  5
1F4
330
1F
100
AcDbEntity
  8
0
 62
     7
370
    35
100
AcDbLine
 10
400.482971
 20
76.474167
 30
0.0
 11
400.982971
 21
76.45842
 31
0.0
  0
LINE
  5
1F5
330
1F
100
AcDbEntity
  8
0
 62
     7
370
    35
100
AcDbLine
 10
398.982971
 20
76.521439
 30
0.0
 11
399.482971
 21
76.505661
 31
0.0
  0
LINE
  5
1F6
330
1F
100
AcDbEntity
  8
0
 62
     7
370
    35
100
AcDbLine
 10
397.482971
 20
76.56868
 30
0.0
 11
397.982971
 21
76.552933
 31
0.0
  0
LINE
  5
1F7
330
1F
100
AcDbEntity
  8
0
 62
     7
370
    35
100
AcDbLine
 10
291.182953
 20
69.236877
 30
0.0
 11
290.682953
 21
69.252625
 31
0.0
  0
LINE
  5
1F8
330
1F
100
AcDbEntity
  8
0
 62
     7
370
    35
100
AcDbLine
 10
395.982971
 20
76.615921
 30
0.0
 11
396.482971
 21
76.600174
 31
0.0
  0
LINE
  5
1F9
330
1F
100
AcDbEntity
  8
0
 62
     7
370
    35
100
AcDbLine
 10
281.232941
 20
76.850021
 30
0.0
 11
281.232941
 21
69.050018
 31
0.0
  0
LINE
  5
1FA
330
1F
100
AcDbEntity
  8
0
 62
     7
370
    35
100
AcDbLine
 10
293.132965
 20
65.950012
 30
0.0
 11
293.132965
 21
65.750015
 31
0.0
  0
LINE
  5
1FB
330
1F
100
AcDbEntity
  8
0
 62
     7
370
    35
100
AcDbLine
 10
293.132965
 20
86.145004
 30
0.0
 11
293.13797
 21
86.145004
 31
0.0
  0
LINE
  5
1FC
330
1F
100
AcDbEntity
  8
0
 62
     7
370
    35
100
AcDbLine
 10
400.332947
 20
65.750015
 30
0.0
 11
402.332947
 21
65.750015
 31
0.0
  0
LINE
  5
1FD
330
1F
100
AcDbEntity
  8
0
 62
     7
370
    35
100
AcDbLine
 10
400.332947
 20
64.950012
 30
0.0
 11
402.332947
 21
64.950012
 31
0.0
  0
LINE
  5
1FE
330
1F
100
AcDbEntity
  8
0
 62
     7
370
    35
100
AcDbLine
 10
285.332977
 20
64.950012
 30
0.0
 11
292.332977
 21
64.950012
 31
0.0
  0
LINE
  5
1FF
330
1F
100
AcDbEntity
  8
0
 62
     7
370
    35
100
AcDbLine
 10
283.332977
 20
65.750015
 30
0.0
 11
285.332977
 21
65.750015
 31
0.0
  0
LINE
  5
200
330
1F
100
AcDbEntity
  8
0
 62
     7
370
    35
100
AcDbLine
 10
393.332947
 20
78.950027
 30
0.0
 11
393.332947
 21
78.945023
 31
0.0
  0
LINE
  5
201
330
1F
100
AcDbEntity
  8
0
 62
     7
370
    35
100
AcDbLine
 10
392.532959
 20
64.950012
 30
0.0
 11
392.532959
 21
65.950012
 31
0.0
  0
LINE
  5
202
330
1F
100
AcDbEntity
  8
0
 62
     7
370
    35
100
AcDbLine
 10
393.332947
 20
65.950012
 30
0.0
 11
393.332947
 21
64.950012
 31
0.0
  0
LINE
  5
203
330
1F
100
AcDbEntity
  8
0
 62
     7
370
    35
100
AcDbLine
 10
392.527954
 20
79.750015
 30
0.0
 11
392.532959
 21
79.750015
 31
0.0
  0
LINE
  5
204
330
1F
100
AcDbEntity
  8
0
 62
     7
370
    35
100
AcDbLine
 10
392.527954
 20
78.950027
 30
0.0
 11
392.532959
 21
78.950027
 31
0.0
  0
LINE
  5
205
330
1F
100
AcDbEntity
  8
0
 62
     7
370
    35
100
AcDbLine
 10
392.532959
 20
78.945023
 30
0.0
 11
392.532959
 21
78.950027
 31
0.0
  0
LINE
  5
206
330
1F
100
AcDbEntity
  8
0
 62
     7
370
    35
100
AcDbLine
 10
392.532959
 20
64.950012
 30
0.0
 11
393.332947
 21
64.950012
 31
0.0
  0
LINE
  5
207
330
1F
100
AcDbEntity
  8
0
 62
     7
370
    35
100
AcDbLine
 10
292.332977
 20
65.950012
 30
0.0
 11
293.13797
 21
65.950012
 31
0.0
  0
LINE
  5
208
330
1F
100
AcDbEntity
  8
0
 62
     7
370
    35
100
AcDbLine
 10
392.527954
 20
78.950027
 30
0.0
 11
392.527954
 21
79.750015
 31
0.0
  0
LINE
  5
209
330
1F
100
AcDbEntity
  8
0
 62
     7
370
    35
100
AcDbLine
 10
392.527954
 20
78.950027
 30
0.0
 11
392.527954
 21
78.945023
 31
0.0
  0
LINE
  5
20A
330
1F
100
AcDbEntity
  8
0
 62
     7
370
    35
100
AcDbLine
 10
293.132965
 20
79.750015
 30
0.0
 11
293.13797
 21
79.750015
 31
0.0
  0
LINE
  5
20B
330
1F
100
AcDbEntity
  8
0
 62
     7
370
    35
100
AcDbLine
 10
392.527954
 20
79.750015
 30
0.0
 11
293.13797
 21
79.750015
 31
0.0
  0
LINE
  5
20C
330
1F
100
AcDbEntity
  8
0
 62
     7
370
    35
100
AcDbLine
 10
293.13797
 20
65.950012
 30
0.0
 11
392.527954
 21
65.950012
 31
0.0
  0
LINE
  5
20D
330
1F
100
AcDbEntity
  8
0
 62
     7
370
    35
100
AcDbLine
 10
292.332977
 20
78.945023
 30
0.0
 11
292.332977
 21
65.950012
 31
0.0
  0
LINE
  5
20E
330
1F
100
AcDbEntity
  8
0
 62
     7
370
    35
100
AcDbLine
 10
293.13797
 20
78.950027
 30
0.0
 11
293.13797
 21
79.750015
 31
0.0
  0
LINE
  5
20F
330
1F
100
AcDbEntity
  8
0
 62
     7
370
    35
100
AcDbLine
 10
293.13797
 20
78.945023
 30
0.0
 11
292.332977
 21
78.945023
 31
0.0
  0
LINE
  5
210
330
1F
100
AcDbEntity
  8
0
 62
     7
370
    35
100
AcDbLine
 10
293.13797
 20
78.950027
 30
0.0
 11
293.13797
 21
78.945023
 31
0.0
  0
LINE
  5
211
330
1F
100
AcDbEntity
  8
0
 62
     7
370
    35
100
AcDbLine
 10
392.527954
 20
78.945023
 30
0.0
 11
393.332947
 21
78.945023
 31
0.0
  0
LINE
  5
212
330
1F
100
AcDbEntity
  8
0
 62
     7
370
    35
100
AcDbLine
 10
393.332947
 20
78.945023
 30
0.0
 11
393.332947
 21
65.950012
 31
0.0
  0
LINE
  5
213
330
1F
100
AcDbEntity
  8
0
 62
     7
370
    35
100
AcDbLine
 10
392.527954
 20
65.950012
 30
0.0
 11
393.332947
 21
65.950012
 31
0.0
  0
LINE
  5
214
330
1F
100
AcDbEntity
  8
0
 62
     7
370
    35
100
AcDbLine
 10
293.132965
 20
78.950027
 30
0.0
 11
293.13797
 21
78.950027
 31
0.0
  0
LINE
  5
215
330
1F
100
AcDbEntity
  8
0
 62
     7
370
    35
100
AcDbLine
 10
292.332977
 20
65.750015
 30
0.0
 11
285.332977
 21
65.750015
 31
0.0
  0
LINE
  5
216
330
1F
100
AcDbEntity
  8
0
 62
     7
370
    35
100
AcDbLine
 10
292.332977
 20
78.950027
 30
0.0
 11
292.332977
 21
78.945023
 31
0.0
  0
LINE
  5
217
330
1F
100
AcDbEntity
  8
0
 62
     7
370
    35
100
AcDbLine
 10
292.332977
 20
65.950012
 30
0.0
 11
292.332977
 21
65.750015
 31
0.0
  0
LINE
  5
218
330
1F
100
AcDbEntity
  8
0
 62
     7
370
    35
100
AcDbLine
 10
293.132965
 20
64.950012
 30
0.0
 11
292.332977
 21
64.950012
 31
0.0
  0
LINE
  5
219
330
1F
100
AcDbEntity
  8
0
 62
     7
370
    35
100
AcDbLine
 10
293.132965
 20
65.754929
 30
0.0
 11
293.132965
 21
64.950012
 31
0.0
  0
LINE
  5
21A
330
1F
100
AcDbEntity
  8
0
 62
     7
370
    35
100
AcDbLine
 10
283.332977
 20
64.950012
 30
0.0
 11
283.332977
 21
65.750015
 31
0.0
  0
LINE
  5
21B
330
1F
100
AcDbEntity
  8
0
 62
     7
370
    35
100
AcDbLine
 10
283.332977
 20
64.950012
 30
0.0
 11
285.332977
 21
64.950012
 31
0.0
  0
LINE
  5
21C
330
1F
100
AcDbEntity
  8
0
 62
     7
370
    35
100
AcDbLine
 10
402.332947
 20
64.950012
 30
0.0
 11
402.332947
 21
65.750015
 31
0.0
  0
LINE
  5
21D
330
1F
100
AcDbEntity
  8
0
 62
     7
370
    35
100
AcDbLine
 10
400.332947
 20
65.750015
 30
0.0
 11
393.332947
 21
65.750015
 31
0.0
  0
LINE
  5
21E
330
1F
100
AcDbEntity
  8
0
 62
     7
370
    35
100
AcDbLine
 10
400.332947
 20
64.950012
 30
0.0
 11
393.332947
 21
64.950012
 31
0.0
  0
LINE
  5
21F
330
1F
100
AcDbEntity
  8
0
 62
     7
370
    35
100
AcDbLine
 10
294.232941
 20
65.950012
 30
0.0
 11
294.232941
 21
65.550018
 31
0.0
  0
LINE
  5
220
330
1F
100
AcDbEntity
  8
0
 62
     7
370
    35
100
AcDbLine
 10
293.232941
 20
65.550018
 30
0.0
 11
293.232941
 21
65.950012
 31
0.0
  0
LINE
  5
221
330
1F
100
AcDbEntity
  8
0
 62
     7
370
    35
100
AcDbLine
 10
294.28299
 20
64.550018
 30
0.0
 11
294.232941
 21
64.550018
 31
0.0
  0
LINE
  5
222
330
1F
100
AcDbEntity
  8
0
 62
     7
370
    35
100
AcDbLine
 10
391.382996
 20
64.550018
 30
0.0
 11
294.28299
 21
64.550018
 31
0.0
  0
LINE
  5
223
330
1F
100
AcDbEntity
  8
0
 62
     7
370
    35
100
AcDbLine
 10
294.28299
 20
64.550018
 30
0.0
 11
294.28299
 21
65.550018
 31
0.0
  0
LINE
  5
224
330
1F
100
AcDbEntity
  8
0
 62
     7
370
    35
100
AcDbLine
 10
294.28299
 20
65.550018
 30
0.0
 11
294.28299
 21
65.950012
 31
0.0
  0
LINE
  5
225
330
1F
100
AcDbEntity
  8
0
 62
     7
370
    35
100
AcDbLine
 10
391.382996
 20
64.550018
 30
0.0
 11
391.432922
 21
64.550018
 31
0.0
  0
LINE
  5
226
330
1F
100
AcDbEntity
  8
0
 62
     7
370
    35
100
AcDbLine
 10
391.382996
 20
65.550018
 30
0.0
 11
391.382996
 21
65.950012
 31
0.0
  0
LINE
  5
227
330
1F
100
AcDbEntity
  8
0
 62
     7
370
    35
100
AcDbLine
 10
391.382996
 20
64.550018
 30
0.0
 11
391.382996
 21
65.550018
 31
0.0
  0
LINE
  5
228
330
1F
100
AcDbEntity
  8
0
 62
     7
370
    35
100
AcDbLine
 10
391.432922
 20
65.550018
 30
0.0
 11
391.432922
 21
65.950012
 31
0.0
  0
LINE
  5
229
330
1F
100
AcDbEntity
  8
0
 62
     7
370
    35
100
AcDbLine
 10
392.432922
 20
65.550018
 30
0.0
 11
392.432922
 21
65.950012
 31
0.0
  0
LINE
  5
22A
330
1F
100
AcDbEntity
  8
0
 62
     7
370
    35
100
AcDbLine
 10
294.28299
 20
65.550018
 30
0.0
 11
294.232941
 21
65.550018
 31
0.0
  0
LINE
  5
22B
330
1F
100
AcDbEntity
  8
0
 62
     7
370
    35
100
AcDbLine
 10
391.432922
 20
65.550018
 30
0.0
 11
391.382996
 21
65.550018
 31
0.0
  0
LINE
  5
22C
330
1F
100
AcDbEntity
  8
0
 62
     7
370
    35
100
AcDbLine
 10
303.413727
 20
69.186417
 30
0.0
 11
303.767303
 21
68.832855
 31
0.0
  0
LINE
  5
22D
330
1F
100
AcDbEntity
  8
0
 62
     7
370
    35
100
AcDbLine
 10
303.696564
 20
69.469254
 30
0.0
 11
304.05014
 21
69.115707
 31
0.0
  0
LINE
  5
22E
330
1F
100
AcDbEntity
  8
0
 62
     7
370
    35
100
AcDbLine
 10
303.413727
 20
67.91362
 30
0.0
 11
303.767303
 21
68.267181
 31
0.0
  0
LINE
  5
22F
330
1F
100
AcDbEntity
  8
0
 62
     7
370
    35
100
AcDbLine
 10
303.696564
 20
67.630783
 30
0.0
 11
304.05014
 21
67.984329
 31
0.0
  0
LINE
  5
230
330
1F
100
AcDbEntity
  8
0
 62
     7
370
    35
100
AcDbLine
 10
304.615814
 20
69.115707
 30
0.0
 11
304.969391
 21
69.469254
 31
0.0
  0
LINE
  5
231
330
1F
100
AcDbEntity
  8
0
 62
     7
370
    35
100
AcDbLine
 10
304.898651
 20
68.832855
 30
0.0
 11
305.252228
 21
69.186417
 31
0.0
  0
LINE
  5
232
330
1F
100
AcDbEntity
  8
0
 62
     7
370
    35
100
AcDbLine
 10
304.898651
 20
68.267181
 30
0.0
 11
305.252228
 21
67.91362
 31
0.0
  0
LINE
  5
233
330
1F
100
AcDbEntity
  8
0
 62
     7
370
    35
100
AcDbLine
 10
304.615814
 20
67.984329
 30
0.0
 11
304.969391
 21
67.630783
 31
0.0
  0
LINE
  5
234
330
1F
100
AcDbEntity
  8
0
 62
     7
370
    35
100
AcDbLine
 10
304.969391
 20
69.469254
 30
0.0
 11
305.252228
 21
69.186417
 31
0.0
  0
LINE
  5
235
330
1F
100
AcDbEntity
  8
0
 62
     7
370
    35
100
AcDbLine
 10
303.413727
 20
67.91362
 30
0.0
 11
303.696564
 21
67.630783
 31
0.0
  0
LINE
  5
236
330
1F
100
AcDbEntity
  8
0
 62
     7
370
    35
100
AcDbLine
 10
303.413727
 20
69.186417
 30
0.0
 11
303.696564
 21
69.469254
 31
0.0
  0
LINE
  5
237
330
1F
100
AcDbEntity
  8
0
 62
     7
370
    35
100
AcDbLine
 10
304.969391
 20
67.630783
 30
0.0
 11
305.252228
 21
67.91362
 31
0.0
  0
LINE
  5
238
330
1F
100
AcDbEntity
  8
0
 62
     7
370
    35
100
AcDbLine
 10
379.696594
 20
69.469254
 30
0.0
 11
380.05011
 21
69.115707
 31
0.0
  0
LINE
  5
239
330
1F
100
AcDbEntity
  8
0
 62
     7
370
    35
100
AcDbLine
 10
379.413757
 20
69.186417
 30
0.0
 11
379.767273
 21
68.832855
 31
0.0
  0
LINE
  5
23A
330
1F
100
AcDbEntity
  8
0
 62
     7
370
    35
100
AcDbLine
 10
379.413757
 20
67.91362
 30
0.0
 11
379.767273
 21
68.267181
 31
0.0
  0
LINE
  5
23B
330
1F
100
AcDbEntity
  8
0
 62
     7
370
    35
100
AcDbLine
 10
379.696594
 20
67.630783
 30
0.0
 11
380.05011
 21
67.984329
 31
0.0
  0
LINE
  5
23C
330
1F
100
AcDbEntity
  8
0
 62
     7
370
    35
100
AcDbLine
 10
380.615784
 20
69.115707
 30
0.0
 11
380.96936
 21
69.469254
 31
0.0
  0
LINE
  5
23D
330
1F
100
AcDbEntity
  8
0
 62
     7
370
    35
100
AcDbLine
 10
380.898621
 20
68.832855
 30
0.0
 11
381.252197
 21
69.186417
 31
0.0
  0
LINE
  5
23E
330
1F
100
AcDbEntity
  8
0
 62
     7
370
    35
100
AcDbLine
 10
380.898621
 20
68.267181
 30
0.0
 11
381.252197
 21
67.91362
 31
0.0
  0
LINE
  5
23F
330
1F
100
AcDbEntity
  8
0
 62
     7
370
    35
100
AcDbLine
 10
380.615784
 20
67.984329
 30
0.0
 11
380.96936
 21
67.630783
 31
0.0
  0
LINE
  5
240
330
1F
100
AcDbEntity
  8
0
 62
     7
370
    35
100
AcDbLine
 10
380.96936
 20
69.469254
 30
0.0
 11
381.252197
 21
69.186417
 31
0.0
  0
LINE
  5
241
330
1F
100
AcDbEntity
  8
0
 62
     7
370
    35
100
AcDbLine
 10
379.413757
 20
67.91362
 30
0.0
 11
379.696594
 21
67.630783
 31
0.0
  0
LINE
  5
242
330
1F
100
AcDbEntity
  8
0
 62
     7
370
    35
100
AcDbLine
 10
379.413757
 20
69.186417
 30
0.0
 11
379.696594
 21
69.469254
 31
0.0
  0
LINE
  5
243
330
1F
100
AcDbEntity
  8
0
 62
     7
370
    35
100
AcDbLine
 10
380.96936
 20
67.630783
 30
0.0
 11
381.252197
 21
67.91362
 31
0.0
  0
LINE
  5
244
330
1F
100
AcDbEntity
  8
0
 62
     7
370
    35
100
AcDbLine
 10
455.22467
 20
351.449921
 30
0.0
 11
455.22467
 21
334.450043
 31
0.0
  0
LINE
  5
245
330
1F
100
AcDbEntity
  8
0
 62
     7
370
    35
100
AcDbLine
 10
316.624664
 20
330.750031
 30
0.0
 11
316.624664
 21
330.449982
 31
0.0
  0
LINE
  5
246
330
1F
100
AcDbEntity
  8
0
 62
     7
370
    35
100
AcDbLine
 10
21.624695
 20
342.949982
 30
0.0
 11
22.124695
 21
342.949982
 31
0.0
  0
LINE
  5
247
330
1F
100
AcDbEntity
  8
0
 62
     7
370
    35
100
AcDbLine
 10
328.624664
 20
355.449982
 30
0.0
 11
453.624695
 21
355.449982
 31
0.0
  0
LINE
  5
248
330
1F
100
AcDbEntity
  8
0
 62
     7
370
    35
100
AcDbLine
 10
316.624664
 20
330.750031
 30
0.0
 11
328.624664
 21
330.750031
 31
0.0
  0
LINE
  5
249
330
1F
100
AcDbEntity
  8
0
 62
     7
370
    35
100
AcDbLine
 10
453.624695
 20
355.449982
 30
0.0
 11
453.624695
 21
352.199982
 31
0.0
  0
LINE
  5
24A
330
1F
100
AcDbEntity
  8
0
 62
     7
370
    35
100
AcDbLine
 10
316.624664
 20
355.149994
 30
0.0
 11
328.624664
 21
355.149994
 31
0.0
  0
LINE
  5
24B
330
1F
100
AcDbEntity
  8
0
 62
     7
370
    35
100
AcDbLine
 10
328.624664
 20
330.750031
 30
0.0
 11
328.624664
 21
330.449982
 31
0.0
  0
LINE
  5
24C
330
1F
100
AcDbEntity
  8
0
 62
     7
370
    35
100
AcDbLine
 10
455.22467
 20
334.449982
 30
0.0
 11
453.724731
 21
333.699982
 31
0.0
  0
LINE
  5
24D
330
1F
100
AcDbEntity
  8
0
 62
     7
370
    35
100
AcDbLine
 10
171.624695
 20
330.449982
 30
0.0
 11
316.624664
 21
330.449982
 31
0.0
  0
LINE
  5
24E
330
1F
100
AcDbEntity
  8
0
 62
     7
370
    35
100
AcDbLine
 10
127.624634
 20
333.250092
 30
0.0
 11
127.924622
 21
332.950104
 31
0.0
  0
LINE
  5
24F
330
1F
100
AcDbEntity
  8
0
 62
     7
370
    35
100
AcDbLine
 10
19.124695
 20
338.449982
 30
0.0
 11
23.124695
 21
338.449982
 31
0.0
  0
LINE
  5
250
330
1F
100
AcDbEntity
  8
0
 62
     7
370
    35
100
AcDbLine
 10
12.624573
 20
341.199921
 30
0.0
 11
18.624573
 21
340.449921
 31
0.0
  0
LINE
  5
251
330
1F
100
AcDbEntity
  8
0
 62
     7
370
    35
100
AcDbLine
 10
19.124878
 20
347.44986
 30
0.0
 11
18.624878
 21
346.94986
 31
0.0
  0
LINE
  5
252
330
1F
100
AcDbEntity
  8
0
 62
     7
370
    35
100
AcDbLine
 10
18.624878
 20
345.44986
 30
0.0
 11
12.624878
 21
344.69986
 31
0.0
  0
LINE
  5
253
330
1F
100
AcDbEntity
  8
0
 62
     7
370
    35
100
AcDbLine
 10
19.124695
 20
347.449982
 30
0.0
 11
23.124695
 21
347.449982
 31
0.0
  0
LINE
  5
254
330
1F
100
AcDbEntity
  8
0
 62
     7
370
    35
100
AcDbLine
 10
316.624664
 20
355.449982
 30
0.0
 11
316.624664
 21
355.149994
 31
0.0
  0
LINE
  5
255
330
1F
100
AcDbEntity
  8
0
 62
     7
370
    35
100
AcDbLine
 10
19.125
 20
347.449982
 30
0.0
 11
19.124817
 21
338.449982
 31
0.0
  0
LINE
  5
256
330
1F
100
AcDbEntity
  8
0
 62
     7
370
    35
100
AcDbLine
 10
453.624695
 20
333.699982
 30
0.0
 11
453.72467
 21
333.699982
 31
0.0
  0
LINE
  5
257
330
1F
100
AcDbEntity
  8
0
 62
     7
370
    35
100
AcDbLine
 10
18.624695
 20
346.949982
 30
0.0
 11
18.624695
 21
345.449982
 31
0.0
  0
LINE
  5
258
330
1F
100
AcDbEntity
  8
0
 62
     7
370
    35
100
AcDbLine
 10
23.625
 20
338.949738
 30
0.0
 11
23.125
 21
338.449738
 31
0.0
  0
LINE
  5
259
330
1F
100
AcDbEntity
  8
0
 62
     7
370
    35
100
AcDbLine
 10
12.624695
 20
344.699982
 30
0.0
 11
12.624695
 21
341.699982
 31
0.0
  0
LINE
  5
25A
330
1F
100
AcDbEntity
  8
0
 62
     7
370
    35
100
AcDbLine
 10
453.624695
 20
352.199982
 30
0.0
 11
453.624695
 21
330.449982
 31
0.0
  0
LINE
  5
25B
330
1F
100
AcDbEntity
  8
0
 62
     7
370
    35
100
AcDbLine
 10
328.624664
 20
330.449982
 30
0.0
 11
453.624695
 21
330.449982
 31
0.0
  0
LINE
  5
25C
330
1F
100
AcDbEntity
  8
0
 62
     7
370
    35
100
AcDbLine
 10
12.624695
 20
341.699982
 30
0.0
 11
12.624695
 21
341.199982
 31
0.0
  0
LINE
  5
25D
330
1F
100
AcDbEntity
  8
0
 62
     7
370
    35
100
AcDbLine
 10
164.624695
 20
333.149994
 30
0.0
 11
164.624695
 21
332.949982
 31
0.0
  0
LINE
  5
25E
330
1F
100
AcDbEntity
  8
0
 62
     7
370
    35
100
AcDbLine
 10
18.624817
 20
338.950043
 30
0.0
 11
19.124756
 21
338.450043
 31
0.0
  0
LINE
  5
25F
330
1F
100
AcDbEntity
  8
0
 62
     7
370
    35
100
AcDbLine
 10
19.124634
 20
345.949982
 30
0.0
 11
23.124634
 21
345.949982
 31
0.0
  0
LINE
  5
260
330
1F
100
AcDbEntity
  8
0
 62
     7
370
    35
100
AcDbLine
 10
23.124756
 20
347.449982
 30
0.0
 11
23.624756
 21
346.949982
 31
0.0
  0
LINE
  5
261
330
1F
100
AcDbEntity
  8
0
 62
     7
370
    35
100
AcDbLine
 10
453.624695
 20
352.199982
 30
0.0
 11
453.724731
 21
352.199982
 31
0.0
  0
LINE
  5
262
330
1F
100
AcDbEntity
  8
0
 62
     7
370
    35
100
AcDbLine
 10
164.624695
 20
333.149994
 30
0.0
 11
166.624695
 21
333.149994
 31
0.0
  0
LINE
  5
263
330
1F
100
AcDbEntity
  8
0
 62
     7
370
    35
100
AcDbLine
 10
168.624695
 20
330.550018
 30
0.0
 11
171.624695
 21
330.550018
 31
0.0
  0
LINE
  5
264
330
1F
100
AcDbEntity
  8
0
 62
     7
370
    35
100
AcDbLine
 10
18.624695
 20
340.449982
 30
0.0
 11
18.624695
 21
345.449982
 31
0.0
  0
LINE
  5
265
330
1F
100
AcDbEntity
  8
0
 62
     7
370
    35
100
AcDbLine
 10
19.124634
 20
346.699982
 30
0.0
 11
23.124634
 21
346.699982
 31
0.0
  0
LINE
  5
266
330
1F
100
AcDbEntity
  8
0
 62
     7
370
    35
100
AcDbLine
 10
164.624695
 20
352.750031
 30
0.0
 11
166.624695
 21
352.750031
 31
0.0
  0
LINE
  5
267
330
1F
100
AcDbEntity
  8
0
 62
     7
370
    35
100
AcDbLine
 10
328.624664
 20
355.449982
 30
0.0
 11
328.624664
 21
355.149994
 31
0.0
  0
LINE
  5
268
330
1F
100
AcDbEntity
  8
0
 62
     7
370
    35
100
AcDbLine
 10
125.624634
 20
335.450043
 30
0.0
 11
127.624695
 21
333.600006
 31
0.0
  0
LINE
  5
269
330
1F
100
AcDbEntity
  8
0
 62
     7
370
    35
100
AcDbLine
 10
453.724731
 20
352.19986
 30
0.0
 11
455.224731
 21
351.44986
 31
0.0
  0
LINE
  5
26A
330
1F
100
AcDbEntity
  8
0
 62
     7
370
    35
100
AcDbLine
 10
166.624756
 20
333.150238
 30
0.0
 11
168.624756
 21
330.550201
 31
0.0
  0
LINE
  5
26B
330
1F
100
AcDbEntity
  8
0
 62
     7
370
    35
100
AcDbLine
 10
171.624695
 20
355.449982
 30
0.0
 11
316.624664
 21
355.449982
 31
0.0
  0
LINE
  5
26C
330
1F
100
AcDbEntity
  8
0
 62
     7
370
    35
100
AcDbLine
 10
125.624878
 20
350.449799
 30
0.0
 11
127.624695
 21
352.299652
 31
0.0
  0
LINE
  5
26D
330
1F
100
AcDbEntity
  8
0
 62
     7
370
    35
100
AcDbLine
 10
127.924683
 20
352.949982
 30
0.0
 11
164.624695
 21
352.949982
 31
0.0
  0
LINE
  5
26E
330
1F
100
AcDbEntity
  8
0
 62
     7
370
    35
100
AcDbLine
 10
125.624695
 20
350.449982
 30
0.0
 11
125.624695
 21
335.450043
 31
0.0
  0
LINE
  5
26F
330
1F
100
AcDbEntity
  8
0
 62
     7
370
    35
100
AcDbLine
 10
127.924866
 20
352.949799
 30
0.0
 11
127.624878
 21
352.649811
 31
0.0
  0
LINE
  5
270
330
1F
100
AcDbEntity
  8
0
 62
     7
370
    35
100
AcDbLine
 10
127.624695
 20
352.649994
 30
0.0
 11
127.624695
 21
351.800018
 31
0.0
  0
LINE
  5
271
330
1F
100
AcDbEntity
  8
0
 62
     7
370
    35
100
AcDbLine
 10
127.624695
 20
334.100006
 30
0.0
 11
127.624695
 21
333.250031
 31
0.0
  0
LINE
  5
272
330
1F
100
AcDbEntity
  8
0
 62
     7
370
    35
100
AcDbLine
 10
125.624695
 20
342.000031
 30
0.0
 11
125.624695
 21
338.949982
 31
0.0
  0
LINE
  5
273
330
1F
100
AcDbEntity
  8
0
 62
     7
370
    35
100
AcDbLine
 10
125.624695
 20
343.899994
 30
0.0
 11
125.624695
 21
342.000031
 31
0.0
  0
LINE
  5
274
330
1F
100
AcDbEntity
  8
0
 62
     7
370
    35
100
AcDbLine
 10
125.624695
 20
346.949982
 30
0.0
 11
125.624695
 21
343.899994
 31
0.0
  0
LINE
  5
275
330
1F
100
AcDbEntity
  8
0
 62
     7
370
    35
100
AcDbLine
 10
164.624695
 20
352.949982
 30
0.0
 11
164.624695
 21
352.750031
 31
0.0
  0
LINE
  5
276
330
1F
100
AcDbEntity
  8
0
 62
     7
370
    35
100
AcDbLine
 10
168.624695
 20
355.350006
 30
0.0
 11
171.624695
 21
355.350006
 31
0.0
  0
LINE
  5
277
330
1F
100
AcDbEntity
  8
0
 62
     7
370
    35
100
AcDbLine
 10
127.924683
 20
332.949982
 30
0.0
 11
164.624695
 21
332.949982
 31
0.0
  0
LINE
  5
278
330
1F
100
AcDbEntity
  8
0
 62
     7
370
    35
100
AcDbLine
 10
171.624695
 20
333.350006
 30
0.0
 11
171.624695
 21
330.449982
 31
0.0
  0
LINE
  5
279
330
1F
100
AcDbEntity
  8
0
 62
     7
370
    35
100
AcDbLine
 10
168.624451
 20
355.350189
 30
0.0
 11
166.624451
 21
352.750214
 31
0.0
  0
LINE
  5
27A
330
1F
100
AcDbEntity
  8
0
 62
     7
370
    35
100
AcDbLine
 10
23.125244
 20
338.449982
 30
0.0
 11
23.124756
 21
347.449982
 31
0.0
  0
LINE
  5
27B
330
1F
100
AcDbEntity
  8
0
 62
     7
370
    35
100
AcDbLine
 10
18.624695
 20
340.449982
 30
0.0
 11
18.624695
 21
338.949982
 31
0.0
  0
LINE
  5
27C
330
1F
100
AcDbEntity
  8
0
 62
     7
370
    35
100
AcDbLine
 10
171.624695
 20
355.449982
 30
0.0
 11
171.624695
 21
352.550018
 31
0.0
  0
LINE
  5
27D
330
1F
100
AcDbEntity
  8
0
 62
     7
370
    35
100
AcDbLine
 10
328.624664
 20
355.149994
 30
0.0
 11
328.624664
 21
330.750031
 31
0.0
  0
LINE
  5
27E
330
1F
100
AcDbEntity
  8
0
 62
     7
370
    35
100
AcDbLine
 10
316.624664
 20
355.149994
 30
0.0
 11
316.624664
 21
330.750031
 31
0.0
  0
LINE
  5
27F
330
1F
100
AcDbEntity
  8
0
 62
     7
370
    35
100
AcDbLine
 10
171.624695
 20
333.350006
 30
0.0
 11
171.624695
 21
352.550018
 31
0.0
  0
LINE
  5
280
330
1F
100
AcDbEntity
  8
0
 62
     7
370
    35
100
AcDbLine
 10
168.624329
 20
355.350006
 30
0.0
 11
168.624756
 21
330.550201
 31
0.0
  0
LINE
  5
281
330
1F
100
AcDbEntity
  8
0
 62
     7
370
    35
100
AcDbLine
 10
166.624695
 20
352.750031
 30
0.0
 11
166.624939
 21
333.149994
 31
0.0
  0
LINE
  5
282
330
1F
100
AcDbEntity
  8
0
 62
     7
370
    35
100
AcDbLine
 10
164.624695
 20
333.149994
 30
0.0
 11
164.624695
 21
352.750031
 31
0.0
  0
LINE
  5
283
330
1F
100
AcDbEntity
  8
0
 62
     7
370
    35
100
AcDbLine
 10
127.92511
 20
352.949982
 30
0.0
 11
127.924744
 21
332.949982
 31
0.0
  0
LINE
  5
284
330
1F
100
AcDbEntity
  8
0
 62
     7
370
    35
100
AcDbLine
 10
127.624695
 20
334.100006
 30
0.0
 11
127.624695
 21
351.800018
 31
0.0
  0
LINE
  5
285
330
1F
100
AcDbEntity
  8
0
 62
     7
370
    35
100
AcDbLine
 10
19.124451
 20
339.199982
 30
0.0
 11
23.124451
 21
339.199982
 31
0.0
  0
LINE
  5
286
330
1F
100
AcDbEntity
  8
0
 62
     7
370
    35
100
AcDbLine
 10
19.124512
 20
339.949982
 30
0.0
 11
23.124512
 21
339.949982
 31
0.0
  0
LINE
  5
287
330
1F
100
AcDbEntity
  8
0
 62
     7
370
    35
100
AcDbLine
 10
19.124512
 20
340.699982
 30
0.0
 11
23.124512
 21
340.699982
 31
0.0
  0
LINE
  5
288
330
1F
100
AcDbEntity
  8
0
 62
     7
370
    35
100
AcDbLine
 10
19.124512
 20
341.449982
 30
0.0
 11
23.124512
 21
341.449982
 31
0.0
  0
LINE
  5
289
330
1F
100
AcDbEntity
  8
0
 62
     7
370
    35
100
AcDbLine
 10
19.124573
 20
342.199982
 30
0.0
 11
23.124573
 21
342.199982
 31
0.0
  0
LINE
  5
28A
330
1F
100
AcDbEntity
  8
0
 62
     7
370
    35
100
AcDbLine
 10
19.124573
 20
343.699982
 30
0.0
 11
23.124573
 21
343.699982
 31
0.0
  0
LINE
  5
28B
330
1F
100
AcDbEntity
  8
0
 62
     7
370
    35
100
AcDbLine
 10
19.124634
 20
345.199982
 30
0.0
 11
23.124634
 21
345.199982
 31
0.0
  0
LINE
  5
28C
330
1F
100
AcDbEntity
  8
0
 62
     7
370
    35
100
AcDbLine
 10
19.124573
 20
344.449982
 30
0.0
 11
23.124573
 21
344.449982
 31
0.0
  0
LINE
  5
28D
330
1F
100
AcDbEntity
  8
0
 62
     7
370
    35
100
AcDbLine
 10
23.624756
 20
346.949982
 30
0.0
 11
125.624695
 21
346.949982
 31
0.0
  0
LINE
  5
28E
330
1F
100
AcDbEntity
  8
0
 62
     7
370
    35
100
AcDbLine
 10
23.625244
 20
338.949982
 30
0.0
 11
125.624695
 21
338.949982
 31
0.0
  0
LINE
  5
28F
330
1F
100
AcDbEntity
  8
0
 62
     7
370
    35
100
AcDbLine
 10
23.624756
 20
346.949982
 30
0.0
 11
23.625244
 21
338.949982
 31
0.0
  0
ARC
  5
290
330
1F
100
AcDbEntity
  8
0
 62
     7
370
    35
100
AcDbCircle
 10
521.127075
 20
177.850067
 30
0.0
 40
1.0
100
AcDbArc
 50
5.73902
 51
174.260966
  0
ARC
  5
291
330
1F
100
AcDbEntity
  8
0
 62
     7
370
    35
100
AcDbCircle
 10
521.127075
 20
168.050049
 30
0.0
 40
1.0
100
AcDbArc
 50
185.739048
 51
354.260985
  0
CIRCLE
  5
292
330
1F
100
AcDbEntity
  8
0
 62
     7
370
    35
100
AcDbCircle
 10
397.832947
 20
164.255035
 30
0.0
 40
2.099999904632568
  0
CIRCLE
  5
293
330
1F
100
AcDbEntity
  8
0
 62
     7
370
    35
100
AcDbCircle
 10
287.832977
 20
181.64502
 30
0.0
 40
2.099999904632568
  0
ARC
  5
294
330
1F
100
AcDbEntity
  8
0
 62
     7
370
    35
100
AcDbCircle
 10
285.332977
 20
184.14502
 30
0.0
 40
2.0
100
AcDbArc
 50
90.000003
 51
180.000009
  0
ARC
  5
295
330
1F
100
AcDbEntity
  8
0
 62
     7
370
    35
100
AcDbCircle
 10
400.332947
 20
161.755035
 30
0.0
 40
2.0
100
AcDbArc
 50
269.999997
 51
360.0
  0
ARC
  5
296
330
1F
100
AcDbEntity
  8
0
 62
     7
370
    35
100
AcDbCircle
 10
400.332947
 20
166.650024
 30
0.0
 40
2.0
100
AcDbArc
 50
0.0
 51
90.000003
  0
ARC
  5
297
330
1F
100
AcDbEntity
  8
0
 62
     7
370
    35
100
AcDbCircle
 10
285.332977
 20
179.250031
 30
0.0
 40
2.0
100
AcDbArc
 50
180.000009
 51
269.999997
  0
ARC
  5
298
330
1F
100
AcDbEntity
  8
0
 62
     7
370
    35
100
AcDbCircle
 10
499.127075
 20
72.950027
 30
0.0
 40
1.0
100
AcDbArc
 50
269.999997
 51
90.000003
  0
CIRCLE
  5
299
330
1F
100
AcDbEntity
  8
0
 62
     7
370
    35
100
AcDbCircle
 10
521.127075
 20
72.950027
 30
0.0
 40
1.0
  0
CIRCLE
  5
29A
330
1F
100
AcDbEntity
  8
0
 62
     7
370
    35
100
AcDbCircle
 10
380.332947
 20
68.550018
 30
0.0
 40
1.950000047683716
  0
ARC
  5
29B
330
1F
100
AcDbEntity
  8
0
 62
     7
370
    35
100
AcDbCircle
 10
392.532959
 20
78.950027
 30
0.0
 40
0.800000011920929
100
AcDbArc
 50
0.0
 51
90.000003
  0
CIRCLE
  5
29C
330
1F
100
AcDbEntity
  8
0
 62
     7
370
    35
100
AcDbCircle
 10
304.332977
 20
68.550018
 30
0.0
 40
1.950000047683716
  0
ARC
  5
29D
330
1F
100
AcDbEntity
  8
0
 62
     7
370
    35
100
AcDbCircle
 10
293.132965
 20
78.950027
 30
0.0
 40
0.800000011920929
100
AcDbArc
 50
90.000003
 51
180.000009
  0
ARC
  5
29E
330
1F
100
AcDbEntity
  8
0
 62
     7
370
    35
100
AcDbCircle
 10
292.332977
 20
65.750015
 30
0.0
 40
0.800000011920929
100
AcDbArc
 50
269.999997
 51
360.0
  0
ARC
  5
29F
330
1F
100
AcDbEntity
  8
0
 62
     7
370
    35
100
AcDbCircle
 10
391.432922
 20
65.550018
 30
0.0
 40
1.0
100
AcDbArc
 50
269.999997
 51
360.0
  0
ARC
  5
2A0
330
1F
100
AcDbEntity
  8
0
 62
     7
370
    35
100
AcDbCircle
 10
294.232941
 20
65.550018
 30
0.0
 40
1.0
100
AcDbArc
 50
180.000009
 51
269.999997
  0
CIRCLE
  5
2A1
330
1F
100
AcDbEntity
  8
0
 62
     7
370
    35
100
AcDbCircle
 10
304.332977
 20
68.550018
 30
0.0
 40
2.0
  0
ARC
  5
2A2
330
1F
100
AcDbEntity
  8
0
 62
     7
370
    35
100
AcDbCircle
 10
305.181488
 20
68.550018
 30
0.0
 40
0.4000000059604645
100
AcDbArc
 50
135.0
 51
224.999986
  0
ARC
  5
2A3
330
1F
100
AcDbEntity
  8
0
 62
     7
370
    35
100
AcDbCircle
 10
304.332977
 20
69.398544
 30
0.0
 40
0.4000000059604645
100
AcDbArc
 50
225.0
 51
314.999992
  0
ARC
  5
2A4
330
1F
100
AcDbEntity
  8
0
 62
     7
370
    35
100
AcDbCircle
 10
303.484467
 20
68.550018
 30
0.0
 40
0.4000000059604645
100
AcDbArc
 50
314.999992
 51
44.999998
  0
ARC
  5
2A5
330
1F
100
AcDbEntity
  8
0
 62
     7
370
    35
100
AcDbCircle
 10
304.332977
 20
67.701492
 30
0.0
 40
0.4000000059604645
100
AcDbArc
 50
45.000001
 51
135.0
  0
CIRCLE
  5
2A6
330
1F
100
AcDbEntity
  8
0
 62
     7
370
    35
100
AcDbCircle
 10
380.332947
 20
68.550018
 30
0.0
 40
2.0
  0
ARC
  5
2A7
330
1F
100
AcDbEntity
  8
0
 62
     7
370
    35
100
AcDbCircle
 10
381.181458
 20
68.550018
 30
0.0
 40
0.4000000059604645
100
AcDbArc
 50
135.0
 51
224.999986
  0
ARC
  5
2A8
330
1F
100
AcDbEntity
  8
0
 62
     7
370
    35
100
AcDbCircle
 10
380.332947
 20
69.398544
 30
0.0
 40
0.4000000059604645
100
AcDbArc
 50
225.0
 51
314.999992
  0
ARC
  5
2A9
330
1F
100
AcDbEntity
  8
0
 62
     7
370
    35
100
AcDbCircle
 10
379.484436
 20
68.550018
 30
0.0
 40
0.4000000059604645
100
AcDbArc
 50
314.999992
 51
44.999998
  0
ARC
  5
2AA
330
1F
100
AcDbEntity
  8
0
 62
     7
370
    35
100
AcDbCircle
 10
380.332947
 20
67.701492
 30
0.0
 40
0.4000000059604645
100
AcDbArc
 50
45.000001
 51
135.0
  0
CIRCLE
  5
2AB
330
1F
100
AcDbEntity
  8
0
 62
     7
370
    35
100
AcDbCircle
 10
322.388214
 20
330.725006
 30
0.0
 40
0.0500000007450581
  0
CIRCLE
  5
2AC
330
1F
100
AcDbEntity
  8
0
 62
     7
370
    35
100
AcDbCircle
 10
454.197876
 20
351.27121
 30
0.0
 40
0.0500000007450581
  0
CIRCLE
  5
2AD
330
1F
100
AcDbEntity
  8
0
 62
     7
370
    35
100
AcDbCircle
 10
127.375793
 20
350.432709
 30
0.0
 40
0.0500000007450581
  0
ARC
  5
2AE
330
1F
100
AcDbEntity
  8
0
 62
     7
370
    35
100
AcDbCircle
 10
12.874695
 20
342.949982
 30
0.0
 40
1.25
100
AcDbArc
 50
101.536957
 51
258.463043
  0
LINE
  5
2AF
330
1F
100
AcDbEntity
  8
0
 62
     7
370
    35
100
AcDbLine
 10
475.22467
 20
345.400024
 30
0.0
 11
536.710205
 21
345.400024
 31
0.0
  0
LINE
  5
2B0
330
1F
100
AcDbEntity
  8
0
 62
     7
370
    35
100
AcDbLine
 10
475.22467
 20
340.5
 30
0.0
 11
537.432495
 21
340.5
 31
0.0
  0
ARC
  5
2B1
330
1F
100
AcDbEntity
  8
0
 62
     7
370
    35
100
AcDbCircle
 10
537.432495
 20
300.463074
 30
0.0
 40
40.03697967529297
100
AcDbArc
 50
266.855296
 51
90.000003
  0
LINE
  5
2B2
330
1F
100
AcDbEntity
  8
0
 62
     7
370
    35
100
AcDbLine
 10
281.232941
 20
175.400055
 30
0.0
 11
218.438354
 21
175.400055
 31
0.0
  0
LINE
  5
2B3
330
1F
100
AcDbEntity
  8
0
 62
     7
370
    35
100
AcDbLine
 10
281.232941
 20
170.500031
 30
0.0
 11
218.438354
 21
170.500031
 31
0.0
  0
LINE
  5
2B4
330
1F
100
AcDbEntity
  8
0
 62
     7
370
    35
100
AcDbLine
 10
404.432922
 20
170.500031
 30
0.0
 11
442.211182
 21
170.500031
 31
0.0
  0
LINE
  5
2B5
330
1F
100
AcDbEntity
  8
0
 62
     7
370
    35
100
AcDbLine
 10
447.719696
 20
170.500031
 30
0.0
 11
475.127075
 21
170.500031
 31
0.0
  0
LINE
  5
2B6
330
1F
100
AcDbEntity
  8
0
 62
     7
370
    35
100
AcDbLine
 10
404.432922
 20
175.400055
 30
0.0
 11
442.211151
 21
175.400055
 31
0.0
  0
LINE
  5
2B7
330
1F
100
AcDbEntity
  8
0
 62
     7
370
    35
100
AcDbLine
 10
447.719788
 20
175.400055
 30
0.0
 11
475.127075
 21
175.400055
 31
0.0
  0
LINE
  5
2B8
330
1F
100
AcDbEntity
  8
0
 62
     7
370
    35
100
AcDbLine
 10
445.931732
 20
70.5
 30
0.0
 11
475.127075
 21
70.5
 31
0.0
  0
LINE
  5
2B9
330
1F
100
AcDbEntity
  8
0
 62
     7
370
    35
100
AcDbLine
 10
445.931824
 20
75.400024
 30
0.0
 11
475.127075
 21
75.400024
 31
0.0
  0
LINE
  5
2BA
330
1F
100
AcDbEntity
  8
0
 62
     7
370
    35
100
AcDbLine
 10
404.432922
 20
75.400024
 30
0.0
 11
440.423187
 21
75.400024
 31
0.0
  0
LINE
  5
2BB
330
1F
100
AcDbEntity
  8
0
 62
     7
370
    35
100
AcDbLine
 10
404.432922
 20
70.5
 30
0.0
 11
440.423218
 21
70.5
 31
0.0
  0
ARC
  5
2BC
330
1F
100
AcDbEntity
  8
0
 62
     7
370
    35
100
AcDbCircle
 10
448.43396
 20
174.175049
 30
0.0
 40
1.417995452880859
100
AcDbArc
 50
120.241724
 51
239.758276
  0
ARC
  5
2BD
330
1F
100
AcDbEntity
  8
0
 62
     7
370
    35
100
AcDbCircle
 10
447.005615
 20
174.175049
 30
0.0
 40
1.417995452880859
100
AcDbArc
 50
300.241732
 51
59.758274
  0
ARC
  5
2BE
330
1F
100
AcDbEntity
  8
0
 62
     7
370
    35
100
AcDbCircle
 10
448.43396
 20
171.725006
 30
0.0
 40
1.417995452880859
100
AcDbArc
 50
120.241724
 51
239.753932
  0
ARC
  5
2BF
330
1F
100
AcDbEntity
  8
0
 62
     7
370
    35
100
AcDbCircle
 10
441.496948
 20
174.175049
 30
0.0
 40
1.417995452880859
100
AcDbArc
 50
300.241732
 51
59.756826
  0
ARC
  5
2C0
330
1F
100
AcDbEntity
  8
0
 62
     7
370
    35
100
AcDbCircle
 10
442.925293
 20
171.725037
 30
0.0
 40
1.417995452880859
100
AcDbArc
 50
120.241724
 51
239.753932
  0
ARC
  5
2C1
330
1F
100
AcDbEntity
  8
0
 62
     7
370
    35
100
AcDbCircle
 10
442.925293
 20
171.725037
 30
0.0
 40
1.417995452880859
100
AcDbArc
 50
120.241724
 51
239.758276
  0
ARC
  5
2C2
330
1F
100
AcDbEntity
  8
0
 62
     7
370
    35
100
AcDbCircle
 10
441.496948
 20
171.725037
 30
0.0
 40
1.417995452880859
100
AcDbArc
 50
300.244622
 51
59.758274
  0
ARC
  5
2C3
330
1F
100
AcDbEntity
  8
0
 62
     7
370
    35
100
AcDbCircle
 10
446.645996
 20
74.175003
 30
0.0
 40
1.417995452880859
100
AcDbArc
 50
120.241724
 51
239.758276
  0
ARC
  5
2C4
330
1F
100
AcDbEntity
  8
0
 62
     7
370
    35
100
AcDbCircle
 10
445.217651
 20
74.175003
 30
0.0
 40
1.417995452880859
100
AcDbArc
 50
300.241732
 51
59.758274
  0
ARC
  5
2C5
330
1F
100
AcDbEntity
  8
0
 62
     7
370
    35
100
AcDbCircle
 10
446.645996
 20
71.724968
 30
0.0
 40
1.417995452880859
100
AcDbArc
 50
120.241724
 51
239.754014
  0
ARC
  5
2C6
330
1F
100
AcDbEntity
  8
0
 62
     7
370
    35
100
AcDbCircle
 10
439.708984
 20
74.175018
 30
0.0
 40
1.417995452880859
100
AcDbArc
 50
300.241732
 51
59.756826
  0
ARC
  5
2C7
330
1F
100
AcDbEntity
  8
0
 62
     7
370
    35
100
AcDbCircle
 10
441.137329
 20
71.724983
 30
0.0
 40
1.417995452880859
100
AcDbArc
 50
120.241724
 51
239.753932
  0
ARC
  5
2C8
330
1F
100
AcDbEntity
  8
0
 62
     7
370
    35
100
AcDbCircle
 10
441.137329
 20
71.724983
 30
0.0
 40
1.417995452880859
100
AcDbArc
 50
120.241724
 51
239.758276
  0
ARC
  5
2C9
330
1F
100
AcDbEntity
  8
0
 62
     7
370
    35
100
AcDbCircle
 10
439.708984
 20
71.724983
 30
0.0
 40
1.417995452880859
100
AcDbArc
 50
300.24454
 51
59.758274
  0
ARC
  5
2CA
330
1F
100
AcDbEntity
  8
0
 62
     7
370
    35
100
AcDbCircle
 10
537.432495
 20
300.463074
 30
0.0
 40
44.94274139404297
100
AcDbArc
 50
269.082375
 51
90.920862
  0
LINE
  5
2CB
330
1F
100
AcDbEntity
  8
0
 62
     7
370
    35
100
AcDbLine
 10
537.432495
 20
260.426086
 30
0.0
 11
378.66156
 21
260.426086
 31
0.0
  0
LINE
  5
2CC
330
1F
100
AcDbEntity
  8
0
 62
     7
370
    35
100
AcDbLine
 10
536.712769
 20
255.526093
 30
0.0
 11
378.661438
 21
255.526093
 31
0.0
  0
ARC
  5
2CD
330
1F
100
AcDbEntity
  8
0
 62
     7
370
    35
100
AcDbCircle
 10
218.438354
 20
215.463074
 30
0.0
 40
40.06301498413086
100
AcDbArc
 50
90.000003
 51
269.999997
  0
ARC
  5
2CE
330
1F
100
AcDbEntity
  8
0
 62
     7
370
    35
100
AcDbCircle
 10
218.438354
 20
215.463074
 30
0.0
 40
44.9630126953125
100
AcDbArc
 50
90.000003
 51
269.999997
  0
ARC
  5
2CF
330
1F
100
AcDbEntity
  8
0
 62
     7
370
    35
100
AcDbCircle
 10
379.375732
 20
259.20108
 30
0.0
 40
1.417995452880859
100
AcDbArc
 50
120.241724
 51
239.758276
  0
ARC
  5
2D0
330
1F
100
AcDbEntity
  8
0
 62
     7
370
    35
100
AcDbCircle
 10
377.947388
 20
259.20108
 30
0.0
 40
1.417995452880859
100
AcDbArc
 50
300.241732
 51
59.758274
  0
ARC
  5
2D1
330
1F
100
AcDbEntity
  8
0
 62
     7
370
    35
100
AcDbCircle
 10
379.375732
 20
256.751038
 30
0.0
 40
1.417995452880859
100
AcDbArc
 50
120.241724
 51
239.752512
  0
ARC
  5
2D2
330
1F
100
AcDbEntity
  8
0
 62
     7
370
    35
100
AcDbCircle
 10
372.438721
 20
259.20108
 30
0.0
 40
1.417995452880859
100
AcDbArc
 50
300.241732
 51
59.756826
  0
ARC
  5
2D3
330
1F
100
AcDbEntity
  8
0
 62
     7
370
    35
100
AcDbCircle
 10
373.867065
 20
256.751068
 30
0.0
 40
1.417995452880859
100
AcDbArc
 50
120.241724
 51
239.753932
  0
ARC
  5
2D4
330
1F
100
AcDbEntity
  8
0
 62
     7
370
    35
100
AcDbCircle
 10
373.867065
 20
256.751068
 30
0.0
 40
1.417995452880859
100
AcDbArc
 50
120.241724
 51
239.758276
  0
ARC
  5
2D5
330
1F
100
AcDbEntity
  8
0
 62
     7
370
    35
100
AcDbCircle
 10
372.438721
 20
256.751068
 30
0.0
 40
1.417995452880859
100
AcDbArc
 50
300.246049
 51
59.758274
  0
LINE
  5
2D6
330
1F
100
AcDbEntity
  8
0
 62
     7
370
    35
100
AcDbLine
 10
373.152985
 20
255.526093
 30
0.0
 11
218.438354
 21
255.526093
 31
0.0
  0
LINE
  5
2D7
330
1F
100
AcDbEntity
  8
0
 62
     7
370
    35
100
AcDbLine
 10
373.152924
 20
260.426086
 30
0.0
 11
218.438354
 21
260.426086
 31
0.0
  0
LINE
  5
2D8
330
1F
100
AcDbEntity
  8
0
 62
     7
370
    35
100
AcDbLine
 10
281.232941
 20
69.831947
 30
0.0
 11
281.232941
 21
76.831932
 31
0.0
  0
LINE
  5
2D9
330
1F
100
AcDbEntity
  8
0
 62
     7
370
    35
100
AcDbLine
 10
252.037598
 20
70.881905
 30
0.0
 11
281.232941
 21
70.881905
 31
0.0
  0
LINE
  5
2DA
330
1F
100
AcDbEntity
  8
0
 62
     7
370
    35
100
AcDbLine
 10
252.037689
 20
75.781929
 30
0.0
 11
281.232941
 21
75.781929
 31
0.0
  0
ARC
  5
2DB
330
1F
100
AcDbEntity
  8
0
 62
     7
370
    35
100
AcDbCircle
 10
252.751862
 20
74.556908
 30
0.0
 40
1.417995452880859
100
AcDbArc
 50
120.241724
 51
239.758276
  0
ARC
  5
2DC
330
1F
100
AcDbEntity
  8
0
 62
     7
370
    35
100
AcDbCircle
 10
251.323517
 20
74.556908
 30
0.0
 40
1.417995452880859
100
AcDbArc
 50
300.241732
 51
59.758274
  0
ARC
  5
2DD
330
1F
100
AcDbEntity
  8
0
 62
     7
370
    35
100
AcDbCircle
 10
252.751862
 20
72.106873
 30
0.0
 40
1.417995452880859
100
AcDbArc
 50
120.241724
 51
239.754014
  0
ENDSEC
  0
SECTION
  2
OBJECTS
  0
DICTIONARY
  5
C
330
0
100
AcDbDictionary
281
     1
  3
ACAD_GROUP
350
D
  3
ACAD_LAYOUT
350
1A
  3
ACAD_MLINESTYLE
350
17
  3
ACAD_PLOTSETTINGS
350
19
  3
ACAD_PLOTSTYLENAME
350
E
  3
ACAD_SCALELIST
350
47
  0
DICTIONARY
  5
D
102
{ACAD_REACTORS
330
C
102
}
330
C
100
AcDbDictionary
281
     1
  0
DICTIONARY
  5
1A
102
{ACAD_REACTORS
330
C
102
}
330
C
100
AcDbDictionary
281
     1
  3
Layout1
350
1E
  3
Layout2
350
26
  3
Model
350
22
  0
DICTIONARY
  5
17
102
{ACAD_REACTORS
330
C
102
}
330
C
100
AcDbDictionary
281
     1
  3
Standard
350
18
  0
DICTIONARY
  5
19
102
{ACAD_REACTORS
330
C
102
}
330
C
100
AcDbDictionary
281
     1
  0
ACDBDICTIONARYWDFLT
  5
E
102
{ACAD_REACTORS
330
C
102
}
330
C
100
AcDbDictionary
281
     1
  3
Normal
350
F
100
AcDbDictionaryWithDefault
340
F
  0
DICTIONARY
  5
47
102
{ACAD_REACTORS
330
C
102
}
330
C
100
AcDbDictionary
281
     1
  3
A0
350
48
  3
A1
350
49
  3
A2
350
4A
  3
A3
350
4B
  3
A4
350
4C
  3
A5
350
4D
  3
A6
350
4E
  3
A7
350
4F
  3
A8
350
50
  3
A9
350
51
  3
B0
350
52
  3
B1
350
53
  3
B2
350
54
  3
B3
350
55
  3
B4
350
56
  3
B5
350
57
  3
B6
350
58
  3
B7
350
59
  3
B8
350
5A
  3
B9
350
5B
  3
C0
350
5C
  3
C1
350
5D
  3
C2
350
5E
  3
C3
350
5F
  3
C4
350
60
  3
C5
350
61
  3
C6
350
62
  3
C7
350
63
  3
C8
350
64
  3
C9
350
65
  3
D0
350
66
  3
D1
350
67
  3
D2
350
68
  0
LAYOUT
  5
1E
102
{ACAD_REACTORS
330
1A
102
}
330
1A
100
AcDbPlotSettings
  1

  2
none_device
  4

  6

 40
0.0
 41
0.0
 42
0.0
 43
0.0
 44
0.0
 45
0.0
 46
0.0
 47
0.0
 48
0.0
 49
0.0
140
0.0
141
0.0
142
1.0
143
1.0
 70
  4784
 72
     0
 73
     0
 74
     5
  7

 75
    16
147
1.0
148
0.0
149
0.0
100
AcDbLayout
  1
Layout1
 70
     1
 71
     1
 10
0.0
 20
0.0
 11
420.0
 21
297.0
 12
0.0
 22
0.0
 32
0.0
 14
0.0
 24
0.0
 34
0.0
 15
582.375244
 25
355.449982
 35
2.0
146
0.0
 13
0.0
 23
0.0
 33
0.0
 16
1.0
 26
0.0
 36
0.0
 17
0.0
 27
1.0
 37
0.0
 76
     0
330
1B
  0
LAYOUT
  5
26
102
{ACAD_REACTORS
330
1A
102
}
330
1A
100
AcDbPlotSettings
  1

  2
none_device
  4

  6

 40
0.0
 41
0.0
 42
0.0
 43
0.0
 44
0.0
 45
0.0
 46
0.0
 47
0.0
 48
0.0
 49
0.0
140
0.0
141
0.0
142
1.0
143
1.0
 70
  4784
 72
     0
 73
     0
 74
     5
  7

 75
    16
147
1.0
148
0.0
149
0.0
100
AcDbLayout
  1
Layout2
 70
     1
 71
     2
 10
0.0
 20
0.0
 11
0.0
 21
0.0
 12
0.0
 22
0.0
 32
0.0
 14
0.0
 24
0.0
 34
0.0
 15
0.0
 25
0.0
 35
0.0
146
0.0
 13
0.0
 23
0.0
 33
0.0
 16
1.0
 26
0.0
 36
0.0
 17
0.0
 27
1.0
 37
0.0
 76
     0
330
23
  0
LAYOUT
  5
22
102
{ACAD_REACTORS
330
1A
102
}
330
1A
100
AcDbPlotSettings
  1

  2
none_device
  4
Letter_(8.50_x_11.00_Inches)
  6

 40
6.35
 41
6.35
 42
6.350005
 43
6.350005
 44
215.9
 45
279.4
 46
0.0
 47
0.0
 48
0.0
 49
0.0
140
0.0
141
0.0
142
1.0
143
1.0
 70
  5808
 72
     0
 73
     0
 74
     0
  7

 75
     0
147
1.0
148
0.0
149
0.0
100
AcDbLayout
  1
Model
 70
     1
 71
     0
 10
0.0
 20
0.0
 11
420.0
 21
297.0
 12
0.0
 22
0.0
 32
0.0
 14
0.0
 24
0.0
 34
0.0
 15
582.375244
 25
355.449982
 35
2.0
146
0.0
 13
0.0
 23
0.0
 33
0.0
 16
1.0
 26
0.0
 36
0.0
 17
0.0
 27
1.0
 37
0.0
 76
     0
330
1F
331
29
  0
MLINESTYLE
  5
18
102
{ACAD_REACTORS
330
17
102
}
330
17
100
AcDbMlineStyle
  2
Standard
 70
     0
  3

 62
   256
 51
90.0
 52
90.0
 71
     2
 49
0.5
 62
   256
  6
BYLAYER
 49
-0.5
 62
   256
  6
BYLAYER
  0
ACDBPLACEHOLDER
  5
F
102
{ACAD_REACTORS
330
E
102
}
330
E
  0
SCALE
  5
48
102
{ACAD_REACTORS
330
47
102
}
330
47
100
AcDbScale
 70
     0
300
1:1
140
1.0
141
1.0
290
     1
  0
SCALE
  5
49
102
{ACAD_REACTORS
330
47
102
}
330
47
100
AcDbScale
 70
     0
300
1:2
140
1.0
141
2.0
290
     0
  0
SCALE
  5
4A
102
{ACAD_REACTORS
330
47
102
}
330
47
100
AcDbScale
 70
     0
300
1:4
140
1.0
141
4.0
290
     0
  0
SCALE
  5
4B
102
{ACAD_REACTORS
330
47
102
}
330
47
100
AcDbScale
 70
     0
300
1:5
140
1.0
141
5.0
290
     0
  0
SCALE
  5
4C
102
{ACAD_REACTORS
330
47
102
}
330
47
100
AcDbScale
 70
     0
300
1:8
140
1.0
141
8.0
290
     0
  0
SCALE
  5
4D
102
{ACAD_REACTORS
330
47
102
}
330
47
100
AcDbScale
 70
     0
300
1:10
140
1.0
141
10.0
290
     0
  0
SCALE
  5
4E
102
{ACAD_REACTORS
330
47
102
}
330
47
100
AcDbScale
 70
     0
300
1:16
140
1.0
141
16.0
290
     0
  0
SCALE
  5
4F
102
{ACAD_REACTORS
330
47
102
}
330
47
100
AcDbScale
 70
     0
300
1:20
140
1.0
141
20.0
290
     0
  0
SCALE
  5
50
102
{ACAD_REACTORS
330
47
102
}
330
47
100
AcDbScale
 70
     0
300
1:30
140
1.0
141
30.0
290
     0
  0
SCALE
  5
51
102
{ACAD_REACTORS
330
47
102
}
330
47
100
AcDbScale
 70
     0
300
1:40
140
1.0
141
40.0
290
     0
  0
SCALE
  5
52
102
{ACAD_REACTORS
330
47
102
}
330
47
100
AcDbScale
 70
     0
300
1:50
140
1.0
141
50.0
290
     0
  0
SCALE
  5
53
102
{ACAD_REACTORS
330
47
102
}
330
47
100
AcDbScale
 70
     0
300
1:100
140
1.0
141
100.0
290
     0
  0
SCALE
  5
54
102
{ACAD_REACTORS
330
47
102
}
330
47
100
AcDbScale
 70
     0
300
2:1
140
2.0
141
1.0
290
     0
  0
SCALE
  5
55
102
{ACAD_REACTORS
330
47
102
}
330
47
100
AcDbScale
 70
     0
300
4:1
140
4.0
141
1.0
290
     0
  0
SCALE
  5
56
102
{ACAD_REACTORS
330
47
102
}
330
47
100
AcDbScale
 70
     0
300
8:1
140
8.0
141
1.0
290
     0
  0
SCALE
  5
57
102
{ACAD_REACTORS
330
47
102
}
330
47
100
AcDbScale
 70
     0
300
10:1
140
10.0
141
1.0
290
     0
  0
SCALE
  5
58
102
{ACAD_REACTORS
330
47
102
}
330
47
100
AcDbScale
 70
     0
300
100:1
140
100.0
141
1.0
290
     0
  0
SCALE
  5
59
102
{ACAD_REACTORS
330
47
102
}
330
47
100
AcDbScale
 70
     0
300
1/128" = 1'-0"
140
0.007812
141
12.0
290
     0
  0
SCALE
  5
5A
102
{ACAD_REACTORS
330
47
102
}
330
47
100
AcDbScale
 70
     0
300
1/64" = 1'-0"
140
0.015625
141
12.0
290
     0
  0
SCALE
  5
5B
102
{ACAD_REACTORS
330
47
102
}
330
47
100
AcDbScale
 70
     0
300
1/32" = 1'-0"
140
0.03125
141
12.0
290
     0
  0
SCALE
  5
5C
102
{ACAD_REACTORS
330
47
102
}
330
47
100
AcDbScale
 70
     0
300
1/16" = 1'-0"
140
0.0625
141
12.0
290
     0
  0
SCALE
  5
5D
102
{ACAD_REACTORS
330
47
102
}
330
47
100
AcDbScale
 70
     0
300
3/32" = 1'-0"
140
0.09375
141
12.0
290
     0
  0
SCALE
  5
5E
102
{ACAD_REACTORS
330
47
102
}
330
47
100
AcDbScale
 70
     0
300
1/8" = 1'-0"
140
0.125
141
12.0
290
     0
  0
SCALE
  5
5F
102
{ACAD_REACTORS
330
47
102
}
330
47
100
AcDbScale
 70
     0
300
3/16" = 1'-0"
140
0.1875
141
12.0
290
     0
  0
SCALE
  5
60
102
{ACAD_REACTORS
330
47
102
}
330
47
100
AcDbScale
 70
     0
300
1/4" = 1'-0"
140
0.25
141
12.0
290
     0
  0
SCALE
  5
61
102
{ACAD_REACTORS
330
47
102
}
330
47
100
AcDbScale
 70
     0
300
3/8" = 1'-0"
140
0.375
141
12.0
290
     0
  0
SCALE
  5
62
102
{ACAD_REACTORS
330
47
102
}
330
47
100
AcDbScale
 70
     0
300
1/2" = 1'-0"
140
0.5
141
12.0
290
     0
  0
SCALE
  5
63
102
{ACAD_REACTORS
330
47
102
}
330
47
100
AcDbScale
 70
     0
300
3/4" = 1'-0"
140
0.75
141
12.0
290
     0
  0
SCALE
  5
64
102
{ACAD_REACTORS
330
47
102
}
330
47
100
AcDbScale
 70
     0
300
1" = 1'-0"
140
1.0
141
12.0
290
     0
  0
SCALE
  5
65
102
{ACAD_REACTORS
330
47
102
}
330
47
100
AcDbScale
 70
     0
300
1-1/2" = 1'-0"
140
1.5
141
12.0
290
     0
  0
SCALE
  5
66
102
{ACAD_REACTORS
330
47
102
}
330
47
100
AcDbScale
 70
     0
300
3" = 1'-0"
140
3.0
141
12.0
290
     0
  0
SCALE
  5
67
102
{ACAD_REACTORS
330
47
102
}
330
47
100
AcDbScale
 70
     0
300
6" = 1'-0"
140
6.0
141
12.0
290
     0
  0
SCALE
  5
68
102
{ACAD_REACTORS
330
47
102
}
330
47
100
AcDbScale
 70
     0
300
1'-0" = 1'-0"
140
12.0
141
12.0
290
     0
  0
ENDSEC
  0
EOF
