  0
SECTION
  2
HEADER
  9
$ACADVER
  1
AC1015
  9
$ACADMAINTVER
 70
     6
  9
$DWGCODEPAGE
  3
ANSI_1252
  9
$INSBASE
 10
0.0
 20
0.0
 30
0.0
  9
$EXTMIN
 10
0.0
 20
0.0
 30
0.0
  9
$EXTMAX
 10
582.375366
 20
355.449951
 30
2.0
  9
$LIMMIN
 10
0.0
 20
0.0
  9
$LIMMAX
 10
420.0
 20
297.0
  9
$ORTHOMODE
 70
     0
  9
$REGENMODE
 70
     1
  9
$FILLMODE
 70
     1
  9
$QTEXTMODE
 70
     0
  9
$MIRRTEXT
 70
     1
  9
$LTSCALE
 40
1.0
  9
$ATTMODE
 70
     1
  9
$TEXTSIZE
 40
2.5
  9
$TRACEWID
 40
1.0
  9
$TEXTSTYLE
  7
Standard
  9
$CLAYER
  8
0
  9
$CELTYPE
  6
ByLayer
  9
$CECOLOR
 62
   256
  9
$CELTSCALE
 40
1.0
  9
$DISPSILH
 70
     0
  9
$DIMSCALE
 40
1.0
  9
$DIMASZ
 40
2.5
  9
$DIMEXO
 40
0.625
  9
$DIMDLI
 40
3.75
  9
$DIMRND
 40
0.0
  9
$DIMDLE
 40
0.0
  9
$DIMEXE
 40
1.25
  9
$DIMTP
 40
0.0
  9
$DIMTM
 40
0.0
  9
$DIMTXT
 40
2.5
  9
$DIMCEN
 40
2.5
  9
$DIMTSZ
 40
0.0
  9
$DIMTOL
 70
     0
  9
$DIMLIM
 70
     0
  9
$DIMTIH
 70
     0
  9
$DIMTOH
 70
     0
  9
$DIMSE1
 70
     0
  9
$DIMSE2
 70
     0
  9
$DIMTAD
 70
     1
  9
$DIMZIN
 70
     8
  9
$DIMBLK
  1

  9
$DIMASO
 70
     1
  9
$DIMSHO
 70
     1
  9
$DIMPOST
  1

  9
$DIMAPOST
  1

  9
$DIMALT
 70
     0
  9
$DIMALTD
 70
     3
  9
$DIMALTF
 40
0.03937
  9
$DIMLFAC
 40
1.0
  9
$DIMTOFL
 70
     1
  9
$DIMTVP
 40
0.0
  9
$DIMTIX
 70
     0
  9
$DIMSOXD
 70
     0
  9
$DIMSAH
 70
     0
  9
$DIMBLK1
  1

  9
$DIMBLK2
  1

  9
$DIMSTYLE
  2
Standard
  9
$DIMCLRD
 70
     0
  9
$DIMCLRE
 70
     0
  9
$DIMCLRT
 70
     0
  9
$DIMTFAC
 40
1.0
  9
$DIMGAP
 40
0.625
  9
$DIMJUST
 70
     0
  9
$DIMSD1
 70
     0
  9
$DIMSD2
 70
     0
  9
$DIMTOLJ
 70
     0
  9
$DIMTZIN
 70
     8
  9
$DIMALTZ
 70
     0
  9
$DIMALTTZ
 70
     0
  9
$DIMUPT
 70
     0
  9
$DIMDEC
 70
     2
  9
$DIMTDEC
 70
     2
  9
$DIMALTU
 70
     2
  9
$DIMALTTD
 70
     3
  9
$DIMTXSTY
  7
Standard
  9
$DIMAUNIT
 70
     0
  9
$DIMADEC
 70
     0
  9
$DIMALTRND
 40
0.0
  9
$DIMAZIN
 70
     0
  9
$DIMDSEP
 70
    44
  9
$DIMATFIT
 70
     0
  9
$DIMFRAC
 70
     0
  9
$DIMLDRBLK
  1

  9
$DIMLUNIT
 70
     2
  9
$DIMLWD
 70
    -2
  9
$DIMLWE
 70
    -2
  9
$DIMTMOVE
 70
     0
  9
$LUNITS
 70
     2
  9
$LUPREC
 70
     4
  9
$SKETCHINC
 40
1.0
  9
$FILLETRAD
 40
2.5
  9
$AUNITS
 70
     0
  9
$AUPREC
 70
     0
  9
$MENU
  1
.
  9
$ELEVATION
 40
0.0
  9
$PELEVATION
 40
0.0
  9
$THICKNESS
 40
0.0
  9
$LIMCHECK
 70
     0
  9
$CHAMFERA
 40
2.5
  9
$CHAMFERB
 40
2.5
  9
$CHAMFERC
 40
0.0
  9
$CHAMFERD
 40
0.0
  9
$SKPOLY
 70
     0
  9
$TDCREATE
 40
2447893.375
  9
$TDUCREATE
 40
0.0
  9
$TDUPDATE
 40
2459564.407848079
  9
$TDUUPDATE
 40
2459564.032848079
  9
$TDINDWG
 40
0.0
  9
$TDUSRTIMER
 40
0.0
  9
$USRTIMER
 70
     1
  9
$ANGBASE
 50
0.0
  9
$ANGDIR
 70
     0
  9
$PDMODE
 70
     0
  9
$PDSIZE
 40
0.0
  9
$PLINEWID
 40
0.0
  9
$SPLFRAME
 70
     0
  9
$SPLINETYPE
 70
     6
  9
$SPLINESEGS
 70
     8
  9
$HANDSEED
  5
2E0
  9
$SURFTAB1
 70
     6
  9
$SURFTAB2
 70
     6
  9
$SURFTYPE
 70
     6
  9
$SURFU
 70
     6
  9
$SURFV
 70
     6
  9
$UCSBASE
  2

  9
$UCSNAME
  2

  9
$UCSORG
 10
0.0
 20
0.0
 30
0.0
  9
$UCSXDIR
 10
1.0
 20
0.0
 30
0.0
  9
$UCSYDIR
 10
0.0
 20
1.0
 30
0.0
  9
$UCSORTHOREF
  2

  9
$UCSORTHOVIEW
 70
     1
  9
$UCSORGTOP
 10
0.0
 20
0.0
 30
0.0
  9
$UCSORGBOTTOM
 10
0.0
 20
0.0
 30
0.0
  9
$UCSORGLEFT
 10
0.0
 20
0.0
 30
0.0
  9
$UCSORGRIGHT
 10
0.0
 20
0.0
 30
0.0
  9
$UCSORGFRONT
 10
0.0
 20
0.0
 30
0.0
  9
$UCSORGBACK
 10
0.0
 20
0.0
 30
0.0
  9
$PUCSBASE
  2

  9
$PUCSNAME
  2

  9
$PUCSORG
 10
0.0
 20
0.0
 30
0.0
  9
$PUCSXDIR
 10
1.0
 20
0.0
 30
0.0
  9
$PUCSYDIR
 10
0.0
 20
1.0
 30
0.0
  9
$PUCSORTHOREF
  2

  9
$PUCSORTHOVIEW
 70
     0
  9
$PUCSORGTOP
 10
0.0
 20
0.0
 30
0.0
  9
$PUCSORGBOTTOM
 10
0.0
 20
0.0
 30
0.0
  9
$PUCSORGLEFT
 10
0.0
 20
0.0
 30
0.0
  9
$PUCSORGRIGHT
 10
0.0
 20
0.0
 30
0.0
  9
$PUCSORGFRONT
 10
0.0
 20
0.0
 30
0.0
  9
$PUCSORGBACK
 10
0.0
 20
0.0
 30
0.0
  9
$USERI1
 70
     0
  9
$USERI2
 70
     0
  9
$USERI3
 70
     0
  9
$USERI4
 70
     0
  9
$USERI5
 70
     0
  9
$USERR1
 40
0.0
  9
$USERR2
 40
0.0
  9
$USERR3
 40
0.0
  9
$USERR4
 40
0.0
  9
$USERR5
 40
0.0
  9
$WORLDVIEW
 70
     1
  9
$SHADEDGE
 70
     3
  9
$SHADEDIF
 70
    70
  9
$TILEMODE
 70
     1
  9
$MAXACTVP
 70
    64
  9
$PINSBASE
 10
0.0
 20
0.0
 30
0.0
  9
$PLIMCHECK
 70
     0
  9
$PEXTMIN
 10
0.0
 20
0.0
 30
0.0
  9
$PEXTMAX
 10
582.375366
 20
355.449951
 30
2.0
  9
$PLIMMIN
 10
0.0
 20
0.0
  9
$PLIMMAX
 10
420.0
 20
297.0
  9
$UNITMODE
 70
     0
  9
$VISRETAIN
 70
     0
  9
$PLINEGEN
 70
     0
  9
$PSLTSCALE
 70
     1
  9
$TREEDEPTH
 70
  3020
  9
$CMLSTYLE
  2
Standard
  9
$CMLJUST
 70
     0
  9
$CMLSCALE
 40
20.0
  9
$PROXYGRAPHICS
 70
     1
  9
$MEASUREMENT
 70
     1
  9
$CELWEIGHT
370
    -1
  9
$ENDCAPS
280
     0
  9
$JOINSTYLE
280
     0
  9
$LWDISPLAY
290
     0
  9
$INSUNITS
 70
     0
  9
$HYPERLINKBASE
  1

  9
$STYLESHEET
  1

  9
$XEDIT
290
     1
  9
$CEPSNTYPE
380
     0
  9
$PSTYLEMODE
290
     0
  9
$FINGERPRINTGUID
  2
{A48C7808-7952-4218-8C5E-55B26F5A5280}
  9
$VERSIONGUID
  2
{FAEB1C32-E019-11D5-929B-00C0DF256EC4}
  9
$EXTNAMES
290
     1
  9
$PSVPSCALE
 40
0.0
  9
$OLESTARTUP
290
     0
  0
ENDSEC
  0
SECTION
  2
CLASSES
  0
CLASS
  1
ACDBDICTIONARYWDFLT
  2
AcDbDictionaryWithDefault
  3
ObjectDBX Classes
 90
        0
280
     0
281
     0
  0
CLASS
  1
VISUALSTYLE
  2
AcDbVisualStyle
  3
ObjectDBX Classes
 90
     4095
280
     0
281
     0
  0
CLASS
  1
MATERIAL
  2
AcDbMaterial
  3
ObjectDBX Classes
 90
     1153
280
     0
281
     0
  0
CLASS
  1
SCALE
  2
AcDbScale
  3
ObjectDBX Classes
 90
     1153
280
     0
281
     0
  0
CLASS
  1
SUN
  2
AcDbSun
  3
SCENEOE
 90
     1153
280
     0
281
     0
  0
CLASS
  1
ACDBPLACEHOLDER
  2
AcDbPlaceHolder
  3
ObjectDBX Classes
 90
        0
280
     0
281
     0
  0
CLASS
  1
LAYOUT
  2
AcDbLayout
  3
ObjectDBX Classes
 90
        0
280
     0
281
     0
  0
ENDSEC
  0
SECTION
  2
TABLES
  0
TABLE
  2
VPORT
  5
8
330
0
100
AcDbSymbolTable
 70
     1
  0
VPORT
  5
29
330
8
100
AcDbSymbolTableRecord
100
AcDbViewportTableRecord
  2
*Active
 70
     0
 10
0.0
 20
0.0
 11
1.0
 21
1.0
 12
10.429907
 22
4.5
 13
0.0
 23
0.0
 14
0.5
 24
0.5
 15
0.5
 25
0.5
 16
0.0
 26
0.0
 36
1.0
 17
0.0
 27
0.0
 37
0.0
 40
9.0
 41
1.972973
 42
50.0
 43
0.0
 44
0.0
 50
0.0
 51
0.0
 71
     0
 72
   100
 73
     1
 74
     3
 75
     0
 76
     0
 77
     0
 78
     0
281
     0
 65
     1
110
0.0
120
0.0
130
0.0
111
1.0
121
0.0
131
0.0
112
0.0
122
1.0
132
0.0
 79
     0
146
0.0
  0
ENDTAB
  0
TABLE
  2
LTYPE
  5
5
330
0
100
AcDbSymbolTable
 70
     1
  0
LTYPE
  5
14
330
5
100
AcDbSymbolTableRecord
100
AcDbLinetypeTableRecord
  2
ByBlock
 70
     0
  3

 72
    65
 73
     0
 40
0.0
  0
LTYPE
  5
15
330
5
100
AcDbSymbolTableRecord
100
AcDbLinetypeTableRecord
  2
ByLayer
 70
     0
  3

 72
    65
 73
     0
 40
0.0
  0
LTYPE
  5
16
330
5
100
AcDbSymbolTableRecord
100
AcDbLinetypeTableRecord
  2
Continuous
 70
     0
  3
Solid line
 72
    65
 73
     0
 40
0.0
  0
ENDTAB
  0
TABLE
  2
LAYER
  5
2
330
0
100
AcDbSymbolTable
 70
     1
  0
LAYER
  5
10
330
2
100
AcDbSymbolTableRecord
100
AcDbLayerTableRecord
  2
0
 70
     0
 62
     7
  6
Continuous
370
    -3
390
F
  0
ENDTAB
  0
TABLE
  2
STYLE
  5
3
330
0
100
AcDbSymbolTable
 70
     1
  0
STYLE
  5
11
330
3
100
AcDbSymbolTableRecord
100
AcDbTextStyleTableRecord
  2
Standard
 70
     0
 40
0.0
 41
1.0
 50
0.0
 71
     0
 42
2.5
  3
txt
  4

  0
ENDTAB
  0
TABLE
  2
VIEW
  5
6
330
0
100
AcDbSymbolTable
 70
     0
  0
ENDTAB
  0
TABLE
  2
UCS
  5
7
330
0
100
AcDbSymbolTable
 70
     0
  0
ENDTAB
  0
TABLE
  2
APPID
  5
9
330
0
100
AcDbSymbolTable
 70
     1
  0
APPID
  5
12
330
9
100
AcDbSymbolTableRecord
100
AcDbRegAppTableRecord
  2
ACAD
 70
     0
  0
ENDTAB
  0
TABLE
  2
DIMSTYLE
  5
A
330
0
100
AcDbSymbolTable
 70
     1
100
AcDbDimStyleTable
  0
DIMSTYLE
105
27
330
A
100
AcDbSymbolTableRecord
100
AcDbDimStyleTableRecord
  2
Standard
 70
     0
178
     0
340
11
  0
ENDTAB
  0
TABLE
  2
BLOCK_RECORD
  5
1
330
0
100
AcDbSymbolTable
 70
     1
  0
BLOCK_RECORD
  5
1F
330
1
100
AcDbSymbolTableRecord
100
AcDbBlockTableRecord
  2
*Model_Space
340
22
  0
BLOCK_RECORD
  5
1B
330
1
100
AcDbSymbolTableRecord
100
AcDbBlockTableRecord
  2
*Paper_Space
340
1E
  0
BLOCK_RECORD
  5
23
330
1
100
AcDbSymbolTableRecord
100
AcDbBlockTableRecord
  2
*Paper_Space0
340
26
  0
ENDTAB
  0
ENDSEC
  0
SECTION
  2
BLOCKS
  0
BLOCK
  5
20
330
1F
100
AcDbEntity
  8
0
100
AcDbBlockBegin
  2
*Model_Space
 70
     0
 10
0.0
 20
0.0
 30
0.0
  3
*Model_Space
  1
*Model_Space
  0
ENDBLK
  5
21
330
1F
100
AcDbEntity
  8
0
100
AcDbBlockEnd
  0
BLOCK
  5
1C
330
1B
100
AcDbEntity
 67
     1
  8
0
100
AcDbBlockBegin
  2
*Paper_Space
 70
     0
 10
0.0
 20
0.0
 30
0.0
  3
*Paper_Space
  1
*Paper_Space
  0
ENDBLK
  5
1D
330
1B
100
AcDbEntity
 67
     1
  8
0
100
AcDbBlockEnd
  0
BLOCK
  5
24
330
23
100
AcDbEntity
  8
0
100
AcDbBlockBegin
  2
*Paper_Space0
 70
     0
 10
0.0
 20
0.0
 30
0.0
  3
*Paper_Space0
  1
*Paper_Space0
  0
ENDBLK
  5
25
330
23
100
AcDbEntity
  8
0
100
AcDbBlockEnd
  0
ENDSEC
  0
SECTION
  2
ENTITIES
  0
LINE
  5
6A
330
1F
100
AcDbEntity
  8
0
 62
     7
370
    35
100
AcDbLine
 10
475.22467
 20
346.949951
 30
0.0
 11
475.22467
 21
338.949951
 31
0.0
  0
LINE
  5
6B
330
1F
100
AcDbEntity
  8
0
 62
     7
370
    35
100
AcDbLine
 10
455.22467
 20
347.699951
 30
0.0
 11
456.22467
 21
347.699951
 31
0.0
  0
LINE
  5
6C
330
1F
100
AcDbEntity
  8
0
 62
     7
370
    35
100
AcDbLine
 10
455.22467
 20
338.199951
 30
0.0
 11
456.22467
 21
338.199951
 31
0.0
  0
LINE
  5
6D
330
1F
100
AcDbEntity
  8
0
 62
     7
370
    35
100
AcDbLine
 10
456.22467
 20
347.699951
 30
0.0
 11
458.97467
 21
347.591431
 31
0.0
  0
LINE
  5
6E
330
1F
100
AcDbEntity
  8
0
 62
     7
370
    35
100
AcDbLine
 10
456.22467
 20
338.199951
 30
0.0
 11
458.97467
 21
338.308533
 31
0.0
  0
LINE
  5
6F
330
1F
100
AcDbEntity
  8
0
 62
     7
370
    35
100
AcDbLine
 10
489.127075
 20
168.950058
 30
0.0
 11
489.127075
 21
176.950058
 31
0.0
  0
LINE
  5
70
330
1F
100
AcDbEntity
  8
0
 62
     7
370
    35
100
AcDbLine
 10
524.627075
 20
167.950058
 30
0.0
 11
524.627075
 21
177.950058
 31
0.0
  0
LINE
  5
71
330
1F
100
AcDbEntity
  8
0
 62
     7
370
    35
100
AcDbLine
 10
518.427002
 20
167.050064
 30
0.0
 11
518.427002
 21
178.850082
 31
0.0
  0
LINE
  5
72
330
1F
100
AcDbEntity
  8
0
 62
     7
370
    35
100
AcDbLine
 10
475.127075
 20
169.450058
 30
0.0
 11
475.127075
 21
176.450058
 31
0.0
  0
LINE
  5
73
330
1F
100
AcDbEntity
  8
0
 62
     7
370
    35
100
AcDbLine
 10
494.127075
 20
166.450058
 30
0.0
 11
494.127075
 21
179.450058
 31
0.0
  0
LINE
  5
74
330
1F
100
AcDbEntity
  8
0
 62
     7
370
    35
100
AcDbLine
 10
513.627075
 20
166.450058
 30
0.0
 11
513.627075
 21
179.450058
 31
0.0
  0
LINE
  5
75
330
1F
100
AcDbEntity
  8
0
 62
     7
370
    35
100
AcDbLine
 10
513.627075
 20
166.450058
 30
0.0
 11
494.127075
 21
166.450058
 31
0.0
  0
LINE
  5
76
330
1F
100
AcDbEntity
  8
0
 62
     7
370
    35
100
AcDbLine
 10
513.627075
 20
179.450058
 30
0.0
 11
494.127075
 21
179.450058
 31
0.0
  0
LINE
  5
77
330
1F
100
AcDbEntity
  8
0
 62
     7
370
    35
100
AcDbLine
 10
518.427002
 20
167.050064
 30
0.0
 11
513.627075
 21
167.050064
 31
0.0
  0
LINE
  5
78
330
1F
100
AcDbEntity
  8
0
 62
     7
370
    35
100
AcDbLine
 10
518.427002
 20
178.850082
 30
0.0
 11
513.627075
 21
178.850082
 31
0.0
  0
LINE
  5
79
330
1F
100
AcDbEntity
  8
0
 62
     7
370
    35
100
AcDbLine
 10
524.627075
 20
167.950058
 30
0.0
 11
518.427002
 21
167.950058
 31
0.0
  0
LINE
  5
7A
330
1F
100
AcDbEntity
  8
0
 62
     7
370
    35
100
AcDbLine
 10
524.627075
 20
177.950058
 30
0.0
 11
518.427002
 21
177.950058
 31
0.0
  0
LINE
  5
7B
330
1F
100
AcDbEntity
  8
0
 62
     7
370
    35
100
AcDbLine
 10
475.127136
 20
169.450058
 30
0.0
 11
489.127136
 21
168.950058
 31
0.0
  0
LINE
  5
7C
330
1F
100
AcDbEntity
  8
0
 62
     7
370
    35
100
AcDbLine
 10
494.127136
 20
167.050064
 30
0.0
 11
489.127136
 21
168.950058
 31
0.0
  0
LINE
  5
7D
330
1F
100
AcDbEntity
  8
0
 62
     7
370
    35
100
AcDbLine
 10
475.127075
 20
176.450058
 30
0.0
 11
489.127075
 21
176.950058
 31
0.0
  0
LINE
  5
7E
330
1F
100
AcDbEntity
  8
0
 62
     7
370
    35
100
AcDbLine
 10
494.127136
 20
178.84996
 30
0.0
 11
489.127136
 21
176.949966
 31
0.0
  0
LINE
  5
7F
330
1F
100
AcDbEntity
  8
0
 62
     7
370
    35
100
AcDbLine
 10
510.427032
 20
169.700058
 30
0.0
 11
510.427032
 21
176.200058
 31
0.0
  0
LINE
  5
80
330
1F
100
AcDbEntity
  8
0
 62
     7
370
    35
100
AcDbLine
 10
503.927063
 20
169.700058
 30
0.0
 11
503.927063
 21
176.200058
 31
0.0
  0
LINE
  5
81
330
1F
100
AcDbEntity
  8
0
 62
     7
370
    35
100
AcDbLine
 10
510.427032
 20
169.700058
 30
0.0
 11
503.927063
 21
169.700058
 31
0.0
  0
LINE
  5
82
330
1F
100
AcDbEntity
  8
0
 62
     7
370
    35
100
AcDbLine
 10
510.427032
 20
176.200058
 30
0.0
 11
503.927063
 21
176.200058
 31
0.0
  0
LINE
  5
83
330
1F
100
AcDbEntity
  8
0
 62
     7
370
    35
100
AcDbLine
 10
488.090088
 20
174.950089
 30
0.0
 11
488.608582
 21
172.950089
 31
0.0
  0
LINE
  5
84
330
1F
100
AcDbEntity
  8
0
 62
     7
370
    35
100
AcDbLine
 10
487.585754
 20
169.005112
 30
0.0
 11
488.090027
 21
170.950058
 31
0.0
  0
LINE
  5
85
330
1F
100
AcDbEntity
  8
0
 62
     7
370
    35
100
AcDbLine
 10
488.090027
 20
170.950089
 30
0.0
 11
487.571533
 21
172.950089
 31
0.0
  0
LINE
  5
86
330
1F
100
AcDbEntity
  8
0
 62
     7
370
    35
100
AcDbLine
 10
487.571472
 20
172.950089
 30
0.0
 11
487.05304
 21
170.950089
 31
0.0
  0
LINE
  5
87
330
1F
100
AcDbEntity
  8
0
 62
     7
370
    35
100
AcDbLine
 10
487.052979
 20
170.950058
 30
0.0
 11
487.556946
 21
169.006149
 31
0.0
  0
LINE
  5
88
330
1F
100
AcDbEntity
  8
0
 62
     7
370
    35
100
AcDbLine
 10
486.534607
 20
172.950058
 30
0.0
 11
487.053101
 21
174.950058
 31
0.0
  0
LINE
  5
89
330
1F
100
AcDbEntity
  8
0
 62
     7
370
    35
100
AcDbLine
 10
487.05304
 20
174.950089
 30
0.0
 11
486.558289
 21
176.858322
 31
0.0
  0
LINE
  5
8A
330
1F
100
AcDbEntity
  8
0
 62
     7
370
    35
100
AcDbLine
 10
486.510315
 20
176.856613
 30
0.0
 11
486.015991
 21
174.950058
 31
0.0
  0
LINE
  5
8B
330
1F
100
AcDbEntity
  8
0
 62
     7
370
    35
100
AcDbLine
 10
486.015991
 20
174.950058
 30
0.0
 11
486.534485
 21
172.950089
 31
0.0
  0
LINE
  5
8C
330
1F
100
AcDbEntity
  8
0
 62
     7
370
    35
100
AcDbLine
 10
485.530823
 20
169.078506
 30
0.0
 11
486.016052
 21
170.950058
 31
0.0
  0
LINE
  5
8D
330
1F
100
AcDbEntity
  8
0
 62
     7
370
    35
100
AcDbLine
 10
486.015991
 20
170.950058
 30
0.0
 11
485.497498
 21
172.950089
 31
0.0
  0
LINE
  5
8E
330
1F
100
AcDbEntity
  8
0
 62
     7
370
    35
100
AcDbLine
 10
485.497498
 20
172.950058
 30
0.0
 11
484.978943
 21
170.950058
 31
0.0
  0
LINE
  5
8F
330
1F
100
AcDbEntity
  8
0
 62
     7
370
    35
100
AcDbLine
 10
484.978943
 20
170.950089
 30
0.0
 11
485.463562
 21
169.080948
 31
0.0
  0
LINE
  5
90
330
1F
100
AcDbEntity
  8
0
 62
     7
370
    35
100
AcDbLine
 10
484.460388
 20
172.950089
 30
0.0
 11
484.978943
 21
174.950089
 31
0.0
  0
LINE
  5
91
330
1F
100
AcDbEntity
  8
0
 62
     7
370
    35
100
AcDbLine
 10
488.60376
 20
176.931381
 30
0.0
 11
488.090088
 21
174.950058
 31
0.0
  0
LINE
  5
92
330
1F
100
AcDbEntity
  8
0
 62
     7
370
    35
100
AcDbLine
 10
488.608582
 20
172.950058
 30
0.0
 11
489.127075
 21
174.950058
 31
0.0
  0
LINE
  5
93
330
1F
100
AcDbEntity
  8
0
 62
     7
370
    35
100
AcDbLine
 10
489.127136
 20
174.950089
 30
0.0
 11
488.613403
 21
176.931747
 31
0.0
  0
LINE
  5
94
330
1F
100
AcDbEntity
  8
0
 62
     7
370
    35
100
AcDbLine
 10
484.978943
 20
174.950058
 30
0.0
 11
484.503296
 21
176.784927
 31
0.0
  0
LINE
  5
95
330
1F
100
AcDbEntity
  8
0
 62
     7
370
    35
100
AcDbLine
 10
484.41687
 20
176.781845
 30
0.0
 11
483.941956
 21
174.950089
 31
0.0
  0
LINE
  5
96
330
1F
100
AcDbEntity
  8
0
 62
     7
370
    35
100
AcDbLine
 10
483.941956
 20
174.950089
 30
0.0
 11
484.46051
 21
172.950058
 31
0.0
  0
LINE
  5
97
330
1F
100
AcDbEntity
  8
0
 62
     7
370
    35
100
AcDbLine
 10
483.475769
 20
169.151901
 30
0.0
 11
483.941956
 21
170.950058
 31
0.0
  0
LINE
  5
98
330
1F
100
AcDbEntity
  8
0
 62
     7
370
    35
100
AcDbLine
 10
483.941956
 20
170.950089
 30
0.0
 11
483.423401
 21
172.950089
 31
0.0
  0
LINE
  5
99
330
1F
100
AcDbEntity
  8
0
 62
     7
370
    35
100
AcDbLine
 10
483.423401
 20
172.950089
 30
0.0
 11
482.904907
 21
170.950089
 31
0.0
  0
LINE
  5
9A
330
1F
100
AcDbEntity
  8
0
 62
     7
370
    35
100
AcDbLine
 10
482.904846
 20
170.950058
 30
0.0
 11
483.370056
 21
169.155655
 31
0.0
  0
LINE
  5
9B
330
1F
100
AcDbEntity
  8
0
 62
     7
370
    35
100
AcDbLine
 10
482.386414
 20
172.950058
 30
0.0
 11
482.904907
 21
174.950058
 31
0.0
  0
LINE
  5
9C
330
1F
100
AcDbEntity
  8
0
 62
     7
370
    35
100
AcDbLine
 10
482.904907
 20
174.950089
 30
0.0
 11
482.448181
 21
176.711563
 31
0.0
  0
LINE
  5
9D
330
1F
100
AcDbEntity
  8
0
 62
     7
370
    35
100
AcDbLine
 10
482.323303
 20
176.707077
 30
0.0
 11
481.867798
 21
174.950089
 31
0.0
  0
LINE
  5
9E
330
1F
100
AcDbEntity
  8
0
 62
     7
370
    35
100
AcDbLine
 10
481.867859
 20
174.950058
 30
0.0
 11
482.386353
 21
172.950058
 31
0.0
  0
LINE
  5
9F
330
1F
100
AcDbEntity
  8
0
 62
     7
370
    35
100
AcDbLine
 10
481.420715
 20
169.225296
 30
0.0
 11
481.867859
 21
170.950058
 31
0.0
  0
LINE
  5
A0
330
1F
100
AcDbEntity
  8
0
 62
     7
370
    35
100
AcDbLine
 10
404.432922
 20
176.850052
 30
0.0
 11
404.432922
 21
169.050034
 31
0.0
  0
LINE
  5
A1
330
1F
100
AcDbEntity
  8
0
 62
     7
370
    35
100
AcDbLine
 10
394.482971
 20
169.236923
 30
0.0
 11
394.982971
 21
169.25267
 31
0.0
  0
LINE
  5
A2
330
1F
100
AcDbEntity
  8
0
 62
     7
370
    35
100
AcDbLine
 10
394.482971
 20
176.663193
 30
0.0
 11
394.982971
 21
176.647446
 31
0.0
  0
LINE
  5
A3
330
1F
100
AcDbEntity
  8
0
 62
     7
370
    35
100
AcDbLine
 10
395.982971
 20
177.116196
 30
0.0
 11
395.982971
 21
168.78392
 31
0.0
  0
LINE
  5
A4
330
1F
100
AcDbEntity
  8
0
 62
     7
370
    35
100
AcDbLine
 10
394.982971
 20
177.14769
 30
0.0
 11
394.982971
 21
168.752396
 31
0.0
  0
LINE
  5
A5
330
1F
100
AcDbEntity
  8
0
 62
     7
370
    35
100
AcDbLine
 10
393.332947
 20
168.700455
 30
0.0
 11
394.482971
 21
168.736649
 31
0.0
  0
LINE
  5
A6
330
1F
100
AcDbEntity
  8
0
 62
     7
370
    35
100
AcDbLine
 10
394.482971
 20
177.163437
 30
0.0
 11
394.482971
 21
168.736649
 31
0.0
  0
LINE
  5
A7
330
1F
100
AcDbEntity
  8
0
 62
     7
370
    35
100
AcDbLine
 10
393.332947
 20
177.199661
 30
0.0
 11
394.482971
 21
177.163437
 31
0.0
  0
LINE
  5
A8
330
1F
100
AcDbEntity
  8
0
 62
     7
370
    35
100
AcDbLine
 10
396.482971
 20
177.100449
 30
0.0
 11
396.482971
 21
168.799667
 31
0.0
  0
LINE
  5
A9
330
1F
100
AcDbEntity
  8
0
 62
     7
370
    35
100
AcDbLine
 10
397.982971
 20
177.053207
 30
0.0
 11
397.982971
 21
168.846909
 31
0.0
  0
LINE
  5
AA
330
1F
100
AcDbEntity
  8
0
 62
     7
370
    35
100
AcDbLine
 10
397.482971
 20
177.068954
 30
0.0
 11
397.482971
 21
168.831161
 31
0.0
  0
LINE
  5
AB
330
1F
100
AcDbEntity
  8
0
 62
     7
370
    35
100
AcDbLine
 10
398.982971
 20
177.021713
 30
0.0
 11
398.982971
 21
168.878403
 31
0.0
  0
LINE
  5
AC
330
1F
100
AcDbEntity
  8
0
 62
     7
370
    35
100
AcDbLine
 10
399.482971
 20
177.005966
 30
0.0
 11
399.482971
 21
168.89415
 31
0.0
  0
LINE
  5
AD
330
1F
100
AcDbEntity
  8
0
 62
     7
370
    35
100
AcDbLine
 10
400.982971
 20
176.958725
 30
0.0
 11
400.982971
 21
168.941391
 31
0.0
  0
LINE
  5
AE
330
1F
100
AcDbEntity
  8
0
 62
     7
370
    35
100
AcDbLine
 10
400.482971
 20
176.974472
 30
0.0
 11
400.482971
 21
168.925644
 31
0.0
  0
LINE
  5
AF
330
1F
100
AcDbEntity
  8
0
 62
     7
370
    35
100
AcDbLine
 10
400.982971
 20
168.941391
 30
0.0
 11
404.432922
 21
169.050034
 31
0.0
  0
LINE
  5
B0
330
1F
100
AcDbEntity
  8
0
 62
     7
370
    35
100
AcDbLine
 10
399.482971
 20
168.89415
 30
0.0
 11
400.482971
 21
168.925644
 31
0.0
  0
LINE
  5
B1
330
1F
100
AcDbEntity
  8
0
 62
     7
370
    35
100
AcDbLine
 10
397.982971
 20
168.846909
 30
0.0
 11
398.982971
 21
168.878403
 31
0.0
  0
LINE
  5
B2
330
1F
100
AcDbEntity
  8
0
 62
     7
370
    35
100
AcDbLine
 10
396.482971
 20
168.799667
 30
0.0
 11
397.482971
 21
168.831161
 31
0.0
  0
LINE
  5
B3
330
1F
100
AcDbEntity
  8
0
 62
     7
370
    35
100
AcDbLine
 10
394.982971
 20
168.752396
 30
0.0
 11
395.982971
 21
168.78392
 31
0.0
  0
LINE
  5
B4
330
1F
100
AcDbEntity
  8
0
 62
     7
370
    35
100
AcDbLine
 10
394.982971
 20
177.14769
 30
0.0
 11
395.982971
 21
177.116196
 31
0.0
  0
LINE
  5
B5
330
1F
100
AcDbEntity
  8
0
 62
     7
370
    35
100
AcDbLine
 10
396.482971
 20
177.100449
 30
0.0
 11
397.482971
 21
177.068954
 31
0.0
  0
LINE
  5
B6
330
1F
100
AcDbEntity
  8
0
 62
     7
370
    35
100
AcDbLine
 10
397.982971
 20
177.053207
 30
0.0
 11
398.982971
 21
177.021713
 31
0.0
  0
LINE
  5
B7
330
1F
100
AcDbEntity
  8
0
 62
     7
370
    35
100
AcDbLine
 10
399.482971
 20
177.005966
 30
0.0
 11
400.482971
 21
176.974472
 31
0.0
  0
LINE
  5
B8
330
1F
100
AcDbEntity
  8
0
 62
     7
370
    35
100
AcDbLine
 10
400.982971
 20
176.958725
 30
0.0
 11
404.432922
 21
176.850052
 31
0.0
  0
LINE
  5
B9
330
1F
100
AcDbEntity
  8
0
 62
     7
370
    35
100
AcDbLine
 10
481.867859
 20
170.950058
 30
0.0
 11
481.349304
 21
172.950089
 31
0.0
  0
LINE
  5
BA
330
1F
100
AcDbEntity
  8
0
 62
     7
370
    35
100
AcDbLine
 10
481.349365
 20
172.950058
 30
0.0
 11
480.830811
 21
170.950058
 31
0.0
  0
LINE
  5
BB
330
1F
100
AcDbEntity
  8
0
 62
     7
370
    35
100
AcDbLine
 10
480.83075
 20
170.950089
 30
0.0
 11
481.276611
 21
169.230453
 31
0.0
  0
LINE
  5
BC
330
1F
100
AcDbEntity
  8
0
 62
     7
370
    35
100
AcDbLine
 10
480.312317
 20
172.950089
 30
0.0
 11
480.830872
 21
174.950089
 31
0.0
  0
LINE
  5
BD
330
1F
100
AcDbEntity
  8
0
 62
     7
370
    35
100
AcDbLine
 10
480.83075
 20
174.950058
 30
0.0
 11
480.393127
 21
176.638138
 31
0.0
  0
LINE
  5
BE
330
1F
100
AcDbEntity
  8
0
 62
     7
370
    35
100
AcDbLine
 10
480.229919
 20
176.632309
 30
0.0
 11
479.793762
 21
174.950089
 31
0.0
  0
LINE
  5
BF
330
1F
100
AcDbEntity
  8
0
 62
     7
370
    35
100
AcDbLine
 10
479.793762
 20
174.950089
 30
0.0
 11
480.312256
 21
172.950089
 31
0.0
  0
LINE
  5
C0
330
1F
100
AcDbEntity
  8
0
 62
     7
370
    35
100
AcDbLine
 10
479.365601
 20
169.298691
 30
0.0
 11
479.793762
 21
170.950089
 31
0.0
  0
LINE
  5
C1
330
1F
100
AcDbEntity
  8
0
 62
     7
370
    35
100
AcDbLine
 10
479.793701
 20
170.950089
 30
0.0
 11
479.275208
 21
172.950089
 31
0.0
  0
LINE
  5
C2
330
1F
100
AcDbEntity
  8
0
 62
     7
370
    35
100
AcDbLine
 10
479.275269
 20
172.950089
 30
0.0
 11
478.756714
 21
170.950089
 31
0.0
  0
LINE
  5
C3
330
1F
100
AcDbEntity
  8
0
 62
     7
370
    35
100
AcDbLine
 10
478.756775
 20
170.950089
 30
0.0
 11
479.183167
 21
169.305222
 31
0.0
  0
LINE
  5
C4
330
1F
100
AcDbEntity
  8
0
 62
     7
370
    35
100
AcDbLine
 10
478.23822
 20
172.950058
 30
0.0
 11
478.756714
 21
174.950058
 31
0.0
  0
LINE
  5
C5
330
1F
100
AcDbEntity
  8
0
 62
     7
370
    35
100
AcDbLine
 10
478.756775
 20
174.950089
 30
0.0
 11
478.338135
 21
176.564774
 31
0.0
  0
LINE
  5
C6
330
1F
100
AcDbEntity
  8
0
 62
     7
370
    35
100
AcDbLine
 10
478.136414
 20
176.557541
 30
0.0
 11
477.719666
 21
174.950058
 31
0.0
  0
LINE
  5
C7
330
1F
100
AcDbEntity
  8
0
 62
     7
370
    35
100
AcDbLine
 10
477.719666
 20
174.950089
 30
0.0
 11
478.23822
 21
172.950089
 31
0.0
  0
LINE
  5
C8
330
1F
100
AcDbEntity
  8
0
 62
     7
370
    35
100
AcDbLine
 10
477.310608
 20
169.372086
 30
0.0
 11
477.719666
 21
170.950058
 31
0.0
  0
LINE
  5
C9
330
1F
100
AcDbEntity
  8
0
 62
     7
370
    35
100
AcDbLine
 10
477.719727
 20
170.950089
 30
0.0
 11
477.201172
 21
172.950089
 31
0.0
  0
LINE
  5
CA
330
1F
100
AcDbEntity
  8
0
 62
     7
370
    35
100
AcDbLine
 10
477.201111
 20
172.950089
 30
0.0
 11
476.682678
 21
170.950089
 31
0.0
  0
LINE
  5
CB
330
1F
100
AcDbEntity
  8
0
 62
     7
370
    35
100
AcDbLine
 10
476.682617
 20
170.950089
 30
0.0
 11
477.089661
 21
169.37999
 31
0.0
  0
LINE
  5
CC
330
1F
100
AcDbEntity
  8
0
 62
     7
370
    35
100
AcDbLine
 10
476.164185
 20
172.950058
 30
0.0
 11
476.682678
 21
174.950058
 31
0.0
  0
LINE
  5
CD
330
1F
100
AcDbEntity
  8
0
 62
     7
370
    35
100
AcDbLine
 10
476.682678
 20
174.950089
 30
0.0
 11
476.283081
 21
176.491379
 31
0.0
  0
LINE
  5
CE
330
1F
100
AcDbEntity
  8
0
 62
     7
370
    35
100
AcDbLine
 10
476.04303
 20
176.482773
 30
0.0
 11
475.64563
 21
174.950058
 31
0.0
  0
LINE
  5
CF
330
1F
100
AcDbEntity
  8
0
 62
     7
370
    35
100
AcDbLine
 10
475.645691
 20
174.950089
 30
0.0
 11
476.164185
 21
172.950089
 31
0.0
  0
LINE
  5
D0
330
1F
100
AcDbEntity
  8
0
 62
     7
370
    35
100
AcDbLine
 10
498.427063
 20
169.700058
 30
0.0
 11
498.427063
 21
176.200058
 31
0.0
  0
LINE
  5
D1
330
1F
100
AcDbEntity
  8
0
 62
     7
370
    35
100
AcDbLine
 10
499.927063
 20
169.700058
 30
0.0
 11
499.927063
 21
176.200058
 31
0.0
  0
LINE
  5
D2
330
1F
100
AcDbEntity
  8
0
 62
     7
370
    35
100
AcDbLine
 10
500.427063
 20
169.700058
 30
0.0
 11
500.427063
 21
176.200058
 31
0.0
  0
LINE
  5
D3
330
1F
100
AcDbEntity
  8
0
 62
     7
370
    35
100
AcDbLine
 10
501.927063
 20
169.700058
 30
0.0
 11
501.927063
 21
176.200058
 31
0.0
  0
LINE
  5
D4
330
1F
100
AcDbEntity
  8
0
 62
     7
370
    35
100
AcDbLine
 10
502.427063
 20
169.700058
 30
0.0
 11
502.427063
 21
176.200058
 31
0.0
  0
LINE
  5
D5
330
1F
100
AcDbEntity
  8
0
 62
     7
370
    35
100
AcDbLine
 10
497.927063
 20
169.700058
 30
0.0
 11
497.927063
 21
176.200058
 31
0.0
  0
LINE
  5
D6
330
1F
100
AcDbEntity
  8
0
 62
     7
370
    35
100
AcDbLine
 10
502.427063
 20
169.700058
 30
0.0
 11
501.927063
 21
169.700058
 31
0.0
  0
LINE
  5
D7
330
1F
100
AcDbEntity
  8
0
 62
     7
370
    35
100
AcDbLine
 10
502.427063
 20
176.200058
 30
0.0
 11
501.927063
 21
176.200058
 31
0.0
  0
LINE
  5
D8
330
1F
100
AcDbEntity
  8
0
 62
     7
370
    35
100
AcDbLine
 10
500.427063
 20
169.700058
 30
0.0
 11
499.927063
 21
169.700058
 31
0.0
  0
LINE
  5
D9
330
1F
100
AcDbEntity
  8
0
 62
     7
370
    35
100
AcDbLine
 10
500.427063
 20
176.200058
 30
0.0
 11
499.927063
 21
176.200058
 31
0.0
  0
LINE
  5
DA
330
1F
100
AcDbEntity
  8
0
 62
     7
370
    35
100
AcDbLine
 10
498.427063
 20
169.700058
 30
0.0
 11
497.927063
 21
169.700058
 31
0.0
  0
LINE
  5
DB
330
1F
100
AcDbEntity
  8
0
 62
     7
370
    35
100
AcDbLine
 10
498.427063
 20
176.200058
 30
0.0
 11
497.927063
 21
176.200058
 31
0.0
  0
LINE
  5
DC
330
1F
100
AcDbEntity
  8
0
 62
     7
370
    35
100
AcDbLine
 10
509.427124
 20
172.950089
 30
0.0
 11
506.927124
 21
175.200089
 31
0.0
  0
LINE
  5
DD
330
1F
100
AcDbEntity
  8
0
 62
     7
370
    35
100
AcDbLine
 10
504.927063
 20
171.950058
 30
0.0
 11
504.927063
 21
173.950058
 31
0.0
  0
LINE
  5
DE
330
1F
100
AcDbEntity
  8
0
 62
     7
370
    35
100
AcDbLine
 10
506.927185
 20
170.699997
 30
0.0
 11
509.427185
 21
172.949997
 31
0.0
  0
LINE
  5
DF
330
1F
100
AcDbEntity
  8
0
 62
     7
370
    35
100
AcDbLine
 10
506.927063
 20
173.950058
 30
0.0
 11
506.927063
 21
175.200058
 31
0.0
  0
LINE
  5
E0
330
1F
100
AcDbEntity
  8
0
 62
     7
370
    35
100
AcDbLine
 10
506.927063
 20
171.950058
 30
0.0
 11
504.927063
 21
171.950058
 31
0.0
  0
LINE
  5
E1
330
1F
100
AcDbEntity
  8
0
 62
     7
370
    35
100
AcDbLine
 10
506.927063
 20
173.950058
 30
0.0
 11
504.927063
 21
173.950058
 31
0.0
  0
LINE
  5
E2
330
1F
100
AcDbEntity
  8
0
 62
     7
370
    35
100
AcDbLine
 10
506.927063
 20
170.700058
 30
0.0
 11
506.927063
 21
171.950058
 31
0.0
  0
LINE
  5
E3
330
1F
100
AcDbEntity
  8
0
 62
     7
370
    35
100
AcDbLine
 10
289.682922
 20
176.615952
 30
0.0
 11
289.182922
 21
176.600204
 31
0.0
  0
LINE
  5
E4
330
1F
100
AcDbEntity
  8
0
 62
     7
370
    35
100
AcDbLine
 10
288.182922
 20
176.56871
 30
0.0
 11
287.682922
 21
176.552963
 31
0.0
  0
LINE
  5
E5
330
1F
100
AcDbEntity
  8
0
 62
     7
370
    35
100
AcDbLine
 10
286.682922
 20
176.521469
 30
0.0
 11
286.182922
 21
176.505692
 31
0.0
  0
LINE
  5
E6
330
1F
100
AcDbEntity
  8
0
 62
     7
370
    35
100
AcDbLine
 10
285.182922
 20
176.474197
 30
0.0
 11
284.682922
 21
176.45845
 31
0.0
  0
LINE
  5
E7
330
1F
100
AcDbEntity
  8
0
 62
     7
370
    35
100
AcDbLine
 10
289.682922
 20
169.284164
 30
0.0
 11
289.182922
 21
169.299911
 31
0.0
  0
LINE
  5
E8
330
1F
100
AcDbEntity
  8
0
 62
     7
370
    35
100
AcDbLine
 10
288.182922
 20
169.331406
 30
0.0
 11
287.682922
 21
169.347153
 31
0.0
  0
LINE
  5
E9
330
1F
100
AcDbEntity
  8
0
 62
     7
370
    35
100
AcDbLine
 10
286.682922
 20
169.378647
 30
0.0
 11
286.182922
 21
169.394394
 31
0.0
  0
LINE
  5
EA
330
1F
100
AcDbEntity
  8
0
 62
     7
370
    35
100
AcDbLine
 10
285.182922
 20
169.425888
 30
0.0
 11
284.682922
 21
169.441635
 31
0.0
  0
LINE
  5
EB
330
1F
100
AcDbEntity
  8
0
 62
     7
370
    35
100
AcDbLine
 10
284.682922
 20
176.958725
 30
0.0
 11
281.23291
 21
176.850052
 31
0.0
  0
LINE
  5
EC
330
1F
100
AcDbEntity
  8
0
 62
     7
370
    35
100
AcDbLine
 10
286.182922
 20
177.005966
 30
0.0
 11
285.182922
 21
176.974472
 31
0.0
  0
LINE
  5
ED
330
1F
100
AcDbEntity
  8
0
 62
     7
370
    35
100
AcDbLine
 10
287.682922
 20
177.053207
 30
0.0
 11
286.682922
 21
177.021713
 31
0.0
  0
LINE
  5
EE
330
1F
100
AcDbEntity
  8
0
 62
     7
370
    35
100
AcDbLine
 10
289.182922
 20
177.100449
 30
0.0
 11
288.182922
 21
177.068954
 31
0.0
  0
LINE
  5
EF
330
1F
100
AcDbEntity
  8
0
 62
     7
370
    35
100
AcDbLine
 10
290.682922
 20
177.14769
 30
0.0
 11
289.682922
 21
177.116196
 31
0.0
  0
LINE
  5
F0
330
1F
100
AcDbEntity
  8
0
 62
     7
370
    35
100
AcDbLine
 10
290.682922
 20
168.752396
 30
0.0
 11
289.682922
 21
168.78392
 31
0.0
  0
LINE
  5
F1
330
1F
100
AcDbEntity
  8
0
 62
     7
370
    35
100
AcDbLine
 10
289.182922
 20
168.799667
 30
0.0
 11
288.182922
 21
168.831161
 31
0.0
  0
LINE
  5
F2
330
1F
100
AcDbEntity
  8
0
 62
     7
370
    35
100
AcDbLine
 10
287.682922
 20
168.846909
 30
0.0
 11
286.682922
 21
168.878403
 31
0.0
  0
LINE
  5
F3
330
1F
100
AcDbEntity
  8
0
 62
     7
370
    35
100
AcDbLine
 10
286.182922
 20
168.89415
 30
0.0
 11
285.182922
 21
168.925644
 31
0.0
  0
LINE
  5
F4
330
1F
100
AcDbEntity
  8
0
 62
     7
370
    35
100
AcDbLine
 10
284.682922
 20
168.941391
 30
0.0
 11
281.23291
 21
169.050034
 31
0.0
  0
LINE
  5
F5
330
1F
100
AcDbEntity
  8
0
 62
     7
370
    35
100
AcDbLine
 10
285.182922
 20
176.974472
 30
0.0
 11
285.182922
 21
168.925644
 31
0.0
  0
LINE
  5
F6
330
1F
100
AcDbEntity
  8
0
 62
     7
370
    35
100
AcDbLine
 10
284.682922
 20
176.958725
 30
0.0
 11
284.682922
 21
168.941391
 31
0.0
  0
LINE
  5
F7
330
1F
100
AcDbEntity
  8
0
 62
     7
370
    35
100
AcDbLine
 10
286.182922
 20
177.005966
 30
0.0
 11
286.182922
 21
168.89415
 31
0.0
  0
LINE
  5
F8
330
1F
100
AcDbEntity
  8
0
 62
     7
370
    35
100
AcDbLine
 10
286.682922
 20
177.021713
 30
0.0
 11
286.682922
 21
168.878403
 31
0.0
  0
LINE
  5
F9
330
1F
100
AcDbEntity
  8
0
 62
     7
370
    35
100
AcDbLine
 10
288.182922
 20
177.068954
 30
0.0
 11
288.182922
 21
168.831161
 31
0.0
  0
LINE
  5
FA
330
1F
100
AcDbEntity
  8
0
 62
     7
370
    35
100
AcDbLine
 10
287.682922
 20
177.053207
 30
0.0
 11
287.682922
 21
168.846909
 31
0.0
  0
LINE
  5
FB
330
1F
100
AcDbEntity
  8
0
 62
     7
370
    35
100
AcDbLine
 10
289.182922
 20
177.100449
 30
0.0
 11
289.182922
 21
168.799667
 31
0.0
  0
LINE
  5
FC
330
1F
100
AcDbEntity
  8
0
 62
     7
370
    35
100
AcDbLine
 10
292.332947
 20
177.199661
 30
0.0
 11
291.182922
 21
177.163437
 31
0.0
  0
LINE
  5
FD
330
1F
100
AcDbEntity
  8
0
 62
     7
370
    35
100
AcDbLine
 10
291.182922
 20
177.163437
 30
0.0
 11
291.182922
 21
168.736649
 31
0.0
  0
LINE
  5
FE
330
1F
100
AcDbEntity
  8
0
 62
     7
370
    35
100
AcDbLine
 10
292.332947
 20
168.700455
 30
0.0
 11
291.182922
 21
168.736649
 31
0.0
  0
LINE
  5
FF
330
1F
100
AcDbEntity
  8
0
 62
     7
370
    35
100
AcDbLine
 10
290.682922
 20
177.14769
 30
0.0
 11
290.682922
 21
168.752396
 31
0.0
  0
LINE
  5
100
330
1F
100
AcDbEntity
  8
0
 62
     7
370
    35
100
AcDbLine
 10
289.682922
 20
177.116196
 30
0.0
 11
289.682922
 21
168.78392
 31
0.0
  0
LINE
  5
101
330
1F
100
AcDbEntity
  8
0
 62
     7
370
    35
100
AcDbLine
 10
400.482971
 20
169.425888
 30
0.0
 11
400.982971
 21
169.441635
 31
0.0
  0
LINE
  5
102
330
1F
100
AcDbEntity
  8
0
 62
     7
370
    35
100
AcDbLine
 10
291.182922
 20
176.663193
 30
0.0
 11
290.682922
 21
176.647446
 31
0.0
  0
LINE
  5
103
330
1F
100
AcDbEntity
  8
0
 62
     7
370
    35
100
AcDbLine
 10
398.982971
 20
169.378647
 30
0.0
 11
399.482971
 21
169.394394
 31
0.0
  0
LINE
  5
104
330
1F
100
AcDbEntity
  8
0
 62
     7
370
    35
100
AcDbLine
 10
397.482971
 20
169.331406
 30
0.0
 11
397.982971
 21
169.347153
 31
0.0
  0
LINE
  5
105
330
1F
100
AcDbEntity
  8
0
 62
     7
370
    35
100
AcDbLine
 10
395.982971
 20
169.284164
 30
0.0
 11
396.482971
 21
169.299911
 31
0.0
  0
LINE
  5
106
330
1F
100
AcDbEntity
  8
0
 62
     7
370
    35
100
AcDbLine
 10
459.47467
 20
347.571655
 30
0.0
 11
460.47467
 21
347.532227
 31
0.0
  0
LINE
  5
107
330
1F
100
AcDbEntity
  8
0
 62
     7
370
    35
100
AcDbLine
 10
460.97467
 20
347.512451
 30
0.0
 11
461.97467
 21
347.473022
 31
0.0
  0
LINE
  5
108
330
1F
100
AcDbEntity
  8
0
 62
     7
370
    35
100
AcDbLine
 10
462.47467
 20
347.453247
 30
0.0
 11
463.47467
 21
347.413757
 31
0.0
  0
LINE
  5
109
330
1F
100
AcDbEntity
  8
0
 62
     7
370
    35
100
AcDbLine
 10
463.97467
 20
347.394043
 30
0.0
 11
464.97467
 21
347.354553
 31
0.0
  0
LINE
  5
10A
330
1F
100
AcDbEntity
  8
0
 62
     7
370
    35
100
AcDbLine
 10
465.47467
 20
347.334839
 30
0.0
 11
466.47467
 21
347.295349
 31
0.0
  0
LINE
  5
10B
330
1F
100
AcDbEntity
  8
0
 62
     7
370
    35
100
AcDbLine
 10
466.97467
 20
347.275635
 30
0.0
 11
469.47467
 21
347.176941
 31
0.0
  0
LINE
  5
10C
330
1F
100
AcDbEntity
  8
0
 62
     7
370
    35
100
AcDbLine
 10
469.97467
 20
347.157227
 30
0.0
 11
470.97467
 21
347.117737
 31
0.0
  0
LINE
  5
10D
330
1F
100
AcDbEntity
  8
0
 62
     7
370
    35
100
AcDbLine
 10
471.47467
 20
347.098022
 30
0.0
 11
475.22467
 21
346.949951
 31
0.0
  0
LINE
  5
10E
330
1F
100
AcDbEntity
  8
0
 62
     7
370
    35
100
AcDbLine
 10
471.47467
 20
338.801941
 30
0.0
 11
475.22467
 21
338.949951
 31
0.0
  0
LINE
  5
10F
330
1F
100
AcDbEntity
  8
0
 62
     7
370
    35
100
AcDbLine
 10
469.97467
 20
338.742737
 30
0.0
 11
470.97467
 21
338.782227
 31
0.0
  0
LINE
  5
110
330
1F
100
AcDbEntity
  8
0
 62
     7
370
    35
100
AcDbLine
 10
466.97467
 20
338.624329
 30
0.0
 11
469.47467
 21
338.723022
 31
0.0
  0
LINE
  5
111
330
1F
100
AcDbEntity
  8
0
 62
     7
370
    35
100
AcDbLine
 10
465.47467
 20
338.565125
 30
0.0
 11
466.47467
 21
338.604553
 31
0.0
  0
LINE
  5
112
330
1F
100
AcDbEntity
  8
0
 62
     7
370
    35
100
AcDbLine
 10
463.97467
 20
338.50592
 30
0.0
 11
464.97467
 21
338.545349
 31
0.0
  0
LINE
  5
113
330
1F
100
AcDbEntity
  8
0
 62
     7
370
    35
100
AcDbLine
 10
462.47467
 20
338.446655
 30
0.0
 11
463.47467
 21
338.486145
 31
0.0
  0
LINE
  5
114
330
1F
100
AcDbEntity
  8
0
 62
     7
370
    35
100
AcDbLine
 10
460.97467
 20
338.387451
 30
0.0
 11
461.97467
 21
338.426941
 31
0.0
  0
LINE
  5
115
330
1F
100
AcDbEntity
  8
0
 62
     7
370
    35
100
AcDbLine
 10
459.47467
 20
338.328247
 30
0.0
 11
460.47467
 21
338.367737
 31
0.0
  0
LINE
  5
116
330
1F
100
AcDbEntity
  8
0
 62
     7
370
    35
100
AcDbLine
 10
460.47467
 20
347.031799
 30
0.0
 11
460.97467
 21
347.012085
 31
0.0
  0
LINE
  5
117
330
1F
100
AcDbEntity
  8
0
 62
     7
370
    35
100
AcDbLine
 10
461.97467
 20
346.972595
 30
0.0
 11
462.47467
 21
346.952881
 31
0.0
  0
LINE
  5
118
330
1F
100
AcDbEntity
  8
0
 62
     7
370
    35
100
AcDbLine
 10
463.47467
 20
346.913391
 30
0.0
 11
463.97467
 21
346.893677
 31
0.0
  0
LINE
  5
119
330
1F
100
AcDbEntity
  8
0
 62
     7
370
    35
100
AcDbLine
 10
464.97467
 20
346.854187
 30
0.0
 11
465.47467
 21
346.834473
 31
0.0
  0
LINE
  5
11A
330
1F
100
AcDbEntity
  8
0
 62
     7
370
    35
100
AcDbLine
 10
466.47467
 20
346.794983
 30
0.0
 11
466.97467
 21
346.775269
 31
0.0
  0
LINE
  5
11B
330
1F
100
AcDbEntity
  8
0
 62
     7
370
    35
100
AcDbLine
 10
469.47467
 20
346.676575
 30
0.0
 11
469.97467
 21
346.656799
 31
0.0
  0
LINE
  5
11C
330
1F
100
AcDbEntity
  8
0
 62
     7
370
    35
100
AcDbLine
 10
470.97467
 20
346.617371
 30
0.0
 11
471.47467
 21
346.597595
 31
0.0
  0
LINE
  5
11D
330
1F
100
AcDbEntity
  8
0
 62
     7
370
    35
100
AcDbLine
 10
470.97467
 20
339.282593
 30
0.0
 11
471.47467
 21
339.302307
 31
0.0
  0
LINE
  5
11E
330
1F
100
AcDbEntity
  8
0
 62
     7
370
    35
100
AcDbLine
 10
469.47467
 20
339.223389
 30
0.0
 11
469.97467
 21
339.243103
 31
0.0
  0
LINE
  5
11F
330
1F
100
AcDbEntity
  8
0
 62
     7
370
    35
100
AcDbLine
 10
466.47467
 20
339.10498
 30
0.0
 11
466.97467
 21
339.124695
 31
0.0
  0
LINE
  5
120
330
1F
100
AcDbEntity
  8
0
 62
     7
370
    35
100
AcDbLine
 10
464.97467
 20
339.045776
 30
0.0
 11
465.47467
 21
339.065491
 31
0.0
  0
LINE
  5
121
330
1F
100
AcDbEntity
  8
0
 62
     7
370
    35
100
AcDbLine
 10
463.47467
 20
338.986572
 30
0.0
 11
463.97467
 21
339.006287
 31
0.0
  0
LINE
  5
122
330
1F
100
AcDbEntity
  8
0
 62
     7
370
    35
100
AcDbLine
 10
461.97467
 20
338.927307
 30
0.0
 11
462.47467
 21
338.947083
 31
0.0
  0
LINE
  5
123
330
1F
100
AcDbEntity
  8
0
 62
     7
370
    35
100
AcDbLine
 10
460.47467
 20
338.868103
 30
0.0
 11
460.97467
 21
338.887878
 31
0.0
  0
LINE
  5
124
330
1F
100
AcDbEntity
  8
0
 62
     7
370
    35
100
AcDbLine
 10
471.47467
 20
346.597595
 30
0.0
 11
471.47467
 21
338.801941
 31
0.0
  0
LINE
  5
125
330
1F
100
AcDbEntity
  8
0
 62
     7
370
    35
100
AcDbLine
 10
470.97467
 20
346.617371
 30
0.0
 11
470.97467
 21
338.782227
 31
0.0
  0
LINE
  5
126
330
1F
100
AcDbEntity
  8
0
 62
     7
370
    35
100
AcDbLine
 10
469.97467
 20
346.656799
 30
0.0
 11
469.97467
 21
338.742737
 31
0.0
  0
LINE
  5
127
330
1F
100
AcDbEntity
  8
0
 62
     7
370
    35
100
AcDbLine
 10
469.47467
 20
346.676575
 30
0.0
 11
469.47467
 21
338.723022
 31
0.0
  0
LINE
  5
128
330
1F
100
AcDbEntity
  8
0
 62
     7
370
    35
100
AcDbLine
 10
466.97467
 20
346.775269
 30
0.0
 11
466.97467
 21
338.624329
 31
0.0
  0
LINE
  5
129
330
1F
100
AcDbEntity
  8
0
 62
     7
370
    35
100
AcDbLine
 10
466.47467
 20
346.794983
 30
0.0
 11
466.47467
 21
338.604553
 31
0.0
  0
LINE
  5
12A
330
1F
100
AcDbEntity
  8
0
 62
     7
370
    35
100
AcDbLine
 10
465.47467
 20
346.834473
 30
0.0
 11
465.47467
 21
338.565125
 31
0.0
  0
LINE
  5
12B
330
1F
100
AcDbEntity
  8
0
 62
     7
370
    35
100
AcDbLine
 10
464.97467
 20
346.854187
 30
0.0
 11
464.97467
 21
338.545349
 31
0.0
  0
LINE
  5
12C
330
1F
100
AcDbEntity
  8
0
 62
     7
370
    35
100
AcDbLine
 10
463.97467
 20
346.893677
 30
0.0
 11
463.97467
 21
338.50592
 31
0.0
  0
LINE
  5
12D
330
1F
100
AcDbEntity
  8
0
 62
     7
370
    35
100
AcDbLine
 10
463.47467
 20
346.913391
 30
0.0
 11
463.47467
 21
338.486145
 31
0.0
  0
LINE
  5
12E
330
1F
100
AcDbEntity
  8
0
 62
     7
370
    35
100
AcDbLine
 10
462.47467
 20
346.952881
 30
0.0
 11
462.47467
 21
338.446655
 31
0.0
  0
LINE
  5
12F
330
1F
100
AcDbEntity
  8
0
 62
     7
370
    35
100
AcDbLine
 10
461.97467
 20
346.972595
 30
0.0
 11
461.97467
 21
338.426941
 31
0.0
  0
LINE
  5
130
330
1F
100
AcDbEntity
  8
0
 62
     7
370
    35
100
AcDbLine
 10
460.97467
 20
347.012085
 30
0.0
 11
460.97467
 21
338.387451
 31
0.0
  0
LINE
  5
131
330
1F
100
AcDbEntity
  8
0
 62
     7
370
    35
100
AcDbLine
 10
460.47467
 20
347.031799
 30
0.0
 11
460.47467
 21
338.367737
 31
0.0
  0
LINE
  5
132
330
1F
100
AcDbEntity
  8
0
 62
     7
370
    35
100
AcDbLine
 10
459.47467
 20
347.071289
 30
0.0
 11
459.47467
 21
338.328247
 31
0.0
  0
LINE
  5
133
330
1F
100
AcDbEntity
  8
0
 62
     7
370
    35
100
AcDbLine
 10
458.97467
 20
347.091003
 30
0.0
 11
458.97467
 21
338.308533
 31
0.0
  0
LINE
  5
134
330
1F
100
AcDbEntity
  8
0
 62
     7
370
    35
100
AcDbLine
 10
470.97467
 20
347.117737
 30
0.0
 11
470.97467
 21
346.617371
 31
0.0
  0
LINE
  5
135
330
1F
100
AcDbEntity
  8
0
 62
     7
370
    35
100
AcDbLine
 10
471.47467
 20
347.098022
 30
0.0
 11
471.47467
 21
346.597595
 31
0.0
  0
LINE
  5
136
330
1F
100
AcDbEntity
  8
0
 62
     7
370
    35
100
AcDbLine
 10
469.97467
 20
347.157227
 30
0.0
 11
469.97467
 21
346.656799
 31
0.0
  0
LINE
  5
137
330
1F
100
AcDbEntity
  8
0
 62
     7
370
    35
100
AcDbLine
 10
469.47467
 20
347.176941
 30
0.0
 11
469.47467
 21
346.676575
 31
0.0
  0
LINE
  5
138
330
1F
100
AcDbEntity
  8
0
 62
     7
370
    35
100
AcDbLine
 10
466.47467
 20
347.295349
 30
0.0
 11
466.47467
 21
346.794983
 31
0.0
  0
LINE
  5
139
330
1F
100
AcDbEntity
  8
0
 62
     7
370
    35
100
AcDbLine
 10
466.97467
 20
347.275635
 30
0.0
 11
466.97467
 21
346.775269
 31
0.0
  0
LINE
  5
13A
330
1F
100
AcDbEntity
  8
0
 62
     7
370
    35
100
AcDbLine
 10
465.47467
 20
347.334839
 30
0.0
 11
465.47467
 21
346.834473
 31
0.0
  0
LINE
  5
13B
330
1F
100
AcDbEntity
  8
0
 62
     7
370
    35
100
AcDbLine
 10
464.97467
 20
347.354553
 30
0.0
 11
464.97467
 21
346.854187
 31
0.0
  0
LINE
  5
13C
330
1F
100
AcDbEntity
  8
0
 62
     7
370
    35
100
AcDbLine
 10
463.47467
 20
347.413757
 30
0.0
 11
463.47467
 21
346.913391
 31
0.0
  0
LINE
  5
13D
330
1F
100
AcDbEntity
  8
0
 62
     7
370
    35
100
AcDbLine
 10
463.97467
 20
347.394043
 30
0.0
 11
463.97467
 21
346.893677
 31
0.0
  0
LINE
  5
13E
330
1F
100
AcDbEntity
  8
0
 62
     7
370
    35
100
AcDbLine
 10
459.47467
 20
347.571655
 30
0.0
 11
459.47467
 21
347.071289
 31
0.0
  0
LINE
  5
13F
330
1F
100
AcDbEntity
  8
0
 62
     7
370
    35
100
AcDbLine
 10
462.47467
 20
347.453247
 30
0.0
 11
462.47467
 21
346.952881
 31
0.0
  0
LINE
  5
140
330
1F
100
AcDbEntity
  8
0
 62
     7
370
    35
100
AcDbLine
 10
461.97467
 20
347.473022
 30
0.0
 11
461.97467
 21
346.972595
 31
0.0
  0
LINE
  5
141
330
1F
100
AcDbEntity
  8
0
 62
     7
370
    35
100
AcDbLine
 10
460.47467
 20
347.532227
 30
0.0
 11
460.47467
 21
347.031799
 31
0.0
  0
LINE
  5
142
330
1F
100
AcDbEntity
  8
0
 62
     7
370
    35
100
AcDbLine
 10
460.97467
 20
347.512451
 30
0.0
 11
460.97467
 21
347.012085
 31
0.0
  0
LINE
  5
143
330
1F
100
AcDbEntity
  8
0
 62
     7
370
    35
100
AcDbLine
 10
458.97467
 20
347.591431
 30
0.0
 11
458.97467
 21
347.091003
 31
0.0
  0
LINE
  5
144
330
1F
100
AcDbEntity
  8
0
 62
     7
370
    35
100
AcDbLine
 10
458.97467
 20
347.091003
 30
0.0
 11
459.47467
 21
347.071289
 31
0.0
  0
LINE
  5
145
330
1F
100
AcDbEntity
  8
0
 62
     7
370
    35
100
AcDbLine
 10
400.482971
 20
176.474197
 30
0.0
 11
400.982971
 21
176.45845
 31
0.0
  0
LINE
  5
146
330
1F
100
AcDbEntity
  8
0
 62
     7
370
    35
100
AcDbLine
 10
392.527954
 20
186.15004
 30
0.0
 11
393.332947
 21
186.15004
 31
0.0
  0
LINE
  5
147
330
1F
100
AcDbEntity
  8
0
 62
     7
370
    35
100
AcDbLine
 10
392.532959
 20
186.145035
 30
0.0
 11
393.332947
 21
186.145035
 31
0.0
  0
LINE
  5
148
330
1F
100
AcDbEntity
  8
0
 62
     7
370
    35
100
AcDbLine
 10
398.982971
 20
176.521469
 30
0.0
 11
399.482971
 21
176.505692
 31
0.0
  0
LINE
  5
149
330
1F
100
AcDbEntity
  8
0
 62
     7
370
    35
100
AcDbLine
 10
397.482971
 20
176.56871
 30
0.0
 11
397.982971
 21
176.552963
 31
0.0
  0
LINE
  5
14A
330
1F
100
AcDbEntity
  8
0
 62
     7
370
    35
100
AcDbLine
 10
291.182922
 20
169.236923
 30
0.0
 11
290.682922
 21
169.25267
 31
0.0
  0
LINE
  5
14B
330
1F
100
AcDbEntity
  8
0
 62
     7
370
    35
100
AcDbLine
 10
395.982971
 20
176.615952
 30
0.0
 11
396.482971
 21
176.600204
 31
0.0
  0
LINE
  5
14C
330
1F
100
AcDbEntity
  8
0
 62
     7
370
    35
100
AcDbLine
 10
293.137939
 20
186.950058
 30
0.0
 11
392.527954
 21
186.950058
 31
0.0
  0
LINE
  5
14D
330
1F
100
AcDbEntity
  8
0
 62
     7
370
    35
100
AcDbLine
 10
458.97467
 20
338.808899
 30
0.0
 11
459.47467
 21
338.828674
 31
0.0
  0
LINE
  5
14E
330
1F
100
AcDbEntity
  8
0
 62
     7
370
    35
100
AcDbLine
 10
392.527954
 20
186.950058
 30
0.0
 11
393.332947
 21
186.950058
 31
0.0
  0
LINE
  5
14F
330
1F
100
AcDbEntity
  8
0
 62
     7
370
    35
100
AcDbLine
 10
292.332947
 20
186.950058
 30
0.0
 11
293.137939
 21
186.950058
 31
0.0
  0
LINE
  5
150
330
1F
100
AcDbEntity
  8
0
 62
     7
370
    35
100
AcDbLine
 10
392.527954
 20
186.145035
 30
0.0
 11
392.532959
 21
186.145035
 31
0.0
  0
LINE
  5
151
330
1F
100
AcDbEntity
  8
0
 62
     7
370
    35
100
AcDbLine
 10
281.23291
 20
176.850052
 30
0.0
 11
281.23291
 21
169.050034
 31
0.0
  0
LINE
  5
152
330
1F
100
AcDbEntity
  8
0
 62
     7
370
    35
100
AcDbLine
 10
292.332947
 20
186.15004
 30
0.0
 11
293.137939
 21
186.15004
 31
0.0
  0
LINE
  5
153
330
1F
100
AcDbEntity
  8
0
 62
     7
370
    35
100
AcDbLine
 10
392.527954
 20
186.145035
 30
0.0
 11
392.527954
 21
186.950058
 31
0.0
  0
LINE
  5
154
330
1F
100
AcDbEntity
  8
0
 62
     7
370
    35
100
AcDbLine
 10
292.332947
 20
186.15004
 30
0.0
 11
292.332947
 21
186.950058
 31
0.0
  0
LINE
  5
155
330
1F
100
AcDbEntity
  8
0
 62
     7
370
    35
100
AcDbLine
 10
393.332947
 20
186.15004
 30
0.0
 11
393.332947
 21
186.950058
 31
0.0
  0
LINE
  5
156
330
1F
100
AcDbEntity
  8
0
 62
     7
370
    35
100
AcDbLine
 10
292.332947
 20
158.950058
 30
0.0
 11
393.332947
 21
158.950058
 31
0.0
  0
LINE
  5
157
330
1F
100
AcDbEntity
  8
0
 62
     7
370
    35
100
AcDbLine
 10
285.332947
 20
186.145035
 30
0.0
 11
292.332947
 21
186.145035
 31
0.0
  0
LINE
  5
158
330
1F
100
AcDbEntity
  8
0
 62
     7
370
    35
100
AcDbLine
 10
392.527954
 20
159.750046
 30
0.0
 11
393.332947
 21
159.750046
 31
0.0
  0
LINE
  5
159
330
1F
100
AcDbEntity
  8
0
 62
     7
370
    35
100
AcDbLine
 10
292.332947
 20
186.145035
 30
0.0
 11
292.332947
 21
177.250046
 31
0.0
  0
LINE
  5
15A
330
1F
100
AcDbEntity
  8
0
 62
     7
370
    35
100
AcDbLine
 10
292.332947
 20
186.145035
 30
0.0
 11
293.132935
 21
186.145035
 31
0.0
  0
LINE
  5
15B
330
1F
100
AcDbEntity
  8
0
 62
     7
370
    35
100
AcDbLine
 10
402.332947
 20
161.755051
 30
0.0
 11
402.332947
 21
166.65004
 31
0.0
  0
LINE
  5
15C
330
1F
100
AcDbEntity
  8
0
 62
     7
370
    35
100
AcDbLine
 10
292.332947
 20
177.250046
 30
0.0
 11
285.332947
 21
177.250046
 31
0.0
  0
LINE
  5
15D
330
1F
100
AcDbEntity
  8
0
 62
     7
370
    35
100
AcDbLine
 10
393.332947
 20
168.65004
 30
0.0
 11
393.332947
 21
159.755051
 31
0.0
  0
LINE
  5
15E
330
1F
100
AcDbEntity
  8
0
 62
     7
370
    35
100
AcDbLine
 10
392.532959
 20
159.755051
 30
0.0
 11
393.332947
 21
159.755051
 31
0.0
  0
LINE
  5
15F
330
1F
100
AcDbEntity
  8
0
 62
     7
370
    35
100
AcDbLine
 10
400.332947
 20
159.755051
 30
0.0
 11
393.332947
 21
159.755051
 31
0.0
  0
LINE
  5
160
330
1F
100
AcDbEntity
  8
0
 62
     7
370
    35
100
AcDbLine
 10
400.332947
 20
168.65004
 30
0.0
 11
393.332947
 21
168.65004
 31
0.0
  0
LINE
  5
161
330
1F
100
AcDbEntity
  8
0
 62
     7
370
    35
100
AcDbLine
 10
283.332947
 20
184.145035
 30
0.0
 11
283.332947
 21
179.250046
 31
0.0
  0
LINE
  5
162
330
1F
100
AcDbEntity
  8
0
 62
     7
370
    35
100
AcDbLine
 10
393.332947
 20
159.755051
 30
0.0
 11
393.332947
 21
177.250046
 31
0.0
  0
LINE
  5
163
330
1F
100
AcDbEntity
  8
0
 62
     7
370
    35
100
AcDbLine
 10
292.332947
 20
168.65004
 30
0.0
 11
292.332947
 21
167.65004
 31
0.0
  0
LINE
  5
164
330
1F
100
AcDbEntity
  8
0
 62
     7
370
    35
100
AcDbLine
 10
292.332947
 20
167.65004
 30
0.0
 11
292.332947
 21
159.755051
 31
0.0
  0
LINE
  5
165
330
1F
100
AcDbEntity
  8
0
 62
     7
370
    35
100
AcDbLine
 10
393.332947
 20
177.250046
 30
0.0
 11
393.332947
 21
178.250046
 31
0.0
  0
LINE
  5
166
330
1F
100
AcDbEntity
  8
0
 62
     7
370
    35
100
AcDbLine
 10
393.332947
 20
178.250046
 30
0.0
 11
393.332947
 21
186.145035
 31
0.0
  0
LINE
  5
167
330
1F
100
AcDbEntity
  8
0
 62
     7
370
    35
100
AcDbLine
 10
392.527954
 20
159.755051
 30
0.0
 11
392.532959
 21
159.755051
 31
0.0
  0
LINE
  5
168
330
1F
100
AcDbEntity
  8
0
 62
     7
370
    35
100
AcDbLine
 10
292.332947
 20
159.750046
 30
0.0
 11
293.137939
 21
159.750046
 31
0.0
  0
LINE
  5
169
330
1F
100
AcDbEntity
  8
0
 62
     7
370
    35
100
AcDbLine
 10
293.132935
 20
159.755051
 30
0.0
 11
292.332947
 21
159.755051
 31
0.0
  0
LINE
  5
16A
330
1F
100
AcDbEntity
  8
0
 62
     7
370
    35
100
AcDbLine
 10
293.132935
 20
159.755051
 30
0.0
 11
293.137939
 21
159.755051
 31
0.0
  0
LINE
  5
16B
330
1F
100
AcDbEntity
  8
0
 62
     7
370
    35
100
AcDbLine
 10
292.332947
 20
186.145035
 30
0.0
 11
292.332947
 21
168.65004
 31
0.0
  0
LINE
  5
16C
330
1F
100
AcDbEntity
  8
0
 62
     7
370
    35
100
AcDbLine
 10
292.332947
 20
158.950058
 30
0.0
 11
292.332947
 21
159.750046
 31
0.0
  0
LINE
  5
16D
330
1F
100
AcDbEntity
  8
0
 62
     7
370
    35
100
AcDbLine
 10
393.332947
 20
158.950058
 30
0.0
 11
393.332947
 21
159.750046
 31
0.0
  0
LINE
  5
16E
330
1F
100
AcDbEntity
  8
0
 62
     7
370
    35
100
AcDbLine
 10
392.527954
 20
158.950058
 30
0.0
 11
392.527954
 21
159.755051
 31
0.0
  0
LINE
  5
16F
330
1F
100
AcDbEntity
  8
0
 62
     7
370
    35
100
AcDbLine
 10
293.132935
 20
186.145035
 30
0.0
 11
293.137939
 21
186.145035
 31
0.0
  0
LINE
  5
170
330
1F
100
AcDbEntity
  8
0
 62
     7
370
    35
100
AcDbLine
 10
293.137939
 20
186.145035
 30
0.0
 11
293.137939
 21
186.950058
 31
0.0
  0
LINE
  5
171
330
1F
100
AcDbEntity
  8
0
 62
     7
370
    35
100
AcDbLine
 10
293.137939
 20
158.950058
 30
0.0
 11
293.137939
 21
159.755051
 31
0.0
  0
LINE
  5
172
330
1F
100
AcDbEntity
  8
0
 62
     7
370
    35
100
AcDbLine
 10
489.127075
 20
68.950073
 30
0.0
 11
489.127075
 21
76.950058
 31
0.0
  0
LINE
  5
173
330
1F
100
AcDbEntity
  8
0
 62
     7
370
    35
100
AcDbLine
 10
524.627075
 20
67.950073
 30
0.0
 11
524.627075
 21
77.950058
 31
0.0
  0
LINE
  5
174
330
1F
100
AcDbEntity
  8
0
 62
     7
370
    35
100
AcDbLine
 10
518.427002
 20
67.050079
 30
0.0
 11
518.427002
 21
78.850082
 31
0.0
  0
LINE
  5
175
330
1F
100
AcDbEntity
  8
0
 62
     7
370
    35
100
AcDbLine
 10
475.127075
 20
69.450073
 30
0.0
 11
475.127075
 21
76.450058
 31
0.0
  0
LINE
  5
176
330
1F
100
AcDbEntity
  8
0
 62
     7
370
    35
100
AcDbLine
 10
494.127075
 20
66.450073
 30
0.0
 11
494.127075
 21
79.450058
 31
0.0
  0
LINE
  5
177
330
1F
100
AcDbEntity
  8
0
 62
     7
370
    35
100
AcDbLine
 10
513.627075
 20
66.450073
 30
0.0
 11
513.627075
 21
79.450058
 31
0.0
  0
LINE
  5
178
330
1F
100
AcDbEntity
  8
0
 62
     7
370
    35
100
AcDbLine
 10
513.627075
 20
66.450073
 30
0.0
 11
494.127075
 21
66.450073
 31
0.0
  0
LINE
  5
179
330
1F
100
AcDbEntity
  8
0
 62
     7
370
    35
100
AcDbLine
 10
513.627075
 20
79.450058
 30
0.0
 11
494.127075
 21
79.450058
 31
0.0
  0
LINE
  5
17A
330
1F
100
AcDbEntity
  8
0
 62
     7
370
    35
100
AcDbLine
 10
518.427002
 20
67.050079
 30
0.0
 11
513.627075
 21
67.050079
 31
0.0
  0
LINE
  5
17B
330
1F
100
AcDbEntity
  8
0
 62
     7
370
    35
100
AcDbLine
 10
518.427002
 20
78.850082
 30
0.0
 11
513.627075
 21
78.850082
 31
0.0
  0
LINE
  5
17C
330
1F
100
AcDbEntity
  8
0
 62
     7
370
    35
100
AcDbLine
 10
524.627075
 20
67.950073
 30
0.0
 11
518.427002
 21
67.950073
 31
0.0
  0
LINE
  5
17D
330
1F
100
AcDbEntity
  8
0
 62
     7
370
    35
100
AcDbLine
 10
524.627075
 20
77.950058
 30
0.0
 11
518.427002
 21
77.950058
 31
0.0
  0
LINE
  5
17E
330
1F
100
AcDbEntity
  8
0
 62
     7
370
    35
100
AcDbLine
 10
475.127136
 20
69.450058
 30
0.0
 11
489.127136
 21
68.950058
 31
0.0
  0
LINE
  5
17F
330
1F
100
AcDbEntity
  8
0
 62
     7
370
    35
100
AcDbLine
 10
494.127136
 20
67.050064
 30
0.0
 11
489.127136
 21
68.950058
 31
0.0
  0
LINE
  5
180
330
1F
100
AcDbEntity
  8
0
 62
     7
370
    35
100
AcDbLine
 10
475.127075
 20
76.450058
 30
0.0
 11
489.127075
 21
76.950058
 31
0.0
  0
LINE
  5
181
330
1F
100
AcDbEntity
  8
0
 62
     7
370
    35
100
AcDbLine
 10
494.127136
 20
78.84996
 30
0.0
 11
489.127136
 21
76.949966
 31
0.0
  0
LINE
  5
182
330
1F
100
AcDbEntity
  8
0
 62
     7
370
    35
100
AcDbLine
 10
488.090088
 20
74.950089
 30
0.0
 11
488.608582
 21
72.950089
 31
0.0
  0
LINE
  5
183
330
1F
100
AcDbEntity
  8
0
 62
     7
370
    35
100
AcDbLine
 10
487.585754
 20
69.005112
 30
0.0
 11
488.090027
 21
70.950058
 31
0.0
  0
LINE
  5
184
330
1F
100
AcDbEntity
  8
0
 62
     7
370
    35
100
AcDbLine
 10
488.090027
 20
70.950089
 30
0.0
 11
487.571533
 21
72.950089
 31
0.0
  0
LINE
  5
185
330
1F
100
AcDbEntity
  8
0
 62
     7
370
    35
100
AcDbLine
 10
487.571472
 20
72.950089
 30
0.0
 11
487.05304
 21
70.950089
 31
0.0
  0
LINE
  5
186
330
1F
100
AcDbEntity
  8
0
 62
     7
370
    35
100
AcDbLine
 10
487.052979
 20
70.950058
 30
0.0
 11
487.556946
 21
69.006149
 31
0.0
  0
LINE
  5
187
330
1F
100
AcDbEntity
  8
0
 62
     7
370
    35
100
AcDbLine
 10
486.534607
 20
72.950058
 30
0.0
 11
487.053101
 21
74.950058
 31
0.0
  0
LINE
  5
188
330
1F
100
AcDbEntity
  8
0
 62
     7
370
    35
100
AcDbLine
 10
487.05304
 20
74.950089
 30
0.0
 11
486.558289
 21
76.858322
 31
0.0
  0
LINE
  5
189
330
1F
100
AcDbEntity
  8
0
 62
     7
370
    35
100
AcDbLine
 10
486.510315
 20
76.856613
 30
0.0
 11
486.015991
 21
74.950058
 31
0.0
  0
LINE
  5
18A
330
1F
100
AcDbEntity
  8
0
 62
     7
370
    35
100
AcDbLine
 10
486.015991
 20
74.950058
 30
0.0
 11
486.534485
 21
72.950089
 31
0.0
  0
LINE
  5
18B
330
1F
100
AcDbEntity
  8
0
 62
     7
370
    35
100
AcDbLine
 10
485.530823
 20
69.078506
 30
0.0
 11
486.016052
 21
70.950058
 31
0.0
  0
LINE
  5
18C
330
1F
100
AcDbEntity
  8
0
 62
     7
370
    35
100
AcDbLine
 10
486.015991
 20
70.950058
 30
0.0
 11
485.497498
 21
72.950089
 31
0.0
  0
LINE
  5
18D
330
1F
100
AcDbEntity
  8
0
 62
     7
370
    35
100
AcDbLine
 10
485.497498
 20
72.950058
 30
0.0
 11
484.978943
 21
70.950058
 31
0.0
  0
LINE
  5
18E
330
1F
100
AcDbEntity
  8
0
 62
     7
370
    35
100
AcDbLine
 10
484.978943
 20
70.950089
 30
0.0
 11
485.463562
 21
69.080933
 31
0.0
  0
LINE
  5
18F
330
1F
100
AcDbEntity
  8
0
 62
     7
370
    35
100
AcDbLine
 10
484.460388
 20
72.950089
 30
0.0
 11
484.978943
 21
74.950089
 31
0.0
  0
LINE
  5
190
330
1F
100
AcDbEntity
  8
0
 62
     7
370
    35
100
AcDbLine
 10
488.60376
 20
76.931381
 30
0.0
 11
488.090088
 21
74.950058
 31
0.0
  0
LINE
  5
191
330
1F
100
AcDbEntity
  8
0
 62
     7
370
    35
100
AcDbLine
 10
488.608582
 20
72.950058
 30
0.0
 11
489.127075
 21
74.950058
 31
0.0
  0
LINE
  5
192
330
1F
100
AcDbEntity
  8
0
 62
     7
370
    35
100
AcDbLine
 10
489.127136
 20
74.950089
 30
0.0
 11
488.613403
 21
76.931747
 31
0.0
  0
LINE
  5
193
330
1F
100
AcDbEntity
  8
0
 62
     7
370
    35
100
AcDbLine
 10
484.978943
 20
74.950058
 30
0.0
 11
484.503296
 21
76.784927
 31
0.0
  0
LINE
  5
194
330
1F
100
AcDbEntity
  8
0
 62
     7
370
    35
100
AcDbLine
 10
484.41687
 20
76.781845
 30
0.0
 11
483.941956
 21
74.950089
 31
0.0
  0
LINE
  5
195
330
1F
100
AcDbEntity
  8
0
 62
     7
370
    35
100
AcDbLine
 10
483.941956
 20
74.950089
 30
0.0
 11
484.46051
 21
72.950058
 31
0.0
  0
LINE
  5
196
330
1F
100
AcDbEntity
  8
0
 62
     7
370
    35
100
AcDbLine
 10
483.475769
 20
69.151917
 30
0.0
 11
483.941956
 21
70.950058
 31
0.0
  0
LINE
  5
197
330
1F
100
AcDbEntity
  8
0
 62
     7
370
    35
100
AcDbLine
 10
483.941956
 20
70.950089
 30
0.0
 11
483.423401
 21
72.950089
 31
0.0
  0
LINE
  5
198
330
1F
100
AcDbEntity
  8
0
 62
     7
370
    35
100
AcDbLine
 10
483.423401
 20
72.950089
 30
0.0
 11
482.904907
 21
70.950089
 31
0.0
  0
LINE
  5
199
330
1F
100
AcDbEntity
  8
0
 62
     7
370
    35
100
AcDbLine
 10
482.904846
 20
70.950058
 30
0.0
 11
483.370056
 21
69.15567
 31
0.0
  0
LINE
  5
19A
330
1F
100
AcDbEntity
  8
0
 62
     7
370
    35
100
AcDbLine
 10
482.386414
 20
72.950058
 30
0.0
 11
482.904907
 21
74.950058
 31
0.0
  0
LINE
  5
19B
330
1F
100
AcDbEntity
  8
0
 62
     7
370
    35
100
AcDbLine
 10
482.904907
 20
74.950089
 30
0.0
 11
482.448181
 21
76.711563
 31
0.0
  0
LINE
  5
19C
330
1F
100
AcDbEntity
  8
0
 62
     7
370
    35
100
AcDbLine
 10
482.323303
 20
76.707077
 30
0.0
 11
481.867798
 21
74.950089
 31
0.0
  0
LINE
  5
19D
330
1F
100
AcDbEntity
  8
0
 62
     7
370
    35
100
AcDbLine
 10
481.867859
 20
74.950058
 30
0.0
 11
482.386353
 21
72.950058
 31
0.0
  0
LINE
  5
19E
330
1F
100
AcDbEntity
  8
0
 62
     7
370
    35
100
AcDbLine
 10
481.420715
 20
69.225296
 30
0.0
 11
481.867859
 21
70.950058
 31
0.0
  0
LINE
  5
19F
330
1F
100
AcDbEntity
  8
0
 62
     7
370
    35
100
AcDbLine
 10
404.432922
 20
76.850052
 30
0.0
 11
404.432922
 21
69.050049
 31
0.0
  0
LINE
  5
1A0
330
1F
100
AcDbEntity
  8
0
 62
     7
370
    35
100
AcDbLine
 10
394.482971
 20
69.236908
 30
0.0
 11
394.982971
 21
69.252655
 31
0.0
  0
LINE
  5
1A1
330
1F
100
AcDbEntity
  8
0
 62
     7
370
    35
100
AcDbLine
 10
394.482971
 20
76.663193
 30
0.0
 11
394.982971
 21
76.647446
 31
0.0
  0
LINE
  5
1A2
330
1F
100
AcDbEntity
  8
0
 62
     7
370
    35
100
AcDbLine
 10
395.982971
 20
77.116196
 30
0.0
 11
395.982971
 21
68.783905
 31
0.0
  0
LINE
  5
1A3
330
1F
100
AcDbEntity
  8
0
 62
     7
370
    35
100
AcDbLine
 10
394.982971
 20
77.14769
 30
0.0
 11
394.982971
 21
68.752411
 31
0.0
  0
LINE
  5
1A4
330
1F
100
AcDbEntity
  8
0
 62
     7
370
    35
100
AcDbLine
 10
393.332947
 20
68.700439
 30
0.0
 11
394.482971
 21
68.736664
 31
0.0
  0
LINE
  5
1A5
330
1F
100
AcDbEntity
  8
0
 62
     7
370
    35
100
AcDbLine
 10
394.482971
 20
77.163437
 30
0.0
 11
394.482971
 21
68.736664
 31
0.0
  0
LINE
  5
1A6
330
1F
100
AcDbEntity
  8
0
 62
     7
370
    35
100
AcDbLine
 10
393.332947
 20
77.199661
 30
0.0
 11
394.482971
 21
77.163437
 31
0.0
  0
LINE
  5
1A7
330
1F
100
AcDbEntity
  8
0
 62
     7
370
    35
100
AcDbLine
 10
396.482971
 20
77.100449
 30
0.0
 11
396.482971
 21
68.799652
 31
0.0
  0
LINE
  5
1A8
330
1F
100
AcDbEntity
  8
0
 62
     7
370
    35
100
AcDbLine
 10
397.982971
 20
77.053207
 30
0.0
 11
397.982971
 21
68.846893
 31
0.0
  0
LINE
  5
1A9
330
1F
100
AcDbEntity
  8
0
 62
     7
370
    35
100
AcDbLine
 10
397.482971
 20
77.068954
 30
0.0
 11
397.482971
 21
68.831146
 31
0.0
  0
LINE
  5
1AA
330
1F
100
AcDbEntity
  8
0
 62
     7
370
    35
100
AcDbLine
 10
398.982971
 20
77.021713
 30
0.0
 11
398.982971
 21
68.878387
 31
0.0
  0
LINE
  5
1AB
330
1F
100
AcDbEntity
  8
0
 62
     7
370
    35
100
AcDbLine
 10
399.482971
 20
77.005966
 30
0.0
 11
399.482971
 21
68.89415
 31
0.0
  0
LINE
  5
1AC
330
1F
100
AcDbEntity
  8
0
 62
     7
370
    35
100
AcDbLine
 10
400.982971
 20
76.958725
 30
0.0
 11
400.982971
 21
68.941391
 31
0.0
  0
LINE
  5
1AD
330
1F
100
AcDbEntity
  8
0
 62
     7
370
    35
100
AcDbLine
 10
400.482971
 20
76.974472
 30
0.0
 11
400.482971
 21
68.925644
 31
0.0
  0
LINE
  5
1AE
330
1F
100
AcDbEntity
  8
0
 62
     7
370
    35
100
AcDbLine
 10
400.982971
 20
68.941391
 30
0.0
 11
404.432922
 21
69.050049
 31
0.0
  0
LINE
  5
1AF
330
1F
100
AcDbEntity
  8
0
 62
     7
370
    35
100
AcDbLine
 10
399.482971
 20
68.89415
 30
0.0
 11
400.482971
 21
68.925644
 31
0.0
  0
LINE
  5
1B0
330
1F
100
AcDbEntity
  8
0
 62
     7
370
    35
100
AcDbLine
 10
397.982971
 20
68.846893
 30
0.0
 11
398.982971
 21
68.878387
 31
0.0
  0
LINE
  5
1B1
330
1F
100
AcDbEntity
  8
0
 62
     7
370
    35
100
AcDbLine
 10
396.482971
 20
68.799652
 30
0.0
 11
397.482971
 21
68.831146
 31
0.0
  0
LINE
  5
1B2
330
1F
100
AcDbEntity
  8
0
 62
     7
370
    35
100
AcDbLine
 10
394.982971
 20
68.752411
 30
0.0
 11
395.982971
 21
68.783905
 31
0.0
  0
LINE
  5
1B3
330
1F
100
AcDbEntity
  8
0
 62
     7
370
    35
100
AcDbLine
 10
394.982971
 20
77.14769
 30
0.0
 11
395.982971
 21
77.116196
 31
0.0
  0
LINE
  5
1B4
330
1F
100
AcDbEntity
  8
0
 62
     7
370
    35
100
AcDbLine
 10
396.482971
 20
77.100449
 30
0.0
 11
397.482971
 21
77.068954
 31
0.0
  0
LINE
  5
1B5
330
1F
100
AcDbEntity
  8
0
 62
     7
370
    35
100
AcDbLine
 10
397.982971
 20
77.053207
 30
0.0
 11
398.982971
 21
77.021713
 31
0.0
  0
LINE
  5
1B6
330
1F
100
AcDbEntity
  8
0
 62
     7
370
    35
100
AcDbLine
 10
399.482971
 20
77.005966
 30
0.0
 11
400.482971
 21
76.974472
 31
0.0
  0
LINE
  5
1B7
330
1F
100
AcDbEntity
  8
0
 62
     7
370
    35
100
AcDbLine
 10
400.982971
 20
76.958725
 30
0.0
 11
404.432922
 21
76.850052
 31
0.0
  0
LINE
  5
1B8
330
1F
100
AcDbEntity
  8
0
 62
     7
370
    35
100
AcDbLine
 10
481.867859
 20
70.950058
 30
0.0
 11
481.349304
 21
72.950089
 31
0.0
  0
LINE
  5
1B9
330
1F
100
AcDbEntity
  8
0
 62
     7
370
    35
100
AcDbLine
 10
481.349365
 20
72.950058
 30
0.0
 11
480.830811
 21
70.950058
 31
0.0
  0
LINE
  5
1BA
330
1F
100
AcDbEntity
  8
0
 62
     7
370
    35
100
AcDbLine
 10
480.83075
 20
70.950089
 30
0.0
 11
481.276611
 21
69.230453
 31
0.0
  0
LINE
  5
1BB
330
1F
100
AcDbEntity
  8
0
 62
     7
370
    35
100
AcDbLine
 10
480.312317
 20
72.950089
 30
0.0
 11
480.830872
 21
74.950089
 31
0.0
  0
LINE
  5
1BC
330
1F
100
AcDbEntity
  8
0
 62
     7
370
    35
100
AcDbLine
 10
480.83075
 20
74.950058
 30
0.0
 11
480.393127
 21
76.638138
 31
0.0
  0
LINE
  5
1BD
330
1F
100
AcDbEntity
  8
0
 62
     7
370
    35
100
AcDbLine
 10
480.229919
 20
76.632309
 30
0.0
 11
479.793762
 21
74.950089
 31
0.0
  0
LINE
  5
1BE
330
1F
100
AcDbEntity
  8
0
 62
     7
370
    35
100
AcDbLine
 10
479.793762
 20
74.950089
 30
0.0
 11
480.312256
 21
72.950089
 31
0.0
  0
LINE
  5
1BF
330
1F
100
AcDbEntity
  8
0
 62
     7
370
    35
100
AcDbLine
 10
479.365601
 20
69.298706
 30
0.0
 11
479.793762
 21
70.950089
 31
0.0
  0
LINE
  5
1C0
330
1F
100
AcDbEntity
  8
0
 62
     7
370
    35
100
AcDbLine
 10
479.793701
 20
70.950089
 30
0.0
 11
479.275208
 21
72.950089
 31
0.0
  0
LINE
  5
1C1
330
1F
100
AcDbEntity
  8
0
 62
     7
370
    35
100
AcDbLine
 10
479.275269
 20
72.950089
 30
0.0
 11
478.756714
 21
70.950089
 31
0.0
  0
LINE
  5
1C2
330
1F
100
AcDbEntity
  8
0
 62
     7
370
    35
100
AcDbLine
 10
478.756775
 20
70.950089
 30
0.0
 11
479.183167
 21
69.305222
 31
0.0
  0
LINE
  5
1C3
330
1F
100
AcDbEntity
  8
0
 62
     7
370
    35
100
AcDbLine
 10
478.23822
 20
72.950058
 30
0.0
 11
478.756714
 21
74.950058
 31
0.0
  0
LINE
  5
1C4
330
1F
100
AcDbEntity
  8
0
 62
     7
370
    35
100
AcDbLine
 10
478.756775
 20
74.950089
 30
0.0
 11
478.338135
 21
76.564774
 31
0.0
  0
LINE
  5
1C5
330
1F
100
AcDbEntity
  8
0
 62
     7
370
    35
100
AcDbLine
 10
478.136414
 20
76.557541
 30
0.0
 11
477.719666
 21
74.950058
 31
0.0
  0
LINE
  5
1C6
330
1F
100
AcDbEntity
  8
0
 62
     7
370
    35
100
AcDbLine
 10
477.719666
 20
74.950089
 30
0.0
 11
478.23822
 21
72.950089
 31
0.0
  0
LINE
  5
1C7
330
1F
100
AcDbEntity
  8
0
 62
     7
370
    35
100
AcDbLine
 10
477.310608
 20
69.372086
 30
0.0
 11
477.719666
 21
70.950058
 31
0.0
  0
LINE
  5
1C8
330
1F
100
AcDbEntity
  8
0
 62
     7
370
    35
100
AcDbLine
 10
477.719727
 20
70.950089
 30
0.0
 11
477.201172
 21
72.950089
 31
0.0
  0
LINE
  5
1C9
330
1F
100
AcDbEntity
  8
0
 62
     7
370
    35
100
AcDbLine
 10
477.201111
 20
72.950089
 30
0.0
 11
476.682678
 21
70.950089
 31
0.0
  0
LINE
  5
1CA
330
1F
100
AcDbEntity
  8
0
 62
     7
370
    35
100
AcDbLine
 10
476.682617
 20
70.950089
 30
0.0
 11
477.089661
 21
69.379974
 31
0.0
  0
LINE
  5
1CB
330
1F
100
AcDbEntity
  8
0
 62
     7
370
    35
100
AcDbLine
 10
476.164185
 20
72.950058
 30
0.0
 11
476.682678
 21
74.950058
 31
0.0
  0
LINE
  5
1CC
330
1F
100
AcDbEntity
  8
0
 62
     7
370
    35
100
AcDbLine
 10
476.682678
 20
74.950089
 30
0.0
 11
476.283081
 21
76.491379
 31
0.0
  0
LINE
  5
1CD
330
1F
100
AcDbEntity
  8
0
 62
     7
370
    35
100
AcDbLine
 10
476.04303
 20
76.482773
 30
0.0
 11
475.64563
 21
74.950058
 31
0.0
  0
LINE
  5
1CE
330
1F
100
AcDbEntity
  8
0
 62
     7
370
    35
100
AcDbLine
 10
475.645691
 20
74.950089
 30
0.0
 11
476.164185
 21
72.950089
 31
0.0
  0
LINE
  5
1CF
330
1F
100
AcDbEntity
  8
0
 62
     7
370
    35
100
AcDbLine
 10
494.127075
 20
73.950058
 30
0.0
 11
499.127075
 21
73.950058
 31
0.0
  0
LINE
  5
1D0
330
1F
100
AcDbEntity
  8
0
 62
     7
370
    35
100
AcDbLine
 10
494.127075
 20
71.950058
 30
0.0
 11
499.127075
 21
71.950058
 31
0.0
  0
LINE
  5
1D1
330
1F
100
AcDbEntity
  8
0
 62
     7
370
    35
100
AcDbLine
 10
289.682922
 20
76.615952
 30
0.0
 11
289.182922
 21
76.600204
 31
0.0
  0
LINE
  5
1D2
330
1F
100
AcDbEntity
  8
0
 62
     7
370
    35
100
AcDbLine
 10
288.182922
 20
76.56871
 30
0.0
 11
287.682922
 21
76.552963
 31
0.0
  0
LINE
  5
1D3
330
1F
100
AcDbEntity
  8
0
 62
     7
370
    35
100
AcDbLine
 10
286.682922
 20
76.521469
 30
0.0
 11
286.182922
 21
76.505692
 31
0.0
  0
LINE
  5
1D4
330
1F
100
AcDbEntity
  8
0
 62
     7
370
    35
100
AcDbLine
 10
285.182922
 20
76.474197
 30
0.0
 11
284.682922
 21
76.45845
 31
0.0
  0
LINE
  5
1D5
330
1F
100
AcDbEntity
  8
0
 62
     7
370
    35
100
AcDbLine
 10
289.682922
 20
69.284149
 30
0.0
 11
289.182922
 21
69.299896
 31
0.0
  0
LINE
  5
1D6
330
1F
100
AcDbEntity
  8
0
 62
     7
370
    35
100
AcDbLine
 10
288.182922
 20
69.331406
 30
0.0
 11
287.682922
 21
69.347153
 31
0.0
  0
LINE
  5
1D7
330
1F
100
AcDbEntity
  8
0
 62
     7
370
    35
100
AcDbLine
 10
286.682922
 20
69.378647
 30
0.0
 11
286.182922
 21
69.394394
 31
0.0
  0
LINE
  5
1D8
330
1F
100
AcDbEntity
  8
0
 62
     7
370
    35
100
AcDbLine
 10
285.182922
 20
69.425888
 30
0.0
 11
284.682922
 21
69.441635
 31
0.0
  0
LINE
  5
1D9
330
1F
100
AcDbEntity
  8
0
 62
     7
370
    35
100
AcDbLine
 10
284.682922
 20
76.958725
 30
0.0
 11
281.23291
 21
76.850052
 31
0.0
  0
LINE
  5
1DA
330
1F
100
AcDbEntity
  8
0
 62
     7
370
    35
100
AcDbLine
 10
286.182922
 20
77.005966
 30
0.0
 11
285.182922
 21
76.974472
 31
0.0
  0
LINE
  5
1DB
330
1F
100
AcDbEntity
  8
0
 62
     7
370
    35
100
AcDbLine
 10
287.682922
 20
77.053207
 30
0.0
 11
286.682922
 21
77.021713
 31
0.0
  0
LINE
  5
1DC
330
1F
100
AcDbEntity
  8
0
 62
     7
370
    35
100
AcDbLine
 10
289.182922
 20
77.100449
 30
0.0
 11
288.182922
 21
77.068954
 31
0.0
  0
LINE
  5
1DD
330
1F
100
AcDbEntity
  8
0
 62
     7
370
    35
100
AcDbLine
 10
290.682922
 20
77.14769
 30
0.0
 11
289.682922
 21
77.116196
 31
0.0
  0
LINE
  5
1DE
330
1F
100
AcDbEntity
  8
0
 62
     7
370
    35
100
AcDbLine
 10
290.682922
 20
68.752411
 30
0.0
 11
289.682922
 21
68.783905
 31
0.0
  0
LINE
  5
1DF
330
1F
100
AcDbEntity
  8
0
 62
     7
370
    35
100
AcDbLine
 10
289.182922
 20
68.799652
 30
0.0
 11
288.182922
 21
68.831146
 31
0.0
  0
LINE
  5
1E0
330
1F
100
AcDbEntity
  8
0
 62
     7
370
    35
100
AcDbLine
 10
287.682922
 20
68.846893
 30
0.0
 11
286.682922
 21
68.878387
 31
0.0
  0
LINE
  5
1E1
330
1F
100
AcDbEntity
  8
0
 62
     7
370
    35
100
AcDbLine
 10
286.182922
 20
68.89415
 30
0.0
 11
285.182922
 21
68.925644
 31
0.0
  0
LINE
  5
1E2
330
1F
100
AcDbEntity
  8
0
 62
     7
370
    35
100
AcDbLine
 10
284.682922
 20
68.941391
 30
0.0
 11
281.23291
 21
69.050049
 31
0.0
  0
LINE
  5
1E3
330
1F
100
AcDbEntity
  8
0
 62
     7
370
    35
100
AcDbLine
 10
285.182922
 20
76.974472
 30
0.0
 11
285.182922
 21
68.925644
 31
0.0
  0
LINE
  5
1E4
330
1F
100
AcDbEntity
  8
0
 62
     7
370
    35
100
AcDbLine
 10
284.682922
 20
76.958725
 30
0.0
 11
284.682922
 21
68.941391
 31
0.0
  0
LINE
  5
1E5
330
1F
100
AcDbEntity
  8
0
 62
     7
370
    35
100
AcDbLine
 10
286.182922
 20
77.005966
 30
0.0
 11
286.182922
 21
68.89415
 31
0.0
  0
LINE
  5
1E6
330
1F
100
AcDbEntity
  8
0
 62
     7
370
    35
100
AcDbLine
 10
286.682922
 20
77.021713
 30
0.0
 11
286.682922
 21
68.878387
 31
0.0
  0
LINE
  5
1E7
330
1F
100
AcDbEntity
  8
0
 62
     7
370
    35
100
AcDbLine
 10
288.182922
 20
77.068954
 30
0.0
 11
288.182922
 21
68.831146
 31
0.0
  0
LINE
  5
1E8
330
1F
100
AcDbEntity
  8
0
 62
     7
370
    35
100
AcDbLine
 10
287.682922
 20
77.053207
 30
0.0
 11
287.682922
 21
68.846893
 31
0.0
  0
LINE
  5
1E9
330
1F
100
AcDbEntity
  8
0
 62
     7
370
    35
100
AcDbLine
 10
289.182922
 20
77.100449
 30
0.0
 11
289.182922
 21
68.799652
 31
0.0
  0
LINE
  5
1EA
330
1F
100
AcDbEntity
  8
0
 62
     7
370
    35
100
AcDbLine
 10
292.332947
 20
77.199661
 30
0.0
 11
291.182922
 21
77.163437
 31
0.0
  0
LINE
  5
1EB
330
1F
100
AcDbEntity
  8
0
 62
     7
370
    35
100
AcDbLine
 10
291.182922
 20
77.163437
 30
0.0
 11
291.182922
 21
68.736664
 31
0.0
  0
LINE
  5
1EC
330
1F
100
AcDbEntity
  8
0
 62
     7
370
    35
100
AcDbLine
 10
292.332947
 20
68.700439
 30
0.0
 11
291.182922
 21
68.736664
 31
0.0
  0
LINE
  5
1ED
330
1F
100
AcDbEntity
  8
0
 62
     7
370
    35
100
AcDbLine
 10
290.682922
 20
77.14769
 30
0.0
 11
290.682922
 21
68.752411
 31
0.0
  0
LINE
  5
1EE
330
1F
100
AcDbEntity
  8
0
 62
     7
370
    35
100
AcDbLine
 10
289.682922
 20
77.116196
 30
0.0
 11
289.682922
 21
68.783905
 31
0.0
  0
LINE
  5
1EF
330
1F
100
AcDbEntity
  8
0
 62
     7
370
    35
100
AcDbLine
 10
400.482971
 20
69.425888
 30
0.0
 11
400.982971
 21
69.441635
 31
0.0
  0
LINE
  5
1F0
330
1F
100
AcDbEntity
  8
0
 62
     7
370
    35
100
AcDbLine
 10
291.182922
 20
76.663193
 30
0.0
 11
290.682922
 21
76.647446
 31
0.0
  0
LINE
  5
1F1
330
1F
100
AcDbEntity
  8
0
 62
     7
370
    35
100
AcDbLine
 10
398.982971
 20
69.378647
 30
0.0
 11
399.482971
 21
69.394394
 31
0.0
  0
LINE
  5
1F2
330
1F
100
AcDbEntity
  8
0
 62
     7
370
    35
100
AcDbLine
 10
397.482971
 20
69.331406
 30
0.0
 11
397.982971
 21
69.347153
 31
0.0
  0
LINE
  5
1F3
330
1F
100
AcDbEntity
  8
0
 62
     7
370
    35
100
AcDbLine
 10
395.982971
 20
69.284149
 30
0.0
 11
396.482971
 21
69.299896
 31
0.0
  0
LINE
  5
1F4
330
1F
100
AcDbEntity
  8
0
 62
     7
370
    35
100
AcDbLine
 10
400.482971
 20
76.474197
 30
0.0
 11
400.982971
 21
76.45845
 31
0.0
  0
LINE
  5
1F5
330
1F
100
AcDbEntity
  8
0
 62
     7
370
    35
100
AcDbLine
 10
398.982971
 20
76.521469
 30
0.0
 11
399.482971
 21
76.505692
 31
0.0
  0
LINE
  5
1F6
330
1F
100
AcDbEntity
  8
0
 62
     7
370
    35
100
AcDbLine
 10
397.482971
 20
76.56871
 30
0.0
 11
397.982971
 21
76.552963
 31
0.0
  0
LINE
  5
1F7
330
1F
100
AcDbEntity
  8
0
 62
     7
370
    35
100
AcDbLine
 10
291.182922
 20
69.236908
 30
0.0
 11
290.682922
 21
69.252655
 31
0.0
  0
LINE
  5
1F8
330
1F
100
AcDbEntity
  8
0
 62
     7
370
    35
100
AcDbLine
 10
395.982971
 20
76.615952
 30
0.0
 11
396.482971
 21
76.600204
 31
0.0
  0
LINE
  5
1F9
330
1F
100
AcDbEntity
  8
0
 62
     7
370
    35
100
AcDbLine
 10
281.23291
 20
76.850052
 30
0.0
 11
281.23291
 21
69.050049
 31
0.0
  0
LINE
  5
1FA
330
1F
100
AcDbEntity
  8
0
 62
     7
370
    35
100
AcDbLine
 10
293.132935
 20
65.950043
 30
0.0
 11
293.132935
 21
65.750046
 31
0.0
  0
LINE
  5
1FB
330
1F
100
AcDbEntity
  8
0
 62
     7
370
    35
100
AcDbLine
 10
293.132935
 20
86.145035
 30
0.0
 11
293.137939
 21
86.145035
 31
0.0
  0
LINE
  5
1FC
330
1F
100
AcDbEntity
  8
0
 62
     7
370
    35
100
AcDbLine
 10
400.332947
 20
65.750046
 30
0.0
 11
402.332947
 21
65.750046
 31
0.0
  0
LINE
  5
1FD
330
1F
100
AcDbEntity
  8
0
 62
     7
370
    35
100
AcDbLine
 10
400.332947
 20
64.950043
 30
0.0
 11
402.332947
 21
64.950043
 31
0.0
  0
LINE
  5
1FE
330
1F
100
AcDbEntity
  8
0
 62
     7
370
    35
100
AcDbLine
 10
285.332947
 20
64.950043
 30
0.0
 11
292.332947
 21
64.950043
 31
0.0
  0
LINE
  5
1FF
330
1F
100
AcDbEntity
  8
0
 62
     7
370
    35
100
AcDbLine
 10
283.332947
 20
65.750046
 30
0.0
 11
285.332947
 21
65.750046
 31
0.0
  0
LINE
  5
200
330
1F
100
AcDbEntity
  8
0
 62
     7
370
    35
100
AcDbLine
 10
393.332947
 20
78.950058
 30
0.0
 11
393.332947
 21
78.945053
 31
0.0
  0
LINE
  5
201
330
1F
100
AcDbEntity
  8
0
 62
     7
370
    35
100
AcDbLine
 10
392.532959
 20
64.950043
 30
0.0
 11
392.532959
 21
65.950043
 31
0.0
  0
LINE
  5
202
330
1F
100
AcDbEntity
  8
0
 62
     7
370
    35
100
AcDbLine
 10
393.332947
 20
65.950043
 30
0.0
 11
393.332947
 21
64.950043
 31
0.0
  0
LINE
  5
203
330
1F
100
AcDbEntity
  8
0
 62
     7
370
    35
100
AcDbLine
 10
392.527954
 20
79.750046
 30
0.0
 11
392.532959
 21
79.750046
 31
0.0
  0
LINE
  5
204
330
1F
100
AcDbEntity
  8
0
 62
     7
370
    35
100
AcDbLine
 10
392.527954
 20
78.950058
 30
0.0
 11
392.532959
 21
78.950058
 31
0.0
  0
LINE
  5
205
330
1F
100
AcDbEntity
  8
0
 62
     7
370
    35
100
AcDbLine
 10
392.532959
 20
78.945053
 30
0.0
 11
392.532959
 21
78.950058
 31
0.0
  0
LINE
  5
206
330
1F
100
AcDbEntity
  8
0
 62
     7
370
    35
100
AcDbLine
 10
392.532959
 20
64.950043
 30
0.0
 11
393.332947
 21
64.950043
 31
0.0
  0
LINE
  5
207
330
1F
100
AcDbEntity
  8
0
 62
     7
370
    35
100
AcDbLine
 10
292.332947
 20
65.950043
 30
0.0
 11
293.137939
 21
65.950043
 31
0.0
  0
LINE
  5
208
330
1F
100
AcDbEntity
  8
0
 62
     7
370
    35
100
AcDbLine
 10
392.527954
 20
78.950058
 30
0.0
 11
392.527954
 21
79.750046
 31
0.0
  0
LINE
  5
209
330
1F
100
AcDbEntity
  8
0
 62
     7
370
    35
100
AcDbLine
 10
392.527954
 20
78.950058
 30
0.0
 11
392.527954
 21
78.945053
 31
0.0
  0
LINE
  5
20A
330
1F
100
AcDbEntity
  8
0
 62
     7
370
    35
100
AcDbLine
 10
293.132935
 20
79.750046
 30
0.0
 11
293.137939
 21
79.750046
 31
0.0
  0
LINE
  5
20B
330
1F
100
AcDbEntity
  8
0
 62
     7
370
    35
100
AcDbLine
 10
392.527954
 20
79.750046
 30
0.0
 11
293.137939
 21
79.750046
 31
0.0
  0
LINE
  5
20C
330
1F
100
AcDbEntity
  8
0
 62
     7
370
    35
100
AcDbLine
 10
293.137939
 20
65.950043
 30
0.0
 11
392.527954
 21
65.950043
 31
0.0
  0
LINE
  5
20D
330
1F
100
AcDbEntity
  8
0
 62
     7
370
    35
100
AcDbLine
 10
292.332947
 20
78.945053
 30
0.0
 11
292.332947
 21
65.950043
 31
0.0
  0
LINE
  5
20E
330
1F
100
AcDbEntity
  8
0
 62
     7
370
    35
100
AcDbLine
 10
293.137939
 20
78.950058
 30
0.0
 11
293.137939
 21
79.750046
 31
0.0
  0
LINE
  5
20F
330
1F
100
AcDbEntity
  8
0
 62
     7
370
    35
100
AcDbLine
 10
293.137939
 20
78.945053
 30
0.0
 11
292.332947
 21
78.945053
 31
0.0
  0
LINE
  5
210
330
1F
100
AcDbEntity
  8
0
 62
     7
370
    35
100
AcDbLine
 10
293.137939
 20
78.950058
 30
0.0
 11
293.137939
 21
78.945053
 31
0.0
  0
LINE
  5
211
330
1F
100
AcDbEntity
  8
0
 62
     7
370
    35
100
AcDbLine
 10
392.527954
 20
78.945053
 30
0.0
 11
393.332947
 21
78.945053
 31
0.0
  0
LINE
  5
212
330
1F
100
AcDbEntity
  8
0
 62
     7
370
    35
100
AcDbLine
 10
393.332947
 20
78.945053
 30
0.0
 11
393.332947
 21
65.950043
 31
0.0
  0
LINE
  5
213
330
1F
100
AcDbEntity
  8
0
 62
     7
370
    35
100
AcDbLine
 10
392.527954
 20
65.950043
 30
0.0
 11
393.332947
 21
65.950043
 31
0.0
  0
LINE
  5
214
330
1F
100
AcDbEntity
  8
0
 62
     7
370
    35
100
AcDbLine
 10
293.132935
 20
78.950058
 30
0.0
 11
293.137939
 21
78.950058
 31
0.0
  0
LINE
  5
215
330
1F
100
AcDbEntity
  8
0
 62
     7
370
    35
100
AcDbLine
 10
292.332947
 20
65.750046
 30
0.0
 11
285.332947
 21
65.750046
 31
0.0
  0
LINE
  5
216
330
1F
100
AcDbEntity
  8
0
 62
     7
370
    35
100
AcDbLine
 10
292.332947
 20
78.950058
 30
0.0
 11
292.332947
 21
78.945053
 31
0.0
  0
LINE
  5
217
330
1F
100
AcDbEntity
  8
0
 62
     7
370
    35
100
AcDbLine
 10
292.332947
 20
65.950043
 30
0.0
 11
292.332947
 21
65.750046
 31
0.0
  0
LINE
  5
218
330
1F
100
AcDbEntity
  8
0
 62
     7
370
    35
100
AcDbLine
 10
293.132935
 20
64.950043
 30
0.0
 11
292.332947
 21
64.950043
 31
0.0
  0
LINE
  5
219
330
1F
100
AcDbEntity
  8
0
 62
     7
370
    35
100
AcDbLine
 10
293.132935
 20
65.754959
 30
0.0
 11
293.132935
 21
64.950043
 31
0.0
  0
LINE
  5
21A
330
1F
100
AcDbEntity
  8
0
 62
     7
370
    35
100
AcDbLine
 10
283.332947
 20
64.950043
 30
0.0
 11
283.332947
 21
65.750046
 31
0.0
  0
LINE
  5
21B
330
1F
100
AcDbEntity
  8
0
 62
     7
370
    35
100
AcDbLine
 10
283.332947
 20
64.950043
 30
0.0
 11
285.332947
 21
64.950043
 31
0.0
  0
LINE
  5
21C
330
1F
100
AcDbEntity
  8
0
 62
     7
370
    35
100
AcDbLine
 10
402.332947
 20
64.950043
 30
0.0
 11
402.332947
 21
65.750046
 31
0.0
  0
LINE
  5
21D
330
1F
100
AcDbEntity
  8
0
 62
     7
370
    35
100
AcDbLine
 10
400.332947
 20
65.750046
 30
0.0
 11
393.332947
 21
65.750046
 31
0.0
  0
LINE
  5
21E
330
1F
100
AcDbEntity
  8
0
 62
     7
370
    35
100
AcDbLine
 10
400.332947
 20
64.950043
 30
0.0
 11
393.332947
 21
64.950043
 31
0.0
  0
LINE
  5
21F
330
1F
100
AcDbEntity
  8
0
 62
     7
370
    35
100
AcDbLine
 10
294.23291
 20
65.950043
 30
0.0
 11
294.23291
 21
65.550049
 31
0.0
  0
LINE
  5
220
330
1F
100
AcDbEntity
  8
0
 62
     7
370
    35
100
AcDbLine
 10
293.23291
 20
65.550049
 30
0.0
 11
293.23291
 21
65.950043
 31
0.0
  0
LINE
  5
221
330
1F
100
AcDbEntity
  8
0
 62
     7
370
    35
100
AcDbLine
 10
294.282959
 20
64.550049
 30
0.0
 11
294.23291
 21
64.550049
 31
0.0
  0
LINE
  5
222
330
1F
100
AcDbEntity
  8
0
 62
     7
370
    35
100
AcDbLine
 10
391.382996
 20
64.550049
 30
0.0
 11
294.282959
 21
64.550049
 31
0.0
  0
LINE
  5
223
330
1F
100
AcDbEntity
  8
0
 62
     7
370
    35
100
AcDbLine
 10
294.282959
 20
64.550049
 30
0.0
 11
294.282959
 21
65.550049
 31
0.0
  0
LINE
  5
224
330
1F
100
AcDbEntity
  8
0
 62
     7
370
    35
100
AcDbLine
 10
294.282959
 20
65.550049
 30
0.0
 11
294.282959
 21
65.950043
 31
0.0
  0
LINE
  5
225
330
1F
100
AcDbEntity
  8
0
 62
     7
370
    35
100
AcDbLine
 10
391.382996
 20
64.550049
 30
0.0
 11
391.432922
 21
64.550049
 31
0.0
  0
LINE
  5
226
330
1F
100
AcDbEntity
  8
0
 62
     7
370
    35
100
AcDbLine
 10
391.382996
 20
65.550049
 30
0.0
 11
391.382996
 21
65.950043
 31
0.0
  0
LINE
  5
227
330
1F
100
AcDbEntity
  8
0
 62
     7
370
    35
100
AcDbLine
 10
391.382996
 20
64.550049
 30
0.0
 11
391.382996
 21
65.550049
 31
0.0
  0
LINE
  5
228
330
1F
100
AcDbEntity
  8
0
 62
     7
370
    35
100
AcDbLine
 10
391.432922
 20
65.550049
 30
0.0
 11
391.432922
 21
65.950043
 31
0.0
  0
LINE
  5
229
330
1F
100
AcDbEntity
  8
0
 62
     7
370
    35
100
AcDbLine
 10
392.432922
 20
65.550049
 30
0.0
 11
392.432922
 21
65.950043
 31
0.0
  0
LINE
  5
22A
330
1F
100
AcDbEntity
  8
0
 62
     7
370
    35
100
AcDbLine
 10
294.282959
 20
65.550049
 30
0.0
 11
294.23291
 21
65.550049
 31
0.0
  0
LINE
  5
22B
330
1F
100
AcDbEntity
  8
0
 62
     7
370
    35
100
AcDbLine
 10
391.432922
 20
65.550049
 30
0.0
 11
391.382996
 21
65.550049
 31
0.0
  0
LINE
  5
22C
330
1F
100
AcDbEntity
  8
0
 62
     7
370
    35
100
AcDbLine
 10
303.413696
 20
69.186447
 30
0.0
 11
303.767273
 21
68.832886
 31
0.0
  0
LINE
  5
22D
330
1F
100
AcDbEntity
  8
0
 62
     7
370
    35
100
AcDbLine
 10
303.696533
 20
69.469284
 30
0.0
 11
304.05011
 21
69.115738
 31
0.0
  0
LINE
  5
22E
330
1F
100
AcDbEntity
  8
0
 62
     7
370
    35
100
AcDbLine
 10
303.413696
 20
67.913651
 30
0.0
 11
303.767273
 21
68.267212
 31
0.0
  0
LINE
  5
22F
330
1F
100
AcDbEntity
  8
0
 62
     7
370
    35
100
AcDbLine
 10
303.696533
 20
67.630814
 30
0.0
 11
304.05011
 21
67.98436
 31
0.0
  0
LINE
  5
230
330
1F
100
AcDbEntity
  8
0
 62
     7
370
    35
100
AcDbLine
 10
304.615784
 20
69.115738
 30
0.0
 11
304.96936
 21
69.469284
 31
0.0
  0
LINE
  5
231
330
1F
100
AcDbEntity
  8
0
 62
     7
370
    35
100
AcDbLine
 10
304.898621
 20
68.832886
 30
0.0
 11
305.252197
 21
69.186447
 31
0.0
  0
LINE
  5
232
330
1F
100
AcDbEntity
  8
0
 62
     7
370
    35
100
AcDbLine
 10
304.898621
 20
68.267212
 30
0.0
 11
305.252197
 21
67.913651
 31
0.0
  0
LINE
  5
233
330
1F
100
AcDbEntity
  8
0
 62
     7
370
    35
100
AcDbLine
 10
304.615784
 20
67.98436
 30
0.0
 11
304.96936
 21
67.630814
 31
0.0
  0
LINE
  5
234
330
1F
100
AcDbEntity
  8
0
 62
     7
370
    35
100
AcDbLine
 10
304.96936
 20
69.469284
 30
0.0
 11
305.252197
 21
69.186447
 31
0.0
  0
LINE
  5
235
330
1F
100
AcDbEntity
  8
0
 62
     7
370
    35
100
AcDbLine
 10
303.413696
 20
67.913651
 30
0.0
 11
303.696533
 21
67.630814
 31
0.0
  0
LINE
  5
236
330
1F
100
AcDbEntity
  8
0
 62
     7
370
    35
100
AcDbLine
 10
303.413696
 20
69.186447
 30
0.0
 11
303.696533
 21
69.469284
 31
0.0
  0
LINE
  5
237
330
1F
100
AcDbEntity
  8
0
 62
     7
370
    35
100
AcDbLine
 10
304.96936
 20
67.630814
 30
0.0
 11
305.252197
 21
67.913651
 31
0.0
  0
LINE
  5
238
330
1F
100
AcDbEntity
  8
0
 62
     7
370
    35
100
AcDbLine
 10
379.696594
 20
69.469284
 30
0.0
 11
380.05011
 21
69.115738
 31
0.0
  0
LINE
  5
239
330
1F
100
AcDbEntity
  8
0
 62
     7
370
    35
100
AcDbLine
 10
379.413757
 20
69.186447
 30
0.0
 11
379.767273
 21
68.832886
 31
0.0
  0
LINE
  5
23A
330
1F
100
AcDbEntity
  8
0
 62
     7
370
    35
100
AcDbLine
 10
379.413757
 20
67.913651
 30
0.0
 11
379.767273
 21
68.267212
 31
0.0
  0
LINE
  5
23B
330
1F
100
AcDbEntity
  8
0
 62
     7
370
    35
100
AcDbLine
 10
379.696594
 20
67.630814
 30
0.0
 11
380.05011
 21
67.98436
 31
0.0
  0
LINE
  5
23C
330
1F
100
AcDbEntity
  8
0
 62
     7
370
    35
100
AcDbLine
 10
380.615784
 20
69.115738
 30
0.0
 11
380.96936
 21
69.469284
 31
0.0
  0
LINE
  5
23D
330
1F
100
AcDbEntity
  8
0
 62
     7
370
    35
100
AcDbLine
 10
380.898621
 20
68.832886
 30
0.0
 11
381.252197
 21
69.186447
 31
0.0
  0
LINE
  5
23E
330
1F
100
AcDbEntity
  8
0
 62
     7
370
    35
100
AcDbLine
 10
380.898621
 20
68.267212
 30
0.0
 11
381.252197
 21
67.913651
 31
0.0
  0
LINE
  5
23F
330
1F
100
AcDbEntity
  8
0
 62
     7
370
    35
100
AcDbLine
 10
380.615784
 20
67.98436
 30
0.0
 11
380.96936
 21
67.630814
 31
0.0
  0
LINE
  5
240
330
1F
100
AcDbEntity
  8
0
 62
     7
370
    35
100
AcDbLine
 10
380.96936
 20
69.469284
 30
0.0
 11
381.252197
 21
69.186447
 31
0.0
  0
LINE
  5
241
330
1F
100
AcDbEntity
  8
0
 62
     7
370
    35
100
AcDbLine
 10
379.413757
 20
67.913651
 30
0.0
 11
379.696594
 21
67.630814
 31
0.0
  0
LINE
  5
242
330
1F
100
AcDbEntity
  8
0
 62
     7
370
    35
100
AcDbLine
 10
379.413757
 20
69.186447
 30
0.0
 11
379.696594
 21
69.469284
 31
0.0
  0
LINE
  5
243
330
1F
100
AcDbEntity
  8
0
 62
     7
370
    35
100
AcDbLine
 10
380.96936
 20
67.630814
 30
0.0
 11
381.252197
 21
67.913651
 31
0.0
  0
LINE
  5
244
330
1F
100
AcDbEntity
  8
0
 62
     7
370
    35
100
AcDbLine
 10
455.22467
 20
351.44989
 30
0.0
 11
455.22467
 21
334.450012
 31
0.0
  0
LINE
  5
245
330
1F
100
AcDbEntity
  8
0
 62
     7
370
    35
100
AcDbLine
 10
316.624634
 20
330.75
 30
0.0
 11
316.624634
 21
330.449951
 31
0.0
  0
LINE
  5
246
330
1F
100
AcDbEntity
  8
0
 62
     7
370
    35
100
AcDbLine
 10
21.624664
 20
342.949951
 30
0.0
 11
22.124664
 21
342.949951
 31
0.0
  0
LINE
  5
247
330
1F
100
AcDbEntity
  8
0
 62
     7
370
    35
100
AcDbLine
 10
328.624634
 20
355.449951
 30
0.0
 11
453.624695
 21
355.449951
 31
0.0
  0
LINE
  5
248
330
1F
100
AcDbEntity
  8
0
 62
     7
370
    35
100
AcDbLine
 10
316.624634
 20
330.75
 30
0.0
 11
328.624634
 21
330.75
 31
0.0
  0
LINE
  5
249
330
1F
100
AcDbEntity
  8
0
 62
     7
370
    35
100
AcDbLine
 10
453.624695
 20
355.449951
 30
0.0
 11
453.624695
 21
352.199951
 31
0.0
  0
LINE
  5
24A
330
1F
100
AcDbEntity
  8
0
 62
     7
370
    35
100
AcDbLine
 10
316.624634
 20
355.149963
 30
0.0
 11
328.624634
 21
355.149963
 31
0.0
  0
LINE
  5
24B
330
1F
100
AcDbEntity
  8
0
 62
     7
370
    35
100
AcDbLine
 10
328.624634
 20
330.75
 30
0.0
 11
328.624634
 21
330.449951
 31
0.0
  0
LINE
  5
24C
330
1F
100
AcDbEntity
  8
0
 62
     7
370
    35
100
AcDbLine
 10
455.22467
 20
334.449951
 30
0.0
 11
453.724731
 21
333.699951
 31
0.0
  0
LINE
  5
24D
330
1F
100
AcDbEntity
  8
0
 62
     7
370
    35
100
AcDbLine
 10
171.624664
 20
330.449951
 30
0.0
 11
316.624634
 21
330.449951
 31
0.0
  0
LINE
  5
24E
330
1F
100
AcDbEntity
  8
0
 62
     7
370
    35
100
AcDbLine
 10
127.624596
 20
333.250061
 30
0.0
 11
127.924583
 21
332.950073
 31
0.0
  0
LINE
  5
24F
330
1F
100
AcDbEntity
  8
0
 62
     7
370
    35
100
AcDbLine
 10
19.124664
 20
338.449951
 30
0.0
 11
23.124664
 21
338.449951
 31
0.0
  0
LINE
  5
250
330
1F
100
AcDbEntity
  8
0
 62
     7
370
    35
100
AcDbLine
 10
12.624542
 20
341.19989
 30
0.0
 11
18.624542
 21
340.44989
 31
0.0
  0
LINE
  5
251
330
1F
100
AcDbEntity
  8
0
 62
     7
370
    35
100
AcDbLine
 10
19.124847
 20
347.449829
 30
0.0
 11
18.624847
 21
346.949829
 31
0.0
  0
LINE
  5
252
330
1F
100
AcDbEntity
  8
0
 62
     7
370
    35
100
AcDbLine
 10
18.624847
 20
345.449829
 30
0.0
 11
12.624847
 21
344.699829
 31
0.0
  0
LINE
  5
253
330
1F
100
AcDbEntity
  8
0
 62
     7
370
    35
100
AcDbLine
 10
19.124664
 20
347.449951
 30
0.0
 11
23.124664
 21
347.449951
 31
0.0
  0
LINE
  5
254
330
1F
100
AcDbEntity
  8
0
 62
     7
370
    35
100
AcDbLine
 10
316.624634
 20
355.449951
 30
0.0
 11
316.624634
 21
355.149963
 31
0.0
  0
LINE
  5
255
330
1F
100
AcDbEntity
  8
0
 62
     7
370
    35
100
AcDbLine
 10
19.124969
 20
347.449951
 30
0.0
 11
19.124786
 21
338.449951
 31
0.0
  0
LINE
  5
256
330
1F
100
AcDbEntity
  8
0
 62
     7
370
    35
100
AcDbLine
 10
453.624695
 20
333.699951
 30
0.0
 11
453.72467
 21
333.699951
 31
0.0
  0
LINE
  5
257
330
1F
100
AcDbEntity
  8
0
 62
     7
370
    35
100
AcDbLine
 10
18.624664
 20
346.949951
 30
0.0
 11
18.624664
 21
345.449951
 31
0.0
  0
LINE
  5
258
330
1F
100
AcDbEntity
  8
0
 62
     7
370
    35
100
AcDbLine
 10
23.624969
 20
338.949707
 30
0.0
 11
23.124969
 21
338.449707
 31
0.0
  0
LINE
  5
259
330
1F
100
AcDbEntity
  8
0
 62
     7
370
    35
100
AcDbLine
 10
12.624664
 20
344.699951
 30
0.0
 11
12.624664
 21
341.699951
 31
0.0
  0
LINE
  5
25A
330
1F
100
AcDbEntity
  8
0
 62
     7
370
    35
100
AcDbLine
 10
453.624695
 20
352.199951
 30
0.0
 11
453.624695
 21
330.449951
 31
0.0
  0
LINE
  5
25B
330
1F
100
AcDbEntity
  8
0
 62
     7
370
    35
100
AcDbLine
 10
328.624634
 20
330.449951
 30
0.0
 11
453.624695
 21
330.449951
 31
0.0
  0
LINE
  5
25C
330
1F
100
AcDbEntity
  8
0
 62
     7
370
    35
100
AcDbLine
 10
12.624664
 20
341.699951
 30
0.0
 11
12.624664
 21
341.199951
 31
0.0
  0
LINE
  5
25D
330
1F
100
AcDbEntity
  8
0
 62
     7
370
    35
100
AcDbLine
 10
164.624664
 20
333.149963
 30
0.0
 11
164.624664
 21
332.949951
 31
0.0
  0
LINE
  5
25E
330
1F
100
AcDbEntity
  8
0
 62
     7
370
    35
100
AcDbLine
 10
18.624786
 20
338.950012
 30
0.0
 11
19.124725
 21
338.450012
 31
0.0
  0
LINE
  5
25F
330
1F
100
AcDbEntity
  8
0
 62
     7
370
    35
100
AcDbLine
 10
19.124603
 20
345.949951
 30
0.0
 11
23.124603
 21
345.949951
 31
0.0
  0
LINE
  5
260
330
1F
100
AcDbEntity
  8
0
 62
     7
370
    35
100
AcDbLine
 10
23.124725
 20
347.449951
 30
0.0
 11
23.624725
 21
346.949951
 31
0.0
  0
LINE
  5
261
330
1F
100
AcDbEntity
  8
0
 62
     7
370
    35
100
AcDbLine
 10
453.624695
 20
352.199951
 30
0.0
 11
453.724731
 21
352.199951
 31
0.0
  0
LINE
  5
262
330
1F
100
AcDbEntity
  8
0
 62
     7
370
    35
100
AcDbLine
 10
164.624664
 20
333.149963
 30
0.0
 11
166.624664
 21
333.149963
 31
0.0
  0
LINE
  5
263
330
1F
100
AcDbEntity
  8
0
 62
     7
370
    35
100
AcDbLine
 10
168.624664
 20
330.549988
 30
0.0
 11
171.624664
 21
330.549988
 31
0.0
  0
LINE
  5
264
330
1F
100
AcDbEntity
  8
0
 62
     7
370
    35
100
AcDbLine
 10
18.624664
 20
340.449951
 30
0.0
 11
18.624664
 21
345.449951
 31
0.0
  0
LINE
  5
265
330
1F
100
AcDbEntity
  8
0
 62
     7
370
    35
100
AcDbLine
 10
19.124603
 20
346.699951
 30
0.0
 11
23.124603
 21
346.699951
 31
0.0
  0
LINE
  5
266
330
1F
100
AcDbEntity
  8
0
 62
     7
370
    35
100
AcDbLine
 10
164.624664
 20
352.75
 30
0.0
 11
166.624664
 21
352.75
 31
0.0
  0
LINE
  5
267
330
1F
100
AcDbEntity
  8
0
 62
     7
370
    35
100
AcDbLine
 10
328.624634
 20
355.449951
 30
0.0
 11
328.624634
 21
355.149963
 31
0.0
  0
LINE
  5
268
330
1F
100
AcDbEntity
  8
0
 62
     7
370
    35
100
AcDbLine
 10
125.624603
 20
335.450012
 30
0.0
 11
127.624672
 21
333.599976
 31
0.0
  0
LINE
  5
269
330
1F
100
AcDbEntity
  8
0
 62
     7
370
    35
100
AcDbLine
 10
453.724731
 20
352.199829
 30
0.0
 11
455.224731
 21
351.449829
 31
0.0
  0
LINE
  5
26A
330
1F
100
AcDbEntity
  8
0
 62
     7
370
    35
100
AcDbLine
 10
166.624725
 20
333.150208
 30
0.0
 11
168.624725
 21
330.550171
 31
0.0
  0
LINE
  5
26B
330
1F
100
AcDbEntity
  8
0
 62
     7
370
    35
100
AcDbLine
 10
171.624664
 20
355.449951
 30
0.0
 11
316.624634
 21
355.449951
 31
0.0
  0
LINE
  5
26C
330
1F
100
AcDbEntity
  8
0
 62
     7
370
    35
100
AcDbLine
 10
125.624847
 20
350.449768
 30
0.0
 11
127.624672
 21
352.299622
 31
0.0
  0
LINE
  5
26D
330
1F
100
AcDbEntity
  8
0
 62
     7
370
    35
100
AcDbLine
 10
127.924644
 20
352.949951
 30
0.0
 11
164.624664
 21
352.949951
 31
0.0
  0
LINE
  5
26E
330
1F
100
AcDbEntity
  8
0
 62
     7
370
    35
100
AcDbLine
 10
125.624664
 20
350.449951
 30
0.0
 11
125.624664
 21
335.450012
 31
0.0
  0
LINE
  5
26F
330
1F
100
AcDbEntity
  8
0
 62
     7
370
    35
100
AcDbLine
 10
127.924828
 20
352.949768
 30
0.0
 11
127.62484
 21
352.64978
 31
0.0
  0
LINE
  5
270
330
1F
100
AcDbEntity
  8
0
 62
     7
370
    35
100
AcDbLine
 10
127.624672
 20
352.649963
 30
0.0
 11
127.624672
 21
351.799988
 31
0.0
  0
LINE
  5
271
330
1F
100
AcDbEntity
  8
0
 62
     7
370
    35
100
AcDbLine
 10
127.624672
 20
334.099976
 30
0.0
 11
127.624672
 21
333.25
 31
0.0
  0
LINE
  5
272
330
1F
100
AcDbEntity
  8
0
 62
     7
370
    35
100
AcDbLine
 10
125.624664
 20
342.0
 30
0.0
 11
125.624664
 21
338.949951
 31
0.0
  0
LINE
  5
273
330
1F
100
AcDbEntity
  8
0
 62
     7
370
    35
100
AcDbLine
 10
125.624664
 20
343.899963
 30
0.0
 11
125.624664
 21
342.0
 31
0.0
  0
LINE
  5
274
330
1F
100
AcDbEntity
  8
0
 62
     7
370
    35
100
AcDbLine
 10
125.624664
 20
346.949951
 30
0.0
 11
125.624664
 21
343.899963
 31
0.0
  0
LINE
  5
275
330
1F
100
AcDbEntity
  8
0
 62
     7
370
    35
100
AcDbLine
 10
164.624664
 20
352.949951
 30
0.0
 11
164.624664
 21
352.75
 31
0.0
  0
LINE
  5
276
330
1F
100
AcDbEntity
  8
0
 62
     7
370
    35
100
AcDbLine
 10
168.624664
 20
355.349976
 30
0.0
 11
171.624664
 21
355.349976
 31
0.0
  0
LINE
  5
277
330
1F
100
AcDbEntity
  8
0
 62
     7
370
    35
100
AcDbLine
 10
127.924644
 20
332.949951
 30
0.0
 11
164.624664
 21
332.949951
 31
0.0
  0
LINE
  5
278
330
1F
100
AcDbEntity
  8
0
 62
     7
370
    35
100
AcDbLine
 10
171.624664
 20
333.349976
 30
0.0
 11
171.624664
 21
330.449951
 31
0.0
  0
LINE
  5
279
330
1F
100
AcDbEntity
  8
0
 62
     7
370
    35
100
AcDbLine
 10
168.62442
 20
355.350159
 30
0.0
 11
166.62442
 21
352.750183
 31
0.0
  0
LINE
  5
27A
330
1F
100
AcDbEntity
  8
0
 62
     7
370
    35
100
AcDbLine
 10
23.125214
 20
338.449951
 30
0.0
 11
23.124725
 21
347.449951
 31
0.0
  0
LINE
  5
27B
330
1F
100
AcDbEntity
  8
0
 62
     7
370
    35
100
AcDbLine
 10
18.624664
 20
340.449951
 30
0.0
 11
18.624664
 21
338.949951
 31
0.0
  0
LINE
  5
27C
330
1F
100
AcDbEntity
  8
0
 62
     7
370
    35
100
AcDbLine
 10
171.624664
 20
355.449951
 30
0.0
 11
171.624664
 21
352.549988
 31
0.0
  0
LINE
  5
27D
330
1F
100
AcDbEntity
  8
0
 62
     7
370
    35
100
AcDbLine
 10
328.624634
 20
355.149963
 30
0.0
 11
328.624634
 21
330.75
 31
0.0
  0
LINE
  5
27E
330
1F
100
AcDbEntity
  8
0
 62
     7
370
    35
100
AcDbLine
 10
316.624634
 20
355.149963
 30
0.0
 11
316.624634
 21
330.75
 31
0.0
  0
LINE
  5
27F
330
1F
100
AcDbEntity
  8
0
 62
     7
370
    35
100
AcDbLine
 10
171.624664
 20
333.349976
 30
0.0
 11
171.624664
 21
352.549988
 31
0.0
  0
LINE
  5
280
330
1F
100
AcDbEntity
  8
0
 62
     7
370
    35
100
AcDbLine
 10
168.624298
 20
355.349976
 30
0.0
 11
168.624725
 21
330.550171
 31
0.0
  0
LINE
  5
281
330
1F
100
AcDbEntity
  8
0
 62
     7
370
    35
100
AcDbLine
 10
166.624664
 20
352.75
 30
0.0
 11
166.624908
 21
333.149963
 31
0.0
  0
LINE
  5
282
330
1F
100
AcDbEntity
  8
0
 62
     7
370
    35
100
AcDbLine
 10
164.624664
 20
333.149963
 30
0.0
 11
164.624664
 21
352.75
 31
0.0
  0
LINE
  5
283
330
1F
100
AcDbEntity
  8
0
 62
     7
370
    35
100
AcDbLine
 10
127.925072
 20
352.949951
 30
0.0
 11
127.924706
 21
332.949951
 31
0.0
  0
LINE
  5
284
330
1F
100
AcDbEntity
  8
0
 62
     7
370
    35
100
AcDbLine
 10
127.624672
 20
334.099976
 30
0.0
 11
127.624672
 21
351.799988
 31
0.0
  0
LINE
  5
285
330
1F
100
AcDbEntity
  8
0
 62
     7
370
    35
100
AcDbLine
 10
19.12442
 20
339.199951
 30
0.0
 11
23.12442
 21
339.199951
 31
0.0
  0
LINE
  5
286
330
1F
100
AcDbEntity
  8
0
 62
     7
370
    35
100
AcDbLine
 10
19.124481
 20
339.949951
 30
0.0
 11
23.124481
 21
339.949951
 31
0.0
  0
LINE
  5
287
330
1F
100
AcDbEntity
  8
0
 62
     7
370
    35
100
AcDbLine
 10
19.124481
 20
340.699951
 30
0.0
 11
23.124481
 21
340.699951
 31
0.0
  0
LINE
  5
288
330
1F
100
AcDbEntity
  8
0
 62
     7
370
    35
100
AcDbLine
 10
19.124481
 20
341.449951
 30
0.0
 11
23.124481
 21
341.449951
 31
0.0
  0
LINE
  5
289
330
1F
100
AcDbEntity
  8
0
 62
     7
370
    35
100
AcDbLine
 10
19.124542
 20
342.199951
 30
0.0
 11
23.124542
 21
342.199951
 31
0.0
  0
LINE
  5
28A
330
1F
100
AcDbEntity
  8
0
 62
     7
370
    35
100
AcDbLine
 10
19.124542
 20
343.699951
 30
0.0
 11
23.124542
 21
343.699951
 31
0.0
  0
LINE
  5
28B
330
1F
100
AcDbEntity
  8
0
 62
     7
370
    35
100
AcDbLine
 10
19.124603
 20
345.199951
 30
0.0
 11
23.124603
 21
345.199951
 31
0.0
  0
LINE
  5
28C
330
1F
100
AcDbEntity
  8
0
 62
     7
370
    35
100
AcDbLine
 10
19.124542
 20
344.449951
 30
0.0
 11
23.124542
 21
344.449951
 31
0.0
  0
LINE
  5
28D
330
1F
100
AcDbEntity
  8
0
 62
     7
370
    35
100
AcDbLine
 10
23.624725
 20
346.949951
 30
0.0
 11
125.624664
 21
346.949951
 31
0.0
  0
LINE
  5
28E
330
1F
100
AcDbEntity
  8
0
 62
     7
370
    35
100
AcDbLine
 10
23.625214
 20
338.949951
 30
0.0
 11
125.624664
 21
338.949951
 31
0.0
  0
LINE
  5
28F
330
1F
100
AcDbEntity
  8
0
 62
     7
370
    35
100
AcDbLine
 10
23.624725
 20
346.949951
 30
0.0
 11
23.625214
 21
338.949951
 31
0.0
  0
ARC
  5
290
330
1F
100
AcDbEntity
  8
0
 62
     7
370
    35
100
AcDbCircle
 10
521.127075
 20
177.850082
 30
0.0
 40
1.0
100
AcDbArc
 50
5.73902
 51
174.260966
  0
ARC
  5
291
330
1F
100
AcDbEntity
  8
0
 62
     7
370
    35
100
AcDbCircle
 10
521.127075
 20
168.050064
 30
0.0
 40
1.0
100
AcDbArc
 50
185.739048
 51
354.260985
  0
CIRCLE
  5
292
330
1F
100
AcDbEntity
  8
0
 62
     7
370
    35
100
AcDbCircle
 10
397.832947
 20
164.255051
 30
0.0
 40
2.099999904632568
  0
CIRCLE
  5
293
330
1F
100
AcDbEntity
  8
0
 62
     7
370
    35
100
AcDbCircle
 10
287.832947
 20
181.645035
 30
0.0
 40
2.099999904632568
  0
ARC
  5
294
330
1F
100
AcDbEntity
  8
0
 62
     7
370
    35
100
AcDbCircle
 10
285.332947
 20
184.145035
 30
0.0
 40
2.0
100
AcDbArc
 50
90.000003
 51
180.000009
  0
ARC
  5
295
330
1F
100
AcDbEntity
  8
0
 62
     7
370
    35
100
AcDbCircle
 10
400.332947
 20
161.755051
 30
0.0
 40
2.0
100
AcDbArc
 50
269.999997
 51
360.0
  0
ARC
  5
296
330
1F
100
AcDbEntity
  8
0
 62
     7
370
    35
100
AcDbCircle
 10
400.332947
 20
166.65004
 30
0.0
 40
2.0
100
AcDbArc
 50
0.0
 51
90.000003
  0
ARC
  5
297
330
1F
100
AcDbEntity
  8
0
 62
     7
370
    35
100
AcDbCircle
 10
285.332947
 20
179.250046
 30
0.0
 40
2.0
100
AcDbArc
 50
180.000009
 51
269.999997
  0
ARC
  5
298
330
1F
100
AcDbEntity
  8
0
 62
     7
370
    35
100
AcDbCircle
 10
499.127075
 20
72.950058
 30
0.0
 40
1.0
100
AcDbArc
 50
269.999997
 51
90.000003
  0
CIRCLE
  5
299
330
1F
100
AcDbEntity
  8
0
 62
     7
370
    35
100
AcDbCircle
 10
521.127075
 20
72.950058
 30
0.0
 40
1.0
  0
CIRCLE
  5
29A
330
1F
100
AcDbEntity
  8
0
 62
     7
370
    35
100
AcDbCircle
 10
380.332947
 20
68.550049
 30
0.0
 40
1.950000047683716
  0
ARC
  5
29B
330
1F
100
AcDbEntity
  8
0
 62
     7
370
    35
100
AcDbCircle
 10
392.532959
 20
78.950058
 30
0.0
 40
0.800000011920929
100
AcDbArc
 50
0.0
 51
90.000003
  0
CIRCLE
  5
29C
330
1F
100
AcDbEntity
  8
0
 62
     7
370
    35
100
AcDbCircle
 10
304.332947
 20
68.550049
 30
0.0
 40
1.950000047683716
  0
ARC
  5
29D
330
1F
100
AcDbEntity
  8
0
 62
     7
370
    35
100
AcDbCircle
 10
293.132935
 20
78.950058
 30
0.0
 40
0.800000011920929
100
AcDbArc
 50
90.000003
 51
180.000009
  0
ARC
  5
29E
330
1F
100
AcDbEntity
  8
0
 62
     7
370
    35
100
AcDbCircle
 10
292.332947
 20
65.750046
 30
0.0
 40
0.800000011920929
100
AcDbArc
 50
269.999997
 51
360.0
  0
ARC
  5
29F
330
1F
100
AcDbEntity
  8
0
 62
     7
370
    35
100
AcDbCircle
 10
391.432922
 20
65.550049
 30
0.0
 40
1.0
100
AcDbArc
 50
269.999997
 51
360.0
  0
ARC
  5
2A0
330
1F
100
AcDbEntity
  8
0
 62
     7
370
    35
100
AcDbCircle
 10
294.23291
 20
65.550049
 30
0.0
 40
1.0
100
AcDbArc
 50
180.000009
 51
269.999997
  0
CIRCLE
  5
2A1
330
1F
100
AcDbEntity
  8
0
 62
     7
370
    35
100
AcDbCircle
 10
304.332947
 20
68.550049
 30
0.0
 40
2.0
  0
ARC
  5
2A2
330
1F
100
AcDbEntity
  8
0
 62
     7
370
    35
100
AcDbCircle
 10
305.181458
 20
68.550049
 30
0.0
 40
0.4000000059604645
100
AcDbArc
 50
135.0
 51
224.999986
  0
ARC
  5
2A3
330
1F
100
AcDbEntity
  8
0
 62
     7
370
    35
100
AcDbCircle
 10
304.332947
 20
69.398575
 30
0.0
 40
0.4000000059604645
100
AcDbArc
 50
225.0
 51
314.999992
  0
ARC
  5
2A4
330
1F
100
AcDbEntity
  8
0
 62
     7
370
    35
100
AcDbCircle
 10
303.484436
 20
68.550049
 30
0.0
 40
0.4000000059604645
100
AcDbArc
 50
314.999992
 51
44.999998
  0
ARC
  5
2A5
330
1F
100
AcDbEntity
  8
0
 62
     7
370
    35
100
AcDbCircle
 10
304.332947
 20
67.701523
 30
0.0
 40
0.4000000059604645
100
AcDbArc
 50
45.000001
 51
135.0
  0
CIRCLE
  5
2A6
330
1F
100
AcDbEntity
  8
0
 62
     7
370
    35
100
AcDbCircle
 10
380.332947
 20
68.550049
 30
0.0
 40
2.0
  0
ARC
  5
2A7
330
1F
100
AcDbEntity
  8
0
 62
     7
370
    35
100
AcDbCircle
 10
381.181458
 20
68.550049
 30
0.0
 40
0.4000000059604645
100
AcDbArc
 50
135.0
 51
224.999986
  0
ARC
  5
2A8
330
1F
100
AcDbEntity
  8
0
 62
     7
370
    35
100
AcDbCircle
 10
380.332947
 20
69.398575
 30
0.0
 40
0.4000000059604645
100
AcDbArc
 50
225.0
 51
314.999992
  0
ARC
  5
2A9
330
1F
100
AcDbEntity
  8
0
 62
     7
370
    35
100
AcDbCircle
 10
379.484436
 20
68.550049
 30
0.0
 40
0.4000000059604645
100
AcDbArc
 50
314.999992
 51
44.999998
  0
ARC
  5
2AA
330
1F
100
AcDbEntity
  8
0
 62
     7
370
    35
100
AcDbCircle
 10
380.332947
 20
67.701523
 30
0.0
 40
0.4000000059604645
100
AcDbArc
 50
45.000001
 51
135.0
  0
CIRCLE
  5
2AB
330
1F
100
AcDbEntity
  8
0
 62
     7
370
    35
100
AcDbCircle
 10
322.388184
 20
330.724976
 30
0.0
 40
0.0500000007450581
  0
CIRCLE
  5
2AC
330
1F
100
AcDbEntity
  8
0
 62
     7
370
    35
100
AcDbCircle
 10
454.197876
 20
351.271179
 30
0.0
 40
0.0500000007450581
  0
CIRCLE
  5
2AD
330
1F
100
AcDbEntity
  8
0
 62
     7
370
    35
100
AcDbCircle
 10
127.375755
 20
350.432678
 30
0.0
 40
0.0500000007450581
  0
ARC
  5
2AE
330
1F
100
AcDbEntity
  8
0
 62
     7
370
    35
100
AcDbCircle
 10
12.874664
 20
342.949951
 30
0.0
 40
1.25
100
AcDbArc
 50
101.536957
 51
258.463043
  0
LINE
  5
2AF
330
1F
100
AcDbEntity
  8
0
 62
     7
370
    35
100
AcDbLine
 10
475.22467
 20
345.400024
 30
0.0
 11
536.710327
 21
345.400024
 31
0.0
  0
LINE
  5
2B0
330
1F
100
AcDbEntity
  8
0
 62
     7
370
    35
100
AcDbLine
 10
475.22467
 20
340.5
 30
0.0
 11
537.432617
 21
340.5
 31
0.0
  0
ARC
  5
2B1
330
1F
100
AcDbEntity
  8
0
 62
     7
370
    35
100
AcDbCircle
 10
537.432617
 20
300.463074
 30
0.0
 40
40.03697967529297
100
AcDbArc
 50
266.855296
 51
90.000003
  0
ARC
  5
2B2
330
1F
100
AcDbEntity
  8
0
 62
     7
370
    35
100
AcDbCircle
 10
537.432617
 20
300.463074
 30
0.0
 40
44.94274139404297
100
AcDbArc
 50
269.082375
 51
90.920862
  0
LINE
  5
2B3
330
1F
100
AcDbEntity
  8
0
 62
     7
370
    35
100
AcDbLine
 10
536.712769
 20
255.526093
 30
0.0
 11
378.661438
 21
255.526093
 31
0.0
  0
LINE
  5
2B4
330
1F
100
AcDbEntity
  8
0
 62
     7
370
    35
100
AcDbLine
 10
537.432617
 20
260.426086
 30
0.0
 11
378.66156
 21
260.426086
 31
0.0
  0
ARC
  5
2B5
330
1F
100
AcDbEntity
  8
0
 62
     7
370
    35
100
AcDbCircle
 10
379.375732
 20
259.20105
 30
0.0
 40
1.417995452880859
100
AcDbArc
 50
120.241724
 51
239.758276
  0
ARC
  5
2B6
330
1F
100
AcDbEntity
  8
0
 62
     7
370
    35
100
AcDbCircle
 10
377.947388
 20
259.20105
 30
0.0
 40
1.417995452880859
100
AcDbArc
 50
300.241732
 51
59.758274
  0
ARC
  5
2B7
330
1F
100
AcDbEntity
  8
0
 62
     7
370
    35
100
AcDbCircle
 10
379.375732
 20
256.751038
 30
0.0
 40
1.417995452880859
100
AcDbArc
 50
120.241724
 51
239.752512
  0
ARC
  5
2B8
330
1F
100
AcDbEntity
  8
0
 62
     7
370
    35
100
AcDbCircle
 10
372.438721
 20
259.201111
 30
0.0
 40
1.417995452880859
100
AcDbArc
 50
300.241732
 51
59.756826
  0
ARC
  5
2B9
330
1F
100
AcDbEntity
  8
0
 62
     7
370
    35
100
AcDbCircle
 10
373.867065
 20
256.751038
 30
0.0
 40
1.417995452880859
100
AcDbArc
 50
120.241724
 51
239.753932
  0
ARC
  5
2BA
330
1F
100
AcDbEntity
  8
0
 62
     7
370
    35
100
AcDbCircle
 10
373.867065
 20
256.751038
 30
0.0
 40
1.417995452880859
100
AcDbArc
 50
120.241724
 51
239.758276
  0
ARC
  5
2BB
330
1F
100
AcDbEntity
  8
0
 62
     7
370
    35
100
AcDbCircle
 10
372.438721
 20
256.751038
 30
0.0
 40
1.417995452880859
100
AcDbArc
 50
300.246049
 51
59.758274
  0
LINE
  5
2BC
330
1F
100
AcDbEntity
  8
0
 62
     7
370
    35
100
AcDbLine
 10
373.152985
 20
255.526093
 30
0.0
 11
218.438354
 21
255.526093
 31
0.0
  0
LINE
  5
2BD
330
1F
100
AcDbEntity
  8
0
 62
     7
370
    35
100
AcDbLine
 10
373.152924
 20
260.426086
 30
0.0
 11
218.438354
 21
260.426086
 31
0.0
  0
ARC
  5
2BE
330
1F
100
AcDbEntity
  8
0
 62
     7
370
    35
100
AcDbCircle
 10
218.438354
 20
215.463089
 30
0.0
 40
40.06301498413086
100
AcDbArc
 50
90.000003
 51
269.999997
  0
ARC
  5
2BF
330
1F
100
AcDbEntity
  8
0
 62
     7
370
    35
100
AcDbCircle
 10
218.438354
 20
215.463089
 30
0.0
 40
44.9630126953125
100
AcDbArc
 50
90.000003
 51
269.999997
  0
LINE
  5
2C0
330
1F
100
AcDbEntity
  8
0
 62
     7
370
    35
100
AcDbLine
 10
281.232941
 20
175.40007
 30
0.0
 11
218.438354
 21
175.40007
 31
0.0
  0
LINE
  5
2C1
330
1F
100
AcDbEntity
  8
0
 62
     7
370
    35
100
AcDbLine
 10
281.232941
 20
170.500046
 30
0.0
 11
218.438354
 21
170.500046
 31
0.0
  0
ARC
  5
2C2
330
1F
100
AcDbEntity
  8
0
 62
     7
370
    35
100
AcDbCircle
 10
448.43396
 20
174.175049
 30
0.0
 40
1.417995452880859
100
AcDbArc
 50
120.241724
 51
239.758276
  0
ARC
  5
2C3
330
1F
100
AcDbEntity
  8
0
 62
     7
370
    35
100
AcDbCircle
 10
447.005615
 20
174.175049
 30
0.0
 40
1.417995452880859
100
AcDbArc
 50
300.241732
 51
59.758274
  0
ARC
  5
2C4
330
1F
100
AcDbEntity
  8
0
 62
     7
370
    35
100
AcDbCircle
 10
448.43396
 20
171.725006
 30
0.0
 40
1.417995452880859
100
AcDbArc
 50
120.241724
 51
239.753932
  0
ARC
  5
2C5
330
1F
100
AcDbEntity
  8
0
 62
     7
370
    35
100
AcDbCircle
 10
441.496948
 20
174.175064
 30
0.0
 40
1.417995452880859
100
AcDbArc
 50
300.241732
 51
59.756826
  0
ARC
  5
2C6
330
1F
100
AcDbEntity
  8
0
 62
     7
370
    35
100
AcDbCircle
 10
442.925293
 20
171.725037
 30
0.0
 40
1.417995452880859
100
AcDbArc
 50
120.241724
 51
239.753932
  0
ARC
  5
2C7
330
1F
100
AcDbEntity
  8
0
 62
     7
370
    35
100
AcDbCircle
 10
442.925293
 20
171.725037
 30
0.0
 40
1.417995452880859
100
AcDbArc
 50
120.241724
 51
239.758276
  0
ARC
  5
2C8
330
1F
100
AcDbEntity
  8
0
 62
     7
370
    35
100
AcDbCircle
 10
441.496948
 20
171.725037
 30
0.0
 40
1.417995452880859
100
AcDbArc
 50
300.244622
 51
59.758274
  0
LINE
  5
2C9
330
1F
100
AcDbEntity
  8
0
 62
     7
370
    35
100
AcDbLine
 10
404.432922
 20
170.500046
 30
0.0
 11
442.211182
 21
170.500046
 31
0.0
  0
LINE
  5
2CA
330
1F
100
AcDbEntity
  8
0
 62
     7
370
    35
100
AcDbLine
 10
404.432922
 20
175.40007
 30
0.0
 11
442.211151
 21
175.40007
 31
0.0
  0
LINE
  5
2CB
330
1F
100
AcDbEntity
  8
0
 62
     7
370
    35
100
AcDbLine
 10
447.719788
 20
175.40007
 30
0.0
 11
475.127075
 21
175.40007
 31
0.0
  0
LINE
  5
2CC
330
1F
100
AcDbEntity
  8
0
 62
     7
370
    35
100
AcDbLine
 10
447.719696
 20
170.500046
 30
0.0
 11
475.127075
 21
170.500046
 31
0.0
  0
LINE
  5
2CD
330
1F
100
AcDbEntity
  8
0
 62
     7
370
    35
100
AcDbLine
 10
524.627075
 20
172.950058
 30
0.0
 11
522.243164
 21
172.950058
 31
0.0
  0
LINE
  5
2CE
330
1F
100
AcDbEntity
  8
0
 62
     7
370
    35
100
AcDbLine
 10
445.931824
 20
75.400055
 30
0.0
 11
475.127075
 21
75.400055
 31
0.0
  0
LINE
  5
2CF
330
1F
100
AcDbEntity
  8
0
 62
     7
370
    35
100
AcDbLine
 10
404.432922
 20
75.400055
 30
0.0
 11
440.423187
 21
75.400055
 31
0.0
  0
LINE
  5
2D0
330
1F
100
AcDbEntity
  8
0
 62
     7
370
    35
100
AcDbLine
 10
404.432922
 20
70.500031
 30
0.0
 11
440.423218
 21
70.500031
 31
0.0
  0
LINE
  5
2D1
330
1F
100
AcDbEntity
  8
0
 62
     7
370
    35
100
AcDbLine
 10
445.931732
 20
70.500031
 30
0.0
 11
475.127075
 21
70.500031
 31
0.0
  0
ARC
  5
2D2
330
1F
100
AcDbEntity
  8
0
 62
     7
370
    35
100
AcDbCircle
 10
446.645996
 20
74.175034
 30
0.0
 40
1.417995452880859
100
AcDbArc
 50
120.241724
 51
239.758276
  0
ARC
  5
2D3
330
1F
100
AcDbEntity
  8
0
 62
     7
370
    35
100
AcDbCircle
 10
445.217651
 20
74.175034
 30
0.0
 40
1.417995452880859
100
AcDbArc
 50
300.241732
 51
59.758274
  0
ARC
  5
2D4
330
1F
100
AcDbEntity
  8
0
 62
     7
370
    35
100
AcDbCircle
 10
446.645996
 20
71.724998
 30
0.0
 40
1.417995452880859
100
AcDbArc
 50
120.241724
 51
239.754014
  0
ARC
  5
2D5
330
1F
100
AcDbEntity
  8
0
 62
     7
370
    35
100
AcDbCircle
 10
439.708984
 20
74.175049
 30
0.0
 40
1.417995452880859
100
AcDbArc
 50
300.241732
 51
59.756826
  0
ARC
  5
2D6
330
1F
100
AcDbEntity
  8
0
 62
     7
370
    35
100
AcDbCircle
 10
441.137329
 20
71.725014
 30
0.0
 40
1.417995452880859
100
AcDbArc
 50
120.241724
 51
239.753932
  0
ARC
  5
2D7
330
1F
100
AcDbEntity
  8
0
 62
     7
370
    35
100
AcDbCircle
 10
441.137329
 20
71.725014
 30
0.0
 40
1.417995452880859
100
AcDbArc
 50
120.241724
 51
239.758276
  0
ARC
  5
2D8
330
1F
100
AcDbEntity
  8
0
 62
     7
370
    35
100
AcDbCircle
 10
439.708984
 20
71.725014
 30
0.0
 40
1.417995452880859
100
AcDbArc
 50
300.24454
 51
59.758274
  0
LINE
  5
2D9
330
1F
100
AcDbEntity
  8
0
 62
     7
370
    35
100
AcDbLine
 10
404.432922
 20
76.850052
 30
0.0
 11
404.432922
 21
69.050049
 31
0.0
  0
LINE
  5
2DA
330
1F
100
AcDbEntity
  8
0
 62
     7
370
    35
100
AcDbLine
 10
281.23291
 20
69.45005
 30
0.0
 11
281.23291
 21
76.45005
 31
0.0
  0
ARC
  5
2DB
330
1F
100
AcDbEntity
  8
0
 62
     7
370
    35
100
AcDbCircle
 10
254.539795
 20
74.175041
 30
0.0
 40
1.417995452880859
100
AcDbArc
 50
120.241724
 51
239.758276
  0
ARC
  5
2DC
330
1F
100
AcDbEntity
  8
0
 62
     7
370
    35
100
AcDbCircle
 10
253.11145
 20
74.175041
 30
0.0
 40
1.417995452880859
100
AcDbArc
 50
300.241732
 51
59.758274
  0
ARC
  5
2DD
330
1F
100
AcDbEntity
  8
0
 62
     7
370
    35
100
AcDbCircle
 10
254.539795
 20
71.724998
 30
0.0
 40
1.417995452880859
100
AcDbArc
 50
120.241724
 51
239.753932
  0
LINE
  5
2DE
330
1F
100
AcDbEntity
  8
0
 62
     7
370
    35
100
AcDbLine
 10
253.825623
 20
75.400063
 30
0.0
 11
281.23291
 21
75.400063
 31
0.0
  0
LINE
  5
2DF
330
1F
100
AcDbEntity
  8
0
 62
     7
370
    35
100
AcDbLine
 10
253.825531
 20
70.500038
 30
0.0
 11
281.23291
 21
70.500038
 31
0.0
  0
ENDSEC
  0
SECTION
  2
OBJECTS
  0
DICTIONARY
  5
C
330
0
100
AcDbDictionary
281
     1
  3
ACAD_GROUP
350
D
  3
ACAD_LAYOUT
350
1A
  3
ACAD_MLINESTYLE
350
17
  3
ACAD_PLOTSETTINGS
350
19
  3
ACAD_PLOTSTYLENAME
350
E
  3
ACAD_SCALELIST
350
47
  0
DICTIONARY
  5
D
102
{ACAD_REACTORS
330
C
102
}
330
C
100
AcDbDictionary
281
     1
  0
DICTIONARY
  5
1A
102
{ACAD_REACTORS
330
C
102
}
330
C
100
AcDbDictionary
281
     1
  3
Layout1
350
1E
  3
Layout2
350
26
  3
Model
350
22
  0
DICTIONARY
  5
17
102
{ACAD_REACTORS
330
C
102
}
330
C
100
AcDbDictionary
281
     1
  3
Standard
350
18
  0
DICTIONARY
  5
19
102
{ACAD_REACTORS
330
C
102
}
330
C
100
AcDbDictionary
281
     1
  0
ACDBDICTIONARYWDFLT
  5
E
102
{ACAD_REACTORS
330
C
102
}
330
C
100
AcDbDictionary
281
     1
  3
Normal
350
F
100
AcDbDictionaryWithDefault
340
F
  0
DICTIONARY
  5
47
102
{ACAD_REACTORS
330
C
102
}
330
C
100
AcDbDictionary
281
     1
  3
A0
350
48
  3
A1
350
49
  3
A2
350
4A
  3
A3
350
4B
  3
A4
350
4C
  3
A5
350
4D
  3
A6
350
4E
  3
A7
350
4F
  3
A8
350
50
  3
A9
350
51
  3
B0
350
52
  3
B1
350
53
  3
B2
350
54
  3
B3
350
55
  3
B4
350
56
  3
B5
350
57
  3
B6
350
58
  3
B7
350
59
  3
B8
350
5A
  3
B9
350
5B
  3
C0
350
5C
  3
C1
350
5D
  3
C2
350
5E
  3
C3
350
5F
  3
C4
350
60
  3
C5
350
61
  3
C6
350
62
  3
C7
350
63
  3
C8
350
64
  3
C9
350
65
  3
D0
350
66
  3
D1
350
67
  3
D2
350
68
  0
LAYOUT
  5
1E
102
{ACAD_REACTORS
330
1A
102
}
330
1A
100
AcDbPlotSettings
  1

  2
none_device
  4

  6

 40
0.0
 41
0.0
 42
0.0
 43
0.0
 44
0.0
 45
0.0
 46
0.0
 47
0.0
 48
0.0
 49
0.0
140
0.0
141
0.0
142
1.0
143
1.0
 70
  4784
 72
     0
 73
     0
 74
     5
  7

 75
    16
147
1.0
148
0.0
149
0.0
100
AcDbLayout
  1
Layout1
 70
     1
 71
     1
 10
0.0
 20
0.0
 11
420.0
 21
297.0
 12
0.0
 22
0.0
 32
0.0
 14
0.0
 24
0.0
 34
0.0
 15
582.375366
 25
355.449951
 35
2.0
146
0.0
 13
0.0
 23
0.0
 33
0.0
 16
1.0
 26
0.0
 36
0.0
 17
0.0
 27
1.0
 37
0.0
 76
     0
330
1B
  0
LAYOUT
  5
26
102
{ACAD_REACTORS
330
1A
102
}
330
1A
100
AcDbPlotSettings
  1

  2
none_device
  4

  6

 40
0.0
 41
0.0
 42
0.0
 43
0.0
 44
0.0
 45
0.0
 46
0.0
 47
0.0
 48
0.0
 49
0.0
140
0.0
141
0.0
142
1.0
143
1.0
 70
  4784
 72
     0
 73
     0
 74
     5
  7

 75
    16
147
1.0
148
0.0
149
0.0
100
AcDbLayout
  1
Layout2
 70
     1
 71
     2
 10
0.0
 20
0.0
 11
0.0
 21
0.0
 12
0.0
 22
0.0
 32
0.0
 14
0.0
 24
0.0
 34
0.0
 15
0.0
 25
0.0
 35
0.0
146
0.0
 13
0.0
 23
0.0
 33
0.0
 16
1.0
 26
0.0
 36
0.0
 17
0.0
 27
1.0
 37
0.0
 76
     0
330
23
  0
LAYOUT
  5
22
102
{ACAD_REACTORS
330
1A
102
}
330
1A
100
AcDbPlotSettings
  1

  2
none_device
  4
Letter_(8.50_x_11.00_Inches)
  6

 40
6.35
 41
6.35
 42
6.350005
 43
6.350005
 44
215.9
 45
279.4
 46
0.0
 47
0.0
 48
0.0
 49
0.0
140
0.0
141
0.0
142
1.0
143
1.0
 70
  5808
 72
     0
 73
     0
 74
     0
  7

 75
     0
147
1.0
148
0.0
149
0.0
100
AcDbLayout
  1
Model
 70
     1
 71
     0
 10
0.0
 20
0.0
 11
420.0
 21
297.0
 12
0.0
 22
0.0
 32
0.0
 14
0.0
 24
0.0
 34
0.0
 15
582.375366
 25
355.449951
 35
2.0
146
0.0
 13
0.0
 23
0.0
 33
0.0
 16
1.0
 26
0.0
 36
0.0
 17
0.0
 27
1.0
 37
0.0
 76
     0
330
1F
331
29
  0
MLINESTYLE
  5
18
102
{ACAD_REACTORS
330
17
102
}
330
17
100
AcDbMlineStyle
  2
Standard
 70
     0
  3

 62
   256
 51
90.0
 52
90.0
 71
     2
 49
0.5
 62
   256
  6
BYLAYER
 49
-0.5
 62
   256
  6
BYLAYER
  0
ACDBPLACEHOLDER
  5
F
102
{ACAD_REACTORS
330
E
102
}
330
E
  0
SCALE
  5
48
102
{ACAD_REACTORS
330
47
102
}
330
47
100
AcDbScale
 70
     0
300
1:1
140
1.0
141
1.0
290
     1
  0
SCALE
  5
49
102
{ACAD_REACTORS
330
47
102
}
330
47
100
AcDbScale
 70
     0
300
1:2
140
1.0
141
2.0
290
     0
  0
SCALE
  5
4A
102
{ACAD_REACTORS
330
47
102
}
330
47
100
AcDbScale
 70
     0
300
1:4
140
1.0
141
4.0
290
     0
  0
SCALE
  5
4B
102
{ACAD_REACTORS
330
47
102
}
330
47
100
AcDbScale
 70
     0
300
1:5
140
1.0
141
5.0
290
     0
  0
SCALE
  5
4C
102
{ACAD_REACTORS
330
47
102
}
330
47
100
AcDbScale
 70
     0
300
1:8
140
1.0
141
8.0
290
     0
  0
SCALE
  5
4D
102
{ACAD_REACTORS
330
47
102
}
330
47
100
AcDbScale
 70
     0
300
1:10
140
1.0
141
10.0
290
     0
  0
SCALE
  5
4E
102
{ACAD_REACTORS
330
47
102
}
330
47
100
AcDbScale
 70
     0
300
1:16
140
1.0
141
16.0
290
     0
  0
SCALE
  5
4F
102
{ACAD_REACTORS
330
47
102
}
330
47
100
AcDbScale
 70
     0
300
1:20
140
1.0
141
20.0
290
     0
  0
SCALE
  5
50
102
{ACAD_REACTORS
330
47
102
}
330
47
100
AcDbScale
 70
     0
300
1:30
140
1.0
141
30.0
290
     0
  0
SCALE
  5
51
102
{ACAD_REACTORS
330
47
102
}
330
47
100
AcDbScale
 70
     0
300
1:40
140
1.0
141
40.0
290
     0
  0
SCALE
  5
52
102
{ACAD_REACTORS
330
47
102
}
330
47
100
AcDbScale
 70
     0
300
1:50
140
1.0
141
50.0
290
     0
  0
SCALE
  5
53
102
{ACAD_REACTORS
330
47
102
}
330
47
100
AcDbScale
 70
     0
300
1:100
140
1.0
141
100.0
290
     0
  0
SCALE
  5
54
102
{ACAD_REACTORS
330
47
102
}
330
47
100
AcDbScale
 70
     0
300
2:1
140
2.0
141
1.0
290
     0
  0
SCALE
  5
55
102
{ACAD_REACTORS
330
47
102
}
330
47
100
AcDbScale
 70
     0
300
4:1
140
4.0
141
1.0
290
     0
  0
SCALE
  5
56
102
{ACAD_REACTORS
330
47
102
}
330
47
100
AcDbScale
 70
     0
300
8:1
140
8.0
141
1.0
290
     0
  0
SCALE
  5
57
102
{ACAD_REACTORS
330
47
102
}
330
47
100
AcDbScale
 70
     0
300
10:1
140
10.0
141
1.0
290
     0
  0
SCALE
  5
58
102
{ACAD_REACTORS
330
47
102
}
330
47
100
AcDbScale
 70
     0
300
100:1
140
100.0
141
1.0
290
     0
  0
SCALE
  5
59
102
{ACAD_REACTORS
330
47
102
}
330
47
100
AcDbScale
 70
     0
300
1/128" = 1'-0"
140
0.007812
141
12.0
290
     0
  0
SCALE
  5
5A
102
{ACAD_REACTORS
330
47
102
}
330
47
100
AcDbScale
 70
     0
300
1/64" = 1'-0"
140
0.015625
141
12.0
290
     0
  0
SCALE
  5
5B
102
{ACAD_REACTORS
330
47
102
}
330
47
100
AcDbScale
 70
     0
300
1/32" = 1'-0"
140
0.03125
141
12.0
290
     0
  0
SCALE
  5
5C
102
{ACAD_REACTORS
330
47
102
}
330
47
100
AcDbScale
 70
     0
300
1/16" = 1'-0"
140
0.0625
141
12.0
290
     0
  0
SCALE
  5
5D
102
{ACAD_REACTORS
330
47
102
}
330
47
100
AcDbScale
 70
     0
300
3/32" = 1'-0"
140
0.09375
141
12.0
290
     0
  0
SCALE
  5
5E
102
{ACAD_REACTORS
330
47
102
}
330
47
100
AcDbScale
 70
     0
300
1/8" = 1'-0"
140
0.125
141
12.0
290
     0
  0
SCALE
  5
5F
102
{ACAD_REACTORS
330
47
102
}
330
47
100
AcDbScale
 70
     0
300
3/16" = 1'-0"
140
0.1875
141
12.0
290
     0
  0
SCALE
  5
60
102
{ACAD_REACTORS
330
47
102
}
330
47
100
AcDbScale
 70
     0
300
1/4" = 1'-0"
140
0.25
141
12.0
290
     0
  0
SCALE
  5
61
102
{ACAD_REACTORS
330
47
102
}
330
47
100
AcDbScale
 70
     0
300
3/8" = 1'-0"
140
0.375
141
12.0
290
     0
  0
SCALE
  5
62
102
{ACAD_REACTORS
330
47
102
}
330
47
100
AcDbScale
 70
     0
300
1/2" = 1'-0"
140
0.5
141
12.0
290
     0
  0
SCALE
  5
63
102
{ACAD_REACTORS
330
47
102
}
330
47
100
AcDbScale
 70
     0
300
3/4" = 1'-0"
140
0.75
141
12.0
290
     0
  0
SCALE
  5
64
102
{ACAD_REACTORS
330
47
102
}
330
47
100
AcDbScale
 70
     0
300
1" = 1'-0"
140
1.0
141
12.0
290
     0
  0
SCALE
  5
65
102
{ACAD_REACTORS
330
47
102
}
330
47
100
AcDbScale
 70
     0
300
1-1/2" = 1'-0"
140
1.5
141
12.0
290
     0
  0
SCALE
  5
66
102
{ACAD_REACTORS
330
47
102
}
330
47
100
AcDbScale
 70
     0
300
3" = 1'-0"
140
3.0
141
12.0
290
     0
  0
SCALE
  5
67
102
{ACAD_REACTORS
330
47
102
}
330
47
100
AcDbScale
 70
     0
300
6" = 1'-0"
140
6.0
141
12.0
290
     0
  0
SCALE
  5
68
102
{ACAD_REACTORS
330
47
102
}
330
47
100
AcDbScale
 70
     0
300
1'-0" = 1'-0"
140
12.0
141
12.0
290
     0
  0
ENDSEC
  0
EOF
