  0
SECTION
  2
HEADER
  9
$ACADVER
  1
AC1009
  9
$INSBASE
 10
0
 20
0
 30
0
  9
$EXTMIN
 10
0
 20
0
  9
$EXTMAX
 10
1682
 20
1188
  9
$LIMMIN
 10
0
 20
0
  9
$LIMMAX
 10
1682
 20
1188
  9
$LTSCALE
 40
2
  0
ENDSEC
  0
SECTION
  2
TABLES
  0
TABLE
  2
LTYPE
 70
     9
  0
LTYPE
  2
CONTINUOUS
 70
    64
  3
実線
 72
    65
 73
     0
 40
0.0
  0
LTYPE
  2
DASHED1
 70
    64
  3
--  --  --  --  --  --  --  --  
 72
    65
 73
     2
 40
2.5
 49
1.25
 49
-1.25
  0
LTYPE
  2
DASHED2
 70
    64
  3
----    ----    ----    ----    
 72
    65
 73
     2
 40
5.0
 49
2.5
 49
-2.5
  0
LTYPE
  2
DASHED3
 70
    64
  3
------  ------  ------  ------  
 72
    65
 73
     2
 40
5.0
 49
3.75
 49
-1.25
  0
LTYPE
  2
CENTER1
 70
    64
  3
----- - ----- - ----- - ----- - 
 72
    65
 73
     4
 40
10.0
 49
6.25
 49
-1.25
 49
1.25
 49
-1.25
  0
LTYPE
  2
CENTER2
 70
    64
  3
----------  --  ----------  --  
 72
    65
 73
     4
 40
20.0
 49
12.5
 49
-2.5
 49
2.5
 49
-2.5
  0
LTYPE
  2
PHANTOM1
 70
    64
  3
--- - - --- - - --- - - --- - - 
 72
    65
 73
     6
 40
10.0
 49
3.25
 49
-1.25
 49
1.25
 49
-1.25
 49
1.25
 49
-1.25
  0
LTYPE
  2
PHANTOM2
 70
    64
  3
--------  -  -  --------  -  -  
 72
    65
 73
     6
 40
20.0
 49
10.0
 49
-2.5
 49
1.25
 49
-2.5
 49
1.25
 49
-2.5
  0
LTYPE
  2
DOT
 70
    64
  3
-   -   -   -   -   -   -   -   
 72
    65
 73
     2
 40
2.5
 49
0.625
 49
-1.875
  0
LTYPE
  2
DUMMY
 70
    64
  3
ダミー
 72
    65
 73
     0
 40
0.0
  0
LTYPE
  2
RAND1
 70
    64
  3
ランダム線1
 72
    65
 73
     4
 40
10.0
 49
1.0
 49
-2.0
 49
3.0
 49
-4.0
  0
LTYPE
  2
RAND2
 70
    64
  3
ランダム線2
 72
    65
 73
     4
 40
14.0
 49
2.0
 49
-3.0
 49
4.0
 49
-5.0
  0
LTYPE
  2
RAND3
 70
    64
  3
ランダム線3
 72
    65
 73
     4
 40
18.0
 49
3.0
 49
-4.0
 49
5.0
 49
-6.0
  0
LTYPE
  2
RAND4
 70
    64
  3
ランダム線4
 72
    65
 73
     4
 40
22.0
 49
4.0
 49
-5.0
 49
6.0
 49
-7.0
  0
LTYPE
  2
RAND5
 70
    64
  3
ランダム線5
 72
    65
 73
     4
 40
26.0
 49
5.0
 49
-6.0
 49
7.0
 49
-8.0
  0
LTYPE
  2
LONG1
 70
    64
  3
----------  --  ----------  --  
 72
    65
 73
     4
 40
40.0
 49
32.5
 49
-2.5
 49
2.5
 49
-2.5
  0
LTYPE
  2
LONG2
 70
    64
  3
--------  -  -  --------  -  -  
 72
    65
 73
     6
 40
40.0
 49
30.0
 49
-2.5
 49
1.25
 49
-2.5
 49
1.25
 49
-2.5
  0
LTYPE
  2
LONG3
 70
    64
  3
+++++++++++++++..+++++++++++++++
 72
    65
 73
     2
 40
40.0
 49
37.5
 49
-2.5
  0
LTYPE
  2
LONG4
 70
    64
  3
+++++++++++++++..+++++++++++++++
 72
    65
 73
     2
 40
80.0
 49
75.0
 49
-5.0
  0
LTYPE
  2
LONG5
 70
    64
  3
----------  --  ----------  --  
 72
    65
 73
     4
 40
60.0
 49
37.5
 49
-7.5
 49
7.5
 49
-7.5
  0
LTYPE
  2
dashed
 70
   64
  3
-------   -------------   ------
 72
   65
 73
    2
 40
7.5
 49
6
 49
-1.5
  0
LTYPE
  2
dashed_spaced
 70
   64
  3
----        --------        ----
 72
   65
 73
    2
 40
12
 49
6
 49
-6
  0
LTYPE
  2
long_dashed_dotted
 70
   64
  3
------------- --- --------------
 72
   65
 73
    4
 40
15.25
 49
12
 49
-1.5
 49
0.25
 49
-1.5
  0
LTYPE
  2
long_dashed_double-dotted
 70
   64
  3
----------- --- --- ------------
 72
   65
 73
    6
 40
17
 49
12
 49
-1.5
 49
0.25
 49
-1.5
 49
0.25
 49
-1.5
  0
LTYPE
  2
long_dashed_triplicate-dotted
 70
   64
  3
--------- --- --- --- ----------
 72
   65
 73
    8
 40
18.75
 49
12
 49
-1.5
 49
0.25
 49
-1.5
 49
0.25
 49
-1.5
 49
0.25
 49
-1.5
  0
LTYPE
  2
dotted
 70
   64
  3
   -       -       -       -    
 72
   65
 73
    2
 40
1.75
 49
0.25
 49
-1.5
  0
LTYPE
  2
chain
 70
   64
  3
-------------- -- --------------
 72
   65
 73
    4
 40
18.5
 49
12
 49
-1.5
 49
3.5
 49
-1.5
  0
LTYPE
  2
chain_double_dash
 70
   64
  3
------------ -- -- -------------
 72
   65
 73
    6
 40
23.5
 49
12
 49
-1.5
 49
3.5
 49
-1.5
 49
3.5
 49
-1.5
  0
LTYPE
  2
dashed_dotted
 70
   64
  3
-----------     -     ----------
 72
   65
 73
    4
 40
9.25
 49
6
 49
-1.5
 49
0.25
 49
-1.5
  0
LTYPE
  2
double-dashed_dotted
 70
   64
  3
------   -----------   -   -----
 72
   65
 73
    6
 40
16.75
 49
6
 49
-1.5
 49
6
 49
-1.5
 49
0.25
 49
-1.5
  0
LTYPE
  2
dashed_double-dotted
 70
   64
  3
---------    -    -    ---------
 72
   65
 73
    6
 40
11
 49
6
 49
-1.5
 49
0.25
 49
-1.5
 49
0.25
 49
-1.5
  0
LTYPE
  2
double-dashed_double-dotted
 70
   64
  3
-----   ---------   -   -   ----
 72
   65
 73
    8
 40
18.5
 49
6
 49
-1.5
 49
6
 49
-1.5
 49
0.25
 49
-1.5
 49
0.25
 49
-1.5
  0
LTYPE
  2
dashed_triplicate-dotted
 70
   64
  3
-------    -    -    -    ------
 72
   65
 73
    8
 40
12.75
 49
6
 49
-1.5
 49
0.25
 49
-1.5
 49
0.25
 49
-1.5
 49
0.25
 49
-1.5
  0
LTYPE
  2
double-dashed_triplicate-dotted
 70
   64
  3
-----  ---------  -  -  -  -----
 72
   65
 73
   10
 40
20.25
 49
6
 49
-1.5
 49
6
 49
-1.5
 49
0.25
 49
-1.5
 49
0.25
 49
-1.5
 49
0.25
 49
-1.5
  0
LTYPE
  2
undefined
 70
   64
  3
--------------------------------
 72
   65
 73
    0
 40
0
  0
ENDTAB
  0
TABLE
  2
STYLE
  5
3
100
AcDbSymbolTable
 70
     1
  0
STYLE
  5
10
100
AcDbSymbolTableRecord
100
AcDbTextStyleTableRecord
  2
STANDARD
 70
     0
 40
0.0
 41
1.0
 50
0.0
 71
     0
 42
0.2
  3
txt
  4
bigfont.shx
  0
STYLE
  5
26
100
AcDbSymbolTableRecord
100
AcDbTextStyleTableRecord
  2
TATEGAKI
 70
    68
 40
0.0
 41
1.0
 50
0.0
 71
     0
 42
1.0
  3
txt
  4
bigfont.shx
  0
ENDTAB
  0
TABLE
  2
LAYER
 70
    2
  0
LAYER
  2
_0-0_0
 70
   64
 62
    7
  6
CONTINUOUS
  0
LAYER
  2
ADD_LINE
 70
   64
 62
    7
  6
CONTINUOUS
  0
ENDTAB
  0
ENDSEC
  0
SECTION
  2
BLOCKS
  0
ENDSEC
  0
SECTION
  2
ENTITIES
  0
ARC
  8
_0-0_0
  6
CONTINUOUS
 62
    7
 10
102.83109999999999
 20
765.35000600000001
 40
0.2
 50
269.99999700000001
 51
20.376440000000013
  0
LINE
  8
_0-0_0
  6
CONTINUOUS
 62
    7
 10
103.01858499999992
 20
765.41964699999994
 11
101.71858199999997
 21
768.91964699999994
  0
ARC
  8
_0-0_0
  6
CONTINUOUS
 62
    7
 10
101.53109699999993
 20
768.85000600000001
 40
0.2
 50
20.376439999999999
 51
159.62355600000001
  0
LINE
  8
_0-0_0
  6
CONTINUOUS
 62
    7
 10
100.04361699999993
 20
765.41964699999994
 11
101.343613
 21
768.91964699999994
  0
ARC
  8
_0-0_0
  6
CONTINUOUS
 62
    7
 10
100.23110199999996
 20
765.35000600000001
 40
0.2
 50
159.62355600000001
 51
269.99999700000001
  0
LINE
  8
_0-0_0
  6
CONTINUOUS
 62
    7
 10
100.23110199999996
 20
765.15002400000003
 11
102.83109999999999
 21
765.15002400000003
  0
LINE
  8
_0-0_0
  6
CONTINUOUS
 62
    7
 10
24.71763599999997
 20
819.75051899999994
 11
24.71763599999997
 21
819.74951199999998
  0
LINE
  8
_0-0_0
  6
CONTINUOUS
 62
    7
 10
54.031096999999932
 20
773.25
 11
59.031096999999932
 21
773.25
  0
LINE
  8
_0-0_0
  6
CONTINUOUS
 62
    7
 10
59.031096999999932
 20
773.25
 11
60.831099999999992
 21
773.25
  0
LINE
  8
_0-0_0
  6
CONTINUOUS
 62
    7
 10
60.831099999999992
 20
773.25
 11
61.531096999999932
 21
773.25
  0
ARC
  8
_0-0_0
  6
CONTINUOUS
 62
    7
 10
60.831099999999992
 20
772.75
 40
0.5
 50
0
 51
90.000003000000007
  0
ARC
  8
_0-0_0
  6
CONTINUOUS
 62
    7
 10
54.031096999999932
 20
772.75
 40
0.5
 50
90.000003000000007
 51
179.99999099999999
  0
ARC
  8
_0-0_0
  6
CONTINUOUS
 62
    7
 10
157.53109799999993
 20
772.75
 40
0.5
 50
0
 51
90.000003000000007
  0
LINE
  8
_0-0_0
  6
CONTINUOUS
 62
    7
 10
61.531096999999932
 20
773.25
 11
61.531096999999932
 21
771.75
  0
LINE
  8
_0-0_0
  6
CONTINUOUS
 62
    7
 10
61.531096999999932
 20
773.75
 11
61.531096999999932
 21
773.25
  0
LINE
  8
_0-0_0
  6
CONTINUOUS
 62
    7
 10
61.531096999999932
 20
774.25
 11
61.531096999999932
 21
773.75
  0
LINE
  8
_0-0_0
  6
CONTINUOUS
 62
    7
 10
61.531096999999932
 20
775.25
 11
61.531096999999932
 21
774.25
  0
LINE
  8
_0-0_0
  6
CONTINUOUS
 62
    7
 10
65.531096999999932
 20
773.25
 11
66.231101999999964
 21
773.25
  0
LINE
  8
_0-0_0
  6
CONTINUOUS
 62
    7
 10
61.331099999999992
 20
772.75
 11
61.331099999999992
 21
771.75
  0
LINE
  8
_0-0_0
  6
CONTINUOUS
 62
    7
 10
64.531096999999932
 20
746.25
 11
64.531096999999932
 21
747.85000600000001
  0
LINE
  8
_0-0_0
  6
CONTINUOUS
 62
    7
 10
64.531096999999932
 20
746.25
 11
59.031096999999932
 21
746.25
  0
LINE
  8
_0-0_0
  6
CONTINUOUS
 62
    7
 10
80.531096999999932
 20
752.95001200000002
 11
122.53109699999993
 21
752.95001200000002
  0
LINE
  8
_0-0_0
  6
CONTINUOUS
 62
    7
 10
80.531096999999932
 20
772.55001800000002
 11
122.53109699999993
 21
772.55001800000002
  0
LINE
  8
_0-0_0
  6
CONTINUOUS
 62
    7
 10
144.03109699999993
 20
746.25
 11
134.53109699999993
 21
746.25
  0
LINE
  8
_0-0_0
  6
CONTINUOUS
 62
    7
 10
134.53109699999993
 20
746.25
 11
134.53109699999993
 21
747.85000600000001
  0
ARC
  8
_0-0_0
  6
CONTINUOUS
 62
    7
 10
134.23109399999998
 20
747.85000600000001
 40
0.2999999999999999
 50
0
 51
90.000003000000007
  0
LINE
  8
_0-0_0
  6
CONTINUOUS
 62
    7
 10
133.53109699999993
 20
748.15002400000003
 11
134.23109399999998
 21
748.15002400000003
  0
LINE
  8
_0-0_0
  6
CONTINUOUS
 62
    7
 10
133.03109699999993
 20
748.55001800000002
 11
133.53109699999993
 21
748.55001800000002
  0
LINE
  8
_0-0_0
  6
CONTINUOUS
 62
    7
 10
119.53109699999993
 20
748.55001800000002
 11
133.03109699999993
 21
748.55001800000002
  0
ARC
  8
_0-0_0
  6
CONTINUOUS
 62
    7
 10
117.03109699999993
 20
748.55001800000002
 40
2.5
 50
0
 51
90.000003000000007
  0
LINE
  8
_0-0_0
  6
CONTINUOUS
 62
    7
 10
86.031096999999932
 20
751.05001800000002
 11
117.03109699999993
 21
751.05001800000002
  0
ARC
  8
_0-0_0
  6
CONTINUOUS
 62
    7
 10
86.031096999999932
 20
748.55001800000002
 40
2.5
 50
90.000003000000007
 51
179.99999099999999
  0
LINE
  8
_0-0_0
  6
CONTINUOUS
 62
    7
 10
66.031096999999932
 20
748.55001800000002
 11
83.531096999999932
 21
748.55001800000002
  0
LINE
  8
_0-0_0
  6
CONTINUOUS
 62
    7
 10
65.531096999999932
 20
748.55001800000002
 11
66.031096999999932
 21
748.55001800000002
  0
LINE
  8
_0-0_0
  6
CONTINUOUS
 62
    7
 10
64.831099999999992
 20
748.15002400000003
 11
65.531096999999932
 21
748.15002400000003
  0
ARC
  8
_0-0_0
  6
CONTINUOUS
 62
    7
 10
64.831099999999992
 20
747.85000600000001
 40
0.2999999999999999
 50
90.000003000000007
 51
179.99999099999999
  0
LINE
  8
_0-0_0
  6
CONTINUOUS
 62
    7
 10
53.531096999999932
 20
770.97485400000005
 11
53.531096999999932
 21
772.75
  0
LINE
  8
_0-0_0
  6
CONTINUOUS
 62
    7
 10
58.531096999999932
 20
773.25
 11
58.531096999999932
 21
773.65002400000003
  0
LINE
  8
_0-0_0
  6
CONTINUOUS
 62
    7
 10
58.531096999999932
 20
774.15002400000003
 11
58.531096999999932
 21
773.65002400000003
  0
LINE
  8
_0-0_0
  6
CONTINUOUS
 62
    7
 10
158.03109799999993
 20
775.25
 11
158.03109799999993
 21
773.75
  0
LINE
  8
_0-0_0
  6
CONTINUOUS
 62
    7
 10
158.03109799999993
 20
773.75
 11
158.03109799999993
 21
772.75
  0
LINE
  8
_0-0_0
  6
CONTINUOUS
 62
    7
 10
158.03109799999993
 20
771.95001200000002
 11
158.03109799999993
 21
772.75
  0
LINE
  8
_0-0_0
  6
CONTINUOUS
 62
    7
 10
157.53109799999993
 20
773.25
 11
158.03109799999993
 21
773.25
  0
LINE
  8
_0-0_0
  6
CONTINUOUS
 62
    7
 10
145.03109699999993
 20
773.25
 11
157.53109799999993
 21
773.25
  0
LINE
  8
_0-0_0
  6
CONTINUOUS
 62
    7
 10
158.03109799999993
 20
775.25
 11
158.03109799999993
 21
774.25
  0
LINE
  8
_0-0_0
  6
CONTINUOUS
 62
    7
 10
158.03109799999993
 20
773.75
 11
158.03109799999993
 21
773.25
  0
LINE
  8
_0-0_0
  6
CONTINUOUS
 62
    7
 10
158.03109799999993
 20
774.25
 11
158.03109799999993
 21
773.75
  0
ARC
  8
_0-0_0
  6
CONTINUOUS
 62
    7
 10
63.531096999999932
 20
771.75
 40
2
 50
179.99999099999999
 51
0
  0
LINE
  8
_0-0_0
  6
CONTINUOUS
 62
    7
 10
144.53109699999993
 20
773.25
 11
145.03109699999993
 21
773.25
  0
LINE
  8
_0-0_0
  6
CONTINUOUS
 62
    7
 10
144.53109699999993
 20
772.75
 11
144.53109699999993
 21
773.25
  0
LINE
  8
_0-0_0
  6
CONTINUOUS
 62
    7
 10
144.53109699999993
 20
771.75
 11
144.53109699999993
 21
771.95001200000002
  0
ARC
  8
_0-0_0
  6
CONTINUOUS
 62
    7
 10
142.53109699999993
 20
771.75
 40
2
 50
179.99999099999999
 51
0
  0
LINE
  8
_0-0_0
  6
CONTINUOUS
 62
    7
 10
140.53109699999993
 20
773.25
 11
140.53109699999993
 21
771.75
  0
LINE
  8
_0-0_0
  6
CONTINUOUS
 62
    7
 10
139.83109999999999
 20
773.25
 11
140.53109699999993
 21
773.25
  0
LINE
  8
_0-0_0
  6
CONTINUOUS
 62
    7
 10
65.531096999999932
 20
771.75
 11
65.531096999999932
 21
773.25
  0
LINE
  8
_0-0_0
  6
CONTINUOUS
 62
    7
 10
61.531096999999932
 20
774.25
 11
158.03109799999993
 21
774.25
  0
ARC
  8
_0-0_0
  6
CONTINUOUS
 62
    7
 10
66.231101999999964
 20
772.75
 40
0.5
 50
90.000003000000007
 51
179.99999099999999
  0
ARC
  8
_0-0_0
  6
CONTINUOUS
 62
    7
 10
63.531096999999932
 20
771.75
 40
2.2000000000000002
 50
179.99999099999999
 51
0
  0
LINE
  8
_0-0_0
  6
CONTINUOUS
 62
    7
 10
65.531096999999932
 20
748.15002400000003
 11
66.031096999999932
 21
748.15002400000003
  0
LINE
  8
_0-0_0
  6
CONTINUOUS
 62
    7
 10
66.031096999999932
 20
748.55001800000002
 11
66.031096999999932
 21
748.15002400000003
  0
LINE
  8
_0-0_0
  6
CONTINUOUS
 62
    7
 10
83.531096999999932
 20
748.55001800000002
 11
119.53109699999993
 21
748.55001800000002
  0
LINE
  8
_0-0_0
  6
CONTINUOUS
 62
    7
 10
133.03109699999993
 20
748.15002400000003
 11
133.53109699999993
 21
748.15002400000003
  0
LINE
  8
_0-0_0
  6
CONTINUOUS
 62
    7
 10
133.03109699999993
 20
748.55001800000002
 11
133.03109699999993
 21
748.15002400000003
  0
LINE
  8
_0-0_0
  6
CONTINUOUS
 62
    7
 10
144.03109699999993
 20
745.75
 11
135.03109699999993
 21
745.75
  0
ARC
  8
_0-0_0
  6
CONTINUOUS
 62
    7
 10
135.03109699999993
 20
746.25
 40
0.5
 50
179.99999099999999
 51
269.99999700000001
  0
LINE
  8
_0-0_0
  6
CONTINUOUS
 62
    7
 10
144.03109699999993
 20
746.25
 11
144.53109699999993
 21
746.25
  0
LINE
  8
_0-0_0
  6
CONTINUOUS
 62
    7
 10
144.53109699999993
 20
746.25
 11
144.53109699999993
 21
746.45001200000002
  0
LINE
  8
_0-0_0
  6
CONTINUOUS
 62
    7
 10
149.03109699999993
 20
746.65002400000003
 11
144.73109399999998
 21
746.65002400000003
  0
LINE
  8
_0-0_0
  6
CONTINUOUS
 62
    7
 10
149.53109699999993
 20
747.15002400000003
 11
149.53109699999993
 21
748.92514000000006
  0
ARC
  8
_0-0_0
  6
CONTINUOUS
 62
    7
 10
146.48313899999994
 20
748.86901899999998
 40
3.0490550000000001
 50
1.0548960000000001
 51
14.838094000000002
  0
LINE
  8
_0-0_0
  6
CONTINUOUS
 62
    7
 10
149.03109699999993
 20
749.85000600000001
 11
144.66355899999996
 21
749.85000600000001
  0
LINE
  8
_0-0_0
  6
CONTINUOUS
 62
    7
 10
144.53109699999993
 20
749.99145499999997
 11
144.53109699999993
 21
750.09643600000004
  0
ARC
  8
_0-0_0
  6
CONTINUOUS
 62
    7
 10
142.53109699999993
 20
771.75
 40
2.2000000000000002
 50
179.99999099999999
 51
303.74900400000001
  0
LINE
  8
_0-0_0
  6
CONTINUOUS
 62
    7
 10
140.33109999999999
 20
772.75
 11
140.33109999999999
 21
771.75
  0
LINE
  8
_0-0_0
  6
CONTINUOUS
 62
    7
 10
139.83109999999999
 20
773.25
 11
66.231101999999964
 21
773.25
  0
LINE
  8
_0-0_0
  6
CONTINUOUS
 62
    7
 10
65.731101999999964
 20
771.75
 11
65.731101999999964
 21
772.75
  0
LINE
  8
_0-0_0
  6
CONTINUOUS
 62
    7
 10
66.231101999999964
 20
771.55001800000002
 11
66.231101999999964
 21
771.75
  0
ARC
  8
_0-0_0
  6
CONTINUOUS
 62
    7
 10
67.231101999999964
 20
771.55001800000002
 40
1
 50
90.000003000000007
 51
179.99999099999999
  0
LINE
  8
_0-0_0
  6
CONTINUOUS
 62
    7
 10
67.231101999999964
 20
772.55001800000002
 11
80.531096999999932
 21
772.55001800000002
  0
LINE
  8
_0-0_0
  6
CONTINUOUS
 62
    7
 10
122.53109699999993
 20
772.55001800000002
 11
136.53109699999993
 21
772.55001800000002
  0
ARC
  8
_0-0_0
  6
CONTINUOUS
 62
    7
 10
136.53109699999993
 20
769.55001800000002
 40
3
 50
0
 51
90.000003000000007
  0
LINE
  8
_0-0_0
  6
CONTINUOUS
 62
    7
 10
139.53109699999993
 20
755.95001200000002
 11
139.53109699999993
 21
769.55001800000002
  0
ARC
  8
_0-0_0
  6
CONTINUOUS
 62
    7
 10
136.53109699999993
 20
755.95001200000002
 40
3
 50
269.99999700000001
 51
0
  0
LINE
  8
_0-0_0
  6
CONTINUOUS
 62
    7
 10
136.53109699999993
 20
752.95001200000002
 11
122.53109699999993
 21
752.95001200000002
  0
LINE
  8
_0-0_0
  6
CONTINUOUS
 62
    7
 10
80.531096999999932
 20
752.95001200000002
 11
66.531096999999932
 21
752.95001200000002
  0
ARC
  8
_0-0_0
  6
CONTINUOUS
 62
    7
 10
66.531096999999932
 20
755.95001200000002
 40
3
 50
179.99999099999999
 51
269.99999700000001
  0
LINE
  8
_0-0_0
  6
CONTINUOUS
 62
    7
 10
63.531096999999932
 20
768.18771400000003
 11
63.531096999999932
 21
755.95001200000002
  0
ARC
  8
_0-0_0
  6
CONTINUOUS
 62
    7
 10
64.531096999999932
 20
768.18771400000003
 40
1
 50
105.68034800000001
 51
179.99999100000002
  0
ARC
  8
_0-0_0
  6
CONTINUOUS
 62
    7
 10
56.579062999999906
 20
771.03100599999993
 40
3.0490550000000001
 50
181.05489
 51
194.838089
  0
LINE
  8
_0-0_0
  6
CONTINUOUS
 62
    7
 10
58.398642999999993
 20
770.05001800000002
 11
54.031096999999932
 21
770.05001800000002
  0
LINE
  8
_0-0_0
  6
CONTINUOUS
 62
    7
 10
58.531096999999932
 20
749.99145499999997
 11
58.531096999999932
 21
750.29168700000002
  0
LINE
  8
_0-0_0
  6
CONTINUOUS
 62
    7
 10
58.398642999999993
 20
749.85000600000001
 11
54.031096999999932
 21
749.85000600000001
  0
ARC
  8
_0-0_0
  6
CONTINUOUS
 62
    7
 10
56.580245999999988
 20
748.86834700000009
 40
3.050319
 50
165.15540799999999
 51
178.932897
  0
LINE
  8
_0-0_0
  6
CONTINUOUS
 62
    7
 10
53.531096999999932
 20
747.15002400000003
 11
53.531096999999932
 21
748.92514000000006
  0
LINE
  8
_0-0_0
  6
CONTINUOUS
 62
    7
 10
58.331099999999992
 20
746.65002400000003
 11
54.031096999999932
 21
746.65002400000003
  0
LINE
  8
_0-0_0
  6
CONTINUOUS
 62
    7
 10
58.531096999999932
 20
746.25
 11
58.531096999999932
 21
746.45001200000002
  0
LINE
  8
_0-0_0
  6
CONTINUOUS
 62
    7
 10
58.531096999999932
 20
746.25
 11
59.031096999999932
 21
746.25
  0
LINE
  8
_0-0_0
  6
CONTINUOUS
 62
    7
 10
64.031096999999932
 20
745.75
 11
59.031096999999932
 21
745.75
  0
ARC
  8
_0-0_0
  6
CONTINUOUS
 62
    7
 10
64.031096999999932
 20
746.25
 40
0.5
 50
269.99999700000001
 51
0
  0
LINE
  8
_0-0_0
  6
CONTINUOUS
 62
    7
 10
53.849357999999938
 20
770.05001800000002
 11
53.829001999999946
 21
770.05102499999998
  0
LINE
  8
_0-0_0
  6
CONTINUOUS
 62
    7
 10
53.829001999999946
 20
770.05102499999998
 11
53.808600999999953
 21
770.054169
  0
LINE
  8
_0-0_0
  6
CONTINUOUS
 62
    7
 10
53.808600999999953
 20
770.054169
 11
53.781775999999923
 21
770.06176800000003
  0
LINE
  8
_0-0_0
  6
CONTINUOUS
 62
    7
 10
53.781775999999923
 20
770.06176800000003
 11
53.756133999999975
 21
770.07312000000002
  0
LINE
  8
_0-0_0
  6
CONTINUOUS
 62
    7
 10
53.756133999999975
 20
770.07312000000002
 11
53.732329999999934
 21
770.08801300000005
  0
LINE
  8
_0-0_0
  6
CONTINUOUS
 62
    7
 10
53.732329999999934
 20
770.08801300000005
 11
53.715575999999942
 21
770.10150099999998
  0
LINE
  8
_0-0_0
  6
CONTINUOUS
 62
    7
 10
53.715575999999942
 20
770.10150099999998
 11
53.700072999999975
 21
770.11676
  0
LINE
  8
_0-0_0
  6
CONTINUOUS
 62
    7
 10
53.700072999999975
 20
770.11676
 11
53.673180000000002
 21
770.15139799999997
  0
LINE
  8
_0-0_0
  6
CONTINUOUS
 62
    7
 10
53.673180000000002
 20
770.15139799999997
 11
53.652137999999923
 21
770.18972800000006
  0
LINE
  8
_0-0_0
  6
CONTINUOUS
 62
    7
 10
53.652137999999923
 20
770.18972800000006
 11
53.640136999999982
 21
770.21963499999993
  0
LINE
  8
_0-0_0
  6
CONTINUOUS
 62
    7
 10
53.640136999999982
 20
770.21963499999993
 11
53.631095999999957
 21
770.25
  0
LINE
  8
_0-0_0
  6
CONTINUOUS
 62
    7
 10
58.531096999999932
 20
774.15002400000003
 11
58.531096999999932
 21
775.25
  0
LINE
  8
_0-0_0
  6
CONTINUOUS
 62
    7
 10
53.031096999999932
 20
771.60000600000001
 11
53.531096999999932
 21
771.60000600000001
  0
LINE
  8
_0-0_0
  6
CONTINUOUS
 62
    7
 10
53.031096999999932
 20
774.15002400000003
 11
58.531096999999932
 21
774.15002400000003
  0
ARC
  8
_0-0_0
  6
CONTINUOUS
 62
    7
 10
157.53109799999993
 20
771.95001200000002
 40
0.5
 50
269.99999700000001
 51
0
  0
ARC
  8
_0-0_0
  6
CONTINUOUS
 62
    7
 10
145.03109699999993
 20
772.75
 40
0.5
 50
90.000003000000007
 51
179.99999099999999
  0
LINE
  8
_0-0_0
  6
CONTINUOUS
 62
    7
 10
144.53109699999993
 20
771.95001200000002
 11
144.53109699999993
 21
772.75
  0
LINE
  8
_0-0_0
  6
CONTINUOUS
 62
    7
 10
64.731101999999964
 20
748.13284299999998
 11
64.731101999999964
 21
746.15002400000003
  0
LINE
  8
_0-0_0
  6
CONTINUOUS
 62
    7
 10
64.731101999999964
 20
746.15002400000003
 11
65.731101999999964
 21
746.15002400000003
  0
LINE
  8
_0-0_0
  6
CONTINUOUS
 62
    7
 10
66.031096999999932
 20
748.15002400000003
 11
133.03109699999993
 21
748.15002400000003
  0
LINE
  8
_0-0_0
  6
CONTINUOUS
 62
    7
 10
65.731101999999964
 20
746.15002400000003
 11
133.33109999999999
 21
746.15002400000003
  0
LINE
  8
_0-0_0
  6
CONTINUOUS
 62
    7
 10
133.33109999999999
 20
746.15002400000003
 11
134.33109999999999
 21
746.15002400000003
  0
LINE
  8
_0-0_0
  6
CONTINUOUS
 62
    7
 10
134.33109999999999
 20
748.13284299999998
 11
134.33109999999999
 21
746.15002400000003
  0
LINE
  8
_0-0_0
  6
CONTINUOUS
 62
    7
 10
144.53109699999993
 20
746.25
 11
144.03109699999993
 21
745.75
  0
ARC
  8
_0-0_0
  6
CONTINUOUS
 62
    7
 10
144.73109399999998
 20
746.45001200000002
 40
0.2
 50
90.000003000000007
 51
179.99999099999999
  0
ARC
  8
_0-0_0
  6
CONTINUOUS
 62
    7
 10
149.03109699999993
 20
747.15002400000003
 40
0.5
 50
269.99999700000001
 51
0
  0
LINE
  8
_0-0_0
  6
CONTINUOUS
 62
    7
 10
149.21284500000002
 20
749.85000600000001
 11
149.23320000000001
 21
749.84899900000005
  0
LINE
  8
_0-0_0
  6
CONTINUOUS
 62
    7
 10
149.23320000000001
 20
749.84899900000005
 11
149.253601
 21
749.84585600000003
  0
LINE
  8
_0-0_0
  6
CONTINUOUS
 62
    7
 10
149.253601
 20
749.84585600000003
 11
149.28042599999992
 21
749.838257
  0
LINE
  8
_0-0_0
  6
CONTINUOUS
 62
    7
 10
149.28042599999992
 20
749.838257
 11
149.306061
 21
749.82690400000001
  0
LINE
  8
_0-0_0
  6
CONTINUOUS
 62
    7
 10
149.306061
 20
749.82690400000001
 11
149.32986399999993
 21
749.81201199999998
  0
LINE
  8
_0-0_0
  6
CONTINUOUS
 62
    7
 10
149.32986399999993
 20
749.81201199999998
 11
149.34661899999992
 21
749.79849200000001
  0
LINE
  8
_0-0_0
  6
CONTINUOUS
 62
    7
 10
149.34661899999992
 20
749.79849200000001
 11
149.362122
 21
749.78326399999992
  0
LINE
  8
_0-0_0
  6
CONTINUOUS
 62
    7
 10
149.362122
 20
749.78326399999992
 11
149.38902299999995
 21
749.74862699999994
  0
LINE
  8
_0-0_0
  6
CONTINUOUS
 62
    7
 10
149.38902299999995
 20
749.74862699999994
 11
149.41006499999992
 21
749.71029700000008
  0
LINE
  8
_0-0_0
  6
CONTINUOUS
 62
    7
 10
149.41006499999992
 20
749.71029700000008
 11
149.42205799999999
 21
749.68035899999995
  0
LINE
  8
_0-0_0
  6
CONTINUOUS
 62
    7
 10
149.42205799999999
 20
749.68035899999995
 11
149.431107
 21
749.65002400000003
  0
LINE
  8
_0-0_0
  6
CONTINUOUS
 62
    7
 10
149.21284500000002
 20
749.85000600000001
 11
149.03109699999993
 21
749.85000600000001
  0
LINE
  8
_0-0_0
  6
CONTINUOUS
 62
    7
 10
144.53109699999993
 20
751.15002400000003
 11
144.53109699999993
 21
750.09643600000004
  0
LINE
  8
_0-0_0
  6
CONTINUOUS
 62
    7
 10
144.53109699999993
 20
751.15002400000003
 11
144.53109699999993
 21
768.75
  0
LINE
  8
_0-0_0
  6
CONTINUOUS
 62
    7
 10
144.53109699999993
 20
770.72738600000002
 11
144.53109699999993
 21
768.75
  0
ARC
  8
_0-0_0
  6
CONTINUOUS
 62
    7
 10
144.03109699999993
 20
769.50500499999998
 40
0.5
 50
0
 51
123.74898500000002
  0
ARC
  8
_0-0_0
  6
CONTINUOUS
 62
    7
 10
144.70138499999996
 20
750.02331500000003
 40
0.1734229999999999
 50
181.12417600000003
 51
270.64883800000007
  0
LINE
  8
_0-0_0
  6
CONTINUOUS
 62
    7
 10
144.52705399999991
 20
750.05001800000002
 11
144.5271449999999
 21
750.01986699999998
  0
ARC
  8
_0-0_0
  6
CONTINUOUS
 62
    7
 10
139.83109999999999
 20
772.75
 40
0.5
 50
0
 51
90.000003000000007
  0
ARC
  8
_0-0_0
  6
CONTINUOUS
 62
    7
 10
63.531096999999932
 20
771.75
 40
2.7000000000000002
 50
285.68033600000007
 51
0.0000000000000381
  0
ARC
  8
_0-0_0
  6
CONTINUOUS
 62
    7
 10
80.531096999999932
 20
755.95001200000002
 40
3
 50
269.99999700000001
 51
0
  0
LINE
  8
_0-0_0
  6
CONTINUOUS
 62
    7
 10
83.531096999999932
 20
755.95001200000002
 11
83.531096999999932
 21
769.55001800000002
  0
ARC
  8
_0-0_0
  6
CONTINUOUS
 62
    7
 10
80.531096999999932
 20
769.55001800000002
 40
3
 50
0
 51
90.000003000000007
  0
ARC
  8
_0-0_0
  6
CONTINUOUS
 62
    7
 10
76.031096999999932
 20
765.25
 40
4.5
 50
269.99999700000001
 51
90.000002999999992
  0
LINE
  8
_0-0_0
  6
CONTINUOUS
 62
    7
 10
76.031096999999932
 20
760.75
 11
71.031096999999932
 21
760.75
  0
ARC
  8
_0-0_0
  6
CONTINUOUS
 62
    7
 10
71.031096999999932
 20
765.25
 40
4.5
 50
90.000003000000007
 51
269.99999700000006
  0
LINE
  8
_0-0_0
  6
CONTINUOUS
 62
    7
 10
71.031096999999932
 20
769.75
 11
76.031096999999932
 21
769.75
  0
ARC
  8
_0-0_0
  6
CONTINUOUS
 62
    7
 10
122.53109699999993
 20
755.95001200000002
 40
3
 50
179.99999099999999
 51
269.99999700000001
  0
LINE
  8
_0-0_0
  6
CONTINUOUS
 62
    7
 10
119.53109699999993
 20
769.55001800000002
 11
119.53109699999993
 21
755.95001200000002
  0
ARC
  8
_0-0_0
  6
CONTINUOUS
 62
    7
 10
122.53109699999993
 20
769.55001800000002
 40
3
 50
90.000003000000007
 51
179.99999099999999
  0
ARC
  8
_0-0_0
  6
CONTINUOUS
 62
    7
 10
132.03109699999993
 20
765.25
 40
4.5
 50
269.99999700000001
 51
90.000002999999992
  0
LINE
  8
_0-0_0
  6
CONTINUOUS
 62
    7
 10
132.03109699999993
 20
760.75
 11
127.03109699999993
 21
760.75
  0
ARC
  8
_0-0_0
  6
CONTINUOUS
 62
    7
 10
127.03109699999993
 20
765.25
 40
4.5
 50
90.000003000000007
 51
269.99999700000006
  0
LINE
  8
_0-0_0
  6
CONTINUOUS
 62
    7
 10
127.03109699999993
 20
769.75
 11
132.03109699999993
 21
769.75
  0
LINE
  8
_0-0_0
  6
CONTINUOUS
 62
    7
 10
54.031096999999932
 20
770.05001800000002
 11
53.849357999999938
 21
770.05001800000002
  0
LINE
  8
_0-0_0
  6
CONTINUOUS
 62
    7
 10
58.531096999999932
 20
751.95001200000002
 11
58.531096999999932
 21
750.29168700000002
  0
LINE
  8
_0-0_0
  6
CONTINUOUS
 62
    7
 10
58.531096999999932
 20
751.95001200000002
 11
58.531096999999932
 21
768.45001200000002
  0
LINE
  8
_0-0_0
  6
CONTINUOUS
 62
    7
 10
58.531096999999932
 20
769.91629
 11
58.531096999999932
 21
768.45001200000002
  0
ARC
  8
_0-0_0
  6
CONTINUOUS
 62
    7
 10
58.360809000000017
 20
750.02328499999999
 40
0.1734209999999999
 50
269.35085600000002
 51
358.87625300000002
  0
LINE
  8
_0-0_0
  6
CONTINUOUS
 62
    7
 10
58.535140999999953
 20
750.05001800000002
 11
58.535064999999918
 21
750.01986699999998
  0
LINE
  8
_0-0_0
  6
CONTINUOUS
 62
    7
 10
58.535140999999953
 20
769.85000600000001
 11
58.535064999999918
 21
769.88012700000002
  0
ARC
  8
_0-0_0
  6
CONTINUOUS
 62
    7
 10
58.360809000000017
 20
769.87670900000001
 40
0.1734219999999999
 50
1.1236539999999999
 51
90.649110000000007
  0
LINE
  8
_0-0_0
  6
CONTINUOUS
 62
    7
 10
54.031096999999932
 20
749.85000600000001
 11
53.849357999999938
 21
749.85000600000001
  0
LINE
  8
_0-0_0
  6
CONTINUOUS
 62
    7
 10
53.849349999999959
 20
749.85000600000001
 11
53.829001999999946
 21
749.84899900000005
  0
LINE
  8
_0-0_0
  6
CONTINUOUS
 62
    7
 10
53.829001999999946
 20
749.84899900000005
 11
53.808593999999971
 21
749.84582499999999
  0
LINE
  8
_0-0_0
  6
CONTINUOUS
 62
    7
 10
53.808593999999971
 20
749.84582499999999
 11
53.781775999999923
 21
749.838257
  0
LINE
  8
_0-0_0
  6
CONTINUOUS
 62
    7
 10
53.781775999999923
 20
749.838257
 11
53.756133999999975
 21
749.82690400000001
  0
LINE
  8
_0-0_0
  6
CONTINUOUS
 62
    7
 10
53.756133999999975
 20
749.82690400000001
 11
53.732329999999934
 21
749.81201199999998
  0
LINE
  8
_0-0_0
  6
CONTINUOUS
 62
    7
 10
53.732329999999934
 20
749.81201199999998
 11
53.715575999999942
 21
749.79849200000001
  0
LINE
  8
_0-0_0
  6
CONTINUOUS
 62
    7
 10
53.715575999999942
 20
749.79849200000001
 11
53.700072999999975
 21
749.78326399999992
  0
LINE
  8
_0-0_0
  6
CONTINUOUS
 62
    7
 10
53.700072999999975
 20
749.78326399999992
 11
53.673180000000002
 21
749.74862699999994
  0
LINE
  8
_0-0_0
  6
CONTINUOUS
 62
    7
 10
53.673180000000002
 20
749.74862699999994
 11
53.652137999999923
 21
749.71029700000008
  0
LINE
  8
_0-0_0
  6
CONTINUOUS
 62
    7
 10
53.652137999999923
 20
749.71029700000008
 11
53.640136999999982
 21
749.68035899999995
  0
LINE
  8
_0-0_0
  6
CONTINUOUS
 62
    7
 10
53.640136999999982
 20
749.68035899999995
 11
53.631095999999957
 21
749.65002400000003
  0
ARC
  8
_0-0_0
  6
CONTINUOUS
 62
    7
 10
54.031096999999932
 20
747.15002400000003
 40
0.5
 50
179.99999099999999
 51
269.99999700000001
  0
ARC
  8
_0-0_0
  6
CONTINUOUS
 62
    7
 10
58.331099999999992
 20
746.45001200000002
 40
0.2
 50
0
 51
90.000003000000007
  0
LINE
  8
_0-0_0
  6
CONTINUOUS
 62
    7
 10
58.531096999999932
 20
746.25
 11
59.031096999999932
 21
745.75
  0
LINE
  8
_0-0_0
  6
CONTINUOUS
 62
    7
 10
52.531096999999932
 20
772.09429899999998
 11
52.531096999999932
 21
773.65002400000003
  0
ARC
  8
_0-0_0
  6
CONTINUOUS
 62
    7
 10
53.018004999999903
 20
772.09765599999992
 40
0.4869939999999999
 50
180.39493000000002
 51
203.93946700000001
  0
ARC
  8
_0-0_0
  6
CONTINUOUS
 62
    7
 10
53.031096999999932
 20
772.10000600000001
 40
0.5
 50
203.57823099999999
 51
269.99999700000001
  0
ARC
  8
_0-0_0
  6
CONTINUOUS
 62
    7
 10
53.031096999999932
 20
773.65002400000003
 40
0.5
 50
90.000003000000007
 51
179.99999099999999
  0
LINE
  8
_0-0_0
  6
CONTINUOUS
 62
    7
 10
144.53109699999993
 20
771.45001200000002
 11
145.03109699999993
 21
771.45001200000002
  0
LINE
  8
_0-0_0
  6
CONTINUOUS
 62
    7
 10
145.03109699999993
 20
771.45001200000002
 11
157.53109799999993
 21
771.45001200000002
  0
ARC
  8
_0-0_0
  6
CONTINUOUS
 62
    7
 10
145.03109699999993
 20
771.95001200000002
 40
0.5
 50
179.99999099999999
 51
269.99999700000001
  0
LINE
  8
_0-0_0
  6
CONTINUOUS
 62
    7
 10
144.53109699999993
 20
771.08398399999999
 11
144.53109699999993
 21
771.45001200000002
  0
LINE
  8
_0-0_0
  6
CONTINUOUS
 62
    7
 10
144.53109699999993
 20
770.83349599999997
 11
144.53109699999993
 21
770.72738600000002
  0
LINE
  8
_0-0_0
  6
CONTINUOUS
 62
    7
 10
144.53109699999993
 20
771.08398399999999
 11
144.53109699999993
 21
770.83349599999997
  0
CIRCLE
  8
_0-0_0
  6
CONTINUOUS
 62
    7
 10
63.531096999999932
 20
771.75
 40
1.4750000000000001
  0
CIRCLE
  8
_0-0_0
  6
CONTINUOUS
 62
    7
 10
142.53109699999993
 20
771.75
 40
1.4750000000000001
  0
LINE
  8
_0-0_0
  6
CONTINUOUS
 62
    7
 10
52.531096999999932
 20
751.95001200000002
 11
52.531096999999932
 21
749.45001200000002
  0
LINE
  8
_0-0_0
  6
CONTINUOUS
 62
    7
 10
52.531096999999932
 20
751.95001200000002
 11
52.531096999999932
 21
764.75
  0
LINE
  8
_0-0_0
  6
CONTINUOUS
 62
    7
 10
52.531096999999932
 20
768.25
 11
52.531096999999932
 21
764.75
  0
LINE
  8
_0-0_0
  6
CONTINUOUS
 62
    7
 10
52.531096999999932
 20
768.25
 11
52.531096999999932
 21
768.60000600000001
  0
LINE
  8
_0-0_0
  6
CONTINUOUS
 62
    7
 10
52.531096999999932
 20
772.09429899999998
 11
52.531096999999932
 21
768.60000600000001
  0
LINE
  8
_0-0_0
  6
CONTINUOUS
 62
    7
 10
52.531096999999932
 20
773.942902
 11
52.531096999999932
 21
773.65002400000003
  0
LINE
  8
_0-0_0
  6
CONTINUOUS
 62
    7
 10
52.531096999999932
 20
773.942902
 11
52.531096999999932
 21
774
  0
LINE
  8
_0-0_0
  6
CONTINUOUS
 62
    7
 10
53.531630999999948
 20
748.95001200000002
 11
53.031096999999932
 21
748.95001200000002
  0
LINE
  8
_0-0_0
  6
CONTINUOUS
 62
    7
 10
149.51989700000001
 20
749.15002400000003
 11
156.53109799999993
 21
749.15002400000003
  0
LINE
  8
_0-0_0
  6
CONTINUOUS
 62
    7
 10
156.53109799999993
 20
749.15002400000003
 11
161.20654300000001
 21
749.15002400000003
  0
LINE
  8
_0-0_0
  6
CONTINUOUS
 62
    7
 10
156.53109799999993
 20
749.15002400000003
 11
156.53109799999993
 21
751.15002400000003
  0
LINE
  8
_0-0_0
  6
CONTINUOUS
 62
    7
 10
156.53109799999993
 20
754.65002400000003
 11
156.53109799999993
 21
751.65002400000003
  0
LINE
  8
_0-0_0
  6
CONTINUOUS
 62
    7
 10
156.53109799999993
 20
751.65002400000003
 11
156.53109799999993
 21
751.15002400000003
  0
LINE
  8
_0-0_0
  6
CONTINUOUS
 62
    7
 10
156.53109799999993
 20
754.65002400000003
 11
156.53109799999993
 21
755.15002400000003
  0
ARC
  8
_0-0_0
  6
CONTINUOUS
 62
    7
 10
150.53108199999997
 20
754.45001200000002
 40
0.500016
 50
180.00117
 51
359.995611
  0
LINE
  8
_0-0_0
  6
CONTINUOUS
 62
    7
 10
151.03109799999993
 20
754.45001200000002
 11
151.03109799999993
 21
766.45001200000002
  0
ARC
  8
_0-0_0
  6
CONTINUOUS
 62
    7
 10
150.53108199999997
 20
766.45001200000002
 40
0.500016
 50
0.001164
 51
179.99560600000004
  0
LINE
  8
_0-0_0
  6
CONTINUOUS
 62
    7
 10
150.03109699999993
 20
754.45001200000002
 11
150.03109699999993
 21
766.45001200000002
  0
ARC
  8
_0-0_0
  6
CONTINUOUS
 62
    7
 10
152.03108199999997
 20
754.45001200000002
 40
0.500016
 50
180.00117
 51
359.995611
  0
LINE
  8
_0-0_0
  6
CONTINUOUS
 62
    7
 10
152.53109799999993
 20
754.45001200000002
 11
152.53109799999993
 21
766.45001200000002
  0
ARC
  8
_0-0_0
  6
CONTINUOUS
 62
    7
 10
152.03108199999997
 20
766.45001200000002
 40
0.500016
 50
0.001164
 51
179.99560600000004
  0
LINE
  8
_0-0_0
  6
CONTINUOUS
 62
    7
 10
151.53109799999993
 20
754.45001200000002
 11
151.53109799999993
 21
766.45001200000002
  0
ARC
  8
_0-0_0
  6
CONTINUOUS
 62
    7
 10
153.53108199999997
 20
754.45001200000002
 40
0.500016
 50
180.00117
 51
359.995611
  0
LINE
  8
_0-0_0
  6
CONTINUOUS
 62
    7
 10
154.03109799999993
 20
754.45001200000002
 11
154.03109799999993
 21
766.45001200000002
  0
ARC
  8
_0-0_0
  6
CONTINUOUS
 62
    7
 10
153.53108199999997
 20
766.45001200000002
 40
0.500016
 50
0.001164
 51
179.99560600000004
  0
LINE
  8
_0-0_0
  6
CONTINUOUS
 62
    7
 10
153.03109799999993
 20
754.45001200000002
 11
153.03109799999993
 21
766.45001200000002
  0
ARC
  8
_0-0_0
  6
CONTINUOUS
 62
    7
 10
155.03108199999997
 20
754.45001200000002
 40
0.500016
 50
180.00117
 51
359.995611
  0
LINE
  8
_0-0_0
  6
CONTINUOUS
 62
    7
 10
155.53109799999993
 20
754.45001200000002
 11
155.53109799999993
 21
766.45001200000002
  0
ARC
  8
_0-0_0
  6
CONTINUOUS
 62
    7
 10
155.03108199999997
 20
766.45001200000002
 40
0.500016
 50
0.001164
 51
179.99560600000004
  0
LINE
  8
_0-0_0
  6
CONTINUOUS
 62
    7
 10
154.53109799999993
 20
754.45001200000002
 11
154.53109799999993
 21
766.45001200000002
  0
LINE
  8
_0-0_0
  6
CONTINUOUS
 62
    7
 10
144.53109699999993
 20
770.75
 11
161.20654300000001
 21
770.75
  0
LINE
  8
_0-0_0
  6
CONTINUOUS
 62
    7
 10
53.031096999999932
 20
774.5
 11
58.531096999999932
 21
774.5
  0
ARC
  8
_0-0_0
  6
CONTINUOUS
 62
    7
 10
53.031096999999932
 20
774
 40
0.5
 50
90.000003000000007
 51
179.99999099999999
  0
ARC
  8
_0-0_0
  6
CONTINUOUS
 62
    7
 10
53.031096999999932
 20
749.45001200000002
 40
0.5
 50
179.99999099999999
 51
269.99999700000001
  0
ARC
  8
_0-0_0
  6
CONTINUOUS
 62
    7
 10
53.031096999999932
 20
764.75
 40
0.5
 50
90.000003000000007
 51
179.99999099999999
  0
ARC
  8
_0-0_0
  6
CONTINUOUS
 62
    7
 10
161.20654300000001
 20
751.15002400000003
 40
2
 50
269.99999700000001
 51
288.43501300000003
  0
LINE
  8
_0-0_0
  6
CONTINUOUS
 62
    7
 10
156.53109799999993
 20
749.15002400000003
 11
156.53109799999993
 21
749.40008499999999
  0
LINE
  8
_0-0_0
  6
CONTINUOUS
 62
    7
 10
156.53109799999993
 20
754.65002400000003
 11
161.20654300000001
 21
754.65002400000003
  0
LINE
  8
_0-0_0
  6
CONTINUOUS
 62
    7
 10
161.83900499999993
 20
770.64736900000003
 11
161.71949799999993
 21
770.68298299999992
  0
LINE
  8
_0-0_0
  6
CONTINUOUS
 62
    7
 10
161.71949799999993
 20
770.68298299999992
 11
161.59794599999998
 21
770.71087599999998
  0
LINE
  8
_0-0_0
  6
CONTINUOUS
 62
    7
 10
161.59794599999998
 20
770.71087599999998
 11
161.47480799999994
 21
770.73092700000007
  0
LINE
  8
_0-0_0
  6
CONTINUOUS
 62
    7
 10
161.47480799999994
 20
770.73092700000007
 11
161.35058599999991
 21
770.74304200000006
  0
LINE
  8
_0-0_0
  6
CONTINUOUS
 62
    7
 10
161.35058599999991
 20
770.74304200000006
 11
161.22576900000001
 21
770.747162
  0
LINE
  8
_0-0_0
  6
CONTINUOUS
 62
    7
 10
161.22576900000001
 20
770.747162
 11
161.20654300000001
 21
770.74710099999993
  0
ARC
  8
_0-0_0
  6
CONTINUOUS
 62
    7
 10
161.20654300000001
 20
768.75
 40
2
 50
71.565000999999995
 51
90.000003000000007
  0
LINE
  8
_0-0_0
  6
CONTINUOUS
 62
    7
 10
77.502639999999928
 20
761.15002400000003
 11
69.559562999999912
 21
761.15002400000003
  0
ARC
  8
_0-0_0
  6
CONTINUOUS
 62
    7
 10
69.559562999999912
 20
761.65002400000003
 40
0.5
 50
210.00000299999999
 51
269.99999700000001
  0
LINE
  8
_0-0_0
  6
CONTINUOUS
 62
    7
 10
69.126548999999955
 20
761.40002400000003
 11
67.048088000000007
 21
765
  0
ARC
  8
_0-0_0
  6
CONTINUOUS
 62
    7
 10
67.481101999999964
 20
765.25
 40
0.5
 50
149.99999700000001
 51
210.00000299999996
  0
LINE
  8
_0-0_0
  6
CONTINUOUS
 62
    7
 10
67.048088000000007
 20
765.5
 11
69.126548999999955
 21
769.10000600000001
  0
ARC
  8
_0-0_0
  6
CONTINUOUS
 62
    7
 10
69.559562999999912
 20
768.85000600000001
 40
0.5
 50
90.000003000000007
 51
149.99999700000001
  0
LINE
  8
_0-0_0
  6
CONTINUOUS
 62
    7
 10
69.559562999999912
 20
769.35000600000001
 11
77.502639999999928
 21
769.35000600000001
  0
ARC
  8
_0-0_0
  6
CONTINUOUS
 62
    7
 10
77.502639999999928
 20
768.85000600000001
 40
0.5
 50
30.000001000000001
 51
90.000003000000007
  0
LINE
  8
_0-0_0
  6
CONTINUOUS
 62
    7
 10
77.935654
 20
769.10000600000001
 11
80.01411399999995
 21
765.5
  0
ARC
  8
_0-0_0
  6
CONTINUOUS
 62
    7
 10
79.581099999999992
 20
765.25
 40
0.5
 50
329.99998900000003
 51
30.000000999999983
  0
LINE
  8
_0-0_0
  6
CONTINUOUS
 62
    7
 10
80.01411399999995
 20
765
 11
77.935654
 21
761.40002400000003
  0
ARC
  8
_0-0_0
  6
CONTINUOUS
 62
    7
 10
77.502639999999928
 20
761.65002400000003
 40
0.5
 50
269.99999700000001
 51
329.99998900000003
  0
ARC
  8
_0-0_0
  6
CONTINUOUS
 62
    7
 10
125.50183099999992
 20
761.75
 40
0.5
 50
210.00000299999999
 51
269.99999700000001
  0
LINE
  8
_0-0_0
  6
CONTINUOUS
 62
    7
 10
125.06881699999997
 20
761.5
 11
123.04809599999999
 21
765
  0
ARC
  8
_0-0_0
  6
CONTINUOUS
 62
    7
 10
123.48109399999998
 20
765.25
 40
0.5
 50
149.99999700000001
 51
210.00000299999996
  0
LINE
  8
_0-0_0
  6
CONTINUOUS
 62
    7
 10
123.04809599999999
 20
765.5
 11
125.06881699999997
 21
769
  0
ARC
  8
_0-0_0
  6
CONTINUOUS
 62
    7
 10
125.50183099999992
 20
768.75
 40
0.5
 50
90.000003000000007
 51
149.99999700000001
  0
LINE
  8
_0-0_0
  6
CONTINUOUS
 62
    7
 10
125.50183099999992
 20
769.25
 11
133.56037900000001
 21
769.25
  0
ARC
  8
_0-0_0
  6
CONTINUOUS
 62
    7
 10
133.56037900000001
 20
768.75
 40
0.5
 50
30.000001000000001
 51
90.000003000000007
  0
LINE
  8
_0-0_0
  6
CONTINUOUS
 62
    7
 10
133.99339299999997
 20
769
 11
136.01411399999995
 21
765.5
  0
ARC
  8
_0-0_0
  6
CONTINUOUS
 62
    7
 10
135.58109999999999
 20
765.25
 40
0.5
 50
329.99998900000003
 51
30.000000999999983
  0
LINE
  8
_0-0_0
  6
CONTINUOUS
 62
    7
 10
136.01411399999995
 20
765
 11
133.99339299999997
 21
761.5
  0
ARC
  8
_0-0_0
  6
CONTINUOUS
 62
    7
 10
133.56037900000001
 20
761.75
 40
0.5
 50
269.99999700000001
 51
329.99998900000003
  0
LINE
  8
_0-0_0
  6
CONTINUOUS
 62
    7
 10
133.56037900000001
 20
761.25
 11
125.50183099999992
 21
761.25
  0
LINE
  8
_0-0_0
  6
CONTINUOUS
 62
    7
 10
55.531096999999932
 20
769.88043199999993
 11
55.531096999999932
 21
769.05419899999993
  0
LINE
  8
_0-0_0
  6
CONTINUOUS
 62
    7
 10
53.031096999999932
 20
765.25
 11
55.231093999999985
 21
765.25
  0
LINE
  8
_0-0_0
  6
CONTINUOUS
 62
    7
 10
55.531096999999932
 20
765.55001800000002
 11
55.531096999999932
 21
767.77832000000001
  0
LINE
  8
_0-0_0
  6
CONTINUOUS
 62
    7
 10
55.531096999999932
 20
770.04968299999996
 11
55.531096999999932
 21
769.88043199999993
  0
LINE
  8
_0-0_0
  6
CONTINUOUS
 62
    7
 10
63.731101999999964
 20
770.65002400000003
 11
63.331099999999992
 21
770.65002400000003
  0
LINE
  8
_0-0_0
  6
CONTINUOUS
 62
    7
 10
63.731101999999964
 20
770.65002400000003
 11
63.731101999999964
 21
771.30001800000002
  0
ARC
  8
_0-0_0
  6
CONTINUOUS
 62
    7
 10
63.981101999999964
 20
771.30001800000002
 40
0.25
 50
90.000003000000007
 51
179.99999099999999
  0
LINE
  8
_0-0_0
  6
CONTINUOUS
 62
    7
 10
63.981101999999964
 20
771.55001800000002
 11
64.631095999999957
 21
771.55001800000002
  0
LINE
  8
_0-0_0
  6
CONTINUOUS
 62
    7
 10
64.631095999999957
 20
771.55001800000002
 11
64.631095999999957
 21
771.95001200000002
  0
LINE
  8
_0-0_0
  6
CONTINUOUS
 62
    7
 10
63.981101999999964
 20
771.95001200000002
 11
64.631095999999957
 21
771.95001200000002
  0
ARC
  8
_0-0_0
  6
CONTINUOUS
 62
    7
 10
63.981101999999964
 20
772.20001200000002
 40
0.25
 50
179.99999099999999
 51
269.99999700000001
  0
LINE
  8
_0-0_0
  6
CONTINUOUS
 62
    7
 10
63.731101999999964
 20
772.85000600000001
 11
63.731101999999964
 21
772.20001200000002
  0
LINE
  8
_0-0_0
  6
CONTINUOUS
 62
    7
 10
63.731101999999964
 20
772.85000600000001
 11
63.331099999999992
 21
772.85000600000001
  0
LINE
  8
_0-0_0
  6
CONTINUOUS
 62
    7
 10
63.331099999999992
 20
772.85000600000001
 11
63.331099999999992
 21
772.20001200000002
  0
ARC
  8
_0-0_0
  6
CONTINUOUS
 62
    7
 10
63.081099999999992
 20
772.20001200000002
 40
0.25
 50
269.99999700000001
 51
0
  0
LINE
  8
_0-0_0
  6
CONTINUOUS
 62
    7
 10
63.081099999999992
 20
771.95001200000002
 11
62.431098999999904
 21
771.95001200000002
  0
LINE
  8
_0-0_0
  6
CONTINUOUS
 62
    7
 10
62.431098999999904
 20
771.55001800000002
 11
62.431098999999904
 21
771.95001200000002
  0
LINE
  8
_0-0_0
  6
CONTINUOUS
 62
    7
 10
63.081099999999992
 20
771.55001800000002
 11
62.431098999999904
 21
771.55001800000002
  0
ARC
  8
_0-0_0
  6
CONTINUOUS
 62
    7
 10
63.081099999999992
 20
771.30001800000002
 40
0.25
 50
0
 51
90.000003000000007
  0
LINE
  8
_0-0_0
  6
CONTINUOUS
 62
    7
 10
63.331099999999992
 20
770.65002400000003
 11
63.331099999999992
 21
771.30001800000002
  0
LINE
  8
_0-0_0
  6
CONTINUOUS
 62
    7
 10
142.73109399999998
 20
770.65002400000003
 11
142.33109999999999
 21
770.65002400000003
  0
LINE
  8
_0-0_0
  6
CONTINUOUS
 62
    7
 10
142.73109399999998
 20
770.65002400000003
 11
142.73109399999998
 21
771.30001800000002
  0
ARC
  8
_0-0_0
  6
CONTINUOUS
 62
    7
 10
142.98109399999998
 20
771.30001800000002
 40
0.25
 50
90.000003000000007
 51
179.99999099999999
  0
LINE
  8
_0-0_0
  6
CONTINUOUS
 62
    7
 10
142.98109399999998
 20
771.55001800000002
 11
143.63110299999994
 21
771.55001800000002
  0
LINE
  8
_0-0_0
  6
CONTINUOUS
 62
    7
 10
143.63110299999994
 20
771.55001800000002
 11
143.63110299999994
 21
771.95001200000002
  0
LINE
  8
_0-0_0
  6
CONTINUOUS
 62
    7
 10
142.98109399999998
 20
771.95001200000002
 11
143.63110299999994
 21
771.95001200000002
  0
ARC
  8
_0-0_0
  6
CONTINUOUS
 62
    7
 10
142.98109399999998
 20
772.20001200000002
 40
0.25
 50
179.99999099999999
 51
269.99999700000001
  0
LINE
  8
_0-0_0
  6
CONTINUOUS
 62
    7
 10
142.73109399999998
 20
772.85000600000001
 11
142.73109399999998
 21
772.20001200000002
  0
LINE
  8
_0-0_0
  6
CONTINUOUS
 62
    7
 10
142.73109399999998
 20
772.85000600000001
 11
142.33109999999999
 21
772.85000600000001
  0
LINE
  8
_0-0_0
  6
CONTINUOUS
 62
    7
 10
142.33109999999999
 20
772.85000600000001
 11
142.33109999999999
 21
772.20001200000002
  0
ARC
  8
_0-0_0
  6
CONTINUOUS
 62
    7
 10
142.08109999999999
 20
772.20001200000002
 40
0.25
 50
269.99999700000001
 51
0
  0
LINE
  8
_0-0_0
  6
CONTINUOUS
 62
    7
 10
142.08109999999999
 20
771.95001200000002
 11
141.431107
 21
771.95001200000002
  0
LINE
  8
_0-0_0
  6
CONTINUOUS
 62
    7
 10
141.431107
 20
771.55001800000002
 11
141.431107
 21
771.95001200000002
  0
LINE
  8
_0-0_0
  6
CONTINUOUS
 62
    7
 10
142.08109999999999
 20
771.55001800000002
 11
141.431107
 21
771.55001800000002
  0
ARC
  8
_0-0_0
  6
CONTINUOUS
 62
    7
 10
142.08109999999999
 20
771.30001800000002
 40
0.25
 50
0
 51
90.000003000000007
  0
LINE
  8
_0-0_0
  6
CONTINUOUS
 62
    7
 10
142.33109999999999
 20
770.65002400000003
 11
142.33109999999999
 21
771.30001800000002
  0
LINE
  8
_0-0_0
  6
CONTINUOUS
 62
    7
 10
162.28109799999993
 20
749.39999399999999
 11
161.83900499999993
 21
749.25262500000008
  0
LINE
  8
_0-0_0
  6
CONTINUOUS
 62
    7
 10
166.005448
 20
754.65002400000003
 11
166.69880699999999
 21
754.65002400000003
  0
LINE
  8
_0-0_0
  6
CONTINUOUS
 62
    7
 10
166.005448
 20
754.65002400000003
 11
161.68089299999997
 21
754.65002400000003
  0
LINE
  8
_0-0_0
  6
CONTINUOUS
 62
    7
 10
161.20654300000001
 20
754.65002400000003
 11
161.68089299999997
 21
754.65002400000003
  0
LINE
  8
_0-0_0
  6
CONTINUOUS
 62
    7
 10
166.16355899999996
 20
769.20584099999996
 11
161.83900499999993
 21
770.64736900000003
  0
LINE
  8
_0-0_0
  6
CONTINUOUS
 62
    7
 10
55.531096999999932
 20
769.05419899999993
 11
55.531096999999932
 21
767.77832000000001
  0
ARC
  8
_0-0_0
  6
CONTINUOUS
 62
    7
 10
55.231093999999985
 20
765.55001800000002
 40
0.2999999999999999
 50
269.99999700000001
 51
0
  0
LINE
  8
_0-0_0
  6
CONTINUOUS
 62
    7
 10
53.075431999999978
 20
769.32870500000001
 11
53.075431999999978
 21
766
  0
LINE
  8
_0-0_0
  6
CONTINUOUS
 62
    7
 10
53.075431999999978
 20
770.5
 11
53.075431999999978
 21
769.32870500000001
  0
LINE
  8
_0-0_0
  6
CONTINUOUS
 62
    7
 10
167.53109699999993
 20
753.89996300000007
 11
167.53109699999993
 21
755.02099599999997
  0
LINE
  8
_0-0_0
  6
CONTINUOUS
 62
    7
 10
167.53109699999993
 20
755.94232199999999
 11
167.53109699999993
 21
755.02099599999997
  0
LINE
  8
_0-0_0
  6
CONTINUOUS
 62
    7
 10
167.23109399999998
 20
757.73800699999993
 11
167.28990199999998
 21
757.49117999999999
  0
LINE
  8
_0-0_0
  6
CONTINUOUS
 62
    7
 10
167.28990199999998
 20
757.49117999999999
 11
167.33966099999998
 21
757.29882799999996
  0
LINE
  8
_0-0_0
  6
CONTINUOUS
 62
    7
 10
167.33966099999998
 20
757.29882799999996
 11
167.410797
 21
757.033051
  0
LINE
  8
_0-0_0
  6
CONTINUOUS
 62
    7
 10
167.410797
 20
757.033051
 11
167.44375600000001
 21
756.906342
  0
LINE
  8
_0-0_0
  6
CONTINUOUS
 62
    7
 10
167.44375600000001
 20
756.906342
 11
167.46900899999991
 21
756.80291699999998
  0
LINE
  8
_0-0_0
  6
CONTINUOUS
 62
    7
 10
167.46900899999991
 20
756.80291699999998
 11
167.49104299999999
 21
756.70297200000005
  0
LINE
  8
_0-0_0
  6
CONTINUOUS
 62
    7
 10
167.49104299999999
 20
756.70297200000005
 11
167.5124209999999
 21
756.58526600000005
  0
LINE
  8
_0-0_0
  6
CONTINUOUS
 62
    7
 10
167.5124209999999
 20
756.58526600000005
 11
167.52099599999997
 21
756.52313200000003
  0
LINE
  8
_0-0_0
  6
CONTINUOUS
 62
    7
 10
167.52099599999997
 20
756.52313200000003
 11
167.52706899999998
 21
756.46252400000003
  0
LINE
  8
_0-0_0
  6
CONTINUOUS
 62
    7
 10
167.52706899999998
 20
756.46252400000003
 11
167.53007500000001
 21
756.41329999999994
  0
LINE
  8
_0-0_0
  6
CONTINUOUS
 62
    7
 10
167.53007500000001
 20
756.41329999999994
 11
167.53109699999993
 21
756.36505099999999
  0
LINE
  8
_0-0_0
  6
CONTINUOUS
 62
    7
 10
167.23109399999998
 20
762.16204800000003
 11
167.14764400000001
 21
761.78335600000003
  0
LINE
  8
_0-0_0
  6
CONTINUOUS
 62
    7
 10
167.14764400000001
 20
761.78335600000003
 11
167.10754399999996
 21
761.59182699999997
  0
LINE
  8
_0-0_0
  6
CONTINUOUS
 62
    7
 10
167.10754399999996
 20
761.59182699999997
 11
167.051468
 21
761.30181900000002
  0
LINE
  8
_0-0_0
  6
CONTINUOUS
 62
    7
 10
167.051468
 20
761.30181900000002
 11
167.01387
 21
761.08221400000002
  0
LINE
  8
_0-0_0
  6
CONTINUOUS
 62
    7
 10
167.01387
 20
761.08221400000002
 11
166.9812159999999
 21
760.86096199999997
  0
LINE
  8
_0-0_0
  6
CONTINUOUS
 62
    7
 10
166.9812159999999
 20
760.86096199999997
 11
166.95405599999992
 21
760.63415499999996
  0
LINE
  8
_0-0_0
  6
CONTINUOUS
 62
    7
 10
166.95405599999992
 20
760.63415499999996
 11
166.93399099999999
 21
760.40676899999994
  0
LINE
  8
_0-0_0
  6
CONTINUOUS
 62
    7
 10
166.93399099999999
 20
760.40676899999994
 11
166.92683399999999
 21
760.29303000000004
  0
LINE
  8
_0-0_0
  6
CONTINUOUS
 62
    7
 10
166.92683399999999
 20
760.29303000000004
 11
166.92167699999993
 21
760.17935199999999
  0
LINE
  8
_0-0_0
  6
CONTINUOUS
 62
    7
 10
166.92167699999993
 20
760.17935199999999
 11
166.91796899999997
 21
760.02792399999998
  0
LINE
  8
_0-0_0
  6
CONTINUOUS
 62
    7
 10
166.91796899999997
 20
760.02792399999998
 11
166.91790800000001
 21
759.87667800000008
  0
LINE
  8
_0-0_0
  6
CONTINUOUS
 62
    7
 10
166.91790800000001
 20
759.87667800000008
 11
166.92147799999998
 21
759.72561599999995
  0
LINE
  8
_0-0_0
  6
CONTINUOUS
 62
    7
 10
166.92147799999998
 20
759.72561599999995
 11
166.93098499999996
 21
759.53707899999995
  0
LINE
  8
_0-0_0
  6
CONTINUOUS
 62
    7
 10
166.93098499999996
 20
759.53707899999995
 11
166.94586199999992
 21
759.34881599999994
  0
LINE
  8
_0-0_0
  6
CONTINUOUS
 62
    7
 10
166.94586199999992
 20
759.34881599999994
 11
166.96577500000001
 21
759.160889
  0
LINE
  8
_0-0_0
  6
CONTINUOUS
 62
    7
 10
166.96577500000001
 20
759.160889
 11
166.98216200000002
 21
759.03201300000001
  0
LINE
  8
_0-0_0
  6
CONTINUOUS
 62
    7
 10
166.98216200000002
 20
759.03201300000001
 11
167.00058000000001
 21
758.90335099999993
  0
LINE
  8
_0-0_0
  6
CONTINUOUS
 62
    7
 10
167.00058000000001
 20
758.90335099999993
 11
167.02473399999997
 21
758.75140399999998
  0
LINE
  8
_0-0_0
  6
CONTINUOUS
 62
    7
 10
167.02473399999997
 20
758.75140399999998
 11
167.05113199999994
 21
758.60006700000008
  0
LINE
  8
_0-0_0
  6
CONTINUOUS
 62
    7
 10
167.05113199999994
 20
758.60006700000008
 11
167.10730000000001
 21
758.30944799999997
  0
LINE
  8
_0-0_0
  6
CONTINUOUS
 62
    7
 10
167.10730000000001
 20
758.30944799999997
 11
167.14746099999991
 21
758.11749299999997
  0
LINE
  8
_0-0_0
  6
CONTINUOUS
 62
    7
 10
167.14746099999991
 20
758.11749299999997
 11
167.23109399999998
 21
757.73800699999993
  0
LINE
  8
_0-0_0
  6
CONTINUOUS
 62
    7
 10
167.23110999999994
 20
762.16204800000003
 11
167.28990199999998
 21
762.40887500000008
  0
LINE
  8
_0-0_0
  6
CONTINUOUS
 62
    7
 10
167.28990199999998
 20
762.40887500000008
 11
167.33966099999998
 21
762.60119600000007
  0
LINE
  8
_0-0_0
  6
CONTINUOUS
 62
    7
 10
167.33966099999998
 20
762.60119600000007
 11
167.41078199999993
 21
762.86694299999999
  0
LINE
  8
_0-0_0
  6
CONTINUOUS
 62
    7
 10
167.41078199999993
 20
762.86694299999999
 11
167.44374099999993
 21
762.993652
  0
LINE
  8
_0-0_0
  6
CONTINUOUS
 62
    7
 10
167.44374099999993
 20
762.993652
 11
167.46900899999991
 21
763.09707600000002
  0
LINE
  8
_0-0_0
  6
CONTINUOUS
 62
    7
 10
167.46900899999991
 20
763.09707600000002
 11
167.49104299999999
 21
763.19705199999999
  0
LINE
  8
_0-0_0
  6
CONTINUOUS
 62
    7
 10
167.49104299999999
 20
763.19705199999999
 11
167.5124209999999
 21
763.31475799999998
  0
LINE
  8
_0-0_0
  6
CONTINUOUS
 62
    7
 10
167.5124209999999
 20
763.31475799999998
 11
167.52099599999997
 21
763.376892
  0
LINE
  8
_0-0_0
  6
CONTINUOUS
 62
    7
 10
167.52099599999997
 20
763.376892
 11
167.52706899999998
 21
763.4375
  0
LINE
  8
_0-0_0
  6
CONTINUOUS
 62
    7
 10
167.52706899999998
 20
763.4375
 11
167.53007500000001
 21
763.48672499999998
  0
LINE
  8
_0-0_0
  6
CONTINUOUS
 62
    7
 10
167.53007500000001
 20
763.48672499999998
 11
167.53109699999993
 21
763.534943
  0
LINE
  8
_0-0_0
  6
CONTINUOUS
 62
    7
 10
167.53109699999993
 20
767.30847199999994
 11
167.53109699999993
 21
763.95770300000004
  0
ARC
  8
_0-0_0
  6
CONTINUOUS
 62
    7
 10
165.53109799999993
 20
767.30847199999994
 40
2
 50
0
 51
71.565000999999995
  0
CIRCLE
  8
_0-0_0
  6
CONTINUOUS
 62
    7
 10
73.531096999999932
 20
765.25
 40
2.5
  0
CIRCLE
  8
_0-0_0
  6
CONTINUOUS
 62
    7
 10
129.53109699999993
 20
765.25
 40
2.5
  0
LINE
  8
_0-0_0
  6
CONTINUOUS
 62
    7
 10
52.931098999999904
 20
769.20886199999995
 11
52.931098999999904
 21
766.25
  0
LINE
  8
_0-0_0
  6
CONTINUOUS
 62
    7
 10
52.931098999999904
 20
770.25
 11
52.931098999999904
 21
769.20886199999995
  0
LINE
  8
_0-0_0
  6
CONTINUOUS
 62
    7
 10
182.53109699999993
 20
750.42456100000004
 11
182.53109699999993
 21
750.57128899999998
  0
LINE
  8
_0-0_0
  6
CONTINUOUS
 62
    7
 10
182.53109699999993
 20
750.23403899999994
 11
182.53109699999993
 21
750.42456100000004
  0
LINE
  8
_0-0_0
  6
CONTINUOUS
 62
    7
 10
182.53109699999993
 20
750.05902100000003
 11
182.53109699999993
 21
750.23403899999994
  0
LINE
  8
_0-0_0
  6
CONTINUOUS
 62
    7
 10
182.53109699999993
 20
749.90142800000001
 11
182.53109699999993
 21
750.05902100000003
  0
LINE
  8
_0-0_0
  6
CONTINUOUS
 62
    7
 10
182.53109699999993
 20
749.76299999999992
 11
182.53109699999993
 21
749.90142800000001
  0
LINE
  8
_0-0_0
  6
CONTINUOUS
 62
    7
 10
182.53109699999993
 20
749.64523299999996
 11
182.53109699999993
 21
749.76299999999992
  0
LINE
  8
_0-0_0
  6
CONTINUOUS
 62
    7
 10
182.53109699999993
 20
749.54943800000001
 11
182.53109699999993
 21
749.64523299999996
  0
LINE
  8
_0-0_0
  6
CONTINUOUS
 62
    7
 10
182.53109699999993
 20
749.40002400000003
 11
182.53109699999993
 21
749.54943800000001
  0
LINE
  8
_0-0_0
  6
CONTINUOUS
 62
    7
 10
182.53109699999993
 20
749.42770399999995
 11
182.53109699999993
 21
749.47668499999997
  0
LINE
  8
_0-0_0
  6
CONTINUOUS
 62
    7
 10
182.53109699999993
 20
749.40307600000006
 11
182.53109699999993
 21
749.42770399999995
  0
LINE
  8
_0-0_0
  6
CONTINUOUS
 62
    7
 10
182.53109699999993
 20
749.40002400000003
 11
182.53109699999993
 21
749.40307600000006
  0
LINE
  8
_0-0_0
  6
CONTINUOUS
 62
    7
 10
182.53109699999993
 20
753.89691199999993
 11
182.53109699999993
 21
753.90002400000003
  0
LINE
  8
_0-0_0
  6
CONTINUOUS
 62
    7
 10
182.53109699999993
 20
753.87231399999996
 11
182.53109699999993
 21
753.89691199999993
  0
LINE
  8
_0-0_0
  6
CONTINUOUS
 62
    7
 10
182.53109699999993
 20
753.82333399999993
 11
182.53109699999993
 21
753.87231399999996
  0
LINE
  8
_0-0_0
  6
CONTINUOUS
 62
    7
 10
182.53109699999993
 20
753.75054899999998
 11
182.53109699999993
 21
753.82333399999993
  0
LINE
  8
_0-0_0
  6
CONTINUOUS
 62
    7
 10
182.53109699999993
 20
753.65478499999995
 11
182.53109699999993
 21
753.75054899999998
  0
LINE
  8
_0-0_0
  6
CONTINUOUS
 62
    7
 10
182.53109699999993
 20
753.62457300000005
 11
182.53109699999993
 21
753.65478499999995
  0
LINE
  8
_0-0_0
  6
CONTINUOUS
 62
    7
 10
182.53109699999993
 20
753.53701799999999
 11
182.53109699999993
 21
753.62457300000005
  0
LINE
  8
_0-0_0
  6
CONTINUOUS
 62
    7
 10
182.53109699999993
 20
753.39859000000001
 11
182.53109699999993
 21
753.53701799999999
  0
LINE
  8
_0-0_0
  6
CONTINUOUS
 62
    7
 10
182.53109699999993
 20
753.24099699999999
 11
182.53109699999993
 21
753.39859000000001
  0
LINE
  8
_0-0_0
  6
CONTINUOUS
 62
    7
 10
182.53109699999993
 20
753.06597899999997
 11
182.53109699999993
 21
753.24099699999999
  0
LINE
  8
_0-0_0
  6
CONTINUOUS
 62
    7
 10
182.53109699999993
 20
752.87542699999995
 11
182.53109699999993
 21
753.06597899999997
  0
LINE
  8
_0-0_0
  6
CONTINUOUS
 62
    7
 10
182.53109699999993
 20
752.67147799999998
 11
182.53109699999993
 21
752.87542699999995
  0
LINE
  8
_0-0_0
  6
CONTINUOUS
 62
    7
 10
182.53109699999993
 20
752.45632899999998
 11
182.53109699999993
 21
752.67147799999998
  0
LINE
  8
_0-0_0
  6
CONTINUOUS
 62
    7
 10
182.53109699999993
 20
752.23236100000008
 11
182.53109699999993
 21
752.45632899999998
  0
LINE
  8
_0-0_0
  6
CONTINUOUS
 62
    7
 10
182.53109699999993
 20
752.00198399999999
 11
182.53109699999993
 21
752.23236100000008
  0
LINE
  8
_0-0_0
  6
CONTINUOUS
 62
    7
 10
182.53109699999993
 20
751.76776100000006
 11
182.53109699999993
 21
752.00198399999999
  0
LINE
  8
_0-0_0
  6
CONTINUOUS
 62
    7
 10
182.53109699999993
 20
751.53225700000007
 11
182.53109699999993
 21
751.76776100000006
  0
LINE
  8
_0-0_0
  6
CONTINUOUS
 62
    7
 10
182.53109699999993
 20
751.29803500000003
 11
182.53109699999993
 21
751.53225700000007
  0
LINE
  8
_0-0_0
  6
CONTINUOUS
 62
    7
 10
182.53109699999993
 20
751.06765700000005
 11
182.53109699999993
 21
751.29803500000003
  0
LINE
  8
_0-0_0
  6
CONTINUOUS
 62
    7
 10
182.53109699999993
 20
750.84368900000004
 11
182.53109699999993
 21
751.06765700000005
  0
LINE
  8
_0-0_0
  6
CONTINUOUS
 62
    7
 10
182.53109699999993
 20
750.62853999999993
 11
182.53109699999993
 21
750.84368900000004
  0
LINE
  8
_0-0_0
  6
CONTINUOUS
 62
    7
 10
182.53109699999993
 20
750.57128899999998
 11
182.53109699999993
 21
750.62853999999993
  0
LINE
  8
_0-0_0
  6
CONTINUOUS
 62
    7
 10
167.53109699999993
 20
758.38797
 11
167.53109699999993
 21
757.34231599999998
  0
LINE
  8
_0-0_0
  6
CONTINUOUS
 62
    7
 10
167.53109699999993
 20
756.05770899999993
 11
167.53109699999993
 21
757.34231599999998
  0
LINE
  8
_0-0_0
  6
CONTINUOUS
 62
    7
 10
167.53109699999993
 20
755.94232199999999
 11
167.53109699999993
 21
756.05770899999993
  0
LINE
  8
_0-0_0
  6
CONTINUOUS
 62
    7
 10
167.53109699999993
 20
758.38797
 11
167.53109699999993
 21
761.51205400000003
  0
LINE
  8
_0-0_0
  6
CONTINUOUS
 62
    7
 10
167.53109699999993
 20
763.95770300000004
 11
167.53109699999993
 21
763.84231599999998
  0
LINE
  8
_0-0_0
  6
CONTINUOUS
 62
    7
 10
167.53109699999993
 20
762.55770899999993
 11
167.53109699999993
 21
763.84231599999998
  0
LINE
  8
_0-0_0
  6
CONTINUOUS
 62
    7
 10
167.53109699999993
 20
762.55770899999993
 11
167.53109699999993
 21
761.51205400000003
  0
LINE
  8
_0-0_0
  6
CONTINUOUS
 62
    7
 10
167.53109699999993
 20
763.84231599999998
 11
177.238922
 21
763.84231599999998
  0
LINE
  8
_0-0_0
  6
CONTINUOUS
 62
    7
 10
177.238922
 20
766.45001200000002
 11
177.29341099999999
 21
766.38006599999994
  0
LINE
  8
_0-0_0
  6
CONTINUOUS
 62
    7
 10
177.29341099999999
 20
766.38006599999994
 11
177.34451300000001
 21
766.31124899999998
  0
LINE
  8
_0-0_0
  6
CONTINUOUS
 62
    7
 10
177.34451300000001
 20
766.31124899999998
 11
177.39215100000001
 21
766.24374399999999
  0
LINE
  8
_0-0_0
  6
CONTINUOUS
 62
    7
 10
177.39215100000001
 20
766.24374399999999
 11
177.436645
 21
766.17718500000001
  0
LINE
  8
_0-0_0
  6
CONTINUOUS
 62
    7
 10
177.436645
 20
766.17718500000001
 11
177.49136299999998
 21
766.08966099999998
  0
LINE
  8
_0-0_0
  6
CONTINUOUS
 62
    7
 10
177.49136299999998
 20
766.08966099999998
 11
177.54087799999991
 21
766.00353999999993
  0
LINE
  8
_0-0_0
  6
CONTINUOUS
 62
    7
 10
177.54087799999991
 20
766.00353999999993
 11
177.58534199999997
 21
765.91870100000006
  0
LINE
  8
_0-0_0
  6
CONTINUOUS
 62
    7
 10
177.58534199999997
 20
765.91870100000006
 11
177.63230899999996
 21
765.81839000000002
  0
LINE
  8
_0-0_0
  6
CONTINUOUS
 62
    7
 10
177.63230899999996
 20
765.81839000000002
 11
177.67251599999997
 21
765.71948199999997
  0
LINE
  8
_0-0_0
  6
CONTINUOUS
 62
    7
 10
177.67251599999997
 20
765.71948199999997
 11
177.70617699999991
 21
765.62170400000002
  0
LINE
  8
_0-0_0
  6
CONTINUOUS
 62
    7
 10
177.70617699999991
 20
765.62170400000002
 11
177.733475
 21
765.524902
  0
LINE
  8
_0-0_0
  6
CONTINUOUS
 62
    7
 10
177.733475
 20
765.524902
 11
177.75451699999996
 21
765.42886399999998
  0
LINE
  8
_0-0_0
  6
CONTINUOUS
 62
    7
 10
177.75451699999996
 20
765.42886399999998
 11
177.77044699999999
 21
765.32501200000002
  0
LINE
  8
_0-0_0
  6
CONTINUOUS
 62
    7
 10
177.77044699999999
 20
765.32501200000002
 11
177.77920499999993
 21
765.221588
  0
LINE
  8
_0-0_0
  6
CONTINUOUS
 62
    7
 10
177.77920499999993
 20
765.221588
 11
177.7808379999999
 21
765.11834700000009
  0
LINE
  8
_0-0_0
  6
CONTINUOUS
 62
    7
 10
177.7808379999999
 20
765.11834700000009
 11
177.77537499999994
 21
765.01504499999999
  0
LINE
  8
_0-0_0
  6
CONTINUOUS
 62
    7
 10
177.77537499999994
 20
765.01504499999999
 11
177.76275599999997
 21
764.91146900000001
  0
LINE
  8
_0-0_0
  6
CONTINUOUS
 62
    7
 10
177.76275599999997
 20
764.91146900000001
 11
177.74294999999995
 21
764.80731200000002
  0
LINE
  8
_0-0_0
  6
CONTINUOUS
 62
    7
 10
177.74294999999995
 20
764.80731200000002
 11
177.71580499999993
 21
764.70236199999999
  0
LINE
  8
_0-0_0
  6
CONTINUOUS
 62
    7
 10
177.71580499999993
 20
764.70236199999999
 11
177.681152
 21
764.59631300000001
  0
LINE
  8
_0-0_0
  6
CONTINUOUS
 62
    7
 10
177.681152
 20
764.59631300000001
 11
177.63880899999992
 21
764.48895300000004
  0
LINE
  8
_0-0_0
  6
CONTINUOUS
 62
    7
 10
177.63880899999992
 20
764.48895300000004
 11
177.58848599999999
 21
764.37994400000002
  0
LINE
  8
_0-0_0
  6
CONTINUOUS
 62
    7
 10
177.58848599999999
 20
764.37994400000002
 11
177.53424099999995
 21
764.276794
  0
LINE
  8
_0-0_0
  6
CONTINUOUS
 62
    7
 10
177.53424099999995
 20
764.276794
 11
177.472534
 21
764.17175300000008
  0
LINE
  8
_0-0_0
  6
CONTINUOUS
 62
    7
 10
177.472534
 20
764.17175300000008
 11
177.40301499999998
 21
764.06451399999992
  0
LINE
  8
_0-0_0
  6
CONTINUOUS
 62
    7
 10
177.40301499999998
 20
764.06451399999992
 11
177.32530199999997
 21
763.95480300000008
  0
LINE
  8
_0-0_0
  6
CONTINUOUS
 62
    7
 10
177.32530199999997
 20
763.95480300000008
 11
177.238922
 21
763.84231599999998
  0
LINE
  8
_0-0_0
  6
CONTINUOUS
 62
    7
 10
167.53109699999993
 20
766.45001200000002
 11
177.238922
 21
766.45001200000002
  0
LINE
  8
_0-0_0
  6
CONTINUOUS
 62
    7
 10
177.28109699999993
 20
766.45001200000002
 11
177.238922
 21
766.45001200000002
  0
LINE
  8
_0-0_0
  6
CONTINUOUS
 62
    7
 10
167.53109699999993
 20
756.05770899999993
 11
177.238922
 21
756.05770899999993
  0
LINE
  8
_0-0_0
  6
CONTINUOUS
 62
    7
 10
177.238922
 20
756.05770899999993
 11
177.29341099999999
 21
755.98776199999998
  0
LINE
  8
_0-0_0
  6
CONTINUOUS
 62
    7
 10
177.29341099999999
 20
755.98776199999998
 11
177.34451300000001
 21
755.91894500000001
  0
LINE
  8
_0-0_0
  6
CONTINUOUS
 62
    7
 10
177.34451300000001
 20
755.91894500000001
 11
177.39215100000001
 21
755.85144000000003
  0
LINE
  8
_0-0_0
  6
CONTINUOUS
 62
    7
 10
177.39215100000001
 20
755.85144000000003
 11
177.436645
 21
755.78488199999993
  0
LINE
  8
_0-0_0
  6
CONTINUOUS
 62
    7
 10
177.436645
 20
755.78488199999993
 11
177.49136299999998
 21
755.69735700000001
  0
LINE
  8
_0-0_0
  6
CONTINUOUS
 62
    7
 10
177.49136299999998
 20
755.69735700000001
 11
177.54087799999991
 21
755.61123700000007
  0
LINE
  8
_0-0_0
  6
CONTINUOUS
 62
    7
 10
177.54087799999991
 20
755.61123700000007
 11
177.58534199999997
 21
755.52642800000001
  0
LINE
  8
_0-0_0
  6
CONTINUOUS
 62
    7
 10
177.58534199999997
 20
755.52642800000001
 11
177.63230899999996
 21
755.42608599999994
  0
LINE
  8
_0-0_0
  6
CONTINUOUS
 62
    7
 10
177.63230899999996
 20
755.42608599999994
 11
177.67251599999997
 21
755.327179
  0
LINE
  8
_0-0_0
  6
CONTINUOUS
 62
    7
 10
177.67251599999997
 20
755.327179
 11
177.70617699999991
 21
755.22940100000005
  0
LINE
  8
_0-0_0
  6
CONTINUOUS
 62
    7
 10
177.70617699999991
 20
755.22940100000005
 11
177.733475
 21
755.13259900000003
  0
LINE
  8
_0-0_0
  6
CONTINUOUS
 62
    7
 10
177.733475
 20
755.13259900000003
 11
177.75451699999996
 21
755.03656000000001
  0
LINE
  8
_0-0_0
  6
CONTINUOUS
 62
    7
 10
177.75451699999996
 20
755.03656000000001
 11
177.77044699999999
 21
754.93270899999993
  0
LINE
  8
_0-0_0
  6
CONTINUOUS
 62
    7
 10
177.77044699999999
 20
754.93270899999993
 11
177.77920499999993
 21
754.82928500000003
  0
LINE
  8
_0-0_0
  6
CONTINUOUS
 62
    7
 10
177.77920499999993
 20
754.82928500000003
 11
177.7808379999999
 21
754.726044
  0
LINE
  8
_0-0_0
  6
CONTINUOUS
 62
    7
 10
177.7808379999999
 20
754.726044
 11
177.77537499999994
 21
754.62274200000002
  0
LINE
  8
_0-0_0
  6
CONTINUOUS
 62
    7
 10
177.77537499999994
 20
754.62274200000002
 11
177.76275599999997
 21
754.51916499999993
  0
LINE
  8
_0-0_0
  6
CONTINUOUS
 62
    7
 10
177.76275599999997
 20
754.51916499999993
 11
177.74294999999995
 21
754.41500900000005
  0
LINE
  8
_0-0_0
  6
CONTINUOUS
 62
    7
 10
177.74294999999995
 20
754.41500900000005
 11
177.71580499999993
 21
754.31005900000002
  0
LINE
  8
_0-0_0
  6
CONTINUOUS
 62
    7
 10
177.71580499999993
 20
754.31005900000002
 11
177.681152
 21
754.20400999999993
  0
LINE
  8
_0-0_0
  6
CONTINUOUS
 62
    7
 10
177.681152
 20
754.20400999999993
 11
177.63880899999992
 21
754.09661899999992
  0
LINE
  8
_0-0_0
  6
CONTINUOUS
 62
    7
 10
177.63880899999992
 20
754.09661899999992
 11
177.58848599999999
 21
753.98764000000006
  0
LINE
  8
_0-0_0
  6
CONTINUOUS
 62
    7
 10
177.58848599999999
 20
753.98764000000006
 11
177.54280099999994
 21
753.89996300000007
  0
LINE
  8
_0-0_0
  6
CONTINUOUS
 62
    7
 10
182.53109699999993
 20
750.42456100000004
 11
182.78109699999993
 21
750.40002400000003
  0
LINE
  8
_0-0_0
  6
CONTINUOUS
 62
    7
 10
182.53109699999993
 20
750.62853999999993
 11
182.78109699999993
 21
750.40002400000003
  0
LINE
  8
_0-0_0
  6
CONTINUOUS
 62
    7
 10
182.53109699999993
 20
750.23403899999994
 11
182.78109699999993
 21
750.18054200000006
  0
LINE
  8
_0-0_0
  6
CONTINUOUS
 62
    7
 10
182.53109699999993
 20
750.42456100000004
 11
182.78109699999993
 21
750.18054200000006
  0
LINE
  8
_0-0_0
  6
CONTINUOUS
 62
    7
 10
182.53109699999993
 20
750.05902100000003
 11
182.78109699999993
 21
749.97717299999999
  0
LINE
  8
_0-0_0
  6
CONTINUOUS
 62
    7
 10
182.53109699999993
 20
750.23403899999994
 11
182.78109699999993
 21
749.97717299999999
  0
LINE
  8
_0-0_0
  6
CONTINUOUS
 62
    7
 10
182.53109699999993
 20
749.90142800000001
 11
182.78109699999993
 21
749.792145
  0
LINE
  8
_0-0_0
  6
CONTINUOUS
 62
    7
 10
182.53109699999993
 20
750.05902100000003
 11
182.78109699999993
 21
749.792145
  0
LINE
  8
_0-0_0
  6
CONTINUOUS
 62
    7
 10
182.53109699999993
 20
749.76299999999992
 11
182.78109699999993
 21
749.62747200000001
  0
LINE
  8
_0-0_0
  6
CONTINUOUS
 62
    7
 10
182.53109699999993
 20
749.90142800000001
 11
182.78109699999993
 21
749.62747200000001
  0
LINE
  8
_0-0_0
  6
CONTINUOUS
 62
    7
 10
182.53109699999993
 20
749.64523299999996
 11
182.78109699999993
 21
749.48495500000001
  0
LINE
  8
_0-0_0
  6
CONTINUOUS
 62
    7
 10
182.53109699999993
 20
749.76299999999992
 11
182.78109699999993
 21
749.48495500000001
  0
LINE
  8
_0-0_0
  6
CONTINUOUS
 62
    7
 10
182.53109699999993
 20
749.54943800000001
 11
182.78109699999993
 21
749.36615000000006
  0
LINE
  8
_0-0_0
  6
CONTINUOUS
 62
    7
 10
182.53109699999993
 20
749.64523299999996
 11
182.78109699999993
 21
749.36615000000006
  0
LINE
  8
_0-0_0
  6
CONTINUOUS
 62
    7
 10
182.53109699999993
 20
749.47668499999997
 11
182.78109699999993
 21
749.27236900000003
  0
LINE
  8
_0-0_0
  6
CONTINUOUS
 62
    7
 10
182.53109699999993
 20
749.54943800000001
 11
182.78109699999993
 21
749.27236900000003
  0
LINE
  8
_0-0_0
  6
CONTINUOUS
 62
    7
 10
182.53109699999993
 20
749.42770399999995
 11
182.78109699999993
 21
749.20465100000001
  0
LINE
  8
_0-0_0
  6
CONTINUOUS
 62
    7
 10
182.53109699999993
 20
749.47668499999997
 11
182.78109699999993
 21
749.20465100000001
  0
LINE
  8
_0-0_0
  6
CONTINUOUS
 62
    7
 10
182.53109699999993
 20
749.40307600000006
 11
182.78109699999993
 21
749.16369600000007
  0
LINE
  8
_0-0_0
  6
CONTINUOUS
 62
    7
 10
182.53109699999993
 20
749.42770399999995
 11
182.78109699999993
 21
749.16369600000007
  0
LINE
  8
_0-0_0
  6
CONTINUOUS
 62
    7
 10
182.53109699999993
 20
749.40307600000006
 11
182.78109699999993
 21
749.15002400000003
  0
LINE
  8
_0-0_0
  6
CONTINUOUS
 62
    7
 10
182.53109699999993
 20
753.89691199999993
 11
182.78109699999993
 21
754.15002400000003
  0
LINE
  8
_0-0_0
  6
CONTINUOUS
 62
    7
 10
182.53109699999993
 20
753.87231399999996
 11
182.78109699999993
 21
754.13632200000006
  0
LINE
  8
_0-0_0
  6
CONTINUOUS
 62
    7
 10
182.53109699999993
 20
753.89691199999993
 11
182.78109699999993
 21
754.13632200000006
  0
LINE
  8
_0-0_0
  6
CONTINUOUS
 62
    7
 10
182.53109699999993
 20
753.82333399999993
 11
182.78109699999993
 21
754.09536700000001
  0
LINE
  8
_0-0_0
  6
CONTINUOUS
 62
    7
 10
182.53109699999993
 20
753.87231399999996
 11
182.78109699999993
 21
754.09536700000001
  0
LINE
  8
_0-0_0
  6
CONTINUOUS
 62
    7
 10
182.53109699999993
 20
753.75054899999998
 11
182.78109699999993
 21
754.027649
  0
LINE
  8
_0-0_0
  6
CONTINUOUS
 62
    7
 10
182.53109699999993
 20
753.82333399999993
 11
182.78109699999993
 21
754.027649
  0
LINE
  8
_0-0_0
  6
CONTINUOUS
 62
    7
 10
182.53109699999993
 20
753.65478499999995
 11
182.78109699999993
 21
753.93386800000007
  0
LINE
  8
_0-0_0
  6
CONTINUOUS
 62
    7
 10
182.53109699999993
 20
753.75054899999998
 11
182.78109699999993
 21
753.93386800000007
  0
LINE
  8
_0-0_0
  6
CONTINUOUS
 62
    7
 10
182.53109699999993
 20
753.65478499999995
 11
182.66107199999999
 21
753.73861699999998
  0
LINE
  8
_0-0_0
  6
CONTINUOUS
 62
    7
 10
182.53109699999993
 20
753.53701799999999
 11
182.78109699999993
 21
753.81506300000001
  0
LINE
  8
_0-0_0
  6
CONTINUOUS
 62
    7
 10
182.66107199999999
 20
753.73861699999998
 11
182.78109699999993
 21
753.81506300000001
  0
LINE
  8
_0-0_0
  6
CONTINUOUS
 62
    7
 10
182.53109699999993
 20
753.39859000000001
 11
182.78109699999993
 21
753.67254600000001
  0
LINE
  8
_0-0_0
  6
CONTINUOUS
 62
    7
 10
182.53109699999993
 20
753.53701799999999
 11
182.78109699999993
 21
753.67254600000001
  0
LINE
  8
_0-0_0
  6
CONTINUOUS
 62
    7
 10
182.53109699999993
 20
753.24099699999999
 11
182.78109699999993
 21
753.50787400000002
  0
LINE
  8
_0-0_0
  6
CONTINUOUS
 62
    7
 10
182.53109699999993
 20
753.39859000000001
 11
182.78109699999993
 21
753.50787400000002
  0
LINE
  8
_0-0_0
  6
CONTINUOUS
 62
    7
 10
182.53109699999993
 20
753.06597899999997
 11
182.78109699999993
 21
753.32284499999992
  0
LINE
  8
_0-0_0
  6
CONTINUOUS
 62
    7
 10
182.53109699999993
 20
753.24099699999999
 11
182.78109699999993
 21
753.32284499999992
  0
LINE
  8
_0-0_0
  6
CONTINUOUS
 62
    7
 10
182.53109699999993
 20
752.87542699999995
 11
182.78109699999993
 21
753.11947600000008
  0
LINE
  8
_0-0_0
  6
CONTINUOUS
 62
    7
 10
182.53109699999993
 20
753.06597899999997
 11
182.78109699999993
 21
753.11947600000008
  0
LINE
  8
_0-0_0
  6
CONTINUOUS
 62
    7
 10
182.53109699999993
 20
752.67147799999998
 11
182.78109699999993
 21
752.90002400000003
  0
LINE
  8
_0-0_0
  6
CONTINUOUS
 62
    7
 10
182.53109699999993
 20
752.87542699999995
 11
182.78109699999993
 21
752.90002400000003
  0
LINE
  8
_0-0_0
  6
CONTINUOUS
 62
    7
 10
182.53109699999993
 20
752.45632899999998
 11
182.78109699999993
 21
752.66683999999998
  0
LINE
  8
_0-0_0
  6
CONTINUOUS
 62
    7
 10
182.53109699999993
 20
752.67147799999998
 11
182.78109699999993
 21
752.66683999999998
  0
LINE
  8
_0-0_0
  6
CONTINUOUS
 62
    7
 10
182.53109699999993
 20
752.23236100000008
 11
182.78109699999993
 21
752.42254600000001
  0
LINE
  8
_0-0_0
  6
CONTINUOUS
 62
    7
 10
182.53109699999993
 20
752.45632899999998
 11
182.78109699999993
 21
752.42254600000001
  0
LINE
  8
_0-0_0
  6
CONTINUOUS
 62
    7
 10
182.53109699999993
 20
752.00198399999999
 11
182.78109699999993
 21
752.16980000000001
  0
LINE
  8
_0-0_0
  6
CONTINUOUS
 62
    7
 10
182.53109699999993
 20
752.23236100000008
 11
182.78109699999993
 21
752.16980000000001
  0
LINE
  8
_0-0_0
  6
CONTINUOUS
 62
    7
 10
182.53109699999993
 20
751.76776100000006
 11
182.78109699999993
 21
751.91131599999994
  0
LINE
  8
_0-0_0
  6
CONTINUOUS
 62
    7
 10
182.53109699999993
 20
752.00198399999999
 11
182.78109699999993
 21
751.91131599999994
  0
LINE
  8
_0-0_0
  6
CONTINUOUS
 62
    7
 10
182.53109699999993
 20
751.53225700000007
 11
182.78109699999993
 21
751.65002400000003
  0
LINE
  8
_0-0_0
  6
CONTINUOUS
 62
    7
 10
182.53109699999993
 20
751.76776100000006
 11
182.78109699999993
 21
751.65002400000003
  0
LINE
  8
_0-0_0
  6
CONTINUOUS
 62
    7
 10
182.53109699999993
 20
751.29803500000003
 11
182.78109699999993
 21
751.38867200000004
  0
LINE
  8
_0-0_0
  6
CONTINUOUS
 62
    7
 10
182.53109699999993
 20
751.53225700000007
 11
182.78109699999993
 21
751.38867200000004
  0
LINE
  8
_0-0_0
  6
CONTINUOUS
 62
    7
 10
182.53109699999993
 20
751.06765700000005
 11
182.78109699999993
 21
751.13021900000001
  0
LINE
  8
_0-0_0
  6
CONTINUOUS
 62
    7
 10
182.53109699999993
 20
751.29803500000003
 11
182.78109699999993
 21
751.13021900000001
  0
LINE
  8
_0-0_0
  6
CONTINUOUS
 62
    7
 10
182.53109699999993
 20
750.84368900000004
 11
182.78109699999993
 21
750.87747200000001
  0
LINE
  8
_0-0_0
  6
CONTINUOUS
 62
    7
 10
182.53109699999993
 20
751.06765700000005
 11
182.78109699999993
 21
750.87747200000001
  0
LINE
  8
_0-0_0
  6
CONTINUOUS
 62
    7
 10
182.53109699999993
 20
750.62853999999993
 11
182.78109699999993
 21
750.63317899999993
  0
LINE
  8
_0-0_0
  6
CONTINUOUS
 62
    7
 10
182.53109699999993
 20
750.84368900000004
 11
182.78109699999993
 21
750.63317899999993
  0
LINE
  8
_0-0_0
  6
CONTINUOUS
 62
    7
 10
167.53109699999993
 20
757.34231599999998
 11
177.238922
 21
757.34231599999998
  0
LINE
  8
_0-0_0
  6
CONTINUOUS
 62
    7
 10
177.238922
 20
757.34231599999998
 11
177.3332519999999
 21
757.58892800000001
  0
LINE
  8
_0-0_0
  6
CONTINUOUS
 62
    7
 10
177.3332519999999
 20
757.58892800000001
 11
177.41720599999996
 21
757.82891799999993
  0
LINE
  8
_0-0_0
  6
CONTINUOUS
 62
    7
 10
177.41720599999996
 20
757.82891799999993
 11
177.49136299999998
 21
758.06301899999994
  0
LINE
  8
_0-0_0
  6
CONTINUOUS
 62
    7
 10
177.49136299999998
 20
758.06301899999994
 11
177.55624399999999
 21
758.29205300000001
  0
LINE
  8
_0-0_0
  6
CONTINUOUS
 62
    7
 10
177.55624399999999
 20
758.29205300000001
 11
177.61228899999992
 21
758.51672400000007
  0
LINE
  8
_0-0_0
  6
CONTINUOUS
 62
    7
 10
177.61228899999992
 20
758.51672400000007
 11
177.659851
 21
758.73770100000002
  0
LINE
  8
_0-0_0
  6
CONTINUOUS
 62
    7
 10
177.659851
 20
758.73770100000002
 11
177.69924900000001
 21
758.95562700000005
  0
LINE
  8
_0-0_0
  6
CONTINUOUS
 62
    7
 10
177.69924900000001
 20
758.95562700000005
 11
177.73074299999996
 21
759.17108200000007
  0
LINE
  8
_0-0_0
  6
CONTINUOUS
 62
    7
 10
177.73074299999996
 20
759.17108200000007
 11
177.75451699999996
 21
759.38461299999994
  0
LINE
  8
_0-0_0
  6
CONTINUOUS
 62
    7
 10
177.75451699999996
 20
759.38461299999994
 11
177.77044699999999
 21
759.59231599999998
  0
LINE
  8
_0-0_0
  6
CONTINUOUS
 62
    7
 10
177.77044699999999
 20
759.59231599999998
 11
177.77920499999993
 21
759.79916400000002
  0
LINE
  8
_0-0_0
  6
CONTINUOUS
 62
    7
 10
177.77920499999993
 20
759.79916400000002
 11
177.7808379999999
 21
760.00564600000007
  0
LINE
  8
_0-0_0
  6
CONTINUOUS
 62
    7
 10
177.7808379999999
 20
760.00564600000007
 11
177.77537499999994
 21
760.212219
  0
LINE
  8
_0-0_0
  6
CONTINUOUS
 62
    7
 10
177.77537499999994
 20
760.212219
 11
177.76275599999997
 21
760.41940299999999
  0
LINE
  8
_0-0_0
  6
CONTINUOUS
 62
    7
 10
177.76275599999997
 20
760.41940299999999
 11
177.74294999999995
 21
760.62771599999996
  0
LINE
  8
_0-0_0
  6
CONTINUOUS
 62
    7
 10
177.74294999999995
 20
760.62771599999996
 11
177.71580499999993
 21
760.83761600000003
  0
LINE
  8
_0-0_0
  6
CONTINUOUS
 62
    7
 10
177.71580499999993
 20
760.83761600000003
 11
177.681152
 21
761.04968299999996
  0
LINE
  8
_0-0_0
  6
CONTINUOUS
 62
    7
 10
177.681152
 20
761.04968299999996
 11
177.63880899999992
 21
761.26443500000005
  0
LINE
  8
_0-0_0
  6
CONTINUOUS
 62
    7
 10
177.63880899999992
 20
761.26443500000005
 11
177.58848599999999
 21
761.48245199999997
  0
LINE
  8
_0-0_0
  6
CONTINUOUS
 62
    7
 10
177.58848599999999
 20
761.48245199999997
 11
177.53424099999995
 21
761.68872099999999
  0
LINE
  8
_0-0_0
  6
CONTINUOUS
 62
    7
 10
177.53424099999995
 20
761.68872099999999
 11
177.472534
 21
761.89883400000008
  0
LINE
  8
_0-0_0
  6
CONTINUOUS
 62
    7
 10
177.472534
 20
761.89883400000008
 11
177.40301499999998
 21
762.11331199999995
  0
LINE
  8
_0-0_0
  6
CONTINUOUS
 62
    7
 10
177.40301499999998
 20
762.11331199999995
 11
177.32530199999997
 21
762.33273299999996
  0
LINE
  8
_0-0_0
  6
CONTINUOUS
 62
    7
 10
177.32530199999997
 20
762.33273299999996
 11
177.238922
 21
762.55770899999993
  0
LINE
  8
_0-0_0
  6
CONTINUOUS
 62
    7
 10
167.53109699999993
 20
762.55770899999993
 11
177.238922
 21
762.55770899999993
  0
ARC
  8
_0-0_0
  6
CONTINUOUS
 62
    7
 10
172.36737099999993
 20
756.70001200000002
 40
4.9136889999999998
 50
352.48898799999995
 51
7.5110139999999577
  0
ARC
  8
_0-0_0
  6
CONTINUOUS
 62
    7
 10
172.35720800000001
 20
763.20089699999994
 40
4.9238749999999998
 50
352.49423299999995
 51
1.5359699999999901
  0
ARC
  8
_0-0_0
  6
CONTINUOUS
 62
    7
 10
172.31918299999995
 20
763.19595299999992
 40
4.9620009999999999
 50
1.5813010000000001
 51
7.4847919999999997
  0
LINE
  8
_0-0_0
  6
CONTINUOUS
 62
    7
 10
178.53109699999993
 20
762.68154900000002
 11
178.53109699999993
 21
765.20001200000002
  0
LINE
  8
_0-0_0
  6
CONTINUOUS
 62
    7
 10
178.53109699999993
 20
754.70001200000002
 11
178.53109699999993
 21
762.68154900000002
  0
LINE
  8
_0-0_0
  6
CONTINUOUS
 62
    7
 10
192.28109699999993
 20
750.42456100000004
 11
192.03109699999993
 21
750.40002400000003
  0
LINE
  8
_0-0_0
  6
CONTINUOUS
 62
    7
 10
192.03109699999993
 20
750.40002400000003
 11
182.78109699999993
 21
750.40002400000003
  0
LINE
  8
_0-0_0
  6
CONTINUOUS
 62
    7
 10
192.28109699999993
 20
750.62853999999993
 11
192.03109699999993
 21
750.40002400000003
  0
LINE
  8
_0-0_0
  6
CONTINUOUS
 62
    7
 10
192.28109699999993
 20
750.62853999999993
 11
182.53109699999993
 21
750.62853999999993
  0
LINE
  8
_0-0_0
  6
CONTINUOUS
 62
    7
 10
192.28109699999993
 20
750.23403899999994
 11
192.03109699999993
 21
750.18054200000006
  0
LINE
  8
_0-0_0
  6
CONTINUOUS
 62
    7
 10
192.03109699999993
 20
750.18054200000006
 11
182.78109699999993
 21
750.18054200000006
  0
LINE
  8
_0-0_0
  6
CONTINUOUS
 62
    7
 10
192.28109699999993
 20
750.42456100000004
 11
192.03109699999993
 21
750.18054200000006
  0
LINE
  8
_0-0_0
  6
CONTINUOUS
 62
    7
 10
192.28109699999993
 20
750.05902100000003
 11
192.03109699999993
 21
749.97717299999999
  0
LINE
  8
_0-0_0
  6
CONTINUOUS
 62
    7
 10
192.03109699999993
 20
749.97717299999999
 11
182.78109699999993
 21
749.97717299999999
  0
LINE
  8
_0-0_0
  6
CONTINUOUS
 62
    7
 10
192.28109699999993
 20
750.23403899999994
 11
192.03109699999993
 21
749.97717299999999
  0
LINE
  8
_0-0_0
  6
CONTINUOUS
 62
    7
 10
192.28109699999993
 20
749.90142800000001
 11
192.03109699999993
 21
749.792145
  0
LINE
  8
_0-0_0
  6
CONTINUOUS
 62
    7
 10
192.03109699999993
 20
749.792145
 11
182.78109699999993
 21
749.792145
  0
LINE
  8
_0-0_0
  6
CONTINUOUS
 62
    7
 10
192.28109699999993
 20
750.05902100000003
 11
192.03109699999993
 21
749.792145
  0
LINE
  8
_0-0_0
  6
CONTINUOUS
 62
    7
 10
192.28109699999993
 20
749.76299999999992
 11
192.03109699999993
 21
749.62747200000001
  0
LINE
  8
_0-0_0
  6
CONTINUOUS
 62
    7
 10
192.03109699999993
 20
749.62747200000001
 11
182.78109699999993
 21
749.62747200000001
  0
LINE
  8
_0-0_0
  6
CONTINUOUS
 62
    7
 10
192.28109699999993
 20
749.90142800000001
 11
192.03109699999993
 21
749.62747200000001
  0
LINE
  8
_0-0_0
  6
CONTINUOUS
 62
    7
 10
192.28109699999993
 20
749.64523299999996
 11
192.03109699999993
 21
749.48495500000001
  0
LINE
  8
_0-0_0
  6
CONTINUOUS
 62
    7
 10
192.03109699999993
 20
749.48495500000001
 11
182.78109699999993
 21
749.48495500000001
  0
LINE
  8
_0-0_0
  6
CONTINUOUS
 62
    7
 10
192.28109699999993
 20
749.76299999999992
 11
192.03109699999993
 21
749.48495500000001
  0
LINE
  8
_0-0_0
  6
CONTINUOUS
 62
    7
 10
192.28109699999993
 20
749.54943800000001
 11
192.03109699999993
 21
749.36615000000006
  0
LINE
  8
_0-0_0
  6
CONTINUOUS
 62
    7
 10
192.03109699999993
 20
749.36615000000006
 11
182.78109699999993
 21
749.36615000000006
  0
LINE
  8
_0-0_0
  6
CONTINUOUS
 62
    7
 10
192.28109699999993
 20
749.64523299999996
 11
192.03109699999993
 21
749.36615000000006
  0
LINE
  8
_0-0_0
  6
CONTINUOUS
 62
    7
 10
192.28109699999993
 20
749.47668499999997
 11
192.03109699999993
 21
749.27236900000003
  0
LINE
  8
_0-0_0
  6
CONTINUOUS
 62
    7
 10
192.03109699999993
 20
749.27236900000003
 11
182.78109699999993
 21
749.27236900000003
  0
LINE
  8
_0-0_0
  6
CONTINUOUS
 62
    7
 10
192.28109699999993
 20
749.54943800000001
 11
192.03109699999993
 21
749.27236900000003
  0
LINE
  8
_0-0_0
  6
CONTINUOUS
 62
    7
 10
192.28109699999993
 20
749.42770399999995
 11
192.03109699999993
 21
749.20465100000001
  0
LINE
  8
_0-0_0
  6
CONTINUOUS
 62
    7
 10
192.03109699999993
 20
749.20465100000001
 11
182.78109699999993
 21
749.20465100000001
  0
LINE
  8
_0-0_0
  6
CONTINUOUS
 62
    7
 10
192.28109699999993
 20
749.47668499999997
 11
192.03109699999993
 21
749.20465100000001
  0
LINE
  8
_0-0_0
  6
CONTINUOUS
 62
    7
 10
192.28109699999993
 20
749.40307600000006
 11
192.03109699999993
 21
749.16369600000007
  0
LINE
  8
_0-0_0
  6
CONTINUOUS
 62
    7
 10
192.03109699999993
 20
749.16369600000007
 11
182.78109699999993
 21
749.16369600000007
  0
LINE
  8
_0-0_0
  6
CONTINUOUS
 62
    7
 10
192.28109699999993
 20
749.42770399999995
 11
192.03109699999993
 21
749.16369600000007
  0
LINE
  8
_0-0_0
  6
CONTINUOUS
 62
    7
 10
192.03109699999993
 20
749.15002400000003
 11
182.78109699999993
 21
749.15002400000003
  0
LINE
  8
_0-0_0
  6
CONTINUOUS
 62
    7
 10
192.28109699999993
 20
749.40307600000006
 11
192.03109699999993
 21
749.15002400000003
  0
LINE
  8
_0-0_0
  6
CONTINUOUS
 62
    7
 10
192.28109699999993
 20
753.89691199999993
 11
192.03109699999993
 21
754.15002400000003
  0
LINE
  8
_0-0_0
  6
CONTINUOUS
 62
    7
 10
192.03109699999993
 20
754.15002400000003
 11
182.78109699999993
 21
754.15002400000003
  0
LINE
  8
_0-0_0
  6
CONTINUOUS
 62
    7
 10
192.28109699999993
 20
753.87231399999996
 11
192.03109699999993
 21
754.13632200000006
  0
LINE
  8
_0-0_0
  6
CONTINUOUS
 62
    7
 10
192.03109699999993
 20
754.13632200000006
 11
182.78109699999993
 21
754.13632200000006
  0
LINE
  8
_0-0_0
  6
CONTINUOUS
 62
    7
 10
192.28109699999993
 20
753.89691199999993
 11
192.03109699999993
 21
754.13632200000006
  0
LINE
  8
_0-0_0
  6
CONTINUOUS
 62
    7
 10
192.28109699999993
 20
753.82333399999993
 11
192.03109699999993
 21
754.09536700000001
  0
LINE
  8
_0-0_0
  6
CONTINUOUS
 62
    7
 10
192.03109699999993
 20
754.09536700000001
 11
182.78109699999993
 21
754.09536700000001
  0
LINE
  8
_0-0_0
  6
CONTINUOUS
 62
    7
 10
192.28109699999993
 20
753.87231399999996
 11
192.03109699999993
 21
754.09536700000001
  0
LINE
  8
_0-0_0
  6
CONTINUOUS
 62
    7
 10
192.28109699999993
 20
753.75054899999998
 11
192.03109699999993
 21
754.027649
  0
LINE
  8
_0-0_0
  6
CONTINUOUS
 62
    7
 10
192.03109699999993
 20
754.027649
 11
182.78109699999993
 21
754.027649
  0
LINE
  8
_0-0_0
  6
CONTINUOUS
 62
    7
 10
192.28109699999993
 20
753.82333399999993
 11
192.03109699999993
 21
754.027649
  0
LINE
  8
_0-0_0
  6
CONTINUOUS
 62
    7
 10
192.28109699999993
 20
753.65478499999995
 11
192.03109699999993
 21
753.93386800000007
  0
LINE
  8
_0-0_0
  6
CONTINUOUS
 62
    7
 10
192.03109699999993
 20
753.93386800000007
 11
182.78109699999993
 21
753.93386800000007
  0
LINE
  8
_0-0_0
  6
CONTINUOUS
 62
    7
 10
192.28109699999993
 20
753.75054899999998
 11
192.03109699999993
 21
753.93386800000007
  0
LINE
  8
_0-0_0
  6
CONTINUOUS
 62
    7
 10
192.03109699999993
 20
753.81506300000001
 11
182.78109699999993
 21
753.81506300000001
  0
LINE
  8
_0-0_0
  6
CONTINUOUS
 62
    7
 10
192.15113799999995
 20
753.73861699999998
 11
192.03109699999993
 21
753.81506300000001
  0
LINE
  8
_0-0_0
  6
CONTINUOUS
 62
    7
 10
192.28109699999993
 20
753.65478499999995
 11
192.15113799999995
 21
753.73861699999998
  0
LINE
  8
_0-0_0
  6
CONTINUOUS
 62
    7
 10
192.28109699999993
 20
753.53701799999999
 11
192.03109699999993
 21
753.81506300000001
  0
LINE
  8
_0-0_0
  6
CONTINUOUS
 62
    7
 10
192.28109699999993
 20
753.39859000000001
 11
192.03109699999993
 21
753.67254600000001
  0
LINE
  8
_0-0_0
  6
CONTINUOUS
 62
    7
 10
192.03109699999993
 20
753.67254600000001
 11
182.78109699999993
 21
753.67254600000001
  0
LINE
  8
_0-0_0
  6
CONTINUOUS
 62
    7
 10
192.28109699999993
 20
753.53701799999999
 11
192.03109699999993
 21
753.67254600000001
  0
LINE
  8
_0-0_0
  6
CONTINUOUS
 62
    7
 10
192.28109699999993
 20
753.24099699999999
 11
192.03109699999993
 21
753.50787400000002
  0
LINE
  8
_0-0_0
  6
CONTINUOUS
 62
    7
 10
192.03109699999993
 20
753.50787400000002
 11
182.78109699999993
 21
753.50787400000002
  0
LINE
  8
_0-0_0
  6
CONTINUOUS
 62
    7
 10
192.28109699999993
 20
753.39859000000001
 11
192.03109699999993
 21
753.50787400000002
  0
LINE
  8
_0-0_0
  6
CONTINUOUS
 62
    7
 10
192.28109699999993
 20
753.06597899999997
 11
192.03109699999993
 21
753.32284499999992
  0
LINE
  8
_0-0_0
  6
CONTINUOUS
 62
    7
 10
192.03109699999993
 20
753.32284499999992
 11
182.78109699999993
 21
753.32284499999992
  0
LINE
  8
_0-0_0
  6
CONTINUOUS
 62
    7
 10
192.28109699999993
 20
753.24099699999999
 11
192.03109699999993
 21
753.32284499999992
  0
LINE
  8
_0-0_0
  6
CONTINUOUS
 62
    7
 10
192.28109699999993
 20
752.87542699999995
 11
192.03109699999993
 21
753.11947600000008
  0
LINE
  8
_0-0_0
  6
CONTINUOUS
 62
    7
 10
192.03109699999993
 20
753.11947600000008
 11
182.78109699999993
 21
753.11947600000008
  0
LINE
  8
_0-0_0
  6
CONTINUOUS
 62
    7
 10
192.28109699999993
 20
753.06597899999997
 11
192.03109699999993
 21
753.11947600000008
  0
LINE
  8
_0-0_0
  6
CONTINUOUS
 62
    7
 10
192.28109699999993
 20
752.67147799999998
 11
192.03109699999993
 21
752.90002400000003
  0
LINE
  8
_0-0_0
  6
CONTINUOUS
 62
    7
 10
192.03109699999993
 20
752.90002400000003
 11
182.78109699999993
 21
752.90002400000003
  0
LINE
  8
_0-0_0
  6
CONTINUOUS
 62
    7
 10
192.28109699999993
 20
752.67147799999998
 11
182.53109699999993
 21
752.67147799999998
  0
LINE
  8
_0-0_0
  6
CONTINUOUS
 62
    7
 10
192.28109699999993
 20
752.87542699999995
 11
192.03109699999993
 21
752.90002400000003
  0
LINE
  8
_0-0_0
  6
CONTINUOUS
 62
    7
 10
192.28109699999993
 20
752.45632899999998
 11
192.03109699999993
 21
752.66683999999998
  0
LINE
  8
_0-0_0
  6
CONTINUOUS
 62
    7
 10
192.03109699999993
 20
752.66683999999998
 11
182.78109699999993
 21
752.66683999999998
  0
LINE
  8
_0-0_0
  6
CONTINUOUS
 62
    7
 10
192.28109699999993
 20
752.45632899999998
 11
182.53109699999993
 21
752.45632899999998
  0
LINE
  8
_0-0_0
  6
CONTINUOUS
 62
    7
 10
192.28109699999993
 20
752.67147799999998
 11
192.03109699999993
 21
752.66683999999998
  0
LINE
  8
_0-0_0
  6
CONTINUOUS
 62
    7
 10
192.28109699999993
 20
752.23236100000008
 11
192.03109699999993
 21
752.42254600000001
  0
LINE
  8
_0-0_0
  6
CONTINUOUS
 62
    7
 10
192.03109699999993
 20
752.42254600000001
 11
182.78109699999993
 21
752.42254600000001
  0
LINE
  8
_0-0_0
  6
CONTINUOUS
 62
    7
 10
192.28109699999993
 20
752.23236100000008
 11
182.53109699999993
 21
752.23236100000008
  0
LINE
  8
_0-0_0
  6
CONTINUOUS
 62
    7
 10
192.28109699999993
 20
752.45632899999998
 11
192.03109699999993
 21
752.42254600000001
  0
LINE
  8
_0-0_0
  6
CONTINUOUS
 62
    7
 10
192.28109699999993
 20
752.00198399999999
 11
192.03109699999993
 21
752.16980000000001
  0
LINE
  8
_0-0_0
  6
CONTINUOUS
 62
    7
 10
192.03109699999993
 20
752.16980000000001
 11
182.78109699999993
 21
752.16980000000001
  0
LINE
  8
_0-0_0
  6
CONTINUOUS
 62
    7
 10
192.28109699999993
 20
752.00198399999999
 11
182.53109699999993
 21
752.00198399999999
  0
LINE
  8
_0-0_0
  6
CONTINUOUS
 62
    7
 10
192.28109699999993
 20
752.23236100000008
 11
192.03109699999993
 21
752.16980000000001
  0
LINE
  8
_0-0_0
  6
CONTINUOUS
 62
    7
 10
192.28109699999993
 20
751.76776100000006
 11
192.03109699999993
 21
751.91131599999994
  0
LINE
  8
_0-0_0
  6
CONTINUOUS
 62
    7
 10
192.03109699999993
 20
751.91131599999994
 11
182.78109699999993
 21
751.91131599999994
  0
LINE
  8
_0-0_0
  6
CONTINUOUS
 62
    7
 10
192.28109699999993
 20
751.76776100000006
 11
182.53109699999993
 21
751.76776100000006
  0
LINE
  8
_0-0_0
  6
CONTINUOUS
 62
    7
 10
192.28109699999993
 20
752.00198399999999
 11
192.03109699999993
 21
751.91131599999994
  0
LINE
  8
_0-0_0
  6
CONTINUOUS
 62
    7
 10
192.28109699999993
 20
751.53225700000007
 11
192.03109699999993
 21
751.65002400000003
  0
LINE
  8
_0-0_0
  6
CONTINUOUS
 62
    7
 10
192.03109699999993
 20
751.65002400000003
 11
182.78109699999993
 21
751.65002400000003
  0
LINE
  8
_0-0_0
  6
CONTINUOUS
 62
    7
 10
192.28109699999993
 20
751.53225700000007
 11
182.53109699999993
 21
751.53225700000007
  0
LINE
  8
_0-0_0
  6
CONTINUOUS
 62
    7
 10
192.28109699999993
 20
751.76776100000006
 11
192.03109699999993
 21
751.65002400000003
  0
LINE
  8
_0-0_0
  6
CONTINUOUS
 62
    7
 10
192.28109699999993
 20
751.29803500000003
 11
192.03109699999993
 21
751.38867200000004
  0
LINE
  8
_0-0_0
  6
CONTINUOUS
 62
    7
 10
192.03109699999993
 20
751.38867200000004
 11
182.78109699999993
 21
751.38867200000004
  0
LINE
  8
_0-0_0
  6
CONTINUOUS
 62
    7
 10
192.28109699999993
 20
751.29803500000003
 11
182.53109699999993
 21
751.29803500000003
  0
LINE
  8
_0-0_0
  6
CONTINUOUS
 62
    7
 10
192.28109699999993
 20
751.53225700000007
 11
192.03109699999993
 21
751.38867200000004
  0
LINE
  8
_0-0_0
  6
CONTINUOUS
 62
    7
 10
192.28109699999993
 20
751.06765700000005
 11
192.03109699999993
 21
751.13021900000001
  0
LINE
  8
_0-0_0
  6
CONTINUOUS
 62
    7
 10
192.03109699999993
 20
751.13021900000001
 11
182.78109699999993
 21
751.13021900000001
  0
LINE
  8
_0-0_0
  6
CONTINUOUS
 62
    7
 10
192.28109699999993
 20
751.06765700000005
 11
182.53109699999993
 21
751.06765700000005
  0
LINE
  8
_0-0_0
  6
CONTINUOUS
 62
    7
 10
192.28109699999993
 20
751.29803500000003
 11
192.03109699999993
 21
751.13021900000001
  0
LINE
  8
_0-0_0
  6
CONTINUOUS
 62
    7
 10
192.28109699999993
 20
750.84368900000004
 11
192.03109699999993
 21
750.87747200000001
  0
LINE
  8
_0-0_0
  6
CONTINUOUS
 62
    7
 10
192.03109699999993
 20
750.87747200000001
 11
182.78109699999993
 21
750.87747200000001
  0
LINE
  8
_0-0_0
  6
CONTINUOUS
 62
    7
 10
192.28109699999993
 20
750.84368900000004
 11
182.53109699999993
 21
750.84368900000004
  0
LINE
  8
_0-0_0
  6
CONTINUOUS
 62
    7
 10
192.28109699999993
 20
751.06765700000005
 11
192.03109699999993
 21
750.87747200000001
  0
LINE
  8
_0-0_0
  6
CONTINUOUS
 62
    7
 10
192.28109699999993
 20
750.62853999999993
 11
192.03109699999993
 21
750.63317899999993
  0
LINE
  8
_0-0_0
  6
CONTINUOUS
 62
    7
 10
192.03109699999993
 20
750.63317899999993
 11
182.78109699999993
 21
750.63317899999993
  0
LINE
  8
_0-0_0
  6
CONTINUOUS
 62
    7
 10
192.28109699999993
 20
750.84368900000004
 11
192.03109699999993
 21
750.63317899999993
  0
LINE
  8
_0-0_0
  6
CONTINUOUS
 62
    7
 10
192.53109699999993
 20
749.65002400000003
 11
192.53109699999993
 21
753.40518199999997
  0
LINE
  8
_0-0_0
  6
CONTINUOUS
 62
    7
 10
192.53109699999993
 20
753.40518199999997
 11
192.53109699999993
 21
753.65002400000003
  0
LINE
  8
_0-0_0
  6
CONTINUOUS
 62
    7
 10
178.93109099999992
 20
754.95001200000002
 11
178.93109099999992
 21
757.45001200000002
  0
LINE
  8
_0-0_0
  6
CONTINUOUS
 62
    7
 10
178.93109099999992
 20
757.45001200000002
 11
178.93109099999992
 21
764.95001200000002
  0
LINE
  8
_0-0_0
  6
CONTINUOUS
 62
    7
 10
179.73109399999998
 20
755.41189600000007
 11
179.73109399999998
 21
757.68093900000008
  0
LINE
  8
_0-0_0
  6
CONTINUOUS
 62
    7
 10
179.73109399999998
 20
757.68093900000008
 11
179.73109399999998
 21
764.48812900000007
  0
LINE
  8
_0-0_0
  6
CONTINUOUS
 62
    7
 10
237.73109399999998
 20
755.95001200000002
 11
237.73109399999998
 21
755.95135499999992
  0
LINE
  8
_0-0_0
  6
CONTINUOUS
 62
    7
 10
237.73109399999998
 20
755.95135499999992
 11
237.73109399999998
 21
763.95001200000002
  0
LINE
  8
_0-0_0
  6
CONTINUOUS
 62
    7
 10
182.53109699999993
 20
770.49691800000005
 11
182.53109699999993
 21
770.5
  0
LINE
  8
_0-0_0
  6
CONTINUOUS
 62
    7
 10
182.53109699999993
 20
770.47228999999993
 11
182.53109699999993
 21
770.49691800000005
  0
LINE
  8
_0-0_0
  6
CONTINUOUS
 62
    7
 10
182.53109699999993
 20
770.42334000000005
 11
182.53109699999993
 21
770.5
  0
LINE
  8
_0-0_0
  6
CONTINUOUS
 62
    7
 10
182.53109699999993
 20
770.35055499999999
 11
182.53109699999993
 21
770.42334000000005
  0
LINE
  8
_0-0_0
  6
CONTINUOUS
 62
    7
 10
182.53109699999993
 20
770.25476099999992
 11
182.53109699999993
 21
770.35055499999999
  0
LINE
  8
_0-0_0
  6
CONTINUOUS
 62
    7
 10
182.53109699999993
 20
770.22457899999995
 11
182.53109699999993
 21
770.25476099999992
  0
LINE
  8
_0-0_0
  6
CONTINUOUS
 62
    7
 10
182.53109699999993
 20
770.137024
 11
182.53109699999993
 21
770.22457899999995
  0
LINE
  8
_0-0_0
  6
CONTINUOUS
 62
    7
 10
182.53109699999993
 20
769.99859600000002
 11
182.53109699999993
 21
770.137024
  0
LINE
  8
_0-0_0
  6
CONTINUOUS
 62
    7
 10
182.53109699999993
 20
769.841003
 11
182.53109699999993
 21
769.99859600000002
  0
LINE
  8
_0-0_0
  6
CONTINUOUS
 62
    7
 10
182.53109699999993
 20
769.66598499999998
 11
182.53109699999993
 21
769.841003
  0
LINE
  8
_0-0_0
  6
CONTINUOUS
 62
    7
 10
182.53109699999993
 20
769.47543300000007
 11
182.53109699999993
 21
769.66598499999998
  0
LINE
  8
_0-0_0
  6
CONTINUOUS
 62
    7
 10
182.53109699999993
 20
769.27148399999999
 11
182.53109699999993
 21
769.47543300000007
  0
LINE
  8
_0-0_0
  6
CONTINUOUS
 62
    7
 10
182.53109699999993
 20
769.05633499999999
 11
182.53109699999993
 21
769.27148399999999
  0
LINE
  8
_0-0_0
  6
CONTINUOUS
 62
    7
 10
182.53109699999993
 20
768.83233599999994
 11
182.53109699999993
 21
769.05633499999999
  0
LINE
  8
_0-0_0
  6
CONTINUOUS
 62
    7
 10
182.53109699999993
 20
768.60199
 11
182.53109699999993
 21
768.83233599999994
  0
LINE
  8
_0-0_0
  6
CONTINUOUS
 62
    7
 10
182.53109699999993
 20
768.36776699999996
 11
182.53109699999993
 21
768.60199
  0
LINE
  8
_0-0_0
  6
CONTINUOUS
 62
    7
 10
182.53109699999993
 20
768.13226299999997
 11
182.53109699999993
 21
768.36776699999996
  0
LINE
  8
_0-0_0
  6
CONTINUOUS
 62
    7
 10
182.53109699999993
 20
767.89804099999992
 11
182.53109699999993
 21
768.13226299999997
  0
LINE
  8
_0-0_0
  6
CONTINUOUS
 62
    7
 10
182.53109699999993
 20
767.66766400000006
 11
182.53109699999993
 21
767.89804099999992
  0
LINE
  8
_0-0_0
  6
CONTINUOUS
 62
    7
 10
182.53109699999993
 20
767.44366500000001
 11
182.53109699999993
 21
767.66766400000006
  0
LINE
  8
_0-0_0
  6
CONTINUOUS
 62
    7
 10
182.53109699999993
 20
767.22851600000001
 11
182.53109699999993
 21
767.44366500000001
  0
LINE
  8
_0-0_0
  6
CONTINUOUS
 62
    7
 10
182.53109699999993
 20
767.17129499999999
 11
182.53109699999993
 21
767.22851600000001
  0
LINE
  8
_0-0_0
  6
CONTINUOUS
 62
    7
 10
182.53109699999993
 20
770.49691800000005
 11
182.78109699999993
 21
770.75
  0
LINE
  8
_0-0_0
  6
CONTINUOUS
 62
    7
 10
182.53109699999993
 20
770.47228999999993
 11
182.78109699999993
 21
770.73632799999996
  0
LINE
  8
_0-0_0
  6
CONTINUOUS
 62
    7
 10
182.53109699999993
 20
770.49691800000005
 11
182.78109699999993
 21
770.73632799999996
  0
LINE
  8
_0-0_0
  6
CONTINUOUS
 62
    7
 10
182.53109699999993
 20
770.42334000000005
 11
182.78109699999993
 21
770.69537400000002
  0
LINE
  8
_0-0_0
  6
CONTINUOUS
 62
    7
 10
182.53109699999993
 20
770.47228999999993
 11
182.78109699999993
 21
770.69537400000002
  0
LINE
  8
_0-0_0
  6
CONTINUOUS
 62
    7
 10
182.53109699999993
 20
770.35055499999999
 11
182.78109699999993
 21
770.627655
  0
LINE
  8
_0-0_0
  6
CONTINUOUS
 62
    7
 10
182.53109699999993
 20
770.42334000000005
 11
182.78109699999993
 21
770.627655
  0
LINE
  8
_0-0_0
  6
CONTINUOUS
 62
    7
 10
182.53109699999993
 20
770.25476099999992
 11
182.78109699999993
 21
770.53387500000008
  0
LINE
  8
_0-0_0
  6
CONTINUOUS
 62
    7
 10
182.53109699999993
 20
770.35055499999999
 11
182.78109699999993
 21
770.53387500000008
  0
LINE
  8
_0-0_0
  6
CONTINUOUS
 62
    7
 10
182.53109699999993
 20
770.25476099999992
 11
182.66107199999999
 21
770.33862299999998
  0
LINE
  8
_0-0_0
  6
CONTINUOUS
 62
    7
 10
182.53109699999993
 20
770.137024
 11
182.78109699999993
 21
770.41507000000001
  0
LINE
  8
_0-0_0
  6
CONTINUOUS
 62
    7
 10
182.66107199999999
 20
770.33862299999998
 11
182.78109699999993
 21
770.41507000000001
  0
LINE
  8
_0-0_0
  6
CONTINUOUS
 62
    7
 10
182.53109699999993
 20
769.99859600000002
 11
182.78109699999993
 21
770.27255200000002
  0
LINE
  8
_0-0_0
  6
CONTINUOUS
 62
    7
 10
182.53109699999993
 20
770.137024
 11
182.78109699999993
 21
770.27255200000002
  0
LINE
  8
_0-0_0
  6
CONTINUOUS
 62
    7
 10
182.53109699999993
 20
769.841003
 11
182.78109699999993
 21
770.10788000000002
  0
LINE
  8
_0-0_0
  6
CONTINUOUS
 62
    7
 10
182.53109699999993
 20
769.99859600000002
 11
182.78109699999993
 21
770.10788000000002
  0
LINE
  8
_0-0_0
  6
CONTINUOUS
 62
    7
 10
182.53109699999993
 20
769.66598499999998
 11
182.78109699999993
 21
769.922821
  0
LINE
  8
_0-0_0
  6
CONTINUOUS
 62
    7
 10
182.53109699999993
 20
769.841003
 11
182.78109699999993
 21
769.922821
  0
LINE
  8
_0-0_0
  6
CONTINUOUS
 62
    7
 10
182.53109699999993
 20
769.47543300000007
 11
182.78109699999993
 21
769.71948199999997
  0
LINE
  8
_0-0_0
  6
CONTINUOUS
 62
    7
 10
182.53109699999993
 20
769.66598499999998
 11
182.78109699999993
 21
769.71948199999997
  0
LINE
  8
_0-0_0
  6
CONTINUOUS
 62
    7
 10
182.53109699999993
 20
769.27148399999999
 11
182.78109699999993
 21
769.5
  0
LINE
  8
_0-0_0
  6
CONTINUOUS
 62
    7
 10
182.53109699999993
 20
769.47543300000007
 11
182.78109699999993
 21
769.5
  0
LINE
  8
_0-0_0
  6
CONTINUOUS
 62
    7
 10
182.53109699999993
 20
769.05633499999999
 11
182.78109699999993
 21
769.26684599999999
  0
LINE
  8
_0-0_0
  6
CONTINUOUS
 62
    7
 10
182.53109699999993
 20
769.27148399999999
 11
182.78109699999993
 21
769.26684599999999
  0
LINE
  8
_0-0_0
  6
CONTINUOUS
 62
    7
 10
182.53109699999993
 20
768.83233599999994
 11
182.78109699999993
 21
769.02255200000002
  0
LINE
  8
_0-0_0
  6
CONTINUOUS
 62
    7
 10
182.53109699999993
 20
769.05633499999999
 11
182.78109699999993
 21
769.02255200000002
  0
LINE
  8
_0-0_0
  6
CONTINUOUS
 62
    7
 10
182.53109699999993
 20
768.60199
 11
182.78109699999993
 21
768.76977499999998
  0
LINE
  8
_0-0_0
  6
CONTINUOUS
 62
    7
 10
182.53109699999993
 20
768.83233599999994
 11
182.78109699999993
 21
768.76977499999998
  0
LINE
  8
_0-0_0
  6
CONTINUOUS
 62
    7
 10
182.53109699999993
 20
768.36776699999996
 11
182.78109699999993
 21
768.51132200000006
  0
LINE
  8
_0-0_0
  6
CONTINUOUS
 62
    7
 10
182.53109699999993
 20
768.60199
 11
182.78109699999993
 21
768.51132200000006
  0
LINE
  8
_0-0_0
  6
CONTINUOUS
 62
    7
 10
182.53109699999993
 20
768.13226299999997
 11
182.78109699999993
 21
768.25
  0
LINE
  8
_0-0_0
  6
CONTINUOUS
 62
    7
 10
182.53109699999993
 20
768.36776699999996
 11
182.78109699999993
 21
768.25
  0
LINE
  8
_0-0_0
  6
CONTINUOUS
 62
    7
 10
182.53109699999993
 20
767.89804099999992
 11
182.78109699999993
 21
767.98867799999994
  0
LINE
  8
_0-0_0
  6
CONTINUOUS
 62
    7
 10
182.53109699999993
 20
768.13226299999997
 11
182.78109699999993
 21
767.98867799999994
  0
LINE
  8
_0-0_0
  6
CONTINUOUS
 62
    7
 10
182.53109699999993
 20
767.66766400000006
 11
182.78109699999993
 21
767.73022500000002
  0
LINE
  8
_0-0_0
  6
CONTINUOUS
 62
    7
 10
182.53109699999993
 20
767.89804099999992
 11
182.78109699999993
 21
767.73022500000002
  0
LINE
  8
_0-0_0
  6
CONTINUOUS
 62
    7
 10
182.53109699999993
 20
767.44366500000001
 11
182.78109699999993
 21
767.47747800000002
  0
LINE
  8
_0-0_0
  6
CONTINUOUS
 62
    7
 10
182.53109699999993
 20
767.66766400000006
 11
182.78109699999993
 21
767.47747800000002
  0
LINE
  8
_0-0_0
  6
CONTINUOUS
 62
    7
 10
182.53109699999993
 20
767.22851600000001
 11
182.78109699999993
 21
767.23315400000001
  0
LINE
  8
_0-0_0
  6
CONTINUOUS
 62
    7
 10
182.53109699999993
 20
767.44366500000001
 11
182.78109699999993
 21
767.23315400000001
  0
LINE
  8
_0-0_0
  6
CONTINUOUS
 62
    7
 10
182.53109699999993
 20
767.02456699999993
 11
182.53109699999993
 21
767.17129499999999
  0
LINE
  8
_0-0_0
  6
CONTINUOUS
 62
    7
 10
182.53109699999993
 20
767.02456699999993
 11
182.78109699999993
 21
767
  0
LINE
  8
_0-0_0
  6
CONTINUOUS
 62
    7
 10
182.53109699999993
 20
767.22851600000001
 11
182.78109699999993
 21
767
  0
LINE
  8
_0-0_0
  6
CONTINUOUS
 62
    7
 10
182.53109699999993
 20
766.83404500000006
 11
182.53109699999993
 21
767.02456699999993
  0
LINE
  8
_0-0_0
  6
CONTINUOUS
 62
    7
 10
182.53109699999993
 20
766.65902699999992
 11
182.53109699999993
 21
766.83404500000006
  0
LINE
  8
_0-0_0
  6
CONTINUOUS
 62
    7
 10
182.53109699999993
 20
766.50143400000002
 11
182.53109699999993
 21
766.65902699999992
  0
LINE
  8
_0-0_0
  6
CONTINUOUS
 62
    7
 10
182.53109699999993
 20
766.36300699999993
 11
182.53109699999993
 21
766.50143400000002
  0
LINE
  8
_0-0_0
  6
CONTINUOUS
 62
    7
 10
182.53109699999993
 20
766.24523900000008
 11
182.53109699999993
 21
766.36300699999993
  0
LINE
  8
_0-0_0
  6
CONTINUOUS
 62
    7
 10
182.53109699999993
 20
766.14944500000001
 11
182.53109699999993
 21
766.24523900000008
  0
LINE
  8
_0-0_0
  6
CONTINUOUS
 62
    7
 10
182.53109699999993
 20
766.07665999999995
 11
182.53109699999993
 21
766.14944500000001
  0
LINE
  8
_0-0_0
  6
CONTINUOUS
 62
    7
 10
182.53109699999993
 20
766.02771000000007
 11
182.53109699999993
 21
766.07665999999995
  0
LINE
  8
_0-0_0
  6
CONTINUOUS
 62
    7
 10
182.53109699999993
 20
766.00308199999995
 11
182.53109699999993
 21
766.02771000000007
  0
LINE
  8
_0-0_0
  6
CONTINUOUS
 62
    7
 10
182.53109699999993
 20
766
 11
182.53109699999993
 21
766.00308199999995
  0
LINE
  8
_0-0_0
  6
CONTINUOUS
 62
    7
 10
192.28109699999993
 20
770.49691800000005
 11
192.03109699999993
 21
770.75
  0
LINE
  8
_0-0_0
  6
CONTINUOUS
 62
    7
 10
192.03109699999993
 20
770.75
 11
182.78109699999993
 21
770.75
  0
LINE
  8
_0-0_0
  6
CONTINUOUS
 62
    7
 10
192.28109699999993
 20
770.47228999999993
 11
192.03109699999993
 21
770.73632799999996
  0
LINE
  8
_0-0_0
  6
CONTINUOUS
 62
    7
 10
192.03109699999993
 20
770.73632799999996
 11
182.78109699999993
 21
770.73632799999996
  0
LINE
  8
_0-0_0
  6
CONTINUOUS
 62
    7
 10
192.28109699999993
 20
770.49691800000005
 11
192.03109699999993
 21
770.73632799999996
  0
LINE
  8
_0-0_0
  6
CONTINUOUS
 62
    7
 10
192.28109699999993
 20
770.42334000000005
 11
192.03109699999993
 21
770.69537400000002
  0
LINE
  8
_0-0_0
  6
CONTINUOUS
 62
    7
 10
192.03109699999993
 20
770.69537400000002
 11
182.78109699999993
 21
770.69537400000002
  0
LINE
  8
_0-0_0
  6
CONTINUOUS
 62
    7
 10
192.28109699999993
 20
770.47228999999993
 11
192.03109699999993
 21
770.69537400000002
  0
LINE
  8
_0-0_0
  6
CONTINUOUS
 62
    7
 10
192.28109699999993
 20
770.35055499999999
 11
192.03109699999993
 21
770.627655
  0
LINE
  8
_0-0_0
  6
CONTINUOUS
 62
    7
 10
192.03109699999993
 20
770.627655
 11
182.78109699999993
 21
770.627655
  0
LINE
  8
_0-0_0
  6
CONTINUOUS
 62
    7
 10
192.28109699999993
 20
770.42334000000005
 11
192.03109699999993
 21
770.627655
  0
LINE
  8
_0-0_0
  6
CONTINUOUS
 62
    7
 10
192.28109699999993
 20
770.25476099999992
 11
192.03109699999993
 21
770.53387500000008
  0
LINE
  8
_0-0_0
  6
CONTINUOUS
 62
    7
 10
192.03109699999993
 20
770.53387500000008
 11
182.78109699999993
 21
770.53387500000008
  0
LINE
  8
_0-0_0
  6
CONTINUOUS
 62
    7
 10
192.28109699999993
 20
770.35055499999999
 11
192.03109699999993
 21
770.53387500000008
  0
LINE
  8
_0-0_0
  6
CONTINUOUS
 62
    7
 10
192.03109699999993
 20
770.41507000000001
 11
182.78109699999993
 21
770.41507000000001
  0
LINE
  8
_0-0_0
  6
CONTINUOUS
 62
    7
 10
192.15113799999995
 20
770.33862299999998
 11
192.03109699999993
 21
770.41507000000001
  0
LINE
  8
_0-0_0
  6
CONTINUOUS
 62
    7
 10
192.28109699999993
 20
770.25476099999992
 11
192.15113799999995
 21
770.33862299999998
  0
LINE
  8
_0-0_0
  6
CONTINUOUS
 62
    7
 10
192.28109699999993
 20
770.137024
 11
192.03109699999993
 21
770.41507000000001
  0
LINE
  8
_0-0_0
  6
CONTINUOUS
 62
    7
 10
192.28109699999993
 20
769.99859600000002
 11
192.03109699999993
 21
770.27255200000002
  0
LINE
  8
_0-0_0
  6
CONTINUOUS
 62
    7
 10
192.03109699999993
 20
770.27255200000002
 11
182.78109699999993
 21
770.27255200000002
  0
LINE
  8
_0-0_0
  6
CONTINUOUS
 62
    7
 10
192.28109699999993
 20
770.137024
 11
192.03109699999993
 21
770.27255200000002
  0
LINE
  8
_0-0_0
  6
CONTINUOUS
 62
    7
 10
192.28109699999993
 20
769.841003
 11
192.03109699999993
 21
770.10788000000002
  0
LINE
  8
_0-0_0
  6
CONTINUOUS
 62
    7
 10
192.03109699999993
 20
770.10788000000002
 11
182.78109699999993
 21
770.10788000000002
  0
LINE
  8
_0-0_0
  6
CONTINUOUS
 62
    7
 10
192.28109699999993
 20
769.99859600000002
 11
192.03109699999993
 21
770.10788000000002
  0
LINE
  8
_0-0_0
  6
CONTINUOUS
 62
    7
 10
192.28109699999993
 20
769.66598499999998
 11
192.03109699999993
 21
769.922821
  0
LINE
  8
_0-0_0
  6
CONTINUOUS
 62
    7
 10
192.03109699999993
 20
769.922821
 11
182.78109699999993
 21
769.922821
  0
LINE
  8
_0-0_0
  6
CONTINUOUS
 62
    7
 10
192.28109699999993
 20
769.841003
 11
192.03109699999993
 21
769.922821
  0
LINE
  8
_0-0_0
  6
CONTINUOUS
 62
    7
 10
192.28109699999993
 20
769.47543300000007
 11
192.03109699999993
 21
769.71948199999997
  0
LINE
  8
_0-0_0
  6
CONTINUOUS
 62
    7
 10
192.03109699999993
 20
769.71948199999997
 11
182.78109699999993
 21
769.71948199999997
  0
LINE
  8
_0-0_0
  6
CONTINUOUS
 62
    7
 10
192.28109699999993
 20
769.66598499999998
 11
192.03109699999993
 21
769.71948199999997
  0
LINE
  8
_0-0_0
  6
CONTINUOUS
 62
    7
 10
192.28109699999993
 20
769.27148399999999
 11
192.03109699999993
 21
769.5
  0
LINE
  8
_0-0_0
  6
CONTINUOUS
 62
    7
 10
192.03109699999993
 20
769.5
 11
182.78109699999993
 21
769.5
  0
LINE
  8
_0-0_0
  6
CONTINUOUS
 62
    7
 10
192.28109699999993
 20
769.27148399999999
 11
182.53109699999993
 21
769.27148399999999
  0
LINE
  8
_0-0_0
  6
CONTINUOUS
 62
    7
 10
192.28109699999993
 20
769.47543300000007
 11
192.03109699999993
 21
769.5
  0
LINE
  8
_0-0_0
  6
CONTINUOUS
 62
    7
 10
192.28109699999993
 20
769.05633499999999
 11
192.03109699999993
 21
769.26684599999999
  0
LINE
  8
_0-0_0
  6
CONTINUOUS
 62
    7
 10
192.03109699999993
 20
769.26684599999999
 11
182.78109699999993
 21
769.26684599999999
  0
LINE
  8
_0-0_0
  6
CONTINUOUS
 62
    7
 10
192.28109699999993
 20
769.05633499999999
 11
182.53109699999993
 21
769.05633499999999
  0
LINE
  8
_0-0_0
  6
CONTINUOUS
 62
    7
 10
192.28109699999993
 20
769.27148399999999
 11
192.03109699999993
 21
769.26684599999999
  0
LINE
  8
_0-0_0
  6
CONTINUOUS
 62
    7
 10
192.28109699999993
 20
768.83233599999994
 11
192.03109699999993
 21
769.02255200000002
  0
LINE
  8
_0-0_0
  6
CONTINUOUS
 62
    7
 10
192.03109699999993
 20
769.02255200000002
 11
182.78109699999993
 21
769.02255200000002
  0
LINE
  8
_0-0_0
  6
CONTINUOUS
 62
    7
 10
192.28109699999993
 20
768.83233599999994
 11
182.53109699999993
 21
768.83233599999994
  0
LINE
  8
_0-0_0
  6
CONTINUOUS
 62
    7
 10
192.28109699999993
 20
769.05633499999999
 11
192.03109699999993
 21
769.02255200000002
  0
LINE
  8
_0-0_0
  6
CONTINUOUS
 62
    7
 10
192.28109699999993
 20
768.60199
 11
192.03109699999993
 21
768.76977499999998
  0
LINE
  8
_0-0_0
  6
CONTINUOUS
 62
    7
 10
192.03109699999993
 20
768.76977499999998
 11
182.78109699999993
 21
768.76977499999998
  0
LINE
  8
_0-0_0
  6
CONTINUOUS
 62
    7
 10
192.28109699999993
 20
768.60199
 11
182.53109699999993
 21
768.60199
  0
LINE
  8
_0-0_0
  6
CONTINUOUS
 62
    7
 10
192.28109699999993
 20
768.83233599999994
 11
192.03109699999993
 21
768.76977499999998
  0
LINE
  8
_0-0_0
  6
CONTINUOUS
 62
    7
 10
192.28109699999993
 20
768.36776699999996
 11
192.03109699999993
 21
768.51132200000006
  0
LINE
  8
_0-0_0
  6
CONTINUOUS
 62
    7
 10
192.03109699999993
 20
768.51132200000006
 11
182.78109699999993
 21
768.51132200000006
  0
LINE
  8
_0-0_0
  6
CONTINUOUS
 62
    7
 10
192.28109699999993
 20
768.36776699999996
 11
182.53109699999993
 21
768.36776699999996
  0
LINE
  8
_0-0_0
  6
CONTINUOUS
 62
    7
 10
192.28109699999993
 20
768.60199
 11
192.03109699999993
 21
768.51132200000006
  0
LINE
  8
_0-0_0
  6
CONTINUOUS
 62
    7
 10
192.28109699999993
 20
768.13226299999997
 11
192.03109699999993
 21
768.25
  0
LINE
  8
_0-0_0
  6
CONTINUOUS
 62
    7
 10
192.03109699999993
 20
768.25
 11
182.78109699999993
 21
768.25
  0
LINE
  8
_0-0_0
  6
CONTINUOUS
 62
    7
 10
192.28109699999993
 20
768.13226299999997
 11
182.53109699999993
 21
768.13226299999997
  0
LINE
  8
_0-0_0
  6
CONTINUOUS
 62
    7
 10
192.28109699999993
 20
768.36776699999996
 11
192.03109699999993
 21
768.25
  0
LINE
  8
_0-0_0
  6
CONTINUOUS
 62
    7
 10
192.28109699999993
 20
767.89804099999992
 11
192.03109699999993
 21
767.98867799999994
  0
LINE
  8
_0-0_0
  6
CONTINUOUS
 62
    7
 10
192.03109699999993
 20
767.98867799999994
 11
182.78109699999993
 21
767.98867799999994
  0
LINE
  8
_0-0_0
  6
CONTINUOUS
 62
    7
 10
192.28109699999993
 20
767.89804099999992
 11
182.53109699999993
 21
767.89804099999992
  0
LINE
  8
_0-0_0
  6
CONTINUOUS
 62
    7
 10
192.28109699999993
 20
768.13226299999997
 11
192.03109699999993
 21
767.98867799999994
  0
LINE
  8
_0-0_0
  6
CONTINUOUS
 62
    7
 10
192.28109699999993
 20
767.66766400000006
 11
192.03109699999993
 21
767.73022500000002
  0
LINE
  8
_0-0_0
  6
CONTINUOUS
 62
    7
 10
192.03109699999993
 20
767.73022500000002
 11
182.78109699999993
 21
767.73022500000002
  0
LINE
  8
_0-0_0
  6
CONTINUOUS
 62
    7
 10
192.28109699999993
 20
767.66766400000006
 11
182.53109699999993
 21
767.66766400000006
  0
LINE
  8
_0-0_0
  6
CONTINUOUS
 62
    7
 10
192.28109699999993
 20
767.89804099999992
 11
192.03109699999993
 21
767.73022500000002
  0
LINE
  8
_0-0_0
  6
CONTINUOUS
 62
    7
 10
192.28109699999993
 20
767.44366500000001
 11
192.03109699999993
 21
767.47747800000002
  0
LINE
  8
_0-0_0
  6
CONTINUOUS
 62
    7
 10
192.03109699999993
 20
767.47747800000002
 11
182.78109699999993
 21
767.47747800000002
  0
LINE
  8
_0-0_0
  6
CONTINUOUS
 62
    7
 10
192.28109699999993
 20
767.44366500000001
 11
182.53109699999993
 21
767.44366500000001
  0
LINE
  8
_0-0_0
  6
CONTINUOUS
 62
    7
 10
192.28109699999993
 20
767.66766400000006
 11
192.03109699999993
 21
767.47747800000002
  0
LINE
  8
_0-0_0
  6
CONTINUOUS
 62
    7
 10
192.28109699999993
 20
767.22851600000001
 11
192.03109699999993
 21
767.23315400000001
  0
LINE
  8
_0-0_0
  6
CONTINUOUS
 62
    7
 10
192.03109699999993
 20
767.23315400000001
 11
182.78109699999993
 21
767.23315400000001
  0
LINE
  8
_0-0_0
  6
CONTINUOUS
 62
    7
 10
192.28109699999993
 20
767.22851600000001
 11
182.53109699999993
 21
767.22851600000001
  0
LINE
  8
_0-0_0
  6
CONTINUOUS
 62
    7
 10
192.28109699999993
 20
767.44366500000001
 11
192.03109699999993
 21
767.23315400000001
  0
LINE
  8
_0-0_0
  6
CONTINUOUS
 62
    7
 10
192.28109699999993
 20
767.02456699999993
 11
192.03109699999993
 21
767
  0
LINE
  8
_0-0_0
  6
CONTINUOUS
 62
    7
 10
192.03109699999993
 20
767
 11
182.78109699999993
 21
767
  0
LINE
  8
_0-0_0
  6
CONTINUOUS
 62
    7
 10
192.28109699999993
 20
767.22851600000001
 11
192.03109699999993
 21
767
  0
LINE
  8
_0-0_0
  6
CONTINUOUS
 62
    7
 10
182.53109699999993
 20
766.83404500000006
 11
182.78109699999993
 21
766.78054799999995
  0
LINE
  8
_0-0_0
  6
CONTINUOUS
 62
    7
 10
182.53109699999993
 20
767.02456699999993
 11
182.78109699999993
 21
766.78054799999995
  0
LINE
  8
_0-0_0
  6
CONTINUOUS
 62
    7
 10
182.53109699999993
 20
766.65902699999992
 11
182.78109699999993
 21
766.577179
  0
LINE
  8
_0-0_0
  6
CONTINUOUS
 62
    7
 10
182.53109699999993
 20
766.83404500000006
 11
182.78109699999993
 21
766.577179
  0
LINE
  8
_0-0_0
  6
CONTINUOUS
 62
    7
 10
182.53109699999993
 20
766.50143400000002
 11
182.78109699999993
 21
766.39215100000001
  0
LINE
  8
_0-0_0
  6
CONTINUOUS
 62
    7
 10
182.53109699999993
 20
766.65902699999992
 11
182.78109699999993
 21
766.39215100000001
  0
LINE
  8
_0-0_0
  6
CONTINUOUS
 62
    7
 10
182.53109699999993
 20
766.36300699999993
 11
182.78109699999993
 21
766.22747800000002
  0
LINE
  8
_0-0_0
  6
CONTINUOUS
 62
    7
 10
182.53109699999993
 20
766.50143400000002
 11
182.78109699999993
 21
766.22747800000002
  0
LINE
  8
_0-0_0
  6
CONTINUOUS
 62
    7
 10
182.53109699999993
 20
766.24523900000008
 11
182.78109699999993
 21
766.08496100000002
  0
LINE
  8
_0-0_0
  6
CONTINUOUS
 62
    7
 10
182.53109699999993
 20
766.36300699999993
 11
182.78109699999993
 21
766.08496100000002
  0
LINE
  8
_0-0_0
  6
CONTINUOUS
 62
    7
 10
182.53109699999993
 20
766.14944500000001
 11
182.78109699999993
 21
765.96615599999996
  0
LINE
  8
_0-0_0
  6
CONTINUOUS
 62
    7
 10
182.53109699999993
 20
766.24523900000008
 11
182.78109699999993
 21
765.96615599999996
  0
LINE
  8
_0-0_0
  6
CONTINUOUS
 62
    7
 10
182.53109699999993
 20
766.07665999999995
 11
182.78109699999993
 21
765.87237499999992
  0
LINE
  8
_0-0_0
  6
CONTINUOUS
 62
    7
 10
182.53109699999993
 20
766.14944500000001
 11
182.78109699999993
 21
765.87237499999992
  0
LINE
  8
_0-0_0
  6
CONTINUOUS
 62
    7
 10
182.53109699999993
 20
766.02771000000007
 11
182.78109699999993
 21
765.80462599999998
  0
LINE
  8
_0-0_0
  6
CONTINUOUS
 62
    7
 10
182.53109699999993
 20
766.07665999999995
 11
182.78109699999993
 21
765.80462599999998
  0
LINE
  8
_0-0_0
  6
CONTINUOUS
 62
    7
 10
182.53109699999993
 20
766.00308199999995
 11
182.78109699999993
 21
765.76370199999997
  0
LINE
  8
_0-0_0
  6
CONTINUOUS
 62
    7
 10
182.53109699999993
 20
766.02771000000007
 11
182.78109699999993
 21
765.76370199999997
  0
LINE
  8
_0-0_0
  6
CONTINUOUS
 62
    7
 10
182.53109699999993
 20
766.00308199999995
 11
182.78109699999993
 21
765.75
  0
LINE
  8
_0-0_0
  6
CONTINUOUS
 62
    7
 10
192.53109699999993
 20
770.00518799999998
 11
192.53109699999993
 21
770.25
  0
LINE
  8
_0-0_0
  6
CONTINUOUS
 62
    7
 10
192.28109699999993
 20
767.02456699999993
 11
192.03109699999993
 21
766.78054799999995
  0
LINE
  8
_0-0_0
  6
CONTINUOUS
 62
    7
 10
192.28109699999993
 20
766.83404500000006
 11
192.03109699999993
 21
766.78054799999995
  0
LINE
  8
_0-0_0
  6
CONTINUOUS
 62
    7
 10
192.28109699999993
 20
766.83404500000006
 11
192.03109699999993
 21
766.577179
  0
LINE
  8
_0-0_0
  6
CONTINUOUS
 62
    7
 10
192.28109699999993
 20
766.65902699999992
 11
192.03109699999993
 21
766.577179
  0
LINE
  8
_0-0_0
  6
CONTINUOUS
 62
    7
 10
192.28109699999993
 20
766.65902699999992
 11
192.03109699999993
 21
766.39215100000001
  0
LINE
  8
_0-0_0
  6
CONTINUOUS
 62
    7
 10
192.28109699999993
 20
766.50143400000002
 11
192.03109699999993
 21
766.39215100000001
  0
LINE
  8
_0-0_0
  6
CONTINUOUS
 62
    7
 10
192.28109699999993
 20
766.50143400000002
 11
192.03109699999993
 21
766.22747800000002
  0
LINE
  8
_0-0_0
  6
CONTINUOUS
 62
    7
 10
192.28109699999993
 20
766.36300699999993
 11
192.03109699999993
 21
766.22747800000002
  0
LINE
  8
_0-0_0
  6
CONTINUOUS
 62
    7
 10
192.28109699999993
 20
766.36300699999993
 11
192.03109699999993
 21
766.08496100000002
  0
LINE
  8
_0-0_0
  6
CONTINUOUS
 62
    7
 10
192.28109699999993
 20
766.24523900000008
 11
192.03109699999993
 21
766.08496100000002
  0
LINE
  8
_0-0_0
  6
CONTINUOUS
 62
    7
 10
192.28109699999993
 20
766.24523900000008
 11
192.03109699999993
 21
765.96615599999996
  0
LINE
  8
_0-0_0
  6
CONTINUOUS
 62
    7
 10
192.28109699999993
 20
766.14944500000001
 11
192.03109699999993
 21
765.96615599999996
  0
LINE
  8
_0-0_0
  6
CONTINUOUS
 62
    7
 10
192.28109699999993
 20
766.14944500000001
 11
192.03109699999993
 21
765.87237499999992
  0
LINE
  8
_0-0_0
  6
CONTINUOUS
 62
    7
 10
192.28109699999993
 20
766.07665999999995
 11
192.03109699999993
 21
765.87237499999992
  0
LINE
  8
_0-0_0
  6
CONTINUOUS
 62
    7
 10
192.28109699999993
 20
766.07665999999995
 11
192.03109699999993
 21
765.80462599999998
  0
LINE
  8
_0-0_0
  6
CONTINUOUS
 62
    7
 10
192.28109699999993
 20
766.02771000000007
 11
192.03109699999993
 21
765.80462599999998
  0
LINE
  8
_0-0_0
  6
CONTINUOUS
 62
    7
 10
192.28109699999993
 20
766.02771000000007
 11
192.03109699999993
 21
765.76370199999997
  0
LINE
  8
_0-0_0
  6
CONTINUOUS
 62
    7
 10
192.28109699999993
 20
766.00308199999995
 11
192.03109699999993
 21
765.76370199999997
  0
LINE
  8
_0-0_0
  6
CONTINUOUS
 62
    7
 10
192.28109699999993
 20
766.00308199999995
 11
192.03109699999993
 21
765.75
  0
LINE
  8
_0-0_0
  6
CONTINUOUS
 62
    7
 10
192.53109699999993
 20
766.25
 11
192.53109699999993
 21
770.00518799999998
  0
LINE
  8
_0-0_0
  6
CONTINUOUS
 62
    7
 10
192.03109699999993
 20
766.78054799999995
 11
182.78109699999993
 21
766.78054799999995
  0
LINE
  8
_0-0_0
  6
CONTINUOUS
 62
    7
 10
192.03109699999993
 20
766.577179
 11
182.78109699999993
 21
766.577179
  0
LINE
  8
_0-0_0
  6
CONTINUOUS
 62
    7
 10
192.03109699999993
 20
766.39215100000001
 11
182.78109699999993
 21
766.39215100000001
  0
LINE
  8
_0-0_0
  6
CONTINUOUS
 62
    7
 10
192.03109699999993
 20
766.22747800000002
 11
182.78109699999993
 21
766.22747800000002
  0
LINE
  8
_0-0_0
  6
CONTINUOUS
 62
    7
 10
192.03109699999993
 20
766.08496100000002
 11
182.78109699999993
 21
766.08496100000002
  0
LINE
  8
_0-0_0
  6
CONTINUOUS
 62
    7
 10
192.03109699999993
 20
765.96615599999996
 11
182.78109699999993
 21
765.96615599999996
  0
LINE
  8
_0-0_0
  6
CONTINUOUS
 62
    7
 10
192.03109699999993
 20
765.87237499999992
 11
182.78109699999993
 21
765.87237499999992
  0
LINE
  8
_0-0_0
  6
CONTINUOUS
 62
    7
 10
192.03109699999993
 20
765.80462599999998
 11
182.78109699999993
 21
765.80462599999998
  0
LINE
  8
_0-0_0
  6
CONTINUOUS
 62
    7
 10
192.03109699999993
 20
765.76370199999997
 11
182.78109699999993
 21
765.76370199999997
  0
LINE
  8
_0-0_0
  6
CONTINUOUS
 62
    7
 10
192.03109699999993
 20
765.75
 11
182.78109699999993
 21
765.75
  0
LINE
  8
_0-0_0
  6
CONTINUOUS
 62
    7
 10
55.531096999999932
 20
766
 11
53.075431999999978
 21
766
  0
LINE
  8
_0-0_0
  6
CONTINUOUS
 62
    7
 10
53.57650799999999
 20
770.5
 11
53.075431999999978
 21
770.5
  0
LINE
  8
_0-0_0
  6
CONTINUOUS
 62
    7
 10
52.931098999999904
 20
766.25
 11
53.075431999999978
 21
766
  0
LINE
  8
_0-0_0
  6
CONTINUOUS
 62
    7
 10
52.931098999999904
 20
770.25
 11
53.075431999999978
 21
770.5
  0
LINE
  8
_0-0_0
  6
CONTINUOUS
 62
    7
 10
156.53109799999993
 20
749.40002400000003
 11
182.53109699999993
 21
749.40002400000003
  0
LINE
  8
_0-0_0
  6
CONTINUOUS
 62
    7
 10
156.53109799999993
 20
753.90002400000003
 11
182.53109699999993
 21
753.90002400000003
  0
LINE
  8
_0-0_0
  6
CONTINUOUS
 62
    7
 10
182.53109699999993
 20
749.40002400000003
 11
182.78109699999993
 21
749.15002400000003
  0
LINE
  8
_0-0_0
  6
CONTINUOUS
 62
    7
 10
182.53109699999993
 20
753.90002400000003
 11
182.78109699999993
 21
754.15002400000003
  0
LINE
  8
_0-0_0
  6
CONTINUOUS
 62
    7
 10
178.53109699999993
 20
765.20001200000002
 11
177.28109699999993
 21
766.45001200000002
  0
LINE
  8
_0-0_0
  6
CONTINUOUS
 62
    7
 10
178.53109699999993
 20
754.70001200000002
 11
177.73109399999998
 21
753.89999399999999
  0
LINE
  8
_0-0_0
  6
CONTINUOUS
 62
    7
 10
192.53109699999993
 20
749.65002400000003
 11
192.03126499999996
 21
749.15014599999995
  0
LINE
  8
_0-0_0
  6
CONTINUOUS
 62
    7
 10
192.53109699999993
 20
753.65002400000003
 11
192.03126499999996
 21
754.14984099999992
  0
LINE
  8
_0-0_0
  6
CONTINUOUS
 62
    7
 10
178.53109699999993
 20
754.95001200000002
 11
178.93109099999992
 21
754.95001200000002
  0
LINE
  8
_0-0_0
  6
CONTINUOUS
 62
    7
 10
178.53109699999993
 20
764.95001200000002
 11
178.93109099999992
 21
764.95001200000002
  0
LINE
  8
_0-0_0
  6
CONTINUOUS
 62
    7
 10
179.73109399999998
 20
755.41189600000007
 11
178.93109099999992
 21
754.95001200000002
  0
LINE
  8
_0-0_0
  6
CONTINUOUS
 62
    7
 10
179.73109399999998
 20
764.48812900000007
 11
178.93109099999992
 21
764.95001200000002
  0
LINE
  8
_0-0_0
  6
CONTINUOUS
 62
    7
 10
179.73109399999998
 20
755.95001200000002
 11
237.73109399999998
 21
755.95001200000002
  0
LINE
  8
_0-0_0
  6
CONTINUOUS
 62
    7
 10
179.73109399999998
 20
763.95001200000002
 11
237.73109399999998
 21
763.95001200000002
  0
LINE
  8
_0-0_0
  6
CONTINUOUS
 62
    7
 10
162.28106700000001
 20
770.5
 11
182.53109699999993
 21
770.5
  0
LINE
  8
_0-0_0
  6
CONTINUOUS
 62
    7
 10
182.53109699999993
 20
770.5
 11
182.78109699999993
 21
770.75
  0
LINE
  8
_0-0_0
  6
CONTINUOUS
 62
    7
 10
177.73109399999998
 20
766
 11
182.53109699999993
 21
766
  0
LINE
  8
_0-0_0
  6
CONTINUOUS
 62
    7
 10
182.53109699999993
 20
766
 11
182.78109699999993
 21
765.75
  0
LINE
  8
_0-0_0
  6
CONTINUOUS
 62
    7
 10
192.53109699999993
 20
770.25
 11
192.03126499999996
 21
770.74984700000005
  0
LINE
  8
_0-0_0
  6
CONTINUOUS
 62
    7
 10
192.53109699999993
 20
766.25
 11
192.03126499999996
 21
765.75015299999995
  0
ARC
  8
_0-0_0
  6
CONTINUOUS
 62
    7
 10
100.23110199999996
 20
779.95001200000002
 40
0.2
 50
90.000003000000007
 51
200.37643
  0
LINE
  8
_0-0_0
  6
CONTINUOUS
 62
    7
 10
100.23110199999996
 20
780.15002400000003
 11
102.83109999999999
 21
780.15002400000003
  0
ARC
  8
_0-0_0
  6
CONTINUOUS
 62
    7
 10
98.031096999999932
 20
780.25
 40
0.5
 50
90.000003000000007
 51
179.99999099999999
  0
LINE
  8
_0-0_0
  6
CONTINUOUS
 62
    7
 10
97.531096999999932
 20
780.25
 11
97.531096999999932
 21
776.25
  0
ARC
  8
_0-0_0
  6
CONTINUOUS
 62
    7
 10
98.031096999999932
 20
776.25
 40
0.5
 50
179.99999099999999
 51
269.99999700000001
  0
LINE
  8
_0-0_0
  6
CONTINUOUS
 62
    7
 10
105.03109699999993
 20
775.75
 11
98.031096999999932
 21
775.75
  0
ARC
  8
_0-0_0
  6
CONTINUOUS
 62
    7
 10
105.03109699999993
 20
776.25
 40
0.5
 50
269.99999700000001
 51
0
  0
LINE
  8
_0-0_0
  6
CONTINUOUS
 62
    7
 10
105.53109699999993
 20
776.25
 11
105.53109699999993
 21
780.25
  0
ARC
  8
_0-0_0
  6
CONTINUOUS
 62
    7
 10
105.03109699999993
 20
780.25
 40
0.5
 50
0
 51
90.000003000000007
  0
LINE
  8
_0-0_0
  6
CONTINUOUS
 62
    7
 10
98.031096999999932
 20
780.75
 11
105.03109699999993
 21
780.75
  0
LINE
  8
_0-0_0
  6
CONTINUOUS
 62
    7
 10
100.04361699999993
 20
779.88037099999997
 11
101.343613
 21
776.38037099999997
  0
ARC
  8
_0-0_0
  6
CONTINUOUS
 62
    7
 10
101.53109699999993
 20
776.45001200000002
 40
0.2
 50
200.37643
 51
339.62356199999999
  0
LINE
  8
_0-0_0
  6
CONTINUOUS
 62
    7
 10
103.01858499999992
 20
779.88037099999997
 11
101.71858199999997
 21
776.38037099999997
  0
ARC
  8
_0-0_0
  6
CONTINUOUS
 62
    7
 10
102.83109999999999
 20
779.95001200000002
 40
0.2
 50
339.62356199999999
 51
90.000002999999978
  0
LINE
  8
_0-0_0
  6
CONTINUOUS
 62
    7
 10
47.531096999999932
 20
781.25
 11
47.531096999999932
 21
780.75
  0
LINE
  8
_0-0_0
  6
CONTINUOUS
 62
    7
 10
1520.531189
 20
781.25
 11
1520.531189
 21
780.75
  0
LINE
  8
_0-0_0
  6
CONTINUOUS
 62
    7
 10
47.531096999999932
 20
780.75
 11
47.531096999999932
 21
775.75
  0
LINE
  8
_0-0_0
  6
CONTINUOUS
 62
    7
 10
1520.531189
 20
775.75
 11
1520.531189
 21
775.25
  0
LINE
  8
_0-0_0
  6
CONTINUOUS
 62
    7
 10
47.531096999999932
 20
775.25
 11
1520.531189
 21
775.25
  0
LINE
  8
_0-0_0
  6
CONTINUOUS
 62
    7
 10
47.531096999999932
 20
775.75
 11
47.531096999999932
 21
775.25
  0
LINE
  8
_0-0_0
  6
CONTINUOUS
 62
    7
 10
1520.531189
 20
780.75
 11
1520.531189
 21
775.75
  0
LINE
  8
_0-0_0
  6
CONTINUOUS
 62
    7
 10
47.531096999999932
 20
802.15002400000003
 11
47.531096999999932
 21
789.15002400000003
  0
LINE
  8
_0-0_0
  6
CONTINUOUS
 62
    7
 10
47.531096999999932
 20
802.15002400000003
 11
47.531096999999932
 21
820.75
  0
LINE
  8
_0-0_0
  6
CONTINUOUS
 62
    7
 10
47.531096999999932
 20
823.25
 11
47.531096999999932
 21
820.75
  0
LINE
  8
_0-0_0
  6
CONTINUOUS
 62
    7
 10
47.531096999999932
 20
823.75
 11
47.531096999999932
 21
823.25
  0
LINE
  8
_0-0_0
  6
CONTINUOUS
 62
    7
 10
47.531096999999932
 20
781.75
 11
47.531096999999932
 21
781.25
  0
LINE
  8
_0-0_0
  6
CONTINUOUS
 62
    7
 10
47.531096999999932
 20
784.95001200000002
 11
47.531096999999932
 21
781.75
  0
LINE
  8
_0-0_0
  6
CONTINUOUS
 62
    7
 10
47.531096999999932
 20
784.95001200000002
 11
47.531096999999932
 21
789.15002400000003
  0
LINE
  8
_0-0_0
  6
CONTINUOUS
 62
    7
 10
47.531096999999932
 20
781.25
 11
1520.531189
 21
781.25
  0
LINE
  8
_0-0_0
  6
CONTINUOUS
 62
    7
 10
1520.531189
 20
784.95001200000002
 11
1520.531189
 21
789.15002400000003
  0
LINE
  8
_0-0_0
  6
CONTINUOUS
 62
    7
 10
1520.531189
 20
781.75
 11
1520.531189
 21
784.95001200000002
  0
LINE
  8
_0-0_0
  6
CONTINUOUS
 62
    7
 10
1520.531189
 20
781.75
 11
1520.531189
 21
781.25
  0
LINE
  8
_0-0_0
  6
CONTINUOUS
 62
    7
 10
1520.531189
 20
823.75
 11
1520.531189
 21
823.25
  0
LINE
  8
_0-0_0
  6
CONTINUOUS
 62
    7
 10
1520.531189
 20
820.75
 11
1520.531189
 21
823.25
  0
LINE
  8
_0-0_0
  6
CONTINUOUS
 62
    7
 10
1520.531189
 20
802.15002400000003
 11
1520.531189
 21
820.75
  0
LINE
  8
_0-0_0
  6
CONTINUOUS
 62
    7
 10
1520.531189
 20
802.15002400000003
 11
1520.531189
 21
789.15002400000003
  0
LINE
  8
_0-0_0
  6
CONTINUOUS
 62
    7
 10
47.531096999999932
 20
789.15002400000003
 11
1520.531189
 21
789.15002400000003
  0
LINE
  8
_0-0_0
  6
CONTINUOUS
 62
    7
 10
47.531096999999932
 20
802.15002400000003
 11
1520.531189
 21
802.15002400000003
  0
CIRCLE
  8
_0-0_0
  6
CONTINUOUS
 62
    7
 10
1484.031189
 20
811.25
 40
6
  0
CIRCLE
  8
_0-0_0
  6
CONTINUOUS
 62
    7
 10
1384.031189
 20
811.25
 40
6
  0
CIRCLE
  8
_0-0_0
  6
CONTINUOUS
 62
    7
 10
1284.031189
 20
811.25
 40
6
  0
CIRCLE
  8
_0-0_0
  6
CONTINUOUS
 62
    7
 10
1184.031189
 20
811.25
 40
6
  0
CIRCLE
  8
_0-0_0
  6
CONTINUOUS
 62
    7
 10
1084.0311889999998
 20
811.25
 40
6
  0
CIRCLE
  8
_0-0_0
  6
CONTINUOUS
 62
    7
 10
984.03106700000001
 20
811.25
 40
6
  0
CIRCLE
  8
_0-0_0
  6
CONTINUOUS
 62
    7
 10
884.03106700000001
 20
811.25
 40
6
  0
CIRCLE
  8
_0-0_0
  6
CONTINUOUS
 62
    7
 10
784.03106700000001
 20
811.25
 40
6
  0
CIRCLE
  8
_0-0_0
  6
CONTINUOUS
 62
    7
 10
684.03106700000001
 20
811.25
 40
6
  0
CIRCLE
  8
_0-0_0
  6
CONTINUOUS
 62
    7
 10
584.03106699999989
 20
811.25
 40
6
  0
CIRCLE
  8
_0-0_0
  6
CONTINUOUS
 62
    7
 10
484.03112799999997
 20
811.25
 40
6
  0
CIRCLE
  8
_0-0_0
  6
CONTINUOUS
 62
    7
 10
384.03111299999995
 20
811.25
 40
6
  0
CIRCLE
  8
_0-0_0
  6
CONTINUOUS
 62
    7
 10
284.031113
 20
811.25
 40
6
  0
CIRCLE
  8
_0-0_0
  6
CONTINUOUS
 62
    7
 10
184.03109699999993
 20
811.25
 40
6
  0
CIRCLE
  8
_0-0_0
  6
CONTINUOUS
 62
    7
 10
84.031096999999932
 20
811.25
 40
6
  0
LINE
  8
_0-0_0
  6
CONTINUOUS
 62
    7
 10
47.531096999999932
 20
820.75
 11
1520.531189
 21
820.75
  0
LINE
  8
_0-0_0
  6
CONTINUOUS
 62
    7
 10
47.531096999999932
 20
823.75
 11
1520.531189
 21
823.75
  0
LINE
  8
_0-0_0
  6
CONTINUOUS
 62
    7
 10
47.531096999999932
 20
823.25
 11
45.031096999999932
 21
823.25
  0
LINE
  8
_0-0_0
  6
CONTINUOUS
 62
    7
 10
45.031096999999932
 20
823.25
 11
45.031096999999932
 21
822.75
  0
LINE
  8
_0-0_0
  6
CONTINUOUS
 62
    7
 10
45.031096999999932
 20
822.75
 11
45.031096999999932
 21
782.25
  0
LINE
  8
_0-0_0
  6
CONTINUOUS
 62
    7
 10
47.531096999999932
 20
781.75
 11
45.031096999999932
 21
781.75
  0
LINE
  8
_0-0_0
  6
CONTINUOUS
 62
    7
 10
45.031096999999932
 20
782.25
 11
45.031096999999932
 21
781.75
  0
LINE
  8
_0-0_0
  6
CONTINUOUS
 62
    7
 10
45.031096999999932
 20
781.75
 11
45.031096999999932
 21
780.75
  0
LINE
  8
_0-0_0
  6
CONTINUOUS
 62
    7
 10
45.031096999999932
 20
780.75
 11
45.031096999999932
 21
776.25
  0
LINE
  8
_0-0_0
  6
CONTINUOUS
 62
    7
 10
47.531096999999932
 20
775.75
 11
45.031096999999932
 21
775.75
  0
LINE
  8
_0-0_0
  6
CONTINUOUS
 62
    7
 10
45.031096999999932
 20
776.25
 11
45.031096999999932
 21
775.75
  0
LINE
  8
_0-0_0
  6
CONTINUOUS
 62
    7
 10
47.531096999999932
 20
784.95001200000002
 11
1520.531189
 21
784.95001200000002
  0
LINE
  8
_0-0_0
  6
CONTINUOUS
 62
    7
 10
1520.531189
 20
823.25
 11
1523.031189
 21
823.25
  0
LINE
  8
_0-0_0
  6
CONTINUOUS
 62
    7
 10
1523.031189
 20
823.25
 11
1523.031189
 21
822.75
  0
LINE
  8
_0-0_0
  6
CONTINUOUS
 62
    7
 10
1523.031189
 20
822.75
 11
1523.031189
 21
782.25
  0
LINE
  8
_0-0_0
  6
CONTINUOUS
 62
    7
 10
1520.531189
 20
781.75
 11
1523.031189
 21
781.75
  0
LINE
  8
_0-0_0
  6
CONTINUOUS
 62
    7
 10
1523.031189
 20
782.25
 11
1523.031189
 21
781.75
  0
LINE
  8
_0-0_0
  6
CONTINUOUS
 62
    7
 10
1523.031189
 20
781.75
 11
1523.031189
 21
780.75
  0
LINE
  8
_0-0_0
  6
CONTINUOUS
 62
    7
 10
1523.031189
 20
780.75
 11
1523.031189
 21
776.25
  0
LINE
  8
_0-0_0
  6
CONTINUOUS
 62
    7
 10
1520.531189
 20
775.75
 11
1523.031189
 21
775.75
  0
LINE
  8
_0-0_0
  6
CONTINUOUS
 62
    7
 10
1523.031189
 20
776.25
 11
1523.031189
 21
775.75
  0
LINE
  8
_0-0_0
  6
CONTINUOUS
 62
    7
 10
1520.531189
 20
823.75
 11
1520.531189
 21
823.45001200000002
  0
LINE
  8
_0-0_0
  6
CONTINUOUS
 62
    7
 10
1520.531189
 20
823.45001200000002
 11
1520.531189
 21
823.25
  0
CIRCLE
  8
_0-0_0
  6
CONTINUOUS
 62
    7
 10
1484.031189
 20
811.25
 40
5.5
  0
CIRCLE
  8
_0-0_0
  6
CONTINUOUS
 62
    7
 10
1384.031189
 20
811.25
 40
5.5
  0
CIRCLE
  8
_0-0_0
  6
CONTINUOUS
 62
    7
 10
1284.031189
 20
811.25
 40
5.5
  0
CIRCLE
  8
_0-0_0
  6
CONTINUOUS
 62
    7
 10
1184.031189
 20
811.25
 40
5.5
  0
CIRCLE
  8
_0-0_0
  6
CONTINUOUS
 62
    7
 10
1084.0311889999998
 20
811.25
 40
5.5
  0
CIRCLE
  8
_0-0_0
  6
CONTINUOUS
 62
    7
 10
984.03106700000001
 20
811.25
 40
5.5
  0
CIRCLE
  8
_0-0_0
  6
CONTINUOUS
 62
    7
 10
884.03106700000001
 20
811.25
 40
5.5
  0
CIRCLE
  8
_0-0_0
  6
CONTINUOUS
 62
    7
 10
784.03106700000001
 20
811.25
 40
5.5
  0
CIRCLE
  8
_0-0_0
  6
CONTINUOUS
 62
    7
 10
684.03106700000001
 20
811.25
 40
5.5
  0
CIRCLE
  8
_0-0_0
  6
CONTINUOUS
 62
    7
 10
584.03106699999989
 20
811.25
 40
5.5
  0
CIRCLE
  8
_0-0_0
  6
CONTINUOUS
 62
    7
 10
484.03112799999997
 20
811.25
 40
5.5
  0
CIRCLE
  8
_0-0_0
  6
CONTINUOUS
 62
    7
 10
384.03111299999995
 20
811.25
 40
5.5
  0
CIRCLE
  8
_0-0_0
  6
CONTINUOUS
 62
    7
 10
284.031113
 20
811.25
 40
5.5
  0
CIRCLE
  8
_0-0_0
  6
CONTINUOUS
 62
    7
 10
184.03109699999993
 20
811.25
 40
5.5
  0
CIRCLE
  8
_0-0_0
  6
CONTINUOUS
 62
    7
 10
84.031096999999932
 20
811.25
 40
5.5
  0
CIRCLE
  8
_0-0_0
  6
CONTINUOUS
 62
    7
 10
1484.031189
 20
811.25
 40
3.5
  0
CIRCLE
  8
_0-0_0
  6
CONTINUOUS
 62
    7
 10
1384.031189
 20
811.25
 40
3.5
  0
CIRCLE
  8
_0-0_0
  6
CONTINUOUS
 62
    7
 10
1284.031189
 20
811.25
 40
3.5
  0
CIRCLE
  8
_0-0_0
  6
CONTINUOUS
 62
    7
 10
1184.031189
 20
811.25
 40
3.5
  0
CIRCLE
  8
_0-0_0
  6
CONTINUOUS
 62
    7
 10
1084.0311889999998
 20
811.25
 40
3.5
  0
CIRCLE
  8
_0-0_0
  6
CONTINUOUS
 62
    7
 10
984.03106700000001
 20
811.25
 40
3.5
  0
CIRCLE
  8
_0-0_0
  6
CONTINUOUS
 62
    7
 10
884.03106700000001
 20
811.25
 40
3.5
  0
CIRCLE
  8
_0-0_0
  6
CONTINUOUS
 62
    7
 10
784.03106700000001
 20
811.25
 40
3.5
  0
CIRCLE
  8
_0-0_0
  6
CONTINUOUS
 62
    7
 10
684.03106700000001
 20
811.25
 40
3.5
  0
CIRCLE
  8
_0-0_0
  6
CONTINUOUS
 62
    7
 10
584.03106699999989
 20
811.25
 40
3.5
  0
CIRCLE
  8
_0-0_0
  6
CONTINUOUS
 62
    7
 10
484.03112799999997
 20
811.25
 40
3.5
  0
CIRCLE
  8
_0-0_0
  6
CONTINUOUS
 62
    7
 10
384.03111299999995
 20
811.25
 40
3.5
  0
CIRCLE
  8
_0-0_0
  6
CONTINUOUS
 62
    7
 10
284.031113
 20
811.25
 40
3.5
  0
CIRCLE
  8
_0-0_0
  6
CONTINUOUS
 62
    7
 10
184.03109699999993
 20
811.25
 40
3.5
  0
CIRCLE
  8
_0-0_0
  6
CONTINUOUS
 62
    7
 10
84.031096999999932
 20
811.25
 40
3.5
  0
ARC
  8
_0-0_0
  6
CONTINUOUS
 62
    7
 10
1440.2311399999999
 20
779.95001200000002
 40
0.2
 50
90.000003000000007
 51
200.37643
  0
LINE
  8
_0-0_0
  6
CONTINUOUS
 62
    7
 10
1440.2311399999999
 20
780.15002400000003
 11
1442.831238
 21
780.15002400000003
  0
ARC
  8
_0-0_0
  6
CONTINUOUS
 62
    7
 10
1438.031189
 20
780.25
 40
0.5
 50
90.000003000000007
 51
179.99999099999999
  0
LINE
  8
_0-0_0
  6
CONTINUOUS
 62
    7
 10
1437.531189
 20
780.25
 11
1437.531189
 21
776.25
  0
ARC
  8
_0-0_0
  6
CONTINUOUS
 62
    7
 10
1438.031189
 20
776.25
 40
0.5
 50
179.99999099999999
 51
269.99999700000001
  0
LINE
  8
_0-0_0
  6
CONTINUOUS
 62
    7
 10
1445.031189
 20
775.75
 11
1438.031189
 21
775.75
  0
ARC
  8
_0-0_0
  6
CONTINUOUS
 62
    7
 10
1445.031189
 20
776.25
 40
0.5
 50
269.99999700000001
 51
0
  0
LINE
  8
_0-0_0
  6
CONTINUOUS
 62
    7
 10
1445.531189
 20
776.25
 11
1445.531189
 21
780.25
  0
ARC
  8
_0-0_0
  6
CONTINUOUS
 62
    7
 10
1445.031189
 20
780.25
 40
0.5
 50
0
 51
90.000003000000007
  0
LINE
  8
_0-0_0
  6
CONTINUOUS
 62
    7
 10
1438.031189
 20
780.75
 11
1445.031189
 21
780.75
  0
LINE
  8
_0-0_0
  6
CONTINUOUS
 62
    7
 10
1440.043762
 20
779.88037099999997
 11
1441.343689
 21
776.38037099999997
  0
ARC
  8
_0-0_0
  6
CONTINUOUS
 62
    7
 10
1441.531189
 20
776.45001200000002
 40
0.2
 50
200.37643
 51
339.62356199999999
  0
LINE
  8
_0-0_0
  6
CONTINUOUS
 62
    7
 10
1443.0186160000001
 20
779.88037099999997
 11
1441.718689
 21
776.38037099999997
  0
ARC
  8
_0-0_0
  6
CONTINUOUS
 62
    7
 10
1442.831238
 20
779.95001200000002
 40
0.2
 50
339.62356199999999
 51
90.000002999999978
  0
LINE
  8
_0-0_0
  6
CONTINUOUS
 62
    7
 10
-10.393555000000106
 20
773.25
 11
-10.29356400000006
 21
773.25
  0
LINE
  8
_0-0_0
  6
CONTINUOUS
 62
    7
 10
5.4064479999999548
 20
773.25
 11
4.7064359999999397
 21
773.25
  0
LINE
  8
_0-0_0
  6
CONTINUOUS
 62
    7
 10
5.4064479999999548
 20
773.25
 11
6.6064449999998942
 21
773.25
  0
ARC
  8
_0-0_0
  6
CONTINUOUS
 62
    7
 10
6.6064449999998942
 20
772.75
 40
0.5
 50
0
 51
90.000003000000007
  0
ARC
  8
_0-0_0
  6
CONTINUOUS
 62
    7
 10
5.4064479999999548
 20
772.75
 40
0.5
 50
90.000003000000007
 51
179.99999099999999
  0
ARC
  8
_0-0_0
  6
CONTINUOUS
 62
    7
 10
-10.393555000000106
 20
772.75
 40
0.5
 50
90.000003000000007
 51
179.99999099999999
  0
ARC
  8
_0-0_0
  6
CONTINUOUS
 62
    7
 10
-8.8935550000001058
 20
773.75
 40
0.5
 50
90.000003000000007
 51
126.868797
  0
LINE
  8
_0-0_0
  6
CONTINUOUS
 62
    7
 10
-7.3935550000001058
 20
774.25
 11
-8.8935550000001058
 21
774.25
  0
ARC
  8
_0-0_0
  6
CONTINUOUS
 62
    7
 10
-7.3935550000001058
 20
775.25
 40
1
 50
269.99999700000001
 51
0
  0
LINE
  8
_0-0_0
  6
CONTINUOUS
 62
    7
 10
-6.3935550000001058
 20
775.75
 11
-6.3935550000001058
 21
775.25
  0
LINE
  8
_0-0_0
  6
CONTINUOUS
 62
    7
 10
-5.8935550000001058
 20
775.75
 11
-5.8935550000001058
 21
774.75
  0
ARC
  8
_0-0_0
  6
CONTINUOUS
 62
    7
 10
-7.3935550000001058
 20
774.75
 40
1.5
 50
336.42205899999999
 51
0
  0
ARC
  8
_0-0_0
  6
CONTINUOUS
 62
    7
 10
4.2064510000000155
 20
774.75
 40
1.5
 50
179.99999099999999
 51
203.57793100000001
  0
LINE
  8
_0-0_0
  6
CONTINUOUS
 62
    7
 10
6.2064510000000155
 20
773.75
 11
6.2064510000000155
 21
773.25
  0
ARC
  8
_0-0_0
  6
CONTINUOUS
 62
    7
 10
5.7064510000000155
 20
773.75
 40
0.5
 50
0
 51
90.000003000000007
  0
LINE
  8
_0-0_0
  6
CONTINUOUS
 62
    7
 10
4.2064510000000155
 20
774.25
 11
5.7064510000000155
 21
774.25
  0
ARC
  8
_0-0_0
  6
CONTINUOUS
 62
    7
 10
4.2064510000000155
 20
775.25
 40
1
 50
179.99999099999999
 51
269.99999700000001
  0
LINE
  8
_0-0_0
  6
CONTINUOUS
 62
    7
 10
3.2064510000000155
 20
775.75
 11
3.2064510000000155
 21
775.25
  0
LINE
  8
_0-0_0
  6
CONTINUOUS
 62
    7
 10
2.7064510000000155
 20
775.75
 11
2.7064510000000155
 21
774.75
  0
LINE
  8
_0-0_0
  6
CONTINUOUS
 62
    7
 10
7.1064449999998942
 20
746.25
 11
7.1064449999998942
 21
747.15002400000003
  0
LINE
  8
_0-0_0
  6
CONTINUOUS
 62
    7
 10
7.1064449999998942
 20
747.15002400000003
 11
7.1064449999998942
 21
749.65002400000003
  0
LINE
  8
_0-0_0
  6
CONTINUOUS
 62
    7
 10
7.1064449999998942
 20
749.65002400000003
 11
7.1064449999998942
 21
770.25
  0
LINE
  8
_0-0_0
  6
CONTINUOUS
 62
    7
 10
7.1064449999998942
 20
770.25
 11
7.1064449999998942
 21
772.75
  0
LINE
  8
_0-0_0
  6
CONTINUOUS
 62
    7
 10
4.9064479999999548
 20
772.75
 11
4.9064479999999548
 21
771.50500499999998
  0
LINE
  8
_0-0_0
  6
CONTINUOUS
 62
    7
 10
2.5064539999999624
 20
774.15002400000003
 11
2.5064539999999624
 21
775.55001800000002
  0
ARC
  8
_0-0_0
  6
CONTINUOUS
 62
    7
 10
2.0064539999999624
 20
775.55001800000002
 40
0.5
 50
0
 51
23.579369
  0
LINE
  8
_0-0_0
  6
CONTINUOUS
 62
    7
 10
-5.6935580000000527
 20
774.15002400000003
 11
-5.6935580000000527
 21
775.55001800000002
  0
ARC
  8
_0-0_0
  6
CONTINUOUS
 62
    7
 10
-5.1935580000000527
 20
775.55001800000002
 40
0.5
 50
156.420635
 51
179.99999099999999
  0
LINE
  8
_0-0_0
  6
CONTINUOUS
 62
    7
 10
-10.893555000000106
 20
746.25
 11
-10.893555000000106
 21
756.45001200000002
  0
LINE
  8
_0-0_0
  6
CONTINUOUS
 62
    7
 10
-10.893555000000106
 20
756.45001200000002
 11
-10.893555000000106
 21
757.45001200000002
  0
LINE
  8
_0-0_0
  6
CONTINUOUS
 62
    7
 10
-10.893555000000106
 20
757.45001200000002
 11
-10.893555000000106
 21
762.45001200000002
  0
LINE
  8
_0-0_0
  6
CONTINUOUS
 62
    7
 10
-10.893555000000106
 20
762.45001200000002
 11
-10.893555000000106
 21
763.45001200000002
  0
LINE
  8
_0-0_0
  6
CONTINUOUS
 62
    7
 10
-10.893555000000106
 20
772.75
 11
-10.893555000000106
 21
763.45001200000002
  0
ARC
  8
_0-0_0
  6
CONTINUOUS
 62
    7
 10
-9.7935489999999845
 20
762.45001200000002
 40
0.5
 50
0
 51
90.000003000000007
  0
LINE
  8
_0-0_0
  6
CONTINUOUS
 62
    7
 10
-9.6935580000000527
 20
763.40002400000003
 11
-9.7935489999999845
 21
763.40002400000003
  0
ARC
  8
_0-0_0
  6
CONTINUOUS
 62
    7
 10
-9.6935580000000527
 20
762.90002400000003
 40
0.5
 50
0
 51
90.000003000000007
  0
LINE
  8
_0-0_0
  6
CONTINUOUS
 62
    7
 10
-9.2935489999999845
 20
762.45001200000002
 11
-9.2935489999999845
 21
757.45001200000002
  0
ARC
  8
_0-0_0
  6
CONTINUOUS
 62
    7
 10
-9.7935489999999845
 20
757.45001200000002
 40
0.5
 50
269.99999700000001
 51
0
  0
ARC
  8
_0-0_0
  6
CONTINUOUS
 62
    7
 10
-9.6935580000000527
 20
757.35000600000001
 40
0.5
 50
269.99999700000001
 51
0
  0
LINE
  8
_0-0_0
  6
CONTINUOUS
 62
    7
 10
-9.7935489999999845
 20
756.85000600000001
 11
-9.6935580000000527
 21
756.85000600000001
  0
LINE
  8
_0-0_0
  6
CONTINUOUS
 62
    7
 10
7.9064479999999548
 20
771.75
 11
7.1064449999998942
 21
771.75
  0
LINE
  8
_0-0_0
  6
CONTINUOUS
 62
    7
 10
7.9064479999999548
 20
772.55001800000002
 11
7.1064449999998942
 21
772.55001800000002
  0
LINE
  8
_0-0_0
  6
CONTINUOUS
 62
    7
 10
7.9064479999999548
 20
771.55001800000002
 11
7.9064479999999548
 21
772.55001800000002
  0
LINE
  8
_0-0_0
  6
CONTINUOUS
 62
    7
 10
7.9064479999999548
 20
752.95001200000002
 11
7.1064449999998942
 21
752.95001200000002
  0
LINE
  8
_0-0_0
  6
CONTINUOUS
 62
    7
 10
7.9064479999999548
 20
752.95001200000002
 11
7.9064479999999548
 21
755.95001200000002
  0
LINE
  8
_0-0_0
  6
CONTINUOUS
 62
    7
 10
7.9064479999999548
 20
768.18771400000003
 11
7.9064479999999548
 21
755.95001200000002
  0
LINE
  8
_0-0_0
  6
CONTINUOUS
 62
    7
 10
7.9064479999999548
 20
768.18771400000003
 11
7.9064479999999548
 21
769.15048200000001
  0
LINE
  8
_0-0_0
  6
CONTINUOUS
 62
    7
 10
7.1064449999998942
 20
769.15048200000001
 11
7.1064449999998942
 21
771.75
  0
ARC
  8
_0-0_0
  6
CONTINUOUS
 62
    7
 10
1.4915309999998954
 20
768.43206800000007
 40
5.7120379999999997
 50
18.558475999999999
 51
26.433648000000002
  0
ARC
  8
_0-0_0
  6
CONTINUOUS
 62
    7
 10
6.9064479999999548
 20
770.25
 40
0.2
 50
269.99999700000001
 51
0
  0
ARC
  8
_0-0_0
  6
CONTINUOUS
 62
    7
 10
6.9064479999999548
 20
749.65002400000003
 40
0.2
 50
0
 51
90.000003000000007
  0
ARC
  8
_0-0_0
  6
CONTINUOUS
 62
    7
 10
1.4916379999999663
 20
751.46804799999995
 40
5.711964
 50
333.565022
 51
341.44031000000001
  0
ARC
  8
_0-0_0
  6
CONTINUOUS
 62
    7
 10
6.6064449999998942
 20
747.15002400000003
 40
0.5
 50
269.99999700000001
 51
0
  0
LINE
  8
_0-0_0
  6
CONTINUOUS
 62
    7
 10
6.6064449999998942
 20
746.25
 11
7.1064449999998942
 21
746.25
  0
LINE
  8
_0-0_0
  6
CONTINUOUS
 62
    7
 10
7.1064449999998942
 20
746.25
 11
6.6064449999998942
 21
745.75
  0
ARC
  8
_0-0_0
  6
CONTINUOUS
 62
    7
 10
4.9064479999999548
 20
768.75
 40
2.2999999999999998
 50
34.417387999999995
 51
79.713437000000013
  0
LINE
  8
_0-0_0
  6
CONTINUOUS
 62
    7
 10
6.8451390000000174
 20
770.05001800000002
 11
6.8038179999999784
 21
770.05001800000002
  0
LINE
  8
_0-0_0
  6
CONTINUOUS
 62
    7
 10
6.8451390000000174
 20
770.05001800000002
 11
6.8546910000000025
 21
770.05102499999998
  0
LINE
  8
_0-0_0
  6
CONTINUOUS
 62
    7
 10
6.8546910000000025
 20
770.05102499999998
 11
6.8641809999999168
 21
770.05422999999996
  0
LINE
  8
_0-0_0
  6
CONTINUOUS
 62
    7
 10
6.8641809999999168
 20
770.05422999999996
 11
6.8734279999999899
 21
770.05963100000008
  0
LINE
  8
_0-0_0
  6
CONTINUOUS
 62
    7
 10
6.8734279999999899
 20
770.05963100000008
 11
6.8822329999999283
 21
770.067139
  0
LINE
  8
_0-0_0
  6
CONTINUOUS
 62
    7
 10
6.8822329999999283
 20
770.067139
 11
6.8976289999999381
 21
770.08776899999998
  0
LINE
  8
_0-0_0
  6
CONTINUOUS
 62
    7
 10
6.8976289999999381
 20
770.08776899999998
 11
6.9094089999999824
 21
770.11505099999999
  0
LINE
  8
_0-0_0
  6
CONTINUOUS
 62
    7
 10
6.9094089999999824
 20
770.11505099999999
 11
6.9165949999999157
 21
770.14718599999992
  0
LINE
  8
_0-0_0
  6
CONTINUOUS
 62
    7
 10
6.9165949999999157
 20
770.14718599999992
 11
6.9184880000000248
 21
770.18225099999995
  0
LINE
  8
_0-0_0
  6
CONTINUOUS
 62
    7
 10
6.9184880000000248
 20
770.18225099999995
 11
6.9146269999999959
 21
770.21841399999994
  0
LINE
  8
_0-0_0
  6
CONTINUOUS
 62
    7
 10
6.9146269999999959
 20
770.21841399999994
 11
6.9064479999999548
 21
770.25
  0
ARC
  8
_0-0_0
  6
CONTINUOUS
 62
    7
 10
5.4064479999999548
 20
771.50500499999998
 40
0.5
 50
179.99999099999999
 51
259.71343899999994
  0
LINE
  8
_0-0_0
  6
CONTINUOUS
 62
    7
 10
4.7064510000000155
 20
771.60000600000001
 11
4.7064510000000155
 21
771.30657999999994
  0
LINE
  8
_0-0_0
  6
CONTINUOUS
 62
    7
 10
4.7064510000000155
 20
771.60000600000001
 11
4.7064510000000155
 21
773.65002400000003
  0
ARC
  8
_0-0_0
  6
CONTINUOUS
 62
    7
 10
4.2064510000000155
 20
773.65002400000003
 40
0.5
 50
0
 51
90.000003000000007
  0
LINE
  8
_0-0_0
  6
CONTINUOUS
 62
    7
 10
4.2064510000000155
 20
774.15002400000003
 11
1.4635469999999486
 21
774.15002400000003
  0
ARC
  8
_0-0_0
  6
CONTINUOUS
 62
    7
 10
-9.7935489999999845
 20
763.90002400000003
 40
0.5
 50
179.99999099999999
 51
269.99999700000001
  0
LINE
  8
_0-0_0
  6
CONTINUOUS
 62
    7
 10
-10.293548999999985
 20
773.65002400000003
 11
-10.293548999999985
 21
763.90002400000003
  0
LINE
  8
_0-0_0
  6
CONTINUOUS
 62
    7
 10
-4.6506650000000036
 20
774.15002400000003
 11
-9.7935489999999845
 21
774.15002400000003
  0
ARC
  8
_0-0_0
  6
CONTINUOUS
 62
    7
 10
-9.7935489999999845
 20
773.65002400000003
 40
0.5
 50
90.000003000000007
 51
179.99999099999999
  0
LINE
  8
_0-0_0
  6
CONTINUOUS
 62
    7
 10
-11.093552000000045
 20
771.75
 11
-10.893555000000106
 21
771.75
  0
LINE
  8
_0-0_0
  6
CONTINUOUS
 62
    7
 10
-11.093552000000045
 20
772.55001800000002
 11
-10.893555000000106
 21
772.55001800000002
  0
LINE
  8
_0-0_0
  6
CONTINUOUS
 62
    7
 10
-11.093552000000045
 20
772.55001800000002
 11
-11.093552000000045
 21
771.75012199999992
  0
LINE
  8
_0-0_0
  6
CONTINUOUS
 62
    7
 10
-11.093552000000045
 20
752.95001200000002
 11
-10.893555000000106
 21
752.95001200000002
  0
LINE
  8
_0-0_0
  6
CONTINUOUS
 62
    7
 10
-11.093552000000045
 20
755.95001200000002
 11
-11.093552000000045
 21
752.95001200000002
  0
LINE
  8
_0-0_0
  6
CONTINUOUS
 62
    7
 10
-11.093552000000045
 20
768.18771400000003
 11
-11.093552000000045
 21
755.95001200000002
  0
LINE
  8
_0-0_0
  6
CONTINUOUS
 62
    7
 10
-11.093552000000045
 20
769.15048200000001
 11
-11.093552000000045
 21
768.18771400000003
  0
ARC
  8
_0-0_0
  6
CONTINUOUS
 62
    7
 10
-10.393555000000106
 20
762.45001200000002
 40
0.5
 50
90.000003000000007
 51
179.99999099999999
  0
ARC
  8
_0-0_0
  6
CONTINUOUS
 62
    7
 10
-10.393555000000106
 20
757.45001200000002
 40
0.5
 50
179.99999099999999
 51
269.99999700000001
  0
LINE
  8
_0-0_0
  6
CONTINUOUS
 62
    7
 10
-10.893555000000106
 20
746.25
 11
-10.393555000000106
 21
746.25
  0
LINE
  8
_0-0_0
  6
CONTINUOUS
 62
    7
 10
-10.893555000000106
 20
746.25
 11
-10.393555000000106
 21
745.75
  0
LINE
  8
_0-0_0
  6
CONTINUOUS
 62
    7
 10
-9.7935489999999845
 20
762.95001200000002
 11
-10.393555000000106
 21
762.95001200000002
  0
LINE
  8
_0-0_0
  6
CONTINUOUS
 62
    7
 10
-9.1935580000000527
 20
762.90002400000003
 11
-9.1935580000000527
 21
757.35000600000001
  0
LINE
  8
_0-0_0
  6
CONTINUOUS
 62
    7
 10
6.6064449999998942
 20
746.25
 11
-10.393555000000106
 21
746.25
  0
LINE
  8
_0-0_0
  6
CONTINUOUS
 62
    7
 10
-10.393555000000106
 20
756.95001200000002
 11
-9.7935489999999845
 21
756.95001200000002
  0
ARC
  8
_0-0_0
  6
CONTINUOUS
 62
    7
 10
-9.7935489999999845
 20
756.35000600000001
 40
0.5
 50
90.000003000000007
 51
179.99999099999999
  0
LINE
  8
_0-0_0
  6
CONTINUOUS
 62
    7
 10
7.9064479999999548
 20
769.15048200000001
 11
7.9064479999999548
 21
771.75
  0
LINE
  8
_0-0_0
  6
CONTINUOUS
 62
    7
 10
6.9064479999999548
 20
770.05001800000002
 11
6.8451390000000174
 21
770.05001800000002
  0
LINE
  8
_0-0_0
  6
CONTINUOUS
 62
    7
 10
6.8038179999999784
 20
770.05001800000002
 11
6.8015899999999192
 21
770.05001800000002
  0
LINE
  8
_0-0_0
  6
CONTINUOUS
 62
    7
 10
6.6699219999999286
 20
750.05001800000002
 11
6.7068329999999605
 21
749.97976700000004
  0
LINE
  8
_0-0_0
  6
CONTINUOUS
 62
    7
 10
6.7068329999999605
 20
749.97976700000004
 11
6.7264399999999114
 21
749.94531299999994
  0
LINE
  8
_0-0_0
  6
CONTINUOUS
 62
    7
 10
6.7264399999999114
 20
749.94531299999994
 11
6.7525329999999713
 21
749.90344200000004
  0
LINE
  8
_0-0_0
  6
CONTINUOUS
 62
    7
 10
6.7525329999999713
 20
749.90344200000004
 11
6.7658389999999144
 21
749.88439900000003
  0
LINE
  8
_0-0_0
  6
CONTINUOUS
 62
    7
 10
6.7658389999999144
 20
749.88439900000003
 11
6.7841949999999542
 21
749.86203
  0
LINE
  8
_0-0_0
  6
CONTINUOUS
 62
    7
 10
6.7841949999999542
 20
749.86203
 11
6.7969819999999572
 21
749.85140999999999
  0
LINE
  8
_0-0_0
  6
CONTINUOUS
 62
    7
 10
6.7969819999999572
 20
749.85140999999999
 11
6.8015899999999192
 21
749.85000600000001
  0
LINE
  8
_0-0_0
  6
CONTINUOUS
 62
    7
 10
6.8038179999999784
 20
749.85000600000001
 11
6.8015899999999192
 21
749.85000600000001
  0
LINE
  8
_0-0_0
  6
CONTINUOUS
 62
    7
 10
6.6699219999999286
 20
769.85000600000001
 11
6.7068329999999605
 21
769.92022700000007
  0
LINE
  8
_0-0_0
  6
CONTINUOUS
 62
    7
 10
6.7068329999999605
 20
769.92022700000007
 11
6.7264399999999114
 21
769.95471199999997
  0
LINE
  8
_0-0_0
  6
CONTINUOUS
 62
    7
 10
6.7264399999999114
 20
769.95471199999997
 11
6.7525329999999713
 21
769.99655200000007
  0
LINE
  8
_0-0_0
  6
CONTINUOUS
 62
    7
 10
6.7525329999999713
 20
769.99655200000007
 11
6.7658389999999144
 21
770.01559399999996
  0
LINE
  8
_0-0_0
  6
CONTINUOUS
 62
    7
 10
6.7658389999999144
 20
770.01559399999996
 11
6.7841949999999542
 21
770.03799400000003
  0
LINE
  8
_0-0_0
  6
CONTINUOUS
 62
    7
 10
6.7841949999999542
 20
770.03799400000003
 11
6.7969819999999572
 21
770.04861499999993
  0
LINE
  8
_0-0_0
  6
CONTINUOUS
 62
    7
 10
6.7969819999999572
 20
770.04861499999993
 11
6.8015899999999192
 21
770.05001800000002
  0
LINE
  8
_0-0_0
  6
CONTINUOUS
 62
    7
 10
6.8038179999999784
 20
749.85000600000001
 11
6.8451390000000174
 21
749.85000600000001
  0
LINE
  8
_0-0_0
  6
CONTINUOUS
 62
    7
 10
6.9064479999999548
 20
749.85000600000001
 11
6.8451390000000174
 21
749.85000600000001
  0
LINE
  8
_0-0_0
  6
CONTINUOUS
 62
    7
 10
6.8451390000000174
 20
749.85000600000001
 11
6.8546910000000025
 21
749.84896900000001
  0
LINE
  8
_0-0_0
  6
CONTINUOUS
 62
    7
 10
6.8546910000000025
 20
749.84896900000001
 11
6.8641809999999168
 21
749.84576399999992
  0
LINE
  8
_0-0_0
  6
CONTINUOUS
 62
    7
 10
6.8641809999999168
 20
749.84576399999992
 11
6.8734279999999899
 21
749.84039299999995
  0
LINE
  8
_0-0_0
  6
CONTINUOUS
 62
    7
 10
6.8734279999999899
 20
749.84039299999995
 11
6.8822329999999283
 21
749.83288599999992
  0
LINE
  8
_0-0_0
  6
CONTINUOUS
 62
    7
 10
6.8822329999999283
 20
749.83288599999992
 11
6.8976289999999381
 21
749.81225599999993
  0
LINE
  8
_0-0_0
  6
CONTINUOUS
 62
    7
 10
6.8976289999999381
 20
749.81225599999993
 11
6.9094089999999824
 21
749.78497300000004
  0
LINE
  8
_0-0_0
  6
CONTINUOUS
 62
    7
 10
6.9094089999999824
 20
749.78497300000004
 11
6.9165949999999157
 21
749.752838
  0
LINE
  8
_0-0_0
  6
CONTINUOUS
 62
    7
 10
6.9165949999999157
 20
749.752838
 11
6.9184880000000248
 21
749.71777300000008
  0
LINE
  8
_0-0_0
  6
CONTINUOUS
 62
    7
 10
6.9184880000000248
 20
749.71777300000008
 11
6.9146269999999959
 21
749.68160999999998
  0
LINE
  8
_0-0_0
  6
CONTINUOUS
 62
    7
 10
6.9146269999999959
 20
749.68160999999998
 11
6.9064479999999548
 21
749.65002400000003
  0
ARC
  8
_0-0_0
  6
CONTINUOUS
 62
    7
 10
4.9064479999999548
 20
751.15002400000003
 40
2.2999999999999998
 50
280.28656300000006
 51
325.58260500000006
  0
LINE
  8
_0-0_0
  6
CONTINUOUS
 62
    7
 10
6.6064449999998942
 20
746.65002400000003
 11
5.4064479999999548
 21
746.65002400000003
  0
LINE
  8
_0-0_0
  6
CONTINUOUS
 62
    7
 10
6.6064449999998942
 20
745.75
 11
-10.393555000000106
 21
745.75
  0
LINE
  8
_0-0_0
  6
CONTINUOUS
 62
    7
 10
4.7064510000000155
 20
771.30657999999994
 11
4.7067109999999275
 21
771.29016100000001
  0
ARC
  8
_0-0_0
  6
CONTINUOUS
 62
    7
 10
5.2064510000000155
 20
771.30657999999994
 40
0.5
 50
181.88290099999998
 51
260.07179799999994
  0
LINE
  8
_0-0_0
  6
CONTINUOUS
 62
    7
 10
4.2064510000000155
 20
772.09429899999998
 11
4.4064479999999548
 21
771.89999399999999
  0
LINE
  8
_0-0_0
  6
CONTINUOUS
 62
    7
 10
4.4064479999999548
 20
771.89999399999999
 11
4.7064510000000155
 21
771.60000600000001
  0
LINE
  8
_0-0_0
  6
CONTINUOUS
 62
    7
 10
4.7064510000000155
 20
771.60000600000001
 11
4.4064479999999548
 21
771.60000600000001
  0
ARC
  8
_0-0_0
  6
CONTINUOUS
 62
    7
 10
1.4635469999999486
 20
774.65002400000003
 40
0.5
 50
225
 51
269.99999700000001
  0
ARC
  8
_0-0_0
  6
CONTINUOUS
 62
    7
 10
-4.6506650000000036
 20
774.65002400000003
 40
0.5
 50
269.99999700000001
 51
314.99999200000002
  0
LINE
  8
_0-0_0
  6
CONTINUOUS
 62
    7
 10
-11.093552000000045
 20
771.75
 11
-11.093552000000045
 21
769.15048200000001
  0
LINE
  8
_0-0_0
  6
CONTINUOUS
 62
    7
 10
7.1064449999998942
 20
772.55004899999994
 11
7.1064449999998942
 21
772.75
  0
CIRCLE
  8
_0-0_0
  6
CONTINUOUS
 62
    7
 10
-1.5935520000000452
 20
771.75
 40
2.25
  0
ARC
  8
_0-0_0
  6
CONTINUOUS
 62
    7
 10
-1.5935520000000452
 20
751.65002400000003
 40
1.75
 50
179.99999099999999
 51
359.99998299999993
  0
LINE
  8
_0-0_0
  6
CONTINUOUS
 62
    7
 10
-3.3435520000000452
 20
751.90002400000003
 11
-3.3435520000000452
 21
751.65002400000003
  0
ARC
  8
_0-0_0
  6
CONTINUOUS
 62
    7
 10
-1.5935520000000452
 20
751.90002400000003
 40
1.75
 50
0
 51
179.99999099999999
  0
LINE
  8
_0-0_0
  6
CONTINUOUS
 62
    7
 10
0.1564479999999548
 20
751.65002400000003
 11
0.1564479999999548
 21
751.90002400000003
  0
ARC
  8
_0-0_0
  6
CONTINUOUS
 62
    7
 10
4.1064449999998942
 20
751.95001200000002
 40
3
 50
269.99999700000001
 51
0
  0
LINE
  8
_0-0_0
  6
CONTINUOUS
 62
    7
 10
-10.293548999999985
 20
756.35000600000001
 11
-10.293548999999985
 21
755.5
  0
LINE
  8
_0-0_0
  6
CONTINUOUS
 62
    7
 10
-10.293548999999985
 20
749.45001200000002
 11
-10.293548999999985
 21
755.5
  0
ARC
  8
_0-0_0
  6
CONTINUOUS
 62
    7
 10
4.7064510000000155
 20
768.45001200000002
 40
2.3999999999999999
 50
0
 51
80.071809999999985
  0
LINE
  8
_0-0_0
  6
CONTINUOUS
 62
    7
 10
7.1064449999998942
 20
751.95001200000002
 11
7.1064449999998942
 21
764.75
  0
LINE
  8
_0-0_0
  6
CONTINUOUS
 62
    7
 10
7.1064449999998942
 20
764.75
 11
7.1064449999998942
 21
768.45001200000002
  0
ARC
  8
_0-0_0
  6
CONTINUOUS
 62
    7
 10
5.4064479999999548
 20
748.39501999999993
 40
0.5
 50
100.28656100000001
 51
179.99999099999999
  0
LINE
  8
_0-0_0
  6
CONTINUOUS
 62
    7
 10
4.9064479999999548
 20
747.15002400000003
 11
4.9064479999999548
 21
748.39501999999993
  0
ARC
  8
_0-0_0
  6
CONTINUOUS
 62
    7
 10
5.4064479999999548
 20
747.15002400000003
 40
0.5
 50
179.99999099999999
 51
269.99999700000001
  0
LINE
  8
_0-0_0
  6
CONTINUOUS
 62
    7
 10
-4.2971039999999903
 20
774.29644800000005
 11
-4.2400059999999939
 21
774.35357699999997
  0
ARC
  8
_0-0_0
  6
CONTINUOUS
 62
    7
 10
-3.8864439999999831
 20
774
 40
0.5
 50
90.000003000000007
 51
135
  0
LINE
  8
_0-0_0
  6
CONTINUOUS
 62
    7
 10
0.6993410000000039
 20
774.5
 11
-3.8864439999999831
 21
774.5
  0
ARC
  8
_0-0_0
  6
CONTINUOUS
 62
    7
 10
0.6993410000000039
 20
774
 40
0.5
 50
45.00000099999999
 51
90.000002999999992
  0
LINE
  8
_0-0_0
  6
CONTINUOUS
 62
    7
 10
1.1100010000000111
 20
774.29644800000005
 11
1.0529019999999036
 21
774.35357699999997
  0
ARC
  8
_0-0_0
  6
CONTINUOUS
 62
    7
 10
4.4064479999999548
 20
768.60000600000001
 40
3
 50
90.000003000000007
 51
179.99999099999999
  0
LINE
  8
_0-0_0
  6
CONTINUOUS
 62
    7
 10
-7.5935520000000452
 20
755
 11
-9.7935489999999845
 21
755
  0
ARC
  8
_0-0_0
  6
CONTINUOUS
 62
    7
 10
-7.5935520000000452
 20
752
 40
3
 50
0
 51
90.000003000000007
  0
LINE
  8
_0-0_0
  6
CONTINUOUS
 62
    7
 10
-4.5935520000000452
 20
752
 11
-4.5935520000000452
 21
749.45001200000002
  0
LINE
  8
_0-0_0
  6
CONTINUOUS
 62
    7
 10
-4.0935520000000452
 20
748.95001200000002
 11
4.1064449999998942
 21
748.95001200000002
  0
LINE
  8
_0-0_0
  6
CONTINUOUS
 62
    7
 10
4.4064479999999548
 20
765.25
 11
6.6064449999998942
 21
765.25
  0
ARC
  8
_0-0_0
  6
CONTINUOUS
 62
    7
 10
4.4064479999999548
 20
768.25
 40
3
 50
179.99999099999999
 51
269.99999700000001
  0
LINE
  8
_0-0_0
  6
CONTINUOUS
 62
    7
 10
1.4064479999999548
 20
768.25
 11
1.4064479999999548
 21
768.60000600000001
  0
CIRCLE
  8
_0-0_0
  6
CONTINUOUS
 62
    7
 10
-1.5935520000000452
 20
771.75
 40
2.0499999999999998
  0
ARC
  8
_0-0_0
  6
CONTINUOUS
 62
    7
 10
-1.5935520000000452
 20
751.65002400000003
 40
1.55
 50
179.99999099999999
 51
0
  0
LINE
  8
_0-0_0
  6
CONTINUOUS
 62
    7
 10
-3.1435550000001058
 20
751.90002400000003
 11
-3.1435550000001058
 21
751.65002400000003
  0
ARC
  8
_0-0_0
  6
CONTINUOUS
 62
    7
 10
-1.5935520000000452
 20
751.90002400000003
 40
1.55
 50
0
 51
179.99999099999999
  0
LINE
  8
_0-0_0
  6
CONTINUOUS
 62
    7
 10
-0.0435489999999845
 20
751.65002400000003
 11
-0.0435489999999845
 21
751.90002400000003
  0
LINE
  8
_0-0_0
  6
CONTINUOUS
 62
    7
 10
-9.7935489999999845
 20
748.95001200000002
 11
-4.0935520000000452
 21
748.95001200000002
  0
ARC
  8
_0-0_0
  6
CONTINUOUS
 62
    7
 10
-9.7935489999999845
 20
749.45001200000002
 40
0.5
 50
179.99999099999999
 51
269.99999700000001
  0
ARC
  8
_0-0_0
  6
CONTINUOUS
 62
    7
 10
-9.7935489999999845
 20
755.5
 40
0.5
 50
179.99999099999999
 51
269.99999700000001
  0
ARC
  8
_0-0_0
  6
CONTINUOUS
 62
    7
 10
6.6064449999998942
 20
764.75
 40
0.5
 50
0
 51
90.000003000000007
  0
ARC
  8
_0-0_0
  6
CONTINUOUS
 62
    7
 10
-4.0935520000000452
 20
749.45001200000002
 40
0.5
 50
179.99999099999999
 51
269.99999700000001
  0
CIRCLE
  8
_0-0_0
  6
CONTINUOUS
 62
    7
 10
4.4064479999999548
 20
768.25
 40
2.25
  0
CIRCLE
  8
_0-0_0
  6
CONTINUOUS
 62
    7
 10
-7.5935520000000452
 20
751.65002400000003
 40
2.25
  0
CIRCLE
  8
_0-0_0
  6
CONTINUOUS
 62
    7
 10
4.4064479999999548
 20
768.25
 40
2
  0
CIRCLE
  8
_0-0_0
  6
CONTINUOUS
 62
    7
 10
-7.5935520000000452
 20
751.65002400000003
 40
2
  0
LINE
  8
_0-0_0
  6
CONTINUOUS
 62
    7
 10
3.2564539999999624
 20
768.25
 11
3.824341000000004
 21
769.25
  0
LINE
  8
_0-0_0
  6
CONTINUOUS
 62
    7
 10
3.824341000000004
 20
767.25
 11
3.2564539999999624
 21
768.25
  0
LINE
  8
_0-0_0
  6
CONTINUOUS
 62
    7
 10
4.9885560000000169
 20
767.25
 11
3.824341000000004
 21
767.25
  0
LINE
  8
_0-0_0
  6
CONTINUOUS
 62
    7
 10
5.5564419999999473
 20
768.25
 11
4.9885560000000169
 21
767.25
  0
LINE
  8
_0-0_0
  6
CONTINUOUS
 62
    7
 10
4.9885560000000169
 20
769.25
 11
5.5564419999999473
 21
768.25
  0
LINE
  8
_0-0_0
  6
CONTINUOUS
 62
    7
 10
3.824341000000004
 20
769.25
 11
4.9885560000000169
 21
769.25
  0
LINE
  8
_0-0_0
  6
CONTINUOUS
 62
    7
 10
-8.7435460000000376
 20
751.65002400000003
 11
-8.175658999999996
 21
752.65002400000003
  0
LINE
  8
_0-0_0
  6
CONTINUOUS
 62
    7
 10
-8.175658999999996
 20
750.65002400000003
 11
-8.7435460000000376
 21
751.65002400000003
  0
LINE
  8
_0-0_0
  6
CONTINUOUS
 62
    7
 10
-7.0114439999999831
 20
750.65002400000003
 11
-8.175658999999996
 21
750.65002400000003
  0
LINE
  8
_0-0_0
  6
CONTINUOUS
 62
    7
 10
-6.4435580000000527
 20
751.65002400000003
 11
-7.0114439999999831
 21
750.65002400000003
  0
LINE
  8
_0-0_0
  6
CONTINUOUS
 62
    7
 10
-7.0114439999999831
 20
752.65002400000003
 11
-6.4435580000000527
 21
751.65002400000003
  0
LINE
  8
_0-0_0
  6
CONTINUOUS
 62
    7
 10
-8.175658999999996
 20
752.65002400000003
 11
-7.0114439999999831
 21
752.65002400000003
  0
LINE
  8
_0-0_0
  6
CONTINUOUS
 62
    7
 10
7.1064449999998942
 20
769.05032299999993
 11
7.1064449999998942
 21
769.05630500000007
  0
LINE
  8
_0-0_0
  6
CONTINUOUS
 62
    7
 10
7.1064449999998942
 20
770.25
 11
7.1060789999999088
 21
770.23791499999993
  0
LINE
  8
_0-0_0
  6
CONTINUOUS
 62
    7
 10
7.1060789999999088
 20
749.66210899999999
 11
7.1064449999998942
 21
749.65002400000003
  0
LINE
  8
_0-0_0
  6
CONTINUOUS
 62
    7
 10
7.1057279999999992
 20
764.77673299999992
 11
7.1064449999998942
 21
764.75
  0
LINE
  8
_0-0_0
  6
CONTINUOUS
 62
    7
 10
8.0064539999999624
 20
780.15002400000003
 11
8.1064449999998942
 21
780.15002400000003
  0
LINE
  8
_0-0_0
  6
CONTINUOUS
 62
    7
 10
8.1064449999998942
 20
779.88037099999997
 11
8.1064449999998942
 21
780.15002400000003
  0
LINE
  8
_0-0_0
  6
CONTINUOUS
 62
    7
 10
8.0064539999999624
 20
780.25
 11
8.0064539999999624
 21
780.75
  0
LINE
  8
_0-0_0
  6
CONTINUOUS
 62
    7
 10
8.0064539999999624
 20
780.25
 11
8.0064539999999624
 21
776.25
  0
LINE
  8
_0-0_0
  6
CONTINUOUS
 62
    7
 10
8.0064539999999624
 20
775.75
 11
8.0064539999999624
 21
776.25
  0
LINE
  8
_0-0_0
  6
CONTINUOUS
 62
    7
 10
8.1064449999998942
 20
779.88037099999997
 11
8.1064449999998942
 21
776.38037099999997
  0
LINE
  8
_0-0_0
  6
CONTINUOUS
 62
    7
 10
8.1064449999998942
 20
776.25
 11
8.1064449999998942
 21
776.38037099999997
  0
LINE
  8
_0-0_0
  6
CONTINUOUS
 62
    7
 10
7.9064479999999548
 20
780.75
 11
8.0064539999999624
 21
780.75
  0
LINE
  8
_0-0_0
  6
CONTINUOUS
 62
    7
 10
7.9064479999999548
 20
775.75
 11
8.0064539999999624
 21
775.75
  0
ARC
  8
_0-0_0
  6
CONTINUOUS
 62
    7
 10
8.4064479999999548
 20
780.75
 40
0.5
 50
90.000003000000007
 51
179.99999099999999
  0
LINE
  8
_0-0_0
  6
CONTINUOUS
 62
    7
 10
7.9064479999999548
 20
780.75
 11
7.9064479999999548
 21
775.75
  0
ARC
  8
_0-0_0
  6
CONTINUOUS
 62
    7
 10
7.4064479999999548
 20
775.75
 40
0.5
 50
269.99999700000001
 51
0
  0
LINE
  8
_0-0_0
  6
CONTINUOUS
 62
    7
 10
12.806441999999947
 20
789.15002400000003
 11
12.606444999999894
 21
789.15002400000003
  0
LINE
  8
_0-0_0
  6
CONTINUOUS
 62
    7
 10
12.606444999999894
 20
802.15002400000003
 11
12.606444999999894
 21
789.15002400000003
  0
LINE
  8
_0-0_0
  6
CONTINUOUS
 62
    7
 10
12.806441999999947
 20
802.15002400000003
 11
12.606444999999894
 21
802.15002400000003
  0
LINE
  8
_0-0_0
  6
CONTINUOUS
 62
    7
 10
12.806441999999947
 20
802.15002400000003
 11
12.806441999999947
 21
820.75
  0
LINE
  8
_0-0_0
  6
CONTINUOUS
 62
    7
 10
12.906447999999955
 20
820.75
 11
12.806441999999947
 21
820.75
  0
LINE
  8
_0-0_0
  6
CONTINUOUS
 62
    7
 10
12.906447999999955
 20
823.25
 11
12.906447999999955
 21
820.75
  0
ARC
  8
_0-0_0
  6
CONTINUOUS
 62
    7
 10
12.406447999999955
 20
823.25
 40
0.5
 50
0
 51
90.000003000000007
  0
LINE
  8
_0-0_0
  6
CONTINUOUS
 62
    7
 10
12.406447999999955
 20
823.75
 11
9.4064479999999548
 21
823.75
  0
ARC
  8
_0-0_0
  6
CONTINUOUS
 62
    7
 10
9.4064479999999548
 20
823.25
 40
0.5
 50
90.000003000000007
 51
179.99999099999999
  0
ARC
  8
_0-0_0
  6
CONTINUOUS
 62
    7
 10
4.9064479999999548
 20
775.75
 40
0.5
 50
179.99999099999999
 51
269.99999700000001
  0
LINE
  8
_0-0_0
  6
CONTINUOUS
 62
    7
 10
7.4064479999999548
 20
775.25
 11
4.9064479999999548
 21
775.25
  0
LINE
  8
_0-0_0
  6
CONTINUOUS
 62
    7
 10
12.406447999999955
 20
781.25
 11
8.4064479999999548
 21
781.25
  0
ARC
  8
_0-0_0
  6
CONTINUOUS
 62
    7
 10
12.406447999999955
 20
781.75
 40
0.5
 50
269.99999700000001
 51
0
  0
LINE
  8
_0-0_0
  6
CONTINUOUS
 62
    7
 10
12.906447999999955
 20
784.95001200000002
 11
12.906447999999955
 21
781.75
  0
LINE
  8
_0-0_0
  6
CONTINUOUS
 62
    7
 10
12.806441999999947
 20
784.95001200000002
 11
12.906447999999955
 21
784.95001200000002
  0
LINE
  8
_0-0_0
  6
CONTINUOUS
 62
    7
 10
12.806441999999947
 20
784.95001200000002
 11
12.806441999999947
 21
789.15002400000003
  0
LINE
  8
_0-0_0
  6
CONTINUOUS
 62
    7
 10
11.906447999999955
 20
823.25
 11
-5.8935550000001058
 21
823.25
  0
ARC
  8
_0-0_0
  6
CONTINUOUS
 62
    7
 10
11.906447999999955
 20
822.75
 40
0.5
 50
0
 51
90.000003000000007
  0
LINE
  8
_0-0_0
  6
CONTINUOUS
 62
    7
 10
12.406447999999955
 20
822.75
 11
12.406447999999955
 21
782.25
  0
ARC
  8
_0-0_0
  6
CONTINUOUS
 62
    7
 10
11.906447999999955
 20
782.25
 40
0.5
 50
269.99999700000001
 51
0
  0
LINE
  8
_0-0_0
  6
CONTINUOUS
 62
    7
 10
8.4064479999999548
 20
781.75
 11
11.906447999999955
 21
781.75
  0
ARC
  8
_0-0_0
  6
CONTINUOUS
 62
    7
 10
8.4064479999999548
 20
780.75
 40
1
 50
90.000003000000007
 51
179.99999099999999
  0
LINE
  8
_0-0_0
  6
CONTINUOUS
 62
    7
 10
7.4064479999999548
 20
780.75
 11
7.4064479999999548
 21
776.25
  0
ARC
  8
_0-0_0
  6
CONTINUOUS
 62
    7
 10
6.9064479999999548
 20
776.25
 40
0.5
 50
269.99999700000001
 51
0
  0
LINE
  8
_0-0_0
  6
CONTINUOUS
 62
    7
 10
-10.093552000000045
 20
775.75
 11
6.9064479999999548
 21
775.75
  0
LINE
  8
_0-0_0
  6
CONTINUOUS
 62
    7
 10
8.4064479999999548
 20
823.45001200000002
 11
8.4064479999999548
 21
823.25
  0
ARC
  8
_0-0_0
  6
CONTINUOUS
 62
    7
 10
8.1064449999998942
 20
823.45001200000002
 40
0.2999999999999999
 50
0
 51
90.000003000000007
  0
LINE
  8
_0-0_0
  6
CONTINUOUS
 62
    7
 10
8.1064449999998942
 20
823.75
 11
-6.5935520000000452
 21
823.75
  0
ARC
  8
_0-0_0
  6
CONTINUOUS
 62
    7
 10
-6.5935520000000452
 20
823.45001200000002
 40
0.2999999999999999
 50
90.000003000000007
 51
179.99999099999999
  0
LINE
  8
_0-0_0
  6
CONTINUOUS
 62
    7
 10
-6.8935550000001058
 20
823.45001200000002
 11
-6.8935550000001058
 21
820.25
  0
LINE
  8
_0-0_0
  6
CONTINUOUS
 62
    7
 10
-6.8935550000001058
 20
820.25
 11
-12.593552000000045
 21
820.25
  0
LINE
  8
_0-0_0
  6
CONTINUOUS
 62
    7
 10
-12.593552000000045
 20
820.25
 11
-13.393555000000106
 21
819.45001200000002
  0
ARC
  8
_0-0_0
  6
CONTINUOUS
 62
    7
 10
-5.8935550000001058
 20
822.75
 40
0.5
 50
90.000003000000007
 51
179.99999099999999
  0
LINE
  8
_0-0_0
  6
CONTINUOUS
 62
    7
 10
-6.3935550000001058
 20
822.75
 11
-6.3935550000001058
 21
819.95001200000002
  0
ARC
  8
_0-0_0
  6
CONTINUOUS
 62
    7
 10
-6.8935550000001058
 20
819.95001200000002
 40
0.5
 50
269.99999700000001
 51
0
  0
LINE
  8
_0-0_0
  6
CONTINUOUS
 62
    7
 10
-6.8935550000001058
 20
819.45001200000002
 11
-15.093552000000045
 21
819.45001200000002
  0
ARC
  8
_0-0_0
  6
CONTINUOUS
 62
    7
 10
-15.093552000000045
 20
818.95001200000002
 40
0.5
 50
90.000003000000007
 51
179.99999099999999
  0
LINE
  8
_0-0_0
  6
CONTINUOUS
 62
    7
 10
-15.593552000000045
 20
782.25
 11
-15.593552000000045
 21
818.95001200000002
  0
ARC
  8
_0-0_0
  6
CONTINUOUS
 62
    7
 10
-15.093552000000045
 20
782.25
 40
0.5
 50
179.99999099999999
 51
269.99999700000001
  0
LINE
  8
_0-0_0
  6
CONTINUOUS
 62
    7
 10
-15.093552000000045
 20
781.75
 11
-11.593552000000045
 21
781.75
  0
ARC
  8
_0-0_0
  6
CONTINUOUS
 62
    7
 10
-11.593552000000045
 20
780.75
 40
1
 50
0
 51
90.000003000000007
  0
LINE
  8
_0-0_0
  6
CONTINUOUS
 62
    7
 10
-10.593552000000045
 20
776.25
 11
-10.593552000000045
 21
780.75
  0
ARC
  8
_0-0_0
  6
CONTINUOUS
 62
    7
 10
-10.093552000000045
 20
776.25
 40
0.5
 50
179.99999099999999
 51
269.99999700000001
  0
CIRCLE
  8
_0-0_0
  6
CONTINUOUS
 62
    7
 10
-1.5935520000000452
 20
784.75
 40
2.0670000000000002
  0
LINE
  8
_0-0_0
  6
CONTINUOUS
 62
    7
 10
-13.593552000000045
 20
819.75
 11
-13.593552000000045
 21
819.45001200000002
  0
LINE
  8
_0-0_0
  6
CONTINUOUS
 62
    7
 10
-13.593552000000045
 20
819.75
 11
-15.593552000000045
 21
819.75
  0
ARC
  8
_0-0_0
  6
CONTINUOUS
 62
    7
 10
-15.593552000000045
 20
819.25
 40
0.5
 50
90.000003000000007
 51
179.99999099999999
  0
LINE
  8
_0-0_0
  6
CONTINUOUS
 62
    7
 10
-16.093552000000045
 20
819.25
 11
-16.093552000000045
 21
781.75
  0
ARC
  8
_0-0_0
  6
CONTINUOUS
 62
    7
 10
-15.593552000000045
 20
781.75
 40
0.5
 50
179.99999099999999
 51
269.99999700000001
  0
LINE
  8
_0-0_0
  6
CONTINUOUS
 62
    7
 10
-11.593552000000045
 20
781.25
 11
-15.593552000000045
 21
781.25
  0
ARC
  8
_0-0_0
  6
CONTINUOUS
 62
    7
 10
-11.593552000000045
 20
780.75
 40
0.5
 50
0
 51
90.000003000000007
  0
LINE
  8
_0-0_0
  6
CONTINUOUS
 62
    7
 10
-11.093552000000045
 20
775.75
 11
-11.093552000000045
 21
780.75
  0
ARC
  8
_0-0_0
  6
CONTINUOUS
 62
    7
 10
-10.593552000000045
 20
775.75
 40
0.5
 50
179.99999099999999
 51
269.99999700000001
  0
LINE
  8
_0-0_0
  6
CONTINUOUS
 62
    7
 10
-10.593552000000045
 20
775.25
 11
-8.0935520000000452
 21
775.25
  0
ARC
  8
_0-0_0
  6
CONTINUOUS
 62
    7
 10
-8.0935520000000452
 20
775.75
 40
0.5
 50
269.99999700000001
 51
0
  0
LINE
  8
_0-0_0
  6
CONTINUOUS
 62
    7
 10
8.0064539999999624
 20
776.25
 11
8.1064449999998942
 21
776.25
  0
LINE
  8
_0-0_0
  6
CONTINUOUS
 62
    7
 10
8.0064539999999624
 20
776.25
 11
8.1064449999998942
 21
776.25
  0
ENDSEC
  0
EOF
