  0
SECTION
  2
HEADER
  9
$ACADVER
  1
AC1009
  9
$INSBASE
 10
0
 20
0
 30
0
  9
$EXTMIN
 10
0
 20
0
  9
$EXTMAX
 10
841
 20
594
  9
$LIMMIN
 10
0
 20
0
  9
$LIMMAX
 10
841
 20
594
  9
$LTSCALE
 40
1
  0
ENDSEC
  0
SECTION
  2
TABLES
  0
TABLE
  2
LTYPE
 70
     9
  0
LTYPE
  2
CONTINUOUS
 70
    64
  3
実線
 72
    65
 73
     0
 40
0.0
  0
LTYPE
  2
DASHED1
 70
    64
  3
--  --  --  --  --  --  --  --  
 72
    65
 73
     2
 40
2.5
 49
1.25
 49
-1.25
  0
LTYPE
  2
DASHED2
 70
    64
  3
----    ----    ----    ----    
 72
    65
 73
     2
 40
5.0
 49
2.5
 49
-2.5
  0
LTYPE
  2
DASHED3
 70
    64
  3
------  ------  ------  ------  
 72
    65
 73
     2
 40
5.0
 49
3.75
 49
-1.25
  0
LTYPE
  2
CENTER1
 70
    64
  3
----- - ----- - ----- - ----- - 
 72
    65
 73
     4
 40
10.0
 49
6.25
 49
-1.25
 49
1.25
 49
-1.25
  0
LTYPE
  2
CENTER2
 70
    64
  3
----------  --  ----------  --  
 72
    65
 73
     4
 40
20.0
 49
12.5
 49
-2.5
 49
2.5
 49
-2.5
  0
LTYPE
  2
PHANTOM1
 70
    64
  3
--- - - --- - - --- - - --- - - 
 72
    65
 73
     6
 40
10.0
 49
3.25
 49
-1.25
 49
1.25
 49
-1.25
 49
1.25
 49
-1.25
  0
LTYPE
  2
PHANTOM2
 70
    64
  3
--------  -  -  --------  -  -  
 72
    65
 73
     6
 40
20.0
 49
10.0
 49
-2.5
 49
1.25
 49
-2.5
 49
1.25
 49
-2.5
  0
LTYPE
  2
DOT
 70
    64
  3
-   -   -   -   -   -   -   -   
 72
    65
 73
     2
 40
2.5
 49
0.625
 49
-1.875
  0
LTYPE
  2
DUMMY
 70
    64
  3
ダミー
 72
    65
 73
     0
 40
0.0
  0
LTYPE
  2
RAND1
 70
    64
  3
ランダム線1
 72
    65
 73
     4
 40
10.0
 49
1.0
 49
-2.0
 49
3.0
 49
-4.0
  0
LTYPE
  2
RAND2
 70
    64
  3
ランダム線2
 72
    65
 73
     4
 40
14.0
 49
2.0
 49
-3.0
 49
4.0
 49
-5.0
  0
LTYPE
  2
RAND3
 70
    64
  3
ランダム線3
 72
    65
 73
     4
 40
18.0
 49
3.0
 49
-4.0
 49
5.0
 49
-6.0
  0
LTYPE
  2
RAND4
 70
    64
  3
ランダム線4
 72
    65
 73
     4
 40
22.0
 49
4.0
 49
-5.0
 49
6.0
 49
-7.0
  0
LTYPE
  2
RAND5
 70
    64
  3
ランダム線5
 72
    65
 73
     4
 40
26.0
 49
5.0
 49
-6.0
 49
7.0
 49
-8.0
  0
LTYPE
  2
LONG1
 70
    64
  3
----------  --  ----------  --  
 72
    65
 73
     4
 40
40.0
 49
32.5
 49
-2.5
 49
2.5
 49
-2.5
  0
LTYPE
  2
LONG2
 70
    64
  3
--------  -  -  --------  -  -  
 72
    65
 73
     6
 40
40.0
 49
30.0
 49
-2.5
 49
1.25
 49
-2.5
 49
1.25
 49
-2.5
  0
LTYPE
  2
LONG3
 70
    64
  3
+++++++++++++++..+++++++++++++++
 72
    65
 73
     2
 40
40.0
 49
37.5
 49
-2.5
  0
LTYPE
  2
LONG4
 70
    64
  3
+++++++++++++++..+++++++++++++++
 72
    65
 73
     2
 40
80.0
 49
75.0
 49
-5.0
  0
LTYPE
  2
LONG5
 70
    64
  3
----------  --  ----------  --  
 72
    65
 73
     4
 40
60.0
 49
37.5
 49
-7.5
 49
7.5
 49
-7.5
  0
LTYPE
  2
dashed
 70
   64
  3
-------   -------------   ------
 72
   65
 73
    2
 40
7.5
 49
6
 49
-1.5
  0
LTYPE
  2
dashed_spaced
 70
   64
  3
----        --------        ----
 72
   65
 73
    2
 40
12
 49
6
 49
-6
  0
LTYPE
  2
long_dashed_dotted
 70
   64
  3
------------- --- --------------
 72
   65
 73
    4
 40
15.25
 49
12
 49
-1.5
 49
0.25
 49
-1.5
  0
LTYPE
  2
long_dashed_double-dotted
 70
   64
  3
----------- --- --- ------------
 72
   65
 73
    6
 40
17
 49
12
 49
-1.5
 49
0.25
 49
-1.5
 49
0.25
 49
-1.5
  0
LTYPE
  2
long_dashed_triplicate-dotted
 70
   64
  3
--------- --- --- --- ----------
 72
   65
 73
    8
 40
18.75
 49
12
 49
-1.5
 49
0.25
 49
-1.5
 49
0.25
 49
-1.5
 49
0.25
 49
-1.5
  0
LTYPE
  2
dotted
 70
   64
  3
   -       -       -       -    
 72
   65
 73
    2
 40
1.75
 49
0.25
 49
-1.5
  0
LTYPE
  2
chain
 70
   64
  3
-------------- -- --------------
 72
   65
 73
    4
 40
18.5
 49
12
 49
-1.5
 49
3.5
 49
-1.5
  0
LTYPE
  2
chain_double_dash
 70
   64
  3
------------ -- -- -------------
 72
   65
 73
    6
 40
23.5
 49
12
 49
-1.5
 49
3.5
 49
-1.5
 49
3.5
 49
-1.5
  0
LTYPE
  2
dashed_dotted
 70
   64
  3
-----------     -     ----------
 72
   65
 73
    4
 40
9.25
 49
6
 49
-1.5
 49
0.25
 49
-1.5
  0
LTYPE
  2
double-dashed_dotted
 70
   64
  3
------   -----------   -   -----
 72
   65
 73
    6
 40
16.75
 49
6
 49
-1.5
 49
6
 49
-1.5
 49
0.25
 49
-1.5
  0
LTYPE
  2
dashed_double-dotted
 70
   64
  3
---------    -    -    ---------
 72
   65
 73
    6
 40
11
 49
6
 49
-1.5
 49
0.25
 49
-1.5
 49
0.25
 49
-1.5
  0
LTYPE
  2
double-dashed_double-dotted
 70
   64
  3
-----   ---------   -   -   ----
 72
   65
 73
    8
 40
18.5
 49
6
 49
-1.5
 49
6
 49
-1.5
 49
0.25
 49
-1.5
 49
0.25
 49
-1.5
  0
LTYPE
  2
dashed_triplicate-dotted
 70
   64
  3
-------    -    -    -    ------
 72
   65
 73
    8
 40
12.75
 49
6
 49
-1.5
 49
0.25
 49
-1.5
 49
0.25
 49
-1.5
 49
0.25
 49
-1.5
  0
LTYPE
  2
double-dashed_triplicate-dotted
 70
   64
  3
-----  ---------  -  -  -  -----
 72
   65
 73
   10
 40
20.25
 49
6
 49
-1.5
 49
6
 49
-1.5
 49
0.25
 49
-1.5
 49
0.25
 49
-1.5
 49
0.25
 49
-1.5
  0
LTYPE
  2
undefined
 70
   64
  3
--------------------------------
 72
   65
 73
    0
 40
0
  0
ENDTAB
  0
TABLE
  2
STYLE
  5
3
100
AcDbSymbolTable
 70
     1
  0
STYLE
  5
10
100
AcDbSymbolTableRecord
100
AcDbTextStyleTableRecord
  2
STANDARD
 70
     0
 40
0.0
 41
1.0
 50
0.0
 71
     0
 42
0.2
  3
txt
  4
bigfont.shx
  0
STYLE
  5
26
100
AcDbSymbolTableRecord
100
AcDbTextStyleTableRecord
  2
TATEGAKI
 70
    68
 40
0.0
 41
1.0
 50
0.0
 71
     0
 42
1.0
  3
txt
  4
bigfont.shx
  0
ENDTAB
  0
TABLE
  2
LAYER
 70
    2
  0
LAYER
  2
_0-0_0
 70
   64
 62
    7
  6
CONTINUOUS
  0
LAYER
  2
ADD_LINE
 70
   64
 62
    7
  6
CONTINUOUS
  0
ENDTAB
  0
ENDSEC
  0
SECTION
  2
BLOCKS
  0
ENDSEC
  0
SECTION
  2
ENTITIES
  0
ARC
  8
_0-0_0
  6
CONTINUOUS
 62
    7
 10
-92.668900000000008
 20
468.35000600000001
 40
0.2
 50
269.99999700000001
 51
20.376440000000013
  0
LINE
  8
_0-0_0
  6
CONTINUOUS
 62
    7
 10
-92.481415000000084
 20
468.419647
 11
-93.781418000000031
 21
471.919647
  0
ARC
  8
_0-0_0
  6
CONTINUOUS
 62
    7
 10
-93.968903000000068
 20
471.85000600000001
 40
0.2
 50
20.376439999999999
 51
159.62355600000001
  0
LINE
  8
_0-0_0
  6
CONTINUOUS
 62
    7
 10
-95.456383000000073
 20
468.419647
 11
-94.156386999999995
 21
471.919647
  0
ARC
  8
_0-0_0
  6
CONTINUOUS
 62
    7
 10
-95.268898000000036
 20
468.35000600000001
 40
0.2
 50
159.62355600000001
 51
269.99999700000001
  0
LINE
  8
_0-0_0
  6
CONTINUOUS
 62
    7
 10
-95.268898000000036
 20
468.15002399999997
 11
-92.668900000000008
 21
468.15002399999997
  0
LINE
  8
_0-0_0
  6
CONTINUOUS
 62
    7
 10
-170.78235600000005
 20
522.75051899999994
 11
-170.78235600000005
 21
522.74951199999998
  0
LINE
  8
_0-0_0
  6
CONTINUOUS
 62
    7
 10
-141.46890300000007
 20
476.25
 11
-136.46890300000007
 21
476.25
  0
LINE
  8
_0-0_0
  6
CONTINUOUS
 62
    7
 10
-136.46890300000007
 20
476.25
 11
-134.66890000000001
 21
476.25
  0
LINE
  8
_0-0_0
  6
CONTINUOUS
 62
    7
 10
-134.66890000000001
 20
476.25
 11
-133.96890300000007
 21
476.25
  0
ARC
  8
_0-0_0
  6
CONTINUOUS
 62
    7
 10
-134.66890000000001
 20
475.75
 40
0.5
 50
0
 51
90.000003000000007
  0
ARC
  8
_0-0_0
  6
CONTINUOUS
 62
    7
 10
-141.46890300000007
 20
475.75
 40
0.5
 50
90.000003000000007
 51
179.99999099999999
  0
ARC
  8
_0-0_0
  6
CONTINUOUS
 62
    7
 10
-37.968903000000068
 20
475.75
 40
0.5
 50
0
 51
90.000003000000007
  0
LINE
  8
_0-0_0
  6
CONTINUOUS
 62
    7
 10
-133.96890300000007
 20
476.25
 11
-133.96890300000007
 21
474.75
  0
LINE
  8
_0-0_0
  6
CONTINUOUS
 62
    7
 10
-133.96890300000007
 20
476.75
 11
-133.96890300000007
 21
476.25
  0
LINE
  8
_0-0_0
  6
CONTINUOUS
 62
    7
 10
-133.96890300000007
 20
477.25
 11
-133.96890300000007
 21
476.75
  0
LINE
  8
_0-0_0
  6
CONTINUOUS
 62
    7
 10
-133.96890300000007
 20
478.25
 11
-133.96890300000007
 21
477.25
  0
LINE
  8
_0-0_0
  6
CONTINUOUS
 62
    7
 10
-129.96890300000007
 20
476.25
 11
-129.26889800000004
 21
476.25
  0
LINE
  8
_0-0_0
  6
CONTINUOUS
 62
    7
 10
-134.16890000000001
 20
475.75
 11
-134.16890000000001
 21
474.75
  0
LINE
  8
_0-0_0
  6
CONTINUOUS
 62
    7
 10
-130.96890300000007
 20
449.25
 11
-130.96890300000007
 21
450.85000600000001
  0
LINE
  8
_0-0_0
  6
CONTINUOUS
 62
    7
 10
-130.96890300000007
 20
449.25
 11
-136.46890300000007
 21
449.25
  0
LINE
  8
_0-0_0
  6
CONTINUOUS
 62
    7
 10
-114.96890300000007
 20
455.95001200000002
 11
-72.968903000000068
 21
455.95001200000002
  0
LINE
  8
_0-0_0
  6
CONTINUOUS
 62
    7
 10
-114.96890300000007
 20
475.55001800000002
 11
-72.968903000000068
 21
475.55001800000002
  0
LINE
  8
_0-0_0
  6
CONTINUOUS
 62
    7
 10
-51.468903000000068
 20
449.25
 11
-60.968903000000068
 21
449.25
  0
LINE
  8
_0-0_0
  6
CONTINUOUS
 62
    7
 10
-60.968903000000068
 20
449.25
 11
-60.968903000000068
 21
450.85000600000001
  0
ARC
  8
_0-0_0
  6
CONTINUOUS
 62
    7
 10
-61.268906000000015
 20
450.85000600000001
 40
0.2999999999999999
 50
0
 51
90.000003000000007
  0
LINE
  8
_0-0_0
  6
CONTINUOUS
 62
    7
 10
-61.968903000000068
 20
451.15002399999997
 11
-61.268906000000015
 21
451.15002399999997
  0
LINE
  8
_0-0_0
  6
CONTINUOUS
 62
    7
 10
-62.468903000000068
 20
451.55001800000002
 11
-61.968903000000068
 21
451.55001800000002
  0
LINE
  8
_0-0_0
  6
CONTINUOUS
 62
    7
 10
-75.968903000000068
 20
451.55001800000002
 11
-62.468903000000068
 21
451.55001800000002
  0
ARC
  8
_0-0_0
  6
CONTINUOUS
 62
    7
 10
-78.468903000000068
 20
451.55001800000002
 40
2.5
 50
0
 51
90.000003000000007
  0
LINE
  8
_0-0_0
  6
CONTINUOUS
 62
    7
 10
-109.46890300000007
 20
454.05001800000002
 11
-78.468903000000068
 21
454.05001800000002
  0
ARC
  8
_0-0_0
  6
CONTINUOUS
 62
    7
 10
-109.46890300000007
 20
451.55001800000002
 40
2.5
 50
90.000003000000007
 51
179.99999099999999
  0
LINE
  8
_0-0_0
  6
CONTINUOUS
 62
    7
 10
-129.46890300000007
 20
451.55001800000002
 11
-111.96890300000007
 21
451.55001800000002
  0
LINE
  8
_0-0_0
  6
CONTINUOUS
 62
    7
 10
-129.96890300000007
 20
451.55001800000002
 11
-129.46890300000007
 21
451.55001800000002
  0
LINE
  8
_0-0_0
  6
CONTINUOUS
 62
    7
 10
-130.66890000000001
 20
451.15002399999997
 11
-129.96890300000007
 21
451.15002399999997
  0
ARC
  8
_0-0_0
  6
CONTINUOUS
 62
    7
 10
-130.66890000000001
 20
450.85000600000001
 40
0.2999999999999999
 50
90.000003000000007
 51
179.99999099999999
  0
LINE
  8
_0-0_0
  6
CONTINUOUS
 62
    7
 10
-141.96890300000007
 20
473.97485399999999
 11
-141.96890300000007
 21
475.75
  0
LINE
  8
_0-0_0
  6
CONTINUOUS
 62
    7
 10
-136.96890300000007
 20
476.25
 11
-136.96890300000007
 21
476.65002399999997
  0
LINE
  8
_0-0_0
  6
CONTINUOUS
 62
    7
 10
-136.96890300000007
 20
477.15002399999997
 11
-136.96890300000007
 21
476.65002399999997
  0
LINE
  8
_0-0_0
  6
CONTINUOUS
 62
    7
 10
-37.468903000000068
 20
478.25
 11
-37.468903000000068
 21
476.75
  0
LINE
  8
_0-0_0
  6
CONTINUOUS
 62
    7
 10
-37.468903000000068
 20
476.75
 11
-37.468903000000068
 21
475.75
  0
LINE
  8
_0-0_0
  6
CONTINUOUS
 62
    7
 10
-37.468903000000068
 20
474.95001200000002
 11
-37.468903000000068
 21
475.75
  0
LINE
  8
_0-0_0
  6
CONTINUOUS
 62
    7
 10
-37.968903000000068
 20
476.25
 11
-37.468903000000068
 21
476.25
  0
LINE
  8
_0-0_0
  6
CONTINUOUS
 62
    7
 10
-50.468903000000068
 20
476.25
 11
-37.968903000000068
 21
476.25
  0
LINE
  8
_0-0_0
  6
CONTINUOUS
 62
    7
 10
-37.468903000000068
 20
478.25
 11
-37.468903000000068
 21
477.25
  0
LINE
  8
_0-0_0
  6
CONTINUOUS
 62
    7
 10
-37.468903000000068
 20
476.75
 11
-37.468903000000068
 21
476.25
  0
LINE
  8
_0-0_0
  6
CONTINUOUS
 62
    7
 10
-37.468903000000068
 20
477.25
 11
-37.468903000000068
 21
476.75
  0
ARC
  8
_0-0_0
  6
CONTINUOUS
 62
    7
 10
-131.96890300000007
 20
474.75
 40
2
 50
179.99999099999999
 51
0
  0
LINE
  8
_0-0_0
  6
CONTINUOUS
 62
    7
 10
-50.968903000000068
 20
476.25
 11
-50.468903000000068
 21
476.25
  0
LINE
  8
_0-0_0
  6
CONTINUOUS
 62
    7
 10
-50.968903000000068
 20
475.75
 11
-50.968903000000068
 21
476.25
  0
LINE
  8
_0-0_0
  6
CONTINUOUS
 62
    7
 10
-50.968903000000068
 20
474.75
 11
-50.968903000000068
 21
474.95001200000002
  0
ARC
  8
_0-0_0
  6
CONTINUOUS
 62
    7
 10
-52.968903000000068
 20
474.75
 40
2
 50
179.99999099999999
 51
0
  0
LINE
  8
_0-0_0
  6
CONTINUOUS
 62
    7
 10
-54.968903000000068
 20
476.25
 11
-54.968903000000068
 21
474.75
  0
LINE
  8
_0-0_0
  6
CONTINUOUS
 62
    7
 10
-55.668900000000008
 20
476.25
 11
-54.968903000000068
 21
476.25
  0
LINE
  8
_0-0_0
  6
CONTINUOUS
 62
    7
 10
-129.96890300000007
 20
474.75
 11
-129.96890300000007
 21
476.25
  0
LINE
  8
_0-0_0
  6
CONTINUOUS
 62
    7
 10
-133.96890300000007
 20
477.25
 11
-37.468903000000068
 21
477.25
  0
ARC
  8
_0-0_0
  6
CONTINUOUS
 62
    7
 10
-129.26889800000004
 20
475.75
 40
0.5
 50
90.000003000000007
 51
179.99999099999999
  0
ARC
  8
_0-0_0
  6
CONTINUOUS
 62
    7
 10
-131.96890300000007
 20
474.75
 40
2.2000000000000002
 50
179.99999099999999
 51
0
  0
LINE
  8
_0-0_0
  6
CONTINUOUS
 62
    7
 10
-129.96890300000007
 20
451.15002399999997
 11
-129.46890300000007
 21
451.15002399999997
  0
LINE
  8
_0-0_0
  6
CONTINUOUS
 62
    7
 10
-129.46890300000007
 20
451.55001800000002
 11
-129.46890300000007
 21
451.15002399999997
  0
LINE
  8
_0-0_0
  6
CONTINUOUS
 62
    7
 10
-111.96890300000007
 20
451.55001800000002
 11
-75.968903000000068
 21
451.55001800000002
  0
LINE
  8
_0-0_0
  6
CONTINUOUS
 62
    7
 10
-62.468903000000068
 20
451.15002399999997
 11
-61.968903000000068
 21
451.15002399999997
  0
LINE
  8
_0-0_0
  6
CONTINUOUS
 62
    7
 10
-62.468903000000068
 20
451.55001800000002
 11
-62.468903000000068
 21
451.15002399999997
  0
LINE
  8
_0-0_0
  6
CONTINUOUS
 62
    7
 10
-51.468903000000068
 20
448.75
 11
-60.468903000000068
 21
448.75
  0
ARC
  8
_0-0_0
  6
CONTINUOUS
 62
    7
 10
-60.468903000000068
 20
449.25
 40
0.5
 50
179.99999099999999
 51
269.99999700000001
  0
LINE
  8
_0-0_0
  6
CONTINUOUS
 62
    7
 10
-51.468903000000068
 20
449.25
 11
-50.968903000000068
 21
449.25
  0
LINE
  8
_0-0_0
  6
CONTINUOUS
 62
    7
 10
-50.968903000000068
 20
449.25
 11
-50.968903000000068
 21
449.45001200000002
  0
LINE
  8
_0-0_0
  6
CONTINUOUS
 62
    7
 10
-46.468903000000068
 20
449.65002399999997
 11
-50.768906000000015
 21
449.65002399999997
  0
LINE
  8
_0-0_0
  6
CONTINUOUS
 62
    7
 10
-45.968903000000068
 20
450.15002399999997
 11
-45.968903000000068
 21
451.92514
  0
ARC
  8
_0-0_0
  6
CONTINUOUS
 62
    7
 10
-49.016861000000063
 20
451.86901899999998
 40
3.0490550000000001
 50
1.0548960000000001
 51
14.838094000000002
  0
LINE
  8
_0-0_0
  6
CONTINUOUS
 62
    7
 10
-46.468903000000068
 20
452.85000600000001
 11
-50.836441000000036
 21
452.85000600000001
  0
LINE
  8
_0-0_0
  6
CONTINUOUS
 62
    7
 10
-50.968903000000068
 20
452.99145499999997
 11
-50.968903000000068
 21
453.09643599999998
  0
ARC
  8
_0-0_0
  6
CONTINUOUS
 62
    7
 10
-52.968903000000068
 20
474.75
 40
2.2000000000000002
 50
179.99999099999999
 51
303.74900400000001
  0
LINE
  8
_0-0_0
  6
CONTINUOUS
 62
    7
 10
-55.168900000000008
 20
475.75
 11
-55.168900000000008
 21
474.75
  0
LINE
  8
_0-0_0
  6
CONTINUOUS
 62
    7
 10
-55.668900000000008
 20
476.25
 11
-129.26889800000004
 21
476.25
  0
LINE
  8
_0-0_0
  6
CONTINUOUS
 62
    7
 10
-129.76889800000004
 20
474.75
 11
-129.76889800000004
 21
475.75
  0
LINE
  8
_0-0_0
  6
CONTINUOUS
 62
    7
 10
-129.26889800000004
 20
474.55001800000002
 11
-129.26889800000004
 21
474.75
  0
ARC
  8
_0-0_0
  6
CONTINUOUS
 62
    7
 10
-128.26889800000004
 20
474.55001800000002
 40
1
 50
90.000003000000007
 51
179.99999099999999
  0
LINE
  8
_0-0_0
  6
CONTINUOUS
 62
    7
 10
-128.26889800000004
 20
475.55001800000002
 11
-114.96890300000007
 21
475.55001800000002
  0
LINE
  8
_0-0_0
  6
CONTINUOUS
 62
    7
 10
-72.968903000000068
 20
475.55001800000002
 11
-58.968903000000068
 21
475.55001800000002
  0
ARC
  8
_0-0_0
  6
CONTINUOUS
 62
    7
 10
-58.968903000000068
 20
472.55001800000002
 40
3
 50
0
 51
90.000003000000007
  0
LINE
  8
_0-0_0
  6
CONTINUOUS
 62
    7
 10
-55.968903000000068
 20
458.95001200000002
 11
-55.968903000000068
 21
472.55001800000002
  0
ARC
  8
_0-0_0
  6
CONTINUOUS
 62
    7
 10
-58.968903000000068
 20
458.95001200000002
 40
3
 50
269.99999700000001
 51
0
  0
LINE
  8
_0-0_0
  6
CONTINUOUS
 62
    7
 10
-58.968903000000068
 20
455.95001200000002
 11
-72.968903000000068
 21
455.95001200000002
  0
LINE
  8
_0-0_0
  6
CONTINUOUS
 62
    7
 10
-114.96890300000007
 20
455.95001200000002
 11
-128.96890300000007
 21
455.95001200000002
  0
ARC
  8
_0-0_0
  6
CONTINUOUS
 62
    7
 10
-128.96890300000007
 20
458.95001200000002
 40
3
 50
179.99999099999999
 51
269.99999700000001
  0
LINE
  8
_0-0_0
  6
CONTINUOUS
 62
    7
 10
-131.96890300000007
 20
471.18771400000003
 11
-131.96890300000007
 21
458.95001200000002
  0
ARC
  8
_0-0_0
  6
CONTINUOUS
 62
    7
 10
-130.96890300000007
 20
471.18771400000003
 40
1
 50
105.68034800000001
 51
179.99999100000002
  0
ARC
  8
_0-0_0
  6
CONTINUOUS
 62
    7
 10
-138.92093700000009
 20
474.03100599999999
 40
3.0490550000000001
 50
181.05489
 51
194.838089
  0
LINE
  8
_0-0_0
  6
CONTINUOUS
 62
    7
 10
-137.10135700000001
 20
473.05001800000002
 11
-141.46890300000007
 21
473.05001800000002
  0
LINE
  8
_0-0_0
  6
CONTINUOUS
 62
    7
 10
-136.96890300000007
 20
452.99145499999997
 11
-136.96890300000007
 21
453.29168700000002
  0
LINE
  8
_0-0_0
  6
CONTINUOUS
 62
    7
 10
-137.10135700000001
 20
452.85000600000001
 11
-141.46890300000007
 21
452.85000600000001
  0
ARC
  8
_0-0_0
  6
CONTINUOUS
 62
    7
 10
-138.91975400000001
 20
451.86834700000003
 40
3.050319
 50
165.15540799999999
 51
178.932897
  0
LINE
  8
_0-0_0
  6
CONTINUOUS
 62
    7
 10
-141.96890300000007
 20
450.15002399999997
 11
-141.96890300000007
 21
451.92514
  0
LINE
  8
_0-0_0
  6
CONTINUOUS
 62
    7
 10
-137.16890000000001
 20
449.65002399999997
 11
-141.46890300000007
 21
449.65002399999997
  0
LINE
  8
_0-0_0
  6
CONTINUOUS
 62
    7
 10
-136.96890300000007
 20
449.25
 11
-136.96890300000007
 21
449.45001200000002
  0
LINE
  8
_0-0_0
  6
CONTINUOUS
 62
    7
 10
-136.96890300000007
 20
449.25
 11
-136.46890300000007
 21
449.25
  0
LINE
  8
_0-0_0
  6
CONTINUOUS
 62
    7
 10
-131.46890300000007
 20
448.75
 11
-136.46890300000007
 21
448.75
  0
ARC
  8
_0-0_0
  6
CONTINUOUS
 62
    7
 10
-131.46890300000007
 20
449.25
 40
0.5
 50
269.99999700000001
 51
0
  0
LINE
  8
_0-0_0
  6
CONTINUOUS
 62
    7
 10
-141.65064200000006
 20
473.05001800000002
 11
-141.67099800000005
 21
473.05102499999998
  0
LINE
  8
_0-0_0
  6
CONTINUOUS
 62
    7
 10
-141.67099800000005
 20
473.05102499999998
 11
-141.69139900000005
 21
473.054169
  0
LINE
  8
_0-0_0
  6
CONTINUOUS
 62
    7
 10
-141.69139900000005
 20
473.054169
 11
-141.71822400000008
 21
473.06176799999997
  0
LINE
  8
_0-0_0
  6
CONTINUOUS
 62
    7
 10
-141.71822400000008
 20
473.06176799999997
 11
-141.74386600000003
 21
473.07312000000002
  0
LINE
  8
_0-0_0
  6
CONTINUOUS
 62
    7
 10
-141.74386600000003
 20
473.07312000000002
 11
-141.76767000000007
 21
473.08801299999999
  0
LINE
  8
_0-0_0
  6
CONTINUOUS
 62
    7
 10
-141.76767000000007
 20
473.08801299999999
 11
-141.78442400000006
 21
473.10150099999998
  0
LINE
  8
_0-0_0
  6
CONTINUOUS
 62
    7
 10
-141.78442400000006
 20
473.10150099999998
 11
-141.79992700000003
 21
473.11676
  0
LINE
  8
_0-0_0
  6
CONTINUOUS
 62
    7
 10
-141.79992700000003
 20
473.11676
 11
-141.82682
 21
473.15139799999997
  0
LINE
  8
_0-0_0
  6
CONTINUOUS
 62
    7
 10
-141.82682
 20
473.15139799999997
 11
-141.84786200000008
 21
473.189728
  0
LINE
  8
_0-0_0
  6
CONTINUOUS
 62
    7
 10
-141.84786200000008
 20
473.189728
 11
-141.85986300000002
 21
473.21963499999998
  0
LINE
  8
_0-0_0
  6
CONTINUOUS
 62
    7
 10
-141.85986300000002
 20
473.21963499999998
 11
-141.86890400000004
 21
473.25
  0
LINE
  8
_0-0_0
  6
CONTINUOUS
 62
    7
 10
-136.96890300000007
 20
477.15002399999997
 11
-136.96890300000007
 21
478.25
  0
LINE
  8
_0-0_0
  6
CONTINUOUS
 62
    7
 10
-142.46890300000007
 20
474.60000600000001
 11
-141.96890300000007
 21
474.60000600000001
  0
LINE
  8
_0-0_0
  6
CONTINUOUS
 62
    7
 10
-142.46890300000007
 20
477.15002399999997
 11
-136.96890300000007
 21
477.15002399999997
  0
ARC
  8
_0-0_0
  6
CONTINUOUS
 62
    7
 10
-37.968903000000068
 20
474.95001200000002
 40
0.5
 50
269.99999700000001
 51
0
  0
ARC
  8
_0-0_0
  6
CONTINUOUS
 62
    7
 10
-50.468903000000068
 20
475.75
 40
0.5
 50
90.000003000000007
 51
179.99999099999999
  0
LINE
  8
_0-0_0
  6
CONTINUOUS
 62
    7
 10
-50.968903000000068
 20
474.95001200000002
 11
-50.968903000000068
 21
475.75
  0
LINE
  8
_0-0_0
  6
CONTINUOUS
 62
    7
 10
-130.76889800000004
 20
451.13284299999998
 11
-130.76889800000004
 21
449.15002399999997
  0
LINE
  8
_0-0_0
  6
CONTINUOUS
 62
    7
 10
-130.76889800000004
 20
449.15002399999997
 11
-129.76889800000004
 21
449.15002399999997
  0
LINE
  8
_0-0_0
  6
CONTINUOUS
 62
    7
 10
-129.46890300000007
 20
451.15002399999997
 11
-62.468903000000068
 21
451.15002399999997
  0
LINE
  8
_0-0_0
  6
CONTINUOUS
 62
    7
 10
-129.76889800000004
 20
449.15002399999997
 11
-62.168900000000008
 21
449.15002399999997
  0
LINE
  8
_0-0_0
  6
CONTINUOUS
 62
    7
 10
-62.168900000000008
 20
449.15002399999997
 11
-61.168900000000008
 21
449.15002399999997
  0
LINE
  8
_0-0_0
  6
CONTINUOUS
 62
    7
 10
-61.168900000000008
 20
451.13284299999998
 11
-61.168900000000008
 21
449.15002399999997
  0
LINE
  8
_0-0_0
  6
CONTINUOUS
 62
    7
 10
-50.968903000000068
 20
449.25
 11
-51.468903000000068
 21
448.75
  0
ARC
  8
_0-0_0
  6
CONTINUOUS
 62
    7
 10
-50.768906000000015
 20
449.45001200000002
 40
0.2
 50
90.000003000000007
 51
179.99999099999999
  0
ARC
  8
_0-0_0
  6
CONTINUOUS
 62
    7
 10
-46.468903000000068
 20
450.15002399999997
 40
0.5
 50
269.99999700000001
 51
0
  0
LINE
  8
_0-0_0
  6
CONTINUOUS
 62
    7
 10
-46.287155000000041
 20
452.85000600000001
 11
-46.266800000000046
 21
452.84899899999999
  0
LINE
  8
_0-0_0
  6
CONTINUOUS
 62
    7
 10
-46.266800000000046
 20
452.84899899999999
 11
-46.246399000000054
 21
452.84585600000003
  0
LINE
  8
_0-0_0
  6
CONTINUOUS
 62
    7
 10
-46.246399000000054
 20
452.84585600000003
 11
-46.21957400000008
 21
452.838257
  0
LINE
  8
_0-0_0
  6
CONTINUOUS
 62
    7
 10
-46.21957400000008
 20
452.838257
 11
-46.193939
 21
452.82690400000001
  0
LINE
  8
_0-0_0
  6
CONTINUOUS
 62
    7
 10
-46.193939
 20
452.82690400000001
 11
-46.17013600000007
 21
452.81201199999998
  0
LINE
  8
_0-0_0
  6
CONTINUOUS
 62
    7
 10
-46.17013600000007
 20
452.81201199999998
 11
-46.153381000000081
 21
452.79849200000001
  0
LINE
  8
_0-0_0
  6
CONTINUOUS
 62
    7
 10
-46.153381000000081
 20
452.79849200000001
 11
-46.137878000000001
 21
452.78326399999997
  0
LINE
  8
_0-0_0
  6
CONTINUOUS
 62
    7
 10
-46.137878000000001
 20
452.78326399999997
 11
-46.110977000000048
 21
452.748627
  0
LINE
  8
_0-0_0
  6
CONTINUOUS
 62
    7
 10
-46.110977000000048
 20
452.748627
 11
-46.089935000000082
 21
452.71029700000003
  0
LINE
  8
_0-0_0
  6
CONTINUOUS
 62
    7
 10
-46.089935000000082
 20
452.71029700000003
 11
-46.077942000000007
 21
452.68035900000001
  0
LINE
  8
_0-0_0
  6
CONTINUOUS
 62
    7
 10
-46.077942000000007
 20
452.68035900000001
 11
-46.068893000000003
 21
452.65002399999997
  0
LINE
  8
_0-0_0
  6
CONTINUOUS
 62
    7
 10
-46.287155000000041
 20
452.85000600000001
 11
-46.468903000000068
 21
452.85000600000001
  0
LINE
  8
_0-0_0
  6
CONTINUOUS
 62
    7
 10
-50.968903000000068
 20
454.15002399999997
 11
-50.968903000000068
 21
453.09643599999998
  0
LINE
  8
_0-0_0
  6
CONTINUOUS
 62
    7
 10
-50.968903000000068
 20
454.15002399999997
 11
-50.968903000000068
 21
471.75
  0
LINE
  8
_0-0_0
  6
CONTINUOUS
 62
    7
 10
-50.968903000000068
 20
473.72738600000002
 11
-50.968903000000068
 21
471.75
  0
ARC
  8
_0-0_0
  6
CONTINUOUS
 62
    7
 10
-51.468903000000068
 20
472.50500499999998
 40
0.5
 50
0
 51
123.74898500000002
  0
ARC
  8
_0-0_0
  6
CONTINUOUS
 62
    7
 10
-50.798615000000041
 20
453.02331500000003
 40
0.1734229999999999
 50
181.12417600000003
 51
270.64883800000007
  0
LINE
  8
_0-0_0
  6
CONTINUOUS
 62
    7
 10
-50.972946000000036
 20
453.05001800000002
 11
-50.972855000000038
 21
453.01986699999998
  0
ARC
  8
_0-0_0
  6
CONTINUOUS
 62
    7
 10
-55.668900000000008
 20
475.75
 40
0.5
 50
0
 51
90.000003000000007
  0
ARC
  8
_0-0_0
  6
CONTINUOUS
 62
    7
 10
-131.96890300000007
 20
474.75
 40
2.7000000000000002
 50
285.68033600000007
 51
0.0000000000000381
  0
ARC
  8
_0-0_0
  6
CONTINUOUS
 62
    7
 10
-114.96890300000007
 20
458.95001200000002
 40
3
 50
269.99999700000001
 51
0
  0
LINE
  8
_0-0_0
  6
CONTINUOUS
 62
    7
 10
-111.96890300000007
 20
458.95001200000002
 11
-111.96890300000007
 21
472.55001800000002
  0
ARC
  8
_0-0_0
  6
CONTINUOUS
 62
    7
 10
-114.96890300000007
 20
472.55001800000002
 40
3
 50
0
 51
90.000003000000007
  0
ARC
  8
_0-0_0
  6
CONTINUOUS
 62
    7
 10
-119.46890300000007
 20
468.25
 40
4.5
 50
269.99999700000001
 51
90.000002999999992
  0
LINE
  8
_0-0_0
  6
CONTINUOUS
 62
    7
 10
-119.46890300000007
 20
463.75
 11
-124.46890300000007
 21
463.75
  0
ARC
  8
_0-0_0
  6
CONTINUOUS
 62
    7
 10
-124.46890300000007
 20
468.25
 40
4.5
 50
90.000003000000007
 51
269.99999700000006
  0
LINE
  8
_0-0_0
  6
CONTINUOUS
 62
    7
 10
-124.46890300000007
 20
472.75
 11
-119.46890300000007
 21
472.75
  0
ARC
  8
_0-0_0
  6
CONTINUOUS
 62
    7
 10
-72.968903000000068
 20
458.95001200000002
 40
3
 50
179.99999099999999
 51
269.99999700000001
  0
LINE
  8
_0-0_0
  6
CONTINUOUS
 62
    7
 10
-75.968903000000068
 20
472.55001800000002
 11
-75.968903000000068
 21
458.95001200000002
  0
ARC
  8
_0-0_0
  6
CONTINUOUS
 62
    7
 10
-72.968903000000068
 20
472.55001800000002
 40
3
 50
90.000003000000007
 51
179.99999099999999
  0
ARC
  8
_0-0_0
  6
CONTINUOUS
 62
    7
 10
-63.468903000000068
 20
468.25
 40
4.5
 50
269.99999700000001
 51
90.000002999999992
  0
LINE
  8
_0-0_0
  6
CONTINUOUS
 62
    7
 10
-63.468903000000068
 20
463.75
 11
-68.468903000000068
 21
463.75
  0
ARC
  8
_0-0_0
  6
CONTINUOUS
 62
    7
 10
-68.468903000000068
 20
468.25
 40
4.5
 50
90.000003000000007
 51
269.99999700000006
  0
LINE
  8
_0-0_0
  6
CONTINUOUS
 62
    7
 10
-68.468903000000068
 20
472.75
 11
-63.468903000000068
 21
472.75
  0
LINE
  8
_0-0_0
  6
CONTINUOUS
 62
    7
 10
-141.46890300000007
 20
473.05001800000002
 11
-141.65064200000006
 21
473.05001800000002
  0
LINE
  8
_0-0_0
  6
CONTINUOUS
 62
    7
 10
-136.96890300000007
 20
454.95001200000002
 11
-136.96890300000007
 21
453.29168700000002
  0
LINE
  8
_0-0_0
  6
CONTINUOUS
 62
    7
 10
-136.96890300000007
 20
454.95001200000002
 11
-136.96890300000007
 21
471.45001200000002
  0
LINE
  8
_0-0_0
  6
CONTINUOUS
 62
    7
 10
-136.96890300000007
 20
472.91629
 11
-136.96890300000007
 21
471.45001200000002
  0
ARC
  8
_0-0_0
  6
CONTINUOUS
 62
    7
 10
-137.13919099999998
 20
453.02328499999999
 40
0.1734209999999999
 50
269.35085600000002
 51
358.87625300000002
  0
LINE
  8
_0-0_0
  6
CONTINUOUS
 62
    7
 10
-136.96485900000005
 20
453.05001800000002
 11
-136.96493500000008
 21
453.01986699999998
  0
LINE
  8
_0-0_0
  6
CONTINUOUS
 62
    7
 10
-136.96485900000005
 20
472.85000600000001
 11
-136.96493500000008
 21
472.88012700000002
  0
ARC
  8
_0-0_0
  6
CONTINUOUS
 62
    7
 10
-137.13919099999998
 20
472.87670900000001
 40
0.1734219999999999
 50
1.1236539999999999
 51
90.649110000000007
  0
LINE
  8
_0-0_0
  6
CONTINUOUS
 62
    7
 10
-141.46890300000007
 20
452.85000600000001
 11
-141.65064200000006
 21
452.85000600000001
  0
LINE
  8
_0-0_0
  6
CONTINUOUS
 62
    7
 10
-141.65065000000004
 20
452.85000600000001
 11
-141.67099800000005
 21
452.84899899999999
  0
LINE
  8
_0-0_0
  6
CONTINUOUS
 62
    7
 10
-141.67099800000005
 20
452.84899899999999
 11
-141.69140600000003
 21
452.84582499999999
  0
LINE
  8
_0-0_0
  6
CONTINUOUS
 62
    7
 10
-141.69140600000003
 20
452.84582499999999
 11
-141.71822400000008
 21
452.838257
  0
LINE
  8
_0-0_0
  6
CONTINUOUS
 62
    7
 10
-141.71822400000008
 20
452.838257
 11
-141.74386600000003
 21
452.82690400000001
  0
LINE
  8
_0-0_0
  6
CONTINUOUS
 62
    7
 10
-141.74386600000003
 20
452.82690400000001
 11
-141.76767000000007
 21
452.81201199999998
  0
LINE
  8
_0-0_0
  6
CONTINUOUS
 62
    7
 10
-141.76767000000007
 20
452.81201199999998
 11
-141.78442400000006
 21
452.79849200000001
  0
LINE
  8
_0-0_0
  6
CONTINUOUS
 62
    7
 10
-141.78442400000006
 20
452.79849200000001
 11
-141.79992700000003
 21
452.78326399999997
  0
LINE
  8
_0-0_0
  6
CONTINUOUS
 62
    7
 10
-141.79992700000003
 20
452.78326399999997
 11
-141.82682
 21
452.748627
  0
LINE
  8
_0-0_0
  6
CONTINUOUS
 62
    7
 10
-141.82682
 20
452.748627
 11
-141.84786200000008
 21
452.71029700000003
  0
LINE
  8
_0-0_0
  6
CONTINUOUS
 62
    7
 10
-141.84786200000008
 20
452.71029700000003
 11
-141.85986300000002
 21
452.68035900000001
  0
LINE
  8
_0-0_0
  6
CONTINUOUS
 62
    7
 10
-141.85986300000002
 20
452.68035900000001
 11
-141.86890400000004
 21
452.65002399999997
  0
ARC
  8
_0-0_0
  6
CONTINUOUS
 62
    7
 10
-141.46890300000007
 20
450.15002399999997
 40
0.5
 50
179.99999099999999
 51
269.99999700000001
  0
ARC
  8
_0-0_0
  6
CONTINUOUS
 62
    7
 10
-137.16890000000001
 20
449.45001200000002
 40
0.2
 50
0
 51
90.000003000000007
  0
LINE
  8
_0-0_0
  6
CONTINUOUS
 62
    7
 10
-136.96890300000007
 20
449.25
 11
-136.46890300000007
 21
448.75
  0
LINE
  8
_0-0_0
  6
CONTINUOUS
 62
    7
 10
-142.96890300000007
 20
475.09429899999998
 11
-142.96890300000007
 21
476.65002399999997
  0
ARC
  8
_0-0_0
  6
CONTINUOUS
 62
    7
 10
-142.4819950000001
 20
475.09765599999997
 40
0.4869939999999999
 50
180.39493000000002
 51
203.93946700000001
  0
ARC
  8
_0-0_0
  6
CONTINUOUS
 62
    7
 10
-142.46890300000007
 20
475.10000600000001
 40
0.5
 50
203.57823099999999
 51
269.99999700000001
  0
ARC
  8
_0-0_0
  6
CONTINUOUS
 62
    7
 10
-142.46890300000007
 20
476.65002399999997
 40
0.5
 50
90.000003000000007
 51
179.99999099999999
  0
LINE
  8
_0-0_0
  6
CONTINUOUS
 62
    7
 10
-50.968903000000068
 20
474.45001200000002
 11
-50.468903000000068
 21
474.45001200000002
  0
LINE
  8
_0-0_0
  6
CONTINUOUS
 62
    7
 10
-50.468903000000068
 20
474.45001200000002
 11
-37.968903000000068
 21
474.45001200000002
  0
ARC
  8
_0-0_0
  6
CONTINUOUS
 62
    7
 10
-50.468903000000068
 20
474.95001200000002
 40
0.5
 50
179.99999099999999
 51
269.99999700000001
  0
LINE
  8
_0-0_0
  6
CONTINUOUS
 62
    7
 10
-50.968903000000068
 20
474.08398399999999
 11
-50.968903000000068
 21
474.45001200000002
  0
LINE
  8
_0-0_0
  6
CONTINUOUS
 62
    7
 10
-50.968903000000068
 20
473.83349600000003
 11
-50.968903000000068
 21
473.72738600000002
  0
LINE
  8
_0-0_0
  6
CONTINUOUS
 62
    7
 10
-50.968903000000068
 20
474.08398399999999
 11
-50.968903000000068
 21
473.83349600000003
  0
CIRCLE
  8
_0-0_0
  6
CONTINUOUS
 62
    7
 10
-131.96890300000007
 20
474.75
 40
1.4750000000000001
  0
CIRCLE
  8
_0-0_0
  6
CONTINUOUS
 62
    7
 10
-52.968903000000068
 20
474.75
 40
1.4750000000000001
  0
LINE
  8
_0-0_0
  6
CONTINUOUS
 62
    7
 10
-142.96890300000007
 20
454.95001200000002
 11
-142.96890300000007
 21
452.45001200000002
  0
LINE
  8
_0-0_0
  6
CONTINUOUS
 62
    7
 10
-142.96890300000007
 20
454.95001200000002
 11
-142.96890300000007
 21
467.75
  0
LINE
  8
_0-0_0
  6
CONTINUOUS
 62
    7
 10
-142.96890300000007
 20
471.25
 11
-142.96890300000007
 21
467.75
  0
LINE
  8
_0-0_0
  6
CONTINUOUS
 62
    7
 10
-142.96890300000007
 20
471.25
 11
-142.96890300000007
 21
471.60000600000001
  0
LINE
  8
_0-0_0
  6
CONTINUOUS
 62
    7
 10
-142.96890300000007
 20
475.09429899999998
 11
-142.96890300000007
 21
471.60000600000001
  0
LINE
  8
_0-0_0
  6
CONTINUOUS
 62
    7
 10
-142.96890300000007
 20
476.942902
 11
-142.96890300000007
 21
476.65002399999997
  0
LINE
  8
_0-0_0
  6
CONTINUOUS
 62
    7
 10
-142.96890300000007
 20
476.942902
 11
-142.96890300000007
 21
477
  0
LINE
  8
_0-0_0
  6
CONTINUOUS
 62
    7
 10
-141.96836900000005
 20
451.95001200000002
 11
-142.46890300000007
 21
451.95001200000002
  0
LINE
  8
_0-0_0
  6
CONTINUOUS
 62
    7
 10
-45.980103000000042
 20
452.15002399999997
 11
-38.968903000000068
 21
452.15002399999997
  0
LINE
  8
_0-0_0
  6
CONTINUOUS
 62
    7
 10
-38.968903000000068
 20
452.15002399999997
 11
-34.293457000000046
 21
452.15002399999997
  0
LINE
  8
_0-0_0
  6
CONTINUOUS
 62
    7
 10
-38.968903000000068
 20
452.15002399999997
 11
-38.968903000000068
 21
454.15002399999997
  0
LINE
  8
_0-0_0
  6
CONTINUOUS
 62
    7
 10
-38.968903000000068
 20
457.65002399999997
 11
-38.968903000000068
 21
454.65002399999997
  0
LINE
  8
_0-0_0
  6
CONTINUOUS
 62
    7
 10
-38.968903000000068
 20
454.65002399999997
 11
-38.968903000000068
 21
454.15002399999997
  0
LINE
  8
_0-0_0
  6
CONTINUOUS
 62
    7
 10
-38.968903000000068
 20
457.65002399999997
 11
-38.968903000000068
 21
458.15002399999997
  0
ARC
  8
_0-0_0
  6
CONTINUOUS
 62
    7
 10
-44.968918000000031
 20
457.45001200000002
 40
0.500016
 50
180.00117
 51
359.995611
  0
LINE
  8
_0-0_0
  6
CONTINUOUS
 62
    7
 10
-44.468903000000068
 20
457.45001200000002
 11
-44.468903000000068
 21
469.45001200000002
  0
ARC
  8
_0-0_0
  6
CONTINUOUS
 62
    7
 10
-44.968918000000031
 20
469.45001200000002
 40
0.500016
 50
0.001164
 51
179.99560600000004
  0
LINE
  8
_0-0_0
  6
CONTINUOUS
 62
    7
 10
-45.468903000000068
 20
457.45001200000002
 11
-45.468903000000068
 21
469.45001200000002
  0
ARC
  8
_0-0_0
  6
CONTINUOUS
 62
    7
 10
-43.468918000000031
 20
457.45001200000002
 40
0.500016
 50
180.00117
 51
359.995611
  0
LINE
  8
_0-0_0
  6
CONTINUOUS
 62
    7
 10
-42.968903000000068
 20
457.45001200000002
 11
-42.968903000000068
 21
469.45001200000002
  0
ARC
  8
_0-0_0
  6
CONTINUOUS
 62
    7
 10
-43.468918000000031
 20
469.45001200000002
 40
0.500016
 50
0.001164
 51
179.99560600000004
  0
LINE
  8
_0-0_0
  6
CONTINUOUS
 62
    7
 10
-43.968903000000068
 20
457.45001200000002
 11
-43.968903000000068
 21
469.45001200000002
  0
ARC
  8
_0-0_0
  6
CONTINUOUS
 62
    7
 10
-41.968918000000031
 20
457.45001200000002
 40
0.500016
 50
180.00117
 51
359.995611
  0
LINE
  8
_0-0_0
  6
CONTINUOUS
 62
    7
 10
-41.468903000000068
 20
457.45001200000002
 11
-41.468903000000068
 21
469.45001200000002
  0
ARC
  8
_0-0_0
  6
CONTINUOUS
 62
    7
 10
-41.968918000000031
 20
469.45001200000002
 40
0.500016
 50
0.001164
 51
179.99560600000004
  0
LINE
  8
_0-0_0
  6
CONTINUOUS
 62
    7
 10
-42.468903000000068
 20
457.45001200000002
 11
-42.468903000000068
 21
469.45001200000002
  0
ARC
  8
_0-0_0
  6
CONTINUOUS
 62
    7
 10
-40.468918000000031
 20
457.45001200000002
 40
0.500016
 50
180.00117
 51
359.995611
  0
LINE
  8
_0-0_0
  6
CONTINUOUS
 62
    7
 10
-39.968903000000068
 20
457.45001200000002
 11
-39.968903000000068
 21
469.45001200000002
  0
ARC
  8
_0-0_0
  6
CONTINUOUS
 62
    7
 10
-40.468918000000031
 20
469.45001200000002
 40
0.500016
 50
0.001164
 51
179.99560600000004
  0
LINE
  8
_0-0_0
  6
CONTINUOUS
 62
    7
 10
-40.968903000000068
 20
457.45001200000002
 11
-40.968903000000068
 21
469.45001200000002
  0
LINE
  8
_0-0_0
  6
CONTINUOUS
 62
    7
 10
-50.968903000000068
 20
473.75
 11
-34.293457000000046
 21
473.75
  0
LINE
  8
_0-0_0
  6
CONTINUOUS
 62
    7
 10
-142.46890300000007
 20
477.5
 11
-136.96890300000007
 21
477.5
  0
ARC
  8
_0-0_0
  6
CONTINUOUS
 62
    7
 10
-142.46890300000007
 20
477
 40
0.5
 50
90.000003000000007
 51
179.99999099999999
  0
ARC
  8
_0-0_0
  6
CONTINUOUS
 62
    7
 10
-142.46890300000007
 20
452.45001200000002
 40
0.5
 50
179.99999099999999
 51
269.99999700000001
  0
ARC
  8
_0-0_0
  6
CONTINUOUS
 62
    7
 10
-142.46890300000007
 20
467.75
 40
0.5
 50
90.000003000000007
 51
179.99999099999999
  0
ARC
  8
_0-0_0
  6
CONTINUOUS
 62
    7
 10
-34.293457000000046
 20
454.15002399999997
 40
2
 50
269.99999700000001
 51
288.43501300000003
  0
LINE
  8
_0-0_0
  6
CONTINUOUS
 62
    7
 10
-38.968903000000068
 20
452.15002399999997
 11
-38.968903000000068
 21
452.40008499999999
  0
LINE
  8
_0-0_0
  6
CONTINUOUS
 62
    7
 10
-38.968903000000068
 20
457.65002399999997
 11
-34.293457000000046
 21
457.65002399999997
  0
LINE
  8
_0-0_0
  6
CONTINUOUS
 62
    7
 10
-33.660996000000068
 20
473.64736900000003
 11
-33.78050200000007
 21
473.68298299999998
  0
LINE
  8
_0-0_0
  6
CONTINUOUS
 62
    7
 10
-33.78050200000007
 20
473.68298299999998
 11
-33.902054000000021
 21
473.71087599999998
  0
LINE
  8
_0-0_0
  6
CONTINUOUS
 62
    7
 10
-33.902054000000021
 20
473.71087599999998
 11
-34.025192000000061
 21
473.73092700000001
  0
LINE
  8
_0-0_0
  6
CONTINUOUS
 62
    7
 10
-34.025192000000061
 20
473.73092700000001
 11
-34.149414000000036
 21
473.743042
  0
LINE
  8
_0-0_0
  6
CONTINUOUS
 62
    7
 10
-34.149414000000036
 20
473.743042
 11
-34.274231000000043
 21
473.747162
  0
LINE
  8
_0-0_0
  6
CONTINUOUS
 62
    7
 10
-34.274231000000043
 20
473.747162
 11
-34.293457000000046
 21
473.74710099999999
  0
ARC
  8
_0-0_0
  6
CONTINUOUS
 62
    7
 10
-34.293457000000046
 20
471.75
 40
2
 50
71.565000999999995
 51
90.000003000000007
  0
LINE
  8
_0-0_0
  6
CONTINUOUS
 62
    7
 10
-117.99736000000007
 20
464.15002399999997
 11
-125.94043700000009
 21
464.15002399999997
  0
ARC
  8
_0-0_0
  6
CONTINUOUS
 62
    7
 10
-125.94043700000009
 20
464.65002399999997
 40
0.5
 50
210.00000299999999
 51
269.99999700000001
  0
LINE
  8
_0-0_0
  6
CONTINUOUS
 62
    7
 10
-126.37345100000005
 20
464.40002399999997
 11
-128.45191199999999
 21
468
  0
ARC
  8
_0-0_0
  6
CONTINUOUS
 62
    7
 10
-128.01889800000004
 20
468.25
 40
0.5
 50
149.99999700000001
 51
210.00000299999996
  0
LINE
  8
_0-0_0
  6
CONTINUOUS
 62
    7
 10
-128.45191199999999
 20
468.5
 11
-126.37345100000005
 21
472.10000600000001
  0
ARC
  8
_0-0_0
  6
CONTINUOUS
 62
    7
 10
-125.94043700000009
 20
471.85000600000001
 40
0.5
 50
90.000003000000007
 51
149.99999700000001
  0
LINE
  8
_0-0_0
  6
CONTINUOUS
 62
    7
 10
-125.94043700000009
 20
472.35000600000001
 11
-117.99736000000007
 21
472.35000600000001
  0
ARC
  8
_0-0_0
  6
CONTINUOUS
 62
    7
 10
-117.99736000000007
 20
471.85000600000001
 40
0.5
 50
30.000001000000001
 51
90.000003000000007
  0
LINE
  8
_0-0_0
  6
CONTINUOUS
 62
    7
 10
-117.564346
 20
472.10000600000001
 11
-115.48588600000005
 21
468.5
  0
ARC
  8
_0-0_0
  6
CONTINUOUS
 62
    7
 10
-115.91890000000001
 20
468.25
 40
0.5
 50
329.99998900000003
 51
30.000000999999983
  0
LINE
  8
_0-0_0
  6
CONTINUOUS
 62
    7
 10
-115.48588600000005
 20
468
 11
-117.564346
 21
464.40002399999997
  0
ARC
  8
_0-0_0
  6
CONTINUOUS
 62
    7
 10
-117.99736000000007
 20
464.65002399999997
 40
0.5
 50
269.99999700000001
 51
329.99998900000003
  0
ARC
  8
_0-0_0
  6
CONTINUOUS
 62
    7
 10
-69.998169000000075
 20
464.75
 40
0.5
 50
210.00000299999999
 51
269.99999700000001
  0
LINE
  8
_0-0_0
  6
CONTINUOUS
 62
    7
 10
-70.431183000000033
 20
464.5
 11
-72.451904000000013
 21
468
  0
ARC
  8
_0-0_0
  6
CONTINUOUS
 62
    7
 10
-72.018906000000015
 20
468.25
 40
0.5
 50
149.99999700000001
 51
210.00000299999996
  0
LINE
  8
_0-0_0
  6
CONTINUOUS
 62
    7
 10
-72.451904000000013
 20
468.5
 11
-70.431183000000033
 21
472
  0
ARC
  8
_0-0_0
  6
CONTINUOUS
 62
    7
 10
-69.998169000000075
 20
471.75
 40
0.5
 50
90.000003000000007
 51
149.99999700000001
  0
LINE
  8
_0-0_0
  6
CONTINUOUS
 62
    7
 10
-69.998169000000075
 20
472.25
 11
-61.939621000000045
 21
472.25
  0
ARC
  8
_0-0_0
  6
CONTINUOUS
 62
    7
 10
-61.939621000000045
 20
471.75
 40
0.5
 50
30.000001000000001
 51
90.000003000000007
  0
LINE
  8
_0-0_0
  6
CONTINUOUS
 62
    7
 10
-61.506607000000031
 20
472
 11
-59.48588600000005
 21
468.5
  0
ARC
  8
_0-0_0
  6
CONTINUOUS
 62
    7
 10
-59.918900000000008
 20
468.25
 40
0.5
 50
329.99998900000003
 51
30.000000999999983
  0
LINE
  8
_0-0_0
  6
CONTINUOUS
 62
    7
 10
-59.48588600000005
 20
468
 11
-61.506607000000031
 21
464.5
  0
ARC
  8
_0-0_0
  6
CONTINUOUS
 62
    7
 10
-61.939621000000045
 20
464.75
 40
0.5
 50
269.99999700000001
 51
329.99998900000003
  0
LINE
  8
_0-0_0
  6
CONTINUOUS
 62
    7
 10
-61.939621000000045
 20
464.25
 11
-69.998169000000075
 21
464.25
  0
LINE
  8
_0-0_0
  6
CONTINUOUS
 62
    7
 10
-139.96890300000007
 20
472.88043199999998
 11
-139.96890300000007
 21
472.05419899999998
  0
LINE
  8
_0-0_0
  6
CONTINUOUS
 62
    7
 10
-142.46890300000007
 20
468.25
 11
-140.26890600000002
 21
468.25
  0
LINE
  8
_0-0_0
  6
CONTINUOUS
 62
    7
 10
-139.96890300000007
 20
468.55001800000002
 11
-139.96890300000007
 21
470.77832000000001
  0
LINE
  8
_0-0_0
  6
CONTINUOUS
 62
    7
 10
-139.96890300000007
 20
473.04968300000002
 11
-139.96890300000007
 21
472.88043199999998
  0
LINE
  8
_0-0_0
  6
CONTINUOUS
 62
    7
 10
-131.76889800000004
 20
473.65002399999997
 11
-132.16890000000001
 21
473.65002399999997
  0
LINE
  8
_0-0_0
  6
CONTINUOUS
 62
    7
 10
-131.76889800000004
 20
473.65002399999997
 11
-131.76889800000004
 21
474.30001800000002
  0
ARC
  8
_0-0_0
  6
CONTINUOUS
 62
    7
 10
-131.51889800000004
 20
474.30001800000002
 40
0.25
 50
90.000003000000007
 51
179.99999099999999
  0
LINE
  8
_0-0_0
  6
CONTINUOUS
 62
    7
 10
-131.51889800000004
 20
474.55001800000002
 11
-130.86890400000004
 21
474.55001800000002
  0
LINE
  8
_0-0_0
  6
CONTINUOUS
 62
    7
 10
-130.86890400000004
 20
474.55001800000002
 11
-130.86890400000004
 21
474.95001200000002
  0
LINE
  8
_0-0_0
  6
CONTINUOUS
 62
    7
 10
-131.51889800000004
 20
474.95001200000002
 11
-130.86890400000004
 21
474.95001200000002
  0
ARC
  8
_0-0_0
  6
CONTINUOUS
 62
    7
 10
-131.51889800000004
 20
475.20001200000002
 40
0.25
 50
179.99999099999999
 51
269.99999700000001
  0
LINE
  8
_0-0_0
  6
CONTINUOUS
 62
    7
 10
-131.76889800000004
 20
475.85000600000001
 11
-131.76889800000004
 21
475.20001200000002
  0
LINE
  8
_0-0_0
  6
CONTINUOUS
 62
    7
 10
-131.76889800000004
 20
475.85000600000001
 11
-132.16890000000001
 21
475.85000600000001
  0
LINE
  8
_0-0_0
  6
CONTINUOUS
 62
    7
 10
-132.16890000000001
 20
475.85000600000001
 11
-132.16890000000001
 21
475.20001200000002
  0
ARC
  8
_0-0_0
  6
CONTINUOUS
 62
    7
 10
-132.41890000000001
 20
475.20001200000002
 40
0.25
 50
269.99999700000001
 51
0
  0
LINE
  8
_0-0_0
  6
CONTINUOUS
 62
    7
 10
-132.41890000000001
 20
474.95001200000002
 11
-133.0689010000001
 21
474.95001200000002
  0
LINE
  8
_0-0_0
  6
CONTINUOUS
 62
    7
 10
-133.0689010000001
 20
474.55001800000002
 11
-133.0689010000001
 21
474.95001200000002
  0
LINE
  8
_0-0_0
  6
CONTINUOUS
 62
    7
 10
-132.41890000000001
 20
474.55001800000002
 11
-133.0689010000001
 21
474.55001800000002
  0
ARC
  8
_0-0_0
  6
CONTINUOUS
 62
    7
 10
-132.41890000000001
 20
474.30001800000002
 40
0.25
 50
0
 51
90.000003000000007
  0
LINE
  8
_0-0_0
  6
CONTINUOUS
 62
    7
 10
-132.16890000000001
 20
473.65002399999997
 11
-132.16890000000001
 21
474.30001800000002
  0
LINE
  8
_0-0_0
  6
CONTINUOUS
 62
    7
 10
-52.768906000000015
 20
473.65002399999997
 11
-53.168900000000008
 21
473.65002399999997
  0
LINE
  8
_0-0_0
  6
CONTINUOUS
 62
    7
 10
-52.768906000000015
 20
473.65002399999997
 11
-52.768906000000015
 21
474.30001800000002
  0
ARC
  8
_0-0_0
  6
CONTINUOUS
 62
    7
 10
-52.518906000000015
 20
474.30001800000002
 40
0.25
 50
90.000003000000007
 51
179.99999099999999
  0
LINE
  8
_0-0_0
  6
CONTINUOUS
 62
    7
 10
-52.518906000000015
 20
474.55001800000002
 11
-51.868897000000061
 21
474.55001800000002
  0
LINE
  8
_0-0_0
  6
CONTINUOUS
 62
    7
 10
-51.868897000000061
 20
474.55001800000002
 11
-51.868897000000061
 21
474.95001200000002
  0
LINE
  8
_0-0_0
  6
CONTINUOUS
 62
    7
 10
-52.518906000000015
 20
474.95001200000002
 11
-51.868897000000061
 21
474.95001200000002
  0
ARC
  8
_0-0_0
  6
CONTINUOUS
 62
    7
 10
-52.518906000000015
 20
475.20001200000002
 40
0.25
 50
179.99999099999999
 51
269.99999700000001
  0
LINE
  8
_0-0_0
  6
CONTINUOUS
 62
    7
 10
-52.768906000000015
 20
475.85000600000001
 11
-52.768906000000015
 21
475.20001200000002
  0
LINE
  8
_0-0_0
  6
CONTINUOUS
 62
    7
 10
-52.768906000000015
 20
475.85000600000001
 11
-53.168900000000008
 21
475.85000600000001
  0
LINE
  8
_0-0_0
  6
CONTINUOUS
 62
    7
 10
-53.168900000000008
 20
475.85000600000001
 11
-53.168900000000008
 21
475.20001200000002
  0
ARC
  8
_0-0_0
  6
CONTINUOUS
 62
    7
 10
-53.418900000000008
 20
475.20001200000002
 40
0.25
 50
269.99999700000001
 51
0
  0
LINE
  8
_0-0_0
  6
CONTINUOUS
 62
    7
 10
-53.418900000000008
 20
474.95001200000002
 11
-54.068893000000003
 21
474.95001200000002
  0
LINE
  8
_0-0_0
  6
CONTINUOUS
 62
    7
 10
-54.068893000000003
 20
474.55001800000002
 11
-54.068893000000003
 21
474.95001200000002
  0
LINE
  8
_0-0_0
  6
CONTINUOUS
 62
    7
 10
-53.418900000000008
 20
474.55001800000002
 11
-54.068893000000003
 21
474.55001800000002
  0
ARC
  8
_0-0_0
  6
CONTINUOUS
 62
    7
 10
-53.418900000000008
 20
474.30001800000002
 40
0.25
 50
0
 51
90.000003000000007
  0
LINE
  8
_0-0_0
  6
CONTINUOUS
 62
    7
 10
-53.168900000000008
 20
473.65002399999997
 11
-53.168900000000008
 21
474.30001800000002
  0
LINE
  8
_0-0_0
  6
CONTINUOUS
 62
    7
 10
-33.218903000000068
 20
452.39999399999999
 11
-33.660996000000068
 21
452.25262500000002
  0
LINE
  8
_0-0_0
  6
CONTINUOUS
 62
    7
 10
-29.494553000000053
 20
457.65002399999997
 11
-28.801193000000012
 21
457.65002399999997
  0
LINE
  8
_0-0_0
  6
CONTINUOUS
 62
    7
 10
-29.494553000000053
 20
457.65002399999997
 11
-33.819107000000031
 21
457.65002399999997
  0
LINE
  8
_0-0_0
  6
CONTINUOUS
 62
    7
 10
-34.293457000000046
 20
457.65002399999997
 11
-33.819107000000031
 21
457.65002399999997
  0
LINE
  8
_0-0_0
  6
CONTINUOUS
 62
    7
 10
-29.336441000000036
 20
472.20584100000002
 11
-33.660996000000068
 21
473.64736900000003
  0
LINE
  8
_0-0_0
  6
CONTINUOUS
 62
    7
 10
-139.96890300000007
 20
472.05419899999998
 11
-139.96890300000007
 21
470.77832000000001
  0
ARC
  8
_0-0_0
  6
CONTINUOUS
 62
    7
 10
-140.26890600000002
 20
468.55001800000002
 40
0.2999999999999999
 50
269.99999700000001
 51
0
  0
LINE
  8
_0-0_0
  6
CONTINUOUS
 62
    7
 10
-142.42456800000002
 20
472.32870500000001
 11
-142.42456800000002
 21
469
  0
LINE
  8
_0-0_0
  6
CONTINUOUS
 62
    7
 10
-142.42456800000002
 20
473.5
 11
-142.42456800000002
 21
472.32870500000001
  0
LINE
  8
_0-0_0
  6
CONTINUOUS
 62
    7
 10
-27.968903000000068
 20
456.89996300000001
 11
-27.968903000000068
 21
458.02099600000003
  0
LINE
  8
_0-0_0
  6
CONTINUOUS
 62
    7
 10
-27.968903000000068
 20
458.94232199999999
 11
-27.968903000000068
 21
458.02099600000003
  0
LINE
  8
_0-0_0
  6
CONTINUOUS
 62
    7
 10
-28.268906000000015
 20
460.73800699999998
 11
-28.210098000000016
 21
460.49117999999999
  0
LINE
  8
_0-0_0
  6
CONTINUOUS
 62
    7
 10
-28.210098000000016
 20
460.49117999999999
 11
-28.160339000000022
 21
460.29882800000001
  0
LINE
  8
_0-0_0
  6
CONTINUOUS
 62
    7
 10
-28.160339000000022
 20
460.29882800000001
 11
-28.089202999999998
 21
460.033051
  0
LINE
  8
_0-0_0
  6
CONTINUOUS
 62
    7
 10
-28.089202999999998
 20
460.033051
 11
-28.056244000000049
 21
459.906342
  0
LINE
  8
_0-0_0
  6
CONTINUOUS
 62
    7
 10
-28.056244000000049
 20
459.906342
 11
-28.030991000000029
 21
459.80291699999998
  0
LINE
  8
_0-0_0
  6
CONTINUOUS
 62
    7
 10
-28.030991000000029
 20
459.80291699999998
 11
-28.008957000000009
 21
459.70297199999999
  0
LINE
  8
_0-0_0
  6
CONTINUOUS
 62
    7
 10
-28.008957000000009
 20
459.70297199999999
 11
-27.987579000000039
 21
459.58526599999999
  0
LINE
  8
_0-0_0
  6
CONTINUOUS
 62
    7
 10
-27.987579000000039
 20
459.58526599999999
 11
-27.979004000000032
 21
459.52313199999998
  0
LINE
  8
_0-0_0
  6
CONTINUOUS
 62
    7
 10
-27.979004000000032
 20
459.52313199999998
 11
-27.972931000000017
 21
459.46252399999997
  0
LINE
  8
_0-0_0
  6
CONTINUOUS
 62
    7
 10
-27.972931000000017
 20
459.46252399999997
 11
-27.969925000000046
 21
459.41329999999999
  0
LINE
  8
_0-0_0
  6
CONTINUOUS
 62
    7
 10
-27.969925000000046
 20
459.41329999999999
 11
-27.968903000000068
 21
459.36505099999999
  0
LINE
  8
_0-0_0
  6
CONTINUOUS
 62
    7
 10
-28.268906000000015
 20
465.16204800000003
 11
-28.352356000000043
 21
464.78335600000003
  0
LINE
  8
_0-0_0
  6
CONTINUOUS
 62
    7
 10
-28.352356000000043
 20
464.78335600000003
 11
-28.392456000000038
 21
464.59182700000002
  0
LINE
  8
_0-0_0
  6
CONTINUOUS
 62
    7
 10
-28.392456000000038
 20
464.59182700000002
 11
-28.448532
 21
464.30181900000002
  0
LINE
  8
_0-0_0
  6
CONTINUOUS
 62
    7
 10
-28.448532
 20
464.30181900000002
 11
-28.486130000000003
 21
464.08221400000002
  0
LINE
  8
_0-0_0
  6
CONTINUOUS
 62
    7
 10
-28.486130000000003
 20
464.08221400000002
 11
-28.518784000000039
 21
463.86096199999997
  0
LINE
  8
_0-0_0
  6
CONTINUOUS
 62
    7
 10
-28.518784000000039
 20
463.86096199999997
 11
-28.545944000000077
 21
463.63415500000002
  0
LINE
  8
_0-0_0
  6
CONTINUOUS
 62
    7
 10
-28.545944000000077
 20
463.63415500000002
 11
-28.566010000000006
 21
463.406769
  0
LINE
  8
_0-0_0
  6
CONTINUOUS
 62
    7
 10
-28.566010000000006
 20
463.406769
 11
-28.573166000000015
 21
463.29302999999999
  0
LINE
  8
_0-0_0
  6
CONTINUOUS
 62
    7
 10
-28.573166000000015
 20
463.29302999999999
 11
-28.578323000000069
 21
463.17935199999999
  0
LINE
  8
_0-0_0
  6
CONTINUOUS
 62
    7
 10
-28.578323000000069
 20
463.17935199999999
 11
-28.582031000000029
 21
463.02792399999998
  0
LINE
  8
_0-0_0
  6
CONTINUOUS
 62
    7
 10
-28.582031000000029
 20
463.02792399999998
 11
-28.582092000000046
 21
462.87667800000003
  0
LINE
  8
_0-0_0
  6
CONTINUOUS
 62
    7
 10
-28.582092000000046
 20
462.87667800000003
 11
-28.578522000000021
 21
462.725616
  0
LINE
  8
_0-0_0
  6
CONTINUOUS
 62
    7
 10
-28.578522000000021
 20
462.725616
 11
-28.569016000000033
 21
462.53707900000001
  0
LINE
  8
_0-0_0
  6
CONTINUOUS
 62
    7
 10
-28.569016000000033
 20
462.53707900000001
 11
-28.55413800000008
 21
462.348816
  0
LINE
  8
_0-0_0
  6
CONTINUOUS
 62
    7
 10
-28.55413800000008
 20
462.348816
 11
-28.534225000000049
 21
462.160889
  0
LINE
  8
_0-0_0
  6
CONTINUOUS
 62
    7
 10
-28.534225000000049
 20
462.160889
 11
-28.51783800000004
 21
462.03201300000001
  0
LINE
  8
_0-0_0
  6
CONTINUOUS
 62
    7
 10
-28.51783800000004
 20
462.03201300000001
 11
-28.499420000000043
 21
461.90335099999999
  0
LINE
  8
_0-0_0
  6
CONTINUOUS
 62
    7
 10
-28.499420000000043
 20
461.90335099999999
 11
-28.475266000000033
 21
461.75140399999998
  0
LINE
  8
_0-0_0
  6
CONTINUOUS
 62
    7
 10
-28.475266000000033
 20
461.75140399999998
 11
-28.448868000000061
 21
461.60006700000002
  0
LINE
  8
_0-0_0
  6
CONTINUOUS
 62
    7
 10
-28.448868000000061
 20
461.60006700000002
 11
-28.392700000000048
 21
461.30944799999997
  0
LINE
  8
_0-0_0
  6
CONTINUOUS
 62
    7
 10
-28.392700000000048
 20
461.30944799999997
 11
-28.352539000000036
 21
461.11749300000002
  0
LINE
  8
_0-0_0
  6
CONTINUOUS
 62
    7
 10
-28.352539000000036
 20
461.11749300000002
 11
-28.268906000000015
 21
460.73800699999998
  0
LINE
  8
_0-0_0
  6
CONTINUOUS
 62
    7
 10
-28.268890000000056
 20
465.16204800000003
 11
-28.210098000000016
 21
465.40887500000002
  0
LINE
  8
_0-0_0
  6
CONTINUOUS
 62
    7
 10
-28.210098000000016
 20
465.40887500000002
 11
-28.160339000000022
 21
465.60119600000002
  0
LINE
  8
_0-0_0
  6
CONTINUOUS
 62
    7
 10
-28.160339000000022
 20
465.60119600000002
 11
-28.089218000000074
 21
465.86694299999999
  0
LINE
  8
_0-0_0
  6
CONTINUOUS
 62
    7
 10
-28.089218000000074
 20
465.86694299999999
 11
-28.056259000000068
 21
465.993652
  0
LINE
  8
_0-0_0
  6
CONTINUOUS
 62
    7
 10
-28.056259000000068
 20
465.993652
 11
-28.030991000000029
 21
466.09707600000002
  0
LINE
  8
_0-0_0
  6
CONTINUOUS
 62
    7
 10
-28.030991000000029
 20
466.09707600000002
 11
-28.008957000000009
 21
466.19705199999999
  0
LINE
  8
_0-0_0
  6
CONTINUOUS
 62
    7
 10
-28.008957000000009
 20
466.19705199999999
 11
-27.987579000000039
 21
466.31475799999998
  0
LINE
  8
_0-0_0
  6
CONTINUOUS
 62
    7
 10
-27.987579000000039
 20
466.31475799999998
 11
-27.979004000000032
 21
466.376892
  0
LINE
  8
_0-0_0
  6
CONTINUOUS
 62
    7
 10
-27.979004000000032
 20
466.376892
 11
-27.972931000000017
 21
466.4375
  0
LINE
  8
_0-0_0
  6
CONTINUOUS
 62
    7
 10
-27.972931000000017
 20
466.4375
 11
-27.969925000000046
 21
466.48672499999998
  0
LINE
  8
_0-0_0
  6
CONTINUOUS
 62
    7
 10
-27.969925000000046
 20
466.48672499999998
 11
-27.968903000000068
 21
466.534943
  0
LINE
  8
_0-0_0
  6
CONTINUOUS
 62
    7
 10
-27.968903000000068
 20
470.30847199999999
 11
-27.968903000000068
 21
466.95770299999998
  0
ARC
  8
_0-0_0
  6
CONTINUOUS
 62
    7
 10
-29.968903000000068
 20
470.30847199999999
 40
2
 50
0
 51
71.565000999999995
  0
CIRCLE
  8
_0-0_0
  6
CONTINUOUS
 62
    7
 10
-121.96890300000007
 20
468.25
 40
2.5
  0
CIRCLE
  8
_0-0_0
  6
CONTINUOUS
 62
    7
 10
-65.968903000000068
 20
468.25
 40
2.5
  0
LINE
  8
_0-0_0
  6
CONTINUOUS
 62
    7
 10
-142.5689010000001
 20
472.20886200000001
 11
-142.5689010000001
 21
469.25
  0
LINE
  8
_0-0_0
  6
CONTINUOUS
 62
    7
 10
-142.5689010000001
 20
473.25
 11
-142.5689010000001
 21
472.20886200000001
  0
LINE
  8
_0-0_0
  6
CONTINUOUS
 62
    7
 10
-12.968903000000068
 20
453.42456099999998
 11
-12.968903000000068
 21
453.57128899999998
  0
LINE
  8
_0-0_0
  6
CONTINUOUS
 62
    7
 10
-12.968903000000068
 20
453.234039
 11
-12.968903000000068
 21
453.42456099999998
  0
LINE
  8
_0-0_0
  6
CONTINUOUS
 62
    7
 10
-12.968903000000068
 20
453.05902099999997
 11
-12.968903000000068
 21
453.234039
  0
LINE
  8
_0-0_0
  6
CONTINUOUS
 62
    7
 10
-12.968903000000068
 20
452.90142800000001
 11
-12.968903000000068
 21
453.05902099999997
  0
LINE
  8
_0-0_0
  6
CONTINUOUS
 62
    7
 10
-12.968903000000068
 20
452.76299999999998
 11
-12.968903000000068
 21
452.90142800000001
  0
LINE
  8
_0-0_0
  6
CONTINUOUS
 62
    7
 10
-12.968903000000068
 20
452.64523300000002
 11
-12.968903000000068
 21
452.76299999999998
  0
LINE
  8
_0-0_0
  6
CONTINUOUS
 62
    7
 10
-12.968903000000068
 20
452.54943800000001
 11
-12.968903000000068
 21
452.64523300000002
  0
LINE
  8
_0-0_0
  6
CONTINUOUS
 62
    7
 10
-12.968903000000068
 20
452.47668499999997
 11
-12.968903000000068
 21
452.54943800000001
  0
LINE
  8
_0-0_0
  6
CONTINUOUS
 62
    7
 10
-12.968903000000068
 20
452.42770400000001
 11
-12.968903000000068
 21
452.47668499999997
  0
LINE
  8
_0-0_0
  6
CONTINUOUS
 62
    7
 10
-12.968903000000068
 20
452.403076
 11
-12.968903000000068
 21
452.42770400000001
  0
LINE
  8
_0-0_0
  6
CONTINUOUS
 62
    7
 10
-12.968903000000068
 20
452.40002399999997
 11
-12.968903000000068
 21
452.403076
  0
LINE
  8
_0-0_0
  6
CONTINUOUS
 62
    7
 10
-12.968903000000068
 20
456.89691199999999
 11
-12.968903000000068
 21
456.90002399999997
  0
LINE
  8
_0-0_0
  6
CONTINUOUS
 62
    7
 10
-12.968903000000068
 20
456.87231400000002
 11
-12.968903000000068
 21
456.90002399999997
  0
LINE
  8
_0-0_0
  6
CONTINUOUS
 62
    7
 10
-12.968903000000068
 20
456.82333399999999
 11
-12.968903000000068
 21
456.87231400000002
  0
LINE
  8
_0-0_0
  6
CONTINUOUS
 62
    7
 10
-12.968903000000068
 20
456.75054899999998
 11
-12.968903000000068
 21
456.82333399999999
  0
LINE
  8
_0-0_0
  6
CONTINUOUS
 62
    7
 10
-12.968903000000068
 20
456.654785
 11
-12.968903000000068
 21
456.75054899999998
  0
LINE
  8
_0-0_0
  6
CONTINUOUS
 62
    7
 10
-12.968903000000068
 20
456.624573
 11
-12.968903000000068
 21
456.654785
  0
LINE
  8
_0-0_0
  6
CONTINUOUS
 62
    7
 10
-12.968903000000068
 20
456.53701799999999
 11
-12.968903000000068
 21
456.624573
  0
LINE
  8
_0-0_0
  6
CONTINUOUS
 62
    7
 10
-12.968903000000068
 20
456.39859000000001
 11
-12.968903000000068
 21
456.53701799999999
  0
LINE
  8
_0-0_0
  6
CONTINUOUS
 62
    7
 10
-12.968903000000068
 20
456.24099699999999
 11
-12.968903000000068
 21
456.39859000000001
  0
LINE
  8
_0-0_0
  6
CONTINUOUS
 62
    7
 10
-12.968903000000068
 20
456.06597900000003
 11
-12.968903000000068
 21
456.24099699999999
  0
LINE
  8
_0-0_0
  6
CONTINUOUS
 62
    7
 10
-12.968903000000068
 20
455.875427
 11
-12.968903000000068
 21
456.06597900000003
  0
LINE
  8
_0-0_0
  6
CONTINUOUS
 62
    7
 10
-12.968903000000068
 20
455.67147799999998
 11
-12.968903000000068
 21
455.875427
  0
LINE
  8
_0-0_0
  6
CONTINUOUS
 62
    7
 10
-12.968903000000068
 20
455.45632899999998
 11
-12.968903000000068
 21
455.67147799999998
  0
LINE
  8
_0-0_0
  6
CONTINUOUS
 62
    7
 10
-12.968903000000068
 20
455.23236100000003
 11
-12.968903000000068
 21
455.45632899999998
  0
LINE
  8
_0-0_0
  6
CONTINUOUS
 62
    7
 10
-12.968903000000068
 20
455.00198399999999
 11
-12.968903000000068
 21
455.23236100000003
  0
LINE
  8
_0-0_0
  6
CONTINUOUS
 62
    7
 10
-12.968903000000068
 20
454.76776100000001
 11
-12.968903000000068
 21
455.00198399999999
  0
LINE
  8
_0-0_0
  6
CONTINUOUS
 62
    7
 10
-12.968903000000068
 20
454.53225700000002
 11
-12.968903000000068
 21
454.76776100000001
  0
LINE
  8
_0-0_0
  6
CONTINUOUS
 62
    7
 10
-12.968903000000068
 20
454.29803500000003
 11
-12.968903000000068
 21
454.53225700000002
  0
LINE
  8
_0-0_0
  6
CONTINUOUS
 62
    7
 10
-12.968903000000068
 20
454.067657
 11
-12.968903000000068
 21
454.29803500000003
  0
LINE
  8
_0-0_0
  6
CONTINUOUS
 62
    7
 10
-12.968903000000068
 20
453.84368899999998
 11
-12.968903000000068
 21
454.067657
  0
LINE
  8
_0-0_0
  6
CONTINUOUS
 62
    7
 10
-12.968903000000068
 20
453.62853999999999
 11
-12.968903000000068
 21
453.84368899999998
  0
LINE
  8
_0-0_0
  6
CONTINUOUS
 62
    7
 10
-12.968903000000068
 20
453.57128899999998
 11
-12.968903000000068
 21
453.62853999999999
  0
LINE
  8
_0-0_0
  6
CONTINUOUS
 62
    7
 10
-27.968903000000068
 20
461.38797
 11
-27.968903000000068
 21
460.34231599999998
  0
LINE
  8
_0-0_0
  6
CONTINUOUS
 62
    7
 10
-27.968903000000068
 20
459.05770899999999
 11
-27.968903000000068
 21
460.34231599999998
  0
LINE
  8
_0-0_0
  6
CONTINUOUS
 62
    7
 10
-27.968903000000068
 20
458.94232199999999
 11
-27.968903000000068
 21
459.05770899999999
  0
LINE
  8
_0-0_0
  6
CONTINUOUS
 62
    7
 10
-27.968903000000068
 20
461.38797
 11
-27.968903000000068
 21
464.51205399999998
  0
LINE
  8
_0-0_0
  6
CONTINUOUS
 62
    7
 10
-27.968903000000068
 20
466.95770299999998
 11
-27.968903000000068
 21
466.84231599999998
  0
LINE
  8
_0-0_0
  6
CONTINUOUS
 62
    7
 10
-27.968903000000068
 20
465.55770899999999
 11
-27.968903000000068
 21
466.84231599999998
  0
LINE
  8
_0-0_0
  6
CONTINUOUS
 62
    7
 10
-27.968903000000068
 20
465.55770899999999
 11
-27.968903000000068
 21
464.51205399999998
  0
LINE
  8
_0-0_0
  6
CONTINUOUS
 62
    7
 10
-27.968903000000068
 20
466.84231599999998
 11
-18.261077999999998
 21
466.84231599999998
  0
LINE
  8
_0-0_0
  6
CONTINUOUS
 62
    7
 10
-18.261077999999998
 20
469.45001200000002
 11
-18.206589000000008
 21
469.380066
  0
LINE
  8
_0-0_0
  6
CONTINUOUS
 62
    7
 10
-18.206589000000008
 20
469.380066
 11
-18.155487000000051
 21
469.31124899999998
  0
LINE
  8
_0-0_0
  6
CONTINUOUS
 62
    7
 10
-18.155487000000051
 20
469.31124899999998
 11
-18.107849000000044
 21
469.24374399999999
  0
LINE
  8
_0-0_0
  6
CONTINUOUS
 62
    7
 10
-18.107849000000044
 20
469.24374399999999
 11
-18.063355000000001
 21
469.17718500000001
  0
LINE
  8
_0-0_0
  6
CONTINUOUS
 62
    7
 10
-18.063355000000001
 20
469.17718500000001
 11
-18.008637000000022
 21
469.08966099999998
  0
LINE
  8
_0-0_0
  6
CONTINUOUS
 62
    7
 10
-18.008637000000022
 20
469.08966099999998
 11
-17.959122000000036
 21
469.00353999999999
  0
LINE
  8
_0-0_0
  6
CONTINUOUS
 62
    7
 10
-17.959122000000036
 20
469.00353999999999
 11
-17.914658000000031
 21
468.918701
  0
LINE
  8
_0-0_0
  6
CONTINUOUS
 62
    7
 10
-17.914658000000031
 20
468.918701
 11
-17.867691000000036
 21
468.81839000000002
  0
LINE
  8
_0-0_0
  6
CONTINUOUS
 62
    7
 10
-17.867691000000036
 20
468.81839000000002
 11
-17.827484000000027
 21
468.71948200000003
  0
LINE
  8
_0-0_0
  6
CONTINUOUS
 62
    7
 10
-17.827484000000027
 20
468.71948200000003
 11
-17.793823000000032
 21
468.62170400000002
  0
LINE
  8
_0-0_0
  6
CONTINUOUS
 62
    7
 10
-17.793823000000032
 20
468.62170400000002
 11
-17.766525000000001
 21
468.524902
  0
LINE
  8
_0-0_0
  6
CONTINUOUS
 62
    7
 10
-17.766525000000001
 20
468.524902
 11
-17.745483000000036
 21
468.42886399999998
  0
LINE
  8
_0-0_0
  6
CONTINUOUS
 62
    7
 10
-17.745483000000036
 20
468.42886399999998
 11
-17.72955300000001
 21
468.32501200000002
  0
LINE
  8
_0-0_0
  6
CONTINUOUS
 62
    7
 10
-17.72955300000001
 20
468.32501200000002
 11
-17.720795000000066
 21
468.221588
  0
LINE
  8
_0-0_0
  6
CONTINUOUS
 62
    7
 10
-17.720795000000066
 20
468.221588
 11
-17.71916200000004
 21
468.11834700000003
  0
LINE
  8
_0-0_0
  6
CONTINUOUS
 62
    7
 10
-17.71916200000004
 20
468.11834700000003
 11
-17.72462500000006
 21
468.01504499999999
  0
LINE
  8
_0-0_0
  6
CONTINUOUS
 62
    7
 10
-17.72462500000006
 20
468.01504499999999
 11
-17.737244000000032
 21
467.91146900000001
  0
LINE
  8
_0-0_0
  6
CONTINUOUS
 62
    7
 10
-17.737244000000032
 20
467.91146900000001
 11
-17.757050000000049
 21
467.80731200000002
  0
LINE
  8
_0-0_0
  6
CONTINUOUS
 62
    7
 10
-17.757050000000049
 20
467.80731200000002
 11
-17.784195000000068
 21
467.70236199999999
  0
LINE
  8
_0-0_0
  6
CONTINUOUS
 62
    7
 10
-17.784195000000068
 20
467.70236199999999
 11
-17.818848000000003
 21
467.59631300000001
  0
LINE
  8
_0-0_0
  6
CONTINUOUS
 62
    7
 10
-17.818848000000003
 20
467.59631300000001
 11
-17.861191000000076
 21
467.48895299999998
  0
LINE
  8
_0-0_0
  6
CONTINUOUS
 62
    7
 10
-17.861191000000076
 20
467.48895299999998
 11
-17.911514000000011
 21
467.37994400000002
  0
LINE
  8
_0-0_0
  6
CONTINUOUS
 62
    7
 10
-17.911514000000011
 20
467.37994400000002
 11
-17.965759000000048
 21
467.276794
  0
LINE
  8
_0-0_0
  6
CONTINUOUS
 62
    7
 10
-17.965759000000048
 20
467.276794
 11
-18.027466000000004
 21
467.17175300000002
  0
LINE
  8
_0-0_0
  6
CONTINUOUS
 62
    7
 10
-18.027466000000004
 20
467.17175300000002
 11
-18.096985000000018
 21
467.06451399999997
  0
LINE
  8
_0-0_0
  6
CONTINUOUS
 62
    7
 10
-18.096985000000018
 20
467.06451399999997
 11
-18.174698000000035
 21
466.95480300000003
  0
LINE
  8
_0-0_0
  6
CONTINUOUS
 62
    7
 10
-18.174698000000035
 20
466.95480300000003
 11
-18.261077999999998
 21
466.84231599999998
  0
LINE
  8
_0-0_0
  6
CONTINUOUS
 62
    7
 10
-27.968903000000068
 20
469.45001200000002
 11
-18.261077999999998
 21
469.45001200000002
  0
LINE
  8
_0-0_0
  6
CONTINUOUS
 62
    7
 10
-18.218903000000068
 20
469.45001200000002
 11
-18.261077999999998
 21
469.45001200000002
  0
LINE
  8
_0-0_0
  6
CONTINUOUS
 62
    7
 10
-27.968903000000068
 20
459.05770899999999
 11
-18.261077999999998
 21
459.05770899999999
  0
LINE
  8
_0-0_0
  6
CONTINUOUS
 62
    7
 10
-18.261077999999998
 20
459.05770899999999
 11
-18.206589000000008
 21
458.98776199999998
  0
LINE
  8
_0-0_0
  6
CONTINUOUS
 62
    7
 10
-18.206589000000008
 20
458.98776199999998
 11
-18.155487000000051
 21
458.91894500000001
  0
LINE
  8
_0-0_0
  6
CONTINUOUS
 62
    7
 10
-18.155487000000051
 20
458.91894500000001
 11
-18.107849000000044
 21
458.85144000000003
  0
LINE
  8
_0-0_0
  6
CONTINUOUS
 62
    7
 10
-18.107849000000044
 20
458.85144000000003
 11
-18.063355000000001
 21
458.78488199999998
  0
LINE
  8
_0-0_0
  6
CONTINUOUS
 62
    7
 10
-18.063355000000001
 20
458.78488199999998
 11
-18.008637000000022
 21
458.69735700000001
  0
LINE
  8
_0-0_0
  6
CONTINUOUS
 62
    7
 10
-18.008637000000022
 20
458.69735700000001
 11
-17.959122000000036
 21
458.61123700000002
  0
LINE
  8
_0-0_0
  6
CONTINUOUS
 62
    7
 10
-17.959122000000036
 20
458.61123700000002
 11
-17.914658000000031
 21
458.52642800000001
  0
LINE
  8
_0-0_0
  6
CONTINUOUS
 62
    7
 10
-17.914658000000031
 20
458.52642800000001
 11
-17.867691000000036
 21
458.426086
  0
LINE
  8
_0-0_0
  6
CONTINUOUS
 62
    7
 10
-17.867691000000036
 20
458.426086
 11
-17.827484000000027
 21
458.327179
  0
LINE
  8
_0-0_0
  6
CONTINUOUS
 62
    7
 10
-17.827484000000027
 20
458.327179
 11
-17.793823000000032
 21
458.229401
  0
LINE
  8
_0-0_0
  6
CONTINUOUS
 62
    7
 10
-17.793823000000032
 20
458.229401
 11
-17.766525000000001
 21
458.13259900000003
  0
LINE
  8
_0-0_0
  6
CONTINUOUS
 62
    7
 10
-17.766525000000001
 20
458.13259900000003
 11
-17.745483000000036
 21
458.03656000000001
  0
LINE
  8
_0-0_0
  6
CONTINUOUS
 62
    7
 10
-17.745483000000036
 20
458.03656000000001
 11
-17.72955300000001
 21
457.93270899999999
  0
LINE
  8
_0-0_0
  6
CONTINUOUS
 62
    7
 10
-17.72955300000001
 20
457.93270899999999
 11
-17.720795000000066
 21
457.82928500000003
  0
LINE
  8
_0-0_0
  6
CONTINUOUS
 62
    7
 10
-17.720795000000066
 20
457.82928500000003
 11
-17.71916200000004
 21
457.726044
  0
LINE
  8
_0-0_0
  6
CONTINUOUS
 62
    7
 10
-17.71916200000004
 20
457.726044
 11
-17.72462500000006
 21
457.62274200000002
  0
LINE
  8
_0-0_0
  6
CONTINUOUS
 62
    7
 10
-17.72462500000006
 20
457.62274200000002
 11
-17.737244000000032
 21
457.51916499999999
  0
LINE
  8
_0-0_0
  6
CONTINUOUS
 62
    7
 10
-17.737244000000032
 20
457.51916499999999
 11
-17.757050000000049
 21
457.415009
  0
LINE
  8
_0-0_0
  6
CONTINUOUS
 62
    7
 10
-17.757050000000049
 20
457.415009
 11
-17.784195000000068
 21
457.31005900000002
  0
LINE
  8
_0-0_0
  6
CONTINUOUS
 62
    7
 10
-17.784195000000068
 20
457.31005900000002
 11
-17.818848000000003
 21
457.20400999999998
  0
LINE
  8
_0-0_0
  6
CONTINUOUS
 62
    7
 10
-17.818848000000003
 20
457.20400999999998
 11
-17.861191000000076
 21
457.09661899999998
  0
LINE
  8
_0-0_0
  6
CONTINUOUS
 62
    7
 10
-17.861191000000076
 20
457.09661899999998
 11
-17.911514000000011
 21
456.98764
  0
LINE
  8
_0-0_0
  6
CONTINUOUS
 62
    7
 10
-17.911514000000011
 20
456.98764
 11
-17.95719900000006
 21
456.89996300000001
  0
LINE
  8
_0-0_0
  6
CONTINUOUS
 62
    7
 10
-12.968903000000068
 20
453.42456099999998
 11
-12.718903000000068
 21
453.40002399999997
  0
LINE
  8
_0-0_0
  6
CONTINUOUS
 62
    7
 10
-12.968903000000068
 20
453.62853999999999
 11
-12.718903000000068
 21
453.40002399999997
  0
LINE
  8
_0-0_0
  6
CONTINUOUS
 62
    7
 10
-12.968903000000068
 20
453.234039
 11
-12.718903000000068
 21
453.180542
  0
LINE
  8
_0-0_0
  6
CONTINUOUS
 62
    7
 10
-12.968903000000068
 20
453.42456099999998
 11
-12.718903000000068
 21
453.180542
  0
LINE
  8
_0-0_0
  6
CONTINUOUS
 62
    7
 10
-12.968903000000068
 20
453.05902099999997
 11
-12.718903000000068
 21
452.97717299999999
  0
LINE
  8
_0-0_0
  6
CONTINUOUS
 62
    7
 10
-12.968903000000068
 20
453.234039
 11
-12.718903000000068
 21
452.97717299999999
  0
LINE
  8
_0-0_0
  6
CONTINUOUS
 62
    7
 10
-12.968903000000068
 20
452.90142800000001
 11
-12.718903000000068
 21
452.792145
  0
LINE
  8
_0-0_0
  6
CONTINUOUS
 62
    7
 10
-12.968903000000068
 20
453.05902099999997
 11
-12.718903000000068
 21
452.792145
  0
LINE
  8
_0-0_0
  6
CONTINUOUS
 62
    7
 10
-12.968903000000068
 20
452.76299999999998
 11
-12.718903000000068
 21
452.62747200000001
  0
LINE
  8
_0-0_0
  6
CONTINUOUS
 62
    7
 10
-12.968903000000068
 20
452.90142800000001
 11
-12.718903000000068
 21
452.62747200000001
  0
LINE
  8
_0-0_0
  6
CONTINUOUS
 62
    7
 10
-12.968903000000068
 20
452.64523300000002
 11
-12.718903000000068
 21
452.48495500000001
  0
LINE
  8
_0-0_0
  6
CONTINUOUS
 62
    7
 10
-12.968903000000068
 20
452.76299999999998
 11
-12.718903000000068
 21
452.48495500000001
  0
LINE
  8
_0-0_0
  6
CONTINUOUS
 62
    7
 10
-12.968903000000068
 20
452.54943800000001
 11
-12.718903000000068
 21
452.36615
  0
LINE
  8
_0-0_0
  6
CONTINUOUS
 62
    7
 10
-12.968903000000068
 20
452.64523300000002
 11
-12.718903000000068
 21
452.36615
  0
LINE
  8
_0-0_0
  6
CONTINUOUS
 62
    7
 10
-12.968903000000068
 20
452.47668499999997
 11
-12.718903000000068
 21
452.27236900000003
  0
LINE
  8
_0-0_0
  6
CONTINUOUS
 62
    7
 10
-12.968903000000068
 20
452.54943800000001
 11
-12.718903000000068
 21
452.27236900000003
  0
LINE
  8
_0-0_0
  6
CONTINUOUS
 62
    7
 10
-12.968903000000068
 20
452.42770400000001
 11
-12.718903000000068
 21
452.20465100000001
  0
LINE
  8
_0-0_0
  6
CONTINUOUS
 62
    7
 10
-12.968903000000068
 20
452.47668499999997
 11
-12.718903000000068
 21
452.20465100000001
  0
LINE
  8
_0-0_0
  6
CONTINUOUS
 62
    7
 10
-12.968903000000068
 20
452.403076
 11
-12.718903000000068
 21
452.16369600000002
  0
LINE
  8
_0-0_0
  6
CONTINUOUS
 62
    7
 10
-12.968903000000068
 20
452.42770400000001
 11
-12.718903000000068
 21
452.16369600000002
  0
LINE
  8
_0-0_0
  6
CONTINUOUS
 62
    7
 10
-12.968903000000068
 20
452.403076
 11
-12.718903000000068
 21
452.15002399999997
  0
LINE
  8
_0-0_0
  6
CONTINUOUS
 62
    7
 10
-12.968903000000068
 20
456.89691199999999
 11
-12.718903000000068
 21
457.15002399999997
  0
LINE
  8
_0-0_0
  6
CONTINUOUS
 62
    7
 10
-12.968903000000068
 20
456.87231400000002
 11
-12.718903000000068
 21
457.13632200000001
  0
LINE
  8
_0-0_0
  6
CONTINUOUS
 62
    7
 10
-12.968903000000068
 20
456.89691199999999
 11
-12.718903000000068
 21
457.13632200000001
  0
LINE
  8
_0-0_0
  6
CONTINUOUS
 62
    7
 10
-12.968903000000068
 20
456.82333399999999
 11
-12.718903000000068
 21
457.09536700000001
  0
LINE
  8
_0-0_0
  6
CONTINUOUS
 62
    7
 10
-12.968903000000068
 20
456.87231400000002
 11
-12.718903000000068
 21
457.09536700000001
  0
LINE
  8
_0-0_0
  6
CONTINUOUS
 62
    7
 10
-12.968903000000068
 20
456.75054899999998
 11
-12.718903000000068
 21
457.027649
  0
LINE
  8
_0-0_0
  6
CONTINUOUS
 62
    7
 10
-12.968903000000068
 20
456.82333399999999
 11
-12.718903000000068
 21
457.027649
  0
LINE
  8
_0-0_0
  6
CONTINUOUS
 62
    7
 10
-12.968903000000068
 20
456.654785
 11
-12.718903000000068
 21
456.93386800000002
  0
LINE
  8
_0-0_0
  6
CONTINUOUS
 62
    7
 10
-12.968903000000068
 20
456.75054899999998
 11
-12.718903000000068
 21
456.93386800000002
  0
LINE
  8
_0-0_0
  6
CONTINUOUS
 62
    7
 10
-12.968903000000068
 20
456.654785
 11
-12.83892800000001
 21
456.73861699999998
  0
LINE
  8
_0-0_0
  6
CONTINUOUS
 62
    7
 10
-12.968903000000068
 20
456.53701799999999
 11
-12.718903000000068
 21
456.81506300000001
  0
LINE
  8
_0-0_0
  6
CONTINUOUS
 62
    7
 10
-12.83892800000001
 20
456.73861699999998
 11
-12.718903000000068
 21
456.81506300000001
  0
LINE
  8
_0-0_0
  6
CONTINUOUS
 62
    7
 10
-12.968903000000068
 20
456.39859000000001
 11
-12.718903000000068
 21
456.67254600000001
  0
LINE
  8
_0-0_0
  6
CONTINUOUS
 62
    7
 10
-12.968903000000068
 20
456.53701799999999
 11
-12.718903000000068
 21
456.67254600000001
  0
LINE
  8
_0-0_0
  6
CONTINUOUS
 62
    7
 10
-12.968903000000068
 20
456.24099699999999
 11
-12.718903000000068
 21
456.50787400000002
  0
LINE
  8
_0-0_0
  6
CONTINUOUS
 62
    7
 10
-12.968903000000068
 20
456.39859000000001
 11
-12.718903000000068
 21
456.50787400000002
  0
LINE
  8
_0-0_0
  6
CONTINUOUS
 62
    7
 10
-12.968903000000068
 20
456.06597900000003
 11
-12.718903000000068
 21
456.32284499999997
  0
LINE
  8
_0-0_0
  6
CONTINUOUS
 62
    7
 10
-12.968903000000068
 20
456.24099699999999
 11
-12.718903000000068
 21
456.32284499999997
  0
LINE
  8
_0-0_0
  6
CONTINUOUS
 62
    7
 10
-12.968903000000068
 20
455.875427
 11
-12.718903000000068
 21
456.11947600000002
  0
LINE
  8
_0-0_0
  6
CONTINUOUS
 62
    7
 10
-12.968903000000068
 20
456.06597900000003
 11
-12.718903000000068
 21
456.11947600000002
  0
LINE
  8
_0-0_0
  6
CONTINUOUS
 62
    7
 10
-12.968903000000068
 20
455.67147799999998
 11
-12.718903000000068
 21
455.90002399999997
  0
LINE
  8
_0-0_0
  6
CONTINUOUS
 62
    7
 10
-12.968903000000068
 20
455.875427
 11
-12.718903000000068
 21
455.90002399999997
  0
LINE
  8
_0-0_0
  6
CONTINUOUS
 62
    7
 10
-12.968903000000068
 20
455.45632899999998
 11
-12.718903000000068
 21
455.66683999999998
  0
LINE
  8
_0-0_0
  6
CONTINUOUS
 62
    7
 10
-12.968903000000068
 20
455.67147799999998
 11
-12.718903000000068
 21
455.66683999999998
  0
LINE
  8
_0-0_0
  6
CONTINUOUS
 62
    7
 10
-12.968903000000068
 20
455.23236100000003
 11
-12.718903000000068
 21
455.42254600000001
  0
LINE
  8
_0-0_0
  6
CONTINUOUS
 62
    7
 10
-12.968903000000068
 20
455.45632899999998
 11
-12.718903000000068
 21
455.42254600000001
  0
LINE
  8
_0-0_0
  6
CONTINUOUS
 62
    7
 10
-12.968903000000068
 20
455.00198399999999
 11
-12.718903000000068
 21
455.16980000000001
  0
LINE
  8
_0-0_0
  6
CONTINUOUS
 62
    7
 10
-12.968903000000068
 20
455.23236100000003
 11
-12.718903000000068
 21
455.16980000000001
  0
LINE
  8
_0-0_0
  6
CONTINUOUS
 62
    7
 10
-12.968903000000068
 20
454.76776100000001
 11
-12.718903000000068
 21
454.911316
  0
LINE
  8
_0-0_0
  6
CONTINUOUS
 62
    7
 10
-12.968903000000068
 20
455.00198399999999
 11
-12.718903000000068
 21
454.911316
  0
LINE
  8
_0-0_0
  6
CONTINUOUS
 62
    7
 10
-12.968903000000068
 20
454.53225700000002
 11
-12.718903000000068
 21
454.65002399999997
  0
LINE
  8
_0-0_0
  6
CONTINUOUS
 62
    7
 10
-12.968903000000068
 20
454.76776100000001
 11
-12.718903000000068
 21
454.65002399999997
  0
LINE
  8
_0-0_0
  6
CONTINUOUS
 62
    7
 10
-12.968903000000068
 20
454.29803500000003
 11
-12.718903000000068
 21
454.38867199999999
  0
LINE
  8
_0-0_0
  6
CONTINUOUS
 62
    7
 10
-12.968903000000068
 20
454.53225700000002
 11
-12.718903000000068
 21
454.38867199999999
  0
LINE
  8
_0-0_0
  6
CONTINUOUS
 62
    7
 10
-12.968903000000068
 20
454.067657
 11
-12.718903000000068
 21
454.13021900000001
  0
LINE
  8
_0-0_0
  6
CONTINUOUS
 62
    7
 10
-12.968903000000068
 20
454.29803500000003
 11
-12.718903000000068
 21
454.13021900000001
  0
LINE
  8
_0-0_0
  6
CONTINUOUS
 62
    7
 10
-12.968903000000068
 20
453.84368899999998
 11
-12.718903000000068
 21
453.87747200000001
  0
LINE
  8
_0-0_0
  6
CONTINUOUS
 62
    7
 10
-12.968903000000068
 20
454.067657
 11
-12.718903000000068
 21
453.87747200000001
  0
LINE
  8
_0-0_0
  6
CONTINUOUS
 62
    7
 10
-12.968903000000068
 20
453.62853999999999
 11
-12.718903000000068
 21
453.63317899999998
  0
LINE
  8
_0-0_0
  6
CONTINUOUS
 62
    7
 10
-12.968903000000068
 20
453.84368899999998
 11
-12.718903000000068
 21
453.63317899999998
  0
LINE
  8
_0-0_0
  6
CONTINUOUS
 62
    7
 10
-27.968903000000068
 20
460.34231599999998
 11
-18.261077999999998
 21
460.34231599999998
  0
LINE
  8
_0-0_0
  6
CONTINUOUS
 62
    7
 10
-18.261077999999998
 20
460.34231599999998
 11
-18.166748000000041
 21
460.58892800000001
  0
LINE
  8
_0-0_0
  6
CONTINUOUS
 62
    7
 10
-18.166748000000041
 20
460.58892800000001
 11
-18.082794000000035
 21
460.82891799999999
  0
LINE
  8
_0-0_0
  6
CONTINUOUS
 62
    7
 10
-18.082794000000035
 20
460.82891799999999
 11
-18.008637000000022
 21
461.063019
  0
LINE
  8
_0-0_0
  6
CONTINUOUS
 62
    7
 10
-18.008637000000022
 20
461.063019
 11
-17.943756000000008
 21
461.29205300000001
  0
LINE
  8
_0-0_0
  6
CONTINUOUS
 62
    7
 10
-17.943756000000008
 20
461.29205300000001
 11
-17.887711000000081
 21
461.51672400000001
  0
LINE
  8
_0-0_0
  6
CONTINUOUS
 62
    7
 10
-17.887711000000081
 20
461.51672400000001
 11
-17.840149000000054
 21
461.73770100000002
  0
LINE
  8
_0-0_0
  6
CONTINUOUS
 62
    7
 10
-17.840149000000054
 20
461.73770100000002
 11
-17.800751000000048
 21
461.95562699999999
  0
LINE
  8
_0-0_0
  6
CONTINUOUS
 62
    7
 10
-17.800751000000048
 20
461.95562699999999
 11
-17.769257000000039
 21
462.17108200000001
  0
LINE
  8
_0-0_0
  6
CONTINUOUS
 62
    7
 10
-17.769257000000039
 20
462.17108200000001
 11
-17.745483000000036
 21
462.384613
  0
LINE
  8
_0-0_0
  6
CONTINUOUS
 62
    7
 10
-17.745483000000036
 20
462.384613
 11
-17.72955300000001
 21
462.59231599999998
  0
LINE
  8
_0-0_0
  6
CONTINUOUS
 62
    7
 10
-17.72955300000001
 20
462.59231599999998
 11
-17.720795000000066
 21
462.79916400000002
  0
LINE
  8
_0-0_0
  6
CONTINUOUS
 62
    7
 10
-17.720795000000066
 20
462.79916400000002
 11
-17.71916200000004
 21
463.00564600000001
  0
LINE
  8
_0-0_0
  6
CONTINUOUS
 62
    7
 10
-17.71916200000004
 20
463.00564600000001
 11
-17.72462500000006
 21
463.212219
  0
LINE
  8
_0-0_0
  6
CONTINUOUS
 62
    7
 10
-17.72462500000006
 20
463.212219
 11
-17.737244000000032
 21
463.41940299999999
  0
LINE
  8
_0-0_0
  6
CONTINUOUS
 62
    7
 10
-17.737244000000032
 20
463.41940299999999
 11
-17.757050000000049
 21
463.62771600000002
  0
LINE
  8
_0-0_0
  6
CONTINUOUS
 62
    7
 10
-17.757050000000049
 20
463.62771600000002
 11
-17.784195000000068
 21
463.83761600000003
  0
LINE
  8
_0-0_0
  6
CONTINUOUS
 62
    7
 10
-17.784195000000068
 20
463.83761600000003
 11
-17.818848000000003
 21
464.04968300000002
  0
LINE
  8
_0-0_0
  6
CONTINUOUS
 62
    7
 10
-17.818848000000003
 20
464.04968300000002
 11
-17.861191000000076
 21
464.26443499999999
  0
LINE
  8
_0-0_0
  6
CONTINUOUS
 62
    7
 10
-17.861191000000076
 20
464.26443499999999
 11
-17.911514000000011
 21
464.48245200000002
  0
LINE
  8
_0-0_0
  6
CONTINUOUS
 62
    7
 10
-17.911514000000011
 20
464.48245200000002
 11
-17.965759000000048
 21
464.68872099999999
  0
LINE
  8
_0-0_0
  6
CONTINUOUS
 62
    7
 10
-17.965759000000048
 20
464.68872099999999
 11
-18.027466000000004
 21
464.89883400000002
  0
LINE
  8
_0-0_0
  6
CONTINUOUS
 62
    7
 10
-18.027466000000004
 20
464.89883400000002
 11
-18.096985000000018
 21
465.11331200000001
  0
LINE
  8
_0-0_0
  6
CONTINUOUS
 62
    7
 10
-18.096985000000018
 20
465.11331200000001
 11
-18.174698000000035
 21
465.33273300000002
  0
LINE
  8
_0-0_0
  6
CONTINUOUS
 62
    7
 10
-18.174698000000035
 20
465.33273300000002
 11
-18.261077999999998
 21
465.55770899999999
  0
LINE
  8
_0-0_0
  6
CONTINUOUS
 62
    7
 10
-27.968903000000068
 20
465.55770899999999
 11
-18.261077999999998
 21
465.55770899999999
  0
ARC
  8
_0-0_0
  6
CONTINUOUS
 62
    7
 10
-23.132629000000065
 20
459.70001200000002
 40
4.9136889999999998
 50
352.48898799999995
 51
7.5110139999999577
  0
ARC
  8
_0-0_0
  6
CONTINUOUS
 62
    7
 10
-23.142792000000043
 20
466.200897
 40
4.9238749999999998
 50
352.49423299999995
 51
1.5359699999999901
  0
ARC
  8
_0-0_0
  6
CONTINUOUS
 62
    7
 10
-23.180817000000047
 20
466.19595299999997
 40
4.9620009999999999
 50
1.5813010000000001
 51
7.4847919999999997
  0
LINE
  8
_0-0_0
  6
CONTINUOUS
 62
    7
 10
-16.968903000000068
 20
465.68154900000002
 11
-16.968903000000068
 21
468.20001200000002
  0
LINE
  8
_0-0_0
  6
CONTINUOUS
 62
    7
 10
-16.968903000000068
 20
457.70001200000002
 11
-16.968903000000068
 21
465.68154900000002
  0
LINE
  8
_0-0_0
  6
CONTINUOUS
 62
    7
 10
-3.2189030000000685
 20
453.42456099999998
 11
-3.4689030000000685
 21
453.40002399999997
  0
LINE
  8
_0-0_0
  6
CONTINUOUS
 62
    7
 10
-3.4689030000000685
 20
453.40002399999997
 11
-12.718903000000068
 21
453.40002399999997
  0
LINE
  8
_0-0_0
  6
CONTINUOUS
 62
    7
 10
-3.2189030000000685
 20
453.62853999999999
 11
-3.4689030000000685
 21
453.40002399999997
  0
LINE
  8
_0-0_0
  6
CONTINUOUS
 62
    7
 10
-3.2189030000000685
 20
453.62853999999999
 11
-12.968903000000068
 21
453.62853999999999
  0
LINE
  8
_0-0_0
  6
CONTINUOUS
 62
    7
 10
-3.2189030000000685
 20
453.234039
 11
-3.4689030000000685
 21
453.180542
  0
LINE
  8
_0-0_0
  6
CONTINUOUS
 62
    7
 10
-3.4689030000000685
 20
453.180542
 11
-12.718903000000068
 21
453.180542
  0
LINE
  8
_0-0_0
  6
CONTINUOUS
 62
    7
 10
-3.2189030000000685
 20
453.42456099999998
 11
-3.4689030000000685
 21
453.180542
  0
LINE
  8
_0-0_0
  6
CONTINUOUS
 62
    7
 10
-3.2189030000000685
 20
453.05902099999997
 11
-3.4689030000000685
 21
452.97717299999999
  0
LINE
  8
_0-0_0
  6
CONTINUOUS
 62
    7
 10
-3.4689030000000685
 20
452.97717299999999
 11
-12.718903000000068
 21
452.97717299999999
  0
LINE
  8
_0-0_0
  6
CONTINUOUS
 62
    7
 10
-3.2189030000000685
 20
453.234039
 11
-3.4689030000000685
 21
452.97717299999999
  0
LINE
  8
_0-0_0
  6
CONTINUOUS
 62
    7
 10
-3.2189030000000685
 20
452.90142800000001
 11
-3.4689030000000685
 21
452.792145
  0
LINE
  8
_0-0_0
  6
CONTINUOUS
 62
    7
 10
-3.4689030000000685
 20
452.792145
 11
-12.718903000000068
 21
452.792145
  0
LINE
  8
_0-0_0
  6
CONTINUOUS
 62
    7
 10
-3.2189030000000685
 20
453.05902099999997
 11
-3.4689030000000685
 21
452.792145
  0
LINE
  8
_0-0_0
  6
CONTINUOUS
 62
    7
 10
-3.2189030000000685
 20
452.76299999999998
 11
-3.4689030000000685
 21
452.62747200000001
  0
LINE
  8
_0-0_0
  6
CONTINUOUS
 62
    7
 10
-3.4689030000000685
 20
452.62747200000001
 11
-12.718903000000068
 21
452.62747200000001
  0
LINE
  8
_0-0_0
  6
CONTINUOUS
 62
    7
 10
-3.2189030000000685
 20
452.90142800000001
 11
-3.4689030000000685
 21
452.62747200000001
  0
LINE
  8
_0-0_0
  6
CONTINUOUS
 62
    7
 10
-3.2189030000000685
 20
452.64523300000002
 11
-3.4689030000000685
 21
452.48495500000001
  0
LINE
  8
_0-0_0
  6
CONTINUOUS
 62
    7
 10
-3.4689030000000685
 20
452.48495500000001
 11
-12.718903000000068
 21
452.48495500000001
  0
LINE
  8
_0-0_0
  6
CONTINUOUS
 62
    7
 10
-3.2189030000000685
 20
452.76299999999998
 11
-3.4689030000000685
 21
452.48495500000001
  0
LINE
  8
_0-0_0
  6
CONTINUOUS
 62
    7
 10
-3.2189030000000685
 20
452.54943800000001
 11
-3.4689030000000685
 21
452.36615
  0
LINE
  8
_0-0_0
  6
CONTINUOUS
 62
    7
 10
-3.4689030000000685
 20
452.36615
 11
-12.718903000000068
 21
452.36615
  0
LINE
  8
_0-0_0
  6
CONTINUOUS
 62
    7
 10
-3.2189030000000685
 20
452.64523300000002
 11
-3.4689030000000685
 21
452.36615
  0
LINE
  8
_0-0_0
  6
CONTINUOUS
 62
    7
 10
-3.2189030000000685
 20
452.47668499999997
 11
-3.4689030000000685
 21
452.27236900000003
  0
LINE
  8
_0-0_0
  6
CONTINUOUS
 62
    7
 10
-3.4689030000000685
 20
452.27236900000003
 11
-12.718903000000068
 21
452.27236900000003
  0
LINE
  8
_0-0_0
  6
CONTINUOUS
 62
    7
 10
-3.2189030000000685
 20
452.54943800000001
 11
-3.4689030000000685
 21
452.27236900000003
  0
LINE
  8
_0-0_0
  6
CONTINUOUS
 62
    7
 10
-3.2189030000000685
 20
452.42770400000001
 11
-3.4689030000000685
 21
452.20465100000001
  0
LINE
  8
_0-0_0
  6
CONTINUOUS
 62
    7
 10
-3.4689030000000685
 20
452.20465100000001
 11
-12.718903000000068
 21
452.20465100000001
  0
LINE
  8
_0-0_0
  6
CONTINUOUS
 62
    7
 10
-3.2189030000000685
 20
452.47668499999997
 11
-3.4689030000000685
 21
452.20465100000001
  0
LINE
  8
_0-0_0
  6
CONTINUOUS
 62
    7
 10
-3.2189030000000685
 20
452.403076
 11
-3.4689030000000685
 21
452.16369600000002
  0
LINE
  8
_0-0_0
  6
CONTINUOUS
 62
    7
 10
-3.4689030000000685
 20
452.16369600000002
 11
-12.718903000000068
 21
452.16369600000002
  0
LINE
  8
_0-0_0
  6
CONTINUOUS
 62
    7
 10
-3.2189030000000685
 20
452.42770400000001
 11
-3.4689030000000685
 21
452.16369600000002
  0
LINE
  8
_0-0_0
  6
CONTINUOUS
 62
    7
 10
-3.4689030000000685
 20
452.15002399999997
 11
-12.718903000000068
 21
452.15002399999997
  0
LINE
  8
_0-0_0
  6
CONTINUOUS
 62
    7
 10
-3.2189030000000685
 20
452.403076
 11
-3.4689030000000685
 21
452.15002399999997
  0
LINE
  8
_0-0_0
  6
CONTINUOUS
 62
    7
 10
-3.2189030000000685
 20
456.89691199999999
 11
-3.4689030000000685
 21
457.15002399999997
  0
LINE
  8
_0-0_0
  6
CONTINUOUS
 62
    7
 10
-3.4689030000000685
 20
457.15002399999997
 11
-12.718903000000068
 21
457.15002399999997
  0
LINE
  8
_0-0_0
  6
CONTINUOUS
 62
    7
 10
-3.2189030000000685
 20
456.87231400000002
 11
-3.4689030000000685
 21
457.13632200000001
  0
LINE
  8
_0-0_0
  6
CONTINUOUS
 62
    7
 10
-3.4689030000000685
 20
457.13632200000001
 11
-12.718903000000068
 21
457.13632200000001
  0
LINE
  8
_0-0_0
  6
CONTINUOUS
 62
    7
 10
-3.2189030000000685
 20
456.89691199999999
 11
-3.4689030000000685
 21
457.13632200000001
  0
LINE
  8
_0-0_0
  6
CONTINUOUS
 62
    7
 10
-3.2189030000000685
 20
456.82333399999999
 11
-3.4689030000000685
 21
457.09536700000001
  0
LINE
  8
_0-0_0
  6
CONTINUOUS
 62
    7
 10
-3.4689030000000685
 20
457.09536700000001
 11
-12.718903000000068
 21
457.09536700000001
  0
LINE
  8
_0-0_0
  6
CONTINUOUS
 62
    7
 10
-3.2189030000000685
 20
456.87231400000002
 11
-3.4689030000000685
 21
457.09536700000001
  0
LINE
  8
_0-0_0
  6
CONTINUOUS
 62
    7
 10
-3.2189030000000685
 20
456.75054899999998
 11
-3.4689030000000685
 21
457.027649
  0
LINE
  8
_0-0_0
  6
CONTINUOUS
 62
    7
 10
-3.4689030000000685
 20
457.027649
 11
-12.718903000000068
 21
457.027649
  0
LINE
  8
_0-0_0
  6
CONTINUOUS
 62
    7
 10
-3.2189030000000685
 20
456.82333399999999
 11
-3.4689030000000685
 21
457.027649
  0
LINE
  8
_0-0_0
  6
CONTINUOUS
 62
    7
 10
-3.2189030000000685
 20
456.654785
 11
-3.4689030000000685
 21
456.93386800000002
  0
LINE
  8
_0-0_0
  6
CONTINUOUS
 62
    7
 10
-3.4689030000000685
 20
456.93386800000002
 11
-12.718903000000068
 21
456.93386800000002
  0
LINE
  8
_0-0_0
  6
CONTINUOUS
 62
    7
 10
-3.2189030000000685
 20
456.75054899999998
 11
-3.4689030000000685
 21
456.93386800000002
  0
LINE
  8
_0-0_0
  6
CONTINUOUS
 62
    7
 10
-3.4689030000000685
 20
456.81506300000001
 11
-12.718903000000068
 21
456.81506300000001
  0
LINE
  8
_0-0_0
  6
CONTINUOUS
 62
    7
 10
-3.3488620000000537
 20
456.73861699999998
 11
-3.4689030000000685
 21
456.81506300000001
  0
LINE
  8
_0-0_0
  6
CONTINUOUS
 62
    7
 10
-3.2189030000000685
 20
456.654785
 11
-3.3488620000000537
 21
456.73861699999998
  0
LINE
  8
_0-0_0
  6
CONTINUOUS
 62
    7
 10
-3.2189030000000685
 20
456.53701799999999
 11
-3.4689030000000685
 21
456.81506300000001
  0
LINE
  8
_0-0_0
  6
CONTINUOUS
 62
    7
 10
-3.2189030000000685
 20
456.39859000000001
 11
-3.4689030000000685
 21
456.67254600000001
  0
LINE
  8
_0-0_0
  6
CONTINUOUS
 62
    7
 10
-3.4689030000000685
 20
456.67254600000001
 11
-12.718903000000068
 21
456.67254600000001
  0
LINE
  8
_0-0_0
  6
CONTINUOUS
 62
    7
 10
-3.2189030000000685
 20
456.53701799999999
 11
-3.4689030000000685
 21
456.67254600000001
  0
LINE
  8
_0-0_0
  6
CONTINUOUS
 62
    7
 10
-3.2189030000000685
 20
456.24099699999999
 11
-3.4689030000000685
 21
456.50787400000002
  0
LINE
  8
_0-0_0
  6
CONTINUOUS
 62
    7
 10
-3.4689030000000685
 20
456.50787400000002
 11
-12.718903000000068
 21
456.50787400000002
  0
LINE
  8
_0-0_0
  6
CONTINUOUS
 62
    7
 10
-3.2189030000000685
 20
456.39859000000001
 11
-3.4689030000000685
 21
456.50787400000002
  0
LINE
  8
_0-0_0
  6
CONTINUOUS
 62
    7
 10
-3.2189030000000685
 20
456.06597900000003
 11
-3.4689030000000685
 21
456.32284499999997
  0
LINE
  8
_0-0_0
  6
CONTINUOUS
 62
    7
 10
-3.4689030000000685
 20
456.32284499999997
 11
-12.718903000000068
 21
456.32284499999997
  0
LINE
  8
_0-0_0
  6
CONTINUOUS
 62
    7
 10
-3.2189030000000685
 20
456.24099699999999
 11
-3.4689030000000685
 21
456.32284499999997
  0
LINE
  8
_0-0_0
  6
CONTINUOUS
 62
    7
 10
-3.2189030000000685
 20
455.875427
 11
-3.4689030000000685
 21
456.11947600000002
  0
LINE
  8
_0-0_0
  6
CONTINUOUS
 62
    7
 10
-3.4689030000000685
 20
456.11947600000002
 11
-12.718903000000068
 21
456.11947600000002
  0
LINE
  8
_0-0_0
  6
CONTINUOUS
 62
    7
 10
-3.2189030000000685
 20
456.06597900000003
 11
-3.4689030000000685
 21
456.11947600000002
  0
LINE
  8
_0-0_0
  6
CONTINUOUS
 62
    7
 10
-3.2189030000000685
 20
455.67147799999998
 11
-3.4689030000000685
 21
455.90002399999997
  0
LINE
  8
_0-0_0
  6
CONTINUOUS
 62
    7
 10
-3.4689030000000685
 20
455.90002399999997
 11
-12.718903000000068
 21
455.90002399999997
  0
LINE
  8
_0-0_0
  6
CONTINUOUS
 62
    7
 10
-3.2189030000000685
 20
455.67147799999998
 11
-12.968903000000068
 21
455.67147799999998
  0
LINE
  8
_0-0_0
  6
CONTINUOUS
 62
    7
 10
-3.2189030000000685
 20
455.875427
 11
-3.4689030000000685
 21
455.90002399999997
  0
LINE
  8
_0-0_0
  6
CONTINUOUS
 62
    7
 10
-3.2189030000000685
 20
455.45632899999998
 11
-3.4689030000000685
 21
455.66683999999998
  0
LINE
  8
_0-0_0
  6
CONTINUOUS
 62
    7
 10
-3.4689030000000685
 20
455.66683999999998
 11
-12.718903000000068
 21
455.66683999999998
  0
LINE
  8
_0-0_0
  6
CONTINUOUS
 62
    7
 10
-3.2189030000000685
 20
455.45632899999998
 11
-12.968903000000068
 21
455.45632899999998
  0
LINE
  8
_0-0_0
  6
CONTINUOUS
 62
    7
 10
-3.2189030000000685
 20
455.67147799999998
 11
-3.4689030000000685
 21
455.66683999999998
  0
LINE
  8
_0-0_0
  6
CONTINUOUS
 62
    7
 10
-3.2189030000000685
 20
455.23236100000003
 11
-3.4689030000000685
 21
455.42254600000001
  0
LINE
  8
_0-0_0
  6
CONTINUOUS
 62
    7
 10
-3.4689030000000685
 20
455.42254600000001
 11
-12.718903000000068
 21
455.42254600000001
  0
LINE
  8
_0-0_0
  6
CONTINUOUS
 62
    7
 10
-3.2189030000000685
 20
455.23236100000003
 11
-12.968903000000068
 21
455.23236100000003
  0
LINE
  8
_0-0_0
  6
CONTINUOUS
 62
    7
 10
-3.2189030000000685
 20
455.45632899999998
 11
-3.4689030000000685
 21
455.42254600000001
  0
LINE
  8
_0-0_0
  6
CONTINUOUS
 62
    7
 10
-3.2189030000000685
 20
455.00198399999999
 11
-3.4689030000000685
 21
455.16980000000001
  0
LINE
  8
_0-0_0
  6
CONTINUOUS
 62
    7
 10
-3.4689030000000685
 20
455.16980000000001
 11
-12.718903000000068
 21
455.16980000000001
  0
LINE
  8
_0-0_0
  6
CONTINUOUS
 62
    7
 10
-3.2189030000000685
 20
455.00198399999999
 11
-12.968903000000068
 21
455.00198399999999
  0
LINE
  8
_0-0_0
  6
CONTINUOUS
 62
    7
 10
-3.2189030000000685
 20
455.23236100000003
 11
-3.4689030000000685
 21
455.16980000000001
  0
LINE
  8
_0-0_0
  6
CONTINUOUS
 62
    7
 10
-3.2189030000000685
 20
454.76776100000001
 11
-3.4689030000000685
 21
454.911316
  0
LINE
  8
_0-0_0
  6
CONTINUOUS
 62
    7
 10
-3.4689030000000685
 20
454.911316
 11
-12.718903000000068
 21
454.911316
  0
LINE
  8
_0-0_0
  6
CONTINUOUS
 62
    7
 10
-3.2189030000000685
 20
454.76776100000001
 11
-12.968903000000068
 21
454.76776100000001
  0
LINE
  8
_0-0_0
  6
CONTINUOUS
 62
    7
 10
-3.2189030000000685
 20
455.00198399999999
 11
-3.4689030000000685
 21
454.911316
  0
LINE
  8
_0-0_0
  6
CONTINUOUS
 62
    7
 10
-3.2189030000000685
 20
454.53225700000002
 11
-3.4689030000000685
 21
454.65002399999997
  0
LINE
  8
_0-0_0
  6
CONTINUOUS
 62
    7
 10
-3.4689030000000685
 20
454.65002399999997
 11
-12.718903000000068
 21
454.65002399999997
  0
LINE
  8
_0-0_0
  6
CONTINUOUS
 62
    7
 10
-3.2189030000000685
 20
454.53225700000002
 11
-12.968903000000068
 21
454.53225700000002
  0
LINE
  8
_0-0_0
  6
CONTINUOUS
 62
    7
 10
-3.2189030000000685
 20
454.76776100000001
 11
-3.4689030000000685
 21
454.65002399999997
  0
LINE
  8
_0-0_0
  6
CONTINUOUS
 62
    7
 10
-3.2189030000000685
 20
454.29803500000003
 11
-3.4689030000000685
 21
454.38867199999999
  0
LINE
  8
_0-0_0
  6
CONTINUOUS
 62
    7
 10
-3.4689030000000685
 20
454.38867199999999
 11
-12.718903000000068
 21
454.38867199999999
  0
LINE
  8
_0-0_0
  6
CONTINUOUS
 62
    7
 10
-3.2189030000000685
 20
454.29803500000003
 11
-12.968903000000068
 21
454.29803500000003
  0
LINE
  8
_0-0_0
  6
CONTINUOUS
 62
    7
 10
-3.2189030000000685
 20
454.53225700000002
 11
-3.4689030000000685
 21
454.38867199999999
  0
LINE
  8
_0-0_0
  6
CONTINUOUS
 62
    7
 10
-3.2189030000000685
 20
454.067657
 11
-3.4689030000000685
 21
454.13021900000001
  0
LINE
  8
_0-0_0
  6
CONTINUOUS
 62
    7
 10
-3.4689030000000685
 20
454.13021900000001
 11
-12.718903000000068
 21
454.13021900000001
  0
LINE
  8
_0-0_0
  6
CONTINUOUS
 62
    7
 10
-3.2189030000000685
 20
454.067657
 11
-12.968903000000068
 21
454.067657
  0
LINE
  8
_0-0_0
  6
CONTINUOUS
 62
    7
 10
-3.2189030000000685
 20
454.29803500000003
 11
-3.4689030000000685
 21
454.13021900000001
  0
LINE
  8
_0-0_0
  6
CONTINUOUS
 62
    7
 10
-3.2189030000000685
 20
453.84368899999998
 11
-3.4689030000000685
 21
453.87747200000001
  0
LINE
  8
_0-0_0
  6
CONTINUOUS
 62
    7
 10
-3.4689030000000685
 20
453.87747200000001
 11
-12.718903000000068
 21
453.87747200000001
  0
LINE
  8
_0-0_0
  6
CONTINUOUS
 62
    7
 10
-3.2189030000000685
 20
453.84368899999998
 11
-12.968903000000068
 21
453.84368899999998
  0
LINE
  8
_0-0_0
  6
CONTINUOUS
 62
    7
 10
-3.2189030000000685
 20
454.067657
 11
-3.4689030000000685
 21
453.87747200000001
  0
LINE
  8
_0-0_0
  6
CONTINUOUS
 62
    7
 10
-3.2189030000000685
 20
453.62853999999999
 11
-3.4689030000000685
 21
453.63317899999998
  0
LINE
  8
_0-0_0
  6
CONTINUOUS
 62
    7
 10
-3.4689030000000685
 20
453.63317899999998
 11
-12.718903000000068
 21
453.63317899999998
  0
LINE
  8
_0-0_0
  6
CONTINUOUS
 62
    7
 10
-3.2189030000000685
 20
453.84368899999998
 11
-3.4689030000000685
 21
453.63317899999998
  0
LINE
  8
_0-0_0
  6
CONTINUOUS
 62
    7
 10
-2.9689030000000685
 20
452.65002399999997
 11
-2.9689030000000685
 21
456.40518200000002
  0
LINE
  8
_0-0_0
  6
CONTINUOUS
 62
    7
 10
-2.9689030000000685
 20
456.40518200000002
 11
-2.9689030000000685
 21
456.65002399999997
  0
LINE
  8
_0-0_0
  6
CONTINUOUS
 62
    7
 10
-16.568909000000076
 20
457.95001200000002
 11
-16.568909000000076
 21
460.45001200000002
  0
LINE
  8
_0-0_0
  6
CONTINUOUS
 62
    7
 10
-16.568909000000076
 20
460.45001200000002
 11
-16.568909000000076
 21
467.95001200000002
  0
LINE
  8
_0-0_0
  6
CONTINUOUS
 62
    7
 10
-15.768906000000015
 20
458.41189600000001
 11
-15.768906000000015
 21
460.68093900000002
  0
LINE
  8
_0-0_0
  6
CONTINUOUS
 62
    7
 10
-15.768906000000015
 20
460.68093900000002
 11
-15.768906000000015
 21
467.48812900000001
  0
LINE
  8
_0-0_0
  6
CONTINUOUS
 62
    7
 10
42.231093999999985
 20
458.95001200000002
 11
42.231093999999985
 21
458.95135499999998
  0
LINE
  8
_0-0_0
  6
CONTINUOUS
 62
    7
 10
42.231093999999985
 20
458.95135499999998
 11
42.231093999999985
 21
466.95001200000002
  0
LINE
  8
_0-0_0
  6
CONTINUOUS
 62
    7
 10
-12.968903000000068
 20
473.49691799999999
 11
-12.968903000000068
 21
473.5
  0
LINE
  8
_0-0_0
  6
CONTINUOUS
 62
    7
 10
-12.968903000000068
 20
473.47228999999999
 11
-12.968903000000068
 21
473.49691799999999
  0
LINE
  8
_0-0_0
  6
CONTINUOUS
 62
    7
 10
-12.968903000000068
 20
473.42334
 11
-12.968903000000068
 21
473.47228999999999
  0
LINE
  8
_0-0_0
  6
CONTINUOUS
 62
    7
 10
-12.968903000000068
 20
473.35055499999999
 11
-12.968903000000068
 21
473.42334
  0
LINE
  8
_0-0_0
  6
CONTINUOUS
 62
    7
 10
-12.968903000000068
 20
473.25476099999997
 11
-12.968903000000068
 21
473.35055499999999
  0
LINE
  8
_0-0_0
  6
CONTINUOUS
 62
    7
 10
-12.968903000000068
 20
473.22457900000001
 11
-12.968903000000068
 21
473.25476099999997
  0
LINE
  8
_0-0_0
  6
CONTINUOUS
 62
    7
 10
-12.968903000000068
 20
473.137024
 11
-12.968903000000068
 21
473.22457900000001
  0
LINE
  8
_0-0_0
  6
CONTINUOUS
 62
    7
 10
-12.968903000000068
 20
472.99859600000002
 11
-12.968903000000068
 21
473.137024
  0
LINE
  8
_0-0_0
  6
CONTINUOUS
 62
    7
 10
-12.968903000000068
 20
472.841003
 11
-12.968903000000068
 21
472.99859600000002
  0
LINE
  8
_0-0_0
  6
CONTINUOUS
 62
    7
 10
-12.968903000000068
 20
472.66598499999998
 11
-12.968903000000068
 21
472.841003
  0
LINE
  8
_0-0_0
  6
CONTINUOUS
 62
    7
 10
-12.968903000000068
 20
472.47543300000001
 11
-12.968903000000068
 21
472.66598499999998
  0
LINE
  8
_0-0_0
  6
CONTINUOUS
 62
    7
 10
-12.968903000000068
 20
472.27148399999999
 11
-12.968903000000068
 21
472.47543300000001
  0
LINE
  8
_0-0_0
  6
CONTINUOUS
 62
    7
 10
-12.968903000000068
 20
472.05633499999999
 11
-12.968903000000068
 21
472.27148399999999
  0
LINE
  8
_0-0_0
  6
CONTINUOUS
 62
    7
 10
-12.968903000000068
 20
471.832336
 11
-12.968903000000068
 21
472.05633499999999
  0
LINE
  8
_0-0_0
  6
CONTINUOUS
 62
    7
 10
-12.968903000000068
 20
471.60199
 11
-12.968903000000068
 21
471.832336
  0
LINE
  8
_0-0_0
  6
CONTINUOUS
 62
    7
 10
-12.968903000000068
 20
471.36776700000001
 11
-12.968903000000068
 21
471.60199
  0
LINE
  8
_0-0_0
  6
CONTINUOUS
 62
    7
 10
-12.968903000000068
 20
471.13226300000002
 11
-12.968903000000068
 21
471.36776700000001
  0
LINE
  8
_0-0_0
  6
CONTINUOUS
 62
    7
 10
-12.968903000000068
 20
470.89804099999998
 11
-12.968903000000068
 21
471.13226300000002
  0
LINE
  8
_0-0_0
  6
CONTINUOUS
 62
    7
 10
-12.968903000000068
 20
470.667664
 11
-12.968903000000068
 21
470.89804099999998
  0
LINE
  8
_0-0_0
  6
CONTINUOUS
 62
    7
 10
-12.968903000000068
 20
470.44366500000001
 11
-12.968903000000068
 21
470.667664
  0
LINE
  8
_0-0_0
  6
CONTINUOUS
 62
    7
 10
-12.968903000000068
 20
470.22851600000001
 11
-12.968903000000068
 21
470.44366500000001
  0
LINE
  8
_0-0_0
  6
CONTINUOUS
 62
    7
 10
-12.968903000000068
 20
470.17129499999999
 11
-12.968903000000068
 21
470.22851600000001
  0
LINE
  8
_0-0_0
  6
CONTINUOUS
 62
    7
 10
-12.968903000000068
 20
473.49691799999999
 11
-12.718903000000068
 21
473.75
  0
LINE
  8
_0-0_0
  6
CONTINUOUS
 62
    7
 10
-12.968903000000068
 20
473.47228999999999
 11
-12.718903000000068
 21
473.73632800000001
  0
LINE
  8
_0-0_0
  6
CONTINUOUS
 62
    7
 10
-12.968903000000068
 20
473.49691799999999
 11
-12.718903000000068
 21
473.73632800000001
  0
LINE
  8
_0-0_0
  6
CONTINUOUS
 62
    7
 10
-12.968903000000068
 20
473.42334
 11
-12.718903000000068
 21
473.69537400000002
  0
LINE
  8
_0-0_0
  6
CONTINUOUS
 62
    7
 10
-12.968903000000068
 20
473.47228999999999
 11
-12.718903000000068
 21
473.69537400000002
  0
LINE
  8
_0-0_0
  6
CONTINUOUS
 62
    7
 10
-12.968903000000068
 20
473.35055499999999
 11
-12.718903000000068
 21
473.627655
  0
LINE
  8
_0-0_0
  6
CONTINUOUS
 62
    7
 10
-12.968903000000068
 20
473.42334
 11
-12.718903000000068
 21
473.627655
  0
LINE
  8
_0-0_0
  6
CONTINUOUS
 62
    7
 10
-12.968903000000068
 20
473.25476099999997
 11
-12.718903000000068
 21
473.53387500000002
  0
LINE
  8
_0-0_0
  6
CONTINUOUS
 62
    7
 10
-12.968903000000068
 20
473.35055499999999
 11
-12.718903000000068
 21
473.53387500000002
  0
LINE
  8
_0-0_0
  6
CONTINUOUS
 62
    7
 10
-12.968903000000068
 20
473.25476099999997
 11
-12.83892800000001
 21
473.33862299999998
  0
LINE
  8
_0-0_0
  6
CONTINUOUS
 62
    7
 10
-12.968903000000068
 20
473.137024
 11
-12.718903000000068
 21
473.41507000000001
  0
LINE
  8
_0-0_0
  6
CONTINUOUS
 62
    7
 10
-12.83892800000001
 20
473.33862299999998
 11
-12.718903000000068
 21
473.41507000000001
  0
LINE
  8
_0-0_0
  6
CONTINUOUS
 62
    7
 10
-12.968903000000068
 20
472.99859600000002
 11
-12.718903000000068
 21
473.27255200000002
  0
LINE
  8
_0-0_0
  6
CONTINUOUS
 62
    7
 10
-12.968903000000068
 20
473.137024
 11
-12.718903000000068
 21
473.27255200000002
  0
LINE
  8
_0-0_0
  6
CONTINUOUS
 62
    7
 10
-12.968903000000068
 20
472.841003
 11
-12.718903000000068
 21
473.10788000000002
  0
LINE
  8
_0-0_0
  6
CONTINUOUS
 62
    7
 10
-12.968903000000068
 20
472.99859600000002
 11
-12.718903000000068
 21
473.10788000000002
  0
LINE
  8
_0-0_0
  6
CONTINUOUS
 62
    7
 10
-12.968903000000068
 20
472.66598499999998
 11
-12.718903000000068
 21
472.922821
  0
LINE
  8
_0-0_0
  6
CONTINUOUS
 62
    7
 10
-12.968903000000068
 20
472.841003
 11
-12.718903000000068
 21
472.922821
  0
LINE
  8
_0-0_0
  6
CONTINUOUS
 62
    7
 10
-12.968903000000068
 20
472.47543300000001
 11
-12.718903000000068
 21
472.71948200000003
  0
LINE
  8
_0-0_0
  6
CONTINUOUS
 62
    7
 10
-12.968903000000068
 20
472.66598499999998
 11
-12.718903000000068
 21
472.71948200000003
  0
LINE
  8
_0-0_0
  6
CONTINUOUS
 62
    7
 10
-12.968903000000068
 20
472.27148399999999
 11
-12.718903000000068
 21
472.5
  0
LINE
  8
_0-0_0
  6
CONTINUOUS
 62
    7
 10
-12.968903000000068
 20
472.47543300000001
 11
-12.718903000000068
 21
472.5
  0
LINE
  8
_0-0_0
  6
CONTINUOUS
 62
    7
 10
-12.968903000000068
 20
472.05633499999999
 11
-12.718903000000068
 21
472.26684599999999
  0
LINE
  8
_0-0_0
  6
CONTINUOUS
 62
    7
 10
-12.968903000000068
 20
472.27148399999999
 11
-12.718903000000068
 21
472.26684599999999
  0
LINE
  8
_0-0_0
  6
CONTINUOUS
 62
    7
 10
-12.968903000000068
 20
471.832336
 11
-12.718903000000068
 21
472.02255200000002
  0
LINE
  8
_0-0_0
  6
CONTINUOUS
 62
    7
 10
-12.968903000000068
 20
472.05633499999999
 11
-12.718903000000068
 21
472.02255200000002
  0
LINE
  8
_0-0_0
  6
CONTINUOUS
 62
    7
 10
-12.968903000000068
 20
471.60199
 11
-12.718903000000068
 21
471.76977499999998
  0
LINE
  8
_0-0_0
  6
CONTINUOUS
 62
    7
 10
-12.968903000000068
 20
471.832336
 11
-12.718903000000068
 21
471.76977499999998
  0
LINE
  8
_0-0_0
  6
CONTINUOUS
 62
    7
 10
-12.968903000000068
 20
471.36776700000001
 11
-12.718903000000068
 21
471.51132200000001
  0
LINE
  8
_0-0_0
  6
CONTINUOUS
 62
    7
 10
-12.968903000000068
 20
471.60199
 11
-12.718903000000068
 21
471.51132200000001
  0
LINE
  8
_0-0_0
  6
CONTINUOUS
 62
    7
 10
-12.968903000000068
 20
471.13226300000002
 11
-12.718903000000068
 21
471.25
  0
LINE
  8
_0-0_0
  6
CONTINUOUS
 62
    7
 10
-12.968903000000068
 20
471.36776700000001
 11
-12.718903000000068
 21
471.25
  0
LINE
  8
_0-0_0
  6
CONTINUOUS
 62
    7
 10
-12.968903000000068
 20
470.89804099999998
 11
-12.718903000000068
 21
470.98867799999999
  0
LINE
  8
_0-0_0
  6
CONTINUOUS
 62
    7
 10
-12.968903000000068
 20
471.13226300000002
 11
-12.718903000000068
 21
470.98867799999999
  0
LINE
  8
_0-0_0
  6
CONTINUOUS
 62
    7
 10
-12.968903000000068
 20
470.667664
 11
-12.718903000000068
 21
470.73022500000002
  0
LINE
  8
_0-0_0
  6
CONTINUOUS
 62
    7
 10
-12.968903000000068
 20
470.89804099999998
 11
-12.718903000000068
 21
470.73022500000002
  0
LINE
  8
_0-0_0
  6
CONTINUOUS
 62
    7
 10
-12.968903000000068
 20
470.44366500000001
 11
-12.718903000000068
 21
470.47747800000002
  0
LINE
  8
_0-0_0
  6
CONTINUOUS
 62
    7
 10
-12.968903000000068
 20
470.667664
 11
-12.718903000000068
 21
470.47747800000002
  0
LINE
  8
_0-0_0
  6
CONTINUOUS
 62
    7
 10
-12.968903000000068
 20
470.22851600000001
 11
-12.718903000000068
 21
470.23315400000001
  0
LINE
  8
_0-0_0
  6
CONTINUOUS
 62
    7
 10
-12.968903000000068
 20
470.44366500000001
 11
-12.718903000000068
 21
470.23315400000001
  0
LINE
  8
_0-0_0
  6
CONTINUOUS
 62
    7
 10
-12.968903000000068
 20
470.02456699999999
 11
-12.968903000000068
 21
470.17129499999999
  0
LINE
  8
_0-0_0
  6
CONTINUOUS
 62
    7
 10
-12.968903000000068
 20
470.02456699999999
 11
-12.718903000000068
 21
470
  0
LINE
  8
_0-0_0
  6
CONTINUOUS
 62
    7
 10
-12.968903000000068
 20
470.22851600000001
 11
-12.718903000000068
 21
470
  0
LINE
  8
_0-0_0
  6
CONTINUOUS
 62
    7
 10
-12.968903000000068
 20
469.834045
 11
-12.968903000000068
 21
470.02456699999999
  0
LINE
  8
_0-0_0
  6
CONTINUOUS
 62
    7
 10
-12.968903000000068
 20
469.65902699999998
 11
-12.968903000000068
 21
469.834045
  0
LINE
  8
_0-0_0
  6
CONTINUOUS
 62
    7
 10
-12.968903000000068
 20
469.50143400000002
 11
-12.968903000000068
 21
469.65902699999998
  0
LINE
  8
_0-0_0
  6
CONTINUOUS
 62
    7
 10
-12.968903000000068
 20
469.36300699999998
 11
-12.968903000000068
 21
469.50143400000002
  0
LINE
  8
_0-0_0
  6
CONTINUOUS
 62
    7
 10
-12.968903000000068
 20
469.24523900000003
 11
-12.968903000000068
 21
469.36300699999998
  0
LINE
  8
_0-0_0
  6
CONTINUOUS
 62
    7
 10
-12.968903000000068
 20
469.14944500000001
 11
-12.968903000000068
 21
469.24523900000003
  0
LINE
  8
_0-0_0
  6
CONTINUOUS
 62
    7
 10
-12.968903000000068
 20
469.07666
 11
-12.968903000000068
 21
469.14944500000001
  0
LINE
  8
_0-0_0
  6
CONTINUOUS
 62
    7
 10
-12.968903000000068
 20
469
 11
-12.968903000000068
 21
469.07666
  0
LINE
  8
_0-0_0
  6
CONTINUOUS
 62
    7
 10
-12.968903000000068
 20
469.00308200000001
 11
-12.968903000000068
 21
469.02771000000001
  0
LINE
  8
_0-0_0
  6
CONTINUOUS
 62
    7
 10
-12.968903000000068
 20
469
 11
-12.968903000000068
 21
469.00308200000001
  0
LINE
  8
_0-0_0
  6
CONTINUOUS
 62
    7
 10
-3.2189030000000685
 20
473.49691799999999
 11
-3.4689030000000685
 21
473.75
  0
LINE
  8
_0-0_0
  6
CONTINUOUS
 62
    7
 10
-3.4689030000000685
 20
473.75
 11
-12.718903000000068
 21
473.75
  0
LINE
  8
_0-0_0
  6
CONTINUOUS
 62
    7
 10
-3.2189030000000685
 20
473.47228999999999
 11
-3.4689030000000685
 21
473.73632800000001
  0
LINE
  8
_0-0_0
  6
CONTINUOUS
 62
    7
 10
-3.4689030000000685
 20
473.73632800000001
 11
-12.718903000000068
 21
473.73632800000001
  0
LINE
  8
_0-0_0
  6
CONTINUOUS
 62
    7
 10
-3.2189030000000685
 20
473.49691799999999
 11
-3.4689030000000685
 21
473.73632800000001
  0
LINE
  8
_0-0_0
  6
CONTINUOUS
 62
    7
 10
-3.2189030000000685
 20
473.42334
 11
-3.4689030000000685
 21
473.69537400000002
  0
LINE
  8
_0-0_0
  6
CONTINUOUS
 62
    7
 10
-3.4689030000000685
 20
473.69537400000002
 11
-12.718903000000068
 21
473.69537400000002
  0
LINE
  8
_0-0_0
  6
CONTINUOUS
 62
    7
 10
-3.2189030000000685
 20
473.47228999999999
 11
-3.4689030000000685
 21
473.69537400000002
  0
LINE
  8
_0-0_0
  6
CONTINUOUS
 62
    7
 10
-3.2189030000000685
 20
473.35055499999999
 11
-3.4689030000000685
 21
473.627655
  0
LINE
  8
_0-0_0
  6
CONTINUOUS
 62
    7
 10
-3.4689030000000685
 20
473.627655
 11
-12.718903000000068
 21
473.627655
  0
LINE
  8
_0-0_0
  6
CONTINUOUS
 62
    7
 10
-3.2189030000000685
 20
473.42334
 11
-3.4689030000000685
 21
473.627655
  0
LINE
  8
_0-0_0
  6
CONTINUOUS
 62
    7
 10
-3.2189030000000685
 20
473.25476099999997
 11
-3.4689030000000685
 21
473.53387500000002
  0
LINE
  8
_0-0_0
  6
CONTINUOUS
 62
    7
 10
-3.4689030000000685
 20
473.53387500000002
 11
-12.718903000000068
 21
473.53387500000002
  0
LINE
  8
_0-0_0
  6
CONTINUOUS
 62
    7
 10
-3.2189030000000685
 20
473.35055499999999
 11
-3.4689030000000685
 21
473.53387500000002
  0
LINE
  8
_0-0_0
  6
CONTINUOUS
 62
    7
 10
-3.4689030000000685
 20
473.41507000000001
 11
-12.718903000000068
 21
473.41507000000001
  0
LINE
  8
_0-0_0
  6
CONTINUOUS
 62
    7
 10
-3.3488620000000537
 20
473.33862299999998
 11
-3.4689030000000685
 21
473.41507000000001
  0
LINE
  8
_0-0_0
  6
CONTINUOUS
 62
    7
 10
-3.2189030000000685
 20
473.25476099999997
 11
-3.3488620000000537
 21
473.33862299999998
  0
LINE
  8
_0-0_0
  6
CONTINUOUS
 62
    7
 10
-3.2189030000000685
 20
473.137024
 11
-3.4689030000000685
 21
473.41507000000001
  0
LINE
  8
_0-0_0
  6
CONTINUOUS
 62
    7
 10
-3.2189030000000685
 20
472.99859600000002
 11
-3.4689030000000685
 21
473.27255200000002
  0
LINE
  8
_0-0_0
  6
CONTINUOUS
 62
    7
 10
-3.4689030000000685
 20
473.27255200000002
 11
-12.718903000000068
 21
473.27255200000002
  0
LINE
  8
_0-0_0
  6
CONTINUOUS
 62
    7
 10
-3.2189030000000685
 20
473.137024
 11
-3.4689030000000685
 21
473.27255200000002
  0
LINE
  8
_0-0_0
  6
CONTINUOUS
 62
    7
 10
-3.2189030000000685
 20
472.841003
 11
-3.4689030000000685
 21
473.10788000000002
  0
LINE
  8
_0-0_0
  6
CONTINUOUS
 62
    7
 10
-3.4689030000000685
 20
473.10788000000002
 11
-12.718903000000068
 21
473.10788000000002
  0
LINE
  8
_0-0_0
  6
CONTINUOUS
 62
    7
 10
-3.2189030000000685
 20
472.99859600000002
 11
-3.4689030000000685
 21
473.10788000000002
  0
LINE
  8
_0-0_0
  6
CONTINUOUS
 62
    7
 10
-3.2189030000000685
 20
472.66598499999998
 11
-3.4689030000000685
 21
472.922821
  0
LINE
  8
_0-0_0
  6
CONTINUOUS
 62
    7
 10
-3.4689030000000685
 20
472.922821
 11
-12.718903000000068
 21
472.922821
  0
LINE
  8
_0-0_0
  6
CONTINUOUS
 62
    7
 10
-3.2189030000000685
 20
472.841003
 11
-3.4689030000000685
 21
472.922821
  0
LINE
  8
_0-0_0
  6
CONTINUOUS
 62
    7
 10
-3.2189030000000685
 20
472.47543300000001
 11
-3.4689030000000685
 21
472.71948200000003
  0
LINE
  8
_0-0_0
  6
CONTINUOUS
 62
    7
 10
-3.4689030000000685
 20
472.71948200000003
 11
-12.718903000000068
 21
472.71948200000003
  0
LINE
  8
_0-0_0
  6
CONTINUOUS
 62
    7
 10
-3.2189030000000685
 20
472.66598499999998
 11
-3.4689030000000685
 21
472.71948200000003
  0
LINE
  8
_0-0_0
  6
CONTINUOUS
 62
    7
 10
-3.2189030000000685
 20
472.27148399999999
 11
-3.4689030000000685
 21
472.5
  0
LINE
  8
_0-0_0
  6
CONTINUOUS
 62
    7
 10
-3.4689030000000685
 20
472.5
 11
-12.718903000000068
 21
472.5
  0
LINE
  8
_0-0_0
  6
CONTINUOUS
 62
    7
 10
-3.2189030000000685
 20
472.27148399999999
 11
-12.968903000000068
 21
472.27148399999999
  0
LINE
  8
_0-0_0
  6
CONTINUOUS
 62
    7
 10
-3.2189030000000685
 20
472.47543300000001
 11
-3.4689030000000685
 21
472.5
  0
LINE
  8
_0-0_0
  6
CONTINUOUS
 62
    7
 10
-3.2189030000000685
 20
472.05633499999999
 11
-3.4689030000000685
 21
472.26684599999999
  0
LINE
  8
_0-0_0
  6
CONTINUOUS
 62
    7
 10
-3.4689030000000685
 20
472.26684599999999
 11
-12.718903000000068
 21
472.26684599999999
  0
LINE
  8
_0-0_0
  6
CONTINUOUS
 62
    7
 10
-3.2189030000000685
 20
472.05633499999999
 11
-12.968903000000068
 21
472.05633499999999
  0
LINE
  8
_0-0_0
  6
CONTINUOUS
 62
    7
 10
-3.2189030000000685
 20
472.27148399999999
 11
-3.4689030000000685
 21
472.26684599999999
  0
LINE
  8
_0-0_0
  6
CONTINUOUS
 62
    7
 10
-3.2189030000000685
 20
471.832336
 11
-3.4689030000000685
 21
472.02255200000002
  0
LINE
  8
_0-0_0
  6
CONTINUOUS
 62
    7
 10
-3.4689030000000685
 20
472.02255200000002
 11
-12.718903000000068
 21
472.02255200000002
  0
LINE
  8
_0-0_0
  6
CONTINUOUS
 62
    7
 10
-3.2189030000000685
 20
471.832336
 11
-12.968903000000068
 21
471.832336
  0
LINE
  8
_0-0_0
  6
CONTINUOUS
 62
    7
 10
-3.2189030000000685
 20
472.05633499999999
 11
-3.4689030000000685
 21
472.02255200000002
  0
LINE
  8
_0-0_0
  6
CONTINUOUS
 62
    7
 10
-3.2189030000000685
 20
471.60199
 11
-3.4689030000000685
 21
471.76977499999998
  0
LINE
  8
_0-0_0
  6
CONTINUOUS
 62
    7
 10
-3.4689030000000685
 20
471.76977499999998
 11
-12.718903000000068
 21
471.76977499999998
  0
LINE
  8
_0-0_0
  6
CONTINUOUS
 62
    7
 10
-3.2189030000000685
 20
471.60199
 11
-12.968903000000068
 21
471.60199
  0
LINE
  8
_0-0_0
  6
CONTINUOUS
 62
    7
 10
-3.2189030000000685
 20
471.832336
 11
-3.4689030000000685
 21
471.76977499999998
  0
LINE
  8
_0-0_0
  6
CONTINUOUS
 62
    7
 10
-3.2189030000000685
 20
471.36776700000001
 11
-3.4689030000000685
 21
471.51132200000001
  0
LINE
  8
_0-0_0
  6
CONTINUOUS
 62
    7
 10
-3.4689030000000685
 20
471.51132200000001
 11
-12.718903000000068
 21
471.51132200000001
  0
LINE
  8
_0-0_0
  6
CONTINUOUS
 62
    7
 10
-3.2189030000000685
 20
471.36776700000001
 11
-12.968903000000068
 21
471.36776700000001
  0
LINE
  8
_0-0_0
  6
CONTINUOUS
 62
    7
 10
-3.2189030000000685
 20
471.60199
 11
-3.4689030000000685
 21
471.51132200000001
  0
LINE
  8
_0-0_0
  6
CONTINUOUS
 62
    7
 10
-3.2189030000000685
 20
471.13226300000002
 11
-3.4689030000000685
 21
471.25
  0
LINE
  8
_0-0_0
  6
CONTINUOUS
 62
    7
 10
-3.4689030000000685
 20
471.25
 11
-12.718903000000068
 21
471.25
  0
LINE
  8
_0-0_0
  6
CONTINUOUS
 62
    7
 10
-3.2189030000000685
 20
471.13226300000002
 11
-12.968903000000068
 21
471.13226300000002
  0
LINE
  8
_0-0_0
  6
CONTINUOUS
 62
    7
 10
-3.2189030000000685
 20
471.36776700000001
 11
-3.4689030000000685
 21
471.25
  0
LINE
  8
_0-0_0
  6
CONTINUOUS
 62
    7
 10
-3.2189030000000685
 20
470.89804099999998
 11
-3.4689030000000685
 21
470.98867799999999
  0
LINE
  8
_0-0_0
  6
CONTINUOUS
 62
    7
 10
-3.4689030000000685
 20
470.98867799999999
 11
-12.718903000000068
 21
470.98867799999999
  0
LINE
  8
_0-0_0
  6
CONTINUOUS
 62
    7
 10
-3.2189030000000685
 20
470.89804099999998
 11
-12.968903000000068
 21
470.89804099999998
  0
LINE
  8
_0-0_0
  6
CONTINUOUS
 62
    7
 10
-3.2189030000000685
 20
471.13226300000002
 11
-3.4689030000000685
 21
470.98867799999999
  0
LINE
  8
_0-0_0
  6
CONTINUOUS
 62
    7
 10
-3.2189030000000685
 20
470.667664
 11
-3.4689030000000685
 21
470.73022500000002
  0
LINE
  8
_0-0_0
  6
CONTINUOUS
 62
    7
 10
-3.4689030000000685
 20
470.73022500000002
 11
-12.718903000000068
 21
470.73022500000002
  0
LINE
  8
_0-0_0
  6
CONTINUOUS
 62
    7
 10
-3.2189030000000685
 20
470.667664
 11
-12.968903000000068
 21
470.667664
  0
LINE
  8
_0-0_0
  6
CONTINUOUS
 62
    7
 10
-3.2189030000000685
 20
470.89804099999998
 11
-3.4689030000000685
 21
470.73022500000002
  0
LINE
  8
_0-0_0
  6
CONTINUOUS
 62
    7
 10
-3.2189030000000685
 20
470.44366500000001
 11
-3.4689030000000685
 21
470.47747800000002
  0
LINE
  8
_0-0_0
  6
CONTINUOUS
 62
    7
 10
-3.4689030000000685
 20
470.47747800000002
 11
-12.718903000000068
 21
470.47747800000002
  0
LINE
  8
_0-0_0
  6
CONTINUOUS
 62
    7
 10
-3.2189030000000685
 20
470.44366500000001
 11
-12.968903000000068
 21
470.44366500000001
  0
LINE
  8
_0-0_0
  6
CONTINUOUS
 62
    7
 10
-3.2189030000000685
 20
470.667664
 11
-3.4689030000000685
 21
470.47747800000002
  0
LINE
  8
_0-0_0
  6
CONTINUOUS
 62
    7
 10
-3.2189030000000685
 20
470.22851600000001
 11
-3.4689030000000685
 21
470.23315400000001
  0
LINE
  8
_0-0_0
  6
CONTINUOUS
 62
    7
 10
-3.4689030000000685
 20
470.23315400000001
 11
-12.718903000000068
 21
470.23315400000001
  0
LINE
  8
_0-0_0
  6
CONTINUOUS
 62
    7
 10
-3.2189030000000685
 20
470.22851600000001
 11
-12.968903000000068
 21
470.22851600000001
  0
LINE
  8
_0-0_0
  6
CONTINUOUS
 62
    7
 10
-3.2189030000000685
 20
470.44366500000001
 11
-3.4689030000000685
 21
470.23315400000001
  0
LINE
  8
_0-0_0
  6
CONTINUOUS
 62
    7
 10
-3.2189030000000685
 20
470.02456699999999
 11
-3.4689030000000685
 21
470
  0
LINE
  8
_0-0_0
  6
CONTINUOUS
 62
    7
 10
-3.4689030000000685
 20
470
 11
-12.718903000000068
 21
470
  0
LINE
  8
_0-0_0
  6
CONTINUOUS
 62
    7
 10
-3.2189030000000685
 20
470.22851600000001
 11
-3.4689030000000685
 21
470
  0
LINE
  8
_0-0_0
  6
CONTINUOUS
 62
    7
 10
-12.968903000000068
 20
469.834045
 11
-12.718903000000068
 21
469.78054800000001
  0
LINE
  8
_0-0_0
  6
CONTINUOUS
 62
    7
 10
-12.968903000000068
 20
470.02456699999999
 11
-12.718903000000068
 21
469.78054800000001
  0
LINE
  8
_0-0_0
  6
CONTINUOUS
 62
    7
 10
-12.968903000000068
 20
469.65902699999998
 11
-12.718903000000068
 21
469.577179
  0
LINE
  8
_0-0_0
  6
CONTINUOUS
 62
    7
 10
-12.968903000000068
 20
469.834045
 11
-12.718903000000068
 21
469.577179
  0
LINE
  8
_0-0_0
  6
CONTINUOUS
 62
    7
 10
-12.968903000000068
 20
469.50143400000002
 11
-12.718903000000068
 21
469.39215100000001
  0
LINE
  8
_0-0_0
  6
CONTINUOUS
 62
    7
 10
-12.968903000000068
 20
469.65902699999998
 11
-12.718903000000068
 21
469.39215100000001
  0
LINE
  8
_0-0_0
  6
CONTINUOUS
 62
    7
 10
-12.968903000000068
 20
469.36300699999998
 11
-12.718903000000068
 21
469.22747800000002
  0
LINE
  8
_0-0_0
  6
CONTINUOUS
 62
    7
 10
-12.968903000000068
 20
469.50143400000002
 11
-12.718903000000068
 21
469.22747800000002
  0
LINE
  8
_0-0_0
  6
CONTINUOUS
 62
    7
 10
-12.968903000000068
 20
469.24523900000003
 11
-12.718903000000068
 21
469.08496100000002
  0
LINE
  8
_0-0_0
  6
CONTINUOUS
 62
    7
 10
-12.968903000000068
 20
469.36300699999998
 11
-12.718903000000068
 21
469.08496100000002
  0
LINE
  8
_0-0_0
  6
CONTINUOUS
 62
    7
 10
-12.968903000000068
 20
469.14944500000001
 11
-12.718903000000068
 21
468.96615600000001
  0
LINE
  8
_0-0_0
  6
CONTINUOUS
 62
    7
 10
-12.968903000000068
 20
469.24523900000003
 11
-12.718903000000068
 21
468.96615600000001
  0
LINE
  8
_0-0_0
  6
CONTINUOUS
 62
    7
 10
-12.968903000000068
 20
469.07666
 11
-12.718903000000068
 21
468.87237499999998
  0
LINE
  8
_0-0_0
  6
CONTINUOUS
 62
    7
 10
-12.968903000000068
 20
469.14944500000001
 11
-12.718903000000068
 21
468.87237499999998
  0
LINE
  8
_0-0_0
  6
CONTINUOUS
 62
    7
 10
-12.968903000000068
 20
469.02771000000001
 11
-12.718903000000068
 21
468.80462599999998
  0
LINE
  8
_0-0_0
  6
CONTINUOUS
 62
    7
 10
-12.968903000000068
 20
469.07666
 11
-12.718903000000068
 21
468.80462599999998
  0
LINE
  8
_0-0_0
  6
CONTINUOUS
 62
    7
 10
-12.968903000000068
 20
469.00308200000001
 11
-12.718903000000068
 21
468.76370200000002
  0
LINE
  8
_0-0_0
  6
CONTINUOUS
 62
    7
 10
-12.968903000000068
 20
469.02771000000001
 11
-12.718903000000068
 21
468.76370200000002
  0
LINE
  8
_0-0_0
  6
CONTINUOUS
 62
    7
 10
-12.968903000000068
 20
469.00308200000001
 11
-12.718903000000068
 21
468.75
  0
LINE
  8
_0-0_0
  6
CONTINUOUS
 62
    7
 10
-2.9689030000000685
 20
473.00518799999998
 11
-2.9689030000000685
 21
473.25
  0
LINE
  8
_0-0_0
  6
CONTINUOUS
 62
    7
 10
-3.2189030000000685
 20
470.02456699999999
 11
-3.4689030000000685
 21
469.78054800000001
  0
LINE
  8
_0-0_0
  6
CONTINUOUS
 62
    7
 10
-3.2189030000000685
 20
469.834045
 11
-3.4689030000000685
 21
469.78054800000001
  0
LINE
  8
_0-0_0
  6
CONTINUOUS
 62
    7
 10
-3.2189030000000685
 20
469.834045
 11
-3.4689030000000685
 21
469.577179
  0
LINE
  8
_0-0_0
  6
CONTINUOUS
 62
    7
 10
-3.2189030000000685
 20
469.65902699999998
 11
-3.4689030000000685
 21
469.577179
  0
LINE
  8
_0-0_0
  6
CONTINUOUS
 62
    7
 10
-3.2189030000000685
 20
469.65902699999998
 11
-3.4689030000000685
 21
469.39215100000001
  0
LINE
  8
_0-0_0
  6
CONTINUOUS
 62
    7
 10
-3.2189030000000685
 20
469.50143400000002
 11
-3.4689030000000685
 21
469.39215100000001
  0
LINE
  8
_0-0_0
  6
CONTINUOUS
 62
    7
 10
-3.2189030000000685
 20
469.50143400000002
 11
-3.4689030000000685
 21
469.22747800000002
  0
LINE
  8
_0-0_0
  6
CONTINUOUS
 62
    7
 10
-3.2189030000000685
 20
469.36300699999998
 11
-3.4689030000000685
 21
469.22747800000002
  0
LINE
  8
_0-0_0
  6
CONTINUOUS
 62
    7
 10
-3.2189030000000685
 20
469.36300699999998
 11
-3.4689030000000685
 21
469.08496100000002
  0
LINE
  8
_0-0_0
  6
CONTINUOUS
 62
    7
 10
-3.2189030000000685
 20
469.24523900000003
 11
-3.4689030000000685
 21
469.08496100000002
  0
LINE
  8
_0-0_0
  6
CONTINUOUS
 62
    7
 10
-3.2189030000000685
 20
469.24523900000003
 11
-3.4689030000000685
 21
468.96615600000001
  0
LINE
  8
_0-0_0
  6
CONTINUOUS
 62
    7
 10
-3.2189030000000685
 20
469.14944500000001
 11
-3.4689030000000685
 21
468.96615600000001
  0
LINE
  8
_0-0_0
  6
CONTINUOUS
 62
    7
 10
-3.2189030000000685
 20
469.14944500000001
 11
-3.4689030000000685
 21
468.87237499999998
  0
LINE
  8
_0-0_0
  6
CONTINUOUS
 62
    7
 10
-3.2189030000000685
 20
469.07666
 11
-3.4689030000000685
 21
468.87237499999998
  0
LINE
  8
_0-0_0
  6
CONTINUOUS
 62
    7
 10
-3.2189030000000685
 20
469.07666
 11
-3.4689030000000685
 21
468.80462599999998
  0
LINE
  8
_0-0_0
  6
CONTINUOUS
 62
    7
 10
-3.2189030000000685
 20
469.02771000000001
 11
-3.4689030000000685
 21
468.80462599999998
  0
LINE
  8
_0-0_0
  6
CONTINUOUS
 62
    7
 10
-3.2189030000000685
 20
469.02771000000001
 11
-3.4689030000000685
 21
468.76370200000002
  0
LINE
  8
_0-0_0
  6
CONTINUOUS
 62
    7
 10
-3.2189030000000685
 20
469.00308200000001
 11
-3.4689030000000685
 21
468.76370200000002
  0
LINE
  8
_0-0_0
  6
CONTINUOUS
 62
    7
 10
-3.2189030000000685
 20
469.00308200000001
 11
-3.4689030000000685
 21
468.75
  0
LINE
  8
_0-0_0
  6
CONTINUOUS
 62
    7
 10
-2.9689030000000685
 20
469.25
 11
-2.9689030000000685
 21
473.00518799999998
  0
LINE
  8
_0-0_0
  6
CONTINUOUS
 62
    7
 10
-3.4689030000000685
 20
469.78054800000001
 11
-12.718903000000068
 21
469.78054800000001
  0
LINE
  8
_0-0_0
  6
CONTINUOUS
 62
    7
 10
-3.4689030000000685
 20
469.577179
 11
-12.718903000000068
 21
469.577179
  0
LINE
  8
_0-0_0
  6
CONTINUOUS
 62
    7
 10
-3.4689030000000685
 20
469.39215100000001
 11
-12.718903000000068
 21
469.39215100000001
  0
LINE
  8
_0-0_0
  6
CONTINUOUS
 62
    7
 10
-3.4689030000000685
 20
469.22747800000002
 11
-12.718903000000068
 21
469.22747800000002
  0
LINE
  8
_0-0_0
  6
CONTINUOUS
 62
    7
 10
-3.4689030000000685
 20
469.08496100000002
 11
-12.718903000000068
 21
469.08496100000002
  0
LINE
  8
_0-0_0
  6
CONTINUOUS
 62
    7
 10
-3.4689030000000685
 20
468.96615600000001
 11
-12.718903000000068
 21
468.96615600000001
  0
LINE
  8
_0-0_0
  6
CONTINUOUS
 62
    7
 10
-3.4689030000000685
 20
468.87237499999998
 11
-12.718903000000068
 21
468.87237499999998
  0
LINE
  8
_0-0_0
  6
CONTINUOUS
 62
    7
 10
-3.4689030000000685
 20
468.80462599999998
 11
-12.718903000000068
 21
468.80462599999998
  0
LINE
  8
_0-0_0
  6
CONTINUOUS
 62
    7
 10
-3.4689030000000685
 20
468.76370200000002
 11
-12.718903000000068
 21
468.76370200000002
  0
LINE
  8
_0-0_0
  6
CONTINUOUS
 62
    7
 10
-3.4689030000000685
 20
468.75
 11
-12.718903000000068
 21
468.75
  0
LINE
  8
_0-0_0
  6
CONTINUOUS
 62
    7
 10
-139.96890300000007
 20
469
 11
-142.42456800000002
 21
469
  0
LINE
  8
_0-0_0
  6
CONTINUOUS
 62
    7
 10
-141.92349200000001
 20
473.5
 11
-142.42456800000002
 21
473.5
  0
LINE
  8
_0-0_0
  6
CONTINUOUS
 62
    7
 10
-142.5689010000001
 20
469.25
 11
-142.42456800000002
 21
469
  0
LINE
  8
_0-0_0
  6
CONTINUOUS
 62
    7
 10
-142.5689010000001
 20
473.25
 11
-142.42456800000002
 21
473.5
  0
LINE
  8
_0-0_0
  6
CONTINUOUS
 62
    7
 10
-38.968903000000068
 20
452.40002399999997
 11
-12.968903000000068
 21
452.40002399999997
  0
LINE
  8
_0-0_0
  6
CONTINUOUS
 62
    7
 10
-38.968903000000068
 20
456.90002399999997
 11
-12.968903000000068
 21
456.90002399999997
  0
LINE
  8
_0-0_0
  6
CONTINUOUS
 62
    7
 10
-12.968903000000068
 20
452.40002399999997
 11
-12.718903000000068
 21
452.15002399999997
  0
LINE
  8
_0-0_0
  6
CONTINUOUS
 62
    7
 10
-12.968903000000068
 20
456.90002399999997
 11
-12.718903000000068
 21
457.15002399999997
  0
LINE
  8
_0-0_0
  6
CONTINUOUS
 62
    7
 10
-16.968903000000068
 20
468.20001200000002
 11
-18.218903000000068
 21
469.45001200000002
  0
LINE
  8
_0-0_0
  6
CONTINUOUS
 62
    7
 10
-16.968903000000068
 20
457.70001200000002
 11
-17.768906000000015
 21
456.89999399999999
  0
LINE
  8
_0-0_0
  6
CONTINUOUS
 62
    7
 10
-2.9689030000000685
 20
452.65002399999997
 11
-3.4687350000000379
 21
452.15014600000001
  0
LINE
  8
_0-0_0
  6
CONTINUOUS
 62
    7
 10
-2.9689030000000685
 20
456.65002399999997
 11
-3.4687350000000379
 21
457.14984099999998
  0
LINE
  8
_0-0_0
  6
CONTINUOUS
 62
    7
 10
-16.968903000000068
 20
457.95001200000002
 11
-16.568909000000076
 21
457.95001200000002
  0
LINE
  8
_0-0_0
  6
CONTINUOUS
 62
    7
 10
-16.968903000000068
 20
467.95001200000002
 11
-16.568909000000076
 21
467.95001200000002
  0
LINE
  8
_0-0_0
  6
CONTINUOUS
 62
    7
 10
-15.768906000000015
 20
458.41189600000001
 11
-16.568909000000076
 21
457.95001200000002
  0
LINE
  8
_0-0_0
  6
CONTINUOUS
 62
    7
 10
-15.768906000000015
 20
467.48812900000001
 11
-16.568909000000076
 21
467.95001200000002
  0
LINE
  8
_0-0_0
  6
CONTINUOUS
 62
    7
 10
-15.768906000000015
 20
458.95001200000002
 11
42.231093999999985
 21
458.95001200000002
  0
LINE
  8
_0-0_0
  6
CONTINUOUS
 62
    7
 10
-15.768906000000015
 20
466.95001200000002
 11
42.231093999999985
 21
466.95001200000002
  0
LINE
  8
_0-0_0
  6
CONTINUOUS
 62
    7
 10
-33.21893300000005
 20
473.5
 11
-12.968903000000068
 21
473.5
  0
LINE
  8
_0-0_0
  6
CONTINUOUS
 62
    7
 10
-12.968903000000068
 20
473.5
 11
-12.718903000000068
 21
473.75
  0
LINE
  8
_0-0_0
  6
CONTINUOUS
 62
    7
 10
-17.768906000000015
 20
469
 11
-12.968903000000068
 21
469
  0
LINE
  8
_0-0_0
  6
CONTINUOUS
 62
    7
 10
-12.968903000000068
 20
469
 11
-12.718903000000068
 21
468.75
  0
LINE
  8
_0-0_0
  6
CONTINUOUS
 62
    7
 10
-2.9689030000000685
 20
473.25
 11
-3.4687350000000379
 21
473.74984699999999
  0
LINE
  8
_0-0_0
  6
CONTINUOUS
 62
    7
 10
-2.9689030000000685
 20
469.25
 11
-3.4687350000000379
 21
468.75015300000001
  0
LINE
  8
_0-0_0
  6
CONTINUOUS
 62
    7
 10
1025.031189
 20
505.15002399999997
 11
1025.031189
 21
492.15002399999997
  0
LINE
  8
_0-0_0
  6
CONTINUOUS
 62
    7
 10
-147.96890300000007
 20
505.15002399999997
 11
-147.96890300000007
 21
492.15002399999997
  0
LINE
  8
_0-0_0
  6
CONTINUOUS
 62
    7
 10
-147.96890300000007
 20
505.15002399999997
 11
1025.031189
 21
505.15002399999997
  0
LINE
  8
_0-0_0
  6
CONTINUOUS
 62
    7
 10
-147.96890300000007
 20
505.15002399999997
 11
-147.96890300000007
 21
523.75
  0
LINE
  8
_0-0_0
  6
CONTINUOUS
 62
    7
 10
-147.96890300000007
 20
526.25
 11
-147.96890300000007
 21
523.75
  0
LINE
  8
_0-0_0
  6
CONTINUOUS
 62
    7
 10
-147.96890300000007
 20
526.75
 11
-147.96890300000007
 21
526.25
  0
LINE
  8
_0-0_0
  6
CONTINUOUS
 62
    7
 10
-147.96890300000007
 20
478.75
 11
-147.96890300000007
 21
478.25
  0
LINE
  8
_0-0_0
  6
CONTINUOUS
 62
    7
 10
-147.96890300000007
 20
483.75
 11
-147.96890300000007
 21
478.75
  0
LINE
  8
_0-0_0
  6
CONTINUOUS
 62
    7
 10
-147.96890300000007
 20
484.25
 11
-147.96890300000007
 21
483.75
  0
LINE
  8
_0-0_0
  6
CONTINUOUS
 62
    7
 10
-147.96890300000007
 20
484.75
 11
-147.96890300000007
 21
484.25
  0
LINE
  8
_0-0_0
  6
CONTINUOUS
 62
    7
 10
-147.96890300000007
 20
487.95001200000002
 11
-147.96890300000007
 21
484.75
  0
LINE
  8
_0-0_0
  6
CONTINUOUS
 62
    7
 10
-147.96890300000007
 20
487.95001200000002
 11
-147.96890300000007
 21
492.15002399999997
  0
LINE
  8
_0-0_0
  6
CONTINUOUS
 62
    7
 10
-147.96890300000007
 20
492.15002399999997
 11
1025.031189
 21
492.15002399999997
  0
LINE
  8
_0-0_0
  6
CONTINUOUS
 62
    7
 10
1025.031189
 20
487.95001200000002
 11
1025.031189
 21
492.15002399999997
  0
LINE
  8
_0-0_0
  6
CONTINUOUS
 62
    7
 10
1025.031189
 20
484.75
 11
1025.031189
 21
487.95001200000002
  0
LINE
  8
_0-0_0
  6
CONTINUOUS
 62
    7
 10
1025.031189
 20
484.75
 11
1025.031189
 21
484.25
  0
LINE
  8
_0-0_0
  6
CONTINUOUS
 62
    7
 10
1025.031189
 20
484.25
 11
1025.031189
 21
483.75
  0
LINE
  8
_0-0_0
  6
CONTINUOUS
 62
    7
 10
1025.031189
 20
483.75
 11
1025.031189
 21
478.75
  0
LINE
  8
_0-0_0
  6
CONTINUOUS
 62
    7
 10
1025.031189
 20
478.75
 11
1025.031189
 21
478.25
  0
LINE
  8
_0-0_0
  6
CONTINUOUS
 62
    7
 10
1025.031189
 20
526.75
 11
1025.031189
 21
526.25
  0
LINE
  8
_0-0_0
  6
CONTINUOUS
 62
    7
 10
1025.031189
 20
523.75
 11
1025.031189
 21
526.25
  0
LINE
  8
_0-0_0
  6
CONTINUOUS
 62
    7
 10
1025.031189
 20
505.15002399999997
 11
1025.031189
 21
523.75
  0
CIRCLE
  8
_0-0_0
  6
CONTINUOUS
 62
    7
 10
988.53118900000004
 20
514.25
 40
6
  0
CIRCLE
  8
_0-0_0
  6
CONTINUOUS
 62
    7
 10
888.53118900000004
 20
514.25
 40
6
  0
CIRCLE
  8
_0-0_0
  6
CONTINUOUS
 62
    7
 10
788.53106700000001
 20
514.25
 40
6
  0
CIRCLE
  8
_0-0_0
  6
CONTINUOUS
 62
    7
 10
688.53106700000001
 20
514.25
 40
6
  0
CIRCLE
  8
_0-0_0
  6
CONTINUOUS
 62
    7
 10
588.53106700000001
 20
514.25
 40
6
  0
CIRCLE
  8
_0-0_0
  6
CONTINUOUS
 62
    7
 10
488.53106700000001
 20
514.25
 40
6
  0
CIRCLE
  8
_0-0_0
  6
CONTINUOUS
 62
    7
 10
388.53106700000001
 20
514.25
 40
6
  0
CIRCLE
  8
_0-0_0
  6
CONTINUOUS
 62
    7
 10
288.53112799999997
 20
514.25
 40
6
  0
CIRCLE
  8
_0-0_0
  6
CONTINUOUS
 62
    7
 10
188.53112799999997
 20
514.25
 40
6
  0
CIRCLE
  8
_0-0_0
  6
CONTINUOUS
 62
    7
 10
88.531127999999967
 20
514.25
 40
6
  0
CIRCLE
  8
_0-0_0
  6
CONTINUOUS
 62
    7
 10
-11.468903000000068
 20
514.25
 40
6
  0
CIRCLE
  8
_0-0_0
  6
CONTINUOUS
 62
    7
 10
-111.46890300000007
 20
514.25
 40
6
  0
LINE
  8
_0-0_0
  6
CONTINUOUS
 62
    7
 10
-147.96890300000007
 20
523.75
 11
1025.031189
 21
523.75
  0
LINE
  8
_0-0_0
  6
CONTINUOUS
 62
    7
 10
-147.96890300000007
 20
526.75
 11
1025.031189
 21
526.75
  0
LINE
  8
_0-0_0
  6
CONTINUOUS
 62
    7
 10
-147.96890300000007
 20
526.25
 11
-150.46890300000007
 21
526.25
  0
LINE
  8
_0-0_0
  6
CONTINUOUS
 62
    7
 10
-150.46890300000007
 20
526.25
 11
-150.46890300000007
 21
525.75
  0
LINE
  8
_0-0_0
  6
CONTINUOUS
 62
    7
 10
-150.46890300000007
 20
525.75
 11
-150.46890300000007
 21
485.25
  0
LINE
  8
_0-0_0
  6
CONTINUOUS
 62
    7
 10
-147.96890300000007
 20
484.75
 11
-150.46890300000007
 21
484.75
  0
LINE
  8
_0-0_0
  6
CONTINUOUS
 62
    7
 10
-150.46890300000007
 20
485.25
 11
-150.46890300000007
 21
484.75
  0
LINE
  8
_0-0_0
  6
CONTINUOUS
 62
    7
 10
-150.46890300000007
 20
484.75
 11
-150.46890300000007
 21
483.75
  0
LINE
  8
_0-0_0
  6
CONTINUOUS
 62
    7
 10
-150.46890300000007
 20
483.75
 11
-150.46890300000007
 21
479.25
  0
LINE
  8
_0-0_0
  6
CONTINUOUS
 62
    7
 10
-147.96890300000007
 20
478.75
 11
-150.46890300000007
 21
478.75
  0
LINE
  8
_0-0_0
  6
CONTINUOUS
 62
    7
 10
-150.46890300000007
 20
479.25
 11
-150.46890300000007
 21
478.75
  0
LINE
  8
_0-0_0
  6
CONTINUOUS
 62
    7
 10
-147.96890300000007
 20
478.25
 11
1025.031189
 21
478.25
  0
LINE
  8
_0-0_0
  6
CONTINUOUS
 62
    7
 10
-147.96890300000007
 20
484.25
 11
1025.031189
 21
484.25
  0
LINE
  8
_0-0_0
  6
CONTINUOUS
 62
    7
 10
-147.96890300000007
 20
487.95001200000002
 11
1025.031189
 21
487.95001200000002
  0
LINE
  8
_0-0_0
  6
CONTINUOUS
 62
    7
 10
1025.031189
 20
526.25
 11
1027.531189
 21
526.25
  0
LINE
  8
_0-0_0
  6
CONTINUOUS
 62
    7
 10
1027.531189
 20
526.25
 11
1027.531189
 21
525.75
  0
LINE
  8
_0-0_0
  6
CONTINUOUS
 62
    7
 10
1027.531189
 20
525.75
 11
1027.531189
 21
485.25
  0
LINE
  8
_0-0_0
  6
CONTINUOUS
 62
    7
 10
1025.031189
 20
484.75
 11
1027.531189
 21
484.75
  0
LINE
  8
_0-0_0
  6
CONTINUOUS
 62
    7
 10
1027.531189
 20
485.25
 11
1027.531189
 21
484.75
  0
LINE
  8
_0-0_0
  6
CONTINUOUS
 62
    7
 10
1027.531189
 20
484.75
 11
1027.531189
 21
483.75
  0
LINE
  8
_0-0_0
  6
CONTINUOUS
 62
    7
 10
1027.531189
 20
483.75
 11
1027.531189
 21
479.25
  0
LINE
  8
_0-0_0
  6
CONTINUOUS
 62
    7
 10
1025.031189
 20
478.75
 11
1027.531189
 21
478.75
  0
LINE
  8
_0-0_0
  6
CONTINUOUS
 62
    7
 10
1027.531189
 20
479.25
 11
1027.531189
 21
478.75
  0
ARC
  8
_0-0_0
  6
CONTINUOUS
 62
    7
 10
-90.468903000000068
 20
479.25
 40
0.5
 50
269.99999700000001
 51
0
  0
LINE
  8
_0-0_0
  6
CONTINUOUS
 62
    7
 10
-90.468903000000068
 20
478.75
 11
-97.468903000000068
 21
478.75
  0
ARC
  8
_0-0_0
  6
CONTINUOUS
 62
    7
 10
-97.468903000000068
 20
479.25
 40
0.5
 50
179.99999099999999
 51
269.99999700000001
  0
LINE
  8
_0-0_0
  6
CONTINUOUS
 62
    7
 10
-97.968903000000068
 20
483.25
 11
-97.968903000000068
 21
479.25
  0
ARC
  8
_0-0_0
  6
CONTINUOUS
 62
    7
 10
-97.468903000000068
 20
483.25
 40
0.5
 50
90.000003000000007
 51
179.99999099999999
  0
ARC
  8
_0-0_0
  6
CONTINUOUS
 62
    7
 10
-90.468903000000068
 20
483.25
 40
0.5
 50
0
 51
90.000003000000007
  0
LINE
  8
_0-0_0
  6
CONTINUOUS
 62
    7
 10
-97.468903000000068
 20
483.75
 11
-90.468903000000068
 21
483.75
  0
LINE
  8
_0-0_0
  6
CONTINUOUS
 62
    7
 10
1025.031189
 20
526.75
 11
1025.031189
 21
526.45001200000002
  0
LINE
  8
_0-0_0
  6
CONTINUOUS
 62
    7
 10
1025.031189
 20
526.45001200000002
 11
1025.031189
 21
526.25
  0
CIRCLE
  8
_0-0_0
  6
CONTINUOUS
 62
    7
 10
988.53118900000004
 20
514.25
 40
5.5
  0
CIRCLE
  8
_0-0_0
  6
CONTINUOUS
 62
    7
 10
888.53118900000004
 20
514.25
 40
5.5
  0
CIRCLE
  8
_0-0_0
  6
CONTINUOUS
 62
    7
 10
788.53106700000001
 20
514.25
 40
5.5
  0
CIRCLE
  8
_0-0_0
  6
CONTINUOUS
 62
    7
 10
688.53106700000001
 20
514.25
 40
5.5
  0
CIRCLE
  8
_0-0_0
  6
CONTINUOUS
 62
    7
 10
588.53106700000001
 20
514.25
 40
5.5
  0
CIRCLE
  8
_0-0_0
  6
CONTINUOUS
 62
    7
 10
488.53106700000001
 20
514.25
 40
5.5
  0
CIRCLE
  8
_0-0_0
  6
CONTINUOUS
 62
    7
 10
388.53106700000001
 20
514.25
 40
5.5
  0
CIRCLE
  8
_0-0_0
  6
CONTINUOUS
 62
    7
 10
288.53112799999997
 20
514.25
 40
5.5
  0
CIRCLE
  8
_0-0_0
  6
CONTINUOUS
 62
    7
 10
188.53112799999997
 20
514.25
 40
5.5
  0
CIRCLE
  8
_0-0_0
  6
CONTINUOUS
 62
    7
 10
88.531127999999967
 20
514.25
 40
5.5
  0
CIRCLE
  8
_0-0_0
  6
CONTINUOUS
 62
    7
 10
-11.468903000000068
 20
514.25
 40
5.5
  0
CIRCLE
  8
_0-0_0
  6
CONTINUOUS
 62
    7
 10
-111.46890300000007
 20
514.25
 40
5.5
  0
LINE
  8
_0-0_0
  6
CONTINUOUS
 62
    7
 10
-89.968903000000068
 20
479.25
 11
-89.968903000000068
 21
483.25
  0
CIRCLE
  8
_0-0_0
  6
CONTINUOUS
 62
    7
 10
988.53118900000004
 20
514.25
 40
3.5
  0
CIRCLE
  8
_0-0_0
  6
CONTINUOUS
 62
    7
 10
888.53118900000004
 20
514.25
 40
3.5
  0
CIRCLE
  8
_0-0_0
  6
CONTINUOUS
 62
    7
 10
788.53106700000001
 20
514.25
 40
3.5
  0
CIRCLE
  8
_0-0_0
  6
CONTINUOUS
 62
    7
 10
688.53106700000001
 20
514.25
 40
3.5
  0
CIRCLE
  8
_0-0_0
  6
CONTINUOUS
 62
    7
 10
588.53106700000001
 20
514.25
 40
3.5
  0
CIRCLE
  8
_0-0_0
  6
CONTINUOUS
 62
    7
 10
488.53106700000001
 20
514.25
 40
3.5
  0
CIRCLE
  8
_0-0_0
  6
CONTINUOUS
 62
    7
 10
388.53106700000001
 20
514.25
 40
3.5
  0
CIRCLE
  8
_0-0_0
  6
CONTINUOUS
 62
    7
 10
288.53112799999997
 20
514.25
 40
3.5
  0
CIRCLE
  8
_0-0_0
  6
CONTINUOUS
 62
    7
 10
188.53112799999997
 20
514.25
 40
3.5
  0
CIRCLE
  8
_0-0_0
  6
CONTINUOUS
 62
    7
 10
88.531127999999967
 20
514.25
 40
3.5
  0
CIRCLE
  8
_0-0_0
  6
CONTINUOUS
 62
    7
 10
-11.468903000000068
 20
514.25
 40
3.5
  0
CIRCLE
  8
_0-0_0
  6
CONTINUOUS
 62
    7
 10
-111.46890300000007
 20
514.25
 40
3.5
  0
ARC
  8
_0-0_0
  6
CONTINUOUS
 62
    7
 10
-92.668900000000008
 20
482.95001200000002
 40
0.2
 50
339.62356199999999
 51
90.000002999999978
  0
LINE
  8
_0-0_0
  6
CONTINUOUS
 62
    7
 10
-92.481415000000084
 20
482.88037100000003
 11
-93.781418000000031
 21
479.38037100000003
  0
ARC
  8
_0-0_0
  6
CONTINUOUS
 62
    7
 10
-93.968903000000068
 20
479.45001200000002
 40
0.2
 50
200.37643
 51
339.62356199999999
  0
LINE
  8
_0-0_0
  6
CONTINUOUS
 62
    7
 10
-95.456383000000073
 20
482.88037100000003
 11
-94.156386999999995
 21
479.38037100000003
  0
ARC
  8
_0-0_0
  6
CONTINUOUS
 62
    7
 10
-95.268898000000036
 20
482.95001200000002
 40
0.2
 50
90.000003000000007
 51
200.37643
  0
LINE
  8
_0-0_0
  6
CONTINUOUS
 62
    7
 10
-95.268898000000036
 20
483.15002399999997
 11
-92.668900000000008
 21
483.15002399999997
  0
ARC
  8
_0-0_0
  6
CONTINUOUS
 62
    7
 10
944.73113999999987
 20
482.95001200000002
 40
0.2
 50
90.000003000000007
 51
200.37643
  0
LINE
  8
_0-0_0
  6
CONTINUOUS
 62
    7
 10
944.73113999999987
 20
483.15002399999997
 11
947.33123799999998
 21
483.15002399999997
  0
ARC
  8
_0-0_0
  6
CONTINUOUS
 62
    7
 10
942.53118900000004
 20
483.25
 40
0.5
 50
90.000003000000007
 51
179.99999099999999
  0
LINE
  8
_0-0_0
  6
CONTINUOUS
 62
    7
 10
942.03118900000004
 20
483.25
 11
942.03118900000004
 21
479.25
  0
ARC
  8
_0-0_0
  6
CONTINUOUS
 62
    7
 10
942.53118900000004
 20
479.25
 40
0.5
 50
179.99999099999999
 51
269.99999700000001
  0
LINE
  8
_0-0_0
  6
CONTINUOUS
 62
    7
 10
949.53118900000004
 20
478.75
 11
942.53118900000004
 21
478.75
  0
ARC
  8
_0-0_0
  6
CONTINUOUS
 62
    7
 10
949.53118900000004
 20
479.25
 40
0.5
 50
269.99999700000001
 51
0
  0
LINE
  8
_0-0_0
  6
CONTINUOUS
 62
    7
 10
950.03118900000004
 20
479.25
 11
950.03118900000004
 21
483.25
  0
ARC
  8
_0-0_0
  6
CONTINUOUS
 62
    7
 10
949.53118900000004
 20
483.25
 40
0.5
 50
0
 51
90.000003000000007
  0
LINE
  8
_0-0_0
  6
CONTINUOUS
 62
    7
 10
942.53118900000004
 20
483.75
 11
949.53118900000004
 21
483.75
  0
LINE
  8
_0-0_0
  6
CONTINUOUS
 62
    7
 10
944.54376200000002
 20
482.88037100000003
 11
945.84368900000004
 21
479.38037100000003
  0
ARC
  8
_0-0_0
  6
CONTINUOUS
 62
    7
 10
946.03118900000004
 20
479.45001200000002
 40
0.2
 50
200.37643
 51
339.62356199999999
  0
LINE
  8
_0-0_0
  6
CONTINUOUS
 62
    7
 10
947.51861600000007
 20
482.88037100000003
 11
946.21868900000004
 21
479.38037100000003
  0
ARC
  8
_0-0_0
  6
CONTINUOUS
 62
    7
 10
947.33123799999998
 20
482.95001200000002
 40
0.2
 50
339.62356199999999
 51
90.000002999999978
  0
LINE
  8
_0-0_0
  6
CONTINUOUS
 62
    7
 10
-205.893551
 20
476.25
 11
-205.79355600000008
 21
476.25
  0
LINE
  8
_0-0_0
  6
CONTINUOUS
 62
    7
 10
-190.09355100000005
 20
476.25
 11
-190.79355600000008
 21
476.25
  0
LINE
  8
_0-0_0
  6
CONTINUOUS
 62
    7
 10
-190.09355100000005
 20
476.25
 11
-188.893551
 21
476.25
  0
ARC
  8
_0-0_0
  6
CONTINUOUS
 62
    7
 10
-188.893551
 20
475.75
 40
0.5
 50
0
 51
90.000003000000007
  0
ARC
  8
_0-0_0
  6
CONTINUOUS
 62
    7
 10
-190.09355100000005
 20
475.75
 40
0.5
 50
90.000003000000007
 51
179.99999099999999
  0
ARC
  8
_0-0_0
  6
CONTINUOUS
 62
    7
 10
-205.893551
 20
475.75
 40
0.5
 50
90.000003000000007
 51
179.99999099999999
  0
ARC
  8
_0-0_0
  6
CONTINUOUS
 62
    7
 10
-204.393551
 20
476.75
 40
0.5
 50
90.000003000000007
 51
126.868797
  0
LINE
  8
_0-0_0
  6
CONTINUOUS
 62
    7
 10
-202.893551
 20
477.25
 11
-204.393551
 21
477.25
  0
ARC
  8
_0-0_0
  6
CONTINUOUS
 62
    7
 10
-202.893551
 20
478.25
 40
1
 50
269.99999700000001
 51
0
  0
LINE
  8
_0-0_0
  6
CONTINUOUS
 62
    7
 10
-201.893552
 20
478.75
 11
-201.893552
 21
478.25
  0
LINE
  8
_0-0_0
  6
CONTINUOUS
 62
    7
 10
-201.393552
 20
478.75
 11
-201.393552
 21
477.75
  0
ARC
  8
_0-0_0
  6
CONTINUOUS
 62
    7
 10
-202.893551
 20
477.75
 40
1.5
 50
336.42205899999999
 51
0
  0
ARC
  8
_0-0_0
  6
CONTINUOUS
 62
    7
 10
-191.29355200000009
 20
477.75
 40
1.5
 50
179.99999099999999
 51
203.57793100000001
  0
LINE
  8
_0-0_0
  6
CONTINUOUS
 62
    7
 10
-189.29355200000009
 20
476.75
 11
-189.29355200000009
 21
476.25
  0
ARC
  8
_0-0_0
  6
CONTINUOUS
 62
    7
 10
-189.79355200000009
 20
476.75
 40
0.5
 50
0
 51
90.000003000000007
  0
LINE
  8
_0-0_0
  6
CONTINUOUS
 62
    7
 10
-191.29355200000009
 20
477.25
 11
-189.79355200000009
 21
477.25
  0
ARC
  8
_0-0_0
  6
CONTINUOUS
 62
    7
 10
-191.29355200000009
 20
478.25
 40
1
 50
179.99999099999999
 51
269.99999700000001
  0
LINE
  8
_0-0_0
  6
CONTINUOUS
 62
    7
 10
-192.29355200000009
 20
478.75
 11
-192.29355200000009
 21
478.25
  0
LINE
  8
_0-0_0
  6
CONTINUOUS
 62
    7
 10
-192.79355200000009
 20
478.75
 11
-192.79355200000009
 21
477.75
  0
LINE
  8
_0-0_0
  6
CONTINUOUS
 62
    7
 10
-188.393551
 20
449.25
 11
-188.393551
 21
450.15002399999997
  0
LINE
  8
_0-0_0
  6
CONTINUOUS
 62
    7
 10
-188.393551
 20
450.15002399999997
 11
-188.393551
 21
452.65002399999997
  0
LINE
  8
_0-0_0
  6
CONTINUOUS
 62
    7
 10
-188.393551
 20
452.65002399999997
 11
-188.393551
 21
473.25
  0
LINE
  8
_0-0_0
  6
CONTINUOUS
 62
    7
 10
-188.393551
 20
473.25
 11
-188.393551
 21
475.75
  0
LINE
  8
_0-0_0
  6
CONTINUOUS
 62
    7
 10
-190.59355100000005
 20
475.75
 11
-190.59355100000005
 21
474.50500499999998
  0
LINE
  8
_0-0_0
  6
CONTINUOUS
 62
    7
 10
-192.99355100000002
 20
477.15002399999997
 11
-192.99355100000002
 21
478.55001800000002
  0
ARC
  8
_0-0_0
  6
CONTINUOUS
 62
    7
 10
-193.49355100000002
 20
478.55001800000002
 40
0.5
 50
0
 51
23.579369
  0
LINE
  8
_0-0_0
  6
CONTINUOUS
 62
    7
 10
-201.19355200000007
 20
477.15002399999997
 11
-201.19355200000007
 21
478.55001800000002
  0
ARC
  8
_0-0_0
  6
CONTINUOUS
 62
    7
 10
-200.69355200000007
 20
478.55001800000002
 40
0.5
 50
156.420635
 51
179.99999099999999
  0
LINE
  8
_0-0_0
  6
CONTINUOUS
 62
    7
 10
-206.393551
 20
449.25
 11
-206.393551
 21
459.45001200000002
  0
LINE
  8
_0-0_0
  6
CONTINUOUS
 62
    7
 10
-206.393551
 20
459.45001200000002
 11
-206.393551
 21
460.45001200000002
  0
LINE
  8
_0-0_0
  6
CONTINUOUS
 62
    7
 10
-206.393551
 20
460.45001200000002
 11
-206.393551
 21
465.45001200000002
  0
LINE
  8
_0-0_0
  6
CONTINUOUS
 62
    7
 10
-206.393551
 20
465.45001200000002
 11
-206.393551
 21
466.45001200000002
  0
LINE
  8
_0-0_0
  6
CONTINUOUS
 62
    7
 10
-206.393551
 20
475.75
 11
-206.393551
 21
466.45001200000002
  0
ARC
  8
_0-0_0
  6
CONTINUOUS
 62
    7
 10
-205.29355200000009
 20
465.45001200000002
 40
0.5
 50
0
 51
90.000003000000007
  0
LINE
  8
_0-0_0
  6
CONTINUOUS
 62
    7
 10
-205.19355200000007
 20
466.40002399999997
 11
-205.29355200000009
 21
466.40002399999997
  0
ARC
  8
_0-0_0
  6
CONTINUOUS
 62
    7
 10
-205.19355200000007
 20
465.90002399999997
 40
0.5
 50
0
 51
90.000003000000007
  0
LINE
  8
_0-0_0
  6
CONTINUOUS
 62
    7
 10
-204.79355200000009
 20
465.45001200000002
 11
-204.79355200000009
 21
460.45001200000002
  0
ARC
  8
_0-0_0
  6
CONTINUOUS
 62
    7
 10
-205.29355200000009
 20
460.45001200000002
 40
0.5
 50
269.99999700000001
 51
0
  0
ARC
  8
_0-0_0
  6
CONTINUOUS
 62
    7
 10
-205.19355200000007
 20
460.35000600000001
 40
0.5
 50
269.99999700000001
 51
0
  0
LINE
  8
_0-0_0
  6
CONTINUOUS
 62
    7
 10
-205.29355200000009
 20
459.85000600000001
 11
-205.19355200000007
 21
459.85000600000001
  0
LINE
  8
_0-0_0
  6
CONTINUOUS
 62
    7
 10
-187.59355100000005
 20
474.75
 11
-188.393551
 21
474.75
  0
LINE
  8
_0-0_0
  6
CONTINUOUS
 62
    7
 10
-187.59355100000005
 20
475.55001800000002
 11
-188.393551
 21
475.55001800000002
  0
LINE
  8
_0-0_0
  6
CONTINUOUS
 62
    7
 10
-187.59355100000005
 20
474.55001800000002
 11
-187.59355100000005
 21
475.55001800000002
  0
LINE
  8
_0-0_0
  6
CONTINUOUS
 62
    7
 10
-187.59355100000005
 20
455.95001200000002
 11
-188.393551
 21
455.95001200000002
  0
LINE
  8
_0-0_0
  6
CONTINUOUS
 62
    7
 10
-187.59355100000005
 20
455.95001200000002
 11
-187.59355100000005
 21
458.95001200000002
  0
LINE
  8
_0-0_0
  6
CONTINUOUS
 62
    7
 10
-187.59355100000005
 20
471.18771400000003
 11
-187.59355100000005
 21
458.95001200000002
  0
LINE
  8
_0-0_0
  6
CONTINUOUS
 62
    7
 10
-187.59355100000005
 20
471.18771400000003
 11
-187.59355100000005
 21
472.15048200000001
  0
LINE
  8
_0-0_0
  6
CONTINUOUS
 62
    7
 10
-188.393551
 20
472.15048200000001
 11
-188.393551
 21
474.75
  0
ARC
  8
_0-0_0
  6
CONTINUOUS
 62
    7
 10
-194.00847600000009
 20
471.43206800000002
 40
5.7120379999999997
 50
18.558475999999999
 51
26.433648000000002
  0
ARC
  8
_0-0_0
  6
CONTINUOUS
 62
    7
 10
-188.59355100000005
 20
473.25
 40
0.2
 50
269.99999700000001
 51
0
  0
ARC
  8
_0-0_0
  6
CONTINUOUS
 62
    7
 10
-188.59355100000005
 20
452.65002399999997
 40
0.2
 50
0
 51
90.000003000000007
  0
ARC
  8
_0-0_0
  6
CONTINUOUS
 62
    7
 10
-194.00836000000004
 20
454.46804800000001
 40
5.711964
 50
333.565022
 51
341.44031000000001
  0
ARC
  8
_0-0_0
  6
CONTINUOUS
 62
    7
 10
-188.893551
 20
450.15002399999997
 40
0.5
 50
269.99999700000001
 51
0
  0
LINE
  8
_0-0_0
  6
CONTINUOUS
 62
    7
 10
-188.893551
 20
449.25
 11
-188.393551
 21
449.25
  0
LINE
  8
_0-0_0
  6
CONTINUOUS
 62
    7
 10
-188.393551
 20
449.25
 11
-188.893551
 21
448.75
  0
ARC
  8
_0-0_0
  6
CONTINUOUS
 62
    7
 10
-190.59355100000005
 20
471.75
 40
2.2999999999999998
 50
34.417387999999995
 51
79.713437000000013
  0
LINE
  8
_0-0_0
  6
CONTINUOUS
 62
    7
 10
-188.65486900000008
 20
473.05001800000002
 11
-188.69618400000002
 21
473.05001800000002
  0
LINE
  8
_0-0_0
  6
CONTINUOUS
 62
    7
 10
-188.65486900000008
 20
473.05001800000002
 11
-188.645309
 21
473.05102499999998
  0
LINE
  8
_0-0_0
  6
CONTINUOUS
 62
    7
 10
-188.645309
 20
473.05102499999998
 11
-188.63581800000009
 21
473.05423000000002
  0
LINE
  8
_0-0_0
  6
CONTINUOUS
 62
    7
 10
-188.63581800000009
 20
473.05423000000002
 11
-188.62656400000003
 21
473.05963100000002
  0
LINE
  8
_0-0_0
  6
CONTINUOUS
 62
    7
 10
-188.62656400000003
 20
473.05963100000002
 11
-188.61776700000007
 21
473.067139
  0
LINE
  8
_0-0_0
  6
CONTINUOUS
 62
    7
 10
-188.61776700000007
 20
473.067139
 11
-188.60236700000007
 21
473.08776899999998
  0
LINE
  8
_0-0_0
  6
CONTINUOUS
 62
    7
 10
-188.60236700000007
 20
473.08776899999998
 11
-188.59059100000002
 21
473.11505099999999
  0
LINE
  8
_0-0_0
  6
CONTINUOUS
 62
    7
 10
-188.59059100000002
 20
473.11505099999999
 11
-188.58341000000007
 21
473.14718599999998
  0
LINE
  8
_0-0_0
  6
CONTINUOUS
 62
    7
 10
-188.58341000000007
 20
473.14718599999998
 11
-188.58151800000007
 21
473.18225100000001
  0
LINE
  8
_0-0_0
  6
CONTINUOUS
 62
    7
 10
-188.58151800000007
 20
473.18225100000001
 11
-188.58536700000002
 21
473.218414
  0
LINE
  8
_0-0_0
  6
CONTINUOUS
 62
    7
 10
-188.58536700000002
 20
473.218414
 11
-188.59355300000004
 21
473.25
  0
ARC
  8
_0-0_0
  6
CONTINUOUS
 62
    7
 10
-190.09355100000005
 20
474.50500499999998
 40
0.5
 50
179.99999099999999
 51
259.71343899999994
  0
LINE
  8
_0-0_0
  6
CONTINUOUS
 62
    7
 10
-190.79355200000009
 20
474.60000600000001
 11
-190.79355200000009
 21
474.30658
  0
LINE
  8
_0-0_0
  6
CONTINUOUS
 62
    7
 10
-190.79355200000009
 20
474.60000600000001
 11
-190.79355200000009
 21
476.65002399999997
  0
ARC
  8
_0-0_0
  6
CONTINUOUS
 62
    7
 10
-191.29355200000009
 20
476.65002399999997
 40
0.5
 50
0
 51
90.000003000000007
  0
LINE
  8
_0-0_0
  6
CONTINUOUS
 62
    7
 10
-191.29355200000009
 20
477.15002399999997
 11
-194.03644500000007
 21
477.15002399999997
  0
ARC
  8
_0-0_0
  6
CONTINUOUS
 62
    7
 10
-205.29355200000009
 20
466.90002399999997
 40
0.5
 50
179.99999099999999
 51
269.99999700000001
  0
LINE
  8
_0-0_0
  6
CONTINUOUS
 62
    7
 10
-205.79355200000009
 20
476.65002399999997
 11
-205.79355200000009
 21
466.90002399999997
  0
LINE
  8
_0-0_0
  6
CONTINUOUS
 62
    7
 10
-200.15065900000002
 20
477.15002399999997
 11
-205.29355200000009
 21
477.15002399999997
  0
ARC
  8
_0-0_0
  6
CONTINUOUS
 62
    7
 10
-205.29355200000009
 20
476.65002399999997
 40
0.5
 50
90.000003000000007
 51
179.99999099999999
  0
LINE
  8
_0-0_0
  6
CONTINUOUS
 62
    7
 10
-206.59355200000005
 20
474.75
 11
-206.393551
 21
474.75
  0
LINE
  8
_0-0_0
  6
CONTINUOUS
 62
    7
 10
-206.59355200000005
 20
475.55001800000002
 11
-206.393551
 21
475.55001800000002
  0
LINE
  8
_0-0_0
  6
CONTINUOUS
 62
    7
 10
-206.59355200000005
 20
475.55001800000002
 11
-206.59355200000005
 21
474.75012199999998
  0
LINE
  8
_0-0_0
  6
CONTINUOUS
 62
    7
 10
-206.59355200000005
 20
455.95001200000002
 11
-206.393551
 21
455.95001200000002
  0
LINE
  8
_0-0_0
  6
CONTINUOUS
 62
    7
 10
-206.59355200000005
 20
458.95001200000002
 11
-206.59355200000005
 21
455.95001200000002
  0
LINE
  8
_0-0_0
  6
CONTINUOUS
 62
    7
 10
-206.59355200000005
 20
471.18771400000003
 11
-206.59355200000005
 21
458.95001200000002
  0
LINE
  8
_0-0_0
  6
CONTINUOUS
 62
    7
 10
-206.59355200000005
 20
472.15048200000001
 11
-206.59355200000005
 21
471.18771400000003
  0
ARC
  8
_0-0_0
  6
CONTINUOUS
 62
    7
 10
-205.893551
 20
465.45001200000002
 40
0.5
 50
90.000003000000007
 51
179.99999099999999
  0
ARC
  8
_0-0_0
  6
CONTINUOUS
 62
    7
 10
-205.893551
 20
460.45001200000002
 40
0.5
 50
179.99999099999999
 51
269.99999700000001
  0
LINE
  8
_0-0_0
  6
CONTINUOUS
 62
    7
 10
-206.393551
 20
449.25
 11
-205.893551
 21
449.25
  0
LINE
  8
_0-0_0
  6
CONTINUOUS
 62
    7
 10
-206.393551
 20
449.25
 11
-205.893551
 21
448.75
  0
LINE
  8
_0-0_0
  6
CONTINUOUS
 62
    7
 10
-205.29355200000009
 20
465.95001200000002
 11
-205.893551
 21
465.95001200000002
  0
LINE
  8
_0-0_0
  6
CONTINUOUS
 62
    7
 10
-204.69355200000007
 20
465.90002399999997
 11
-204.69355200000007
 21
460.35000600000001
  0
LINE
  8
_0-0_0
  6
CONTINUOUS
 62
    7
 10
-188.893551
 20
449.25
 11
-205.893551
 21
449.25
  0
LINE
  8
_0-0_0
  6
CONTINUOUS
 62
    7
 10
-205.893551
 20
459.95001200000002
 11
-205.29355200000009
 21
459.95001200000002
  0
ARC
  8
_0-0_0
  6
CONTINUOUS
 62
    7
 10
-205.29355200000009
 20
459.35000600000001
 40
0.5
 50
90.000003000000007
 51
179.99999099999999
  0
LINE
  8
_0-0_0
  6
CONTINUOUS
 62
    7
 10
-187.59355100000005
 20
472.15048200000001
 11
-187.59355100000005
 21
474.75
  0
LINE
  8
_0-0_0
  6
CONTINUOUS
 62
    7
 10
-188.59355100000005
 20
473.05001800000002
 11
-188.65486900000008
 21
473.05001800000002
  0
LINE
  8
_0-0_0
  6
CONTINUOUS
 62
    7
 10
-188.69618400000002
 20
473.05001800000002
 11
-188.69840800000009
 21
473.05001800000002
  0
LINE
  8
_0-0_0
  6
CONTINUOUS
 62
    7
 10
-188.83008400000006
 20
453.05001800000002
 11
-188.79315900000006
 21
452.97976699999998
  0
LINE
  8
_0-0_0
  6
CONTINUOUS
 62
    7
 10
-188.79315900000006
 20
452.97976699999998
 11
-188.77355599999999
 21
452.945313
  0
LINE
  8
_0-0_0
  6
CONTINUOUS
 62
    7
 10
-188.77355599999999
 20
452.945313
 11
-188.74747100000002
 21
452.90344199999998
  0
LINE
  8
_0-0_0
  6
CONTINUOUS
 62
    7
 10
-188.74747100000002
 20
452.90344199999998
 11
-188.73416100000009
 21
452.88439899999997
  0
LINE
  8
_0-0_0
  6
CONTINUOUS
 62
    7
 10
-188.73416100000009
 20
452.88439899999997
 11
-188.71580300000005
 21
452.86203
  0
LINE
  8
_0-0_0
  6
CONTINUOUS
 62
    7
 10
-188.71580300000005
 20
452.86203
 11
-188.70301000000006
 21
452.85140999999999
  0
LINE
  8
_0-0_0
  6
CONTINUOUS
 62
    7
 10
-188.70301000000006
 20
452.85140999999999
 11
-188.69840800000009
 21
452.85000600000001
  0
LINE
  8
_0-0_0
  6
CONTINUOUS
 62
    7
 10
-188.69618400000002
 20
452.85000600000001
 11
-188.69840800000009
 21
452.85000600000001
  0
LINE
  8
_0-0_0
  6
CONTINUOUS
 62
    7
 10
-188.83008400000006
 20
472.85000600000001
 11
-188.79315900000006
 21
472.92022700000001
  0
LINE
  8
_0-0_0
  6
CONTINUOUS
 62
    7
 10
-188.79315900000006
 20
472.92022700000001
 11
-188.77355399999999
 21
472.95471199999997
  0
LINE
  8
_0-0_0
  6
CONTINUOUS
 62
    7
 10
-188.77355399999999
 20
472.95471199999997
 11
-188.74747100000002
 21
472.99655200000001
  0
LINE
  8
_0-0_0
  6
CONTINUOUS
 62
    7
 10
-188.74747100000002
 20
472.99655200000001
 11
-188.73416300000008
 21
473.01559400000002
  0
LINE
  8
_0-0_0
  6
CONTINUOUS
 62
    7
 10
-188.73416300000008
 20
473.01559400000002
 11
-188.71580300000005
 21
473.03799400000003
  0
LINE
  8
_0-0_0
  6
CONTINUOUS
 62
    7
 10
-188.71580300000005
 20
473.03799400000003
 11
-188.70301000000006
 21
473.04861499999998
  0
LINE
  8
_0-0_0
  6
CONTINUOUS
 62
    7
 10
-188.70301000000006
 20
473.04861499999998
 11
-188.69840800000009
 21
473.05001800000002
  0
LINE
  8
_0-0_0
  6
CONTINUOUS
 62
    7
 10
-188.69618400000002
 20
452.85000600000001
 11
-188.65486900000008
 21
452.85000600000001
  0
LINE
  8
_0-0_0
  6
CONTINUOUS
 62
    7
 10
-188.59355100000005
 20
452.85000600000001
 11
-188.65486900000008
 21
452.85000600000001
  0
LINE
  8
_0-0_0
  6
CONTINUOUS
 62
    7
 10
-188.65486900000008
 20
452.85000600000001
 11
-188.645307
 21
452.84896900000001
  0
LINE
  8
_0-0_0
  6
CONTINUOUS
 62
    7
 10
-188.645307
 20
452.84896900000001
 11
-188.63581600000009
 21
452.84576399999997
  0
LINE
  8
_0-0_0
  6
CONTINUOUS
 62
    7
 10
-188.63581600000009
 20
452.84576399999997
 11
-188.62656400000003
 21
452.84039300000001
  0
LINE
  8
_0-0_0
  6
CONTINUOUS
 62
    7
 10
-188.62656400000003
 20
452.84039300000001
 11
-188.61776700000007
 21
452.83288599999997
  0
LINE
  8
_0-0_0
  6
CONTINUOUS
 62
    7
 10
-188.61776700000007
 20
452.83288599999997
 11
-188.60236700000007
 21
452.81225599999999
  0
LINE
  8
_0-0_0
  6
CONTINUOUS
 62
    7
 10
-188.60236700000007
 20
452.81225599999999
 11
-188.59059100000002
 21
452.78497299999998
  0
LINE
  8
_0-0_0
  6
CONTINUOUS
 62
    7
 10
-188.59059100000002
 20
452.78497299999998
 11
-188.58341000000007
 21
452.752838
  0
LINE
  8
_0-0_0
  6
CONTINUOUS
 62
    7
 10
-188.58341000000007
 20
452.752838
 11
-188.58151800000007
 21
452.71777300000002
  0
LINE
  8
_0-0_0
  6
CONTINUOUS
 62
    7
 10
-188.58151800000007
 20
452.71777300000002
 11
-188.58536700000002
 21
452.68160999999998
  0
LINE
  8
_0-0_0
  6
CONTINUOUS
 62
    7
 10
-188.58536700000002
 20
452.68160999999998
 11
-188.59355300000004
 21
452.65002399999997
  0
ARC
  8
_0-0_0
  6
CONTINUOUS
 62
    7
 10
-190.59355100000005
 20
454.15002399999997
 40
2.2999999999999998
 50
280.28656300000006
 51
325.58260500000006
  0
LINE
  8
_0-0_0
  6
CONTINUOUS
 62
    7
 10
-188.893551
 20
449.65002399999997
 11
-190.09355100000005
 21
449.65002399999997
  0
LINE
  8
_0-0_0
  6
CONTINUOUS
 62
    7
 10
-188.893551
 20
448.75
 11
-205.893551
 21
448.75
  0
LINE
  8
_0-0_0
  6
CONTINUOUS
 62
    7
 10
-190.79355200000009
 20
474.30658
 11
-190.79328100000009
 21
474.29016100000001
  0
ARC
  8
_0-0_0
  6
CONTINUOUS
 62
    7
 10
-190.29355200000009
 20
474.30658
 40
0.5
 50
181.88290099999998
 51
260.07179799999994
  0
LINE
  8
_0-0_0
  6
CONTINUOUS
 62
    7
 10
-191.29355200000009
 20
475.09429899999998
 11
-191.09355100000005
 21
474.89999399999999
  0
LINE
  8
_0-0_0
  6
CONTINUOUS
 62
    7
 10
-191.09355100000005
 20
474.89999399999999
 11
-190.79355200000009
 21
474.60000600000001
  0
LINE
  8
_0-0_0
  6
CONTINUOUS
 62
    7
 10
-190.79355200000009
 20
474.60000600000001
 11
-191.09355100000005
 21
474.60000600000001
  0
ARC
  8
_0-0_0
  6
CONTINUOUS
 62
    7
 10
-194.03644500000007
 20
477.65002399999997
 40
0.5
 50
225
 51
269.99999700000001
  0
ARC
  8
_0-0_0
  6
CONTINUOUS
 62
    7
 10
-200.15065900000002
 20
477.65002399999997
 40
0.5
 50
269.99999700000001
 51
314.99999200000002
  0
LINE
  8
_0-0_0
  6
CONTINUOUS
 62
    7
 10
-206.59355200000005
 20
474.75
 11
-206.59355200000005
 21
472.15048200000001
  0
LINE
  8
_0-0_0
  6
CONTINUOUS
 62
    7
 10
-188.393551
 20
475.550049
 11
-188.393551
 21
475.75
  0
CIRCLE
  8
_0-0_0
  6
CONTINUOUS
 62
    7
 10
-197.09355200000005
 20
474.75
 40
2.25
  0
ARC
  8
_0-0_0
  6
CONTINUOUS
 62
    7
 10
-197.09355200000005
 20
454.65002399999997
 40
1.75
 50
179.99999099999999
 51
359.99998299999993
  0
LINE
  8
_0-0_0
  6
CONTINUOUS
 62
    7
 10
-198.84355200000005
 20
454.90002399999997
 11
-198.84355200000005
 21
454.65002399999997
  0
ARC
  8
_0-0_0
  6
CONTINUOUS
 62
    7
 10
-197.09355200000005
 20
454.90002399999997
 40
1.75
 50
0
 51
179.99999099999999
  0
LINE
  8
_0-0_0
  6
CONTINUOUS
 62
    7
 10
-195.34355200000005
 20
454.65002399999997
 11
-195.34355200000005
 21
454.90002399999997
  0
ARC
  8
_0-0_0
  6
CONTINUOUS
 62
    7
 10
-191.393551
 20
454.95001200000002
 40
3
 50
269.99999700000001
 51
0
  0
LINE
  8
_0-0_0
  6
CONTINUOUS
 62
    7
 10
-205.79355200000009
 20
459.35000600000001
 11
-205.79355200000009
 21
458.5
  0
LINE
  8
_0-0_0
  6
CONTINUOUS
 62
    7
 10
-205.79355200000009
 20
452.45001200000002
 11
-205.79355200000009
 21
458.5
  0
ARC
  8
_0-0_0
  6
CONTINUOUS
 62
    7
 10
-190.79355200000009
 20
471.45001200000002
 40
2.3999999999999999
 50
0
 51
80.071809999999985
  0
LINE
  8
_0-0_0
  6
CONTINUOUS
 62
    7
 10
-188.393551
 20
454.95001200000002
 11
-188.393551
 21
467.75
  0
LINE
  8
_0-0_0
  6
CONTINUOUS
 62
    7
 10
-188.393551
 20
467.75
 11
-188.393551
 21
471.45001200000002
  0
ARC
  8
_0-0_0
  6
CONTINUOUS
 62
    7
 10
-190.09355100000005
 20
451.39501999999999
 40
0.5
 50
100.28656100000001
 51
179.99999099999999
  0
LINE
  8
_0-0_0
  6
CONTINUOUS
 62
    7
 10
-190.59355100000005
 20
450.15002399999997
 11
-190.59355100000005
 21
451.39501999999999
  0
ARC
  8
_0-0_0
  6
CONTINUOUS
 62
    7
 10
-190.09355100000005
 20
450.15002399999997
 40
0.5
 50
179.99999099999999
 51
269.99999700000001
  0
LINE
  8
_0-0_0
  6
CONTINUOUS
 62
    7
 10
-199.79710499999999
 20
477.296448
 11
-199.73999800000001
 21
477.35357699999997
  0
ARC
  8
_0-0_0
  6
CONTINUOUS
 62
    7
 10
-199.38644500000009
 20
477
 40
0.5
 50
90.000003000000007
 51
135
  0
LINE
  8
_0-0_0
  6
CONTINUOUS
 62
    7
 10
-194.800659
 20
477.5
 11
-199.38644500000009
 21
477.5
  0
ARC
  8
_0-0_0
  6
CONTINUOUS
 62
    7
 10
-194.800659
 20
477
 40
0.5
 50
45.00000099999999
 51
90.000002999999992
  0
LINE
  8
_0-0_0
  6
CONTINUOUS
 62
    7
 10
-194.38999699999999
 20
477.296448
 11
-194.44710500000008
 21
477.35357699999997
  0
ARC
  8
_0-0_0
  6
CONTINUOUS
 62
    7
 10
-191.09355100000005
 20
471.60000600000001
 40
3
 50
90.000003000000007
 51
179.99999099999999
  0
LINE
  8
_0-0_0
  6
CONTINUOUS
 62
    7
 10
-203.09355200000005
 20
458
 11
-205.29355200000009
 21
458
  0
ARC
  8
_0-0_0
  6
CONTINUOUS
 62
    7
 10
-203.09355200000005
 20
455
 40
3
 50
0
 51
90.000003000000007
  0
LINE
  8
_0-0_0
  6
CONTINUOUS
 62
    7
 10
-200.09355200000005
 20
455
 11
-200.09355200000005
 21
452.45001200000002
  0
LINE
  8
_0-0_0
  6
CONTINUOUS
 62
    7
 10
-199.59355200000005
 20
451.95001200000002
 11
-191.393551
 21
451.95001200000002
  0
LINE
  8
_0-0_0
  6
CONTINUOUS
 62
    7
 10
-191.09355100000005
 20
468.25
 11
-188.893551
 21
468.25
  0
ARC
  8
_0-0_0
  6
CONTINUOUS
 62
    7
 10
-191.09355100000005
 20
471.25
 40
3
 50
179.99999099999999
 51
269.99999700000001
  0
LINE
  8
_0-0_0
  6
CONTINUOUS
 62
    7
 10
-194.09355100000005
 20
471.25
 11
-194.09355100000005
 21
471.60000600000001
  0
CIRCLE
  8
_0-0_0
  6
CONTINUOUS
 62
    7
 10
-197.09355200000005
 20
474.75
 40
2.0499999999999998
  0
ARC
  8
_0-0_0
  6
CONTINUOUS
 62
    7
 10
-197.09355200000005
 20
454.65002399999997
 40
1.55
 50
179.99999099999999
 51
0
  0
LINE
  8
_0-0_0
  6
CONTINUOUS
 62
    7
 10
-198.643552
 20
454.90002399999997
 11
-198.643552
 21
454.65002399999997
  0
ARC
  8
_0-0_0
  6
CONTINUOUS
 62
    7
 10
-197.09355200000005
 20
454.90002399999997
 40
1.55
 50
0
 51
179.99999099999999
  0
LINE
  8
_0-0_0
  6
CONTINUOUS
 62
    7
 10
-195.54355200000009
 20
454.65002399999997
 11
-195.54355200000009
 21
454.90002399999997
  0
LINE
  8
_0-0_0
  6
CONTINUOUS
 62
    7
 10
-205.29355200000009
 20
451.95001200000002
 11
-199.59355200000005
 21
451.95001200000002
  0
ARC
  8
_0-0_0
  6
CONTINUOUS
 62
    7
 10
-205.29355200000009
 20
452.45001200000002
 40
0.5
 50
179.99999099999999
 51
269.99999700000001
  0
ARC
  8
_0-0_0
  6
CONTINUOUS
 62
    7
 10
-205.29355200000009
 20
458.5
 40
0.5
 50
179.99999099999999
 51
269.99999700000001
  0
ARC
  8
_0-0_0
  6
CONTINUOUS
 62
    7
 10
-188.893551
 20
467.75
 40
0.5
 50
0
 51
90.000003000000007
  0
ARC
  8
_0-0_0
  6
CONTINUOUS
 62
    7
 10
-199.59355200000005
 20
452.45001200000002
 40
0.5
 50
179.99999099999999
 51
269.99999700000001
  0
CIRCLE
  8
_0-0_0
  6
CONTINUOUS
 62
    7
 10
-191.09355100000005
 20
471.25
 40
2.25
  0
CIRCLE
  8
_0-0_0
  6
CONTINUOUS
 62
    7
 10
-203.09355200000005
 20
454.65002399999997
 40
2.25
  0
CIRCLE
  8
_0-0_0
  6
CONTINUOUS
 62
    7
 10
-191.09355100000005
 20
471.25
 40
2
  0
CIRCLE
  8
_0-0_0
  6
CONTINUOUS
 62
    7
 10
-203.09355200000005
 20
454.65002399999997
 40
2
  0
LINE
  8
_0-0_0
  6
CONTINUOUS
 62
    7
 10
-192.24355100000002
 20
471.25
 11
-191.67566099999999
 21
472.25
  0
LINE
  8
_0-0_0
  6
CONTINUOUS
 62
    7
 10
-191.67566099999999
 20
470.25
 11
-192.24355100000002
 21
471.25
  0
LINE
  8
_0-0_0
  6
CONTINUOUS
 62
    7
 10
-190.51144199999999
 20
470.25
 11
-191.67566099999999
 21
470.25
  0
LINE
  8
_0-0_0
  6
CONTINUOUS
 62
    7
 10
-189.94355200000007
 20
471.25
 11
-190.51144199999999
 21
470.25
  0
LINE
  8
_0-0_0
  6
CONTINUOUS
 62
    7
 10
-190.51144199999999
 20
472.25
 11
-189.94355200000007
 21
471.25
  0
LINE
  8
_0-0_0
  6
CONTINUOUS
 62
    7
 10
-191.67566099999999
 20
472.25
 11
-190.51144199999999
 21
472.25
  0
LINE
  8
_0-0_0
  6
CONTINUOUS
 62
    7
 10
-204.24355300000002
 20
454.65002399999997
 11
-203.67566099999999
 21
455.65002399999997
  0
LINE
  8
_0-0_0
  6
CONTINUOUS
 62
    7
 10
-203.67566099999999
 20
453.65002399999997
 11
-204.24355300000002
 21
454.65002399999997
  0
LINE
  8
_0-0_0
  6
CONTINUOUS
 62
    7
 10
-202.51144199999999
 20
453.65002399999997
 11
-203.67566099999999
 21
453.65002399999997
  0
LINE
  8
_0-0_0
  6
CONTINUOUS
 62
    7
 10
-201.94355200000007
 20
454.65002399999997
 11
-202.51144199999999
 21
453.65002399999997
  0
LINE
  8
_0-0_0
  6
CONTINUOUS
 62
    7
 10
-202.51144199999999
 20
455.65002399999997
 11
-201.94355200000007
 21
454.65002399999997
  0
LINE
  8
_0-0_0
  6
CONTINUOUS
 62
    7
 10
-203.67566099999999
 20
455.65002399999997
 11
-202.51144199999999
 21
455.65002399999997
  0
LINE
  8
_0-0_0
  6
CONTINUOUS
 62
    7
 10
-188.393553
 20
472.05032299999999
 11
-188.393551
 21
472.05630500000001
  0
LINE
  8
_0-0_0
  6
CONTINUOUS
 62
    7
 10
-188.393551
 20
473.25
 11
-188.3939190000001
 21
473.23791499999999
  0
LINE
  8
_0-0_0
  6
CONTINUOUS
 62
    7
 10
-188.3939190000001
 20
452.66210899999999
 11
-188.393551
 21
452.65002399999997
  0
LINE
  8
_0-0_0
  6
CONTINUOUS
 62
    7
 10
-188.39426800000001
 20
467.77673299999998
 11
-188.393551
 21
467.75
  0
LINE
  8
_0-0_0
  6
CONTINUOUS
 62
    7
 10
-182.893551
 20
505.15002399999997
 11
-182.893551
 21
492.15002399999997
  0
LINE
  8
_0-0_0
  6
CONTINUOUS
 62
    7
 10
-182.69355200000007
 20
505.15002399999997
 11
-182.893551
 21
505.15002399999997
  0
LINE
  8
_0-0_0
  6
CONTINUOUS
 62
    7
 10
-182.69355200000007
 20
492.15002399999997
 11
-182.893551
 21
492.15002399999997
  0
LINE
  8
_0-0_0
  6
CONTINUOUS
 62
    7
 10
-182.69355200000007
 20
505.15002399999997
 11
-182.69355200000007
 21
523.75
  0
LINE
  8
_0-0_0
  6
CONTINUOUS
 62
    7
 10
-182.59355100000005
 20
523.75
 11
-182.69355200000007
 21
523.75
  0
LINE
  8
_0-0_0
  6
CONTINUOUS
 62
    7
 10
-182.59355100000005
 20
526.25
 11
-182.59355100000005
 21
523.75
  0
ARC
  8
_0-0_0
  6
CONTINUOUS
 62
    7
 10
-183.09355100000005
 20
526.25
 40
0.5
 50
0
 51
90.000003000000007
  0
LINE
  8
_0-0_0
  6
CONTINUOUS
 62
    7
 10
-183.09355100000005
 20
526.75
 11
-186.09355100000005
 21
526.75
  0
ARC
  8
_0-0_0
  6
CONTINUOUS
 62
    7
 10
-186.09355100000005
 20
526.25
 40
0.5
 50
90.000003000000007
 51
179.99999099999999
  0
ARC
  8
_0-0_0
  6
CONTINUOUS
 62
    7
 10
-190.59355100000005
 20
478.75
 40
0.5
 50
179.99999099999999
 51
269.99999700000001
  0
LINE
  8
_0-0_0
  6
CONTINUOUS
 62
    7
 10
-188.09355100000005
 20
478.25
 11
-190.59355100000005
 21
478.25
  0
ARC
  8
_0-0_0
  6
CONTINUOUS
 62
    7
 10
-188.09355100000005
 20
478.75
 40
0.5
 50
269.99999700000001
 51
0
  0
LINE
  8
_0-0_0
  6
CONTINUOUS
 62
    7
 10
-187.59355100000005
 20
483.75
 11
-187.59355100000005
 21
478.75
  0
ARC
  8
_0-0_0
  6
CONTINUOUS
 62
    7
 10
-187.09355100000005
 20
483.75
 40
0.5
 50
90.000003000000007
 51
179.99999099999999
  0
LINE
  8
_0-0_0
  6
CONTINUOUS
 62
    7
 10
-183.09355100000005
 20
484.25
 11
-187.09355100000005
 21
484.25
  0
ARC
  8
_0-0_0
  6
CONTINUOUS
 62
    7
 10
-183.09355100000005
 20
484.75
 40
0.5
 50
269.99999700000001
 51
0
  0
LINE
  8
_0-0_0
  6
CONTINUOUS
 62
    7
 10
-182.59355100000005
 20
487.95001200000002
 11
-182.59355100000005
 21
484.75
  0
LINE
  8
_0-0_0
  6
CONTINUOUS
 62
    7
 10
-182.69355200000007
 20
487.95001200000002
 11
-182.59355100000005
 21
487.95001200000002
  0
LINE
  8
_0-0_0
  6
CONTINUOUS
 62
    7
 10
-182.69355200000007
 20
487.95001200000002
 11
-182.69355200000007
 21
492.15002399999997
  0
LINE
  8
_0-0_0
  6
CONTINUOUS
 62
    7
 10
-183.59355100000005
 20
526.25
 11
-201.393552
 21
526.25
  0
ARC
  8
_0-0_0
  6
CONTINUOUS
 62
    7
 10
-183.59355100000005
 20
525.75
 40
0.5
 50
0
 51
90.000003000000007
  0
LINE
  8
_0-0_0
  6
CONTINUOUS
 62
    7
 10
-183.09355100000005
 20
525.75
 11
-183.09355100000005
 21
485.25
  0
ARC
  8
_0-0_0
  6
CONTINUOUS
 62
    7
 10
-183.59355100000005
 20
485.25
 40
0.5
 50
269.99999700000001
 51
0
  0
LINE
  8
_0-0_0
  6
CONTINUOUS
 62
    7
 10
-187.09355100000005
 20
484.75
 11
-183.59355100000005
 21
484.75
  0
ARC
  8
_0-0_0
  6
CONTINUOUS
 62
    7
 10
-187.09355100000005
 20
483.75
 40
1
 50
90.000003000000007
 51
179.99999099999999
  0
LINE
  8
_0-0_0
  6
CONTINUOUS
 62
    7
 10
-188.09355100000005
 20
483.75
 11
-188.09355100000005
 21
479.25
  0
ARC
  8
_0-0_0
  6
CONTINUOUS
 62
    7
 10
-188.59355100000005
 20
479.25
 40
0.5
 50
269.99999700000001
 51
0
  0
LINE
  8
_0-0_0
  6
CONTINUOUS
 62
    7
 10
-205.59355200000005
 20
478.75
 11
-188.59355100000005
 21
478.75
  0
LINE
  8
_0-0_0
  6
CONTINUOUS
 62
    7
 10
-187.09355100000005
 20
526.45001200000002
 11
-187.09355100000005
 21
526.25
  0
ARC
  8
_0-0_0
  6
CONTINUOUS
 62
    7
 10
-187.393551
 20
526.45001200000002
 40
0.2999999999999999
 50
0
 51
90.000003000000007
  0
LINE
  8
_0-0_0
  6
CONTINUOUS
 62
    7
 10
-187.393551
 20
526.75
 11
-202.09355200000005
 21
526.75
  0
ARC
  8
_0-0_0
  6
CONTINUOUS
 62
    7
 10
-202.09355200000005
 20
526.45001200000002
 40
0.2999999999999999
 50
90.000003000000007
 51
179.99999099999999
  0
LINE
  8
_0-0_0
  6
CONTINUOUS
 62
    7
 10
-202.393552
 20
526.45001200000002
 11
-202.393552
 21
523.25
  0
LINE
  8
_0-0_0
  6
CONTINUOUS
 62
    7
 10
-202.393552
 20
523.25
 11
-208.09355200000005
 21
523.25
  0
LINE
  8
_0-0_0
  6
CONTINUOUS
 62
    7
 10
-208.09355200000005
 20
523.25
 11
-208.893551
 21
522.45001200000002
  0
ARC
  8
_0-0_0
  6
CONTINUOUS
 62
    7
 10
-201.393552
 20
525.75
 40
0.5
 50
90.000003000000007
 51
179.99999099999999
  0
LINE
  8
_0-0_0
  6
CONTINUOUS
 62
    7
 10
-201.893552
 20
525.75
 11
-201.893552
 21
522.95001200000002
  0
ARC
  8
_0-0_0
  6
CONTINUOUS
 62
    7
 10
-202.393552
 20
522.95001200000002
 40
0.5
 50
269.99999700000001
 51
0
  0
LINE
  8
_0-0_0
  6
CONTINUOUS
 62
    7
 10
-202.393552
 20
522.45001200000002
 11
-210.59355200000005
 21
522.45001200000002
  0
ARC
  8
_0-0_0
  6
CONTINUOUS
 62
    7
 10
-210.59355200000005
 20
521.95001200000002
 40
0.5
 50
90.000003000000007
 51
179.99999099999999
  0
LINE
  8
_0-0_0
  6
CONTINUOUS
 62
    7
 10
-211.09355200000005
 20
485.25
 11
-211.09355200000005
 21
521.95001200000002
  0
ARC
  8
_0-0_0
  6
CONTINUOUS
 62
    7
 10
-210.59355200000005
 20
485.25
 40
0.5
 50
179.99999099999999
 51
269.99999700000001
  0
LINE
  8
_0-0_0
  6
CONTINUOUS
 62
    7
 10
-210.59355200000005
 20
484.75
 11
-207.09355200000005
 21
484.75
  0
ARC
  8
_0-0_0
  6
CONTINUOUS
 62
    7
 10
-207.09355200000005
 20
483.75
 40
1
 50
0
 51
90.000003000000007
  0
LINE
  8
_0-0_0
  6
CONTINUOUS
 62
    7
 10
-206.09355200000005
 20
479.25
 11
-206.09355200000005
 21
483.75
  0
ARC
  8
_0-0_0
  6
CONTINUOUS
 62
    7
 10
-205.59355200000005
 20
479.25
 40
0.5
 50
179.99999099999999
 51
269.99999700000001
  0
CIRCLE
  8
_0-0_0
  6
CONTINUOUS
 62
    7
 10
-197.09355200000005
 20
487.75
 40
2.0670000000000002
  0
LINE
  8
_0-0_0
  6
CONTINUOUS
 62
    7
 10
-209.09355200000005
 20
522.75
 11
-209.09355200000005
 21
522.45001200000002
  0
LINE
  8
_0-0_0
  6
CONTINUOUS
 62
    7
 10
-209.09355200000005
 20
522.75
 11
-211.09355200000005
 21
522.75
  0
ARC
  8
_0-0_0
  6
CONTINUOUS
 62
    7
 10
-211.09355200000005
 20
522.25
 40
0.5
 50
90.000003000000007
 51
179.99999099999999
  0
LINE
  8
_0-0_0
  6
CONTINUOUS
 62
    7
 10
-211.59355200000005
 20
522.25
 11
-211.59355200000005
 21
484.75
  0
ARC
  8
_0-0_0
  6
CONTINUOUS
 62
    7
 10
-211.09355200000005
 20
484.75
 40
0.5
 50
179.99999099999999
 51
269.99999700000001
  0
LINE
  8
_0-0_0
  6
CONTINUOUS
 62
    7
 10
-207.09355200000005
 20
484.25
 11
-211.09355200000005
 21
484.25
  0
ARC
  8
_0-0_0
  6
CONTINUOUS
 62
    7
 10
-207.09355200000005
 20
483.75
 40
0.5
 50
0
 51
90.000003000000007
  0
LINE
  8
_0-0_0
  6
CONTINUOUS
 62
    7
 10
-206.59355200000005
 20
478.75
 11
-206.59355200000005
 21
483.75
  0
ARC
  8
_0-0_0
  6
CONTINUOUS
 62
    7
 10
-206.09355200000005
 20
478.75
 40
0.5
 50
179.99999099999999
 51
269.99999700000001
  0
LINE
  8
_0-0_0
  6
CONTINUOUS
 62
    7
 10
-206.09355200000005
 20
478.25
 11
-203.59355200000005
 21
478.25
  0
ARC
  8
_0-0_0
  6
CONTINUOUS
 62
    7
 10
-203.59355200000005
 20
478.75
 40
0.5
 50
269.99999700000001
 51
0
  0
LINE
  8
_0-0_0
  6
CONTINUOUS
 62
    7
 10
-187.59355100000005
 20
478.75
 11
-187.49355100000002
 21
478.75
  0
LINE
  8
_0-0_0
  6
CONTINUOUS
 62
    7
 10
-187.49355100000002
 20
478.75
 11
-187.49355100000002
 21
479.25
  0
LINE
  8
_0-0_0
  6
CONTINUOUS
 62
    7
 10
-187.49355100000002
 20
483.25
 11
-187.49355100000002
 21
479.25
  0
LINE
  8
_0-0_0
  6
CONTINUOUS
 62
    7
 10
-187.59355100000005
 20
483.75
 11
-187.49355100000002
 21
483.75
  0
LINE
  8
_0-0_0
  6
CONTINUOUS
 62
    7
 10
-187.49355100000002
 20
483.25
 11
-187.49355100000002
 21
483.75
  0
LINE
  8
_0-0_0
  6
CONTINUOUS
 62
    7
 10
-187.393551
 20
479.25
 11
-187.393551
 21
479.38037100000003
  0
LINE
  8
_0-0_0
  6
CONTINUOUS
 62
    7
 10
-187.393551
 20
482.88037100000003
 11
-187.393551
 21
479.38037100000003
  0
LINE
  8
_0-0_0
  6
CONTINUOUS
 62
    7
 10
-187.49355100000002
 20
483.15002399999997
 11
-187.393551
 21
483.15002399999997
  0
LINE
  8
_0-0_0
  6
CONTINUOUS
 62
    7
 10
-187.393551
 20
482.88037100000003
 11
-187.393551
 21
483.15002399999997
  0
LINE
  8
_0-0_0
  6
CONTINUOUS
 62
    7
 10
-187.49355100000002
 20
479.25
 11
-187.393551
 21
479.25
  0
LINE
  8
_0-0_0
  6
CONTINUOUS
 62
    7
 10
-187.49355100000002
 20
479.25
 11
-187.393551
 21
479.25
  0
ENDSEC
  0
EOF
