  0
SECTION
  2
HEADER
  9
$ACADVER
  1
AC1009
  9
$INSBASE
 10
0
 20
0
 30
0
  9
$EXTMIN
 10
0
 20
0
  9
$EXTMAX
 10
841
 20
594
  9
$LIMMIN
 10
0
 20
0
  9
$LIMMAX
 10
841
 20
594
  9
$LTSCALE
 40
1
  0
ENDSEC
  0
SECTION
  2
TABLES
  0
TABLE
  2
LTYPE
 70
     9
  0
LTYPE
  2
CONTINUOUS
 70
    64
  3
実線
 72
    65
 73
     0
 40
0.0
  0
LTYPE
  2
DASHED1
 70
    64
  3
--  --  --  --  --  --  --  --  
 72
    65
 73
     2
 40
2.5
 49
1.25
 49
-1.25
  0
LTYPE
  2
DASHED2
 70
    64
  3
----    ----    ----    ----    
 72
    65
 73
     2
 40
5.0
 49
2.5
 49
-2.5
  0
LTYPE
  2
DASHED3
 70
    64
  3
------  ------  ------  ------  
 72
    65
 73
     2
 40
5.0
 49
3.75
 49
-1.25
  0
LTYPE
  2
CENTER1
 70
    64
  3
----- - ----- - ----- - ----- - 
 72
    65
 73
     4
 40
10.0
 49
6.25
 49
-1.25
 49
1.25
 49
-1.25
  0
LTYPE
  2
CENTER2
 70
    64
  3
----------  --  ----------  --  
 72
    65
 73
     4
 40
20.0
 49
12.5
 49
-2.5
 49
2.5
 49
-2.5
  0
LTYPE
  2
PHANTOM1
 70
    64
  3
--- - - --- - - --- - - --- - - 
 72
    65
 73
     6
 40
10.0
 49
3.25
 49
-1.25
 49
1.25
 49
-1.25
 49
1.25
 49
-1.25
  0
LTYPE
  2
PHANTOM2
 70
    64
  3
--------  -  -  --------  -  -  
 72
    65
 73
     6
 40
20.0
 49
10.0
 49
-2.5
 49
1.25
 49
-2.5
 49
1.25
 49
-2.5
  0
LTYPE
  2
DOT
 70
    64
  3
-   -   -   -   -   -   -   -   
 72
    65
 73
     2
 40
2.5
 49
0.625
 49
-1.875
  0
LTYPE
  2
DUMMY
 70
    64
  3
ダミー
 72
    65
 73
     0
 40
0.0
  0
LTYPE
  2
RAND1
 70
    64
  3
ランダム線1
 72
    65
 73
     4
 40
10.0
 49
1.0
 49
-2.0
 49
3.0
 49
-4.0
  0
LTYPE
  2
RAND2
 70
    64
  3
ランダム線2
 72
    65
 73
     4
 40
14.0
 49
2.0
 49
-3.0
 49
4.0
 49
-5.0
  0
LTYPE
  2
RAND3
 70
    64
  3
ランダム線3
 72
    65
 73
     4
 40
18.0
 49
3.0
 49
-4.0
 49
5.0
 49
-6.0
  0
LTYPE
  2
RAND4
 70
    64
  3
ランダム線4
 72
    65
 73
     4
 40
22.0
 49
4.0
 49
-5.0
 49
6.0
 49
-7.0
  0
LTYPE
  2
RAND5
 70
    64
  3
ランダム線5
 72
    65
 73
     4
 40
26.0
 49
5.0
 49
-6.0
 49
7.0
 49
-8.0
  0
LTYPE
  2
LONG1
 70
    64
  3
----------  --  ----------  --  
 72
    65
 73
     4
 40
40.0
 49
32.5
 49
-2.5
 49
2.5
 49
-2.5
  0
LTYPE
  2
LONG2
 70
    64
  3
--------  -  -  --------  -  -  
 72
    65
 73
     6
 40
40.0
 49
30.0
 49
-2.5
 49
1.25
 49
-2.5
 49
1.25
 49
-2.5
  0
LTYPE
  2
LONG3
 70
    64
  3
+++++++++++++++..+++++++++++++++
 72
    65
 73
     2
 40
40.0
 49
37.5
 49
-2.5
  0
LTYPE
  2
LONG4
 70
    64
  3
+++++++++++++++..+++++++++++++++
 72
    65
 73
     2
 40
80.0
 49
75.0
 49
-5.0
  0
LTYPE
  2
LONG5
 70
    64
  3
----------  --  ----------  --  
 72
    65
 73
     4
 40
60.0
 49
37.5
 49
-7.5
 49
7.5
 49
-7.5
  0
LTYPE
  2
dashed
 70
   64
  3
-------   -------------   ------
 72
   65
 73
    2
 40
7.5
 49
6
 49
-1.5
  0
LTYPE
  2
dashed_spaced
 70
   64
  3
----        --------        ----
 72
   65
 73
    2
 40
12
 49
6
 49
-6
  0
LTYPE
  2
long_dashed_dotted
 70
   64
  3
------------- --- --------------
 72
   65
 73
    4
 40
15.25
 49
12
 49
-1.5
 49
0.25
 49
-1.5
  0
LTYPE
  2
long_dashed_double-dotted
 70
   64
  3
----------- --- --- ------------
 72
   65
 73
    6
 40
17
 49
12
 49
-1.5
 49
0.25
 49
-1.5
 49
0.25
 49
-1.5
  0
LTYPE
  2
long_dashed_triplicate-dotted
 70
   64
  3
--------- --- --- --- ----------
 72
   65
 73
    8
 40
18.75
 49
12
 49
-1.5
 49
0.25
 49
-1.5
 49
0.25
 49
-1.5
 49
0.25
 49
-1.5
  0
LTYPE
  2
dotted
 70
   64
  3
   -       -       -       -    
 72
   65
 73
    2
 40
1.75
 49
0.25
 49
-1.5
  0
LTYPE
  2
chain
 70
   64
  3
-------------- -- --------------
 72
   65
 73
    4
 40
18.5
 49
12
 49
-1.5
 49
3.5
 49
-1.5
  0
LTYPE
  2
chain_double_dash
 70
   64
  3
------------ -- -- -------------
 72
   65
 73
    6
 40
23.5
 49
12
 49
-1.5
 49
3.5
 49
-1.5
 49
3.5
 49
-1.5
  0
LTYPE
  2
dashed_dotted
 70
   64
  3
-----------     -     ----------
 72
   65
 73
    4
 40
9.25
 49
6
 49
-1.5
 49
0.25
 49
-1.5
  0
LTYPE
  2
double-dashed_dotted
 70
   64
  3
------   -----------   -   -----
 72
   65
 73
    6
 40
16.75
 49
6
 49
-1.5
 49
6
 49
-1.5
 49
0.25
 49
-1.5
  0
LTYPE
  2
dashed_double-dotted
 70
   64
  3
---------    -    -    ---------
 72
   65
 73
    6
 40
11
 49
6
 49
-1.5
 49
0.25
 49
-1.5
 49
0.25
 49
-1.5
  0
LTYPE
  2
double-dashed_double-dotted
 70
   64
  3
-----   ---------   -   -   ----
 72
   65
 73
    8
 40
18.5
 49
6
 49
-1.5
 49
6
 49
-1.5
 49
0.25
 49
-1.5
 49
0.25
 49
-1.5
  0
LTYPE
  2
dashed_triplicate-dotted
 70
   64
  3
-------    -    -    -    ------
 72
   65
 73
    8
 40
12.75
 49
6
 49
-1.5
 49
0.25
 49
-1.5
 49
0.25
 49
-1.5
 49
0.25
 49
-1.5
  0
LTYPE
  2
double-dashed_triplicate-dotted
 70
   64
  3
-----  ---------  -  -  -  -----
 72
   65
 73
   10
 40
20.25
 49
6
 49
-1.5
 49
6
 49
-1.5
 49
0.25
 49
-1.5
 49
0.25
 49
-1.5
 49
0.25
 49
-1.5
  0
LTYPE
  2
undefined
 70
   64
  3
--------------------------------
 72
   65
 73
    0
 40
0
  0
ENDTAB
  0
TABLE
  2
STYLE
  5
3
100
AcDbSymbolTable
 70
     1
  0
STYLE
  5
10
100
AcDbSymbolTableRecord
100
AcDbTextStyleTableRecord
  2
STANDARD
 70
     0
 40
0.0
 41
1.0
 50
0.0
 71
     0
 42
0.2
  3
txt
  4
bigfont.shx
  0
STYLE
  5
26
100
AcDbSymbolTableRecord
100
AcDbTextStyleTableRecord
  2
TATEGAKI
 70
    68
 40
0.0
 41
1.0
 50
0.0
 71
     0
 42
1.0
  3
txt
  4
bigfont.shx
  0
ENDTAB
  0
TABLE
  2
LAYER
 70
    2
  0
LAYER
  2
_0-0_0
 70
   64
 62
    7
  6
CONTINUOUS
  0
LAYER
  2
ADD_LINE
 70
   64
 62
    7
  6
CONTINUOUS
  0
ENDTAB
  0
ENDSEC
  0
SECTION
  2
BLOCKS
  0
ENDSEC
  0
SECTION
  2
ENTITIES
  0
ARC
  8
_0-0_0
  6
CONTINUOUS
 62
    7
 10
57.331099999999992
 20
468.35000600000001
 40
0.2
 50
269.99999700000001
 51
20.376440000000013
  0
LINE
  8
_0-0_0
  6
CONTINUOUS
 62
    7
 10
57.518584999999973
 20
468.419647
 11
56.218581999999969
 21
471.919647
  0
ARC
  8
_0-0_0
  6
CONTINUOUS
 62
    7
 10
56.031096999999932
 20
471.85000600000001
 40
0.2
 50
20.376439999999999
 51
159.62355600000001
  0
LINE
  8
_0-0_0
  6
CONTINUOUS
 62
    7
 10
54.543624999999963
 20
468.419647
 11
55.843612999999948
 21
471.919647
  0
ARC
  8
_0-0_0
  6
CONTINUOUS
 62
    7
 10
54.731093999999985
 20
468.35000600000001
 40
0.2
 50
159.62355600000001
 51
269.99999700000001
  0
LINE
  8
_0-0_0
  6
CONTINUOUS
 62
    7
 10
54.731093999999985
 20
468.15002399999997
 11
57.331099999999992
 21
468.15002399999997
  0
LINE
  8
_0-0_0
  6
CONTINUOUS
 62
    7
 10
-20.78235600000005
 20
522.75051899999994
 11
-20.78235600000005
 21
522.74951199999998
  0
LINE
  8
_0-0_0
  6
CONTINUOUS
 62
    7
 10
8.5310969999999315
 20
476.25
 11
13.531096999999932
 21
476.25
  0
LINE
  8
_0-0_0
  6
CONTINUOUS
 62
    7
 10
13.531096999999932
 20
476.25
 11
15.331099999999992
 21
476.25
  0
LINE
  8
_0-0_0
  6
CONTINUOUS
 62
    7
 10
15.331099999999992
 20
476.25
 11
16.031096999999932
 21
476.25
  0
ARC
  8
_0-0_0
  6
CONTINUOUS
 62
    7
 10
15.331099999999992
 20
475.75
 40
0.5
 50
0
 51
90.000003000000007
  0
ARC
  8
_0-0_0
  6
CONTINUOUS
 62
    7
 10
8.5310969999999315
 20
475.75
 40
0.5
 50
90.000003000000007
 51
179.99999099999999
  0
ARC
  8
_0-0_0
  6
CONTINUOUS
 62
    7
 10
112.03109699999993
 20
475.75
 40
0.5
 50
0
 51
90.000003000000007
  0
LINE
  8
_0-0_0
  6
CONTINUOUS
 62
    7
 10
16.031096999999932
 20
476.25
 11
16.031096999999932
 21
474.75
  0
LINE
  8
_0-0_0
  6
CONTINUOUS
 62
    7
 10
16.031096999999932
 20
476.75
 11
16.031096999999932
 21
476.25
  0
LINE
  8
_0-0_0
  6
CONTINUOUS
 62
    7
 10
16.031096999999932
 20
477.25
 11
16.031096999999932
 21
476.75
  0
LINE
  8
_0-0_0
  6
CONTINUOUS
 62
    7
 10
16.031096999999932
 20
478.25
 11
16.031096999999932
 21
477.25
  0
LINE
  8
_0-0_0
  6
CONTINUOUS
 62
    7
 10
20.031096999999932
 20
476.25
 11
20.731093999999985
 21
476.25
  0
LINE
  8
_0-0_0
  6
CONTINUOUS
 62
    7
 10
15.831099999999992
 20
475.75
 11
15.831099999999992
 21
474.75
  0
LINE
  8
_0-0_0
  6
CONTINUOUS
 62
    7
 10
19.031096999999932
 20
449.25
 11
19.031096999999932
 21
450.85000600000001
  0
LINE
  8
_0-0_0
  6
CONTINUOUS
 62
    7
 10
19.031096999999932
 20
449.25
 11
13.531096999999932
 21
449.25
  0
LINE
  8
_0-0_0
  6
CONTINUOUS
 62
    7
 10
35.031096999999932
 20
455.95001200000002
 11
77.031096999999932
 21
455.95001200000002
  0
LINE
  8
_0-0_0
  6
CONTINUOUS
 62
    7
 10
35.031096999999932
 20
475.55001800000002
 11
77.031096999999932
 21
475.55001800000002
  0
LINE
  8
_0-0_0
  6
CONTINUOUS
 62
    7
 10
98.531096999999932
 20
449.25
 11
89.031096999999932
 21
449.25
  0
LINE
  8
_0-0_0
  6
CONTINUOUS
 62
    7
 10
89.031096999999932
 20
449.25
 11
89.031096999999932
 21
450.85000600000001
  0
ARC
  8
_0-0_0
  6
CONTINUOUS
 62
    7
 10
88.731093999999985
 20
450.85000600000001
 40
0.2999999999999999
 50
0
 51
90.000003000000007
  0
LINE
  8
_0-0_0
  6
CONTINUOUS
 62
    7
 10
88.031096999999932
 20
451.15002399999997
 11
88.731093999999985
 21
451.15002399999997
  0
LINE
  8
_0-0_0
  6
CONTINUOUS
 62
    7
 10
87.531096999999932
 20
451.55001800000002
 11
88.031096999999932
 21
451.55001800000002
  0
LINE
  8
_0-0_0
  6
CONTINUOUS
 62
    7
 10
74.031096999999932
 20
451.55001800000002
 11
87.531096999999932
 21
451.55001800000002
  0
ARC
  8
_0-0_0
  6
CONTINUOUS
 62
    7
 10
71.531096999999932
 20
451.55001800000002
 40
2.5
 50
0
 51
90.000003000000007
  0
LINE
  8
_0-0_0
  6
CONTINUOUS
 62
    7
 10
40.531096999999932
 20
454.05001800000002
 11
71.531096999999932
 21
454.05001800000002
  0
ARC
  8
_0-0_0
  6
CONTINUOUS
 62
    7
 10
40.531096999999932
 20
451.55001800000002
 40
2.5
 50
90.000003000000007
 51
179.99999099999999
  0
LINE
  8
_0-0_0
  6
CONTINUOUS
 62
    7
 10
20.531096999999932
 20
451.55001800000002
 11
38.031096999999932
 21
451.55001800000002
  0
LINE
  8
_0-0_0
  6
CONTINUOUS
 62
    7
 10
20.031096999999932
 20
451.55001800000002
 11
20.531096999999932
 21
451.55001800000002
  0
LINE
  8
_0-0_0
  6
CONTINUOUS
 62
    7
 10
19.331099999999992
 20
451.15002399999997
 11
20.031096999999932
 21
451.15002399999997
  0
ARC
  8
_0-0_0
  6
CONTINUOUS
 62
    7
 10
19.331099999999992
 20
450.85000600000001
 40
0.2999999999999999
 50
90.000003000000007
 51
179.99999099999999
  0
LINE
  8
_0-0_0
  6
CONTINUOUS
 62
    7
 10
8.0310969999999315
 20
473.97485399999999
 11
8.0310969999999315
 21
475.75
  0
LINE
  8
_0-0_0
  6
CONTINUOUS
 62
    7
 10
13.031096999999932
 20
476.25
 11
13.031096999999932
 21
476.65002399999997
  0
LINE
  8
_0-0_0
  6
CONTINUOUS
 62
    7
 10
13.031096999999932
 20
477.15002399999997
 11
13.031096999999932
 21
476.65002399999997
  0
LINE
  8
_0-0_0
  6
CONTINUOUS
 62
    7
 10
112.53109699999993
 20
478.25
 11
112.53109699999993
 21
476.75
  0
LINE
  8
_0-0_0
  6
CONTINUOUS
 62
    7
 10
112.53109699999993
 20
476.75
 11
112.53109699999993
 21
475.75
  0
LINE
  8
_0-0_0
  6
CONTINUOUS
 62
    7
 10
112.53109699999993
 20
474.95001200000002
 11
112.53109699999993
 21
475.75
  0
LINE
  8
_0-0_0
  6
CONTINUOUS
 62
    7
 10
112.03109699999993
 20
476.25
 11
112.53109699999993
 21
476.25
  0
LINE
  8
_0-0_0
  6
CONTINUOUS
 62
    7
 10
99.531096999999932
 20
476.25
 11
112.03109699999993
 21
476.25
  0
LINE
  8
_0-0_0
  6
CONTINUOUS
 62
    7
 10
112.53109699999993
 20
478.25
 11
112.53109699999993
 21
477.25
  0
LINE
  8
_0-0_0
  6
CONTINUOUS
 62
    7
 10
112.53109699999993
 20
476.75
 11
112.53109699999993
 21
476.25
  0
LINE
  8
_0-0_0
  6
CONTINUOUS
 62
    7
 10
112.53109699999993
 20
477.25
 11
112.53109699999993
 21
476.75
  0
ARC
  8
_0-0_0
  6
CONTINUOUS
 62
    7
 10
18.031096999999932
 20
474.75
 40
2
 50
179.99999099999999
 51
0
  0
LINE
  8
_0-0_0
  6
CONTINUOUS
 62
    7
 10
99.031096999999932
 20
476.25
 11
99.531096999999932
 21
476.25
  0
LINE
  8
_0-0_0
  6
CONTINUOUS
 62
    7
 10
99.031096999999932
 20
475.75
 11
99.031096999999932
 21
476.25
  0
LINE
  8
_0-0_0
  6
CONTINUOUS
 62
    7
 10
99.031096999999932
 20
474.75
 11
99.031096999999932
 21
474.95001200000002
  0
ARC
  8
_0-0_0
  6
CONTINUOUS
 62
    7
 10
97.031096999999932
 20
474.75
 40
2
 50
179.99999099999999
 51
0
  0
LINE
  8
_0-0_0
  6
CONTINUOUS
 62
    7
 10
95.031096999999932
 20
476.25
 11
95.031096999999932
 21
474.75
  0
LINE
  8
_0-0_0
  6
CONTINUOUS
 62
    7
 10
94.331099999999992
 20
476.25
 11
95.031096999999932
 21
476.25
  0
LINE
  8
_0-0_0
  6
CONTINUOUS
 62
    7
 10
20.031096999999932
 20
474.75
 11
20.031096999999932
 21
476.25
  0
LINE
  8
_0-0_0
  6
CONTINUOUS
 62
    7
 10
16.031096999999932
 20
477.25
 11
112.53109699999993
 21
477.25
  0
ARC
  8
_0-0_0
  6
CONTINUOUS
 62
    7
 10
20.731093999999985
 20
475.75
 40
0.5
 50
90.000003000000007
 51
179.99999099999999
  0
ARC
  8
_0-0_0
  6
CONTINUOUS
 62
    7
 10
18.031096999999932
 20
474.75
 40
2.2000000000000002
 50
179.99999099999999
 51
0
  0
LINE
  8
_0-0_0
  6
CONTINUOUS
 62
    7
 10
20.031096999999932
 20
451.15002399999997
 11
20.531096999999932
 21
451.15002399999997
  0
LINE
  8
_0-0_0
  6
CONTINUOUS
 62
    7
 10
20.531096999999932
 20
451.55001800000002
 11
20.531096999999932
 21
451.15002399999997
  0
LINE
  8
_0-0_0
  6
CONTINUOUS
 62
    7
 10
38.031096999999932
 20
451.55001800000002
 11
74.031096999999932
 21
451.55001800000002
  0
LINE
  8
_0-0_0
  6
CONTINUOUS
 62
    7
 10
87.531096999999932
 20
451.15002399999997
 11
88.031096999999932
 21
451.15002399999997
  0
LINE
  8
_0-0_0
  6
CONTINUOUS
 62
    7
 10
87.531096999999932
 20
451.55001800000002
 11
87.531096999999932
 21
451.15002399999997
  0
LINE
  8
_0-0_0
  6
CONTINUOUS
 62
    7
 10
98.531096999999932
 20
448.75
 11
89.531096999999932
 21
448.75
  0
ARC
  8
_0-0_0
  6
CONTINUOUS
 62
    7
 10
89.531096999999932
 20
449.25
 40
0.5
 50
179.99999099999999
 51
269.99999700000001
  0
LINE
  8
_0-0_0
  6
CONTINUOUS
 62
    7
 10
98.531096999999932
 20
449.25
 11
99.031096999999932
 21
449.25
  0
LINE
  8
_0-0_0
  6
CONTINUOUS
 62
    7
 10
99.031096999999932
 20
449.25
 11
99.031096999999932
 21
449.45001200000002
  0
LINE
  8
_0-0_0
  6
CONTINUOUS
 62
    7
 10
103.53109699999993
 20
449.65002399999997
 11
99.231093999999985
 21
449.65002399999997
  0
LINE
  8
_0-0_0
  6
CONTINUOUS
 62
    7
 10
104.03109699999993
 20
450.15002399999997
 11
104.03109699999993
 21
451.92514
  0
ARC
  8
_0-0_0
  6
CONTINUOUS
 62
    7
 10
100.98313899999994
 20
451.86901899999998
 40
3.0490550000000001
 50
1.0548960000000001
 51
14.838094000000002
  0
LINE
  8
_0-0_0
  6
CONTINUOUS
 62
    7
 10
103.53109699999993
 20
452.85000600000001
 11
99.163558999999964
 21
452.85000600000001
  0
LINE
  8
_0-0_0
  6
CONTINUOUS
 62
    7
 10
99.031096999999932
 20
452.99145499999997
 11
99.031096999999932
 21
453.09643599999998
  0
ARC
  8
_0-0_0
  6
CONTINUOUS
 62
    7
 10
97.031096999999932
 20
474.75
 40
2.2000000000000002
 50
179.99999099999999
 51
303.74900400000001
  0
LINE
  8
_0-0_0
  6
CONTINUOUS
 62
    7
 10
94.831099999999992
 20
475.75
 11
94.831099999999992
 21
474.75
  0
LINE
  8
_0-0_0
  6
CONTINUOUS
 62
    7
 10
94.331099999999992
 20
476.25
 11
20.731093999999985
 21
476.25
  0
LINE
  8
_0-0_0
  6
CONTINUOUS
 62
    7
 10
20.231093999999985
 20
474.75
 11
20.231093999999985
 21
475.75
  0
LINE
  8
_0-0_0
  6
CONTINUOUS
 62
    7
 10
20.731093999999985
 20
474.55001800000002
 11
20.731093999999985
 21
474.75
  0
ARC
  8
_0-0_0
  6
CONTINUOUS
 62
    7
 10
21.731093999999985
 20
474.55001800000002
 40
1
 50
90.000003000000007
 51
179.99999099999999
  0
LINE
  8
_0-0_0
  6
CONTINUOUS
 62
    7
 10
21.731093999999985
 20
475.55001800000002
 11
35.031096999999932
 21
475.55001800000002
  0
LINE
  8
_0-0_0
  6
CONTINUOUS
 62
    7
 10
77.031096999999932
 20
475.55001800000002
 11
91.031096999999932
 21
475.55001800000002
  0
ARC
  8
_0-0_0
  6
CONTINUOUS
 62
    7
 10
91.031096999999932
 20
472.55001800000002
 40
3
 50
0
 51
90.000003000000007
  0
LINE
  8
_0-0_0
  6
CONTINUOUS
 62
    7
 10
94.031096999999932
 20
458.95001200000002
 11
94.031096999999932
 21
472.55001800000002
  0
ARC
  8
_0-0_0
  6
CONTINUOUS
 62
    7
 10
91.031096999999932
 20
458.95001200000002
 40
3
 50
269.99999700000001
 51
0
  0
LINE
  8
_0-0_0
  6
CONTINUOUS
 62
    7
 10
91.031096999999932
 20
455.95001200000002
 11
77.031096999999932
 21
455.95001200000002
  0
LINE
  8
_0-0_0
  6
CONTINUOUS
 62
    7
 10
35.031096999999932
 20
455.95001200000002
 11
21.031096999999932
 21
455.95001200000002
  0
ARC
  8
_0-0_0
  6
CONTINUOUS
 62
    7
 10
21.031096999999932
 20
458.95001200000002
 40
3
 50
179.99999099999999
 51
269.99999700000001
  0
LINE
  8
_0-0_0
  6
CONTINUOUS
 62
    7
 10
18.031096999999932
 20
471.18771400000003
 11
18.031096999999932
 21
458.95001200000002
  0
ARC
  8
_0-0_0
  6
CONTINUOUS
 62
    7
 10
19.031096999999932
 20
471.18771400000003
 40
1
 50
105.68034800000001
 51
179.99999100000002
  0
ARC
  8
_0-0_0
  6
CONTINUOUS
 62
    7
 10
11.079055999999923
 20
474.03100599999999
 40
3.0490550000000001
 50
181.05489
 51
194.838089
  0
LINE
  8
_0-0_0
  6
CONTINUOUS
 62
    7
 10
12.898635999999954
 20
473.05001800000002
 11
8.5310969999999315
 21
473.05001800000002
  0
LINE
  8
_0-0_0
  6
CONTINUOUS
 62
    7
 10
13.031096999999932
 20
452.99145499999997
 11
13.031096999999932
 21
453.29168700000002
  0
LINE
  8
_0-0_0
  6
CONTINUOUS
 62
    7
 10
12.898635999999954
 20
452.85000600000001
 11
8.5310969999999315
 21
452.85000600000001
  0
ARC
  8
_0-0_0
  6
CONTINUOUS
 62
    7
 10
11.080245999999988
 20
451.86834700000003
 40
3.050319
 50
165.15540799999999
 51
178.932897
  0
LINE
  8
_0-0_0
  6
CONTINUOUS
 62
    7
 10
8.0310969999999315
 20
450.15002399999997
 11
8.0310969999999315
 21
451.92514
  0
LINE
  8
_0-0_0
  6
CONTINUOUS
 62
    7
 10
12.831099999999992
 20
449.65002399999997
 11
8.5310969999999315
 21
449.65002399999997
  0
LINE
  8
_0-0_0
  6
CONTINUOUS
 62
    7
 10
13.031096999999932
 20
449.25
 11
13.031096999999932
 21
449.45001200000002
  0
LINE
  8
_0-0_0
  6
CONTINUOUS
 62
    7
 10
13.031096999999932
 20
449.25
 11
13.531096999999932
 21
449.25
  0
LINE
  8
_0-0_0
  6
CONTINUOUS
 62
    7
 10
18.531096999999932
 20
448.75
 11
13.531096999999932
 21
448.75
  0
ARC
  8
_0-0_0
  6
CONTINUOUS
 62
    7
 10
18.531096999999932
 20
449.25
 40
0.5
 50
269.99999700000001
 51
0
  0
LINE
  8
_0-0_0
  6
CONTINUOUS
 62
    7
 10
8.3493499999999585
 20
473.05001800000002
 11
8.3289949999999635
 21
473.05102499999998
  0
LINE
  8
_0-0_0
  6
CONTINUOUS
 62
    7
 10
8.3289949999999635
 20
473.05102499999998
 11
8.3086089999999331
 21
473.054169
  0
LINE
  8
_0-0_0
  6
CONTINUOUS
 62
    7
 10
8.3086089999999331
 20
473.054169
 11
8.2817839999999592
 21
473.06176799999997
  0
LINE
  8
_0-0_0
  6
CONTINUOUS
 62
    7
 10
8.2817839999999592
 20
473.06176799999997
 11
8.2561339999999745
 21
473.07312000000002
  0
LINE
  8
_0-0_0
  6
CONTINUOUS
 62
    7
 10
8.2561339999999745
 20
473.07312000000002
 11
8.2323299999999335
 21
473.08801299999999
  0
LINE
  8
_0-0_0
  6
CONTINUOUS
 62
    7
 10
8.2323299999999335
 20
473.08801299999999
 11
8.2155759999999418
 21
473.10150099999998
  0
LINE
  8
_0-0_0
  6
CONTINUOUS
 62
    7
 10
8.2155759999999418
 20
473.10150099999998
 11
8.2000729999999749
 21
473.11676
  0
LINE
  8
_0-0_0
  6
CONTINUOUS
 62
    7
 10
8.2000729999999749
 20
473.11676
 11
8.1731719999999655
 21
473.15139799999997
  0
LINE
  8
_0-0_0
  6
CONTINUOUS
 62
    7
 10
8.1731719999999655
 20
473.15139799999997
 11
8.1521449999999618
 21
473.189728
  0
LINE
  8
_0-0_0
  6
CONTINUOUS
 62
    7
 10
8.1521449999999618
 20
473.189728
 11
8.1401369999999815
 21
473.21963499999998
  0
LINE
  8
_0-0_0
  6
CONTINUOUS
 62
    7
 10
8.1401369999999815
 20
473.21963499999998
 11
8.131087999999977
 21
473.25
  0
LINE
  8
_0-0_0
  6
CONTINUOUS
 62
    7
 10
13.031096999999932
 20
477.15002399999997
 11
13.031096999999932
 21
478.25
  0
LINE
  8
_0-0_0
  6
CONTINUOUS
 62
    7
 10
7.5310969999999315
 20
474.60000600000001
 11
8.0310969999999315
 21
474.60000600000001
  0
LINE
  8
_0-0_0
  6
CONTINUOUS
 62
    7
 10
7.5310969999999315
 20
477.15002399999997
 11
13.031096999999932
 21
477.15002399999997
  0
ARC
  8
_0-0_0
  6
CONTINUOUS
 62
    7
 10
112.03109699999993
 20
474.95001200000002
 40
0.5
 50
269.99999700000001
 51
0
  0
ARC
  8
_0-0_0
  6
CONTINUOUS
 62
    7
 10
99.531096999999932
 20
475.75
 40
0.5
 50
90.000003000000007
 51
179.99999099999999
  0
LINE
  8
_0-0_0
  6
CONTINUOUS
 62
    7
 10
99.031096999999932
 20
474.95001200000002
 11
99.031096999999932
 21
475.75
  0
LINE
  8
_0-0_0
  6
CONTINUOUS
 62
    7
 10
19.231093999999985
 20
451.13284299999998
 11
19.231093999999985
 21
449.15002399999997
  0
LINE
  8
_0-0_0
  6
CONTINUOUS
 62
    7
 10
19.231093999999985
 20
449.15002399999997
 11
20.231093999999985
 21
449.15002399999997
  0
LINE
  8
_0-0_0
  6
CONTINUOUS
 62
    7
 10
20.531096999999932
 20
451.15002399999997
 11
87.531096999999932
 21
451.15002399999997
  0
LINE
  8
_0-0_0
  6
CONTINUOUS
 62
    7
 10
20.231093999999985
 20
449.15002399999997
 11
87.831099999999992
 21
449.15002399999997
  0
LINE
  8
_0-0_0
  6
CONTINUOUS
 62
    7
 10
87.831099999999992
 20
449.15002399999997
 11
88.831099999999992
 21
449.15002399999997
  0
LINE
  8
_0-0_0
  6
CONTINUOUS
 62
    7
 10
88.831099999999992
 20
451.13284299999998
 11
88.831099999999992
 21
449.15002399999997
  0
LINE
  8
_0-0_0
  6
CONTINUOUS
 62
    7
 10
99.031096999999932
 20
449.25
 11
98.531096999999932
 21
448.75
  0
ARC
  8
_0-0_0
  6
CONTINUOUS
 62
    7
 10
99.231093999999985
 20
449.45001200000002
 40
0.2
 50
90.000003000000007
 51
179.99999099999999
  0
ARC
  8
_0-0_0
  6
CONTINUOUS
 62
    7
 10
103.53109699999993
 20
450.15002399999997
 40
0.5
 50
269.99999700000001
 51
0
  0
LINE
  8
_0-0_0
  6
CONTINUOUS
 62
    7
 10
103.71284499999996
 20
452.85000600000001
 11
103.73319999999995
 21
452.84899899999999
  0
LINE
  8
_0-0_0
  6
CONTINUOUS
 62
    7
 10
103.73319999999995
 20
452.84899899999999
 11
103.75360099999995
 21
452.84585600000003
  0
LINE
  8
_0-0_0
  6
CONTINUOUS
 62
    7
 10
103.75360099999995
 20
452.84585600000003
 11
103.78042599999992
 21
452.838257
  0
LINE
  8
_0-0_0
  6
CONTINUOUS
 62
    7
 10
103.78042599999992
 20
452.838257
 11
103.806061
 21
452.82690400000001
  0
LINE
  8
_0-0_0
  6
CONTINUOUS
 62
    7
 10
103.806061
 20
452.82690400000001
 11
103.82986399999993
 21
452.81201199999998
  0
LINE
  8
_0-0_0
  6
CONTINUOUS
 62
    7
 10
103.82986399999993
 20
452.81201199999998
 11
103.84661899999992
 21
452.79849200000001
  0
LINE
  8
_0-0_0
  6
CONTINUOUS
 62
    7
 10
103.84661899999992
 20
452.79849200000001
 11
103.862122
 21
452.78326399999997
  0
LINE
  8
_0-0_0
  6
CONTINUOUS
 62
    7
 10
103.862122
 20
452.78326399999997
 11
103.88902299999995
 21
452.748627
  0
LINE
  8
_0-0_0
  6
CONTINUOUS
 62
    7
 10
103.88902299999995
 20
452.748627
 11
103.91006499999992
 21
452.71029700000003
  0
LINE
  8
_0-0_0
  6
CONTINUOUS
 62
    7
 10
103.91006499999992
 20
452.71029700000003
 11
103.92205799999999
 21
452.68035900000001
  0
LINE
  8
_0-0_0
  6
CONTINUOUS
 62
    7
 10
103.92205799999999
 20
452.68035900000001
 11
103.931107
 21
452.65002399999997
  0
LINE
  8
_0-0_0
  6
CONTINUOUS
 62
    7
 10
103.71284499999996
 20
452.85000600000001
 11
103.53109699999993
 21
452.85000600000001
  0
LINE
  8
_0-0_0
  6
CONTINUOUS
 62
    7
 10
99.031096999999932
 20
454.15002399999997
 11
99.031096999999932
 21
453.09643599999998
  0
LINE
  8
_0-0_0
  6
CONTINUOUS
 62
    7
 10
99.031096999999932
 20
454.15002399999997
 11
99.031096999999932
 21
471.75
  0
LINE
  8
_0-0_0
  6
CONTINUOUS
 62
    7
 10
99.031096999999932
 20
473.72738600000002
 11
99.031096999999932
 21
471.75
  0
ARC
  8
_0-0_0
  6
CONTINUOUS
 62
    7
 10
98.531096999999932
 20
472.50500499999998
 40
0.5
 50
0
 51
123.74898500000002
  0
ARC
  8
_0-0_0
  6
CONTINUOUS
 62
    7
 10
99.201384999999959
 20
453.02331500000003
 40
0.1734229999999999
 50
181.12417600000003
 51
270.64883800000007
  0
LINE
  8
_0-0_0
  6
CONTINUOUS
 62
    7
 10
99.027053999999964
 20
453.05001800000002
 11
99.027144999999962
 21
453.01986699999998
  0
ARC
  8
_0-0_0
  6
CONTINUOUS
 62
    7
 10
94.331099999999992
 20
475.75
 40
0.5
 50
0
 51
90.000003000000007
  0
ARC
  8
_0-0_0
  6
CONTINUOUS
 62
    7
 10
18.031096999999932
 20
474.75
 40
2.7000000000000002
 50
285.68033600000007
 51
0.0000000000000381
  0
ARC
  8
_0-0_0
  6
CONTINUOUS
 62
    7
 10
35.031096999999932
 20
458.95001200000002
 40
3
 50
269.99999700000001
 51
0
  0
LINE
  8
_0-0_0
  6
CONTINUOUS
 62
    7
 10
38.031096999999932
 20
458.95001200000002
 11
38.031096999999932
 21
472.55001800000002
  0
ARC
  8
_0-0_0
  6
CONTINUOUS
 62
    7
 10
35.031096999999932
 20
472.55001800000002
 40
3
 50
0
 51
90.000003000000007
  0
ARC
  8
_0-0_0
  6
CONTINUOUS
 62
    7
 10
30.531096999999932
 20
468.25
 40
4.5
 50
269.99999700000001
 51
90.000002999999992
  0
LINE
  8
_0-0_0
  6
CONTINUOUS
 62
    7
 10
30.531096999999932
 20
463.75
 11
25.531096999999932
 21
463.75
  0
ARC
  8
_0-0_0
  6
CONTINUOUS
 62
    7
 10
25.531096999999932
 20
468.25
 40
4.5
 50
90.000003000000007
 51
269.99999700000006
  0
LINE
  8
_0-0_0
  6
CONTINUOUS
 62
    7
 10
25.531096999999932
 20
472.75
 11
30.531096999999932
 21
472.75
  0
ARC
  8
_0-0_0
  6
CONTINUOUS
 62
    7
 10
77.031096999999932
 20
458.95001200000002
 40
3
 50
179.99999099999999
 51
269.99999700000001
  0
LINE
  8
_0-0_0
  6
CONTINUOUS
 62
    7
 10
74.031096999999932
 20
472.55001800000002
 11
74.031096999999932
 21
458.95001200000002
  0
ARC
  8
_0-0_0
  6
CONTINUOUS
 62
    7
 10
77.031096999999932
 20
472.55001800000002
 40
3
 50
90.000003000000007
 51
179.99999099999999
  0
ARC
  8
_0-0_0
  6
CONTINUOUS
 62
    7
 10
86.531096999999932
 20
468.25
 40
4.5
 50
269.99999700000001
 51
90.000002999999992
  0
LINE
  8
_0-0_0
  6
CONTINUOUS
 62
    7
 10
86.531096999999932
 20
463.75
 11
81.531096999999932
 21
463.75
  0
ARC
  8
_0-0_0
  6
CONTINUOUS
 62
    7
 10
81.531096999999932
 20
468.25
 40
4.5
 50
90.000003000000007
 51
269.99999700000006
  0
LINE
  8
_0-0_0
  6
CONTINUOUS
 62
    7
 10
81.531096999999932
 20
472.75
 11
86.531096999999932
 21
472.75
  0
LINE
  8
_0-0_0
  6
CONTINUOUS
 62
    7
 10
8.5310969999999315
 20
473.05001800000002
 11
8.3493499999999585
 21
473.05001800000002
  0
LINE
  8
_0-0_0
  6
CONTINUOUS
 62
    7
 10
13.031096999999932
 20
454.95001200000002
 11
13.031096999999932
 21
453.29168700000002
  0
LINE
  8
_0-0_0
  6
CONTINUOUS
 62
    7
 10
13.031096999999932
 20
454.95001200000002
 11
13.031096999999932
 21
471.45001200000002
  0
LINE
  8
_0-0_0
  6
CONTINUOUS
 62
    7
 10
13.031096999999932
 20
472.91629
 11
13.031096999999932
 21
471.45001200000002
  0
ARC
  8
_0-0_0
  6
CONTINUOUS
 62
    7
 10
12.860808999999961
 20
453.02328499999999
 40
0.1734209999999999
 50
269.35085600000002
 51
358.87625300000002
  0
LINE
  8
_0-0_0
  6
CONTINUOUS
 62
    7
 10
13.035140999999953
 20
453.05001800000002
 11
13.035064999999918
 21
453.01986699999998
  0
LINE
  8
_0-0_0
  6
CONTINUOUS
 62
    7
 10
13.035140999999953
 20
472.85000600000001
 11
13.035064999999918
 21
472.88012700000002
  0
ARC
  8
_0-0_0
  6
CONTINUOUS
 62
    7
 10
12.860808999999961
 20
472.87670900000001
 40
0.1734219999999999
 50
1.1236539999999999
 51
90.649110000000007
  0
LINE
  8
_0-0_0
  6
CONTINUOUS
 62
    7
 10
8.5310969999999315
 20
452.85000600000001
 11
8.3493499999999585
 21
452.85000600000001
  0
LINE
  8
_0-0_0
  6
CONTINUOUS
 62
    7
 10
8.3493499999999585
 20
452.85000600000001
 11
8.3289949999999635
 21
452.84899899999999
  0
LINE
  8
_0-0_0
  6
CONTINUOUS
 62
    7
 10
8.3289949999999635
 20
452.84899899999999
 11
8.3085939999999709
 21
452.84582499999999
  0
LINE
  8
_0-0_0
  6
CONTINUOUS
 62
    7
 10
8.3085939999999709
 20
452.84582499999999
 11
8.2817839999999592
 21
452.838257
  0
LINE
  8
_0-0_0
  6
CONTINUOUS
 62
    7
 10
8.2817839999999592
 20
452.838257
 11
8.2561339999999745
 21
452.82690400000001
  0
LINE
  8
_0-0_0
  6
CONTINUOUS
 62
    7
 10
8.2561339999999745
 20
452.82690400000001
 11
8.2323299999999335
 21
452.81201199999998
  0
LINE
  8
_0-0_0
  6
CONTINUOUS
 62
    7
 10
8.2323299999999335
 20
452.81201199999998
 11
8.2155759999999418
 21
452.79849200000001
  0
LINE
  8
_0-0_0
  6
CONTINUOUS
 62
    7
 10
8.2155759999999418
 20
452.79849200000001
 11
8.2000729999999749
 21
452.78326399999997
  0
LINE
  8
_0-0_0
  6
CONTINUOUS
 62
    7
 10
8.2000729999999749
 20
452.78326399999997
 11
8.1731719999999655
 21
452.748627
  0
LINE
  8
_0-0_0
  6
CONTINUOUS
 62
    7
 10
8.1731719999999655
 20
452.748627
 11
8.1521449999999618
 21
452.71029700000003
  0
LINE
  8
_0-0_0
  6
CONTINUOUS
 62
    7
 10
8.1521449999999618
 20
452.71029700000003
 11
8.1401369999999815
 21
452.68035900000001
  0
LINE
  8
_0-0_0
  6
CONTINUOUS
 62
    7
 10
8.1401369999999815
 20
452.68035900000001
 11
8.131087999999977
 21
452.65002399999997
  0
ARC
  8
_0-0_0
  6
CONTINUOUS
 62
    7
 10
8.5310969999999315
 20
450.15002399999997
 40
0.5
 50
179.99999099999999
 51
269.99999700000001
  0
ARC
  8
_0-0_0
  6
CONTINUOUS
 62
    7
 10
12.831099999999992
 20
449.45001200000002
 40
0.2
 50
0
 51
90.000003000000007
  0
LINE
  8
_0-0_0
  6
CONTINUOUS
 62
    7
 10
13.031096999999932
 20
449.25
 11
13.531096999999932
 21
448.75
  0
LINE
  8
_0-0_0
  6
CONTINUOUS
 62
    7
 10
7.0310969999999315
 20
475.09429899999998
 11
7.0310969999999315
 21
476.65002399999997
  0
ARC
  8
_0-0_0
  6
CONTINUOUS
 62
    7
 10
7.5180049999999596
 20
475.09765599999997
 40
0.4869939999999999
 50
180.39493000000002
 51
203.93946700000001
  0
ARC
  8
_0-0_0
  6
CONTINUOUS
 62
    7
 10
7.5310969999999315
 20
475.10000600000001
 40
0.5
 50
203.57823099999999
 51
269.99999700000001
  0
ARC
  8
_0-0_0
  6
CONTINUOUS
 62
    7
 10
7.5310969999999315
 20
476.65002399999997
 40
0.5
 50
90.000003000000007
 51
179.99999099999999
  0
LINE
  8
_0-0_0
  6
CONTINUOUS
 62
    7
 10
99.031096999999932
 20
474.45001200000002
 11
99.531096999999932
 21
474.45001200000002
  0
LINE
  8
_0-0_0
  6
CONTINUOUS
 62
    7
 10
99.531096999999932
 20
474.45001200000002
 11
112.03109699999993
 21
474.45001200000002
  0
ARC
  8
_0-0_0
  6
CONTINUOUS
 62
    7
 10
99.531096999999932
 20
474.95001200000002
 40
0.5
 50
179.99999099999999
 51
269.99999700000001
  0
LINE
  8
_0-0_0
  6
CONTINUOUS
 62
    7
 10
99.031096999999932
 20
474.08398399999999
 11
99.031096999999932
 21
474.45001200000002
  0
LINE
  8
_0-0_0
  6
CONTINUOUS
 62
    7
 10
99.031096999999932
 20
473.83349600000003
 11
99.031096999999932
 21
473.72738600000002
  0
LINE
  8
_0-0_0
  6
CONTINUOUS
 62
    7
 10
99.031096999999932
 20
474.08398399999999
 11
99.031096999999932
 21
473.83349600000003
  0
CIRCLE
  8
_0-0_0
  6
CONTINUOUS
 62
    7
 10
18.031096999999932
 20
474.75
 40
1.4750000000000001
  0
CIRCLE
  8
_0-0_0
  6
CONTINUOUS
 62
    7
 10
97.031096999999932
 20
474.75
 40
1.4750000000000001
  0
LINE
  8
_0-0_0
  6
CONTINUOUS
 62
    7
 10
7.0310969999999315
 20
454.95001200000002
 11
7.0310969999999315
 21
452.45001200000002
  0
LINE
  8
_0-0_0
  6
CONTINUOUS
 62
    7
 10
7.0310969999999315
 20
454.95001200000002
 11
7.0310969999999315
 21
467.75
  0
LINE
  8
_0-0_0
  6
CONTINUOUS
 62
    7
 10
7.0310969999999315
 20
471.25
 11
7.0310969999999315
 21
467.75
  0
LINE
  8
_0-0_0
  6
CONTINUOUS
 62
    7
 10
7.0310969999999315
 20
471.25
 11
7.0310969999999315
 21
471.60000600000001
  0
LINE
  8
_0-0_0
  6
CONTINUOUS
 62
    7
 10
7.0310969999999315
 20
475.09429899999998
 11
7.0310969999999315
 21
471.60000600000001
  0
LINE
  8
_0-0_0
  6
CONTINUOUS
 62
    7
 10
7.0310969999999315
 20
476.942902
 11
7.0310969999999315
 21
476.65002399999997
  0
LINE
  8
_0-0_0
  6
CONTINUOUS
 62
    7
 10
7.0310969999999315
 20
476.942902
 11
7.0310969999999315
 21
477
  0
LINE
  8
_0-0_0
  6
CONTINUOUS
 62
    7
 10
8.0316309999999476
 20
451.95001200000002
 11
7.5310969999999315
 21
451.95001200000002
  0
LINE
  8
_0-0_0
  6
CONTINUOUS
 62
    7
 10
104.01989699999996
 20
452.15002399999997
 11
111.03109699999993
 21
452.15002399999997
  0
LINE
  8
_0-0_0
  6
CONTINUOUS
 62
    7
 10
111.03109699999993
 20
452.15002399999997
 11
115.70654299999995
 21
452.15002399999997
  0
LINE
  8
_0-0_0
  6
CONTINUOUS
 62
    7
 10
111.03109699999993
 20
452.15002399999997
 11
111.03109699999993
 21
454.15002399999997
  0
LINE
  8
_0-0_0
  6
CONTINUOUS
 62
    7
 10
111.03109699999993
 20
457.65002399999997
 11
111.03109699999993
 21
454.65002399999997
  0
LINE
  8
_0-0_0
  6
CONTINUOUS
 62
    7
 10
111.03109699999993
 20
454.65002399999997
 11
111.03109699999993
 21
454.15002399999997
  0
LINE
  8
_0-0_0
  6
CONTINUOUS
 62
    7
 10
111.03109699999993
 20
457.65002399999997
 11
111.03109699999993
 21
458.15002399999997
  0
ARC
  8
_0-0_0
  6
CONTINUOUS
 62
    7
 10
105.03108199999997
 20
457.45001200000002
 40
0.500016
 50
180.00117
 51
359.995611
  0
LINE
  8
_0-0_0
  6
CONTINUOUS
 62
    7
 10
105.53109699999993
 20
457.45001200000002
 11
105.53109699999993
 21
469.45001200000002
  0
ARC
  8
_0-0_0
  6
CONTINUOUS
 62
    7
 10
105.03108199999997
 20
469.45001200000002
 40
0.500016
 50
0.001164
 51
179.99560600000004
  0
LINE
  8
_0-0_0
  6
CONTINUOUS
 62
    7
 10
104.53109699999993
 20
457.45001200000002
 11
104.53109699999993
 21
469.45001200000002
  0
ARC
  8
_0-0_0
  6
CONTINUOUS
 62
    7
 10
106.53108199999997
 20
457.45001200000002
 40
0.500016
 50
180.00117
 51
359.995611
  0
LINE
  8
_0-0_0
  6
CONTINUOUS
 62
    7
 10
107.03109699999993
 20
457.45001200000002
 11
107.03109699999993
 21
469.45001200000002
  0
ARC
  8
_0-0_0
  6
CONTINUOUS
 62
    7
 10
106.53108199999997
 20
469.45001200000002
 40
0.500016
 50
0.001164
 51
179.99560600000004
  0
LINE
  8
_0-0_0
  6
CONTINUOUS
 62
    7
 10
106.03109699999993
 20
457.45001200000002
 11
106.03109699999993
 21
469.45001200000002
  0
ARC
  8
_0-0_0
  6
CONTINUOUS
 62
    7
 10
108.03108199999997
 20
457.45001200000002
 40
0.500016
 50
180.00117
 51
359.995611
  0
LINE
  8
_0-0_0
  6
CONTINUOUS
 62
    7
 10
108.53109699999993
 20
457.45001200000002
 11
108.53109699999993
 21
469.45001200000002
  0
ARC
  8
_0-0_0
  6
CONTINUOUS
 62
    7
 10
108.03108199999997
 20
469.45001200000002
 40
0.500016
 50
0.001164
 51
179.99560600000004
  0
LINE
  8
_0-0_0
  6
CONTINUOUS
 62
    7
 10
107.53109699999993
 20
457.45001200000002
 11
107.53109699999993
 21
469.45001200000002
  0
ARC
  8
_0-0_0
  6
CONTINUOUS
 62
    7
 10
109.53108199999997
 20
457.45001200000002
 40
0.500016
 50
180.00117
 51
359.995611
  0
LINE
  8
_0-0_0
  6
CONTINUOUS
 62
    7
 10
110.03109699999993
 20
457.45001200000002
 11
110.03109699999993
 21
469.45001200000002
  0
ARC
  8
_0-0_0
  6
CONTINUOUS
 62
    7
 10
109.53108199999997
 20
469.45001200000002
 40
0.500016
 50
0.001164
 51
179.99560600000004
  0
LINE
  8
_0-0_0
  6
CONTINUOUS
 62
    7
 10
109.03109699999993
 20
457.45001200000002
 11
109.03109699999993
 21
469.45001200000002
  0
LINE
  8
_0-0_0
  6
CONTINUOUS
 62
    7
 10
99.031096999999932
 20
473.75
 11
115.70654299999995
 21
473.75
  0
LINE
  8
_0-0_0
  6
CONTINUOUS
 62
    7
 10
7.5310969999999315
 20
477.5
 11
13.031096999999932
 21
477.5
  0
ARC
  8
_0-0_0
  6
CONTINUOUS
 62
    7
 10
7.5310969999999315
 20
477
 40
0.5
 50
90.000003000000007
 51
179.99999099999999
  0
ARC
  8
_0-0_0
  6
CONTINUOUS
 62
    7
 10
7.5310969999999315
 20
452.45001200000002
 40
0.5
 50
179.99999099999999
 51
269.99999700000001
  0
ARC
  8
_0-0_0
  6
CONTINUOUS
 62
    7
 10
7.5310969999999315
 20
467.75
 40
0.5
 50
90.000003000000007
 51
179.99999099999999
  0
ARC
  8
_0-0_0
  6
CONTINUOUS
 62
    7
 10
115.70654299999995
 20
454.15002399999997
 40
2
 50
269.99999700000001
 51
288.43501300000003
  0
LINE
  8
_0-0_0
  6
CONTINUOUS
 62
    7
 10
111.03109699999993
 20
452.15002399999997
 11
111.03109699999993
 21
452.40008499999999
  0
LINE
  8
_0-0_0
  6
CONTINUOUS
 62
    7
 10
111.03109699999993
 20
457.65002399999997
 11
115.70654299999995
 21
457.65002399999997
  0
LINE
  8
_0-0_0
  6
CONTINUOUS
 62
    7
 10
116.33900399999993
 20
473.64736900000003
 11
116.21949799999993
 21
473.68298299999998
  0
LINE
  8
_0-0_0
  6
CONTINUOUS
 62
    7
 10
116.21949799999993
 20
473.68298299999998
 11
116.09794599999998
 21
473.71087599999998
  0
LINE
  8
_0-0_0
  6
CONTINUOUS
 62
    7
 10
116.09794599999998
 20
473.71087599999998
 11
115.97480799999994
 21
473.73092700000001
  0
LINE
  8
_0-0_0
  6
CONTINUOUS
 62
    7
 10
115.97480799999994
 20
473.73092700000001
 11
115.85058599999996
 21
473.743042
  0
LINE
  8
_0-0_0
  6
CONTINUOUS
 62
    7
 10
115.85058599999996
 20
473.743042
 11
115.72576899999996
 21
473.747162
  0
LINE
  8
_0-0_0
  6
CONTINUOUS
 62
    7
 10
115.72576899999996
 20
473.747162
 11
115.70654299999995
 21
473.74710099999999
  0
ARC
  8
_0-0_0
  6
CONTINUOUS
 62
    7
 10
115.70654299999995
 20
471.75
 40
2
 50
71.565000999999995
 51
90.000003000000007
  0
LINE
  8
_0-0_0
  6
CONTINUOUS
 62
    7
 10
32.002639999999928
 20
464.15002399999997
 11
24.059554999999932
 21
464.15002399999997
  0
ARC
  8
_0-0_0
  6
CONTINUOUS
 62
    7
 10
24.059554999999932
 20
464.65002399999997
 40
0.5
 50
210.00000299999999
 51
269.99999700000001
  0
LINE
  8
_0-0_0
  6
CONTINUOUS
 62
    7
 10
23.626540999999975
 20
464.40002399999997
 11
21.54807999999997
 21
468
  0
ARC
  8
_0-0_0
  6
CONTINUOUS
 62
    7
 10
21.981093999999985
 20
468.25
 40
0.5
 50
149.99999700000001
 51
210.00000299999996
  0
LINE
  8
_0-0_0
  6
CONTINUOUS
 62
    7
 10
21.54807999999997
 20
468.5
 11
23.626540999999975
 21
472.10000600000001
  0
ARC
  8
_0-0_0
  6
CONTINUOUS
 62
    7
 10
24.059554999999932
 20
471.85000600000001
 40
0.5
 50
90.000003000000007
 51
149.99999700000001
  0
LINE
  8
_0-0_0
  6
CONTINUOUS
 62
    7
 10
24.059554999999932
 20
472.35000600000001
 11
32.002639999999928
 21
472.35000600000001
  0
ARC
  8
_0-0_0
  6
CONTINUOUS
 62
    7
 10
32.002639999999928
 20
471.85000600000001
 40
0.5
 50
30.000001000000001
 51
90.000003000000007
  0
LINE
  8
_0-0_0
  6
CONTINUOUS
 62
    7
 10
32.435654
 20
472.10000600000001
 11
34.51411399999995
 21
468.5
  0
ARC
  8
_0-0_0
  6
CONTINUOUS
 62
    7
 10
34.081099999999992
 20
468.25
 40
0.5
 50
329.99998900000003
 51
30.000000999999983
  0
LINE
  8
_0-0_0
  6
CONTINUOUS
 62
    7
 10
34.51411399999995
 20
468
 11
32.435654
 21
464.40002399999997
  0
ARC
  8
_0-0_0
  6
CONTINUOUS
 62
    7
 10
32.002639999999928
 20
464.65002399999997
 40
0.5
 50
269.99999700000001
 51
329.99998900000003
  0
ARC
  8
_0-0_0
  6
CONTINUOUS
 62
    7
 10
80.001830999999925
 20
464.75
 40
0.5
 50
210.00000299999999
 51
269.99999700000001
  0
LINE
  8
_0-0_0
  6
CONTINUOUS
 62
    7
 10
79.568816999999967
 20
464.5
 11
77.548095999999987
 21
468
  0
ARC
  8
_0-0_0
  6
CONTINUOUS
 62
    7
 10
77.981093999999985
 20
468.25
 40
0.5
 50
149.99999700000001
 51
210.00000299999996
  0
LINE
  8
_0-0_0
  6
CONTINUOUS
 62
    7
 10
77.548095999999987
 20
468.5
 11
79.568816999999967
 21
472
  0
ARC
  8
_0-0_0
  6
CONTINUOUS
 62
    7
 10
80.001830999999925
 20
471.75
 40
0.5
 50
90.000003000000007
 51
149.99999700000001
  0
LINE
  8
_0-0_0
  6
CONTINUOUS
 62
    7
 10
80.001830999999925
 20
472.25
 11
88.060378999999955
 21
472.25
  0
ARC
  8
_0-0_0
  6
CONTINUOUS
 62
    7
 10
88.060378999999955
 20
471.75
 40
0.5
 50
30.000001000000001
 51
90.000003000000007
  0
LINE
  8
_0-0_0
  6
CONTINUOUS
 62
    7
 10
88.493392999999969
 20
472
 11
90.51411399999995
 21
468.5
  0
ARC
  8
_0-0_0
  6
CONTINUOUS
 62
    7
 10
90.081099999999992
 20
468.25
 40
0.5
 50
329.99998900000003
 51
30.000000999999983
  0
LINE
  8
_0-0_0
  6
CONTINUOUS
 62
    7
 10
90.51411399999995
 20
468
 11
88.493392999999969
 21
464.5
  0
ARC
  8
_0-0_0
  6
CONTINUOUS
 62
    7
 10
88.060378999999955
 20
464.75
 40
0.5
 50
269.99999700000001
 51
329.99998900000003
  0
LINE
  8
_0-0_0
  6
CONTINUOUS
 62
    7
 10
88.060378999999955
 20
464.25
 11
80.001830999999925
 21
464.25
  0
LINE
  8
_0-0_0
  6
CONTINUOUS
 62
    7
 10
10.031096999999932
 20
472.88043199999998
 11
10.031096999999932
 21
472.05419899999998
  0
LINE
  8
_0-0_0
  6
CONTINUOUS
 62
    7
 10
7.5310969999999315
 20
468.25
 11
9.7310939999999846
 21
468.25
  0
LINE
  8
_0-0_0
  6
CONTINUOUS
 62
    7
 10
10.031096999999932
 20
468.55001800000002
 11
10.031096999999932
 21
470.77832000000001
  0
LINE
  8
_0-0_0
  6
CONTINUOUS
 62
    7
 10
10.031096999999932
 20
473.04968300000002
 11
10.031096999999932
 21
472.88043199999998
  0
LINE
  8
_0-0_0
  6
CONTINUOUS
 62
    7
 10
18.231093999999985
 20
473.65002399999997
 11
17.831099999999992
 21
473.65002399999997
  0
LINE
  8
_0-0_0
  6
CONTINUOUS
 62
    7
 10
18.231093999999985
 20
473.65002399999997
 11
18.231093999999985
 21
474.30001800000002
  0
ARC
  8
_0-0_0
  6
CONTINUOUS
 62
    7
 10
18.481093999999985
 20
474.30001800000002
 40
0.25
 50
90.000003000000007
 51
179.99999099999999
  0
LINE
  8
_0-0_0
  6
CONTINUOUS
 62
    7
 10
18.481093999999985
 20
474.55001800000002
 11
19.131087999999977
 21
474.55001800000002
  0
LINE
  8
_0-0_0
  6
CONTINUOUS
 62
    7
 10
19.131087999999977
 20
474.55001800000002
 11
19.131087999999977
 21
474.95001200000002
  0
LINE
  8
_0-0_0
  6
CONTINUOUS
 62
    7
 10
18.481093999999985
 20
474.95001200000002
 11
19.131087999999977
 21
474.95001200000002
  0
ARC
  8
_0-0_0
  6
CONTINUOUS
 62
    7
 10
18.481093999999985
 20
475.20001200000002
 40
0.25
 50
179.99999099999999
 51
269.99999700000001
  0
LINE
  8
_0-0_0
  6
CONTINUOUS
 62
    7
 10
18.231093999999985
 20
475.85000600000001
 11
18.231093999999985
 21
475.20001200000002
  0
LINE
  8
_0-0_0
  6
CONTINUOUS
 62
    7
 10
18.231093999999985
 20
475.85000600000001
 11
17.831099999999992
 21
475.85000600000001
  0
LINE
  8
_0-0_0
  6
CONTINUOUS
 62
    7
 10
17.831099999999992
 20
475.85000600000001
 11
17.831099999999992
 21
475.20001200000002
  0
ARC
  8
_0-0_0
  6
CONTINUOUS
 62
    7
 10
17.581099999999992
 20
475.20001200000002
 40
0.25
 50
269.99999700000001
 51
0
  0
LINE
  8
_0-0_0
  6
CONTINUOUS
 62
    7
 10
17.581099999999992
 20
474.95001200000002
 11
16.931106999999997
 21
474.95001200000002
  0
LINE
  8
_0-0_0
  6
CONTINUOUS
 62
    7
 10
16.931106999999997
 20
474.55001800000002
 11
16.931106999999997
 21
474.95001200000002
  0
LINE
  8
_0-0_0
  6
CONTINUOUS
 62
    7
 10
17.581099999999992
 20
474.55001800000002
 11
16.931106999999997
 21
474.55001800000002
  0
ARC
  8
_0-0_0
  6
CONTINUOUS
 62
    7
 10
17.581099999999992
 20
474.30001800000002
 40
0.25
 50
0
 51
90.000003000000007
  0
LINE
  8
_0-0_0
  6
CONTINUOUS
 62
    7
 10
17.831099999999992
 20
473.65002399999997
 11
17.831099999999992
 21
474.30001800000002
  0
LINE
  8
_0-0_0
  6
CONTINUOUS
 62
    7
 10
97.231093999999985
 20
473.65002399999997
 11
96.831099999999992
 21
473.65002399999997
  0
LINE
  8
_0-0_0
  6
CONTINUOUS
 62
    7
 10
97.231093999999985
 20
473.65002399999997
 11
97.231093999999985
 21
474.30001800000002
  0
ARC
  8
_0-0_0
  6
CONTINUOUS
 62
    7
 10
97.481093999999985
 20
474.30001800000002
 40
0.25
 50
90.000003000000007
 51
179.99999099999999
  0
LINE
  8
_0-0_0
  6
CONTINUOUS
 62
    7
 10
97.481093999999985
 20
474.55001800000002
 11
98.131102999999939
 21
474.55001800000002
  0
LINE
  8
_0-0_0
  6
CONTINUOUS
 62
    7
 10
98.131102999999939
 20
474.55001800000002
 11
98.131102999999939
 21
474.95001200000002
  0
LINE
  8
_0-0_0
  6
CONTINUOUS
 62
    7
 10
97.481093999999985
 20
474.95001200000002
 11
98.131102999999939
 21
474.95001200000002
  0
ARC
  8
_0-0_0
  6
CONTINUOUS
 62
    7
 10
97.481093999999985
 20
475.20001200000002
 40
0.25
 50
179.99999099999999
 51
269.99999700000001
  0
LINE
  8
_0-0_0
  6
CONTINUOUS
 62
    7
 10
97.231093999999985
 20
475.85000600000001
 11
97.231093999999985
 21
475.20001200000002
  0
LINE
  8
_0-0_0
  6
CONTINUOUS
 62
    7
 10
97.231093999999985
 20
475.85000600000001
 11
96.831099999999992
 21
475.85000600000001
  0
LINE
  8
_0-0_0
  6
CONTINUOUS
 62
    7
 10
96.831099999999992
 20
475.85000600000001
 11
96.831099999999992
 21
475.20001200000002
  0
ARC
  8
_0-0_0
  6
CONTINUOUS
 62
    7
 10
96.581099999999992
 20
475.20001200000002
 40
0.25
 50
269.99999700000001
 51
0
  0
LINE
  8
_0-0_0
  6
CONTINUOUS
 62
    7
 10
96.581099999999992
 20
474.95001200000002
 11
95.931106999999997
 21
474.95001200000002
  0
LINE
  8
_0-0_0
  6
CONTINUOUS
 62
    7
 10
95.931106999999997
 20
474.55001800000002
 11
95.931106999999997
 21
474.95001200000002
  0
LINE
  8
_0-0_0
  6
CONTINUOUS
 62
    7
 10
96.581099999999992
 20
474.55001800000002
 11
95.931106999999997
 21
474.55001800000002
  0
ARC
  8
_0-0_0
  6
CONTINUOUS
 62
    7
 10
96.581099999999992
 20
474.30001800000002
 40
0.25
 50
0
 51
90.000003000000007
  0
LINE
  8
_0-0_0
  6
CONTINUOUS
 62
    7
 10
96.831099999999992
 20
473.65002399999997
 11
96.831099999999992
 21
474.30001800000002
  0
LINE
  8
_0-0_0
  6
CONTINUOUS
 62
    7
 10
116.78109699999993
 20
452.39999399999999
 11
116.33900399999993
 21
452.25262500000002
  0
LINE
  8
_0-0_0
  6
CONTINUOUS
 62
    7
 10
120.50543199999998
 20
457.65002399999997
 11
121.19879099999997
 21
457.65002399999997
  0
LINE
  8
_0-0_0
  6
CONTINUOUS
 62
    7
 10
120.50543199999998
 20
457.65002399999997
 11
116.18089299999997
 21
457.65002399999997
  0
LINE
  8
_0-0_0
  6
CONTINUOUS
 62
    7
 10
115.70654299999995
 20
457.65002399999997
 11
116.18089299999997
 21
457.65002399999997
  0
LINE
  8
_0-0_0
  6
CONTINUOUS
 62
    7
 10
120.66357399999998
 20
472.20584100000002
 11
116.33900399999993
 21
473.64736900000003
  0
LINE
  8
_0-0_0
  6
CONTINUOUS
 62
    7
 10
10.031096999999932
 20
472.05419899999998
 11
10.031096999999932
 21
470.77832000000001
  0
ARC
  8
_0-0_0
  6
CONTINUOUS
 62
    7
 10
9.7310939999999846
 20
468.55001800000002
 40
0.2999999999999999
 50
269.99999700000001
 51
0
  0
LINE
  8
_0-0_0
  6
CONTINUOUS
 62
    7
 10
7.5754239999999982
 20
472.32870500000001
 11
7.5754239999999982
 21
469
  0
LINE
  8
_0-0_0
  6
CONTINUOUS
 62
    7
 10
7.5754239999999982
 20
473.5
 11
7.5754239999999982
 21
472.32870500000001
  0
LINE
  8
_0-0_0
  6
CONTINUOUS
 62
    7
 10
122.03112799999997
 20
456.89996300000001
 11
122.03112799999997
 21
458.02099600000003
  0
LINE
  8
_0-0_0
  6
CONTINUOUS
 62
    7
 10
122.03112799999997
 20
458.94232199999999
 11
122.03112799999997
 21
458.02099600000003
  0
LINE
  8
_0-0_0
  6
CONTINUOUS
 62
    7
 10
121.73107899999997
 20
460.73800699999998
 11
121.78991699999995
 21
460.49117999999999
  0
LINE
  8
_0-0_0
  6
CONTINUOUS
 62
    7
 10
121.78991699999995
 20
460.49117999999999
 11
121.83966099999998
 21
460.29882800000001
  0
LINE
  8
_0-0_0
  6
CONTINUOUS
 62
    7
 10
121.83966099999998
 20
460.29882800000001
 11
121.91082799999998
 21
460.033051
  0
LINE
  8
_0-0_0
  6
CONTINUOUS
 62
    7
 10
121.91082799999998
 20
460.033051
 11
121.94378699999999
 21
459.906342
  0
LINE
  8
_0-0_0
  6
CONTINUOUS
 62
    7
 10
121.94378699999999
 20
459.906342
 11
121.96899399999995
 21
459.80291699999998
  0
LINE
  8
_0-0_0
  6
CONTINUOUS
 62
    7
 10
121.96899399999995
 20
459.80291699999998
 11
121.99102799999997
 21
459.70297199999999
  0
LINE
  8
_0-0_0
  6
CONTINUOUS
 62
    7
 10
121.99102799999997
 20
459.70297199999999
 11
122.01245099999994
 21
459.58526599999999
  0
LINE
  8
_0-0_0
  6
CONTINUOUS
 62
    7
 10
122.01245099999994
 20
459.58526599999999
 11
122.02099599999997
 21
459.52313199999998
  0
LINE
  8
_0-0_0
  6
CONTINUOUS
 62
    7
 10
122.02099599999997
 20
459.52313199999998
 11
122.02709999999996
 21
459.46252399999997
  0
LINE
  8
_0-0_0
  6
CONTINUOUS
 62
    7
 10
122.02709999999996
 20
459.46252399999997
 11
122.03008999999997
 21
459.41329999999999
  0
LINE
  8
_0-0_0
  6
CONTINUOUS
 62
    7
 10
122.03008999999997
 20
459.41329999999999
 11
122.03112799999997
 21
459.36505099999999
  0
LINE
  8
_0-0_0
  6
CONTINUOUS
 62
    7
 10
121.73107899999997
 20
465.16204800000003
 11
121.64764399999996
 21
464.78335600000003
  0
LINE
  8
_0-0_0
  6
CONTINUOUS
 62
    7
 10
121.64764399999996
 20
464.78335600000003
 11
121.60754399999996
 21
464.59182700000002
  0
LINE
  8
_0-0_0
  6
CONTINUOUS
 62
    7
 10
121.60754399999996
 20
464.59182700000002
 11
121.55145299999998
 21
464.30181900000002
  0
LINE
  8
_0-0_0
  6
CONTINUOUS
 62
    7
 10
121.55145299999998
 20
464.30181900000002
 11
121.51385499999998
 21
464.08221400000002
  0
LINE
  8
_0-0_0
  6
CONTINUOUS
 62
    7
 10
121.51385499999998
 20
464.08221400000002
 11
121.48120099999994
 21
463.86096199999997
  0
LINE
  8
_0-0_0
  6
CONTINUOUS
 62
    7
 10
121.48120099999994
 20
463.86096199999997
 11
121.45403999999996
 21
463.63415500000002
  0
LINE
  8
_0-0_0
  6
CONTINUOUS
 62
    7
 10
121.45403999999996
 20
463.63415500000002
 11
121.43402099999997
 21
463.406769
  0
LINE
  8
_0-0_0
  6
CONTINUOUS
 62
    7
 10
121.43402099999997
 20
463.406769
 11
121.42681899999997
 21
463.29302999999999
  0
LINE
  8
_0-0_0
  6
CONTINUOUS
 62
    7
 10
121.42681899999997
 20
463.29302999999999
 11
121.42169199999995
 21
463.17935199999999
  0
LINE
  8
_0-0_0
  6
CONTINUOUS
 62
    7
 10
121.42169199999995
 20
463.17935199999999
 11
121.41796899999997
 21
463.02792399999998
  0
LINE
  8
_0-0_0
  6
CONTINUOUS
 62
    7
 10
121.41796899999997
 20
463.02792399999998
 11
121.41790799999995
 21
462.87667800000003
  0
LINE
  8
_0-0_0
  6
CONTINUOUS
 62
    7
 10
121.41790799999995
 20
462.87667800000003
 11
121.42150899999996
 21
462.725616
  0
LINE
  8
_0-0_0
  6
CONTINUOUS
 62
    7
 10
121.42150899999996
 20
462.725616
 11
121.43096899999995
 21
462.53707900000001
  0
LINE
  8
_0-0_0
  6
CONTINUOUS
 62
    7
 10
121.43096899999995
 20
462.53707900000001
 11
121.44586199999998
 21
462.348816
  0
LINE
  8
_0-0_0
  6
CONTINUOUS
 62
    7
 10
121.44586199999998
 20
462.348816
 11
121.46575899999993
 21
462.160889
  0
LINE
  8
_0-0_0
  6
CONTINUOUS
 62
    7
 10
121.46575899999993
 20
462.160889
 11
121.48217799999998
 21
462.03201300000001
  0
LINE
  8
_0-0_0
  6
CONTINUOUS
 62
    7
 10
121.48217799999998
 20
462.03201300000001
 11
121.50060999999994
 21
461.90335099999999
  0
LINE
  8
_0-0_0
  6
CONTINUOUS
 62
    7
 10
121.50060999999994
 20
461.90335099999999
 11
121.52471899999995
 21
461.75140399999998
  0
LINE
  8
_0-0_0
  6
CONTINUOUS
 62
    7
 10
121.52471899999995
 20
461.75140399999998
 11
121.55114699999996
 21
461.60006700000002
  0
LINE
  8
_0-0_0
  6
CONTINUOUS
 62
    7
 10
121.55114699999996
 20
461.60006700000002
 11
121.60729999999995
 21
461.30944799999997
  0
LINE
  8
_0-0_0
  6
CONTINUOUS
 62
    7
 10
121.60729999999995
 20
461.30944799999997
 11
121.64746099999996
 21
461.11749300000002
  0
LINE
  8
_0-0_0
  6
CONTINUOUS
 62
    7
 10
121.64746099999996
 20
461.11749300000002
 11
121.73107899999997
 21
460.73800699999998
  0
LINE
  8
_0-0_0
  6
CONTINUOUS
 62
    7
 10
121.73113999999998
 20
465.16204800000003
 11
121.78991699999995
 21
465.40887500000002
  0
LINE
  8
_0-0_0
  6
CONTINUOUS
 62
    7
 10
121.78991699999995
 20
465.40887500000002
 11
121.83966099999998
 21
465.60119600000002
  0
LINE
  8
_0-0_0
  6
CONTINUOUS
 62
    7
 10
121.83966099999998
 20
465.60119600000002
 11
121.91076699999996
 21
465.86694299999999
  0
LINE
  8
_0-0_0
  6
CONTINUOUS
 62
    7
 10
121.91076699999996
 20
465.86694299999999
 11
121.94372599999997
 21
465.993652
  0
LINE
  8
_0-0_0
  6
CONTINUOUS
 62
    7
 10
121.94372599999997
 20
465.993652
 11
121.96899399999995
 21
466.09707600000002
  0
LINE
  8
_0-0_0
  6
CONTINUOUS
 62
    7
 10
121.96899399999995
 20
466.09707600000002
 11
121.99102799999997
 21
466.19705199999999
  0
LINE
  8
_0-0_0
  6
CONTINUOUS
 62
    7
 10
121.99102799999997
 20
466.19705199999999
 11
122.01245099999994
 21
466.31475799999998
  0
LINE
  8
_0-0_0
  6
CONTINUOUS
 62
    7
 10
122.01245099999994
 20
466.31475799999998
 11
122.02099599999997
 21
466.376892
  0
LINE
  8
_0-0_0
  6
CONTINUOUS
 62
    7
 10
122.02099599999997
 20
466.376892
 11
122.02709999999996
 21
466.4375
  0
LINE
  8
_0-0_0
  6
CONTINUOUS
 62
    7
 10
122.02709999999996
 20
466.4375
 11
122.03008999999997
 21
466.48672499999998
  0
LINE
  8
_0-0_0
  6
CONTINUOUS
 62
    7
 10
122.03008999999997
 20
466.48672499999998
 11
122.03112799999997
 21
466.534943
  0
LINE
  8
_0-0_0
  6
CONTINUOUS
 62
    7
 10
122.03112799999997
 20
470.30847199999999
 11
122.03112799999997
 21
466.95770299999998
  0
ARC
  8
_0-0_0
  6
CONTINUOUS
 62
    7
 10
120.03112799999997
 20
470.30847199999999
 40
2
 50
0
 51
71.565000999999995
  0
CIRCLE
  8
_0-0_0
  6
CONTINUOUS
 62
    7
 10
28.031096999999932
 20
468.25
 40
2.5
  0
CIRCLE
  8
_0-0_0
  6
CONTINUOUS
 62
    7
 10
84.031096999999932
 20
468.25
 40
2.5
  0
LINE
  8
_0-0_0
  6
CONTINUOUS
 62
    7
 10
7.4311069999999972
 20
472.20886200000001
 11
7.4311069999999972
 21
469.25
  0
LINE
  8
_0-0_0
  6
CONTINUOUS
 62
    7
 10
7.4311069999999972
 20
473.25
 11
7.4311069999999972
 21
472.20886200000001
  0
LINE
  8
_0-0_0
  6
CONTINUOUS
 62
    7
 10
137.03112799999997
 20
453.42456099999998
 11
137.03112799999997
 21
453.57128899999998
  0
LINE
  8
_0-0_0
  6
CONTINUOUS
 62
    7
 10
137.03112799999997
 20
453.234039
 11
137.03112799999997
 21
453.42456099999998
  0
LINE
  8
_0-0_0
  6
CONTINUOUS
 62
    7
 10
137.03112799999997
 20
453.05902099999997
 11
137.03112799999997
 21
453.234039
  0
LINE
  8
_0-0_0
  6
CONTINUOUS
 62
    7
 10
137.03112799999997
 20
452.90142800000001
 11
137.03112799999997
 21
453.05902099999997
  0
LINE
  8
_0-0_0
  6
CONTINUOUS
 62
    7
 10
137.03112799999997
 20
452.76299999999998
 11
137.03112799999997
 21
452.90142800000001
  0
LINE
  8
_0-0_0
  6
CONTINUOUS
 62
    7
 10
137.03112799999997
 20
452.64523300000002
 11
137.03112799999997
 21
452.76299999999998
  0
LINE
  8
_0-0_0
  6
CONTINUOUS
 62
    7
 10
137.03112799999997
 20
452.54943800000001
 11
137.03112799999997
 21
452.64523300000002
  0
LINE
  8
_0-0_0
  6
CONTINUOUS
 62
    7
 10
137.03112799999997
 20
452.47668499999997
 11
137.03112799999997
 21
452.54943800000001
  0
LINE
  8
_0-0_0
  6
CONTINUOUS
 62
    7
 10
137.03112799999997
 20
452.40002399999997
 11
137.03112799999997
 21
452.47668499999997
  0
LINE
  8
_0-0_0
  6
CONTINUOUS
 62
    7
 10
137.03112799999997
 20
452.403076
 11
137.03112799999997
 21
452.42770400000001
  0
LINE
  8
_0-0_0
  6
CONTINUOUS
 62
    7
 10
137.03112799999997
 20
452.40002399999997
 11
137.03112799999997
 21
452.403076
  0
LINE
  8
_0-0_0
  6
CONTINUOUS
 62
    7
 10
137.03112799999997
 20
456.89691199999999
 11
137.03112799999997
 21
456.90002399999997
  0
LINE
  8
_0-0_0
  6
CONTINUOUS
 62
    7
 10
137.03112799999997
 20
456.87231400000002
 11
137.03112799999997
 21
456.89691199999999
  0
LINE
  8
_0-0_0
  6
CONTINUOUS
 62
    7
 10
137.03112799999997
 20
456.82333399999999
 11
137.03112799999997
 21
456.90002399999997
  0
LINE
  8
_0-0_0
  6
CONTINUOUS
 62
    7
 10
137.03112799999997
 20
456.75054899999998
 11
137.03112799999997
 21
456.82333399999999
  0
LINE
  8
_0-0_0
  6
CONTINUOUS
 62
    7
 10
137.03112799999997
 20
456.654785
 11
137.03112799999997
 21
456.75054899999998
  0
LINE
  8
_0-0_0
  6
CONTINUOUS
 62
    7
 10
137.03112799999997
 20
456.624573
 11
137.03112799999997
 21
456.654785
  0
LINE
  8
_0-0_0
  6
CONTINUOUS
 62
    7
 10
137.03112799999997
 20
456.53701799999999
 11
137.03112799999997
 21
456.624573
  0
LINE
  8
_0-0_0
  6
CONTINUOUS
 62
    7
 10
137.03112799999997
 20
456.39859000000001
 11
137.03112799999997
 21
456.53701799999999
  0
LINE
  8
_0-0_0
  6
CONTINUOUS
 62
    7
 10
137.03112799999997
 20
456.24099699999999
 11
137.03112799999997
 21
456.39859000000001
  0
LINE
  8
_0-0_0
  6
CONTINUOUS
 62
    7
 10
137.03112799999997
 20
456.06597900000003
 11
137.03112799999997
 21
456.24099699999999
  0
LINE
  8
_0-0_0
  6
CONTINUOUS
 62
    7
 10
137.03112799999997
 20
455.875427
 11
137.03112799999997
 21
456.06597900000003
  0
LINE
  8
_0-0_0
  6
CONTINUOUS
 62
    7
 10
137.03112799999997
 20
455.67147799999998
 11
137.03112799999997
 21
455.875427
  0
LINE
  8
_0-0_0
  6
CONTINUOUS
 62
    7
 10
137.03112799999997
 20
455.45632899999998
 11
137.03112799999997
 21
455.67147799999998
  0
LINE
  8
_0-0_0
  6
CONTINUOUS
 62
    7
 10
137.03112799999997
 20
455.23236100000003
 11
137.03112799999997
 21
455.45632899999998
  0
LINE
  8
_0-0_0
  6
CONTINUOUS
 62
    7
 10
137.03112799999997
 20
455.00198399999999
 11
137.03112799999997
 21
455.23236100000003
  0
LINE
  8
_0-0_0
  6
CONTINUOUS
 62
    7
 10
137.03112799999997
 20
454.76776100000001
 11
137.03112799999997
 21
455.00198399999999
  0
LINE
  8
_0-0_0
  6
CONTINUOUS
 62
    7
 10
137.03112799999997
 20
454.53225700000002
 11
137.03112799999997
 21
454.76776100000001
  0
LINE
  8
_0-0_0
  6
CONTINUOUS
 62
    7
 10
137.03112799999997
 20
454.29803500000003
 11
137.03112799999997
 21
454.53225700000002
  0
LINE
  8
_0-0_0
  6
CONTINUOUS
 62
    7
 10
137.03112799999997
 20
454.067657
 11
137.03112799999997
 21
454.29803500000003
  0
LINE
  8
_0-0_0
  6
CONTINUOUS
 62
    7
 10
137.03112799999997
 20
453.84368899999998
 11
137.03112799999997
 21
454.067657
  0
LINE
  8
_0-0_0
  6
CONTINUOUS
 62
    7
 10
137.03112799999997
 20
453.62853999999999
 11
137.03112799999997
 21
453.84368899999998
  0
LINE
  8
_0-0_0
  6
CONTINUOUS
 62
    7
 10
137.03112799999997
 20
453.57128899999998
 11
137.03112799999997
 21
453.62853999999999
  0
LINE
  8
_0-0_0
  6
CONTINUOUS
 62
    7
 10
122.03112799999997
 20
461.38797
 11
122.03112799999997
 21
460.34231599999998
  0
LINE
  8
_0-0_0
  6
CONTINUOUS
 62
    7
 10
122.03112799999997
 20
459.05770899999999
 11
122.03112799999997
 21
460.34231599999998
  0
LINE
  8
_0-0_0
  6
CONTINUOUS
 62
    7
 10
122.03112799999997
 20
458.94232199999999
 11
122.03112799999997
 21
459.05770899999999
  0
LINE
  8
_0-0_0
  6
CONTINUOUS
 62
    7
 10
122.03112799999997
 20
461.38797
 11
122.03112799999997
 21
464.51205399999998
  0
LINE
  8
_0-0_0
  6
CONTINUOUS
 62
    7
 10
122.03112799999997
 20
466.95770299999998
 11
122.03112799999997
 21
466.84231599999998
  0
LINE
  8
_0-0_0
  6
CONTINUOUS
 62
    7
 10
122.03112799999997
 20
465.55770899999999
 11
122.03112799999997
 21
466.84231599999998
  0
LINE
  8
_0-0_0
  6
CONTINUOUS
 62
    7
 10
122.03112799999997
 20
465.55770899999999
 11
122.03112799999997
 21
464.51205399999998
  0
LINE
  8
_0-0_0
  6
CONTINUOUS
 62
    7
 10
122.03112799999997
 20
466.84231599999998
 11
131.73895299999998
 21
466.84231599999998
  0
LINE
  8
_0-0_0
  6
CONTINUOUS
 62
    7
 10
131.73895299999998
 20
469.45001200000002
 11
131.79339599999997
 21
469.380066
  0
LINE
  8
_0-0_0
  6
CONTINUOUS
 62
    7
 10
131.79339599999997
 20
469.380066
 11
131.84454299999999
 21
469.31124899999998
  0
LINE
  8
_0-0_0
  6
CONTINUOUS
 62
    7
 10
131.84454299999999
 20
469.31124899999998
 11
131.89215099999996
 21
469.24374399999999
  0
LINE
  8
_0-0_0
  6
CONTINUOUS
 62
    7
 10
131.89215099999996
 20
469.24374399999999
 11
131.93664499999994
 21
469.17718500000001
  0
LINE
  8
_0-0_0
  6
CONTINUOUS
 62
    7
 10
131.93664499999994
 20
469.17718500000001
 11
131.99139399999996
 21
469.08966099999998
  0
LINE
  8
_0-0_0
  6
CONTINUOUS
 62
    7
 10
131.99139399999996
 20
469.08966099999998
 11
132.04089399999998
 21
469.00353999999999
  0
LINE
  8
_0-0_0
  6
CONTINUOUS
 62
    7
 10
132.04089399999998
 20
469.00353999999999
 11
132.08532699999995
 21
468.918701
  0
LINE
  8
_0-0_0
  6
CONTINUOUS
 62
    7
 10
132.08532699999995
 20
468.918701
 11
132.13232399999998
 21
468.81839000000002
  0
LINE
  8
_0-0_0
  6
CONTINUOUS
 62
    7
 10
132.13232399999998
 20
468.81839000000002
 11
132.17254599999995
 21
468.71948200000003
  0
LINE
  8
_0-0_0
  6
CONTINUOUS
 62
    7
 10
132.17254599999995
 20
468.71948200000003
 11
132.20617699999997
 21
468.62170400000002
  0
LINE
  8
_0-0_0
  6
CONTINUOUS
 62
    7
 10
132.20617699999997
 20
468.62170400000002
 11
132.23345899999998
 21
468.524902
  0
LINE
  8
_0-0_0
  6
CONTINUOUS
 62
    7
 10
132.23345899999998
 20
468.524902
 11
132.25451699999996
 21
468.42886399999998
  0
LINE
  8
_0-0_0
  6
CONTINUOUS
 62
    7
 10
132.25451699999996
 20
468.42886399999998
 11
132.27044699999993
 21
468.32501200000002
  0
LINE
  8
_0-0_0
  6
CONTINUOUS
 62
    7
 10
132.27044699999993
 20
468.32501200000002
 11
132.27923599999997
 21
468.221588
  0
LINE
  8
_0-0_0
  6
CONTINUOUS
 62
    7
 10
132.27923599999997
 20
468.221588
 11
132.28082299999994
 21
468.11834700000003
  0
LINE
  8
_0-0_0
  6
CONTINUOUS
 62
    7
 10
132.28082299999994
 20
468.11834700000003
 11
132.27539099999996
 21
468.01504499999999
  0
LINE
  8
_0-0_0
  6
CONTINUOUS
 62
    7
 10
132.27539099999996
 20
468.01504499999999
 11
132.26275599999997
 21
467.91146900000001
  0
LINE
  8
_0-0_0
  6
CONTINUOUS
 62
    7
 10
132.26275599999997
 20
467.91146900000001
 11
132.24298099999999
 21
467.80731200000002
  0
LINE
  8
_0-0_0
  6
CONTINUOUS
 62
    7
 10
132.24298099999999
 20
467.80731200000002
 11
132.21581999999995
 21
467.70236199999999
  0
LINE
  8
_0-0_0
  6
CONTINUOUS
 62
    7
 10
132.21581999999995
 20
467.70236199999999
 11
132.18115199999994
 21
467.59631300000001
  0
LINE
  8
_0-0_0
  6
CONTINUOUS
 62
    7
 10
132.18115199999994
 20
467.59631300000001
 11
132.13879399999996
 21
467.48895299999998
  0
LINE
  8
_0-0_0
  6
CONTINUOUS
 62
    7
 10
132.13879399999996
 20
467.48895299999998
 11
132.08850099999995
 21
467.37994400000002
  0
LINE
  8
_0-0_0
  6
CONTINUOUS
 62
    7
 10
132.08850099999995
 20
467.37994400000002
 11
132.03424099999995
 21
467.276794
  0
LINE
  8
_0-0_0
  6
CONTINUOUS
 62
    7
 10
132.03424099999995
 20
467.276794
 11
131.97253399999994
 21
467.17175300000002
  0
LINE
  8
_0-0_0
  6
CONTINUOUS
 62
    7
 10
131.97253399999994
 20
467.17175300000002
 11
131.90301499999998
 21
467.06451399999997
  0
LINE
  8
_0-0_0
  6
CONTINUOUS
 62
    7
 10
131.90301499999998
 20
467.06451399999997
 11
131.82531699999998
 21
466.95480300000003
  0
LINE
  8
_0-0_0
  6
CONTINUOUS
 62
    7
 10
131.82531699999998
 20
466.95480300000003
 11
131.73895299999998
 21
466.84231599999998
  0
LINE
  8
_0-0_0
  6
CONTINUOUS
 62
    7
 10
122.03112799999997
 20
469.45001200000002
 11
131.73895299999998
 21
469.45001200000002
  0
LINE
  8
_0-0_0
  6
CONTINUOUS
 62
    7
 10
131.78112799999997
 20
469.45001200000002
 11
131.73895299999998
 21
469.45001200000002
  0
LINE
  8
_0-0_0
  6
CONTINUOUS
 62
    7
 10
122.03112799999997
 20
459.05770899999999
 11
131.73895299999998
 21
459.05770899999999
  0
LINE
  8
_0-0_0
  6
CONTINUOUS
 62
    7
 10
131.73895299999998
 20
459.05770899999999
 11
131.79339599999997
 21
458.98776199999998
  0
LINE
  8
_0-0_0
  6
CONTINUOUS
 62
    7
 10
131.79339599999997
 20
458.98776199999998
 11
131.84454299999999
 21
458.91894500000001
  0
LINE
  8
_0-0_0
  6
CONTINUOUS
 62
    7
 10
131.84454299999999
 20
458.91894500000001
 11
131.89215099999996
 21
458.85144000000003
  0
LINE
  8
_0-0_0
  6
CONTINUOUS
 62
    7
 10
131.89215099999996
 20
458.85144000000003
 11
131.93664499999994
 21
458.78488199999998
  0
LINE
  8
_0-0_0
  6
CONTINUOUS
 62
    7
 10
131.93664499999994
 20
458.78488199999998
 11
131.99139399999996
 21
458.69735700000001
  0
LINE
  8
_0-0_0
  6
CONTINUOUS
 62
    7
 10
131.99139399999996
 20
458.69735700000001
 11
132.04089399999998
 21
458.61123700000002
  0
LINE
  8
_0-0_0
  6
CONTINUOUS
 62
    7
 10
132.04089399999998
 20
458.61123700000002
 11
132.08532699999995
 21
458.52642800000001
  0
LINE
  8
_0-0_0
  6
CONTINUOUS
 62
    7
 10
132.08532699999995
 20
458.52642800000001
 11
132.13232399999998
 21
458.426086
  0
LINE
  8
_0-0_0
  6
CONTINUOUS
 62
    7
 10
132.13232399999998
 20
458.426086
 11
132.17254599999995
 21
458.327179
  0
LINE
  8
_0-0_0
  6
CONTINUOUS
 62
    7
 10
132.17254599999995
 20
458.327179
 11
132.20617699999997
 21
458.229401
  0
LINE
  8
_0-0_0
  6
CONTINUOUS
 62
    7
 10
132.20617699999997
 20
458.229401
 11
132.23345899999998
 21
458.13259900000003
  0
LINE
  8
_0-0_0
  6
CONTINUOUS
 62
    7
 10
132.23345899999998
 20
458.13259900000003
 11
132.25451699999996
 21
458.03656000000001
  0
LINE
  8
_0-0_0
  6
CONTINUOUS
 62
    7
 10
132.25451699999996
 20
458.03656000000001
 11
132.27044699999993
 21
457.93270899999999
  0
LINE
  8
_0-0_0
  6
CONTINUOUS
 62
    7
 10
132.27044699999993
 20
457.93270899999999
 11
132.27923599999997
 21
457.82928500000003
  0
LINE
  8
_0-0_0
  6
CONTINUOUS
 62
    7
 10
132.27923599999997
 20
457.82928500000003
 11
132.28082299999994
 21
457.726044
  0
LINE
  8
_0-0_0
  6
CONTINUOUS
 62
    7
 10
132.28082299999994
 20
457.726044
 11
132.27539099999996
 21
457.62274200000002
  0
LINE
  8
_0-0_0
  6
CONTINUOUS
 62
    7
 10
132.27539099999996
 20
457.62274200000002
 11
132.26275599999997
 21
457.51916499999999
  0
LINE
  8
_0-0_0
  6
CONTINUOUS
 62
    7
 10
132.26275599999997
 20
457.51916499999999
 11
132.24298099999999
 21
457.415009
  0
LINE
  8
_0-0_0
  6
CONTINUOUS
 62
    7
 10
132.24298099999999
 20
457.415009
 11
132.21581999999995
 21
457.31005900000002
  0
LINE
  8
_0-0_0
  6
CONTINUOUS
 62
    7
 10
132.21581999999995
 20
457.31005900000002
 11
132.18115199999994
 21
457.20400999999998
  0
LINE
  8
_0-0_0
  6
CONTINUOUS
 62
    7
 10
132.18115199999994
 20
457.20400999999998
 11
132.13879399999996
 21
457.09661899999998
  0
LINE
  8
_0-0_0
  6
CONTINUOUS
 62
    7
 10
132.13879399999996
 20
457.09661899999998
 11
132.08850099999995
 21
456.98764
  0
LINE
  8
_0-0_0
  6
CONTINUOUS
 62
    7
 10
132.08850099999995
 20
456.98764
 11
132.04278599999998
 21
456.89996300000001
  0
LINE
  8
_0-0_0
  6
CONTINUOUS
 62
    7
 10
137.03112799999997
 20
453.42456099999998
 11
137.28112799999997
 21
453.40002399999997
  0
LINE
  8
_0-0_0
  6
CONTINUOUS
 62
    7
 10
137.03112799999997
 20
453.62853999999999
 11
137.28112799999997
 21
453.40002399999997
  0
LINE
  8
_0-0_0
  6
CONTINUOUS
 62
    7
 10
137.03112799999997
 20
453.234039
 11
137.28112799999997
 21
453.180542
  0
LINE
  8
_0-0_0
  6
CONTINUOUS
 62
    7
 10
137.03112799999997
 20
453.42456099999998
 11
137.28112799999997
 21
453.180542
  0
LINE
  8
_0-0_0
  6
CONTINUOUS
 62
    7
 10
137.03112799999997
 20
453.05902099999997
 11
137.28112799999997
 21
452.97717299999999
  0
LINE
  8
_0-0_0
  6
CONTINUOUS
 62
    7
 10
137.03112799999997
 20
453.234039
 11
137.28112799999997
 21
452.97717299999999
  0
LINE
  8
_0-0_0
  6
CONTINUOUS
 62
    7
 10
137.03112799999997
 20
452.90142800000001
 11
137.28112799999997
 21
452.792145
  0
LINE
  8
_0-0_0
  6
CONTINUOUS
 62
    7
 10
137.03112799999997
 20
453.05902099999997
 11
137.28112799999997
 21
452.792145
  0
LINE
  8
_0-0_0
  6
CONTINUOUS
 62
    7
 10
137.03112799999997
 20
452.76299999999998
 11
137.28112799999997
 21
452.62747200000001
  0
LINE
  8
_0-0_0
  6
CONTINUOUS
 62
    7
 10
137.03112799999997
 20
452.90142800000001
 11
137.28112799999997
 21
452.62747200000001
  0
LINE
  8
_0-0_0
  6
CONTINUOUS
 62
    7
 10
137.03112799999997
 20
452.64523300000002
 11
137.28112799999997
 21
452.48495500000001
  0
LINE
  8
_0-0_0
  6
CONTINUOUS
 62
    7
 10
137.03112799999997
 20
452.76299999999998
 11
137.28112799999997
 21
452.48495500000001
  0
LINE
  8
_0-0_0
  6
CONTINUOUS
 62
    7
 10
137.03112799999997
 20
452.54943800000001
 11
137.28112799999997
 21
452.36615
  0
LINE
  8
_0-0_0
  6
CONTINUOUS
 62
    7
 10
137.03112799999997
 20
452.64523300000002
 11
137.28112799999997
 21
452.36615
  0
LINE
  8
_0-0_0
  6
CONTINUOUS
 62
    7
 10
137.03112799999997
 20
452.47668499999997
 11
137.28112799999997
 21
452.27236900000003
  0
LINE
  8
_0-0_0
  6
CONTINUOUS
 62
    7
 10
137.03112799999997
 20
452.54943800000001
 11
137.28112799999997
 21
452.27236900000003
  0
LINE
  8
_0-0_0
  6
CONTINUOUS
 62
    7
 10
137.03112799999997
 20
452.42770400000001
 11
137.28112799999997
 21
452.20465100000001
  0
LINE
  8
_0-0_0
  6
CONTINUOUS
 62
    7
 10
137.03112799999997
 20
452.47668499999997
 11
137.28112799999997
 21
452.20465100000001
  0
LINE
  8
_0-0_0
  6
CONTINUOUS
 62
    7
 10
137.03112799999997
 20
452.403076
 11
137.28112799999997
 21
452.16369600000002
  0
LINE
  8
_0-0_0
  6
CONTINUOUS
 62
    7
 10
137.03112799999997
 20
452.42770400000001
 11
137.05731199999997
 21
452.40002399999997
  0
LINE
  8
_0-0_0
  6
CONTINUOUS
 62
    7
 10
137.03112799999997
 20
452.403076
 11
137.28112799999997
 21
452.15002399999997
  0
LINE
  8
_0-0_0
  6
CONTINUOUS
 62
    7
 10
137.03112799999997
 20
456.89691199999999
 11
137.28112799999997
 21
457.15002399999997
  0
LINE
  8
_0-0_0
  6
CONTINUOUS
 62
    7
 10
137.03112799999997
 20
456.87231400000002
 11
137.28112799999997
 21
457.13632200000001
  0
LINE
  8
_0-0_0
  6
CONTINUOUS
 62
    7
 10
137.03112799999997
 20
456.89691199999999
 11
137.28112799999997
 21
457.13632200000001
  0
LINE
  8
_0-0_0
  6
CONTINUOUS
 62
    7
 10
137.03112799999997
 20
456.82333399999999
 11
137.28112799999997
 21
457.09536700000001
  0
LINE
  8
_0-0_0
  6
CONTINUOUS
 62
    7
 10
137.03112799999997
 20
456.87231400000002
 11
137.28112799999997
 21
457.09536700000001
  0
LINE
  8
_0-0_0
  6
CONTINUOUS
 62
    7
 10
137.03112799999997
 20
456.75054899999998
 11
137.28112799999997
 21
457.027649
  0
LINE
  8
_0-0_0
  6
CONTINUOUS
 62
    7
 10
137.03112799999997
 20
456.82333399999999
 11
137.28112799999997
 21
457.027649
  0
LINE
  8
_0-0_0
  6
CONTINUOUS
 62
    7
 10
137.03112799999997
 20
456.654785
 11
137.28112799999997
 21
456.93386800000002
  0
LINE
  8
_0-0_0
  6
CONTINUOUS
 62
    7
 10
137.03112799999997
 20
456.75054899999998
 11
137.28112799999997
 21
456.93386800000002
  0
LINE
  8
_0-0_0
  6
CONTINUOUS
 62
    7
 10
137.03112799999997
 20
456.654785
 11
137.16107199999993
 21
456.73861699999998
  0
LINE
  8
_0-0_0
  6
CONTINUOUS
 62
    7
 10
137.03112799999997
 20
456.53701799999999
 11
137.28112799999997
 21
456.81506300000001
  0
LINE
  8
_0-0_0
  6
CONTINUOUS
 62
    7
 10
137.16107199999993
 20
456.73861699999998
 11
137.28112799999997
 21
456.81506300000001
  0
LINE
  8
_0-0_0
  6
CONTINUOUS
 62
    7
 10
137.03112799999997
 20
456.39859000000001
 11
137.28112799999997
 21
456.67254600000001
  0
LINE
  8
_0-0_0
  6
CONTINUOUS
 62
    7
 10
137.03112799999997
 20
456.53701799999999
 11
137.28112799999997
 21
456.67254600000001
  0
LINE
  8
_0-0_0
  6
CONTINUOUS
 62
    7
 10
137.03112799999997
 20
456.24099699999999
 11
137.28112799999997
 21
456.50787400000002
  0
LINE
  8
_0-0_0
  6
CONTINUOUS
 62
    7
 10
137.03112799999997
 20
456.39859000000001
 11
137.28112799999997
 21
456.50787400000002
  0
LINE
  8
_0-0_0
  6
CONTINUOUS
 62
    7
 10
137.03112799999997
 20
456.06597900000003
 11
137.28112799999997
 21
456.32284499999997
  0
LINE
  8
_0-0_0
  6
CONTINUOUS
 62
    7
 10
137.03112799999997
 20
456.24099699999999
 11
137.28112799999997
 21
456.32284499999997
  0
LINE
  8
_0-0_0
  6
CONTINUOUS
 62
    7
 10
137.03112799999997
 20
455.875427
 11
137.28112799999997
 21
456.11947600000002
  0
LINE
  8
_0-0_0
  6
CONTINUOUS
 62
    7
 10
137.03112799999997
 20
456.06597900000003
 11
137.28112799999997
 21
456.11947600000002
  0
LINE
  8
_0-0_0
  6
CONTINUOUS
 62
    7
 10
137.03112799999997
 20
455.67147799999998
 11
137.28112799999997
 21
455.90002399999997
  0
LINE
  8
_0-0_0
  6
CONTINUOUS
 62
    7
 10
137.03112799999997
 20
455.875427
 11
137.28112799999997
 21
455.90002399999997
  0
LINE
  8
_0-0_0
  6
CONTINUOUS
 62
    7
 10
137.03112799999997
 20
455.45632899999998
 11
137.28112799999997
 21
455.66683999999998
  0
LINE
  8
_0-0_0
  6
CONTINUOUS
 62
    7
 10
137.03112799999997
 20
455.67147799999998
 11
137.28112799999997
 21
455.66683999999998
  0
LINE
  8
_0-0_0
  6
CONTINUOUS
 62
    7
 10
137.03112799999997
 20
455.23236100000003
 11
137.28112799999997
 21
455.42254600000001
  0
LINE
  8
_0-0_0
  6
CONTINUOUS
 62
    7
 10
137.03112799999997
 20
455.45632899999998
 11
137.28112799999997
 21
455.42254600000001
  0
LINE
  8
_0-0_0
  6
CONTINUOUS
 62
    7
 10
137.03112799999997
 20
455.00198399999999
 11
137.28112799999997
 21
455.16980000000001
  0
LINE
  8
_0-0_0
  6
CONTINUOUS
 62
    7
 10
137.03112799999997
 20
455.23236100000003
 11
137.28112799999997
 21
455.16980000000001
  0
LINE
  8
_0-0_0
  6
CONTINUOUS
 62
    7
 10
137.03112799999997
 20
454.76776100000001
 11
137.28112799999997
 21
454.911316
  0
LINE
  8
_0-0_0
  6
CONTINUOUS
 62
    7
 10
137.03112799999997
 20
455.00198399999999
 11
137.28112799999997
 21
454.911316
  0
LINE
  8
_0-0_0
  6
CONTINUOUS
 62
    7
 10
137.03112799999997
 20
454.53225700000002
 11
137.28112799999997
 21
454.65002399999997
  0
LINE
  8
_0-0_0
  6
CONTINUOUS
 62
    7
 10
137.03112799999997
 20
454.76776100000001
 11
137.28112799999997
 21
454.65002399999997
  0
LINE
  8
_0-0_0
  6
CONTINUOUS
 62
    7
 10
137.03112799999997
 20
454.29803500000003
 11
137.28112799999997
 21
454.38867199999999
  0
LINE
  8
_0-0_0
  6
CONTINUOUS
 62
    7
 10
137.03112799999997
 20
454.53225700000002
 11
137.28112799999997
 21
454.38867199999999
  0
LINE
  8
_0-0_0
  6
CONTINUOUS
 62
    7
 10
137.03112799999997
 20
454.067657
 11
137.28112799999997
 21
454.13021900000001
  0
LINE
  8
_0-0_0
  6
CONTINUOUS
 62
    7
 10
137.03112799999997
 20
454.29803500000003
 11
137.28112799999997
 21
454.13021900000001
  0
LINE
  8
_0-0_0
  6
CONTINUOUS
 62
    7
 10
137.03112799999997
 20
453.84368899999998
 11
137.28112799999997
 21
453.87747200000001
  0
LINE
  8
_0-0_0
  6
CONTINUOUS
 62
    7
 10
137.03112799999997
 20
454.067657
 11
137.28112799999997
 21
453.87747200000001
  0
LINE
  8
_0-0_0
  6
CONTINUOUS
 62
    7
 10
137.03112799999997
 20
453.62853999999999
 11
137.28112799999997
 21
453.63317899999998
  0
LINE
  8
_0-0_0
  6
CONTINUOUS
 62
    7
 10
137.03112799999997
 20
453.84368899999998
 11
137.28112799999997
 21
453.63317899999998
  0
LINE
  8
_0-0_0
  6
CONTINUOUS
 62
    7
 10
122.03112799999997
 20
460.34231599999998
 11
131.73895299999998
 21
460.34231599999998
  0
LINE
  8
_0-0_0
  6
CONTINUOUS
 62
    7
 10
131.73895299999998
 20
460.34231599999998
 11
131.83325199999996
 21
460.58892800000001
  0
LINE
  8
_0-0_0
  6
CONTINUOUS
 62
    7
 10
131.83325199999996
 20
460.58892800000001
 11
131.91723599999995
 21
460.82891799999999
  0
LINE
  8
_0-0_0
  6
CONTINUOUS
 62
    7
 10
131.91723599999995
 20
460.82891799999999
 11
131.99139399999996
 21
461.063019
  0
LINE
  8
_0-0_0
  6
CONTINUOUS
 62
    7
 10
131.99139399999996
 20
461.063019
 11
132.05627399999997
 21
461.29205300000001
  0
LINE
  8
_0-0_0
  6
CONTINUOUS
 62
    7
 10
132.05627399999997
 20
461.29205300000001
 11
132.11230499999994
 21
461.51672400000001
  0
LINE
  8
_0-0_0
  6
CONTINUOUS
 62
    7
 10
132.11230499999994
 20
461.51672400000001
 11
132.15985099999995
 21
461.73770100000002
  0
LINE
  8
_0-0_0
  6
CONTINUOUS
 62
    7
 10
132.15985099999995
 20
461.73770100000002
 11
132.19927999999999
 21
461.95562699999999
  0
LINE
  8
_0-0_0
  6
CONTINUOUS
 62
    7
 10
132.19927999999999
 20
461.95562699999999
 11
132.23077399999994
 21
462.17108200000001
  0
LINE
  8
_0-0_0
  6
CONTINUOUS
 62
    7
 10
132.23077399999994
 20
462.17108200000001
 11
132.25451699999996
 21
462.384613
  0
LINE
  8
_0-0_0
  6
CONTINUOUS
 62
    7
 10
132.25451699999996
 20
462.384613
 11
132.27044699999993
 21
462.59231599999998
  0
LINE
  8
_0-0_0
  6
CONTINUOUS
 62
    7
 10
132.27044699999993
 20
462.59231599999998
 11
132.27923599999997
 21
462.79916400000002
  0
LINE
  8
_0-0_0
  6
CONTINUOUS
 62
    7
 10
132.27923599999997
 20
462.79916400000002
 11
132.28082299999994
 21
463.00564600000001
  0
LINE
  8
_0-0_0
  6
CONTINUOUS
 62
    7
 10
132.28082299999994
 20
463.00564600000001
 11
132.27539099999996
 21
463.212219
  0
LINE
  8
_0-0_0
  6
CONTINUOUS
 62
    7
 10
132.27539099999996
 20
463.212219
 11
132.26275599999997
 21
463.41940299999999
  0
LINE
  8
_0-0_0
  6
CONTINUOUS
 62
    7
 10
132.26275599999997
 20
463.41940299999999
 11
132.24298099999999
 21
463.62771600000002
  0
LINE
  8
_0-0_0
  6
CONTINUOUS
 62
    7
 10
132.24298099999999
 20
463.62771600000002
 11
132.21581999999995
 21
463.83761600000003
  0
LINE
  8
_0-0_0
  6
CONTINUOUS
 62
    7
 10
132.21581999999995
 20
463.83761600000003
 11
132.18115199999994
 21
464.04968300000002
  0
LINE
  8
_0-0_0
  6
CONTINUOUS
 62
    7
 10
132.18115199999994
 20
464.04968300000002
 11
132.13879399999996
 21
464.26443499999999
  0
LINE
  8
_0-0_0
  6
CONTINUOUS
 62
    7
 10
132.13879399999996
 20
464.26443499999999
 11
132.08850099999995
 21
464.48245200000002
  0
LINE
  8
_0-0_0
  6
CONTINUOUS
 62
    7
 10
132.08850099999995
 20
464.48245200000002
 11
132.03424099999995
 21
464.68872099999999
  0
LINE
  8
_0-0_0
  6
CONTINUOUS
 62
    7
 10
132.03424099999995
 20
464.68872099999999
 11
131.97253399999994
 21
464.89883400000002
  0
LINE
  8
_0-0_0
  6
CONTINUOUS
 62
    7
 10
131.97253399999994
 20
464.89883400000002
 11
131.90301499999998
 21
465.11331200000001
  0
LINE
  8
_0-0_0
  6
CONTINUOUS
 62
    7
 10
131.90301499999998
 20
465.11331200000001
 11
131.82531699999998
 21
465.33273300000002
  0
LINE
  8
_0-0_0
  6
CONTINUOUS
 62
    7
 10
131.82531699999998
 20
465.33273300000002
 11
131.73895299999998
 21
465.55770899999999
  0
LINE
  8
_0-0_0
  6
CONTINUOUS
 62
    7
 10
122.03112799999997
 20
465.55770899999999
 11
131.73895299999998
 21
465.55770899999999
  0
ARC
  8
_0-0_0
  6
CONTINUOUS
 62
    7
 10
126.86737099999993
 20
459.70001200000002
 40
4.9136889999999998
 50
352.48898799999995
 51
7.5110139999999577
  0
ARC
  8
_0-0_0
  6
CONTINUOUS
 62
    7
 10
126.85723899999994
 20
466.200897
 40
4.9238749999999998
 50
352.49423299999995
 51
1.5359699999999901
  0
ARC
  8
_0-0_0
  6
CONTINUOUS
 62
    7
 10
126.81921399999993
 20
466.19595299999997
 40
4.9620009999999999
 50
1.5813010000000001
 51
7.4847919999999997
  0
LINE
  8
_0-0_0
  6
CONTINUOUS
 62
    7
 10
133.03112799999997
 20
465.68154900000002
 11
133.03112799999997
 21
468.20001200000002
  0
LINE
  8
_0-0_0
  6
CONTINUOUS
 62
    7
 10
133.03112799999997
 20
457.70001200000002
 11
133.03112799999997
 21
465.68154900000002
  0
LINE
  8
_0-0_0
  6
CONTINUOUS
 62
    7
 10
146.78112799999997
 20
453.42456099999998
 11
146.53112799999997
 21
453.40002399999997
  0
LINE
  8
_0-0_0
  6
CONTINUOUS
 62
    7
 10
146.53112799999997
 20
453.40002399999997
 11
137.28112799999997
 21
453.40002399999997
  0
LINE
  8
_0-0_0
  6
CONTINUOUS
 62
    7
 10
146.78112799999997
 20
453.62853999999999
 11
146.53112799999997
 21
453.40002399999997
  0
LINE
  8
_0-0_0
  6
CONTINUOUS
 62
    7
 10
146.78112799999997
 20
453.62853999999999
 11
137.03112799999997
 21
453.62853999999999
  0
LINE
  8
_0-0_0
  6
CONTINUOUS
 62
    7
 10
146.78112799999997
 20
453.234039
 11
146.53112799999997
 21
453.180542
  0
LINE
  8
_0-0_0
  6
CONTINUOUS
 62
    7
 10
146.53112799999997
 20
453.180542
 11
137.28112799999997
 21
453.180542
  0
LINE
  8
_0-0_0
  6
CONTINUOUS
 62
    7
 10
146.78112799999997
 20
453.42456099999998
 11
146.53112799999997
 21
453.180542
  0
LINE
  8
_0-0_0
  6
CONTINUOUS
 62
    7
 10
146.78112799999997
 20
453.05902099999997
 11
146.53112799999997
 21
452.97717299999999
  0
LINE
  8
_0-0_0
  6
CONTINUOUS
 62
    7
 10
146.53112799999997
 20
452.97717299999999
 11
137.28112799999997
 21
452.97717299999999
  0
LINE
  8
_0-0_0
  6
CONTINUOUS
 62
    7
 10
146.78112799999997
 20
453.234039
 11
146.53112799999997
 21
452.97717299999999
  0
LINE
  8
_0-0_0
  6
CONTINUOUS
 62
    7
 10
146.78112799999997
 20
452.90142800000001
 11
146.53112799999997
 21
452.792145
  0
LINE
  8
_0-0_0
  6
CONTINUOUS
 62
    7
 10
146.53112799999997
 20
452.792145
 11
137.28112799999997
 21
452.792145
  0
LINE
  8
_0-0_0
  6
CONTINUOUS
 62
    7
 10
146.78112799999997
 20
453.05902099999997
 11
146.53112799999997
 21
452.792145
  0
LINE
  8
_0-0_0
  6
CONTINUOUS
 62
    7
 10
146.78112799999997
 20
452.76299999999998
 11
146.53112799999997
 21
452.62747200000001
  0
LINE
  8
_0-0_0
  6
CONTINUOUS
 62
    7
 10
146.53112799999997
 20
452.62747200000001
 11
137.28112799999997
 21
452.62747200000001
  0
LINE
  8
_0-0_0
  6
CONTINUOUS
 62
    7
 10
146.78112799999997
 20
452.90142800000001
 11
146.53112799999997
 21
452.62747200000001
  0
LINE
  8
_0-0_0
  6
CONTINUOUS
 62
    7
 10
146.78112799999997
 20
452.64523300000002
 11
146.53112799999997
 21
452.48495500000001
  0
LINE
  8
_0-0_0
  6
CONTINUOUS
 62
    7
 10
146.53112799999997
 20
452.48495500000001
 11
137.28112799999997
 21
452.48495500000001
  0
LINE
  8
_0-0_0
  6
CONTINUOUS
 62
    7
 10
146.78112799999997
 20
452.76299999999998
 11
146.53112799999997
 21
452.48495500000001
  0
LINE
  8
_0-0_0
  6
CONTINUOUS
 62
    7
 10
146.78112799999997
 20
452.54943800000001
 11
146.53112799999997
 21
452.36615
  0
LINE
  8
_0-0_0
  6
CONTINUOUS
 62
    7
 10
146.53112799999997
 20
452.36615
 11
137.28112799999997
 21
452.36615
  0
LINE
  8
_0-0_0
  6
CONTINUOUS
 62
    7
 10
146.78112799999997
 20
452.64523300000002
 11
146.53112799999997
 21
452.36615
  0
LINE
  8
_0-0_0
  6
CONTINUOUS
 62
    7
 10
146.78112799999997
 20
452.47668499999997
 11
146.53112799999997
 21
452.27236900000003
  0
LINE
  8
_0-0_0
  6
CONTINUOUS
 62
    7
 10
146.53112799999997
 20
452.27236900000003
 11
137.28112799999997
 21
452.27236900000003
  0
LINE
  8
_0-0_0
  6
CONTINUOUS
 62
    7
 10
146.78112799999997
 20
452.54943800000001
 11
146.53112799999997
 21
452.27236900000003
  0
LINE
  8
_0-0_0
  6
CONTINUOUS
 62
    7
 10
146.78112799999997
 20
452.42770400000001
 11
146.53112799999997
 21
452.20465100000001
  0
LINE
  8
_0-0_0
  6
CONTINUOUS
 62
    7
 10
146.53112799999997
 20
452.20465100000001
 11
137.28112799999997
 21
452.20465100000001
  0
LINE
  8
_0-0_0
  6
CONTINUOUS
 62
    7
 10
146.78112799999997
 20
452.47668499999997
 11
146.53112799999997
 21
452.20465100000001
  0
LINE
  8
_0-0_0
  6
CONTINUOUS
 62
    7
 10
146.78112799999997
 20
452.403076
 11
146.53112799999997
 21
452.16369600000002
  0
LINE
  8
_0-0_0
  6
CONTINUOUS
 62
    7
 10
146.53112799999997
 20
452.16369600000002
 11
137.28112799999997
 21
452.16369600000002
  0
LINE
  8
_0-0_0
  6
CONTINUOUS
 62
    7
 10
146.78112799999997
 20
452.42770400000001
 11
146.53112799999997
 21
452.16369600000002
  0
LINE
  8
_0-0_0
  6
CONTINUOUS
 62
    7
 10
146.53112799999997
 20
452.15002399999997
 11
137.28112799999997
 21
452.15002399999997
  0
LINE
  8
_0-0_0
  6
CONTINUOUS
 62
    7
 10
146.78112799999997
 20
452.403076
 11
146.53112799999997
 21
452.15002399999997
  0
LINE
  8
_0-0_0
  6
CONTINUOUS
 62
    7
 10
146.78112799999997
 20
456.89691199999999
 11
146.53112799999997
 21
457.15002399999997
  0
LINE
  8
_0-0_0
  6
CONTINUOUS
 62
    7
 10
146.53112799999997
 20
457.15002399999997
 11
137.28112799999997
 21
457.15002399999997
  0
LINE
  8
_0-0_0
  6
CONTINUOUS
 62
    7
 10
146.78112799999997
 20
456.87231400000002
 11
146.53112799999997
 21
457.13632200000001
  0
LINE
  8
_0-0_0
  6
CONTINUOUS
 62
    7
 10
146.53112799999997
 20
457.13632200000001
 11
137.28112799999997
 21
457.13632200000001
  0
LINE
  8
_0-0_0
  6
CONTINUOUS
 62
    7
 10
146.78112799999997
 20
456.89691199999999
 11
146.53112799999997
 21
457.13632200000001
  0
LINE
  8
_0-0_0
  6
CONTINUOUS
 62
    7
 10
146.78112799999997
 20
456.82333399999999
 11
146.53112799999997
 21
457.09536700000001
  0
LINE
  8
_0-0_0
  6
CONTINUOUS
 62
    7
 10
146.53112799999997
 20
457.09536700000001
 11
137.28112799999997
 21
457.09536700000001
  0
LINE
  8
_0-0_0
  6
CONTINUOUS
 62
    7
 10
146.78112799999997
 20
456.87231400000002
 11
146.53112799999997
 21
457.09536700000001
  0
LINE
  8
_0-0_0
  6
CONTINUOUS
 62
    7
 10
146.78112799999997
 20
456.75054899999998
 11
146.53112799999997
 21
457.027649
  0
LINE
  8
_0-0_0
  6
CONTINUOUS
 62
    7
 10
146.53112799999997
 20
457.027649
 11
137.28112799999997
 21
457.027649
  0
LINE
  8
_0-0_0
  6
CONTINUOUS
 62
    7
 10
146.78112799999997
 20
456.82333399999999
 11
146.53112799999997
 21
457.027649
  0
LINE
  8
_0-0_0
  6
CONTINUOUS
 62
    7
 10
146.78112799999997
 20
456.654785
 11
146.53112799999997
 21
456.93386800000002
  0
LINE
  8
_0-0_0
  6
CONTINUOUS
 62
    7
 10
146.53112799999997
 20
456.93386800000002
 11
137.28112799999997
 21
456.93386800000002
  0
LINE
  8
_0-0_0
  6
CONTINUOUS
 62
    7
 10
146.78112799999997
 20
456.75054899999998
 11
146.53112799999997
 21
456.93386800000002
  0
LINE
  8
_0-0_0
  6
CONTINUOUS
 62
    7
 10
146.53112799999997
 20
456.81506300000001
 11
137.28112799999997
 21
456.81506300000001
  0
LINE
  8
_0-0_0
  6
CONTINUOUS
 62
    7
 10
146.65112299999998
 20
456.73861699999998
 11
146.53112799999997
 21
456.81506300000001
  0
LINE
  8
_0-0_0
  6
CONTINUOUS
 62
    7
 10
146.78112799999997
 20
456.654785
 11
146.65112299999998
 21
456.73861699999998
  0
LINE
  8
_0-0_0
  6
CONTINUOUS
 62
    7
 10
146.78112799999997
 20
456.53701799999999
 11
146.53112799999997
 21
456.81506300000001
  0
LINE
  8
_0-0_0
  6
CONTINUOUS
 62
    7
 10
146.78112799999997
 20
456.39859000000001
 11
146.53112799999997
 21
456.67254600000001
  0
LINE
  8
_0-0_0
  6
CONTINUOUS
 62
    7
 10
146.53112799999997
 20
456.67254600000001
 11
137.28112799999997
 21
456.67254600000001
  0
LINE
  8
_0-0_0
  6
CONTINUOUS
 62
    7
 10
146.78112799999997
 20
456.53701799999999
 11
146.53112799999997
 21
456.67254600000001
  0
LINE
  8
_0-0_0
  6
CONTINUOUS
 62
    7
 10
146.78112799999997
 20
456.24099699999999
 11
146.53112799999997
 21
456.50787400000002
  0
LINE
  8
_0-0_0
  6
CONTINUOUS
 62
    7
 10
146.53112799999997
 20
456.50787400000002
 11
137.28112799999997
 21
456.50787400000002
  0
LINE
  8
_0-0_0
  6
CONTINUOUS
 62
    7
 10
146.78112799999997
 20
456.39859000000001
 11
146.53112799999997
 21
456.50787400000002
  0
LINE
  8
_0-0_0
  6
CONTINUOUS
 62
    7
 10
146.78112799999997
 20
456.06597900000003
 11
146.53112799999997
 21
456.32284499999997
  0
LINE
  8
_0-0_0
  6
CONTINUOUS
 62
    7
 10
146.53112799999997
 20
456.32284499999997
 11
137.28112799999997
 21
456.32284499999997
  0
LINE
  8
_0-0_0
  6
CONTINUOUS
 62
    7
 10
146.78112799999997
 20
456.24099699999999
 11
146.53112799999997
 21
456.32284499999997
  0
LINE
  8
_0-0_0
  6
CONTINUOUS
 62
    7
 10
146.78112799999997
 20
455.875427
 11
146.53112799999997
 21
456.11947600000002
  0
LINE
  8
_0-0_0
  6
CONTINUOUS
 62
    7
 10
146.53112799999997
 20
456.11947600000002
 11
137.28112799999997
 21
456.11947600000002
  0
LINE
  8
_0-0_0
  6
CONTINUOUS
 62
    7
 10
146.78112799999997
 20
456.06597900000003
 11
146.53112799999997
 21
456.11947600000002
  0
LINE
  8
_0-0_0
  6
CONTINUOUS
 62
    7
 10
146.78112799999997
 20
455.67147799999998
 11
146.53112799999997
 21
455.90002399999997
  0
LINE
  8
_0-0_0
  6
CONTINUOUS
 62
    7
 10
146.53112799999997
 20
455.90002399999997
 11
137.28112799999997
 21
455.90002399999997
  0
LINE
  8
_0-0_0
  6
CONTINUOUS
 62
    7
 10
146.78112799999997
 20
455.67147799999998
 11
137.03112799999997
 21
455.67147799999998
  0
LINE
  8
_0-0_0
  6
CONTINUOUS
 62
    7
 10
146.78112799999997
 20
455.875427
 11
146.53112799999997
 21
455.90002399999997
  0
LINE
  8
_0-0_0
  6
CONTINUOUS
 62
    7
 10
146.78112799999997
 20
455.45632899999998
 11
146.53112799999997
 21
455.66683999999998
  0
LINE
  8
_0-0_0
  6
CONTINUOUS
 62
    7
 10
146.53112799999997
 20
455.66683999999998
 11
137.28112799999997
 21
455.66683999999998
  0
LINE
  8
_0-0_0
  6
CONTINUOUS
 62
    7
 10
146.78112799999997
 20
455.45632899999998
 11
137.03112799999997
 21
455.45632899999998
  0
LINE
  8
_0-0_0
  6
CONTINUOUS
 62
    7
 10
146.78112799999997
 20
455.67147799999998
 11
146.53112799999997
 21
455.66683999999998
  0
LINE
  8
_0-0_0
  6
CONTINUOUS
 62
    7
 10
146.78112799999997
 20
455.23236100000003
 11
146.53112799999997
 21
455.42254600000001
  0
LINE
  8
_0-0_0
  6
CONTINUOUS
 62
    7
 10
146.53112799999997
 20
455.42254600000001
 11
137.28112799999997
 21
455.42254600000001
  0
LINE
  8
_0-0_0
  6
CONTINUOUS
 62
    7
 10
146.78112799999997
 20
455.23236100000003
 11
137.03112799999997
 21
455.23236100000003
  0
LINE
  8
_0-0_0
  6
CONTINUOUS
 62
    7
 10
146.78112799999997
 20
455.45632899999998
 11
146.53112799999997
 21
455.42254600000001
  0
LINE
  8
_0-0_0
  6
CONTINUOUS
 62
    7
 10
146.78112799999997
 20
455.00198399999999
 11
146.53112799999997
 21
455.16980000000001
  0
LINE
  8
_0-0_0
  6
CONTINUOUS
 62
    7
 10
146.53112799999997
 20
455.16980000000001
 11
137.28112799999997
 21
455.16980000000001
  0
LINE
  8
_0-0_0
  6
CONTINUOUS
 62
    7
 10
146.78112799999997
 20
455.00198399999999
 11
137.03112799999997
 21
455.00198399999999
  0
LINE
  8
_0-0_0
  6
CONTINUOUS
 62
    7
 10
146.78112799999997
 20
455.23236100000003
 11
146.53112799999997
 21
455.16980000000001
  0
LINE
  8
_0-0_0
  6
CONTINUOUS
 62
    7
 10
146.78112799999997
 20
454.76776100000001
 11
146.53112799999997
 21
454.911316
  0
LINE
  8
_0-0_0
  6
CONTINUOUS
 62
    7
 10
146.53112799999997
 20
454.911316
 11
137.28112799999997
 21
454.911316
  0
LINE
  8
_0-0_0
  6
CONTINUOUS
 62
    7
 10
146.78112799999997
 20
454.76776100000001
 11
137.03112799999997
 21
454.76776100000001
  0
LINE
  8
_0-0_0
  6
CONTINUOUS
 62
    7
 10
146.78112799999997
 20
455.00198399999999
 11
146.53112799999997
 21
454.911316
  0
LINE
  8
_0-0_0
  6
CONTINUOUS
 62
    7
 10
146.78112799999997
 20
454.53225700000002
 11
146.53112799999997
 21
454.65002399999997
  0
LINE
  8
_0-0_0
  6
CONTINUOUS
 62
    7
 10
146.53112799999997
 20
454.65002399999997
 11
137.28112799999997
 21
454.65002399999997
  0
LINE
  8
_0-0_0
  6
CONTINUOUS
 62
    7
 10
146.78112799999997
 20
454.53225700000002
 11
137.03112799999997
 21
454.53225700000002
  0
LINE
  8
_0-0_0
  6
CONTINUOUS
 62
    7
 10
146.78112799999997
 20
454.76776100000001
 11
146.53112799999997
 21
454.65002399999997
  0
LINE
  8
_0-0_0
  6
CONTINUOUS
 62
    7
 10
146.78112799999997
 20
454.29803500000003
 11
146.53112799999997
 21
454.38867199999999
  0
LINE
  8
_0-0_0
  6
CONTINUOUS
 62
    7
 10
146.53112799999997
 20
454.38867199999999
 11
137.28112799999997
 21
454.38867199999999
  0
LINE
  8
_0-0_0
  6
CONTINUOUS
 62
    7
 10
146.78112799999997
 20
454.29803500000003
 11
137.03112799999997
 21
454.29803500000003
  0
LINE
  8
_0-0_0
  6
CONTINUOUS
 62
    7
 10
146.78112799999997
 20
454.53225700000002
 11
146.53112799999997
 21
454.38867199999999
  0
LINE
  8
_0-0_0
  6
CONTINUOUS
 62
    7
 10
146.78112799999997
 20
454.067657
 11
146.53112799999997
 21
454.13021900000001
  0
LINE
  8
_0-0_0
  6
CONTINUOUS
 62
    7
 10
146.53112799999997
 20
454.13021900000001
 11
137.28112799999997
 21
454.13021900000001
  0
LINE
  8
_0-0_0
  6
CONTINUOUS
 62
    7
 10
146.78112799999997
 20
454.067657
 11
137.03112799999997
 21
454.067657
  0
LINE
  8
_0-0_0
  6
CONTINUOUS
 62
    7
 10
146.78112799999997
 20
454.29803500000003
 11
146.53112799999997
 21
454.13021900000001
  0
LINE
  8
_0-0_0
  6
CONTINUOUS
 62
    7
 10
146.78112799999997
 20
453.84368899999998
 11
146.53112799999997
 21
453.87747200000001
  0
LINE
  8
_0-0_0
  6
CONTINUOUS
 62
    7
 10
146.53112799999997
 20
453.87747200000001
 11
137.28112799999997
 21
453.87747200000001
  0
LINE
  8
_0-0_0
  6
CONTINUOUS
 62
    7
 10
146.78112799999997
 20
453.84368899999998
 11
137.03112799999997
 21
453.84368899999998
  0
LINE
  8
_0-0_0
  6
CONTINUOUS
 62
    7
 10
146.78112799999997
 20
454.067657
 11
146.53112799999997
 21
453.87747200000001
  0
LINE
  8
_0-0_0
  6
CONTINUOUS
 62
    7
 10
146.78112799999997
 20
453.62853999999999
 11
146.53112799999997
 21
453.63317899999998
  0
LINE
  8
_0-0_0
  6
CONTINUOUS
 62
    7
 10
146.53112799999997
 20
453.63317899999998
 11
137.28112799999997
 21
453.63317899999998
  0
LINE
  8
_0-0_0
  6
CONTINUOUS
 62
    7
 10
146.78112799999997
 20
453.84368899999998
 11
146.53112799999997
 21
453.63317899999998
  0
LINE
  8
_0-0_0
  6
CONTINUOUS
 62
    7
 10
147.03112799999997
 20
452.65002399999997
 11
147.03112799999997
 21
456.40518200000002
  0
LINE
  8
_0-0_0
  6
CONTINUOUS
 62
    7
 10
147.03112799999997
 20
456.40518200000002
 11
147.03112799999997
 21
456.65002399999997
  0
LINE
  8
_0-0_0
  6
CONTINUOUS
 62
    7
 10
133.43109099999998
 20
457.95001200000002
 11
133.43109099999998
 21
460.45001200000002
  0
LINE
  8
_0-0_0
  6
CONTINUOUS
 62
    7
 10
133.43109099999998
 20
460.45001200000002
 11
133.43109099999998
 21
467.95001200000002
  0
LINE
  8
_0-0_0
  6
CONTINUOUS
 62
    7
 10
134.23107899999997
 20
458.41189600000001
 11
134.23107899999997
 21
460.68093900000002
  0
LINE
  8
_0-0_0
  6
CONTINUOUS
 62
    7
 10
134.23107899999997
 20
460.68093900000002
 11
134.23107899999997
 21
467.48812900000001
  0
LINE
  8
_0-0_0
  6
CONTINUOUS
 62
    7
 10
192.23107899999997
 20
458.95001200000002
 11
192.23107899999997
 21
458.95135499999998
  0
LINE
  8
_0-0_0
  6
CONTINUOUS
 62
    7
 10
192.23107899999997
 20
458.95135499999998
 11
192.23107899999997
 21
466.95001200000002
  0
LINE
  8
_0-0_0
  6
CONTINUOUS
 62
    7
 10
137.03112799999997
 20
473.49691799999999
 11
137.03112799999997
 21
473.5
  0
LINE
  8
_0-0_0
  6
CONTINUOUS
 62
    7
 10
137.03112799999997
 20
473.47228999999999
 11
137.03112799999997
 21
473.49691799999999
  0
LINE
  8
_0-0_0
  6
CONTINUOUS
 62
    7
 10
137.03112799999997
 20
473.42334
 11
137.03112799999997
 21
473.47228999999999
  0
LINE
  8
_0-0_0
  6
CONTINUOUS
 62
    7
 10
137.03112799999997
 20
473.35055499999999
 11
137.03112799999997
 21
473.42334
  0
LINE
  8
_0-0_0
  6
CONTINUOUS
 62
    7
 10
137.03112799999997
 20
473.25476099999997
 11
137.03112799999997
 21
473.35055499999999
  0
LINE
  8
_0-0_0
  6
CONTINUOUS
 62
    7
 10
137.03112799999997
 20
473.22457900000001
 11
137.03112799999997
 21
473.25476099999997
  0
LINE
  8
_0-0_0
  6
CONTINUOUS
 62
    7
 10
137.03112799999997
 20
473.137024
 11
137.03112799999997
 21
473.22457900000001
  0
LINE
  8
_0-0_0
  6
CONTINUOUS
 62
    7
 10
137.03112799999997
 20
472.99859600000002
 11
137.03112799999997
 21
473.137024
  0
LINE
  8
_0-0_0
  6
CONTINUOUS
 62
    7
 10
137.03112799999997
 20
472.841003
 11
137.03112799999997
 21
472.99859600000002
  0
LINE
  8
_0-0_0
  6
CONTINUOUS
 62
    7
 10
137.03112799999997
 20
472.66598499999998
 11
137.03112799999997
 21
472.841003
  0
LINE
  8
_0-0_0
  6
CONTINUOUS
 62
    7
 10
137.03112799999997
 20
472.47543300000001
 11
137.03112799999997
 21
472.66598499999998
  0
LINE
  8
_0-0_0
  6
CONTINUOUS
 62
    7
 10
137.03112799999997
 20
472.27148399999999
 11
137.03112799999997
 21
472.47543300000001
  0
LINE
  8
_0-0_0
  6
CONTINUOUS
 62
    7
 10
137.03112799999997
 20
472.05633499999999
 11
137.03112799999997
 21
472.27148399999999
  0
LINE
  8
_0-0_0
  6
CONTINUOUS
 62
    7
 10
137.03112799999997
 20
471.832336
 11
137.03112799999997
 21
472.05633499999999
  0
LINE
  8
_0-0_0
  6
CONTINUOUS
 62
    7
 10
137.03112799999997
 20
471.60199
 11
137.03112799999997
 21
471.832336
  0
LINE
  8
_0-0_0
  6
CONTINUOUS
 62
    7
 10
137.03112799999997
 20
471.36776700000001
 11
137.03112799999997
 21
471.60199
  0
LINE
  8
_0-0_0
  6
CONTINUOUS
 62
    7
 10
137.03112799999997
 20
471.13226300000002
 11
137.03112799999997
 21
471.36776700000001
  0
LINE
  8
_0-0_0
  6
CONTINUOUS
 62
    7
 10
137.03112799999997
 20
470.89804099999998
 11
137.03112799999997
 21
471.13226300000002
  0
LINE
  8
_0-0_0
  6
CONTINUOUS
 62
    7
 10
137.03112799999997
 20
470.667664
 11
137.03112799999997
 21
470.89804099999998
  0
LINE
  8
_0-0_0
  6
CONTINUOUS
 62
    7
 10
137.03112799999997
 20
470.44366500000001
 11
137.03112799999997
 21
470.667664
  0
LINE
  8
_0-0_0
  6
CONTINUOUS
 62
    7
 10
137.03112799999997
 20
470.22851600000001
 11
137.03112799999997
 21
470.44366500000001
  0
LINE
  8
_0-0_0
  6
CONTINUOUS
 62
    7
 10
137.03112799999997
 20
470.17129499999999
 11
137.03112799999997
 21
470.22851600000001
  0
LINE
  8
_0-0_0
  6
CONTINUOUS
 62
    7
 10
137.03112799999997
 20
473.49691799999999
 11
137.28112799999997
 21
473.75
  0
LINE
  8
_0-0_0
  6
CONTINUOUS
 62
    7
 10
137.03112799999997
 20
473.47228999999999
 11
137.28112799999997
 21
473.73632800000001
  0
LINE
  8
_0-0_0
  6
CONTINUOUS
 62
    7
 10
137.03112799999997
 20
473.49691799999999
 11
137.28112799999997
 21
473.73632800000001
  0
LINE
  8
_0-0_0
  6
CONTINUOUS
 62
    7
 10
137.03112799999997
 20
473.42334
 11
137.28112799999997
 21
473.69537400000002
  0
LINE
  8
_0-0_0
  6
CONTINUOUS
 62
    7
 10
137.03112799999997
 20
473.47228999999999
 11
137.28112799999997
 21
473.69537400000002
  0
LINE
  8
_0-0_0
  6
CONTINUOUS
 62
    7
 10
137.03112799999997
 20
473.35055499999999
 11
137.28112799999997
 21
473.627655
  0
LINE
  8
_0-0_0
  6
CONTINUOUS
 62
    7
 10
137.03112799999997
 20
473.42334
 11
137.28112799999997
 21
473.627655
  0
LINE
  8
_0-0_0
  6
CONTINUOUS
 62
    7
 10
137.03112799999997
 20
473.25476099999997
 11
137.28112799999997
 21
473.53387500000002
  0
LINE
  8
_0-0_0
  6
CONTINUOUS
 62
    7
 10
137.03112799999997
 20
473.35055499999999
 11
137.28112799999997
 21
473.53387500000002
  0
LINE
  8
_0-0_0
  6
CONTINUOUS
 62
    7
 10
137.03112799999997
 20
473.25476099999997
 11
137.16107199999993
 21
473.33862299999998
  0
LINE
  8
_0-0_0
  6
CONTINUOUS
 62
    7
 10
137.03112799999997
 20
473.137024
 11
137.28112799999997
 21
473.41507000000001
  0
LINE
  8
_0-0_0
  6
CONTINUOUS
 62
    7
 10
137.16107199999993
 20
473.33862299999998
 11
137.28112799999997
 21
473.41507000000001
  0
LINE
  8
_0-0_0
  6
CONTINUOUS
 62
    7
 10
137.03112799999997
 20
472.99859600000002
 11
137.28112799999997
 21
473.27255200000002
  0
LINE
  8
_0-0_0
  6
CONTINUOUS
 62
    7
 10
137.03112799999997
 20
473.137024
 11
137.28112799999997
 21
473.27255200000002
  0
LINE
  8
_0-0_0
  6
CONTINUOUS
 62
    7
 10
137.03112799999997
 20
472.841003
 11
137.28112799999997
 21
473.10788000000002
  0
LINE
  8
_0-0_0
  6
CONTINUOUS
 62
    7
 10
137.03112799999997
 20
472.99859600000002
 11
137.28112799999997
 21
473.10788000000002
  0
LINE
  8
_0-0_0
  6
CONTINUOUS
 62
    7
 10
137.03112799999997
 20
472.66598499999998
 11
137.28112799999997
 21
472.922821
  0
LINE
  8
_0-0_0
  6
CONTINUOUS
 62
    7
 10
137.03112799999997
 20
472.841003
 11
137.28112799999997
 21
472.922821
  0
LINE
  8
_0-0_0
  6
CONTINUOUS
 62
    7
 10
137.03112799999997
 20
472.47543300000001
 11
137.28112799999997
 21
472.71948200000003
  0
LINE
  8
_0-0_0
  6
CONTINUOUS
 62
    7
 10
137.03112799999997
 20
472.66598499999998
 11
137.28112799999997
 21
472.71948200000003
  0
LINE
  8
_0-0_0
  6
CONTINUOUS
 62
    7
 10
137.03112799999997
 20
472.27148399999999
 11
137.28112799999997
 21
472.5
  0
LINE
  8
_0-0_0
  6
CONTINUOUS
 62
    7
 10
137.03112799999997
 20
472.47543300000001
 11
137.28112799999997
 21
472.5
  0
LINE
  8
_0-0_0
  6
CONTINUOUS
 62
    7
 10
137.03112799999997
 20
472.05633499999999
 11
137.28112799999997
 21
472.26684599999999
  0
LINE
  8
_0-0_0
  6
CONTINUOUS
 62
    7
 10
137.03112799999997
 20
472.27148399999999
 11
137.28112799999997
 21
472.26684599999999
  0
LINE
  8
_0-0_0
  6
CONTINUOUS
 62
    7
 10
137.03112799999997
 20
471.832336
 11
137.28112799999997
 21
472.02255200000002
  0
LINE
  8
_0-0_0
  6
CONTINUOUS
 62
    7
 10
137.03112799999997
 20
472.05633499999999
 11
137.28112799999997
 21
472.02255200000002
  0
LINE
  8
_0-0_0
  6
CONTINUOUS
 62
    7
 10
137.03112799999997
 20
471.60199
 11
137.28112799999997
 21
471.76977499999998
  0
LINE
  8
_0-0_0
  6
CONTINUOUS
 62
    7
 10
137.03112799999997
 20
471.832336
 11
137.28112799999997
 21
471.76977499999998
  0
LINE
  8
_0-0_0
  6
CONTINUOUS
 62
    7
 10
137.03112799999997
 20
471.36776700000001
 11
137.28112799999997
 21
471.51132200000001
  0
LINE
  8
_0-0_0
  6
CONTINUOUS
 62
    7
 10
137.03112799999997
 20
471.60199
 11
137.28112799999997
 21
471.51132200000001
  0
LINE
  8
_0-0_0
  6
CONTINUOUS
 62
    7
 10
137.03112799999997
 20
471.13226300000002
 11
137.28112799999997
 21
471.25
  0
LINE
  8
_0-0_0
  6
CONTINUOUS
 62
    7
 10
137.03112799999997
 20
471.36776700000001
 11
137.28112799999997
 21
471.25
  0
LINE
  8
_0-0_0
  6
CONTINUOUS
 62
    7
 10
137.03112799999997
 20
470.89804099999998
 11
137.28112799999997
 21
470.98867799999999
  0
LINE
  8
_0-0_0
  6
CONTINUOUS
 62
    7
 10
137.03112799999997
 20
471.13226300000002
 11
137.28112799999997
 21
470.98867799999999
  0
LINE
  8
_0-0_0
  6
CONTINUOUS
 62
    7
 10
137.03112799999997
 20
470.667664
 11
137.28112799999997
 21
470.73022500000002
  0
LINE
  8
_0-0_0
  6
CONTINUOUS
 62
    7
 10
137.03112799999997
 20
470.89804099999998
 11
137.28112799999997
 21
470.73022500000002
  0
LINE
  8
_0-0_0
  6
CONTINUOUS
 62
    7
 10
137.03112799999997
 20
470.44366500000001
 11
137.28112799999997
 21
470.47747800000002
  0
LINE
  8
_0-0_0
  6
CONTINUOUS
 62
    7
 10
137.03112799999997
 20
470.667664
 11
137.28112799999997
 21
470.47747800000002
  0
LINE
  8
_0-0_0
  6
CONTINUOUS
 62
    7
 10
137.03112799999997
 20
470.22851600000001
 11
137.28112799999997
 21
470.23315400000001
  0
LINE
  8
_0-0_0
  6
CONTINUOUS
 62
    7
 10
137.03112799999997
 20
470.44366500000001
 11
137.28112799999997
 21
470.23315400000001
  0
LINE
  8
_0-0_0
  6
CONTINUOUS
 62
    7
 10
137.03112799999997
 20
470.02456699999999
 11
137.03112799999997
 21
470.17129499999999
  0
LINE
  8
_0-0_0
  6
CONTINUOUS
 62
    7
 10
137.03112799999997
 20
470.02456699999999
 11
137.28112799999997
 21
470
  0
LINE
  8
_0-0_0
  6
CONTINUOUS
 62
    7
 10
137.03112799999997
 20
470.22851600000001
 11
137.28112799999997
 21
470
  0
LINE
  8
_0-0_0
  6
CONTINUOUS
 62
    7
 10
137.03112799999997
 20
469.834045
 11
137.03112799999997
 21
470.02456699999999
  0
LINE
  8
_0-0_0
  6
CONTINUOUS
 62
    7
 10
137.03112799999997
 20
469.65902699999998
 11
137.03112799999997
 21
469.834045
  0
LINE
  8
_0-0_0
  6
CONTINUOUS
 62
    7
 10
137.03112799999997
 20
469.50143400000002
 11
137.03112799999997
 21
469.65902699999998
  0
LINE
  8
_0-0_0
  6
CONTINUOUS
 62
    7
 10
137.03112799999997
 20
469.36300699999998
 11
137.03112799999997
 21
469.50143400000002
  0
LINE
  8
_0-0_0
  6
CONTINUOUS
 62
    7
 10
137.03112799999997
 20
469.24523900000003
 11
137.03112799999997
 21
469.36300699999998
  0
LINE
  8
_0-0_0
  6
CONTINUOUS
 62
    7
 10
137.03112799999997
 20
469.14944500000001
 11
137.03112799999997
 21
469.24523900000003
  0
LINE
  8
_0-0_0
  6
CONTINUOUS
 62
    7
 10
137.03112799999997
 20
469.07666
 11
137.03112799999997
 21
469.14944500000001
  0
LINE
  8
_0-0_0
  6
CONTINUOUS
 62
    7
 10
137.03112799999997
 20
469.02771000000001
 11
137.03112799999997
 21
469.07666
  0
LINE
  8
_0-0_0
  6
CONTINUOUS
 62
    7
 10
137.03112799999997
 20
469.00308200000001
 11
137.03112799999997
 21
469.02771000000001
  0
LINE
  8
_0-0_0
  6
CONTINUOUS
 62
    7
 10
137.03112799999997
 20
469
 11
137.03112799999997
 21
469.00308200000001
  0
LINE
  8
_0-0_0
  6
CONTINUOUS
 62
    7
 10
146.78112799999997
 20
473.49691799999999
 11
146.53112799999997
 21
473.75
  0
LINE
  8
_0-0_0
  6
CONTINUOUS
 62
    7
 10
146.53112799999997
 20
473.75
 11
137.28112799999997
 21
473.75
  0
LINE
  8
_0-0_0
  6
CONTINUOUS
 62
    7
 10
146.78112799999997
 20
473.47228999999999
 11
146.53112799999997
 21
473.73632800000001
  0
LINE
  8
_0-0_0
  6
CONTINUOUS
 62
    7
 10
146.53112799999997
 20
473.73632800000001
 11
137.28112799999997
 21
473.73632800000001
  0
LINE
  8
_0-0_0
  6
CONTINUOUS
 62
    7
 10
146.78112799999997
 20
473.49691799999999
 11
146.53112799999997
 21
473.73632800000001
  0
LINE
  8
_0-0_0
  6
CONTINUOUS
 62
    7
 10
146.78112799999997
 20
473.42334
 11
146.53112799999997
 21
473.69537400000002
  0
LINE
  8
_0-0_0
  6
CONTINUOUS
 62
    7
 10
146.53112799999997
 20
473.69537400000002
 11
137.28112799999997
 21
473.69537400000002
  0
LINE
  8
_0-0_0
  6
CONTINUOUS
 62
    7
 10
146.78112799999997
 20
473.47228999999999
 11
146.53112799999997
 21
473.69537400000002
  0
LINE
  8
_0-0_0
  6
CONTINUOUS
 62
    7
 10
146.78112799999997
 20
473.35055499999999
 11
146.53112799999997
 21
473.627655
  0
LINE
  8
_0-0_0
  6
CONTINUOUS
 62
    7
 10
146.53112799999997
 20
473.627655
 11
137.28112799999997
 21
473.627655
  0
LINE
  8
_0-0_0
  6
CONTINUOUS
 62
    7
 10
146.78112799999997
 20
473.42334
 11
146.53112799999997
 21
473.627655
  0
LINE
  8
_0-0_0
  6
CONTINUOUS
 62
    7
 10
146.78112799999997
 20
473.25476099999997
 11
146.53112799999997
 21
473.53387500000002
  0
LINE
  8
_0-0_0
  6
CONTINUOUS
 62
    7
 10
146.53112799999997
 20
473.53387500000002
 11
137.28112799999997
 21
473.53387500000002
  0
LINE
  8
_0-0_0
  6
CONTINUOUS
 62
    7
 10
146.78112799999997
 20
473.35055499999999
 11
146.53112799999997
 21
473.53387500000002
  0
LINE
  8
_0-0_0
  6
CONTINUOUS
 62
    7
 10
146.53112799999997
 20
473.41507000000001
 11
137.28112799999997
 21
473.41507000000001
  0
LINE
  8
_0-0_0
  6
CONTINUOUS
 62
    7
 10
146.65112299999998
 20
473.33862299999998
 11
146.53112799999997
 21
473.41507000000001
  0
LINE
  8
_0-0_0
  6
CONTINUOUS
 62
    7
 10
146.78112799999997
 20
473.25476099999997
 11
146.65112299999998
 21
473.33862299999998
  0
LINE
  8
_0-0_0
  6
CONTINUOUS
 62
    7
 10
146.78112799999997
 20
473.137024
 11
146.53112799999997
 21
473.41507000000001
  0
LINE
  8
_0-0_0
  6
CONTINUOUS
 62
    7
 10
146.78112799999997
 20
472.99859600000002
 11
146.53112799999997
 21
473.27255200000002
  0
LINE
  8
_0-0_0
  6
CONTINUOUS
 62
    7
 10
146.53112799999997
 20
473.27255200000002
 11
137.28112799999997
 21
473.27255200000002
  0
LINE
  8
_0-0_0
  6
CONTINUOUS
 62
    7
 10
146.78112799999997
 20
473.137024
 11
146.53112799999997
 21
473.27255200000002
  0
LINE
  8
_0-0_0
  6
CONTINUOUS
 62
    7
 10
146.78112799999997
 20
472.841003
 11
146.53112799999997
 21
473.10788000000002
  0
LINE
  8
_0-0_0
  6
CONTINUOUS
 62
    7
 10
146.53112799999997
 20
473.10788000000002
 11
137.28112799999997
 21
473.10788000000002
  0
LINE
  8
_0-0_0
  6
CONTINUOUS
 62
    7
 10
146.78112799999997
 20
472.99859600000002
 11
146.53112799999997
 21
473.10788000000002
  0
LINE
  8
_0-0_0
  6
CONTINUOUS
 62
    7
 10
146.78112799999997
 20
472.66598499999998
 11
146.53112799999997
 21
472.922821
  0
LINE
  8
_0-0_0
  6
CONTINUOUS
 62
    7
 10
146.53112799999997
 20
472.922821
 11
137.28112799999997
 21
472.922821
  0
LINE
  8
_0-0_0
  6
CONTINUOUS
 62
    7
 10
146.78112799999997
 20
472.841003
 11
146.53112799999997
 21
472.922821
  0
LINE
  8
_0-0_0
  6
CONTINUOUS
 62
    7
 10
146.78112799999997
 20
472.47543300000001
 11
146.53112799999997
 21
472.71948200000003
  0
LINE
  8
_0-0_0
  6
CONTINUOUS
 62
    7
 10
146.53112799999997
 20
472.71948200000003
 11
137.28112799999997
 21
472.71948200000003
  0
LINE
  8
_0-0_0
  6
CONTINUOUS
 62
    7
 10
146.78112799999997
 20
472.66598499999998
 11
146.53112799999997
 21
472.71948200000003
  0
LINE
  8
_0-0_0
  6
CONTINUOUS
 62
    7
 10
146.78112799999997
 20
472.27148399999999
 11
146.53112799999997
 21
472.5
  0
LINE
  8
_0-0_0
  6
CONTINUOUS
 62
    7
 10
146.53112799999997
 20
472.5
 11
137.28112799999997
 21
472.5
  0
LINE
  8
_0-0_0
  6
CONTINUOUS
 62
    7
 10
146.78112799999997
 20
472.27148399999999
 11
137.03112799999997
 21
472.27148399999999
  0
LINE
  8
_0-0_0
  6
CONTINUOUS
 62
    7
 10
146.78112799999997
 20
472.47543300000001
 11
146.53112799999997
 21
472.5
  0
LINE
  8
_0-0_0
  6
CONTINUOUS
 62
    7
 10
146.78112799999997
 20
472.05633499999999
 11
146.53112799999997
 21
472.26684599999999
  0
LINE
  8
_0-0_0
  6
CONTINUOUS
 62
    7
 10
146.53112799999997
 20
472.26684599999999
 11
137.28112799999997
 21
472.26684599999999
  0
LINE
  8
_0-0_0
  6
CONTINUOUS
 62
    7
 10
146.78112799999997
 20
472.05633499999999
 11
137.03112799999997
 21
472.05633499999999
  0
LINE
  8
_0-0_0
  6
CONTINUOUS
 62
    7
 10
146.78112799999997
 20
472.27148399999999
 11
146.53112799999997
 21
472.26684599999999
  0
LINE
  8
_0-0_0
  6
CONTINUOUS
 62
    7
 10
146.78112799999997
 20
471.832336
 11
146.53112799999997
 21
472.02255200000002
  0
LINE
  8
_0-0_0
  6
CONTINUOUS
 62
    7
 10
146.53112799999997
 20
472.02255200000002
 11
137.28112799999997
 21
472.02255200000002
  0
LINE
  8
_0-0_0
  6
CONTINUOUS
 62
    7
 10
146.78112799999997
 20
471.832336
 11
137.03112799999997
 21
471.832336
  0
LINE
  8
_0-0_0
  6
CONTINUOUS
 62
    7
 10
146.78112799999997
 20
472.05633499999999
 11
146.53112799999997
 21
472.02255200000002
  0
LINE
  8
_0-0_0
  6
CONTINUOUS
 62
    7
 10
146.78112799999997
 20
471.60199
 11
146.53112799999997
 21
471.76977499999998
  0
LINE
  8
_0-0_0
  6
CONTINUOUS
 62
    7
 10
146.53112799999997
 20
471.76977499999998
 11
137.28112799999997
 21
471.76977499999998
  0
LINE
  8
_0-0_0
  6
CONTINUOUS
 62
    7
 10
146.78112799999997
 20
471.60199
 11
137.03112799999997
 21
471.60199
  0
LINE
  8
_0-0_0
  6
CONTINUOUS
 62
    7
 10
146.78112799999997
 20
471.832336
 11
146.53112799999997
 21
471.76977499999998
  0
LINE
  8
_0-0_0
  6
CONTINUOUS
 62
    7
 10
146.78112799999997
 20
471.36776700000001
 11
146.53112799999997
 21
471.51132200000001
  0
LINE
  8
_0-0_0
  6
CONTINUOUS
 62
    7
 10
146.53112799999997
 20
471.51132200000001
 11
137.28112799999997
 21
471.51132200000001
  0
LINE
  8
_0-0_0
  6
CONTINUOUS
 62
    7
 10
146.78112799999997
 20
471.36776700000001
 11
137.03112799999997
 21
471.36776700000001
  0
LINE
  8
_0-0_0
  6
CONTINUOUS
 62
    7
 10
146.78112799999997
 20
471.60199
 11
146.53112799999997
 21
471.51132200000001
  0
LINE
  8
_0-0_0
  6
CONTINUOUS
 62
    7
 10
146.78112799999997
 20
471.13226300000002
 11
146.53112799999997
 21
471.25
  0
LINE
  8
_0-0_0
  6
CONTINUOUS
 62
    7
 10
146.53112799999997
 20
471.25
 11
137.28112799999997
 21
471.25
  0
LINE
  8
_0-0_0
  6
CONTINUOUS
 62
    7
 10
146.78112799999997
 20
471.13226300000002
 11
137.03112799999997
 21
471.13226300000002
  0
LINE
  8
_0-0_0
  6
CONTINUOUS
 62
    7
 10
146.78112799999997
 20
471.36776700000001
 11
146.53112799999997
 21
471.25
  0
LINE
  8
_0-0_0
  6
CONTINUOUS
 62
    7
 10
146.78112799999997
 20
470.89804099999998
 11
146.53112799999997
 21
470.98867799999999
  0
LINE
  8
_0-0_0
  6
CONTINUOUS
 62
    7
 10
146.53112799999997
 20
470.98867799999999
 11
137.28112799999997
 21
470.98867799999999
  0
LINE
  8
_0-0_0
  6
CONTINUOUS
 62
    7
 10
146.78112799999997
 20
470.89804099999998
 11
137.03112799999997
 21
470.89804099999998
  0
LINE
  8
_0-0_0
  6
CONTINUOUS
 62
    7
 10
146.78112799999997
 20
471.13226300000002
 11
146.53112799999997
 21
470.98867799999999
  0
LINE
  8
_0-0_0
  6
CONTINUOUS
 62
    7
 10
146.78112799999997
 20
470.667664
 11
146.53112799999997
 21
470.73022500000002
  0
LINE
  8
_0-0_0
  6
CONTINUOUS
 62
    7
 10
146.53112799999997
 20
470.73022500000002
 11
137.28112799999997
 21
470.73022500000002
  0
LINE
  8
_0-0_0
  6
CONTINUOUS
 62
    7
 10
146.78112799999997
 20
470.667664
 11
137.03112799999997
 21
470.667664
  0
LINE
  8
_0-0_0
  6
CONTINUOUS
 62
    7
 10
146.78112799999997
 20
470.89804099999998
 11
146.53112799999997
 21
470.73022500000002
  0
LINE
  8
_0-0_0
  6
CONTINUOUS
 62
    7
 10
146.78112799999997
 20
470.44366500000001
 11
146.53112799999997
 21
470.47747800000002
  0
LINE
  8
_0-0_0
  6
CONTINUOUS
 62
    7
 10
146.53112799999997
 20
470.47747800000002
 11
137.28112799999997
 21
470.47747800000002
  0
LINE
  8
_0-0_0
  6
CONTINUOUS
 62
    7
 10
146.78112799999997
 20
470.44366500000001
 11
137.03112799999997
 21
470.44366500000001
  0
LINE
  8
_0-0_0
  6
CONTINUOUS
 62
    7
 10
146.78112799999997
 20
470.667664
 11
146.53112799999997
 21
470.47747800000002
  0
LINE
  8
_0-0_0
  6
CONTINUOUS
 62
    7
 10
146.78112799999997
 20
470.22851600000001
 11
146.53112799999997
 21
470.23315400000001
  0
LINE
  8
_0-0_0
  6
CONTINUOUS
 62
    7
 10
146.53112799999997
 20
470.23315400000001
 11
137.28112799999997
 21
470.23315400000001
  0
LINE
  8
_0-0_0
  6
CONTINUOUS
 62
    7
 10
146.78112799999997
 20
470.22851600000001
 11
137.03112799999997
 21
470.22851600000001
  0
LINE
  8
_0-0_0
  6
CONTINUOUS
 62
    7
 10
146.78112799999997
 20
470.44366500000001
 11
146.53112799999997
 21
470.23315400000001
  0
LINE
  8
_0-0_0
  6
CONTINUOUS
 62
    7
 10
146.78112799999997
 20
470.02456699999999
 11
146.53112799999997
 21
470
  0
LINE
  8
_0-0_0
  6
CONTINUOUS
 62
    7
 10
146.53112799999997
 20
470
 11
137.28112799999997
 21
470
  0
LINE
  8
_0-0_0
  6
CONTINUOUS
 62
    7
 10
146.78112799999997
 20
470.22851600000001
 11
146.53112799999997
 21
470
  0
LINE
  8
_0-0_0
  6
CONTINUOUS
 62
    7
 10
137.03112799999997
 20
469.834045
 11
137.28112799999997
 21
469.78054800000001
  0
LINE
  8
_0-0_0
  6
CONTINUOUS
 62
    7
 10
137.03112799999997
 20
470.02456699999999
 11
137.28112799999997
 21
469.78054800000001
  0
LINE
  8
_0-0_0
  6
CONTINUOUS
 62
    7
 10
137.03112799999997
 20
469.65902699999998
 11
137.28112799999997
 21
469.577179
  0
LINE
  8
_0-0_0
  6
CONTINUOUS
 62
    7
 10
137.03112799999997
 20
469.834045
 11
137.28112799999997
 21
469.577179
  0
LINE
  8
_0-0_0
  6
CONTINUOUS
 62
    7
 10
137.03112799999997
 20
469.50143400000002
 11
137.28112799999997
 21
469.39215100000001
  0
LINE
  8
_0-0_0
  6
CONTINUOUS
 62
    7
 10
137.03112799999997
 20
469.65902699999998
 11
137.28112799999997
 21
469.39215100000001
  0
LINE
  8
_0-0_0
  6
CONTINUOUS
 62
    7
 10
137.03112799999997
 20
469.36300699999998
 11
137.28112799999997
 21
469.22747800000002
  0
LINE
  8
_0-0_0
  6
CONTINUOUS
 62
    7
 10
137.03112799999997
 20
469.50143400000002
 11
137.28112799999997
 21
469.22747800000002
  0
LINE
  8
_0-0_0
  6
CONTINUOUS
 62
    7
 10
137.03112799999997
 20
469.24523900000003
 11
137.28112799999997
 21
469.08496100000002
  0
LINE
  8
_0-0_0
  6
CONTINUOUS
 62
    7
 10
137.03112799999997
 20
469.36300699999998
 11
137.28112799999997
 21
469.08496100000002
  0
LINE
  8
_0-0_0
  6
CONTINUOUS
 62
    7
 10
137.03112799999997
 20
469.14944500000001
 11
137.28112799999997
 21
468.96615600000001
  0
LINE
  8
_0-0_0
  6
CONTINUOUS
 62
    7
 10
137.03112799999997
 20
469.24523900000003
 11
137.28112799999997
 21
468.96615600000001
  0
LINE
  8
_0-0_0
  6
CONTINUOUS
 62
    7
 10
137.03112799999997
 20
469.07666
 11
137.28112799999997
 21
468.87237499999998
  0
LINE
  8
_0-0_0
  6
CONTINUOUS
 62
    7
 10
137.03112799999997
 20
469.14944500000001
 11
137.28112799999997
 21
468.87237499999998
  0
LINE
  8
_0-0_0
  6
CONTINUOUS
 62
    7
 10
137.03112799999997
 20
469.02771000000001
 11
137.28112799999997
 21
468.80462599999998
  0
LINE
  8
_0-0_0
  6
CONTINUOUS
 62
    7
 10
137.03112799999997
 20
469.07666
 11
137.28112799999997
 21
468.80462599999998
  0
LINE
  8
_0-0_0
  6
CONTINUOUS
 62
    7
 10
137.03112799999997
 20
469.00308200000001
 11
137.28112799999997
 21
468.76370200000002
  0
LINE
  8
_0-0_0
  6
CONTINUOUS
 62
    7
 10
137.03112799999997
 20
469.02771000000001
 11
137.28112799999997
 21
468.76370200000002
  0
LINE
  8
_0-0_0
  6
CONTINUOUS
 62
    7
 10
137.03112799999997
 20
469.00308200000001
 11
137.28112799999997
 21
468.75
  0
LINE
  8
_0-0_0
  6
CONTINUOUS
 62
    7
 10
147.03112799999997
 20
473.00518799999998
 11
147.03112799999997
 21
473.25
  0
LINE
  8
_0-0_0
  6
CONTINUOUS
 62
    7
 10
146.78112799999997
 20
470.02456699999999
 11
146.53112799999997
 21
469.78054800000001
  0
LINE
  8
_0-0_0
  6
CONTINUOUS
 62
    7
 10
146.78112799999997
 20
469.834045
 11
146.53112799999997
 21
469.78054800000001
  0
LINE
  8
_0-0_0
  6
CONTINUOUS
 62
    7
 10
146.78112799999997
 20
469.834045
 11
146.53112799999997
 21
469.577179
  0
LINE
  8
_0-0_0
  6
CONTINUOUS
 62
    7
 10
146.78112799999997
 20
469.65902699999998
 11
146.53112799999997
 21
469.577179
  0
LINE
  8
_0-0_0
  6
CONTINUOUS
 62
    7
 10
146.78112799999997
 20
469.65902699999998
 11
146.53112799999997
 21
469.39215100000001
  0
LINE
  8
_0-0_0
  6
CONTINUOUS
 62
    7
 10
146.78112799999997
 20
469.50143400000002
 11
146.53112799999997
 21
469.39215100000001
  0
LINE
  8
_0-0_0
  6
CONTINUOUS
 62
    7
 10
146.78112799999997
 20
469.50143400000002
 11
146.53112799999997
 21
469.22747800000002
  0
LINE
  8
_0-0_0
  6
CONTINUOUS
 62
    7
 10
146.78112799999997
 20
469.36300699999998
 11
146.53112799999997
 21
469.22747800000002
  0
LINE
  8
_0-0_0
  6
CONTINUOUS
 62
    7
 10
146.78112799999997
 20
469.36300699999998
 11
146.53112799999997
 21
469.08496100000002
  0
LINE
  8
_0-0_0
  6
CONTINUOUS
 62
    7
 10
146.78112799999997
 20
469.24523900000003
 11
146.53112799999997
 21
469.08496100000002
  0
LINE
  8
_0-0_0
  6
CONTINUOUS
 62
    7
 10
146.78112799999997
 20
469.24523900000003
 11
146.53112799999997
 21
468.96615600000001
  0
LINE
  8
_0-0_0
  6
CONTINUOUS
 62
    7
 10
146.78112799999997
 20
469.14944500000001
 11
146.53112799999997
 21
468.96615600000001
  0
LINE
  8
_0-0_0
  6
CONTINUOUS
 62
    7
 10
146.78112799999997
 20
469.14944500000001
 11
146.53112799999997
 21
468.87237499999998
  0
LINE
  8
_0-0_0
  6
CONTINUOUS
 62
    7
 10
146.78112799999997
 20
469.07666
 11
146.53112799999997
 21
468.87237499999998
  0
LINE
  8
_0-0_0
  6
CONTINUOUS
 62
    7
 10
146.78112799999997
 20
469.07666
 11
146.53112799999997
 21
468.80462599999998
  0
LINE
  8
_0-0_0
  6
CONTINUOUS
 62
    7
 10
146.78112799999997
 20
469.02771000000001
 11
146.53112799999997
 21
468.80462599999998
  0
LINE
  8
_0-0_0
  6
CONTINUOUS
 62
    7
 10
146.78112799999997
 20
469.02771000000001
 11
146.53112799999997
 21
468.76370200000002
  0
LINE
  8
_0-0_0
  6
CONTINUOUS
 62
    7
 10
146.78112799999997
 20
469.00308200000001
 11
146.53112799999997
 21
468.76370200000002
  0
LINE
  8
_0-0_0
  6
CONTINUOUS
 62
    7
 10
146.78112799999997
 20
469.00308200000001
 11
146.53112799999997
 21
468.75
  0
LINE
  8
_0-0_0
  6
CONTINUOUS
 62
    7
 10
147.03112799999997
 20
469.25
 11
147.03112799999997
 21
473.00518799999998
  0
LINE
  8
_0-0_0
  6
CONTINUOUS
 62
    7
 10
146.53112799999997
 20
469.78054800000001
 11
137.28112799999997
 21
469.78054800000001
  0
LINE
  8
_0-0_0
  6
CONTINUOUS
 62
    7
 10
146.53112799999997
 20
469.577179
 11
137.28112799999997
 21
469.577179
  0
LINE
  8
_0-0_0
  6
CONTINUOUS
 62
    7
 10
146.53112799999997
 20
469.39215100000001
 11
137.28112799999997
 21
469.39215100000001
  0
LINE
  8
_0-0_0
  6
CONTINUOUS
 62
    7
 10
146.53112799999997
 20
469.22747800000002
 11
137.28112799999997
 21
469.22747800000002
  0
LINE
  8
_0-0_0
  6
CONTINUOUS
 62
    7
 10
146.53112799999997
 20
469.08496100000002
 11
137.28112799999997
 21
469.08496100000002
  0
LINE
  8
_0-0_0
  6
CONTINUOUS
 62
    7
 10
146.53112799999997
 20
468.96615600000001
 11
137.28112799999997
 21
468.96615600000001
  0
LINE
  8
_0-0_0
  6
CONTINUOUS
 62
    7
 10
146.53112799999997
 20
468.87237499999998
 11
137.28112799999997
 21
468.87237499999998
  0
LINE
  8
_0-0_0
  6
CONTINUOUS
 62
    7
 10
146.53112799999997
 20
468.80462599999998
 11
137.28112799999997
 21
468.80462599999998
  0
LINE
  8
_0-0_0
  6
CONTINUOUS
 62
    7
 10
146.53112799999997
 20
468.76370200000002
 11
137.28112799999997
 21
468.76370200000002
  0
LINE
  8
_0-0_0
  6
CONTINUOUS
 62
    7
 10
146.53112799999997
 20
468.75
 11
137.28112799999997
 21
468.75
  0
LINE
  8
_0-0_0
  6
CONTINUOUS
 62
    7
 10
10.031096999999932
 20
469
 11
7.5754239999999982
 21
469
  0
LINE
  8
_0-0_0
  6
CONTINUOUS
 62
    7
 10
8.0765079999999898
 20
473.5
 11
7.5754239999999982
 21
473.5
  0
LINE
  8
_0-0_0
  6
CONTINUOUS
 62
    7
 10
7.4311069999999972
 20
469.25
 11
7.5754239999999982
 21
469
  0
LINE
  8
_0-0_0
  6
CONTINUOUS
 62
    7
 10
7.4311069999999972
 20
473.25
 11
7.5754239999999982
 21
473.5
  0
LINE
  8
_0-0_0
  6
CONTINUOUS
 62
    7
 10
111.03109699999993
 20
452.40002399999997
 11
137.03112799999997
 21
452.40002399999997
  0
LINE
  8
_0-0_0
  6
CONTINUOUS
 62
    7
 10
111.03109699999993
 20
456.90002399999997
 11
137.03112799999997
 21
456.90002399999997
  0
LINE
  8
_0-0_0
  6
CONTINUOUS
 62
    7
 10
137.03112799999997
 20
452.40002399999997
 11
137.28112799999997
 21
452.15002399999997
  0
LINE
  8
_0-0_0
  6
CONTINUOUS
 62
    7
 10
137.03112799999997
 20
456.90002399999997
 11
137.28112799999997
 21
457.15002399999997
  0
LINE
  8
_0-0_0
  6
CONTINUOUS
 62
    7
 10
133.03112799999997
 20
468.20001200000002
 11
131.78112799999997
 21
469.45001200000002
  0
LINE
  8
_0-0_0
  6
CONTINUOUS
 62
    7
 10
133.03112799999997
 20
457.70001200000002
 11
132.23107899999997
 21
456.89999399999999
  0
LINE
  8
_0-0_0
  6
CONTINUOUS
 62
    7
 10
147.03112799999997
 20
452.65002399999997
 11
146.53124999999994
 21
452.15014600000001
  0
LINE
  8
_0-0_0
  6
CONTINUOUS
 62
    7
 10
147.03112799999997
 20
456.65002399999997
 11
146.53124999999994
 21
457.14984099999998
  0
LINE
  8
_0-0_0
  6
CONTINUOUS
 62
    7
 10
133.03112799999997
 20
457.95001200000002
 11
133.43109099999998
 21
457.95001200000002
  0
LINE
  8
_0-0_0
  6
CONTINUOUS
 62
    7
 10
133.03112799999997
 20
467.95001200000002
 11
133.43109099999998
 21
467.95001200000002
  0
LINE
  8
_0-0_0
  6
CONTINUOUS
 62
    7
 10
134.23107899999997
 20
458.41189600000001
 11
133.43109099999998
 21
457.95001200000002
  0
LINE
  8
_0-0_0
  6
CONTINUOUS
 62
    7
 10
134.23107899999997
 20
467.48812900000001
 11
133.43109099999998
 21
467.95001200000002
  0
LINE
  8
_0-0_0
  6
CONTINUOUS
 62
    7
 10
134.23107899999997
 20
458.95001200000002
 11
192.23107899999997
 21
458.95001200000002
  0
LINE
  8
_0-0_0
  6
CONTINUOUS
 62
    7
 10
134.23107899999997
 20
466.95001200000002
 11
192.23107899999997
 21
466.95001200000002
  0
LINE
  8
_0-0_0
  6
CONTINUOUS
 62
    7
 10
116.78106699999995
 20
473.5
 11
137.03112799999997
 21
473.5
  0
LINE
  8
_0-0_0
  6
CONTINUOUS
 62
    7
 10
137.03112799999997
 20
473.5
 11
137.28112799999997
 21
473.75
  0
LINE
  8
_0-0_0
  6
CONTINUOUS
 62
    7
 10
132.23107899999997
 20
469
 11
137.03112799999997
 21
469
  0
LINE
  8
_0-0_0
  6
CONTINUOUS
 62
    7
 10
137.03112799999997
 20
469
 11
137.28112799999997
 21
468.75
  0
LINE
  8
_0-0_0
  6
CONTINUOUS
 62
    7
 10
147.03112799999997
 20
473.25
 11
146.53124999999994
 21
473.74984699999999
  0
LINE
  8
_0-0_0
  6
CONTINUOUS
 62
    7
 10
147.03112799999997
 20
469.25
 11
146.53124999999994
 21
468.75015300000001
  0
LINE
  8
_0-0_0
  6
CONTINUOUS
 62
    7
 10
975.03118900000004
 20
505.15002399999997
 11
975.03118900000004
 21
492.15002399999997
  0
LINE
  8
_0-0_0
  6
CONTINUOUS
 62
    7
 10
2.0310969999999315
 20
505.15002399999997
 11
2.0310969999999315
 21
492.15002399999997
  0
LINE
  8
_0-0_0
  6
CONTINUOUS
 62
    7
 10
2.0310969999999315
 20
505.15002399999997
 11
975.03118900000004
 21
505.15002399999997
  0
LINE
  8
_0-0_0
  6
CONTINUOUS
 62
    7
 10
2.0310969999999315
 20
505.15002399999997
 11
2.0310969999999315
 21
523.75
  0
LINE
  8
_0-0_0
  6
CONTINUOUS
 62
    7
 10
2.0310969999999315
 20
526.25
 11
2.0310969999999315
 21
523.75
  0
LINE
  8
_0-0_0
  6
CONTINUOUS
 62
    7
 10
2.0310969999999315
 20
526.75
 11
2.0310969999999315
 21
526.25
  0
LINE
  8
_0-0_0
  6
CONTINUOUS
 62
    7
 10
2.0310969999999315
 20
478.75
 11
2.0310969999999315
 21
478.25
  0
LINE
  8
_0-0_0
  6
CONTINUOUS
 62
    7
 10
2.0310969999999315
 20
483.75
 11
2.0310969999999315
 21
478.75
  0
LINE
  8
_0-0_0
  6
CONTINUOUS
 62
    7
 10
2.0310969999999315
 20
484.25
 11
2.0310969999999315
 21
483.75
  0
LINE
  8
_0-0_0
  6
CONTINUOUS
 62
    7
 10
2.0310969999999315
 20
484.75
 11
2.0310969999999315
 21
484.25
  0
LINE
  8
_0-0_0
  6
CONTINUOUS
 62
    7
 10
2.0310969999999315
 20
487.95001200000002
 11
2.0310969999999315
 21
484.75
  0
LINE
  8
_0-0_0
  6
CONTINUOUS
 62
    7
 10
2.0310969999999315
 20
487.95001200000002
 11
2.0310969999999315
 21
492.15002399999997
  0
LINE
  8
_0-0_0
  6
CONTINUOUS
 62
    7
 10
2.0310969999999315
 20
492.15002399999997
 11
975.03118900000004
 21
492.15002399999997
  0
LINE
  8
_0-0_0
  6
CONTINUOUS
 62
    7
 10
975.03118900000004
 20
487.95001200000002
 11
975.03118900000004
 21
492.15002399999997
  0
LINE
  8
_0-0_0
  6
CONTINUOUS
 62
    7
 10
975.03118900000004
 20
484.75
 11
975.03118900000004
 21
487.95001200000002
  0
LINE
  8
_0-0_0
  6
CONTINUOUS
 62
    7
 10
975.03118900000004
 20
484.75
 11
975.03118900000004
 21
484.25
  0
LINE
  8
_0-0_0
  6
CONTINUOUS
 62
    7
 10
975.03118900000004
 20
484.25
 11
975.03118900000004
 21
483.75
  0
LINE
  8
_0-0_0
  6
CONTINUOUS
 62
    7
 10
975.03118900000004
 20
483.75
 11
975.03118900000004
 21
478.75
  0
LINE
  8
_0-0_0
  6
CONTINUOUS
 62
    7
 10
975.03118900000004
 20
478.75
 11
975.03118900000004
 21
478.25
  0
LINE
  8
_0-0_0
  6
CONTINUOUS
 62
    7
 10
975.03118900000004
 20
526.75
 11
975.03118900000004
 21
526.25
  0
LINE
  8
_0-0_0
  6
CONTINUOUS
 62
    7
 10
975.03118900000004
 20
523.75
 11
975.03118900000004
 21
526.25
  0
LINE
  8
_0-0_0
  6
CONTINUOUS
 62
    7
 10
975.03118900000004
 20
505.15002399999997
 11
975.03118900000004
 21
523.75
  0
CIRCLE
  8
_0-0_0
  6
CONTINUOUS
 62
    7
 10
938.53106699999989
 20
514.25
 40
6
  0
CIRCLE
  8
_0-0_0
  6
CONTINUOUS
 62
    7
 10
838.53106700000001
 20
514.25
 40
6
  0
CIRCLE
  8
_0-0_0
  6
CONTINUOUS
 62
    7
 10
738.53106700000001
 20
514.25
 40
6
  0
CIRCLE
  8
_0-0_0
  6
CONTINUOUS
 62
    7
 10
638.53106700000001
 20
514.25
 40
6
  0
CIRCLE
  8
_0-0_0
  6
CONTINUOUS
 62
    7
 10
538.53106700000001
 20
514.25
 40
6
  0
CIRCLE
  8
_0-0_0
  6
CONTINUOUS
 62
    7
 10
438.53112799999997
 20
514.25
 40
6
  0
CIRCLE
  8
_0-0_0
  6
CONTINUOUS
 62
    7
 10
338.53112799999997
 20
514.25
 40
6
  0
CIRCLE
  8
_0-0_0
  6
CONTINUOUS
 62
    7
 10
238.53112799999997
 20
514.25
 40
6
  0
CIRCLE
  8
_0-0_0
  6
CONTINUOUS
 62
    7
 10
138.53112799999997
 20
514.25
 40
6
  0
CIRCLE
  8
_0-0_0
  6
CONTINUOUS
 62
    7
 10
38.531096999999932
 20
514.25
 40
6
  0
LINE
  8
_0-0_0
  6
CONTINUOUS
 62
    7
 10
2.0310969999999315
 20
523.75
 11
975.03118900000004
 21
523.75
  0
LINE
  8
_0-0_0
  6
CONTINUOUS
 62
    7
 10
2.0310969999999315
 20
526.75
 11
975.03118900000004
 21
526.75
  0
LINE
  8
_0-0_0
  6
CONTINUOUS
 62
    7
 10
2.0310969999999315
 20
526.25
 11
-0.4689030000000684
 21
526.25
  0
LINE
  8
_0-0_0
  6
CONTINUOUS
 62
    7
 10
-0.4689030000000684
 20
526.25
 11
-0.4689030000000684
 21
525.75
  0
LINE
  8
_0-0_0
  6
CONTINUOUS
 62
    7
 10
-0.4689030000000684
 20
525.75
 11
-0.4689030000000684
 21
485.25
  0
LINE
  8
_0-0_0
  6
CONTINUOUS
 62
    7
 10
2.0310969999999315
 20
484.75
 11
-0.4689030000000684
 21
484.75
  0
LINE
  8
_0-0_0
  6
CONTINUOUS
 62
    7
 10
-0.4689030000000684
 20
485.25
 11
-0.4689030000000684
 21
484.75
  0
LINE
  8
_0-0_0
  6
CONTINUOUS
 62
    7
 10
-0.4689030000000684
 20
484.75
 11
-0.4689030000000684
 21
483.75
  0
LINE
  8
_0-0_0
  6
CONTINUOUS
 62
    7
 10
-0.4689030000000684
 20
483.75
 11
-0.4689030000000684
 21
479.25
  0
LINE
  8
_0-0_0
  6
CONTINUOUS
 62
    7
 10
2.0310969999999315
 20
478.75
 11
-0.4689030000000684
 21
478.75
  0
LINE
  8
_0-0_0
  6
CONTINUOUS
 62
    7
 10
-0.4689030000000684
 20
479.25
 11
-0.4689030000000684
 21
478.75
  0
LINE
  8
_0-0_0
  6
CONTINUOUS
 62
    7
 10
2.0310969999999315
 20
478.25
 11
975.03118900000004
 21
478.25
  0
LINE
  8
_0-0_0
  6
CONTINUOUS
 62
    7
 10
2.0310969999999315
 20
484.25
 11
975.03118900000004
 21
484.25
  0
LINE
  8
_0-0_0
  6
CONTINUOUS
 62
    7
 10
2.0310969999999315
 20
487.95001200000002
 11
975.03118900000004
 21
487.95001200000002
  0
LINE
  8
_0-0_0
  6
CONTINUOUS
 62
    7
 10
975.03118900000004
 20
526.25
 11
977.53118900000004
 21
526.25
  0
LINE
  8
_0-0_0
  6
CONTINUOUS
 62
    7
 10
977.53118900000004
 20
526.25
 11
977.53118900000004
 21
525.75
  0
LINE
  8
_0-0_0
  6
CONTINUOUS
 62
    7
 10
977.53118900000004
 20
525.75
 11
977.53118900000004
 21
485.25
  0
LINE
  8
_0-0_0
  6
CONTINUOUS
 62
    7
 10
975.03118900000004
 20
484.75
 11
977.53118900000004
 21
484.75
  0
LINE
  8
_0-0_0
  6
CONTINUOUS
 62
    7
 10
977.53118900000004
 20
485.25
 11
977.53118900000004
 21
484.75
  0
LINE
  8
_0-0_0
  6
CONTINUOUS
 62
    7
 10
977.53118900000004
 20
484.75
 11
977.53118900000004
 21
483.75
  0
LINE
  8
_0-0_0
  6
CONTINUOUS
 62
    7
 10
977.53118900000004
 20
483.75
 11
977.53118900000004
 21
479.25
  0
LINE
  8
_0-0_0
  6
CONTINUOUS
 62
    7
 10
975.03118900000004
 20
478.75
 11
977.53118900000004
 21
478.75
  0
LINE
  8
_0-0_0
  6
CONTINUOUS
 62
    7
 10
977.53118900000004
 20
479.25
 11
977.53118900000004
 21
478.75
  0
ARC
  8
_0-0_0
  6
CONTINUOUS
 62
    7
 10
59.531096999999932
 20
479.25
 40
0.5
 50
269.99999700000001
 51
0
  0
LINE
  8
_0-0_0
  6
CONTINUOUS
 62
    7
 10
59.531096999999932
 20
478.75
 11
52.531096999999932
 21
478.75
  0
ARC
  8
_0-0_0
  6
CONTINUOUS
 62
    7
 10
52.531096999999932
 20
479.25
 40
0.5
 50
179.99999099999999
 51
269.99999700000001
  0
LINE
  8
_0-0_0
  6
CONTINUOUS
 62
    7
 10
52.031096999999932
 20
483.25
 11
52.031096999999932
 21
479.25
  0
ARC
  8
_0-0_0
  6
CONTINUOUS
 62
    7
 10
52.531096999999932
 20
483.25
 40
0.5
 50
90.000003000000007
 51
179.99999099999999
  0
ARC
  8
_0-0_0
  6
CONTINUOUS
 62
    7
 10
59.531096999999932
 20
483.25
 40
0.5
 50
0
 51
90.000003000000007
  0
LINE
  8
_0-0_0
  6
CONTINUOUS
 62
    7
 10
52.531096999999932
 20
483.75
 11
59.531096999999932
 21
483.75
  0
LINE
  8
_0-0_0
  6
CONTINUOUS
 62
    7
 10
975.03118900000004
 20
526.75
 11
975.03118900000004
 21
526.45001200000002
  0
LINE
  8
_0-0_0
  6
CONTINUOUS
 62
    7
 10
975.03118900000004
 20
526.45001200000002
 11
975.03118900000004
 21
526.25
  0
CIRCLE
  8
_0-0_0
  6
CONTINUOUS
 62
    7
 10
938.53106699999989
 20
514.25
 40
5.5
  0
CIRCLE
  8
_0-0_0
  6
CONTINUOUS
 62
    7
 10
838.53106700000001
 20
514.25
 40
5.5
  0
CIRCLE
  8
_0-0_0
  6
CONTINUOUS
 62
    7
 10
738.53106700000001
 20
514.25
 40
5.5
  0
CIRCLE
  8
_0-0_0
  6
CONTINUOUS
 62
    7
 10
638.53106700000001
 20
514.25
 40
5.5
  0
CIRCLE
  8
_0-0_0
  6
CONTINUOUS
 62
    7
 10
538.53106700000001
 20
514.25
 40
5.5
  0
CIRCLE
  8
_0-0_0
  6
CONTINUOUS
 62
    7
 10
438.53112799999997
 20
514.25
 40
5.5
  0
CIRCLE
  8
_0-0_0
  6
CONTINUOUS
 62
    7
 10
338.53112799999997
 20
514.25
 40
5.5
  0
CIRCLE
  8
_0-0_0
  6
CONTINUOUS
 62
    7
 10
238.53112799999997
 20
514.25
 40
5.5
  0
CIRCLE
  8
_0-0_0
  6
CONTINUOUS
 62
    7
 10
138.53112799999997
 20
514.25
 40
5.5
  0
CIRCLE
  8
_0-0_0
  6
CONTINUOUS
 62
    7
 10
38.531096999999932
 20
514.25
 40
5.5
  0
LINE
  8
_0-0_0
  6
CONTINUOUS
 62
    7
 10
60.031096999999932
 20
479.25
 11
60.031096999999932
 21
483.25
  0
CIRCLE
  8
_0-0_0
  6
CONTINUOUS
 62
    7
 10
938.53106699999989
 20
514.25
 40
3.5
  0
CIRCLE
  8
_0-0_0
  6
CONTINUOUS
 62
    7
 10
838.53106700000001
 20
514.25
 40
3.5
  0
CIRCLE
  8
_0-0_0
  6
CONTINUOUS
 62
    7
 10
738.53106700000001
 20
514.25
 40
3.5
  0
CIRCLE
  8
_0-0_0
  6
CONTINUOUS
 62
    7
 10
638.53106700000001
 20
514.25
 40
3.5
  0
CIRCLE
  8
_0-0_0
  6
CONTINUOUS
 62
    7
 10
538.53106700000001
 20
514.25
 40
3.5
  0
CIRCLE
  8
_0-0_0
  6
CONTINUOUS
 62
    7
 10
438.53112799999997
 20
514.25
 40
3.5
  0
CIRCLE
  8
_0-0_0
  6
CONTINUOUS
 62
    7
 10
338.53112799999997
 20
514.25
 40
3.5
  0
CIRCLE
  8
_0-0_0
  6
CONTINUOUS
 62
    7
 10
238.53112799999997
 20
514.25
 40
3.5
  0
CIRCLE
  8
_0-0_0
  6
CONTINUOUS
 62
    7
 10
138.53112799999997
 20
514.25
 40
3.5
  0
CIRCLE
  8
_0-0_0
  6
CONTINUOUS
 62
    7
 10
38.531096999999932
 20
514.25
 40
3.5
  0
ARC
  8
_0-0_0
  6
CONTINUOUS
 62
    7
 10
57.331099999999992
 20
482.95001200000002
 40
0.2
 50
339.62356199999999
 51
90.000002999999978
  0
LINE
  8
_0-0_0
  6
CONTINUOUS
 62
    7
 10
57.518584999999973
 20
482.88037100000003
 11
56.218581999999969
 21
479.38037100000003
  0
ARC
  8
_0-0_0
  6
CONTINUOUS
 62
    7
 10
56.031096999999932
 20
479.45001200000002
 40
0.2
 50
200.37643
 51
339.62356199999999
  0
LINE
  8
_0-0_0
  6
CONTINUOUS
 62
    7
 10
54.543624999999963
 20
482.88037100000003
 11
55.843612999999948
 21
479.38037100000003
  0
ARC
  8
_0-0_0
  6
CONTINUOUS
 62
    7
 10
54.731093999999985
 20
482.95001200000002
 40
0.2
 50
90.000003000000007
 51
200.37643
  0
LINE
  8
_0-0_0
  6
CONTINUOUS
 62
    7
 10
54.731093999999985
 20
483.15002399999997
 11
57.331099999999992
 21
483.15002399999997
  0
ARC
  8
_0-0_0
  6
CONTINUOUS
 62
    7
 10
894.73113999999987
 20
482.95001200000002
 40
0.2
 50
90.000003000000007
 51
200.37643
  0
LINE
  8
_0-0_0
  6
CONTINUOUS
 62
    7
 10
894.73113999999987
 20
483.15002399999997
 11
897.33111600000007
 21
483.15002399999997
  0
ARC
  8
_0-0_0
  6
CONTINUOUS
 62
    7
 10
892.53106699999989
 20
483.25
 40
0.5
 50
90.000003000000007
 51
179.99999099999999
  0
LINE
  8
_0-0_0
  6
CONTINUOUS
 62
    7
 10
892.03106699999989
 20
483.25
 11
892.03106699999989
 21
479.25
  0
ARC
  8
_0-0_0
  6
CONTINUOUS
 62
    7
 10
892.53106699999989
 20
479.25
 40
0.5
 50
179.99999099999999
 51
269.99999700000001
  0
LINE
  8
_0-0_0
  6
CONTINUOUS
 62
    7
 10
899.53106699999989
 20
478.75
 11
892.53106699999989
 21
478.75
  0
ARC
  8
_0-0_0
  6
CONTINUOUS
 62
    7
 10
899.53106699999989
 20
479.25
 40
0.5
 50
269.99999700000001
 51
0
  0
LINE
  8
_0-0_0
  6
CONTINUOUS
 62
    7
 10
900.03106699999989
 20
479.25
 11
900.03106699999989
 21
483.25
  0
ARC
  8
_0-0_0
  6
CONTINUOUS
 62
    7
 10
899.53106699999989
 20
483.25
 40
0.5
 50
0
 51
90.000003000000007
  0
LINE
  8
_0-0_0
  6
CONTINUOUS
 62
    7
 10
892.53106699999989
 20
483.75
 11
899.53106699999989
 21
483.75
  0
LINE
  8
_0-0_0
  6
CONTINUOUS
 62
    7
 10
894.54363999999987
 20
482.88037100000003
 11
895.84356699999989
 21
479.38037100000003
  0
ARC
  8
_0-0_0
  6
CONTINUOUS
 62
    7
 10
896.03106699999989
 20
479.45001200000002
 40
0.2
 50
200.37643
 51
339.62356199999999
  0
LINE
  8
_0-0_0
  6
CONTINUOUS
 62
    7
 10
897.51861600000007
 20
482.88037100000003
 11
896.21856699999989
 21
479.38037100000003
  0
ARC
  8
_0-0_0
  6
CONTINUOUS
 62
    7
 10
897.33111600000007
 20
482.95001200000002
 40
0.2
 50
339.62356199999999
 51
90.000002999999978
  0
LINE
  8
_0-0_0
  6
CONTINUOUS
 62
    7
 10
-55.893555000000049
 20
476.25
 11
-55.793556000000024
 21
476.25
  0
LINE
  8
_0-0_0
  6
CONTINUOUS
 62
    7
 10
-40.093552000000045
 20
476.25
 11
-40.793556000000024
 21
476.25
  0
LINE
  8
_0-0_0
  6
CONTINUOUS
 62
    7
 10
-40.093552000000045
 20
476.25
 11
-38.893555000000049
 21
476.25
  0
ARC
  8
_0-0_0
  6
CONTINUOUS
 62
    7
 10
-38.893555000000049
 20
475.75
 40
0.5
 50
0
 51
90.000003000000007
  0
ARC
  8
_0-0_0
  6
CONTINUOUS
 62
    7
 10
-40.093552000000045
 20
475.75
 40
0.5
 50
90.000003000000007
 51
179.99999099999999
  0
ARC
  8
_0-0_0
  6
CONTINUOUS
 62
    7
 10
-55.893555000000049
 20
475.75
 40
0.5
 50
90.000003000000007
 51
179.99999099999999
  0
ARC
  8
_0-0_0
  6
CONTINUOUS
 62
    7
 10
-54.393555000000049
 20
476.75
 40
0.5
 50
90.000003000000007
 51
126.868797
  0
LINE
  8
_0-0_0
  6
CONTINUOUS
 62
    7
 10
-52.893555000000049
 20
477.25
 11
-54.393555000000049
 21
477.25
  0
ARC
  8
_0-0_0
  6
CONTINUOUS
 62
    7
 10
-52.893555000000049
 20
478.25
 40
1
 50
269.99999700000001
 51
0
  0
LINE
  8
_0-0_0
  6
CONTINUOUS
 62
    7
 10
-51.893555000000049
 20
478.75
 11
-51.893555000000049
 21
478.25
  0
LINE
  8
_0-0_0
  6
CONTINUOUS
 62
    7
 10
-51.393555000000049
 20
478.75
 11
-51.393555000000049
 21
477.75
  0
ARC
  8
_0-0_0
  6
CONTINUOUS
 62
    7
 10
-52.893555000000049
 20
477.75
 40
1.5
 50
336.42205899999999
 51
0
  0
ARC
  8
_0-0_0
  6
CONTINUOUS
 62
    7
 10
-41.293549000000041
 20
477.75
 40
1.5
 50
179.99999099999999
 51
203.57793100000001
  0
LINE
  8
_0-0_0
  6
CONTINUOUS
 62
    7
 10
-39.293549000000041
 20
476.75
 11
-39.293549000000041
 21
476.25
  0
ARC
  8
_0-0_0
  6
CONTINUOUS
 62
    7
 10
-39.793549000000041
 20
476.75
 40
0.5
 50
0
 51
90.000003000000007
  0
LINE
  8
_0-0_0
  6
CONTINUOUS
 62
    7
 10
-41.293549000000041
 20
477.25
 11
-39.793549000000041
 21
477.25
  0
ARC
  8
_0-0_0
  6
CONTINUOUS
 62
    7
 10
-41.293549000000041
 20
478.25
 40
1
 50
179.99999099999999
 51
269.99999700000001
  0
LINE
  8
_0-0_0
  6
CONTINUOUS
 62
    7
 10
-42.293549000000041
 20
478.75
 11
-42.293549000000041
 21
478.25
  0
LINE
  8
_0-0_0
  6
CONTINUOUS
 62
    7
 10
-42.793549000000041
 20
478.75
 11
-42.793549000000041
 21
477.75
  0
LINE
  8
_0-0_0
  6
CONTINUOUS
 62
    7
 10
-38.393555000000049
 20
449.25
 11
-38.393555000000049
 21
450.15002399999997
  0
LINE
  8
_0-0_0
  6
CONTINUOUS
 62
    7
 10
-38.393555000000049
 20
450.15002399999997
 11
-38.393555000000049
 21
452.65002399999997
  0
LINE
  8
_0-0_0
  6
CONTINUOUS
 62
    7
 10
-38.393555000000049
 20
452.65002399999997
 11
-38.393555000000049
 21
473.25
  0
LINE
  8
_0-0_0
  6
CONTINUOUS
 62
    7
 10
-38.393555000000049
 20
473.25
 11
-38.393555000000049
 21
475.75
  0
LINE
  8
_0-0_0
  6
CONTINUOUS
 62
    7
 10
-40.593552000000045
 20
475.75
 11
-40.593552000000045
 21
474.50500499999998
  0
LINE
  8
_0-0_0
  6
CONTINUOUS
 62
    7
 10
-42.99355300000002
 20
477.15002399999997
 11
-42.99355300000002
 21
478.55001800000002
  0
ARC
  8
_0-0_0
  6
CONTINUOUS
 62
    7
 10
-43.49355300000002
 20
478.55001800000002
 40
0.5
 50
0
 51
23.579369
  0
LINE
  8
_0-0_0
  6
CONTINUOUS
 62
    7
 10
-51.193550000000073
 20
477.15002399999997
 11
-51.193550000000073
 21
478.55001800000002
  0
ARC
  8
_0-0_0
  6
CONTINUOUS
 62
    7
 10
-50.693550000000073
 20
478.55001800000002
 40
0.5
 50
156.420635
 51
179.99999099999999
  0
LINE
  8
_0-0_0
  6
CONTINUOUS
 62
    7
 10
-56.393555000000049
 20
449.25
 11
-56.393555000000049
 21
459.45001200000002
  0
LINE
  8
_0-0_0
  6
CONTINUOUS
 62
    7
 10
-56.393555000000049
 20
459.45001200000002
 11
-56.393555000000049
 21
460.45001200000002
  0
LINE
  8
_0-0_0
  6
CONTINUOUS
 62
    7
 10
-56.393555000000049
 20
460.45001200000002
 11
-56.393555000000049
 21
465.45001200000002
  0
LINE
  8
_0-0_0
  6
CONTINUOUS
 62
    7
 10
-56.393555000000049
 20
465.45001200000002
 11
-56.393555000000049
 21
466.45001200000002
  0
LINE
  8
_0-0_0
  6
CONTINUOUS
 62
    7
 10
-56.393555000000049
 20
475.75
 11
-56.393555000000049
 21
466.45001200000002
  0
ARC
  8
_0-0_0
  6
CONTINUOUS
 62
    7
 10
-55.293549000000041
 20
465.45001200000002
 40
0.5
 50
0
 51
90.000003000000007
  0
LINE
  8
_0-0_0
  6
CONTINUOUS
 62
    7
 10
-55.193550000000073
 20
466.40002399999997
 11
-55.293549000000041
 21
466.40002399999997
  0
ARC
  8
_0-0_0
  6
CONTINUOUS
 62
    7
 10
-55.193550000000073
 20
465.90002399999997
 40
0.5
 50
0
 51
90.000003000000007
  0
LINE
  8
_0-0_0
  6
CONTINUOUS
 62
    7
 10
-54.793549000000041
 20
465.45001200000002
 11
-54.793549000000041
 21
460.45001200000002
  0
ARC
  8
_0-0_0
  6
CONTINUOUS
 62
    7
 10
-55.293549000000041
 20
460.45001200000002
 40
0.5
 50
269.99999700000001
 51
0
  0
ARC
  8
_0-0_0
  6
CONTINUOUS
 62
    7
 10
-55.193550000000073
 20
460.35000600000001
 40
0.5
 50
269.99999700000001
 51
0
  0
LINE
  8
_0-0_0
  6
CONTINUOUS
 62
    7
 10
-55.293549000000041
 20
459.85000600000001
 11
-55.193550000000073
 21
459.85000600000001
  0
LINE
  8
_0-0_0
  6
CONTINUOUS
 62
    7
 10
-37.593552000000045
 20
474.75
 11
-38.393555000000049
 21
474.75
  0
LINE
  8
_0-0_0
  6
CONTINUOUS
 62
    7
 10
-37.593552000000045
 20
475.55001800000002
 11
-38.393555000000049
 21
475.55001800000002
  0
LINE
  8
_0-0_0
  6
CONTINUOUS
 62
    7
 10
-37.593552000000045
 20
474.55001800000002
 11
-37.593552000000045
 21
475.55001800000002
  0
LINE
  8
_0-0_0
  6
CONTINUOUS
 62
    7
 10
-37.593552000000045
 20
455.95001200000002
 11
-38.393555000000049
 21
455.95001200000002
  0
LINE
  8
_0-0_0
  6
CONTINUOUS
 62
    7
 10
-37.593552000000045
 20
455.95001200000002
 11
-37.593552000000045
 21
458.95001200000002
  0
LINE
  8
_0-0_0
  6
CONTINUOUS
 62
    7
 10
-37.593552000000045
 20
471.18771400000003
 11
-37.593552000000045
 21
458.95001200000002
  0
LINE
  8
_0-0_0
  6
CONTINUOUS
 62
    7
 10
-37.593552000000045
 20
471.18771400000003
 11
-37.593552000000045
 21
472.15048200000001
  0
LINE
  8
_0-0_0
  6
CONTINUOUS
 62
    7
 10
-38.393555000000049
 20
472.15048200000001
 11
-38.393555000000049
 21
474.75
  0
ARC
  8
_0-0_0
  6
CONTINUOUS
 62
    7
 10
-44.00847600000003
 20
471.43206800000002
 40
5.7120379999999997
 50
18.558475999999999
 51
26.433648000000002
  0
ARC
  8
_0-0_0
  6
CONTINUOUS
 62
    7
 10
-38.593552000000045
 20
473.25
 40
0.2
 50
269.99999700000001
 51
0
  0
ARC
  8
_0-0_0
  6
CONTINUOUS
 62
    7
 10
-38.593552000000045
 20
452.65002399999997
 40
0.2
 50
0
 51
90.000003000000007
  0
ARC
  8
_0-0_0
  6
CONTINUOUS
 62
    7
 10
-44.008362000000034
 20
454.46804800000001
 40
5.711964
 50
333.565022
 51
341.44031000000001
  0
ARC
  8
_0-0_0
  6
CONTINUOUS
 62
    7
 10
-38.893555000000049
 20
450.15002399999997
 40
0.5
 50
269.99999700000001
 51
0
  0
LINE
  8
_0-0_0
  6
CONTINUOUS
 62
    7
 10
-38.893555000000049
 20
449.25
 11
-38.393555000000049
 21
449.25
  0
LINE
  8
_0-0_0
  6
CONTINUOUS
 62
    7
 10
-38.393555000000049
 20
449.25
 11
-38.893555000000049
 21
448.75
  0
ARC
  8
_0-0_0
  6
CONTINUOUS
 62
    7
 10
-40.593552000000045
 20
471.75
 40
2.2999999999999998
 50
34.417387999999995
 51
79.713437000000013
  0
LINE
  8
_0-0_0
  6
CONTINUOUS
 62
    7
 10
-38.654869000000019
 20
473.05001800000002
 11
-38.696182000000022
 21
473.05001800000002
  0
LINE
  8
_0-0_0
  6
CONTINUOUS
 62
    7
 10
-38.654869000000019
 20
473.05001800000002
 11
-38.645309000000054
 21
473.05102499999998
  0
LINE
  8
_0-0_0
  6
CONTINUOUS
 62
    7
 10
-38.645309000000054
 20
473.05102499999998
 11
-38.635819000000026
 21
473.05423000000002
  0
LINE
  8
_0-0_0
  6
CONTINUOUS
 62
    7
 10
-38.635819000000026
 20
473.05423000000002
 11
-38.62656400000003
 21
473.05963100000002
  0
LINE
  8
_0-0_0
  6
CONTINUOUS
 62
    7
 10
-38.62656400000003
 20
473.05963100000002
 11
-38.617767000000072
 21
473.067139
  0
LINE
  8
_0-0_0
  6
CONTINUOUS
 62
    7
 10
-38.617767000000072
 20
473.067139
 11
-38.602371000000062
 21
473.08776899999998
  0
LINE
  8
_0-0_0
  6
CONTINUOUS
 62
    7
 10
-38.602371000000062
 20
473.08776899999998
 11
-38.590591000000018
 21
473.11505099999999
  0
LINE
  8
_0-0_0
  6
CONTINUOUS
 62
    7
 10
-38.590591000000018
 20
473.11505099999999
 11
-38.583412000000067
 21
473.14718599999998
  0
LINE
  8
_0-0_0
  6
CONTINUOUS
 62
    7
 10
-38.583412000000067
 20
473.14718599999998
 11
-38.581520000000069
 21
473.18225100000001
  0
LINE
  8
_0-0_0
  6
CONTINUOUS
 62
    7
 10
-38.581520000000069
 20
473.18225100000001
 11
-38.585365000000024
 21
473.218414
  0
LINE
  8
_0-0_0
  6
CONTINUOUS
 62
    7
 10
-38.585365000000024
 20
473.218414
 11
-38.593552000000045
 21
473.25
  0
ARC
  8
_0-0_0
  6
CONTINUOUS
 62
    7
 10
-40.093552000000045
 20
474.50500499999998
 40
0.5
 50
179.99999099999999
 51
259.71343899999994
  0
LINE
  8
_0-0_0
  6
CONTINUOUS
 62
    7
 10
-40.793549000000041
 20
474.60000600000001
 11
-40.793549000000041
 21
474.30658
  0
LINE
  8
_0-0_0
  6
CONTINUOUS
 62
    7
 10
-40.793549000000041
 20
474.60000600000001
 11
-40.793549000000041
 21
476.65002399999997
  0
ARC
  8
_0-0_0
  6
CONTINUOUS
 62
    7
 10
-41.293549000000041
 20
476.65002399999997
 40
0.5
 50
0
 51
90.000003000000007
  0
LINE
  8
_0-0_0
  6
CONTINUOUS
 62
    7
 10
-41.293549000000041
 20
477.15002399999997
 11
-44.036446000000069
 21
477.15002399999997
  0
ARC
  8
_0-0_0
  6
CONTINUOUS
 62
    7
 10
-55.293549000000041
 20
466.90002399999997
 40
0.5
 50
179.99999099999999
 51
269.99999700000001
  0
LINE
  8
_0-0_0
  6
CONTINUOUS
 62
    7
 10
-55.793549000000041
 20
476.65002399999997
 11
-55.793549000000041
 21
466.90002399999997
  0
LINE
  8
_0-0_0
  6
CONTINUOUS
 62
    7
 10
-50.150658000000021
 20
477.15002399999997
 11
-55.293549000000041
 21
477.15002399999997
  0
ARC
  8
_0-0_0
  6
CONTINUOUS
 62
    7
 10
-55.293549000000041
 20
476.65002399999997
 40
0.5
 50
90.000003000000007
 51
179.99999099999999
  0
LINE
  8
_0-0_0
  6
CONTINUOUS
 62
    7
 10
-56.593552000000045
 20
474.75
 11
-56.393555000000049
 21
474.75
  0
LINE
  8
_0-0_0
  6
CONTINUOUS
 62
    7
 10
-56.593552000000045
 20
475.55001800000002
 11
-56.393555000000049
 21
475.55001800000002
  0
LINE
  8
_0-0_0
  6
CONTINUOUS
 62
    7
 10
-56.593552000000045
 20
475.55001800000002
 11
-56.593552000000045
 21
474.75012199999998
  0
LINE
  8
_0-0_0
  6
CONTINUOUS
 62
    7
 10
-56.593552000000045
 20
455.95001200000002
 11
-56.393555000000049
 21
455.95001200000002
  0
LINE
  8
_0-0_0
  6
CONTINUOUS
 62
    7
 10
-56.593552000000045
 20
458.95001200000002
 11
-56.593552000000045
 21
455.95001200000002
  0
LINE
  8
_0-0_0
  6
CONTINUOUS
 62
    7
 10
-56.593552000000045
 20
471.18771400000003
 11
-56.593552000000045
 21
458.95001200000002
  0
LINE
  8
_0-0_0
  6
CONTINUOUS
 62
    7
 10
-56.593552000000045
 20
472.15048200000001
 11
-56.593552000000045
 21
471.18771400000003
  0
ARC
  8
_0-0_0
  6
CONTINUOUS
 62
    7
 10
-55.893555000000049
 20
465.45001200000002
 40
0.5
 50
90.000003000000007
 51
179.99999099999999
  0
ARC
  8
_0-0_0
  6
CONTINUOUS
 62
    7
 10
-55.893555000000049
 20
460.45001200000002
 40
0.5
 50
179.99999099999999
 51
269.99999700000001
  0
LINE
  8
_0-0_0
  6
CONTINUOUS
 62
    7
 10
-56.393555000000049
 20
449.25
 11
-55.893555000000049
 21
449.25
  0
LINE
  8
_0-0_0
  6
CONTINUOUS
 62
    7
 10
-56.393555000000049
 20
449.25
 11
-55.893555000000049
 21
448.75
  0
LINE
  8
_0-0_0
  6
CONTINUOUS
 62
    7
 10
-55.293549000000041
 20
465.95001200000002
 11
-55.893555000000049
 21
465.95001200000002
  0
LINE
  8
_0-0_0
  6
CONTINUOUS
 62
    7
 10
-54.693550000000073
 20
465.90002399999997
 11
-54.693550000000073
 21
460.35000600000001
  0
LINE
  8
_0-0_0
  6
CONTINUOUS
 62
    7
 10
-38.893555000000049
 20
449.25
 11
-55.893555000000049
 21
449.25
  0
LINE
  8
_0-0_0
  6
CONTINUOUS
 62
    7
 10
-55.893555000000049
 20
459.95001200000002
 11
-55.293549000000041
 21
459.95001200000002
  0
ARC
  8
_0-0_0
  6
CONTINUOUS
 62
    7
 10
-55.293549000000041
 20
459.35000600000001
 40
0.5
 50
90.000003000000007
 51
179.99999099999999
  0
LINE
  8
_0-0_0
  6
CONTINUOUS
 62
    7
 10
-37.593552000000045
 20
472.15048200000001
 11
-37.593552000000045
 21
474.75
  0
LINE
  8
_0-0_0
  6
CONTINUOUS
 62
    7
 10
-38.593552000000045
 20
473.05001800000002
 11
-38.654869000000019
 21
473.05001800000002
  0
LINE
  8
_0-0_0
  6
CONTINUOUS
 62
    7
 10
-38.696182000000022
 20
473.05001800000002
 11
-38.698410000000024
 21
473.05001800000002
  0
LINE
  8
_0-0_0
  6
CONTINUOUS
 62
    7
 10
-38.830086000000051
 20
453.05001800000002
 11
-38.793160000000057
 21
452.97976699999998
  0
LINE
  8
_0-0_0
  6
CONTINUOUS
 62
    7
 10
-38.793160000000057
 20
452.97976699999998
 11
-38.773560000000032
 21
452.945313
  0
LINE
  8
_0-0_0
  6
CONTINUOUS
 62
    7
 10
-38.773560000000032
 20
452.945313
 11
-38.747467000000029
 21
452.90344199999998
  0
LINE
  8
_0-0_0
  6
CONTINUOUS
 62
    7
 10
-38.747467000000029
 20
452.90344199999998
 11
-38.734161000000029
 21
452.88439899999997
  0
LINE
  8
_0-0_0
  6
CONTINUOUS
 62
    7
 10
-38.734161000000029
 20
452.88439899999997
 11
-38.715805000000046
 21
452.86203
  0
LINE
  8
_0-0_0
  6
CONTINUOUS
 62
    7
 10
-38.715805000000046
 20
452.86203
 11
-38.70301100000006
 21
452.85140999999999
  0
LINE
  8
_0-0_0
  6
CONTINUOUS
 62
    7
 10
-38.70301100000006
 20
452.85140999999999
 11
-38.698410000000024
 21
452.85000600000001
  0
LINE
  8
_0-0_0
  6
CONTINUOUS
 62
    7
 10
-38.696182000000022
 20
452.85000600000001
 11
-38.698410000000024
 21
452.85000600000001
  0
LINE
  8
_0-0_0
  6
CONTINUOUS
 62
    7
 10
-38.830086000000051
 20
472.85000600000001
 11
-38.793160000000057
 21
472.92022700000001
  0
LINE
  8
_0-0_0
  6
CONTINUOUS
 62
    7
 10
-38.793160000000057
 20
472.92022700000001
 11
-38.773552000000052
 21
472.95471199999997
  0
LINE
  8
_0-0_0
  6
CONTINUOUS
 62
    7
 10
-38.773552000000052
 20
472.95471199999997
 11
-38.747467000000029
 21
472.99655200000001
  0
LINE
  8
_0-0_0
  6
CONTINUOUS
 62
    7
 10
-38.747467000000029
 20
472.99655200000001
 11
-38.734161000000029
 21
473.01559400000002
  0
LINE
  8
_0-0_0
  6
CONTINUOUS
 62
    7
 10
-38.734161000000029
 20
473.01559400000002
 11
-38.715805000000046
 21
473.03799400000003
  0
LINE
  8
_0-0_0
  6
CONTINUOUS
 62
    7
 10
-38.715805000000046
 20
473.03799400000003
 11
-38.70301100000006
 21
473.04861499999998
  0
LINE
  8
_0-0_0
  6
CONTINUOUS
 62
    7
 10
-38.70301100000006
 20
473.04861499999998
 11
-38.698410000000024
 21
473.05001800000002
  0
LINE
  8
_0-0_0
  6
CONTINUOUS
 62
    7
 10
-38.696182000000022
 20
452.85000600000001
 11
-38.654869000000019
 21
452.85000600000001
  0
LINE
  8
_0-0_0
  6
CONTINUOUS
 62
    7
 10
-38.593552000000045
 20
452.85000600000001
 11
-38.654869000000019
 21
452.85000600000001
  0
LINE
  8
_0-0_0
  6
CONTINUOUS
 62
    7
 10
-38.654869000000019
 20
452.85000600000001
 11
-38.645309000000054
 21
452.84896900000001
  0
LINE
  8
_0-0_0
  6
CONTINUOUS
 62
    7
 10
-38.645309000000054
 20
452.84896900000001
 11
-38.635819000000026
 21
452.84576399999997
  0
LINE
  8
_0-0_0
  6
CONTINUOUS
 62
    7
 10
-38.635819000000026
 20
452.84576399999997
 11
-38.62656400000003
 21
452.84039300000001
  0
LINE
  8
_0-0_0
  6
CONTINUOUS
 62
    7
 10
-38.62656400000003
 20
452.84039300000001
 11
-38.617767000000072
 21
452.83288599999997
  0
LINE
  8
_0-0_0
  6
CONTINUOUS
 62
    7
 10
-38.617767000000072
 20
452.83288599999997
 11
-38.602371000000062
 21
452.81225599999999
  0
LINE
  8
_0-0_0
  6
CONTINUOUS
 62
    7
 10
-38.602371000000062
 20
452.81225599999999
 11
-38.590591000000018
 21
452.78497299999998
  0
LINE
  8
_0-0_0
  6
CONTINUOUS
 62
    7
 10
-38.590591000000018
 20
452.78497299999998
 11
-38.583412000000067
 21
452.752838
  0
LINE
  8
_0-0_0
  6
CONTINUOUS
 62
    7
 10
-38.583412000000067
 20
452.752838
 11
-38.581520000000069
 21
452.71777300000002
  0
LINE
  8
_0-0_0
  6
CONTINUOUS
 62
    7
 10
-38.581520000000069
 20
452.71777300000002
 11
-38.585365000000024
 21
452.68160999999998
  0
LINE
  8
_0-0_0
  6
CONTINUOUS
 62
    7
 10
-38.585365000000024
 20
452.68160999999998
 11
-38.593552000000045
 21
452.65002399999997
  0
ARC
  8
_0-0_0
  6
CONTINUOUS
 62
    7
 10
-40.593552000000045
 20
454.15002399999997
 40
2.2999999999999998
 50
280.28656300000006
 51
325.58260500000006
  0
LINE
  8
_0-0_0
  6
CONTINUOUS
 62
    7
 10
-38.893555000000049
 20
449.65002399999997
 11
-40.093552000000045
 21
449.65002399999997
  0
LINE
  8
_0-0_0
  6
CONTINUOUS
 62
    7
 10
-38.893555000000049
 20
448.75
 11
-55.893555000000049
 21
448.75
  0
LINE
  8
_0-0_0
  6
CONTINUOUS
 62
    7
 10
-40.793549000000041
 20
474.30658
 11
-40.793282000000033
 21
474.29016100000001
  0
ARC
  8
_0-0_0
  6
CONTINUOUS
 62
    7
 10
-40.293549000000041
 20
474.30658
 40
0.5
 50
181.88290099999998
 51
260.07179799999994
  0
LINE
  8
_0-0_0
  6
CONTINUOUS
 62
    7
 10
-41.293549000000041
 20
475.09429899999998
 11
-41.093552000000045
 21
474.89999399999999
  0
LINE
  8
_0-0_0
  6
CONTINUOUS
 62
    7
 10
-41.093552000000045
 20
474.89999399999999
 11
-40.793549000000041
 21
474.60000600000001
  0
LINE
  8
_0-0_0
  6
CONTINUOUS
 62
    7
 10
-40.793549000000041
 20
474.60000600000001
 11
-41.093552000000045
 21
474.60000600000001
  0
ARC
  8
_0-0_0
  6
CONTINUOUS
 62
    7
 10
-44.036446000000069
 20
477.65002399999997
 40
0.5
 50
225
 51
269.99999700000001
  0
ARC
  8
_0-0_0
  6
CONTINUOUS
 62
    7
 10
-50.150658000000021
 20
477.65002399999997
 40
0.5
 50
269.99999700000001
 51
314.99999200000002
  0
LINE
  8
_0-0_0
  6
CONTINUOUS
 62
    7
 10
-56.593552000000045
 20
474.75
 11
-56.593552000000045
 21
472.15048200000001
  0
LINE
  8
_0-0_0
  6
CONTINUOUS
 62
    7
 10
-38.393555000000049
 20
475.550049
 11
-38.393555000000049
 21
475.75
  0
CIRCLE
  8
_0-0_0
  6
CONTINUOUS
 62
    7
 10
-47.093552000000045
 20
474.75
 40
2.25
  0
ARC
  8
_0-0_0
  6
CONTINUOUS
 62
    7
 10
-47.093552000000045
 20
454.65002399999997
 40
1.75
 50
179.99999099999999
 51
359.99998299999993
  0
LINE
  8
_0-0_0
  6
CONTINUOUS
 62
    7
 10
-48.843552000000045
 20
454.90002399999997
 11
-48.843552000000045
 21
454.65002399999997
  0
ARC
  8
_0-0_0
  6
CONTINUOUS
 62
    7
 10
-47.093552000000045
 20
454.90002399999997
 40
1.75
 50
0
 51
179.99999099999999
  0
LINE
  8
_0-0_0
  6
CONTINUOUS
 62
    7
 10
-45.343552000000045
 20
454.65002399999997
 11
-45.343552000000045
 21
454.90002399999997
  0
ARC
  8
_0-0_0
  6
CONTINUOUS
 62
    7
 10
-41.393555000000049
 20
454.95001200000002
 40
3
 50
269.99999700000001
 51
0
  0
LINE
  8
_0-0_0
  6
CONTINUOUS
 62
    7
 10
-55.793549000000041
 20
459.35000600000001
 11
-55.793549000000041
 21
458.5
  0
LINE
  8
_0-0_0
  6
CONTINUOUS
 62
    7
 10
-55.793549000000041
 20
452.45001200000002
 11
-55.793549000000041
 21
458.5
  0
ARC
  8
_0-0_0
  6
CONTINUOUS
 62
    7
 10
-40.793549000000041
 20
471.45001200000002
 40
2.3999999999999999
 50
0
 51
80.071809999999985
  0
LINE
  8
_0-0_0
  6
CONTINUOUS
 62
    7
 10
-38.393555000000049
 20
454.95001200000002
 11
-38.393555000000049
 21
467.75
  0
LINE
  8
_0-0_0
  6
CONTINUOUS
 62
    7
 10
-38.393555000000049
 20
467.75
 11
-38.393555000000049
 21
471.45001200000002
  0
ARC
  8
_0-0_0
  6
CONTINUOUS
 62
    7
 10
-40.093552000000045
 20
451.39501999999999
 40
0.5
 50
100.28656100000001
 51
179.99999099999999
  0
LINE
  8
_0-0_0
  6
CONTINUOUS
 62
    7
 10
-40.593552000000045
 20
450.15002399999997
 11
-40.593552000000045
 21
451.39501999999999
  0
ARC
  8
_0-0_0
  6
CONTINUOUS
 62
    7
 10
-40.093552000000045
 20
450.15002399999997
 40
0.5
 50
179.99999099999999
 51
269.99999700000001
  0
LINE
  8
_0-0_0
  6
CONTINUOUS
 62
    7
 10
-49.797104000000047
 20
477.296448
 11
-49.739998000000014
 21
477.35357699999997
  0
ARC
  8
_0-0_0
  6
CONTINUOUS
 62
    7
 10
-49.38644400000004
 20
477
 40
0.5
 50
90.000003000000007
 51
135
  0
LINE
  8
_0-0_0
  6
CONTINUOUS
 62
    7
 10
-44.800659000000053
 20
477.5
 11
-49.38644400000004
 21
477.5
  0
ARC
  8
_0-0_0
  6
CONTINUOUS
 62
    7
 10
-44.800659000000053
 20
477
 40
0.5
 50
45.00000099999999
 51
90.000002999999992
  0
LINE
  8
_0-0_0
  6
CONTINUOUS
 62
    7
 10
-44.389999000000046
 20
477.296448
 11
-44.447105000000022
 21
477.35357699999997
  0
ARC
  8
_0-0_0
  6
CONTINUOUS
 62
    7
 10
-41.093552000000045
 20
471.60000600000001
 40
3
 50
90.000003000000007
 51
179.99999099999999
  0
LINE
  8
_0-0_0
  6
CONTINUOUS
 62
    7
 10
-53.093552000000045
 20
458
 11
-55.293549000000041
 21
458
  0
ARC
  8
_0-0_0
  6
CONTINUOUS
 62
    7
 10
-53.093552000000045
 20
455
 40
3
 50
0
 51
90.000003000000007
  0
LINE
  8
_0-0_0
  6
CONTINUOUS
 62
    7
 10
-50.093552000000045
 20
455
 11
-50.093552000000045
 21
452.45001200000002
  0
LINE
  8
_0-0_0
  6
CONTINUOUS
 62
    7
 10
-49.593552000000045
 20
451.95001200000002
 11
-41.393555000000049
 21
451.95001200000002
  0
LINE
  8
_0-0_0
  6
CONTINUOUS
 62
    7
 10
-41.093552000000045
 20
468.25
 11
-38.893555000000049
 21
468.25
  0
ARC
  8
_0-0_0
  6
CONTINUOUS
 62
    7
 10
-41.093552000000045
 20
471.25
 40
3
 50
179.99999099999999
 51
269.99999700000001
  0
LINE
  8
_0-0_0
  6
CONTINUOUS
 62
    7
 10
-44.093552000000045
 20
471.25
 11
-44.093552000000045
 21
471.60000600000001
  0
CIRCLE
  8
_0-0_0
  6
CONTINUOUS
 62
    7
 10
-47.093552000000045
 20
474.75
 40
2.0499999999999998
  0
ARC
  8
_0-0_0
  6
CONTINUOUS
 62
    7
 10
-47.093552000000045
 20
454.65002399999997
 40
1.55
 50
179.99999099999999
 51
0
  0
LINE
  8
_0-0_0
  6
CONTINUOUS
 62
    7
 10
-48.643555000000049
 20
454.90002399999997
 11
-48.643555000000049
 21
454.65002399999997
  0
ARC
  8
_0-0_0
  6
CONTINUOUS
 62
    7
 10
-47.093552000000045
 20
454.90002399999997
 40
1.55
 50
0
 51
179.99999099999999
  0
LINE
  8
_0-0_0
  6
CONTINUOUS
 62
    7
 10
-45.543549000000041
 20
454.65002399999997
 11
-45.543549000000041
 21
454.90002399999997
  0
LINE
  8
_0-0_0
  6
CONTINUOUS
 62
    7
 10
-55.293549000000041
 20
451.95001200000002
 11
-49.593552000000045
 21
451.95001200000002
  0
ARC
  8
_0-0_0
  6
CONTINUOUS
 62
    7
 10
-55.293549000000041
 20
452.45001200000002
 40
0.5
 50
179.99999099999999
 51
269.99999700000001
  0
ARC
  8
_0-0_0
  6
CONTINUOUS
 62
    7
 10
-55.293549000000041
 20
458.5
 40
0.5
 50
179.99999099999999
 51
269.99999700000001
  0
ARC
  8
_0-0_0
  6
CONTINUOUS
 62
    7
 10
-38.893555000000049
 20
467.75
 40
0.5
 50
0
 51
90.000003000000007
  0
ARC
  8
_0-0_0
  6
CONTINUOUS
 62
    7
 10
-49.593552000000045
 20
452.45001200000002
 40
0.5
 50
179.99999099999999
 51
269.99999700000001
  0
CIRCLE
  8
_0-0_0
  6
CONTINUOUS
 62
    7
 10
-41.093552000000045
 20
471.25
 40
2.25
  0
CIRCLE
  8
_0-0_0
  6
CONTINUOUS
 62
    7
 10
-53.093552000000045
 20
454.65002399999997
 40
2.25
  0
CIRCLE
  8
_0-0_0
  6
CONTINUOUS
 62
    7
 10
-41.093552000000045
 20
471.25
 40
2
  0
CIRCLE
  8
_0-0_0
  6
CONTINUOUS
 62
    7
 10
-53.093552000000045
 20
454.65002399999997
 40
2
  0
LINE
  8
_0-0_0
  6
CONTINUOUS
 62
    7
 10
-42.24355300000002
 20
471.25
 11
-41.675659000000053
 21
472.25
  0
LINE
  8
_0-0_0
  6
CONTINUOUS
 62
    7
 10
-41.675659000000053
 20
470.25
 11
-42.24355300000002
 21
471.25
  0
LINE
  8
_0-0_0
  6
CONTINUOUS
 62
    7
 10
-40.51144400000004
 20
470.25
 11
-41.675659000000053
 21
470.25
  0
LINE
  8
_0-0_0
  6
CONTINUOUS
 62
    7
 10
-39.943550000000073
 20
471.25
 11
-40.51144400000004
 21
470.25
  0
LINE
  8
_0-0_0
  6
CONTINUOUS
 62
    7
 10
-40.51144400000004
 20
472.25
 11
-39.943550000000073
 21
471.25
  0
LINE
  8
_0-0_0
  6
CONTINUOUS
 62
    7
 10
-41.675659000000053
 20
472.25
 11
-40.51144400000004
 21
472.25
  0
LINE
  8
_0-0_0
  6
CONTINUOUS
 62
    7
 10
-54.24355300000002
 20
454.65002399999997
 11
-53.675659000000053
 21
455.65002399999997
  0
LINE
  8
_0-0_0
  6
CONTINUOUS
 62
    7
 10
-53.675659000000053
 20
453.65002399999997
 11
-54.24355300000002
 21
454.65002399999997
  0
LINE
  8
_0-0_0
  6
CONTINUOUS
 62
    7
 10
-52.51144400000004
 20
453.65002399999997
 11
-53.675659000000053
 21
453.65002399999997
  0
LINE
  8
_0-0_0
  6
CONTINUOUS
 62
    7
 10
-51.943550000000073
 20
454.65002399999997
 11
-52.51144400000004
 21
453.65002399999997
  0
LINE
  8
_0-0_0
  6
CONTINUOUS
 62
    7
 10
-52.51144400000004
 20
455.65002399999997
 11
-51.943550000000073
 21
454.65002399999997
  0
LINE
  8
_0-0_0
  6
CONTINUOUS
 62
    7
 10
-53.675659000000053
 20
455.65002399999997
 11
-52.51144400000004
 21
455.65002399999997
  0
LINE
  8
_0-0_0
  6
CONTINUOUS
 62
    7
 10
-38.393555000000049
 20
472.05032299999999
 11
-38.393555000000049
 21
472.05630500000001
  0
LINE
  8
_0-0_0
  6
CONTINUOUS
 62
    7
 10
-38.393555000000049
 20
473.25
 11
-38.393921000000034
 21
473.23791499999999
  0
LINE
  8
_0-0_0
  6
CONTINUOUS
 62
    7
 10
-38.393921000000034
 20
452.66210899999999
 11
-38.393555000000049
 21
452.65002399999997
  0
LINE
  8
_0-0_0
  6
CONTINUOUS
 62
    7
 10
-38.394272000000058
 20
467.77673299999998
 11
-38.393555000000049
 21
467.75
  0
LINE
  8
_0-0_0
  6
CONTINUOUS
 62
    7
 10
-32.893555000000049
 20
505.15002399999997
 11
-32.893555000000049
 21
492.15002399999997
  0
LINE
  8
_0-0_0
  6
CONTINUOUS
 62
    7
 10
-32.693550000000073
 20
505.15002399999997
 11
-32.893555000000049
 21
505.15002399999997
  0
LINE
  8
_0-0_0
  6
CONTINUOUS
 62
    7
 10
-32.693550000000073
 20
492.15002399999997
 11
-32.893555000000049
 21
492.15002399999997
  0
LINE
  8
_0-0_0
  6
CONTINUOUS
 62
    7
 10
-32.693550000000073
 20
505.15002399999997
 11
-32.693550000000073
 21
523.75
  0
LINE
  8
_0-0_0
  6
CONTINUOUS
 62
    7
 10
-32.593552000000045
 20
523.75
 11
-32.693550000000073
 21
523.75
  0
LINE
  8
_0-0_0
  6
CONTINUOUS
 62
    7
 10
-32.593552000000045
 20
526.25
 11
-32.593552000000045
 21
523.75
  0
ARC
  8
_0-0_0
  6
CONTINUOUS
 62
    7
 10
-33.093552000000045
 20
526.25
 40
0.5
 50
0
 51
90.000003000000007
  0
LINE
  8
_0-0_0
  6
CONTINUOUS
 62
    7
 10
-33.093552000000045
 20
526.75
 11
-36.093552000000045
 21
526.75
  0
ARC
  8
_0-0_0
  6
CONTINUOUS
 62
    7
 10
-36.093552000000045
 20
526.25
 40
0.5
 50
90.000003000000007
 51
179.99999099999999
  0
ARC
  8
_0-0_0
  6
CONTINUOUS
 62
    7
 10
-40.593552000000045
 20
478.75
 40
0.5
 50
179.99999099999999
 51
269.99999700000001
  0
LINE
  8
_0-0_0
  6
CONTINUOUS
 62
    7
 10
-38.093552000000045
 20
478.25
 11
-40.593552000000045
 21
478.25
  0
ARC
  8
_0-0_0
  6
CONTINUOUS
 62
    7
 10
-38.093552000000045
 20
478.75
 40
0.5
 50
269.99999700000001
 51
0
  0
LINE
  8
_0-0_0
  6
CONTINUOUS
 62
    7
 10
-37.593552000000045
 20
483.75
 11
-37.593552000000045
 21
478.75
  0
ARC
  8
_0-0_0
  6
CONTINUOUS
 62
    7
 10
-37.093552000000045
 20
483.75
 40
0.5
 50
90.000003000000007
 51
179.99999099999999
  0
LINE
  8
_0-0_0
  6
CONTINUOUS
 62
    7
 10
-33.093552000000045
 20
484.25
 11
-37.093552000000045
 21
484.25
  0
ARC
  8
_0-0_0
  6
CONTINUOUS
 62
    7
 10
-33.093552000000045
 20
484.75
 40
0.5
 50
269.99999700000001
 51
0
  0
LINE
  8
_0-0_0
  6
CONTINUOUS
 62
    7
 10
-32.593552000000045
 20
487.95001200000002
 11
-32.593552000000045
 21
484.75
  0
LINE
  8
_0-0_0
  6
CONTINUOUS
 62
    7
 10
-32.693550000000073
 20
487.95001200000002
 11
-32.593552000000045
 21
487.95001200000002
  0
LINE
  8
_0-0_0
  6
CONTINUOUS
 62
    7
 10
-32.693550000000073
 20
487.95001200000002
 11
-32.693550000000073
 21
492.15002399999997
  0
LINE
  8
_0-0_0
  6
CONTINUOUS
 62
    7
 10
-33.593552000000045
 20
526.25
 11
-51.393555000000049
 21
526.25
  0
ARC
  8
_0-0_0
  6
CONTINUOUS
 62
    7
 10
-33.593552000000045
 20
525.75
 40
0.5
 50
0
 51
90.000003000000007
  0
LINE
  8
_0-0_0
  6
CONTINUOUS
 62
    7
 10
-33.093552000000045
 20
525.75
 11
-33.093552000000045
 21
485.25
  0
ARC
  8
_0-0_0
  6
CONTINUOUS
 62
    7
 10
-33.593552000000045
 20
485.25
 40
0.5
 50
269.99999700000001
 51
0
  0
LINE
  8
_0-0_0
  6
CONTINUOUS
 62
    7
 10
-37.093552000000045
 20
484.75
 11
-33.593552000000045
 21
484.75
  0
ARC
  8
_0-0_0
  6
CONTINUOUS
 62
    7
 10
-37.093552000000045
 20
483.75
 40
1
 50
90.000003000000007
 51
179.99999099999999
  0
LINE
  8
_0-0_0
  6
CONTINUOUS
 62
    7
 10
-38.093552000000045
 20
483.75
 11
-38.093552000000045
 21
479.25
  0
ARC
  8
_0-0_0
  6
CONTINUOUS
 62
    7
 10
-38.593552000000045
 20
479.25
 40
0.5
 50
269.99999700000001
 51
0
  0
LINE
  8
_0-0_0
  6
CONTINUOUS
 62
    7
 10
-55.593552000000045
 20
478.75
 11
-38.593552000000045
 21
478.75
  0
LINE
  8
_0-0_0
  6
CONTINUOUS
 62
    7
 10
-37.093552000000045
 20
526.45001200000002
 11
-37.093552000000045
 21
526.25
  0
ARC
  8
_0-0_0
  6
CONTINUOUS
 62
    7
 10
-37.393555000000049
 20
526.45001200000002
 40
0.2999999999999999
 50
0
 51
90.000003000000007
  0
LINE
  8
_0-0_0
  6
CONTINUOUS
 62
    7
 10
-37.393555000000049
 20
526.75
 11
-52.093552000000045
 21
526.75
  0
ARC
  8
_0-0_0
  6
CONTINUOUS
 62
    7
 10
-52.093552000000045
 20
526.45001200000002
 40
0.2999999999999999
 50
90.000003000000007
 51
179.99999099999999
  0
LINE
  8
_0-0_0
  6
CONTINUOUS
 62
    7
 10
-52.393555000000049
 20
526.45001200000002
 11
-52.393555000000049
 21
523.25
  0
LINE
  8
_0-0_0
  6
CONTINUOUS
 62
    7
 10
-52.393555000000049
 20
523.25
 11
-58.093552000000045
 21
523.25
  0
LINE
  8
_0-0_0
  6
CONTINUOUS
 62
    7
 10
-58.093552000000045
 20
523.25
 11
-58.893555000000049
 21
522.45001200000002
  0
ARC
  8
_0-0_0
  6
CONTINUOUS
 62
    7
 10
-51.393555000000049
 20
525.75
 40
0.5
 50
90.000003000000007
 51
179.99999099999999
  0
LINE
  8
_0-0_0
  6
CONTINUOUS
 62
    7
 10
-51.893555000000049
 20
525.75
 11
-51.893555000000049
 21
522.95001200000002
  0
ARC
  8
_0-0_0
  6
CONTINUOUS
 62
    7
 10
-52.393555000000049
 20
522.95001200000002
 40
0.5
 50
269.99999700000001
 51
0
  0
LINE
  8
_0-0_0
  6
CONTINUOUS
 62
    7
 10
-52.393555000000049
 20
522.45001200000002
 11
-60.593552000000045
 21
522.45001200000002
  0
ARC
  8
_0-0_0
  6
CONTINUOUS
 62
    7
 10
-60.593552000000045
 20
521.95001200000002
 40
0.5
 50
90.000003000000007
 51
179.99999099999999
  0
LINE
  8
_0-0_0
  6
CONTINUOUS
 62
    7
 10
-61.093552000000045
 20
485.25
 11
-61.093552000000045
 21
521.95001200000002
  0
ARC
  8
_0-0_0
  6
CONTINUOUS
 62
    7
 10
-60.593552000000045
 20
485.25
 40
0.5
 50
179.99999099999999
 51
269.99999700000001
  0
LINE
  8
_0-0_0
  6
CONTINUOUS
 62
    7
 10
-60.593552000000045
 20
484.75
 11
-57.093552000000045
 21
484.75
  0
ARC
  8
_0-0_0
  6
CONTINUOUS
 62
    7
 10
-57.093552000000045
 20
483.75
 40
1
 50
0
 51
90.000003000000007
  0
LINE
  8
_0-0_0
  6
CONTINUOUS
 62
    7
 10
-56.093552000000045
 20
479.25
 11
-56.093552000000045
 21
483.75
  0
ARC
  8
_0-0_0
  6
CONTINUOUS
 62
    7
 10
-55.593552000000045
 20
479.25
 40
0.5
 50
179.99999099999999
 51
269.99999700000001
  0
CIRCLE
  8
_0-0_0
  6
CONTINUOUS
 62
    7
 10
-47.093552000000045
 20
487.75
 40
2.0670000000000002
  0
LINE
  8
_0-0_0
  6
CONTINUOUS
 62
    7
 10
-59.093552000000045
 20
522.75
 11
-59.093552000000045
 21
522.45001200000002
  0
LINE
  8
_0-0_0
  6
CONTINUOUS
 62
    7
 10
-59.093552000000045
 20
522.75
 11
-61.093552000000045
 21
522.75
  0
ARC
  8
_0-0_0
  6
CONTINUOUS
 62
    7
 10
-61.093552000000045
 20
522.25
 40
0.5
 50
90.000003000000007
 51
179.99999099999999
  0
LINE
  8
_0-0_0
  6
CONTINUOUS
 62
    7
 10
-61.593552000000045
 20
522.25
 11
-61.593552000000045
 21
484.75
  0
ARC
  8
_0-0_0
  6
CONTINUOUS
 62
    7
 10
-61.093552000000045
 20
484.75
 40
0.5
 50
179.99999099999999
 51
269.99999700000001
  0
LINE
  8
_0-0_0
  6
CONTINUOUS
 62
    7
 10
-57.093552000000045
 20
484.25
 11
-61.093552000000045
 21
484.25
  0
ARC
  8
_0-0_0
  6
CONTINUOUS
 62
    7
 10
-57.093552000000045
 20
483.75
 40
0.5
 50
0
 51
90.000003000000007
  0
LINE
  8
_0-0_0
  6
CONTINUOUS
 62
    7
 10
-56.593552000000045
 20
478.75
 11
-56.593552000000045
 21
483.75
  0
ARC
  8
_0-0_0
  6
CONTINUOUS
 62
    7
 10
-56.093552000000045
 20
478.75
 40
0.5
 50
179.99999099999999
 51
269.99999700000001
  0
LINE
  8
_0-0_0
  6
CONTINUOUS
 62
    7
 10
-56.093552000000045
 20
478.25
 11
-53.593552000000045
 21
478.25
  0
ARC
  8
_0-0_0
  6
CONTINUOUS
 62
    7
 10
-53.593552000000045
 20
478.75
 40
0.5
 50
269.99999700000001
 51
0
  0
LINE
  8
_0-0_0
  6
CONTINUOUS
 62
    7
 10
-37.593552000000045
 20
478.75
 11
-37.49355300000002
 21
478.75
  0
LINE
  8
_0-0_0
  6
CONTINUOUS
 62
    7
 10
-37.49355300000002
 20
478.75
 11
-37.49355300000002
 21
479.25
  0
LINE
  8
_0-0_0
  6
CONTINUOUS
 62
    7
 10
-37.49355300000002
 20
483.25
 11
-37.49355300000002
 21
479.25
  0
LINE
  8
_0-0_0
  6
CONTINUOUS
 62
    7
 10
-37.593552000000045
 20
483.75
 11
-37.49355300000002
 21
483.75
  0
LINE
  8
_0-0_0
  6
CONTINUOUS
 62
    7
 10
-37.49355300000002
 20
483.25
 11
-37.49355300000002
 21
483.75
  0
LINE
  8
_0-0_0
  6
CONTINUOUS
 62
    7
 10
-37.393555000000049
 20
479.25
 11
-37.393555000000049
 21
479.38037100000003
  0
LINE
  8
_0-0_0
  6
CONTINUOUS
 62
    7
 10
-37.393555000000049
 20
482.88037100000003
 11
-37.393555000000049
 21
479.38037100000003
  0
LINE
  8
_0-0_0
  6
CONTINUOUS
 62
    7
 10
-37.49355300000002
 20
483.15002399999997
 11
-37.393555000000049
 21
483.15002399999997
  0
LINE
  8
_0-0_0
  6
CONTINUOUS
 62
    7
 10
-37.393555000000049
 20
482.88037100000003
 11
-37.393555000000049
 21
483.15002399999997
  0
LINE
  8
_0-0_0
  6
CONTINUOUS
 62
    7
 10
-37.49355300000002
 20
479.25
 11
-37.393555000000049
 21
479.25
  0
LINE
  8
_0-0_0
  6
CONTINUOUS
 62
    7
 10
-37.49355300000002
 20
479.25
 11
-37.393555000000049
 21
479.25
  0
ENDSEC
  0
EOF
