  0
SECTION
  2
HEADER
  9
$ACADVER
  1
AC1009
  9
$INSBASE
 10
0
 20
0
 30
0
  9
$EXTMIN
 10
0
 20
0
  9
$EXTMAX
 10
841
 20
594
  9
$LIMMIN
 10
0
 20
0
  9
$LIMMAX
 10
841
 20
594
  9
$LTSCALE
 40
1
  0
ENDSEC
  0
SECTION
  2
TABLES
  0
TABLE
  2
LTYPE
 70
     9
  0
LTYPE
  2
CONTINUOUS
 70
    64
  3
実線
 72
    65
 73
     0
 40
0.0
  0
LTYPE
  2
DASHED1
 70
    64
  3
--  --  --  --  --  --  --  --  
 72
    65
 73
     2
 40
2.5
 49
1.25
 49
-1.25
  0
LTYPE
  2
DASHED2
 70
    64
  3
----    ----    ----    ----    
 72
    65
 73
     2
 40
5.0
 49
2.5
 49
-2.5
  0
LTYPE
  2
DASHED3
 70
    64
  3
------  ------  ------  ------  
 72
    65
 73
     2
 40
5.0
 49
3.75
 49
-1.25
  0
LTYPE
  2
CENTER1
 70
    64
  3
----- - ----- - ----- - ----- - 
 72
    65
 73
     4
 40
10.0
 49
6.25
 49
-1.25
 49
1.25
 49
-1.25
  0
LTYPE
  2
CENTER2
 70
    64
  3
----------  --  ----------  --  
 72
    65
 73
     4
 40
20.0
 49
12.5
 49
-2.5
 49
2.5
 49
-2.5
  0
LTYPE
  2
PHANTOM1
 70
    64
  3
--- - - --- - - --- - - --- - - 
 72
    65
 73
     6
 40
10.0
 49
3.25
 49
-1.25
 49
1.25
 49
-1.25
 49
1.25
 49
-1.25
  0
LTYPE
  2
PHANTOM2
 70
    64
  3
--------  -  -  --------  -  -  
 72
    65
 73
     6
 40
20.0
 49
10.0
 49
-2.5
 49
1.25
 49
-2.5
 49
1.25
 49
-2.5
  0
LTYPE
  2
DOT
 70
    64
  3
-   -   -   -   -   -   -   -   
 72
    65
 73
     2
 40
2.5
 49
0.625
 49
-1.875
  0
LTYPE
  2
DUMMY
 70
    64
  3
ダミー
 72
    65
 73
     0
 40
0.0
  0
LTYPE
  2
RAND1
 70
    64
  3
ランダム線1
 72
    65
 73
     4
 40
10.0
 49
1.0
 49
-2.0
 49
3.0
 49
-4.0
  0
LTYPE
  2
RAND2
 70
    64
  3
ランダム線2
 72
    65
 73
     4
 40
14.0
 49
2.0
 49
-3.0
 49
4.0
 49
-5.0
  0
LTYPE
  2
RAND3
 70
    64
  3
ランダム線3
 72
    65
 73
     4
 40
18.0
 49
3.0
 49
-4.0
 49
5.0
 49
-6.0
  0
LTYPE
  2
RAND4
 70
    64
  3
ランダム線4
 72
    65
 73
     4
 40
22.0
 49
4.0
 49
-5.0
 49
6.0
 49
-7.0
  0
LTYPE
  2
RAND5
 70
    64
  3
ランダム線5
 72
    65
 73
     4
 40
26.0
 49
5.0
 49
-6.0
 49
7.0
 49
-8.0
  0
LTYPE
  2
LONG1
 70
    64
  3
----------  --  ----------  --  
 72
    65
 73
     4
 40
40.0
 49
32.5
 49
-2.5
 49
2.5
 49
-2.5
  0
LTYPE
  2
LONG2
 70
    64
  3
--------  -  -  --------  -  -  
 72
    65
 73
     6
 40
40.0
 49
30.0
 49
-2.5
 49
1.25
 49
-2.5
 49
1.25
 49
-2.5
  0
LTYPE
  2
LONG3
 70
    64
  3
+++++++++++++++..+++++++++++++++
 72
    65
 73
     2
 40
40.0
 49
37.5
 49
-2.5
  0
LTYPE
  2
LONG4
 70
    64
  3
+++++++++++++++..+++++++++++++++
 72
    65
 73
     2
 40
80.0
 49
75.0
 49
-5.0
  0
LTYPE
  2
LONG5
 70
    64
  3
----------  --  ----------  --  
 72
    65
 73
     4
 40
60.0
 49
37.5
 49
-7.5
 49
7.5
 49
-7.5
  0
LTYPE
  2
dashed
 70
   64
  3
-------   -------------   ------
 72
   65
 73
    2
 40
7.5
 49
6
 49
-1.5
  0
LTYPE
  2
dashed_spaced
 70
   64
  3
----        --------        ----
 72
   65
 73
    2
 40
12
 49
6
 49
-6
  0
LTYPE
  2
long_dashed_dotted
 70
   64
  3
------------- --- --------------
 72
   65
 73
    4
 40
15.25
 49
12
 49
-1.5
 49
0.25
 49
-1.5
  0
LTYPE
  2
long_dashed_double-dotted
 70
   64
  3
----------- --- --- ------------
 72
   65
 73
    6
 40
17
 49
12
 49
-1.5
 49
0.25
 49
-1.5
 49
0.25
 49
-1.5
  0
LTYPE
  2
long_dashed_triplicate-dotted
 70
   64
  3
--------- --- --- --- ----------
 72
   65
 73
    8
 40
18.75
 49
12
 49
-1.5
 49
0.25
 49
-1.5
 49
0.25
 49
-1.5
 49
0.25
 49
-1.5
  0
LTYPE
  2
dotted
 70
   64
  3
   -       -       -       -    
 72
   65
 73
    2
 40
1.75
 49
0.25
 49
-1.5
  0
LTYPE
  2
chain
 70
   64
  3
-------------- -- --------------
 72
   65
 73
    4
 40
18.5
 49
12
 49
-1.5
 49
3.5
 49
-1.5
  0
LTYPE
  2
chain_double_dash
 70
   64
  3
------------ -- -- -------------
 72
   65
 73
    6
 40
23.5
 49
12
 49
-1.5
 49
3.5
 49
-1.5
 49
3.5
 49
-1.5
  0
LTYPE
  2
dashed_dotted
 70
   64
  3
-----------     -     ----------
 72
   65
 73
    4
 40
9.25
 49
6
 49
-1.5
 49
0.25
 49
-1.5
  0
LTYPE
  2
double-dashed_dotted
 70
   64
  3
------   -----------   -   -----
 72
   65
 73
    6
 40
16.75
 49
6
 49
-1.5
 49
6
 49
-1.5
 49
0.25
 49
-1.5
  0
LTYPE
  2
dashed_double-dotted
 70
   64
  3
---------    -    -    ---------
 72
   65
 73
    6
 40
11
 49
6
 49
-1.5
 49
0.25
 49
-1.5
 49
0.25
 49
-1.5
  0
LTYPE
  2
double-dashed_double-dotted
 70
   64
  3
-----   ---------   -   -   ----
 72
   65
 73
    8
 40
18.5
 49
6
 49
-1.5
 49
6
 49
-1.5
 49
0.25
 49
-1.5
 49
0.25
 49
-1.5
  0
LTYPE
  2
dashed_triplicate-dotted
 70
   64
  3
-------    -    -    -    ------
 72
   65
 73
    8
 40
12.75
 49
6
 49
-1.5
 49
0.25
 49
-1.5
 49
0.25
 49
-1.5
 49
0.25
 49
-1.5
  0
LTYPE
  2
double-dashed_triplicate-dotted
 70
   64
  3
-----  ---------  -  -  -  -----
 72
   65
 73
   10
 40
20.25
 49
6
 49
-1.5
 49
6
 49
-1.5
 49
0.25
 49
-1.5
 49
0.25
 49
-1.5
 49
0.25
 49
-1.5
  0
LTYPE
  2
undefined
 70
   64
  3
--------------------------------
 72
   65
 73
    0
 40
0
  0
ENDTAB
  0
TABLE
  2
STYLE
  5
3
100
AcDbSymbolTable
 70
     1
  0
STYLE
  5
10
100
AcDbSymbolTableRecord
100
AcDbTextStyleTableRecord
  2
STANDARD
 70
     0
 40
0.0
 41
1.0
 50
0.0
 71
     0
 42
0.2
  3
txt
  4
bigfont.shx
  0
STYLE
  5
26
100
AcDbSymbolTableRecord
100
AcDbTextStyleTableRecord
  2
TATEGAKI
 70
    68
 40
0.0
 41
1.0
 50
0.0
 71
     0
 42
1.0
  3
txt
  4
bigfont.shx
  0
ENDTAB
  0
TABLE
  2
LAYER
 70
    2
  0
LAYER
  2
_0-0_0
 70
   64
 62
    7
  6
CONTINUOUS
  0
LAYER
  2
ADD_LINE
 70
   64
 62
    7
  6
CONTINUOUS
  0
ENDTAB
  0
ENDSEC
  0
SECTION
  2
BLOCKS
  0
ENDSEC
  0
SECTION
  2
ENTITIES
  0
ARC
  8
_0-0_0
  6
CONTINUOUS
 62
    7
 10
132.33123800000004
 20
468.35000600000001
 40
0.2
 50
269.99999700000001
 51
20.376440000000013
  0
LINE
  8
_0-0_0
  6
CONTINUOUS
 62
    7
 10
132.51872200000003
 20
468.419647
 11
131.21871900000002
 21
471.919647
  0
ARC
  8
_0-0_0
  6
CONTINUOUS
 62
    7
 10
131.03123500000004
 20
471.85000600000001
 40
0.2
 50
20.376439999999999
 51
159.62355600000001
  0
LINE
  8
_0-0_0
  6
CONTINUOUS
 62
    7
 10
129.54376200000002
 20
468.419647
 11
130.84375
 21
471.919647
  0
ARC
  8
_0-0_0
  6
CONTINUOUS
 62
    7
 10
129.73123200000003
 20
468.35000600000001
 40
0.2
 50
159.62355600000001
 51
269.99999700000001
  0
LINE
  8
_0-0_0
  6
CONTINUOUS
 62
    7
 10
129.73123200000003
 20
468.15002399999997
 11
132.33123800000004
 21
468.15002399999997
  0
LINE
  8
_0-0_0
  6
CONTINUOUS
 62
    7
 10
54.217773000000022
 20
522.75051899999994
 11
54.217773000000022
 21
522.74951199999998
  0
LINE
  8
_0-0_0
  6
CONTINUOUS
 62
    7
 10
83.531235000000038
 20
476.25
 11
88.531235000000038
 21
476.25
  0
LINE
  8
_0-0_0
  6
CONTINUOUS
 62
    7
 10
88.531235000000038
 20
476.25
 11
90.331238000000042
 21
476.25
  0
LINE
  8
_0-0_0
  6
CONTINUOUS
 62
    7
 10
90.331238000000042
 20
476.25
 11
91.031235000000038
 21
476.25
  0
ARC
  8
_0-0_0
  6
CONTINUOUS
 62
    7
 10
90.331238000000042
 20
475.75
 40
0.5
 50
0
 51
90.000003000000007
  0
ARC
  8
_0-0_0
  6
CONTINUOUS
 62
    7
 10
83.531235000000038
 20
475.75
 40
0.5
 50
90.000003000000007
 51
179.99999099999999
  0
ARC
  8
_0-0_0
  6
CONTINUOUS
 62
    7
 10
187.03121900000002
 20
475.75
 40
0.5
 50
0
 51
90.000003000000007
  0
LINE
  8
_0-0_0
  6
CONTINUOUS
 62
    7
 10
91.031235000000038
 20
476.25
 11
91.031235000000038
 21
474.75
  0
LINE
  8
_0-0_0
  6
CONTINUOUS
 62
    7
 10
91.031235000000038
 20
476.75
 11
91.031235000000038
 21
476.25
  0
LINE
  8
_0-0_0
  6
CONTINUOUS
 62
    7
 10
91.031235000000038
 20
477.25
 11
91.031235000000038
 21
476.75
  0
LINE
  8
_0-0_0
  6
CONTINUOUS
 62
    7
 10
91.031235000000038
 20
478.25
 11
91.031235000000038
 21
477.25
  0
LINE
  8
_0-0_0
  6
CONTINUOUS
 62
    7
 10
95.031235000000038
 20
476.25
 11
95.731232000000034
 21
476.25
  0
LINE
  8
_0-0_0
  6
CONTINUOUS
 62
    7
 10
90.831238000000042
 20
475.75
 11
90.831238000000042
 21
474.75
  0
LINE
  8
_0-0_0
  6
CONTINUOUS
 62
    7
 10
94.031235000000038
 20
449.25
 11
94.031235000000038
 21
450.85000600000001
  0
LINE
  8
_0-0_0
  6
CONTINUOUS
 62
    7
 10
94.031235000000038
 20
449.25
 11
88.531235000000038
 21
449.25
  0
LINE
  8
_0-0_0
  6
CONTINUOUS
 62
    7
 10
110.03123500000004
 20
455.95001200000002
 11
152.03121900000002
 21
455.95001200000002
  0
LINE
  8
_0-0_0
  6
CONTINUOUS
 62
    7
 10
110.03123500000004
 20
475.55001800000002
 11
152.03121900000002
 21
475.55001800000002
  0
LINE
  8
_0-0_0
  6
CONTINUOUS
 62
    7
 10
173.53121900000002
 20
449.25
 11
164.03121900000002
 21
449.25
  0
LINE
  8
_0-0_0
  6
CONTINUOUS
 62
    7
 10
164.03121900000002
 20
449.25
 11
164.03121900000002
 21
450.85000600000001
  0
ARC
  8
_0-0_0
  6
CONTINUOUS
 62
    7
 10
163.73123200000003
 20
450.85000600000001
 40
0.2999999999999999
 50
0
 51
90.000003000000007
  0
LINE
  8
_0-0_0
  6
CONTINUOUS
 62
    7
 10
163.03121900000002
 20
451.15002399999997
 11
163.73123200000003
 21
451.15002399999997
  0
LINE
  8
_0-0_0
  6
CONTINUOUS
 62
    7
 10
162.53121900000002
 20
451.55001800000002
 11
163.03121900000002
 21
451.55001800000002
  0
LINE
  8
_0-0_0
  6
CONTINUOUS
 62
    7
 10
149.03121900000002
 20
451.55001800000002
 11
162.53121900000002
 21
451.55001800000002
  0
ARC
  8
_0-0_0
  6
CONTINUOUS
 62
    7
 10
146.53121900000002
 20
451.55001800000002
 40
2.5
 50
0
 51
90.000003000000007
  0
LINE
  8
_0-0_0
  6
CONTINUOUS
 62
    7
 10
115.53123500000004
 20
454.05001800000002
 11
146.53121900000002
 21
454.05001800000002
  0
ARC
  8
_0-0_0
  6
CONTINUOUS
 62
    7
 10
115.53123500000004
 20
451.55001800000002
 40
2.5
 50
90.000003000000007
 51
179.99999099999999
  0
LINE
  8
_0-0_0
  6
CONTINUOUS
 62
    7
 10
95.531235000000038
 20
451.55001800000002
 11
113.03123500000004
 21
451.55001800000002
  0
LINE
  8
_0-0_0
  6
CONTINUOUS
 62
    7
 10
95.031235000000038
 20
451.55001800000002
 11
95.531235000000038
 21
451.55001800000002
  0
LINE
  8
_0-0_0
  6
CONTINUOUS
 62
    7
 10
94.331238000000042
 20
451.15002399999997
 11
95.031235000000038
 21
451.15002399999997
  0
ARC
  8
_0-0_0
  6
CONTINUOUS
 62
    7
 10
94.331238000000042
 20
450.85000600000001
 40
0.2999999999999999
 50
90.000003000000007
 51
179.99999099999999
  0
LINE
  8
_0-0_0
  6
CONTINUOUS
 62
    7
 10
83.031235000000038
 20
473.97485399999999
 11
83.031235000000038
 21
475.75
  0
LINE
  8
_0-0_0
  6
CONTINUOUS
 62
    7
 10
88.031235000000038
 20
476.25
 11
88.031235000000038
 21
476.65002399999997
  0
LINE
  8
_0-0_0
  6
CONTINUOUS
 62
    7
 10
88.031235000000038
 20
477.15002399999997
 11
88.031235000000038
 21
476.65002399999997
  0
LINE
  8
_0-0_0
  6
CONTINUOUS
 62
    7
 10
187.53121900000002
 20
478.25
 11
187.53121900000002
 21
476.75
  0
LINE
  8
_0-0_0
  6
CONTINUOUS
 62
    7
 10
187.53121900000002
 20
476.75
 11
187.53121900000002
 21
475.75
  0
LINE
  8
_0-0_0
  6
CONTINUOUS
 62
    7
 10
187.53121900000002
 20
474.95001200000002
 11
187.53121900000002
 21
475.75
  0
LINE
  8
_0-0_0
  6
CONTINUOUS
 62
    7
 10
187.03121900000002
 20
476.25
 11
187.53121900000002
 21
476.25
  0
LINE
  8
_0-0_0
  6
CONTINUOUS
 62
    7
 10
174.53121900000002
 20
476.25
 11
187.03121900000002
 21
476.25
  0
LINE
  8
_0-0_0
  6
CONTINUOUS
 62
    7
 10
187.53121900000002
 20
478.25
 11
187.53121900000002
 21
477.25
  0
LINE
  8
_0-0_0
  6
CONTINUOUS
 62
    7
 10
187.53121900000002
 20
476.75
 11
187.53121900000002
 21
476.25
  0
LINE
  8
_0-0_0
  6
CONTINUOUS
 62
    7
 10
187.53121900000002
 20
477.25
 11
187.53121900000002
 21
476.75
  0
ARC
  8
_0-0_0
  6
CONTINUOUS
 62
    7
 10
93.031235000000038
 20
474.75
 40
2
 50
179.99999099999999
 51
0
  0
LINE
  8
_0-0_0
  6
CONTINUOUS
 62
    7
 10
174.03121900000002
 20
476.25
 11
174.53121900000002
 21
476.25
  0
LINE
  8
_0-0_0
  6
CONTINUOUS
 62
    7
 10
174.03121900000002
 20
475.75
 11
174.03121900000002
 21
476.25
  0
LINE
  8
_0-0_0
  6
CONTINUOUS
 62
    7
 10
174.03121900000002
 20
474.75
 11
174.03121900000002
 21
474.95001200000002
  0
ARC
  8
_0-0_0
  6
CONTINUOUS
 62
    7
 10
172.03121900000002
 20
474.75
 40
2
 50
179.99999099999999
 51
0
  0
LINE
  8
_0-0_0
  6
CONTINUOUS
 62
    7
 10
170.03121900000002
 20
476.25
 11
170.03121900000002
 21
474.75
  0
LINE
  8
_0-0_0
  6
CONTINUOUS
 62
    7
 10
169.33123800000004
 20
476.25
 11
170.03121900000002
 21
476.25
  0
LINE
  8
_0-0_0
  6
CONTINUOUS
 62
    7
 10
95.031235000000038
 20
474.75
 11
95.031235000000038
 21
476.25
  0
LINE
  8
_0-0_0
  6
CONTINUOUS
 62
    7
 10
91.031235000000038
 20
477.25
 11
187.53121900000002
 21
477.25
  0
ARC
  8
_0-0_0
  6
CONTINUOUS
 62
    7
 10
95.731232000000034
 20
475.75
 40
0.5
 50
90.000003000000007
 51
179.99999099999999
  0
ARC
  8
_0-0_0
  6
CONTINUOUS
 62
    7
 10
93.031235000000038
 20
474.75
 40
2.2000000000000002
 50
179.99999099999999
 51
0
  0
LINE
  8
_0-0_0
  6
CONTINUOUS
 62
    7
 10
95.031235000000038
 20
451.15002399999997
 11
95.531235000000038
 21
451.15002399999997
  0
LINE
  8
_0-0_0
  6
CONTINUOUS
 62
    7
 10
95.531235000000038
 20
451.55001800000002
 11
95.531235000000038
 21
451.15002399999997
  0
LINE
  8
_0-0_0
  6
CONTINUOUS
 62
    7
 10
113.03123500000004
 20
451.55001800000002
 11
149.03121900000002
 21
451.55001800000002
  0
LINE
  8
_0-0_0
  6
CONTINUOUS
 62
    7
 10
162.53121900000002
 20
451.15002399999997
 11
163.03121900000002
 21
451.15002399999997
  0
LINE
  8
_0-0_0
  6
CONTINUOUS
 62
    7
 10
162.53121900000002
 20
451.55001800000002
 11
162.53121900000002
 21
451.15002399999997
  0
LINE
  8
_0-0_0
  6
CONTINUOUS
 62
    7
 10
173.53121900000002
 20
448.75
 11
164.53121900000002
 21
448.75
  0
ARC
  8
_0-0_0
  6
CONTINUOUS
 62
    7
 10
164.53121900000002
 20
449.25
 40
0.5
 50
179.99999099999999
 51
269.99999700000001
  0
LINE
  8
_0-0_0
  6
CONTINUOUS
 62
    7
 10
173.53121900000002
 20
449.25
 11
174.03121900000002
 21
449.25
  0
LINE
  8
_0-0_0
  6
CONTINUOUS
 62
    7
 10
174.03121900000002
 20
449.25
 11
174.03121900000002
 21
449.45001200000002
  0
LINE
  8
_0-0_0
  6
CONTINUOUS
 62
    7
 10
178.53121900000002
 20
449.65002399999997
 11
174.23123200000003
 21
449.65002399999997
  0
LINE
  8
_0-0_0
  6
CONTINUOUS
 62
    7
 10
179.03121900000002
 20
450.15002399999997
 11
179.03121900000002
 21
451.92514
  0
ARC
  8
_0-0_0
  6
CONTINUOUS
 62
    7
 10
175.98327600000005
 20
451.86901899999998
 40
3.0490550000000001
 50
1.0548960000000001
 51
14.838094000000002
  0
LINE
  8
_0-0_0
  6
CONTINUOUS
 62
    7
 10
178.53121900000002
 20
452.85000600000001
 11
174.16369600000002
 21
452.85000600000001
  0
LINE
  8
_0-0_0
  6
CONTINUOUS
 62
    7
 10
174.03121900000002
 20
452.99145499999997
 11
174.03121900000002
 21
453.09643599999998
  0
ARC
  8
_0-0_0
  6
CONTINUOUS
 62
    7
 10
172.03121900000002
 20
474.75
 40
2.2000000000000002
 50
179.99999099999999
 51
303.74900400000001
  0
LINE
  8
_0-0_0
  6
CONTINUOUS
 62
    7
 10
169.83123800000004
 20
475.75
 11
169.83123800000004
 21
474.75
  0
LINE
  8
_0-0_0
  6
CONTINUOUS
 62
    7
 10
169.33123800000004
 20
476.25
 11
95.731232000000034
 21
476.25
  0
LINE
  8
_0-0_0
  6
CONTINUOUS
 62
    7
 10
95.231232000000034
 20
474.75
 11
95.231232000000034
 21
475.75
  0
LINE
  8
_0-0_0
  6
CONTINUOUS
 62
    7
 10
95.731232000000034
 20
474.55001800000002
 11
95.731232000000034
 21
474.75
  0
ARC
  8
_0-0_0
  6
CONTINUOUS
 62
    7
 10
96.731232000000034
 20
474.55001800000002
 40
1
 50
90.000003000000007
 51
179.99999099999999
  0
LINE
  8
_0-0_0
  6
CONTINUOUS
 62
    7
 10
96.731232000000034
 20
475.55001800000002
 11
110.03123500000004
 21
475.55001800000002
  0
LINE
  8
_0-0_0
  6
CONTINUOUS
 62
    7
 10
152.03121900000002
 20
475.55001800000002
 11
166.03121900000002
 21
475.55001800000002
  0
ARC
  8
_0-0_0
  6
CONTINUOUS
 62
    7
 10
166.03121900000002
 20
472.55001800000002
 40
3
 50
0
 51
90.000003000000007
  0
LINE
  8
_0-0_0
  6
CONTINUOUS
 62
    7
 10
169.03121900000002
 20
458.95001200000002
 11
169.03121900000002
 21
472.55001800000002
  0
ARC
  8
_0-0_0
  6
CONTINUOUS
 62
    7
 10
166.03121900000002
 20
458.95001200000002
 40
3
 50
269.99999700000001
 51
0
  0
LINE
  8
_0-0_0
  6
CONTINUOUS
 62
    7
 10
166.03121900000002
 20
455.95001200000002
 11
152.03121900000002
 21
455.95001200000002
  0
LINE
  8
_0-0_0
  6
CONTINUOUS
 62
    7
 10
110.03123500000004
 20
455.95001200000002
 11
96.031235000000038
 21
455.95001200000002
  0
ARC
  8
_0-0_0
  6
CONTINUOUS
 62
    7
 10
96.031235000000038
 20
458.95001200000002
 40
3
 50
179.99999099999999
 51
269.99999700000001
  0
LINE
  8
_0-0_0
  6
CONTINUOUS
 62
    7
 10
93.031235000000038
 20
471.18771400000003
 11
93.031235000000038
 21
458.95001200000002
  0
ARC
  8
_0-0_0
  6
CONTINUOUS
 62
    7
 10
94.031235000000038
 20
471.18771400000003
 40
1
 50
105.68034800000001
 51
179.99999100000002
  0
ARC
  8
_0-0_0
  6
CONTINUOUS
 62
    7
 10
86.079193000000032
 20
474.03100599999999
 40
3.0490550000000001
 50
181.05489
 51
194.838089
  0
LINE
  8
_0-0_0
  6
CONTINUOUS
 62
    7
 10
87.898773000000006
 20
473.05001800000002
 11
83.531235000000038
 21
473.05001800000002
  0
LINE
  8
_0-0_0
  6
CONTINUOUS
 62
    7
 10
88.031235000000038
 20
452.99145499999997
 11
88.031235000000038
 21
453.29168700000002
  0
LINE
  8
_0-0_0
  6
CONTINUOUS
 62
    7
 10
87.898773000000006
 20
452.85000600000001
 11
83.531235000000038
 21
452.85000600000001
  0
ARC
  8
_0-0_0
  6
CONTINUOUS
 62
    7
 10
86.08038300000004
 20
451.86834700000003
 40
3.050319
 50
165.15540799999999
 51
178.932897
  0
LINE
  8
_0-0_0
  6
CONTINUOUS
 62
    7
 10
83.031235000000038
 20
450.15002399999997
 11
83.031235000000038
 21
451.92514
  0
LINE
  8
_0-0_0
  6
CONTINUOUS
 62
    7
 10
87.831238000000042
 20
449.65002399999997
 11
83.531235000000038
 21
449.65002399999997
  0
LINE
  8
_0-0_0
  6
CONTINUOUS
 62
    7
 10
88.031235000000038
 20
449.25
 11
88.031235000000038
 21
449.45001200000002
  0
LINE
  8
_0-0_0
  6
CONTINUOUS
 62
    7
 10
88.031235000000038
 20
449.25
 11
88.531235000000038
 21
449.25
  0
LINE
  8
_0-0_0
  6
CONTINUOUS
 62
    7
 10
93.531235000000038
 20
448.75
 11
88.531235000000038
 21
448.75
  0
ARC
  8
_0-0_0
  6
CONTINUOUS
 62
    7
 10
93.531235000000038
 20
449.25
 40
0.5
 50
269.99999700000001
 51
0
  0
LINE
  8
_0-0_0
  6
CONTINUOUS
 62
    7
 10
83.349487000000067
 20
473.05001800000002
 11
83.329132000000072
 21
473.05102499999998
  0
LINE
  8
_0-0_0
  6
CONTINUOUS
 62
    7
 10
83.329132000000072
 20
473.05102499999998
 11
83.308746000000042
 21
473.054169
  0
LINE
  8
_0-0_0
  6
CONTINUOUS
 62
    7
 10
83.308746000000042
 20
473.054169
 11
83.281921000000011
 21
473.06176799999997
  0
LINE
  8
_0-0_0
  6
CONTINUOUS
 62
    7
 10
83.281921000000011
 20
473.06176799999997
 11
83.256271000000027
 21
473.07312000000002
  0
LINE
  8
_0-0_0
  6
CONTINUOUS
 62
    7
 10
83.256271000000027
 20
473.07312000000002
 11
83.23246800000004
 21
473.08801299999999
  0
LINE
  8
_0-0_0
  6
CONTINUOUS
 62
    7
 10
83.23246800000004
 20
473.08801299999999
 11
83.215713000000051
 21
473.10150099999998
  0
LINE
  8
_0-0_0
  6
CONTINUOUS
 62
    7
 10
83.215713000000051
 20
473.10150099999998
 11
83.200211000000024
 21
473.11676
  0
LINE
  8
_0-0_0
  6
CONTINUOUS
 62
    7
 10
83.200211000000024
 20
473.11676
 11
83.173309000000017
 21
473.15139799999997
  0
LINE
  8
_0-0_0
  6
CONTINUOUS
 62
    7
 10
83.173309000000017
 20
473.15139799999997
 11
83.152283000000011
 21
473.189728
  0
LINE
  8
_0-0_0
  6
CONTINUOUS
 62
    7
 10
83.152283000000011
 20
473.189728
 11
83.140274000000034
 21
473.21963499999998
  0
LINE
  8
_0-0_0
  6
CONTINUOUS
 62
    7
 10
83.140274000000034
 20
473.21963499999998
 11
83.131226000000026
 21
473.25
  0
LINE
  8
_0-0_0
  6
CONTINUOUS
 62
    7
 10
88.031235000000038
 20
477.15002399999997
 11
88.031235000000038
 21
478.25
  0
LINE
  8
_0-0_0
  6
CONTINUOUS
 62
    7
 10
82.531235000000038
 20
474.60000600000001
 11
83.031235000000038
 21
474.60000600000001
  0
LINE
  8
_0-0_0
  6
CONTINUOUS
 62
    7
 10
82.531235000000038
 20
477.15002399999997
 11
88.031235000000038
 21
477.15002399999997
  0
ARC
  8
_0-0_0
  6
CONTINUOUS
 62
    7
 10
187.03121900000002
 20
474.95001200000002
 40
0.5
 50
269.99999700000001
 51
0
  0
ARC
  8
_0-0_0
  6
CONTINUOUS
 62
    7
 10
174.53121900000002
 20
475.75
 40
0.5
 50
90.000003000000007
 51
179.99999099999999
  0
LINE
  8
_0-0_0
  6
CONTINUOUS
 62
    7
 10
174.03121900000002
 20
474.95001200000002
 11
174.03121900000002
 21
475.75
  0
LINE
  8
_0-0_0
  6
CONTINUOUS
 62
    7
 10
94.231232000000034
 20
451.13284299999998
 11
94.231232000000034
 21
449.15002399999997
  0
LINE
  8
_0-0_0
  6
CONTINUOUS
 62
    7
 10
94.231232000000034
 20
449.15002399999997
 11
95.231232000000034
 21
449.15002399999997
  0
LINE
  8
_0-0_0
  6
CONTINUOUS
 62
    7
 10
95.531235000000038
 20
451.15002399999997
 11
162.53121900000002
 21
451.15002399999997
  0
LINE
  8
_0-0_0
  6
CONTINUOUS
 62
    7
 10
95.231232000000034
 20
449.15002399999997
 11
162.83123800000004
 21
449.15002399999997
  0
LINE
  8
_0-0_0
  6
CONTINUOUS
 62
    7
 10
162.83123800000004
 20
449.15002399999997
 11
163.83123800000004
 21
449.15002399999997
  0
LINE
  8
_0-0_0
  6
CONTINUOUS
 62
    7
 10
163.83123800000004
 20
451.13284299999998
 11
163.83123800000004
 21
449.15002399999997
  0
LINE
  8
_0-0_0
  6
CONTINUOUS
 62
    7
 10
174.03121900000002
 20
449.25
 11
173.53121900000002
 21
448.75
  0
ARC
  8
_0-0_0
  6
CONTINUOUS
 62
    7
 10
174.23123200000003
 20
449.45001200000002
 40
0.2
 50
90.000003000000007
 51
179.99999099999999
  0
ARC
  8
_0-0_0
  6
CONTINUOUS
 62
    7
 10
178.53121900000002
 20
450.15002399999997
 40
0.5
 50
269.99999700000001
 51
0
  0
LINE
  8
_0-0_0
  6
CONTINUOUS
 62
    7
 10
178.71298200000001
 20
452.85000600000001
 11
178.73333700000001
 21
452.84899899999999
  0
LINE
  8
_0-0_0
  6
CONTINUOUS
 62
    7
 10
178.73333700000001
 20
452.84899899999999
 11
178.75375400000001
 21
452.84585600000003
  0
LINE
  8
_0-0_0
  6
CONTINUOUS
 62
    7
 10
178.75375400000001
 20
452.84585600000003
 11
178.78054800000001
 21
452.838257
  0
LINE
  8
_0-0_0
  6
CONTINUOUS
 62
    7
 10
178.78054800000001
 20
452.838257
 11
178.80618300000003
 21
452.82690400000001
  0
LINE
  8
_0-0_0
  6
CONTINUOUS
 62
    7
 10
178.80618300000003
 20
452.82690400000001
 11
178.82998700000002
 21
452.81201199999998
  0
LINE
  8
_0-0_0
  6
CONTINUOUS
 62
    7
 10
178.82998700000002
 20
452.81201199999998
 11
178.84677100000005
 21
452.79849200000001
  0
LINE
  8
_0-0_0
  6
CONTINUOUS
 62
    7
 10
178.84677100000005
 20
452.79849200000001
 11
178.86227400000001
 21
452.78326399999997
  0
LINE
  8
_0-0_0
  6
CONTINUOUS
 62
    7
 10
178.86227400000001
 20
452.78326399999997
 11
178.88916000000006
 21
452.748627
  0
LINE
  8
_0-0_0
  6
CONTINUOUS
 62
    7
 10
178.88916000000006
 20
452.748627
 11
178.91018700000001
 21
452.71029700000003
  0
LINE
  8
_0-0_0
  6
CONTINUOUS
 62
    7
 10
178.91018700000001
 20
452.71029700000003
 11
178.92221100000006
 21
452.68035900000001
  0
LINE
  8
_0-0_0
  6
CONTINUOUS
 62
    7
 10
178.92221100000006
 20
452.68035900000001
 11
178.93124400000005
 21
452.65002399999997
  0
LINE
  8
_0-0_0
  6
CONTINUOUS
 62
    7
 10
178.71298200000001
 20
452.85000600000001
 11
178.53121900000002
 21
452.85000600000001
  0
LINE
  8
_0-0_0
  6
CONTINUOUS
 62
    7
 10
174.03121900000002
 20
454.15002399999997
 11
174.03121900000002
 21
453.09643599999998
  0
LINE
  8
_0-0_0
  6
CONTINUOUS
 62
    7
 10
174.03121900000002
 20
454.15002399999997
 11
174.03121900000002
 21
471.75
  0
LINE
  8
_0-0_0
  6
CONTINUOUS
 62
    7
 10
174.03121900000002
 20
473.72738600000002
 11
174.03121900000002
 21
471.75
  0
ARC
  8
_0-0_0
  6
CONTINUOUS
 62
    7
 10
173.53121900000002
 20
472.50500499999998
 40
0.5
 50
0
 51
123.74898500000002
  0
ARC
  8
_0-0_0
  6
CONTINUOUS
 62
    7
 10
174.20150700000005
 20
453.02331500000003
 40
0.1734229999999999
 50
181.12417600000003
 51
270.64883800000007
  0
LINE
  8
_0-0_0
  6
CONTINUOUS
 62
    7
 10
174.02719100000002
 20
453.05001800000002
 11
174.02728300000001
 21
453.01986699999998
  0
ARC
  8
_0-0_0
  6
CONTINUOUS
 62
    7
 10
169.33123800000004
 20
475.75
 40
0.5
 50
0
 51
90.000003000000007
  0
ARC
  8
_0-0_0
  6
CONTINUOUS
 62
    7
 10
93.031235000000038
 20
474.75
 40
2.7000000000000002
 50
285.68033600000007
 51
0.0000000000000381
  0
ARC
  8
_0-0_0
  6
CONTINUOUS
 62
    7
 10
110.03123500000004
 20
458.95001200000002
 40
3
 50
269.99999700000001
 51
0
  0
LINE
  8
_0-0_0
  6
CONTINUOUS
 62
    7
 10
113.03123500000004
 20
458.95001200000002
 11
113.03123500000004
 21
472.55001800000002
  0
ARC
  8
_0-0_0
  6
CONTINUOUS
 62
    7
 10
110.03123500000004
 20
472.55001800000002
 40
3
 50
0
 51
90.000003000000007
  0
ARC
  8
_0-0_0
  6
CONTINUOUS
 62
    7
 10
105.53123500000004
 20
468.25
 40
4.5
 50
269.99999700000001
 51
90.000002999999992
  0
LINE
  8
_0-0_0
  6
CONTINUOUS
 62
    7
 10
105.53123500000004
 20
463.75
 11
100.53123500000004
 21
463.75
  0
ARC
  8
_0-0_0
  6
CONTINUOUS
 62
    7
 10
100.53123500000004
 20
468.25
 40
4.5
 50
90.000003000000007
 51
269.99999700000006
  0
LINE
  8
_0-0_0
  6
CONTINUOUS
 62
    7
 10
100.53123500000004
 20
472.75
 11
105.53123500000004
 21
472.75
  0
ARC
  8
_0-0_0
  6
CONTINUOUS
 62
    7
 10
152.03121900000002
 20
458.95001200000002
 40
3
 50
179.99999099999999
 51
269.99999700000001
  0
LINE
  8
_0-0_0
  6
CONTINUOUS
 62
    7
 10
149.03121900000002
 20
472.55001800000002
 11
149.03121900000002
 21
458.95001200000002
  0
ARC
  8
_0-0_0
  6
CONTINUOUS
 62
    7
 10
152.03121900000002
 20
472.55001800000002
 40
3
 50
90.000003000000007
 51
179.99999099999999
  0
ARC
  8
_0-0_0
  6
CONTINUOUS
 62
    7
 10
161.53121900000002
 20
468.25
 40
4.5
 50
269.99999700000001
 51
90.000002999999992
  0
LINE
  8
_0-0_0
  6
CONTINUOUS
 62
    7
 10
161.53121900000002
 20
463.75
 11
156.53121900000002
 21
463.75
  0
ARC
  8
_0-0_0
  6
CONTINUOUS
 62
    7
 10
156.53121900000002
 20
468.25
 40
4.5
 50
90.000003000000007
 51
269.99999700000006
  0
LINE
  8
_0-0_0
  6
CONTINUOUS
 62
    7
 10
156.53121900000002
 20
472.75
 11
161.53121900000002
 21
472.75
  0
LINE
  8
_0-0_0
  6
CONTINUOUS
 62
    7
 10
83.531235000000038
 20
473.05001800000002
 11
83.349487000000067
 21
473.05001800000002
  0
LINE
  8
_0-0_0
  6
CONTINUOUS
 62
    7
 10
88.031235000000038
 20
454.95001200000002
 11
88.031235000000038
 21
453.29168700000002
  0
LINE
  8
_0-0_0
  6
CONTINUOUS
 62
    7
 10
88.031235000000038
 20
454.95001200000002
 11
88.031235000000038
 21
471.45001200000002
  0
LINE
  8
_0-0_0
  6
CONTINUOUS
 62
    7
 10
88.031235000000038
 20
472.91629
 11
88.031235000000038
 21
471.45001200000002
  0
ARC
  8
_0-0_0
  6
CONTINUOUS
 62
    7
 10
87.86094700000001
 20
453.02328499999999
 40
0.1734209999999999
 50
269.35085600000002
 51
358.87625300000002
  0
LINE
  8
_0-0_0
  6
CONTINUOUS
 62
    7
 10
88.035278000000062
 20
453.05001800000002
 11
88.035202000000027
 21
453.01986699999998
  0
LINE
  8
_0-0_0
  6
CONTINUOUS
 62
    7
 10
88.035278000000062
 20
472.85000600000001
 11
88.035202000000027
 21
472.88012700000002
  0
ARC
  8
_0-0_0
  6
CONTINUOUS
 62
    7
 10
87.86094700000001
 20
472.87670900000001
 40
0.1734219999999999
 50
1.1236539999999999
 51
90.649110000000007
  0
LINE
  8
_0-0_0
  6
CONTINUOUS
 62
    7
 10
83.531235000000038
 20
452.85000600000001
 11
83.349487000000067
 21
452.85000600000001
  0
LINE
  8
_0-0_0
  6
CONTINUOUS
 62
    7
 10
83.349487000000067
 20
452.85000600000001
 11
83.329132000000072
 21
452.84899899999999
  0
LINE
  8
_0-0_0
  6
CONTINUOUS
 62
    7
 10
83.329132000000072
 20
452.84899899999999
 11
83.308731000000023
 21
452.84582499999999
  0
LINE
  8
_0-0_0
  6
CONTINUOUS
 62
    7
 10
83.308731000000023
 20
452.84582499999999
 11
83.281921000000011
 21
452.838257
  0
LINE
  8
_0-0_0
  6
CONTINUOUS
 62
    7
 10
83.281921000000011
 20
452.838257
 11
83.256271000000027
 21
452.82690400000001
  0
LINE
  8
_0-0_0
  6
CONTINUOUS
 62
    7
 10
83.256271000000027
 20
452.82690400000001
 11
83.23246800000004
 21
452.81201199999998
  0
LINE
  8
_0-0_0
  6
CONTINUOUS
 62
    7
 10
83.23246800000004
 20
452.81201199999998
 11
83.215713000000051
 21
452.79849200000001
  0
LINE
  8
_0-0_0
  6
CONTINUOUS
 62
    7
 10
83.215713000000051
 20
452.79849200000001
 11
83.200211000000024
 21
452.78326399999997
  0
LINE
  8
_0-0_0
  6
CONTINUOUS
 62
    7
 10
83.200211000000024
 20
452.78326399999997
 11
83.173309000000017
 21
452.748627
  0
LINE
  8
_0-0_0
  6
CONTINUOUS
 62
    7
 10
83.173309000000017
 20
452.748627
 11
83.152283000000011
 21
452.71029700000003
  0
LINE
  8
_0-0_0
  6
CONTINUOUS
 62
    7
 10
83.152283000000011
 20
452.71029700000003
 11
83.140274000000034
 21
452.68035900000001
  0
LINE
  8
_0-0_0
  6
CONTINUOUS
 62
    7
 10
83.140274000000034
 20
452.68035900000001
 11
83.131226000000026
 21
452.65002399999997
  0
ARC
  8
_0-0_0
  6
CONTINUOUS
 62
    7
 10
83.531235000000038
 20
450.15002399999997
 40
0.5
 50
179.99999099999999
 51
269.99999700000001
  0
ARC
  8
_0-0_0
  6
CONTINUOUS
 62
    7
 10
87.831238000000042
 20
449.45001200000002
 40
0.2
 50
0
 51
90.000003000000007
  0
LINE
  8
_0-0_0
  6
CONTINUOUS
 62
    7
 10
88.031235000000038
 20
449.25
 11
88.531235000000038
 21
448.75
  0
LINE
  8
_0-0_0
  6
CONTINUOUS
 62
    7
 10
82.031235000000038
 20
475.09429899999998
 11
82.031235000000038
 21
476.65002399999997
  0
ARC
  8
_0-0_0
  6
CONTINUOUS
 62
    7
 10
82.518143000000009
 20
475.09765599999997
 40
0.4869939999999999
 50
180.39493000000002
 51
203.93946700000001
  0
ARC
  8
_0-0_0
  6
CONTINUOUS
 62
    7
 10
82.531235000000038
 20
475.10000600000001
 40
0.5
 50
203.57823099999999
 51
269.99999700000001
  0
ARC
  8
_0-0_0
  6
CONTINUOUS
 62
    7
 10
82.531235000000038
 20
476.65002399999997
 40
0.5
 50
90.000003000000007
 51
179.99999099999999
  0
LINE
  8
_0-0_0
  6
CONTINUOUS
 62
    7
 10
174.03121900000002
 20
474.45001200000002
 11
174.53121900000002
 21
474.45001200000002
  0
LINE
  8
_0-0_0
  6
CONTINUOUS
 62
    7
 10
174.53121900000002
 20
474.45001200000002
 11
187.03121900000002
 21
474.45001200000002
  0
ARC
  8
_0-0_0
  6
CONTINUOUS
 62
    7
 10
174.53121900000002
 20
474.95001200000002
 40
0.5
 50
179.99999099999999
 51
269.99999700000001
  0
LINE
  8
_0-0_0
  6
CONTINUOUS
 62
    7
 10
174.03121900000002
 20
474.08398399999999
 11
174.03121900000002
 21
474.45001200000002
  0
LINE
  8
_0-0_0
  6
CONTINUOUS
 62
    7
 10
174.03121900000002
 20
473.83349600000003
 11
174.03121900000002
 21
473.72738600000002
  0
LINE
  8
_0-0_0
  6
CONTINUOUS
 62
    7
 10
174.03121900000002
 20
474.08398399999999
 11
174.03121900000002
 21
473.83349600000003
  0
CIRCLE
  8
_0-0_0
  6
CONTINUOUS
 62
    7
 10
93.031235000000038
 20
474.75
 40
1.4750000000000001
  0
CIRCLE
  8
_0-0_0
  6
CONTINUOUS
 62
    7
 10
172.03121900000002
 20
474.75
 40
1.4750000000000001
  0
LINE
  8
_0-0_0
  6
CONTINUOUS
 62
    7
 10
82.031235000000038
 20
454.95001200000002
 11
82.031235000000038
 21
452.45001200000002
  0
LINE
  8
_0-0_0
  6
CONTINUOUS
 62
    7
 10
82.031235000000038
 20
454.95001200000002
 11
82.031235000000038
 21
467.75
  0
LINE
  8
_0-0_0
  6
CONTINUOUS
 62
    7
 10
82.031235000000038
 20
471.25
 11
82.031235000000038
 21
467.75
  0
LINE
  8
_0-0_0
  6
CONTINUOUS
 62
    7
 10
82.031235000000038
 20
471.25
 11
82.031235000000038
 21
471.60000600000001
  0
LINE
  8
_0-0_0
  6
CONTINUOUS
 62
    7
 10
82.031235000000038
 20
475.09429899999998
 11
82.031235000000038
 21
471.60000600000001
  0
LINE
  8
_0-0_0
  6
CONTINUOUS
 62
    7
 10
82.031235000000038
 20
476.942902
 11
82.031235000000038
 21
476.65002399999997
  0
LINE
  8
_0-0_0
  6
CONTINUOUS
 62
    7
 10
82.031235000000038
 20
476.942902
 11
82.031235000000038
 21
477
  0
LINE
  8
_0-0_0
  6
CONTINUOUS
 62
    7
 10
83.031769000000054
 20
451.95001200000002
 11
82.531235000000038
 21
451.95001200000002
  0
LINE
  8
_0-0_0
  6
CONTINUOUS
 62
    7
 10
179.02005000000003
 20
452.15002399999997
 11
186.03121900000002
 21
452.15002399999997
  0
LINE
  8
_0-0_0
  6
CONTINUOUS
 62
    7
 10
186.03121900000002
 20
452.15002399999997
 11
190.70669500000002
 21
452.15002399999997
  0
LINE
  8
_0-0_0
  6
CONTINUOUS
 62
    7
 10
186.03121900000002
 20
452.15002399999997
 11
186.03121900000002
 21
454.15002399999997
  0
LINE
  8
_0-0_0
  6
CONTINUOUS
 62
    7
 10
186.03121900000002
 20
457.65002399999997
 11
186.03121900000002
 21
454.65002399999997
  0
LINE
  8
_0-0_0
  6
CONTINUOUS
 62
    7
 10
186.03121900000002
 20
454.65002399999997
 11
186.03121900000002
 21
454.15002399999997
  0
LINE
  8
_0-0_0
  6
CONTINUOUS
 62
    7
 10
186.03121900000002
 20
457.65002399999997
 11
186.03121900000002
 21
458.15002399999997
  0
ARC
  8
_0-0_0
  6
CONTINUOUS
 62
    7
 10
180.03121900000002
 20
457.45001200000002
 40
0.500016
 50
180.00117
 51
359.995611
  0
LINE
  8
_0-0_0
  6
CONTINUOUS
 62
    7
 10
180.53121900000002
 20
457.45001200000002
 11
180.53121900000002
 21
469.45001200000002
  0
ARC
  8
_0-0_0
  6
CONTINUOUS
 62
    7
 10
180.03121900000002
 20
469.45001200000002
 40
0.500016
 50
0.001164
 51
179.99560600000004
  0
LINE
  8
_0-0_0
  6
CONTINUOUS
 62
    7
 10
179.53121900000002
 20
457.45001200000002
 11
179.53121900000002
 21
469.45001200000002
  0
ARC
  8
_0-0_0
  6
CONTINUOUS
 62
    7
 10
181.53121900000002
 20
457.45001200000002
 40
0.500016
 50
180.00117
 51
359.995611
  0
LINE
  8
_0-0_0
  6
CONTINUOUS
 62
    7
 10
182.03121900000002
 20
457.45001200000002
 11
182.03121900000002
 21
469.45001200000002
  0
ARC
  8
_0-0_0
  6
CONTINUOUS
 62
    7
 10
181.53121900000002
 20
469.45001200000002
 40
0.500016
 50
0.001164
 51
179.99560600000004
  0
LINE
  8
_0-0_0
  6
CONTINUOUS
 62
    7
 10
181.03121900000002
 20
457.45001200000002
 11
181.03121900000002
 21
469.45001200000002
  0
ARC
  8
_0-0_0
  6
CONTINUOUS
 62
    7
 10
183.03121900000002
 20
457.45001200000002
 40
0.500016
 50
180.00117
 51
359.995611
  0
LINE
  8
_0-0_0
  6
CONTINUOUS
 62
    7
 10
183.53121900000002
 20
457.45001200000002
 11
183.53121900000002
 21
469.45001200000002
  0
ARC
  8
_0-0_0
  6
CONTINUOUS
 62
    7
 10
183.03121900000002
 20
469.45001200000002
 40
0.500016
 50
0.001164
 51
179.99560600000004
  0
LINE
  8
_0-0_0
  6
CONTINUOUS
 62
    7
 10
182.53121900000002
 20
457.45001200000002
 11
182.53121900000002
 21
469.45001200000002
  0
ARC
  8
_0-0_0
  6
CONTINUOUS
 62
    7
 10
184.53121900000002
 20
457.45001200000002
 40
0.500016
 50
180.00117
 51
359.995611
  0
LINE
  8
_0-0_0
  6
CONTINUOUS
 62
    7
 10
185.03121900000002
 20
457.45001200000002
 11
185.03121900000002
 21
469.45001200000002
  0
ARC
  8
_0-0_0
  6
CONTINUOUS
 62
    7
 10
184.53121900000002
 20
469.45001200000002
 40
0.500016
 50
0.001164
 51
179.99560600000004
  0
LINE
  8
_0-0_0
  6
CONTINUOUS
 62
    7
 10
184.03121900000002
 20
457.45001200000002
 11
184.03121900000002
 21
469.45001200000002
  0
LINE
  8
_0-0_0
  6
CONTINUOUS
 62
    7
 10
174.03121900000002
 20
473.75
 11
190.70669500000002
 21
473.75
  0
LINE
  8
_0-0_0
  6
CONTINUOUS
 62
    7
 10
82.531235000000038
 20
477.5
 11
88.031235000000038
 21
477.5
  0
ARC
  8
_0-0_0
  6
CONTINUOUS
 62
    7
 10
82.531235000000038
 20
477
 40
0.5
 50
90.000003000000007
 51
179.99999099999999
  0
ARC
  8
_0-0_0
  6
CONTINUOUS
 62
    7
 10
82.531235000000038
 20
452.45001200000002
 40
0.5
 50
179.99999099999999
 51
269.99999700000001
  0
ARC
  8
_0-0_0
  6
CONTINUOUS
 62
    7
 10
82.531235000000038
 20
467.75
 40
0.5
 50
90.000003000000007
 51
179.99999099999999
  0
ARC
  8
_0-0_0
  6
CONTINUOUS
 62
    7
 10
190.70669500000002
 20
454.15002399999997
 40
2
 50
269.99999700000001
 51
288.43501300000003
  0
LINE
  8
_0-0_0
  6
CONTINUOUS
 62
    7
 10
186.03121900000002
 20
452.15002399999997
 11
186.03121900000002
 21
452.40008499999999
  0
LINE
  8
_0-0_0
  6
CONTINUOUS
 62
    7
 10
186.03121900000002
 20
457.65002399999997
 11
190.70669500000002
 21
457.65002399999997
  0
LINE
  8
_0-0_0
  6
CONTINUOUS
 62
    7
 10
191.33914200000004
 20
473.64736900000003
 11
191.21963500000004
 21
473.68298299999998
  0
LINE
  8
_0-0_0
  6
CONTINUOUS
 62
    7
 10
191.21963500000004
 20
473.68298299999998
 11
191.09808300000003
 21
473.71087599999998
  0
LINE
  8
_0-0_0
  6
CONTINUOUS
 62
    7
 10
191.09808300000003
 20
473.71087599999998
 11
190.97494500000005
 21
473.73092700000001
  0
LINE
  8
_0-0_0
  6
CONTINUOUS
 62
    7
 10
190.97494500000005
 20
473.73092700000001
 11
190.85073800000004
 21
473.743042
  0
LINE
  8
_0-0_0
  6
CONTINUOUS
 62
    7
 10
190.85073800000004
 20
473.743042
 11
190.72592200000003
 21
473.747162
  0
LINE
  8
_0-0_0
  6
CONTINUOUS
 62
    7
 10
190.72592200000003
 20
473.747162
 11
190.70669500000002
 21
473.74710099999999
  0
ARC
  8
_0-0_0
  6
CONTINUOUS
 62
    7
 10
190.70669500000002
 20
471.75
 40
2
 50
71.565000999999995
 51
90.000003000000007
  0
LINE
  8
_0-0_0
  6
CONTINUOUS
 62
    7
 10
107.00277700000004
 20
464.15002399999997
 11
99.059692000000041
 21
464.15002399999997
  0
ARC
  8
_0-0_0
  6
CONTINUOUS
 62
    7
 10
99.059692000000041
 20
464.65002399999997
 40
0.5
 50
210.00000299999999
 51
269.99999700000001
  0
LINE
  8
_0-0_0
  6
CONTINUOUS
 62
    7
 10
98.626678000000027
 20
464.40002399999997
 11
96.54821800000002
 21
468
  0
ARC
  8
_0-0_0
  6
CONTINUOUS
 62
    7
 10
96.981232000000034
 20
468.25
 40
0.5
 50
149.99999700000001
 51
210.00000299999996
  0
LINE
  8
_0-0_0
  6
CONTINUOUS
 62
    7
 10
96.54821800000002
 20
468.5
 11
98.626678000000027
 21
472.10000600000001
  0
ARC
  8
_0-0_0
  6
CONTINUOUS
 62
    7
 10
99.059692000000041
 20
471.85000600000001
 40
0.5
 50
90.000003000000007
 51
149.99999700000001
  0
LINE
  8
_0-0_0
  6
CONTINUOUS
 62
    7
 10
99.059692000000041
 20
472.35000600000001
 11
107.00277700000004
 21
472.35000600000001
  0
ARC
  8
_0-0_0
  6
CONTINUOUS
 62
    7
 10
107.00277700000004
 20
471.85000600000001
 40
0.5
 50
30.000001000000001
 51
90.000003000000007
  0
LINE
  8
_0-0_0
  6
CONTINUOUS
 62
    7
 10
107.43579099999999
 20
472.10000600000001
 11
109.51425200000006
 21
468.5
  0
ARC
  8
_0-0_0
  6
CONTINUOUS
 62
    7
 10
109.08123800000004
 20
468.25
 40
0.5
 50
329.99998900000003
 51
30.000000999999983
  0
LINE
  8
_0-0_0
  6
CONTINUOUS
 62
    7
 10
109.51425200000006
 20
468
 11
107.43579099999999
 21
464.40002399999997
  0
ARC
  8
_0-0_0
  6
CONTINUOUS
 62
    7
 10
107.00277700000004
 20
464.65002399999997
 40
0.5
 50
269.99999700000001
 51
329.99998900000003
  0
ARC
  8
_0-0_0
  6
CONTINUOUS
 62
    7
 10
155.00198400000005
 20
464.75
 40
0.5
 50
210.00000299999999
 51
269.99999700000001
  0
LINE
  8
_0-0_0
  6
CONTINUOUS
 62
    7
 10
154.56893900000006
 20
464.5
 11
152.54824800000006
 21
468
  0
ARC
  8
_0-0_0
  6
CONTINUOUS
 62
    7
 10
152.98123200000003
 20
468.25
 40
0.5
 50
149.99999700000001
 51
210.00000299999996
  0
LINE
  8
_0-0_0
  6
CONTINUOUS
 62
    7
 10
152.54824800000006
 20
468.5
 11
154.56893900000006
 21
472
  0
ARC
  8
_0-0_0
  6
CONTINUOUS
 62
    7
 10
155.00198400000005
 20
471.75
 40
0.5
 50
90.000003000000007
 51
149.99999700000001
  0
LINE
  8
_0-0_0
  6
CONTINUOUS
 62
    7
 10
155.00198400000005
 20
472.25
 11
163.06051600000001
 21
472.25
  0
ARC
  8
_0-0_0
  6
CONTINUOUS
 62
    7
 10
163.06051600000001
 20
471.75
 40
0.5
 50
30.000001000000001
 51
90.000003000000007
  0
LINE
  8
_0-0_0
  6
CONTINUOUS
 62
    7
 10
163.49353000000002
 20
472
 11
165.51425200000006
 21
468.5
  0
ARC
  8
_0-0_0
  6
CONTINUOUS
 62
    7
 10
165.08123800000004
 20
468.25
 40
0.5
 50
329.99998900000003
 51
30.000000999999983
  0
LINE
  8
_0-0_0
  6
CONTINUOUS
 62
    7
 10
165.51425200000006
 20
468
 11
163.49353000000002
 21
464.5
  0
ARC
  8
_0-0_0
  6
CONTINUOUS
 62
    7
 10
163.06051600000001
 20
464.75
 40
0.5
 50
269.99999700000001
 51
329.99998900000003
  0
LINE
  8
_0-0_0
  6
CONTINUOUS
 62
    7
 10
163.06051600000001
 20
464.25
 11
155.00198400000005
 21
464.25
  0
LINE
  8
_0-0_0
  6
CONTINUOUS
 62
    7
 10
85.031235000000038
 20
472.88043199999998
 11
85.031235000000038
 21
472.05419899999998
  0
LINE
  8
_0-0_0
  6
CONTINUOUS
 62
    7
 10
82.531235000000038
 20
468.25
 11
84.731232000000034
 21
468.25
  0
LINE
  8
_0-0_0
  6
CONTINUOUS
 62
    7
 10
85.031235000000038
 20
468.55001800000002
 11
85.031235000000038
 21
470.77832000000001
  0
LINE
  8
_0-0_0
  6
CONTINUOUS
 62
    7
 10
85.031235000000038
 20
473.04968300000002
 11
85.031235000000038
 21
472.88043199999998
  0
LINE
  8
_0-0_0
  6
CONTINUOUS
 62
    7
 10
93.231232000000034
 20
473.65002399999997
 11
92.831238000000042
 21
473.65002399999997
  0
LINE
  8
_0-0_0
  6
CONTINUOUS
 62
    7
 10
93.231232000000034
 20
473.65002399999997
 11
93.231232000000034
 21
474.30001800000002
  0
ARC
  8
_0-0_0
  6
CONTINUOUS
 62
    7
 10
93.481232000000034
 20
474.30001800000002
 40
0.25
 50
90.000003000000007
 51
179.99999099999999
  0
LINE
  8
_0-0_0
  6
CONTINUOUS
 62
    7
 10
93.481232000000034
 20
474.55001800000002
 11
94.131226000000026
 21
474.55001800000002
  0
LINE
  8
_0-0_0
  6
CONTINUOUS
 62
    7
 10
94.131226000000026
 20
474.55001800000002
 11
94.131226000000026
 21
474.95001200000002
  0
LINE
  8
_0-0_0
  6
CONTINUOUS
 62
    7
 10
93.481232000000034
 20
474.95001200000002
 11
94.131226000000026
 21
474.95001200000002
  0
ARC
  8
_0-0_0
  6
CONTINUOUS
 62
    7
 10
93.481232000000034
 20
475.20001200000002
 40
0.25
 50
179.99999099999999
 51
269.99999700000001
  0
LINE
  8
_0-0_0
  6
CONTINUOUS
 62
    7
 10
93.231232000000034
 20
475.85000600000001
 11
93.231232000000034
 21
475.20001200000002
  0
LINE
  8
_0-0_0
  6
CONTINUOUS
 62
    7
 10
93.231232000000034
 20
475.85000600000001
 11
92.831238000000042
 21
475.85000600000001
  0
LINE
  8
_0-0_0
  6
CONTINUOUS
 62
    7
 10
92.831238000000042
 20
475.85000600000001
 11
92.831238000000042
 21
475.20001200000002
  0
ARC
  8
_0-0_0
  6
CONTINUOUS
 62
    7
 10
92.581238000000042
 20
475.20001200000002
 40
0.25
 50
269.99999700000001
 51
0
  0
LINE
  8
_0-0_0
  6
CONTINUOUS
 62
    7
 10
92.581238000000042
 20
474.95001200000002
 11
91.931243999999992
 21
474.95001200000002
  0
LINE
  8
_0-0_0
  6
CONTINUOUS
 62
    7
 10
91.931243999999992
 20
474.55001800000002
 11
91.931243999999992
 21
474.95001200000002
  0
LINE
  8
_0-0_0
  6
CONTINUOUS
 62
    7
 10
92.581238000000042
 20
474.55001800000002
 11
91.931243999999992
 21
474.55001800000002
  0
ARC
  8
_0-0_0
  6
CONTINUOUS
 62
    7
 10
92.581238000000042
 20
474.30001800000002
 40
0.25
 50
0
 51
90.000003000000007
  0
LINE
  8
_0-0_0
  6
CONTINUOUS
 62
    7
 10
92.831238000000042
 20
473.65002399999997
 11
92.831238000000042
 21
474.30001800000002
  0
LINE
  8
_0-0_0
  6
CONTINUOUS
 62
    7
 10
172.23123200000003
 20
473.65002399999997
 11
171.83123800000004
 21
473.65002399999997
  0
LINE
  8
_0-0_0
  6
CONTINUOUS
 62
    7
 10
172.23123200000003
 20
473.65002399999997
 11
172.23123200000003
 21
474.30001800000002
  0
ARC
  8
_0-0_0
  6
CONTINUOUS
 62
    7
 10
172.48123200000003
 20
474.30001800000002
 40
0.25
 50
90.000003000000007
 51
179.99999099999999
  0
LINE
  8
_0-0_0
  6
CONTINUOUS
 62
    7
 10
172.48123200000003
 20
474.55001800000002
 11
173.13125600000001
 21
474.55001800000002
  0
LINE
  8
_0-0_0
  6
CONTINUOUS
 62
    7
 10
173.13125600000001
 20
474.55001800000002
 11
173.13125600000001
 21
474.95001200000002
  0
LINE
  8
_0-0_0
  6
CONTINUOUS
 62
    7
 10
172.48123200000003
 20
474.95001200000002
 11
173.13125600000001
 21
474.95001200000002
  0
ARC
  8
_0-0_0
  6
CONTINUOUS
 62
    7
 10
172.48123200000003
 20
475.20001200000002
 40
0.25
 50
179.99999099999999
 51
269.99999700000001
  0
LINE
  8
_0-0_0
  6
CONTINUOUS
 62
    7
 10
172.23123200000003
 20
475.85000600000001
 11
172.23123200000003
 21
475.20001200000002
  0
LINE
  8
_0-0_0
  6
CONTINUOUS
 62
    7
 10
172.23123200000003
 20
475.85000600000001
 11
171.83123800000004
 21
475.85000600000001
  0
LINE
  8
_0-0_0
  6
CONTINUOUS
 62
    7
 10
171.83123800000004
 20
475.85000600000001
 11
171.83123800000004
 21
475.20001200000002
  0
ARC
  8
_0-0_0
  6
CONTINUOUS
 62
    7
 10
171.58123800000004
 20
475.20001200000002
 40
0.25
 50
269.99999700000001
 51
0
  0
LINE
  8
_0-0_0
  6
CONTINUOUS
 62
    7
 10
171.58123800000004
 20
474.95001200000002
 11
170.93124400000005
 21
474.95001200000002
  0
LINE
  8
_0-0_0
  6
CONTINUOUS
 62
    7
 10
170.93124400000005
 20
474.55001800000002
 11
170.93124400000005
 21
474.95001200000002
  0
LINE
  8
_0-0_0
  6
CONTINUOUS
 62
    7
 10
171.58123800000004
 20
474.55001800000002
 11
170.93124400000005
 21
474.55001800000002
  0
ARC
  8
_0-0_0
  6
CONTINUOUS
 62
    7
 10
171.58123800000004
 20
474.30001800000002
 40
0.25
 50
0
 51
90.000003000000007
  0
LINE
  8
_0-0_0
  6
CONTINUOUS
 62
    7
 10
171.83123800000004
 20
473.65002399999997
 11
171.83123800000004
 21
474.30001800000002
  0
LINE
  8
_0-0_0
  6
CONTINUOUS
 62
    7
 10
191.78121900000002
 20
452.39999399999999
 11
191.33914200000004
 21
452.25262500000002
  0
LINE
  8
_0-0_0
  6
CONTINUOUS
 62
    7
 10
195.50558500000005
 20
457.65002399999997
 11
196.19894400000004
 21
457.65002399999997
  0
LINE
  8
_0-0_0
  6
CONTINUOUS
 62
    7
 10
195.50558500000005
 20
457.65002399999997
 11
191.18103000000002
 21
457.65002399999997
  0
LINE
  8
_0-0_0
  6
CONTINUOUS
 62
    7
 10
190.70669500000002
 20
457.65002399999997
 11
191.18103000000002
 21
457.65002399999997
  0
LINE
  8
_0-0_0
  6
CONTINUOUS
 62
    7
 10
195.66369600000002
 20
472.20584100000002
 11
191.33914200000004
 21
473.64736900000003
  0
LINE
  8
_0-0_0
  6
CONTINUOUS
 62
    7
 10
85.031235000000038
 20
472.05419899999998
 11
85.031235000000038
 21
470.77832000000001
  0
ARC
  8
_0-0_0
  6
CONTINUOUS
 62
    7
 10
84.731232000000034
 20
468.55001800000002
 40
0.2999999999999999
 50
269.99999700000001
 51
0
  0
LINE
  8
_0-0_0
  6
CONTINUOUS
 62
    7
 10
82.575560999999993
 20
472.32870500000001
 11
82.575560999999993
 21
469
  0
LINE
  8
_0-0_0
  6
CONTINUOUS
 62
    7
 10
82.575560999999993
 20
473.5
 11
82.575560999999993
 21
472.32870500000001
  0
LINE
  8
_0-0_0
  6
CONTINUOUS
 62
    7
 10
197.03121900000002
 20
456.89996300000001
 11
197.03121900000002
 21
458.02099600000003
  0
LINE
  8
_0-0_0
  6
CONTINUOUS
 62
    7
 10
197.03121900000002
 20
458.94232199999999
 11
197.03121900000002
 21
458.02099600000003
  0
LINE
  8
_0-0_0
  6
CONTINUOUS
 62
    7
 10
196.73123200000003
 20
460.73800699999998
 11
196.79003900000004
 21
460.49117999999999
  0
LINE
  8
_0-0_0
  6
CONTINUOUS
 62
    7
 10
196.79003900000004
 20
460.49117999999999
 11
196.83981300000005
 21
460.29882800000001
  0
LINE
  8
_0-0_0
  6
CONTINUOUS
 62
    7
 10
196.83981300000005
 20
460.29882800000001
 11
196.91091900000004
 21
460.033051
  0
LINE
  8
_0-0_0
  6
CONTINUOUS
 62
    7
 10
196.91091900000004
 20
460.033051
 11
196.94387800000004
 21
459.906342
  0
LINE
  8
_0-0_0
  6
CONTINUOUS
 62
    7
 10
196.94387800000004
 20
459.906342
 11
196.96914700000002
 21
459.80291699999998
  0
LINE
  8
_0-0_0
  6
CONTINUOUS
 62
    7
 10
196.96914700000002
 20
459.80291699999998
 11
196.99118000000004
 21
459.70297199999999
  0
LINE
  8
_0-0_0
  6
CONTINUOUS
 62
    7
 10
196.99118000000004
 20
459.70297199999999
 11
197.01254300000005
 21
459.58526599999999
  0
LINE
  8
_0-0_0
  6
CONTINUOUS
 62
    7
 10
197.01254300000005
 20
459.58526599999999
 11
197.02114900000004
 21
459.52313199999998
  0
LINE
  8
_0-0_0
  6
CONTINUOUS
 62
    7
 10
197.02114900000004
 20
459.52313199999998
 11
197.02719100000002
 21
459.46252399999997
  0
LINE
  8
_0-0_0
  6
CONTINUOUS
 62
    7
 10
197.02719100000002
 20
459.46252399999997
 11
197.03021200000001
 21
459.41329999999999
  0
LINE
  8
_0-0_0
  6
CONTINUOUS
 62
    7
 10
197.03021200000001
 20
459.41329999999999
 11
197.03121900000002
 21
459.36505099999999
  0
LINE
  8
_0-0_0
  6
CONTINUOUS
 62
    7
 10
196.73123200000003
 20
465.16204800000003
 11
196.64779700000003
 21
464.78335600000003
  0
LINE
  8
_0-0_0
  6
CONTINUOUS
 62
    7
 10
196.64779700000003
 20
464.78335600000003
 11
196.60769600000003
 21
464.59182700000002
  0
LINE
  8
_0-0_0
  6
CONTINUOUS
 62
    7
 10
196.60769600000003
 20
464.59182700000002
 11
196.55160500000005
 21
464.30181900000002
  0
LINE
  8
_0-0_0
  6
CONTINUOUS
 62
    7
 10
196.55160500000005
 20
464.30181900000002
 11
196.51400700000005
 21
464.08221400000002
  0
LINE
  8
_0-0_0
  6
CONTINUOUS
 62
    7
 10
196.51400700000005
 20
464.08221400000002
 11
196.48135400000001
 21
463.86096199999997
  0
LINE
  8
_0-0_0
  6
CONTINUOUS
 62
    7
 10
196.48135400000001
 20
463.86096199999997
 11
196.45419300000003
 21
463.63415500000002
  0
LINE
  8
_0-0_0
  6
CONTINUOUS
 62
    7
 10
196.45419300000003
 20
463.63415500000002
 11
196.43411200000003
 21
463.406769
  0
LINE
  8
_0-0_0
  6
CONTINUOUS
 62
    7
 10
196.43411200000003
 20
463.406769
 11
196.42697100000004
 21
463.29302999999999
  0
LINE
  8
_0-0_0
  6
CONTINUOUS
 62
    7
 10
196.42697100000004
 20
463.29302999999999
 11
196.42181400000004
 21
463.17935199999999
  0
LINE
  8
_0-0_0
  6
CONTINUOUS
 62
    7
 10
196.42181400000004
 20
463.17935199999999
 11
196.41812100000004
 21
463.02792399999998
  0
LINE
  8
_0-0_0
  6
CONTINUOUS
 62
    7
 10
196.41812100000004
 20
463.02792399999998
 11
196.41806000000003
 21
462.87667800000003
  0
LINE
  8
_0-0_0
  6
CONTINUOUS
 62
    7
 10
196.41806000000003
 20
462.87667800000003
 11
196.42160000000001
 21
462.725616
  0
LINE
  8
_0-0_0
  6
CONTINUOUS
 62
    7
 10
196.42160000000001
 20
462.725616
 11
196.43112200000002
 21
462.53707900000001
  0
LINE
  8
_0-0_0
  6
CONTINUOUS
 62
    7
 10
196.43112200000002
 20
462.53707900000001
 11
196.44601400000005
 21
462.348816
  0
LINE
  8
_0-0_0
  6
CONTINUOUS
 62
    7
 10
196.44601400000005
 20
462.348816
 11
196.46591200000006
 21
462.160889
  0
LINE
  8
_0-0_0
  6
CONTINUOUS
 62
    7
 10
196.46591200000006
 20
462.160889
 11
196.48230000000001
 21
462.03201300000001
  0
LINE
  8
_0-0_0
  6
CONTINUOUS
 62
    7
 10
196.48230000000001
 20
462.03201300000001
 11
196.50070200000005
 21
461.90335099999999
  0
LINE
  8
_0-0_0
  6
CONTINUOUS
 62
    7
 10
196.50070200000005
 20
461.90335099999999
 11
196.52487200000002
 21
461.75140399999998
  0
LINE
  8
_0-0_0
  6
CONTINUOUS
 62
    7
 10
196.52487200000002
 20
461.75140399999998
 11
196.55126900000005
 21
461.60006700000002
  0
LINE
  8
_0-0_0
  6
CONTINUOUS
 62
    7
 10
196.55126900000005
 20
461.60006700000002
 11
196.60745200000002
 21
461.30944799999997
  0
LINE
  8
_0-0_0
  6
CONTINUOUS
 62
    7
 10
196.60745200000002
 20
461.30944799999997
 11
196.64761300000004
 21
461.11749300000002
  0
LINE
  8
_0-0_0
  6
CONTINUOUS
 62
    7
 10
196.64761300000004
 20
461.11749300000002
 11
196.73123200000003
 21
460.73800699999998
  0
LINE
  8
_0-0_0
  6
CONTINUOUS
 62
    7
 10
196.73123200000003
 20
465.16204800000003
 11
196.79003900000004
 21
465.40887500000002
  0
LINE
  8
_0-0_0
  6
CONTINUOUS
 62
    7
 10
196.79003900000004
 20
465.40887500000002
 11
196.83981300000005
 21
465.60119600000002
  0
LINE
  8
_0-0_0
  6
CONTINUOUS
 62
    7
 10
196.83981300000005
 20
465.60119600000002
 11
196.91091900000004
 21
465.86694299999999
  0
LINE
  8
_0-0_0
  6
CONTINUOUS
 62
    7
 10
196.91091900000004
 20
465.86694299999999
 11
196.94387800000004
 21
465.993652
  0
LINE
  8
_0-0_0
  6
CONTINUOUS
 62
    7
 10
196.94387800000004
 20
465.993652
 11
196.96914700000002
 21
466.09707600000002
  0
LINE
  8
_0-0_0
  6
CONTINUOUS
 62
    7
 10
196.96914700000002
 20
466.09707600000002
 11
196.99118000000004
 21
466.19705199999999
  0
LINE
  8
_0-0_0
  6
CONTINUOUS
 62
    7
 10
196.99118000000004
 20
466.19705199999999
 11
197.01254300000005
 21
466.31475799999998
  0
LINE
  8
_0-0_0
  6
CONTINUOUS
 62
    7
 10
197.01254300000005
 20
466.31475799999998
 11
197.02114900000004
 21
466.376892
  0
LINE
  8
_0-0_0
  6
CONTINUOUS
 62
    7
 10
197.02114900000004
 20
466.376892
 11
197.02719100000002
 21
466.4375
  0
LINE
  8
_0-0_0
  6
CONTINUOUS
 62
    7
 10
197.02719100000002
 20
466.4375
 11
197.03021200000001
 21
466.48672499999998
  0
LINE
  8
_0-0_0
  6
CONTINUOUS
 62
    7
 10
197.03021200000001
 20
466.48672499999998
 11
197.03121900000002
 21
466.534943
  0
LINE
  8
_0-0_0
  6
CONTINUOUS
 62
    7
 10
197.03121900000002
 20
470.30847199999999
 11
197.03121900000002
 21
466.95770299999998
  0
ARC
  8
_0-0_0
  6
CONTINUOUS
 62
    7
 10
195.03121900000002
 20
470.30847199999999
 40
2
 50
0
 51
71.565000999999995
  0
CIRCLE
  8
_0-0_0
  6
CONTINUOUS
 62
    7
 10
103.03123500000004
 20
468.25
 40
2.5
  0
CIRCLE
  8
_0-0_0
  6
CONTINUOUS
 62
    7
 10
159.03121900000002
 20
468.25
 40
2.5
  0
LINE
  8
_0-0_0
  6
CONTINUOUS
 62
    7
 10
82.431243999999992
 20
472.20886200000001
 11
82.431243999999992
 21
469.25
  0
LINE
  8
_0-0_0
  6
CONTINUOUS
 62
    7
 10
82.431243999999992
 20
473.25
 11
82.431243999999992
 21
472.20886200000001
  0
LINE
  8
_0-0_0
  6
CONTINUOUS
 62
    7
 10
212.03121900000002
 20
453.42456099999998
 11
212.03121900000002
 21
453.57128899999998
  0
LINE
  8
_0-0_0
  6
CONTINUOUS
 62
    7
 10
212.03121900000002
 20
453.234039
 11
212.03121900000002
 21
453.42456099999998
  0
LINE
  8
_0-0_0
  6
CONTINUOUS
 62
    7
 10
212.03121900000002
 20
453.05902099999997
 11
212.03121900000002
 21
453.234039
  0
LINE
  8
_0-0_0
  6
CONTINUOUS
 62
    7
 10
212.03121900000002
 20
452.90142800000001
 11
212.03121900000002
 21
453.05902099999997
  0
LINE
  8
_0-0_0
  6
CONTINUOUS
 62
    7
 10
212.03121900000002
 20
452.76299999999998
 11
212.03121900000002
 21
452.90142800000001
  0
LINE
  8
_0-0_0
  6
CONTINUOUS
 62
    7
 10
212.03121900000002
 20
452.64523300000002
 11
212.03121900000002
 21
452.76299999999998
  0
LINE
  8
_0-0_0
  6
CONTINUOUS
 62
    7
 10
212.03121900000002
 20
452.54943800000001
 11
212.03121900000002
 21
452.64523300000002
  0
LINE
  8
_0-0_0
  6
CONTINUOUS
 62
    7
 10
212.03121900000002
 20
452.47668499999997
 11
212.03121900000002
 21
452.54943800000001
  0
LINE
  8
_0-0_0
  6
CONTINUOUS
 62
    7
 10
212.03121900000002
 20
452.40002399999997
 11
212.03121900000002
 21
452.47668499999997
  0
LINE
  8
_0-0_0
  6
CONTINUOUS
 62
    7
 10
212.03121900000002
 20
452.403076
 11
212.03121900000002
 21
452.42770400000001
  0
LINE
  8
_0-0_0
  6
CONTINUOUS
 62
    7
 10
212.03121900000002
 20
452.40002399999997
 11
212.03121900000002
 21
452.403076
  0
LINE
  8
_0-0_0
  6
CONTINUOUS
 62
    7
 10
212.03121900000002
 20
456.89691199999999
 11
212.03121900000002
 21
456.90002399999997
  0
LINE
  8
_0-0_0
  6
CONTINUOUS
 62
    7
 10
212.03121900000002
 20
456.87231400000002
 11
212.03121900000002
 21
456.89691199999999
  0
LINE
  8
_0-0_0
  6
CONTINUOUS
 62
    7
 10
212.03121900000002
 20
456.82333399999999
 11
212.03121900000002
 21
456.87231400000002
  0
LINE
  8
_0-0_0
  6
CONTINUOUS
 62
    7
 10
212.03121900000002
 20
456.75054899999998
 11
212.03121900000002
 21
456.82333399999999
  0
LINE
  8
_0-0_0
  6
CONTINUOUS
 62
    7
 10
212.03121900000002
 20
456.654785
 11
212.03121900000002
 21
456.75054899999998
  0
LINE
  8
_0-0_0
  6
CONTINUOUS
 62
    7
 10
212.03121900000002
 20
456.624573
 11
212.03121900000002
 21
456.654785
  0
LINE
  8
_0-0_0
  6
CONTINUOUS
 62
    7
 10
212.03121900000002
 20
456.53701799999999
 11
212.03121900000002
 21
456.624573
  0
LINE
  8
_0-0_0
  6
CONTINUOUS
 62
    7
 10
212.03121900000002
 20
456.39859000000001
 11
212.03121900000002
 21
456.53701799999999
  0
LINE
  8
_0-0_0
  6
CONTINUOUS
 62
    7
 10
212.03121900000002
 20
456.24099699999999
 11
212.03121900000002
 21
456.39859000000001
  0
LINE
  8
_0-0_0
  6
CONTINUOUS
 62
    7
 10
212.03121900000002
 20
456.06597900000003
 11
212.03121900000002
 21
456.24099699999999
  0
LINE
  8
_0-0_0
  6
CONTINUOUS
 62
    7
 10
212.03121900000002
 20
455.875427
 11
212.03121900000002
 21
456.06597900000003
  0
LINE
  8
_0-0_0
  6
CONTINUOUS
 62
    7
 10
212.03121900000002
 20
455.67147799999998
 11
212.03121900000002
 21
455.875427
  0
LINE
  8
_0-0_0
  6
CONTINUOUS
 62
    7
 10
212.03121900000002
 20
455.45632899999998
 11
212.03121900000002
 21
455.67147799999998
  0
LINE
  8
_0-0_0
  6
CONTINUOUS
 62
    7
 10
212.03121900000002
 20
455.23236100000003
 11
212.03121900000002
 21
455.45632899999998
  0
LINE
  8
_0-0_0
  6
CONTINUOUS
 62
    7
 10
212.03121900000002
 20
455.00198399999999
 11
212.03121900000002
 21
455.23236100000003
  0
LINE
  8
_0-0_0
  6
CONTINUOUS
 62
    7
 10
212.03121900000002
 20
454.76776100000001
 11
212.03121900000002
 21
455.00198399999999
  0
LINE
  8
_0-0_0
  6
CONTINUOUS
 62
    7
 10
212.03121900000002
 20
454.53225700000002
 11
212.03121900000002
 21
454.76776100000001
  0
LINE
  8
_0-0_0
  6
CONTINUOUS
 62
    7
 10
212.03121900000002
 20
454.29803500000003
 11
212.03121900000002
 21
454.53225700000002
  0
LINE
  8
_0-0_0
  6
CONTINUOUS
 62
    7
 10
212.03121900000002
 20
454.067657
 11
212.03121900000002
 21
454.29803500000003
  0
LINE
  8
_0-0_0
  6
CONTINUOUS
 62
    7
 10
212.03121900000002
 20
453.84368899999998
 11
212.03121900000002
 21
454.067657
  0
LINE
  8
_0-0_0
  6
CONTINUOUS
 62
    7
 10
212.03121900000002
 20
453.62853999999999
 11
212.03121900000002
 21
453.84368899999998
  0
LINE
  8
_0-0_0
  6
CONTINUOUS
 62
    7
 10
212.03121900000002
 20
453.57128899999998
 11
212.03121900000002
 21
453.62853999999999
  0
LINE
  8
_0-0_0
  6
CONTINUOUS
 62
    7
 10
197.03121900000002
 20
461.38797
 11
197.03121900000002
 21
460.34231599999998
  0
LINE
  8
_0-0_0
  6
CONTINUOUS
 62
    7
 10
197.03121900000002
 20
459.05770899999999
 11
197.03121900000002
 21
460.34231599999998
  0
LINE
  8
_0-0_0
  6
CONTINUOUS
 62
    7
 10
197.03121900000002
 20
458.94232199999999
 11
197.03121900000002
 21
459.05770899999999
  0
LINE
  8
_0-0_0
  6
CONTINUOUS
 62
    7
 10
197.03121900000002
 20
461.38797
 11
197.03121900000002
 21
464.51205399999998
  0
LINE
  8
_0-0_0
  6
CONTINUOUS
 62
    7
 10
197.03121900000002
 20
466.95770299999998
 11
197.03121900000002
 21
466.84231599999998
  0
LINE
  8
_0-0_0
  6
CONTINUOUS
 62
    7
 10
197.03121900000002
 20
465.55770899999999
 11
197.03121900000002
 21
466.84231599999998
  0
LINE
  8
_0-0_0
  6
CONTINUOUS
 62
    7
 10
197.03121900000002
 20
465.55770899999999
 11
197.03121900000002
 21
464.51205399999998
  0
LINE
  8
_0-0_0
  6
CONTINUOUS
 62
    7
 10
197.03121900000002
 20
466.84231599999998
 11
206.73904400000004
 21
466.84231599999998
  0
LINE
  8
_0-0_0
  6
CONTINUOUS
 62
    7
 10
206.73904400000004
 20
469.45001200000002
 11
206.79354900000004
 21
469.380066
  0
LINE
  8
_0-0_0
  6
CONTINUOUS
 62
    7
 10
206.79354900000004
 20
469.380066
 11
206.84463500000004
 21
469.31124899999998
  0
LINE
  8
_0-0_0
  6
CONTINUOUS
 62
    7
 10
206.84463500000004
 20
469.31124899999998
 11
206.89230300000003
 21
469.24374399999999
  0
LINE
  8
_0-0_0
  6
CONTINUOUS
 62
    7
 10
206.89230300000003
 20
469.24374399999999
 11
206.93679800000001
 21
469.17718500000001
  0
LINE
  8
_0-0_0
  6
CONTINUOUS
 62
    7
 10
206.93679800000001
 20
469.17718500000001
 11
206.99148600000001
 21
469.08966099999998
  0
LINE
  8
_0-0_0
  6
CONTINUOUS
 62
    7
 10
206.99148600000001
 20
469.08966099999998
 11
207.04101600000001
 21
469.00353999999999
  0
LINE
  8
_0-0_0
  6
CONTINUOUS
 62
    7
 10
207.04101600000001
 20
469.00353999999999
 11
207.08548000000002
 21
468.918701
  0
LINE
  8
_0-0_0
  6
CONTINUOUS
 62
    7
 10
207.08548000000002
 20
468.918701
 11
207.13244600000002
 21
468.81839000000002
  0
LINE
  8
_0-0_0
  6
CONTINUOUS
 62
    7
 10
207.13244600000002
 20
468.81839000000002
 11
207.17263800000001
 21
468.71948200000003
  0
LINE
  8
_0-0_0
  6
CONTINUOUS
 62
    7
 10
207.17263800000001
 20
468.71948200000003
 11
207.20632900000004
 21
468.62170400000002
  0
LINE
  8
_0-0_0
  6
CONTINUOUS
 62
    7
 10
207.20632900000004
 20
468.62170400000002
 11
207.23361200000005
 21
468.524902
  0
LINE
  8
_0-0_0
  6
CONTINUOUS
 62
    7
 10
207.23361200000005
 20
468.524902
 11
207.25466900000004
 21
468.42886399999998
  0
LINE
  8
_0-0_0
  6
CONTINUOUS
 62
    7
 10
207.25466900000004
 20
468.42886399999998
 11
207.27059900000006
 21
468.32501200000002
  0
LINE
  8
_0-0_0
  6
CONTINUOUS
 62
    7
 10
207.27059900000006
 20
468.32501200000002
 11
207.27932700000002
 21
468.221588
  0
LINE
  8
_0-0_0
  6
CONTINUOUS
 62
    7
 10
207.27932700000002
 20
468.221588
 11
207.28097500000001
 21
468.11834700000003
  0
LINE
  8
_0-0_0
  6
CONTINUOUS
 62
    7
 10
207.28097500000001
 20
468.11834700000003
 11
207.27551300000005
 21
468.01504499999999
  0
LINE
  8
_0-0_0
  6
CONTINUOUS
 62
    7
 10
207.27551300000005
 20
468.01504499999999
 11
207.26290900000004
 21
467.91146900000001
  0
LINE
  8
_0-0_0
  6
CONTINUOUS
 62
    7
 10
207.26290900000004
 20
467.91146900000001
 11
207.24307200000004
 21
467.80731200000002
  0
LINE
  8
_0-0_0
  6
CONTINUOUS
 62
    7
 10
207.24307200000004
 20
467.80731200000002
 11
207.21594200000004
 21
467.70236199999999
  0
LINE
  8
_0-0_0
  6
CONTINUOUS
 62
    7
 10
207.21594200000004
 20
467.70236199999999
 11
207.18130500000001
 21
467.59631300000001
  0
LINE
  8
_0-0_0
  6
CONTINUOUS
 62
    7
 10
207.18130500000001
 20
467.59631300000001
 11
207.13894600000003
 21
467.48895299999998
  0
LINE
  8
_0-0_0
  6
CONTINUOUS
 62
    7
 10
207.13894600000003
 20
467.48895299999998
 11
207.08862300000004
 21
467.37994400000002
  0
LINE
  8
_0-0_0
  6
CONTINUOUS
 62
    7
 10
207.08862300000004
 20
467.37994400000002
 11
207.03439300000002
 21
467.276794
  0
LINE
  8
_0-0_0
  6
CONTINUOUS
 62
    7
 10
207.03439300000002
 20
467.276794
 11
206.97268700000001
 21
467.17175300000002
  0
LINE
  8
_0-0_0
  6
CONTINUOUS
 62
    7
 10
206.97268700000001
 20
467.17175300000002
 11
206.90316800000005
 21
467.06451399999997
  0
LINE
  8
_0-0_0
  6
CONTINUOUS
 62
    7
 10
206.90316800000005
 20
467.06451399999997
 11
206.82543900000002
 21
466.95480300000003
  0
LINE
  8
_0-0_0
  6
CONTINUOUS
 62
    7
 10
206.82543900000002
 20
466.95480300000003
 11
206.73904400000004
 21
466.84231599999998
  0
LINE
  8
_0-0_0
  6
CONTINUOUS
 62
    7
 10
197.03121900000002
 20
469.45001200000002
 11
206.73904400000004
 21
469.45001200000002
  0
LINE
  8
_0-0_0
  6
CONTINUOUS
 62
    7
 10
206.78121900000002
 20
469.45001200000002
 11
206.73904400000004
 21
469.45001200000002
  0
LINE
  8
_0-0_0
  6
CONTINUOUS
 62
    7
 10
197.03121900000002
 20
459.05770899999999
 11
206.73904400000004
 21
459.05770899999999
  0
LINE
  8
_0-0_0
  6
CONTINUOUS
 62
    7
 10
206.73904400000004
 20
459.05770899999999
 11
206.79354900000004
 21
458.98776199999998
  0
LINE
  8
_0-0_0
  6
CONTINUOUS
 62
    7
 10
206.79354900000004
 20
458.98776199999998
 11
206.84463500000004
 21
458.91894500000001
  0
LINE
  8
_0-0_0
  6
CONTINUOUS
 62
    7
 10
206.84463500000004
 20
458.91894500000001
 11
206.89230300000003
 21
458.85144000000003
  0
LINE
  8
_0-0_0
  6
CONTINUOUS
 62
    7
 10
206.89230300000003
 20
458.85144000000003
 11
206.93679800000001
 21
458.78488199999998
  0
LINE
  8
_0-0_0
  6
CONTINUOUS
 62
    7
 10
206.93679800000001
 20
458.78488199999998
 11
206.99148600000001
 21
458.69735700000001
  0
LINE
  8
_0-0_0
  6
CONTINUOUS
 62
    7
 10
206.99148600000001
 20
458.69735700000001
 11
207.04101600000001
 21
458.61123700000002
  0
LINE
  8
_0-0_0
  6
CONTINUOUS
 62
    7
 10
207.04101600000001
 20
458.61123700000002
 11
207.08548000000002
 21
458.52642800000001
  0
LINE
  8
_0-0_0
  6
CONTINUOUS
 62
    7
 10
207.08548000000002
 20
458.52642800000001
 11
207.13244600000002
 21
458.426086
  0
LINE
  8
_0-0_0
  6
CONTINUOUS
 62
    7
 10
207.13244600000002
 20
458.426086
 11
207.17263800000001
 21
458.327179
  0
LINE
  8
_0-0_0
  6
CONTINUOUS
 62
    7
 10
207.17263800000001
 20
458.327179
 11
207.20632900000004
 21
458.229401
  0
LINE
  8
_0-0_0
  6
CONTINUOUS
 62
    7
 10
207.20632900000004
 20
458.229401
 11
207.23361200000005
 21
458.13259900000003
  0
LINE
  8
_0-0_0
  6
CONTINUOUS
 62
    7
 10
207.23361200000005
 20
458.13259900000003
 11
207.25466900000004
 21
458.03656000000001
  0
LINE
  8
_0-0_0
  6
CONTINUOUS
 62
    7
 10
207.25466900000004
 20
458.03656000000001
 11
207.27059900000006
 21
457.93270899999999
  0
LINE
  8
_0-0_0
  6
CONTINUOUS
 62
    7
 10
207.27059900000006
 20
457.93270899999999
 11
207.27932700000002
 21
457.82928500000003
  0
LINE
  8
_0-0_0
  6
CONTINUOUS
 62
    7
 10
207.27932700000002
 20
457.82928500000003
 11
207.28097500000001
 21
457.726044
  0
LINE
  8
_0-0_0
  6
CONTINUOUS
 62
    7
 10
207.28097500000001
 20
457.726044
 11
207.27551300000005
 21
457.62274200000002
  0
LINE
  8
_0-0_0
  6
CONTINUOUS
 62
    7
 10
207.27551300000005
 20
457.62274200000002
 11
207.26290900000004
 21
457.51916499999999
  0
LINE
  8
_0-0_0
  6
CONTINUOUS
 62
    7
 10
207.26290900000004
 20
457.51916499999999
 11
207.24307200000004
 21
457.415009
  0
LINE
  8
_0-0_0
  6
CONTINUOUS
 62
    7
 10
207.24307200000004
 20
457.415009
 11
207.21594200000004
 21
457.31005900000002
  0
LINE
  8
_0-0_0
  6
CONTINUOUS
 62
    7
 10
207.21594200000004
 20
457.31005900000002
 11
207.18130500000001
 21
457.20400999999998
  0
LINE
  8
_0-0_0
  6
CONTINUOUS
 62
    7
 10
207.18130500000001
 20
457.20400999999998
 11
207.13894600000003
 21
457.09661899999998
  0
LINE
  8
_0-0_0
  6
CONTINUOUS
 62
    7
 10
207.13894600000003
 20
457.09661899999998
 11
207.08862300000004
 21
456.98764
  0
LINE
  8
_0-0_0
  6
CONTINUOUS
 62
    7
 10
207.08862300000004
 20
456.98764
 11
207.04293800000005
 21
456.89996300000001
  0
LINE
  8
_0-0_0
  6
CONTINUOUS
 62
    7
 10
212.03121900000002
 20
453.42456099999998
 11
212.28121900000002
 21
453.40002399999997
  0
LINE
  8
_0-0_0
  6
CONTINUOUS
 62
    7
 10
212.03121900000002
 20
453.62853999999999
 11
212.28121900000002
 21
453.40002399999997
  0
LINE
  8
_0-0_0
  6
CONTINUOUS
 62
    7
 10
212.03121900000002
 20
453.234039
 11
212.28121900000002
 21
453.180542
  0
LINE
  8
_0-0_0
  6
CONTINUOUS
 62
    7
 10
212.03121900000002
 20
453.42456099999998
 11
212.28121900000002
 21
453.180542
  0
LINE
  8
_0-0_0
  6
CONTINUOUS
 62
    7
 10
212.03121900000002
 20
453.05902099999997
 11
212.28121900000002
 21
452.97717299999999
  0
LINE
  8
_0-0_0
  6
CONTINUOUS
 62
    7
 10
212.03121900000002
 20
453.234039
 11
212.28121900000002
 21
452.97717299999999
  0
LINE
  8
_0-0_0
  6
CONTINUOUS
 62
    7
 10
212.03121900000002
 20
452.90142800000001
 11
212.28121900000002
 21
452.792145
  0
LINE
  8
_0-0_0
  6
CONTINUOUS
 62
    7
 10
212.03121900000002
 20
453.05902099999997
 11
212.28121900000002
 21
452.792145
  0
LINE
  8
_0-0_0
  6
CONTINUOUS
 62
    7
 10
212.03121900000002
 20
452.76299999999998
 11
212.28121900000002
 21
452.62747200000001
  0
LINE
  8
_0-0_0
  6
CONTINUOUS
 62
    7
 10
212.03121900000002
 20
452.90142800000001
 11
212.28121900000002
 21
452.62747200000001
  0
LINE
  8
_0-0_0
  6
CONTINUOUS
 62
    7
 10
212.03121900000002
 20
452.64523300000002
 11
212.28121900000002
 21
452.48495500000001
  0
LINE
  8
_0-0_0
  6
CONTINUOUS
 62
    7
 10
212.03121900000002
 20
452.76299999999998
 11
212.28121900000002
 21
452.48495500000001
  0
LINE
  8
_0-0_0
  6
CONTINUOUS
 62
    7
 10
212.03121900000002
 20
452.54943800000001
 11
212.28121900000002
 21
452.36615
  0
LINE
  8
_0-0_0
  6
CONTINUOUS
 62
    7
 10
212.03121900000002
 20
452.64523300000002
 11
212.28121900000002
 21
452.36615
  0
LINE
  8
_0-0_0
  6
CONTINUOUS
 62
    7
 10
212.03121900000002
 20
452.47668499999997
 11
212.28121900000002
 21
452.27236900000003
  0
LINE
  8
_0-0_0
  6
CONTINUOUS
 62
    7
 10
212.03121900000002
 20
452.54943800000001
 11
212.28121900000002
 21
452.27236900000003
  0
LINE
  8
_0-0_0
  6
CONTINUOUS
 62
    7
 10
212.03121900000002
 20
452.42770400000001
 11
212.28121900000002
 21
452.20465100000001
  0
LINE
  8
_0-0_0
  6
CONTINUOUS
 62
    7
 10
212.03121900000002
 20
452.47668499999997
 11
212.28121900000002
 21
452.20465100000001
  0
LINE
  8
_0-0_0
  6
CONTINUOUS
 62
    7
 10
212.03121900000002
 20
452.403076
 11
212.28121900000002
 21
452.16369600000002
  0
LINE
  8
_0-0_0
  6
CONTINUOUS
 62
    7
 10
212.03121900000002
 20
452.42770400000001
 11
212.28121900000002
 21
452.16369600000002
  0
LINE
  8
_0-0_0
  6
CONTINUOUS
 62
    7
 10
212.03121900000002
 20
452.403076
 11
212.28121900000002
 21
452.15002399999997
  0
LINE
  8
_0-0_0
  6
CONTINUOUS
 62
    7
 10
212.03121900000002
 20
456.89691199999999
 11
212.28121900000002
 21
457.15002399999997
  0
LINE
  8
_0-0_0
  6
CONTINUOUS
 62
    7
 10
212.03121900000002
 20
456.87231400000002
 11
212.28121900000002
 21
457.13632200000001
  0
LINE
  8
_0-0_0
  6
CONTINUOUS
 62
    7
 10
212.03121900000002
 20
456.89691199999999
 11
212.28121900000002
 21
457.13632200000001
  0
LINE
  8
_0-0_0
  6
CONTINUOUS
 62
    7
 10
212.03121900000002
 20
456.82333399999999
 11
212.28121900000002
 21
457.09536700000001
  0
LINE
  8
_0-0_0
  6
CONTINUOUS
 62
    7
 10
212.03121900000002
 20
456.87231400000002
 11
212.28121900000002
 21
457.09536700000001
  0
LINE
  8
_0-0_0
  6
CONTINUOUS
 62
    7
 10
212.03121900000002
 20
456.75054899999998
 11
212.28121900000002
 21
457.027649
  0
LINE
  8
_0-0_0
  6
CONTINUOUS
 62
    7
 10
212.03121900000002
 20
456.82333399999999
 11
212.28121900000002
 21
457.027649
  0
LINE
  8
_0-0_0
  6
CONTINUOUS
 62
    7
 10
212.03121900000002
 20
456.654785
 11
212.28121900000002
 21
456.93386800000002
  0
LINE
  8
_0-0_0
  6
CONTINUOUS
 62
    7
 10
212.03121900000002
 20
456.75054899999998
 11
212.28121900000002
 21
456.93386800000002
  0
LINE
  8
_0-0_0
  6
CONTINUOUS
 62
    7
 10
212.03121900000002
 20
456.654785
 11
212.16122400000006
 21
456.73861699999998
  0
LINE
  8
_0-0_0
  6
CONTINUOUS
 62
    7
 10
212.03121900000002
 20
456.53701799999999
 11
212.28121900000002
 21
456.81506300000001
  0
LINE
  8
_0-0_0
  6
CONTINUOUS
 62
    7
 10
212.16122400000006
 20
456.73861699999998
 11
212.28121900000002
 21
456.81506300000001
  0
LINE
  8
_0-0_0
  6
CONTINUOUS
 62
    7
 10
212.03121900000002
 20
456.39859000000001
 11
212.28121900000002
 21
456.67254600000001
  0
LINE
  8
_0-0_0
  6
CONTINUOUS
 62
    7
 10
212.03121900000002
 20
456.53701799999999
 11
212.28121900000002
 21
456.67254600000001
  0
LINE
  8
_0-0_0
  6
CONTINUOUS
 62
    7
 10
212.03121900000002
 20
456.24099699999999
 11
212.28121900000002
 21
456.50787400000002
  0
LINE
  8
_0-0_0
  6
CONTINUOUS
 62
    7
 10
212.03121900000002
 20
456.39859000000001
 11
212.28121900000002
 21
456.50787400000002
  0
LINE
  8
_0-0_0
  6
CONTINUOUS
 62
    7
 10
212.03121900000002
 20
456.06597900000003
 11
212.28121900000002
 21
456.32284499999997
  0
LINE
  8
_0-0_0
  6
CONTINUOUS
 62
    7
 10
212.03121900000002
 20
456.24099699999999
 11
212.28121900000002
 21
456.32284499999997
  0
LINE
  8
_0-0_0
  6
CONTINUOUS
 62
    7
 10
212.03121900000002
 20
455.875427
 11
212.28121900000002
 21
456.11947600000002
  0
LINE
  8
_0-0_0
  6
CONTINUOUS
 62
    7
 10
212.03121900000002
 20
456.06597900000003
 11
212.28121900000002
 21
456.11947600000002
  0
LINE
  8
_0-0_0
  6
CONTINUOUS
 62
    7
 10
212.03121900000002
 20
455.67147799999998
 11
212.28121900000002
 21
455.90002399999997
  0
LINE
  8
_0-0_0
  6
CONTINUOUS
 62
    7
 10
212.03121900000002
 20
455.875427
 11
212.28121900000002
 21
455.90002399999997
  0
LINE
  8
_0-0_0
  6
CONTINUOUS
 62
    7
 10
212.03121900000002
 20
455.45632899999998
 11
212.28121900000002
 21
455.66683999999998
  0
LINE
  8
_0-0_0
  6
CONTINUOUS
 62
    7
 10
212.03121900000002
 20
455.67147799999998
 11
212.28121900000002
 21
455.66683999999998
  0
LINE
  8
_0-0_0
  6
CONTINUOUS
 62
    7
 10
212.03121900000002
 20
455.23236100000003
 11
212.28121900000002
 21
455.42254600000001
  0
LINE
  8
_0-0_0
  6
CONTINUOUS
 62
    7
 10
212.03121900000002
 20
455.45632899999998
 11
212.28121900000002
 21
455.42254600000001
  0
LINE
  8
_0-0_0
  6
CONTINUOUS
 62
    7
 10
212.03121900000002
 20
455.00198399999999
 11
212.28121900000002
 21
455.16980000000001
  0
LINE
  8
_0-0_0
  6
CONTINUOUS
 62
    7
 10
212.03121900000002
 20
455.23236100000003
 11
212.28121900000002
 21
455.16980000000001
  0
LINE
  8
_0-0_0
  6
CONTINUOUS
 62
    7
 10
212.03121900000002
 20
454.76776100000001
 11
212.28121900000002
 21
454.911316
  0
LINE
  8
_0-0_0
  6
CONTINUOUS
 62
    7
 10
212.03121900000002
 20
455.00198399999999
 11
212.28121900000002
 21
454.911316
  0
LINE
  8
_0-0_0
  6
CONTINUOUS
 62
    7
 10
212.03121900000002
 20
454.53225700000002
 11
212.28121900000002
 21
454.65002399999997
  0
LINE
  8
_0-0_0
  6
CONTINUOUS
 62
    7
 10
212.03121900000002
 20
454.76776100000001
 11
212.28121900000002
 21
454.65002399999997
  0
LINE
  8
_0-0_0
  6
CONTINUOUS
 62
    7
 10
212.03121900000002
 20
454.29803500000003
 11
212.28121900000002
 21
454.38867199999999
  0
LINE
  8
_0-0_0
  6
CONTINUOUS
 62
    7
 10
212.03121900000002
 20
454.53225700000002
 11
212.28121900000002
 21
454.38867199999999
  0
LINE
  8
_0-0_0
  6
CONTINUOUS
 62
    7
 10
212.03121900000002
 20
454.067657
 11
212.28121900000002
 21
454.13021900000001
  0
LINE
  8
_0-0_0
  6
CONTINUOUS
 62
    7
 10
212.03121900000002
 20
454.29803500000003
 11
212.28121900000002
 21
454.13021900000001
  0
LINE
  8
_0-0_0
  6
CONTINUOUS
 62
    7
 10
212.03121900000002
 20
453.84368899999998
 11
212.28121900000002
 21
453.87747200000001
  0
LINE
  8
_0-0_0
  6
CONTINUOUS
 62
    7
 10
212.03121900000002
 20
454.067657
 11
212.28121900000002
 21
453.87747200000001
  0
LINE
  8
_0-0_0
  6
CONTINUOUS
 62
    7
 10
212.03121900000002
 20
453.62853999999999
 11
212.28121900000002
 21
453.63317899999998
  0
LINE
  8
_0-0_0
  6
CONTINUOUS
 62
    7
 10
212.03121900000002
 20
453.84368899999998
 11
212.28121900000002
 21
453.63317899999998
  0
LINE
  8
_0-0_0
  6
CONTINUOUS
 62
    7
 10
197.03121900000002
 20
460.34231599999998
 11
206.73904400000004
 21
460.34231599999998
  0
LINE
  8
_0-0_0
  6
CONTINUOUS
 62
    7
 10
206.73904400000004
 20
460.34231599999998
 11
206.83340400000003
 21
460.58892800000001
  0
LINE
  8
_0-0_0
  6
CONTINUOUS
 62
    7
 10
206.83340400000003
 20
460.58892800000001
 11
206.91732800000005
 21
460.82891799999999
  0
LINE
  8
_0-0_0
  6
CONTINUOUS
 62
    7
 10
206.91732800000005
 20
460.82891799999999
 11
206.99148600000001
 21
461.063019
  0
LINE
  8
_0-0_0
  6
CONTINUOUS
 62
    7
 10
206.99148600000001
 20
461.063019
 11
207.05636600000003
 21
461.29205300000001
  0
LINE
  8
_0-0_0
  6
CONTINUOUS
 62
    7
 10
207.05636600000003
 20
461.29205300000001
 11
207.11242700000003
 21
461.51672400000001
  0
LINE
  8
_0-0_0
  6
CONTINUOUS
 62
    7
 10
207.11242700000003
 20
461.51672400000001
 11
207.16000400000001
 21
461.73770100000002
  0
LINE
  8
_0-0_0
  6
CONTINUOUS
 62
    7
 10
207.16000400000001
 20
461.73770100000002
 11
207.19937100000004
 21
461.95562699999999
  0
LINE
  8
_0-0_0
  6
CONTINUOUS
 62
    7
 10
207.19937100000004
 20
461.95562699999999
 11
207.23086500000005
 21
462.17108200000001
  0
LINE
  8
_0-0_0
  6
CONTINUOUS
 62
    7
 10
207.23086500000005
 20
462.17108200000001
 11
207.25466900000004
 21
462.384613
  0
LINE
  8
_0-0_0
  6
CONTINUOUS
 62
    7
 10
207.25466900000004
 20
462.384613
 11
207.27059900000006
 21
462.59231599999998
  0
LINE
  8
_0-0_0
  6
CONTINUOUS
 62
    7
 10
207.27059900000006
 20
462.59231599999998
 11
207.27932700000002
 21
462.79916400000002
  0
LINE
  8
_0-0_0
  6
CONTINUOUS
 62
    7
 10
207.27932700000002
 20
462.79916400000002
 11
207.28097500000001
 21
463.00564600000001
  0
LINE
  8
_0-0_0
  6
CONTINUOUS
 62
    7
 10
207.28097500000001
 20
463.00564600000001
 11
207.27551300000005
 21
463.212219
  0
LINE
  8
_0-0_0
  6
CONTINUOUS
 62
    7
 10
207.27551300000005
 20
463.212219
 11
207.26290900000004
 21
463.41940299999999
  0
LINE
  8
_0-0_0
  6
CONTINUOUS
 62
    7
 10
207.26290900000004
 20
463.41940299999999
 11
207.24307200000004
 21
463.62771600000002
  0
LINE
  8
_0-0_0
  6
CONTINUOUS
 62
    7
 10
207.24307200000004
 20
463.62771600000002
 11
207.21594200000004
 21
463.83761600000003
  0
LINE
  8
_0-0_0
  6
CONTINUOUS
 62
    7
 10
207.21594200000004
 20
463.83761600000003
 11
207.18130500000001
 21
464.04968300000002
  0
LINE
  8
_0-0_0
  6
CONTINUOUS
 62
    7
 10
207.18130500000001
 20
464.04968300000002
 11
207.13894600000003
 21
464.26443499999999
  0
LINE
  8
_0-0_0
  6
CONTINUOUS
 62
    7
 10
207.13894600000003
 20
464.26443499999999
 11
207.08862300000004
 21
464.48245200000002
  0
LINE
  8
_0-0_0
  6
CONTINUOUS
 62
    7
 10
207.08862300000004
 20
464.48245200000002
 11
207.03439300000002
 21
464.68872099999999
  0
LINE
  8
_0-0_0
  6
CONTINUOUS
 62
    7
 10
207.03439300000002
 20
464.68872099999999
 11
206.97268700000001
 21
464.89883400000002
  0
LINE
  8
_0-0_0
  6
CONTINUOUS
 62
    7
 10
206.97268700000001
 20
464.89883400000002
 11
206.90316800000005
 21
465.11331200000001
  0
LINE
  8
_0-0_0
  6
CONTINUOUS
 62
    7
 10
206.90316800000005
 20
465.11331200000001
 11
206.82543900000002
 21
465.33273300000002
  0
LINE
  8
_0-0_0
  6
CONTINUOUS
 62
    7
 10
206.82543900000002
 20
465.33273300000002
 11
206.73904400000004
 21
465.55770899999999
  0
LINE
  8
_0-0_0
  6
CONTINUOUS
 62
    7
 10
197.03121900000002
 20
465.55770899999999
 11
206.73904400000004
 21
465.55770899999999
  0
ARC
  8
_0-0_0
  6
CONTINUOUS
 62
    7
 10
201.86752300000001
 20
459.70001200000002
 40
4.9136889999999998
 50
352.48898799999995
 51
7.5110139999999577
  0
ARC
  8
_0-0_0
  6
CONTINUOUS
 62
    7
 10
201.85733000000005
 20
466.200897
 40
4.9238749999999998
 50
352.49423299999995
 51
1.5359699999999901
  0
ARC
  8
_0-0_0
  6
CONTINUOUS
 62
    7
 10
201.81930500000004
 20
466.19595299999997
 40
4.9620009999999999
 50
1.5813010000000001
 51
7.4847919999999997
  0
LINE
  8
_0-0_0
  6
CONTINUOUS
 62
    7
 10
208.03121900000002
 20
465.68154900000002
 11
208.03121900000002
 21
468.20001200000002
  0
LINE
  8
_0-0_0
  6
CONTINUOUS
 62
    7
 10
208.03121900000002
 20
457.70001200000002
 11
208.03121900000002
 21
465.68154900000002
  0
LINE
  8
_0-0_0
  6
CONTINUOUS
 62
    7
 10
221.78121900000002
 20
453.42456099999998
 11
221.53121900000002
 21
453.40002399999997
  0
LINE
  8
_0-0_0
  6
CONTINUOUS
 62
    7
 10
221.53121900000002
 20
453.40002399999997
 11
212.28121900000002
 21
453.40002399999997
  0
LINE
  8
_0-0_0
  6
CONTINUOUS
 62
    7
 10
221.78121900000002
 20
453.62853999999999
 11
221.53121900000002
 21
453.40002399999997
  0
LINE
  8
_0-0_0
  6
CONTINUOUS
 62
    7
 10
221.78121900000002
 20
453.62853999999999
 11
212.03121900000002
 21
453.62853999999999
  0
LINE
  8
_0-0_0
  6
CONTINUOUS
 62
    7
 10
221.78121900000002
 20
453.234039
 11
221.53121900000002
 21
453.180542
  0
LINE
  8
_0-0_0
  6
CONTINUOUS
 62
    7
 10
221.53121900000002
 20
453.180542
 11
212.28121900000002
 21
453.180542
  0
LINE
  8
_0-0_0
  6
CONTINUOUS
 62
    7
 10
221.78121900000002
 20
453.42456099999998
 11
221.53121900000002
 21
453.180542
  0
LINE
  8
_0-0_0
  6
CONTINUOUS
 62
    7
 10
221.78121900000002
 20
453.05902099999997
 11
221.53121900000002
 21
452.97717299999999
  0
LINE
  8
_0-0_0
  6
CONTINUOUS
 62
    7
 10
221.53121900000002
 20
452.97717299999999
 11
212.28121900000002
 21
452.97717299999999
  0
LINE
  8
_0-0_0
  6
CONTINUOUS
 62
    7
 10
221.78121900000002
 20
453.234039
 11
221.53121900000002
 21
452.97717299999999
  0
LINE
  8
_0-0_0
  6
CONTINUOUS
 62
    7
 10
221.78121900000002
 20
452.90142800000001
 11
221.53121900000002
 21
452.792145
  0
LINE
  8
_0-0_0
  6
CONTINUOUS
 62
    7
 10
221.53121900000002
 20
452.792145
 11
212.28121900000002
 21
452.792145
  0
LINE
  8
_0-0_0
  6
CONTINUOUS
 62
    7
 10
221.78121900000002
 20
453.05902099999997
 11
221.53121900000002
 21
452.792145
  0
LINE
  8
_0-0_0
  6
CONTINUOUS
 62
    7
 10
221.78121900000002
 20
452.76299999999998
 11
221.53121900000002
 21
452.62747200000001
  0
LINE
  8
_0-0_0
  6
CONTINUOUS
 62
    7
 10
221.53121900000002
 20
452.62747200000001
 11
212.28121900000002
 21
452.62747200000001
  0
LINE
  8
_0-0_0
  6
CONTINUOUS
 62
    7
 10
221.78121900000002
 20
452.90142800000001
 11
221.53121900000002
 21
452.62747200000001
  0
LINE
  8
_0-0_0
  6
CONTINUOUS
 62
    7
 10
221.78121900000002
 20
452.64523300000002
 11
221.53121900000002
 21
452.48495500000001
  0
LINE
  8
_0-0_0
  6
CONTINUOUS
 62
    7
 10
221.53121900000002
 20
452.48495500000001
 11
212.28121900000002
 21
452.48495500000001
  0
LINE
  8
_0-0_0
  6
CONTINUOUS
 62
    7
 10
221.78121900000002
 20
452.76299999999998
 11
221.53121900000002
 21
452.48495500000001
  0
LINE
  8
_0-0_0
  6
CONTINUOUS
 62
    7
 10
221.78121900000002
 20
452.54943800000001
 11
221.53121900000002
 21
452.36615
  0
LINE
  8
_0-0_0
  6
CONTINUOUS
 62
    7
 10
221.53121900000002
 20
452.36615
 11
212.28121900000002
 21
452.36615
  0
LINE
  8
_0-0_0
  6
CONTINUOUS
 62
    7
 10
221.78121900000002
 20
452.64523300000002
 11
221.53121900000002
 21
452.36615
  0
LINE
  8
_0-0_0
  6
CONTINUOUS
 62
    7
 10
221.78121900000002
 20
452.47668499999997
 11
221.53121900000002
 21
452.27236900000003
  0
LINE
  8
_0-0_0
  6
CONTINUOUS
 62
    7
 10
221.53121900000002
 20
452.27236900000003
 11
212.28121900000002
 21
452.27236900000003
  0
LINE
  8
_0-0_0
  6
CONTINUOUS
 62
    7
 10
221.78121900000002
 20
452.54943800000001
 11
221.53121900000002
 21
452.27236900000003
  0
LINE
  8
_0-0_0
  6
CONTINUOUS
 62
    7
 10
221.78121900000002
 20
452.42770400000001
 11
221.53121900000002
 21
452.20465100000001
  0
LINE
  8
_0-0_0
  6
CONTINUOUS
 62
    7
 10
221.53121900000002
 20
452.20465100000001
 11
212.28121900000002
 21
452.20465100000001
  0
LINE
  8
_0-0_0
  6
CONTINUOUS
 62
    7
 10
221.78121900000002
 20
452.47668499999997
 11
221.53121900000002
 21
452.20465100000001
  0
LINE
  8
_0-0_0
  6
CONTINUOUS
 62
    7
 10
221.78121900000002
 20
452.403076
 11
221.53121900000002
 21
452.16369600000002
  0
LINE
  8
_0-0_0
  6
CONTINUOUS
 62
    7
 10
221.53121900000002
 20
452.16369600000002
 11
212.28121900000002
 21
452.16369600000002
  0
LINE
  8
_0-0_0
  6
CONTINUOUS
 62
    7
 10
221.78121900000002
 20
452.42770400000001
 11
221.53121900000002
 21
452.16369600000002
  0
LINE
  8
_0-0_0
  6
CONTINUOUS
 62
    7
 10
221.53121900000002
 20
452.15002399999997
 11
212.28121900000002
 21
452.15002399999997
  0
LINE
  8
_0-0_0
  6
CONTINUOUS
 62
    7
 10
221.78121900000002
 20
452.403076
 11
221.53121900000002
 21
452.15002399999997
  0
LINE
  8
_0-0_0
  6
CONTINUOUS
 62
    7
 10
221.78121900000002
 20
456.89691199999999
 11
221.53121900000002
 21
457.15002399999997
  0
LINE
  8
_0-0_0
  6
CONTINUOUS
 62
    7
 10
221.53121900000002
 20
457.15002399999997
 11
212.28121900000002
 21
457.15002399999997
  0
LINE
  8
_0-0_0
  6
CONTINUOUS
 62
    7
 10
221.78121900000002
 20
456.87231400000002
 11
221.53121900000002
 21
457.13632200000001
  0
LINE
  8
_0-0_0
  6
CONTINUOUS
 62
    7
 10
221.53121900000002
 20
457.13632200000001
 11
212.28121900000002
 21
457.13632200000001
  0
LINE
  8
_0-0_0
  6
CONTINUOUS
 62
    7
 10
221.78121900000002
 20
456.89691199999999
 11
221.53121900000002
 21
457.13632200000001
  0
LINE
  8
_0-0_0
  6
CONTINUOUS
 62
    7
 10
221.78121900000002
 20
456.82333399999999
 11
221.53121900000002
 21
457.09536700000001
  0
LINE
  8
_0-0_0
  6
CONTINUOUS
 62
    7
 10
221.53121900000002
 20
457.09536700000001
 11
212.28121900000002
 21
457.09536700000001
  0
LINE
  8
_0-0_0
  6
CONTINUOUS
 62
    7
 10
221.78121900000002
 20
456.87231400000002
 11
221.53121900000002
 21
457.09536700000001
  0
LINE
  8
_0-0_0
  6
CONTINUOUS
 62
    7
 10
221.78121900000002
 20
456.75054899999998
 11
221.53121900000002
 21
457.027649
  0
LINE
  8
_0-0_0
  6
CONTINUOUS
 62
    7
 10
221.53121900000002
 20
457.027649
 11
212.28121900000002
 21
457.027649
  0
LINE
  8
_0-0_0
  6
CONTINUOUS
 62
    7
 10
221.78121900000002
 20
456.82333399999999
 11
221.53121900000002
 21
457.027649
  0
LINE
  8
_0-0_0
  6
CONTINUOUS
 62
    7
 10
221.78121900000002
 20
456.654785
 11
221.53121900000002
 21
456.93386800000002
  0
LINE
  8
_0-0_0
  6
CONTINUOUS
 62
    7
 10
221.53121900000002
 20
456.93386800000002
 11
212.28121900000002
 21
456.93386800000002
  0
LINE
  8
_0-0_0
  6
CONTINUOUS
 62
    7
 10
221.78121900000002
 20
456.75054899999998
 11
221.53121900000002
 21
456.93386800000002
  0
LINE
  8
_0-0_0
  6
CONTINUOUS
 62
    7
 10
221.53121900000002
 20
456.81506300000001
 11
212.28121900000002
 21
456.81506300000001
  0
LINE
  8
_0-0_0
  6
CONTINUOUS
 62
    7
 10
221.65127600000005
 20
456.73861699999998
 11
221.53121900000002
 21
456.81506300000001
  0
LINE
  8
_0-0_0
  6
CONTINUOUS
 62
    7
 10
221.78121900000002
 20
456.654785
 11
221.65127600000005
 21
456.73861699999998
  0
LINE
  8
_0-0_0
  6
CONTINUOUS
 62
    7
 10
221.78121900000002
 20
456.53701799999999
 11
221.53121900000002
 21
456.81506300000001
  0
LINE
  8
_0-0_0
  6
CONTINUOUS
 62
    7
 10
221.78121900000002
 20
456.39859000000001
 11
221.53121900000002
 21
456.67254600000001
  0
LINE
  8
_0-0_0
  6
CONTINUOUS
 62
    7
 10
221.53121900000002
 20
456.67254600000001
 11
212.28121900000002
 21
456.67254600000001
  0
LINE
  8
_0-0_0
  6
CONTINUOUS
 62
    7
 10
221.78121900000002
 20
456.53701799999999
 11
221.53121900000002
 21
456.67254600000001
  0
LINE
  8
_0-0_0
  6
CONTINUOUS
 62
    7
 10
221.78121900000002
 20
456.24099699999999
 11
221.53121900000002
 21
456.50787400000002
  0
LINE
  8
_0-0_0
  6
CONTINUOUS
 62
    7
 10
221.53121900000002
 20
456.50787400000002
 11
212.28121900000002
 21
456.50787400000002
  0
LINE
  8
_0-0_0
  6
CONTINUOUS
 62
    7
 10
221.78121900000002
 20
456.39859000000001
 11
221.53121900000002
 21
456.50787400000002
  0
LINE
  8
_0-0_0
  6
CONTINUOUS
 62
    7
 10
221.78121900000002
 20
456.06597900000003
 11
221.53121900000002
 21
456.32284499999997
  0
LINE
  8
_0-0_0
  6
CONTINUOUS
 62
    7
 10
221.53121900000002
 20
456.32284499999997
 11
212.28121900000002
 21
456.32284499999997
  0
LINE
  8
_0-0_0
  6
CONTINUOUS
 62
    7
 10
221.78121900000002
 20
456.24099699999999
 11
221.53121900000002
 21
456.32284499999997
  0
LINE
  8
_0-0_0
  6
CONTINUOUS
 62
    7
 10
221.78121900000002
 20
455.875427
 11
221.53121900000002
 21
456.11947600000002
  0
LINE
  8
_0-0_0
  6
CONTINUOUS
 62
    7
 10
221.53121900000002
 20
456.11947600000002
 11
212.28121900000002
 21
456.11947600000002
  0
LINE
  8
_0-0_0
  6
CONTINUOUS
 62
    7
 10
221.78121900000002
 20
456.06597900000003
 11
221.53121900000002
 21
456.11947600000002
  0
LINE
  8
_0-0_0
  6
CONTINUOUS
 62
    7
 10
221.78121900000002
 20
455.67147799999998
 11
221.53121900000002
 21
455.90002399999997
  0
LINE
  8
_0-0_0
  6
CONTINUOUS
 62
    7
 10
221.53121900000002
 20
455.90002399999997
 11
212.28121900000002
 21
455.90002399999997
  0
LINE
  8
_0-0_0
  6
CONTINUOUS
 62
    7
 10
221.78121900000002
 20
455.67147799999998
 11
212.03121900000002
 21
455.67147799999998
  0
LINE
  8
_0-0_0
  6
CONTINUOUS
 62
    7
 10
221.78121900000002
 20
455.875427
 11
221.53121900000002
 21
455.90002399999997
  0
LINE
  8
_0-0_0
  6
CONTINUOUS
 62
    7
 10
221.78121900000002
 20
455.45632899999998
 11
221.53121900000002
 21
455.66683999999998
  0
LINE
  8
_0-0_0
  6
CONTINUOUS
 62
    7
 10
221.53121900000002
 20
455.66683999999998
 11
212.28121900000002
 21
455.66683999999998
  0
LINE
  8
_0-0_0
  6
CONTINUOUS
 62
    7
 10
221.78121900000002
 20
455.45632899999998
 11
212.03121900000002
 21
455.45632899999998
  0
LINE
  8
_0-0_0
  6
CONTINUOUS
 62
    7
 10
221.78121900000002
 20
455.67147799999998
 11
221.53121900000002
 21
455.66683999999998
  0
LINE
  8
_0-0_0
  6
CONTINUOUS
 62
    7
 10
221.78121900000002
 20
455.23236100000003
 11
221.53121900000002
 21
455.42254600000001
  0
LINE
  8
_0-0_0
  6
CONTINUOUS
 62
    7
 10
221.53121900000002
 20
455.42254600000001
 11
212.28121900000002
 21
455.42254600000001
  0
LINE
  8
_0-0_0
  6
CONTINUOUS
 62
    7
 10
221.78121900000002
 20
455.23236100000003
 11
212.03121900000002
 21
455.23236100000003
  0
LINE
  8
_0-0_0
  6
CONTINUOUS
 62
    7
 10
221.78121900000002
 20
455.45632899999998
 11
221.53121900000002
 21
455.42254600000001
  0
LINE
  8
_0-0_0
  6
CONTINUOUS
 62
    7
 10
221.78121900000002
 20
455.00198399999999
 11
221.53121900000002
 21
455.16980000000001
  0
LINE
  8
_0-0_0
  6
CONTINUOUS
 62
    7
 10
221.53121900000002
 20
455.16980000000001
 11
212.28121900000002
 21
455.16980000000001
  0
LINE
  8
_0-0_0
  6
CONTINUOUS
 62
    7
 10
221.78121900000002
 20
455.00198399999999
 11
212.03121900000002
 21
455.00198399999999
  0
LINE
  8
_0-0_0
  6
CONTINUOUS
 62
    7
 10
221.78121900000002
 20
455.23236100000003
 11
221.53121900000002
 21
455.16980000000001
  0
LINE
  8
_0-0_0
  6
CONTINUOUS
 62
    7
 10
221.78121900000002
 20
454.76776100000001
 11
221.53121900000002
 21
454.911316
  0
LINE
  8
_0-0_0
  6
CONTINUOUS
 62
    7
 10
221.53121900000002
 20
454.911316
 11
212.28121900000002
 21
454.911316
  0
LINE
  8
_0-0_0
  6
CONTINUOUS
 62
    7
 10
221.78121900000002
 20
454.76776100000001
 11
212.03121900000002
 21
454.76776100000001
  0
LINE
  8
_0-0_0
  6
CONTINUOUS
 62
    7
 10
221.78121900000002
 20
455.00198399999999
 11
221.53121900000002
 21
454.911316
  0
LINE
  8
_0-0_0
  6
CONTINUOUS
 62
    7
 10
221.78121900000002
 20
454.53225700000002
 11
221.53121900000002
 21
454.65002399999997
  0
LINE
  8
_0-0_0
  6
CONTINUOUS
 62
    7
 10
221.53121900000002
 20
454.65002399999997
 11
212.28121900000002
 21
454.65002399999997
  0
LINE
  8
_0-0_0
  6
CONTINUOUS
 62
    7
 10
221.78121900000002
 20
454.53225700000002
 11
212.03121900000002
 21
454.53225700000002
  0
LINE
  8
_0-0_0
  6
CONTINUOUS
 62
    7
 10
221.78121900000002
 20
454.76776100000001
 11
221.53121900000002
 21
454.65002399999997
  0
LINE
  8
_0-0_0
  6
CONTINUOUS
 62
    7
 10
221.78121900000002
 20
454.29803500000003
 11
221.53121900000002
 21
454.38867199999999
  0
LINE
  8
_0-0_0
  6
CONTINUOUS
 62
    7
 10
221.53121900000002
 20
454.38867199999999
 11
212.28121900000002
 21
454.38867199999999
  0
LINE
  8
_0-0_0
  6
CONTINUOUS
 62
    7
 10
221.78121900000002
 20
454.29803500000003
 11
212.03121900000002
 21
454.29803500000003
  0
LINE
  8
_0-0_0
  6
CONTINUOUS
 62
    7
 10
221.78121900000002
 20
454.53225700000002
 11
221.53121900000002
 21
454.38867199999999
  0
LINE
  8
_0-0_0
  6
CONTINUOUS
 62
    7
 10
221.78121900000002
 20
454.067657
 11
221.53121900000002
 21
454.13021900000001
  0
LINE
  8
_0-0_0
  6
CONTINUOUS
 62
    7
 10
221.53121900000002
 20
454.13021900000001
 11
212.28121900000002
 21
454.13021900000001
  0
LINE
  8
_0-0_0
  6
CONTINUOUS
 62
    7
 10
221.78121900000002
 20
454.067657
 11
212.03121900000002
 21
454.067657
  0
LINE
  8
_0-0_0
  6
CONTINUOUS
 62
    7
 10
221.78121900000002
 20
454.29803500000003
 11
221.53121900000002
 21
454.13021900000001
  0
LINE
  8
_0-0_0
  6
CONTINUOUS
 62
    7
 10
221.78121900000002
 20
453.84368899999998
 11
221.53121900000002
 21
453.87747200000001
  0
LINE
  8
_0-0_0
  6
CONTINUOUS
 62
    7
 10
221.53121900000002
 20
453.87747200000001
 11
212.28121900000002
 21
453.87747200000001
  0
LINE
  8
_0-0_0
  6
CONTINUOUS
 62
    7
 10
221.78121900000002
 20
453.84368899999998
 11
212.03121900000002
 21
453.84368899999998
  0
LINE
  8
_0-0_0
  6
CONTINUOUS
 62
    7
 10
221.78121900000002
 20
454.067657
 11
221.53121900000002
 21
453.87747200000001
  0
LINE
  8
_0-0_0
  6
CONTINUOUS
 62
    7
 10
221.78121900000002
 20
453.62853999999999
 11
221.53121900000002
 21
453.63317899999998
  0
LINE
  8
_0-0_0
  6
CONTINUOUS
 62
    7
 10
221.53121900000002
 20
453.63317899999998
 11
212.28121900000002
 21
453.63317899999998
  0
LINE
  8
_0-0_0
  6
CONTINUOUS
 62
    7
 10
221.78121900000002
 20
453.84368899999998
 11
221.53121900000002
 21
453.63317899999998
  0
LINE
  8
_0-0_0
  6
CONTINUOUS
 62
    7
 10
222.03121900000002
 20
452.65002399999997
 11
222.03121900000002
 21
456.40518200000002
  0
LINE
  8
_0-0_0
  6
CONTINUOUS
 62
    7
 10
222.03121900000002
 20
456.40518200000002
 11
222.03121900000002
 21
456.65002399999997
  0
LINE
  8
_0-0_0
  6
CONTINUOUS
 62
    7
 10
208.43124400000005
 20
457.95001200000002
 11
208.43124400000005
 21
460.45001200000002
  0
LINE
  8
_0-0_0
  6
CONTINUOUS
 62
    7
 10
208.43124400000005
 20
460.45001200000002
 11
208.43124400000005
 21
467.95001200000002
  0
LINE
  8
_0-0_0
  6
CONTINUOUS
 62
    7
 10
209.23123200000003
 20
458.41189600000001
 11
209.23123200000003
 21
460.68093900000002
  0
LINE
  8
_0-0_0
  6
CONTINUOUS
 62
    7
 10
209.23123200000003
 20
460.68093900000002
 11
209.23123200000003
 21
467.48812900000001
  0
LINE
  8
_0-0_0
  6
CONTINUOUS
 62
    7
 10
267.23123200000003
 20
458.95001200000002
 11
267.23123200000003
 21
458.95135499999998
  0
LINE
  8
_0-0_0
  6
CONTINUOUS
 62
    7
 10
267.23123200000003
 20
458.95135499999998
 11
267.23123200000003
 21
466.95001200000002
  0
LINE
  8
_0-0_0
  6
CONTINUOUS
 62
    7
 10
212.03121900000002
 20
473.49691799999999
 11
212.03121900000002
 21
473.5
  0
LINE
  8
_0-0_0
  6
CONTINUOUS
 62
    7
 10
212.03121900000002
 20
473.47228999999999
 11
212.03121900000002
 21
473.5
  0
LINE
  8
_0-0_0
  6
CONTINUOUS
 62
    7
 10
212.03121900000002
 20
473.42334
 11
212.03121900000002
 21
473.47228999999999
  0
LINE
  8
_0-0_0
  6
CONTINUOUS
 62
    7
 10
212.03121900000002
 20
473.35055499999999
 11
212.03121900000002
 21
473.42334
  0
LINE
  8
_0-0_0
  6
CONTINUOUS
 62
    7
 10
212.03121900000002
 20
473.25476099999997
 11
212.03121900000002
 21
473.35055499999999
  0
LINE
  8
_0-0_0
  6
CONTINUOUS
 62
    7
 10
212.03121900000002
 20
473.22457900000001
 11
212.03121900000002
 21
473.25476099999997
  0
LINE
  8
_0-0_0
  6
CONTINUOUS
 62
    7
 10
212.03121900000002
 20
473.137024
 11
212.03121900000002
 21
473.22457900000001
  0
LINE
  8
_0-0_0
  6
CONTINUOUS
 62
    7
 10
212.03121900000002
 20
472.99859600000002
 11
212.03121900000002
 21
473.137024
  0
LINE
  8
_0-0_0
  6
CONTINUOUS
 62
    7
 10
212.03121900000002
 20
472.841003
 11
212.03121900000002
 21
472.99859600000002
  0
LINE
  8
_0-0_0
  6
CONTINUOUS
 62
    7
 10
212.03121900000002
 20
472.66598499999998
 11
212.03121900000002
 21
472.841003
  0
LINE
  8
_0-0_0
  6
CONTINUOUS
 62
    7
 10
212.03121900000002
 20
472.47543300000001
 11
212.03121900000002
 21
472.66598499999998
  0
LINE
  8
_0-0_0
  6
CONTINUOUS
 62
    7
 10
212.03121900000002
 20
472.27148399999999
 11
212.03121900000002
 21
472.47543300000001
  0
LINE
  8
_0-0_0
  6
CONTINUOUS
 62
    7
 10
212.03121900000002
 20
472.05633499999999
 11
212.03121900000002
 21
472.27148399999999
  0
LINE
  8
_0-0_0
  6
CONTINUOUS
 62
    7
 10
212.03121900000002
 20
471.832336
 11
212.03121900000002
 21
472.05633499999999
  0
LINE
  8
_0-0_0
  6
CONTINUOUS
 62
    7
 10
212.03121900000002
 20
471.60199
 11
212.03121900000002
 21
471.832336
  0
LINE
  8
_0-0_0
  6
CONTINUOUS
 62
    7
 10
212.03121900000002
 20
471.36776700000001
 11
212.03121900000002
 21
471.60199
  0
LINE
  8
_0-0_0
  6
CONTINUOUS
 62
    7
 10
212.03121900000002
 20
471.13226300000002
 11
212.03121900000002
 21
471.36776700000001
  0
LINE
  8
_0-0_0
  6
CONTINUOUS
 62
    7
 10
212.03121900000002
 20
470.89804099999998
 11
212.03121900000002
 21
471.13226300000002
  0
LINE
  8
_0-0_0
  6
CONTINUOUS
 62
    7
 10
212.03121900000002
 20
470.667664
 11
212.03121900000002
 21
470.89804099999998
  0
LINE
  8
_0-0_0
  6
CONTINUOUS
 62
    7
 10
212.03121900000002
 20
470.44366500000001
 11
212.03121900000002
 21
470.667664
  0
LINE
  8
_0-0_0
  6
CONTINUOUS
 62
    7
 10
212.03121900000002
 20
470.22851600000001
 11
212.03121900000002
 21
470.44366500000001
  0
LINE
  8
_0-0_0
  6
CONTINUOUS
 62
    7
 10
212.03121900000002
 20
470.17129499999999
 11
212.03121900000002
 21
470.22851600000001
  0
LINE
  8
_0-0_0
  6
CONTINUOUS
 62
    7
 10
212.03121900000002
 20
473.49691799999999
 11
212.28121900000002
 21
473.75
  0
LINE
  8
_0-0_0
  6
CONTINUOUS
 62
    7
 10
212.03121900000002
 20
473.47228999999999
 11
212.28121900000002
 21
473.73632800000001
  0
LINE
  8
_0-0_0
  6
CONTINUOUS
 62
    7
 10
212.03121900000002
 20
473.49691799999999
 11
212.28121900000002
 21
473.73632800000001
  0
LINE
  8
_0-0_0
  6
CONTINUOUS
 62
    7
 10
212.03121900000002
 20
473.42334
 11
212.28121900000002
 21
473.69537400000002
  0
LINE
  8
_0-0_0
  6
CONTINUOUS
 62
    7
 10
212.03121900000002
 20
473.47228999999999
 11
212.28121900000002
 21
473.69537400000002
  0
LINE
  8
_0-0_0
  6
CONTINUOUS
 62
    7
 10
212.03121900000002
 20
473.35055499999999
 11
212.28121900000002
 21
473.627655
  0
LINE
  8
_0-0_0
  6
CONTINUOUS
 62
    7
 10
212.03121900000002
 20
473.42334
 11
212.28121900000002
 21
473.627655
  0
LINE
  8
_0-0_0
  6
CONTINUOUS
 62
    7
 10
212.03121900000002
 20
473.25476099999997
 11
212.28121900000002
 21
473.53387500000002
  0
LINE
  8
_0-0_0
  6
CONTINUOUS
 62
    7
 10
212.03121900000002
 20
473.35055499999999
 11
212.28121900000002
 21
473.53387500000002
  0
LINE
  8
_0-0_0
  6
CONTINUOUS
 62
    7
 10
212.03121900000002
 20
473.25476099999997
 11
212.16122400000006
 21
473.33862299999998
  0
LINE
  8
_0-0_0
  6
CONTINUOUS
 62
    7
 10
212.03121900000002
 20
473.137024
 11
212.28121900000002
 21
473.41507000000001
  0
LINE
  8
_0-0_0
  6
CONTINUOUS
 62
    7
 10
212.16122400000006
 20
473.33862299999998
 11
212.28121900000002
 21
473.41507000000001
  0
LINE
  8
_0-0_0
  6
CONTINUOUS
 62
    7
 10
212.03121900000002
 20
472.99859600000002
 11
212.28121900000002
 21
473.27255200000002
  0
LINE
  8
_0-0_0
  6
CONTINUOUS
 62
    7
 10
212.03121900000002
 20
473.137024
 11
212.28121900000002
 21
473.27255200000002
  0
LINE
  8
_0-0_0
  6
CONTINUOUS
 62
    7
 10
212.03121900000002
 20
472.841003
 11
212.28121900000002
 21
473.10788000000002
  0
LINE
  8
_0-0_0
  6
CONTINUOUS
 62
    7
 10
212.03121900000002
 20
472.99859600000002
 11
212.28121900000002
 21
473.10788000000002
  0
LINE
  8
_0-0_0
  6
CONTINUOUS
 62
    7
 10
212.03121900000002
 20
472.66598499999998
 11
212.28121900000002
 21
472.922821
  0
LINE
  8
_0-0_0
  6
CONTINUOUS
 62
    7
 10
212.03121900000002
 20
472.841003
 11
212.28121900000002
 21
472.922821
  0
LINE
  8
_0-0_0
  6
CONTINUOUS
 62
    7
 10
212.03121900000002
 20
472.47543300000001
 11
212.28121900000002
 21
472.71948200000003
  0
LINE
  8
_0-0_0
  6
CONTINUOUS
 62
    7
 10
212.03121900000002
 20
472.66598499999998
 11
212.28121900000002
 21
472.71948200000003
  0
LINE
  8
_0-0_0
  6
CONTINUOUS
 62
    7
 10
212.03121900000002
 20
472.27148399999999
 11
212.28121900000002
 21
472.5
  0
LINE
  8
_0-0_0
  6
CONTINUOUS
 62
    7
 10
212.03121900000002
 20
472.47543300000001
 11
212.28121900000002
 21
472.5
  0
LINE
  8
_0-0_0
  6
CONTINUOUS
 62
    7
 10
212.03121900000002
 20
472.05633499999999
 11
212.28121900000002
 21
472.26684599999999
  0
LINE
  8
_0-0_0
  6
CONTINUOUS
 62
    7
 10
212.03121900000002
 20
472.27148399999999
 11
212.28121900000002
 21
472.26684599999999
  0
LINE
  8
_0-0_0
  6
CONTINUOUS
 62
    7
 10
212.03121900000002
 20
471.832336
 11
212.28121900000002
 21
472.02255200000002
  0
LINE
  8
_0-0_0
  6
CONTINUOUS
 62
    7
 10
212.03121900000002
 20
472.05633499999999
 11
212.28121900000002
 21
472.02255200000002
  0
LINE
  8
_0-0_0
  6
CONTINUOUS
 62
    7
 10
212.03121900000002
 20
471.60199
 11
212.28121900000002
 21
471.76977499999998
  0
LINE
  8
_0-0_0
  6
CONTINUOUS
 62
    7
 10
212.03121900000002
 20
471.832336
 11
212.28121900000002
 21
471.76977499999998
  0
LINE
  8
_0-0_0
  6
CONTINUOUS
 62
    7
 10
212.03121900000002
 20
471.36776700000001
 11
212.28121900000002
 21
471.51132200000001
  0
LINE
  8
_0-0_0
  6
CONTINUOUS
 62
    7
 10
212.03121900000002
 20
471.60199
 11
212.28121900000002
 21
471.51132200000001
  0
LINE
  8
_0-0_0
  6
CONTINUOUS
 62
    7
 10
212.03121900000002
 20
471.13226300000002
 11
212.28121900000002
 21
471.25
  0
LINE
  8
_0-0_0
  6
CONTINUOUS
 62
    7
 10
212.03121900000002
 20
471.36776700000001
 11
212.28121900000002
 21
471.25
  0
LINE
  8
_0-0_0
  6
CONTINUOUS
 62
    7
 10
212.03121900000002
 20
470.89804099999998
 11
212.28121900000002
 21
470.98867799999999
  0
LINE
  8
_0-0_0
  6
CONTINUOUS
 62
    7
 10
212.03121900000002
 20
471.13226300000002
 11
212.28121900000002
 21
470.98867799999999
  0
LINE
  8
_0-0_0
  6
CONTINUOUS
 62
    7
 10
212.03121900000002
 20
470.667664
 11
212.28121900000002
 21
470.73022500000002
  0
LINE
  8
_0-0_0
  6
CONTINUOUS
 62
    7
 10
212.03121900000002
 20
470.89804099999998
 11
212.28121900000002
 21
470.73022500000002
  0
LINE
  8
_0-0_0
  6
CONTINUOUS
 62
    7
 10
212.03121900000002
 20
470.44366500000001
 11
212.28121900000002
 21
470.47747800000002
  0
LINE
  8
_0-0_0
  6
CONTINUOUS
 62
    7
 10
212.03121900000002
 20
470.667664
 11
212.28121900000002
 21
470.47747800000002
  0
LINE
  8
_0-0_0
  6
CONTINUOUS
 62
    7
 10
212.03121900000002
 20
470.22851600000001
 11
212.28121900000002
 21
470.23315400000001
  0
LINE
  8
_0-0_0
  6
CONTINUOUS
 62
    7
 10
212.03121900000002
 20
470.44366500000001
 11
212.28121900000002
 21
470.23315400000001
  0
LINE
  8
_0-0_0
  6
CONTINUOUS
 62
    7
 10
212.03121900000002
 20
470.02456699999999
 11
212.03121900000002
 21
470.17129499999999
  0
LINE
  8
_0-0_0
  6
CONTINUOUS
 62
    7
 10
212.03121900000002
 20
470.02456699999999
 11
212.28121900000002
 21
470
  0
LINE
  8
_0-0_0
  6
CONTINUOUS
 62
    7
 10
212.03121900000002
 20
470.22851600000001
 11
212.28121900000002
 21
470
  0
LINE
  8
_0-0_0
  6
CONTINUOUS
 62
    7
 10
212.03121900000002
 20
469.834045
 11
212.03121900000002
 21
470.02456699999999
  0
LINE
  8
_0-0_0
  6
CONTINUOUS
 62
    7
 10
212.03121900000002
 20
469.65902699999998
 11
212.03121900000002
 21
469.834045
  0
LINE
  8
_0-0_0
  6
CONTINUOUS
 62
    7
 10
212.03121900000002
 20
469.50143400000002
 11
212.03121900000002
 21
469.65902699999998
  0
LINE
  8
_0-0_0
  6
CONTINUOUS
 62
    7
 10
212.03121900000002
 20
469.36300699999998
 11
212.03121900000002
 21
469.50143400000002
  0
LINE
  8
_0-0_0
  6
CONTINUOUS
 62
    7
 10
212.03121900000002
 20
469.24523900000003
 11
212.03121900000002
 21
469.36300699999998
  0
LINE
  8
_0-0_0
  6
CONTINUOUS
 62
    7
 10
212.03121900000002
 20
469.14944500000001
 11
212.03121900000002
 21
469.24523900000003
  0
LINE
  8
_0-0_0
  6
CONTINUOUS
 62
    7
 10
212.03121900000002
 20
469.07666
 11
212.03121900000002
 21
469.14944500000001
  0
LINE
  8
_0-0_0
  6
CONTINUOUS
 62
    7
 10
212.03121900000002
 20
469.02771000000001
 11
212.03121900000002
 21
469.07666
  0
LINE
  8
_0-0_0
  6
CONTINUOUS
 62
    7
 10
212.03121900000002
 20
469.00308200000001
 11
212.03121900000002
 21
469.02771000000001
  0
LINE
  8
_0-0_0
  6
CONTINUOUS
 62
    7
 10
212.03121900000002
 20
469
 11
212.03121900000002
 21
469.00308200000001
  0
LINE
  8
_0-0_0
  6
CONTINUOUS
 62
    7
 10
221.78121900000002
 20
473.49691799999999
 11
221.53121900000002
 21
473.75
  0
LINE
  8
_0-0_0
  6
CONTINUOUS
 62
    7
 10
221.53121900000002
 20
473.75
 11
212.28121900000002
 21
473.75
  0
LINE
  8
_0-0_0
  6
CONTINUOUS
 62
    7
 10
221.78121900000002
 20
473.47228999999999
 11
221.53121900000002
 21
473.73632800000001
  0
LINE
  8
_0-0_0
  6
CONTINUOUS
 62
    7
 10
221.53121900000002
 20
473.73632800000001
 11
212.28121900000002
 21
473.73632800000001
  0
LINE
  8
_0-0_0
  6
CONTINUOUS
 62
    7
 10
221.78121900000002
 20
473.49691799999999
 11
221.53121900000002
 21
473.73632800000001
  0
LINE
  8
_0-0_0
  6
CONTINUOUS
 62
    7
 10
221.78121900000002
 20
473.42334
 11
221.53121900000002
 21
473.69537400000002
  0
LINE
  8
_0-0_0
  6
CONTINUOUS
 62
    7
 10
221.53121900000002
 20
473.69537400000002
 11
212.28121900000002
 21
473.69537400000002
  0
LINE
  8
_0-0_0
  6
CONTINUOUS
 62
    7
 10
221.78121900000002
 20
473.47228999999999
 11
221.53121900000002
 21
473.69537400000002
  0
LINE
  8
_0-0_0
  6
CONTINUOUS
 62
    7
 10
221.78121900000002
 20
473.35055499999999
 11
221.53121900000002
 21
473.627655
  0
LINE
  8
_0-0_0
  6
CONTINUOUS
 62
    7
 10
221.53121900000002
 20
473.627655
 11
212.28121900000002
 21
473.627655
  0
LINE
  8
_0-0_0
  6
CONTINUOUS
 62
    7
 10
221.78121900000002
 20
473.42334
 11
221.53121900000002
 21
473.627655
  0
LINE
  8
_0-0_0
  6
CONTINUOUS
 62
    7
 10
221.78121900000002
 20
473.25476099999997
 11
221.53121900000002
 21
473.53387500000002
  0
LINE
  8
_0-0_0
  6
CONTINUOUS
 62
    7
 10
221.53121900000002
 20
473.53387500000002
 11
212.28121900000002
 21
473.53387500000002
  0
LINE
  8
_0-0_0
  6
CONTINUOUS
 62
    7
 10
221.78121900000002
 20
473.35055499999999
 11
221.53121900000002
 21
473.53387500000002
  0
LINE
  8
_0-0_0
  6
CONTINUOUS
 62
    7
 10
221.53121900000002
 20
473.41507000000001
 11
212.28121900000002
 21
473.41507000000001
  0
LINE
  8
_0-0_0
  6
CONTINUOUS
 62
    7
 10
221.65127600000005
 20
473.33862299999998
 11
221.53121900000002
 21
473.41507000000001
  0
LINE
  8
_0-0_0
  6
CONTINUOUS
 62
    7
 10
221.78121900000002
 20
473.25476099999997
 11
221.65127600000005
 21
473.33862299999998
  0
LINE
  8
_0-0_0
  6
CONTINUOUS
 62
    7
 10
221.78121900000002
 20
473.137024
 11
221.53121900000002
 21
473.41507000000001
  0
LINE
  8
_0-0_0
  6
CONTINUOUS
 62
    7
 10
221.78121900000002
 20
472.99859600000002
 11
221.53121900000002
 21
473.27255200000002
  0
LINE
  8
_0-0_0
  6
CONTINUOUS
 62
    7
 10
221.53121900000002
 20
473.27255200000002
 11
212.28121900000002
 21
473.27255200000002
  0
LINE
  8
_0-0_0
  6
CONTINUOUS
 62
    7
 10
221.78121900000002
 20
473.137024
 11
221.53121900000002
 21
473.27255200000002
  0
LINE
  8
_0-0_0
  6
CONTINUOUS
 62
    7
 10
221.78121900000002
 20
472.841003
 11
221.53121900000002
 21
473.10788000000002
  0
LINE
  8
_0-0_0
  6
CONTINUOUS
 62
    7
 10
221.53121900000002
 20
473.10788000000002
 11
212.28121900000002
 21
473.10788000000002
  0
LINE
  8
_0-0_0
  6
CONTINUOUS
 62
    7
 10
221.78121900000002
 20
472.99859600000002
 11
221.53121900000002
 21
473.10788000000002
  0
LINE
  8
_0-0_0
  6
CONTINUOUS
 62
    7
 10
221.78121900000002
 20
472.66598499999998
 11
221.53121900000002
 21
472.922821
  0
LINE
  8
_0-0_0
  6
CONTINUOUS
 62
    7
 10
221.53121900000002
 20
472.922821
 11
212.28121900000002
 21
472.922821
  0
LINE
  8
_0-0_0
  6
CONTINUOUS
 62
    7
 10
221.78121900000002
 20
472.841003
 11
221.53121900000002
 21
472.922821
  0
LINE
  8
_0-0_0
  6
CONTINUOUS
 62
    7
 10
221.78121900000002
 20
472.47543300000001
 11
221.53121900000002
 21
472.71948200000003
  0
LINE
  8
_0-0_0
  6
CONTINUOUS
 62
    7
 10
221.53121900000002
 20
472.71948200000003
 11
212.28121900000002
 21
472.71948200000003
  0
LINE
  8
_0-0_0
  6
CONTINUOUS
 62
    7
 10
221.78121900000002
 20
472.66598499999998
 11
221.53121900000002
 21
472.71948200000003
  0
LINE
  8
_0-0_0
  6
CONTINUOUS
 62
    7
 10
221.78121900000002
 20
472.27148399999999
 11
221.53121900000002
 21
472.5
  0
LINE
  8
_0-0_0
  6
CONTINUOUS
 62
    7
 10
221.53121900000002
 20
472.5
 11
212.28121900000002
 21
472.5
  0
LINE
  8
_0-0_0
  6
CONTINUOUS
 62
    7
 10
221.78121900000002
 20
472.27148399999999
 11
212.03121900000002
 21
472.27148399999999
  0
LINE
  8
_0-0_0
  6
CONTINUOUS
 62
    7
 10
221.78121900000002
 20
472.47543300000001
 11
221.53121900000002
 21
472.5
  0
LINE
  8
_0-0_0
  6
CONTINUOUS
 62
    7
 10
221.78121900000002
 20
472.05633499999999
 11
221.53121900000002
 21
472.26684599999999
  0
LINE
  8
_0-0_0
  6
CONTINUOUS
 62
    7
 10
221.53121900000002
 20
472.26684599999999
 11
212.28121900000002
 21
472.26684599999999
  0
LINE
  8
_0-0_0
  6
CONTINUOUS
 62
    7
 10
221.78121900000002
 20
472.05633499999999
 11
212.03121900000002
 21
472.05633499999999
  0
LINE
  8
_0-0_0
  6
CONTINUOUS
 62
    7
 10
221.78121900000002
 20
472.27148399999999
 11
221.53121900000002
 21
472.26684599999999
  0
LINE
  8
_0-0_0
  6
CONTINUOUS
 62
    7
 10
221.78121900000002
 20
471.832336
 11
221.53121900000002
 21
472.02255200000002
  0
LINE
  8
_0-0_0
  6
CONTINUOUS
 62
    7
 10
221.53121900000002
 20
472.02255200000002
 11
212.28121900000002
 21
472.02255200000002
  0
LINE
  8
_0-0_0
  6
CONTINUOUS
 62
    7
 10
221.78121900000002
 20
471.832336
 11
212.03121900000002
 21
471.832336
  0
LINE
  8
_0-0_0
  6
CONTINUOUS
 62
    7
 10
221.78121900000002
 20
472.05633499999999
 11
221.53121900000002
 21
472.02255200000002
  0
LINE
  8
_0-0_0
  6
CONTINUOUS
 62
    7
 10
221.78121900000002
 20
471.60199
 11
221.53121900000002
 21
471.76977499999998
  0
LINE
  8
_0-0_0
  6
CONTINUOUS
 62
    7
 10
221.53121900000002
 20
471.76977499999998
 11
212.28121900000002
 21
471.76977499999998
  0
LINE
  8
_0-0_0
  6
CONTINUOUS
 62
    7
 10
221.78121900000002
 20
471.60199
 11
212.03121900000002
 21
471.60199
  0
LINE
  8
_0-0_0
  6
CONTINUOUS
 62
    7
 10
221.78121900000002
 20
471.832336
 11
221.53121900000002
 21
471.76977499999998
  0
LINE
  8
_0-0_0
  6
CONTINUOUS
 62
    7
 10
221.78121900000002
 20
471.36776700000001
 11
221.53121900000002
 21
471.51132200000001
  0
LINE
  8
_0-0_0
  6
CONTINUOUS
 62
    7
 10
221.53121900000002
 20
471.51132200000001
 11
212.28121900000002
 21
471.51132200000001
  0
LINE
  8
_0-0_0
  6
CONTINUOUS
 62
    7
 10
221.78121900000002
 20
471.36776700000001
 11
212.03121900000002
 21
471.36776700000001
  0
LINE
  8
_0-0_0
  6
CONTINUOUS
 62
    7
 10
221.78121900000002
 20
471.60199
 11
221.53121900000002
 21
471.51132200000001
  0
LINE
  8
_0-0_0
  6
CONTINUOUS
 62
    7
 10
221.78121900000002
 20
471.13226300000002
 11
221.53121900000002
 21
471.25
  0
LINE
  8
_0-0_0
  6
CONTINUOUS
 62
    7
 10
221.53121900000002
 20
471.25
 11
212.28121900000002
 21
471.25
  0
LINE
  8
_0-0_0
  6
CONTINUOUS
 62
    7
 10
221.78121900000002
 20
471.13226300000002
 11
212.03121900000002
 21
471.13226300000002
  0
LINE
  8
_0-0_0
  6
CONTINUOUS
 62
    7
 10
221.78121900000002
 20
471.36776700000001
 11
221.53121900000002
 21
471.25
  0
LINE
  8
_0-0_0
  6
CONTINUOUS
 62
    7
 10
221.78121900000002
 20
470.89804099999998
 11
221.53121900000002
 21
470.98867799999999
  0
LINE
  8
_0-0_0
  6
CONTINUOUS
 62
    7
 10
221.53121900000002
 20
470.98867799999999
 11
212.28121900000002
 21
470.98867799999999
  0
LINE
  8
_0-0_0
  6
CONTINUOUS
 62
    7
 10
221.78121900000002
 20
470.89804099999998
 11
212.03121900000002
 21
470.89804099999998
  0
LINE
  8
_0-0_0
  6
CONTINUOUS
 62
    7
 10
221.78121900000002
 20
471.13226300000002
 11
221.53121900000002
 21
470.98867799999999
  0
LINE
  8
_0-0_0
  6
CONTINUOUS
 62
    7
 10
221.78121900000002
 20
470.667664
 11
221.53121900000002
 21
470.73022500000002
  0
LINE
  8
_0-0_0
  6
CONTINUOUS
 62
    7
 10
221.53121900000002
 20
470.73022500000002
 11
212.28121900000002
 21
470.73022500000002
  0
LINE
  8
_0-0_0
  6
CONTINUOUS
 62
    7
 10
221.78121900000002
 20
470.667664
 11
212.03121900000002
 21
470.667664
  0
LINE
  8
_0-0_0
  6
CONTINUOUS
 62
    7
 10
221.78121900000002
 20
470.89804099999998
 11
221.53121900000002
 21
470.73022500000002
  0
LINE
  8
_0-0_0
  6
CONTINUOUS
 62
    7
 10
221.78121900000002
 20
470.44366500000001
 11
221.53121900000002
 21
470.47747800000002
  0
LINE
  8
_0-0_0
  6
CONTINUOUS
 62
    7
 10
221.53121900000002
 20
470.47747800000002
 11
212.28121900000002
 21
470.47747800000002
  0
LINE
  8
_0-0_0
  6
CONTINUOUS
 62
    7
 10
221.78121900000002
 20
470.44366500000001
 11
212.03121900000002
 21
470.44366500000001
  0
LINE
  8
_0-0_0
  6
CONTINUOUS
 62
    7
 10
221.78121900000002
 20
470.667664
 11
221.53121900000002
 21
470.47747800000002
  0
LINE
  8
_0-0_0
  6
CONTINUOUS
 62
    7
 10
221.78121900000002
 20
470.22851600000001
 11
221.53121900000002
 21
470.23315400000001
  0
LINE
  8
_0-0_0
  6
CONTINUOUS
 62
    7
 10
221.53121900000002
 20
470.23315400000001
 11
212.28121900000002
 21
470.23315400000001
  0
LINE
  8
_0-0_0
  6
CONTINUOUS
 62
    7
 10
221.78121900000002
 20
470.22851600000001
 11
212.03121900000002
 21
470.22851600000001
  0
LINE
  8
_0-0_0
  6
CONTINUOUS
 62
    7
 10
221.78121900000002
 20
470.44366500000001
 11
221.53121900000002
 21
470.23315400000001
  0
LINE
  8
_0-0_0
  6
CONTINUOUS
 62
    7
 10
221.78121900000002
 20
470.02456699999999
 11
221.53121900000002
 21
470
  0
LINE
  8
_0-0_0
  6
CONTINUOUS
 62
    7
 10
221.53121900000002
 20
470
 11
212.28121900000002
 21
470
  0
LINE
  8
_0-0_0
  6
CONTINUOUS
 62
    7
 10
221.78121900000002
 20
470.22851600000001
 11
221.53121900000002
 21
470
  0
LINE
  8
_0-0_0
  6
CONTINUOUS
 62
    7
 10
212.03121900000002
 20
469.834045
 11
212.28121900000002
 21
469.78054800000001
  0
LINE
  8
_0-0_0
  6
CONTINUOUS
 62
    7
 10
212.03121900000002
 20
470.02456699999999
 11
212.28121900000002
 21
469.78054800000001
  0
LINE
  8
_0-0_0
  6
CONTINUOUS
 62
    7
 10
212.03121900000002
 20
469.65902699999998
 11
212.28121900000002
 21
469.577179
  0
LINE
  8
_0-0_0
  6
CONTINUOUS
 62
    7
 10
212.03121900000002
 20
469.834045
 11
212.28121900000002
 21
469.577179
  0
LINE
  8
_0-0_0
  6
CONTINUOUS
 62
    7
 10
212.03121900000002
 20
469.50143400000002
 11
212.28121900000002
 21
469.39215100000001
  0
LINE
  8
_0-0_0
  6
CONTINUOUS
 62
    7
 10
212.03121900000002
 20
469.65902699999998
 11
212.28121900000002
 21
469.39215100000001
  0
LINE
  8
_0-0_0
  6
CONTINUOUS
 62
    7
 10
212.03121900000002
 20
469.36300699999998
 11
212.28121900000002
 21
469.22747800000002
  0
LINE
  8
_0-0_0
  6
CONTINUOUS
 62
    7
 10
212.03121900000002
 20
469.50143400000002
 11
212.28121900000002
 21
469.22747800000002
  0
LINE
  8
_0-0_0
  6
CONTINUOUS
 62
    7
 10
212.03121900000002
 20
469.24523900000003
 11
212.28121900000002
 21
469.08496100000002
  0
LINE
  8
_0-0_0
  6
CONTINUOUS
 62
    7
 10
212.03121900000002
 20
469.36300699999998
 11
212.28121900000002
 21
469.08496100000002
  0
LINE
  8
_0-0_0
  6
CONTINUOUS
 62
    7
 10
212.03121900000002
 20
469.14944500000001
 11
212.28121900000002
 21
468.96615600000001
  0
LINE
  8
_0-0_0
  6
CONTINUOUS
 62
    7
 10
212.03121900000002
 20
469.24523900000003
 11
212.28121900000002
 21
468.96615600000001
  0
LINE
  8
_0-0_0
  6
CONTINUOUS
 62
    7
 10
212.03121900000002
 20
469.07666
 11
212.28121900000002
 21
468.87237499999998
  0
LINE
  8
_0-0_0
  6
CONTINUOUS
 62
    7
 10
212.03121900000002
 20
469.14944500000001
 11
212.28121900000002
 21
468.87237499999998
  0
LINE
  8
_0-0_0
  6
CONTINUOUS
 62
    7
 10
212.03121900000002
 20
469.02771000000001
 11
212.28121900000002
 21
468.80462599999998
  0
LINE
  8
_0-0_0
  6
CONTINUOUS
 62
    7
 10
212.03121900000002
 20
469.07666
 11
212.28121900000002
 21
468.80462599999998
  0
LINE
  8
_0-0_0
  6
CONTINUOUS
 62
    7
 10
212.03121900000002
 20
469.00308200000001
 11
212.28121900000002
 21
468.76370200000002
  0
LINE
  8
_0-0_0
  6
CONTINUOUS
 62
    7
 10
212.03121900000002
 20
469.02771000000001
 11
212.28121900000002
 21
468.76370200000002
  0
LINE
  8
_0-0_0
  6
CONTINUOUS
 62
    7
 10
212.03121900000002
 20
469.00308200000001
 11
212.28121900000002
 21
468.75
  0
LINE
  8
_0-0_0
  6
CONTINUOUS
 62
    7
 10
222.03121900000002
 20
473.00518799999998
 11
222.03121900000002
 21
473.25
  0
LINE
  8
_0-0_0
  6
CONTINUOUS
 62
    7
 10
221.78121900000002
 20
470.02456699999999
 11
221.53121900000002
 21
469.78054800000001
  0
LINE
  8
_0-0_0
  6
CONTINUOUS
 62
    7
 10
221.78121900000002
 20
469.834045
 11
221.53121900000002
 21
469.78054800000001
  0
LINE
  8
_0-0_0
  6
CONTINUOUS
 62
    7
 10
221.78121900000002
 20
469.834045
 11
221.53121900000002
 21
469.577179
  0
LINE
  8
_0-0_0
  6
CONTINUOUS
 62
    7
 10
221.78121900000002
 20
469.65902699999998
 11
221.53121900000002
 21
469.577179
  0
LINE
  8
_0-0_0
  6
CONTINUOUS
 62
    7
 10
221.78121900000002
 20
469.65902699999998
 11
221.53121900000002
 21
469.39215100000001
  0
LINE
  8
_0-0_0
  6
CONTINUOUS
 62
    7
 10
221.78121900000002
 20
469.50143400000002
 11
221.53121900000002
 21
469.39215100000001
  0
LINE
  8
_0-0_0
  6
CONTINUOUS
 62
    7
 10
221.78121900000002
 20
469.50143400000002
 11
221.53121900000002
 21
469.22747800000002
  0
LINE
  8
_0-0_0
  6
CONTINUOUS
 62
    7
 10
221.78121900000002
 20
469.36300699999998
 11
221.53121900000002
 21
469.22747800000002
  0
LINE
  8
_0-0_0
  6
CONTINUOUS
 62
    7
 10
221.78121900000002
 20
469.36300699999998
 11
221.53121900000002
 21
469.08496100000002
  0
LINE
  8
_0-0_0
  6
CONTINUOUS
 62
    7
 10
221.78121900000002
 20
469.24523900000003
 11
221.53121900000002
 21
469.08496100000002
  0
LINE
  8
_0-0_0
  6
CONTINUOUS
 62
    7
 10
221.78121900000002
 20
469.24523900000003
 11
221.53121900000002
 21
468.96615600000001
  0
LINE
  8
_0-0_0
  6
CONTINUOUS
 62
    7
 10
221.78121900000002
 20
469.14944500000001
 11
221.53121900000002
 21
468.96615600000001
  0
LINE
  8
_0-0_0
  6
CONTINUOUS
 62
    7
 10
221.78121900000002
 20
469.14944500000001
 11
221.53121900000002
 21
468.87237499999998
  0
LINE
  8
_0-0_0
  6
CONTINUOUS
 62
    7
 10
221.78121900000002
 20
469.07666
 11
221.53121900000002
 21
468.87237499999998
  0
LINE
  8
_0-0_0
  6
CONTINUOUS
 62
    7
 10
221.78121900000002
 20
469.07666
 11
221.53121900000002
 21
468.80462599999998
  0
LINE
  8
_0-0_0
  6
CONTINUOUS
 62
    7
 10
221.78121900000002
 20
469.02771000000001
 11
221.53121900000002
 21
468.80462599999998
  0
LINE
  8
_0-0_0
  6
CONTINUOUS
 62
    7
 10
221.78121900000002
 20
469.02771000000001
 11
221.53121900000002
 21
468.76370200000002
  0
LINE
  8
_0-0_0
  6
CONTINUOUS
 62
    7
 10
221.78121900000002
 20
469.00308200000001
 11
221.53121900000002
 21
468.76370200000002
  0
LINE
  8
_0-0_0
  6
CONTINUOUS
 62
    7
 10
221.78121900000002
 20
469.00308200000001
 11
221.53121900000002
 21
468.75
  0
LINE
  8
_0-0_0
  6
CONTINUOUS
 62
    7
 10
222.03121900000002
 20
469.25
 11
222.03121900000002
 21
473.00518799999998
  0
LINE
  8
_0-0_0
  6
CONTINUOUS
 62
    7
 10
221.53121900000002
 20
469.78054800000001
 11
212.28121900000002
 21
469.78054800000001
  0
LINE
  8
_0-0_0
  6
CONTINUOUS
 62
    7
 10
221.53121900000002
 20
469.577179
 11
212.28121900000002
 21
469.577179
  0
LINE
  8
_0-0_0
  6
CONTINUOUS
 62
    7
 10
221.53121900000002
 20
469.39215100000001
 11
212.28121900000002
 21
469.39215100000001
  0
LINE
  8
_0-0_0
  6
CONTINUOUS
 62
    7
 10
221.53121900000002
 20
469.22747800000002
 11
212.28121900000002
 21
469.22747800000002
  0
LINE
  8
_0-0_0
  6
CONTINUOUS
 62
    7
 10
221.53121900000002
 20
469.08496100000002
 11
212.28121900000002
 21
469.08496100000002
  0
LINE
  8
_0-0_0
  6
CONTINUOUS
 62
    7
 10
221.53121900000002
 20
468.96615600000001
 11
212.28121900000002
 21
468.96615600000001
  0
LINE
  8
_0-0_0
  6
CONTINUOUS
 62
    7
 10
221.53121900000002
 20
468.87237499999998
 11
212.28121900000002
 21
468.87237499999998
  0
LINE
  8
_0-0_0
  6
CONTINUOUS
 62
    7
 10
221.53121900000002
 20
468.80462599999998
 11
212.28121900000002
 21
468.80462599999998
  0
LINE
  8
_0-0_0
  6
CONTINUOUS
 62
    7
 10
221.53121900000002
 20
468.76370200000002
 11
212.28121900000002
 21
468.76370200000002
  0
LINE
  8
_0-0_0
  6
CONTINUOUS
 62
    7
 10
221.53121900000002
 20
468.75
 11
212.28121900000002
 21
468.75
  0
LINE
  8
_0-0_0
  6
CONTINUOUS
 62
    7
 10
85.031235000000038
 20
469
 11
82.575560999999993
 21
469
  0
LINE
  8
_0-0_0
  6
CONTINUOUS
 62
    7
 10
83.076645000000042
 20
473.5
 11
82.575560999999993
 21
473.5
  0
LINE
  8
_0-0_0
  6
CONTINUOUS
 62
    7
 10
82.431243999999992
 20
469.25
 11
82.575560999999993
 21
469
  0
LINE
  8
_0-0_0
  6
CONTINUOUS
 62
    7
 10
82.431243999999992
 20
473.25
 11
82.575560999999993
 21
473.5
  0
LINE
  8
_0-0_0
  6
CONTINUOUS
 62
    7
 10
186.03121900000002
 20
452.40002399999997
 11
212.03121900000002
 21
452.40002399999997
  0
LINE
  8
_0-0_0
  6
CONTINUOUS
 62
    7
 10
186.03121900000002
 20
456.90002399999997
 11
212.03121900000002
 21
456.90002399999997
  0
LINE
  8
_0-0_0
  6
CONTINUOUS
 62
    7
 10
212.03121900000002
 20
452.40002399999997
 11
212.28121900000002
 21
452.15002399999997
  0
LINE
  8
_0-0_0
  6
CONTINUOUS
 62
    7
 10
212.03121900000002
 20
456.90002399999997
 11
212.28121900000002
 21
457.15002399999997
  0
LINE
  8
_0-0_0
  6
CONTINUOUS
 62
    7
 10
208.03121900000002
 20
468.20001200000002
 11
206.78121900000002
 21
469.45001200000002
  0
LINE
  8
_0-0_0
  6
CONTINUOUS
 62
    7
 10
208.03121900000002
 20
457.70001200000002
 11
207.23123200000003
 21
456.89999399999999
  0
LINE
  8
_0-0_0
  6
CONTINUOUS
 62
    7
 10
222.03121900000002
 20
452.65002399999997
 11
221.53140300000001
 21
452.15014600000001
  0
LINE
  8
_0-0_0
  6
CONTINUOUS
 62
    7
 10
222.03121900000002
 20
456.65002399999997
 11
221.53140300000001
 21
457.14984099999998
  0
LINE
  8
_0-0_0
  6
CONTINUOUS
 62
    7
 10
208.03121900000002
 20
457.95001200000002
 11
208.43124400000005
 21
457.95001200000002
  0
LINE
  8
_0-0_0
  6
CONTINUOUS
 62
    7
 10
208.03121900000002
 20
467.95001200000002
 11
208.43124400000005
 21
467.95001200000002
  0
LINE
  8
_0-0_0
  6
CONTINUOUS
 62
    7
 10
209.23123200000003
 20
458.41189600000001
 11
208.43124400000005
 21
457.95001200000002
  0
LINE
  8
_0-0_0
  6
CONTINUOUS
 62
    7
 10
209.23123200000003
 20
467.48812900000001
 11
208.43124400000005
 21
467.95001200000002
  0
LINE
  8
_0-0_0
  6
CONTINUOUS
 62
    7
 10
209.23123200000003
 20
458.95001200000002
 11
267.23123200000003
 21
458.95001200000002
  0
LINE
  8
_0-0_0
  6
CONTINUOUS
 62
    7
 10
209.23123200000003
 20
466.95001200000002
 11
267.23123200000003
 21
466.95001200000002
  0
LINE
  8
_0-0_0
  6
CONTINUOUS
 62
    7
 10
191.78121900000002
 20
473.5
 11
212.03121900000002
 21
473.5
  0
LINE
  8
_0-0_0
  6
CONTINUOUS
 62
    7
 10
212.03121900000002
 20
473.5
 11
212.28121900000002
 21
473.75
  0
LINE
  8
_0-0_0
  6
CONTINUOUS
 62
    7
 10
207.23123200000003
 20
469
 11
212.03121900000002
 21
469
  0
LINE
  8
_0-0_0
  6
CONTINUOUS
 62
    7
 10
212.03121900000002
 20
469
 11
212.28121900000002
 21
468.75
  0
LINE
  8
_0-0_0
  6
CONTINUOUS
 62
    7
 10
222.03121900000002
 20
473.25
 11
221.53140300000001
 21
473.74984699999999
  0
LINE
  8
_0-0_0
  6
CONTINUOUS
 62
    7
 10
222.03121900000002
 20
469.25
 11
221.53140300000001
 21
468.75015300000001
  0
LINE
  8
_0-0_0
  6
CONTINUOUS
 62
    7
 10
950.03112799999997
 20
505.15002399999997
 11
950.03112799999997
 21
492.15002399999997
  0
LINE
  8
_0-0_0
  6
CONTINUOUS
 62
    7
 10
77.031235000000038
 20
505.15002399999997
 11
77.031235000000038
 21
492.15002399999997
  0
LINE
  8
_0-0_0
  6
CONTINUOUS
 62
    7
 10
77.031235000000038
 20
505.15002399999997
 11
950.03112799999997
 21
505.15002399999997
  0
LINE
  8
_0-0_0
  6
CONTINUOUS
 62
    7
 10
77.031235000000038
 20
505.15002399999997
 11
77.031235000000038
 21
523.75
  0
LINE
  8
_0-0_0
  6
CONTINUOUS
 62
    7
 10
77.031235000000038
 20
526.25
 11
77.031235000000038
 21
523.75
  0
LINE
  8
_0-0_0
  6
CONTINUOUS
 62
    7
 10
77.031235000000038
 20
526.75
 11
77.031235000000038
 21
526.25
  0
LINE
  8
_0-0_0
  6
CONTINUOUS
 62
    7
 10
77.031235000000038
 20
478.75
 11
77.031235000000038
 21
478.25
  0
LINE
  8
_0-0_0
  6
CONTINUOUS
 62
    7
 10
77.031235000000038
 20
483.75
 11
77.031235000000038
 21
478.75
  0
LINE
  8
_0-0_0
  6
CONTINUOUS
 62
    7
 10
77.031235000000038
 20
484.25
 11
77.031235000000038
 21
483.75
  0
LINE
  8
_0-0_0
  6
CONTINUOUS
 62
    7
 10
77.031235000000038
 20
484.75
 11
77.031235000000038
 21
484.25
  0
LINE
  8
_0-0_0
  6
CONTINUOUS
 62
    7
 10
77.031235000000038
 20
487.95001200000002
 11
77.031235000000038
 21
484.75
  0
LINE
  8
_0-0_0
  6
CONTINUOUS
 62
    7
 10
77.031235000000038
 20
487.95001200000002
 11
77.031235000000038
 21
492.15002399999997
  0
LINE
  8
_0-0_0
  6
CONTINUOUS
 62
    7
 10
77.031235000000038
 20
492.15002399999997
 11
950.03112799999997
 21
492.15002399999997
  0
LINE
  8
_0-0_0
  6
CONTINUOUS
 62
    7
 10
950.03112799999997
 20
487.95001200000002
 11
950.03112799999997
 21
492.15002399999997
  0
LINE
  8
_0-0_0
  6
CONTINUOUS
 62
    7
 10
950.03112799999997
 20
484.75
 11
950.03112799999997
 21
487.95001200000002
  0
LINE
  8
_0-0_0
  6
CONTINUOUS
 62
    7
 10
950.03112799999997
 20
484.75
 11
950.03112799999997
 21
484.25
  0
LINE
  8
_0-0_0
  6
CONTINUOUS
 62
    7
 10
950.03112799999997
 20
484.25
 11
950.03112799999997
 21
483.75
  0
LINE
  8
_0-0_0
  6
CONTINUOUS
 62
    7
 10
950.03112799999997
 20
483.75
 11
950.03112799999997
 21
478.75
  0
LINE
  8
_0-0_0
  6
CONTINUOUS
 62
    7
 10
950.03112799999997
 20
478.75
 11
950.03112799999997
 21
478.25
  0
LINE
  8
_0-0_0
  6
CONTINUOUS
 62
    7
 10
950.03112799999997
 20
526.75
 11
950.03112799999997
 21
526.25
  0
LINE
  8
_0-0_0
  6
CONTINUOUS
 62
    7
 10
950.03112799999997
 20
523.75
 11
950.03112799999997
 21
526.25
  0
LINE
  8
_0-0_0
  6
CONTINUOUS
 62
    7
 10
950.03112799999997
 20
505.15002399999997
 11
950.03112799999997
 21
523.75
  0
CIRCLE
  8
_0-0_0
  6
CONTINUOUS
 62
    7
 10
913.53112799999997
 20
514.25
 40
6
  0
CIRCLE
  8
_0-0_0
  6
CONTINUOUS
 62
    7
 10
813.53125
 20
514.25
 40
6
  0
CIRCLE
  8
_0-0_0
  6
CONTINUOUS
 62
    7
 10
713.53125
 20
514.25
 40
6
  0
CIRCLE
  8
_0-0_0
  6
CONTINUOUS
 62
    7
 10
613.53125
 20
514.25
 40
6
  0
CIRCLE
  8
_0-0_0
  6
CONTINUOUS
 62
    7
 10
513.53125
 20
514.25
 40
6
  0
CIRCLE
  8
_0-0_0
  6
CONTINUOUS
 62
    7
 10
413.53125
 20
514.25
 40
6
  0
CIRCLE
  8
_0-0_0
  6
CONTINUOUS
 62
    7
 10
313.53125000000006
 20
514.25
 40
6
  0
CIRCLE
  8
_0-0_0
  6
CONTINUOUS
 62
    7
 10
213.53121900000002
 20
514.25
 40
6
  0
CIRCLE
  8
_0-0_0
  6
CONTINUOUS
 62
    7
 10
113.53123500000004
 20
514.25
 40
6
  0
LINE
  8
_0-0_0
  6
CONTINUOUS
 62
    7
 10
77.031235000000038
 20
523.75
 11
950.03112799999997
 21
523.75
  0
LINE
  8
_0-0_0
  6
CONTINUOUS
 62
    7
 10
77.031235000000038
 20
526.75
 11
950.03112799999997
 21
526.75
  0
LINE
  8
_0-0_0
  6
CONTINUOUS
 62
    7
 10
77.031235000000038
 20
526.25
 11
74.531235000000038
 21
526.25
  0
LINE
  8
_0-0_0
  6
CONTINUOUS
 62
    7
 10
74.531235000000038
 20
526.25
 11
74.531235000000038
 21
525.75
  0
LINE
  8
_0-0_0
  6
CONTINUOUS
 62
    7
 10
74.531235000000038
 20
525.75
 11
74.531235000000038
 21
485.25
  0
LINE
  8
_0-0_0
  6
CONTINUOUS
 62
    7
 10
77.031235000000038
 20
484.75
 11
74.531235000000038
 21
484.75
  0
LINE
  8
_0-0_0
  6
CONTINUOUS
 62
    7
 10
74.531235000000038
 20
485.25
 11
74.531235000000038
 21
484.75
  0
LINE
  8
_0-0_0
  6
CONTINUOUS
 62
    7
 10
74.531235000000038
 20
484.75
 11
74.531235000000038
 21
483.75
  0
LINE
  8
_0-0_0
  6
CONTINUOUS
 62
    7
 10
74.531235000000038
 20
483.75
 11
74.531235000000038
 21
479.25
  0
LINE
  8
_0-0_0
  6
CONTINUOUS
 62
    7
 10
77.031235000000038
 20
478.75
 11
74.531235000000038
 21
478.75
  0
LINE
  8
_0-0_0
  6
CONTINUOUS
 62
    7
 10
74.531235000000038
 20
479.25
 11
74.531235000000038
 21
478.75
  0
LINE
  8
_0-0_0
  6
CONTINUOUS
 62
    7
 10
77.031235000000038
 20
478.25
 11
950.03112799999997
 21
478.25
  0
LINE
  8
_0-0_0
  6
CONTINUOUS
 62
    7
 10
77.031235000000038
 20
484.25
 11
950.03112799999997
 21
484.25
  0
LINE
  8
_0-0_0
  6
CONTINUOUS
 62
    7
 10
77.031235000000038
 20
487.95001200000002
 11
950.03112799999997
 21
487.95001200000002
  0
LINE
  8
_0-0_0
  6
CONTINUOUS
 62
    7
 10
950.03112799999997
 20
526.25
 11
952.53112799999997
 21
526.25
  0
LINE
  8
_0-0_0
  6
CONTINUOUS
 62
    7
 10
952.53112799999997
 20
526.25
 11
952.53112799999997
 21
525.75
  0
LINE
  8
_0-0_0
  6
CONTINUOUS
 62
    7
 10
952.53112799999997
 20
525.75
 11
952.53112799999997
 21
485.25
  0
LINE
  8
_0-0_0
  6
CONTINUOUS
 62
    7
 10
950.03112799999997
 20
484.75
 11
952.53112799999997
 21
484.75
  0
LINE
  8
_0-0_0
  6
CONTINUOUS
 62
    7
 10
952.53112799999997
 20
485.25
 11
952.53112799999997
 21
484.75
  0
LINE
  8
_0-0_0
  6
CONTINUOUS
 62
    7
 10
952.53112799999997
 20
484.75
 11
952.53112799999997
 21
483.75
  0
LINE
  8
_0-0_0
  6
CONTINUOUS
 62
    7
 10
952.53112799999997
 20
483.75
 11
952.53112799999997
 21
479.25
  0
LINE
  8
_0-0_0
  6
CONTINUOUS
 62
    7
 10
950.03112799999997
 20
478.75
 11
952.53112799999997
 21
478.75
  0
LINE
  8
_0-0_0
  6
CONTINUOUS
 62
    7
 10
952.53112799999997
 20
479.25
 11
952.53112799999997
 21
478.75
  0
ARC
  8
_0-0_0
  6
CONTINUOUS
 62
    7
 10
134.53123500000004
 20
479.25
 40
0.5
 50
269.99999700000001
 51
0
  0
LINE
  8
_0-0_0
  6
CONTINUOUS
 62
    7
 10
134.53123500000004
 20
478.75
 11
127.53123500000004
 21
478.75
  0
ARC
  8
_0-0_0
  6
CONTINUOUS
 62
    7
 10
127.53123500000004
 20
479.25
 40
0.5
 50
179.99999099999999
 51
269.99999700000001
  0
LINE
  8
_0-0_0
  6
CONTINUOUS
 62
    7
 10
127.03123500000004
 20
483.25
 11
127.03123500000004
 21
479.25
  0
ARC
  8
_0-0_0
  6
CONTINUOUS
 62
    7
 10
127.53123500000004
 20
483.25
 40
0.5
 50
90.000003000000007
 51
179.99999099999999
  0
ARC
  8
_0-0_0
  6
CONTINUOUS
 62
    7
 10
134.53123500000004
 20
483.25
 40
0.5
 50
0
 51
90.000003000000007
  0
LINE
  8
_0-0_0
  6
CONTINUOUS
 62
    7
 10
127.53123500000004
 20
483.75
 11
134.53123500000004
 21
483.75
  0
LINE
  8
_0-0_0
  6
CONTINUOUS
 62
    7
 10
950.03112799999997
 20
526.75
 11
950.03112799999997
 21
526.45001200000002
  0
LINE
  8
_0-0_0
  6
CONTINUOUS
 62
    7
 10
950.03112799999997
 20
526.45001200000002
 11
950.03112799999997
 21
526.25
  0
CIRCLE
  8
_0-0_0
  6
CONTINUOUS
 62
    7
 10
913.53112799999997
 20
514.25
 40
5.5
  0
CIRCLE
  8
_0-0_0
  6
CONTINUOUS
 62
    7
 10
813.53125
 20
514.25
 40
5.5
  0
CIRCLE
  8
_0-0_0
  6
CONTINUOUS
 62
    7
 10
713.53125
 20
514.25
 40
5.5
  0
CIRCLE
  8
_0-0_0
  6
CONTINUOUS
 62
    7
 10
613.53125
 20
514.25
 40
5.5
  0
CIRCLE
  8
_0-0_0
  6
CONTINUOUS
 62
    7
 10
513.53125
 20
514.25
 40
5.5
  0
CIRCLE
  8
_0-0_0
  6
CONTINUOUS
 62
    7
 10
413.53125
 20
514.25
 40
5.5
  0
CIRCLE
  8
_0-0_0
  6
CONTINUOUS
 62
    7
 10
313.53125000000006
 20
514.25
 40
5.5
  0
CIRCLE
  8
_0-0_0
  6
CONTINUOUS
 62
    7
 10
213.53121900000002
 20
514.25
 40
5.5
  0
CIRCLE
  8
_0-0_0
  6
CONTINUOUS
 62
    7
 10
113.53123500000004
 20
514.25
 40
5.5
  0
LINE
  8
_0-0_0
  6
CONTINUOUS
 62
    7
 10
135.03123500000004
 20
479.25
 11
135.03123500000004
 21
483.25
  0
CIRCLE
  8
_0-0_0
  6
CONTINUOUS
 62
    7
 10
913.53112799999997
 20
514.25
 40
3.5
  0
CIRCLE
  8
_0-0_0
  6
CONTINUOUS
 62
    7
 10
813.53125
 20
514.25
 40
3.5
  0
CIRCLE
  8
_0-0_0
  6
CONTINUOUS
 62
    7
 10
713.53125
 20
514.25
 40
3.5
  0
CIRCLE
  8
_0-0_0
  6
CONTINUOUS
 62
    7
 10
613.53125
 20
514.25
 40
3.5
  0
CIRCLE
  8
_0-0_0
  6
CONTINUOUS
 62
    7
 10
513.53125
 20
514.25
 40
3.5
  0
CIRCLE
  8
_0-0_0
  6
CONTINUOUS
 62
    7
 10
413.53125
 20
514.25
 40
3.5
  0
CIRCLE
  8
_0-0_0
  6
CONTINUOUS
 62
    7
 10
313.53125000000006
 20
514.25
 40
3.5
  0
CIRCLE
  8
_0-0_0
  6
CONTINUOUS
 62
    7
 10
213.53121900000002
 20
514.25
 40
3.5
  0
CIRCLE
  8
_0-0_0
  6
CONTINUOUS
 62
    7
 10
113.53123500000004
 20
514.25
 40
3.5
  0
ARC
  8
_0-0_0
  6
CONTINUOUS
 62
    7
 10
132.33123800000004
 20
482.95001200000002
 40
0.2
 50
339.62356199999999
 51
90.000002999999978
  0
LINE
  8
_0-0_0
  6
CONTINUOUS
 62
    7
 10
132.51872200000003
 20
482.88037100000003
 11
131.21871900000002
 21
479.38037100000003
  0
ARC
  8
_0-0_0
  6
CONTINUOUS
 62
    7
 10
131.03123500000004
 20
479.45001200000002
 40
0.2
 50
200.37643
 51
339.62356199999999
  0
LINE
  8
_0-0_0
  6
CONTINUOUS
 62
    7
 10
129.54376200000002
 20
482.88037100000003
 11
130.84375
 21
479.38037100000003
  0
ARC
  8
_0-0_0
  6
CONTINUOUS
 62
    7
 10
129.73123200000003
 20
482.95001200000002
 40
0.2
 50
90.000003000000007
 51
200.37643
  0
LINE
  8
_0-0_0
  6
CONTINUOUS
 62
    7
 10
129.73123200000003
 20
483.15002399999997
 11
132.33123800000004
 21
483.15002399999997
  0
ARC
  8
_0-0_0
  6
CONTINUOUS
 62
    7
 10
869.73120100000006
 20
482.95001200000002
 40
0.2
 50
90.000003000000007
 51
200.37643
  0
LINE
  8
_0-0_0
  6
CONTINUOUS
 62
    7
 10
869.73120100000006
 20
483.15002399999997
 11
872.33117700000003
 21
483.15002399999997
  0
ARC
  8
_0-0_0
  6
CONTINUOUS
 62
    7
 10
867.53125
 20
483.25
 40
0.5
 50
90.000003000000007
 51
179.99999099999999
  0
LINE
  8
_0-0_0
  6
CONTINUOUS
 62
    7
 10
867.03125
 20
483.25
 11
867.03125
 21
479.25
  0
ARC
  8
_0-0_0
  6
CONTINUOUS
 62
    7
 10
867.53125
 20
479.25
 40
0.5
 50
179.99999099999999
 51
269.99999700000001
  0
LINE
  8
_0-0_0
  6
CONTINUOUS
 62
    7
 10
874.53125
 20
478.75
 11
867.53125
 21
478.75
  0
ARC
  8
_0-0_0
  6
CONTINUOUS
 62
    7
 10
874.53125
 20
479.25
 40
0.5
 50
269.99999700000001
 51
0
  0
LINE
  8
_0-0_0
  6
CONTINUOUS
 62
    7
 10
875.03125
 20
479.25
 11
875.03125
 21
483.25
  0
ARC
  8
_0-0_0
  6
CONTINUOUS
 62
    7
 10
874.53125
 20
483.25
 40
0.5
 50
0
 51
90.000003000000007
  0
LINE
  8
_0-0_0
  6
CONTINUOUS
 62
    7
 10
867.53125
 20
483.75
 11
874.53125
 21
483.75
  0
LINE
  8
_0-0_0
  6
CONTINUOUS
 62
    7
 10
869.54370100000006
 20
482.88037100000003
 11
870.84375
 21
479.38037100000003
  0
ARC
  8
_0-0_0
  6
CONTINUOUS
 62
    7
 10
871.03125
 20
479.45001200000002
 40
0.2
 50
200.37643
 51
339.62356199999999
  0
LINE
  8
_0-0_0
  6
CONTINUOUS
 62
    7
 10
872.51867700000003
 20
482.88037100000003
 11
871.21875
 21
479.38037100000003
  0
ARC
  8
_0-0_0
  6
CONTINUOUS
 62
    7
 10
872.33117700000003
 20
482.95001200000002
 40
0.2
 50
339.62356199999999
 51
90.000002999999978
  0
LINE
  8
_0-0_0
  6
CONTINUOUS
 62
    7
 10
19.106583000000001
 20
476.25
 11
19.206573000000049
 21
476.25
  0
LINE
  8
_0-0_0
  6
CONTINUOUS
 62
    7
 10
34.906586000000061
 20
476.25
 11
34.206573000000049
 21
476.25
  0
LINE
  8
_0-0_0
  6
CONTINUOUS
 62
    7
 10
34.906586000000061
 20
476.25
 11
36.106583000000001
 21
476.25
  0
ARC
  8
_0-0_0
  6
CONTINUOUS
 62
    7
 10
36.106583000000001
 20
475.75
 40
0.5
 50
0
 51
90.000003000000007
  0
ARC
  8
_0-0_0
  6
CONTINUOUS
 62
    7
 10
34.906586000000061
 20
475.75
 40
0.5
 50
90.000003000000007
 51
179.99999099999999
  0
ARC
  8
_0-0_0
  6
CONTINUOUS
 62
    7
 10
19.106583000000001
 20
475.75
 40
0.5
 50
90.000003000000007
 51
179.99999099999999
  0
ARC
  8
_0-0_0
  6
CONTINUOUS
 62
    7
 10
20.606583000000001
 20
476.75
 40
0.5
 50
90.000003000000007
 51
126.868797
  0
LINE
  8
_0-0_0
  6
CONTINUOUS
 62
    7
 10
22.106583000000001
 20
477.25
 11
20.606583000000001
 21
477.25
  0
ARC
  8
_0-0_0
  6
CONTINUOUS
 62
    7
 10
22.106583000000001
 20
478.25
 40
1
 50
269.99999700000001
 51
0
  0
LINE
  8
_0-0_0
  6
CONTINUOUS
 62
    7
 10
23.106583000000001
 20
478.75
 11
23.106583000000001
 21
478.25
  0
LINE
  8
_0-0_0
  6
CONTINUOUS
 62
    7
 10
23.606583000000001
 20
478.75
 11
23.606583000000001
 21
477.75
  0
ARC
  8
_0-0_0
  6
CONTINUOUS
 62
    7
 10
22.106583000000001
 20
477.75
 40
1.5
 50
336.42205899999999
 51
0
  0
ARC
  8
_0-0_0
  6
CONTINUOUS
 62
    7
 10
33.706589000000008
 20
477.75
 40
1.5
 50
179.99999099999999
 51
203.57793100000001
  0
LINE
  8
_0-0_0
  6
CONTINUOUS
 62
    7
 10
35.706589000000008
 20
476.75
 11
35.706589000000008
 21
476.25
  0
ARC
  8
_0-0_0
  6
CONTINUOUS
 62
    7
 10
35.206589000000008
 20
476.75
 40
0.5
 50
0
 51
90.000003000000007
  0
LINE
  8
_0-0_0
  6
CONTINUOUS
 62
    7
 10
33.706589000000008
 20
477.25
 11
35.206589000000008
 21
477.25
  0
ARC
  8
_0-0_0
  6
CONTINUOUS
 62
    7
 10
33.706589000000008
 20
478.25
 40
1
 50
179.99999099999999
 51
269.99999700000001
  0
LINE
  8
_0-0_0
  6
CONTINUOUS
 62
    7
 10
32.706589000000008
 20
478.75
 11
32.706589000000008
 21
478.25
  0
LINE
  8
_0-0_0
  6
CONTINUOUS
 62
    7
 10
32.206589000000008
 20
478.75
 11
32.206589000000008
 21
477.75
  0
LINE
  8
_0-0_0
  6
CONTINUOUS
 62
    7
 10
36.606583000000001
 20
449.25
 11
36.606583000000001
 21
450.15002399999997
  0
LINE
  8
_0-0_0
  6
CONTINUOUS
 62
    7
 10
36.606583000000001
 20
450.15002399999997
 11
36.606583000000001
 21
452.65002399999997
  0
LINE
  8
_0-0_0
  6
CONTINUOUS
 62
    7
 10
36.606583000000001
 20
452.65002399999997
 11
36.606583000000001
 21
473.25
  0
LINE
  8
_0-0_0
  6
CONTINUOUS
 62
    7
 10
36.606583000000001
 20
473.25
 11
36.606583000000001
 21
475.75
  0
LINE
  8
_0-0_0
  6
CONTINUOUS
 62
    7
 10
34.406586000000061
 20
475.75
 11
34.406586000000061
 21
474.50500499999998
  0
LINE
  8
_0-0_0
  6
CONTINUOUS
 62
    7
 10
32.006592000000069
 20
477.15002399999997
 11
32.006592000000069
 21
478.55001800000002
  0
ARC
  8
_0-0_0
  6
CONTINUOUS
 62
    7
 10
31.506592000000069
 20
478.55001800000002
 40
0.5
 50
0
 51
23.579369
  0
LINE
  8
_0-0_0
  6
CONTINUOUS
 62
    7
 10
23.806580000000054
 20
477.15002399999997
 11
23.806580000000054
 21
478.55001800000002
  0
ARC
  8
_0-0_0
  6
CONTINUOUS
 62
    7
 10
24.306580000000054
 20
478.55001800000002
 40
0.5
 50
156.420635
 51
179.99999099999999
  0
LINE
  8
_0-0_0
  6
CONTINUOUS
 62
    7
 10
18.606583000000001
 20
449.25
 11
18.606583000000001
 21
459.45001200000002
  0
LINE
  8
_0-0_0
  6
CONTINUOUS
 62
    7
 10
18.606583000000001
 20
459.45001200000002
 11
18.606583000000001
 21
460.45001200000002
  0
LINE
  8
_0-0_0
  6
CONTINUOUS
 62
    7
 10
18.606583000000001
 20
460.45001200000002
 11
18.606583000000001
 21
465.45001200000002
  0
LINE
  8
_0-0_0
  6
CONTINUOUS
 62
    7
 10
18.606583000000001
 20
465.45001200000002
 11
18.606583000000001
 21
466.45001200000002
  0
LINE
  8
_0-0_0
  6
CONTINUOUS
 62
    7
 10
18.606583000000001
 20
475.75
 11
18.606583000000001
 21
466.45001200000002
  0
ARC
  8
_0-0_0
  6
CONTINUOUS
 62
    7
 10
19.706589000000008
 20
465.45001200000002
 40
0.5
 50
0
 51
90.000003000000007
  0
LINE
  8
_0-0_0
  6
CONTINUOUS
 62
    7
 10
19.806580000000054
 20
466.40002399999997
 11
19.706589000000008
 21
466.40002399999997
  0
ARC
  8
_0-0_0
  6
CONTINUOUS
 62
    7
 10
19.806580000000054
 20
465.90002399999997
 40
0.5
 50
0
 51
90.000003000000007
  0
LINE
  8
_0-0_0
  6
CONTINUOUS
 62
    7
 10
20.206589000000008
 20
465.45001200000002
 11
20.206589000000008
 21
460.45001200000002
  0
ARC
  8
_0-0_0
  6
CONTINUOUS
 62
    7
 10
19.706589000000008
 20
460.45001200000002
 40
0.5
 50
269.99999700000001
 51
0
  0
ARC
  8
_0-0_0
  6
CONTINUOUS
 62
    7
 10
19.806580000000054
 20
460.35000600000001
 40
0.5
 50
269.99999700000001
 51
0
  0
LINE
  8
_0-0_0
  6
CONTINUOUS
 62
    7
 10
19.706589000000008
 20
459.85000600000001
 11
19.806580000000054
 21
459.85000600000001
  0
LINE
  8
_0-0_0
  6
CONTINUOUS
 62
    7
 10
37.406586000000061
 20
474.75
 11
36.606583000000001
 21
474.75
  0
LINE
  8
_0-0_0
  6
CONTINUOUS
 62
    7
 10
37.406586000000061
 20
475.55001800000002
 11
36.606583000000001
 21
475.55001800000002
  0
LINE
  8
_0-0_0
  6
CONTINUOUS
 62
    7
 10
37.406586000000061
 20
474.55001800000002
 11
37.406586000000061
 21
475.55001800000002
  0
LINE
  8
_0-0_0
  6
CONTINUOUS
 62
    7
 10
37.406586000000061
 20
455.95001200000002
 11
36.606583000000001
 21
455.95001200000002
  0
LINE
  8
_0-0_0
  6
CONTINUOUS
 62
    7
 10
37.406586000000061
 20
455.95001200000002
 11
37.406586000000061
 21
458.95001200000002
  0
LINE
  8
_0-0_0
  6
CONTINUOUS
 62
    7
 10
37.406586000000061
 20
471.18771400000003
 11
37.406586000000061
 21
458.95001200000002
  0
LINE
  8
_0-0_0
  6
CONTINUOUS
 62
    7
 10
37.406586000000061
 20
471.18771400000003
 11
37.406586000000061
 21
472.15048200000001
  0
LINE
  8
_0-0_0
  6
CONTINUOUS
 62
    7
 10
36.606583000000001
 20
472.15048200000001
 11
36.606583000000001
 21
474.75
  0
ARC
  8
_0-0_0
  6
CONTINUOUS
 62
    7
 10
30.991669000000002
 20
471.43206800000002
 40
5.7120379999999997
 50
18.558475999999999
 51
26.433648000000002
  0
ARC
  8
_0-0_0
  6
CONTINUOUS
 62
    7
 10
36.406586000000061
 20
473.25
 40
0.2
 50
269.99999700000001
 51
0
  0
ARC
  8
_0-0_0
  6
CONTINUOUS
 62
    7
 10
36.406586000000061
 20
452.65002399999997
 40
0.2
 50
0
 51
90.000003000000007
  0
ARC
  8
_0-0_0
  6
CONTINUOUS
 62
    7
 10
30.991775000000075
 20
454.46804800000001
 40
5.711964
 50
333.565022
 51
341.44031000000001
  0
ARC
  8
_0-0_0
  6
CONTINUOUS
 62
    7
 10
36.106583000000001
 20
450.15002399999997
 40
0.5
 50
269.99999700000001
 51
0
  0
LINE
  8
_0-0_0
  6
CONTINUOUS
 62
    7
 10
36.106583000000001
 20
449.25
 11
36.606583000000001
 21
449.25
  0
LINE
  8
_0-0_0
  6
CONTINUOUS
 62
    7
 10
36.606583000000001
 20
449.25
 11
36.106583000000001
 21
448.75
  0
ARC
  8
_0-0_0
  6
CONTINUOUS
 62
    7
 10
34.406586000000061
 20
471.75
 40
2.2999999999999998
 50
34.417387999999995
 51
79.713437000000013
  0
LINE
  8
_0-0_0
  6
CONTINUOUS
 62
    7
 10
36.345276000000013
 20
473.05001800000002
 11
36.30395500000003
 21
473.05001800000002
  0
LINE
  8
_0-0_0
  6
CONTINUOUS
 62
    7
 10
36.345276000000013
 20
473.05001800000002
 11
36.354827999999998
 21
473.05102499999998
  0
LINE
  8
_0-0_0
  6
CONTINUOUS
 62
    7
 10
36.354827999999998
 20
473.05102499999998
 11
36.364319000000023
 21
473.05423000000002
  0
LINE
  8
_0-0_0
  6
CONTINUOUS
 62
    7
 10
36.364319000000023
 20
473.05423000000002
 11
36.373566000000039
 21
473.05963100000002
  0
LINE
  8
_0-0_0
  6
CONTINUOUS
 62
    7
 10
36.373566000000039
 20
473.05963100000002
 11
36.382370000000037
 21
473.067139
  0
LINE
  8
_0-0_0
  6
CONTINUOUS
 62
    7
 10
36.382370000000037
 20
473.067139
 11
36.397766000000047
 21
473.08776899999998
  0
LINE
  8
_0-0_0
  6
CONTINUOUS
 62
    7
 10
36.397766000000047
 20
473.08776899999998
 11
36.409546000000034
 21
473.11505099999999
  0
LINE
  8
_0-0_0
  6
CONTINUOUS
 62
    7
 10
36.409546000000034
 20
473.11505099999999
 11
36.416733000000022
 21
473.14718599999998
  0
LINE
  8
_0-0_0
  6
CONTINUOUS
 62
    7
 10
36.416733000000022
 20
473.14718599999998
 11
36.41862500000002
 21
473.18225100000001
  0
LINE
  8
_0-0_0
  6
CONTINUOUS
 62
    7
 10
36.41862500000002
 20
473.18225100000001
 11
36.414763999999991
 21
473.218414
  0
LINE
  8
_0-0_0
  6
CONTINUOUS
 62
    7
 10
36.414763999999991
 20
473.218414
 11
36.406586000000061
 21
473.25
  0
ARC
  8
_0-0_0
  6
CONTINUOUS
 62
    7
 10
34.906586000000061
 20
474.50500499999998
 40
0.5
 50
179.99999099999999
 51
259.71343899999994
  0
LINE
  8
_0-0_0
  6
CONTINUOUS
 62
    7
 10
34.206589000000008
 20
474.60000600000001
 11
34.206589000000008
 21
474.30658
  0
LINE
  8
_0-0_0
  6
CONTINUOUS
 62
    7
 10
34.206589000000008
 20
474.60000600000001
 11
34.206589000000008
 21
476.65002399999997
  0
ARC
  8
_0-0_0
  6
CONTINUOUS
 62
    7
 10
33.706589000000008
 20
476.65002399999997
 40
0.5
 50
0
 51
90.000003000000007
  0
LINE
  8
_0-0_0
  6
CONTINUOUS
 62
    7
 10
33.706589000000008
 20
477.15002399999997
 11
30.963684000000057
 21
477.15002399999997
  0
ARC
  8
_0-0_0
  6
CONTINUOUS
 62
    7
 10
19.706589000000008
 20
466.90002399999997
 40
0.5
 50
179.99999099999999
 51
269.99999700000001
  0
LINE
  8
_0-0_0
  6
CONTINUOUS
 62
    7
 10
19.206589000000008
 20
476.65002399999997
 11
19.206589000000008
 21
466.90002399999997
  0
LINE
  8
_0-0_0
  6
CONTINUOUS
 62
    7
 10
24.849471999999992
 20
477.15002399999997
 11
19.706589000000008
 21
477.15002399999997
  0
ARC
  8
_0-0_0
  6
CONTINUOUS
 62
    7
 10
19.706589000000008
 20
476.65002399999997
 40
0.5
 50
90.000003000000007
 51
179.99999099999999
  0
LINE
  8
_0-0_0
  6
CONTINUOUS
 62
    7
 10
18.406586000000061
 20
474.75
 11
18.606583000000001
 21
474.75
  0
LINE
  8
_0-0_0
  6
CONTINUOUS
 62
    7
 10
18.406586000000061
 20
475.55001800000002
 11
18.606583000000001
 21
475.55001800000002
  0
LINE
  8
_0-0_0
  6
CONTINUOUS
 62
    7
 10
18.406586000000061
 20
475.55001800000002
 11
18.406586000000061
 21
474.75012199999998
  0
LINE
  8
_0-0_0
  6
CONTINUOUS
 62
    7
 10
18.406586000000061
 20
455.95001200000002
 11
18.606583000000001
 21
455.95001200000002
  0
LINE
  8
_0-0_0
  6
CONTINUOUS
 62
    7
 10
18.406586000000061
 20
458.95001200000002
 11
18.406586000000061
 21
455.95001200000002
  0
LINE
  8
_0-0_0
  6
CONTINUOUS
 62
    7
 10
18.406586000000061
 20
471.18771400000003
 11
18.406586000000061
 21
458.95001200000002
  0
LINE
  8
_0-0_0
  6
CONTINUOUS
 62
    7
 10
18.406586000000061
 20
472.15048200000001
 11
18.406586000000061
 21
471.18771400000003
  0
ARC
  8
_0-0_0
  6
CONTINUOUS
 62
    7
 10
19.106583000000001
 20
465.45001200000002
 40
0.5
 50
90.000003000000007
 51
179.99999099999999
  0
ARC
  8
_0-0_0
  6
CONTINUOUS
 62
    7
 10
19.106583000000001
 20
460.45001200000002
 40
0.5
 50
179.99999099999999
 51
269.99999700000001
  0
LINE
  8
_0-0_0
  6
CONTINUOUS
 62
    7
 10
18.606583000000001
 20
449.25
 11
19.106583000000001
 21
449.25
  0
LINE
  8
_0-0_0
  6
CONTINUOUS
 62
    7
 10
18.606583000000001
 20
449.25
 11
19.106583000000001
 21
448.75
  0
LINE
  8
_0-0_0
  6
CONTINUOUS
 62
    7
 10
19.706589000000008
 20
465.95001200000002
 11
19.106583000000001
 21
465.95001200000002
  0
LINE
  8
_0-0_0
  6
CONTINUOUS
 62
    7
 10
20.306580000000054
 20
465.90002399999997
 11
20.306580000000054
 21
460.35000600000001
  0
LINE
  8
_0-0_0
  6
CONTINUOUS
 62
    7
 10
36.106583000000001
 20
449.25
 11
19.106583000000001
 21
449.25
  0
LINE
  8
_0-0_0
  6
CONTINUOUS
 62
    7
 10
19.106583000000001
 20
459.95001200000002
 11
19.706589000000008
 21
459.95001200000002
  0
ARC
  8
_0-0_0
  6
CONTINUOUS
 62
    7
 10
19.706589000000008
 20
459.35000600000001
 40
0.5
 50
90.000003000000007
 51
179.99999099999999
  0
LINE
  8
_0-0_0
  6
CONTINUOUS
 62
    7
 10
37.406586000000061
 20
472.15048200000001
 11
37.406586000000061
 21
474.75
  0
LINE
  8
_0-0_0
  6
CONTINUOUS
 62
    7
 10
36.406586000000061
 20
473.05001800000002
 11
36.345276000000013
 21
473.05001800000002
  0
LINE
  8
_0-0_0
  6
CONTINUOUS
 62
    7
 10
36.30395500000003
 20
473.05001800000002
 11
36.301727000000028
 21
473.05001800000002
  0
LINE
  8
_0-0_0
  6
CONTINUOUS
 62
    7
 10
36.170059000000037
 20
453.05001800000002
 11
36.206970000000069
 21
452.97976699999998
  0
LINE
  8
_0-0_0
  6
CONTINUOUS
 62
    7
 10
36.206970000000069
 20
452.97976699999998
 11
36.226578000000018
 21
452.945313
  0
LINE
  8
_0-0_0
  6
CONTINUOUS
 62
    7
 10
36.226578000000018
 20
452.945313
 11
36.252670000000023
 21
452.90344199999998
  0
LINE
  8
_0-0_0
  6
CONTINUOUS
 62
    7
 10
36.252670000000023
 20
452.90344199999998
 11
36.265976000000023
 21
452.88439899999997
  0
LINE
  8
_0-0_0
  6
CONTINUOUS
 62
    7
 10
36.265976000000023
 20
452.88439899999997
 11
36.284332000000063
 21
452.86203
  0
LINE
  8
_0-0_0
  6
CONTINUOUS
 62
    7
 10
36.284332000000063
 20
452.86203
 11
36.297119000000066
 21
452.85140999999999
  0
LINE
  8
_0-0_0
  6
CONTINUOUS
 62
    7
 10
36.297119000000066
 20
452.85140999999999
 11
36.301727000000028
 21
452.85000600000001
  0
LINE
  8
_0-0_0
  6
CONTINUOUS
 62
    7
 10
36.30395500000003
 20
452.85000600000001
 11
36.301727000000028
 21
452.85000600000001
  0
LINE
  8
_0-0_0
  6
CONTINUOUS
 62
    7
 10
36.170059000000037
 20
472.85000600000001
 11
36.206970000000069
 21
472.92022700000001
  0
LINE
  8
_0-0_0
  6
CONTINUOUS
 62
    7
 10
36.206970000000069
 20
472.92022700000001
 11
36.226578000000018
 21
472.95471199999997
  0
LINE
  8
_0-0_0
  6
CONTINUOUS
 62
    7
 10
36.226578000000018
 20
472.95471199999997
 11
36.252670000000023
 21
472.99655200000001
  0
LINE
  8
_0-0_0
  6
CONTINUOUS
 62
    7
 10
36.252670000000023
 20
472.99655200000001
 11
36.265976000000023
 21
473.01559400000002
  0
LINE
  8
_0-0_0
  6
CONTINUOUS
 62
    7
 10
36.265976000000023
 20
473.01559400000002
 11
36.284332000000063
 21
473.03799400000003
  0
LINE
  8
_0-0_0
  6
CONTINUOUS
 62
    7
 10
36.284332000000063
 20
473.03799400000003
 11
36.297119000000066
 21
473.04861499999998
  0
LINE
  8
_0-0_0
  6
CONTINUOUS
 62
    7
 10
36.297119000000066
 20
473.04861499999998
 11
36.301727000000028
 21
473.05001800000002
  0
LINE
  8
_0-0_0
  6
CONTINUOUS
 62
    7
 10
36.30395500000003
 20
452.85000600000001
 11
36.345276000000013
 21
452.85000600000001
  0
LINE
  8
_0-0_0
  6
CONTINUOUS
 62
    7
 10
36.406586000000061
 20
452.85000600000001
 11
36.345276000000013
 21
452.85000600000001
  0
LINE
  8
_0-0_0
  6
CONTINUOUS
 62
    7
 10
36.345276000000013
 20
452.85000600000001
 11
36.354827999999998
 21
452.84896900000001
  0
LINE
  8
_0-0_0
  6
CONTINUOUS
 62
    7
 10
36.354827999999998
 20
452.84896900000001
 11
36.364319000000023
 21
452.84576399999997
  0
LINE
  8
_0-0_0
  6
CONTINUOUS
 62
    7
 10
36.364319000000023
 20
452.84576399999997
 11
36.373566000000039
 21
452.84039300000001
  0
LINE
  8
_0-0_0
  6
CONTINUOUS
 62
    7
 10
36.373566000000039
 20
452.84039300000001
 11
36.382370000000037
 21
452.83288599999997
  0
LINE
  8
_0-0_0
  6
CONTINUOUS
 62
    7
 10
36.382370000000037
 20
452.83288599999997
 11
36.397766000000047
 21
452.81225599999999
  0
LINE
  8
_0-0_0
  6
CONTINUOUS
 62
    7
 10
36.397766000000047
 20
452.81225599999999
 11
36.409546000000034
 21
452.78497299999998
  0
LINE
  8
_0-0_0
  6
CONTINUOUS
 62
    7
 10
36.409546000000034
 20
452.78497299999998
 11
36.416733000000022
 21
452.752838
  0
LINE
  8
_0-0_0
  6
CONTINUOUS
 62
    7
 10
36.416733000000022
 20
452.752838
 11
36.41862500000002
 21
452.71777300000002
  0
LINE
  8
_0-0_0
  6
CONTINUOUS
 62
    7
 10
36.41862500000002
 20
452.71777300000002
 11
36.414763999999991
 21
452.68160999999998
  0
LINE
  8
_0-0_0
  6
CONTINUOUS
 62
    7
 10
36.414763999999991
 20
452.68160999999998
 11
36.406586000000061
 21
452.65002399999997
  0
ARC
  8
_0-0_0
  6
CONTINUOUS
 62
    7
 10
34.406586000000061
 20
454.15002399999997
 40
2.2999999999999998
 50
280.28656300000006
 51
325.58260500000006
  0
LINE
  8
_0-0_0
  6
CONTINUOUS
 62
    7
 10
36.106583000000001
 20
449.65002399999997
 11
34.906586000000061
 21
449.65002399999997
  0
LINE
  8
_0-0_0
  6
CONTINUOUS
 62
    7
 10
36.106583000000001
 20
448.75
 11
19.106583000000001
 21
448.75
  0
LINE
  8
_0-0_0
  6
CONTINUOUS
 62
    7
 10
34.206589000000008
 20
474.30658
 11
34.206848000000036
 21
474.29016100000001
  0
ARC
  8
_0-0_0
  6
CONTINUOUS
 62
    7
 10
34.706589000000008
 20
474.30658
 40
0.5
 50
181.88290099999998
 51
260.07179799999994
  0
LINE
  8
_0-0_0
  6
CONTINUOUS
 62
    7
 10
33.706589000000008
 20
475.09429899999998
 11
33.906586000000061
 21
474.89999399999999
  0
LINE
  8
_0-0_0
  6
CONTINUOUS
 62
    7
 10
33.906586000000061
 20
474.89999399999999
 11
34.206589000000008
 21
474.60000600000001
  0
LINE
  8
_0-0_0
  6
CONTINUOUS
 62
    7
 10
34.206589000000008
 20
474.60000600000001
 11
33.906586000000061
 21
474.60000600000001
  0
ARC
  8
_0-0_0
  6
CONTINUOUS
 62
    7
 10
30.963684000000057
 20
477.65002399999997
 40
0.5
 50
225
 51
269.99999700000001
  0
ARC
  8
_0-0_0
  6
CONTINUOUS
 62
    7
 10
24.849471999999992
 20
477.65002399999997
 40
0.5
 50
269.99999700000001
 51
314.99999200000002
  0
LINE
  8
_0-0_0
  6
CONTINUOUS
 62
    7
 10
18.406586000000061
 20
474.75
 11
18.406586000000061
 21
472.15048200000001
  0
LINE
  8
_0-0_0
  6
CONTINUOUS
 62
    7
 10
36.606583000000001
 20
475.550049
 11
36.606583000000001
 21
475.75
  0
CIRCLE
  8
_0-0_0
  6
CONTINUOUS
 62
    7
 10
27.906586000000061
 20
474.75
 40
2.25
  0
ARC
  8
_0-0_0
  6
CONTINUOUS
 62
    7
 10
27.906586000000061
 20
454.65002399999997
 40
1.75
 50
179.99999099999999
 51
359.99998299999993
  0
LINE
  8
_0-0_0
  6
CONTINUOUS
 62
    7
 10
26.156586000000061
 20
454.90002399999997
 11
26.156586000000061
 21
454.65002399999997
  0
ARC
  8
_0-0_0
  6
CONTINUOUS
 62
    7
 10
27.906586000000061
 20
454.90002399999997
 40
1.75
 50
0
 51
179.99999099999999
  0
LINE
  8
_0-0_0
  6
CONTINUOUS
 62
    7
 10
29.656586000000061
 20
454.65002399999997
 11
29.656586000000061
 21
454.90002399999997
  0
ARC
  8
_0-0_0
  6
CONTINUOUS
 62
    7
 10
33.606583000000001
 20
454.95001200000002
 40
3
 50
269.99999700000001
 51
0
  0
LINE
  8
_0-0_0
  6
CONTINUOUS
 62
    7
 10
19.206589000000008
 20
459.35000600000001
 11
19.206589000000008
 21
458.5
  0
LINE
  8
_0-0_0
  6
CONTINUOUS
 62
    7
 10
19.206589000000008
 20
452.45001200000002
 11
19.206589000000008
 21
458.5
  0
ARC
  8
_0-0_0
  6
CONTINUOUS
 62
    7
 10
34.206589000000008
 20
471.45001200000002
 40
2.3999999999999999
 50
0
 51
80.071809999999985
  0
LINE
  8
_0-0_0
  6
CONTINUOUS
 62
    7
 10
36.606583000000001
 20
454.95001200000002
 11
36.606583000000001
 21
467.75
  0
LINE
  8
_0-0_0
  6
CONTINUOUS
 62
    7
 10
36.606583000000001
 20
467.75
 11
36.606583000000001
 21
471.45001200000002
  0
ARC
  8
_0-0_0
  6
CONTINUOUS
 62
    7
 10
34.906586000000061
 20
451.39501999999999
 40
0.5
 50
100.28656100000001
 51
179.99999099999999
  0
LINE
  8
_0-0_0
  6
CONTINUOUS
 62
    7
 10
34.406586000000061
 20
450.15002399999997
 11
34.406586000000061
 21
451.39501999999999
  0
ARC
  8
_0-0_0
  6
CONTINUOUS
 62
    7
 10
34.906586000000061
 20
450.15002399999997
 40
0.5
 50
179.99999099999999
 51
269.99999700000001
  0
LINE
  8
_0-0_0
  6
CONTINUOUS
 62
    7
 10
25.203033000000005
 20
477.296448
 11
25.260131999999999
 21
477.35357699999997
  0
ARC
  8
_0-0_0
  6
CONTINUOUS
 62
    7
 10
25.613693000000012
 20
477
 40
0.5
 50
90.000003000000007
 51
135
  0
LINE
  8
_0-0_0
  6
CONTINUOUS
 62
    7
 10
30.199477999999999
 20
477.5
 11
25.613693000000012
 21
477.5
  0
ARC
  8
_0-0_0
  6
CONTINUOUS
 62
    7
 10
30.199477999999999
 20
477
 40
0.5
 50
45.00000099999999
 51
90.000002999999992
  0
LINE
  8
_0-0_0
  6
CONTINUOUS
 62
    7
 10
30.610138000000006
 20
477.296448
 11
30.553039000000012
 21
477.35357699999997
  0
ARC
  8
_0-0_0
  6
CONTINUOUS
 62
    7
 10
33.906586000000061
 20
471.60000600000001
 40
3
 50
90.000003000000007
 51
179.99999099999999
  0
LINE
  8
_0-0_0
  6
CONTINUOUS
 62
    7
 10
21.906586000000061
 20
458
 11
19.706589000000008
 21
458
  0
ARC
  8
_0-0_0
  6
CONTINUOUS
 62
    7
 10
21.906586000000061
 20
455
 40
3
 50
0
 51
90.000003000000007
  0
LINE
  8
_0-0_0
  6
CONTINUOUS
 62
    7
 10
24.906586000000061
 20
455
 11
24.906586000000061
 21
452.45001200000002
  0
LINE
  8
_0-0_0
  6
CONTINUOUS
 62
    7
 10
25.406586000000061
 20
451.95001200000002
 11
33.606583000000001
 21
451.95001200000002
  0
LINE
  8
_0-0_0
  6
CONTINUOUS
 62
    7
 10
33.906586000000061
 20
468.25
 11
36.106583000000001
 21
468.25
  0
ARC
  8
_0-0_0
  6
CONTINUOUS
 62
    7
 10
33.906586000000061
 20
471.25
 40
3
 50
179.99999099999999
 51
269.99999700000001
  0
LINE
  8
_0-0_0
  6
CONTINUOUS
 62
    7
 10
30.906586000000061
 20
471.25
 11
30.906586000000061
 21
471.60000600000001
  0
CIRCLE
  8
_0-0_0
  6
CONTINUOUS
 62
    7
 10
27.906586000000061
 20
474.75
 40
2.0499999999999998
  0
ARC
  8
_0-0_0
  6
CONTINUOUS
 62
    7
 10
27.906586000000061
 20
454.65002399999997
 40
1.55
 50
179.99999099999999
 51
0
  0
LINE
  8
_0-0_0
  6
CONTINUOUS
 62
    7
 10
26.356583000000001
 20
454.90002399999997
 11
26.356583000000001
 21
454.65002399999997
  0
ARC
  8
_0-0_0
  6
CONTINUOUS
 62
    7
 10
27.906586000000061
 20
454.90002399999997
 40
1.55
 50
0
 51
179.99999099999999
  0
LINE
  8
_0-0_0
  6
CONTINUOUS
 62
    7
 10
29.456589000000008
 20
454.65002399999997
 11
29.456589000000008
 21
454.90002399999997
  0
LINE
  8
_0-0_0
  6
CONTINUOUS
 62
    7
 10
19.706589000000008
 20
451.95001200000002
 11
25.406586000000061
 21
451.95001200000002
  0
ARC
  8
_0-0_0
  6
CONTINUOUS
 62
    7
 10
19.706589000000008
 20
452.45001200000002
 40
0.5
 50
179.99999099999999
 51
269.99999700000001
  0
ARC
  8
_0-0_0
  6
CONTINUOUS
 62
    7
 10
19.706589000000008
 20
458.5
 40
0.5
 50
179.99999099999999
 51
269.99999700000001
  0
ARC
  8
_0-0_0
  6
CONTINUOUS
 62
    7
 10
36.106583000000001
 20
467.75
 40
0.5
 50
0
 51
90.000003000000007
  0
ARC
  8
_0-0_0
  6
CONTINUOUS
 62
    7
 10
25.406586000000061
 20
452.45001200000002
 40
0.5
 50
179.99999099999999
 51
269.99999700000001
  0
CIRCLE
  8
_0-0_0
  6
CONTINUOUS
 62
    7
 10
33.906586000000061
 20
471.25
 40
2.25
  0
CIRCLE
  8
_0-0_0
  6
CONTINUOUS
 62
    7
 10
21.906586000000061
 20
454.65002399999997
 40
2.25
  0
CIRCLE
  8
_0-0_0
  6
CONTINUOUS
 62
    7
 10
33.906586000000061
 20
471.25
 40
2
  0
CIRCLE
  8
_0-0_0
  6
CONTINUOUS
 62
    7
 10
21.906586000000061
 20
454.65002399999997
 40
2
  0
LINE
  8
_0-0_0
  6
CONTINUOUS
 62
    7
 10
32.756592000000069
 20
471.25
 11
33.324477999999999
 21
472.25
  0
LINE
  8
_0-0_0
  6
CONTINUOUS
 62
    7
 10
33.324477999999999
 20
470.25
 11
32.756592000000069
 21
471.25
  0
LINE
  8
_0-0_0
  6
CONTINUOUS
 62
    7
 10
34.488693000000012
 20
470.25
 11
33.324477999999999
 21
470.25
  0
LINE
  8
_0-0_0
  6
CONTINUOUS
 62
    7
 10
35.056580000000054
 20
471.25
 11
34.488693000000012
 21
470.25
  0
LINE
  8
_0-0_0
  6
CONTINUOUS
 62
    7
 10
34.488693000000012
 20
472.25
 11
35.056580000000054
 21
471.25
  0
LINE
  8
_0-0_0
  6
CONTINUOUS
 62
    7
 10
33.324477999999999
 20
472.25
 11
34.488693000000012
 21
472.25
  0
LINE
  8
_0-0_0
  6
CONTINUOUS
 62
    7
 10
20.756592000000069
 20
454.65002399999997
 11
21.324477999999999
 21
455.65002399999997
  0
LINE
  8
_0-0_0
  6
CONTINUOUS
 62
    7
 10
21.324477999999999
 20
453.65002399999997
 11
20.756592000000069
 21
454.65002399999997
  0
LINE
  8
_0-0_0
  6
CONTINUOUS
 62
    7
 10
22.488693000000012
 20
453.65002399999997
 11
21.324477999999999
 21
453.65002399999997
  0
LINE
  8
_0-0_0
  6
CONTINUOUS
 62
    7
 10
23.056580000000054
 20
454.65002399999997
 11
22.488693000000012
 21
453.65002399999997
  0
LINE
  8
_0-0_0
  6
CONTINUOUS
 62
    7
 10
22.488693000000012
 20
455.65002399999997
 11
23.056580000000054
 21
454.65002399999997
  0
LINE
  8
_0-0_0
  6
CONTINUOUS
 62
    7
 10
21.324477999999999
 20
455.65002399999997
 11
22.488693000000012
 21
455.65002399999997
  0
LINE
  8
_0-0_0
  6
CONTINUOUS
 62
    7
 10
36.606583000000001
 20
472.05032299999999
 11
36.606583000000001
 21
472.05630500000001
  0
LINE
  8
_0-0_0
  6
CONTINUOUS
 62
    7
 10
36.606583000000001
 20
473.25
 11
36.606216000000018
 21
473.23791499999999
  0
LINE
  8
_0-0_0
  6
CONTINUOUS
 62
    7
 10
36.606216000000018
 20
452.66210899999999
 11
36.606583000000001
 21
452.65002399999997
  0
LINE
  8
_0-0_0
  6
CONTINUOUS
 62
    7
 10
36.605864999999994
 20
467.77673299999998
 11
36.606583000000001
 21
467.75
  0
LINE
  8
_0-0_0
  6
CONTINUOUS
 62
    7
 10
42.106583000000001
 20
505.15002399999997
 11
42.106583000000001
 21
492.15002399999997
  0
LINE
  8
_0-0_0
  6
CONTINUOUS
 62
    7
 10
42.306580000000054
 20
505.15002399999997
 11
42.106583000000001
 21
505.15002399999997
  0
LINE
  8
_0-0_0
  6
CONTINUOUS
 62
    7
 10
42.306580000000054
 20
492.15002399999997
 11
42.106583000000001
 21
492.15002399999997
  0
LINE
  8
_0-0_0
  6
CONTINUOUS
 62
    7
 10
42.306580000000054
 20
505.15002399999997
 11
42.306580000000054
 21
523.75
  0
LINE
  8
_0-0_0
  6
CONTINUOUS
 62
    7
 10
42.406586000000061
 20
523.75
 11
42.306580000000054
 21
523.75
  0
LINE
  8
_0-0_0
  6
CONTINUOUS
 62
    7
 10
42.406586000000061
 20
526.25
 11
42.406586000000061
 21
523.75
  0
ARC
  8
_0-0_0
  6
CONTINUOUS
 62
    7
 10
41.906586000000061
 20
526.25
 40
0.5
 50
0
 51
90.000003000000007
  0
LINE
  8
_0-0_0
  6
CONTINUOUS
 62
    7
 10
41.906586000000061
 20
526.75
 11
38.906586000000061
 21
526.75
  0
ARC
  8
_0-0_0
  6
CONTINUOUS
 62
    7
 10
38.906586000000061
 20
526.25
 40
0.5
 50
90.000003000000007
 51
179.99999099999999
  0
ARC
  8
_0-0_0
  6
CONTINUOUS
 62
    7
 10
34.406586000000061
 20
478.75
 40
0.5
 50
179.99999099999999
 51
269.99999700000001
  0
LINE
  8
_0-0_0
  6
CONTINUOUS
 62
    7
 10
36.906586000000061
 20
478.25
 11
34.406586000000061
 21
478.25
  0
ARC
  8
_0-0_0
  6
CONTINUOUS
 62
    7
 10
36.906586000000061
 20
478.75
 40
0.5
 50
269.99999700000001
 51
0
  0
LINE
  8
_0-0_0
  6
CONTINUOUS
 62
    7
 10
37.406586000000061
 20
483.75
 11
37.406586000000061
 21
478.75
  0
ARC
  8
_0-0_0
  6
CONTINUOUS
 62
    7
 10
37.906586000000061
 20
483.75
 40
0.5
 50
90.000003000000007
 51
179.99999099999999
  0
LINE
  8
_0-0_0
  6
CONTINUOUS
 62
    7
 10
41.906586000000061
 20
484.25
 11
37.906586000000061
 21
484.25
  0
ARC
  8
_0-0_0
  6
CONTINUOUS
 62
    7
 10
41.906586000000061
 20
484.75
 40
0.5
 50
269.99999700000001
 51
0
  0
LINE
  8
_0-0_0
  6
CONTINUOUS
 62
    7
 10
42.406586000000061
 20
487.95001200000002
 11
42.406586000000061
 21
484.75
  0
LINE
  8
_0-0_0
  6
CONTINUOUS
 62
    7
 10
42.306580000000054
 20
487.95001200000002
 11
42.406586000000061
 21
487.95001200000002
  0
LINE
  8
_0-0_0
  6
CONTINUOUS
 62
    7
 10
42.306580000000054
 20
487.95001200000002
 11
42.306580000000054
 21
492.15002399999997
  0
LINE
  8
_0-0_0
  6
CONTINUOUS
 62
    7
 10
41.406586000000061
 20
526.25
 11
23.606583000000001
 21
526.25
  0
ARC
  8
_0-0_0
  6
CONTINUOUS
 62
    7
 10
41.406586000000061
 20
525.75
 40
0.5
 50
0
 51
90.000003000000007
  0
LINE
  8
_0-0_0
  6
CONTINUOUS
 62
    7
 10
41.906586000000061
 20
525.75
 11
41.906586000000061
 21
485.25
  0
ARC
  8
_0-0_0
  6
CONTINUOUS
 62
    7
 10
41.406586000000061
 20
485.25
 40
0.5
 50
269.99999700000001
 51
0
  0
LINE
  8
_0-0_0
  6
CONTINUOUS
 62
    7
 10
37.906586000000061
 20
484.75
 11
41.406586000000061
 21
484.75
  0
ARC
  8
_0-0_0
  6
CONTINUOUS
 62
    7
 10
37.906586000000061
 20
483.75
 40
1
 50
90.000003000000007
 51
179.99999099999999
  0
LINE
  8
_0-0_0
  6
CONTINUOUS
 62
    7
 10
36.906586000000061
 20
483.75
 11
36.906586000000061
 21
479.25
  0
ARC
  8
_0-0_0
  6
CONTINUOUS
 62
    7
 10
36.406586000000061
 20
479.25
 40
0.5
 50
269.99999700000001
 51
0
  0
LINE
  8
_0-0_0
  6
CONTINUOUS
 62
    7
 10
19.406586000000061
 20
478.75
 11
36.406586000000061
 21
478.75
  0
LINE
  8
_0-0_0
  6
CONTINUOUS
 62
    7
 10
37.906586000000061
 20
526.45001200000002
 11
37.906586000000061
 21
526.25
  0
ARC
  8
_0-0_0
  6
CONTINUOUS
 62
    7
 10
37.606583000000001
 20
526.45001200000002
 40
0.2999999999999999
 50
0
 51
90.000003000000007
  0
LINE
  8
_0-0_0
  6
CONTINUOUS
 62
    7
 10
37.606583000000001
 20
526.75
 11
22.906586000000061
 21
526.75
  0
ARC
  8
_0-0_0
  6
CONTINUOUS
 62
    7
 10
22.906586000000061
 20
526.45001200000002
 40
0.2999999999999999
 50
90.000003000000007
 51
179.99999099999999
  0
LINE
  8
_0-0_0
  6
CONTINUOUS
 62
    7
 10
22.606583000000001
 20
526.45001200000002
 11
22.606583000000001
 21
523.25
  0
LINE
  8
_0-0_0
  6
CONTINUOUS
 62
    7
 10
22.606583000000001
 20
523.25
 11
16.906586000000061
 21
523.25
  0
LINE
  8
_0-0_0
  6
CONTINUOUS
 62
    7
 10
16.906586000000061
 20
523.25
 11
16.106583000000001
 21
522.45001200000002
  0
ARC
  8
_0-0_0
  6
CONTINUOUS
 62
    7
 10
23.606583000000001
 20
525.75
 40
0.5
 50
90.000003000000007
 51
179.99999099999999
  0
LINE
  8
_0-0_0
  6
CONTINUOUS
 62
    7
 10
23.106583000000001
 20
525.75
 11
23.106583000000001
 21
522.95001200000002
  0
ARC
  8
_0-0_0
  6
CONTINUOUS
 62
    7
 10
22.606583000000001
 20
522.95001200000002
 40
0.5
 50
269.99999700000001
 51
0
  0
LINE
  8
_0-0_0
  6
CONTINUOUS
 62
    7
 10
22.606583000000001
 20
522.45001200000002
 11
14.406586000000061
 21
522.45001200000002
  0
ARC
  8
_0-0_0
  6
CONTINUOUS
 62
    7
 10
14.406586000000061
 20
521.95001200000002
 40
0.5
 50
90.000003000000007
 51
179.99999099999999
  0
LINE
  8
_0-0_0
  6
CONTINUOUS
 62
    7
 10
13.906586000000061
 20
485.25
 11
13.906586000000061
 21
521.95001200000002
  0
ARC
  8
_0-0_0
  6
CONTINUOUS
 62
    7
 10
14.406586000000061
 20
485.25
 40
0.5
 50
179.99999099999999
 51
269.99999700000001
  0
LINE
  8
_0-0_0
  6
CONTINUOUS
 62
    7
 10
14.406586000000061
 20
484.75
 11
17.906586000000061
 21
484.75
  0
ARC
  8
_0-0_0
  6
CONTINUOUS
 62
    7
 10
17.906586000000061
 20
483.75
 40
1
 50
0
 51
90.000003000000007
  0
LINE
  8
_0-0_0
  6
CONTINUOUS
 62
    7
 10
18.906586000000061
 20
479.25
 11
18.906586000000061
 21
483.75
  0
ARC
  8
_0-0_0
  6
CONTINUOUS
 62
    7
 10
19.406586000000061
 20
479.25
 40
0.5
 50
179.99999099999999
 51
269.99999700000001
  0
CIRCLE
  8
_0-0_0
  6
CONTINUOUS
 62
    7
 10
27.906586000000061
 20
487.75
 40
2.0670000000000002
  0
LINE
  8
_0-0_0
  6
CONTINUOUS
 62
    7
 10
15.906586000000061
 20
522.75
 11
15.906586000000061
 21
522.45001200000002
  0
LINE
  8
_0-0_0
  6
CONTINUOUS
 62
    7
 10
15.906586000000061
 20
522.75
 11
13.906586000000061
 21
522.75
  0
ARC
  8
_0-0_0
  6
CONTINUOUS
 62
    7
 10
13.906586000000061
 20
522.25
 40
0.5
 50
90.000003000000007
 51
179.99999099999999
  0
LINE
  8
_0-0_0
  6
CONTINUOUS
 62
    7
 10
13.406586000000061
 20
522.25
 11
13.406586000000061
 21
484.75
  0
ARC
  8
_0-0_0
  6
CONTINUOUS
 62
    7
 10
13.906586000000061
 20
484.75
 40
0.5
 50
179.99999099999999
 51
269.99999700000001
  0
LINE
  8
_0-0_0
  6
CONTINUOUS
 62
    7
 10
17.906586000000061
 20
484.25
 11
13.906586000000061
 21
484.25
  0
ARC
  8
_0-0_0
  6
CONTINUOUS
 62
    7
 10
17.906586000000061
 20
483.75
 40
0.5
 50
0
 51
90.000003000000007
  0
LINE
  8
_0-0_0
  6
CONTINUOUS
 62
    7
 10
18.406586000000061
 20
478.75
 11
18.406586000000061
 21
483.75
  0
ARC
  8
_0-0_0
  6
CONTINUOUS
 62
    7
 10
18.906586000000061
 20
478.75
 40
0.5
 50
179.99999099999999
 51
269.99999700000001
  0
LINE
  8
_0-0_0
  6
CONTINUOUS
 62
    7
 10
18.906586000000061
 20
478.25
 11
21.406586000000061
 21
478.25
  0
ARC
  8
_0-0_0
  6
CONTINUOUS
 62
    7
 10
21.406586000000061
 20
478.75
 40
0.5
 50
269.99999700000001
 51
0
  0
LINE
  8
_0-0_0
  6
CONTINUOUS
 62
    7
 10
37.406586000000061
 20
478.75
 11
37.506592000000069
 21
478.75
  0
LINE
  8
_0-0_0
  6
CONTINUOUS
 62
    7
 10
37.506592000000069
 20
478.75
 11
37.506592000000069
 21
479.25
  0
LINE
  8
_0-0_0
  6
CONTINUOUS
 62
    7
 10
37.506592000000069
 20
483.25
 11
37.506592000000069
 21
479.25
  0
LINE
  8
_0-0_0
  6
CONTINUOUS
 62
    7
 10
37.406586000000061
 20
483.75
 11
37.506592000000069
 21
483.75
  0
LINE
  8
_0-0_0
  6
CONTINUOUS
 62
    7
 10
37.506592000000069
 20
483.25
 11
37.506592000000069
 21
483.75
  0
LINE
  8
_0-0_0
  6
CONTINUOUS
 62
    7
 10
37.606583000000001
 20
479.25
 11
37.606583000000001
 21
479.38037100000003
  0
LINE
  8
_0-0_0
  6
CONTINUOUS
 62
    7
 10
37.606583000000001
 20
482.88037100000003
 11
37.606583000000001
 21
479.38037100000003
  0
LINE
  8
_0-0_0
  6
CONTINUOUS
 62
    7
 10
37.506592000000069
 20
483.15002399999997
 11
37.606583000000001
 21
483.15002399999997
  0
LINE
  8
_0-0_0
  6
CONTINUOUS
 62
    7
 10
37.606583000000001
 20
482.88037100000003
 11
37.606583000000001
 21
483.15002399999997
  0
LINE
  8
_0-0_0
  6
CONTINUOUS
 62
    7
 10
37.506592000000069
 20
479.25
 11
37.606583000000001
 21
479.25
  0
LINE
  8
_0-0_0
  6
CONTINUOUS
 62
    7
 10
37.506592000000069
 20
479.25
 11
37.606583000000001
 21
479.25
  0
ENDSEC
  0
EOF
