  0
SECTION
  2
HEADER
  9
$ACADVER
  1
AC1009
  9
$INSBASE
 10
0
 20
0
 30
0
  9
$EXTMIN
 10
0
 20
0
  9
$EXTMAX
 10
2523
 20
1782
  9
$LIMMIN
 10
0
 20
0
  9
$LIMMAX
 10
2523
 20
1782
  9
$LTSCALE
 40
3
  0
ENDSEC
  0
SECTION
  2
TABLES
  0
TABLE
  2
LTYPE
 70
     9
  0
LTYPE
  2
CONTINUOUS
 70
    64
  3
実線
 72
    65
 73
     0
 40
0.0
  0
LTYPE
  2
DASHED1
 70
    64
  3
--  --  --  --  --  --  --  --  
 72
    65
 73
     2
 40
2.5
 49
1.25
 49
-1.25
  0
LTYPE
  2
DASHED2
 70
    64
  3
----    ----    ----    ----    
 72
    65
 73
     2
 40
5.0
 49
2.5
 49
-2.5
  0
LTYPE
  2
DASHED3
 70
    64
  3
------  ------  ------  ------  
 72
    65
 73
     2
 40
5.0
 49
3.75
 49
-1.25
  0
LTYPE
  2
CENTER1
 70
    64
  3
----- - ----- - ----- - ----- - 
 72
    65
 73
     4
 40
10.0
 49
6.25
 49
-1.25
 49
1.25
 49
-1.25
  0
LTYPE
  2
CENTER2
 70
    64
  3
----------  --  ----------  --  
 72
    65
 73
     4
 40
20.0
 49
12.5
 49
-2.5
 49
2.5
 49
-2.5
  0
LTYPE
  2
PHANTOM1
 70
    64
  3
--- - - --- - - --- - - --- - - 
 72
    65
 73
     6
 40
10.0
 49
3.25
 49
-1.25
 49
1.25
 49
-1.25
 49
1.25
 49
-1.25
  0
LTYPE
  2
PHANTOM2
 70
    64
  3
--------  -  -  --------  -  -  
 72
    65
 73
     6
 40
20.0
 49
10.0
 49
-2.5
 49
1.25
 49
-2.5
 49
1.25
 49
-2.5
  0
LTYPE
  2
DOT
 70
    64
  3
-   -   -   -   -   -   -   -   
 72
    65
 73
     2
 40
2.5
 49
0.625
 49
-1.875
  0
LTYPE
  2
DUMMY
 70
    64
  3
ダミー
 72
    65
 73
     0
 40
0.0
  0
LTYPE
  2
RAND1
 70
    64
  3
ランダム線1
 72
    65
 73
     4
 40
10.0
 49
1.0
 49
-2.0
 49
3.0
 49
-4.0
  0
LTYPE
  2
RAND2
 70
    64
  3
ランダム線2
 72
    65
 73
     4
 40
14.0
 49
2.0
 49
-3.0
 49
4.0
 49
-5.0
  0
LTYPE
  2
RAND3
 70
    64
  3
ランダム線3
 72
    65
 73
     4
 40
18.0
 49
3.0
 49
-4.0
 49
5.0
 49
-6.0
  0
LTYPE
  2
RAND4
 70
    64
  3
ランダム線4
 72
    65
 73
     4
 40
22.0
 49
4.0
 49
-5.0
 49
6.0
 49
-7.0
  0
LTYPE
  2
RAND5
 70
    64
  3
ランダム線5
 72
    65
 73
     4
 40
26.0
 49
5.0
 49
-6.0
 49
7.0
 49
-8.0
  0
LTYPE
  2
LONG1
 70
    64
  3
----------  --  ----------  --  
 72
    65
 73
     4
 40
40.0
 49
32.5
 49
-2.5
 49
2.5
 49
-2.5
  0
LTYPE
  2
LONG2
 70
    64
  3
--------  -  -  --------  -  -  
 72
    65
 73
     6
 40
40.0
 49
30.0
 49
-2.5
 49
1.25
 49
-2.5
 49
1.25
 49
-2.5
  0
LTYPE
  2
LONG3
 70
    64
  3
+++++++++++++++..+++++++++++++++
 72
    65
 73
     2
 40
40.0
 49
37.5
 49
-2.5
  0
LTYPE
  2
LONG4
 70
    64
  3
+++++++++++++++..+++++++++++++++
 72
    65
 73
     2
 40
80.0
 49
75.0
 49
-5.0
  0
LTYPE
  2
LONG5
 70
    64
  3
----------  --  ----------  --  
 72
    65
 73
     4
 40
60.0
 49
37.5
 49
-7.5
 49
7.5
 49
-7.5
  0
LTYPE
  2
dashed
 70
   64
  3
-------   -------------   ------
 72
   65
 73
    2
 40
7.5
 49
6
 49
-1.5
  0
LTYPE
  2
dashed_spaced
 70
   64
  3
----        --------        ----
 72
   65
 73
    2
 40
12
 49
6
 49
-6
  0
LTYPE
  2
long_dashed_dotted
 70
   64
  3
------------- --- --------------
 72
   65
 73
    4
 40
15.25
 49
12
 49
-1.5
 49
0.25
 49
-1.5
  0
LTYPE
  2
long_dashed_double-dotted
 70
   64
  3
----------- --- --- ------------
 72
   65
 73
    6
 40
17
 49
12
 49
-1.5
 49
0.25
 49
-1.5
 49
0.25
 49
-1.5
  0
LTYPE
  2
long_dashed_triplicate-dotted
 70
   64
  3
--------- --- --- --- ----------
 72
   65
 73
    8
 40
18.75
 49
12
 49
-1.5
 49
0.25
 49
-1.5
 49
0.25
 49
-1.5
 49
0.25
 49
-1.5
  0
LTYPE
  2
dotted
 70
   64
  3
   -       -       -       -    
 72
   65
 73
    2
 40
1.75
 49
0.25
 49
-1.5
  0
LTYPE
  2
chain
 70
   64
  3
-------------- -- --------------
 72
   65
 73
    4
 40
18.5
 49
12
 49
-1.5
 49
3.5
 49
-1.5
  0
LTYPE
  2
chain_double_dash
 70
   64
  3
------------ -- -- -------------
 72
   65
 73
    6
 40
23.5
 49
12
 49
-1.5
 49
3.5
 49
-1.5
 49
3.5
 49
-1.5
  0
LTYPE
  2
dashed_dotted
 70
   64
  3
-----------     -     ----------
 72
   65
 73
    4
 40
9.25
 49
6
 49
-1.5
 49
0.25
 49
-1.5
  0
LTYPE
  2
double-dashed_dotted
 70
   64
  3
------   -----------   -   -----
 72
   65
 73
    6
 40
16.75
 49
6
 49
-1.5
 49
6
 49
-1.5
 49
0.25
 49
-1.5
  0
LTYPE
  2
dashed_double-dotted
 70
   64
  3
---------    -    -    ---------
 72
   65
 73
    6
 40
11
 49
6
 49
-1.5
 49
0.25
 49
-1.5
 49
0.25
 49
-1.5
  0
LTYPE
  2
double-dashed_double-dotted
 70
   64
  3
-----   ---------   -   -   ----
 72
   65
 73
    8
 40
18.5
 49
6
 49
-1.5
 49
6
 49
-1.5
 49
0.25
 49
-1.5
 49
0.25
 49
-1.5
  0
LTYPE
  2
dashed_triplicate-dotted
 70
   64
  3
-------    -    -    -    ------
 72
   65
 73
    8
 40
12.75
 49
6
 49
-1.5
 49
0.25
 49
-1.5
 49
0.25
 49
-1.5
 49
0.25
 49
-1.5
  0
LTYPE
  2
double-dashed_triplicate-dotted
 70
   64
  3
-----  ---------  -  -  -  -----
 72
   65
 73
   10
 40
20.25
 49
6
 49
-1.5
 49
6
 49
-1.5
 49
0.25
 49
-1.5
 49
0.25
 49
-1.5
 49
0.25
 49
-1.5
  0
LTYPE
  2
undefined
 70
   64
  3
--------------------------------
 72
   65
 73
    0
 40
0
  0
ENDTAB
  0
TABLE
  2
STYLE
  5
3
100
AcDbSymbolTable
 70
     1
  0
STYLE
  5
10
100
AcDbSymbolTableRecord
100
AcDbTextStyleTableRecord
  2
STANDARD
 70
     0
 40
0.0
 41
1.0
 50
0.0
 71
     0
 42
0.2
  3
txt
  4
bigfont.shx
  0
STYLE
  5
26
100
AcDbSymbolTableRecord
100
AcDbTextStyleTableRecord
  2
TATEGAKI
 70
    68
 40
0.0
 41
1.0
 50
0.0
 71
     0
 42
1.0
  3
txt
  4
bigfont.shx
  0
ENDTAB
  0
TABLE
  2
LAYER
 70
    2
  0
LAYER
  2
_0-0_0
 70
   64
 62
    7
  6
CONTINUOUS
  0
LAYER
  2
ADD_LINE
 70
   64
 62
    7
  6
CONTINUOUS
  0
ENDTAB
  0
ENDSEC
  0
SECTION
  2
BLOCKS
  0
ENDSEC
  0
SECTION
  2
ENTITIES
  0
ARC
  8
_0-0_0
  6
CONTINUOUS
 62
    7
 10
-582.77221650000001
 20
1062.349976
 40
0.2
 50
269.99999700000001
 51
20.376440000000013
  0
LINE
  8
_0-0_0
  6
CONTINUOUS
 62
    7
 10
-582.58471650000001
 20
1062.419617
 11
-583.88464350000004
 21
1065.919617
  0
ARC
  8
_0-0_0
  6
CONTINUOUS
 62
    7
 10
-584.07214350000004
 20
1065.849976
 40
0.2
 50
20.376439999999999
 51
159.62355600000001
  0
LINE
  8
_0-0_0
  6
CONTINUOUS
 62
    7
 10
-585.5596925000001
 20
1062.419617
 11
-584.25964350000004
 21
1065.919617
  0
ARC
  8
_0-0_0
  6
CONTINUOUS
 62
    7
 10
-585.3721925000001
 20
1062.349976
 40
0.2
 50
159.62355600000001
 51
269.99999700000001
  0
LINE
  8
_0-0_0
  6
CONTINUOUS
 62
    7
 10
-585.3721925000001
 20
1062.1499940000001
 11
-582.77221650000001
 21
1062.1499940000001
  0
LINE
  8
_0-0_0
  6
CONTINUOUS
 62
    7
 10
-748.00500550000027
 20
1110.752716
 11
-748.00500550000027
 21
1110.7517089999999
  0
LINE
  8
_0-0_0
  6
CONTINUOUS
 62
    7
 10
2334.9277345
 20
1099.1499939999999
 11
2334.9277345
 21
1086.1499940000001
  0
LINE
  8
_0-0_0
  6
CONTINUOUS
 62
    7
 10
-638.07214350000004
 20
1099.1499939999999
 11
-638.07214350000004
 21
1086.1499940000001
  0
LINE
  8
_0-0_0
  6
CONTINUOUS
 62
    7
 10
-638.07214350000004
 20
1099.1499939999999
 11
2334.9277345
 21
1099.1499939999999
  0
LINE
  8
_0-0_0
  6
CONTINUOUS
 62
    7
 10
-638.07214350000004
 20
1099.1499939999999
 11
-638.07214350000004
 21
1117.75
  0
LINE
  8
_0-0_0
  6
CONTINUOUS
 62
    7
 10
-638.07214350000004
 20
1120.25
 11
-638.07214350000004
 21
1117.75
  0
LINE
  8
_0-0_0
  6
CONTINUOUS
 62
    7
 10
-638.07214350000004
 20
1120.75
 11
-638.07214350000004
 21
1120.25
  0
LINE
  8
_0-0_0
  6
CONTINUOUS
 62
    7
 10
-638.07214350000004
 20
1072.75
 11
-638.07214350000004
 21
1072.25
  0
LINE
  8
_0-0_0
  6
CONTINUOUS
 62
    7
 10
-638.07214350000004
 20
1077.75
 11
-638.07214350000004
 21
1072.75
  0
LINE
  8
_0-0_0
  6
CONTINUOUS
 62
    7
 10
-638.07214350000004
 20
1078.25
 11
-638.07214350000004
 21
1077.75
  0
LINE
  8
_0-0_0
  6
CONTINUOUS
 62
    7
 10
-638.07214350000004
 20
1078.75
 11
-638.07214350000004
 21
1078.25
  0
LINE
  8
_0-0_0
  6
CONTINUOUS
 62
    7
 10
-638.07214350000004
 20
1081.9499820000001
 11
-638.07214350000004
 21
1078.75
  0
LINE
  8
_0-0_0
  6
CONTINUOUS
 62
    7
 10
-638.07214350000004
 20
1081.9499820000001
 11
-638.07214350000004
 21
1086.1499940000001
  0
LINE
  8
_0-0_0
  6
CONTINUOUS
 62
    7
 10
-638.07214350000004
 20
1086.1499940000001
 11
2334.9277345
 21
1086.1499940000001
  0
LINE
  8
_0-0_0
  6
CONTINUOUS
 62
    7
 10
2334.9277345
 20
1081.9499820000001
 11
2334.9277345
 21
1086.1499940000001
  0
LINE
  8
_0-0_0
  6
CONTINUOUS
 62
    7
 10
2334.9277345
 20
1078.75
 11
2334.9277345
 21
1081.9499820000001
  0
LINE
  8
_0-0_0
  6
CONTINUOUS
 62
    7
 10
2334.9277345
 20
1078.75
 11
2334.9277345
 21
1078.25
  0
LINE
  8
_0-0_0
  6
CONTINUOUS
 62
    7
 10
2334.9277345
 20
1078.25
 11
2334.9277345
 21
1077.75
  0
LINE
  8
_0-0_0
  6
CONTINUOUS
 62
    7
 10
2334.9277345
 20
1077.75
 11
2334.9277345
 21
1072.75
  0
LINE
  8
_0-0_0
  6
CONTINUOUS
 62
    7
 10
2334.9277345
 20
1072.75
 11
2334.9277345
 21
1072.25
  0
LINE
  8
_0-0_0
  6
CONTINUOUS
 62
    7
 10
2334.9277345
 20
1120.75
 11
2334.9277345
 21
1120.25
  0
LINE
  8
_0-0_0
  6
CONTINUOUS
 62
    7
 10
2334.9277345
 20
1117.75
 11
2334.9277345
 21
1120.25
  0
LINE
  8
_0-0_0
  6
CONTINUOUS
 62
    7
 10
2334.9277345
 20
1099.1499939999999
 11
2334.9277345
 21
1117.75
  0
CIRCLE
  8
_0-0_0
  6
CONTINUOUS
 62
    7
 10
2298.4277345
 20
1108.25
 40
6
  0
CIRCLE
  8
_0-0_0
  6
CONTINUOUS
 62
    7
 10
2198.4277345
 20
1108.25
 40
6
  0
CIRCLE
  8
_0-0_0
  6
CONTINUOUS
 62
    7
 10
2098.4277345
 20
1108.25
 40
6
  0
CIRCLE
  8
_0-0_0
  6
CONTINUOUS
 62
    7
 10
1998.4277345
 20
1108.25
 40
6
  0
CIRCLE
  8
_0-0_0
  6
CONTINUOUS
 62
    7
 10
1898.4277345
 20
1108.25
 40
6
  0
CIRCLE
  8
_0-0_0
  6
CONTINUOUS
 62
    7
 10
1798.4277345
 20
1108.25
 40
6
  0
CIRCLE
  8
_0-0_0
  6
CONTINUOUS
 62
    7
 10
1698.4277345
 20
1108.25
 40
6
  0
CIRCLE
  8
_0-0_0
  6
CONTINUOUS
 62
    7
 10
1598.4277345
 20
1108.25
 40
6
  0
CIRCLE
  8
_0-0_0
  6
CONTINUOUS
 62
    7
 10
1498.4277345
 20
1108.25
 40
6
  0
CIRCLE
  8
_0-0_0
  6
CONTINUOUS
 62
    7
 10
1398.4277345
 20
1108.25
 40
6
  0
CIRCLE
  8
_0-0_0
  6
CONTINUOUS
 62
    7
 10
1298.4277345
 20
1108.25
 40
6
  0
CIRCLE
  8
_0-0_0
  6
CONTINUOUS
 62
    7
 10
1198.4278565
 20
1108.25
 40
6
  0
CIRCLE
  8
_0-0_0
  6
CONTINUOUS
 62
    7
 10
1098.4278565
 20
1108.25
 40
6
  0
CIRCLE
  8
_0-0_0
  6
CONTINUOUS
 62
    7
 10
998.42785649999996
 20
1108.25
 40
6
  0
CIRCLE
  8
_0-0_0
  6
CONTINUOUS
 62
    7
 10
898.42785649999996
 20
1108.25
 40
6
  0
CIRCLE
  8
_0-0_0
  6
CONTINUOUS
 62
    7
 10
798.42785650000008
 20
1108.25
 40
6
  0
CIRCLE
  8
_0-0_0
  6
CONTINUOUS
 62
    7
 10
698.42785649999996
 20
1108.25
 40
6
  0
CIRCLE
  8
_0-0_0
  6
CONTINUOUS
 62
    7
 10
598.42782549999993
 20
1108.25
 40
6
  0
CIRCLE
  8
_0-0_0
  6
CONTINUOUS
 62
    7
 10
498.42782549999993
 20
1108.25
 40
6
  0
CIRCLE
  8
_0-0_0
  6
CONTINUOUS
 62
    7
 10
398.42782549999987
 20
1108.25
 40
6
  0
CIRCLE
  8
_0-0_0
  6
CONTINUOUS
 62
    7
 10
298.42782549999993
 20
1108.25
 40
6
  0
CIRCLE
  8
_0-0_0
  6
CONTINUOUS
 62
    7
 10
198.42782549999998
 20
1108.25
 40
6
  0
CIRCLE
  8
_0-0_0
  6
CONTINUOUS
 62
    7
 10
98.427825499999869
 20
1108.25
 40
6
  0
CIRCLE
  8
_0-0_0
  6
CONTINUOUS
 62
    7
 10
-1.5721745000000737
 20
1108.25
 40
6
  0
CIRCLE
  8
_0-0_0
  6
CONTINUOUS
 62
    7
 10
-101.57217450000002
 20
1108.25
 40
6
  0
CIRCLE
  8
_0-0_0
  6
CONTINUOUS
 62
    7
 10
-201.57217450000013
 20
1108.25
 40
6
  0
CIRCLE
  8
_0-0_0
  6
CONTINUOUS
 62
    7
 10
-301.57217450000007
 20
1108.25
 40
6
  0
CIRCLE
  8
_0-0_0
  6
CONTINUOUS
 62
    7
 10
-401.57214349999992
 20
1108.25
 40
6
  0
CIRCLE
  8
_0-0_0
  6
CONTINUOUS
 62
    7
 10
-501.57214350000004
 20
1108.25
 40
6
  0
CIRCLE
  8
_0-0_0
  6
CONTINUOUS
 62
    7
 10
-601.57214350000015
 20
1108.25
 40
6
  0
LINE
  8
_0-0_0
  6
CONTINUOUS
 62
    7
 10
-638.07214350000004
 20
1117.75
 11
2334.9277345
 21
1117.75
  0
LINE
  8
_0-0_0
  6
CONTINUOUS
 62
    7
 10
-638.07214350000004
 20
1120.75
 11
2334.9277345
 21
1120.75
  0
LINE
  8
_0-0_0
  6
CONTINUOUS
 62
    7
 10
-638.07214350000004
 20
1120.25
 11
-640.57214350000015
 21
1120.25
  0
LINE
  8
_0-0_0
  6
CONTINUOUS
 62
    7
 10
-640.57214350000015
 20
1120.25
 11
-640.57214350000015
 21
1119.75
  0
LINE
  8
_0-0_0
  6
CONTINUOUS
 62
    7
 10
-640.57214350000015
 20
1119.75
 11
-640.57214350000015
 21
1079.25
  0
LINE
  8
_0-0_0
  6
CONTINUOUS
 62
    7
 10
-638.07214350000004
 20
1078.75
 11
-640.57214350000015
 21
1078.75
  0
LINE
  8
_0-0_0
  6
CONTINUOUS
 62
    7
 10
-640.57214350000015
 20
1079.25
 11
-640.57214350000015
 21
1078.75
  0
LINE
  8
_0-0_0
  6
CONTINUOUS
 62
    7
 10
-640.57214350000015
 20
1078.75
 11
-640.57214350000015
 21
1077.75
  0
LINE
  8
_0-0_0
  6
CONTINUOUS
 62
    7
 10
-640.57214350000015
 20
1077.75
 11
-640.57214350000015
 21
1073.25
  0
LINE
  8
_0-0_0
  6
CONTINUOUS
 62
    7
 10
-638.07214350000004
 20
1072.75
 11
-640.57214350000015
 21
1072.75
  0
LINE
  8
_0-0_0
  6
CONTINUOUS
 62
    7
 10
-640.57214350000015
 20
1073.25
 11
-640.57214350000015
 21
1072.75
  0
LINE
  8
_0-0_0
  6
CONTINUOUS
 62
    7
 10
-638.07214350000004
 20
1072.25
 11
2334.9277345
 21
1072.25
  0
LINE
  8
_0-0_0
  6
CONTINUOUS
 62
    7
 10
-638.07214350000004
 20
1078.25
 11
2334.9277345
 21
1078.25
  0
LINE
  8
_0-0_0
  6
CONTINUOUS
 62
    7
 10
-638.07214350000004
 20
1081.9499820000001
 11
2334.9277345
 21
1081.9499820000001
  0
LINE
  8
_0-0_0
  6
CONTINUOUS
 62
    7
 10
2334.9277345
 20
1120.25
 11
2337.4277345
 21
1120.25
  0
LINE
  8
_0-0_0
  6
CONTINUOUS
 62
    7
 10
2337.4277345
 20
1120.25
 11
2337.4277345
 21
1119.75
  0
LINE
  8
_0-0_0
  6
CONTINUOUS
 62
    7
 10
2337.4277345
 20
1119.75
 11
2337.4277345
 21
1079.25
  0
LINE
  8
_0-0_0
  6
CONTINUOUS
 62
    7
 10
2334.9277345
 20
1078.75
 11
2337.4277345
 21
1078.75
  0
LINE
  8
_0-0_0
  6
CONTINUOUS
 62
    7
 10
2337.4277345
 20
1079.25
 11
2337.4277345
 21
1078.75
  0
LINE
  8
_0-0_0
  6
CONTINUOUS
 62
    7
 10
2337.4277345
 20
1078.75
 11
2337.4277345
 21
1077.75
  0
LINE
  8
_0-0_0
  6
CONTINUOUS
 62
    7
 10
2337.4277345
 20
1077.75
 11
2337.4277345
 21
1073.25
  0
LINE
  8
_0-0_0
  6
CONTINUOUS
 62
    7
 10
2334.9277345
 20
1072.75
 11
2337.4277345
 21
1072.75
  0
LINE
  8
_0-0_0
  6
CONTINUOUS
 62
    7
 10
2337.4277345
 20
1073.25
 11
2337.4277345
 21
1072.75
  0
ARC
  8
_0-0_0
  6
CONTINUOUS
 62
    7
 10
-580.57214350000015
 20
1073.25
 40
0.5
 50
269.99999700000001
 51
0
  0
LINE
  8
_0-0_0
  6
CONTINUOUS
 62
    7
 10
-580.57214350000015
 20
1072.75
 11
-587.57214349999992
 21
1072.75
  0
ARC
  8
_0-0_0
  6
CONTINUOUS
 62
    7
 10
-587.57214349999992
 20
1073.25
 40
0.5
 50
179.99999099999999
 51
269.99999700000001
  0
LINE
  8
_0-0_0
  6
CONTINUOUS
 62
    7
 10
-588.07214350000015
 20
1077.25
 11
-588.07214350000015
 21
1073.25
  0
ARC
  8
_0-0_0
  6
CONTINUOUS
 62
    7
 10
-587.57214349999992
 20
1077.25
 40
0.5
 50
90.000003000000007
 51
179.99999099999999
  0
ARC
  8
_0-0_0
  6
CONTINUOUS
 62
    7
 10
-580.57214350000015
 20
1077.25
 40
0.5
 50
0
 51
90.000003000000007
  0
LINE
  8
_0-0_0
  6
CONTINUOUS
 62
    7
 10
-587.57214349999992
 20
1077.75
 11
-580.57214350000015
 21
1077.75
  0
LINE
  8
_0-0_0
  6
CONTINUOUS
 62
    7
 10
2334.9277345
 20
1120.75
 11
2334.9277345
 21
1120.4499819999999
  0
LINE
  8
_0-0_0
  6
CONTINUOUS
 62
    7
 10
2334.9277345
 20
1120.4499819999999
 11
2334.9277345
 21
1120.25
  0
CIRCLE
  8
_0-0_0
  6
CONTINUOUS
 62
    7
 10
2298.4277345
 20
1108.25
 40
5.5
  0
CIRCLE
  8
_0-0_0
  6
CONTINUOUS
 62
    7
 10
2198.4277345
 20
1108.25
 40
5.5
  0
CIRCLE
  8
_0-0_0
  6
CONTINUOUS
 62
    7
 10
2098.4277345
 20
1108.25
 40
5.5
  0
CIRCLE
  8
_0-0_0
  6
CONTINUOUS
 62
    7
 10
1998.4277345
 20
1108.25
 40
5.5
  0
CIRCLE
  8
_0-0_0
  6
CONTINUOUS
 62
    7
 10
1898.4277345
 20
1108.25
 40
5.5
  0
CIRCLE
  8
_0-0_0
  6
CONTINUOUS
 62
    7
 10
1798.4277345
 20
1108.25
 40
5.5
  0
CIRCLE
  8
_0-0_0
  6
CONTINUOUS
 62
    7
 10
1698.4277345
 20
1108.25
 40
5.5
  0
CIRCLE
  8
_0-0_0
  6
CONTINUOUS
 62
    7
 10
1598.4277345
 20
1108.25
 40
5.5
  0
CIRCLE
  8
_0-0_0
  6
CONTINUOUS
 62
    7
 10
1498.4277345
 20
1108.25
 40
5.5
  0
CIRCLE
  8
_0-0_0
  6
CONTINUOUS
 62
    7
 10
1398.4277345
 20
1108.25
 40
5.5
  0
CIRCLE
  8
_0-0_0
  6
CONTINUOUS
 62
    7
 10
1298.4277345
 20
1108.25
 40
5.5
  0
CIRCLE
  8
_0-0_0
  6
CONTINUOUS
 62
    7
 10
1198.4278565
 20
1108.25
 40
5.5
  0
CIRCLE
  8
_0-0_0
  6
CONTINUOUS
 62
    7
 10
1098.4278565
 20
1108.25
 40
5.5
  0
CIRCLE
  8
_0-0_0
  6
CONTINUOUS
 62
    7
 10
998.42785649999996
 20
1108.25
 40
5.5
  0
CIRCLE
  8
_0-0_0
  6
CONTINUOUS
 62
    7
 10
898.42785649999996
 20
1108.25
 40
5.5
  0
CIRCLE
  8
_0-0_0
  6
CONTINUOUS
 62
    7
 10
798.42785650000008
 20
1108.25
 40
5.5
  0
CIRCLE
  8
_0-0_0
  6
CONTINUOUS
 62
    7
 10
698.42785649999996
 20
1108.25
 40
5.5
  0
CIRCLE
  8
_0-0_0
  6
CONTINUOUS
 62
    7
 10
598.42782549999993
 20
1108.25
 40
5.5
  0
CIRCLE
  8
_0-0_0
  6
CONTINUOUS
 62
    7
 10
498.42782549999993
 20
1108.25
 40
5.5
  0
CIRCLE
  8
_0-0_0
  6
CONTINUOUS
 62
    7
 10
398.42782549999987
 20
1108.25
 40
5.5
  0
CIRCLE
  8
_0-0_0
  6
CONTINUOUS
 62
    7
 10
298.42782549999993
 20
1108.25
 40
5.5
  0
CIRCLE
  8
_0-0_0
  6
CONTINUOUS
 62
    7
 10
198.42782549999998
 20
1108.25
 40
5.5
  0
CIRCLE
  8
_0-0_0
  6
CONTINUOUS
 62
    7
 10
98.427825499999869
 20
1108.25
 40
5.5
  0
CIRCLE
  8
_0-0_0
  6
CONTINUOUS
 62
    7
 10
-1.5721745000000737
 20
1108.25
 40
5.5
  0
CIRCLE
  8
_0-0_0
  6
CONTINUOUS
 62
    7
 10
-101.57217450000002
 20
1108.25
 40
5.5
  0
CIRCLE
  8
_0-0_0
  6
CONTINUOUS
 62
    7
 10
-201.57217450000013
 20
1108.25
 40
5.5
  0
CIRCLE
  8
_0-0_0
  6
CONTINUOUS
 62
    7
 10
-301.57217450000007
 20
1108.25
 40
5.5
  0
CIRCLE
  8
_0-0_0
  6
CONTINUOUS
 62
    7
 10
-401.57214349999992
 20
1108.25
 40
5.5
  0
CIRCLE
  8
_0-0_0
  6
CONTINUOUS
 62
    7
 10
-501.57214350000004
 20
1108.25
 40
5.5
  0
CIRCLE
  8
_0-0_0
  6
CONTINUOUS
 62
    7
 10
-601.57214350000015
 20
1108.25
 40
5.5
  0
LINE
  8
_0-0_0
  6
CONTINUOUS
 62
    7
 10
-580.07214349999992
 20
1073.25
 11
-580.07214349999992
 21
1077.25
  0
CIRCLE
  8
_0-0_0
  6
CONTINUOUS
 62
    7
 10
2298.4277345
 20
1108.25
 40
3.5
  0
CIRCLE
  8
_0-0_0
  6
CONTINUOUS
 62
    7
 10
2198.4277345
 20
1108.25
 40
3.5
  0
CIRCLE
  8
_0-0_0
  6
CONTINUOUS
 62
    7
 10
2098.4277345
 20
1108.25
 40
3.5
  0
CIRCLE
  8
_0-0_0
  6
CONTINUOUS
 62
    7
 10
1998.4277345
 20
1108.25
 40
3.5
  0
CIRCLE
  8
_0-0_0
  6
CONTINUOUS
 62
    7
 10
1898.4277345
 20
1108.25
 40
3.5
  0
CIRCLE
  8
_0-0_0
  6
CONTINUOUS
 62
    7
 10
1798.4277345
 20
1108.25
 40
3.5
  0
CIRCLE
  8
_0-0_0
  6
CONTINUOUS
 62
    7
 10
1698.4277345
 20
1108.25
 40
3.5
  0
CIRCLE
  8
_0-0_0
  6
CONTINUOUS
 62
    7
 10
1598.4277345
 20
1108.25
 40
3.5
  0
CIRCLE
  8
_0-0_0
  6
CONTINUOUS
 62
    7
 10
1498.4277345
 20
1108.25
 40
3.5
  0
CIRCLE
  8
_0-0_0
  6
CONTINUOUS
 62
    7
 10
1398.4277345
 20
1108.25
 40
3.5
  0
CIRCLE
  8
_0-0_0
  6
CONTINUOUS
 62
    7
 10
1298.4277345
 20
1108.25
 40
3.5
  0
CIRCLE
  8
_0-0_0
  6
CONTINUOUS
 62
    7
 10
1198.4278565
 20
1108.25
 40
3.5
  0
CIRCLE
  8
_0-0_0
  6
CONTINUOUS
 62
    7
 10
1098.4278565
 20
1108.25
 40
3.5
  0
CIRCLE
  8
_0-0_0
  6
CONTINUOUS
 62
    7
 10
998.42785649999996
 20
1108.25
 40
3.5
  0
CIRCLE
  8
_0-0_0
  6
CONTINUOUS
 62
    7
 10
898.42785649999996
 20
1108.25
 40
3.5
  0
CIRCLE
  8
_0-0_0
  6
CONTINUOUS
 62
    7
 10
798.42785650000008
 20
1108.25
 40
3.5
  0
CIRCLE
  8
_0-0_0
  6
CONTINUOUS
 62
    7
 10
698.42785649999996
 20
1108.25
 40
3.5
  0
CIRCLE
  8
_0-0_0
  6
CONTINUOUS
 62
    7
 10
598.42782549999993
 20
1108.25
 40
3.5
  0
CIRCLE
  8
_0-0_0
  6
CONTINUOUS
 62
    7
 10
498.42782549999993
 20
1108.25
 40
3.5
  0
CIRCLE
  8
_0-0_0
  6
CONTINUOUS
 62
    7
 10
398.42782549999987
 20
1108.25
 40
3.5
  0
CIRCLE
  8
_0-0_0
  6
CONTINUOUS
 62
    7
 10
298.42782549999993
 20
1108.25
 40
3.5
  0
CIRCLE
  8
_0-0_0
  6
CONTINUOUS
 62
    7
 10
198.42782549999998
 20
1108.25
 40
3.5
  0
CIRCLE
  8
_0-0_0
  6
CONTINUOUS
 62
    7
 10
98.427825499999869
 20
1108.25
 40
3.5
  0
CIRCLE
  8
_0-0_0
  6
CONTINUOUS
 62
    7
 10
-1.5721745000000737
 20
1108.25
 40
3.5
  0
CIRCLE
  8
_0-0_0
  6
CONTINUOUS
 62
    7
 10
-101.57217450000002
 20
1108.25
 40
3.5
  0
CIRCLE
  8
_0-0_0
  6
CONTINUOUS
 62
    7
 10
-201.57217450000013
 20
1108.25
 40
3.5
  0
CIRCLE
  8
_0-0_0
  6
CONTINUOUS
 62
    7
 10
-301.57217450000007
 20
1108.25
 40
3.5
  0
CIRCLE
  8
_0-0_0
  6
CONTINUOUS
 62
    7
 10
-401.57214349999992
 20
1108.25
 40
3.5
  0
CIRCLE
  8
_0-0_0
  6
CONTINUOUS
 62
    7
 10
-501.57214350000004
 20
1108.25
 40
3.5
  0
CIRCLE
  8
_0-0_0
  6
CONTINUOUS
 62
    7
 10
-601.57214350000015
 20
1108.25
 40
3.5
  0
ARC
  8
_0-0_0
  6
CONTINUOUS
 62
    7
 10
-582.77221650000001
 20
1076.9499819999999
 40
0.2
 50
339.62356199999999
 51
90.000002999999978
  0
LINE
  8
_0-0_0
  6
CONTINUOUS
 62
    7
 10
-582.58471650000001
 20
1076.880341
 11
-583.88464350000004
 21
1073.380341
  0
ARC
  8
_0-0_0
  6
CONTINUOUS
 62
    7
 10
-584.07214350000004
 20
1073.4499820000001
 40
0.2
 50
200.37643
 51
339.62356199999999
  0
LINE
  8
_0-0_0
  6
CONTINUOUS
 62
    7
 10
-585.5596925000001
 20
1076.880341
 11
-584.25964350000004
 21
1073.380341
  0
ARC
  8
_0-0_0
  6
CONTINUOUS
 62
    7
 10
-585.3721925000001
 20
1076.9499819999999
 40
0.2
 50
90.000003000000007
 51
200.37643
  0
LINE
  8
_0-0_0
  6
CONTINUOUS
 62
    7
 10
-585.3721925000001
 20
1077.1499940000001
 11
-582.77221650000001
 21
1077.1499940000001
  0
ARC
  8
_0-0_0
  6
CONTINUOUS
 62
    7
 10
2254.6276855000001
 20
1076.9499819999999
 40
0.2
 50
90.000003000000007
 51
200.37643
  0
LINE
  8
_0-0_0
  6
CONTINUOUS
 62
    7
 10
2254.6276855000001
 20
1077.1499940000001
 11
2257.2277835000004
 21
1077.1499940000001
  0
ARC
  8
_0-0_0
  6
CONTINUOUS
 62
    7
 10
2252.4277345
 20
1077.25
 40
0.5
 50
90.000003000000007
 51
179.99999099999999
  0
LINE
  8
_0-0_0
  6
CONTINUOUS
 62
    7
 10
2251.9277345
 20
1077.25
 11
2251.9277345
 21
1073.25
  0
ARC
  8
_0-0_0
  6
CONTINUOUS
 62
    7
 10
2252.4277345
 20
1073.25
 40
0.5
 50
179.99999099999999
 51
269.99999700000001
  0
LINE
  8
_0-0_0
  6
CONTINUOUS
 62
    7
 10
2259.4277345
 20
1072.75
 11
2252.4277345
 21
1072.75
  0
ARC
  8
_0-0_0
  6
CONTINUOUS
 62
    7
 10
2259.4277345
 20
1073.25
 40
0.5
 50
269.99999700000001
 51
0
  0
LINE
  8
_0-0_0
  6
CONTINUOUS
 62
    7
 10
2259.9277345
 20
1073.25
 11
2259.9277345
 21
1077.25
  0
ARC
  8
_0-0_0
  6
CONTINUOUS
 62
    7
 10
2259.4277345
 20
1077.25
 40
0.5
 50
0
 51
90.000003000000007
  0
LINE
  8
_0-0_0
  6
CONTINUOUS
 62
    7
 10
2252.4277345
 20
1077.75
 11
2259.4277345
 21
1077.75
  0
LINE
  8
_0-0_0
  6
CONTINUOUS
 62
    7
 10
2254.4401855000001
 20
1076.880341
 11
2255.7402345
 21
1073.380341
  0
ARC
  8
_0-0_0
  6
CONTINUOUS
 62
    7
 10
2255.9277345
 20
1073.4499820000001
 40
0.2
 50
200.37643
 51
339.62356199999999
  0
LINE
  8
_0-0_0
  6
CONTINUOUS
 62
    7
 10
2257.4152835000004
 20
1076.880341
 11
2256.1152345
 21
1073.380341
  0
ARC
  8
_0-0_0
  6
CONTINUOUS
 62
    7
 10
2257.2277835000004
 20
1076.9499819999999
 40
0.2
 50
339.62356199999999
 51
90.000002999999978
  0
LINE
  8
_0-0_0
  6
CONTINUOUS
 62
    7
 10
-631.57214350000015
 20
1070.25
 11
-626.57214349999992
 21
1070.25
  0
LINE
  8
_0-0_0
  6
CONTINUOUS
 62
    7
 10
-626.57214349999992
 20
1070.25
 11
-624.77221650000001
 21
1070.25
  0
LINE
  8
_0-0_0
  6
CONTINUOUS
 62
    7
 10
-624.77221650000001
 20
1070.25
 11
-624.07214350000015
 21
1070.25
  0
ARC
  8
_0-0_0
  6
CONTINUOUS
 62
    7
 10
-624.77221650000001
 20
1069.75
 40
0.5
 50
0
 51
90.000003000000007
  0
ARC
  8
_0-0_0
  6
CONTINUOUS
 62
    7
 10
-631.57214350000015
 20
1069.75
 40
0.5
 50
90.000003000000007
 51
179.99999099999999
  0
ARC
  8
_0-0_0
  6
CONTINUOUS
 62
    7
 10
-528.07214350000015
 20
1069.75
 40
0.5
 50
0
 51
90.000003000000007
  0
LINE
  8
_0-0_0
  6
CONTINUOUS
 62
    7
 10
-624.07214350000015
 20
1070.25
 11
-624.07214350000015
 21
1068.75
  0
LINE
  8
_0-0_0
  6
CONTINUOUS
 62
    7
 10
-624.07214350000015
 20
1070.75
 11
-624.07214350000015
 21
1070.25
  0
LINE
  8
_0-0_0
  6
CONTINUOUS
 62
    7
 10
-624.07214350000015
 20
1071.25
 11
-624.07214350000015
 21
1070.75
  0
LINE
  8
_0-0_0
  6
CONTINUOUS
 62
    7
 10
-624.07214350000015
 20
1072.25
 11
-624.07214350000015
 21
1071.25
  0
LINE
  8
_0-0_0
  6
CONTINUOUS
 62
    7
 10
-620.07214350000004
 20
1070.25
 11
-619.37219249999987
 21
1070.25
  0
LINE
  8
_0-0_0
  6
CONTINUOUS
 62
    7
 10
-624.27221650000013
 20
1069.75
 11
-624.27221650000013
 21
1068.75
  0
LINE
  8
_0-0_0
  6
CONTINUOUS
 62
    7
 10
-621.07214350000015
 20
1043.25
 11
-621.07214350000015
 21
1044.849976
  0
LINE
  8
_0-0_0
  6
CONTINUOUS
 62
    7
 10
-621.07214350000015
 20
1043.25
 11
-626.57214349999992
 21
1043.25
  0
LINE
  8
_0-0_0
  6
CONTINUOUS
 62
    7
 10
-605.07214350000004
 20
1049.9499819999999
 11
-563.07214350000004
 21
1049.9499819999999
  0
LINE
  8
_0-0_0
  6
CONTINUOUS
 62
    7
 10
-605.07214350000004
 20
1069.549988
 11
-563.07214350000004
 21
1069.549988
  0
LINE
  8
_0-0_0
  6
CONTINUOUS
 62
    7
 10
-541.57214350000015
 20
1043.25
 11
-551.07214350000004
 21
1043.25
  0
LINE
  8
_0-0_0
  6
CONTINUOUS
 62
    7
 10
-551.07214350000004
 20
1043.25
 11
-551.07214350000004
 21
1044.849976
  0
ARC
  8
_0-0_0
  6
CONTINUOUS
 62
    7
 10
-551.37219249999998
 20
1044.849976
 40
0.2999999999999999
 50
0
 51
90.000003000000007
  0
LINE
  8
_0-0_0
  6
CONTINUOUS
 62
    7
 10
-552.07214350000015
 20
1045.1499939999999
 11
-551.37219249999998
 21
1045.1499939999999
  0
LINE
  8
_0-0_0
  6
CONTINUOUS
 62
    7
 10
-552.57214350000004
 20
1045.549988
 11
-552.07214350000015
 21
1045.549988
  0
LINE
  8
_0-0_0
  6
CONTINUOUS
 62
    7
 10
-566.07214350000004
 20
1045.549988
 11
-552.57214350000004
 21
1045.549988
  0
ARC
  8
_0-0_0
  6
CONTINUOUS
 62
    7
 10
-568.57214350000015
 20
1045.549988
 40
2.5
 50
0
 51
90.000003000000007
  0
LINE
  8
_0-0_0
  6
CONTINUOUS
 62
    7
 10
-599.57214349999992
 20
1048.049988
 11
-568.57214350000015
 21
1048.049988
  0
ARC
  8
_0-0_0
  6
CONTINUOUS
 62
    7
 10
-599.57214349999992
 20
1045.549988
 40
2.5
 50
90.000003000000007
 51
179.99999099999999
  0
LINE
  8
_0-0_0
  6
CONTINUOUS
 62
    7
 10
-619.57214350000015
 20
1045.549988
 11
-602.07214350000004
 21
1045.549988
  0
LINE
  8
_0-0_0
  6
CONTINUOUS
 62
    7
 10
-620.07214350000004
 20
1045.549988
 11
-619.57214350000015
 21
1045.549988
  0
LINE
  8
_0-0_0
  6
CONTINUOUS
 62
    7
 10
-620.7722164999999
 20
1045.1499939999999
 11
-620.07214350000004
 21
1045.1499939999999
  0
ARC
  8
_0-0_0
  6
CONTINUOUS
 62
    7
 10
-620.7722164999999
 20
1044.849976
 40
0.2999999999999999
 50
90.000003000000007
 51
179.99999099999999
  0
LINE
  8
_0-0_0
  6
CONTINUOUS
 62
    7
 10
-632.07214350000004
 20
1067.9748540000001
 11
-632.07214350000004
 21
1069.75
  0
LINE
  8
_0-0_0
  6
CONTINUOUS
 62
    7
 10
-627.07214350000015
 20
1070.75
 11
-627.07214350000015
 21
1070.25
  0
LINE
  8
_0-0_0
  6
CONTINUOUS
 62
    7
 10
-627.07214350000015
 20
1066.8035580000001
 11
-627.07214350000015
 21
1066.908539
  0
LINE
  8
_0-0_0
  6
CONTINUOUS
 62
    7
 10
-627.07214350000015
 20
1070.75
 11
-627.07214350000015
 21
1072.249969
  0
LINE
  8
_0-0_0
  6
CONTINUOUS
 62
    7
 10
-527.57214349999992
 20
1072.249969
 11
-527.57214349999992
 21
1070.75
  0
LINE
  8
_0-0_0
  6
CONTINUOUS
 62
    7
 10
-527.57214349999992
 20
1070.75
 11
-527.57214349999992
 21
1069.75
  0
LINE
  8
_0-0_0
  6
CONTINUOUS
 62
    7
 10
-527.57214349999992
 20
1068.9499820000001
 11
-527.57214349999992
 21
1069.75
  0
LINE
  8
_0-0_0
  6
CONTINUOUS
 62
    7
 10
-528.07214350000015
 20
1070.25
 11
-527.57214349999992
 21
1070.25
  0
LINE
  8
_0-0_0
  6
CONTINUOUS
 62
    7
 10
-540.57214350000004
 20
1070.25
 11
-528.07214350000015
 21
1070.25
  0
LINE
  8
_0-0_0
  6
CONTINUOUS
 62
    7
 10
-527.57214349999992
 20
1072.25
 11
-527.57214349999992
 21
1071.25
  0
LINE
  8
_0-0_0
  6
CONTINUOUS
 62
    7
 10
-527.57214349999992
 20
1070.75
 11
-527.57214349999992
 21
1070.25
  0
LINE
  8
_0-0_0
  6
CONTINUOUS
 62
    7
 10
-527.57214349999992
 20
1071.25
 11
-527.57214349999992
 21
1070.75
  0
ARC
  8
_0-0_0
  6
CONTINUOUS
 62
    7
 10
-622.07214349999992
 20
1068.75
 40
2
 50
179.99999099999999
 51
0
  0
LINE
  8
_0-0_0
  6
CONTINUOUS
 62
    7
 10
-541.07214349999992
 20
1070.25
 11
-540.57214350000004
 21
1070.25
  0
LINE
  8
_0-0_0
  6
CONTINUOUS
 62
    7
 10
-541.07214349999992
 20
1069.75
 11
-541.07214349999992
 21
1070.25
  0
LINE
  8
_0-0_0
  6
CONTINUOUS
 62
    7
 10
-541.07214349999992
 20
1068.75
 11
-541.07214349999992
 21
1068.9499820000001
  0
ARC
  8
_0-0_0
  6
CONTINUOUS
 62
    7
 10
-543.07214350000015
 20
1068.75
 40
2
 50
179.99999099999999
 51
0
  0
LINE
  8
_0-0_0
  6
CONTINUOUS
 62
    7
 10
-545.07214350000004
 20
1070.25
 11
-545.07214350000004
 21
1068.75
  0
LINE
  8
_0-0_0
  6
CONTINUOUS
 62
    7
 10
-545.7722164999999
 20
1070.25
 11
-545.07214350000004
 21
1070.25
  0
LINE
  8
_0-0_0
  6
CONTINUOUS
 62
    7
 10
-620.07214350000004
 20
1068.75
 11
-620.07214350000004
 21
1070.25
  0
LINE
  8
_0-0_0
  6
CONTINUOUS
 62
    7
 10
-624.07214350000015
 20
1071.25
 11
-527.57214349999992
 21
1071.25
  0
ARC
  8
_0-0_0
  6
CONTINUOUS
 62
    7
 10
-619.37219249999987
 20
1069.75
 40
0.5
 50
90.000003000000007
 51
179.99999099999999
  0
ARC
  8
_0-0_0
  6
CONTINUOUS
 62
    7
 10
-622.07214349999992
 20
1068.75
 40
2.2000000000000002
 50
179.99999099999999
 51
0
  0
LINE
  8
_0-0_0
  6
CONTINUOUS
 62
    7
 10
-620.07214350000004
 20
1045.1499939999999
 11
-619.57214350000015
 21
1045.1499939999999
  0
LINE
  8
_0-0_0
  6
CONTINUOUS
 62
    7
 10
-619.57214350000015
 20
1045.549988
 11
-619.57214350000015
 21
1045.1499939999999
  0
LINE
  8
_0-0_0
  6
CONTINUOUS
 62
    7
 10
-602.07214350000004
 20
1045.549988
 11
-566.07214350000004
 21
1045.549988
  0
LINE
  8
_0-0_0
  6
CONTINUOUS
 62
    7
 10
-552.57214350000004
 20
1045.1499939999999
 11
-552.07214350000015
 21
1045.1499939999999
  0
LINE
  8
_0-0_0
  6
CONTINUOUS
 62
    7
 10
-552.57214350000004
 20
1045.549988
 11
-552.57214350000004
 21
1045.1499939999999
  0
LINE
  8
_0-0_0
  6
CONTINUOUS
 62
    7
 10
-541.57214350000015
 20
1042.75
 11
-550.57214350000015
 21
1042.75
  0
ARC
  8
_0-0_0
  6
CONTINUOUS
 62
    7
 10
-550.57214350000015
 20
1043.25
 40
0.5
 50
179.99999099999999
 51
269.99999700000001
  0
LINE
  8
_0-0_0
  6
CONTINUOUS
 62
    7
 10
-541.57214350000015
 20
1043.25
 11
-541.07214349999992
 21
1043.25
  0
LINE
  8
_0-0_0
  6
CONTINUOUS
 62
    7
 10
-541.07214349999992
 20
1043.25
 11
-541.07214349999992
 21
1043.4499820000001
  0
LINE
  8
_0-0_0
  6
CONTINUOUS
 62
    7
 10
-536.57214349999992
 20
1043.6499939999999
 11
-540.87219249999998
 21
1043.6499939999999
  0
LINE
  8
_0-0_0
  6
CONTINUOUS
 62
    7
 10
-536.07214350000004
 20
1044.1499940000001
 11
-536.07214350000004
 21
1045.9251100000001
  0
ARC
  8
_0-0_0
  6
CONTINUOUS
 62
    7
 10
-539.12011749999999
 20
1045.8689879999999
 40
3.0490550000000001
 50
1.0548960000000001
 51
14.838094000000002
  0
LINE
  8
_0-0_0
  6
CONTINUOUS
 62
    7
 10
-536.57214349999992
 20
1046.849976
 11
-540.93969750000008
 21
1046.849976
  0
LINE
  8
_0-0_0
  6
CONTINUOUS
 62
    7
 10
-541.07214349999992
 20
1046.9914249999999
 11
-541.07214349999992
 21
1047.3336789999998
  0
ARC
  8
_0-0_0
  6
CONTINUOUS
 62
    7
 10
-543.07214350000015
 20
1068.75
 40
2.2000000000000002
 50
179.99999099999999
 51
303.74900400000001
  0
LINE
  8
_0-0_0
  6
CONTINUOUS
 62
    7
 10
-545.27221650000001
 20
1069.75
 11
-545.27221650000001
 21
1068.75
  0
LINE
  8
_0-0_0
  6
CONTINUOUS
 62
    7
 10
-545.7722164999999
 20
1070.25
 11
-619.37219249999987
 21
1070.25
  0
LINE
  8
_0-0_0
  6
CONTINUOUS
 62
    7
 10
-619.8721925000001
 20
1068.75
 11
-619.8721925000001
 21
1069.75
  0
LINE
  8
_0-0_0
  6
CONTINUOUS
 62
    7
 10
-619.37219249999987
 20
1068.549988
 11
-619.37219249999987
 21
1068.75
  0
ARC
  8
_0-0_0
  6
CONTINUOUS
 62
    7
 10
-618.3721925000001
 20
1068.549988
 40
1
 50
90.000003000000007
 51
179.99999099999999
  0
LINE
  8
_0-0_0
  6
CONTINUOUS
 62
    7
 10
-618.3721925000001
 20
1069.549988
 11
-605.07214350000004
 21
1069.549988
  0
LINE
  8
_0-0_0
  6
CONTINUOUS
 62
    7
 10
-563.07214350000004
 20
1069.549988
 11
-549.07214350000015
 21
1069.549988
  0
ARC
  8
_0-0_0
  6
CONTINUOUS
 62
    7
 10
-549.07214350000015
 20
1066.549988
 40
3
 50
0
 51
90.000003000000007
  0
LINE
  8
_0-0_0
  6
CONTINUOUS
 62
    7
 10
-546.07214350000015
 20
1052.9499819999999
 11
-546.07214350000015
 21
1066.549988
  0
ARC
  8
_0-0_0
  6
CONTINUOUS
 62
    7
 10
-549.07214350000015
 20
1052.9499819999999
 40
3
 50
269.99999700000001
 51
0
  0
LINE
  8
_0-0_0
  6
CONTINUOUS
 62
    7
 10
-549.07214350000015
 20
1049.9499819999999
 11
-563.07214350000004
 21
1049.9499819999999
  0
LINE
  8
_0-0_0
  6
CONTINUOUS
 62
    7
 10
-605.07214350000004
 20
1049.9499819999999
 11
-619.07214349999992
 21
1049.9499819999999
  0
ARC
  8
_0-0_0
  6
CONTINUOUS
 62
    7
 10
-619.07214349999992
 20
1052.9499819999999
 40
3
 50
179.99999099999999
 51
269.99999700000001
  0
LINE
  8
_0-0_0
  6
CONTINUOUS
 62
    7
 10
-622.07214349999992
 20
1065.1876830000001
 11
-622.07214349999992
 21
1052.9499819999999
  0
ARC
  8
_0-0_0
  6
CONTINUOUS
 62
    7
 10
-621.07214350000015
 20
1065.1876830000001
 40
1
 50
105.68034800000001
 51
179.99999100000002
  0
ARC
  8
_0-0_0
  6
CONTINUOUS
 62
    7
 10
-629.02417050000008
 20
1068.0309750000001
 40
3.0490550000000001
 50
181.05489
 51
194.838089
  0
LINE
  8
_0-0_0
  6
CONTINUOUS
 62
    7
 10
-627.2045895
 20
1067.049988
 11
-631.57214350000015
 21
1067.049988
  0
LINE
  8
_0-0_0
  6
CONTINUOUS
 62
    7
 10
-627.07214350000015
 20
1046.9914249999999
 11
-627.07214350000015
 21
1047.096405
  0
LINE
  8
_0-0_0
  6
CONTINUOUS
 62
    7
 10
-627.2045895
 20
1046.849976
 11
-631.57214350000015
 21
1046.849976
  0
ARC
  8
_0-0_0
  6
CONTINUOUS
 62
    7
 10
-629.02307150000013
 20
1045.8683470000001
 40
3.050319
 50
165.15540799999999
 51
178.932897
  0
LINE
  8
_0-0_0
  6
CONTINUOUS
 62
    7
 10
-632.07214350000004
 20
1044.1499940000001
 11
-632.07214350000004
 21
1045.9251100000001
  0
LINE
  8
_0-0_0
  6
CONTINUOUS
 62
    7
 10
-627.27221650000013
 20
1043.6499939999999
 11
-631.57214350000015
 21
1043.6499939999999
  0
LINE
  8
_0-0_0
  6
CONTINUOUS
 62
    7
 10
-627.07214350000015
 20
1043.25
 11
-627.07214350000015
 21
1043.4499820000001
  0
LINE
  8
_0-0_0
  6
CONTINUOUS
 62
    7
 10
-627.07214350000015
 20
1043.25
 11
-626.57214349999992
 21
1043.25
  0
LINE
  8
_0-0_0
  6
CONTINUOUS
 62
    7
 10
-621.57214350000004
 20
1042.75
 11
-626.57214349999992
 21
1042.75
  0
ARC
  8
_0-0_0
  6
CONTINUOUS
 62
    7
 10
-621.57214350000004
 20
1043.25
 40
0.5
 50
269.99999700000001
 51
0
  0
LINE
  8
_0-0_0
  6
CONTINUOUS
 62
    7
 10
-631.75390649999997
 20
1067.049988
 11
-631.7742925
 21
1067.0509950000001
  0
LINE
  8
_0-0_0
  6
CONTINUOUS
 62
    7
 10
-631.7742925
 20
1067.0509950000001
 11
-631.79467750000003
 21
1067.054138
  0
LINE
  8
_0-0_0
  6
CONTINUOUS
 62
    7
 10
-631.79467750000003
 20
1067.054138
 11
-631.8215335000001
 21
1067.061737
  0
LINE
  8
_0-0_0
  6
CONTINUOUS
 62
    7
 10
-631.8215335000001
 20
1067.061737
 11
-631.84716849999984
 21
1067.07312
  0
LINE
  8
_0-0_0
  6
CONTINUOUS
 62
    7
 10
-631.84716849999984
 20
1067.07312
 11
-631.87097150000011
 21
1067.087982
  0
LINE
  8
_0-0_0
  6
CONTINUOUS
 62
    7
 10
-631.87097150000011
 20
1067.087982
 11
-631.88769550000018
 21
1067.1015009999999
  0
LINE
  8
_0-0_0
  6
CONTINUOUS
 62
    7
 10
-631.88769550000018
 20
1067.1015009999999
 11
-631.90319850000026
 21
1067.11673
  0
LINE
  8
_0-0_0
  6
CONTINUOUS
 62
    7
 10
-631.90319850000026
 20
1067.11673
 11
-631.93005350000033
 21
1067.1513669999999
  0
LINE
  8
_0-0_0
  6
CONTINUOUS
 62
    7
 10
-631.93005350000033
 20
1067.1513669999999
 11
-631.95117250000021
 21
1067.189697
  0
LINE
  8
_0-0_0
  6
CONTINUOUS
 62
    7
 10
-631.95117250000021
 20
1067.189697
 11
-631.96313450000002
 21
1067.2196349999999
  0
LINE
  8
_0-0_0
  6
CONTINUOUS
 62
    7
 10
-631.96313450000002
 20
1067.2196349999999
 11
-631.97216850000007
 21
1067.25
  0
LINE
  8
_0-0_0
  6
CONTINUOUS
 62
    7
 10
-632.06103549999978
 20
1067.75
 11
-639.07214350000015
 21
1067.75
  0
LINE
  8
_0-0_0
  6
CONTINUOUS
 62
    7
 10
-639.07214350000015
 20
1067.75
 11
-643.7476805
 21
1067.75
  0
LINE
  8
_0-0_0
  6
CONTINUOUS
 62
    7
 10
-639.07214350000015
 20
1067.75
 11
-639.07214350000015
 21
1065.75
  0
LINE
  8
_0-0_0
  6
CONTINUOUS
 62
    7
 10
-627.07214350000015
 20
1065.75
 11
-627.07214350000015
 21
1066.8035580000001
  0
ARC
  8
_0-0_0
  6
CONTINUOUS
 62
    7
 10
-528.07214350000015
 20
1068.9499820000001
 40
0.5
 50
269.99999700000001
 51
0
  0
ARC
  8
_0-0_0
  6
CONTINUOUS
 62
    7
 10
-540.57214350000004
 20
1069.75
 40
0.5
 50
90.000003000000007
 51
179.99999099999999
  0
LINE
  8
_0-0_0
  6
CONTINUOUS
 62
    7
 10
-541.07214349999992
 20
1068.9499820000001
 11
-541.07214349999992
 21
1069.75
  0
LINE
  8
_0-0_0
  6
CONTINUOUS
 62
    7
 10
-620.87219249999987
 20
1045.1328429999999
 11
-620.87219249999987
 21
1043.1499939999999
  0
LINE
  8
_0-0_0
  6
CONTINUOUS
 62
    7
 10
-620.87219249999987
 20
1043.1499939999999
 11
-619.8721925000001
 21
1043.1499939999999
  0
LINE
  8
_0-0_0
  6
CONTINUOUS
 62
    7
 10
-619.57214350000015
 20
1045.1499939999999
 11
-552.57214350000004
 21
1045.1499939999999
  0
LINE
  8
_0-0_0
  6
CONTINUOUS
 62
    7
 10
-619.8721925000001
 20
1043.1499939999999
 11
-552.27221650000013
 21
1043.1499939999999
  0
LINE
  8
_0-0_0
  6
CONTINUOUS
 62
    7
 10
-552.27221650000013
 20
1043.1499939999999
 11
-551.27221650000001
 21
1043.1499939999999
  0
LINE
  8
_0-0_0
  6
CONTINUOUS
 62
    7
 10
-551.27221650000001
 20
1045.1328429999999
 11
-551.27221650000001
 21
1043.1499939999999
  0
LINE
  8
_0-0_0
  6
CONTINUOUS
 62
    7
 10
-541.07214349999992
 20
1043.25
 11
-541.57214350000015
 21
1042.75
  0
ARC
  8
_0-0_0
  6
CONTINUOUS
 62
    7
 10
-540.87219249999998
 20
1043.4499820000001
 40
0.2
 50
90.000003000000007
 51
179.99999099999999
  0
ARC
  8
_0-0_0
  6
CONTINUOUS
 62
    7
 10
-536.57214349999992
 20
1044.1499940000001
 40
0.5
 50
269.99999700000001
 51
0
  0
LINE
  8
_0-0_0
  6
CONTINUOUS
 62
    7
 10
-536.39038050000011
 20
1046.849976
 11
-536.37011750000011
 21
1046.8489690000001
  0
LINE
  8
_0-0_0
  6
CONTINUOUS
 62
    7
 10
-536.37011750000011
 20
1046.8489690000001
 11
-536.34973150000008
 21
1046.8458249999999
  0
LINE
  8
_0-0_0
  6
CONTINUOUS
 62
    7
 10
-536.34973150000008
 20
1046.8458249999999
 11
-536.32287650000001
 21
1046.8382260000001
  0
LINE
  8
_0-0_0
  6
CONTINUOUS
 62
    7
 10
-536.32287650000001
 20
1046.8382260000001
 11
-536.29724149999993
 21
1046.8268740000001
  0
LINE
  8
_0-0_0
  6
CONTINUOUS
 62
    7
 10
-536.29724149999993
 20
1046.8268740000001
 11
-536.2734375
 21
1046.8119809999998
  0
LINE
  8
_0-0_0
  6
CONTINUOUS
 62
    7
 10
-536.2734375
 20
1046.8119809999998
 11
-536.25671349999993
 21
1046.798462
  0
LINE
  8
_0-0_0
  6
CONTINUOUS
 62
    7
 10
-536.25671349999993
 20
1046.798462
 11
-536.24121150000019
 21
1046.7832639999999
  0
LINE
  8
_0-0_0
  6
CONTINUOUS
 62
    7
 10
-536.24121150000019
 20
1046.7832639999999
 11
-536.21423350000009
 21
1046.7485959999999
  0
LINE
  8
_0-0_0
  6
CONTINUOUS
 62
    7
 10
-536.21423350000009
 20
1046.7485959999999
 11
-536.19323750000024
 21
1046.710266
  0
LINE
  8
_0-0_0
  6
CONTINUOUS
 62
    7
 10
-536.19323750000024
 20
1046.710266
 11
-536.18127450000009
 21
1046.680359
  0
LINE
  8
_0-0_0
  6
CONTINUOUS
 62
    7
 10
-536.18127450000009
 20
1046.680359
 11
-536.17211950000001
 21
1046.6499939999999
  0
LINE
  8
_0-0_0
  6
CONTINUOUS
 62
    7
 10
-536.39038050000011
 20
1046.849976
 11
-536.57214349999992
 21
1046.849976
  0
LINE
  8
_0-0_0
  6
CONTINUOUS
 62
    7
 10
-541.07214349999992
 20
1065.299988
 11
-541.07214349999992
 21
1067.799988
  0
LINE
  8
_0-0_0
  6
CONTINUOUS
 62
    7
 10
-541.07214349999992
 20
1065.299988
 11
-541.07214349999992
 21
1048.799988
  0
LINE
  8
_0-0_0
  6
CONTINUOUS
 62
    7
 10
-541.07214349999992
 20
1047.3336789999998
 11
-541.07214349999992
 21
1048.799988
  0
ARC
  8
_0-0_0
  6
CONTINUOUS
 62
    7
 10
-541.57214350000015
 20
1066.505005
 40
0.5
 50
0
 51
123.74898500000002
  0
ARC
  8
_0-0_0
  6
CONTINUOUS
 62
    7
 10
-540.90185550000012
 20
1047.023285
 40
0.1734229999999999
 50
181.12417600000003
 51
270.64883800000007
  0
LINE
  8
_0-0_0
  6
CONTINUOUS
 62
    7
 10
-541.07617250000033
 20
1047.049988
 11
-541.07617250000033
 21
1047.019867
  0
ARC
  8
_0-0_0
  6
CONTINUOUS
 62
    7
 10
-545.7722164999999
 20
1069.75
 40
0.5
 50
0
 51
90.000003000000007
  0
ARC
  8
_0-0_0
  6
CONTINUOUS
 62
    7
 10
-622.07214349999992
 20
1068.75
 40
2.7000000000000002
 50
285.68033600000007
 51
0.0000000000000381
  0
ARC
  8
_0-0_0
  6
CONTINUOUS
 62
    7
 10
-605.07214350000004
 20
1052.9499819999999
 40
3
 50
269.99999700000001
 51
0
  0
LINE
  8
_0-0_0
  6
CONTINUOUS
 62
    7
 10
-602.07214350000004
 20
1052.9499819999999
 11
-602.07214350000004
 21
1066.549988
  0
ARC
  8
_0-0_0
  6
CONTINUOUS
 62
    7
 10
-605.07214350000004
 20
1066.549988
 40
3
 50
0
 51
90.000003000000007
  0
ARC
  8
_0-0_0
  6
CONTINUOUS
 62
    7
 10
-609.57214350000004
 20
1062.25
 40
4.5
 50
269.99999700000001
 51
90.000002999999992
  0
LINE
  8
_0-0_0
  6
CONTINUOUS
 62
    7
 10
-609.57214350000004
 20
1057.75
 11
-614.57214349999992
 21
1057.75
  0
ARC
  8
_0-0_0
  6
CONTINUOUS
 62
    7
 10
-614.57214349999992
 20
1062.25
 40
4.5
 50
90.000003000000007
 51
269.99999700000006
  0
LINE
  8
_0-0_0
  6
CONTINUOUS
 62
    7
 10
-614.57214349999992
 20
1066.75
 11
-609.57214350000004
 21
1066.75
  0
ARC
  8
_0-0_0
  6
CONTINUOUS
 62
    7
 10
-563.07214350000004
 20
1052.9499819999999
 40
3
 50
179.99999099999999
 51
269.99999700000001
  0
LINE
  8
_0-0_0
  6
CONTINUOUS
 62
    7
 10
-566.07214350000004
 20
1066.549988
 11
-566.07214350000004
 21
1052.9499819999999
  0
ARC
  8
_0-0_0
  6
CONTINUOUS
 62
    7
 10
-563.07214350000004
 20
1066.549988
 40
3
 50
90.000003000000007
 51
179.99999099999999
  0
ARC
  8
_0-0_0
  6
CONTINUOUS
 62
    7
 10
-553.57214350000015
 20
1062.25
 40
4.5
 50
269.99999700000001
 51
90.000002999999992
  0
LINE
  8
_0-0_0
  6
CONTINUOUS
 62
    7
 10
-553.57214350000015
 20
1057.75
 11
-558.57214350000004
 21
1057.75
  0
ARC
  8
_0-0_0
  6
CONTINUOUS
 62
    7
 10
-558.57214350000004
 20
1062.25
 40
4.5
 50
90.000003000000007
 51
269.99999700000006
  0
LINE
  8
_0-0_0
  6
CONTINUOUS
 62
    7
 10
-558.57214350000004
 20
1066.75
 11
-553.57214350000015
 21
1066.75
  0
LINE
  8
_0-0_0
  6
CONTINUOUS
 62
    7
 10
-631.57214350000015
 20
1067.049988
 11
-631.75390649999997
 21
1067.049988
  0
LINE
  8
_0-0_0
  6
CONTINUOUS
 62
    7
 10
-627.07214350000015
 20
1065.75
 11
-627.07214350000015
 21
1048.1499939999999
  0
LINE
  8
_0-0_0
  6
CONTINUOUS
 62
    7
 10
-627.07214350000015
 20
1047.096405
 11
-627.07214350000015
 21
1048.1499939999999
  0
ARC
  8
_0-0_0
  6
CONTINUOUS
 62
    7
 10
-627.24243149999995
 20
1047.023285
 40
0.1734209999999999
 50
269.35085600000002
 51
358.87625300000002
  0
LINE
  8
_0-0_0
  6
CONTINUOUS
 62
    7
 10
-627.06811550000009
 20
1047.049988
 11
-627.06823750000012
 21
1047.019867
  0
LINE
  8
_0-0_0
  6
CONTINUOUS
 62
    7
 10
-627.06811550000009
 20
1066.849976
 11
-627.06823750000012
 21
1066.8801269999999
  0
ARC
  8
_0-0_0
  6
CONTINUOUS
 62
    7
 10
-627.24243149999995
 20
1066.8767089999999
 40
0.1734219999999999
 50
1.1236539999999999
 51
90.649110000000007
  0
LINE
  8
_0-0_0
  6
CONTINUOUS
 62
    7
 10
-631.57214350000015
 20
1046.849976
 11
-631.75390649999997
 21
1046.849976
  0
LINE
  8
_0-0_0
  6
CONTINUOUS
 62
    7
 10
-631.75390649999997
 20
1046.849976
 11
-631.7742925
 21
1046.8489690000001
  0
LINE
  8
_0-0_0
  6
CONTINUOUS
 62
    7
 10
-631.7742925
 20
1046.8489690000001
 11
-631.79467750000003
 21
1046.8458249999999
  0
LINE
  8
_0-0_0
  6
CONTINUOUS
 62
    7
 10
-631.79467750000003
 20
1046.8458249999999
 11
-631.8215335000001
 21
1046.8382260000001
  0
LINE
  8
_0-0_0
  6
CONTINUOUS
 62
    7
 10
-631.8215335000001
 20
1046.8382260000001
 11
-631.84716849999984
 21
1046.8268740000001
  0
LINE
  8
_0-0_0
  6
CONTINUOUS
 62
    7
 10
-631.84716849999984
 20
1046.8268740000001
 11
-631.87097150000011
 21
1046.8119809999998
  0
LINE
  8
_0-0_0
  6
CONTINUOUS
 62
    7
 10
-631.87097150000011
 20
1046.8119809999998
 11
-631.88769550000018
 21
1046.798462
  0
LINE
  8
_0-0_0
  6
CONTINUOUS
 62
    7
 10
-631.88769550000018
 20
1046.798462
 11
-631.90319850000026
 21
1046.7832639999999
  0
LINE
  8
_0-0_0
  6
CONTINUOUS
 62
    7
 10
-631.90319850000026
 20
1046.7832639999999
 11
-631.93005350000033
 21
1046.7485959999999
  0
LINE
  8
_0-0_0
  6
CONTINUOUS
 62
    7
 10
-631.93005350000033
 20
1046.7485959999999
 11
-631.95117250000021
 21
1046.710266
  0
LINE
  8
_0-0_0
  6
CONTINUOUS
 62
    7
 10
-631.95117250000021
 20
1046.710266
 11
-631.96313450000002
 21
1046.680359
  0
LINE
  8
_0-0_0
  6
CONTINUOUS
 62
    7
 10
-631.96313450000002
 20
1046.680359
 11
-631.97216850000007
 21
1046.6499939999999
  0
ARC
  8
_0-0_0
  6
CONTINUOUS
 62
    7
 10
-631.57214350000015
 20
1044.1499940000001
 40
0.5
 50
179.99999099999999
 51
269.99999700000001
  0
ARC
  8
_0-0_0
  6
CONTINUOUS
 62
    7
 10
-627.27221650000013
 20
1043.4499820000001
 40
0.2
 50
0
 51
90.000003000000007
  0
LINE
  8
_0-0_0
  6
CONTINUOUS
 62
    7
 10
-627.07214350000015
 20
1043.25
 11
-626.57214349999992
 21
1042.75
  0
ARC
  8
_0-0_0
  6
CONTINUOUS
 62
    7
 10
-643.7476805
 20
1065.75
 40
2
 50
90.000003000000007
 51
108.434997
  0
LINE
  8
_0-0_0
  6
CONTINUOUS
 62
    7
 10
-639.07214350000015
 20
1065.25
 11
-639.07214350000015
 21
1065.75
  0
LINE
  8
_0-0_0
  6
CONTINUOUS
 62
    7
 10
-639.07214350000015
 20
1062.25
 11
-639.07214350000015
 21
1061.75
  0
LINE
  8
_0-0_0
  6
CONTINUOUS
 62
    7
 10
-639.07214350000015
 20
1062.25
 11
-639.07214350000015
 21
1065.25
  0
ARC
  8
_0-0_0
  6
CONTINUOUS
 62
    7
 10
-633.07214350000015
 20
1062.4499820000001
 40
0.500016
 50
0.001164
 51
179.99560600000004
  0
LINE
  8
_0-0_0
  6
CONTINUOUS
 62
    7
 10
-633.57214350000004
 20
1062.4499820000001
 11
-633.57214350000004
 21
1050.4499820000001
  0
ARC
  8
_0-0_0
  6
CONTINUOUS
 62
    7
 10
-633.07214350000015
 20
1050.450012
 40
0.500016
 50
180.00117
 51
359.995611
  0
LINE
  8
_0-0_0
  6
CONTINUOUS
 62
    7
 10
-632.57214349999992
 20
1062.4499820000001
 11
-632.57214349999992
 21
1050.4499820000001
  0
ARC
  8
_0-0_0
  6
CONTINUOUS
 62
    7
 10
-634.57214350000015
 20
1062.4499820000001
 40
0.500016
 50
0.001164
 51
179.99560600000004
  0
LINE
  8
_0-0_0
  6
CONTINUOUS
 62
    7
 10
-635.07214350000004
 20
1062.4499820000001
 11
-635.07214350000004
 21
1050.4499820000001
  0
ARC
  8
_0-0_0
  6
CONTINUOUS
 62
    7
 10
-634.57214350000015
 20
1050.450012
 40
0.500016
 50
180.00117
 51
359.995611
  0
LINE
  8
_0-0_0
  6
CONTINUOUS
 62
    7
 10
-634.07214349999992
 20
1062.4499820000001
 11
-634.07214349999992
 21
1050.4499820000001
  0
ARC
  8
_0-0_0
  6
CONTINUOUS
 62
    7
 10
-636.07214350000015
 20
1062.4499820000001
 40
0.500016
 50
0.001164
 51
179.99560600000004
  0
LINE
  8
_0-0_0
  6
CONTINUOUS
 62
    7
 10
-636.57214350000004
 20
1062.4499820000001
 11
-636.57214350000004
 21
1050.4499820000001
  0
ARC
  8
_0-0_0
  6
CONTINUOUS
 62
    7
 10
-636.07214350000015
 20
1050.450012
 40
0.500016
 50
180.00117
 51
359.995611
  0
LINE
  8
_0-0_0
  6
CONTINUOUS
 62
    7
 10
-635.57214349999992
 20
1062.4499820000001
 11
-635.57214349999992
 21
1050.4499820000001
  0
ARC
  8
_0-0_0
  6
CONTINUOUS
 62
    7
 10
-637.57214350000015
 20
1062.4499820000001
 40
0.500016
 50
0.001164
 51
179.99560600000004
  0
LINE
  8
_0-0_0
  6
CONTINUOUS
 62
    7
 10
-638.07214350000004
 20
1062.4499820000001
 11
-638.07214350000004
 21
1050.4499820000001
  0
ARC
  8
_0-0_0
  6
CONTINUOUS
 62
    7
 10
-637.57214350000015
 20
1050.450012
 40
0.500016
 50
180.00117
 51
359.995611
  0
LINE
  8
_0-0_0
  6
CONTINUOUS
 62
    7
 10
-637.07214349999992
 20
1062.4499820000001
 11
-637.07214349999992
 21
1050.4499820000001
  0
LINE
  8
_0-0_0
  6
CONTINUOUS
 62
    7
 10
-541.07214349999992
 20
1068.4499820000001
 11
-540.57214350000004
 21
1068.4499820000001
  0
LINE
  8
_0-0_0
  6
CONTINUOUS
 62
    7
 10
-540.57214350000004
 20
1068.4499820000001
 11
-528.07214350000015
 21
1068.4499820000001
  0
ARC
  8
_0-0_0
  6
CONTINUOUS
 62
    7
 10
-540.57214350000004
 20
1068.9499820000001
 40
0.5
 50
179.99999099999999
 51
269.99999700000001
  0
LINE
  8
_0-0_0
  6
CONTINUOUS
 62
    7
 10
-541.07214349999992
 20
1068.0839539999999
 11
-541.07214349999992
 21
1068.4499820000001
  0
LINE
  8
_0-0_0
  6
CONTINUOUS
 62
    7
 10
-541.07214349999992
 20
1067.833466
 11
-541.07214349999992
 21
1067.799988
  0
LINE
  8
_0-0_0
  6
CONTINUOUS
 62
    7
 10
-541.07214349999992
 20
1068.0839539999999
 11
-541.07214349999992
 21
1067.833466
  0
CIRCLE
  8
_0-0_0
  6
CONTINUOUS
 62
    7
 10
-622.07214349999992
 20
1068.75
 40
1.4750000000000001
  0
CIRCLE
  8
_0-0_0
  6
CONTINUOUS
 62
    7
 10
-543.07214350000015
 20
1068.75
 40
1.4750000000000001
  0
LINE
  8
_0-0_0
  6
CONTINUOUS
 62
    7
 10
-541.07214349999992
 20
1043.099976
 11
-541.07214349999992
 21
1043.25
  0
LINE
  8
_0-0_0
  6
CONTINUOUS
 62
    7
 10
-535.57214350000015
 20
1043.099976
 11
-541.07214349999992
 21
1043.099976
  0
LINE
  8
_0-0_0
  6
CONTINUOUS
 62
    7
 10
-535.57214350000015
 20
1045.6499940000001
 11
-536.07214350000004
 21
1045.6499940000001
  0
LINE
  8
_0-0_0
  6
CONTINUOUS
 62
    7
 10
-540.57214350000004
 20
1068.299988
 11
-541.07214349999992
 21
1067.799988
  0
LINE
  8
_0-0_0
  6
CONTINUOUS
 62
    7
 10
-540.57214350000004
 20
1068.299988
 11
-535.57214350000015
 21
1068.299988
  0
LINE
  8
_0-0_0
  6
CONTINUOUS
 62
    7
 10
-632.06103549999978
 20
1046.1499939999999
 11
-643.7476805
 21
1046.1499939999999
  0
LINE
  8
_0-0_0
  6
CONTINUOUS
 62
    7
 10
-644.82214350000004
 20
1067.499969
 11
-644.38012750000007
 21
1067.6473390000001
  0
LINE
  8
_0-0_0
  6
CONTINUOUS
 62
    7
 10
-648.54650849999996
 20
1062.25
 11
-649.23986850000006
 21
1062.25
  0
LINE
  8
_0-0_0
  6
CONTINUOUS
 62
    7
 10
-648.54650849999996
 20
1062.25
 11
-644.22192350000012
 21
1062.25
  0
LINE
  8
_0-0_0
  6
CONTINUOUS
 62
    7
 10
-643.7476805
 20
1062.25
 11
-644.22192350000012
 21
1062.25
  0
LINE
  8
_0-0_0
  6
CONTINUOUS
 62
    7
 10
-639.07214350000015
 20
1062.25
 11
-643.7476805
 21
1062.25
  0
LINE
  8
_0-0_0
  6
CONTINUOUS
 62
    7
 10
-541.07214349999992
 20
1042.9535519999999
 11
-541.07214349999992
 21
1043.099976
  0
LINE
  8
_0-0_0
  6
CONTINUOUS
 62
    7
 10
-541.07214349999992
 20
1042.8964229999999
 11
-541.07214349999992
 21
1042.9535519999999
  0
LINE
  8
_0-0_0
  6
CONTINUOUS
 62
    7
 10
-541.07214349999992
 20
1042.75
 11
-541.07214349999992
 21
1042.8964229999999
  0
ARC
  8
_0-0_0
  6
CONTINUOUS
 62
    7
 10
-535.57214350000015
 20
1043.599976
 40
0.5
 50
269.99999700000001
 51
0
  0
LINE
  8
_0-0_0
  6
CONTINUOUS
 62
    7
 10
-535.07214349999992
 20
1045.1557010000001
 11
-535.07214349999992
 21
1043.599976
  0
ARC
  8
_0-0_0
  6
CONTINUOUS
 62
    7
 10
-535.55908250000005
 20
1045.1523440000001
 40
0.4869939999999999
 50
0.394923
 51
23.93947
  0
ARC
  8
_0-0_0
  6
CONTINUOUS
 62
    7
 10
-535.57214350000015
 20
1045.1499939999999
 40
0.5
 50
23.578231000000002
 51
90.000002999999992
  0
LINE
  8
_0-0_0
  6
CONTINUOUS
 62
    7
 10
-535.07214349999992
 20
1065.299988
 11
-535.07214349999992
 21
1067.799988
  0
ARC
  8
_0-0_0
  6
CONTINUOUS
 62
    7
 10
-535.57214350000015
 20
1067.799988
 40
0.5
 50
0
 51
90.000003000000007
  0
LINE
  8
_0-0_0
  6
CONTINUOUS
 62
    7
 10
-535.57214350000015
 20
1052
 11
-537.77221650000001
 21
1052
  0
LINE
  8
_0-0_0
  6
CONTINUOUS
 62
    7
 10
-535.07214349999992
 20
1065.299988
 11
-535.07214349999992
 21
1052.5
  0
LINE
  8
_0-0_0
  6
CONTINUOUS
 62
    7
 10
-538.07214349999992
 20
1051.6999820000001
 11
-538.07214349999992
 21
1049.121674
  0
LINE
  8
_0-0_0
  6
CONTINUOUS
 62
    7
 10
-608.10058650000019
 20
1058.1499939999999
 11
-616.04370150000011
 21
1058.1499939999999
  0
ARC
  8
_0-0_0
  6
CONTINUOUS
 62
    7
 10
-616.04370150000011
 20
1058.6499939999999
 40
0.5
 50
210.00000299999999
 51
269.99999700000001
  0
LINE
  8
_0-0_0
  6
CONTINUOUS
 62
    7
 10
-616.47668450000003
 20
1058.3999940000001
 11
-618.55517550000025
 21
1062
  0
ARC
  8
_0-0_0
  6
CONTINUOUS
 62
    7
 10
-618.12219249999998
 20
1062.25
 40
0.5
 50
149.99999700000001
 51
210.00000299999996
  0
LINE
  8
_0-0_0
  6
CONTINUOUS
 62
    7
 10
-618.55517550000025
 20
1062.5
 11
-616.47668450000003
 21
1066.099976
  0
ARC
  8
_0-0_0
  6
CONTINUOUS
 62
    7
 10
-616.04370150000011
 20
1065.849976
 40
0.5
 50
90.000003000000007
 51
149.99999700000001
  0
LINE
  8
_0-0_0
  6
CONTINUOUS
 62
    7
 10
-616.04370150000011
 20
1066.349976
 11
-608.10058650000019
 21
1066.349976
  0
ARC
  8
_0-0_0
  6
CONTINUOUS
 62
    7
 10
-608.10058650000019
 20
1065.849976
 40
0.5
 50
30.000001000000001
 51
90.000003000000007
  0
LINE
  8
_0-0_0
  6
CONTINUOUS
 62
    7
 10
-607.66760250000027
 20
1066.099976
 11
-605.58911150000006
 21
1062.5
  0
ARC
  8
_0-0_0
  6
CONTINUOUS
 62
    7
 10
-606.02221650000001
 20
1062.25
 40
0.5
 50
329.99998900000003
 51
30.000000999999983
  0
LINE
  8
_0-0_0
  6
CONTINUOUS
 62
    7
 10
-605.58911150000006
 20
1062
 11
-607.66760250000027
 21
1058.3999940000001
  0
ARC
  8
_0-0_0
  6
CONTINUOUS
 62
    7
 10
-608.10058650000019
 20
1058.6499939999999
 40
0.5
 50
269.99999700000001
 51
329.99998900000003
  0
ARC
  8
_0-0_0
  6
CONTINUOUS
 62
    7
 10
-560.10144050000008
 20
1058.75
 40
0.5
 50
210.00000299999999
 51
269.99999700000001
  0
LINE
  8
_0-0_0
  6
CONTINUOUS
 62
    7
 10
-560.5344235
 20
1058.5
 11
-562.55517550000002
 21
1062
  0
ARC
  8
_0-0_0
  6
CONTINUOUS
 62
    7
 10
-562.1221925000001
 20
1062.25
 40
0.5
 50
149.99999700000001
 51
210.00000299999996
  0
LINE
  8
_0-0_0
  6
CONTINUOUS
 62
    7
 10
-562.55517550000002
 20
1062.5
 11
-560.5344235
 21
1066
  0
ARC
  8
_0-0_0
  6
CONTINUOUS
 62
    7
 10
-560.10144050000008
 20
1065.75
 40
0.5
 50
90.000003000000007
 51
149.99999700000001
  0
LINE
  8
_0-0_0
  6
CONTINUOUS
 62
    7
 10
-560.10144050000008
 20
1066.25
 11
-552.04284650000011
 21
1066.25
  0
ARC
  8
_0-0_0
  6
CONTINUOUS
 62
    7
 10
-552.04284650000011
 20
1065.75
 40
0.5
 50
30.000001000000001
 51
90.000003000000007
  0
LINE
  8
_0-0_0
  6
CONTINUOUS
 62
    7
 10
-551.60986350000019
 20
1066
 11
-549.58911149999983
 21
1062.5
  0
ARC
  8
_0-0_0
  6
CONTINUOUS
 62
    7
 10
-550.02221650000013
 20
1062.25
 40
0.5
 50
329.99998900000003
 51
30.000000999999983
  0
LINE
  8
_0-0_0
  6
CONTINUOUS
 62
    7
 10
-549.58911149999983
 20
1062
 11
-551.60986350000019
 21
1058.5
  0
ARC
  8
_0-0_0
  6
CONTINUOUS
 62
    7
 10
-552.04284650000011
 20
1058.75
 40
0.5
 50
269.99999700000001
 51
329.99998900000003
  0
LINE
  8
_0-0_0
  6
CONTINUOUS
 62
    7
 10
-552.04284650000011
 20
1058.25
 11
-560.10144050000008
 21
1058.25
  0
LINE
  8
_0-0_0
  6
CONTINUOUS
 62
    7
 10
-644.38012750000007
 20
1046.2526250000001
 11
-644.2606205000003
 21
1046.2170100000001
  0
LINE
  8
_0-0_0
  6
CONTINUOUS
 62
    7
 10
-644.2606205000003
 20
1046.2170100000001
 11
-644.13903849999997
 21
1046.1891170000001
  0
LINE
  8
_0-0_0
  6
CONTINUOUS
 62
    7
 10
-644.13903849999997
 20
1046.1891170000001
 11
-644.01586949999989
 21
1046.169067
  0
LINE
  8
_0-0_0
  6
CONTINUOUS
 62
    7
 10
-644.01586949999989
 20
1046.169067
 11
-643.8917234999999
 21
1046.1569519999998
  0
LINE
  8
_0-0_0
  6
CONTINUOUS
 62
    7
 10
-643.8917234999999
 20
1046.1569519999998
 11
-643.76684550000004
 21
1046.152832
  0
LINE
  8
_0-0_0
  6
CONTINUOUS
 62
    7
 10
-643.76684550000004
 20
1046.152832
 11
-643.7476805
 21
1046.1528929999999
  0
ARC
  8
_0-0_0
  6
CONTINUOUS
 62
    7
 10
-643.7476805
 20
1048.1499939999999
 40
2
 50
251.56498899999997
 51
269.99999700000001
  0
LINE
  8
_0-0_0
  6
CONTINUOUS
 62
    7
 10
-650.07214350000004
 20
1063.000031
 11
-650.07214350000004
 21
1061.8789980000001
  0
LINE
  8
_0-0_0
  6
CONTINUOUS
 62
    7
 10
-621.87219249999998
 20
1067.6499939999999
 11
-622.2722164999999
 21
1067.6499939999999
  0
LINE
  8
_0-0_0
  6
CONTINUOUS
 62
    7
 10
-621.87219249999998
 20
1067.6499939999999
 11
-621.87219249999998
 21
1068.299988
  0
ARC
  8
_0-0_0
  6
CONTINUOUS
 62
    7
 10
-621.62219249999987
 20
1068.299988
 40
0.25
 50
90.000003000000007
 51
179.99999099999999
  0
LINE
  8
_0-0_0
  6
CONTINUOUS
 62
    7
 10
-621.62219249999987
 20
1068.549988
 11
-620.97216849999984
 21
1068.549988
  0
LINE
  8
_0-0_0
  6
CONTINUOUS
 62
    7
 10
-620.97216849999984
 20
1068.549988
 11
-620.97216849999984
 21
1068.9499820000001
  0
LINE
  8
_0-0_0
  6
CONTINUOUS
 62
    7
 10
-621.62219249999987
 20
1068.9499820000001
 11
-620.97216849999984
 21
1068.9499820000001
  0
ARC
  8
_0-0_0
  6
CONTINUOUS
 62
    7
 10
-621.62219249999987
 20
1069.1999820000001
 40
0.25
 50
179.99999099999999
 51
269.99999700000001
  0
LINE
  8
_0-0_0
  6
CONTINUOUS
 62
    7
 10
-621.87219249999998
 20
1069.849976
 11
-621.87219249999998
 21
1069.1999820000001
  0
LINE
  8
_0-0_0
  6
CONTINUOUS
 62
    7
 10
-621.87219249999998
 20
1069.849976
 11
-622.2722164999999
 21
1069.849976
  0
LINE
  8
_0-0_0
  6
CONTINUOUS
 62
    7
 10
-622.2722164999999
 20
1069.849976
 11
-622.2722164999999
 21
1069.1999820000001
  0
ARC
  8
_0-0_0
  6
CONTINUOUS
 62
    7
 10
-622.52221650000001
 20
1069.1999820000001
 40
0.25
 50
269.99999700000001
 51
0
  0
LINE
  8
_0-0_0
  6
CONTINUOUS
 62
    7
 10
-622.52221650000001
 20
1068.9499820000001
 11
-623.17224150000004
 21
1068.9499820000001
  0
LINE
  8
_0-0_0
  6
CONTINUOUS
 62
    7
 10
-623.17224150000004
 20
1068.549988
 11
-623.17224150000004
 21
1068.9499820000001
  0
LINE
  8
_0-0_0
  6
CONTINUOUS
 62
    7
 10
-622.52221650000001
 20
1068.549988
 11
-623.17224150000004
 21
1068.549988
  0
ARC
  8
_0-0_0
  6
CONTINUOUS
 62
    7
 10
-622.52221650000001
 20
1068.299988
 40
0.25
 50
0
 51
90.000003000000007
  0
LINE
  8
_0-0_0
  6
CONTINUOUS
 62
    7
 10
-622.2722164999999
 20
1067.6499939999999
 11
-622.2722164999999
 21
1068.299988
  0
LINE
  8
_0-0_0
  6
CONTINUOUS
 62
    7
 10
-542.87219249999987
 20
1067.6499939999999
 11
-543.27221650000013
 21
1067.6499939999999
  0
LINE
  8
_0-0_0
  6
CONTINUOUS
 62
    7
 10
-542.87219249999987
 20
1067.6499939999999
 11
-542.87219249999987
 21
1068.299988
  0
ARC
  8
_0-0_0
  6
CONTINUOUS
 62
    7
 10
-542.6221925000001
 20
1068.299988
 40
0.25
 50
90.000003000000007
 51
179.99999099999999
  0
LINE
  8
_0-0_0
  6
CONTINUOUS
 62
    7
 10
-542.6221925000001
 20
1068.549988
 11
-541.97216850000007
 21
1068.549988
  0
LINE
  8
_0-0_0
  6
CONTINUOUS
 62
    7
 10
-541.97216850000007
 20
1068.549988
 11
-541.97216850000007
 21
1068.9499820000001
  0
LINE
  8
_0-0_0
  6
CONTINUOUS
 62
    7
 10
-542.6221925000001
 20
1068.9499820000001
 11
-541.97216850000007
 21
1068.9499820000001
  0
ARC
  8
_0-0_0
  6
CONTINUOUS
 62
    7
 10
-542.6221925000001
 20
1069.1999820000001
 40
0.25
 50
179.99999099999999
 51
269.99999700000001
  0
LINE
  8
_0-0_0
  6
CONTINUOUS
 62
    7
 10
-542.87219249999987
 20
1069.849976
 11
-542.87219249999987
 21
1069.1999820000001
  0
LINE
  8
_0-0_0
  6
CONTINUOUS
 62
    7
 10
-542.87219249999987
 20
1069.849976
 11
-543.27221650000013
 21
1069.849976
  0
LINE
  8
_0-0_0
  6
CONTINUOUS
 62
    7
 10
-543.27221650000013
 20
1069.849976
 11
-543.27221650000013
 21
1069.1999820000001
  0
ARC
  8
_0-0_0
  6
CONTINUOUS
 62
    7
 10
-543.5222164999999
 20
1069.1999820000001
 40
0.25
 50
269.99999700000001
 51
0
  0
LINE
  8
_0-0_0
  6
CONTINUOUS
 62
    7
 10
-543.5222164999999
 20
1068.9499820000001
 11
-544.17211949999989
 21
1068.9499820000001
  0
LINE
  8
_0-0_0
  6
CONTINUOUS
 62
    7
 10
-544.17211949999989
 20
1068.549988
 11
-544.17211949999989
 21
1068.9499820000001
  0
LINE
  8
_0-0_0
  6
CONTINUOUS
 62
    7
 10
-543.5222164999999
 20
1068.549988
 11
-544.17211949999989
 21
1068.549988
  0
ARC
  8
_0-0_0
  6
CONTINUOUS
 62
    7
 10
-543.5222164999999
 20
1068.299988
 40
0.25
 50
0
 51
90.000003000000007
  0
LINE
  8
_0-0_0
  6
CONTINUOUS
 62
    7
 10
-543.27221650000013
 20
1067.6499939999999
 11
-543.27221650000013
 21
1068.299988
  0
LINE
  8
_0-0_0
  6
CONTINUOUS
 62
    7
 10
-535.57214350000015
 20
1042.75
 11
-541.07214349999992
 21
1042.75
  0
LINE
  8
_0-0_0
  6
CONTINUOUS
 62
    7
 10
-535.07214349999992
 20
1049
 11
-535.07214349999992
 21
1052.5
  0
LINE
  8
_0-0_0
  6
CONTINUOUS
 62
    7
 10
-535.07214349999992
 20
1049
 11
-535.07214349999992
 21
1048.6499940000001
  0
LINE
  8
_0-0_0
  6
CONTINUOUS
 62
    7
 10
-535.07214349999992
 20
1045.1557010000001
 11
-535.07214349999992
 21
1048.6499940000001
  0
LINE
  8
_0-0_0
  6
CONTINUOUS
 62
    7
 10
-535.07214349999992
 20
1043.307098
 11
-535.07214349999992
 21
1043.599976
  0
LINE
  8
_0-0_0
  6
CONTINUOUS
 62
    7
 10
-535.07214349999992
 20
1043.307098
 11
-535.07214349999992
 21
1043.25
  0
LINE
  8
_0-0_0
  6
CONTINUOUS
 62
    7
 10
-538.07214349999992
 20
1047.571289
 11
-538.07214349999992
 21
1049.121674
  0
LINE
  8
_0-0_0
  6
CONTINUOUS
 62
    7
 10
-538.07214349999992
 20
1046.850128
 11
-538.07214349999992
 21
1047.571289
  0
ARC
  8
_0-0_0
  6
CONTINUOUS
 62
    7
 10
-535.57214350000015
 20
1052.5
 40
0.5
 50
269.99999700000001
 51
0
  0
ARC
  8
_0-0_0
  6
CONTINUOUS
 62
    7
 10
-537.77221650000001
 20
1051.6999820000001
 40
0.2999999999999999
 50
90.000003000000007
 51
179.99999099999999
  0
LINE
  8
_0-0_0
  6
CONTINUOUS
 62
    7
 10
-648.70458950000022
 20
1047.6941529999999
 11
-644.38012750000007
 21
1046.2526250000001
  0
LINE
  8
_0-0_0
  6
CONTINUOUS
 62
    7
 10
-650.07214350000004
 20
1049.591492
 11
-650.07214350000004
 21
1052.9422910000001
  0
LINE
  8
_0-0_0
  6
CONTINUOUS
 62
    7
 10
-650.07214350000004
 20
1060.957672
 11
-650.07214350000004
 21
1061.8789980000001
  0
ARC
  8
_0-0_0
  6
CONTINUOUS
 62
    7
 10
-648.07214350000015
 20
1049.591492
 40
2
 50
179.99999099999999
 51
251.56498899999997
  0
LINE
  8
_0-0_0
  6
CONTINUOUS
 62
    7
 10
-665.07214350000004
 20
1066.4754330000001
 11
-665.07214350000004
 21
1066.3287049999999
  0
LINE
  8
_0-0_0
  6
CONTINUOUS
 62
    7
 10
-665.07214350000004
 20
1066.6659549999999
 11
-665.07214350000004
 21
1066.4754330000001
  0
LINE
  8
_0-0_0
  6
CONTINUOUS
 62
    7
 10
-665.07214350000004
 20
1066.8409729999998
 11
-665.07214350000004
 21
1066.6659549999999
  0
LINE
  8
_0-0_0
  6
CONTINUOUS
 62
    7
 10
-665.07214350000004
 20
1066.998566
 11
-665.07214350000004
 21
1066.8409729999998
  0
LINE
  8
_0-0_0
  6
CONTINUOUS
 62
    7
 10
-665.07214350000004
 20
1067.1369930000001
 11
-665.07214350000004
 21
1066.998566
  0
LINE
  8
_0-0_0
  6
CONTINUOUS
 62
    7
 10
-665.07214350000004
 20
1067.2547609999999
 11
-665.07214350000004
 21
1067.1369930000001
  0
LINE
  8
_0-0_0
  6
CONTINUOUS
 62
    7
 10
-665.07214350000004
 20
1067.3505249999998
 11
-665.07214350000004
 21
1067.2547609999999
  0
LINE
  8
_0-0_0
  6
CONTINUOUS
 62
    7
 10
-665.07214350000004
 20
1067.423309
 11
-665.07214350000004
 21
1067.3505249999998
  0
LINE
  8
_0-0_0
  6
CONTINUOUS
 62
    7
 10
-665.07214350000004
 20
1067.4722899999999
 11
-665.07214350000004
 21
1067.423309
  0
LINE
  8
_0-0_0
  6
CONTINUOUS
 62
    7
 10
-665.07214350000004
 20
1067.496887
 11
-665.07214350000004
 21
1067.4722899999999
  0
LINE
  8
_0-0_0
  6
CONTINUOUS
 62
    7
 10
-665.07214350000004
 20
1067.5
 11
-665.07214350000004
 21
1067.496887
  0
LINE
  8
_0-0_0
  6
CONTINUOUS
 62
    7
 10
-665.07214350000004
 20
1063.003052
 11
-665.07214350000004
 21
1063
  0
LINE
  8
_0-0_0
  6
CONTINUOUS
 62
    7
 10
-665.07214350000004
 20
1063.027679
 11
-665.07214350000004
 21
1063.003052
  0
LINE
  8
_0-0_0
  6
CONTINUOUS
 62
    7
 10
-665.07214350000004
 20
1063.0766599999999
 11
-665.07214350000004
 21
1063
  0
LINE
  8
_0-0_0
  6
CONTINUOUS
 62
    7
 10
-665.07214350000004
 20
1063.149414
 11
-665.07214350000004
 21
1063.0766599999999
  0
LINE
  8
_0-0_0
  6
CONTINUOUS
 62
    7
 10
-665.07214350000004
 20
1063.2452090000002
 11
-665.07214350000004
 21
1063.149414
  0
LINE
  8
_0-0_0
  6
CONTINUOUS
 62
    7
 10
-665.07214350000004
 20
1063.2754210000001
 11
-665.07214350000004
 21
1063.2452090000002
  0
LINE
  8
_0-0_0
  6
CONTINUOUS
 62
    7
 10
-665.07214350000004
 20
1063.3629759999999
 11
-665.07214350000004
 21
1063.2754210000001
  0
LINE
  8
_0-0_0
  6
CONTINUOUS
 62
    7
 10
-665.07214350000004
 20
1063.5014040000001
 11
-665.07214350000004
 21
1063.3629759999999
  0
LINE
  8
_0-0_0
  6
CONTINUOUS
 62
    7
 10
-665.07214350000004
 20
1063.658997
 11
-665.07214350000004
 21
1063.5014040000001
  0
LINE
  8
_0-0_0
  6
CONTINUOUS
 62
    7
 10
-665.07214350000004
 20
1063.8340149999999
 11
-665.07214350000004
 21
1063.658997
  0
LINE
  8
_0-0_0
  6
CONTINUOUS
 62
    7
 10
-665.07214350000004
 20
1064.0245359999999
 11
-665.07214350000004
 21
1063.8340149999999
  0
LINE
  8
_0-0_0
  6
CONTINUOUS
 62
    7
 10
-665.07214350000004
 20
1064.2285160000001
 11
-665.07214350000004
 21
1064.0245359999999
  0
LINE
  8
_0-0_0
  6
CONTINUOUS
 62
    7
 10
-665.07214350000004
 20
1064.443665
 11
-665.07214350000004
 21
1064.2285160000001
  0
LINE
  8
_0-0_0
  6
CONTINUOUS
 62
    7
 10
-665.07214350000004
 20
1064.667633
 11
-665.07214350000004
 21
1064.443665
  0
LINE
  8
_0-0_0
  6
CONTINUOUS
 62
    7
 10
-665.07214350000004
 20
1064.8980099999999
 11
-665.07214350000004
 21
1064.667633
  0
LINE
  8
_0-0_0
  6
CONTINUOUS
 62
    7
 10
-665.07214350000004
 20
1065.132233
 11
-665.07214350000004
 21
1064.8980099999999
  0
LINE
  8
_0-0_0
  6
CONTINUOUS
 62
    7
 10
-665.07214350000004
 20
1065.367737
 11
-665.07214350000004
 21
1065.132233
  0
LINE
  8
_0-0_0
  6
CONTINUOUS
 62
    7
 10
-665.07214350000004
 20
1065.6019590000001
 11
-665.07214350000004
 21
1065.367737
  0
LINE
  8
_0-0_0
  6
CONTINUOUS
 62
    7
 10
-665.07214350000004
 20
1065.8323359999999
 11
-665.07214350000004
 21
1065.6019590000001
  0
LINE
  8
_0-0_0
  6
CONTINUOUS
 62
    7
 10
-665.07214350000004
 20
1066.0563050000001
 11
-665.07214350000004
 21
1065.8323359999999
  0
LINE
  8
_0-0_0
  6
CONTINUOUS
 62
    7
 10
-665.07214350000004
 20
1066.2714539999999
 11
-665.07214350000004
 21
1066.0563050000001
  0
LINE
  8
_0-0_0
  6
CONTINUOUS
 62
    7
 10
-665.07214350000004
 20
1066.3287049999999
 11
-665.07214350000004
 21
1066.2714539999999
  0
LINE
  8
_0-0_0
  6
CONTINUOUS
 62
    7
 10
-649.77221650000013
 20
1059.161987
 11
-649.8309324999999
 21
1059.408813
  0
LINE
  8
_0-0_0
  6
CONTINUOUS
 62
    7
 10
-649.8309324999999
 20
1059.408813
 11
-649.88073750000001
 21
1059.6011349999999
  0
LINE
  8
_0-0_0
  6
CONTINUOUS
 62
    7
 10
-649.88073750000001
 20
1059.6011349999999
 11
-649.95190450000007
 21
1059.866943
  0
LINE
  8
_0-0_0
  6
CONTINUOUS
 62
    7
 10
-649.95190450000007
 20
1059.866943
 11
-649.98486350000007
 21
1059.9936519999999
  0
LINE
  8
_0-0_0
  6
CONTINUOUS
 62
    7
 10
-649.98486350000007
 20
1059.9936519999999
 11
-650.01013150000006
 21
1060.097076
  0
LINE
  8
_0-0_0
  6
CONTINUOUS
 62
    7
 10
-650.01013150000006
 20
1060.097076
 11
-650.03210450000017
 21
1060.1970209999999
  0
LINE
  8
_0-0_0
  6
CONTINUOUS
 62
    7
 10
-650.03210450000017
 20
1060.1970209999999
 11
-650.05346650000013
 21
1060.3147280000001
  0
LINE
  8
_0-0_0
  6
CONTINUOUS
 62
    7
 10
-650.05346650000013
 20
1060.3147280000001
 11
-650.06213350000007
 21
1060.3768620000001
  0
LINE
  8
_0-0_0
  6
CONTINUOUS
 62
    7
 10
-650.06213350000007
 20
1060.3768620000001
 11
-650.06811550000032
 21
1060.437469
  0
LINE
  8
_0-0_0
  6
CONTINUOUS
 62
    7
 10
-650.06811550000032
 20
1060.437469
 11
-650.07116750000012
 21
1060.4866939999999
  0
LINE
  8
_0-0_0
  6
CONTINUOUS
 62
    7
 10
-650.07116750000012
 20
1060.4866939999999
 11
-650.07214350000004
 21
1060.5349120000001
  0
LINE
  8
_0-0_0
  6
CONTINUOUS
 62
    7
 10
-649.77221650000013
 20
1054.7379759999999
 11
-649.68872050000016
 21
1055.116638
  0
LINE
  8
_0-0_0
  6
CONTINUOUS
 62
    7
 10
-649.68872050000016
 20
1055.116638
 11
-649.64868149999995
 21
1055.3081669999999
  0
LINE
  8
_0-0_0
  6
CONTINUOUS
 62
    7
 10
-649.64868149999995
 20
1055.3081669999999
 11
-649.59252950000018
 21
1055.5982059999999
  0
LINE
  8
_0-0_0
  6
CONTINUOUS
 62
    7
 10
-649.59252950000018
 20
1055.5982059999999
 11
-649.55493149999995
 21
1055.8177799999999
  0
LINE
  8
_0-0_0
  6
CONTINUOUS
 62
    7
 10
-649.55493149999995
 20
1055.8177799999999
 11
-649.52233850000005
 21
1056.0390320000001
  0
LINE
  8
_0-0_0
  6
CONTINUOUS
 62
    7
 10
-649.52233850000005
 20
1056.0390320000001
 11
-649.49511750000022
 21
1056.2658390000001
  0
LINE
  8
_0-0_0
  6
CONTINUOUS
 62
    7
 10
-649.49511750000022
 20
1056.2658390000001
 11
-649.47509750000029
 21
1056.4932249999999
  0
LINE
  8
_0-0_0
  6
CONTINUOUS
 62
    7
 10
-649.47509750000029
 20
1056.4932249999999
 11
-649.46789550000005
 21
1056.6069640000001
  0
LINE
  8
_0-0_0
  6
CONTINUOUS
 62
    7
 10
-649.46789550000005
 20
1056.6069640000001
 11
-649.46276850000004
 21
1056.720642
  0
LINE
  8
_0-0_0
  6
CONTINUOUS
 62
    7
 10
-649.46276850000004
 20
1056.720642
 11
-649.45898450000004
 21
1056.8720699999999
  0
LINE
  8
_0-0_0
  6
CONTINUOUS
 62
    7
 10
-649.45898450000004
 20
1056.8720699999999
 11
-649.45898450000004
 21
1057.0233150000001
  0
LINE
  8
_0-0_0
  6
CONTINUOUS
 62
    7
 10
-649.45898450000004
 20
1057.0233150000001
 11
-649.46252450000031
 21
1057.174377
  0
LINE
  8
_0-0_0
  6
CONTINUOUS
 62
    7
 10
-649.46252450000031
 20
1057.174377
 11
-649.47204650000015
 21
1057.3629149999999
  0
LINE
  8
_0-0_0
  6
CONTINUOUS
 62
    7
 10
-649.47204650000015
 20
1057.3629149999999
 11
-649.48693850000006
 21
1057.5511780000002
  0
LINE
  8
_0-0_0
  6
CONTINUOUS
 62
    7
 10
-649.48693850000006
 20
1057.5511780000002
 11
-649.5068365000003
 21
1057.7391050000001
  0
LINE
  8
_0-0_0
  6
CONTINUOUS
 62
    7
 10
-649.5068365000003
 20
1057.7391050000001
 11
-649.52319350000027
 21
1057.8679809999999
  0
LINE
  8
_0-0_0
  6
CONTINUOUS
 62
    7
 10
-649.52319350000027
 20
1057.8679809999999
 11
-649.54162649999978
 21
1057.9966429999999
  0
LINE
  8
_0-0_0
  6
CONTINUOUS
 62
    7
 10
-649.54162649999978
 20
1057.9966429999999
 11
-649.56579650000015
 21
1058.1485600000001
  0
LINE
  8
_0-0_0
  6
CONTINUOUS
 62
    7
 10
-649.56579650000015
 20
1058.1485600000001
 11
-649.59216350000008
 21
1058.299927
  0
LINE
  8
_0-0_0
  6
CONTINUOUS
 62
    7
 10
-649.59216350000008
 20
1058.299927
 11
-649.64843749999989
 21
1058.5905459999999
  0
LINE
  8
_0-0_0
  6
CONTINUOUS
 62
    7
 10
-649.64843749999989
 20
1058.5905459999999
 11
-649.68859849999978
 21
1058.7825010000001
  0
LINE
  8
_0-0_0
  6
CONTINUOUS
 62
    7
 10
-649.68859849999978
 20
1058.7825010000001
 11
-649.77221650000013
 21
1059.161987
  0
LINE
  8
_0-0_0
  6
CONTINUOUS
 62
    7
 10
-649.77221650000013
 20
1054.7379759999999
 11
-649.8309324999999
 21
1054.491119
  0
LINE
  8
_0-0_0
  6
CONTINUOUS
 62
    7
 10
-649.8309324999999
 20
1054.491119
 11
-649.88073750000001
 21
1054.298798
  0
LINE
  8
_0-0_0
  6
CONTINUOUS
 62
    7
 10
-649.88073750000001
 20
1054.298798
 11
-649.95190450000007
 21
1054.0330510000001
  0
LINE
  8
_0-0_0
  6
CONTINUOUS
 62
    7
 10
-649.95190450000007
 20
1054.0330510000001
 11
-649.98486350000007
 21
1053.906342
  0
LINE
  8
_0-0_0
  6
CONTINUOUS
 62
    7
 10
-649.98486350000007
 20
1053.906342
 11
-650.01013150000006
 21
1053.802917
  0
LINE
  8
_0-0_0
  6
CONTINUOUS
 62
    7
 10
-650.01013150000006
 20
1053.802917
 11
-650.03210450000017
 21
1053.7029419999999
  0
LINE
  8
_0-0_0
  6
CONTINUOUS
 62
    7
 10
-650.03210450000017
 20
1053.7029419999999
 11
-650.05346650000013
 21
1053.5852360000001
  0
LINE
  8
_0-0_0
  6
CONTINUOUS
 62
    7
 10
-650.05346650000013
 20
1053.5852360000001
 11
-650.06213350000007
 21
1053.5231020000001
  0
LINE
  8
_0-0_0
  6
CONTINUOUS
 62
    7
 10
-650.06213350000007
 20
1053.5231020000001
 11
-650.06811550000032
 21
1053.4624939999999
  0
LINE
  8
_0-0_0
  6
CONTINUOUS
 62
    7
 10
-650.06811550000032
 20
1053.4624939999999
 11
-650.07116750000012
 21
1053.4132690000001
  0
LINE
  8
_0-0_0
  6
CONTINUOUS
 62
    7
 10
-650.07116750000012
 20
1053.4132690000001
 11
-650.07214350000004
 21
1053.365051
  0
ARC
  8
_0-0_0
  6
CONTINUOUS
 62
    7
 10
-535.57214350000015
 20
1043.25
 40
0.5
 50
269.99999700000001
 51
0
  0
LINE
  8
_0-0_0
  6
CONTINUOUS
 62
    7
 10
-535.61645550000014
 20
1047.571289
 11
-535.61645550000014
 21
1050.8999940000001
  0
LINE
  8
_0-0_0
  6
CONTINUOUS
 62
    7
 10
-535.61645550000014
 20
1046.3999940000001
 11
-535.61645550000014
 21
1047.571289
  0
CIRCLE
  8
_0-0_0
  6
CONTINUOUS
 62
    7
 10
-612.07214350000015
 20
1062.25
 40
2.5
  0
CIRCLE
  8
_0-0_0
  6
CONTINUOUS
 62
    7
 10
-556.07214349999992
 20
1062.25
 40
2.5
  0
LINE
  8
_0-0_0
  6
CONTINUOUS
 62
    7
 10
-650.07214350000004
 20
1053.0576780000001
 11
-659.7800295000003
 21
1053.0576780000001
  0
LINE
  8
_0-0_0
  6
CONTINUOUS
 62
    7
 10
-659.7800295000003
 20
1050.4499820000001
 11
-659.83447250000029
 21
1050.5199280000002
  0
LINE
  8
_0-0_0
  6
CONTINUOUS
 62
    7
 10
-659.83447250000029
 20
1050.5199280000002
 11
-659.88562050000007
 21
1050.588745
  0
LINE
  8
_0-0_0
  6
CONTINUOUS
 62
    7
 10
-659.88562050000007
 20
1050.588745
 11
-659.93322750000027
 21
1050.65625
  0
LINE
  8
_0-0_0
  6
CONTINUOUS
 62
    7
 10
-659.93322750000027
 20
1050.65625
 11
-659.97778349999999
 21
1050.7228089999999
  0
LINE
  8
_0-0_0
  6
CONTINUOUS
 62
    7
 10
-659.97778349999999
 20
1050.7228089999999
 11
-660.03247050000004
 21
1050.8103329999999
  0
LINE
  8
_0-0_0
  6
CONTINUOUS
 62
    7
 10
-660.03247050000004
 20
1050.8103329999999
 11
-660.08190950000005
 21
1050.8964539999999
  0
LINE
  8
_0-0_0
  6
CONTINUOUS
 62
    7
 10
-660.08190950000005
 20
1050.8964539999999
 11
-660.12646450000011
 21
1050.981262
  0
LINE
  8
_0-0_0
  6
CONTINUOUS
 62
    7
 10
-660.12646450000011
 20
1050.981262
 11
-660.17333950000011
 21
1051.081604
  0
LINE
  8
_0-0_0
  6
CONTINUOUS
 62
    7
 10
-660.17333950000011
 20
1051.081604
 11
-660.21362350000004
 21
1051.180511
  0
LINE
  8
_0-0_0
  6
CONTINUOUS
 62
    7
 10
-660.21362350000004
 20
1051.180511
 11
-660.2473144999999
 21
1051.2782589999999
  0
LINE
  8
_0-0_0
  6
CONTINUOUS
 62
    7
 10
-660.2473144999999
 20
1051.2782589999999
 11
-660.27453650000007
 21
1051.375092
  0
LINE
  8
_0-0_0
  6
CONTINUOUS
 62
    7
 10
-660.27453650000007
 20
1051.375092
 11
-660.2956545000003
 21
1051.4711300000001
  0
LINE
  8
_0-0_0
  6
CONTINUOUS
 62
    7
 10
-660.2956545000003
 20
1051.4711300000001
 11
-660.31152350000013
 21
1051.5749820000001
  0
LINE
  8
_0-0_0
  6
CONTINUOUS
 62
    7
 10
-660.31152350000013
 20
1051.5749820000001
 11
-660.32031250000011
 21
1051.678406
  0
LINE
  8
_0-0_0
  6
CONTINUOUS
 62
    7
 10
-660.32031250000011
 20
1051.678406
 11
-660.3218995000002
 21
1051.781647
  0
LINE
  8
_0-0_0
  6
CONTINUOUS
 62
    7
 10
-660.3218995000002
 20
1051.781647
 11
-660.31640650000008
 21
1051.884949
  0
LINE
  8
_0-0_0
  6
CONTINUOUS
 62
    7
 10
-660.31640650000008
 20
1051.884949
 11
-660.30383350000011
 21
1051.988525
  0
LINE
  8
_0-0_0
  6
CONTINUOUS
 62
    7
 10
-660.30383350000011
 20
1051.988525
 11
-660.2840574999999
 21
1052.092682
  0
LINE
  8
_0-0_0
  6
CONTINUOUS
 62
    7
 10
-660.2840574999999
 20
1052.092682
 11
-660.25683650000008
 21
1052.1976320000001
  0
LINE
  8
_0-0_0
  6
CONTINUOUS
 62
    7
 10
-660.25683650000008
 20
1052.1976320000001
 11
-660.22229049999999
 21
1052.30368
  0
LINE
  8
_0-0_0
  6
CONTINUOUS
 62
    7
 10
-660.22229049999999
 20
1052.30368
 11
-660.17993150000018
 21
1052.4110409999998
  0
LINE
  8
_0-0_0
  6
CONTINUOUS
 62
    7
 10
-660.17993150000018
 20
1052.4110409999998
 11
-660.12951650000025
 21
1052.5200500000001
  0
LINE
  8
_0-0_0
  6
CONTINUOUS
 62
    7
 10
-660.12951650000025
 20
1052.5200500000001
 11
-660.07531749999998
 21
1052.6231989999999
  0
LINE
  8
_0-0_0
  6
CONTINUOUS
 62
    7
 10
-660.07531749999998
 20
1052.6231989999999
 11
-660.0136725000001
 21
1052.728241
  0
LINE
  8
_0-0_0
  6
CONTINUOUS
 62
    7
 10
-660.0136725000001
 20
1052.728241
 11
-659.94409150000013
 21
1052.83548
  0
LINE
  8
_0-0_0
  6
CONTINUOUS
 62
    7
 10
-659.94409150000013
 20
1052.83548
 11
-659.8663335
 21
1052.9451900000001
  0
LINE
  8
_0-0_0
  6
CONTINUOUS
 62
    7
 10
-659.8663335
 20
1052.9451900000001
 11
-659.7800295000003
 21
1053.0576780000001
  0
LINE
  8
_0-0_0
  6
CONTINUOUS
 62
    7
 10
-650.07214350000004
 20
1050.4499820000001
 11
-659.7800295000003
 21
1050.4499820000001
  0
LINE
  8
_0-0_0
  6
CONTINUOUS
 62
    7
 10
-650.07214350000004
 20
1052.9422910000001
 11
-650.07214350000004
 21
1053.0576780000001
  0
LINE
  8
_0-0_0
  6
CONTINUOUS
 62
    7
 10
-659.82214350000004
 20
1050.4499820000001
 11
-659.7800295000003
 21
1050.4499820000001
  0
LINE
  8
_0-0_0
  6
CONTINUOUS
 62
    7
 10
-650.07214350000004
 20
1060.8422850000002
 11
-659.7800295000003
 21
1060.8422850000002
  0
LINE
  8
_0-0_0
  6
CONTINUOUS
 62
    7
 10
-650.07214350000004
 20
1060.957672
 11
-650.07214350000004
 21
1060.8422850000002
  0
LINE
  8
_0-0_0
  6
CONTINUOUS
 62
    7
 10
-659.7800295000003
 20
1060.8422850000002
 11
-659.83447250000029
 21
1060.912231
  0
LINE
  8
_0-0_0
  6
CONTINUOUS
 62
    7
 10
-659.83447250000029
 20
1060.912231
 11
-659.88562050000007
 21
1060.981049
  0
LINE
  8
_0-0_0
  6
CONTINUOUS
 62
    7
 10
-659.88562050000007
 20
1060.981049
 11
-659.93322750000027
 21
1061.0485530000001
  0
LINE
  8
_0-0_0
  6
CONTINUOUS
 62
    7
 10
-659.93322750000027
 20
1061.0485530000001
 11
-659.97778349999999
 21
1061.115112
  0
LINE
  8
_0-0_0
  6
CONTINUOUS
 62
    7
 10
-659.97778349999999
 20
1061.115112
 11
-660.03247050000004
 21
1061.2026370000001
  0
LINE
  8
_0-0_0
  6
CONTINUOUS
 62
    7
 10
-660.03247050000004
 20
1061.2026370000001
 11
-660.08190950000005
 21
1061.288757
  0
LINE
  8
_0-0_0
  6
CONTINUOUS
 62
    7
 10
-660.08190950000005
 20
1061.288757
 11
-660.12646450000011
 21
1061.3735959999999
  0
LINE
  8
_0-0_0
  6
CONTINUOUS
 62
    7
 10
-660.12646450000011
 20
1061.3735959999999
 11
-660.17333950000011
 21
1061.4739070000001
  0
LINE
  8
_0-0_0
  6
CONTINUOUS
 62
    7
 10
-660.17333950000011
 20
1061.4739070000001
 11
-660.21362350000004
 21
1061.572815
  0
LINE
  8
_0-0_0
  6
CONTINUOUS
 62
    7
 10
-660.21362350000004
 20
1061.572815
 11
-660.2473144999999
 21
1061.6705930000001
  0
LINE
  8
_0-0_0
  6
CONTINUOUS
 62
    7
 10
-660.2473144999999
 20
1061.6705930000001
 11
-660.27453650000007
 21
1061.7673949999999
  0
LINE
  8
_0-0_0
  6
CONTINUOUS
 62
    7
 10
-660.27453650000007
 20
1061.7673949999999
 11
-660.2956545000003
 21
1061.8634339999999
  0
LINE
  8
_0-0_0
  6
CONTINUOUS
 62
    7
 10
-660.2956545000003
 20
1061.8634339999999
 11
-660.31152350000013
 21
1061.9672850000002
  0
LINE
  8
_0-0_0
  6
CONTINUOUS
 62
    7
 10
-660.31152350000013
 20
1061.9672850000002
 11
-660.32031250000011
 21
1062.0707090000001
  0
LINE
  8
_0-0_0
  6
CONTINUOUS
 62
    7
 10
-660.32031250000011
 20
1062.0707090000001
 11
-660.3218995000002
 21
1062.1739499999999
  0
LINE
  8
_0-0_0
  6
CONTINUOUS
 62
    7
 10
-660.3218995000002
 20
1062.1739499999999
 11
-660.31640650000008
 21
1062.2772520000001
  0
LINE
  8
_0-0_0
  6
CONTINUOUS
 62
    7
 10
-660.31640650000008
 20
1062.2772520000001
 11
-660.30383350000011
 21
1062.3808289999999
  0
LINE
  8
_0-0_0
  6
CONTINUOUS
 62
    7
 10
-660.30383350000011
 20
1062.3808289999999
 11
-660.2840574999999
 21
1062.4849850000001
  0
LINE
  8
_0-0_0
  6
CONTINUOUS
 62
    7
 10
-660.2840574999999
 20
1062.4849850000001
 11
-660.25683650000008
 21
1062.589935
  0
LINE
  8
_0-0_0
  6
CONTINUOUS
 62
    7
 10
-660.25683650000008
 20
1062.589935
 11
-660.22229049999999
 21
1062.695984
  0
LINE
  8
_0-0_0
  6
CONTINUOUS
 62
    7
 10
-660.22229049999999
 20
1062.695984
 11
-660.17993150000018
 21
1062.803345
  0
LINE
  8
_0-0_0
  6
CONTINUOUS
 62
    7
 10
-660.17993150000018
 20
1062.803345
 11
-660.12951650000025
 21
1062.9123540000001
  0
LINE
  8
_0-0_0
  6
CONTINUOUS
 62
    7
 10
-660.12951650000025
 20
1062.9123540000001
 11
-660.08386250000024
 21
1063
  0
LINE
  8
_0-0_0
  6
CONTINUOUS
 62
    7
 10
-665.07214350000004
 20
1066.4754330000001
 11
-665.32214350000015
 21
1066.5
  0
LINE
  8
_0-0_0
  6
CONTINUOUS
 62
    7
 10
-665.07214350000004
 20
1066.2714539999999
 11
-665.32214350000015
 21
1066.5
  0
LINE
  8
_0-0_0
  6
CONTINUOUS
 62
    7
 10
-665.07214350000004
 20
1066.6659549999999
 11
-665.32214350000015
 21
1066.719452
  0
LINE
  8
_0-0_0
  6
CONTINUOUS
 62
    7
 10
-665.07214350000004
 20
1066.4754330000001
 11
-665.32214350000015
 21
1066.719452
  0
LINE
  8
_0-0_0
  6
CONTINUOUS
 62
    7
 10
-665.07214350000004
 20
1066.8409729999998
 11
-665.32214350000015
 21
1066.9228210000001
  0
LINE
  8
_0-0_0
  6
CONTINUOUS
 62
    7
 10
-665.07214350000004
 20
1066.6659549999999
 11
-665.32214350000015
 21
1066.9228210000001
  0
LINE
  8
_0-0_0
  6
CONTINUOUS
 62
    7
 10
-665.07214350000004
 20
1066.998566
 11
-665.32214350000015
 21
1067.107849
  0
LINE
  8
_0-0_0
  6
CONTINUOUS
 62
    7
 10
-665.07214350000004
 20
1066.8409729999998
 11
-665.32214350000015
 21
1067.107849
  0
LINE
  8
_0-0_0
  6
CONTINUOUS
 62
    7
 10
-665.07214350000004
 20
1067.1369930000001
 11
-665.32214350000015
 21
1067.272522
  0
LINE
  8
_0-0_0
  6
CONTINUOUS
 62
    7
 10
-665.07214350000004
 20
1066.998566
 11
-665.32214350000015
 21
1067.272522
  0
LINE
  8
_0-0_0
  6
CONTINUOUS
 62
    7
 10
-665.07214350000004
 20
1067.2547609999999
 11
-665.32214350000015
 21
1067.415039
  0
LINE
  8
_0-0_0
  6
CONTINUOUS
 62
    7
 10
-665.07214350000004
 20
1067.1369930000001
 11
-665.32214350000015
 21
1067.415039
  0
LINE
  8
_0-0_0
  6
CONTINUOUS
 62
    7
 10
-665.07214350000004
 20
1067.3505249999998
 11
-665.32214350000015
 21
1067.533844
  0
LINE
  8
_0-0_0
  6
CONTINUOUS
 62
    7
 10
-665.07214350000004
 20
1067.2547609999999
 11
-665.32214350000015
 21
1067.533844
  0
LINE
  8
_0-0_0
  6
CONTINUOUS
 62
    7
 10
-665.07214350000004
 20
1067.423309
 11
-665.32214350000015
 21
1067.6276250000001
  0
LINE
  8
_0-0_0
  6
CONTINUOUS
 62
    7
 10
-665.07214350000004
 20
1067.3505249999998
 11
-665.32214350000015
 21
1067.6276250000001
  0
LINE
  8
_0-0_0
  6
CONTINUOUS
 62
    7
 10
-665.07214350000004
 20
1067.4722899999999
 11
-665.32214350000015
 21
1067.6953429999999
  0
LINE
  8
_0-0_0
  6
CONTINUOUS
 62
    7
 10
-665.07214350000004
 20
1067.423309
 11
-665.32214350000015
 21
1067.6953429999999
  0
LINE
  8
_0-0_0
  6
CONTINUOUS
 62
    7
 10
-665.07214350000004
 20
1067.496887
 11
-665.32214350000015
 21
1067.736298
  0
LINE
  8
_0-0_0
  6
CONTINUOUS
 62
    7
 10
-665.07214350000004
 20
1067.4722899999999
 11
-665.09838849999994
 21
1067.5
  0
LINE
  8
_0-0_0
  6
CONTINUOUS
 62
    7
 10
-665.07214350000004
 20
1067.496887
 11
-665.32214350000015
 21
1067.75
  0
LINE
  8
_0-0_0
  6
CONTINUOUS
 62
    7
 10
-665.07214350000004
 20
1063.003052
 11
-665.32214350000015
 21
1062.75
  0
LINE
  8
_0-0_0
  6
CONTINUOUS
 62
    7
 10
-665.07214350000004
 20
1063.027679
 11
-665.32214350000015
 21
1062.763672
  0
LINE
  8
_0-0_0
  6
CONTINUOUS
 62
    7
 10
-665.07214350000004
 20
1063.003052
 11
-665.32214350000015
 21
1062.763672
  0
LINE
  8
_0-0_0
  6
CONTINUOUS
 62
    7
 10
-665.07214350000004
 20
1063.0766599999999
 11
-665.32214350000015
 21
1062.8046260000001
  0
LINE
  8
_0-0_0
  6
CONTINUOUS
 62
    7
 10
-665.07214350000004
 20
1063.027679
 11
-665.32214350000015
 21
1062.8046260000001
  0
LINE
  8
_0-0_0
  6
CONTINUOUS
 62
    7
 10
-665.07214350000004
 20
1063.149414
 11
-665.32214350000015
 21
1062.872345
  0
LINE
  8
_0-0_0
  6
CONTINUOUS
 62
    7
 10
-665.07214350000004
 20
1063.0766599999999
 11
-665.32214350000015
 21
1062.872345
  0
LINE
  8
_0-0_0
  6
CONTINUOUS
 62
    7
 10
-665.07214350000004
 20
1063.2452090000002
 11
-665.32214350000015
 21
1062.9661249999999
  0
LINE
  8
_0-0_0
  6
CONTINUOUS
 62
    7
 10
-665.07214350000004
 20
1063.149414
 11
-665.32214350000015
 21
1062.9661249999999
  0
LINE
  8
_0-0_0
  6
CONTINUOUS
 62
    7
 10
-665.07214350000004
 20
1063.2452090000002
 11
-665.20214849999991
 21
1063.1613770000001
  0
LINE
  8
_0-0_0
  6
CONTINUOUS
 62
    7
 10
-665.07214350000004
 20
1063.3629759999999
 11
-665.32214350000015
 21
1063.08493
  0
LINE
  8
_0-0_0
  6
CONTINUOUS
 62
    7
 10
-665.20214849999991
 20
1063.1613770000001
 11
-665.32214350000015
 21
1063.08493
  0
LINE
  8
_0-0_0
  6
CONTINUOUS
 62
    7
 10
-665.07214350000004
 20
1063.5014040000001
 11
-665.32214350000015
 21
1063.2274480000001
  0
LINE
  8
_0-0_0
  6
CONTINUOUS
 62
    7
 10
-665.07214350000004
 20
1063.3629759999999
 11
-665.32214350000015
 21
1063.2274480000001
  0
LINE
  8
_0-0_0
  6
CONTINUOUS
 62
    7
 10
-665.07214350000004
 20
1063.658997
 11
-665.32214350000015
 21
1063.39212
  0
LINE
  8
_0-0_0
  6
CONTINUOUS
 62
    7
 10
-665.07214350000004
 20
1063.5014040000001
 11
-665.32214350000015
 21
1063.39212
  0
LINE
  8
_0-0_0
  6
CONTINUOUS
 62
    7
 10
-665.07214350000004
 20
1063.8340149999999
 11
-665.32214350000015
 21
1063.5771479999999
  0
LINE
  8
_0-0_0
  6
CONTINUOUS
 62
    7
 10
-665.07214350000004
 20
1063.658997
 11
-665.32214350000015
 21
1063.5771479999999
  0
LINE
  8
_0-0_0
  6
CONTINUOUS
 62
    7
 10
-665.07214350000004
 20
1064.0245359999999
 11
-665.32214350000015
 21
1063.780518
  0
LINE
  8
_0-0_0
  6
CONTINUOUS
 62
    7
 10
-665.07214350000004
 20
1063.8340149999999
 11
-665.32214350000015
 21
1063.780518
  0
LINE
  8
_0-0_0
  6
CONTINUOUS
 62
    7
 10
-665.07214350000004
 20
1064.2285160000001
 11
-665.32214350000015
 21
1064
  0
LINE
  8
_0-0_0
  6
CONTINUOUS
 62
    7
 10
-665.07214350000004
 20
1064.0245359999999
 11
-665.32214350000015
 21
1064
  0
LINE
  8
_0-0_0
  6
CONTINUOUS
 62
    7
 10
-665.07214350000004
 20
1064.443665
 11
-665.32214350000015
 21
1064.233154
  0
LINE
  8
_0-0_0
  6
CONTINUOUS
 62
    7
 10
-665.07214350000004
 20
1064.2285160000001
 11
-665.32214350000015
 21
1064.233154
  0
LINE
  8
_0-0_0
  6
CONTINUOUS
 62
    7
 10
-665.07214350000004
 20
1064.667633
 11
-665.32214350000015
 21
1064.4774479999999
  0
LINE
  8
_0-0_0
  6
CONTINUOUS
 62
    7
 10
-665.07214350000004
 20
1064.443665
 11
-665.32214350000015
 21
1064.4774479999999
  0
LINE
  8
_0-0_0
  6
CONTINUOUS
 62
    7
 10
-665.07214350000004
 20
1064.8980099999999
 11
-665.32214350000015
 21
1064.730194
  0
LINE
  8
_0-0_0
  6
CONTINUOUS
 62
    7
 10
-665.07214350000004
 20
1064.667633
 11
-665.32214350000015
 21
1064.730194
  0
LINE
  8
_0-0_0
  6
CONTINUOUS
 62
    7
 10
-665.07214350000004
 20
1065.132233
 11
-665.32214350000015
 21
1064.9886470000001
  0
LINE
  8
_0-0_0
  6
CONTINUOUS
 62
    7
 10
-665.07214350000004
 20
1064.8980099999999
 11
-665.32214350000015
 21
1064.9886470000001
  0
LINE
  8
_0-0_0
  6
CONTINUOUS
 62
    7
 10
-665.07214350000004
 20
1065.367737
 11
-665.32214350000015
 21
1065.25
  0
LINE
  8
_0-0_0
  6
CONTINUOUS
 62
    7
 10
-665.07214350000004
 20
1065.132233
 11
-665.32214350000015
 21
1065.25
  0
LINE
  8
_0-0_0
  6
CONTINUOUS
 62
    7
 10
-665.07214350000004
 20
1065.6019590000001
 11
-665.32214350000015
 21
1065.5112920000001
  0
LINE
  8
_0-0_0
  6
CONTINUOUS
 62
    7
 10
-665.07214350000004
 20
1065.367737
 11
-665.32214350000015
 21
1065.5112920000001
  0
LINE
  8
_0-0_0
  6
CONTINUOUS
 62
    7
 10
-665.07214350000004
 20
1065.8323359999999
 11
-665.32214350000015
 21
1065.769775
  0
LINE
  8
_0-0_0
  6
CONTINUOUS
 62
    7
 10
-665.07214350000004
 20
1065.6019590000001
 11
-665.32214350000015
 21
1065.769775
  0
LINE
  8
_0-0_0
  6
CONTINUOUS
 62
    7
 10
-665.07214350000004
 20
1066.0563050000001
 11
-665.32214350000015
 21
1066.022522
  0
LINE
  8
_0-0_0
  6
CONTINUOUS
 62
    7
 10
-665.07214350000004
 20
1065.8323359999999
 11
-665.32214350000015
 21
1066.022522
  0
LINE
  8
_0-0_0
  6
CONTINUOUS
 62
    7
 10
-665.07214350000004
 20
1066.2714539999999
 11
-665.32214350000015
 21
1066.266815
  0
LINE
  8
_0-0_0
  6
CONTINUOUS
 62
    7
 10
-665.07214350000004
 20
1066.0563050000001
 11
-665.32214350000015
 21
1066.266815
  0
LINE
  8
_0-0_0
  6
CONTINUOUS
 62
    7
 10
-650.07214350000004
 20
1058.5120239999999
 11
-650.07214350000004
 21
1059.5576780000001
  0
LINE
  8
_0-0_0
  6
CONTINUOUS
 62
    7
 10
-650.07214350000004
 20
1060.8422850000002
 11
-650.07214350000004
 21
1059.5576780000001
  0
LINE
  8
_0-0_0
  6
CONTINUOUS
 62
    7
 10
-650.07214350000004
 20
1058.5120239999999
 11
-650.07214350000004
 21
1055.387939
  0
LINE
  8
_0-0_0
  6
CONTINUOUS
 62
    7
 10
-650.07214350000004
 20
1054.3422849999999
 11
-650.07214350000004
 21
1053.0576780000001
  0
LINE
  8
_0-0_0
  6
CONTINUOUS
 62
    7
 10
-650.07214350000004
 20
1054.3422849999999
 11
-650.07214350000004
 21
1055.387939
  0
LINE
  8
_0-0_0
  6
CONTINUOUS
 62
    7
 10
-535.47216849999984
 20
1047.6911319999999
 11
-535.47216849999984
 21
1050.6499939999999
  0
LINE
  8
_0-0_0
  6
CONTINUOUS
 62
    7
 10
-535.47216849999984
 20
1046.6499939999999
 11
-535.47216849999984
 21
1047.6911319999999
  0
LINE
  8
_0-0_0
  6
CONTINUOUS
 62
    7
 10
-650.07214350000004
 20
1054.3422849999999
 11
-659.7800295000003
 21
1054.3422849999999
  0
ARC
  8
_0-0_0
  6
CONTINUOUS
 62
    7
 10
-654.89831550000019
 20
1053.6990969999999
 40
4.9238749999999998
 50
172.49424200000001
 51
181.535968
  0
ARC
  8
_0-0_0
  6
CONTINUOUS
 62
    7
 10
-654.86022950000017
 20
1053.704041
 40
4.9620009999999999
 50
181.58130700000004
 51
187.48478900000003
  0
LINE
  8
_0-0_0
  6
CONTINUOUS
 62
    7
 10
-661.07214349999992
 20
1054.218445
 11
-661.07214349999992
 21
1051.6999820000001
  0
LINE
  8
_0-0_0
  6
CONTINUOUS
 62
    7
 10
-661.07214349999992
 20
1062.1999820000001
 11
-661.07214349999992
 21
1054.218445
  0
LINE
  8
_0-0_0
  6
CONTINUOUS
 62
    7
 10
-659.7800295000003
 20
1059.5576780000001
 11
-659.87438950000012
 21
1059.311066
  0
LINE
  8
_0-0_0
  6
CONTINUOUS
 62
    7
 10
-659.87438950000012
 20
1059.311066
 11
-659.95825250000019
 21
1059.0711060000001
  0
LINE
  8
_0-0_0
  6
CONTINUOUS
 62
    7
 10
-659.95825250000019
 20
1059.0711060000001
 11
-660.03247050000004
 21
1058.8369749999999
  0
LINE
  8
_0-0_0
  6
CONTINUOUS
 62
    7
 10
-660.03247050000004
 20
1058.8369749999999
 11
-660.09729049999976
 21
1058.607941
  0
LINE
  8
_0-0_0
  6
CONTINUOUS
 62
    7
 10
-660.09729049999976
 20
1058.607941
 11
-660.15332050000018
 21
1058.38327
  0
LINE
  8
_0-0_0
  6
CONTINUOUS
 62
    7
 10
-660.15332050000018
 20
1058.38327
 11
-660.20092750000003
 21
1058.162292
  0
LINE
  8
_0-0_0
  6
CONTINUOUS
 62
    7
 10
-660.20092750000003
 20
1058.162292
 11
-660.24035650000008
 21
1057.9443659999999
  0
LINE
  8
_0-0_0
  6
CONTINUOUS
 62
    7
 10
-660.24035650000008
 20
1057.9443659999999
 11
-660.27185050000003
 21
1057.728912
  0
LINE
  8
_0-0_0
  6
CONTINUOUS
 62
    7
 10
-660.27185050000003
 20
1057.728912
 11
-660.2956545000003
 21
1057.5153810000002
  0
LINE
  8
_0-0_0
  6
CONTINUOUS
 62
    7
 10
-660.2956545000003
 20
1057.5153810000002
 11
-660.31152350000013
 21
1057.3076780000001
  0
LINE
  8
_0-0_0
  6
CONTINUOUS
 62
    7
 10
-660.31152350000013
 20
1057.3076780000001
 11
-660.32031250000011
 21
1057.1008299999999
  0
LINE
  8
_0-0_0
  6
CONTINUOUS
 62
    7
 10
-660.32031250000011
 20
1057.1008299999999
 11
-660.3218995000002
 21
1056.894348
  0
LINE
  8
_0-0_0
  6
CONTINUOUS
 62
    7
 10
-660.3218995000002
 20
1056.894348
 11
-660.31640650000008
 21
1056.6877750000001
  0
LINE
  8
_0-0_0
  6
CONTINUOUS
 62
    7
 10
-660.31640650000008
 20
1056.6877750000001
 11
-660.30383350000011
 21
1056.480591
  0
LINE
  8
_0-0_0
  6
CONTINUOUS
 62
    7
 10
-660.30383350000011
 20
1056.480591
 11
-660.2840574999999
 21
1056.2722779999999
  0
LINE
  8
_0-0_0
  6
CONTINUOUS
 62
    7
 10
-660.2840574999999
 20
1056.2722779999999
 11
-660.25683650000008
 21
1056.0623780000001
  0
LINE
  8
_0-0_0
  6
CONTINUOUS
 62
    7
 10
-660.25683650000008
 20
1056.0623780000001
 11
-660.22229049999999
 21
1055.8503110000001
  0
LINE
  8
_0-0_0
  6
CONTINUOUS
 62
    7
 10
-660.22229049999999
 20
1055.8503110000001
 11
-660.17993150000018
 21
1055.6355589999998
  0
LINE
  8
_0-0_0
  6
CONTINUOUS
 62
    7
 10
-660.17993150000018
 20
1055.6355589999998
 11
-660.12951650000025
 21
1055.4175420000001
  0
LINE
  8
_0-0_0
  6
CONTINUOUS
 62
    7
 10
-660.12951650000025
 20
1055.4175420000001
 11
-660.07531749999998
 21
1055.211243
  0
LINE
  8
_0-0_0
  6
CONTINUOUS
 62
    7
 10
-660.07531749999998
 20
1055.211243
 11
-660.0136725000001
 21
1055.00116
  0
LINE
  8
_0-0_0
  6
CONTINUOUS
 62
    7
 10
-660.0136725000001
 20
1055.00116
 11
-659.94409150000013
 21
1054.7866819999999
  0
LINE
  8
_0-0_0
  6
CONTINUOUS
 62
    7
 10
-659.94409150000013
 20
1054.7866819999999
 11
-659.8663335
 21
1054.5672610000001
  0
LINE
  8
_0-0_0
  6
CONTINUOUS
 62
    7
 10
-659.8663335
 20
1054.5672610000001
 11
-659.7800295000003
 21
1054.3422849999999
  0
ARC
  8
_0-0_0
  6
CONTINUOUS
 62
    7
 10
-654.90844749999985
 20
1060.1999820000001
 40
4.9136889999999998
 50
172.48898299999999
 51
187.51101699999998
  0
LINE
  8
_0-0_0
  6
CONTINUOUS
 62
    7
 10
-650.07214350000004
 20
1059.5576780000001
 11
-659.7800295000003
 21
1059.5576780000001
  0
LINE
  8
_0-0_0
  6
CONTINUOUS
 62
    7
 10
-674.82214350000004
 20
1066.4754330000001
 11
-674.57214349999992
 21
1066.5
  0
LINE
  8
_0-0_0
  6
CONTINUOUS
 62
    7
 10
-674.57214349999992
 20
1066.5
 11
-665.32214350000015
 21
1066.5
  0
LINE
  8
_0-0_0
  6
CONTINUOUS
 62
    7
 10
-674.82214350000004
 20
1066.2714539999999
 11
-674.57214349999992
 21
1066.5
  0
LINE
  8
_0-0_0
  6
CONTINUOUS
 62
    7
 10
-674.82214350000004
 20
1066.2714539999999
 11
-665.07214350000004
 21
1066.2714539999999
  0
LINE
  8
_0-0_0
  6
CONTINUOUS
 62
    7
 10
-674.82214350000004
 20
1066.6659549999999
 11
-674.57214349999992
 21
1066.719452
  0
LINE
  8
_0-0_0
  6
CONTINUOUS
 62
    7
 10
-674.57214349999992
 20
1066.719452
 11
-665.32214350000015
 21
1066.719452
  0
LINE
  8
_0-0_0
  6
CONTINUOUS
 62
    7
 10
-674.82214350000004
 20
1066.4754330000001
 11
-674.57214349999992
 21
1066.719452
  0
LINE
  8
_0-0_0
  6
CONTINUOUS
 62
    7
 10
-674.82214350000004
 20
1066.8409729999998
 11
-674.57214349999992
 21
1066.9228210000001
  0
LINE
  8
_0-0_0
  6
CONTINUOUS
 62
    7
 10
-674.57214349999992
 20
1066.9228210000001
 11
-665.32214350000015
 21
1066.9228210000001
  0
LINE
  8
_0-0_0
  6
CONTINUOUS
 62
    7
 10
-674.82214350000004
 20
1066.6659549999999
 11
-674.57214349999992
 21
1066.9228210000001
  0
LINE
  8
_0-0_0
  6
CONTINUOUS
 62
    7
 10
-674.82214350000004
 20
1066.998566
 11
-674.57214349999992
 21
1067.107849
  0
LINE
  8
_0-0_0
  6
CONTINUOUS
 62
    7
 10
-674.57214349999992
 20
1067.107849
 11
-665.32214350000015
 21
1067.107849
  0
LINE
  8
_0-0_0
  6
CONTINUOUS
 62
    7
 10
-674.82214350000004
 20
1066.8409729999998
 11
-674.57214349999992
 21
1067.107849
  0
LINE
  8
_0-0_0
  6
CONTINUOUS
 62
    7
 10
-674.82214350000004
 20
1067.1369930000001
 11
-674.57214349999992
 21
1067.272522
  0
LINE
  8
_0-0_0
  6
CONTINUOUS
 62
    7
 10
-674.57214349999992
 20
1067.272522
 11
-665.32214350000015
 21
1067.272522
  0
LINE
  8
_0-0_0
  6
CONTINUOUS
 62
    7
 10
-674.82214350000004
 20
1066.998566
 11
-674.57214349999992
 21
1067.272522
  0
LINE
  8
_0-0_0
  6
CONTINUOUS
 62
    7
 10
-674.82214350000004
 20
1067.2547609999999
 11
-674.57214349999992
 21
1067.415039
  0
LINE
  8
_0-0_0
  6
CONTINUOUS
 62
    7
 10
-674.57214349999992
 20
1067.415039
 11
-665.32214350000015
 21
1067.415039
  0
LINE
  8
_0-0_0
  6
CONTINUOUS
 62
    7
 10
-674.82214350000004
 20
1067.1369930000001
 11
-674.57214349999992
 21
1067.415039
  0
LINE
  8
_0-0_0
  6
CONTINUOUS
 62
    7
 10
-674.82214350000004
 20
1067.3505249999998
 11
-674.57214349999992
 21
1067.533844
  0
LINE
  8
_0-0_0
  6
CONTINUOUS
 62
    7
 10
-674.57214349999992
 20
1067.533844
 11
-665.32214350000015
 21
1067.533844
  0
LINE
  8
_0-0_0
  6
CONTINUOUS
 62
    7
 10
-674.82214350000004
 20
1067.2547609999999
 11
-674.57214349999992
 21
1067.533844
  0
LINE
  8
_0-0_0
  6
CONTINUOUS
 62
    7
 10
-674.82214350000004
 20
1067.423309
 11
-674.57214349999992
 21
1067.6276250000001
  0
LINE
  8
_0-0_0
  6
CONTINUOUS
 62
    7
 10
-674.57214349999992
 20
1067.6276250000001
 11
-665.32214350000015
 21
1067.6276250000001
  0
LINE
  8
_0-0_0
  6
CONTINUOUS
 62
    7
 10
-674.82214350000004
 20
1067.3505249999998
 11
-674.57214349999992
 21
1067.6276250000001
  0
LINE
  8
_0-0_0
  6
CONTINUOUS
 62
    7
 10
-674.82214350000004
 20
1067.4722899999999
 11
-674.57214349999992
 21
1067.6953429999999
  0
LINE
  8
_0-0_0
  6
CONTINUOUS
 62
    7
 10
-674.57214349999992
 20
1067.6953429999999
 11
-665.32214350000015
 21
1067.6953429999999
  0
LINE
  8
_0-0_0
  6
CONTINUOUS
 62
    7
 10
-674.82214350000004
 20
1067.423309
 11
-674.57214349999992
 21
1067.6953429999999
  0
LINE
  8
_0-0_0
  6
CONTINUOUS
 62
    7
 10
-674.82214350000004
 20
1067.496887
 11
-674.57214349999992
 21
1067.736298
  0
LINE
  8
_0-0_0
  6
CONTINUOUS
 62
    7
 10
-674.57214349999992
 20
1067.736298
 11
-665.32214350000015
 21
1067.736298
  0
LINE
  8
_0-0_0
  6
CONTINUOUS
 62
    7
 10
-674.82214350000004
 20
1067.4722899999999
 11
-674.57214349999992
 21
1067.736298
  0
LINE
  8
_0-0_0
  6
CONTINUOUS
 62
    7
 10
-674.57214349999992
 20
1067.75
 11
-665.32214350000015
 21
1067.75
  0
LINE
  8
_0-0_0
  6
CONTINUOUS
 62
    7
 10
-674.82214350000004
 20
1067.496887
 11
-674.57214349999992
 21
1067.75
  0
LINE
  8
_0-0_0
  6
CONTINUOUS
 62
    7
 10
-674.82214350000004
 20
1063.003052
 11
-674.57214349999992
 21
1062.75
  0
LINE
  8
_0-0_0
  6
CONTINUOUS
 62
    7
 10
-674.57214349999992
 20
1062.75
 11
-665.32214350000015
 21
1062.75
  0
LINE
  8
_0-0_0
  6
CONTINUOUS
 62
    7
 10
-674.82214350000004
 20
1063.027679
 11
-674.57214349999992
 21
1062.763672
  0
LINE
  8
_0-0_0
  6
CONTINUOUS
 62
    7
 10
-674.57214349999992
 20
1062.763672
 11
-665.32214350000015
 21
1062.763672
  0
LINE
  8
_0-0_0
  6
CONTINUOUS
 62
    7
 10
-674.82214350000004
 20
1063.003052
 11
-674.57214349999992
 21
1062.763672
  0
LINE
  8
_0-0_0
  6
CONTINUOUS
 62
    7
 10
-674.82214350000004
 20
1063.0766599999999
 11
-674.57214349999992
 21
1062.8046260000001
  0
LINE
  8
_0-0_0
  6
CONTINUOUS
 62
    7
 10
-674.57214349999992
 20
1062.8046260000001
 11
-665.32214350000015
 21
1062.8046260000001
  0
LINE
  8
_0-0_0
  6
CONTINUOUS
 62
    7
 10
-674.82214350000004
 20
1063.027679
 11
-674.57214349999992
 21
1062.8046260000001
  0
LINE
  8
_0-0_0
  6
CONTINUOUS
 62
    7
 10
-674.82214350000004
 20
1063.149414
 11
-674.57214349999992
 21
1062.872345
  0
LINE
  8
_0-0_0
  6
CONTINUOUS
 62
    7
 10
-674.57214349999992
 20
1062.872345
 11
-665.32214350000015
 21
1062.872345
  0
LINE
  8
_0-0_0
  6
CONTINUOUS
 62
    7
 10
-674.82214350000004
 20
1063.0766599999999
 11
-674.57214349999992
 21
1062.872345
  0
LINE
  8
_0-0_0
  6
CONTINUOUS
 62
    7
 10
-674.82214350000004
 20
1063.2452090000002
 11
-674.57214349999992
 21
1062.9661249999999
  0
LINE
  8
_0-0_0
  6
CONTINUOUS
 62
    7
 10
-674.57214349999992
 20
1062.9661249999999
 11
-665.32214350000015
 21
1062.9661249999999
  0
LINE
  8
_0-0_0
  6
CONTINUOUS
 62
    7
 10
-674.82214350000004
 20
1063.149414
 11
-674.57214349999992
 21
1062.9661249999999
  0
LINE
  8
_0-0_0
  6
CONTINUOUS
 62
    7
 10
-674.57214349999992
 20
1063.08493
 11
-665.32214350000015
 21
1063.08493
  0
LINE
  8
_0-0_0
  6
CONTINUOUS
 62
    7
 10
-674.69226049999986
 20
1063.1613770000001
 11
-674.57214349999992
 21
1063.08493
  0
LINE
  8
_0-0_0
  6
CONTINUOUS
 62
    7
 10
-674.82214350000004
 20
1063.2452090000002
 11
-674.69226049999986
 21
1063.1613770000001
  0
LINE
  8
_0-0_0
  6
CONTINUOUS
 62
    7
 10
-674.82214350000004
 20
1063.3629759999999
 11
-674.57214349999992
 21
1063.08493
  0
LINE
  8
_0-0_0
  6
CONTINUOUS
 62
    7
 10
-674.82214350000004
 20
1063.5014040000001
 11
-674.57214349999992
 21
1063.2274480000001
  0
LINE
  8
_0-0_0
  6
CONTINUOUS
 62
    7
 10
-674.57214349999992
 20
1063.2274480000001
 11
-665.32214350000015
 21
1063.2274480000001
  0
LINE
  8
_0-0_0
  6
CONTINUOUS
 62
    7
 10
-674.82214350000004
 20
1063.3629759999999
 11
-674.57214349999992
 21
1063.2274480000001
  0
LINE
  8
_0-0_0
  6
CONTINUOUS
 62
    7
 10
-674.82214350000004
 20
1063.658997
 11
-674.57214349999992
 21
1063.39212
  0
LINE
  8
_0-0_0
  6
CONTINUOUS
 62
    7
 10
-674.57214349999992
 20
1063.39212
 11
-665.32214350000015
 21
1063.39212
  0
LINE
  8
_0-0_0
  6
CONTINUOUS
 62
    7
 10
-674.82214350000004
 20
1063.5014040000001
 11
-674.57214349999992
 21
1063.39212
  0
LINE
  8
_0-0_0
  6
CONTINUOUS
 62
    7
 10
-674.82214350000004
 20
1063.8340149999999
 11
-674.57214349999992
 21
1063.5771479999999
  0
LINE
  8
_0-0_0
  6
CONTINUOUS
 62
    7
 10
-674.57214349999992
 20
1063.5771479999999
 11
-665.32214350000015
 21
1063.5771479999999
  0
LINE
  8
_0-0_0
  6
CONTINUOUS
 62
    7
 10
-674.82214350000004
 20
1063.658997
 11
-674.57214349999992
 21
1063.5771479999999
  0
LINE
  8
_0-0_0
  6
CONTINUOUS
 62
    7
 10
-674.82214350000004
 20
1064.0245359999999
 11
-674.57214349999992
 21
1063.780518
  0
LINE
  8
_0-0_0
  6
CONTINUOUS
 62
    7
 10
-674.57214349999992
 20
1063.780518
 11
-665.32214350000015
 21
1063.780518
  0
LINE
  8
_0-0_0
  6
CONTINUOUS
 62
    7
 10
-674.82214350000004
 20
1063.8340149999999
 11
-674.57214349999992
 21
1063.780518
  0
LINE
  8
_0-0_0
  6
CONTINUOUS
 62
    7
 10
-674.82214350000004
 20
1064.2285160000001
 11
-674.57214349999992
 21
1064
  0
LINE
  8
_0-0_0
  6
CONTINUOUS
 62
    7
 10
-674.57214349999992
 20
1064
 11
-665.32214350000015
 21
1064
  0
LINE
  8
_0-0_0
  6
CONTINUOUS
 62
    7
 10
-674.82214350000004
 20
1064.2285160000001
 11
-665.07214350000004
 21
1064.2285160000001
  0
LINE
  8
_0-0_0
  6
CONTINUOUS
 62
    7
 10
-674.82214350000004
 20
1064.0245359999999
 11
-674.57214349999992
 21
1064
  0
LINE
  8
_0-0_0
  6
CONTINUOUS
 62
    7
 10
-674.82214350000004
 20
1064.443665
 11
-674.57214349999992
 21
1064.233154
  0
LINE
  8
_0-0_0
  6
CONTINUOUS
 62
    7
 10
-674.57214349999992
 20
1064.233154
 11
-665.32214350000015
 21
1064.233154
  0
LINE
  8
_0-0_0
  6
CONTINUOUS
 62
    7
 10
-674.82214350000004
 20
1064.443665
 11
-665.07214350000004
 21
1064.443665
  0
LINE
  8
_0-0_0
  6
CONTINUOUS
 62
    7
 10
-674.82214350000004
 20
1064.2285160000001
 11
-674.57214349999992
 21
1064.233154
  0
LINE
  8
_0-0_0
  6
CONTINUOUS
 62
    7
 10
-674.82214350000004
 20
1064.667633
 11
-674.57214349999992
 21
1064.4774479999999
  0
LINE
  8
_0-0_0
  6
CONTINUOUS
 62
    7
 10
-674.57214349999992
 20
1064.4774479999999
 11
-665.32214350000015
 21
1064.4774479999999
  0
LINE
  8
_0-0_0
  6
CONTINUOUS
 62
    7
 10
-674.82214350000004
 20
1064.667633
 11
-665.07214350000004
 21
1064.667633
  0
LINE
  8
_0-0_0
  6
CONTINUOUS
 62
    7
 10
-674.82214350000004
 20
1064.443665
 11
-674.57214349999992
 21
1064.4774479999999
  0
LINE
  8
_0-0_0
  6
CONTINUOUS
 62
    7
 10
-674.82214350000004
 20
1064.8980099999999
 11
-674.57214349999992
 21
1064.730194
  0
LINE
  8
_0-0_0
  6
CONTINUOUS
 62
    7
 10
-674.57214349999992
 20
1064.730194
 11
-665.32214350000015
 21
1064.730194
  0
LINE
  8
_0-0_0
  6
CONTINUOUS
 62
    7
 10
-674.82214350000004
 20
1064.8980099999999
 11
-665.07214350000004
 21
1064.8980099999999
  0
LINE
  8
_0-0_0
  6
CONTINUOUS
 62
    7
 10
-674.82214350000004
 20
1064.667633
 11
-674.57214349999992
 21
1064.730194
  0
LINE
  8
_0-0_0
  6
CONTINUOUS
 62
    7
 10
-674.82214350000004
 20
1065.132233
 11
-674.57214349999992
 21
1064.9886470000001
  0
LINE
  8
_0-0_0
  6
CONTINUOUS
 62
    7
 10
-674.57214349999992
 20
1064.9886470000001
 11
-665.32214350000015
 21
1064.9886470000001
  0
LINE
  8
_0-0_0
  6
CONTINUOUS
 62
    7
 10
-674.82214350000004
 20
1065.132233
 11
-665.07214350000004
 21
1065.132233
  0
LINE
  8
_0-0_0
  6
CONTINUOUS
 62
    7
 10
-674.82214350000004
 20
1064.8980099999999
 11
-674.57214349999992
 21
1064.9886470000001
  0
LINE
  8
_0-0_0
  6
CONTINUOUS
 62
    7
 10
-674.82214350000004
 20
1065.367737
 11
-674.57214349999992
 21
1065.25
  0
LINE
  8
_0-0_0
  6
CONTINUOUS
 62
    7
 10
-674.57214349999992
 20
1065.25
 11
-665.32214350000015
 21
1065.25
  0
LINE
  8
_0-0_0
  6
CONTINUOUS
 62
    7
 10
-674.82214350000004
 20
1065.367737
 11
-665.07214350000004
 21
1065.367737
  0
LINE
  8
_0-0_0
  6
CONTINUOUS
 62
    7
 10
-674.82214350000004
 20
1065.132233
 11
-674.57214349999992
 21
1065.25
  0
LINE
  8
_0-0_0
  6
CONTINUOUS
 62
    7
 10
-674.82214350000004
 20
1065.6019590000001
 11
-674.57214349999992
 21
1065.5112920000001
  0
LINE
  8
_0-0_0
  6
CONTINUOUS
 62
    7
 10
-674.57214349999992
 20
1065.5112920000001
 11
-665.32214350000015
 21
1065.5112920000001
  0
LINE
  8
_0-0_0
  6
CONTINUOUS
 62
    7
 10
-674.82214350000004
 20
1065.6019590000001
 11
-665.07214350000004
 21
1065.6019590000001
  0
LINE
  8
_0-0_0
  6
CONTINUOUS
 62
    7
 10
-674.82214350000004
 20
1065.367737
 11
-674.57214349999992
 21
1065.5112920000001
  0
LINE
  8
_0-0_0
  6
CONTINUOUS
 62
    7
 10
-674.82214350000004
 20
1065.8323359999999
 11
-674.57214349999992
 21
1065.769775
  0
LINE
  8
_0-0_0
  6
CONTINUOUS
 62
    7
 10
-674.57214349999992
 20
1065.769775
 11
-665.32214350000015
 21
1065.769775
  0
LINE
  8
_0-0_0
  6
CONTINUOUS
 62
    7
 10
-674.82214350000004
 20
1065.8323359999999
 11
-665.07214350000004
 21
1065.8323359999999
  0
LINE
  8
_0-0_0
  6
CONTINUOUS
 62
    7
 10
-674.82214350000004
 20
1065.6019590000001
 11
-674.57214349999992
 21
1065.769775
  0
LINE
  8
_0-0_0
  6
CONTINUOUS
 62
    7
 10
-674.82214350000004
 20
1066.0563050000001
 11
-674.57214349999992
 21
1066.022522
  0
LINE
  8
_0-0_0
  6
CONTINUOUS
 62
    7
 10
-674.57214349999992
 20
1066.022522
 11
-665.32214350000015
 21
1066.022522
  0
LINE
  8
_0-0_0
  6
CONTINUOUS
 62
    7
 10
-674.82214350000004
 20
1066.0563050000001
 11
-665.07214350000004
 21
1066.0563050000001
  0
LINE
  8
_0-0_0
  6
CONTINUOUS
 62
    7
 10
-674.82214350000004
 20
1065.8323359999999
 11
-674.57214349999992
 21
1066.022522
  0
LINE
  8
_0-0_0
  6
CONTINUOUS
 62
    7
 10
-674.82214350000004
 20
1066.2714539999999
 11
-674.57214349999992
 21
1066.266815
  0
LINE
  8
_0-0_0
  6
CONTINUOUS
 62
    7
 10
-674.57214349999992
 20
1066.266815
 11
-665.32214350000015
 21
1066.266815
  0
LINE
  8
_0-0_0
  6
CONTINUOUS
 62
    7
 10
-674.82214350000004
 20
1066.0563050000001
 11
-674.57214349999992
 21
1066.266815
  0
LINE
  8
_0-0_0
  6
CONTINUOUS
 62
    7
 10
-675.07214350000015
 20
1067.25
 11
-675.07214350000015
 21
1063.4948119999999
  0
LINE
  8
_0-0_0
  6
CONTINUOUS
 62
    7
 10
-675.07214350000015
 20
1063.4948119999999
 11
-675.07214350000015
 21
1063.25
  0
LINE
  8
_0-0_0
  6
CONTINUOUS
 62
    7
 10
-661.47216849999984
 20
1061.9499819999999
 11
-661.47216849999984
 21
1059.4499820000001
  0
LINE
  8
_0-0_0
  6
CONTINUOUS
 62
    7
 10
-661.47216849999984
 20
1059.4499820000001
 11
-661.47216849999984
 21
1051.9499820000001
  0
LINE
  8
_0-0_0
  6
CONTINUOUS
 62
    7
 10
-662.27221650000001
 20
1061.488098
 11
-662.27221650000001
 21
1059.219055
  0
LINE
  8
_0-0_0
  6
CONTINUOUS
 62
    7
 10
-662.27221650000001
 20
1059.219055
 11
-662.27221650000001
 21
1052.411865
  0
LINE
  8
_0-0_0
  6
CONTINUOUS
 62
    7
 10
-720.27221650000013
 20
1060.9499820000001
 11
-720.27221650000013
 21
1060.948639
  0
LINE
  8
_0-0_0
  6
CONTINUOUS
 62
    7
 10
-720.27221650000013
 20
1060.948639
 11
-720.27221650000013
 21
1052.9499819999999
  0
LINE
  8
_0-0_0
  6
CONTINUOUS
 62
    7
 10
-665.07214350000004
 20
1046.4030760000001
 11
-665.07214350000004
 21
1046.3999940000001
  0
LINE
  8
_0-0_0
  6
CONTINUOUS
 62
    7
 10
-665.07214350000004
 20
1046.4277039999999
 11
-665.07214350000004
 21
1046.4030760000001
  0
LINE
  8
_0-0_0
  6
CONTINUOUS
 62
    7
 10
-665.07214350000004
 20
1046.4766540000001
 11
-665.07214350000004
 21
1046.4277039999999
  0
LINE
  8
_0-0_0
  6
CONTINUOUS
 62
    7
 10
-665.07214350000004
 20
1046.549438
 11
-665.07214350000004
 21
1046.4766540000001
  0
LINE
  8
_0-0_0
  6
CONTINUOUS
 62
    7
 10
-665.07214350000004
 20
1046.645203
 11
-665.07214350000004
 21
1046.549438
  0
LINE
  8
_0-0_0
  6
CONTINUOUS
 62
    7
 10
-665.07214350000004
 20
1046.6754149999999
 11
-665.07214350000004
 21
1046.645203
  0
LINE
  8
_0-0_0
  6
CONTINUOUS
 62
    7
 10
-665.07214350000004
 20
1046.76297
 11
-665.07214350000004
 21
1046.6754149999999
  0
LINE
  8
_0-0_0
  6
CONTINUOUS
 62
    7
 10
-665.07214350000004
 20
1046.901398
 11
-665.07214350000004
 21
1046.76297
  0
LINE
  8
_0-0_0
  6
CONTINUOUS
 62
    7
 10
-665.07214350000004
 20
1047.05899
 11
-665.07214350000004
 21
1046.901398
  0
LINE
  8
_0-0_0
  6
CONTINUOUS
 62
    7
 10
-665.07214350000004
 20
1047.234009
 11
-665.07214350000004
 21
1047.05899
  0
LINE
  8
_0-0_0
  6
CONTINUOUS
 62
    7
 10
-665.07214350000004
 20
1047.42453
 11
-665.07214350000004
 21
1047.234009
  0
LINE
  8
_0-0_0
  6
CONTINUOUS
 62
    7
 10
-665.07214350000004
 20
1047.62851
 11
-665.07214350000004
 21
1047.42453
  0
LINE
  8
_0-0_0
  6
CONTINUOUS
 62
    7
 10
-665.07214350000004
 20
1047.843658
 11
-665.07214350000004
 21
1047.62851
  0
LINE
  8
_0-0_0
  6
CONTINUOUS
 62
    7
 10
-665.07214350000004
 20
1048.0676270000001
 11
-665.07214350000004
 21
1047.843658
  0
LINE
  8
_0-0_0
  6
CONTINUOUS
 62
    7
 10
-665.07214350000004
 20
1048.298004
 11
-665.07214350000004
 21
1048.0676270000001
  0
LINE
  8
_0-0_0
  6
CONTINUOUS
 62
    7
 10
-665.07214350000004
 20
1048.5322269999999
 11
-665.07214350000004
 21
1048.298004
  0
LINE
  8
_0-0_0
  6
CONTINUOUS
 62
    7
 10
-665.07214350000004
 20
1048.7677309999999
 11
-665.07214350000004
 21
1048.5322269999999
  0
LINE
  8
_0-0_0
  6
CONTINUOUS
 62
    7
 10
-665.07214350000004
 20
1049.001953
 11
-665.07214350000004
 21
1048.7677309999999
  0
LINE
  8
_0-0_0
  6
CONTINUOUS
 62
    7
 10
-665.07214350000004
 20
1049.2323299999998
 11
-665.07214350000004
 21
1049.001953
  0
LINE
  8
_0-0_0
  6
CONTINUOUS
 62
    7
 10
-665.07214350000004
 20
1049.4562989999999
 11
-665.07214350000004
 21
1049.2323299999998
  0
LINE
  8
_0-0_0
  6
CONTINUOUS
 62
    7
 10
-665.07214350000004
 20
1049.6714480000001
 11
-665.07214350000004
 21
1049.4562989999999
  0
LINE
  8
_0-0_0
  6
CONTINUOUS
 62
    7
 10
-665.07214350000004
 20
1049.728699
 11
-665.07214350000004
 21
1049.6714480000001
  0
LINE
  8
_0-0_0
  6
CONTINUOUS
 62
    7
 10
-665.07214350000004
 20
1046.4030760000001
 11
-665.32214350000015
 21
1046.1499939999999
  0
LINE
  8
_0-0_0
  6
CONTINUOUS
 62
    7
 10
-665.07214350000004
 20
1046.4277039999999
 11
-665.32214350000015
 21
1046.1636960000001
  0
LINE
  8
_0-0_0
  6
CONTINUOUS
 62
    7
 10
-665.07214350000004
 20
1046.4030760000001
 11
-665.32214350000015
 21
1046.1636960000001
  0
LINE
  8
_0-0_0
  6
CONTINUOUS
 62
    7
 10
-665.07214350000004
 20
1046.4766540000001
 11
-665.32214350000015
 21
1046.20462
  0
LINE
  8
_0-0_0
  6
CONTINUOUS
 62
    7
 10
-665.07214350000004
 20
1046.4277039999999
 11
-665.32214350000015
 21
1046.20462
  0
LINE
  8
_0-0_0
  6
CONTINUOUS
 62
    7
 10
-665.07214350000004
 20
1046.549438
 11
-665.32214350000015
 21
1046.2723390000001
  0
LINE
  8
_0-0_0
  6
CONTINUOUS
 62
    7
 10
-665.07214350000004
 20
1046.4766540000001
 11
-665.32214350000015
 21
1046.2723390000001
  0
LINE
  8
_0-0_0
  6
CONTINUOUS
 62
    7
 10
-665.07214350000004
 20
1046.645203
 11
-665.32214350000015
 21
1046.366119
  0
LINE
  8
_0-0_0
  6
CONTINUOUS
 62
    7
 10
-665.07214350000004
 20
1046.549438
 11
-665.32214350000015
 21
1046.366119
  0
LINE
  8
_0-0_0
  6
CONTINUOUS
 62
    7
 10
-665.07214350000004
 20
1046.645203
 11
-665.20214849999991
 21
1046.561371
  0
LINE
  8
_0-0_0
  6
CONTINUOUS
 62
    7
 10
-665.07214350000004
 20
1046.76297
 11
-665.32214350000015
 21
1046.4849239999999
  0
LINE
  8
_0-0_0
  6
CONTINUOUS
 62
    7
 10
-665.20214849999991
 20
1046.561371
 11
-665.32214350000015
 21
1046.4849239999999
  0
LINE
  8
_0-0_0
  6
CONTINUOUS
 62
    7
 10
-665.07214350000004
 20
1046.901398
 11
-665.32214350000015
 21
1046.6274410000001
  0
LINE
  8
_0-0_0
  6
CONTINUOUS
 62
    7
 10
-665.07214350000004
 20
1046.76297
 11
-665.32214350000015
 21
1046.6274410000001
  0
LINE
  8
_0-0_0
  6
CONTINUOUS
 62
    7
 10
-665.07214350000004
 20
1047.05899
 11
-665.32214350000015
 21
1046.7921139999999
  0
LINE
  8
_0-0_0
  6
CONTINUOUS
 62
    7
 10
-665.07214350000004
 20
1046.901398
 11
-665.32214350000015
 21
1046.7921139999999
  0
LINE
  8
_0-0_0
  6
CONTINUOUS
 62
    7
 10
-665.07214350000004
 20
1047.234009
 11
-665.32214350000015
 21
1046.977173
  0
LINE
  8
_0-0_0
  6
CONTINUOUS
 62
    7
 10
-665.07214350000004
 20
1047.05899
 11
-665.32214350000015
 21
1046.977173
  0
LINE
  8
_0-0_0
  6
CONTINUOUS
 62
    7
 10
-665.07214350000004
 20
1047.42453
 11
-665.32214350000015
 21
1047.180511
  0
LINE
  8
_0-0_0
  6
CONTINUOUS
 62
    7
 10
-665.07214350000004
 20
1047.234009
 11
-665.32214350000015
 21
1047.180511
  0
LINE
  8
_0-0_0
  6
CONTINUOUS
 62
    7
 10
-665.07214350000004
 20
1047.62851
 11
-665.32214350000015
 21
1047.3999939999999
  0
LINE
  8
_0-0_0
  6
CONTINUOUS
 62
    7
 10
-665.07214350000004
 20
1047.42453
 11
-665.32214350000015
 21
1047.3999939999999
  0
LINE
  8
_0-0_0
  6
CONTINUOUS
 62
    7
 10
-665.07214350000004
 20
1047.843658
 11
-665.32214350000015
 21
1047.6331479999999
  0
LINE
  8
_0-0_0
  6
CONTINUOUS
 62
    7
 10
-665.07214350000004
 20
1047.62851
 11
-665.32214350000015
 21
1047.6331479999999
  0
LINE
  8
_0-0_0
  6
CONTINUOUS
 62
    7
 10
-665.07214350000004
 20
1048.0676270000001
 11
-665.32214350000015
 21
1047.8774410000001
  0
LINE
  8
_0-0_0
  6
CONTINUOUS
 62
    7
 10
-665.07214350000004
 20
1047.843658
 11
-665.32214350000015
 21
1047.8774410000001
  0
LINE
  8
_0-0_0
  6
CONTINUOUS
 62
    7
 10
-665.07214350000004
 20
1048.298004
 11
-665.32214350000015
 21
1048.1301880000001
  0
LINE
  8
_0-0_0
  6
CONTINUOUS
 62
    7
 10
-665.07214350000004
 20
1048.0676270000001
 11
-665.32214350000015
 21
1048.1301880000001
  0
LINE
  8
_0-0_0
  6
CONTINUOUS
 62
    7
 10
-665.07214350000004
 20
1048.5322269999999
 11
-665.32214350000015
 21
1048.388672
  0
LINE
  8
_0-0_0
  6
CONTINUOUS
 62
    7
 10
-665.07214350000004
 20
1048.298004
 11
-665.32214350000015
 21
1048.388672
  0
LINE
  8
_0-0_0
  6
CONTINUOUS
 62
    7
 10
-665.07214350000004
 20
1048.7677309999999
 11
-665.32214350000015
 21
1048.6499940000001
  0
LINE
  8
_0-0_0
  6
CONTINUOUS
 62
    7
 10
-665.07214350000004
 20
1048.5322269999999
 11
-665.32214350000015
 21
1048.6499940000001
  0
LINE
  8
_0-0_0
  6
CONTINUOUS
 62
    7
 10
-665.07214350000004
 20
1049.001953
 11
-665.32214350000015
 21
1048.9113160000002
  0
LINE
  8
_0-0_0
  6
CONTINUOUS
 62
    7
 10
-665.07214350000004
 20
1048.7677309999999
 11
-665.32214350000015
 21
1048.9113160000002
  0
LINE
  8
_0-0_0
  6
CONTINUOUS
 62
    7
 10
-665.07214350000004
 20
1049.2323299999998
 11
-665.32214350000015
 21
1049.1697690000001
  0
LINE
  8
_0-0_0
  6
CONTINUOUS
 62
    7
 10
-665.07214350000004
 20
1049.001953
 11
-665.32214350000015
 21
1049.1697690000001
  0
LINE
  8
_0-0_0
  6
CONTINUOUS
 62
    7
 10
-665.07214350000004
 20
1049.4562989999999
 11
-665.32214350000015
 21
1049.4225160000001
  0
LINE
  8
_0-0_0
  6
CONTINUOUS
 62
    7
 10
-665.07214350000004
 20
1049.2323299999998
 11
-665.32214350000015
 21
1049.4225160000001
  0
LINE
  8
_0-0_0
  6
CONTINUOUS
 62
    7
 10
-665.07214350000004
 20
1049.6714480000001
 11
-665.32214350000015
 21
1049.6668090000001
  0
LINE
  8
_0-0_0
  6
CONTINUOUS
 62
    7
 10
-665.07214350000004
 20
1049.4562989999999
 11
-665.32214350000015
 21
1049.6668090000001
  0
LINE
  8
_0-0_0
  6
CONTINUOUS
 62
    7
 10
-665.07214350000004
 20
1049.8754269999999
 11
-665.07214350000004
 21
1049.728699
  0
LINE
  8
_0-0_0
  6
CONTINUOUS
 62
    7
 10
-665.07214350000004
 20
1049.8754269999999
 11
-665.32214350000015
 21
1049.8999939999999
  0
LINE
  8
_0-0_0
  6
CONTINUOUS
 62
    7
 10
-665.07214350000004
 20
1049.6714480000001
 11
-665.32214350000015
 21
1049.8999939999999
  0
LINE
  8
_0-0_0
  6
CONTINUOUS
 62
    7
 10
-665.07214350000004
 20
1050.0659479999999
 11
-665.07214350000004
 21
1049.8754269999999
  0
LINE
  8
_0-0_0
  6
CONTINUOUS
 62
    7
 10
-665.07214350000004
 20
1050.2409670000002
 11
-665.07214350000004
 21
1050.0659479999999
  0
LINE
  8
_0-0_0
  6
CONTINUOUS
 62
    7
 10
-665.07214350000004
 20
1050.3985600000001
 11
-665.07214350000004
 21
1050.2409670000002
  0
LINE
  8
_0-0_0
  6
CONTINUOUS
 62
    7
 10
-665.07214350000004
 20
1050.536987
 11
-665.07214350000004
 21
1050.3985600000001
  0
LINE
  8
_0-0_0
  6
CONTINUOUS
 62
    7
 10
-665.07214350000004
 20
1050.654755
 11
-665.07214350000004
 21
1050.536987
  0
LINE
  8
_0-0_0
  6
CONTINUOUS
 62
    7
 10
-665.07214350000004
 20
1050.7505489999999
 11
-665.07214350000004
 21
1050.654755
  0
LINE
  8
_0-0_0
  6
CONTINUOUS
 62
    7
 10
-665.07214350000004
 20
1050.8233029999999
 11
-665.07214350000004
 21
1050.7505489999999
  0
LINE
  8
_0-0_0
  6
CONTINUOUS
 62
    7
 10
-665.07214350000004
 20
1050.8999940000001
 11
-665.07214350000004
 21
1050.8233029999999
  0
LINE
  8
_0-0_0
  6
CONTINUOUS
 62
    7
 10
-665.07214350000004
 20
1050.8969119999999
 11
-665.07214350000004
 21
1050.872284
  0
LINE
  8
_0-0_0
  6
CONTINUOUS
 62
    7
 10
-665.07214350000004
 20
1050.8999940000001
 11
-665.07214350000004
 21
1050.8969119999999
  0
LINE
  8
_0-0_0
  6
CONTINUOUS
 62
    7
 10
-674.82214350000004
 20
1046.4030760000001
 11
-674.57214349999992
 21
1046.1499939999999
  0
LINE
  8
_0-0_0
  6
CONTINUOUS
 62
    7
 10
-674.57214349999992
 20
1046.1499939999999
 11
-665.32214350000015
 21
1046.1499939999999
  0
LINE
  8
_0-0_0
  6
CONTINUOUS
 62
    7
 10
-674.82214350000004
 20
1046.4277039999999
 11
-674.57214349999992
 21
1046.1636960000001
  0
LINE
  8
_0-0_0
  6
CONTINUOUS
 62
    7
 10
-674.57214349999992
 20
1046.1636960000001
 11
-665.32214350000015
 21
1046.1636960000001
  0
LINE
  8
_0-0_0
  6
CONTINUOUS
 62
    7
 10
-674.82214350000004
 20
1046.4030760000001
 11
-674.57214349999992
 21
1046.1636960000001
  0
LINE
  8
_0-0_0
  6
CONTINUOUS
 62
    7
 10
-674.82214350000004
 20
1046.4766540000001
 11
-674.57214349999992
 21
1046.20462
  0
LINE
  8
_0-0_0
  6
CONTINUOUS
 62
    7
 10
-674.57214349999992
 20
1046.20462
 11
-665.32214350000015
 21
1046.20462
  0
LINE
  8
_0-0_0
  6
CONTINUOUS
 62
    7
 10
-674.82214350000004
 20
1046.4277039999999
 11
-674.57214349999992
 21
1046.20462
  0
LINE
  8
_0-0_0
  6
CONTINUOUS
 62
    7
 10
-674.82214350000004
 20
1046.549438
 11
-674.57214349999992
 21
1046.2723390000001
  0
LINE
  8
_0-0_0
  6
CONTINUOUS
 62
    7
 10
-674.57214349999992
 20
1046.2723390000001
 11
-665.32214350000015
 21
1046.2723390000001
  0
LINE
  8
_0-0_0
  6
CONTINUOUS
 62
    7
 10
-674.82214350000004
 20
1046.4766540000001
 11
-674.57214349999992
 21
1046.2723390000001
  0
LINE
  8
_0-0_0
  6
CONTINUOUS
 62
    7
 10
-674.82214350000004
 20
1046.645203
 11
-674.57214349999992
 21
1046.366119
  0
LINE
  8
_0-0_0
  6
CONTINUOUS
 62
    7
 10
-674.57214349999992
 20
1046.366119
 11
-665.32214350000015
 21
1046.366119
  0
LINE
  8
_0-0_0
  6
CONTINUOUS
 62
    7
 10
-674.82214350000004
 20
1046.549438
 11
-674.57214349999992
 21
1046.366119
  0
LINE
  8
_0-0_0
  6
CONTINUOUS
 62
    7
 10
-674.57214349999992
 20
1046.4849239999999
 11
-665.32214350000015
 21
1046.4849239999999
  0
LINE
  8
_0-0_0
  6
CONTINUOUS
 62
    7
 10
-674.69226049999986
 20
1046.561371
 11
-674.57214349999992
 21
1046.4849239999999
  0
LINE
  8
_0-0_0
  6
CONTINUOUS
 62
    7
 10
-674.82214350000004
 20
1046.645203
 11
-674.69226049999986
 21
1046.561371
  0
LINE
  8
_0-0_0
  6
CONTINUOUS
 62
    7
 10
-674.82214350000004
 20
1046.76297
 11
-674.57214349999992
 21
1046.4849239999999
  0
LINE
  8
_0-0_0
  6
CONTINUOUS
 62
    7
 10
-674.82214350000004
 20
1046.901398
 11
-674.57214349999992
 21
1046.6274410000001
  0
LINE
  8
_0-0_0
  6
CONTINUOUS
 62
    7
 10
-674.57214349999992
 20
1046.6274410000001
 11
-665.32214350000015
 21
1046.6274410000001
  0
LINE
  8
_0-0_0
  6
CONTINUOUS
 62
    7
 10
-674.82214350000004
 20
1046.76297
 11
-674.57214349999992
 21
1046.6274410000001
  0
LINE
  8
_0-0_0
  6
CONTINUOUS
 62
    7
 10
-674.82214350000004
 20
1047.05899
 11
-674.57214349999992
 21
1046.7921139999999
  0
LINE
  8
_0-0_0
  6
CONTINUOUS
 62
    7
 10
-674.57214349999992
 20
1046.7921139999999
 11
-665.32214350000015
 21
1046.7921139999999
  0
LINE
  8
_0-0_0
  6
CONTINUOUS
 62
    7
 10
-674.82214350000004
 20
1046.901398
 11
-674.57214349999992
 21
1046.7921139999999
  0
LINE
  8
_0-0_0
  6
CONTINUOUS
 62
    7
 10
-674.82214350000004
 20
1047.234009
 11
-674.57214349999992
 21
1046.977173
  0
LINE
  8
_0-0_0
  6
CONTINUOUS
 62
    7
 10
-674.57214349999992
 20
1046.977173
 11
-665.32214350000015
 21
1046.977173
  0
LINE
  8
_0-0_0
  6
CONTINUOUS
 62
    7
 10
-674.82214350000004
 20
1047.05899
 11
-674.57214349999992
 21
1046.977173
  0
LINE
  8
_0-0_0
  6
CONTINUOUS
 62
    7
 10
-674.82214350000004
 20
1047.42453
 11
-674.57214349999992
 21
1047.180511
  0
LINE
  8
_0-0_0
  6
CONTINUOUS
 62
    7
 10
-674.57214349999992
 20
1047.180511
 11
-665.32214350000015
 21
1047.180511
  0
LINE
  8
_0-0_0
  6
CONTINUOUS
 62
    7
 10
-674.82214350000004
 20
1047.234009
 11
-674.57214349999992
 21
1047.180511
  0
LINE
  8
_0-0_0
  6
CONTINUOUS
 62
    7
 10
-674.82214350000004
 20
1047.62851
 11
-674.57214349999992
 21
1047.3999939999999
  0
LINE
  8
_0-0_0
  6
CONTINUOUS
 62
    7
 10
-674.57214349999992
 20
1047.3999939999999
 11
-665.32214350000015
 21
1047.3999939999999
  0
LINE
  8
_0-0_0
  6
CONTINUOUS
 62
    7
 10
-674.82214350000004
 20
1047.62851
 11
-665.07214350000004
 21
1047.62851
  0
LINE
  8
_0-0_0
  6
CONTINUOUS
 62
    7
 10
-674.82214350000004
 20
1047.42453
 11
-674.57214349999992
 21
1047.3999939999999
  0
LINE
  8
_0-0_0
  6
CONTINUOUS
 62
    7
 10
-674.82214350000004
 20
1047.843658
 11
-674.57214349999992
 21
1047.6331479999999
  0
LINE
  8
_0-0_0
  6
CONTINUOUS
 62
    7
 10
-674.57214349999992
 20
1047.6331479999999
 11
-665.32214350000015
 21
1047.6331479999999
  0
LINE
  8
_0-0_0
  6
CONTINUOUS
 62
    7
 10
-674.82214350000004
 20
1047.843658
 11
-665.07214350000004
 21
1047.843658
  0
LINE
  8
_0-0_0
  6
CONTINUOUS
 62
    7
 10
-674.82214350000004
 20
1047.62851
 11
-674.57214349999992
 21
1047.6331479999999
  0
LINE
  8
_0-0_0
  6
CONTINUOUS
 62
    7
 10
-674.82214350000004
 20
1048.0676270000001
 11
-674.57214349999992
 21
1047.8774410000001
  0
LINE
  8
_0-0_0
  6
CONTINUOUS
 62
    7
 10
-674.57214349999992
 20
1047.8774410000001
 11
-665.32214350000015
 21
1047.8774410000001
  0
LINE
  8
_0-0_0
  6
CONTINUOUS
 62
    7
 10
-674.82214350000004
 20
1048.0676270000001
 11
-665.07214350000004
 21
1048.0676270000001
  0
LINE
  8
_0-0_0
  6
CONTINUOUS
 62
    7
 10
-674.82214350000004
 20
1047.843658
 11
-674.57214349999992
 21
1047.8774410000001
  0
LINE
  8
_0-0_0
  6
CONTINUOUS
 62
    7
 10
-674.82214350000004
 20
1048.298004
 11
-674.57214349999992
 21
1048.1301880000001
  0
LINE
  8
_0-0_0
  6
CONTINUOUS
 62
    7
 10
-674.57214349999992
 20
1048.1301880000001
 11
-665.32214350000015
 21
1048.1301880000001
  0
LINE
  8
_0-0_0
  6
CONTINUOUS
 62
    7
 10
-674.82214350000004
 20
1048.298004
 11
-665.07214350000004
 21
1048.298004
  0
LINE
  8
_0-0_0
  6
CONTINUOUS
 62
    7
 10
-674.82214350000004
 20
1048.0676270000001
 11
-674.57214349999992
 21
1048.1301880000001
  0
LINE
  8
_0-0_0
  6
CONTINUOUS
 62
    7
 10
-674.82214350000004
 20
1048.5322269999999
 11
-674.57214349999992
 21
1048.388672
  0
LINE
  8
_0-0_0
  6
CONTINUOUS
 62
    7
 10
-674.57214349999992
 20
1048.388672
 11
-665.32214350000015
 21
1048.388672
  0
LINE
  8
_0-0_0
  6
CONTINUOUS
 62
    7
 10
-674.82214350000004
 20
1048.5322269999999
 11
-665.07214350000004
 21
1048.5322269999999
  0
LINE
  8
_0-0_0
  6
CONTINUOUS
 62
    7
 10
-674.82214350000004
 20
1048.298004
 11
-674.57214349999992
 21
1048.388672
  0
LINE
  8
_0-0_0
  6
CONTINUOUS
 62
    7
 10
-674.82214350000004
 20
1048.7677309999999
 11
-674.57214349999992
 21
1048.6499940000001
  0
LINE
  8
_0-0_0
  6
CONTINUOUS
 62
    7
 10
-674.57214349999992
 20
1048.6499940000001
 11
-665.32214350000015
 21
1048.6499940000001
  0
LINE
  8
_0-0_0
  6
CONTINUOUS
 62
    7
 10
-674.82214350000004
 20
1048.7677309999999
 11
-665.07214350000004
 21
1048.7677309999999
  0
LINE
  8
_0-0_0
  6
CONTINUOUS
 62
    7
 10
-674.82214350000004
 20
1048.5322269999999
 11
-674.57214349999992
 21
1048.6499940000001
  0
LINE
  8
_0-0_0
  6
CONTINUOUS
 62
    7
 10
-674.82214350000004
 20
1049.001953
 11
-674.57214349999992
 21
1048.9113160000002
  0
LINE
  8
_0-0_0
  6
CONTINUOUS
 62
    7
 10
-674.57214349999992
 20
1048.9113160000002
 11
-665.32214350000015
 21
1048.9113160000002
  0
LINE
  8
_0-0_0
  6
CONTINUOUS
 62
    7
 10
-674.82214350000004
 20
1049.001953
 11
-665.07214350000004
 21
1049.001953
  0
LINE
  8
_0-0_0
  6
CONTINUOUS
 62
    7
 10
-674.82214350000004
 20
1048.7677309999999
 11
-674.57214349999992
 21
1048.9113160000002
  0
LINE
  8
_0-0_0
  6
CONTINUOUS
 62
    7
 10
-674.82214350000004
 20
1049.2323299999998
 11
-674.57214349999992
 21
1049.1697690000001
  0
LINE
  8
_0-0_0
  6
CONTINUOUS
 62
    7
 10
-674.57214349999992
 20
1049.1697690000001
 11
-665.32214350000015
 21
1049.1697690000001
  0
LINE
  8
_0-0_0
  6
CONTINUOUS
 62
    7
 10
-674.82214350000004
 20
1049.2323299999998
 11
-665.07214350000004
 21
1049.2323299999998
  0
LINE
  8
_0-0_0
  6
CONTINUOUS
 62
    7
 10
-674.82214350000004
 20
1049.001953
 11
-674.57214349999992
 21
1049.1697690000001
  0
LINE
  8
_0-0_0
  6
CONTINUOUS
 62
    7
 10
-674.82214350000004
 20
1049.4562989999999
 11
-674.57214349999992
 21
1049.4225160000001
  0
LINE
  8
_0-0_0
  6
CONTINUOUS
 62
    7
 10
-674.57214349999992
 20
1049.4225160000001
 11
-665.32214350000015
 21
1049.4225160000001
  0
LINE
  8
_0-0_0
  6
CONTINUOUS
 62
    7
 10
-674.82214350000004
 20
1049.4562989999999
 11
-665.07214350000004
 21
1049.4562989999999
  0
LINE
  8
_0-0_0
  6
CONTINUOUS
 62
    7
 10
-674.82214350000004
 20
1049.2323299999998
 11
-674.57214349999992
 21
1049.4225160000001
  0
LINE
  8
_0-0_0
  6
CONTINUOUS
 62
    7
 10
-674.82214350000004
 20
1049.6714480000001
 11
-674.57214349999992
 21
1049.6668090000001
  0
LINE
  8
_0-0_0
  6
CONTINUOUS
 62
    7
 10
-674.57214349999992
 20
1049.6668090000001
 11
-665.32214350000015
 21
1049.6668090000001
  0
LINE
  8
_0-0_0
  6
CONTINUOUS
 62
    7
 10
-674.82214350000004
 20
1049.6714480000001
 11
-665.07214350000004
 21
1049.6714480000001
  0
LINE
  8
_0-0_0
  6
CONTINUOUS
 62
    7
 10
-674.82214350000004
 20
1049.4562989999999
 11
-674.57214349999992
 21
1049.6668090000001
  0
LINE
  8
_0-0_0
  6
CONTINUOUS
 62
    7
 10
-674.82214350000004
 20
1049.8754269999999
 11
-674.57214349999992
 21
1049.8999939999999
  0
LINE
  8
_0-0_0
  6
CONTINUOUS
 62
    7
 10
-674.57214349999992
 20
1049.8999939999999
 11
-665.32214350000015
 21
1049.8999939999999
  0
LINE
  8
_0-0_0
  6
CONTINUOUS
 62
    7
 10
-674.82214350000004
 20
1049.6714480000001
 11
-674.57214349999992
 21
1049.8999939999999
  0
LINE
  8
_0-0_0
  6
CONTINUOUS
 62
    7
 10
-665.07214350000004
 20
1050.0659479999999
 11
-665.32214350000015
 21
1050.1194459999999
  0
LINE
  8
_0-0_0
  6
CONTINUOUS
 62
    7
 10
-665.07214350000004
 20
1049.8754269999999
 11
-665.32214350000015
 21
1050.1194459999999
  0
LINE
  8
_0-0_0
  6
CONTINUOUS
 62
    7
 10
-665.07214350000004
 20
1050.2409670000002
 11
-665.32214350000015
 21
1050.322815
  0
LINE
  8
_0-0_0
  6
CONTINUOUS
 62
    7
 10
-665.07214350000004
 20
1050.0659479999999
 11
-665.32214350000015
 21
1050.322815
  0
LINE
  8
_0-0_0
  6
CONTINUOUS
 62
    7
 10
-665.07214350000004
 20
1050.3985600000001
 11
-665.32214350000015
 21
1050.5078430000001
  0
LINE
  8
_0-0_0
  6
CONTINUOUS
 62
    7
 10
-665.07214350000004
 20
1050.2409670000002
 11
-665.32214350000015
 21
1050.5078430000001
  0
LINE
  8
_0-0_0
  6
CONTINUOUS
 62
    7
 10
-665.07214350000004
 20
1050.536987
 11
-665.32214350000015
 21
1050.6725160000001
  0
LINE
  8
_0-0_0
  6
CONTINUOUS
 62
    7
 10
-665.07214350000004
 20
1050.3985600000001
 11
-665.32214350000015
 21
1050.6725160000001
  0
LINE
  8
_0-0_0
  6
CONTINUOUS
 62
    7
 10
-665.07214350000004
 20
1050.654755
 11
-665.32214350000015
 21
1050.815063
  0
LINE
  8
_0-0_0
  6
CONTINUOUS
 62
    7
 10
-665.07214350000004
 20
1050.536987
 11
-665.32214350000015
 21
1050.815063
  0
LINE
  8
_0-0_0
  6
CONTINUOUS
 62
    7
 10
-665.07214350000004
 20
1050.7505489999999
 11
-665.32214350000015
 21
1050.9338379999999
  0
LINE
  8
_0-0_0
  6
CONTINUOUS
 62
    7
 10
-665.07214350000004
 20
1050.654755
 11
-665.32214350000015
 21
1050.9338379999999
  0
LINE
  8
_0-0_0
  6
CONTINUOUS
 62
    7
 10
-665.07214350000004
 20
1050.8233029999999
 11
-665.32214350000015
 21
1051.0276180000001
  0
LINE
  8
_0-0_0
  6
CONTINUOUS
 62
    7
 10
-665.07214350000004
 20
1050.7505489999999
 11
-665.32214350000015
 21
1051.0276180000001
  0
LINE
  8
_0-0_0
  6
CONTINUOUS
 62
    7
 10
-665.07214350000004
 20
1050.872284
 11
-665.32214350000015
 21
1051.095337
  0
LINE
  8
_0-0_0
  6
CONTINUOUS
 62
    7
 10
-665.07214350000004
 20
1050.8233029999999
 11
-665.32214350000015
 21
1051.095337
  0
LINE
  8
_0-0_0
  6
CONTINUOUS
 62
    7
 10
-665.07214350000004
 20
1050.8969119999999
 11
-665.32214350000015
 21
1051.1362919999999
  0
LINE
  8
_0-0_0
  6
CONTINUOUS
 62
    7
 10
-665.07214350000004
 20
1050.872284
 11
-665.32214350000015
 21
1051.1362919999999
  0
LINE
  8
_0-0_0
  6
CONTINUOUS
 62
    7
 10
-665.07214350000004
 20
1050.8969119999999
 11
-665.32214350000015
 21
1051.1499939999999
  0
LINE
  8
_0-0_0
  6
CONTINUOUS
 62
    7
 10
-675.07214350000015
 20
1046.8948359999999
 11
-675.07214350000015
 21
1046.6499939999999
  0
LINE
  8
_0-0_0
  6
CONTINUOUS
 62
    7
 10
-674.82214350000004
 20
1049.8754269999999
 11
-674.57214349999992
 21
1050.1194459999999
  0
LINE
  8
_0-0_0
  6
CONTINUOUS
 62
    7
 10
-674.82214350000004
 20
1050.0659479999999
 11
-674.57214349999992
 21
1050.1194459999999
  0
LINE
  8
_0-0_0
  6
CONTINUOUS
 62
    7
 10
-674.82214350000004
 20
1050.0659479999999
 11
-674.57214349999992
 21
1050.322815
  0
LINE
  8
_0-0_0
  6
CONTINUOUS
 62
    7
 10
-674.82214350000004
 20
1050.2409670000002
 11
-674.57214349999992
 21
1050.322815
  0
LINE
  8
_0-0_0
  6
CONTINUOUS
 62
    7
 10
-674.82214350000004
 20
1050.2409670000002
 11
-674.57214349999992
 21
1050.5078430000001
  0
LINE
  8
_0-0_0
  6
CONTINUOUS
 62
    7
 10
-674.82214350000004
 20
1050.3985600000001
 11
-674.57214349999992
 21
1050.5078430000001
  0
LINE
  8
_0-0_0
  6
CONTINUOUS
 62
    7
 10
-674.82214350000004
 20
1050.3985600000001
 11
-674.57214349999992
 21
1050.6725160000001
  0
LINE
  8
_0-0_0
  6
CONTINUOUS
 62
    7
 10
-674.82214350000004
 20
1050.536987
 11
-674.57214349999992
 21
1050.6725160000001
  0
LINE
  8
_0-0_0
  6
CONTINUOUS
 62
    7
 10
-674.82214350000004
 20
1050.536987
 11
-674.57214349999992
 21
1050.815063
  0
LINE
  8
_0-0_0
  6
CONTINUOUS
 62
    7
 10
-674.82214350000004
 20
1050.654755
 11
-674.57214349999992
 21
1050.815063
  0
LINE
  8
_0-0_0
  6
CONTINUOUS
 62
    7
 10
-674.82214350000004
 20
1050.654755
 11
-674.57214349999992
 21
1050.9338379999999
  0
LINE
  8
_0-0_0
  6
CONTINUOUS
 62
    7
 10
-674.82214350000004
 20
1050.7505489999999
 11
-674.57214349999992
 21
1050.9338379999999
  0
LINE
  8
_0-0_0
  6
CONTINUOUS
 62
    7
 10
-674.82214350000004
 20
1050.7505489999999
 11
-674.57214349999992
 21
1051.0276180000001
  0
LINE
  8
_0-0_0
  6
CONTINUOUS
 62
    7
 10
-674.82214350000004
 20
1050.8233029999999
 11
-674.57214349999992
 21
1051.0276180000001
  0
LINE
  8
_0-0_0
  6
CONTINUOUS
 62
    7
 10
-674.82214350000004
 20
1050.8233029999999
 11
-674.57214349999992
 21
1051.095337
  0
LINE
  8
_0-0_0
  6
CONTINUOUS
 62
    7
 10
-674.82214350000004
 20
1050.872284
 11
-674.57214349999992
 21
1051.095337
  0
LINE
  8
_0-0_0
  6
CONTINUOUS
 62
    7
 10
-674.82214350000004
 20
1050.872284
 11
-674.57214349999992
 21
1051.1362919999999
  0
LINE
  8
_0-0_0
  6
CONTINUOUS
 62
    7
 10
-674.82214350000004
 20
1050.8969119999999
 11
-674.57214349999992
 21
1051.1362919999999
  0
LINE
  8
_0-0_0
  6
CONTINUOUS
 62
    7
 10
-674.82214350000004
 20
1050.8969119999999
 11
-674.57214349999992
 21
1051.1499939999999
  0
LINE
  8
_0-0_0
  6
CONTINUOUS
 62
    7
 10
-675.07214350000015
 20
1050.6499939999999
 11
-675.07214350000015
 21
1046.8948359999999
  0
LINE
  8
_0-0_0
  6
CONTINUOUS
 62
    7
 10
-674.57214349999992
 20
1050.1194459999999
 11
-665.32214350000015
 21
1050.1194459999999
  0
LINE
  8
_0-0_0
  6
CONTINUOUS
 62
    7
 10
-674.57214349999992
 20
1050.322815
 11
-665.32214350000015
 21
1050.322815
  0
LINE
  8
_0-0_0
  6
CONTINUOUS
 62
    7
 10
-674.57214349999992
 20
1050.5078430000001
 11
-665.32214350000015
 21
1050.5078430000001
  0
LINE
  8
_0-0_0
  6
CONTINUOUS
 62
    7
 10
-674.57214349999992
 20
1050.6725160000001
 11
-665.32214350000015
 21
1050.6725160000001
  0
LINE
  8
_0-0_0
  6
CONTINUOUS
 62
    7
 10
-674.57214349999992
 20
1050.815063
 11
-665.32214350000015
 21
1050.815063
  0
LINE
  8
_0-0_0
  6
CONTINUOUS
 62
    7
 10
-674.57214349999992
 20
1050.9338379999999
 11
-665.32214350000015
 21
1050.9338379999999
  0
LINE
  8
_0-0_0
  6
CONTINUOUS
 62
    7
 10
-674.57214349999992
 20
1051.0276180000001
 11
-665.32214350000015
 21
1051.0276180000001
  0
LINE
  8
_0-0_0
  6
CONTINUOUS
 62
    7
 10
-674.57214349999992
 20
1051.095337
 11
-665.32214350000015
 21
1051.095337
  0
LINE
  8
_0-0_0
  6
CONTINUOUS
 62
    7
 10
-674.57214349999992
 20
1051.1362919999999
 11
-665.32214350000015
 21
1051.1362919999999
  0
LINE
  8
_0-0_0
  6
CONTINUOUS
 62
    7
 10
-674.57214349999992
 20
1051.1499939999999
 11
-665.32214350000015
 21
1051.1499939999999
  0
LINE
  8
_0-0_0
  6
CONTINUOUS
 62
    7
 10
-639.07214350000015
 20
1067.5
 11
-665.07214350000004
 21
1067.5
  0
LINE
  8
_0-0_0
  6
CONTINUOUS
 62
    7
 10
-639.07214350000015
 20
1063
 11
-665.07214350000004
 21
1063
  0
LINE
  8
_0-0_0
  6
CONTINUOUS
 62
    7
 10
-538.07214349999992
 20
1050.8999940000001
 11
-535.61645550000014
 21
1050.8999940000001
  0
LINE
  8
_0-0_0
  6
CONTINUOUS
 62
    7
 10
-536.11755350000033
 20
1046.3999940000001
 11
-535.61645550000014
 21
1046.3999940000001
  0
LINE
  8
_0-0_0
  6
CONTINUOUS
 62
    7
 10
-665.07214350000004
 20
1067.5
 11
-665.32214350000015
 21
1067.75
  0
LINE
  8
_0-0_0
  6
CONTINUOUS
 62
    7
 10
-665.07214350000004
 20
1063
 11
-665.32214350000015
 21
1062.75
  0
LINE
  8
_0-0_0
  6
CONTINUOUS
 62
    7
 10
-535.47216849999984
 20
1050.6499939999999
 11
-535.61645550000014
 21
1050.8999940000001
  0
LINE
  8
_0-0_0
  6
CONTINUOUS
 62
    7
 10
-535.47216849999984
 20
1046.6499939999999
 11
-535.61645550000014
 21
1046.3999940000001
  0
LINE
  8
_0-0_0
  6
CONTINUOUS
 62
    7
 10
-661.07214349999992
 20
1051.6999820000001
 11
-659.82214350000004
 21
1050.4499820000001
  0
LINE
  8
_0-0_0
  6
CONTINUOUS
 62
    7
 10
-661.07214349999992
 20
1062.1999820000001
 11
-660.27221650000013
 21
1062.999969
  0
LINE
  8
_0-0_0
  6
CONTINUOUS
 62
    7
 10
-675.07214350000015
 20
1067.25
 11
-674.57238749999999
 21
1067.7498169999999
  0
LINE
  8
_0-0_0
  6
CONTINUOUS
 62
    7
 10
-675.07214350000015
 20
1063.25
 11
-674.57238749999999
 21
1062.750153
  0
LINE
  8
_0-0_0
  6
CONTINUOUS
 62
    7
 10
-661.07214349999992
 20
1061.9499819999999
 11
-661.47216849999984
 21
1061.9499819999999
  0
LINE
  8
_0-0_0
  6
CONTINUOUS
 62
    7
 10
-661.07214349999992
 20
1051.9499820000001
 11
-661.47216849999984
 21
1051.9499820000001
  0
LINE
  8
_0-0_0
  6
CONTINUOUS
 62
    7
 10
-662.27221650000001
 20
1061.488098
 11
-661.47216849999984
 21
1061.9499819999999
  0
LINE
  8
_0-0_0
  6
CONTINUOUS
 62
    7
 10
-662.27221650000001
 20
1052.411865
 11
-661.47216849999984
 21
1051.9499820000001
  0
LINE
  8
_0-0_0
  6
CONTINUOUS
 62
    7
 10
-662.27221650000001
 20
1060.9499820000001
 11
-720.27221650000013
 21
1060.9499820000001
  0
LINE
  8
_0-0_0
  6
CONTINUOUS
 62
    7
 10
-662.27221650000001
 20
1052.9499819999999
 11
-720.27221650000013
 21
1052.9499819999999
  0
LINE
  8
_0-0_0
  6
CONTINUOUS
 62
    7
 10
-644.82226550000007
 20
1046.3999940000001
 11
-665.07214350000004
 21
1046.3999940000001
  0
LINE
  8
_0-0_0
  6
CONTINUOUS
 62
    7
 10
-665.07214350000004
 20
1046.3999940000001
 11
-665.32214350000015
 21
1046.1499939999999
  0
LINE
  8
_0-0_0
  6
CONTINUOUS
 62
    7
 10
-660.27221650000013
 20
1050.8999940000001
 11
-665.07214350000004
 21
1050.8999940000001
  0
LINE
  8
_0-0_0
  6
CONTINUOUS
 62
    7
 10
-665.07214350000004
 20
1050.8999940000001
 11
-665.32214350000015
 21
1051.1499939999999
  0
LINE
  8
_0-0_0
  6
CONTINUOUS
 62
    7
 10
-675.07214350000015
 20
1046.6499939999999
 11
-674.57238749999999
 21
1046.1501459999999
  0
LINE
  8
_0-0_0
  6
CONTINUOUS
 62
    7
 10
-675.07214350000015
 20
1050.6499939999999
 11
-674.57238749999999
 21
1051.1498409999999
  0
LINE
  8
_0-0_0
  6
CONTINUOUS
 62
    7
 10
-748.58313050000004
 20
1099.1499939999999
 11
-748.58313050000004
 21
1086.1499940000001
  0
LINE
  8
_0-0_0
  6
CONTINUOUS
 62
    7
 10
-748.3831785000001
 20
1099.1499939999999
 11
-748.58313050000004
 21
1099.1499939999999
  0
LINE
  8
_0-0_0
  6
CONTINUOUS
 62
    7
 10
-748.3831785000001
 20
1086.1499940000001
 11
-748.58313050000004
 21
1086.1499940000001
  0
LINE
  8
_0-0_0
  6
CONTINUOUS
 62
    7
 10
-748.3831785000001
 20
1099.1499939999999
 11
-748.3831785000001
 21
1117.75
  0
LINE
  8
_0-0_0
  6
CONTINUOUS
 62
    7
 10
-748.28320350000013
 20
1117.75
 11
-748.3831785000001
 21
1117.75
  0
LINE
  8
_0-0_0
  6
CONTINUOUS
 62
    7
 10
-748.28320350000013
 20
1120.25
 11
-748.28320350000013
 21
1117.75
  0
ARC
  8
_0-0_0
  6
CONTINUOUS
 62
    7
 10
-748.78320350000001
 20
1120.25
 40
0.5
 50
0
 51
90.000003000000007
  0
LINE
  8
_0-0_0
  6
CONTINUOUS
 62
    7
 10
-748.78320350000001
 20
1120.75
 11
-751.78320350000001
 21
1120.75
  0
ARC
  8
_0-0_0
  6
CONTINUOUS
 62
    7
 10
-751.78320350000001
 20
1120.25
 40
0.5
 50
90.000003000000007
 51
179.99999099999999
  0
ARC
  8
_0-0_0
  6
CONTINUOUS
 62
    7
 10
-756.28320350000001
 20
1072.75
 40
0.5
 50
179.99999099999999
 51
269.99999700000001
  0
LINE
  8
_0-0_0
  6
CONTINUOUS
 62
    7
 10
-753.78320350000024
 20
1072.25
 11
-756.28320350000001
 21
1072.25
  0
ARC
  8
_0-0_0
  6
CONTINUOUS
 62
    7
 10
-753.78320350000024
 20
1072.75
 40
0.5
 50
269.99999700000001
 51
0
  0
LINE
  8
_0-0_0
  6
CONTINUOUS
 62
    7
 10
-753.28320350000001
 20
1077.75
 11
-753.28320350000001
 21
1072.75
  0
ARC
  8
_0-0_0
  6
CONTINUOUS
 62
    7
 10
-752.78320350000013
 20
1077.75
 40
0.5
 50
90.000003000000007
 51
179.99999099999999
  0
LINE
  8
_0-0_0
  6
CONTINUOUS
 62
    7
 10
-748.78320350000001
 20
1078.25
 11
-752.78320350000013
 21
1078.25
  0
ARC
  8
_0-0_0
  6
CONTINUOUS
 62
    7
 10
-748.78320350000001
 20
1078.75
 40
0.5
 50
269.99999700000001
 51
0
  0
LINE
  8
_0-0_0
  6
CONTINUOUS
 62
    7
 10
-748.28320350000013
 20
1081.9499820000001
 11
-748.28320350000013
 21
1078.75
  0
LINE
  8
_0-0_0
  6
CONTINUOUS
 62
    7
 10
-748.3831785000001
 20
1081.9499820000001
 11
-748.28320350000013
 21
1081.9499820000001
  0
LINE
  8
_0-0_0
  6
CONTINUOUS
 62
    7
 10
-748.3831785000001
 20
1081.9499820000001
 11
-748.3831785000001
 21
1086.1499940000001
  0
LINE
  8
_0-0_0
  6
CONTINUOUS
 62
    7
 10
-749.28320350000024
 20
1120.25
 11
-767.08313050000027
 21
1120.25
  0
ARC
  8
_0-0_0
  6
CONTINUOUS
 62
    7
 10
-749.28320350000024
 20
1119.75
 40
0.5
 50
0
 51
90.000003000000007
  0
LINE
  8
_0-0_0
  6
CONTINUOUS
 62
    7
 10
-748.78320350000001
 20
1119.75
 11
-748.78320350000001
 21
1079.25
  0
ARC
  8
_0-0_0
  6
CONTINUOUS
 62
    7
 10
-749.28320350000024
 20
1079.25
 40
0.5
 50
269.99999700000001
 51
0
  0
LINE
  8
_0-0_0
  6
CONTINUOUS
 62
    7
 10
-752.78320350000013
 20
1078.75
 11
-749.28320350000024
 21
1078.75
  0
ARC
  8
_0-0_0
  6
CONTINUOUS
 62
    7
 10
-752.78320350000013
 20
1077.75
 40
1
 50
90.000003000000007
 51
179.99999099999999
  0
LINE
  8
_0-0_0
  6
CONTINUOUS
 62
    7
 10
-753.78320350000024
 20
1077.75
 11
-753.78320350000024
 21
1073.25
  0
ARC
  8
_0-0_0
  6
CONTINUOUS
 62
    7
 10
-754.28320350000013
 20
1073.25
 40
0.5
 50
269.99999700000001
 51
0
  0
LINE
  8
_0-0_0
  6
CONTINUOUS
 62
    7
 10
-771.28320350000001
 20
1072.75
 11
-754.28320350000013
 21
1072.75
  0
LINE
  8
_0-0_0
  6
CONTINUOUS
 62
    7
 10
-752.78320350000013
 20
1120.4499819999999
 11
-752.78320350000013
 21
1120.25
  0
ARC
  8
_0-0_0
  6
CONTINUOUS
 62
    7
 10
-753.08313050000004
 20
1120.4499819999999
 40
0.2999999999999999
 50
0
 51
90.000003000000007
  0
LINE
  8
_0-0_0
  6
CONTINUOUS
 62
    7
 10
-753.08313050000004
 20
1120.75
 11
-767.78320350000013
 21
1120.75
  0
ARC
  8
_0-0_0
  6
CONTINUOUS
 62
    7
 10
-767.78320350000013
 20
1120.4499819999999
 40
0.2999999999999999
 50
90.000003000000007
 51
179.99999099999999
  0
LINE
  8
_0-0_0
  6
CONTINUOUS
 62
    7
 10
-768.08313050000004
 20
1120.4499819999999
 11
-768.08313050000004
 21
1117.25
  0
LINE
  8
_0-0_0
  6
CONTINUOUS
 62
    7
 10
-768.08313050000004
 20
1117.25
 11
-773.78320350000013
 21
1117.25
  0
LINE
  8
_0-0_0
  6
CONTINUOUS
 62
    7
 10
-773.78320350000013
 20
1117.25
 11
-774.58313050000027
 21
1116.4499820000001
  0
ARC
  8
_0-0_0
  6
CONTINUOUS
 62
    7
 10
-767.08313050000027
 20
1119.75
 40
0.5
 50
90.000003000000007
 51
179.99999099999999
  0
LINE
  8
_0-0_0
  6
CONTINUOUS
 62
    7
 10
-767.58313050000015
 20
1119.75
 11
-767.58313050000015
 21
1116.9499820000001
  0
ARC
  8
_0-0_0
  6
CONTINUOUS
 62
    7
 10
-768.08313050000004
 20
1116.9499820000001
 40
0.5
 50
269.99999700000001
 51
0
  0
LINE
  8
_0-0_0
  6
CONTINUOUS
 62
    7
 10
-768.08313050000004
 20
1116.4499820000001
 11
-776.28320350000024
 21
1116.4499820000001
  0
ARC
  8
_0-0_0
  6
CONTINUOUS
 62
    7
 10
-776.28320350000024
 20
1115.9499819999999
 40
0.5
 50
90.000003000000007
 51
179.99999099999999
  0
LINE
  8
_0-0_0
  6
CONTINUOUS
 62
    7
 10
-776.78320350000013
 20
1079.25
 11
-776.78320350000013
 21
1115.9499819999999
  0
ARC
  8
_0-0_0
  6
CONTINUOUS
 62
    7
 10
-776.28320350000024
 20
1079.25
 40
0.5
 50
179.99999099999999
 51
269.99999700000001
  0
LINE
  8
_0-0_0
  6
CONTINUOUS
 62
    7
 10
-776.28320350000024
 20
1078.75
 11
-772.78320350000001
 21
1078.75
  0
ARC
  8
_0-0_0
  6
CONTINUOUS
 62
    7
 10
-772.78320350000001
 20
1077.75
 40
1
 50
0
 51
90.000003000000007
  0
LINE
  8
_0-0_0
  6
CONTINUOUS
 62
    7
 10
-771.78320350000024
 20
1073.25
 11
-771.78320350000024
 21
1077.75
  0
ARC
  8
_0-0_0
  6
CONTINUOUS
 62
    7
 10
-771.28320350000001
 20
1073.25
 40
0.5
 50
179.99999099999999
 51
269.99999700000001
  0
CIRCLE
  8
_0-0_0
  6
CONTINUOUS
 62
    7
 10
-762.78320350000024
 20
1081.75
 40
2.0670000000000002
  0
LINE
  8
_0-0_0
  6
CONTINUOUS
 62
    7
 10
-774.78320350000024
 20
1116.75
 11
-774.78320350000024
 21
1116.4499820000001
  0
LINE
  8
_0-0_0
  6
CONTINUOUS
 62
    7
 10
-774.78320350000024
 20
1116.75
 11
-776.78320350000013
 21
1116.75
  0
ARC
  8
_0-0_0
  6
CONTINUOUS
 62
    7
 10
-776.78320350000013
 20
1116.25
 40
0.5
 50
90.000003000000007
 51
179.99999099999999
  0
LINE
  8
_0-0_0
  6
CONTINUOUS
 62
    7
 10
-777.28320350000001
 20
1116.25
 11
-777.28320350000001
 21
1078.75
  0
ARC
  8
_0-0_0
  6
CONTINUOUS
 62
    7
 10
-776.78320350000013
 20
1078.75
 40
0.5
 50
179.99999099999999
 51
269.99999700000001
  0
LINE
  8
_0-0_0
  6
CONTINUOUS
 62
    7
 10
-772.78320350000001
 20
1078.25
 11
-776.78320350000013
 21
1078.25
  0
ARC
  8
_0-0_0
  6
CONTINUOUS
 62
    7
 10
-772.78320350000001
 20
1077.75
 40
0.5
 50
0
 51
90.000003000000007
  0
LINE
  8
_0-0_0
  6
CONTINUOUS
 62
    7
 10
-772.28320350000013
 20
1072.75
 11
-772.28320350000013
 21
1077.75
  0
ARC
  8
_0-0_0
  6
CONTINUOUS
 62
    7
 10
-771.78320350000024
 20
1072.75
 40
0.5
 50
179.99999099999999
 51
269.99999700000001
  0
LINE
  8
_0-0_0
  6
CONTINUOUS
 62
    7
 10
-771.78320350000024
 20
1072.25
 11
-769.28320350000013
 21
1072.25
  0
ARC
  8
_0-0_0
  6
CONTINUOUS
 62
    7
 10
-769.28320350000013
 20
1072.75
 40
0.5
 50
269.99999700000001
 51
0
  0
LINE
  8
_0-0_0
  6
CONTINUOUS
 62
    7
 10
-753.28320350000001
 20
1072.75
 11
-753.18322750000004
 21
1072.75
  0
LINE
  8
_0-0_0
  6
CONTINUOUS
 62
    7
 10
-753.18322750000004
 20
1072.75
 11
-753.18322750000004
 21
1073.25
  0
LINE
  8
_0-0_0
  6
CONTINUOUS
 62
    7
 10
-753.18322750000004
 20
1077.25
 11
-753.18322750000004
 21
1073.25
  0
LINE
  8
_0-0_0
  6
CONTINUOUS
 62
    7
 10
-753.28320350000001
 20
1077.75
 11
-753.18322750000004
 21
1077.75
  0
LINE
  8
_0-0_0
  6
CONTINUOUS
 62
    7
 10
-753.18322750000004
 20
1077.25
 11
-753.18322750000004
 21
1077.75
  0
LINE
  8
_0-0_0
  6
CONTINUOUS
 62
    7
 10
-753.08313050000004
 20
1073.25
 11
-753.08313050000004
 21
1073.380341
  0
LINE
  8
_0-0_0
  6
CONTINUOUS
 62
    7
 10
-753.08313050000004
 20
1076.880341
 11
-753.08313050000004
 21
1073.380341
  0
LINE
  8
_0-0_0
  6
CONTINUOUS
 62
    7
 10
-753.18322750000004
 20
1077.1499940000001
 11
-753.08313050000004
 21
1077.1499940000001
  0
LINE
  8
_0-0_0
  6
CONTINUOUS
 62
    7
 10
-753.08313050000004
 20
1076.880341
 11
-753.08313050000004
 21
1077.1499940000001
  0
LINE
  8
_0-0_0
  6
CONTINUOUS
 62
    7
 10
-753.18322750000004
 20
1072.75
 11
-753.18322750000004
 21
1072.751068
  0
LINE
  8
_0-0_0
  6
CONTINUOUS
 62
    7
 10
-753.08313050000004
 20
1073.25
 11
-753.08313050000004
 21
1073.2510990000001
  0
LINE
  8
_0-0_0
  6
CONTINUOUS
 62
    7
 10
-753.18322750000004
 20
1073.25
 11
-753.08313050000004
 21
1073.25
  0
LINE
  8
_0-0_0
  6
CONTINUOUS
 62
    7
 10
-753.18322750000004
 20
1073.25
 11
-753.08313050000004
 21
1073.25
  0
LINE
  8
_0-0_0
  6
CONTINUOUS
 62
    7
 10
-771.58313050000027
 20
1070.25
 11
-767.38317850000021
 21
1070.25
  0
LINE
  8
_0-0_0
  6
CONTINUOUS
 62
    7
 10
-755.78320350000013
 20
1070.25
 11
-758.18322750000027
 21
1070.25
  0
LINE
  8
_0-0_0
  6
CONTINUOUS
 62
    7
 10
-755.78320350000013
 20
1070.25
 11
-754.58313050000004
 21
1070.25
  0
ARC
  8
_0-0_0
  6
CONTINUOUS
 62
    7
 10
-754.58313050000004
 20
1069.75
 40
0.5
 50
0
 51
90.000003000000007
  0
ARC
  8
_0-0_0
  6
CONTINUOUS
 62
    7
 10
-755.78320350000013
 20
1069.75
 40
0.5
 50
90.000003000000007
 51
179.99999099999999
  0
ARC
  8
_0-0_0
  6
CONTINUOUS
 62
    7
 10
-758.18322750000027
 20
1070.75
 40
0.5
 50
179.99999099999999
 51
269.99999700000001
  0
ARC
  8
_0-0_0
  6
CONTINUOUS
 62
    7
 10
-767.38317850000021
 20
1070.75
 40
0.5
 50
269.99999700000001
 51
0
  0
ARC
  8
_0-0_0
  6
CONTINUOUS
 62
    7
 10
-771.58313050000027
 20
1069.75
 40
0.5
 50
90.000003000000007
 51
179.99999099999999
  0
LINE
  8
_0-0_0
  6
CONTINUOUS
 62
    7
 10
-770.58313050000015
 20
1070.75
 11
-770.58313050000015
 21
1070.25
  0
ARC
  8
_0-0_0
  6
CONTINUOUS
 62
    7
 10
-770.08313050000027
 20
1070.75
 40
0.5
 50
90.000003000000007
 51
179.99999099999999
  0
LINE
  8
_0-0_0
  6
CONTINUOUS
 62
    7
 10
-768.58313050000027
 20
1071.25
 11
-770.08313050000027
 21
1071.25
  0
ARC
  8
_0-0_0
  6
CONTINUOUS
 62
    7
 10
-768.58313050000027
 20
1072.25
 40
1
 50
269.99999700000001
 51
0
  0
LINE
  8
_0-0_0
  6
CONTINUOUS
 62
    7
 10
-767.58313050000015
 20
1072.75
 11
-767.58313050000015
 21
1072.25
  0
LINE
  8
_0-0_0
  6
CONTINUOUS
 62
    7
 10
-767.08313050000027
 20
1072.75
 11
-767.08313050000027
 21
1071.75
  0
ARC
  8
_0-0_0
  6
CONTINUOUS
 62
    7
 10
-768.58313050000027
 20
1071.75
 40
1.5
 50
269.99999700000001
 51
0
  0
ARC
  8
_0-0_0
  6
CONTINUOUS
 62
    7
 10
-756.98315450000018
 20
1071.75
 40
1.5
 50
179.99999099999999
 51
269.99999700000001
  0
LINE
  8
_0-0_0
  6
CONTINUOUS
 62
    7
 10
-754.9831545000003
 20
1070.75
 11
-754.9831545000003
 21
1070.25
  0
ARC
  8
_0-0_0
  6
CONTINUOUS
 62
    7
 10
-755.48315450000018
 20
1070.75
 40
0.5
 50
0
 51
90.000003000000007
  0
LINE
  8
_0-0_0
  6
CONTINUOUS
 62
    7
 10
-756.98315450000018
 20
1071.25
 11
-755.48315450000018
 21
1071.25
  0
ARC
  8
_0-0_0
  6
CONTINUOUS
 62
    7
 10
-756.98315450000018
 20
1072.25
 40
1
 50
179.99999099999999
 51
269.99999700000001
  0
LINE
  8
_0-0_0
  6
CONTINUOUS
 62
    7
 10
-757.9831545000003
 20
1072.75
 11
-757.9831545000003
 21
1072.25
  0
LINE
  8
_0-0_0
  6
CONTINUOUS
 62
    7
 10
-758.48315450000018
 20
1072.75
 11
-758.48315450000018
 21
1071.75
  0
LINE
  8
_0-0_0
  6
CONTINUOUS
 62
    7
 10
-754.08313050000015
 20
1043.25
 11
-754.08313050000015
 21
1044.1499940000001
  0
LINE
  8
_0-0_0
  6
CONTINUOUS
 62
    7
 10
-754.08313050000015
 20
1044.1499940000001
 11
-754.08313050000015
 21
1046.6499939999999
  0
LINE
  8
_0-0_0
  6
CONTINUOUS
 62
    7
 10
-754.08313050000015
 20
1046.6499939999999
 11
-754.08313050000015
 21
1067.25
  0
LINE
  8
_0-0_0
  6
CONTINUOUS
 62
    7
 10
-754.08313050000015
 20
1067.25
 11
-754.08313050000015
 21
1069.75
  0
LINE
  8
_0-0_0
  6
CONTINUOUS
 62
    7
 10
-756.28320350000001
 20
1069.75
 11
-756.28320350000001
 21
1068.5049739999999
  0
LINE
  8
_0-0_0
  6
CONTINUOUS
 62
    7
 10
-758.68322750000016
 20
1070.75
 11
-758.68322750000016
 21
1072.549988
  0
ARC
  8
_0-0_0
  6
CONTINUOUS
 62
    7
 10
-759.18322750000004
 20
1072.549988
 40
0.5
 50
0
 51
23.579369
  0
LINE
  8
_0-0_0
  6
CONTINUOUS
 62
    7
 10
-766.88317850000033
 20
1070.75
 11
-766.88317850000033
 21
1072.549988
  0
ARC
  8
_0-0_0
  6
CONTINUOUS
 62
    7
 10
-766.3831785000001
 20
1072.549988
 40
0.5
 50
156.420635
 51
179.99999099999999
  0
LINE
  8
_0-0_0
  6
CONTINUOUS
 62
    7
 10
-772.08313050000015
 20
1043.25
 11
-772.08313050000015
 21
1053.4499820000001
  0
LINE
  8
_0-0_0
  6
CONTINUOUS
 62
    7
 10
-772.08313050000015
 20
1053.4499820000001
 11
-772.08313050000015
 21
1054.4499819999999
  0
LINE
  8
_0-0_0
  6
CONTINUOUS
 62
    7
 10
-772.08313050000015
 20
1054.4499819999999
 11
-772.08313050000015
 21
1059.4499820000001
  0
LINE
  8
_0-0_0
  6
CONTINUOUS
 62
    7
 10
-772.08313050000015
 20
1059.4499820000001
 11
-772.08313050000015
 21
1060.4499819999999
  0
LINE
  8
_0-0_0
  6
CONTINUOUS
 62
    7
 10
-772.08313050000015
 20
1069.75
 11
-772.08313050000015
 21
1060.4499819999999
  0
LINE
  8
_0-0_0
  6
CONTINUOUS
 62
    7
 10
-753.28320350000001
 20
1068.75
 11
-754.08313050000015
 21
1068.75
  0
LINE
  8
_0-0_0
  6
CONTINUOUS
 62
    7
 10
-753.28320350000001
 20
1069.549988
 11
-754.08313050000015
 21
1069.549988
  0
LINE
  8
_0-0_0
  6
CONTINUOUS
 62
    7
 10
-753.28320350000001
 20
1068.549988
 11
-753.28320350000001
 21
1069.549988
  0
LINE
  8
_0-0_0
  6
CONTINUOUS
 62
    7
 10
-753.28320350000001
 20
1049.9499819999999
 11
-754.08313050000015
 21
1049.9499819999999
  0
LINE
  8
_0-0_0
  6
CONTINUOUS
 62
    7
 10
-753.28320350000001
 20
1049.9499819999999
 11
-753.28320350000001
 21
1052.9499819999999
  0
LINE
  8
_0-0_0
  6
CONTINUOUS
 62
    7
 10
-753.28320350000001
 20
1065.1876830000001
 11
-753.28320350000001
 21
1052.9499819999999
  0
LINE
  8
_0-0_0
  6
CONTINUOUS
 62
    7
 10
-753.28320350000001
 20
1065.1876830000001
 11
-753.28320350000001
 21
1066.1504520000001
  0
LINE
  8
_0-0_0
  6
CONTINUOUS
 62
    7
 10
-754.08313050000015
 20
1066.1504520000001
 11
-754.08313050000015
 21
1068.75
  0
ARC
  8
_0-0_0
  6
CONTINUOUS
 62
    7
 10
-759.69812050000019
 20
1065.432037
 40
5.7120379999999997
 50
18.558475999999999
 51
26.433648000000002
  0
ARC
  8
_0-0_0
  6
CONTINUOUS
 62
    7
 10
-754.28320350000013
 20
1067.25
 40
0.2
 50
269.99999700000001
 51
0
  0
ARC
  8
_0-0_0
  6
CONTINUOUS
 62
    7
 10
-754.28320350000013
 20
1046.6499939999999
 40
0.2
 50
0
 51
90.000003000000007
  0
ARC
  8
_0-0_0
  6
CONTINUOUS
 62
    7
 10
-759.69799850000015
 20
1048.468018
 40
5.711964
 50
333.565022
 51
341.44031000000001
  0
ARC
  8
_0-0_0
  6
CONTINUOUS
 62
    7
 10
-754.58313050000004
 20
1044.1499940000001
 40
0.5
 50
269.99999700000001
 51
0
  0
LINE
  8
_0-0_0
  6
CONTINUOUS
 62
    7
 10
-754.58313050000004
 20
1043.25
 11
-754.08313050000015
 21
1043.25
  0
LINE
  8
_0-0_0
  6
CONTINUOUS
 62
    7
 10
-754.08313050000015
 20
1043.25
 11
-754.58313050000004
 21
1042.75
  0
ARC
  8
_0-0_0
  6
CONTINUOUS
 62
    7
 10
-756.28320350000001
 20
1065.75
 40
2.2999999999999998
 50
34.417387999999995
 51
79.713437000000013
  0
LINE
  8
_0-0_0
  6
CONTINUOUS
 62
    7
 10
-754.34448250000025
 20
1067.049988
 11
-754.38586450000014
 21
1067.049988
  0
LINE
  8
_0-0_0
  6
CONTINUOUS
 62
    7
 10
-754.34448250000025
 20
1067.049988
 11
-754.33496150000008
 21
1067.051025
  0
LINE
  8
_0-0_0
  6
CONTINUOUS
 62
    7
 10
-754.33496150000008
 20
1067.051025
 11
-754.3254394999999
 21
1067.0541989999999
  0
LINE
  8
_0-0_0
  6
CONTINUOUS
 62
    7
 10
-754.3254394999999
 20
1067.0541989999999
 11
-754.31616250000013
 21
1067.0596009999999
  0
LINE
  8
_0-0_0
  6
CONTINUOUS
 62
    7
 10
-754.31616250000013
 20
1067.0596009999999
 11
-754.30737350000015
 21
1067.067108
  0
LINE
  8
_0-0_0
  6
CONTINUOUS
 62
    7
 10
-754.30737350000015
 20
1067.067108
 11
-754.29199250000011
 21
1067.087769
  0
LINE
  8
_0-0_0
  6
CONTINUOUS
 62
    7
 10
-754.29199250000011
 20
1067.087769
 11
-754.28027350000002
 21
1067.1150210000001
  0
LINE
  8
_0-0_0
  6
CONTINUOUS
 62
    7
 10
-754.28027350000002
 20
1067.1150210000001
 11
-754.27307150000013
 21
1067.147156
  0
LINE
  8
_0-0_0
  6
CONTINUOUS
 62
    7
 10
-754.27307150000013
 20
1067.147156
 11
-754.27111849999994
 21
1067.1822199999999
  0
LINE
  8
_0-0_0
  6
CONTINUOUS
 62
    7
 10
-754.27111849999994
 20
1067.1822199999999
 11
-754.27502450000031
 21
1067.218384
  0
LINE
  8
_0-0_0
  6
CONTINUOUS
 62
    7
 10
-754.27502450000031
 20
1067.218384
 11
-754.28320350000013
 21
1067.25
  0
ARC
  8
_0-0_0
  6
CONTINUOUS
 62
    7
 10
-755.78320350000013
 20
1068.5049739999999
 40
0.5
 50
179.99999099999999
 51
259.71343899999994
  0
LINE
  8
_0-0_0
  6
CONTINUOUS
 62
    7
 10
-771.28320350000001
 20
1065.75
 11
-771.28320350000001
 21
1052.1499939999999
  0
LINE
  8
_0-0_0
  6
CONTINUOUS
 62
    7
 10
-771.28320350000001
 20
1051.6499940000001
 11
-771.28320350000001
 21
1052.1499939999999
  0
LINE
  8
_0-0_0
  6
CONTINUOUS
 62
    7
 10
-771.28320350000001
 20
1048.6499940000001
 11
-771.28320350000001
 21
1051.6499940000001
  0
LINE
  8
_0-0_0
  6
CONTINUOUS
 62
    7
 10
-771.28320350000001
 20
1048.1499939999999
 11
-771.28320350000001
 21
1048.6499940000001
  0
ARC
  8
_0-0_0
  6
CONTINUOUS
 62
    7
 10
-769.28320350000013
 20
1065.75
 40
2
 50
93.840255999999997
 51
179.99999099999999
  0
LINE
  8
_0-0_0
  6
CONTINUOUS
 62
    7
 10
-769.28320350000013
 20
1067.75
 11
-760.28320350000013
 21
1067.75
  0
LINE
  8
_0-0_0
  6
CONTINUOUS
 62
    7
 10
-756.28320350000001
 20
1067.75
 11
-756.78320350000024
 21
1067.75
  0
LINE
  8
_0-0_0
  6
CONTINUOUS
 62
    7
 10
-756.78320350000024
 20
1067.75
 11
-759.78320350000024
 21
1067.75
  0
LINE
  8
_0-0_0
  6
CONTINUOUS
 62
    7
 10
-760.28320350000013
 20
1067.75
 11
-759.78320350000024
 21
1067.75
  0
ARC
  8
_0-0_0
  6
CONTINUOUS
 62
    7
 10
-756.28320350000001
 20
1065.75
 40
2
 50
0
 51
90.000003000000007
  0
LINE
  8
_0-0_0
  6
CONTINUOUS
 62
    7
 10
-772.28320350000013
 20
1068.75
 11
-772.08313050000015
 21
1068.75
  0
LINE
  8
_0-0_0
  6
CONTINUOUS
 62
    7
 10
-772.28320350000013
 20
1069.549988
 11
-772.08313050000015
 21
1069.549988
  0
LINE
  8
_0-0_0
  6
CONTINUOUS
 62
    7
 10
-772.28320350000013
 20
1069.549988
 11
-772.28320350000013
 21
1068.7501219999999
  0
LINE
  8
_0-0_0
  6
CONTINUOUS
 62
    7
 10
-772.28320350000013
 20
1049.9499819999999
 11
-772.08313050000015
 21
1049.9499819999999
  0
LINE
  8
_0-0_0
  6
CONTINUOUS
 62
    7
 10
-772.28320350000013
 20
1052.9499819999999
 11
-772.28320350000013
 21
1049.9499819999999
  0
LINE
  8
_0-0_0
  6
CONTINUOUS
 62
    7
 10
-772.28320350000013
 20
1065.1876830000001
 11
-772.28320350000013
 21
1052.9499819999999
  0
LINE
  8
_0-0_0
  6
CONTINUOUS
 62
    7
 10
-772.28320350000013
 20
1066.1504520000001
 11
-772.28320350000013
 21
1065.1876830000001
  0
ARC
  8
_0-0_0
  6
CONTINUOUS
 62
    7
 10
-771.58313050000027
 20
1059.4499820000001
 40
0.5
 50
90.000003000000007
 51
179.99999099999999
  0
ARC
  8
_0-0_0
  6
CONTINUOUS
 62
    7
 10
-771.58313050000027
 20
1054.4499819999999
 40
0.5
 50
179.99999099999999
 51
269.99999700000001
  0
LINE
  8
_0-0_0
  6
CONTINUOUS
 62
    7
 10
-772.08313050000015
 20
1043.25
 11
-771.58313050000027
 21
1043.25
  0
LINE
  8
_0-0_0
  6
CONTINUOUS
 62
    7
 10
-772.08313050000015
 20
1043.25
 11
-771.58313050000027
 21
1042.75
  0
LINE
  8
_0-0_0
  6
CONTINUOUS
 62
    7
 10
-754.08313050000015
 20
1049.950012
 11
-754.08313050000015
 21
1048.799988
  0
ARC
  8
_0-0_0
  6
CONTINUOUS
 62
    7
 10
-756.4831545000003
 20
1048.799988
 40
2.3999999999999999
 50
359.58604600000001
 51
0.0000099999999787
  0
LINE
  8
_0-0_0
  6
CONTINUOUS
 62
    7
 10
-753.28320350000001
 20
1066.1504520000001
 11
-753.28320350000001
 21
1068.75
  0
LINE
  8
_0-0_0
  6
CONTINUOUS
 62
    7
 10
-754.28320350000013
 20
1067.049988
 11
-754.34448250000025
 21
1067.049988
  0
LINE
  8
_0-0_0
  6
CONTINUOUS
 62
    7
 10
-754.38586450000014
 20
1067.049988
 11
-754.38806150000005
 21
1067.049988
  0
LINE
  8
_0-0_0
  6
CONTINUOUS
 62
    7
 10
-754.58313050000004
 20
1043.25
 11
-771.58313050000027
 21
1043.25
  0
LINE
  8
_0-0_0
  6
CONTINUOUS
 62
    7
 10
-754.51977550000004
 20
1047.049988
 11
-754.48278849999997
 21
1046.9797669999998
  0
LINE
  8
_0-0_0
  6
CONTINUOUS
 62
    7
 10
-754.48278849999997
 20
1046.9797669999998
 11
-754.46313450000014
 21
1046.9452820000001
  0
LINE
  8
_0-0_0
  6
CONTINUOUS
 62
    7
 10
-754.46313450000014
 20
1046.9452820000001
 11
-754.43713349999996
 21
1046.9034419999998
  0
LINE
  8
_0-0_0
  6
CONTINUOUS
 62
    7
 10
-754.43713349999996
 20
1046.9034419999998
 11
-754.42382850000013
 21
1046.884399
  0
LINE
  8
_0-0_0
  6
CONTINUOUS
 62
    7
 10
-754.42382850000013
 20
1046.884399
 11
-754.40539549999994
 21
1046.8620000000001
  0
LINE
  8
_0-0_0
  6
CONTINUOUS
 62
    7
 10
-754.40539549999994
 20
1046.8620000000001
 11
-754.39270049999993
 21
1046.8513790000002
  0
LINE
  8
_0-0_0
  6
CONTINUOUS
 62
    7
 10
-754.39270049999993
 20
1046.8513790000002
 11
-754.38806150000005
 21
1046.849976
  0
LINE
  8
_0-0_0
  6
CONTINUOUS
 62
    7
 10
-754.38586450000014
 20
1046.849976
 11
-754.38806150000005
 21
1046.849976
  0
LINE
  8
_0-0_0
  6
CONTINUOUS
 62
    7
 10
-754.51977550000004
 20
1066.849976
 11
-754.48278849999997
 21
1066.9202270000001
  0
LINE
  8
_0-0_0
  6
CONTINUOUS
 62
    7
 10
-754.48278849999997
 20
1066.9202270000001
 11
-754.46313450000014
 21
1066.9546810000002
  0
LINE
  8
_0-0_0
  6
CONTINUOUS
 62
    7
 10
-754.46313450000014
 20
1066.9546810000002
 11
-754.43713349999996
 21
1066.996521
  0
LINE
  8
_0-0_0
  6
CONTINUOUS
 62
    7
 10
-754.43713349999996
 20
1066.996521
 11
-754.42382850000013
 21
1067.015564
  0
LINE
  8
_0-0_0
  6
CONTINUOUS
 62
    7
 10
-754.42382850000013
 20
1067.015564
 11
-754.40539549999994
 21
1067.0379640000001
  0
LINE
  8
_0-0_0
  6
CONTINUOUS
 62
    7
 10
-754.40539549999994
 20
1067.0379640000001
 11
-754.39270049999993
 21
1067.0485840000001
  0
LINE
  8
_0-0_0
  6
CONTINUOUS
 62
    7
 10
-754.39270049999993
 20
1067.0485840000001
 11
-754.38806150000005
 21
1067.049988
  0
LINE
  8
_0-0_0
  6
CONTINUOUS
 62
    7
 10
-754.38586450000014
 20
1046.849976
 11
-754.34448250000025
 21
1046.849976
  0
LINE
  8
_0-0_0
  6
CONTINUOUS
 62
    7
 10
-754.28320350000013
 20
1046.849976
 11
-754.34448250000025
 21
1046.849976
  0
LINE
  8
_0-0_0
  6
CONTINUOUS
 62
    7
 10
-754.34448250000025
 20
1046.849976
 11
-754.33496150000008
 21
1046.8489379999999
  0
LINE
  8
_0-0_0
  6
CONTINUOUS
 62
    7
 10
-754.33496150000008
 20
1046.8489379999999
 11
-754.3254394999999
 21
1046.8457639999999
  0
LINE
  8
_0-0_0
  6
CONTINUOUS
 62
    7
 10
-754.3254394999999
 20
1046.8457639999999
 11
-754.31616250000013
 21
1046.840363
  0
LINE
  8
_0-0_0
  6
CONTINUOUS
 62
    7
 10
-754.31616250000013
 20
1046.840363
 11
-754.30737350000015
 21
1046.8328549999999
  0
LINE
  8
_0-0_0
  6
CONTINUOUS
 62
    7
 10
-754.30737350000015
 20
1046.8328549999999
 11
-754.29199250000011
 21
1046.8122250000001
  0
LINE
  8
_0-0_0
  6
CONTINUOUS
 62
    7
 10
-754.29199250000011
 20
1046.8122250000001
 11
-754.28027350000002
 21
1046.7849430000001
  0
LINE
  8
_0-0_0
  6
CONTINUOUS
 62
    7
 10
-754.28027350000002
 20
1046.7849430000001
 11
-754.27307150000013
 21
1046.752808
  0
LINE
  8
_0-0_0
  6
CONTINUOUS
 62
    7
 10
-754.27307150000013
 20
1046.752808
 11
-754.27111849999994
 21
1046.7177429999999
  0
LINE
  8
_0-0_0
  6
CONTINUOUS
 62
    7
 10
-754.27111849999994
 20
1046.7177429999999
 11
-754.27502450000031
 21
1046.6815799999999
  0
LINE
  8
_0-0_0
  6
CONTINUOUS
 62
    7
 10
-754.27502450000031
 20
1046.6815799999999
 11
-754.28320350000013
 21
1046.6499939999999
  0
ARC
  8
_0-0_0
  6
CONTINUOUS
 62
    7
 10
-756.28320350000001
 20
1048.1499939999999
 40
2.2999999999999998
 50
280.28656300000006
 51
325.58260500000006
  0
LINE
  8
_0-0_0
  6
CONTINUOUS
 62
    7
 10
-754.58313050000004
 20
1043.6499939999999
 11
-755.78320350000013
 21
1043.6499939999999
  0
LINE
  8
_0-0_0
  6
CONTINUOUS
 62
    7
 10
-754.58313050000004
 20
1042.75
 11
-771.58313050000027
 21
1042.75
  0
LINE
  8
_0-0_0
  6
CONTINUOUS
 62
    7
 10
-771.28320350000001
 20
1059.9499820000001
 11
-771.58313050000027
 21
1059.9499820000001
  0
ARC
  8
_0-0_0
  6
CONTINUOUS
 62
    7
 10
-770.78320350000013
 20
1052.1499939999999
 40
0.5
 50
179.99999099999999
 51
269.99999700000001
  0
CIRCLE
  8
_0-0_0
  6
CONTINUOUS
 62
    7
 10
-768.78320350000024
 20
1048.6499940000001
 40
2.5
  0
LINE
  8
_0-0_0
  6
CONTINUOUS
 62
    7
 10
-765.78320350000024
 20
1046.1499939999999
 11
-768.78320350000024
 21
1046.1499939999999
  0
LINE
  8
_0-0_0
  6
CONTINUOUS
 62
    7
 10
-765.28320350000001
 20
1046.1499939999999
 11
-765.78320350000024
 21
1046.1499939999999
  0
ARC
  8
_0-0_0
  6
CONTINUOUS
 62
    7
 10
-769.28320350000013
 20
1048.1499939999999
 40
2
 50
179.99999099999999
 51
269.99999700000001
  0
LINE
  8
_0-0_0
  6
CONTINUOUS
 62
    7
 10
-768.78320350000024
 20
1046.1499939999999
 11
-769.28320350000013
 21
1046.1499939999999
  0
LINE
  8
_0-0_0
  6
CONTINUOUS
 62
    7
 10
-769.28320350000013
 20
1067.6473390000001
 11
-769.29907249999997
 21
1067.674591
  0
LINE
  8
_0-0_0
  6
CONTINUOUS
 62
    7
 10
-769.29907249999997
 20
1067.674591
 11
-769.31494150000015
 21
1067.6975709999999
  0
LINE
  8
_0-0_0
  6
CONTINUOUS
 62
    7
 10
-769.31494150000015
 20
1067.6975709999999
 11
-769.32885750000014
 21
1067.7143249999999
  0
LINE
  8
_0-0_0
  6
CONTINUOUS
 62
    7
 10
-769.32885750000014
 20
1067.7143249999999
 11
-769.34277350000013
 21
1067.7276609999999
  0
LINE
  8
_0-0_0
  6
CONTINUOUS
 62
    7
 10
-769.34277350000013
 20
1067.7276609999999
 11
-769.35498050000001
 21
1067.7366029999998
  0
LINE
  8
_0-0_0
  6
CONTINUOUS
 62
    7
 10
-769.35498050000001
 20
1067.7366029999998
 11
-769.36718749999989
 21
1067.742798
  0
LINE
  8
_0-0_0
  6
CONTINUOUS
 62
    7
 10
-769.36718749999989
 20
1067.742798
 11
-769.37805150000008
 21
1067.7460940000001
  0
LINE
  8
_0-0_0
  6
CONTINUOUS
 62
    7
 10
-769.37805150000008
 20
1067.7460940000001
 11
-769.38879450000024
 21
1067.7471310000001
  0
LINE
  8
_0-0_0
  6
CONTINUOUS
 62
    7
 10
-769.38879450000024
 20
1067.7471310000001
 11
-769.39123549999988
 21
1067.7470699999999
  0
LINE
  8
_0-0_0
  6
CONTINUOUS
 62
    7
 10
-754.28320350000013
 20
1065.25
 11
-754.28320350000013
 21
1065.75
  0
CIRCLE
  8
_0-0_0
  6
CONTINUOUS
 62
    7
 10
-756.78320350000024
 20
1065.25
 40
2.5
  0
LINE
  8
_0-0_0
  6
CONTINUOUS
 62
    7
 10
-754.28320350000013
 20
1062.25
 11
-754.28320350000013
 21
1061.75
  0
LINE
  8
_0-0_0
  6
CONTINUOUS
 62
    7
 10
-754.28320350000013
 20
1062.25
 11
-754.28320350000013
 21
1065.25
  0
ARC
  8
_0-0_0
  6
CONTINUOUS
 62
    7
 10
-760.28320350000013
 20
1067.25
 40
0.5
 50
0
 51
90.000003000000007
  0
LINE
  8
_0-0_0
  6
CONTINUOUS
 62
    7
 10
-754.28320350000013
 20
1048.1499939999999
 11
-754.28320350000013
 21
1061.75
  0
LINE
  8
_0-0_0
  6
CONTINUOUS
 62
    7
 10
-772.28320350000013
 20
1068.75
 11
-772.28320350000013
 21
1066.1504520000001
  0
LINE
  8
_0-0_0
  6
CONTINUOUS
 62
    7
 10
-771.58313050000027
 20
1053.9499820000001
 11
-771.28320350000001
 21
1053.9499820000001
  0
LINE
  8
_0-0_0
  6
CONTINUOUS
 62
    7
 10
-754.08313050000015
 20
1069.5500489999999
 11
-754.08313050000015
 21
1069.75
  0
ARC
  8
_0-0_0
  6
CONTINUOUS
 62
    7
 10
-756.28320350000001
 20
1048.1499939999999
 40
2
 50
273.84026500000004
 51
0.000010000000014
  0
LINE
  8
_0-0_0
  6
CONTINUOUS
 62
    7
 10
-756.28320350000001
 20
1046.1499939999999
 11
-765.28320350000001
 21
1046.1499939999999
  0
ARC
  8
_0-0_0
  6
CONTINUOUS
 62
    7
 10
-755.78320350000013
 20
1045.3949889999999
 40
0.5
 50
100.28656100000001
 51
179.99999099999999
  0
LINE
  8
_0-0_0
  6
CONTINUOUS
 62
    7
 10
-756.28320350000001
 20
1044.1499940000001
 11
-756.28320350000001
 21
1045.3949889999999
  0
ARC
  8
_0-0_0
  6
CONTINUOUS
 62
    7
 10
-755.78320350000013
 20
1044.1499940000001
 40
0.5
 50
179.99999099999999
 51
269.99999700000001
  0
LINE
  8
_0-0_0
  6
CONTINUOUS
 62
    7
 10
-770.7061765000002
 20
1051.6499940000001
 11
-770.78320350000013
 21
1051.6499940000001
  0
LINE
  8
_0-0_0
  6
CONTINUOUS
 62
    7
 10
-768.78320350000024
 20
1051.6499940000001
 11
-769.26464849999991
 21
1051.6499940000001
  0
LINE
  8
_0-0_0
  6
CONTINUOUS
 62
    7
 10
-769.26464849999991
 20
1051.6499940000001
 11
-770.7061765000002
 21
1051.6499940000001
  0
LINE
  8
_0-0_0
  6
CONTINUOUS
 62
    7
 10
-765.78320350000024
 20
1046.6499939999999
 11
-765.78320350000024
 21
1046.7269590000001
  0
LINE
  8
_0-0_0
  6
CONTINUOUS
 62
    7
 10
-765.78320350000024
 20
1048.168488
 11
-765.78320350000024
 21
1046.7269590000001
  0
LINE
  8
_0-0_0
  6
CONTINUOUS
 62
    7
 10
-765.78320350000024
 20
1048.168488
 11
-765.78320350000024
 21
1048.6499940000001
  0
ARC
  8
_0-0_0
  6
CONTINUOUS
 62
    7
 10
-768.78320350000024
 20
1048.6499940000001
 40
3
 50
0
 51
89.999995999999996
  0
ARC
  8
_0-0_0
  6
CONTINUOUS
 62
    7
 10
-765.28320350000001
 20
1046.6499939999999
 40
0.5
 50
179.99999099999999
 51
269.99999700000001
  0
LINE
  8
_0-0_0
  6
CONTINUOUS
 62
    7
 10
-759.78320350000024
 20
1067.173004
 11
-759.78320350000024
 21
1067.25
  0
LINE
  8
_0-0_0
  6
CONTINUOUS
 62
    7
 10
-759.78320350000024
 20
1065.7314759999999
 11
-759.78320350000024
 21
1067.173004
  0
LINE
  8
_0-0_0
  6
CONTINUOUS
 62
    7
 10
-759.78320350000024
 20
1065.25
 11
-759.78320350000024
 21
1065.7314759999999
  0
ARC
  8
_0-0_0
  6
CONTINUOUS
 62
    7
 10
-756.78320350000024
 20
1065.25
 40
3
 50
179.99999099999999
 51
269.99999700000001
  0
LINE
  8
_0-0_0
  6
CONTINUOUS
 62
    7
 10
-756.30163549999986
 20
1062.25
 11
-756.78320350000024
 21
1062.25
  0
LINE
  8
_0-0_0
  6
CONTINUOUS
 62
    7
 10
-756.30163549999986
 20
1062.25
 11
-754.86010750000025
 21
1062.25
  0
LINE
  8
_0-0_0
  6
CONTINUOUS
 62
    7
 10
-754.78320350000001
 20
1062.25
 11
-754.86010750000025
 21
1062.25
  0
ARC
  8
_0-0_0
  6
CONTINUOUS
 62
    7
 10
-754.78320350000001
 20
1061.75
 40
0.5
 50
0
 51
90.000003000000007
  0
LINE
  8
_0-0_0
  6
CONTINUOUS
 62
    7
 10
-756.28320350000001
 20
1046.2526250000001
 11
-756.26733450000017
 21
1046.2253719999999
  0
LINE
  8
_0-0_0
  6
CONTINUOUS
 62
    7
 10
-756.26733450000017
 20
1046.2253719999999
 11
-756.2514645
 21
1046.202393
  0
LINE
  8
_0-0_0
  6
CONTINUOUS
 62
    7
 10
-756.2514645
 20
1046.202393
 11
-756.23742649999997
 21
1046.1856379999999
  0
LINE
  8
_0-0_0
  6
CONTINUOUS
 62
    7
 10
-756.23742649999997
 20
1046.1856379999999
 11
-756.22363250000001
 21
1046.1723019999999
  0
LINE
  8
_0-0_0
  6
CONTINUOUS
 62
    7
 10
-756.22363250000001
 20
1046.1723019999999
 11
-756.21142550000013
 21
1046.163391
  0
LINE
  8
_0-0_0
  6
CONTINUOUS
 62
    7
 10
-756.21142550000013
 20
1046.163391
 11
-756.19921849999992
 21
1046.157166
  0
LINE
  8
_0-0_0
  6
CONTINUOUS
 62
    7
 10
-756.19921849999992
 20
1046.157166
 11
-756.18835450000006
 21
1046.1539
  0
LINE
  8
_0-0_0
  6
CONTINUOUS
 62
    7
 10
-756.18835450000006
 20
1046.1539
 11
-756.17761250000024
 21
1046.152832
  0
LINE
  8
_0-0_0
  6
CONTINUOUS
 62
    7
 10
-756.17761250000024
 20
1046.152832
 11
-756.17517149999992
 21
1046.1528929999999
  0
ARC
  8
_0-0_0
  6
CONTINUOUS
 62
    7
 10
-766.01330550000011
 20
1055.7767329999999
 40
3.0633990000000004
 50
199.82113599999997
 51
205.28948099999999
  0
ARC
  8
_0-0_0
  6
CONTINUOUS
 62
    7
 10
-766.01367250000021
 20
1058.1233520000001
 40
3.0630550000000003
 50
154.710137
 51
160.17869999999999
  0
ARC
  8
_0-0_0
  6
CONTINUOUS
 62
    7
 10
-762.78320350000024
 20
1056.9499820000001
 40
6.5
 50
160.10415599999999
 51
199.895612
  0
ARC
  8
_0-0_0
  6
CONTINUOUS
 62
    7
 10
-759.55310050000003
 20
1058.1232299999999
 40
3.0633949999999999
 50
19.82113
 51
25.289566000000001
  0
ARC
  8
_0-0_0
  6
CONTINUOUS
 62
    7
 10
-759.55273449999993
 20
1055.776611
 40
3.0630519999999999
 50
334.71006
 51
340.17869200000001
  0
LINE
  8
_0-0_0
  6
CONTINUOUS
 62
    7
 10
-762.04150450000009
 20
1050.4499820000001
 11
-757.52490250000005
 21
1053.0576780000001
  0
LINE
  8
_0-0_0
  6
CONTINUOUS
 62
    7
 10
-763.52490250000005
 20
1050.4499820000001
 11
-762.04150450000009
 21
1050.4499820000001
  0
LINE
  8
_0-0_0
  6
CONTINUOUS
 62
    7
 10
-768.04150450000009
 20
1053.0576780000001
 11
-763.52490250000005
 21
1050.4499820000001
  0
LINE
  8
_0-0_0
  6
CONTINUOUS
 62
    7
 10
-768.78320350000024
 20
1059.5576780000001
 11
-768.78320350000024
 21
1054.3422849999999
  0
LINE
  8
_0-0_0
  6
CONTINUOUS
 62
    7
 10
-768.04150450000009
 20
1053.0576780000001
 11
-768.78320350000024
 21
1054.3422849999999
  0
LINE
  8
_0-0_0
  6
CONTINUOUS
 62
    7
 10
-763.52490250000005
 20
1063.4499819999999
 11
-768.04150450000009
 21
1060.8422850000002
  0
LINE
  8
_0-0_0
  6
CONTINUOUS
 62
    7
 10
-768.33569350000016
 20
1060.3328549999999
 11
-768.78320350000024
 21
1059.5576780000001
  0
LINE
  8
_0-0_0
  6
CONTINUOUS
 62
    7
 10
-768.33569350000016
 20
1060.3328549999999
 11
-768.04150450000009
 21
1060.8422850000002
  0
LINE
  8
_0-0_0
  6
CONTINUOUS
 62
    7
 10
-762.04150450000009
 20
1063.4499819999999
 11
-763.52490250000005
 21
1063.4499819999999
  0
LINE
  8
_0-0_0
  6
CONTINUOUS
 62
    7
 10
-757.52490250000005
 20
1060.8422850000002
 11
-762.04150450000009
 21
1063.4499819999999
  0
ARC
  8
_0-0_0
  6
CONTINUOUS
 62
    7
 10
-762.78320350000024
 20
1056.9499820000001
 40
6.5
 50
340.10416099999998
 51
19.895609999999952
  0
LINE
  8
_0-0_0
  6
CONTINUOUS
 62
    7
 10
-757.23071349999998
 20
1053.567108
 11
-756.78320350000024
 21
1054.3422849999999
  0
LINE
  8
_0-0_0
  6
CONTINUOUS
 62
    7
 10
-757.23071349999998
 20
1053.567108
 11
-757.52490250000005
 21
1053.0576780000001
  0
CIRCLE
  8
_0-0_0
  6
CONTINUOUS
 62
    7
 10
-762.78320350000024
 20
1056.9499820000001
 40
5.25
  0
LINE
  8
_0-0_0
  6
CONTINUOUS
 62
    7
 10
-756.78320350000024
 20
1059.5576780000001
 11
-756.78320350000024
 21
1054.3422849999999
  0
LINE
  8
_0-0_0
  6
CONTINUOUS
 62
    7
 10
-757.52490250000005
 20
1060.8422850000002
 11
-756.78320350000024
 21
1059.5576780000001
  0
LINE
  8
_0-0_0
  6
CONTINUOUS
 62
    7
 10
-754.89611850000006
 20
1066.4754330000001
 11
-754.61816450000026
 21
1066.5
  0
LINE
  8
_0-0_0
  6
CONTINUOUS
 62
    7
 10
-754.7784425000001
 20
1066.2714539999999
 11
-754.61816450000026
 21
1066.5
  0
LINE
  8
_0-0_0
  6
CONTINUOUS
 62
    7
 10
-755.03466849999984
 20
1066.6659549999999
 11
-754.76062050000007
 21
1066.719452
  0
LINE
  8
_0-0_0
  6
CONTINUOUS
 62
    7
 10
-754.89611850000006
 20
1066.4754330000001
 11
-754.76062050000007
 21
1066.719452
  0
LINE
  8
_0-0_0
  6
CONTINUOUS
 62
    7
 10
-755.19213849999994
 20
1066.8409729999998
 11
-754.92529350000007
 21
1066.9228210000001
  0
LINE
  8
_0-0_0
  6
CONTINUOUS
 62
    7
 10
-755.03466849999984
 20
1066.6659549999999
 11
-754.92529350000007
 21
1066.9228210000001
  0
LINE
  8
_0-0_0
  6
CONTINUOUS
 62
    7
 10
-755.3671875
 20
1066.998566
 11
-755.11035150000009
 21
1067.107849
  0
LINE
  8
_0-0_0
  6
CONTINUOUS
 62
    7
 10
-755.19213849999994
 20
1066.8409729999998
 11
-755.11035150000009
 21
1067.107849
  0
LINE
  8
_0-0_0
  6
CONTINUOUS
 62
    7
 10
-755.55773950000014
 20
1067.1369930000001
 11
-755.31372049999993
 21
1067.272522
  0
LINE
  8
_0-0_0
  6
CONTINUOUS
 62
    7
 10
-755.3671875
 20
1066.998566
 11
-755.31372049999993
 21
1067.272522
  0
LINE
  8
_0-0_0
  6
CONTINUOUS
 62
    7
 10
-755.7617184999998
 20
1067.2547609999999
 11
-755.53320350000001
 21
1067.415039
  0
LINE
  8
_0-0_0
  6
CONTINUOUS
 62
    7
 10
-755.55773950000014
 20
1067.1369930000001
 11
-755.53320350000001
 21
1067.415039
  0
LINE
  8
_0-0_0
  6
CONTINUOUS
 62
    7
 10
-755.97680650000007
 20
1067.3505249999998
 11
-755.76635750000003
 21
1067.533844
  0
LINE
  8
_0-0_0
  6
CONTINUOUS
 62
    7
 10
-755.7617184999998
 20
1067.2547609999999
 11
-755.76635750000003
 21
1067.533844
  0
LINE
  8
_0-0_0
  6
CONTINUOUS
 62
    7
 10
-756.2008055
 20
1067.423309
 11
-756.0106205000003
 21
1067.6276250000001
  0
LINE
  8
_0-0_0
  6
CONTINUOUS
 62
    7
 10
-755.97680650000007
 20
1067.3505249999998
 11
-756.0106205000003
 21
1067.6276250000001
  0
LINE
  8
_0-0_0
  6
CONTINUOUS
 62
    7
 10
-756.43115249999994
 20
1067.4722899999999
 11
-756.26342750000015
 21
1067.6953429999999
  0
LINE
  8
_0-0_0
  6
CONTINUOUS
 62
    7
 10
-756.2008055
 20
1067.423309
 11
-756.26342750000015
 21
1067.6953429999999
  0
LINE
  8
_0-0_0
  6
CONTINUOUS
 62
    7
 10
-756.66540549999991
 20
1067.496887
 11
-756.52185050000014
 21
1067.736298
  0
LINE
  8
_0-0_0
  6
CONTINUOUS
 62
    7
 10
-756.43115249999994
 20
1067.4722899999999
 11
-756.52185050000014
 21
1067.736298
  0
LINE
  8
_0-0_0
  6
CONTINUOUS
 62
    7
 10
-756.90100149999989
 20
1067.496887
 11
-756.78320350000024
 21
1067.75
  0
LINE
  8
_0-0_0
  6
CONTINUOUS
 62
    7
 10
-756.66540549999991
 20
1067.496887
 11
-756.78320350000024
 21
1067.75
  0
LINE
  8
_0-0_0
  6
CONTINUOUS
 62
    7
 10
-757.13513150000017
 20
1067.4722899999999
 11
-757.0445555
 21
1067.736298
  0
LINE
  8
_0-0_0
  6
CONTINUOUS
 62
    7
 10
-756.90100149999989
 20
1067.496887
 11
-757.0445555
 21
1067.736298
  0
LINE
  8
_0-0_0
  6
CONTINUOUS
 62
    7
 10
-757.36547849999977
 20
1067.423309
 11
-757.30297849999999
 21
1067.6953429999999
  0
LINE
  8
_0-0_0
  6
CONTINUOUS
 62
    7
 10
-757.13513150000017
 20
1067.4722899999999
 11
-757.30297849999999
 21
1067.6953429999999
  0
LINE
  8
_0-0_0
  6
CONTINUOUS
 62
    7
 10
-757.58947750000004
 20
1067.3505249999998
 11
-757.55578650000018
 21
1067.6276250000001
  0
LINE
  8
_0-0_0
  6
CONTINUOUS
 62
    7
 10
-757.36547849999977
 20
1067.423309
 11
-757.55578650000018
 21
1067.6276250000001
  0
LINE
  8
_0-0_0
  6
CONTINUOUS
 62
    7
 10
-757.8046875
 20
1067.2547609999999
 11
-757.80004850000012
 21
1067.533844
  0
LINE
  8
_0-0_0
  6
CONTINUOUS
 62
    7
 10
-757.58947750000004
 20
1067.3505249999998
 11
-757.80004850000012
 21
1067.533844
  0
LINE
  8
_0-0_0
  6
CONTINUOUS
 62
    7
 10
-757.92419449999977
 20
1067.3385929999999
 11
-758.03320350000013
 21
1067.415039
  0
LINE
  8
_0-0_0
  6
CONTINUOUS
 62
    7
 10
-757.8046875
 20
1067.2547609999999
 11
-757.92419449999977
 21
1067.3385929999999
  0
LINE
  8
_0-0_0
  6
CONTINUOUS
 62
    7
 10
-758.0086675
 20
1067.1369930000001
 11
-758.03320350000013
 21
1067.415039
  0
LINE
  8
_0-0_0
  6
CONTINUOUS
 62
    7
 10
-758.1992184999998
 20
1066.998566
 11
-758.25268550000021
 21
1067.272522
  0
LINE
  8
_0-0_0
  6
CONTINUOUS
 62
    7
 10
-758.0086675
 20
1067.1369930000001
 11
-758.25268550000021
 21
1067.272522
  0
LINE
  8
_0-0_0
  6
CONTINUOUS
 62
    7
 10
-758.37414549999983
 20
1066.8409729999998
 11
-758.45605450000005
 21
1067.107849
  0
LINE
  8
_0-0_0
  6
CONTINUOUS
 62
    7
 10
-758.1992184999998
 20
1066.998566
 11
-758.45605450000005
 21
1067.107849
  0
LINE
  8
_0-0_0
  6
CONTINUOUS
 62
    7
 10
-758.53173849999996
 20
1066.6659549999999
 11
-758.64099150000004
 21
1066.9228210000001
  0
LINE
  8
_0-0_0
  6
CONTINUOUS
 62
    7
 10
-758.37414549999983
 20
1066.8409729999998
 11
-758.64099150000004
 21
1066.9228210000001
  0
LINE
  8
_0-0_0
  6
CONTINUOUS
 62
    7
 10
-758.67016650000005
 20
1066.4754330000001
 11
-758.80578650000007
 21
1066.719452
  0
LINE
  8
_0-0_0
  6
CONTINUOUS
 62
    7
 10
-758.53173849999996
 20
1066.6659549999999
 11
-758.80578650000007
 21
1066.719452
  0
LINE
  8
_0-0_0
  6
CONTINUOUS
 62
    7
 10
-758.78796350000005
 20
1066.2714539999999
 11
-758.94824250000022
 21
1066.5
  0
LINE
  8
_0-0_0
  6
CONTINUOUS
 62
    7
 10
-758.67016650000005
 20
1066.4754330000001
 11
-758.94824250000022
 21
1066.5
  0
LINE
  8
_0-0_0
  6
CONTINUOUS
 62
    7
 10
-758.88378950000026
 20
1066.0563050000001
 11
-759.06701650000014
 21
1066.266815
  0
LINE
  8
_0-0_0
  6
CONTINUOUS
 62
    7
 10
-758.78796350000005
 20
1066.2714539999999
 11
-759.06701650000014
 21
1066.266815
  0
LINE
  8
_0-0_0
  6
CONTINUOUS
 62
    7
 10
-758.95654350000007
 20
1065.8323359999999
 11
-759.16088850000017
 21
1066.022522
  0
LINE
  8
_0-0_0
  6
CONTINUOUS
 62
    7
 10
-758.88378950000026
 20
1066.0563050000001
 11
-759.16088850000017
 21
1066.022522
  0
LINE
  8
_0-0_0
  6
CONTINUOUS
 62
    7
 10
-759.00549349999994
 20
1065.6019590000001
 11
-759.22851549999996
 21
1065.769775
  0
LINE
  8
_0-0_0
  6
CONTINUOUS
 62
    7
 10
-758.95654350000007
 20
1065.8323359999999
 11
-759.22851549999996
 21
1065.769775
  0
LINE
  8
_0-0_0
  6
CONTINUOUS
 62
    7
 10
-759.00549349999994
 20
1065.6019590000001
 11
-759.26953150000008
 21
1065.5112920000001
  0
LINE
  8
_0-0_0
  6
CONTINUOUS
 62
    7
 10
-759.0301515000001
 20
1065.367737
 11
-759.26953150000008
 21
1065.5112920000001
  0
LINE
  8
_0-0_0
  6
CONTINUOUS
 62
    7
 10
-759.0301515000001
 20
1065.132233
 11
-759.28320350000001
 21
1065.25
  0
LINE
  8
_0-0_0
  6
CONTINUOUS
 62
    7
 10
-759.0301515000001
 20
1065.367737
 11
-759.28320350000001
 21
1065.25
  0
LINE
  8
_0-0_0
  6
CONTINUOUS
 62
    7
 10
-759.00549349999994
 20
1064.8980099999999
 11
-759.26953150000008
 21
1064.9886470000001
  0
LINE
  8
_0-0_0
  6
CONTINUOUS
 62
    7
 10
-759.0301515000001
 20
1065.132233
 11
-759.26953150000008
 21
1064.9886470000001
  0
LINE
  8
_0-0_0
  6
CONTINUOUS
 62
    7
 10
-758.95654350000007
 20
1064.667633
 11
-759.22851549999996
 21
1064.730194
  0
LINE
  8
_0-0_0
  6
CONTINUOUS
 62
    7
 10
-759.00549349999994
 20
1064.8980099999999
 11
-759.22851549999996
 21
1064.730194
  0
LINE
  8
_0-0_0
  6
CONTINUOUS
 62
    7
 10
-758.88378950000026
 20
1064.443665
 11
-759.16088850000017
 21
1064.4774479999999
  0
LINE
  8
_0-0_0
  6
CONTINUOUS
 62
    7
 10
-758.95654350000007
 20
1064.667633
 11
-759.16088850000017
 21
1064.4774479999999
  0
LINE
  8
_0-0_0
  6
CONTINUOUS
 62
    7
 10
-758.78796350000005
 20
1064.2285160000001
 11
-759.06701650000014
 21
1064.233154
  0
LINE
  8
_0-0_0
  6
CONTINUOUS
 62
    7
 10
-758.88378950000026
 20
1064.443665
 11
-759.06701650000014
 21
1064.233154
  0
LINE
  8
_0-0_0
  6
CONTINUOUS
 62
    7
 10
-758.67016650000005
 20
1064.0245359999999
 11
-758.94824250000022
 21
1064
  0
LINE
  8
_0-0_0
  6
CONTINUOUS
 62
    7
 10
-758.78796350000005
 20
1064.2285160000001
 11
-758.94824250000022
 21
1064
  0
LINE
  8
_0-0_0
  6
CONTINUOUS
 62
    7
 10
-758.53173849999996
 20
1063.8340149999999
 11
-758.80578650000007
 21
1063.780518
  0
LINE
  8
_0-0_0
  6
CONTINUOUS
 62
    7
 10
-758.67016650000005
 20
1064.0245359999999
 11
-758.80578650000007
 21
1063.780518
  0
LINE
  8
_0-0_0
  6
CONTINUOUS
 62
    7
 10
-758.37414549999983
 20
1063.658997
 11
-758.64099150000004
 21
1063.5771479999999
  0
LINE
  8
_0-0_0
  6
CONTINUOUS
 62
    7
 10
-758.53173849999996
 20
1063.8340149999999
 11
-758.64099150000004
 21
1063.5771479999999
  0
LINE
  8
_0-0_0
  6
CONTINUOUS
 62
    7
 10
-758.1992184999998
 20
1063.5014040000001
 11
-758.45605450000005
 21
1063.39212
  0
LINE
  8
_0-0_0
  6
CONTINUOUS
 62
    7
 10
-758.37414549999983
 20
1063.658997
 11
-758.45605450000005
 21
1063.39212
  0
LINE
  8
_0-0_0
  6
CONTINUOUS
 62
    7
 10
-758.0086675
 20
1063.3629759999999
 11
-758.25268550000021
 21
1063.2274480000001
  0
LINE
  8
_0-0_0
  6
CONTINUOUS
 62
    7
 10
-758.1992184999998
 20
1063.5014040000001
 11
-758.25268550000021
 21
1063.2274480000001
  0
LINE
  8
_0-0_0
  6
CONTINUOUS
 62
    7
 10
-757.8046875
 20
1063.2452090000002
 11
-758.03320350000013
 21
1063.08493
  0
LINE
  8
_0-0_0
  6
CONTINUOUS
 62
    7
 10
-758.0086675
 20
1063.3629759999999
 11
-758.03320350000013
 21
1063.08493
  0
LINE
  8
_0-0_0
  6
CONTINUOUS
 62
    7
 10
-757.58947750000004
 20
1063.149414
 11
-757.80004850000012
 21
1062.9661249999999
  0
LINE
  8
_0-0_0
  6
CONTINUOUS
 62
    7
 10
-757.8046875
 20
1063.2452090000002
 11
-757.80004850000012
 21
1062.9661249999999
  0
LINE
  8
_0-0_0
  6
CONTINUOUS
 62
    7
 10
-757.36547849999977
 20
1063.0766599999999
 11
-757.55578650000018
 21
1062.872345
  0
LINE
  8
_0-0_0
  6
CONTINUOUS
 62
    7
 10
-757.58947750000004
 20
1063.149414
 11
-757.55578650000018
 21
1062.872345
  0
LINE
  8
_0-0_0
  6
CONTINUOUS
 62
    7
 10
-757.13513150000017
 20
1063.027679
 11
-757.30297849999999
 21
1062.8046260000001
  0
LINE
  8
_0-0_0
  6
CONTINUOUS
 62
    7
 10
-757.36547849999977
 20
1063.0766599999999
 11
-757.30297849999999
 21
1062.8046260000001
  0
LINE
  8
_0-0_0
  6
CONTINUOUS
 62
    7
 10
-756.90100149999989
 20
1063.003052
 11
-757.0445555
 21
1062.763672
  0
LINE
  8
_0-0_0
  6
CONTINUOUS
 62
    7
 10
-757.13513150000017
 20
1063.027679
 11
-757.0445555
 21
1062.763672
  0
LINE
  8
_0-0_0
  6
CONTINUOUS
 62
    7
 10
-756.66540549999991
 20
1063.003052
 11
-756.78320350000024
 21
1062.75
  0
LINE
  8
_0-0_0
  6
CONTINUOUS
 62
    7
 10
-756.90100149999989
 20
1063.003052
 11
-756.78320350000024
 21
1062.75
  0
LINE
  8
_0-0_0
  6
CONTINUOUS
 62
    7
 10
-756.43115249999994
 20
1063.027679
 11
-756.52185050000014
 21
1062.763672
  0
LINE
  8
_0-0_0
  6
CONTINUOUS
 62
    7
 10
-756.66540549999991
 20
1063.003052
 11
-756.52185050000014
 21
1062.763672
  0
LINE
  8
_0-0_0
  6
CONTINUOUS
 62
    7
 10
-756.2008055
 20
1063.0766599999999
 11
-756.26342750000015
 21
1062.8046260000001
  0
LINE
  8
_0-0_0
  6
CONTINUOUS
 62
    7
 10
-756.43115249999994
 20
1063.027679
 11
-756.26342750000015
 21
1062.8046260000001
  0
LINE
  8
_0-0_0
  6
CONTINUOUS
 62
    7
 10
-755.97680650000007
 20
1063.149414
 11
-756.0106205000003
 21
1062.872345
  0
LINE
  8
_0-0_0
  6
CONTINUOUS
 62
    7
 10
-756.2008055
 20
1063.0766599999999
 11
-756.0106205000003
 21
1062.872345
  0
LINE
  8
_0-0_0
  6
CONTINUOUS
 62
    7
 10
-755.7617184999998
 20
1063.2452090000002
 11
-755.76635750000003
 21
1062.9661249999999
  0
LINE
  8
_0-0_0
  6
CONTINUOUS
 62
    7
 10
-755.97680650000007
 20
1063.149414
 11
-755.76635750000003
 21
1062.9661249999999
  0
LINE
  8
_0-0_0
  6
CONTINUOUS
 62
    7
 10
-755.64221250000003
 20
1063.1613770000001
 11
-755.53320350000001
 21
1063.08493
  0
LINE
  8
_0-0_0
  6
CONTINUOUS
 62
    7
 10
-755.7617184999998
 20
1063.2452090000002
 11
-755.64221250000003
 21
1063.1613770000001
  0
LINE
  8
_0-0_0
  6
CONTINUOUS
 62
    7
 10
-755.55773950000014
 20
1063.3629759999999
 11
-755.53320350000001
 21
1063.08493
  0
LINE
  8
_0-0_0
  6
CONTINUOUS
 62
    7
 10
-755.3671875
 20
1063.5014040000001
 11
-755.31372049999993
 21
1063.2274480000001
  0
LINE
  8
_0-0_0
  6
CONTINUOUS
 62
    7
 10
-755.55773950000014
 20
1063.3629759999999
 11
-755.31372049999993
 21
1063.2274480000001
  0
LINE
  8
_0-0_0
  6
CONTINUOUS
 62
    7
 10
-755.19213849999994
 20
1063.658997
 11
-755.11035150000009
 21
1063.39212
  0
LINE
  8
_0-0_0
  6
CONTINUOUS
 62
    7
 10
-755.3671875
 20
1063.5014040000001
 11
-755.11035150000009
 21
1063.39212
  0
LINE
  8
_0-0_0
  6
CONTINUOUS
 62
    7
 10
-755.03466849999984
 20
1063.8340149999999
 11
-754.92529350000007
 21
1063.5771479999999
  0
LINE
  8
_0-0_0
  6
CONTINUOUS
 62
    7
 10
-755.19213849999994
 20
1063.658997
 11
-754.92529350000007
 21
1063.5771479999999
  0
LINE
  8
_0-0_0
  6
CONTINUOUS
 62
    7
 10
-754.89611850000006
 20
1064.0245359999999
 11
-754.76062050000007
 21
1063.780518
  0
LINE
  8
_0-0_0
  6
CONTINUOUS
 62
    7
 10
-755.03466849999984
 20
1063.8340149999999
 11
-754.76062050000007
 21
1063.780518
  0
LINE
  8
_0-0_0
  6
CONTINUOUS
 62
    7
 10
-754.7784425000001
 20
1064.2285160000001
 11
-754.61816450000026
 21
1064
  0
LINE
  8
_0-0_0
  6
CONTINUOUS
 62
    7
 10
-754.89611850000006
 20
1064.0245359999999
 11
-754.61816450000026
 21
1064
  0
LINE
  8
_0-0_0
  6
CONTINUOUS
 62
    7
 10
-754.68261750000022
 20
1064.443665
 11
-754.49926749999997
 21
1064.233154
  0
LINE
  8
_0-0_0
  6
CONTINUOUS
 62
    7
 10
-754.7784425000001
 20
1064.2285160000001
 11
-754.49926749999997
 21
1064.233154
  0
LINE
  8
_0-0_0
  6
CONTINUOUS
 62
    7
 10
-754.60986350000007
 20
1064.667633
 11
-754.40551749999997
 21
1064.4774479999999
  0
LINE
  8
_0-0_0
  6
CONTINUOUS
 62
    7
 10
-754.68261750000022
 20
1064.443665
 11
-754.40551749999997
 21
1064.4774479999999
  0
LINE
  8
_0-0_0
  6
CONTINUOUS
 62
    7
 10
-754.56091349999986
 20
1064.8980099999999
 11
-754.33776850000015
 21
1064.730194
  0
LINE
  8
_0-0_0
  6
CONTINUOUS
 62
    7
 10
-754.60986350000007
 20
1064.667633
 11
-754.33776850000015
 21
1064.730194
  0
LINE
  8
_0-0_0
  6
CONTINUOUS
 62
    7
 10
-754.53625550000004
 20
1065.132233
 11
-754.29687550000006
 21
1064.9886470000001
  0
LINE
  8
_0-0_0
  6
CONTINUOUS
 62
    7
 10
-754.56091349999986
 20
1064.8980099999999
 11
-754.29687550000006
 21
1064.9886470000001
  0
LINE
  8
_0-0_0
  6
CONTINUOUS
 62
    7
 10
-754.53625550000004
 20
1065.367737
 11
-754.28320350000013
 21
1065.25
  0
LINE
  8
_0-0_0
  6
CONTINUOUS
 62
    7
 10
-754.53625550000004
 20
1065.132233
 11
-754.28320350000013
 21
1065.25
  0
LINE
  8
_0-0_0
  6
CONTINUOUS
 62
    7
 10
-754.56091349999986
 20
1065.6019590000001
 11
-754.29687550000006
 21
1065.5112920000001
  0
LINE
  8
_0-0_0
  6
CONTINUOUS
 62
    7
 10
-754.53625550000004
 20
1065.367737
 11
-754.29687550000006
 21
1065.5112920000001
  0
LINE
  8
_0-0_0
  6
CONTINUOUS
 62
    7
 10
-754.60986350000007
 20
1065.8323359999999
 11
-754.33776850000015
 21
1065.769775
  0
LINE
  8
_0-0_0
  6
CONTINUOUS
 62
    7
 10
-754.56091349999986
 20
1065.6019590000001
 11
-754.33776850000015
 21
1065.769775
  0
LINE
  8
_0-0_0
  6
CONTINUOUS
 62
    7
 10
-754.68261750000022
 20
1066.0563050000001
 11
-754.40551749999997
 21
1066.022522
  0
LINE
  8
_0-0_0
  6
CONTINUOUS
 62
    7
 10
-754.60986350000007
 20
1065.8323359999999
 11
-754.40551749999997
 21
1066.022522
  0
LINE
  8
_0-0_0
  6
CONTINUOUS
 62
    7
 10
-754.7784425000001
 20
1066.2714539999999
 11
-754.49926749999997
 21
1066.266815
  0
LINE
  8
_0-0_0
  6
CONTINUOUS
 62
    7
 10
-754.68261750000022
 20
1066.0563050000001
 11
-754.49926749999997
 21
1066.266815
  0
CIRCLE
  8
_0-0_0
  6
CONTINUOUS
 62
    7
 10
-756.78320350000024
 20
1065.25
 40
2
  0
CIRCLE
  8
_0-0_0
  6
CONTINUOUS
 62
    7
 10
-762.78320350000024
 20
1056.9499820000001
 40
5
  0
LINE
  8
_0-0_0
  6
CONTINUOUS
 62
    7
 10
-756.20104950000007
 20
1064.25
 11
-757.36535650000008
 21
1064.25
  0
LINE
  8
_0-0_0
  6
CONTINUOUS
 62
    7
 10
-757.36535650000008
 20
1064.25
 11
-757.93322750000016
 21
1065.25
  0
LINE
  8
_0-0_0
  6
CONTINUOUS
 62
    7
 10
-757.93322750000016
 20
1065.25
 11
-757.36535650000008
 21
1066.25
  0
LINE
  8
_0-0_0
  6
CONTINUOUS
 62
    7
 10
-757.36535650000008
 20
1066.25
 11
-756.20104950000007
 21
1066.25
  0
LINE
  8
_0-0_0
  6
CONTINUOUS
 62
    7
 10
-756.20104950000007
 20
1066.25
 11
-755.63317850000033
 21
1065.25
  0
LINE
  8
_0-0_0
  6
CONTINUOUS
 62
    7
 10
-755.63317850000033
 20
1065.25
 11
-756.20104950000007
 21
1064.25
  0
CIRCLE
  8
_0-0_0
  6
CONTINUOUS
 62
    7
 10
-762.78320350000024
 20
1056.9499820000001
 40
4.5381200000000002
  0
CIRCLE
  8
_0-0_0
  6
CONTINUOUS
 62
    7
 10
-762.78320350000024
 20
1056.9499820000001
 40
4
  0
LINE
  8
_0-0_0
  6
CONTINUOUS
 62
    7
 10
-770.67016650000005
 20
1047.42453
 11
-770.94824250000022
 21
1047.3999939999999
  0
LINE
  8
_0-0_0
  6
CONTINUOUS
 62
    7
 10
-770.78796350000005
 20
1047.62851
 11
-770.94824250000022
 21
1047.3999939999999
  0
LINE
  8
_0-0_0
  6
CONTINUOUS
 62
    7
 10
-770.53173849999996
 20
1047.234009
 11
-770.80578650000007
 21
1047.180511
  0
LINE
  8
_0-0_0
  6
CONTINUOUS
 62
    7
 10
-770.67016650000005
 20
1047.42453
 11
-770.80578650000007
 21
1047.180511
  0
LINE
  8
_0-0_0
  6
CONTINUOUS
 62
    7
 10
-770.37414549999983
 20
1047.05899
 11
-770.64099150000004
 21
1046.977173
  0
LINE
  8
_0-0_0
  6
CONTINUOUS
 62
    7
 10
-770.53173849999996
 20
1047.234009
 11
-770.64099150000004
 21
1046.977173
  0
LINE
  8
_0-0_0
  6
CONTINUOUS
 62
    7
 10
-770.19909650000011
 20
1046.901398
 11
-770.45605450000005
 21
1046.7921139999999
  0
LINE
  8
_0-0_0
  6
CONTINUOUS
 62
    7
 10
-770.37414549999983
 20
1047.05899
 11
-770.45605450000005
 21
1046.7921139999999
  0
LINE
  8
_0-0_0
  6
CONTINUOUS
 62
    7
 10
-770.0086675
 20
1046.76297
 11
-770.25268550000021
 21
1046.6274410000001
  0
LINE
  8
_0-0_0
  6
CONTINUOUS
 62
    7
 10
-770.19909650000011
 20
1046.901398
 11
-770.25268550000021
 21
1046.6274410000001
  0
LINE
  8
_0-0_0
  6
CONTINUOUS
 62
    7
 10
-769.8046875
 20
1046.645203
 11
-770.03320350000013
 21
1046.4849239999999
  0
LINE
  8
_0-0_0
  6
CONTINUOUS
 62
    7
 10
-770.0086675
 20
1046.76297
 11
-770.03320350000013
 21
1046.4849239999999
  0
LINE
  8
_0-0_0
  6
CONTINUOUS
 62
    7
 10
-769.58947750000004
 20
1046.549438
 11
-769.80004850000012
 21
1046.366119
  0
LINE
  8
_0-0_0
  6
CONTINUOUS
 62
    7
 10
-769.8046875
 20
1046.645203
 11
-769.80004850000012
 21
1046.366119
  0
LINE
  8
_0-0_0
  6
CONTINUOUS
 62
    7
 10
-769.36547849999977
 20
1046.4766540000001
 11
-769.55578650000018
 21
1046.2723390000001
  0
LINE
  8
_0-0_0
  6
CONTINUOUS
 62
    7
 10
-769.58947750000004
 20
1046.549438
 11
-769.55578650000018
 21
1046.2723390000001
  0
LINE
  8
_0-0_0
  6
CONTINUOUS
 62
    7
 10
-769.13513150000017
 20
1046.4277039999999
 11
-769.30297849999999
 21
1046.20462
  0
LINE
  8
_0-0_0
  6
CONTINUOUS
 62
    7
 10
-769.36547849999977
 20
1046.4766540000001
 11
-769.30297849999999
 21
1046.20462
  0
LINE
  8
_0-0_0
  6
CONTINUOUS
 62
    7
 10
-768.90100149999989
 20
1046.4030760000001
 11
-769.0445555
 21
1046.1636960000001
  0
LINE
  8
_0-0_0
  6
CONTINUOUS
 62
    7
 10
-769.13513150000017
 20
1046.4277039999999
 11
-769.0445555
 21
1046.1636960000001
  0
LINE
  8
_0-0_0
  6
CONTINUOUS
 62
    7
 10
-768.66540549999991
 20
1046.4030760000001
 11
-768.78320350000024
 21
1046.1499939999999
  0
LINE
  8
_0-0_0
  6
CONTINUOUS
 62
    7
 10
-768.90100149999989
 20
1046.4030760000001
 11
-768.78320350000024
 21
1046.1499939999999
  0
LINE
  8
_0-0_0
  6
CONTINUOUS
 62
    7
 10
-768.43115249999994
 20
1046.4277039999999
 11
-768.52185050000014
 21
1046.1636960000001
  0
LINE
  8
_0-0_0
  6
CONTINUOUS
 62
    7
 10
-768.66540549999991
 20
1046.4030760000001
 11
-768.52185050000014
 21
1046.1636960000001
  0
LINE
  8
_0-0_0
  6
CONTINUOUS
 62
    7
 10
-768.2008055
 20
1046.4766540000001
 11
-768.26342750000015
 21
1046.20462
  0
LINE
  8
_0-0_0
  6
CONTINUOUS
 62
    7
 10
-768.43115249999994
 20
1046.4277039999999
 11
-768.26342750000015
 21
1046.20462
  0
LINE
  8
_0-0_0
  6
CONTINUOUS
 62
    7
 10
-767.97680650000007
 20
1046.549438
 11
-768.0106205000003
 21
1046.2723390000001
  0
LINE
  8
_0-0_0
  6
CONTINUOUS
 62
    7
 10
-768.2008055
 20
1046.4766540000001
 11
-768.0106205000003
 21
1046.2723390000001
  0
LINE
  8
_0-0_0
  6
CONTINUOUS
 62
    7
 10
-767.7617184999998
 20
1046.645203
 11
-767.76635750000003
 21
1046.366119
  0
LINE
  8
_0-0_0
  6
CONTINUOUS
 62
    7
 10
-767.97680650000007
 20
1046.549438
 11
-767.76635750000003
 21
1046.366119
  0
LINE
  8
_0-0_0
  6
CONTINUOUS
 62
    7
 10
-767.64221250000003
 20
1046.561371
 11
-767.53320350000001
 21
1046.4849239999999
  0
LINE
  8
_0-0_0
  6
CONTINUOUS
 62
    7
 10
-767.7617184999998
 20
1046.645203
 11
-767.64221250000003
 21
1046.561371
  0
LINE
  8
_0-0_0
  6
CONTINUOUS
 62
    7
 10
-767.55773950000014
 20
1046.76297
 11
-767.53320350000001
 21
1046.4849239999999
  0
LINE
  8
_0-0_0
  6
CONTINUOUS
 62
    7
 10
-767.3671875
 20
1046.901398
 11
-767.31372049999993
 21
1046.6274410000001
  0
LINE
  8
_0-0_0
  6
CONTINUOUS
 62
    7
 10
-767.55773950000014
 20
1046.76297
 11
-767.31372049999993
 21
1046.6274410000001
  0
LINE
  8
_0-0_0
  6
CONTINUOUS
 62
    7
 10
-767.19213849999994
 20
1047.05899
 11
-767.11035150000009
 21
1046.7921139999999
  0
LINE
  8
_0-0_0
  6
CONTINUOUS
 62
    7
 10
-767.3671875
 20
1046.901398
 11
-767.11035150000009
 21
1046.7921139999999
  0
LINE
  8
_0-0_0
  6
CONTINUOUS
 62
    7
 10
-767.03466849999984
 20
1047.234009
 11
-766.92529350000007
 21
1046.977173
  0
LINE
  8
_0-0_0
  6
CONTINUOUS
 62
    7
 10
-767.19213849999994
 20
1047.05899
 11
-766.92529350000007
 21
1046.977173
  0
LINE
  8
_0-0_0
  6
CONTINUOUS
 62
    7
 10
-766.89611850000006
 20
1047.42453
 11
-766.76062050000007
 21
1047.180511
  0
LINE
  8
_0-0_0
  6
CONTINUOUS
 62
    7
 10
-767.03466849999984
 20
1047.234009
 11
-766.76062050000007
 21
1047.180511
  0
LINE
  8
_0-0_0
  6
CONTINUOUS
 62
    7
 10
-766.7784425000001
 20
1047.62851
 11
-766.61816450000026
 21
1047.3999939999999
  0
LINE
  8
_0-0_0
  6
CONTINUOUS
 62
    7
 10
-766.89611850000006
 20
1047.42453
 11
-766.61816450000026
 21
1047.3999939999999
  0
LINE
  8
_0-0_0
  6
CONTINUOUS
 62
    7
 10
-766.68261750000022
 20
1047.843658
 11
-766.49926749999997
 21
1047.6331479999999
  0
LINE
  8
_0-0_0
  6
CONTINUOUS
 62
    7
 10
-766.7784425000001
 20
1047.62851
 11
-766.49926749999997
 21
1047.6331479999999
  0
LINE
  8
_0-0_0
  6
CONTINUOUS
 62
    7
 10
-766.60986350000007
 20
1048.0676270000001
 11
-766.40551749999997
 21
1047.8774410000001
  0
LINE
  8
_0-0_0
  6
CONTINUOUS
 62
    7
 10
-766.68261750000022
 20
1047.843658
 11
-766.40551749999997
 21
1047.8774410000001
  0
LINE
  8
_0-0_0
  6
CONTINUOUS
 62
    7
 10
-766.56091349999986
 20
1048.298004
 11
-766.33776850000015
 21
1048.1301880000001
  0
LINE
  8
_0-0_0
  6
CONTINUOUS
 62
    7
 10
-766.60986350000007
 20
1048.0676270000001
 11
-766.33776850000015
 21
1048.1301880000001
  0
LINE
  8
_0-0_0
  6
CONTINUOUS
 62
    7
 10
-766.53625550000004
 20
1048.5322269999999
 11
-766.29687550000006
 21
1048.388672
  0
LINE
  8
_0-0_0
  6
CONTINUOUS
 62
    7
 10
-766.56091349999986
 20
1048.298004
 11
-766.29687550000006
 21
1048.388672
  0
LINE
  8
_0-0_0
  6
CONTINUOUS
 62
    7
 10
-766.53625550000004
 20
1048.7677309999999
 11
-766.28320350000013
 21
1048.6499940000001
  0
LINE
  8
_0-0_0
  6
CONTINUOUS
 62
    7
 10
-766.53625550000004
 20
1048.5322269999999
 11
-766.28320350000013
 21
1048.6499940000001
  0
LINE
  8
_0-0_0
  6
CONTINUOUS
 62
    7
 10
-766.56091349999986
 20
1049.001953
 11
-766.29687550000006
 21
1048.9113160000002
  0
LINE
  8
_0-0_0
  6
CONTINUOUS
 62
    7
 10
-766.53625550000004
 20
1048.7677309999999
 11
-766.29687550000006
 21
1048.9113160000002
  0
LINE
  8
_0-0_0
  6
CONTINUOUS
 62
    7
 10
-766.60986350000007
 20
1049.2323299999998
 11
-766.33776850000015
 21
1049.1697690000001
  0
LINE
  8
_0-0_0
  6
CONTINUOUS
 62
    7
 10
-766.56091349999986
 20
1049.001953
 11
-766.33776850000015
 21
1049.1697690000001
  0
LINE
  8
_0-0_0
  6
CONTINUOUS
 62
    7
 10
-766.68261750000022
 20
1049.4562989999999
 11
-766.40551749999997
 21
1049.4225160000001
  0
LINE
  8
_0-0_0
  6
CONTINUOUS
 62
    7
 10
-766.60986350000007
 20
1049.2323299999998
 11
-766.40551749999997
 21
1049.4225160000001
  0
LINE
  8
_0-0_0
  6
CONTINUOUS
 62
    7
 10
-766.7784425000001
 20
1049.6714480000001
 11
-766.49926749999997
 21
1049.6668090000001
  0
LINE
  8
_0-0_0
  6
CONTINUOUS
 62
    7
 10
-766.68261750000022
 20
1049.4562989999999
 11
-766.49926749999997
 21
1049.6668090000001
  0
LINE
  8
_0-0_0
  6
CONTINUOUS
 62
    7
 10
-766.89611850000006
 20
1049.8754269999999
 11
-766.61816450000026
 21
1049.8999939999999
  0
LINE
  8
_0-0_0
  6
CONTINUOUS
 62
    7
 10
-766.7784425000001
 20
1049.6714480000001
 11
-766.61816450000026
 21
1049.8999939999999
  0
LINE
  8
_0-0_0
  6
CONTINUOUS
 62
    7
 10
-770.19909650000011
 20
1050.3985600000001
 11
-770.25268550000021
 21
1050.6725160000001
  0
LINE
  8
_0-0_0
  6
CONTINUOUS
 62
    7
 10
-770.19909650000011
 20
1050.3985600000001
 11
-770.45605450000005
 21
1050.5078430000001
  0
LINE
  8
_0-0_0
  6
CONTINUOUS
 62
    7
 10
-770.37414549999983
 20
1050.2409670000002
 11
-770.45605450000005
 21
1050.5078430000001
  0
LINE
  8
_0-0_0
  6
CONTINUOUS
 62
    7
 10
-770.37414549999983
 20
1050.2409670000002
 11
-770.64099150000004
 21
1050.322815
  0
LINE
  8
_0-0_0
  6
CONTINUOUS
 62
    7
 10
-770.53173849999996
 20
1050.0659479999999
 11
-770.64099150000004
 21
1050.322815
  0
LINE
  8
_0-0_0
  6
CONTINUOUS
 62
    7
 10
-770.53173849999996
 20
1050.0659479999999
 11
-770.80578650000007
 21
1050.1194459999999
  0
LINE
  8
_0-0_0
  6
CONTINUOUS
 62
    7
 10
-770.67016650000005
 20
1049.8754269999999
 11
-770.80578650000007
 21
1050.1194459999999
  0
LINE
  8
_0-0_0
  6
CONTINUOUS
 62
    7
 10
-770.67016650000005
 20
1049.8754269999999
 11
-770.94824250000022
 21
1049.8999939999999
  0
LINE
  8
_0-0_0
  6
CONTINUOUS
 62
    7
 10
-770.78796350000005
 20
1049.6714480000001
 11
-770.94824250000022
 21
1049.8999939999999
  0
LINE
  8
_0-0_0
  6
CONTINUOUS
 62
    7
 10
-770.78796350000005
 20
1049.6714480000001
 11
-771.06701650000014
 21
1049.6668090000001
  0
LINE
  8
_0-0_0
  6
CONTINUOUS
 62
    7
 10
-770.88378950000026
 20
1049.4562989999999
 11
-771.06701650000014
 21
1049.6668090000001
  0
LINE
  8
_0-0_0
  6
CONTINUOUS
 62
    7
 10
-770.88378950000026
 20
1049.4562989999999
 11
-771.16088850000017
 21
1049.4225160000001
  0
LINE
  8
_0-0_0
  6
CONTINUOUS
 62
    7
 10
-770.95654350000007
 20
1049.2323299999998
 11
-771.16088850000017
 21
1049.4225160000001
  0
LINE
  8
_0-0_0
  6
CONTINUOUS
 62
    7
 10
-770.95654350000007
 20
1049.2323299999998
 11
-771.22851549999996
 21
1049.1697690000001
  0
LINE
  8
_0-0_0
  6
CONTINUOUS
 62
    7
 10
-771.00549349999994
 20
1049.001953
 11
-771.22851549999996
 21
1049.1697690000001
  0
LINE
  8
_0-0_0
  6
CONTINUOUS
 62
    7
 10
-771.00549349999994
 20
1049.001953
 11
-771.26953150000008
 21
1048.9113160000002
  0
LINE
  8
_0-0_0
  6
CONTINUOUS
 62
    7
 10
-771.0301515000001
 20
1048.7677309999999
 11
-771.26953150000008
 21
1048.9113160000002
  0
LINE
  8
_0-0_0
  6
CONTINUOUS
 62
    7
 10
-771.0301515000001
 20
1048.7677309999999
 11
-771.28320350000001
 21
1048.6499940000001
  0
LINE
  8
_0-0_0
  6
CONTINUOUS
 62
    7
 10
-771.0301515000001
 20
1048.5322269999999
 11
-771.28320350000001
 21
1048.6499940000001
  0
LINE
  8
_0-0_0
  6
CONTINUOUS
 62
    7
 10
-771.0301515000001
 20
1048.5322269999999
 11
-771.26953150000008
 21
1048.388672
  0
LINE
  8
_0-0_0
  6
CONTINUOUS
 62
    7
 10
-771.00549349999994
 20
1048.298004
 11
-771.26953150000008
 21
1048.388672
  0
LINE
  8
_0-0_0
  6
CONTINUOUS
 62
    7
 10
-771.00549349999994
 20
1048.298004
 11
-771.22851549999996
 21
1048.1301880000001
  0
LINE
  8
_0-0_0
  6
CONTINUOUS
 62
    7
 10
-770.95654350000007
 20
1048.0676270000001
 11
-771.22851549999996
 21
1048.1301880000001
  0
LINE
  8
_0-0_0
  6
CONTINUOUS
 62
    7
 10
-770.95654350000007
 20
1048.0676270000001
 11
-771.16088850000017
 21
1047.8774410000001
  0
LINE
  8
_0-0_0
  6
CONTINUOUS
 62
    7
 10
-770.88378950000026
 20
1047.843658
 11
-771.16088850000017
 21
1047.8774410000001
  0
LINE
  8
_0-0_0
  6
CONTINUOUS
 62
    7
 10
-770.88378950000026
 20
1047.843658
 11
-771.06701650000014
 21
1047.6331479999999
  0
LINE
  8
_0-0_0
  6
CONTINUOUS
 62
    7
 10
-770.78796350000005
 20
1047.62851
 11
-771.06701650000014
 21
1047.6331479999999
  0
CIRCLE
  8
_0-0_0
  6
CONTINUOUS
 62
    7
 10
-768.78320350000024
 20
1048.6499940000001
 40
2
  0
LINE
  8
_0-0_0
  6
CONTINUOUS
 62
    7
 10
-769.92419449999977
 20
1050.7385859999999
 11
-770.03320350000013
 21
1050.815063
  0
LINE
  8
_0-0_0
  6
CONTINUOUS
 62
    7
 10
-770.0086675
 20
1050.536987
 11
-770.03320350000013
 21
1050.815063
  0
LINE
  8
_0-0_0
  6
CONTINUOUS
 62
    7
 10
-770.0086675
 20
1050.536987
 11
-770.25268550000021
 21
1050.6725160000001
  0
LINE
  8
_0-0_0
  6
CONTINUOUS
 62
    7
 10
-766.89611850000006
 20
1049.8754269999999
 11
-766.76062050000007
 21
1050.1194459999999
  0
LINE
  8
_0-0_0
  6
CONTINUOUS
 62
    7
 10
-767.03466849999984
 20
1050.0659479999999
 11
-766.76062050000007
 21
1050.1194459999999
  0
LINE
  8
_0-0_0
  6
CONTINUOUS
 62
    7
 10
-767.03466849999984
 20
1050.0659479999999
 11
-766.92529350000007
 21
1050.322815
  0
LINE
  8
_0-0_0
  6
CONTINUOUS
 62
    7
 10
-767.19213849999994
 20
1050.2409670000002
 11
-766.92529350000007
 21
1050.322815
  0
LINE
  8
_0-0_0
  6
CONTINUOUS
 62
    7
 10
-767.19213849999994
 20
1050.2409670000002
 11
-767.11035150000009
 21
1050.5078430000001
  0
LINE
  8
_0-0_0
  6
CONTINUOUS
 62
    7
 10
-767.3671875
 20
1050.3985600000001
 11
-767.11035150000009
 21
1050.5078430000001
  0
LINE
  8
_0-0_0
  6
CONTINUOUS
 62
    7
 10
-767.3671875
 20
1050.3985600000001
 11
-767.31372049999993
 21
1050.6725160000001
  0
LINE
  8
_0-0_0
  6
CONTINUOUS
 62
    7
 10
-767.55773950000014
 20
1050.536987
 11
-767.31372049999993
 21
1050.6725160000001
  0
LINE
  8
_0-0_0
  6
CONTINUOUS
 62
    7
 10
-767.55773950000014
 20
1050.536987
 11
-767.53320350000001
 21
1050.815063
  0
LINE
  8
_0-0_0
  6
CONTINUOUS
 62
    7
 10
-767.7617184999998
 20
1050.654755
 11
-767.53320350000001
 21
1050.815063
  0
LINE
  8
_0-0_0
  6
CONTINUOUS
 62
    7
 10
-767.7617184999998
 20
1050.654755
 11
-767.76635750000003
 21
1050.9338379999999
  0
LINE
  8
_0-0_0
  6
CONTINUOUS
 62
    7
 10
-767.97680650000007
 20
1050.7505489999999
 11
-767.76635750000003
 21
1050.9338379999999
  0
LINE
  8
_0-0_0
  6
CONTINUOUS
 62
    7
 10
-767.97680650000007
 20
1050.7505489999999
 11
-768.0106205000003
 21
1051.0276180000001
  0
LINE
  8
_0-0_0
  6
CONTINUOUS
 62
    7
 10
-768.2008055
 20
1050.8233029999999
 11
-768.0106205000003
 21
1051.0276180000001
  0
LINE
  8
_0-0_0
  6
CONTINUOUS
 62
    7
 10
-768.2008055
 20
1050.8233029999999
 11
-768.26342750000015
 21
1051.095337
  0
LINE
  8
_0-0_0
  6
CONTINUOUS
 62
    7
 10
-768.43115249999994
 20
1050.872284
 11
-768.26342750000015
 21
1051.095337
  0
LINE
  8
_0-0_0
  6
CONTINUOUS
 62
    7
 10
-768.43115249999994
 20
1050.872284
 11
-768.52185050000014
 21
1051.1362919999999
  0
LINE
  8
_0-0_0
  6
CONTINUOUS
 62
    7
 10
-768.66540549999991
 20
1050.8969119999999
 11
-768.52185050000014
 21
1051.1362919999999
  0
LINE
  8
_0-0_0
  6
CONTINUOUS
 62
    7
 10
-768.66540549999991
 20
1050.8969119999999
 11
-768.78320350000024
 21
1051.1499939999999
  0
LINE
  8
_0-0_0
  6
CONTINUOUS
 62
    7
 10
-768.90100149999989
 20
1050.8969119999999
 11
-768.78320350000024
 21
1051.1499939999999
  0
LINE
  8
_0-0_0
  6
CONTINUOUS
 62
    7
 10
-768.90100149999989
 20
1050.8969119999999
 11
-769.0445555
 21
1051.1362919999999
  0
LINE
  8
_0-0_0
  6
CONTINUOUS
 62
    7
 10
-769.13513150000017
 20
1050.872284
 11
-769.0445555
 21
1051.1362919999999
  0
LINE
  8
_0-0_0
  6
CONTINUOUS
 62
    7
 10
-769.13513150000017
 20
1050.872284
 11
-769.30297849999999
 21
1051.095337
  0
LINE
  8
_0-0_0
  6
CONTINUOUS
 62
    7
 10
-769.36547849999977
 20
1050.8233029999999
 11
-769.30297849999999
 21
1051.095337
  0
LINE
  8
_0-0_0
  6
CONTINUOUS
 62
    7
 10
-769.36547849999977
 20
1050.8233029999999
 11
-769.55578650000018
 21
1051.0276180000001
  0
LINE
  8
_0-0_0
  6
CONTINUOUS
 62
    7
 10
-769.58947750000004
 20
1050.7505489999999
 11
-769.55578650000018
 21
1051.0276180000001
  0
LINE
  8
_0-0_0
  6
CONTINUOUS
 62
    7
 10
-769.58947750000004
 20
1050.7505489999999
 11
-769.80004850000012
 21
1050.9338379999999
  0
LINE
  8
_0-0_0
  6
CONTINUOUS
 62
    7
 10
-769.8046875
 20
1050.654755
 11
-769.80004850000012
 21
1050.9338379999999
  0
LINE
  8
_0-0_0
  6
CONTINUOUS
 62
    7
 10
-769.8046875
 20
1050.654755
 11
-769.92419449999977
 21
1050.7385859999999
  0
LINE
  8
_0-0_0
  6
CONTINUOUS
 62
    7
 10
-768.20104950000007
 20
1047.6499939999999
 11
-769.36535650000008
 21
1047.6499939999999
  0
LINE
  8
_0-0_0
  6
CONTINUOUS
 62
    7
 10
-769.36535650000008
 20
1047.6499939999999
 11
-769.93322750000016
 21
1048.6499940000001
  0
LINE
  8
_0-0_0
  6
CONTINUOUS
 62
    7
 10
-769.93322750000016
 20
1048.6499940000001
 11
-769.36535650000008
 21
1049.6499939999999
  0
LINE
  8
_0-0_0
  6
CONTINUOUS
 62
    7
 10
-769.36535650000008
 20
1049.6499939999999
 11
-768.20104950000007
 21
1049.6499939999999
  0
LINE
  8
_0-0_0
  6
CONTINUOUS
 62
    7
 10
-768.20104950000007
 20
1049.6499939999999
 11
-767.63317850000033
 21
1048.6499940000001
  0
LINE
  8
_0-0_0
  6
CONTINUOUS
 62
    7
 10
-767.63317850000033
 20
1048.6499940000001
 11
-768.20104950000007
 21
1047.6499939999999
  0
LINE
  8
_0-0_0
  6
CONTINUOUS
 62
    7
 10
-754.08313050000015
 20
1066.050293
 11
-754.08313050000015
 21
1066.056274
  0
LINE
  8
_0-0_0
  6
CONTINUOUS
 62
    7
 10
-754.08313050000015
 20
1067.25
 11
-754.08349649999991
 21
1067.237885
  0
LINE
  8
_0-0_0
  6
CONTINUOUS
 62
    7
 10
-754.08349649999991
 20
1046.6621089999999
 11
-754.08313050000015
 21
1046.6499939999999
  0
ARC
  8
_0-0_0
  6
CONTINUOUS
 62
    7
 10
-769.28320350000013
 20
1065.75
 40
2
 50
90.000003000000007
 51
93.840255999999997
  0
ARC
  8
_0-0_0
  6
CONTINUOUS
 62
    7
 10
-756.28320350000001
 20
1048.1499939999999
 40
2
 50
269.99999700000001
 51
273.84026499999999
  0
ENDSEC
  0
EOF
